999
DXF file: W3H_assy_2.dxf
999
Pro/ENGINEER 2014200 by Parametric Technology Corporation
  0
SECTION
  2
HEADER
  9
$ACADVER
  1
AC1021
  9
$DWGCODEPAGE
  3
ANSI_1252
  9
$EXTMAX
 10
22.0
 20
17.0
 30
0.0
  9
$EXTMIN
 10
0.0
 20
0.0
 30
0.0
  9
$LIMMIN
 10
0.0
 20
0.0
  9
$LIMMAX
 10
22.0
 20
17.0
  9
$VIEWCTR
 10
11.0
 20
8.5
  9
$VIEWSIZE
 40
17.0
  9
$CLAYER
  8
0
  9
$LTSCALE
 40
1.21
  9
$CELTYPE
  6
BYLAYER
  9
$DIMSCALE
 40
1.0
  9
$DIMASZ
 40
0.1875
  9
$DIMEXO
 40
0.0625
  9
$DIMDLI
 40
0.836
  9
$DIMEXE
 40
0.125
  9
$DIMCEN
 40
0.198
  9
$DIMLFAC
 40
1.0
  9
$DIMBLK
  1
_FILLED
  9
$DIMTXT
 40
0.1
  9
$DIMTOL
 70
0
  9
$DIMLIM
 70
0
  9
$DIMTFAC
 40
1.0
  9
$DIMGAP
 40
0.09
  9
$DIMDSEP
 70
46
  9
$AUNITS
 70
0
  9
$PDMODE
 70
3
  9
$PDSIZE
 40
0.3125
  9
$HANDSEED
  5
3B8
  9
$TILEMODE
 70
1
  9
$MEASUREMENT
 70
0
  9
$INSUNITS
 70
1
  0
ENDSEC
  0
SECTION
  2
CLASSES
  0
CLASS
  1
ACDBDICTIONARYWDFLT
  2
AcDbDictionaryWithDefault
  3
AutoCAD 2000
 90
0
 91
1
280
0
281
0
  0
CLASS
  1
ACDBPLACEHOLDER
  2
AcDbPlaceHolder
  3
AutoCAD 2000
 90
0
 91
1
280
0
281
0
  0
CLASS
  1
LAYOUT
  2
AcDbLayout
  3
AutoCAD 2000
 90
0
 91
0
280
0
281
0
  0
CLASS
  1
RASTERVARIABLES
  2
AcDbRasterVariables
  3
ISM
 90
0
 91
1
280
0
281
0
  0
CLASS
  1
IMAGEDEF
  2
AcDbRasterImageDef
  3
ISM
 90
0
 91
1
280
0
281
0
  0
CLASS
  1
IMAGEDEF_REACTOR
  2
AcDbRasterImageDefReactor
  3
ISM
 90
0
 91
1
280
0
281
0
  0
CLASS
  1
IMAGE
  2
AcDbRasterImage
  3
ISM
 90
127
 91
1
280
0
281
1
  0
CLASS
  1
TABLESTYLE
  2
AcDbTableStyle
  3
ObjectDBX Classes
 90
2047
 91
1
280
0
281
0
  0
CLASS
  1
ACAD_TABLE
  2
AcDbTable
  3
ObjectDBX Classes
 90
1025
 91
3
280
0
281
1
  0
ENDSEC
  0
SECTION
  2
TABLES
  0
TABLE
  2
VPORT
  5
8
100
AcDbSymbolTable
 70
2
  0
VPORT
  5
1F4
100
AcDbSymbolTableRecord
100
AcDbViewportTableRecord
  2
*ACTIVE
 70
0
 10
0.0
 20
0.0
 11
1.0
 21
1.0
 12
11.0
 22
8.5
 13
0.0
 23
0.0
 14
1.0
 24
1.0
 15
0.0
 25
0.0
 16
0.0
 26
0.0
 36
1.0
 17
0.0
 27
0.0
 37
0.0
 40
17.0
 41
1.2941176471
 42
50.0
 43
0.0
 44
0.0
 50
0.0
 51
0.0
 71
0
 72
100
 73
1
 74
1
 75
0
 76
0
 77
0
 78
0
  0
ENDTAB
  0
TABLE
  2
LTYPE
  5
5
100
AcDbSymbolTable
 70
6
  0
LTYPE
  5
14
100
AcDbSymbolTableRecord
100
AcDbLinetypeTableRecord
  2
BYBLOCK
 70
0
  3

 72
65
 73
0
 40
0.0
  0
LTYPE
  5
15
100
AcDbSymbolTableRecord
100
AcDbLinetypeTableRecord
  2
BYLAYER
 70
0
  3

 72
65
 73
0
 40
0.0
  0
LTYPE
  5
16
100
AcDbSymbolTableRecord
100
AcDbLinetypeTableRecord
  2
CONTINUOUS
 70
64
  3
Solid line
 72
65
 73
0
 40
0.0
  0
LTYPE
  5
1F5
100
AcDbSymbolTableRecord
100
AcDbLinetypeTableRecord
  2
CENTER
 70
64
  3
____ _ ____ _ ____ _ ____ _ ____ _ ____ _ ____
 72
65
 73
4
 40
0.6
 49
0.375
 74
0
 49
-0.075
 74
0
 49
0.075
 74
0
 49
-0.075
 74
0
  0
LTYPE
  5
1F6
100
AcDbSymbolTableRecord
100
AcDbLinetypeTableRecord
  2
HIDDEN
 70
64
  3
- - - - - - - - - - - - - - - - - - - -
 72
65
 73
2
 40
0.2
 49
0.1
 74
0
 49
-0.1
 74
0
  0
LTYPE
  5
1F7
100
AcDbSymbolTableRecord
100
AcDbLinetypeTableRecord
  2
PHANTOM
 70
64
  3
_____ _ _ _____ _ _ _____ _ _ _____
 72
65
 73
6
 40
0.8
 49
0.45
 74
0
 49
-0.05
 74
0
 49
0.1
 74
0
 49
-0.05
 74
0
 49
0.1
 74
0
 49
-0.05
 74
0
  0
LTYPE
  5
1F8
100
AcDbSymbolTableRecord
100
AcDbLinetypeTableRecord
  2
DOT
 70
64
  3
. . . . . . . . . . . . . . . . . . . .
 72
65
 73
2
 40
0.2
 49
0.1
 74
0
 49
-0.1
 74
0
  0
LTYPE
  5
1F9
100
AcDbSymbolTableRecord
100
AcDbLinetypeTableRecord
  2
DASHED
 70
64
  3
- - - - - - - - - - - - - - - - - - - -
 72
65
 73
2
 40
0.2
 49
0.1
 74
0
 49
-0.1
 74
0
  0
ENDTAB
  0
TABLE
  2
LAYER
  5
2
100
AcDbSymbolTable
 70
36
  0
LAYER
  5
10
100
AcDbSymbolTableRecord
100
AcDbLayerTableRecord
  2
0
 70
0
 62
7
  6
CONTINUOUS
370
-3
390
F
  0
LAYER
  5
1FA
100
AcDbSymbolTableRecord
100
AcDbLayerTableRecord
  2
DEFAULT_1
 70
0
 62
7
  6
CENTER
370
-3
390
F
  0
LAYER
  5
1FB
100
AcDbSymbolTableRecord
100
AcDbLayerTableRecord
  2
DEFAULT_2
 70
0
 62
8
  6
HIDDEN
370
-3
390
F
  0
LAYER
  5
1FC
100
AcDbSymbolTableRecord
100
AcDbLayerTableRecord
  2
DEFAULT_3
 70
0
 62
7
  6
PHANTOM
370
-3
390
F
  0
LAYER
  5
1FD
100
AcDbSymbolTableRecord
100
AcDbLayerTableRecord
  2
01___PRT_ALL_DTM_PLN
 70
0
 62
7
  6
CONTINUOUS
370
-3
390
F
  0
LAYER
  5
1FE
100
AcDbSymbolTableRecord
100
AcDbLayerTableRecord
  2
01___PRT_DEF_DTM_PLN
 70
0
 62
7
  6
CONTINUOUS
370
-3
390
F
  0
LAYER
  5
1FF
100
AcDbSymbolTableRecord
100
AcDbLayerTableRecord
  2
02___PRT_ALL_AXES
 70
0
 62
7
  6
CONTINUOUS
370
-3
390
F
  0
LAYER
  5
200
100
AcDbSymbolTableRecord
100
AcDbLayerTableRecord
  2
03___PRT_ALL_CURVES
 70
0
 62
7
  6
CONTINUOUS
370
-3
390
F
  0
LAYER
  5
201
100
AcDbSymbolTableRecord
100
AcDbLayerTableRecord
  2
04___PRT_ALL_DTM_PNT
 70
0
 62
7
  6
CONTINUOUS
370
-3
390
F
  0
LAYER
  5
202
100
AcDbSymbolTableRecord
100
AcDbLayerTableRecord
  2
05___PRT_ALL_DTM_CSYS
 70
0
 62
7
  6
CONTINUOUS
370
-3
390
F
  0
LAYER
  5
203
100
AcDbSymbolTableRecord
100
AcDbLayerTableRecord
  2
05___PRT_DEF_DTM_CSYS
 70
0
 62
7
  6
CONTINUOUS
370
-3
390
F
  0
LAYER
  5
204
100
AcDbSymbolTableRecord
100
AcDbLayerTableRecord
  2
06___PRT_ALL_SURFS
 70
0
 62
7
  6
CONTINUOUS
370
-3
390
F
  0
LAYER
  5
205
100
AcDbSymbolTableRecord
100
AcDbLayerTableRecord
  2
DATUM_PLANES
 70
0
 62
7
  6
CONTINUOUS
370
-3
390
F
  0
LAYER
  5
206
100
AcDbSymbolTableRecord
100
AcDbLayerTableRecord
  2
PORT_AREAS
 70
0
 62
7
  6
CONTINUOUS
370
-3
390
F
  0
LAYER
  5
207
100
AcDbSymbolTableRecord
100
AcDbLayerTableRecord
  2
SUNNBOMCOSMETIC
 70
0
 62
7
  6
CONTINUOUS
370
-3
390
F
  0
LAYER
  5
208
100
AcDbSymbolTableRecord
100
AcDbLayerTableRecord
  2
SUNNBOMSTAMPING
 70
0
 62
7
  6
CONTINUOUS
370
-3
390
F
  0
LAYER
  5
209
100
AcDbSymbolTableRecord
100
AcDbLayerTableRecord
  2
THREADS
 70
0
 62
7
  6
CONTINUOUS
370
-3
390
F
  0
ENDTAB
  0
TABLE
  2
STYLE
  5
3
100
AcDbSymbolTable
 70
1
  0
STYLE
  5
11
100
AcDbSymbolTableRecord
100
AcDbTextStyleTableRecord
  2
STANDARD
 70
0
 40
0.0
 41
0.8
 50
0.0
 71
0
 42
0.2
  3
txt
  4

  0
STYLE
  5
20A
100
AcDbSymbolTableRecord
100
AcDbTextStyleTableRecord
  2
TEXTSTYLE_1
 70
0
 40
0.0
 41
0.8
 50
0.0
 71
0
 42
0.2
  3
gdt
  4

  0
ENDTAB
  0
TABLE
  2
VIEW
  5
6
100
AcDbSymbolTable
 70
0
  0
ENDTAB
  0
TABLE
  2
UCS
  5
7
100
AcDbSymbolTable
 70
0
  0
ENDTAB
  0
TABLE
  2
APPID
  5
9
100
AcDbSymbolTable
 70
1
  0
APPID
  5
20B
100
AcDbSymbolTableRecord
100
AcDbRegAppTableRecord
  2
ACAD
 70
0
  0
ENDTAB
  0
TABLE
  2
BLOCK_RECORD
  5
1
100
AcDbSymbolTable
 70
0
  0
BLOCK_RECORD
  5
20C
100
AcDbSymbolTableRecord
100
AcDbBlockTableRecord
  2
*Model_Space
  0
BLOCK_RECORD
  5
20D
100
AcDbSymbolTableRecord
100
AcDbBlockTableRecord
  2
*Paper_Space
  0
BLOCK_RECORD
  5
20E
100
AcDbSymbolTableRecord
100
AcDbBlockTableRecord
  2
SUN_FIRST_THIRD_ANGLE_BL0
  0
BLOCK_RECORD
  5
20F
100
AcDbSymbolTableRecord
100
AcDbBlockTableRecord
  2
*T1
  0
BLOCK_RECORD
  5
210
100
AcDbSymbolTableRecord
100
AcDbBlockTableRecord
  2
*T2
  0
BLOCK_RECORD
  5
211
100
AcDbSymbolTableRecord
100
AcDbBlockTableRecord
  2
*T3
  0
ENDTAB
  0
TABLE
  2
DIMSTYLE
  5
A
100
AcDbSymbolTable
 70
1
100
AcDbDimStyleTable
 71
0
  0
DIMSTYLE
105
212
100
AcDbSymbolTableRecord
100
AcDbDimStyleTableRecord
  2
STANDARD
 70
0
  3

  4

 40
1.0
 41
0.1875
 42
0.0625
 43
0.38
 44
0.125
 45
0.0
 46
0.0
 47
0.001
 48
0.001
140
0.1
141
0.09
142
0.0
143
25.4
144
1.0
145
0.0
146
1.0
147
0.09
 71
0.0
 72
0.0
 73
1
 74
1
 75
0
 76
0
 77
0
 78
4
170
0
171
2
172
0
173
0
174
0
175
0
176
0
177
0
178
0
270
2
271
3
272
3
273
2
274
2
275
0
280
0
281
0
282
0
283
1
284
4
285
0
286
0
287
3
288
0
340
11
278
46
  0
ENDTAB
  0
ENDSEC
  0
SECTION
  2
BLOCKS
  0
BLOCK
  5
20
100
AcDbEntity
  8
0
100
AcDbBlockBegin
  2
*Model_Space
 70
0
 10
0.0
 20
0.0
 30
0.0
  3
*Model_Space
  1

  0
ENDBLK
  5
21
100
AcDbEntity
  8
0
100
AcDbBlockEnd
  0
BLOCK
  5
1C
100
AcDbEntity
  8
0
100
AcDbBlockBegin
  2
*Paper_Space
 70
0
 10
0.0
 20
0.0
 30
0.0
  3
*Paper_Space
  1

  0
ENDBLK
  5
1D
100
AcDbEntity
  8
0
100
AcDbBlockEnd
  0
BLOCK
  5
213
100
AcDbEntity
  8
0
100
AcDbBlockBegin
 62
2
  6
CONTINUOUS
  2
SUN_FIRST_THIRD_ANGLE_BL0
 70
64
 10
20.4816717061
 20
1.2289683772
  3
SUN_FIRST_THIRD_ANGLE_BL0
  1

  0
TEXT
  5
214
100
AcDbEntity
  8
0
100
AcDbText
 62
2
  6
CONTINUOUS
 10
19.4750896608
 20
1.4136269581
  7
STANDARD
 40
0.08
  1
FIRST ANGLE
 41
0.8
 72
0
100
AcDbText
  0
TEXT
  5
215
100
AcDbEntity
  8
0
100
AcDbText
 62
2
  6
CONTINUOUS
 10
20.7842537513
 20
1.4047600029
  7
STANDARD
 40
0.08
  1
THIRD ANGLE
 41
0.8
 72
0
100
AcDbText
  0
LINE
  5
216
100
AcDbEntity
  8
0
100
AcDbLine
 62
7
  6
CONTINUOUS
 10
19.4767170086
 20
1.1727031207
 11
19.6334271527
 21
1.1717972817
  0
LINE
  5
217
100
AcDbEntity
  8
0
100
AcDbLine
 62
7
  6
CONTINUOUS
 10
19.6596964832
 20
1.1717972817
 11
19.6950230232
 21
1.171593082
  0
LINE
  5
218
100
AcDbEntity
  8
0
100
AcDbLine
 62
7
  6
CONTINUOUS
 10
19.7194818561
 20
1.1708914427
 11
19.8852396156
 21
1.1699333054
  0
LINE
  5
219
100
AcDbEntity
  8
0
100
AcDbLine
 62
7
  6
CONTINUOUS
 10
19.4758111696
 20
1.2723454088
 11
19.88525039
 21
1.3511534004
  0
LINE
  5
21A
100
AcDbEntity
  8
0
100
AcDbLine
 62
7
  6
CONTINUOUS
 10
19.88525039
 20
1.3511534004
 11
19.8831348489
 21
0.9851647912
  0
LINE
  5
21B
100
AcDbEntity
  8
0
100
AcDbLine
 62
7
  6
CONTINUOUS
 10
19.8831348489
 20
0.9851647912
 11
19.4767170086
 21
1.0658141206
  0
LINE
  5
21C
100
AcDbEntity
  8
0
100
AcDbLine
 62
7
  6
CONTINUOUS
 10
19.4767170086
 20
1.0658141206
 11
19.4779056764
 21
1.2714536432
  0
CIRCLE
  5
21D
100
AcDbEntity
  8
0
100
AcDbCircle
 62
7
  6
CONTINUOUS
 10
20.2068232291
 20
1.1717972817
 40
0.175742101
  0
CIRCLE
  5
21E
100
AcDbEntity
  8
0
100
AcDbCircle
 62
7
  6
CONTINUOUS
 10
20.2068232291
 20
1.1717972817
 40
0.1005522074
  0
LINE
  5
21F
100
AcDbEntity
  8
0
100
AcDbLine
 62
7
  6
CONTINUOUS
 10
20.2077290681
 20
1.3756110529
 11
20.2071171714
 21
1.2379342989
  0
LINE
  5
220
100
AcDbEntity
  8
0
100
AcDbLine
 62
7
  6
CONTINUOUS
 10
20.2077290681
 20
1.2016899681
 11
20.2074674401
 21
1.1428236749
  0
LINE
  5
221
100
AcDbEntity
  8
0
100
AcDbLine
 62
7
  6
CONTINUOUS
 10
20.208634907
 20
1.101141841
 11
20.2080230104
 21
0.963465087
  0
LINE
  5
222
100
AcDbEntity
  8
0
100
AcDbLine
 62
7
  6
CONTINUOUS
 10
20.0066328138
 20
1.1745147986
 11
20.1443095678
 21
1.1739029019
  0
LINE
  5
223
100
AcDbEntity
  8
0
100
AcDbLine
 62
7
  6
CONTINUOUS
 10
20.1832714155
 20
1.1727031207
 11
20.238153505
 21
1.172335442
  0
LINE
  5
224
100
AcDbEntity
  8
0
100
AcDbLine
 62
7
  6
CONTINUOUS
 10
20.2756669918
 20
1.1717972817
 11
20.407916871
 21
1.1712095044
  0
CIRCLE
  5
225
100
AcDbEntity
  8
0
100
AcDbCircle
 62
7
  6
CONTINUOUS
 10
20.7509457401
 20
1.1693297793
 40
0.1722024983
  0
CIRCLE
  5
226
100
AcDbEntity
  8
0
100
AcDbCircle
 62
7
  6
CONTINUOUS
 10
20.7509457401
 20
1.1693297793
 40
0.0985164967
  0
LINE
  5
227
100
AcDbEntity
  8
0
100
AcDbLine
 62
7
  6
CONTINUOUS
 10
20.7169767782
 20
1.170462078
 11
20.7825395137
 21
1.1682766535
  0
LINE
  5
228
100
AcDbEntity
  8
0
100
AcDbLine
 62
7
  6
CONTINUOUS
 10
20.8177513651
 20
1.1693297793
 11
20.947965719
 21
1.1693297793
  0
LINE
  5
229
100
AcDbEntity
  8
0
100
AcDbLine
 62
7
  6
CONTINUOUS
 10
20.6875370113
 20
1.170462078
 11
20.5573226574
 21
1.170462078
  0
LINE
  5
22A
100
AcDbEntity
  8
0
100
AcDbLine
 62
7
  6
CONTINUOUS
 10
20.7486811426
 20
1.1987695462
 11
20.7486811426
 21
1.1432869085
  0
LINE
  5
22B
100
AcDbEntity
  8
0
100
AcDbLine
 62
7
  6
CONTINUOUS
 10
20.7498134414
 20
1.1059210505
 11
20.7498134414
 21
0.9757066966
  0
LINE
  5
22C
100
AcDbEntity
  8
0
100
AcDbLine
 62
7
  6
CONTINUOUS
 10
20.7486811426
 20
1.2338708068
 11
20.7486811426
 21
1.3640851607
  0
LINE
  5
22D
100
AcDbEntity
  8
0
100
AcDbLine
 62
7
  6
CONTINUOUS
 10
21.0702539817
 20
1.2701043662
 11
21.4790138229
 21
1.3448360823
  0
LINE
  5
22E
100
AcDbEntity
  8
0
100
AcDbLine
 62
7
  6
CONTINUOUS
 10
21.4790138229
 20
1.3448360823
 11
21.4790138229
 21
0.9779712941
  0
LINE
  5
22F
100
AcDbEntity
  8
0
100
AcDbLine
 62
7
  6
CONTINUOUS
 10
21.4790138229
 20
0.9779712941
 11
21.069121683
 21
1.0617614
  0
LINE
  5
230
100
AcDbEntity
  8
0
100
AcDbLine
 62
7
  6
CONTINUOUS
 10
21.0702539817
 20
1.2701043662
 11
21.069121683
 21
1.0617614
  0
LINE
  5
231
100
AcDbEntity
  8
0
100
AcDbLine
 62
7
  6
CONTINUOUS
 10
21.4790138229
 20
1.1693297793
 11
21.3159628059
 21
1.1693297793
  0
LINE
  5
232
100
AcDbEntity
  8
0
100
AcDbLine
 62
7
  6
CONTINUOUS
 10
21.2876553377
 20
1.1693297793
 11
21.2502894796
 21
1.1693297793
  0
LINE
  5
233
100
AcDbEntity
  8
0
100
AcDbLine
 62
7
  6
CONTINUOUS
 10
21.2208497126
 20
1.1659328831
 11
21.0713862804
 21
1.1659328831
  0
LINE
  5
234
100
AcDbEntity
  8
0
100
AcDbLine
 62
7
  6
CONTINUOUS
 10
20.4796138713
 20
1.5284908897
 11
20.4766766948
 21
0.9294458646
  0
ENDBLK
  5
235
100
AcDbEntity
  8
0
  6
BYBLOCK
 62
0
100
AcDbBlockEnd
  0
BLOCK
  5
236
100
AcDbEntity
  8
0
100
AcDbBlockBegin
  2
*T1
 70
1
 10
0.0
 20
0.0
  3
*T1
  1

  0
LINE
  5
237
100
AcDbEntity
  8
0
100
AcDbLine
 62
2
  6
CONTINUOUS
 10
9.275
 20
0.0
 11
-0.0
 21
0.0
  0
LINE
  5
238
100
AcDbEntity
  8
0
100
AcDbLine
 62
2
  6
CONTINUOUS
 10
9.275
 20
0.0
 11
9.275
 21
1.25
  0
LINE
  5
239
100
AcDbEntity
  8
0
100
AcDbLine
 62
2
  6
CONTINUOUS
 10
9.275
 20
0.625
 11
-0.0
 21
0.625
  0
LINE
  5
23A
100
AcDbEntity
  8
0
100
AcDbLine
 62
2
  6
CONTINUOUS
 10
9.275
 20
1.25
 11
-0.0
 21
1.25
  0
LINE
  5
23B
100
AcDbEntity
  8
0
100
AcDbLine
 62
2
  6
CONTINUOUS
 10
6.8
 20
0.0
 11
6.8
 21
1.25
  0
LINE
  5
23C
100
AcDbEntity
  8
0
100
AcDbLine
 62
2
  6
CONTINUOUS
 10
6.4
 20
0.0
 11
6.4
 21
0.625
  0
LINE
  5
23D
100
AcDbEntity
  8
0
100
AcDbLine
 62
2
  6
CONTINUOUS
 10
5.9
 20
0.0
 11
5.9
 21
0.625
  0
LINE
  5
23E
100
AcDbEntity
  8
0
100
AcDbLine
 62
2
  6
CONTINUOUS
 10
5.2
 20
0.0
 11
5.2
 21
0.625
  0
LINE
  5
23F
100
AcDbEntity
  8
0
100
AcDbLine
 62
2
  6
CONTINUOUS
 10
4.1
 20
0.0
 11
4.1
 21
1.25
  0
LINE
  5
240
100
AcDbEntity
  8
0
100
AcDbLine
 62
2
  6
CONTINUOUS
 10
-0.0
 20
0.0
 11
-0.0
 21
1.25
  0
MTEXT
  5
241
100
AcDbEntity
  8
0
100
AcDbMText
 62
2
  6
CONTINUOUS
  7
STANDARD
 71
2
 72
1
 10
6.6
 20
0.325
 30
0.0
 11
1.0
 21
0.0
 31
0.0
 44
0.9
  1
2
 40
0.125
 41
0.2
  0
MTEXT
  5
242
100
AcDbEntity
  8
0
100
AcDbMText
 62
2
  6
CONTINUOUS
  7
STANDARD
 71
2
 72
1
 10
6.15
 20
0.325
 30
0.0
 11
1.0
 21
0.0
 31
0.0
 44
0.9
  1
C
 40
0.125
 41
0.2
  0
MTEXT
  5
243
100
AcDbEntity
  8
0
100
AcDbMText
 62
2
  6
CONTINUOUS
  7
STANDARD
 71
2
 72
1
 10
5.55
 20
0.325
 30
0.0
 11
1.0
 21
0.0
 31
0.0
 44
0.9
  1
1.000
 40
0.125
 41
1.0
  0
MTEXT
  5
244
100
AcDbEntity
  8
0
100
AcDbMText
 62
2
  6
CONTINUOUS
  7
STANDARD
 71
2
 72
1
 10
4.65
 20
0.325
 30
0.0
 11
1.0
 21
0.0
 31
0.0
 44
0.9
  1
Sep-11-19
 40
0.125
 41
1.8
  0
MTEXT
  5
245
100
AcDbEntity
  8
0
100
AcDbMText
 62
2
  6
CONTINUOUS
  7
STANDARD
 71
2
 72
1
 10
2.05
 20
0.4625
 30
0.0
 11
1.0
 21
0.0
 31
0.0
 44
0.9
  1
T-2A Line mount\P(See Technical Data for Body Features)
 40
0.125
 41
7.6
  0
MTEXT
  5
246
100
AcDbEntity
  8
0
100
AcDbMText
 62
2
  6
CONTINUOUS
  7
STANDARD
 71
1
 72
1
 10
6.45
 20
0.5625
 30
0.0
 11
1.0
 21
0.0
 31
0.0
 44
0.9
  1
SHEET
 40
0.06
 41
0.48
  0
MTEXT
  5
247
100
AcDbEntity
  8
0
100
AcDbMText
 62
2
  6
CONTINUOUS
  7
STANDARD
 71
1
 72
1
 10
5.95
 20
0.5625
 30
0.0
 11
1.0
 21
0.0
 31
0.0
 44
0.9
  1
DWG SIZE
 40
0.06
 41
0.768
  0
MTEXT
  5
248
100
AcDbEntity
  8
0
100
AcDbMText
 62
2
  6
CONTINUOUS
  7
STANDARD
 71
1
 72
1
 10
5.25
 20
0.5625
 30
0.0
 11
1.0
 21
0.0
 31
0.0
 44
0.9
  1
SCALE
 40
0.06
 41
0.48
  0
MTEXT
  5
249
100
AcDbEntity
  8
0
100
AcDbMText
 62
2
  6
CONTINUOUS
  7
STANDARD
 71
1
 72
1
 10
4.15
 20
0.5625
 30
0.0
 11
1.0
 21
0.0
 31
0.0
 44
0.9
  1
DATE
 40
0.06
 41
0.384
  0
MTEXT
  5
24A
100
AcDbEntity
  8
0
100
AcDbMText
 62
2
  6
CONTINUOUS
  7
STANDARD
 71
1
 72
1
 10
0.05
 20
0.5625
 30
0.0
 11
1.0
 21
0.0
 31
0.0
 44
0.9
  1
DESCRIPTION
 40
0.06
 41
1.056
  0
MTEXT
  5
24B
100
AcDbEntity
  8
0
100
AcDbMText
 62
2
  6
CONTINUOUS
  7
STANDARD
 71
2
 72
1
 10
5.45
 20
1.0375
 30
0.0
 11
1.0
 21
0.0
 31
0.0
 44
0.9
  1
ALL DIMENSIONS IN INCH\PVIEWS ARE THIRD ANGLE
 40
0.12
 41
4.224
  0
MTEXT
  5
24C
100
AcDbEntity
  8
0
100
AcDbMText
 62
2
  6
CONTINUOUS
  7
STANDARD
 71
2
 72
1
 10
2.05
 20
0.95
 30
0.0
 11
1.0
 21
0.0
 31
0.0
 44
0.9
  1
W3H
 40
0.125
 41
0.6
  0
MTEXT
  5
24D
100
AcDbEntity
  8
0
100
AcDbMText
 62
2
  6
CONTINUOUS
  7
STANDARD
 71
1
 72
1
 10
0.05
 20
1.1875
 30
0.0
 11
1.0
 21
0.0
 31
0.0
 44
0.9
  1
MODEL
 40
0.06
 41
0.48
  0
ENDBLK
  5
24E
100
AcDbEntity
  8
0
  6
BYBLOCK
 62
0
100
AcDbBlockEnd
  0
BLOCK
  5
24F
100
AcDbEntity
  8
0
100
AcDbBlockBegin
  2
*T2
 70
1
 10
0.0
 20
0.0
  3
*T2
  1

  0
LINE
  5
250
100
AcDbEntity
  8
0
100
AcDbLine
 62
2
  6
CONTINUOUS
 10
0.0
 20
0.0
 11
9.055
 21
0.0
  0
LINE
  5
251
100
AcDbEntity
  8
0
100
AcDbLine
 62
2
  6
CONTINUOUS
 10
0.0
 20
0.0
 11
0.0
 21
-2.594
  0
LINE
  5
252
100
AcDbEntity
  8
0
100
AcDbLine
 62
2
  6
CONTINUOUS
 10
0.0
 20
-0.344
 11
9.055
 21
-0.344
  0
LINE
  5
253
100
AcDbEntity
  8
0
100
AcDbLine
 62
2
  6
CONTINUOUS
 10
0.0
 20
-0.594
 11
9.055
 21
-0.594
  0
LINE
  5
254
100
AcDbEntity
  8
0
100
AcDbLine
 62
2
  6
CONTINUOUS
 10
0.0
 20
-0.844
 11
9.055
 21
-0.844
  0
LINE
  5
255
100
AcDbEntity
  8
0
100
AcDbLine
 62
2
  6
CONTINUOUS
 10
0.0
 20
-1.094
 11
9.055
 21
-1.094
  0
LINE
  5
256
100
AcDbEntity
  8
0
100
AcDbLine
 62
2
  6
CONTINUOUS
 10
0.0
 20
-1.344
 11
9.055
 21
-1.344
  0
LINE
  5
257
100
AcDbEntity
  8
0
100
AcDbLine
 62
2
  6
CONTINUOUS
 10
0.0
 20
-1.594
 11
9.055
 21
-1.594
  0
LINE
  5
258
100
AcDbEntity
  8
0
100
AcDbLine
 62
2
  6
CONTINUOUS
 10
0.0
 20
-1.844
 11
9.055
 21
-1.844
  0
LINE
  5
259
100
AcDbEntity
  8
0
100
AcDbLine
 62
2
  6
CONTINUOUS
 10
0.0
 20
-2.094
 11
9.055
 21
-2.094
  0
LINE
  5
25A
100
AcDbEntity
  8
0
100
AcDbLine
 62
2
  6
CONTINUOUS
 10
0.0
 20
-2.344
 11
9.055
 21
-2.344
  0
LINE
  5
25B
100
AcDbEntity
  8
0
100
AcDbLine
 62
2
  6
CONTINUOUS
 10
0.0
 20
-2.594
 11
9.055
 21
-2.594
  0
LINE
  5
25C
100
AcDbEntity
  8
0
100
AcDbLine
 62
2
  6
CONTINUOUS
 10
3.055
 20
0.0
 11
3.055
 21
-2.594
  0
LINE
  5
25D
100
AcDbEntity
  8
0
100
AcDbLine
 62
2
  6
CONTINUOUS
 10
9.055
 20
0.0
 11
9.055
 21
-2.594
  0
MTEXT
  5
25E
100
AcDbEntity
  8
0
100
AcDbMText
 62
2
  6
CONTINUOUS
  7
STANDARD
 71
2
 72
1
 10
1.5275
 20
-0.0995
 30
0.0
 11
1.0
 21
0.0
 31
0.0
 44
0.9
  1
Technical Data
 40
0.145
 41
3.248
  0
MTEXT
  5
25F
100
AcDbEntity
  8
0
100
AcDbMText
 62
2
  6
CONTINUOUS
  7
STANDARD
 71
2
 72
1
 10
4.555
 20
-0.0995
 30
0.0
 11
1.0
 21
0.0
 31
0.0
 44
0.9
  1
U.S. Units
 40
0.145
 41
2.32
  0
MTEXT
  5
260
100
AcDbEntity
  8
0
100
AcDbMText
 62
2
  6
CONTINUOUS
  7
STANDARD
 71
2
 72
1
 10
7.555
 20
-0.0995
 30
0.0
 11
1.0
 21
0.0
 31
0.0
 44
0.9
  1
Metric Units
 40
0.145
 41
2.784
  0
MTEXT
  5
261
100
AcDbEntity
  8
0
100
AcDbMText
 62
2
  6
CONTINUOUS
  7
STANDARD
 71
2
 72
1
 10
1.5275
 20
-0.4065
 30
0.0
 11
1.0
 21
0.0
 31
0.0
 44
0.9
  1
Cavity
 40
0.125
 41
1.2
  0
MTEXT
  5
262
100
AcDbEntity
  8
0
100
AcDbMText
 62
2
  6
CONTINUOUS
  7
STANDARD
 71
2
 72
1
 10
6.055
 20
-0.4065
 30
0.0
 11
1.0
 21
0.0
 31
0.0
 44
0.9
  1
T-2A
 40
0.125
 41
0.8
  0
MTEXT
  5
263
100
AcDbEntity
  8
0
100
AcDbMText
 62
2
  6
CONTINUOUS
  7
STANDARD
 71
2
 72
1
 10
1.5275
 20
-0.6565
 30
0.0
 11
1.0
 21
0.0
 31
0.0
 44
0.9
  1
Body Features
 40
0.125
 41
2.6
  0
MTEXT
  5
264
100
AcDbEntity
  8
0
100
AcDbMText
 62
2
  6
CONTINUOUS
  7
STANDARD
 71
2
 72
1
 10
6.055
 20
-0.6565
 30
0.0
 11
1.0
 21
0.0
 31
0.0
 44
0.9
  1
Ninety degree with reverse flow check - reducing
 40
0.125
 41
9.6
  0
MTEXT
  5
265
100
AcDbEntity
  8
0
100
AcDbMText
 62
2
  6
CONTINUOUS
  7
STANDARD
 71
2
 72
1
 10
1.5275
 20
-0.9065
 30
0.0
 11
1.0
 21
0.0
 31
0.0
 44
0.9
  1
Body Type
 40
0.125
 41
1.8
  0
MTEXT
  5
266
100
AcDbEntity
  8
0
100
AcDbMText
 62
2
  6
CONTINUOUS
  7
STANDARD
 71
2
 72
1
 10
6.055
 20
-0.9065
 30
0.0
 11
1.0
 21
0.0
 31
0.0
 44
0.9
  1
Line mount
 40
0.125
 41
2.0
  0
MTEXT
  5
267
100
AcDbEntity
  8
0
100
AcDbMText
 62
2
  6
CONTINUOUS
  7
STANDARD
 71
2
 72
1
 10
1.5275
 20
-1.1565
 30
0.0
 11
1.0
 21
0.0
 31
0.0
 44
0.9
  1
Interface
 40
0.125
 41
1.8
  0
MTEXT
  5
268
100
AcDbEntity
  8
0
100
AcDbMText
 62
2
  6
CONTINUOUS
  7
STANDARD
 71
2
 72
1
 10
6.055
 20
-1.1565
 30
0.0
 11
1.0
 21
0.0
 31
0.0
 44
0.9
  1
None
 40
0.125
 41
0.8
  0
MTEXT
  5
269
100
AcDbEntity
  8
0
100
AcDbMText
 62
2
  6
CONTINUOUS
  7
STANDARD
 71
2
 72
1
 10
1.5275
 20
-1.4065
 30
0.0
 11
1.0
 21
0.0
 31
0.0
 44
0.9
  1
Open Cavity Quantity
 40
0.125
 41
4.0
  0
MTEXT
  5
26A
100
AcDbEntity
  8
0
100
AcDbMText
 62
2
  6
CONTINUOUS
  7
STANDARD
 71
2
 72
1
 10
6.055
 20
-1.4065
 30
0.0
 11
1.0
 21
0.0
 31
0.0
 44
0.9
  1
1
 40
0.125
 41
0.2
  0
MTEXT
  5
26B
100
AcDbEntity
  8
0
100
AcDbMText
 62
2
  6
CONTINUOUS
  7
STANDARD
 71
2
 72
1
 10
1.5275
 20
-1.6565
 30
0.0
 11
1.0
 21
0.0
 31
0.0
 44
0.9
  1
Weight
 40
0.125
 41
1.2
  0
MTEXT
  5
26C
100
AcDbEntity
  8
0
100
AcDbMText
 62
2
  6
CONTINUOUS
  7
STANDARD
 71
2
 72
1
 10
4.555
 20
-1.6565
 30
0.0
 11
1.0
 21
0.0
 31
0.0
 44
0.9
  1
1.859 lb.
 40
0.125
 41
1.8
  0
MTEXT
  5
26D
100
AcDbEntity
  8
0
100
AcDbMText
 62
2
  6
CONTINUOUS
  7
STANDARD
 71
2
 72
1
 10
7.555
 20
-1.6565
 30
0.0
 11
1.0
 21
0.0
 31
0.0
 44
0.9
  1
0,843 kg.
 40
0.125
 41
1.8
  0
MTEXT
  5
26E
100
AcDbEntity
  8
0
100
AcDbMText
 62
2
  6
CONTINUOUS
  7
STANDARD
 71
2
 72
1
 10
1.5275
 20
-1.9065
 30
0.0
 11
1.0
 21
0.0
 31
0.0
 44
0.9
  1
Mounting Hole Diameter
 40
0.125
 41
4.4
  0
MTEXT
  5
26F
100
AcDbEntity
  8
0
100
AcDbMText
 62
2
  6
CONTINUOUS
  7
STANDARD
 71
2
 72
1
 10
4.555
 20
-1.9065
 30
0.0
 11
1.0
 21
0.0
 31
0.0
 44
0.9
  1
.42 in.
 40
0.125
 41
1.4
  0
MTEXT
  5
270
100
AcDbEntity
  8
0
100
AcDbMText
 62
2
  6
CONTINUOUS
  7
STANDARD
 71
2
 72
1
 10
7.555
 20
-1.9065
 30
0.0
 11
1.0
 21
0.0
 31
0.0
 44
0.9
  1
10,7 mm
 40
0.125
 41
1.4
  0
MTEXT
  5
271
100
AcDbEntity
  8
0
100
AcDbMText
 62
2
  6
CONTINUOUS
  7
STANDARD
 71
2
 72
1
 10
1.5275
 20
-2.1565
 30
0.0
 11
1.0
 21
0.0
 31
0.0
 44
0.9
  1
Mounting Hole Depth
 40
0.125
 41
3.8
  0
MTEXT
  5
272
100
AcDbEntity
  8
0
100
AcDbMText
 62
2
  6
CONTINUOUS
  7
STANDARD
 71
2
 72
1
 10
6.055
 20
-2.1565
 30
0.0
 11
1.0
 21
0.0
 31
0.0
 44
0.9
  1
Through
 40
0.125
 41
1.4
  0
MTEXT
  5
273
100
AcDbEntity
  8
0
100
AcDbMText
 62
2
  6
CONTINUOUS
  7
STANDARD
 71
2
 72
1
 10
1.5275
 20
-2.4065
 30
0.0
 11
1.0
 21
0.0
 31
0.0
 44
0.9
  1
Mounting Hole Quantity
 40
0.125
 41
4.4
  0
MTEXT
  5
274
100
AcDbEntity
  8
0
100
AcDbMText
 62
2
  6
CONTINUOUS
  7
STANDARD
 71
2
 72
1
 10
6.055
 20
-2.4065
 30
0.0
 11
1.0
 21
0.0
 31
0.0
 44
0.9
  1
2
 40
0.125
 41
0.2
  0
ENDBLK
  5
275
100
AcDbEntity
  8
0
  6
BYBLOCK
 62
0
100
AcDbBlockEnd
  0
BLOCK
  5
276
100
AcDbEntity
  8
0
100
AcDbBlockBegin
  2
*T3
 70
1
 10
0.0
 20
0.0
  3
*T3
  1

  0
LINE
  5
277
100
AcDbEntity
  8
0
100
AcDbLine
 62
2
  6
CONTINUOUS
 10
0.0
 20
0.0
 11
4.6
 21
0.0
  0
LINE
  5
278
100
AcDbEntity
  8
0
100
AcDbLine
 62
2
  6
CONTINUOUS
 10
0.0
 20
0.0
 11
0.0
 21
-1.43775
  0
LINE
  5
279
100
AcDbEntity
  8
0
100
AcDbLine
 62
2
  6
CONTINUOUS
 10
0.0
 20
-0.34375
 11
4.6
 21
-0.34375
  0
LINE
  5
27A
100
AcDbEntity
  8
0
100
AcDbLine
 62
2
  6
CONTINUOUS
 10
0.0
 20
-0.68775
 11
4.6
 21
-0.68775
  0
LINE
  5
27B
100
AcDbEntity
  8
0
100
AcDbLine
 62
2
  6
CONTINUOUS
 10
0.0
 20
-0.93775
 11
4.6
 21
-0.93775
  0
LINE
  5
27C
100
AcDbEntity
  8
0
100
AcDbLine
 62
2
  6
CONTINUOUS
 10
0.0
 20
-1.18775
 11
4.6
 21
-1.18775
  0
LINE
  5
27D
100
AcDbEntity
  8
0
100
AcDbLine
 62
2
  6
CONTINUOUS
 10
0.0
 20
-1.43775
 11
4.6
 21
-1.43775
  0
LINE
  5
27E
100
AcDbEntity
  8
0
100
AcDbLine
 62
2
  6
CONTINUOUS
 10
1.3
 20
-0.34375
 11
1.3
 21
-1.43775
  0
LINE
  5
27F
100
AcDbEntity
  8
0
100
AcDbLine
 62
2
  6
CONTINUOUS
 10
3.3
 20
-0.34375
 11
3.3
 21
-1.43775
  0
LINE
  5
280
100
AcDbEntity
  8
0
100
AcDbLine
 62
2
  6
CONTINUOUS
 10
4.6
 20
0.0
 11
4.6
 21
-1.43775
  0
MTEXT
  5
281
100
AcDbEntity
  8
0
100
AcDbMText
 62
2
  6
CONTINUOUS
  7
STANDARD
 71
2
 72
1
 10
2.3
 20
-0.099375
 30
0.0
 11
1.0
 21
0.0
 31
0.0
 44
0.9
  1
Port Headings
 40
0.145
 41
3.016
  0
MTEXT
  5
282
100
AcDbEntity
  8
0
100
AcDbMText
 62
2
  6
CONTINUOUS
  7
STANDARD
 71
2
 72
1
 10
0.65
 20
-0.44325
 30
0.0
 11
1.0
 21
0.0
 31
0.0
 44
0.9
  1
Product
 40
0.145
 41
1.624
  0
MTEXT
  5
283
100
AcDbEntity
  8
0
100
AcDbMText
 62
2
  6
CONTINUOUS
  7
STANDARD
 71
2
 72
1
 10
2.3
 20
-0.44325
 30
0.0
 11
1.0
 21
0.0
 31
0.0
 44
0.9
  1
Port
 40
0.145
 41
0.928
  0
MTEXT
  5
284
100
AcDbEntity
  8
0
100
AcDbMText
 62
2
  6
CONTINUOUS
  7
STANDARD
 71
2
 72
1
 10
3.95
 20
-0.44325
 30
0.0
 11
1.0
 21
0.0
 31
0.0
 44
0.9
  1
Size
 40
0.145
 41
0.928
  0
MTEXT
  5
285
100
AcDbEntity
  8
0
100
AcDbMText
 62
2
  6
CONTINUOUS
  7
STANDARD
 71
2
 72
1
 10
0.65
 20
-0.75025
 30
0.0
 11
1.0
 21
0.0
 31
0.0
 44
0.9
  1
W3H
 40
0.125
 41
0.6
  0
MTEXT
  5
286
100
AcDbEntity
  8
0
100
AcDbMText
 62
2
  6
CONTINUOUS
  7
STANDARD
 71
2
 72
1
 10
2.3
 20
-0.75025
 30
0.0
 11
1.0
 21
0.0
 31
0.0
 44
0.9
  1
Ports 1 &  2
 40
0.125
 41
2.4
  0
MTEXT
  5
287
100
AcDbEntity
  8
0
100
AcDbMText
 62
2
  6
CONTINUOUS
  7
STANDARD
 71
2
 72
1
 10
3.95
 20
-0.75025
 30
0.0
 11
1.0
 21
0.0
 31
0.0
 44
0.9
  1
SAE 12
 40
0.125
 41
1.2
  0
MTEXT
  5
288
100
AcDbEntity
  8
0
100
AcDbMText
 62
2
  6
CONTINUOUS
  7
STANDARD
 71
2
 72
1
 10
0.65
 20
-1.00025
 30
0.0
 11
1.0
 21
0.0
 31
0.0
 44
0.9
  1
W3H
 40
0.125
 41
0.6
  0
MTEXT
  5
289
100
AcDbEntity
  8
0
100
AcDbMText
 62
2
  6
CONTINUOUS
  7
STANDARD
 71
2
 72
1
 10
2.3
 20
-1.00025
 30
0.0
 11
1.0
 21
0.0
 31
0.0
 44
0.9
  1
Port 3
 40
0.125
 41
1.2
  0
MTEXT
  5
28A
100
AcDbEntity
  8
0
100
AcDbMText
 62
2
  6
CONTINUOUS
  7
STANDARD
 71
2
 72
1
 10
3.95
 20
-1.00025
 30
0.0
 11
1.0
 21
0.0
 31
0.0
 44
0.9
  1
SAE 10
 40
0.125
 41
1.2
  0
MTEXT
  5
28B
100
AcDbEntity
  8
0
100
AcDbMText
 62
2
  6
CONTINUOUS
  7
STANDARD
 71
2
 72
1
 10
0.65
 20
-1.25025
 30
0.0
 11
1.0
 21
0.0
 31
0.0
 44
0.9
  1
W3H
 40
0.125
 41
0.6
  0
MTEXT
  5
28C
100
AcDbEntity
  8
0
100
AcDbMText
 62
2
  6
CONTINUOUS
  7
STANDARD
 71
2
 72
1
 10
2.3
 20
-1.25025
 30
0.0
 11
1.0
 21
0.0
 31
0.0
 44
0.9
  1
Gage Port
 40
0.125
 41
1.8
  0
MTEXT
  5
28D
100
AcDbEntity
  8
0
100
AcDbMText
 62
2
  6
CONTINUOUS
  7
STANDARD
 71
2
 72
1
 10
3.95
 20
-1.25025
 30
0.0
 11
1.0
 21
0.0
 31
0.0
 44
0.9
  1
SAE 4
 40
0.125
 41
1.0
  0
ENDBLK
  5
28E
100
AcDbEntity
  8
0
  6
BYBLOCK
 62
0
100
AcDbBlockEnd
  0
ENDSEC
  0
SECTION
  2
ENTITIES
  0
IMAGE
  5
28F
100
AcDbEntity
  8
0
100
AcDbRasterImage
 62
7
  6
CONTINUOUS
 10
19.2297077316
 20
0.3094318264
 30
0.0
 11
0.0066666667
 21
0.0
 31
0.0
 12
0.0
 22
0.0066666667
 32
0.0
 13
369.0
 23
92.0
340
       3B5
 70
9
280
0
281
50
282
50
283
0
360
       3AF
 71
1
 91
2
 14
-0.5
 24
-0.5
 14
368.5
 24
91.5
  0
INSERT
  5
290
100
AcDbEntity
  8
0
100
AcDbBlockReference
 62
2
  6
CONTINUOUS
  2
SUN_FIRST_THIRD_ANGLE_BL0
 10
20.4816717061
 20
1.2289683772
  0
ACAD_TABLE
  5
291
100
AcDbEntity
  8
0
 62
2
  6
CONTINUOUS
100
AcDbBlockReference
  2
*T1
 10
12.42375
 20
0.30125
 30
0.0
100
AcDbTable
342
       3B7
343
20F
 11
1.0
 21
0.0
 31
0.0
 90
6
 91
4
 92
6
 93
20
 94
0
 95
0
 96
0
 70
1
 41
0.0
141
0.525
141
0.1
141
0.525
141
0.1
142
4.1
142
1.1
142
0.7
142
0.5
142
0.4
142
2.475
171
1
172
0
173
0
174
0
175
1
176
1
 91
33
178
0
145
0.0
301
CELL_VALUE
 90
4
  1
T-2A Line mount\P(See Technical Data for Body Features)
304
ACVALUE_END
170
2
140
0.125
171
1
172
0
173
0
174
0
175
1
176
1
 91
33
178
0
145
0.0
301
CELL_VALUE
 90
4
  1
Sep-11-19
304
ACVALUE_END
170
5
140
0.125
171
1
172
0
173
0
174
0
175
1
176
1
 91
33
178
0
145
0.0
301
CELL_VALUE
 90
4
  1
1.000
304
ACVALUE_END
170
5
140
0.125
171
1
172
0
173
0
174
0
175
1
176
1
 91
33
178
0
145
0.0
301
CELL_VALUE
 90
4
  1
C
304
ACVALUE_END
170
5
140
0.125
171
1
172
0
173
0
174
0
175
1
176
1
 91
33
178
0
145
0.0
301
CELL_VALUE
 90
4
  1
2
304
ACVALUE_END
170
5
140
0.125
171
1
172
0
173
0
174
0
175
1
176
1
 91
33
178
0
145
0.0
301
CELL_VALUE
 90
4
  1
 
304
ACVALUE_END
170
1
140
0.125
171
1
172
0
173
0
174
0
175
1
176
1
 91
33
178
0
145
0.0
301
CELL_VALUE
 90
4
  1
DESCRIPTION
304
ACVALUE_END
170
1
140
0.06
171
1
172
0
173
0
174
0
175
1
176
1
 91
33
178
0
145
0.0
301
CELL_VALUE
 90
4
  1
DATE
304
ACVALUE_END
170
1
140
0.06
171
1
172
0
173
0
174
0
175
1
176
1
 91
33
178
0
145
0.0
301
CELL_VALUE
 90
4
  1
SCALE
304
ACVALUE_END
170
1
140
0.06
171
1
172
0
173
0
174
0
175
1
176
1
 91
33
178
0
145
0.0
301
CELL_VALUE
 90
4
  1
DWG SIZE
304
ACVALUE_END
170
1
140
0.06
171
1
172
0
173
0
174
0
175
1
176
1
 91
33
178
0
145
0.0
301
CELL_VALUE
 90
4
  1
SHEET
304
ACVALUE_END
170
1
140
0.06
171
1
172
0
173
0
174
0
175
1
176
1
 91
33
178
0
145
0.0
301
CELL_VALUE
 90
4
  1
 
304
ACVALUE_END
170
1
140
0.125
171
1
172
0
173
0
174
0
175
1
176
1
 91
33
178
0
145
0.0
301
CELL_VALUE
 90
4
  1
W3H
304
ACVALUE_END
170
5
140
0.125
171
1
172
0
173
0
174
0
175
4
176
1
 91
33
178
0
145
0.0
301
CELL_VALUE
 90
4
  1
ALL DIMENSIONS IN INCH\PVIEWS ARE THIRD ANGLE
304
ACVALUE_END
170
5
140
0.12
171
1
172
0
173
1
174
0
175
1
176
1
 91
1
178
0
145
0.0
170
1
171
1
172
0
173
1
174
0
175
1
176
1
 91
1
178
0
145
0.0
170
1
171
1
172
0
173
1
174
0
175
1
176
1
 91
1
178
0
145
0.0
170
5
171
1
172
0
173
0
174
0
175
1
176
1
 91
33
178
0
145
0.0
301
CELL_VALUE
 90
4
  1
 
304
ACVALUE_END
170
1
140
0.125
171
1
172
0
173
0
174
0
175
1
176
1
 91
33
178
0
145
0.0
301
CELL_VALUE
 90
4
  1
MODEL
304
ACVALUE_END
170
1
140
0.06
171
1
172
0
173
0
174
0
175
1
176
1
 91
33
178
0
145
0.0
301
CELL_VALUE
 90
4
  1
 
304
ACVALUE_END
170
1
140
0.125
171
1
172
0
173
0
174
0
175
1
176
1
 91
33
178
0
145
0.0
301
CELL_VALUE
 90
4
  1
 
304
ACVALUE_END
170
1
140
0.125
171
1
172
0
173
0
174
0
175
1
176
1
 91
33
178
0
145
0.0
301
CELL_VALUE
 90
4
  1
 
304
ACVALUE_END
170
1
140
0.125
171
1
172
0
173
0
174
0
175
1
176
1
 91
33
178
0
145
0.0
301
CELL_VALUE
 90
4
  1
 
304
ACVALUE_END
170
1
140
0.125
171
1
172
0
173
0
174
0
175
1
176
1
 91
33
178
0
145
0.0
301
CELL_VALUE
 90
4
  1
 
304
ACVALUE_END
170
1
140
0.125
  0
ACAD_TABLE
  5
292
100
AcDbEntity
  8
0
 62
2
  6
CONTINUOUS
100
AcDbBlockReference
  2
*T2
 10
12.4237499994
 20
16.47875
 30
0.0
100
AcDbTable
342
       3B6
343
210
 11
1.0
 21
0.0
 31
0.0
 90
22
 91
10
 92
3
 93
16
 94
0
 95
0
 96
0
 41
0.028
141
0.344
141
0.25
141
0.25
141
0.25
141
0.25
141
0.25
141
0.25
141
0.25
141
0.25
141
0.25
142
3.055
142
3.0
142
3.0
171
1
172
0
173
0
174
0
175
1
176
1
 91
33
178
0
145
0.0
301
CELL_VALUE
 90
4
  1
Technical Data
304
ACVALUE_END
170
5
140
0.145
171
1
172
0
173
0
174
0
175
1
176
1
 91
33
178
0
145
0.0
301
CELL_VALUE
 90
4
  1
U.S. Units
304
ACVALUE_END
170
5
140
0.145
171
1
172
0
173
0
174
0
175
1
176
1
 91
33
178
0
145
0.0
301
CELL_VALUE
 90
4
  1
Metric Units
304
ACVALUE_END
170
5
140
0.145
171
1
172
0
173
0
174
0
175
1
176
1
 91
33
178
0
145
0.0
301
CELL_VALUE
 90
4
  1
Cavity
304
ACVALUE_END
170
5
140
0.125
171
1
172
0
173
0
174
0
175
2
176
1
 91
33
178
0
145
0.0
301
CELL_VALUE
 90
4
  1
T-2A
304
ACVALUE_END
170
5
140
0.125
171
1
172
0
173
1
174
0
175
1
176
1
 91
1
178
0
145
0.0
170
1
171
1
172
0
173
0
174
0
175
1
176
1
 91
33
178
0
145
0.0
301
CELL_VALUE
 90
4
  1
Body Features
304
ACVALUE_END
170
5
140
0.125
171
1
172
0
173
0
174
0
175
2
176
1
 91
33
178
0
145
0.0
301
CELL_VALUE
 90
4
  1
Ninety degree with reverse flow check - reducing
304
ACVALUE_END
170
5
140
0.125
171
1
172
0
173
1
174
0
175
1
176
1
 91
1
178
0
145
0.0
170
1
171
1
172
0
173
0
174
0
175
1
176
1
 91
33
178
0
145
0.0
301
CELL_VALUE
 90
4
  1
Body Type
304
ACVALUE_END
170
5
140
0.125
171
1
172
0
173
0
174
0
175
2
176
1
 91
33
178
0
145
0.0
301
CELL_VALUE
 90
4
  1
Line mount
304
ACVALUE_END
170
5
140
0.125
171
1
172
0
173
1
174
0
175
1
176
1
 91
1
178
0
145
0.0
170
1
171
1
172
0
173
0
174
0
175
1
176
1
 91
33
178
0
145
0.0
301
CELL_VALUE
 90
4
  1
Interface
304
ACVALUE_END
170
5
140
0.125
171
1
172
0
173
0
174
0
175
2
176
1
 91
33
178
0
145
0.0
301
CELL_VALUE
 90
4
  1
None
304
ACVALUE_END
170
5
140
0.125
171
1
172
0
173
1
174
0
175
1
176
1
 91
1
178
0
145
0.0
170
1
171
1
172
0
173
0
174
0
175
1
176
1
 91
33
178
0
145
0.0
301
CELL_VALUE
 90
4
  1
Open Cavity Quantity
304
ACVALUE_END
170
5
140
0.125
171
1
172
0
173
0
174
0
175
2
176
1
 91
33
178
0
145
0.0
301
CELL_VALUE
 90
4
  1
1
304
ACVALUE_END
170
5
140
0.125
171
1
172
0
173
1
174
0
175
1
176
1
 91
1
178
0
145
0.0
170
1
171
1
172
0
173
0
174
0
175
1
176
1
 91
33
178
0
145
0.0
301
CELL_VALUE
 90
4
  1
Weight
304
ACVALUE_END
170
5
140
0.125
171
1
172
0
173
0
174
0
175
1
176
1
 91
33
178
0
145
0.0
301
CELL_VALUE
 90
4
  1
1.859 lb.
304
ACVALUE_END
170
5
140
0.125
171
1
172
0
173
0
174
0
175
1
176
1
 91
33
178
0
145
0.0
301
CELL_VALUE
 90
4
  1
0,843 kg.
304
ACVALUE_END
170
5
140
0.125
171
1
172
0
173
0
174
0
175
1
176
1
 91
33
178
0
145
0.0
301
CELL_VALUE
 90
4
  1
Mounting Hole Diameter
304
ACVALUE_END
170
5
140
0.125
171
1
172
0
173
0
174
0
175
1
176
1
 91
33
178
0
145
0.0
301
CELL_VALUE
 90
4
  1
.42 in.
304
ACVALUE_END
170
5
140
0.125
171
1
172
0
173
0
174
0
175
1
176
1
 91
33
178
0
145
0.0
301
CELL_VALUE
 90
4
  1
10,7 mm
304
ACVALUE_END
170
5
140
0.125
171
1
172
0
173
0
174
0
175
1
176
1
 91
33
178
0
145
0.0
301
CELL_VALUE
 90
4
  1
Mounting Hole Depth
304
ACVALUE_END
170
5
140
0.125
171
1
172
0
173
0
174
0
175
2
176
1
 91
33
178
0
145
0.0
301
CELL_VALUE
 90
4
  1
Through
304
ACVALUE_END
170
5
140
0.125
171
1
172
0
173
1
174
0
175
1
176
1
 91
1
178
0
145
0.0
170
1
171
1
172
0
173
0
174
0
175
1
176
1
 91
33
178
0
145
0.0
301
CELL_VALUE
 90
4
  1
Mounting Hole Quantity
304
ACVALUE_END
170
5
140
0.125
171
1
172
0
173
0
174
0
175
2
176
1
 91
33
178
0
145
0.0
301
CELL_VALUE
 90
4
  1
2
304
ACVALUE_END
170
5
140
0.125
171
1
172
0
173
1
174
0
175
1
176
1
 91
1
178
0
145
0.0
170
1
  0
ACAD_TABLE
  5
293
100
AcDbEntity
  8
0
 62
2
  6
CONTINUOUS
100
AcDbBlockReference
  2
*T3
 10
0.52125
 20
1.959
 30
0.0
100
AcDbTable
342
       3B6
343
211
 11
1.0
 21
0.0
 31
0.0
 90
22
 91
5
 92
3
 93
16
 94
0
 95
0
 96
0
 41
0.05
141
0.34375
141
0.344
141
0.25
141
0.25
141
0.25
142
1.3
142
2.0
142
1.3
171
1
172
0
173
0
174
0
175
3
176
1
 91
33
178
0
145
0.0
301
CELL_VALUE
 90
4
  1
Port Headings
304
ACVALUE_END
170
5
140
0.145
171
1
172
0
173
1
174
0
175
1
176
1
 91
1
178
0
145
0.0
170
1
171
1
172
0
173
1
174
0
175
1
176
1
 91
1
178
0
145
0.0
170
1
171
1
172
0
173
0
174
0
175
1
176
1
 91
33
178
0
145
0.0
301
CELL_VALUE
 90
4
  1
Product
304
ACVALUE_END
170
5
140
0.145
171
1
172
0
173
0
174
0
175
1
176
1
 91
33
178
0
145
0.0
301
CELL_VALUE
 90
4
  1
Port
304
ACVALUE_END
170
5
140
0.145
171
1
172
0
173
0
174
0
175
1
176
1
 91
33
178
0
145
0.0
301
CELL_VALUE
 90
4
  1
Size
304
ACVALUE_END
170
5
140
0.145
171
1
172
0
173
0
174
0
175
1
176
1
 91
33
178
0
145
0.0
301
CELL_VALUE
 90
4
  1
W3H
304
ACVALUE_END
170
5
140
0.125
171
1
172
0
173
0
174
0
175
1
176
1
 91
33
178
0
145
0.0
301
CELL_VALUE
 90
4
  1
Ports 1 &  2
304
ACVALUE_END
170
5
140
0.125
171
1
172
0
173
0
174
0
175
1
176
1
 91
33
178
0
145
0.0
301
CELL_VALUE
 90
4
  1
SAE 12
304
ACVALUE_END
170
5
140
0.125
171
1
172
0
173
0
174
0
175
1
176
1
 91
33
178
0
145
0.0
301
CELL_VALUE
 90
4
  1
W3H
304
ACVALUE_END
170
5
140
0.125
171
1
172
0
173
0
174
0
175
1
176
1
 91
33
178
0
145
0.0
301
CELL_VALUE
 90
4
  1
Port 3
304
ACVALUE_END
170
5
140
0.125
171
1
172
0
173
0
174
0
175
1
176
1
 91
33
178
0
145
0.0
301
CELL_VALUE
 90
4
  1
SAE 10
304
ACVALUE_END
170
5
140
0.125
171
1
172
0
173
0
174
0
175
1
176
1
 91
33
178
0
145
0.0
301
CELL_VALUE
 90
4
  1
W3H
304
ACVALUE_END
170
5
140
0.125
171
1
172
0
173
0
174
0
175
1
176
1
 91
33
178
0
145
0.0
301
CELL_VALUE
 90
4
  1
Gage Port
304
ACVALUE_END
170
5
140
0.125
171
1
172
0
173
0
174
0
175
1
176
1
 91
33
178
0
145
0.0
301
CELL_VALUE
 90
4
  1
SAE 4
304
ACVALUE_END
170
5
140
0.125
  0
MTEXT
  5
294
100
AcDbEntity
  8
0
100
AcDbMText
 62
2
  6
CONTINUOUS
  7
STANDARD
 71
1
 72
1
 10
0.52125
 20
5.75995
 30
0.0
 11
1.0
 21
0.0
 31
0.0
 44
0.6
  3
Notes\P \P1. Important: Carefully consider\P   the maximum system pressure. The\P   pressure rating of the manifold is\P   dependent on the manifold material,\P   with the port type/size a secondary\P   consideration. Manifolds\P   constructed of alu
  1
minum are not\P   rated for pressures higher than\P   3000 psi (210 bar), regardless of\P   the port type/size specified.
 40
0.1
 41
3.04
  0
LINE
  5
295
100
AcDbEntity
  8
0
100
AcDbLine
 62
7
  6
CONTINUOUS
 10
0.30125
 20
0.30125
 11
0.30125
 21
16.69875
  0
LINE
  5
296
100
AcDbEntity
  8
0
100
AcDbLine
 62
7
  6
CONTINUOUS
 10
0.30125
 20
0.30125
 11
21.69875
 21
0.30125
  0
LINE
  5
297
100
AcDbEntity
  8
0
100
AcDbLine
 62
7
  6
CONTINUOUS
 10
0.30125
 20
16.69875
 11
21.69875
 21
16.69875
  0
LINE
  5
298
100
AcDbEntity
  8
0
100
AcDbLine
 62
7
  6
CONTINUOUS
 10
21.69875
 20
0.30125
 11
21.69875
 21
16.69875
  0
LINE
  5
299
100
AcDbEntity
  8
0
100
AcDbLine
 62
7
  6
CONTINUOUS
 10
9.4433734597
 20
10.9566713866
 11
9.2838815019
 21
10.8026139764
  0
LINE
  5
29A
100
AcDbEntity
  8
0
100
AcDbLine
 62
7
  6
CONTINUOUS
 10
9.2146371703
 20
10.7357290842
 11
9.0551452125
 21
10.5816716739
  0
LINE
  5
29B
100
AcDbEntity
  8
0
100
AcDbLine
 62
7
  6
CONTINUOUS
 10
9.3147911309
 20
10.8004703863
 11
9.2455467993
 21
10.7335854941
  0
LINE
  5
29C
100
AcDbEntity
  8
0
100
AcDbLine
 62
4
  6
CONTINUOUS
 10
9.2821377478
 20
10.0491593385
 11
9.2748933038
 21
10.0400024861
  0
LINE
  5
29D
100
AcDbEntity
  8
0
100
AcDbLine
 62
4
  6
CONTINUOUS
 10
9.2893821917
 20
9.9907013829
 11
9.2748933038
 21
9.9723876737
  0
LINE
  5
29E
100
AcDbEntity
  8
0
100
AcDbLine
 62
4
  6
CONTINUOUS
 10
9.23142664
 20
10.0719946853
 11
9.2459155279
 21
10.0806491338
  0
LINE
  5
29F
100
AcDbEntity
  8
0
100
AcDbLine
 62
4
  6
CONTINUOUS
 10
9.2748933038
 20
10.0400024861
 11
9.2604044159
 21
10.0313480306
  0
LINE
  5
2A0
100
AcDbEntity
  8
0
100
AcDbLine
 62
4
  6
CONTINUOUS
 10
9.2748933038
 20
9.9723876737
 11
9.2604044159
 21
9.9637332226
  0
LINE
  5
2A1
100
AcDbEntity
  8
0
100
AcDbLine
 62
7
  6
CONTINUOUS
 10
9.0551452125
 20
6.7179681398
 11
9.0551452125
 21
7.4560247011
  0
LINE
  5
2A2
100
AcDbEntity
  8
0
100
AcDbLine
 62
7
  6
CONTINUOUS
 10
9.0551452125
 20
8.0315382251
 11
9.0551452125
 21
10.5816716739
  0
LINE
  5
2A3
100
AcDbEntity
  8
0
100
AcDbLine
 62
7
  6
CONTINUOUS
 10
9.0860548415
 20
8.0293946351
 11
9.0860548415
 21
7.453881111
  0
LINE
  5
2A4
100
AcDbEntity
  8
0
100
AcDbLine
 62
7
  6
CONTINUOUS
 10
9.0551452125
 20
6.7179681398
 11
12.5566265403
 21
6.475139585
  0
LINE
  5
2A5
100
AcDbEntity
  8
0
100
AcDbLine
 62
7
  6
CONTINUOUS
 10
11.2739877806
 20
6.1296039888
 11
11.29320567
 21
6.1201107194
  0
LINE
  5
2A6
100
AcDbEntity
  8
0
100
AcDbLine
 62
4
  6
CONTINUOUS
 10
9.2821377478
 20
10.0588185948
 11
9.2821377478
 21
10.0491593385
  0
LINE
  5
2A7
100
AcDbEntity
  8
0
100
AcDbLine
 62
4
  6
CONTINUOUS
 10
9.2821377478
 20
7.784063141
 11
9.2821377478
 21
7.6681520375
  0
LINE
  5
2A8
100
AcDbEntity
  8
0
100
AcDbLine
 62
4
  6
CONTINUOUS
 10
9.2893821917
 20
10.0003606426
 11
9.2893821917
 21
9.9907013829
  0
LINE
  5
2A9
100
AcDbEntity
  8
0
100
AcDbLine
 62
7
  6
CONTINUOUS
 10
9.0551452125
 20
7.4560247011
 11
9.0860548415
 21
7.453881111
  0
LINE
  5
2AA
100
AcDbEntity
  8
0
100
AcDbLine
 62
4
  6
CONTINUOUS
 10
10.2640704391
 20
9.1386366711
 11
10.2806291689
 21
9.1540470474
  0
LINE
  5
2AB
100
AcDbEntity
  8
0
100
AcDbLine
 62
4
  6
CONTINUOUS
 10
10.3054672627
 20
9.0364134163
 11
10.3220259908
 21
9.0518237944
  0
LINE
  5
2AC
100
AcDbEntity
  8
0
100
AcDbLine
 62
4
  6
CONTINUOUS
 10
10.2640704391
 20
9.1220779431
 11
10.2640704391
 21
9.1386366711
  0
LINE
  5
2AD
100
AcDbEntity
  8
0
100
AcDbLine
 62
4
  6
CONTINUOUS
 10
10.3220259908
 20
9.0518237944
 11
10.3220259908
 21
9.0683825242
  0
LINE
  5
2AE
100
AcDbEntity
  8
0
100
AcDbLine
 62
4
  6
CONTINUOUS
 10
10.355143447
 20
9.1488794647
 11
10.355143447
 21
9.049527091
  0
LINE
  5
2AF
100
AcDbEntity
  8
0
100
AcDbLine
 62
4
  6
CONTINUOUS
 10
10.3910207075
 20
8.4393336373
 11
10.3910207075
 21
8.5552447407
  0
LINE
  5
2B0
100
AcDbEntity
  8
0
100
AcDbLine
 62
4
  6
CONTINUOUS
 10
10.3965402775
 20
9.0300974813
 11
10.4130989987
 21
9.0455078599
  0
LINE
  5
2B1
100
AcDbEntity
  8
0
100
AcDbLine
 62
4
  6
CONTINUOUS
 10
10.7829106269
 20
9.0778168863
 11
10.7994693481
 21
9.0849479026
  0
LINE
  5
2B2
100
AcDbEntity
  8
0
100
AcDbLine
 62
7
  6
CONTINUOUS
 10
9.0551452125
 20
8.0315382251
 11
9.0860548415
 21
8.0293946351
  0
LINE
  5
2B3
100
AcDbEntity
  8
0
100
AcDbLine
 62
4
  6
CONTINUOUS
 10
10.9314562398
 20
7.9034365704
 11
10.9169673518
 21
7.9044413782
  0
LINE
  5
2B4
100
AcDbEntity
  8
0
100
AcDbLine
 62
4
  6
CONTINUOUS
 10
10.4130989987
 20
9.0455078599
 11
10.4130989987
 21
9.1448602335
  0
LINE
  5
2B5
100
AcDbEntity
  8
0
100
AcDbLine
 62
4
  6
CONTINUOUS
 10
10.4462164548
 20
9.0266524267
 11
10.4462164548
 21
9.1425635301
  0
LINE
  5
2B6
100
AcDbEntity
  8
0
100
AcDbLine
 62
4
  6
CONTINUOUS
 10
10.4489762523
 20
8.5346667819
 11
10.4489762523
 21
8.4518731364
  0
LINE
  5
2B7
100
AcDbEntity
  8
0
100
AcDbLine
 62
4
  6
CONTINUOUS
 10
10.5041720066
 20
9.0226331955
 11
10.5041720066
 21
9.138544299
  0
LINE
  5
2B8
100
AcDbEntity
  8
0
100
AcDbLine
 62
4
  6
CONTINUOUS
 10
10.4958926519
 20
8.4320607432
 11
10.5290101081
 21
8.5456751433
  0
LINE
  5
2B9
100
AcDbEntity
  8
0
100
AcDbLine
 62
4
  6
CONTINUOUS
 10
10.7277148528
 20
8.9795325646
 11
10.7608322952
 21
9.0876273913
  0
LINE
  5
2BA
100
AcDbEntity
  8
0
100
AcDbLine
 62
4
  6
CONTINUOUS
 10
10.9402185609
 20
9.0255107239
 11
10.956777282
 21
9.0326417367
  0
LINE
  5
2BB
100
AcDbEntity
  8
0
100
AcDbLine
 62
4
  6
CONTINUOUS
 10
10.9242117958
 20
7.961894526
 11
10.9531895717
 21
7.9598849104
  0
LINE
  5
2BC
100
AcDbEntity
  8
0
100
AcDbLine
 62
4
  6
CONTINUOUS
 10
10.9169673518
 20
8.0203524816
 11
10.9314562398
 21
8.0193476738
  0
LINE
  5
2BD
100
AcDbEntity
  8
0
100
AcDbLine
 62
4
  6
CONTINUOUS
 10
10.9169673518
 20
7.9044413782
 11
10.9024784639
 21
7.9151054449
  0
LINE
  5
2BE
100
AcDbEntity
  8
0
100
AcDbLine
 62
4
  6
CONTINUOUS
 10
10.9314562398
 20
8.0193476738
 11
10.9459451277
 21
8.0086836097
  0
LINE
  5
2BF
100
AcDbEntity
  8
0
100
AcDbLine
 62
4
  6
CONTINUOUS
 10
9.23142664
 20
9.9754020971
 11
9.224182196
 21
9.9855637599
  0
LINE
  5
2C0
100
AcDbEntity
  8
0
100
AcDbLine
 62
4
  6
CONTINUOUS
 10
9.2748933038
 20
10.0206839665
 11
9.2893821917
 21
10.0003606426
  0
LINE
  5
2C1
100
AcDbEntity
  8
0
100
AcDbLine
 62
4
  6
CONTINUOUS
 10
9.2748933038
 20
10.0689802619
 11
9.2821377478
 21
10.0588185948
  0
LINE
  5
2C2
100
AcDbEntity
  8
0
100
AcDbLine
 62
4
  6
CONTINUOUS
 10
10.9024784639
 20
7.9151054449
 11
10.887989576
 21
7.9354287696
  0
LINE
  5
2C3
100
AcDbEntity
  8
0
100
AcDbLine
 62
4
  6
CONTINUOUS
 10
10.5290101081
 20
8.5456751433
 11
10.562127578
 21
8.4274673355
  0
LINE
  5
2C4
100
AcDbEntity
  8
0
100
AcDbLine
 62
4
  6
CONTINUOUS
 10
10.6283624903
 20
8.4228739287
 11
10.6283624903
 21
8.5387850322
  0
LINE
  5
2C5
100
AcDbEntity
  8
0
100
AcDbLine
 62
4
  6
CONTINUOUS
 10
10.6283624706
 20
9.0140205576
 11
10.6283624706
 21
9.129931661
  0
LINE
  5
2C6
100
AcDbEntity
  8
0
100
AcDbLine
 62
4
  6
CONTINUOUS
 10
10.6780386617
 20
9.0850897818
 11
10.6780386617
 21
9.010575502
  0
LINE
  5
2C7
100
AcDbEntity
  8
0
100
AcDbLine
 62
4
  6
CONTINUOUS
 10
10.6945974026
 20
8.418280522
 11
10.6945974026
 21
8.5341916254
  0
LINE
  5
2C8
100
AcDbEntity
  8
0
100
AcDbLine
 62
4
  6
CONTINUOUS
 10
10.7829106269
 20
9.0115819715
 11
10.7829106269
 21
9.0778168863
  0
LINE
  5
2C9
100
AcDbEntity
  8
0
100
AcDbLine
 62
4
  6
CONTINUOUS
 10
10.7318545626
 20
8.6707011567
 11
10.7566926582
 21
8.7848897323
  0
LINE
  5
2CA
100
AcDbEntity
  8
0
100
AcDbLine
 62
4
  6
CONTINUOUS
 10
10.6821783767
 20
8.6741462119
 11
10.7070164705
 21
8.7552173315
  0
LINE
  5
2CB
100
AcDbEntity
  8
0
100
AcDbLine
 62
7
  6
CONTINUOUS
 10
12.5566265403
 20
10.3388431191
 11
12.9448547875
 21
10.7138428318
  0
LINE
  5
2CC
100
AcDbEntity
  8
0
100
AcDbLine
 62
4
  6
CONTINUOUS
 10
10.4489762523
 20
8.4518731364
 11
10.4324175242
 21
8.4364627583
  0
LINE
  5
2CD
100
AcDbEntity
  8
0
100
AcDbLine
 62
4
  6
CONTINUOUS
 10
11.2244767089
 20
9.0471941745
 11
11.2327560418
 21
9.0548993684
  0
LINE
  5
2CE
100
AcDbEntity
  8
0
100
AcDbLine
 62
4
  6
CONTINUOUS
 10
10.8560450336
 20
8.6620885183
 11
10.8643243941
 21
8.6697937076
  0
LINE
  5
2CF
100
AcDbEntity
  8
0
100
AcDbLine
 62
4
  6
CONTINUOUS
 10
11.298991037
 20
9.0420265883
 11
11.30727037
 21
9.0497317821
  0
LINE
  5
2D0
100
AcDbEntity
  8
0
100
AcDbLine
 62
4
  6
CONTINUOUS
 10
10.847765673
 20
8.7288976131
 11
10.8615646027
 21
8.7362200146
  0
LINE
  5
2D1
100
AcDbEntity
  8
0
100
AcDbLine
 62
4
  6
CONTINUOUS
 10
10.3689423999
 20
8.5126192683
 11
10.3247857882
 21
8.4936032322
  0
LINE
  5
2D2
100
AcDbEntity
  8
0
100
AcDbLine
 62
4
  6
CONTINUOUS
 10
10.3247857882
 20
8.4936032322
 11
10.3689423999
 21
8.468462655
  0
LINE
  5
2D3
100
AcDbEntity
  8
0
100
AcDbLine
 62
4
  6
CONTINUOUS
 10
10.4324175242
 20
8.5523738617
 11
10.4489762523
 21
8.5346667819
  0
LINE
  5
2D4
100
AcDbEntity
  8
0
100
AcDbLine
 62
4
  6
CONTINUOUS
 10
10.9459451277
 20
8.0086836097
 11
10.9531895717
 21
7.9985219426
  0
LINE
  5
2D5
100
AcDbEntity
  8
0
100
AcDbLine
 62
4
  6
CONTINUOUS
 10
10.4462164548
 20
9.1425635301
 11
10.5041720066
 21
9.0226331955
  0
LINE
  5
2D6
100
AcDbEntity
  8
0
100
AcDbLine
 62
4
  6
CONTINUOUS
 10
10.7070164705
 20
8.7552173315
 11
10.7318545626
 21
8.6707011567
  0
LINE
  5
2D7
100
AcDbEntity
  8
0
100
AcDbLine
 62
4
  6
CONTINUOUS
 10
10.887989576
 20
7.9354287696
 11
10.880745132
 21
7.9649089494
  0
LINE
  5
2D8
100
AcDbEntity
  8
0
100
AcDbLine
 62
4
  6
CONTINUOUS
 10
10.6573402828
 20
8.791779843
 11
10.6821783767
 21
8.6741462119
  0
LINE
  5
2D9
100
AcDbEntity
  8
0
100
AcDbLine
 62
4
  6
CONTINUOUS
 10
10.8325867904
 20
9.1157686563
 11
10.8325867904
 21
8.9998575529
  0
LINE
  5
2DA
100
AcDbEntity
  8
0
100
AcDbLine
 62
4
  6
CONTINUOUS
 10
10.8615646027
 20
8.7362200146
 11
10.8615646027
 21
8.7610581102
  0
LINE
  5
2DB
100
AcDbEntity
  8
0
100
AcDbLine
 62
4
  6
CONTINUOUS
 10
10.8643243941
 20
8.6697937076
 11
10.8643243941
 21
8.7111905303
  0
LINE
  5
2DC
100
AcDbEntity
  8
0
100
AcDbLine
 62
4
  6
CONTINUOUS
 10
10.865704288
 20
8.9975608467
 11
10.865704288
 21
9.0803544939
  0
LINE
  5
2DD
100
AcDbEntity
  8
0
100
AcDbLine
 62
4
  6
CONTINUOUS
 10
10.8684640854
 20
8.4227815564
 11
10.8684640854
 21
8.5055752019
  0
LINE
  5
2DE
100
AcDbEntity
  8
0
100
AcDbLine
 62
4
  6
CONTINUOUS
 10
10.8974418503
 20
8.6592176393
 11
10.8974418503
 21
8.7751287427
  0
LINE
  5
2DF
100
AcDbEntity
  8
0
100
AcDbLine
 62
4
  6
CONTINUOUS
 10
10.9043412856
 20
9.0693956416
 11
10.9043412856
 21
9.0528369135
  0
LINE
  5
2E0
100
AcDbEntity
  8
0
100
AcDbLine
 62
4
  6
CONTINUOUS
 10
10.9402185609
 20
9.0006726292
 11
10.9402185609
 21
9.0255107239
  0
LINE
  5
2E1
100
AcDbEntity
  8
0
100
AcDbLine
 62
4
  6
CONTINUOUS
 10
10.9531895717
 20
7.9598849104
 11
10.9531895717
 21
7.9212478765
  0
LINE
  5
2E2
100
AcDbEntity
  8
0
100
AcDbLine
 62
4
  6
CONTINUOUS
 10
10.955397402
 20
8.7711095115
 11
10.955397402
 21
8.6551984081
  0
LINE
  5
2E3
100
AcDbEntity
  8
0
100
AcDbLine
 62
4
  6
CONTINUOUS
 10
10.9650566348
 20
8.4160828403
 11
10.9650566348
 21
8.4988764859
  0
LINE
  5
2E4
100
AcDbEntity
  8
0
100
AcDbLine
 62
4
  6
CONTINUOUS
 10
10.9898947244
 20
8.9889482106
 11
10.9898947244
 21
9.0551831298
  0
LINE
  5
2E5
100
AcDbEntity
  8
0
100
AcDbLine
 62
4
  6
CONTINUOUS
 10
11.0230121667
 20
9.0694451555
 11
11.0230121667
 21
8.9949308731
  0
LINE
  5
2E6
100
AcDbEntity
  8
0
100
AcDbLine
 62
4
  6
CONTINUOUS
 10
11.0230121865
 20
8.4948572547
 11
11.0230121865
 21
8.4120636091
  0
LINE
  5
2E7
100
AcDbEntity
  8
0
100
AcDbLine
 62
4
  6
CONTINUOUS
 10
10.880745132
 20
7.9649089494
 11
10.887989576
 21
7.9933843214
  0
LINE
  5
2E8
100
AcDbEntity
  8
0
100
AcDbLine
 62
4
  6
CONTINUOUS
 10
11.1830798783
 20
9.0914618781
 11
11.1803201007
 21
9.0833739019
  0
LINE
  5
2E9
100
AcDbEntity
  8
0
100
AcDbLine
 62
4
  6
CONTINUOUS
 10
11.3403878123
 20
8.9646414324
 11
11.3486671453
 21
8.9723466236
  0
LINE
  5
2EA
100
AcDbEntity
  8
0
100
AcDbLine
 62
4
  6
CONTINUOUS
 10
10.8684640854
 20
8.5055752019
 11
10.8850228066
 21
8.5209855788
  0
LINE
  5
2EB
100
AcDbEntity
  8
0
100
AcDbLine
 62
4
  6
CONTINUOUS
 10
10.9650566348
 20
8.4988764859
 11
10.9816153559
 21
8.5142868627
  0
LINE
  5
2EC
100
AcDbEntity
  8
0
100
AcDbLine
 62
4
  6
CONTINUOUS
 10
11.0975264594
 20
8.390337297
 11
11.0561296288
 21
8.3932081769
  0
LINE
  5
2ED
100
AcDbEntity
  8
0
100
AcDbLine
 62
4
  6
CONTINUOUS
 10
11.0064534653
 20
8.3966532306
 11
10.9816153559
 21
8.3983757593
  0
LINE
  5
2EE
100
AcDbEntity
  8
0
100
AcDbLine
 62
4
  6
CONTINUOUS
 10
10.9181402489
 20
8.4027777729
 11
10.8850228066
 21
8.4050744753
  0
LINE
  5
2EF
100
AcDbEntity
  8
0
100
AcDbLine
 62
4
  6
CONTINUOUS
 10
10.4324175242
 20
8.4364627583
 11
10.3910207075
 21
8.4393336373
  0
LINE
  5
2F0
100
AcDbEntity
  8
0
100
AcDbLine
 62
4
  6
CONTINUOUS
 10
10.6945974026
 20
8.418280522
 11
10.7442735938
 21
8.4148354664
  0
LINE
  5
2F1
100
AcDbEntity
  8
0
100
AcDbLine
 62
4
  6
CONTINUOUS
 10
11.1610016217
 20
8.3859352795
 11
11.2106777852
 21
8.3824902259
  0
LINE
  5
2F2
100
AcDbEntity
  8
0
100
AcDbLine
 62
4
  6
CONTINUOUS
 10
10.506931804
 20
8.464412635
 11
10.5510884122
 21
8.4613503638
  0
LINE
  5
2F3
100
AcDbEntity
  8
0
100
AcDbLine
 62
4
  6
CONTINUOUS
 10
11.194119064
 20
8.4498734963
 11
11.1610016217
 21
8.4521701987
  0
LINE
  5
2F4
100
AcDbEntity
  8
0
100
AcDbLine
 62
4
  6
CONTINUOUS
 10
10.7277148726
 20
8.4822187368
 11
10.6945974026
 21
8.4845154412
  0
LINE
  5
2F5
100
AcDbEntity
  8
0
100
AcDbLine
 62
4
  6
CONTINUOUS
 10
10.3910207075
 20
8.5552447407
 11
10.4324175242
 21
8.5523738617
  0
LINE
  5
2F6
100
AcDbEntity
  8
0
100
AcDbLine
 62
4
  6
CONTINUOUS
 10
10.5952450204
 20
8.5410817365
 11
10.6614799327
 21
8.5364883297
  0
LINE
  5
2F7
100
AcDbEntity
  8
0
100
AcDbLine
 62
4
  6
CONTINUOUS
 10
10.6945974026
 20
8.5341916254
 11
10.7442735938
 21
8.5307465698
  0
LINE
  5
2F8
100
AcDbEntity
  8
0
100
AcDbLine
 62
4
  6
CONTINUOUS
 10
10.8850228066
 20
8.5209855788
 11
10.9181402489
 21
8.5186888763
  0
LINE
  5
2F9
100
AcDbEntity
  8
0
100
AcDbLine
 62
4
  6
CONTINUOUS
 10
10.9816153559
 20
8.5142868627
 11
11.0064534653
 21
8.512564334
  0
LINE
  5
2FA
100
AcDbEntity
  8
0
100
AcDbLine
 62
4
  6
CONTINUOUS
 10
11.0561296288
 20
8.5091192803
 11
11.0975264594
 21
8.5062484004
  0
LINE
  5
2FB
100
AcDbEntity
  8
0
100
AcDbLine
 62
4
  6
CONTINUOUS
 10
11.1610016217
 20
8.5018463829
 11
11.2106777852
 21
8.4984013293
  0
LINE
  5
2FC
100
AcDbEntity
  8
0
100
AcDbLine
 62
4
  6
CONTINUOUS
 10
10.3220259908
 20
9.0683825242
 11
10.2640704391
 21
9.1220779431
  0
LINE
  5
2FD
100
AcDbEntity
  8
0
100
AcDbLine
 62
4
  6
CONTINUOUS
 10
10.2640704391
 20
9.0475636607
 11
10.272349804
 21
9.0387101199
  0
LINE
  5
2FE
100
AcDbEntity
  8
0
100
AcDbLine
 62
4
  6
CONTINUOUS
 10
10.8850228066
 20
8.4050744753
 11
10.8684640854
 21
8.4227815564
  0
LINE
  5
2FF
100
AcDbEntity
  8
0
100
AcDbLine
 62
4
  6
CONTINUOUS
 10
10.355143447
 20
9.049527091
 11
10.371702175
 21
9.0318200095
  0
LINE
  5
300
100
AcDbEntity
  8
0
100
AcDbLine
 62
4
  6
CONTINUOUS
 10
10.9816153559
 20
8.3983757593
 11
10.9650566348
 21
8.4160828403
  0
LINE
  5
301
100
AcDbEntity
  8
0
100
AcDbLine
 62
4
  6
CONTINUOUS
 10
10.3137466268
 20
9.1517503439
 11
10.3220259908
 21
9.1428968006
  0
LINE
  5
302
100
AcDbEntity
  8
0
100
AcDbLine
 62
4
  6
CONTINUOUS
 10
11.0064534653
 20
8.512564334
 11
11.0230121865
 21
8.4948572547
  0
LINE
  5
303
100
AcDbEntity
  8
0
100
AcDbLine
 62
4
  6
CONTINUOUS
 10
10.7111561317
 20
9.091072445
 11
10.735994241
 21
9.006556269
  0
LINE
  5
304
100
AcDbEntity
  8
0
100
AcDbLine
 62
4
  6
CONTINUOUS
 10
11.0561296288
 20
8.3932081769
 11
11.0561296288
 21
8.5091192803
  0
LINE
  5
305
100
AcDbEntity
  8
0
100
AcDbLine
 62
4
  6
CONTINUOUS
 10
11.0726883855
 20
8.9832064507
 11
11.0726883855
 21
9.066000098
  0
LINE
  5
306
100
AcDbEntity
  8
0
100
AcDbLine
 62
4
  6
CONTINUOUS
 10
11.1058058278
 20
8.9891891132
 11
11.1058058278
 21
9.0968208517
  0
LINE
  5
307
100
AcDbEntity
  8
0
100
AcDbLine
 62
4
  6
CONTINUOUS
 10
11.1140851805
 20
8.4885413211
 11
11.1140851805
 21
8.4057476756
  0
LINE
  5
308
100
AcDbEntity
  8
0
100
AcDbLine
 62
4
  6
CONTINUOUS
 10
11.1610016217
 20
8.3859352795
 11
11.1610016217
 21
8.5018463829
  0
LINE
  5
309
100
AcDbEntity
  8
0
100
AcDbLine
 62
7
  6
CONTINUOUS
 10
11.1657875035
 20
6.5715945998
 11
11.1657875035
 21
6.2662836504
  0
LINE
  5
30A
100
AcDbEntity
  8
0
100
AcDbLine
 62
4
  6
CONTINUOUS
 10
11.1803201007
 20
8.9757421659
 11
11.1803201007
 21
9.0585358132
  0
LINE
  5
30B
100
AcDbEntity
  8
0
100
AcDbLine
 62
4
  6
CONTINUOUS
 10
11.1803201007
 20
9.0833739019
 11
11.1803201007
 21
9.0916532694
  0
LINE
  5
30C
100
AcDbEntity
  8
0
100
AcDbLine
 62
4
  6
CONTINUOUS
 10
11.2244767089
 20
8.9809592597
 11
11.2244767089
 21
9.0471941745
  0
LINE
  5
30D
100
AcDbEntity
  8
0
100
AcDbLine
 62
4
  6
CONTINUOUS
 10
10.887989576
 20
7.9933843214
 11
10.9024784639
 21
8.0116980331
  0
LINE
  5
30E
100
AcDbEntity
  8
0
100
AcDbLine
 62
4
  6
CONTINUOUS
 10
11.0230121865
 20
8.4120636091
 11
11.0064534653
 21
8.3966532306
  0
LINE
  5
30F
100
AcDbEntity
  8
0
100
AcDbLine
 62
4
  6
CONTINUOUS
 10
11.1140851805
 20
8.4057476756
 11
11.0975264594
 21
8.390337297
  0
LINE
  5
310
100
AcDbEntity
  8
0
100
AcDbLine
 62
4
  6
CONTINUOUS
 10
11.2879518357
 20
8.4268074399
 11
11.2437952275
 21
8.4077914053
  0
LINE
  5
311
100
AcDbEntity
  8
0
100
AcDbLine
 62
7
  6
CONTINUOUS
 10
12.5566265403
 20
8.542310092
 11
12.5257169112
 21
8.544453682
  0
LINE
  5
312
100
AcDbEntity
  8
0
100
AcDbLine
 62
4
  6
CONTINUOUS
 10
10.814648203
 20
8.6649593982
 11
10.8560450336
 21
8.6620885183
  0
LINE
  5
313
100
AcDbEntity
  8
0
100
AcDbLine
 62
4
  6
CONTINUOUS
 10
10.847765673
 20
8.7288976131
 11
10.831206938
 21
8.7300459653
  0
LINE
  5
314
100
AcDbEntity
  8
0
100
AcDbLine
 62
4
  6
CONTINUOUS
 10
10.8974418503
 20
8.7254525585
 11
10.955397402
 21
8.7214333273
  0
LINE
  5
315
100
AcDbEntity
  8
0
100
AcDbLine
 62
4
  6
CONTINUOUS
 10
11.2437952275
 20
8.4519480187
 11
11.2879518357
 21
8.4268074399
  0
LINE
  5
316
100
AcDbEntity
  8
0
100
AcDbLine
 62
4
  6
CONTINUOUS
 10
9.2459155279
 20
9.9647380304
 11
9.23142664
 21
9.9754020971
  0
LINE
  5
317
100
AcDbEntity
  8
0
100
AcDbLine
 62
4
  6
CONTINUOUS
 10
9.2604044159
 20
10.0313480306
 11
9.2748933038
 21
10.0206839665
  0
LINE
  5
318
100
AcDbEntity
  8
0
100
AcDbLine
 62
4
  6
CONTINUOUS
 10
10.8643243941
 20
8.7111905303
 11
10.847765673
 21
8.7288976131
  0
LINE
  5
319
100
AcDbEntity
  8
0
100
AcDbLine
 62
4
  6
CONTINUOUS
 10
11.0975264594
 20
8.5062484004
 11
11.1140851805
 21
8.4885413211
  0
LINE
  5
31A
100
AcDbEntity
  8
0
100
AcDbLine
 62
4
  6
CONTINUOUS
 10
10.6697593011
 20
9.0939433249
 11
10.6780386617
 21
9.0850897818
  0
LINE
  5
31B
100
AcDbEntity
  8
0
100
AcDbLine
 62
4
  6
CONTINUOUS
 10
10.8615646027
 20
8.7610581102
 11
10.847765673
 21
8.7785737973
  0
LINE
  5
31C
100
AcDbEntity
  8
0
100
AcDbLine
 62
4
  6
CONTINUOUS
 10
10.8988217303
 20
9.0780577915
 11
10.9043412856
 21
9.0693956416
  0
LINE
  5
31D
100
AcDbEntity
  8
0
100
AcDbLine
 62
4
  6
CONTINUOUS
 10
10.9898947244
 20
9.0551831298
 11
10.9816153914
 21
9.0723160316
  0
LINE
  5
31E
100
AcDbEntity
  8
0
100
AcDbLine
 62
4
  6
CONTINUOUS
 10
11.298991037
 20
9.0171884962
 11
11.298991037
 21
9.0420265883
  0
LINE
  5
31F
100
AcDbEntity
  8
0
100
AcDbLine
 62
7
  6
CONTINUOUS
 10
11.317207443
 20
6.5044269117
 11
11.317207443
 21
6.1200234704
  0
LINE
  5
320
100
AcDbEntity
  8
0
100
AcDbLine
 62
4
  6
CONTINUOUS
 10
11.3486671453
 20
8.9723466236
 11
11.3486671453
 21
8.9971847183
  0
LINE
  5
321
100
AcDbEntity
  8
0
100
AcDbLine
 62
7
  6
CONTINUOUS
 10
11.3566802209
 20
6.4942106179
 11
11.3566802209
 21
6.1098071766
  0
LINE
  5
322
100
AcDbEntity
  8
0
100
AcDbLine
 62
4
  6
CONTINUOUS
 10
10.9531895717
 20
7.9212478765
 11
10.9459451277
 21
7.9120910215
  0
LINE
  5
323
100
AcDbEntity
  8
0
100
AcDbLine
 62
4
  6
CONTINUOUS
 10
12.2625021023
 20
8.9567163002
 11
12.2769909903
 21
8.9653707487
  0
LINE
  5
324
100
AcDbEntity
  8
0
100
AcDbLine
 62
4
  6
CONTINUOUS
 10
12.3059687661
 20
8.9150648377
 11
12.2769909903
 21
8.8977559372
  0
LINE
  5
325
100
AcDbEntity
  8
0
100
AcDbLine
 62
4
  6
CONTINUOUS
 10
10.9024784639
 20
8.0116980331
 11
10.9169673518
 21
8.0203524816
  0
LINE
  5
326
100
AcDbEntity
  8
0
100
AcDbLine
 62
4
  6
CONTINUOUS
 10
10.847765673
 20
8.7785737973
 11
10.814648203
 21
8.7808705017
  0
LINE
  5
327
100
AcDbEntity
  8
0
100
AcDbLine
 62
4
  6
CONTINUOUS
 10
12.2552576584
 20
8.8509668569
 11
12.3132132101
 21
8.8469476258
  0
LINE
  5
328
100
AcDbEntity
  8
0
100
AcDbLine
 62
4
  6
CONTINUOUS
 10
10.7994693481
 20
9.0021542553
 11
10.7829106269
 21
9.0115819715
  0
LINE
  5
329
100
AcDbEntity
  8
0
100
AcDbLine
 62
4
  6
CONTINUOUS
 10
10.956777282
 20
8.9912449131
 11
10.9402185609
 21
9.0006726292
  0
LINE
  5
32A
100
AcDbEntity
  8
0
100
AcDbLine
 62
4
  6
CONTINUOUS
 10
9.2604044159
 20
10.079644326
 11
9.2748933038
 21
10.0689802619
  0
LINE
  5
32B
100
AcDbEntity
  8
0
100
AcDbLine
 62
4
  6
CONTINUOUS
 10
11.0230121667
 20
8.9949308731
 11
11.0312915549
 21
8.9860773307
  0
LINE
  5
32C
100
AcDbEntity
  8
0
100
AcDbLine
 62
4
  6
CONTINUOUS
 10
11.114085216
 20
8.9803355708
 11
11.1058058278
 21
8.9891891132
  0
LINE
  5
32D
100
AcDbEntity
  8
0
100
AcDbLine
 62
4
  6
CONTINUOUS
 10
10.9459451277
 20
7.9120910215
 11
10.9314562398
 21
7.9034365704
  0
LINE
  5
32E
100
AcDbEntity
  8
0
100
AcDbLine
 62
4
  6
CONTINUOUS
 10
10.7111561317
 20
8.9806809158
 11
10.7277148528
 21
8.9795325646
  0
LINE
  5
32F
100
AcDbEntity
  8
0
100
AcDbLine
 62
4
  6
CONTINUOUS
 10
11.2658735947
 20
8.969809011
 11
11.2327560418
 21
8.9721057211
  0
LINE
  5
330
100
AcDbEntity
  8
0
100
AcDbLine
 62
4
  6
CONTINUOUS
 10
11.1306439372
 20
8.9791872196
 11
11.114085216
 21
8.9803355708
  0
LINE
  5
331
100
AcDbEntity
  8
0
100
AcDbLine
 62
4
  6
CONTINUOUS
 10
10.9898947244
 20
8.9889482106
 11
10.956777282
 21
8.9912449131
  0
LINE
  5
332
100
AcDbEntity
  8
0
100
AcDbLine
 62
4
  6
CONTINUOUS
 10
10.8325867904
 20
8.9998575529
 11
10.7994693481
 21
9.0021542553
  0
LINE
  5
333
100
AcDbEntity
  8
0
100
AcDbLine
 62
4
  6
CONTINUOUS
 10
10.272349804
 20
9.0387101199
 11
10.3054672627
 21
9.0364134163
  0
LINE
  5
334
100
AcDbEntity
  8
0
100
AcDbLine
 62
4
  6
CONTINUOUS
 10
10.371702175
 20
9.0318200095
 11
10.3965402775
 21
9.0300974813
  0
LINE
  5
335
100
AcDbEntity
  8
0
100
AcDbLine
 62
4
  6
CONTINUOUS
 10
11.0312915549
 20
8.9860773307
 11
11.0726883855
 21
8.9832064507
  0
LINE
  5
336
100
AcDbEntity
  8
0
100
AcDbLine
 62
4
  6
CONTINUOUS
 10
11.30727037
 20
8.9669381349
 11
11.3403878123
 21
8.9646414324
  0
LINE
  5
337
100
AcDbEntity
  8
0
100
AcDbLine
 62
4
  6
CONTINUOUS
 10
10.956777282
 20
9.0326417367
 11
10.9898947244
 21
9.0303450343
  0
LINE
  5
338
100
AcDbEntity
  8
0
100
AcDbLine
 62
7
  6
CONTINUOUS
 10
12.9448547875
 20
8.9173098047
 11
12.9139451585
 21
8.9194533948
  0
LINE
  5
339
100
AcDbEntity
  8
0
100
AcDbLine
 62
4
  6
CONTINUOUS
 10
12.2769909903
 20
8.9653707487
 11
12.2914798782
 21
8.9643659409
  0
LINE
  5
33A
100
AcDbEntity
  8
0
100
AcDbLine
 62
4
  6
CONTINUOUS
 10
10.9816153914
 20
9.0723160316
 11
10.9402185609
 21
9.0751869116
  0
LINE
  5
33B
100
AcDbEntity
  8
0
100
AcDbLine
 62
4
  6
CONTINUOUS
 10
10.6283624706
 20
9.0968142049
 11
10.6697593011
 21
9.0939433249
  0
LINE
  5
33C
100
AcDbEntity
  8
0
100
AcDbLine
 62
4
  6
CONTINUOUS
 10
10.7994693481
 20
9.0849479026
 11
10.8325867904
 21
9.0826512002
  0
LINE
  5
33D
100
AcDbEntity
  8
0
100
AcDbLine
 62
4
  6
CONTINUOUS
 10
10.865704288
 20
9.0803544939
 11
10.8988217303
 21
9.0780577915
  0
LINE
  5
33E
100
AcDbEntity
  8
0
100
AcDbLine
 62
4
  6
CONTINUOUS
 10
11.2327560418
 20
9.0548993684
 11
11.2658735947
 21
9.0526026583
  0
LINE
  5
33F
100
AcDbEntity
  8
0
100
AcDbLine
 62
4
  6
CONTINUOUS
 10
11.30727037
 20
9.0497317821
 11
11.3403878123
 21
9.0474350797
  0
LINE
  5
340
100
AcDbEntity
  8
0
100
AcDbLine
 62
4
  6
CONTINUOUS
 10
10.2806291689
 20
9.1540470474
 11
10.3137466268
 21
9.1517503439
  0
LINE
  5
341
100
AcDbEntity
  8
0
100
AcDbLine
 62
4
  6
CONTINUOUS
 10
11.1803201007
 20
9.0916532694
 11
11.1830798783
 21
9.0914618781
  0
LINE
  5
342
100
AcDbEntity
  8
0
100
AcDbLine
 62
4
  6
CONTINUOUS
 10
11.3403878123
 20
9.0032784681
 11
11.30727037
 21
9.0110947465
  0
LINE
  5
343
100
AcDbEntity
  8
0
100
AcDbLine
 62
4
  6
CONTINUOUS
 10
11.30727037
 20
9.0110947465
 11
11.298991037
 21
9.0171884962
  0
LINE
  5
344
100
AcDbEntity
  8
0
100
AcDbLine
 62
4
  6
CONTINUOUS
 10
11.3486671453
 20
8.9971847183
 11
11.3403878123
 21
9.0032784681
  0
LINE
  5
345
100
AcDbEntity
  8
0
100
AcDbLine
 62
4
  6
CONTINUOUS
 10
11.2327560418
 20
8.9721057211
 11
11.2244767089
 21
8.9809592597
  0
LINE
  5
346
100
AcDbEntity
  8
0
100
AcDbLine
 62
4
  6
CONTINUOUS
 10
11.298991037
 20
8.9757916735
 11
11.30727037
 21
8.9669381349
  0
LINE
  5
347
100
AcDbEntity
  8
0
100
AcDbLine
 62
4
  6
CONTINUOUS
 10
11.3403878123
 20
9.0474350797
 11
11.3486671453
 21
9.0385815385
  0
LINE
  5
348
100
AcDbEntity
  8
0
100
AcDbLine
 62
4
  6
CONTINUOUS
 10
12.2552576584
 20
8.9475594408
 11
12.2625021023
 21
8.9567163002
  0
LINE
  5
349
100
AcDbEntity
  8
0
100
AcDbLine
 62
4
  6
CONTINUOUS
 10
12.2769909903
 20
8.8977559372
 11
12.2625021023
 21
8.8794422289
  0
LINE
  5
34A
100
AcDbEntity
  8
0
100
AcDbLine
 62
4
  6
CONTINUOUS
 10
12.3132132101
 20
8.924221697
 11
12.3059687661
 21
8.9150648377
  0
LINE
  5
34B
100
AcDbEntity
  8
0
100
AcDbLine
 62
7
  6
CONTINUOUS
 10
12.5566265403
 20
9.117823616
 11
12.5257169112
 21
9.1199672061
  0
LINE
  5
34C
100
AcDbEntity
  8
0
100
AcDbLine
 62
7
  6
CONTINUOUS
 10
11.9217866955
 20
6.4550203508
 11
11.9217866955
 21
6.0706169095
  0
LINE
  5
34D
100
AcDbEntity
  8
0
100
AcDbLine
 62
7
  6
CONTINUOUS
 10
11.9757074978
 20
6.4587597778
 11
11.9757074978
 21
6.0743563364
  0
LINE
  5
34E
100
AcDbEntity
  8
0
100
AcDbLine
 62
4
  6
CONTINUOUS
 10
12.2625021023
 20
8.8794422289
 11
12.2552576584
 21
8.8509668569
  0
LINE
  5
34F
100
AcDbEntity
  8
0
100
AcDbLine
 62
7
  6
CONTINUOUS
 10
12.9448547875
 20
9.4928233288
 11
12.9139451585
 21
9.4949669188
  0
LINE
  5
350
100
AcDbEntity
  8
0
100
AcDbLine
 62
4
  6
CONTINUOUS
 10
12.2914798782
 20
8.9643659409
 11
12.3059687661
 21
8.9537018768
  0
LINE
  5
351
100
AcDbEntity
  8
0
100
AcDbLine
 62
4
  6
CONTINUOUS
 10
12.3132132101
 20
8.9435402097
 11
12.3132132101
 21
8.924221697
  0
LINE
  5
352
100
AcDbEntity
  8
0
100
AcDbLine
 62
7
  6
CONTINUOUS
 10
12.3893940328
 20
6.4867371987
 11
12.3893940328
 21
6.1814262494
  0
LINE
  5
353
100
AcDbEntity
  8
0
100
AcDbLine
 62
7
  6
CONTINUOUS
 10
12.4038420572
 20
6.4857352249
 11
12.4038420572
 21
6.1953819701
  0
LINE
  5
354
100
AcDbEntity
  8
0
100
AcDbLine
 62
4
  6
CONTINUOUS
 10
9.2604044159
 20
9.9637332226
 11
9.2459155279
 21
9.9647380304
  0
LINE
  5
355
100
AcDbEntity
  8
0
100
AcDbLine
 62
4
  6
CONTINUOUS
 10
9.2459155279
 20
10.0323528384
 11
9.2604044159
 21
10.0313480306
  0
LINE
  5
356
100
AcDbEntity
  8
0
100
AcDbLine
 62
4
  6
CONTINUOUS
 10
9.2459155279
 20
10.0806491338
 11
9.2604044159
 21
10.079644326
  0
LINE
  5
357
100
AcDbEntity
  8
0
100
AcDbLine
 62
4
  6
CONTINUOUS
 10
12.3059687661
 20
8.9537018768
 11
12.3132132101
 21
8.9435402097
  0
LINE
  5
358
100
AcDbEntity
  8
0
100
AcDbLine
 62
7
  6
CONTINUOUS
 10
12.5257169112
 20
9.1199672061
 11
12.5257169112
 21
8.544453682
  0
LINE
  5
359
100
AcDbEntity
  8
0
100
AcDbLine
 62
7
  6
CONTINUOUS
 10
12.5566265403
 20
6.475139585
 11
12.5566265403
 21
8.542310092
  0
LINE
  5
35A
100
AcDbEntity
  8
0
100
AcDbLine
 62
7
  6
CONTINUOUS
 10
12.5566265403
 20
9.117823616
 11
12.5566265403
 21
10.3388431191
  0
LINE
  5
35B
100
AcDbEntity
  8
0
100
AcDbLine
 62
7
  6
CONTINUOUS
 10
12.9139451585
 20
9.4949669188
 11
12.9139451585
 21
8.9194533948
  0
LINE
  5
35C
100
AcDbEntity
  8
0
100
AcDbLine
 62
7
  6
CONTINUOUS
 10
12.9448547875
 20
6.8501392977
 11
12.9448547875
 21
8.9173098047
  0
LINE
  5
35D
100
AcDbEntity
  8
0
100
AcDbLine
 62
7
  6
CONTINUOUS
 10
12.9448547875
 20
9.4928233288
 11
12.9448547875
 21
10.7138428318
  0
LINE
  5
35E
100
AcDbEntity
  8
0
100
AcDbLine
 62
7
  6
CONTINUOUS
 10
9.0551452125
 20
10.5816716739
 11
12.5566265403
 21
10.3388431191
  0
LINE
  5
35F
100
AcDbEntity
  8
0
100
AcDbLine
 62
7
  6
CONTINUOUS
 10
9.2146371703
 20
10.7357290842
 11
9.2455467993
 21
10.7335854941
  0
LINE
  5
360
100
AcDbEntity
  8
0
100
AcDbLine
 62
7
  6
CONTINUOUS
 10
9.2838815019
 20
10.8026139764
 11
9.3147911309
 21
10.8004703863
  0
LINE
  5
361
100
AcDbEntity
  8
0
100
AcDbLine
 62
7
  6
CONTINUOUS
 10
12.9448547875
 20
10.7138428318
 11
9.4433734597
 21
10.9566713866
  0
LINE
  5
362
100
AcDbEntity
  8
0
100
AcDbLine
 62
7
  6
CONTINUOUS
 10
12.5566265403
 20
6.475139585
 11
12.9448547875
 21
6.8501392977
  0
LINE
  5
363
100
AcDbEntity
  8
0
100
AcDbLine
 62
7
  6
CONTINUOUS
 10
12.3070979012
 20
6.1352630932
 11
12.2764238907
 21
6.1201107194
  0
ARC
  5
364
100
AcDbEntity
  8
0
100
AcDbCircle
 62
7
  6
CONTINUOUS
 10
11.7958543029
 20
8.2771297941
 40
2.210103635
100
AcDbArc
 50
273.2665005552
 51
274.6677615151
  0
ARC
  5
365
100
AcDbEntity
  8
0
100
AcDbCircle
 62
7
  6
CONTINUOUS
 10
11.7958543029
 20
8.6615332355
 40
2.210103635
100
AcDbArc
 50
273.2665005552
 51
274.6677615151
  0
ARC
  5
366
100
AcDbEntity
  8
0
100
AcDbCircle
 62
7
  6
CONTINUOUS
 10
11.5758797294
 20
7.4224973516
 40
0.9538158545
100
AcDbArc
 50
254.2644742826
 51
256.7139235525
  0
ARC
  5
367
100
AcDbEntity
  8
0
100
AcDbCircle
 62
7
  6
CONTINUOUS
 10
11.5758797294
 20
7.0380939102
 40
0.9538158545
100
AcDbArc
 50
254.2644742826
 51
256.7139235525
  0
ARC
  5
368
100
AcDbEntity
  8
0
100
AcDbCircle
 62
7
  6
CONTINUOUS
 10
11.9682168996
 20
6.8201582944
 40
0.7641475746
100
AcDbArc
 50
293.7608747297
 51
296.3085175792
  0
ARC
  5
369
100
AcDbEntity
  8
0
100
AcDbCircle
 62
7
  6
CONTINUOUS
 10
10.475181195
 20
7.6897486121
 40
0.3600467106
100
AcDbArc
 50
134.8320443738
 51
135.8393257379
  0
ARC
  5
36A
100
AcDbEntity
  8
0
100
AcDbCircle
 62
7
  6
CONTINUOUS
 10
10.5494686798
 20
7.6128400878
 40
0.3600255271
100
AcDbArc
 50
312.1752390263
 51
313.3149651756
  0
ARC
  5
36B
100
AcDbEntity
  8
0
100
AcDbCircle
 62
7
  6
CONTINUOUS
 10
10.5167920973
 20
7.6347514809
 40
0.2321760253
100
AcDbArc
 50
349.3351410777
 51
0.0338909318
  0
ARC
  5
36C
100
AcDbEntity
  8
0
100
AcDbCircle
 62
7
  6
CONTINUOUS
 10
10.5267509676
 20
7.6652428087
 40
0.2084768963
100
AcDbArc
 50
43.769309109
 51
46.6396121034
  0
ARC
  5
36D
100
AcDbEntity
  8
0
100
AcDbCircle
 62
7
  6
CONTINUOUS
 10
10.5267984233
 20
7.6652883341
 40
0.2084111346
100
AcDbArc
 50
42.3918281774
 51
43.7692960467
  0
ARC
  5
36E
100
AcDbEntity
  8
0
100
AcDbCircle
 62
7
  6
CONTINUOUS
 10
10.5268898556
 20
7.6653881485
 40
0.2082758686
100
AcDbArc
 50
46.6399395303
 51
47.1144302282
  0
SPLINE
  5
36F
100
AcDbEntity
  8
0
100
AcDbSpline
 62
7
  6
CONTINUOUS
 70
0
 71
3
 72
9
 73
5
 74
0
 42
0.0000001
 43
0.0000001
 44
0.0000000001
 40
0.0
 40
0.0
 40
0.0
 40
0.0
 40
0.2426770998
 40
1.0
 40
1.0
 40
1.0
 40
1.0
 10
12.3972117905
 20
6.1883629334
 30
0.0
 10
12.3966036
 20
6.1877754665
 30
0.0
 10
12.3940705486
 20
6.1853825853
 30
0.0
 10
12.3914348349
 20
6.1830991158
 30
0.0
 10
12.3893940328
 20
6.1814262494
 30
0.0
  0
SPLINE
  5
370
100
AcDbEntity
  8
0
100
AcDbSpline
 62
7
  6
CONTINUOUS
 70
0
 71
3
 72
9
 73
5
 74
0
 42
0.0000001
 43
0.0000001
 44
0.0000000001
 40
0.0
 40
0.0
 40
0.0
 40
0.0
 40
0.2426666479
 40
1.0
 40
1.0
 40
1.0
 40
1.0
 10
12.4038420572
 20
6.1953819701
 30
0.0
 10
12.4033344294
 20
6.1947881972
 30
0.0
 10
12.4012107336
 20
6.1923686127
 30
0.0
 10
12.3989653251
 20
6.1900567179
 30
0.0
 10
12.3972117905
 20
6.1883629334
 30
0.0
  0
SPLINE
  5
371
100
AcDbEntity
  8
0
100
AcDbSpline
 62
7
  6
CONTINUOUS
 70
0
 71
3
 72
9
 73
5
 74
0
 42
0.0000001
 43
0.0000001
 44
0.0000000001
 40
0.0
 40
0.0
 40
0.0
 40
0.0
 40
0.504378312
 40
1.0
 40
1.0
 40
1.0
 40
1.0
 10
12.3893940328
 20
6.1814262494
 30
0.0
 10
12.3758902826
 20
6.1730173957
 30
0.0
 10
12.3487774452
 20
6.1568827397
 30
0.0
 10
12.3209046487
 20
6.1420855449
 30
0.0
 10
12.3068905107
 20
6.1351607025
 30
0.0
  0
SPLINE
  5
372
100
AcDbEntity
  8
0
100
AcDbSpline
 62
7
  6
CONTINUOUS
 70
0
 71
3
 72
23
 73
19
 74
0
 42
0.0000001
 43
0.0000001
 44
0.0000000001
 40
0.0
 40
0.0
 40
0.0
 40
0.0
 40
0.0436203086
 40
0.0892268542
 40
0.137068591
 40
0.187353676
 40
0.2402538462
 40
0.2958872461
 40
0.3543311569
 40
0.4156094827
 40
0.4797102731
 40
0.5465788188
 40
0.6161346312
 40
0.6882694307
 40
0.7628606873
 40
0.8397744221
 40
0.9188692703
 40
1.0
 40
1.0
 40
1.0
 40
1.0
 10
11.2741960138
 20
6.1295011619
 30
0.0
 10
11.2718860781
 20
6.1306417304
 30
0.0
 10
11.2672489544
 20
6.1331568269
 30
0.0
 10
11.260421665
 20
6.1375178789
 30
0.0
 10
11.2535852761
 20
6.1425601655
 30
0.0
 10
11.2467437264
 20
6.1482910978
 30
0.0
 10
11.2399026282
 20
6.1547147486
 30
0.0
 10
11.2330650877
 20
6.161826321
 30
0.0
 10
11.2262368285
 20
6.169617133
 30
0.0
 10
11.2194205844
 20
6.1780705355
 30
0.0
 10
11.2126214159
 20
6.1871664414
 30
0.0
 10
11.2058415657
 20
6.1968788233
 30
0.0
 10
11.1990848988
 20
6.2071793714
 30
0.0
 10
11.1923530118
 20
6.2180363255
 30
0.0
 10
11.1856482948
 20
6.229417179
 30
0.0
 10
11.1789716456
 20
6.2412882614
 30
0.0
 10
11.1723241531
 20
6.2536161005
 30
0.0
 10
11.1679650351
 20
6.2620155176
 30
0.0
 10
11.1657875035
 20
6.2662836504
 30
0.0
  0
SPLINE
  5
373
100
AcDbEntity
  8
0
100
AcDbSpline
 62
7
  6
CONTINUOUS
 70
0
 71
3
 72
47
 73
43
 74
0
 42
0.0000001
 43
0.0000001
 44
0.0000000001
 40
0.0
 40
0.0
 40
0.0
 40
0.0
 40
0.0099874638
 40
0.0204476834
 40
0.0313771515
 40
0.0427708334
 40
0.0546218702
 40
0.0669225517
 40
0.0796641282
 40
0.0928362942
 40
0.1204271347
 40
0.1495984091
 40
0.1802407165
 40
0.2122338314
 40
0.2454489836
 40
0.2797497839
 40
0.3149929168
 40
0.3510298084
 40
0.3877071885
 40
0.4248680172
 40
0.4623527228
 40
0.4999997959
 40
0.5376468789
 40
0.575131606
 40
0.6122924455
 40
0.6489698269
 40
0.6850067267
 40
0.7202498875
 40
0.7545507276
 40
0.7877659112
 40
0.8197590481
 40
0.8504013805
 40
0.8795726993
 40
0.9071635849
 40
0.9203357726
 40
0.933077377
 40
0.9453780958
 40
0.9572291635
 40
0.968622847
 40
0.9795522717
 40
0.9900124597
 40
1.0
 40
1.0
 40
1.0
 40
1.0
 10
12.2764277761
 20
6.120112674
 30
0.0
 10
12.2734372418
 20
6.1186353963
 30
0.0
 10
12.2672635354
 20
6.1157134805
 30
0.0
 10
12.257661337
 20
6.1115140368
 30
0.0
 10
12.2475131589
 20
6.107401202
 30
0.0
 10
12.2368307109
 20
6.1033799922
 30
0.0
 10
12.2256263352
 20
6.099454687
 30
0.0
 10
12.2139128346
 20
6.0956299679
 30
0.0
 10
12.2017035786
 20
6.0919103971
 30
0.0
 10
12.1845157498
 20
6.0870208653
 30
0.0
 10
12.1618854375
 20
6.0812253838
 30
0.0
 10
12.1333941592
 20
6.0748567116
 30
0.0
 10
12.1032941102
 20
6.0690011877
 30
0.0
 10
12.071724104
 20
6.063685846
 30
0.0
 10
12.038829446
 20
6.0589356896
 30
0.0
 10
12.0047617949
 20
6.0547731575
 30
0.0
 10
11.9696783364
 20
6.0512174295
 30
0.0
 10
11.9337410155
 20
6.0482852591
 30
0.0
 10
11.8971157546
 20
6.0459904745
 30
0.0
 10
11.8599717221
 20
6.044343527
 30
0.0
 10
11.8224804982
 20
6.043352291
 30
0.0
 10
11.7848152579
 20
6.0430214344
 30
0.0
 10
11.7471500103
 20
6.0433522743
 30
0.0
 10
11.7096587719
 20
6.0443434943
 30
0.0
 10
11.6725147274
 20
6.045990425
 30
0.0
 10
11.6358894587
 20
6.0482851935
 30
0.0
 10
11.599952124
 20
6.051217347
 30
0.0
 10
11.5648686384
 20
6.0547730604
 30
0.0
 10
11.5308009522
 20
6.0589355779
 30
0.0
 10
11.4979062609
 20
6.0636857209
 30
0.0
 10
11.4663362255
 20
6.0690010468
 30
0.0
 10
11.4362361426
 20
6.0748565564
 30
0.0
 10
11.407744823
 20
6.081225219
 30
0.0
 10
11.385114469
 20
6.0870206871
 30
0.0
 10
11.3679266045
 20
6.0919102094
 30
0.0
 10
11.3557173178
 20
6.0956297787
 30
0.0
 10
11.3440037857
 20
6.099454505
 30
0.0
 10
11.3327993863
 20
6.1033798128
 30
0.0
 10
11.3221169355
 20
6.1074010043
 30
0.0
 10
11.3119687634
 20
6.1115137881
 30
0.0
 10
11.3023665475
 20
6.1157131934
 30
0.0
 10
11.2961928263
 20
6.1186351141
 30
0.0
 10
11.2932022733
 20
6.1201124117
 30
0.0
  0
SPLINE
  5
374
100
AcDbEntity
  8
0
100
AcDbSpline
 62
7
  6
CONTINUOUS
 70
0
 71
3
 72
15
 73
11
 74
0
 42
0.0000001
 43
0.0000001
 44
0.0000000001
 40
0.0
 40
0.0
 40
0.0
 40
0.0
 40
0.1299708166
 40
0.2593283487
 40
0.3876617857
 40
0.5145654289
 40
0.6396384778
 40
0.7624890516
 40
0.8827334041
 40
1.0
 40
1.0
 40
1.0
 40
1.0
 10
11.7695936258
 20
6.5295845285
 30
0.0
 10
11.7591427977
 20
6.5296610609
 30
0.0
 10
11.7382912601
 20
6.5299712049
 30
0.0
 10
11.7071318432
 20
6.5309081742
 30
0.0
 10
11.6762368199
 20
6.5323134805
 30
0.0
 10
11.6457114732
 20
6.5341818654
 30
0.0
 10
11.6156596761
 20
6.5365073986
 30
0.0
 10
11.5861836752
 20
6.5392816127
 30
0.0
 10
11.5573839181
 20
6.5424954177
 30
0.0
 10
11.5384433216
 20
6.5449567437
 30
0.0
 10
11.5291046195
 20
6.5462624977
 30
0.0
  0
SPLINE
  5
375
100
AcDbEntity
  8
0
100
AcDbSpline
 62
7
  6
CONTINUOUS
 70
0
 71
3
 72
10
 73
6
 74
0
 42
0.0000001
 43
0.0000001
 44
0.0000000001
 40
0.0
 40
0.0
 40
0.0
 40
0.0
 40
0.4950633206
 40
0.7463873743
 40
1.0
 40
1.0
 40
1.0
 40
1.0
 10
12.0671270389
 20
6.50936208
 30
0.0
 10
12.051567169
 20
6.5019147807
 30
0.0
 10
12.0284765004
 20
6.4899021548
 30
0.0
 10
11.9982496342
 20
6.4725644433
 30
0.0
 10
11.9832090059
 20
6.4634310049
 30
0.0
 10
11.9757074978
 20
6.4587597778
 30
0.0
  0
SPLINE
  5
376
100
AcDbEntity
  8
0
100
AcDbSpline
 62
7
  6
CONTINUOUS
 70
0
 71
3
 72
21
 73
17
 74
0
 42
0.0000001
 43
0.0000001
 44
0.0000000001
 40
0.0
 40
0.0
 40
0.0
 40
0.0
 40
0.1230212981
 40
0.1847065752
 40
0.2465215318
 40
0.3084771567
 40
0.3705832678
 40
0.432847904
 40
0.4952752623
 40
0.5578663069
 40
0.6206183946
 40
0.6835249868
 40
0.7465773451
 40
0.8097643485
 40
0.8730733734
 40
1.0
 40
1.0
 40
1.0
 40
1.0
 10
11.9217866955
 20
6.0706169095
 30
0.0
 10
11.8987075145
 20
6.0660695533
 30
0.0
 10
11.863875073
 20
6.060097147
 30
0.0
 10
11.817103858
 20
6.0541869996
 30
0.0
 10
11.7817925494
 20
6.0508597856
 30
0.0
 10
11.7463081066
 20
6.048725378
 30
0.0
 10
11.7106833855
 20
6.0478546417
 30
0.0
 10
11.674960174
 20
6.0483035369
 30
0.0
 10
11.6391865523
 20
6.0501055356
 30
0.0
 10
11.6034140261
 20
6.0532688215
 30
0.0
 10
11.5676940862
 20
6.0577777721
 30
0.0
 10
11.5320744728
 20
6.0635920139
 30
0.0
 10
11.4965963333
 20
6.070649728
 30
0.0
 10
11.4612921426
 20
6.0788754177
 30
0.0
 10
11.4144482164
 20
6.0912949697
 30
0.0
 10
11.3796878067
 20
6.1020827641
 30
0.0
 10
11.3566802209
 20
6.1098071766
 30
0.0
  0
SPLINE
  5
377
100
AcDbEntity
  8
0
100
AcDbSpline
 62
7
  6
CONTINUOUS
 70
0
 71
3
 72
21
 73
17
 74
0
 42
0.0000001
 43
0.0000001
 44
0.0000000001
 40
0.0
 40
0.0
 40
0.0
 40
0.0
 40
0.1269266266
 40
0.1902356515
 40
0.253422655
 40
0.3164750132
 40
0.3793816055
 40
0.4421336932
 40
0.5047247377
 40
0.567152096
 40
0.6294167323
 40
0.6915228434
 40
0.7534784683
 40
0.8152934248
 40
0.8769787019
 40
1.0
 40
1.0
 40
1.0
 40
1.0
 10
11.9217866955
 20
6.4550203508
 30
0.0
 10
11.8987791097
 20
6.4627447634
 30
0.0
 10
11.8640187
 20
6.4735325577
 30
0.0
 10
11.8171747739
 20
6.4859521098
 30
0.0
 10
11.7818705831
 20
6.4941777995
 30
0.0
 10
11.7463924436
 20
6.5012355135
 30
0.0
 10
11.7107728302
 20
6.5070497553
 30
0.0
 10
11.6750528903
 20
6.5115587059
 30
0.0
 10
11.6392803641
 20
6.5147219918
 30
0.0
 10
11.6035067424
 20
6.5165239906
 30
0.0
 10
11.5677835309
 20
6.5169728858
 30
0.0
 10
11.5321588098
 20
6.5161021494
 30
0.0
 10
11.496674367
 20
6.5139677418
 30
0.0
 10
11.4613630584
 20
6.5106405278
 30
0.0
 10
11.4145918435
 20
6.5047303804
 30
0.0
 10
11.3797594019
 20
6.4987579741
 30
0.0
 10
11.3566802209
 20
6.4942106179
 30
0.0
  0
SPLINE
  5
378
100
AcDbEntity
  8
0
100
AcDbSpline
 62
7
  6
CONTINUOUS
 70
0
 71
3
 72
11
 73
7
 74
0
 42
0.0000001
 43
0.0000001
 44
0.0000000001
 40
0.0
 40
0.0
 40
0.0
 40
0.0
 40
0.2465919593
 40
0.494712682
 40
0.7454424776
 40
1.0
 40
1.0
 40
1.0
 40
1.0
 10
11.317207443
 20
6.1200234704
 30
0.0
 10
11.3152650301
 20
6.1199686357
 30
0.0
 10
11.3113637204
 20
6.1199759822
 30
0.0
 10
11.3054980292
 20
6.120359504
 30
0.0
 10
11.2996079572
 20
6.1211377864
 30
0.0
 10
11.2957015001
 20
6.1219273342
 30
0.0
 10
11.293750055
 20
6.1223917956
 30
0.0
  0
SPLINE
  5
379
100
AcDbEntity
  8
0
100
AcDbSpline
 62
7
  6
CONTINUOUS
 70
0
 71
3
 72
10
 73
6
 74
0
 42
0.0000001
 43
0.0000001
 44
0.0000000001
 40
0.0
 40
0.0
 40
0.0
 40
0.0
 40
0.2418255986
 40
0.4885199497
 40
1.0
 40
1.0
 40
1.0
 40
1.0
 10
11.293750055
 20
6.1223917956
 30
0.0
 10
11.2921155375
 20
6.1227808253
 30
0.0
 10
11.2888352272
 20
6.1236616859
 30
0.0
 10
11.2822363268
 20
6.1258439912
 30
0.0
 10
11.2773824484
 20
6.1279278075
 30
0.0
 10
11.2741960138
 20
6.1295011619
 30
0.0
  0
SPLINE
  5
37A
100
AcDbEntity
  8
0
100
AcDbSpline
 62
7
  6
CONTINUOUS
 70
0
 71
3
 72
11
 73
7
 74
0
 42
0.0000001
 43
0.0000001
 44
0.0000000001
 40
0.0
 40
0.0
 40
0.0
 40
0.0
 40
0.2633952514
 40
0.5183435581
 40
0.764111363
 40
1.0
 40
1.0
 40
1.0
 40
1.0
 10
11.317207443
 20
6.5044269117
 30
0.0
 10
11.3144909565
 20
6.5097514385
 30
0.0
 10
11.3090541588
 20
6.5201837483
 30
0.0
 10
11.3007279916
 20
6.5353962342
 30
0.0
 10
11.2923575312
 20
6.5498678773
 30
0.0
 10
11.2866260542
 20
6.5591776171
 30
0.0
 10
11.2837455337
 20
6.5636897717
 30
0.0
  0
LINE
  5
37B
100
AcDbEntity
  8
0
100
AcDbLine
 62
7
  6
CONTINUOUS
 10
12.2761075525
 20
6.1207836726
 11
12.2753784385
 21
6.120463785
  0
SPLINE
  5
37C
100
AcDbEntity
  8
0
100
AcDbSpline
 62
7
  6
CONTINUOUS
 70
0
 71
3
 72
15
 73
11
 74
0
 42
0.0000001
 43
0.0000001
 44
0.0000000001
 40
0.0
 40
0.0
 40
0.0
 40
0.0
 40
0.1321602046
 40
0.2618009952
 40
0.3890353631
 40
0.5141096583
 40
0.6373677171
 40
0.75919507
 40
0.8799649792
 40
1.0
 40
1.0
 40
1.0
 40
1.0
 10
12.2753784385
 20
6.120463785
 30
0.0
 10
12.2629973351
 20
6.1150400428
 30
0.0
 10
12.2381565712
 20
6.1049930537
 30
0.0
 10
12.2003625081
 20
6.0924596163
 30
0.0
 10
12.1624917387
 20
6.0827423268
 30
0.0
 10
12.124665363
 20
6.0758738226
 30
0.0
 10
12.0869979771
 20
6.0717739941
 30
0.0
 10
12.0495823951
 20
6.0702673062
 30
0.0
 10
12.0124815585
 20
6.0711141539
 30
0.0
 10
11.9879171391
 20
6.0730735039
 30
0.0
 10
11.9757074978
 20
6.0743563364
 30
0.0
  0
SPLINE
  5
37D
100
AcDbEntity
  8
0
100
AcDbSpline
 62
7
  6
CONTINUOUS
 70
0
 71
3
 72
91
 73
87
 74
0
 42
0.0000001
 43
0.0000001
 44
0.0000000001
 40
0.0
 40
0.0
 40
0.0
 40
0.0
 40
0.0039801824
 40
0.0081241125
 40
0.0124359604
 40
0.0169193082
 40
0.0215771808
 40
0.0264119179
 40
0.0314251804
 40
0.036618156
 40
0.0419915391
 40
0.0475456573
 40
0.0532804234
 40
0.0591954189
 40
0.0652899227
 40
0.0715629017
 40
0.0780131034
 40
0.0846389837
 40
0.0984102885
 40
0.1128608532
 40
0.1279713725
 40
0.1437199568
 40
0.1600824082
 40
0.1770324532
 40
0.1945419392
 40
0.2125810061
 40
0.2311182422
 40
0.2501208275
 40
0.2695546626
 40
0.2893844909
 40
0.3095740146
 40
0.330086005
 40
0.35088241
 40
0.3719244606
 40
0.3931727759
 40
0.4145874652
 40
0.4361282289
 40
0.4577544586
 40
0.4794253371
 40
0.501099938
 40
0.5227373261
 40
0.5442966575
 40
0.5657372785
 40
0.5870188258
 40
0.6081013261
 40
0.6289452975
 40
0.6495118524
 40
0.6697628021
 40
0.6896607608
 40
0.7091692527
 40
0.7282528228
 40
0.7468771515
 40
0.7650091753
 40
0.7826172172
 40
0.7996711268
 40
0.8161424293
 40
0.8320044948
 40
0.8472327309
 40
0.8618048077
 40
0.8757009255
 40
0.8889041429
 40
0.8952417292
 40
0.9014012652
 40
0.9073816417
 40
0.9131820083
 40
0.9188018518
 40
0.9242409423
 40
0.9294994633
 40
0.9345779585
 40
0.9394774438
 40
0.944199427
 40
0.9487459568
 40
0.95311974
 40
0.9573241405
 40
0.9613633601
 40
0.9652424499
 40
0.9689674846
 40
0.9725456466
 40
0.9759853437
 40
0.9824865016
 40
0.9855753543
 40
0.9885738189
 40
0.9914977372
 40
0.9943643366
 40
0.9971920099
 40
1.0
 40
1.0
 40
1.0
 40
1.0
 10
11.3327614669
 20
10.6246801667
 30
0.0
 10
11.331460235
 20
10.6234232732
 30
0.0
 10
11.3287451456
 20
10.6209183757
 30
0.0
 10
11.3244344186
 20
10.6172597843
 30
0.0
 10
11.3198071389
 20
10.6136274365
 30
0.0
 10
11.314865845
 20
10.6100232608
 30
0.0
 10
11.3096129459
 20
10.6064489405
 30
0.0
 10
11.3040510155
 20
10.6029062145
 30
0.0
 10
11.2981828355
 20
10.5993967815
 30
0.0
 10
11.2920113174
 20
10.5959224626
 30
0.0
 10
11.2855395778
 20
10.5924849255
 30
0.0
 10
11.2787708338
 20
10.5890859387
 30
0.0
 10
11.2717084888
 20
10.5857271739
 30
0.0
 10
11.2643560854
 20
10.5824103285
 30
0.0
 10
11.2567173144
 20
10.5791370929
 30
0.0
 10
11.2487960313
 20
10.5759090842
 30
0.0
 10
11.2405962023
 20
10.5727279621
 30
0.0
 10
11.22914969
 20
10.5684966221
 30
0.0
 10
11.2141679895
 20
10.5633469993
 30
0.0
 10
11.1953711488
 20
10.5574561414
 30
0.0
 10
11.1755691923
 20
10.5517891585
 30
0.0
 10
11.1548020923
 20
10.546357578
 30
0.0
 10
11.1331116198
 20
10.5411724639
 30
0.0
 10
11.1105415167
 20
10.5362443788
 30
0.0
 10
11.087137323
 20
10.531583364
 30
0.0
 10
11.0629463005
 20
10.5271989121
 30
0.0
 10
11.0380173241
 20
10.5230999511
 30
0.0
 10
11.0124007783
 20
10.519294826
 30
0.0
 10
10.9861484514
 20
10.5157912825
 30
0.0
 10
10.9593134282
 20
10.5125964509
 30
0.0
 10
10.9319499812
 20
10.5097168325
 30
0.0
 10
10.9041134599
 20
10.5071582872
 30
0.0
 10
10.8758601784
 20
10.5049260182
 30
0.0
 10
10.8472472988
 20
10.5030245639
 30
0.0
 10
10.8183327144
 20
10.5014577901
 30
0.0
 10
10.789174931
 20
10.500228882
 30
0.0
 10
10.7598329482
 20
10.4993403384
 30
0.0
 10
10.7303661405
 20
10.4987939664
 30
0.0
 10
10.7008341362
 20
10.4985908782
 30
0.0
 10
10.6712966968
 20
10.4987314864
 30
0.0
 10
10.6418135943
 20
10.4992155038
 30
0.0
 10
10.61244449
 20
10.5000419456
 30
0.0
 10
10.583248813
 20
10.5012091317
 30
0.0
 10
10.5542856406
 20
10.5027146893
 30
0.0
 10
10.5256135781
 20
10.5045555582
 30
0.0
 10
10.4972906393
 20
10.5067279966
 30
0.0
 10
10.4693741277
 20
10.5092275871
 30
0.0
 10
10.4419205187
 20
10.5120492438
 30
0.0
 10
10.4149853449
 20
10.5151872263
 30
0.0
 10
10.3886230835
 20
10.5186351496
 30
0.0
 10
10.3628870443
 20
10.5223859972
 30
0.0
 10
10.3378292608
 20
10.5264321348
 30
0.0
 10
10.3135003816
 20
10.5307653261
 30
0.0
 10
10.2899495632
 20
10.5353767473
 30
0.0
 10
10.2672243643
 20
10.5402570042
 30
0.0
 10
10.2453706486
 20
10.5453961543
 30
0.0
 10
10.2244324783
 20
10.5507837286
 30
0.0
 10
10.2044520426
 20
10.5564087539
 30
0.0
 10
10.1854694722
 20
10.5622597813
 30
0.0
 10
10.1675230508
 20
10.5683249129
 30
0.0
 10
10.1532729097
 20
10.5736170477
 30
0.0
 10
10.142427083
 20
10.5779578996
 30
0.0
 10
10.1346851197
 20
10.581214902
 30
0.0
 10
10.1272281432
 20
10.5845160673
 30
0.0
 10
10.1200599037
 20
10.5878597948
 30
0.0
 10
10.1131839874
 20
10.5912443405
 30
0.0
 10
10.1066038633
 20
10.5946680684
 30
0.0
 10
10.1003228069
 20
10.5981292046
 30
0.0
 10
10.0943439745
 20
10.6016260645
 30
0.0
 10
10.0886703448
 20
10.6051568918
 30
0.0
 10
10.0833047388
 20
10.6087199314
 30
0.0
 10
10.0782498481
 20
10.6123134733
 30
0.0
 10
10.0735081517
 20
10.6159357079
 30
0.0
 10
10.0690820498
 20
10.6195849647
 30
0.0
 10
10.0649737102
 20
10.6232594291
 30
0.0
 10
10.0611852045
 20
10.6269574641
 30
0.0
 10
10.0577185198
 20
10.6306772074
 30
0.0
 10
10.0545751524
 20
10.6344174057
 30
0.0
 10
10.0508876857
 20
10.6393353352
 30
0.0
 10
10.0477564261
 20
10.6443858233
 30
0.0
 10
10.0452703421
 20
10.649544152
 30
0.0
 10
10.0437682613
 20
10.6533591211
 30
0.0
 10
10.0425985362
 20
10.6571833726
 30
0.0
 10
10.041762126
 20
10.661015049
 30
0.0
 10
10.0412599549
 20
10.6648514186
 30
0.0
 10
10.0411481612
 20
10.667414414
 30
0.0
 10
10.0411481614
 20
10.6686907489
 30
0.0
  0
SPLINE
  5
37E
100
AcDbEntity
  8
0
100
AcDbSpline
 62
7
  6
CONTINUOUS
 70
0
 71
3
 72
23
 73
19
 74
0
 42
0.0000001
 43
0.0000001
 44
0.0000000001
 40
0.0
 40
0.0
 40
0.0
 40
0.0
 40
0.063777379
 40
0.1273447372
 40
0.1907019931
 40
0.2538561345
 40
0.3168131769
 40
0.3795820929
 40
0.4421733849
 40
0.5045993366
 40
0.5668738654
 40
0.6290123812
 40
0.6910316548
 40
0.7529496517
 40
0.8147853612
 40
0.8765586089
 40
0.9382898579
 40
1.0
 40
1.0
 40
1.0
 40
1.0
 10
10.9034443906
 20
7.6156014797
 30
0.0
 10
10.9034443906
 20
7.6092216875
 30
0.0
 10
10.9031390397
 20
7.5964809495
 30
0.0
 10
10.9017607823
 20
7.577447325
 30
0.0
 10
10.8994660127
 20
7.5585646093
 30
0.0
 10
10.8962601587
 20
7.5398770529
 30
0.0
 10
10.8921504379
 20
7.5214274426
 30
0.0
 10
10.8871463328
 20
7.5032584069
 30
0.0
 10
10.8812593109
 20
7.4854118124
 30
0.0
 10
10.8745029213
 20
7.4679288158
 30
0.0
 10
10.8668927093
 20
7.4508497341
 30
0.0
 10
10.8584461886
 20
7.4342139596
 30
0.0
 10
10.8491828076
 20
7.4180598708
 30
0.0
 10
10.8391238863
 20
7.4024247322
 30
0.0
 10
10.8282926389
 20
7.3873446488
 30
0.0
 10
10.8167139181
 20
7.3728542843
 30
0.0
 10
10.8044148771
 20
7.3589875235
 30
0.0
 10
10.795752586
 20
7.3501784432
 30
0.0
 10
10.7913126333
 20
7.3458897635
 30
0.0
  0
SPLINE
  5
37F
100
AcDbEntity
  8
0
100
AcDbSpline
 62
7
  6
CONTINUOUS
 70
0
 71
3
 72
21
 73
17
 74
0
 42
0.0000001
 43
0.0000001
 44
0.0000000001
 40
0.0
 40
0.0
 40
0.0
 40
0.0
 40
0.1273175725
 40
0.2538000026
 40
0.3167619332
 40
0.3795354925
 40
0.4421314982
 40
0.5045621433
 40
0.5668413429
 40
0.6289845306
 40
0.6910084612
 40
0.7529311022
 40
0.8147714553
 40
0.8765493457
 40
0.9382852283
 40
1.0
 40
1.0
 40
1.0
 40
1.0
 10
11.5530295473
 20
10.0462206006
 30
0.0
 10
11.5530295473
 20
10.0397222743
 30
0.0
 10
11.5524092399
 20
10.0267598838
 30
0.0
 10
11.5500665607
 20
10.010735567
 30
0.0
 10
11.5472665211
 20
9.9981658876
 30
0.0
 10
11.5447130337
 20
9.988894491
 30
0.0
 10
11.5417090478
 20
9.9797878217
 30
0.0
 10
11.5382614124
 20
9.9708666426
 30
0.0
 10
11.534378108
 20
9.9621515801
 30
0.0
 10
11.5300680656
 20
9.9536627163
 30
0.0
 10
11.5253411718
 20
9.9454196605
 30
0.0
 10
11.520208343
 20
9.9374414072
 30
0.0
 10
11.5146814352
 20
9.9297463695
 30
0.0
 10
11.5087730949
 20
9.9223522597
 30
0.0
 10
11.5024971779
 20
9.9152763731
 30
0.0
 10
11.4980770277
 20
9.9107812868
 30
0.0
 10
11.4958114247
 20
9.9085928706
 30
0.0
  0
SPLINE
  5
380
100
AcDbEntity
  8
0
100
AcDbSpline
 62
7
  6
CONTINUOUS
 70
0
 71
3
 72
21
 73
17
 74
0
 42
0.0000001
 43
0.0000001
 44
0.0000000001
 40
0.0
 40
0.0
 40
0.0
 40
0.0
 40
0.1273175725
 40
0.2538000026
 40
0.3167619332
 40
0.3795354925
 40
0.4421314982
 40
0.5045621433
 40
0.5668413429
 40
0.6289845306
 40
0.6910084612
 40
0.7529311022
 40
0.8147714553
 40
0.8765493457
 40
0.9382852283
 40
1.0
 40
1.0
 40
1.0
 40
1.0
 10
10.4663629283
 20
6.9823220651
 30
0.0
 10
10.4663629283
 20
6.9758237388
 30
0.0
 10
10.4657426209
 20
6.9628613483
 30
0.0
 10
10.4633999418
 20
6.9468370315
 30
0.0
 10
10.4605999021
 20
6.9342673522
 30
0.0
 10
10.4580464147
 20
6.9249959556
 30
0.0
 10
10.4550424288
 20
6.9158892863
 30
0.0
 10
10.4515947935
 20
6.9069681071
 30
0.0
 10
10.447711489
 20
6.8982530446
 30
0.0
 10
10.4434014467
 20
6.8897641809
 30
0.0
 10
10.4386745529
 20
6.881521125
 30
0.0
 10
10.4335417241
 20
6.8735428718
 30
0.0
 10
10.4280148163
 20
6.865847834
 30
0.0
 10
10.422106476
 20
6.8584537242
 30
0.0
 10
10.4158305589
 20
6.8513778376
 30
0.0
 10
10.4114104087
 20
6.8468827514
 30
0.0
 10
10.4091448058
 20
6.8446943351
 30
0.0
  0
SPLINE
  5
381
100
AcDbEntity
  8
0
100
AcDbSpline
 62
7
  6
CONTINUOUS
 70
0
 71
3
 72
38
 73
34
 74
0
 42
0.0000001
 43
0.0000001
 44
0.0000000001
 40
0.0
 40
0.0
 40
0.0
 40
0.0
 40
0.0318213842
 40
0.0634517453
 40
0.0949009978
 40
0.1261870727
 40
0.1573361254
 40
0.1883808024
 40
0.2193587437
 40
0.2503108134
 40
0.2812795003
 40
0.3123073478
 40
0.3434357194
 40
0.3747035059
 40
0.4061459684
 40
0.4377933804
 40
0.5017663165
 40
0.5341330617
 40
0.5667359539
 40
0.5995454247
 40
0.6325092685
 40
0.6655493744
 40
0.6985602916
 40
0.7314115124
 40
0.7639547776
 40
0.7960363795
 40
0.8275131174
 40
0.8582680657
 40
0.8882228369
 40
0.9173436997
 40
0.9456413584
 40
0.9731660522
 40
1.0
 40
1.0
 40
1.0
 40
1.0
 10
10.4293946922
 20
7.765704606
 30
0.0
 10
10.4293946922
 20
7.7616102332
 30
0.0
 10
10.4297065344
 20
7.7534424917
 30
0.0
 10
10.4311143895
 20
7.7413015492
 30
0.0
 10
10.4334446177
 20
7.7293729533
 30
0.0
 10
10.4366711644
 20
7.7177196731
 30
0.0
 10
10.4407598267
 20
7.7063958715
 30
0.0
 10
10.4456704733
 20
7.6954475268
 30
0.0
 10
10.4513591527
 20
7.6849119383
 30
0.0
 10
10.4577801367
 20
7.6748182812
 30
0.0
 10
10.4648875986
 20
7.6651884592
 30
0.0
 10
10.4726368903
 20
7.6560382599
 30
0.0
 10
10.4809854361
 20
7.6473785891
 30
0.0
 10
10.4898929736
 20
7.639216874
 30
0.0
 10
10.4993223317
 20
7.6315578456
 30
0.0
 10
10.5125870736
 20
7.6219893458
 30
0.0
 10
10.5267269305
 20
7.6134756323
 30
0.0
 10
10.5415594073
 20
7.6060318575
 30
0.0
 10
10.5530767258
 20
7.6009552063
 30
0.0
 10
10.564899014
 20
7.5964192226
 30
0.0
 10
10.5769785378
 20
7.592437316
 30
0.0
 10
10.5892581766
 20
7.5890257795
 30
0.0
 10
10.6016713734
 20
7.5862022695
 30
0.0
 10
10.6141421327
 20
7.5839845135
 30
0.0
 10
10.6265872124
 20
7.5823884214
 30
0.0
 10
10.6389201295
 20
7.5814262311
 30
0.0
 10
10.6510564815
 20
7.5811050846
 30
0.0
 10
10.662919439
 20
7.5814264506
 30
0.0
 10
10.6744441309
 20
7.5823865572
 30
0.0
 10
10.6855799007
 20
7.5839776023
 30
0.0
 10
10.6962906972
 20
7.5861895632
 30
0.0
 10
10.7065522627
 20
7.5890114512
 30
0.0
 10
10.7131615942
 20
7.5913195929
 30
0.0
 10
10.7163787038
 20
7.5925729948
 30
0.0
  0
SPLINE
  5
382
100
AcDbEntity
  8
0
100
AcDbSpline
 62
7
  6
CONTINUOUS
 70
0
 71
3
 72
15
 73
11
 74
0
 42
0.0000001
 43
0.0000001
 44
0.0000000001
 40
0.0
 40
0.0
 40
0.0
 40
0.0
 40
0.1264307955
 40
0.2525920121
 40
0.3784166992
 40
0.5038308705
 40
0.6287601659
 40
0.7531351875
 40
0.8768961469
 40
1.0
 40
1.0
 40
1.0
 40
1.0
 10
10.4538683176
 20
7.8539898559
 30
0.0
 10
10.4519226642
 20
7.8506046865
 30
0.0
 10
10.4482334578
 20
7.843725399
 30
0.0
 10
10.4433393754
 20
7.8331054847
 30
0.0
 10
10.4391241558
 20
7.8222311164
 30
0.0
 10
10.4356214355
 20
7.8111463608
 30
0.0
 10
10.432861318
 20
7.7998994766
 30
0.0
 10
10.4308693521
 20
7.7885427781
 30
0.0
 10
10.4296650088
 20
7.7771327384
 30
0.0
 10
10.4293946922
 20
7.7695063391
 30
0.0
 10
10.4293946922
 20
7.765704606
 30
0.0
  0
SPLINE
  5
383
100
AcDbEntity
  8
0
100
AcDbSpline
 62
7
  6
CONTINUOUS
 70
0
 71
3
 72
21
 73
17
 74
0
 42
0.0000001
 43
0.0000001
 44
0.0000000001
 40
0.0
 40
0.0
 40
0.0
 40
0.0
 40
0.1273176899
 40
0.2537999351
 40
0.3167619508
 40
0.3795355113
 40
0.4421314924
 40
0.5045621415
 40
0.5668413449
 40
0.6289845255
 40
0.6910084484
 40
0.7529310939
 40
0.814771448
 40
0.8765493308
 40
0.9382852181
 40
1.0
 40
1.0
 40
1.0
 40
1.0
 10
10.7340473054
 20
7.6709764505
 30
0.0
 10
10.7340473054
 20
7.6649862431
 30
0.0
 10
10.7334755043
 20
7.6530374247
 30
0.0
 10
10.7313159726
 20
7.6382661035
 30
0.0
 10
10.7287348741
 20
7.6266792925
 30
0.0
 10
10.7263810469
 20
7.6181328532
 30
0.0
 10
10.7236119097
 20
7.6097382778
 30
0.0
 10
10.7204338468
 20
7.6015146786
 30
0.0
 10
10.7168541853
 20
7.5934810755
 30
0.0
 10
10.7128811068
 20
7.5856560091
 30
0.0
 10
10.7085238024
 20
7.5780575173
 30
0.0
 10
10.7037923207
 20
7.5707031113
 30
0.0
 10
10.6986975274
 20
7.563609809
 30
0.0
 10
10.6932511401
 20
7.5567939006
 30
0.0
 10
10.6874659603
 20
7.5502712942
 30
0.0
 10
10.68339138
 20
7.5461277469
 30
0.0
 10
10.6813029321
 20
7.5441104486
 30
0.0
  0
SPLINE
  5
384
100
AcDbEntity
  8
0
100
AcDbSpline
 62
7
  6
CONTINUOUS
 70
0
 71
3
 72
37
 73
33
 74
0
 42
0.0000001
 43
0.0000001
 44
0.0000000001
 40
0.0
 40
0.0
 40
0.0
 40
0.0
 40
0.0307116543
 40
0.0615425044
 40
0.0924882586
 40
0.1235467246
 40
0.1547123722
 40
0.1859791039
 40
0.217339439
 40
0.2487848218
 40
0.2803057167
 40
0.31189171
 40
0.3435316429
 40
0.3752137378
 40
0.406925737
 40
0.4386550464
 40
0.5020927812
 40
0.5654464029
 40
0.597071568
 40
0.6286394213
 40
0.6601390116
 40
0.6915601709
 40
0.7228936372
 40
0.7541311728
 40
0.7852656713
 40
0.8162912505
 40
0.8472033341
 40
0.8779987193
 40
0.9086756336
 40
0.9392337764
 40
0.9696743379
 40
1.0
 40
1.0
 40
1.0
 40
1.0
 10
10.748968082
 20
7.6348888149
 30
0.0
 10
10.748968082
 20
7.6393088317
 30
0.0
 10
10.7487197861
 20
7.6481679676
 30
0.0
 10
10.7476088553
 20
7.6614388902
 30
0.0
 10
10.7457620463
 20
7.6746783094
 30
0.0
 10
10.7431853853
 20
7.6878441441
 30
0.0
 10
10.7398868279
 20
7.7008955243
 30
0.0
 10
10.7358767779
 20
7.713791575
 30
0.0
 10
10.7311677803
 20
7.7264920276
 30
0.0
 10
10.7257745995
 20
7.7389572026
 30
0.0
 10
10.7197141168
 20
7.7511481656
 30
0.0
 10
10.7130052954
 20
7.7630268302
 30
0.0
 10
10.7056690867
 20
7.7745561112
 30
0.0
 10
10.6977285031
 20
7.7856999068
 30
0.0
 10
10.6892080471
 20
7.7964237153
 30
0.0
 10
10.6771134289
 20
7.8101136975
 30
0.0
 10
10.6606866845
 20
7.8260092403
 30
0.0
 10
10.642703493
 20
7.8400960854
 30
0.0
 10
10.6275216527
 20
7.8501690824
 30
0.0
 10
10.6157795178
 20
7.8570993225
 30
0.0
 10
10.6037140439
 20
7.8633860004
 30
0.0
 10
10.5913625771
 20
7.8690097244
 30
0.0
 10
10.5787637874
 20
7.8739528056
 30
0.0
 10
10.5659570147
 20
7.8781997936
 30
0.0
 10
10.5529822805
 20
7.8817373812
 30
0.0
 10
10.5398801233
 20
7.8845544741
 30
0.0
 10
10.5266914911
 20
7.8866422192
 30
0.0
 10
10.5134575943
 20
7.887994029
 30
0.0
 10
10.5002198471
 20
7.8886056272
 30
0.0
 10
10.4870194905
 20
7.8884750421
 30
0.0
 10
10.4738983725
 20
7.8876027049
 30
0.0
 10
10.4652137261
 20
7.8865262588
 30
0.0
 10
10.460899618
 20
7.8858651802
 30
0.0
  0
SPLINE
  5
385
100
AcDbEntity
  8
0
100
AcDbSpline
 62
7
  6
CONTINUOUS
 70
0
 71
3
 72
19
 73
15
 74
0
 42
0.0000001
 43
0.0000001
 44
0.0000000001
 40
0.0
 40
0.0
 40
0.0
 40
0.0
 40
0.0612631006
 40
0.1227350666
 40
0.1844040832
 40
0.2462701852
 40
0.3705300767
 40
0.4954766211
 40
0.621014252
 40
0.7470268331
 40
0.810186546
 40
0.8734142556
 40
0.9366916504
 40
1.0
 40
1.0
 40
1.0
 40
1.0
 10
10.7340473054
 20
7.6709764505
 30
0.0
 10
10.7340473054
 20
7.6740047545
 30
0.0
 10
10.7339005129
 20
7.6800726929
 30
0.0
 10
10.733243323
 20
7.6891675375
 30
0.0
 10
10.7321500175
 20
7.6982507256
 30
0.0
 10
10.7301119316
 20
7.7103325602
 30
0.0
 10
10.7264844216
 20
7.7253004313
 30
0.0
 10
10.720460053
 20
7.742844851
 30
0.0
 10
10.7128140813
 20
7.7598404266
 30
0.0
 10
10.7051540432
 20
7.7734070777
 30
0.0
 10
10.6982946473
 20
7.7838328137
 30
0.0
 10
10.6927908919
 20
7.7914268463
 30
0.0
 10
10.6869457897
 20
7.7987702588
 30
0.0
 10
10.682830613
 20
7.803487281
 30
0.0
 10
10.6807207806
 20
7.8057985079
 30
0.0
  0
SPLINE
  5
386
100
AcDbEntity
  8
0
100
AcDbSpline
 62
7
  6
CONTINUOUS
 70
0
 71
3
 72
29
 73
25
 74
0
 42
0.0000001
 43
0.0000001
 44
0.0000000001
 40
0.0
 40
0.0
 40
0.0
 40
0.0
 40
0.0646780806
 40
0.1292370535
 40
0.1936075594
 40
0.2577263809
 40
0.3215385935
 40
0.3849994871
 40
0.4480762362
 40
0.5107492496
 40
0.5730130812
 40
0.6348769016
 40
0.6656748193
 40
0.6963828307
 40
0.7270060837
 40
0.7575505285
 40
0.7880228544
 40
0.818430458
 40
0.8487813629
 40
0.8790841332
 40
0.9093478159
 40
0.9395818437
 40
0.9697959317
 40
1.0
 40
1.0
 40
1.0
 40
1.0
 10
10.6686291556
 20
7.8179948597
 30
0.0
 10
10.6641428752
 20
7.8221616621
 30
0.0
 10
10.654806095
 20
7.8300967142
 30
0.0
 10
10.6398277961
 20
7.840698933
 30
0.0
 10
10.6240121574
 20
7.8499045325
 30
0.0
 10
10.6075012731
 20
7.8576299777
 30
0.0
 10
10.5904417766
 20
7.8638065352
 30
0.0
 10
10.5729856395
 20
7.8683786827
 30
0.0
 10
10.5552884262
 20
7.8713051907
 30
0.0
 10
10.537507643
 20
7.8725594081
 30
0.0
 10
10.5198030456
 20
7.872129839
 30
0.0
 10
10.5052179524
 20
7.8703677415
 30
0.0
 10
10.4937525788
 20
7.8681245313
 30
0.0
 10
10.4852818177
 20
7.8660329576
 30
0.0
 10
10.476947206
 20
7.8635346439
 30
0.0
 10
10.4687671222
 20
7.8606351263
 30
0.0
 10
10.460759948
 20
7.8573408291
 30
0.0
 10
10.4529435474
 20
7.8536591679
 30
0.0
 10
10.4453354162
 20
7.8495983411
 30
0.0
 10
10.4379525923
 20
7.8451673768
 30
0.0
 10
10.4308115715
 20
7.8403762503
 30
0.0
 10
10.4239282839
 20
7.8352355928
 30
0.0
 10
10.4173183711
 20
7.8297570597
 30
0.0
 10
10.4131030697
 20
7.8258869649
 30
0.0
 10
10.4110465099
 20
7.8239004684
 30
0.0
  0
SPLINE
  5
387
100
AcDbEntity
  8
0
100
AcDbSpline
 62
7
  6
CONTINUOUS
 70
0
 71
3
 72
53
 73
49
 74
0
 42
0.0000001
 43
0.0000001
 44
0.0000000001
 40
0.0
 40
0.0
 40
0.0
 40
0.0
 40
0.0470070544
 40
0.0937046499
 40
0.1400010014
 40
0.1858064076
 40
0.2310317616
 40
0.2755897135
 40
0.319394533
 40
0.3623624895
 40
0.4044120594
 40
0.4454641992
 40
0.4854426133
 40
0.5242740406
 40
0.5618885616
 40
0.5982199325
 40
0.6332059563
 40
0.6667889012
 40
0.6989159866
 40
0.7295399598
 40
0.7442756073
 40
0.7586206343
 40
0.7725710796
 40
0.7861234007
 40
0.7992746958
 40
0.812022586
 40
0.8243654093
 40
0.8363021794
 40
0.847832722
 40
0.8589577412
 40
0.8696788909
 40
0.8799989615
 40
0.8899219027
 40
0.8994531231
 40
0.9085995043
 40
0.9173697867
 40
0.9257746306
 40
0.9338270441
 40
0.9415425379
 40
0.9489395416
 40
0.9560396456
 40
0.9628679257
 40
0.9694531727
 40
0.9758279852
 40
0.9820287704
 40
0.9880954155
 40
0.9940708108
 40
1.0
 40
1.0
 40
1.0
 40
1.0
 10
12.5566265403
 20
9.117823616
 30
0.0
 10
12.5577987017
 20
9.1299690719
 30
0.0
 10
12.560274794
 20
9.1541668086
 30
0.0
 10
12.5643961145
 20
9.1902740152
 30
0.0
 10
12.5689061919
 20
9.2260204285
 30
0.0
 10
12.5737955389
 20
9.2613311927
 30
0.0
 10
12.57905394
 20
9.2961326229
 30
0.0
 10
12.5846703602
 20
9.330351965
 30
0.0
 10
12.5906330329
 20
9.3639177454
 30
0.0
 10
12.5969294526
 20
9.3967598443
 30
0.0
 10
12.6035464144
 20
9.4288096716
 30
0.0
 10
12.6104700359
 20
9.4600003032
 30
0.0
 10
12.6176857877
 20
9.4902666275
 30
0.0
 10
12.625178523
 20
9.5195454845
 30
0.0
 10
12.6329325099
 20
9.5477758013
 30
0.0
 10
12.6409314641
 20
9.574898734
 30
0.0
 10
12.6491585841
 20
9.6008577747
 30
0.0
 10
12.6575965923
 20
9.6255989665
 30
0.0
 10
12.6662277658
 20
9.6490707284
 30
0.0
 10
12.673658463
 20
9.6677644855
 30
0.0
 10
12.6796960738
 20
9.682038473
 30
0.0
 10
12.684203176
 20
9.692259116
 30
0.0
 10
12.6887449049
 20
9.7021272903
 30
0.0
 10
12.6933189755
 20
9.7116378576
 30
0.0
 10
12.6979229405
 20
9.7207858864
 30
0.0
 10
12.7025544484
 20
9.7295666136
 30
0.0
 10
12.7072110547
 20
9.7379754951
 30
0.0
 10
12.7118903614
 20
9.7460081687
 30
0.0
 10
12.71658994
 20
9.7536604805
 30
0.0
 10
12.7213073513
 20
9.7609284857
 30
0.0
 10
12.7260401985
 20
9.7678084242
 30
0.0
 10
12.7307860154
 20
9.7742967812
 30
0.0
 10
12.7355424491
 20
9.7803901924
 30
0.0
 10
12.7403070332
 20
9.7860855763
 30
0.0
 10
12.7450774669
 20
9.7913799644
 30
0.0
 10
12.7498513242
 20
9.7962706939
 30
0.0
 10
12.7546263601
 20
9.8007551841
 30
0.0
 10
12.7594002322
 20
9.8048311467
 30
0.0
 10
12.7641707482
 20
9.808496361
 30
0.0
 10
12.7689356677
 20
9.8117488311
 30
0.0
 10
12.7736928182
 20
9.8145866377
 30
0.0
 10
12.7784400055
 20
9.8170079691
 30
0.0
 10
12.7831749632
 20
9.8190111435
 30
0.0
 10
12.7878953686
 20
9.820594473
 30
0.0
 10
12.7925986175
 20
9.8217565538
 30
0.0
 10
12.7972821143
 20
9.8224959666
 30
0.0
 10
12.801942316
 20
9.8228118925
 30
0.0
 10
12.8050367065
 20
9.8227395402
 30
0.0
 10
12.8065720922
 20
9.8226330625
 30
0.0
  0
SPLINE
  5
388
100
AcDbEntity
  8
0
100
AcDbSpline
 62
7
  6
CONTINUOUS
 70
0
 71
3
 72
18
 73
14
 74
0
 42
0.0000001
 43
0.0000001
 44
0.0000000001
 40
0.0
 40
0.0
 40
0.0
 40
0.0
 40
0.0548620589
 40
0.1099280789
 40
0.165399508
 40
0.2214731255
 40
0.2783387361
 40
0.3361775086
 40
0.4554063416
 40
0.5804417492
 40
0.7123343341
 40
0.8519577333
 40
1.0
 40
1.0
 40
1.0
 40
1.0
 10
11.3551481614
 20
10.668690749
 30
0.0
 10
11.3551481613
 20
10.6677628817
 30
0.0
 10
11.3550892591
 20
10.6659031647
 30
0.0
 10
11.3548244565
 20
10.6631166149
 30
0.0
 10
11.3543832695
 20
10.6603316708
 30
0.0
 10
11.3537658437
 20
10.6575493497
 30
0.0
 10
11.3529724184
 20
10.6547703539
 30
0.0
 10
11.3516674113
 20
10.6510333496
 30
0.0
 10
11.3495768121
 20
10.6463593577
 30
0.0
 10
11.3463947897
 20
10.6408393554
 30
0.0
 10
11.3425192589
 20
10.6353550827
 30
0.0
 10
11.3379561161
 20
10.6299120438
 30
0.0
 10
11.3345623359
 20
10.6264196728
 30
0.0
 10
11.3327614669
 20
10.6246801667
 30
0.0
  0
SPLINE
  5
389
100
AcDbEntity
  8
0
100
AcDbSpline
 62
7
  6
CONTINUOUS
 70
0
 71
3
 72
9
 73
5
 74
0
 42
0.0000001
 43
0.0000001
 44
0.0000000001
 40
0.0
 40
0.0
 40
0.0
 40
0.0
 40
0.5056175571
 40
1.0
 40
1.0
 40
1.0
 40
1.0
 10
9.3126716048
 20
10.7986042962
 30
0.0
 10
9.311621772
 20
10.7991309337
 30
0.0
 10
9.3095096903
 20
10.800102998
 30
0.0
 10
9.3073331872
 20
10.8009214486
 30
0.0
 10
9.3062438119
 20
10.8012849487
 30
0.0
  0
SPLINE
  5
38A
100
AcDbEntity
  8
0
100
AcDbSpline
 62
7
  6
CONTINUOUS
 70
0
 71
3
 72
41
 73
37
 74
0
 42
0.0000001
 43
0.0000001
 44
0.0000000001
 40
0.0
 40
0.0
 40
0.0
 40
0.0
 40
0.0149724862
 40
0.0299480307
 40
0.0449296746
 40
0.0599204222
 40
0.0899350731
 40
0.1200204959
 40
0.1501975964
 40
0.1804850878
 40
0.2108990702
 40
0.2414526838
 40
0.2721558423
 40
0.303015057
 40
0.3340333403
 40
0.3652101893
 40
0.3965416515
 40
0.4280204628
 40
0.4596362457
 40
0.4913757643
 40
0.5232232351
 40
0.5551606749
 40
0.587168282
 40
0.6192248472
 40
0.6513081855
 40
0.6833955794
 40
0.7154642309
 40
0.7474917144
 40
0.779456424
 40
0.8113380097
 40
0.8431177978
 40
0.8747791805
 40
0.9063079772
 40
0.937692809
 40
0.9689250164
 40
1.0
 40
1.0
 40
1.0
 40
1.0
 10
10.2167554422
 20
7.9407116001
 30
0.0
 10
10.2201856817
 20
7.9440249684
 30
0.0
 10
10.2271793833
 20
7.9505167667
 30
0.0
 10
10.2380497407
 20
7.9598308641
 30
0.0
 10
10.2492862881
 20
7.9687098696
 30
0.0
 10
10.2647396815
 20
7.9799548342
 30
0.0
 10
10.2849049823
 20
7.9928685601
 30
0.0
 10
10.3102943203
 20
8.0064313963
 30
0.0
 10
10.3367494517
 20
8.0179961488
 30
0.0
 10
10.3641235575
 20
8.0274986289
 30
0.0
 10
10.3922660201
 20
8.0348869846
 30
0.0
 10
10.4210217323
 20
8.0401208292
 30
0.0
 10
10.4502323797
 20
8.0431717767
 30
0.0
 10
10.4797372213
 20
8.044023417
 30
0.0
 10
10.5093739882
 20
8.042671412
 30
0.0
 10
10.5389797665
 20
8.0391235882
 30
0.0
 10
10.5683918939
 20
8.033399807
 30
0.0
 10
10.5974488315
 20
8.0255318163
 30
0.0
 10
10.6259910367
 20
8.0155630955
 30
0.0
 10
10.653861854
 20
8.0035486718
 30
0.0
 10
10.6809083368
 20
7.9895547236
 30
0.0
 10
10.706982063
 20
7.9736582189
 30
0.0
 10
10.7319399707
 20
7.9559465556
 30
0.0
 10
10.7556451365
 20
7.9365170683
 30
0.0
 10
10.7779674821
 20
7.915476451
 30
0.0
 10
10.7987844761
 20
7.8929401894
 30
0.0
 10
10.8179818668
 20
7.8690319947
 30
0.0
 10
10.8354542507
 20
7.8438830717
 30
0.0
 10
10.8511056257
 20
7.8176314028
 30
0.0
 10
10.8648499416
 20
7.7904210203
 30
0.0
 10
10.8766116188
 20
7.7624012622
 30
0.0
 10
10.886325884
 20
7.7337258523
 30
0.0
 10
10.8939391373
 20
7.7045523204
 30
0.0
 10
10.8994092501
 20
7.6750403187
 30
0.0
 10
10.902705997
 20
7.645354001
 30
0.0
 10
10.9034443906
 20
7.6254997545
 30
0.0
 10
10.9034443906
 20
7.6156014797
 30
0.0
  0
SPLINE
  5
38B
100
AcDbEntity
  8
0
100
AcDbSpline
 62
7
  6
CONTINUOUS
 70
0
 71
3
 72
44
 73
40
 74
0
 42
0.0000001
 43
0.0000001
 44
0.0000000001
 40
0.0
 40
0.0
 40
0.0
 40
0.0
 40
0.0149722504
 40
0.0299475576
 40
0.0449289656
 40
0.0599194752
 40
0.0899336509
 40
0.1200185962
 40
0.1350971147
 40
0.150200993
 40
0.1804880038
 40
0.2109015036
 40
0.2414546317
 40
0.2721573035
 40
0.3030160297
 40
0.3340338212
 40
0.3652101756
 40
0.3965411416
 40
0.4280194541
 40
0.4596347352
 40
0.4913737507
 40
0.5232207176
 40
0.5551576521
 40
0.5871647534
 40
0.6192208128
 40
0.6513036453
 40
0.6833905334
 40
0.7154586792
 40
0.7314811024
 40
0.747490488
 40
0.7794546928
 40
0.811335776
 40
0.8431150609
 40
0.8747759499
 40
0.9063042323
 40
0.9376885956
 40
0.9533263523
 40
0.9689255432
 40
1.0
 40
1.0
 40
1.0
 40
1.0
 10
11.202626947
 20
10.2121169238
 30
0.0
 10
11.2043773228
 20
10.2138076662
 30
0.0
 10
11.2079460483
 20
10.2171203013
 30
0.0
 10
11.2134929527
 20
10.2218730945
 30
0.0
 10
11.2192267012
 20
10.2264038727
 30
0.0
 10
11.2271122701
 20
10.232141955
 30
0.0
 10
11.2374018925
 20
10.2387314523
 30
0.0
 10
11.2481917394
 20
10.2444952348
 30
0.0
 10
11.2570905621
 20
10.2485956934
 30
0.0
 10
11.2661732524
 20
10.2523575626
 30
0.0
 10
11.277825905
 20
10.2564027289
 30
0.0
 10
11.2921860605
 20
10.2601727192
 30
0.0
 10
11.3068595644
 20
10.2628435096
 30
0.0
 10
11.321765103
 20
10.2644003513
 30
0.0
 10
11.3368207946
 20
10.2648349383
 30
0.0
 10
11.3519437977
 20
10.2641450592
 30
0.0
 10
11.3670509918
 20
10.2623347004
 30
0.0
 10
11.3820593691
 20
10.2594139876
 30
0.0
 10
11.396886501
 20
10.2553991309
 30
0.0
 10
11.411450981
 20
10.2503123285
 30
0.0
 10
11.4256728657
 20
10.2441816418
 30
0.0
 10
11.4394741079
 20
10.2370408385
 30
0.0
 10
11.4527789767
 20
10.2289292092
 30
0.0
 10
11.4655144756
 20
10.2198913405
 30
0.0
 10
11.4776107069
 20
10.209976916
 30
0.0
 10
11.4890013671
 20
10.1992402785
 30
0.0
 10
11.4996236714
 20
10.1877407573
 30
0.0
 10
11.5077901757
 20
10.1775702129
 30
0.0
 10
11.513883151
 20
10.1691164483
 30
0.0
 10
11.5196695583
 20
10.1604702957
 30
0.0
 10
11.5263222995
 20
10.1493119296
 30
0.0
 10
11.5333355749
 20
10.1354272967
 30
0.0
 10
11.5393373541
 20
10.1211293727
 30
0.0
 10
11.5442943272
 20
10.106496876
 30
0.0
 10
11.5481791876
 20
10.0916105018
 30
0.0
 10
11.5505082389
 20
10.0790447827
 30
0.0
 10
11.5518147761
 20
10.0689483941
 30
0.0
 10
11.5527472146
 20
10.0588616621
 30
0.0
 10
11.5530295473
 20
10.0512714715
 30
0.0
 10
11.5530295473
 20
10.0462206006
 30
0.0
  0
SPLINE
  5
38C
100
AcDbEntity
  8
0
100
AcDbSpline
 62
7
  6
CONTINUOUS
 70
0
 71
3
 72
44
 73
40
 74
0
 42
0.0000001
 43
0.0000001
 44
0.0000000001
 40
0.0
 40
0.0
 40
0.0
 40
0.0
 40
0.0149722504
 40
0.0299475576
 40
0.0449289656
 40
0.0599194752
 40
0.0899336509
 40
0.1200185962
 40
0.1350971147
 40
0.150200993
 40
0.1804880038
 40
0.2109015036
 40
0.2414546317
 40
0.2721573035
 40
0.3030160297
 40
0.3340338212
 40
0.3652101756
 40
0.3965411416
 40
0.4280194541
 40
0.4596347352
 40
0.4913737507
 40
0.5232207176
 40
0.5551576521
 40
0.5871647534
 40
0.6192208128
 40
0.6513036453
 40
0.6833905334
 40
0.7154586792
 40
0.7314811024
 40
0.747490488
 40
0.7794546928
 40
0.811335776
 40
0.8431150609
 40
0.8747759499
 40
0.9063042323
 40
0.9376885956
 40
0.9533263523
 40
0.9689255432
 40
1.0
 40
1.0
 40
1.0
 40
1.0
 10
10.115960328
 20
7.1482183883
 30
0.0
 10
10.1177107039
 20
7.1499091307
 30
0.0
 10
10.1212794293
 20
7.1532217659
 30
0.0
 10
10.1268263337
 20
7.1579745591
 30
0.0
 10
10.1325600822
 20
7.1625053372
 30
0.0
 10
10.1404456512
 20
7.1682434195
 30
0.0
 10
10.1507352735
 20
7.1748329168
 30
0.0
 10
10.1615251205
 20
7.1805966994
 30
0.0
 10
10.1704239431
 20
7.1846971579
 30
0.0
 10
10.1795066335
 20
7.1884590271
 30
0.0
 10
10.191159286
 20
7.1925041934
 30
0.0
 10
10.2055194415
 20
7.1962741838
 30
0.0
 10
10.2201929454
 20
7.1989449742
 30
0.0
 10
10.2350984841
 20
7.2005018158
 30
0.0
 10
10.2501541757
 20
7.2009364028
 30
0.0
 10
10.2652771787
 20
7.2002465238
 30
0.0
 10
10.2803843729
 20
7.198436165
 30
0.0
 10
10.2953927501
 20
7.1955154521
 30
0.0
 10
10.310219882
 20
7.1915005954
 30
0.0
 10
10.324784362
 20
7.186413793
 30
0.0
 10
10.3390062467
 20
7.1802831063
 30
0.0
 10
10.352807489
 20
7.173142303
 30
0.0
 10
10.3661123578
 20
7.1650306737
 30
0.0
 10
10.3788478567
 20
7.1559928051
 30
0.0
 10
10.390944088
 20
7.1460783805
 30
0.0
 10
10.4023347481
 20
7.135341743
 30
0.0
 10
10.4129570524
 20
7.1238422218
 30
0.0
 10
10.4211235568
 20
7.1136716774
 30
0.0
 10
10.4272165321
 20
7.1052179128
 30
0.0
 10
10.4330029394
 20
7.0965717603
 30
0.0
 10
10.4396556805
 20
7.0854133941
 30
0.0
 10
10.4466689559
 20
7.0715287613
 30
0.0
 10
10.4526707351
 20
7.0572308372
 30
0.0
 10
10.4576277083
 20
7.0425983405
 30
0.0
 10
10.4615125686
 20
7.0277119664
 30
0.0
 10
10.4638416199
 20
7.0151462472
 30
0.0
 10
10.4651481571
 20
7.0050498587
 30
0.0
 10
10.4660805956
 20
6.9949631266
 30
0.0
 10
10.4663629283
 20
6.987372936
 30
0.0
 10
10.4663629283
 20
6.9823220651
 30
0.0
  0
SPLINE
  5
38D
100
AcDbEntity
  8
0
100
AcDbSpline
 62
7
  6
CONTINUOUS
 70
0
 71
3
 72
41
 73
37
 74
0
 42
0.0000001
 43
0.0000001
 44
0.0000000001
 40
0.0
 40
0.0
 40
0.0
 40
0.0
 40
0.0077464617
 40
0.0155169813
 40
0.0233353842
 40
0.031225009
 40
0.0392085129
 40
0.0473077097
 40
0.0639299763
 40
0.0812499768
 40
0.099400385
 40
0.1184940753
 40
0.1386250614
 40
0.1598705402
 40
0.1822926717
 40
0.2059408052
 40
0.2308532388
 40
0.2570587702
 40
0.2845782825
 40
0.3134255801
 40
0.3436086809
 40
0.3751303278
 40
0.4079887853
 40
0.4421783948
 40
0.4776898408
 40
0.5145108176
 40
0.5526259982
 40
0.5920176035
 40
0.6326654433
 40
0.674547106
 40
0.7176382797
 40
0.7619127688
 40
0.8073426614
 40
0.8538978984
 40
0.9015480703
 40
1.0
 40
1.0
 40
1.0
 40
1.0
 10
12.6949092356
 20
8.2125003582
 30
0.0
 10
12.6939422642
 20
8.2125674168
 30
0.0
 10
12.6920087333
 20
8.2127576777
 30
0.0
 10
12.6891226214
 20
8.213210457
 30
0.0
 10
12.6862494082
 20
8.213830715
 30
0.0
 10
12.6833898975
 20
8.2146182068
 30
0.0
 10
12.6805446316
 20
8.2155727491
 30
0.0
 10
12.676738503
 20
8.2170806019
 30
0.0
 10
12.6720061185
 20
8.2194001637
 30
0.0
 10
12.666448734
 20
8.2228234409
 30
0.0
 10
12.6609664606
 20
8.2269062316
 30
0.0
 10
12.6555634139
 20
8.2316439313
 30
0.0
 10
12.6502428078
 20
8.2370319643
 30
0.0
 10
12.6450082175
 20
8.2430656663
 30
0.0
 10
12.6398631351
 20
8.2497399913
 30
0.0
 10
12.6348112435
 20
8.2570495608
 30
0.0
 10
12.6298562871
 20
8.2649885205
 30
0.0
 10
12.625002003
 20
8.2735504956
 30
0.0
 10
12.6202522466
 20
8.2827286336
 30
0.0
 10
12.6156107324
 20
8.2925155027
 30
0.0
 10
12.6110812562
 20
8.3029031862
 30
0.0
 10
12.6066674791
 20
8.3138832167
 30
0.0
 10
12.6023730201
 20
8.3254466229
 30
0.0
 10
12.5982014484
 20
8.3375839325
 30
0.0
 10
12.5941561683
 20
8.3502851653
 30
0.0
 10
12.5902405898
 20
8.3635398732
 30
0.0
 10
12.5864579204
 20
8.3773371203
 30
0.0
 10
12.5828113363
 20
8.39166552
 30
0.0
 10
12.5793038712
 20
8.4065132288
 30
0.0
 10
12.5759384295
 20
8.4218679619
 30
0.0
 10
12.5727178511
 20
8.4377170198
 30
0.0
 10
12.5696447795
 20
8.4540472866
 30
0.0
 10
12.5667218351
 20
8.4708451762
 30
0.0
 10
12.5639513783
 20
8.4880968275
 30
0.0
 10
12.5604255948
 20
8.5119447369
 30
0.0
 10
12.5580777418
 20
8.5300768434
 30
0.0
 10
12.5566265403
 20
8.542310092
 30
0.0
  0
SPLINE
  5
38E
100
AcDbEntity
  8
0
100
AcDbSpline
 62
7
  6
CONTINUOUS
 70
0
 71
3
 72
83
 73
79
 74
0
 42
0.0000001
 43
0.0000001
 44
0.0000000001
 40
0.0
 40
0.0
 40
0.0
 40
0.0
 40
0.0027966274
 40
0.0056681461
 40
0.0086296659
 40
0.0116947757
 40
0.0181797909
 40
0.0216223684
 40
0.0252083851
 40
0.0289445752
 40
0.0328366458
 40
0.0368893699
 40
0.0411066527
 40
0.0454917104
 40
0.0500470552
 40
0.0547746421
 40
0.0596759177
 40
0.0647518255
 40
0.0700029493
 40
0.0754294515
 40
0.0810311785
 40
0.0868076851
 40
0.0927582026
 40
0.1051767035
 40
0.1182764386
 40
0.1320434419
 40
0.1464609294
 40
0.1615096311
 40
0.1771680491
 40
0.1934126868
 40
0.2102182489
 40
0.2275578043
 40
0.2454029277
 40
0.2637238194
 40
0.2824894327
 40
0.3016675911
 40
0.3212250915
 40
0.3411278016
 40
0.3613407495
 40
0.3818282263
 40
0.4025538804
 40
0.423480806
 40
0.4657879389
 40
0.5084473041
 40
0.5511526804
 40
0.5935974215
 40
0.6146271388
 40
0.6354779459
 40
0.6561126425
 40
0.6764945342
 40
0.6965875184
 40
0.716356173
 40
0.7357658478
 40
0.7547827656
 40
0.7733741246
 40
0.791508192
 40
0.8091544094
 40
0.8262835062
 40
0.8428676344
 40
0.8588805034
 40
0.874297523
 40
0.8890959742
 40
0.9032552126
 40
0.9167569247
 40
0.9295854156
 40
0.9417279674
 40
0.947539209
 40
0.9531758181
 40
0.9586372491
 40
0.9639233179
 40
0.9690341214
 40
0.9739701321
 40
0.9787322239
 40
0.9833217025
 40
0.9877405118
 40
0.9919911252
 40
0.9960764682
 40
1.0
 40
1.0
 40
1.0
 40
1.0
 10
12.6702244966
 20
8.4481504294
 30
0.0
 10
12.6691891784
 20
8.4485164639
 30
0.0
 10
12.6671206543
 20
8.4493454888
 30
0.0
 10
12.6640804109
 20
8.4508486623
 30
0.0
 10
12.6610680678
 20
8.4526248865
 30
0.0
 10
12.6570154084
 20
8.4554073887
 30
0.0
 10
12.6531005943
 20
8.4587012335
 30
0.0
 10
12.6493271497
 20
8.4624337139
 30
0.0
 10
12.6464747945
 20
8.4655556744
 30
0.0
 10
12.6436582882
 20
8.468942312
 30
0.0
 10
12.6408785881
 20
8.4725923179
 30
0.0
 10
12.6381370213
 20
8.4765039016
 30
0.0
 10
12.6354347375
 20
8.4806752197
 30
0.0
 10
12.6327730346
 20
8.4851043433
 30
0.0
 10
12.6301530845
 20
8.4897891688
 30
0.0
 10
12.627576116
 20
8.4947275009
 30
0.0
 10
12.6250433586
 20
8.4999170208
 30
0.0
 10
12.622555951
 20
8.5053552604
 30
0.0
 10
12.6201151262
 20
8.5110396657
 30
0.0
 10
12.6177220001
 20
8.5169675298
 30
0.0
 10
12.6153777246
 20
8.5231360398
 30
0.0
 10
12.6130834198
 20
8.5295422784
 30
0.0
 10
12.6100491762
 20
8.5385250306
 30
0.0
 10
12.6063997599
 20
8.5503328066
 30
0.0
 10
12.6022965558
 20
8.565204888
 30
0.0
 10
12.5984173526
 20
8.5809464362
 30
0.0
 10
12.5947696306
 20
8.5975274228
 30
0.0
 10
12.5913604571
 20
8.6149163628
 30
0.0
 10
12.5881964301
 20
8.6330801074
 30
0.0
 10
12.5852836746
 20
8.6519840002
 30
0.0
 10
12.5826278337
 20
8.6715919358
 30
0.0
 10
12.5802340545
 20
8.6918664438
 30
0.0
 10
12.578106981
 20
8.7127687579
 30
0.0
 10
12.5762507316
 20
8.7342588906
 30
0.0
 10
12.5746689002
 20
8.7562957151
 30
0.0
 10
12.573364554
 20
8.7788370515
 30
0.0
 10
12.5723402255
 20
8.8018397497
 30
0.0
 10
12.571597911
 20
8.8252597674
 30
0.0
 10
12.5711390509
 20
8.8490522588
 30
0.0
 10
12.5709645484
 20
8.873171648
 30
0.0
 10
12.5710747327
 20
8.897571779
 30
0.0
 10
12.5716029827
 20
8.9305356196
 30
0.0
 10
12.5729759473
 20
8.9720966503
 30
0.0
 10
12.5757344787
 20
9.0221560427
 30
0.0
 10
12.5795891387
 20
9.072197164
 30
0.0
 10
12.5837024731
 20
9.1136898987
 30
0.0
 10
12.587523436
 20
9.1465802963
 30
0.0
 10
12.5906335323
 20
9.1709301621
 30
0.0
 10
12.5939906526
 20
9.1949903766
 30
0.0
 10
12.5975883733
 20
9.218714896
 30
0.0
 10
12.6014197772
 20
9.2420582797
 30
0.0
 10
12.6054775071
 20
9.2649758299
 30
0.0
 10
12.6097537706
 20
9.2874236635
 30
0.0
 10
12.6142403505
 20
9.3093588063
 30
0.0
 10
12.618928618
 20
9.3307392763
 30
0.0
 10
12.6238095584
 20
9.3515241622
 30
0.0
 10
12.6288737851
 20
9.3716736996
 30
0.0
 10
12.6341115617
 20
9.3911493518
 30
0.0
 10
12.6395128098
 20
9.4099138932
 30
0.0
 10
12.6450671317
 20
9.4279314863
 30
0.0
 10
12.6507638391
 20
9.4451677461
 30
0.0
 10
12.6565919719
 20
9.4615898166
 30
0.0
 10
12.6625403273
 20
9.4771664216
 30
0.0
 10
12.6685974799
 20
9.491868031
 30
0.0
 10
12.6747517966
 20
9.5056666335
 30
0.0
 10
12.6800259062
 20
9.5165450407
 30
0.0
 10
12.6842926701
 20
9.5247673241
 30
0.0
 10
12.6874627807
 20
9.5306017128
 30
0.0
 10
12.6906483644
 20
9.5361915354
 30
0.0
 10
12.6938478836
 20
9.5415341685
 30
0.0
 10
12.6970598521
 20
9.5466270621
 30
0.0
 10
12.7002827387
 20
9.5514677993
 30
0.0
 10
12.703514981
 20
9.5560541015
 30
0.0
 10
12.7067551291
 20
9.5603837918
 30
0.0
 10
12.7100016613
 20
9.5644548938
 30
0.0
 10
12.7132531549
 20
9.5682654919
 30
0.0
 10
12.716507916
 20
9.5718136142
 30
0.0
 10
12.7187229461
 20
9.5740473518
 30
0.0
 10
12.7198310349
 20
9.5751176834
 30
0.0
  0
SPLINE
  5
38F
100
AcDbEntity
  8
0
100
AcDbSpline
 62
7
  6
CONTINUOUS
 70
0
 71
3
 72
15
 73
11
 74
0
 42
0.0000001
 43
0.0000001
 44
0.0000000001
 40
0.0
 40
0.0
 40
0.0
 40
0.0
 40
0.1084409115
 40
0.2203197468
 40
0.3363915422
 40
0.4573221093
 40
0.5836913596
 40
0.7159974707
 40
0.8546566544
 40
1.0
 40
1.0
 40
1.0
 40
1.0
 10
12.7495954556
 20
9.5926461962
 30
0.0
 10
12.748356006
 20
9.5923931998
 30
0.0
 10
12.7458609958
 20
9.5917588049
 30
0.0
 10
12.7421546115
 20
9.5904559448
 30
0.0
 10
12.7384362152
 20
9.5887907215
 30
0.0
 10
12.7347084293
 20
9.5867649183
 30
0.0
 10
12.7309731793
 20
9.5843801877
 30
0.0
 10
12.7272324381
 20
9.5816383177
 30
0.0
 10
12.7234884881
 20
9.5785413634
 30
0.0
 10
12.7210505228
 20
9.5762956184
 30
0.0
 10
12.7198310349
 20
9.5751176834
 30
0.0
  0
SPLINE
  5
390
100
AcDbEntity
  8
0
100
AcDbSpline
 62
7
  6
CONTINUOUS
 70
0
 71
3
 72
21
 73
17
 74
0
 42
0.0000001
 43
0.0000001
 44
0.0000000001
 40
0.0
 40
0.0
 40
0.0
 40
0.0
 40
0.1273175725
 40
0.2538000026
 40
0.3167619332
 40
0.3795354925
 40
0.4421314982
 40
0.5045621433
 40
0.5668413429
 40
0.6289845306
 40
0.6910084612
 40
0.7529311022
 40
0.8147714553
 40
0.8765493457
 40
0.9382852283
 40
1.0
 40
1.0
 40
1.0
 40
1.0
 10
11.1454088244
 20
10.0744891937
 30
0.0
 10
11.1454088244
 20
10.0809875201
 30
0.0
 10
11.1460291319
 20
10.0939499105
 30
0.0
 10
11.148371811
 20
10.1099742273
 30
0.0
 10
11.1511718506
 20
10.1225439067
 30
0.0
 10
11.153725338
 20
10.1318153033
 30
0.0
 10
11.1567293239
 20
10.1409219726
 30
0.0
 10
11.1601769593
 20
10.1498431517
 30
0.0
 10
11.1640602637
 20
10.1585582142
 30
0.0
 10
11.1683703061
 20
10.167047078
 30
0.0
 10
11.1730971999
 20
10.1752901339
 30
0.0
 10
11.1782300287
 20
10.1832683871
 30
0.0
 10
11.1837569365
 20
10.1909634248
 30
0.0
 10
11.1896652768
 20
10.1983575346
 30
0.0
 10
11.1959411939
 20
10.2054334212
 30
0.0
 10
11.200361344
 20
10.2099285075
 30
0.0
 10
11.202626947
 20
10.2121169238
 30
0.0
  0
SPLINE
  5
391
100
AcDbEntity
  8
0
100
AcDbSpline
 62
7
  6
CONTINUOUS
 70
0
 71
3
 72
21
 73
17
 74
0
 42
0.0000001
 43
0.0000001
 44
0.0000000001
 40
0.0
 40
0.0
 40
0.0
 40
0.0
 40
0.1273175725
 40
0.2538000026
 40
0.3167619332
 40
0.3795354925
 40
0.4421314982
 40
0.5045621433
 40
0.5668413429
 40
0.6289845306
 40
0.6910084612
 40
0.7529311022
 40
0.8147714553
 40
0.8765493457
 40
0.9382852283
 40
1.0
 40
1.0
 40
1.0
 40
1.0
 10
10.0587422055
 20
7.0105906583
 30
0.0
 10
10.0587422055
 20
7.0170889846
 30
0.0
 10
10.0593625129
 20
7.030051375
 30
0.0
 10
10.061705192
 20
7.0460756919
 30
0.0
 10
10.0645052317
 20
7.0586453712
 30
0.0
 10
10.0670587191
 20
7.0679167678
 30
0.0
 10
10.070062705
 20
7.0770234371
 30
0.0
 10
10.0735103403
 20
7.0859446162
 30
0.0
 10
10.0773936448
 20
7.0946596788
 30
0.0
 10
10.0817036871
 20
7.1031485425
 30
0.0
 10
10.0864305809
 20
7.1113915984
 30
0.0
 10
10.0915634097
 20
7.1193698516
 30
0.0
 10
10.0970903175
 20
7.1270648894
 30
0.0
 10
10.1029986578
 20
7.1344589992
 30
0.0
 10
10.1092745749
 20
7.1415348858
 30
0.0
 10
10.1136947251
 20
7.146029972
 30
0.0
 10
10.115960328
 20
7.1482183883
 30
0.0
  0
SPLINE
  5
392
100
AcDbEntity
  8
0
100
AcDbSpline
 62
7
  6
CONTINUOUS
 70
0
 71
3
 72
53
 73
49
 74
0
 42
0.0000001
 43
0.0000001
 44
0.0000000001
 40
0.0
 40
0.0
 40
0.0
 40
0.0
 40
0.0470070544
 40
0.0937046499
 40
0.1400010014
 40
0.1858064076
 40
0.2310317616
 40
0.2755897135
 40
0.319394533
 40
0.3623624895
 40
0.4044120594
 40
0.4454641992
 40
0.4854426133
 40
0.5242740406
 40
0.5618885616
 40
0.5982199325
 40
0.6332059563
 40
0.6667889012
 40
0.6989159866
 40
0.7295399598
 40
0.7442756073
 40
0.7586206343
 40
0.7725710796
 40
0.7861234007
 40
0.7992746958
 40
0.812022586
 40
0.8243654093
 40
0.8363021794
 40
0.847832722
 40
0.8589577412
 40
0.8696788909
 40
0.8799989615
 40
0.8899219027
 40
0.8994531231
 40
0.9085995043
 40
0.9173697867
 40
0.9257746306
 40
0.9338270441
 40
0.9415425379
 40
0.9489395416
 40
0.9560396456
 40
0.9628679257
 40
0.9694531727
 40
0.9758279852
 40
0.9820287704
 40
0.9880954155
 40
0.9940708108
 40
1.0
 40
1.0
 40
1.0
 40
1.0
 10
12.9448547875
 20
8.9173098047
 30
0.0
 10
12.9436826261
 20
8.9051643488
 30
0.0
 10
12.9412065338
 20
8.8809666121
 30
0.0
 10
12.9370852132
 20
8.8448594055
 30
0.0
 10
12.9325751359
 20
8.8091129922
 30
0.0
 10
12.9276857889
 20
8.7738022281
 30
0.0
 10
12.9224273877
 20
8.7390007978
 30
0.0
 10
12.9168109675
 20
8.7047814558
 30
0.0
 10
12.9108482949
 20
8.6712156754
 30
0.0
 10
12.9045518752
 20
8.6383735764
 30
0.0
 10
12.8979349134
 20
8.6063237492
 30
0.0
 10
12.8910112919
 20
8.5751331175
 30
0.0
 10
12.8837955401
 20
8.5448667932
 30
0.0
 10
12.8763028048
 20
8.5155879363
 30
0.0
 10
12.8685488179
 20
8.4873576195
 30
0.0
 10
12.8605498637
 20
8.4602346867
 30
0.0
 10
12.8523227437
 20
8.434275646
 30
0.0
 10
12.8438847355
 20
8.4095344542
 30
0.0
 10
12.835253562
 20
8.3860626923
 30
0.0
 10
12.8278228648
 20
8.3673689352
 30
0.0
 10
12.821785254
 20
8.3530949477
 30
0.0
 10
12.8172781517
 20
8.3428743047
 30
0.0
 10
12.8127364229
 20
8.3330061304
 30
0.0
 10
12.8081623523
 20
8.3234955631
 30
0.0
 10
12.8035583873
 20
8.3143475343
 30
0.0
 10
12.7989268794
 20
8.3055668071
 30
0.0
 10
12.7942702731
 20
8.2971579256
 30
0.0
 10
12.7895909664
 20
8.289125252
 30
0.0
 10
12.7848913878
 20
8.2814729402
 30
0.0
 10
12.7801739765
 20
8.274204935
 30
0.0
 10
12.7754411292
 20
8.2673249965
 30
0.0
 10
12.7706953124
 20
8.2608366395
 30
0.0
 10
12.7659388787
 20
8.2547432283
 30
0.0
 10
12.7611742946
 20
8.2490478444
 30
0.0
 10
12.7564038609
 20
8.2437534563
 30
0.0
 10
12.7516300035
 20
8.2388627268
 30
0.0
 10
12.7468549677
 20
8.2343782366
 30
0.0
 10
12.7420810955
 20
8.230302274
 30
0.0
 10
12.7373105796
 20
8.2266370598
 30
0.0
 10
12.73254566
 20
8.2233845896
 30
0.0
 10
12.7277885096
 20
8.220546783
 30
0.0
 10
12.7230413223
 20
8.2181254516
 30
0.0
 10
12.7183063645
 20
8.2161222773
 30
0.0
 10
12.7135859592
 20
8.2145389477
 30
0.0
 10
12.7088827103
 20
8.2133768669
 30
0.0
 10
12.7041992135
 20
8.2126374541
 30
0.0
 10
12.6995390118
 20
8.2123215282
 30
0.0
 10
12.6964446212
 20
8.2123938806
 30
0.0
 10
12.6949092356
 20
8.2125003582
 30
0.0
  0
SPLINE
  5
393
100
AcDbEntity
  8
0
100
AcDbSpline
 62
7
  6
CONTINUOUS
 70
0
 71
3
 72
37
 73
33
 74
0
 42
0.0000001
 43
0.0000001
 44
0.0000000001
 40
0.0
 40
0.0
 40
0.0
 40
0.0
 40
0.0943239575
 40
0.1849459598
 40
0.2288046152
 40
0.2716620274
 40
0.3134948989
 40
0.3542815334
 40
0.3940014696
 40
0.4326355663
 40
0.4701662409
 40
0.5065774649
 40
0.5418550614
 40
0.5759866054
 40
0.6089619162
 40
0.6407729016
 40
0.6714141904
 40
0.7008830041
 40
0.7291799061
 40
0.7563088046
 40
0.7822777905
 40
0.8070993923
 40
0.8307915047
 40
0.853378006
 40
0.8748898123
 40
0.895365931
 40
0.9148546641
 40
0.9334150541
 40
0.9511181229
 40
0.9680483549
 40
0.9843044663
 40
1.0
 40
1.0
 40
1.0
 40
1.0
 10
12.9139451585
 20
9.4949669188
 30
0.0
 10
12.912613546
 20
9.5061920632
 30
0.0
 10
12.9097862738
 20
9.5281768645
 30
0.0
 10
12.9057023569
 20
9.5552936581
 30
0.0
 10
12.902163445
 20
9.5762497266
 30
0.0
 10
12.8994113397
 20
9.5914077305
 30
0.0
 10
12.8965343345
 20
9.6061676309
 30
0.0
 10
12.8935344374
 20
9.6205191697
 30
0.0
 10
12.8904137468
 20
9.6344523829
 30
0.0
 10
12.8871744347
 20
9.6479575932
 30
0.0
 10
12.8838187824
 20
9.6610254211
 30
0.0
 10
12.8803491064
 20
9.6736467979
 30
0.0
 10
12.8767678666
 20
9.6858129773
 30
0.0
 10
12.8730775115
 20
9.6975155276
 30
0.0
 10
12.869280668
 20
9.70874636
 30
0.0
 10
12.8653799108
 20
9.7194977066
 30
0.0
 10
12.861378013
 20
9.7297621663
 30
0.0
 10
12.8572776679
 20
9.739532661
 30
0.0
 10
12.8530817651
 20
9.7488025024
 30
0.0
 10
12.848793105
 20
9.7575653291
 30
0.0
 10
12.8444146522
 20
9.765815184
 30
0.0
 10
12.8399492898
 20
9.7735464441
 30
0.0
 10
12.8354000025
 20
9.7807538886
 30
0.0
 10
12.8307697118
 20
9.7874326373
 30
0.0
 10
12.8260613523
 20
9.7935781767
 30
0.0
 10
12.8212778198
 20
9.7991863299
 30
0.0
 10
12.8164219346
 20
9.8042531882
 30
0.0
 10
12.8114965083
 20
9.8087751508
 30
0.0
 10
12.806504309
 20
9.8127486815
 30
0.0
 10
12.8014479983
 20
9.81617057
 30
0.0
 10
12.796331165
 20
9.8190371725
 30
0.0
 10
12.7928280451
 20
9.8205998174
 30
0.0
 10
12.7910746147
 20
9.8212806316
 30
0.0
  0
SPLINE
  5
394
100
AcDbEntity
  8
0
100
AcDbSpline
 62
7
  6
CONTINUOUS
 70
0
 71
3
 72
18
 73
14
 74
0
 42
0.0000001
 43
0.0000001
 44
0.0000000001
 40
0.0
 40
0.0
 40
0.0
 40
0.0
 40
0.0548620589
 40
0.1099280789
 40
0.165399508
 40
0.2214731255
 40
0.2783387361
 40
0.3361775086
 40
0.4554063416
 40
0.5804417492
 40
0.7123343341
 40
0.8519577333
 40
1.0
 40
1.0
 40
1.0
 40
1.0
 10
10.0411481614
 20
10.6686907489
 30
0.0
 10
10.0411481615
 20
10.6696186162
 30
0.0
 10
10.0412070637
 20
10.6714783332
 30
0.0
 10
10.0414718663
 20
10.674264883
 30
0.0
 10
10.0419130533
 20
10.6770498271
 30
0.0
 10
10.0425304791
 20
10.6798321482
 30
0.0
 10
10.0433239044
 20
10.682611144
 30
0.0
 10
10.0446289115
 20
10.6863481483
 30
0.0
 10
10.0467195107
 20
10.6910221402
 30
0.0
 10
10.0499015331
 20
10.6965421425
 30
0.0
 10
10.0537770639
 20
10.7020264152
 30
0.0
 10
10.0583402067
 20
10.7074694541
 30
0.0
 10
10.0617339869
 20
10.7109618251
 30
0.0
 10
10.0635348559
 20
10.7127013312
 30
0.0
  0
SPLINE
  5
395
100
AcDbEntity
  8
0
100
AcDbSpline
 62
7
  6
CONTINUOUS
 70
0
 71
3
 72
9
 73
5
 74
0
 42
0.0000001
 43
0.0000001
 44
0.0000000001
 40
0.0
 40
0.0
 40
0.0
 40
0.0
 40
0.4862217708
 40
1.0
 40
1.0
 40
1.0
 40
1.0
 10
10.054273172
 20
10.6348951546
 30
0.0
 10
10.0556511668
 20
10.6366525813
 30
0.0
 10
10.0586281809
 20
10.6401564017
 30
0.0
 10
10.0618375434
 20
10.6434470412
 30
0.0
 10
10.0635348559
 20
10.6450865193
 30
0.0
  0
SPLINE
  5
396
100
AcDbEntity
  8
0
100
AcDbSpline
 62
7
  6
CONTINUOUS
 70
0
 71
3
 72
23
 73
19
 74
0
 42
0.0000001
 43
0.0000001
 44
0.0000000001
 40
0.0
 40
0.0
 40
0.0
 40
0.0
 40
0.0781370857
 40
0.1532319508
 40
0.2254044596
 40
0.2947997439
 40
0.3615916163
 40
0.4259789877
 40
0.4881875989
 40
0.5484708552
 40
0.6071108481
 40
0.6644178291
 40
0.7207261421
 40
0.7763901376
 40
0.831777592
 40
0.8872622863
 40
0.9432158635
 40
1.0
 40
1.0
 40
1.0
 40
1.0
 10
12.7198310349
 20
8.4643029174
 30
0.0
 10
12.7187981824
 20
8.4633052584
 30
0.0
 10
12.7167330933
 20
8.4613891591
 30
0.0
 10
12.7135734694
 20
8.4587079941
 30
0.0
 10
12.7104159411
 20
8.4562793592
 30
0.0
 10
12.7072619358
 20
8.45410461
 30
0.0
 10
12.7041127608
 20
8.4521847412
 30
0.0
 10
12.7009696107
 20
8.4505207917
 30
0.0
 10
12.6978337941
 20
8.4491136532
 30
0.0
 10
12.6947066467
 20
8.4479642359
 30
0.0
 10
12.6915895646
 20
8.4470734528
 30
0.0
 10
12.688484082
 20
8.4464419485
 30
0.0
 10
12.6853917888
 20
8.4460704088
 30
0.0
 10
12.6823144119
 20
8.4459592343
 30
0.0
 10
12.6792537605
 20
8.4461085731
 30
0.0
 10
12.676211607
 20
8.4465184848
 30
0.0
 10
12.67318997
 20
8.4471884613
 30
0.0
 10
12.6712083944
 20
8.4478025744
 30
0.0
 10
12.6702244966
 20
8.4481504294
 30
0.0
  0
SPLINE
  5
397
100
AcDbEntity
  8
0
100
AcDbSpline
 62
7
  6
CONTINUOUS
 70
0
 71
3
 72
41
 73
37
 74
0
 42
0.0000001
 43
0.0000001
 44
0.0000000001
 40
0.0
 40
0.0
 40
0.0
 40
0.0
 40
0.0149724862
 40
0.0299480307
 40
0.0449296746
 40
0.0599204222
 40
0.0899350731
 40
0.1200204959
 40
0.1501975964
 40
0.1804850878
 40
0.2108990702
 40
0.2414526838
 40
0.2721558423
 40
0.303015057
 40
0.3340333403
 40
0.3652101893
 40
0.3965416515
 40
0.4280204628
 40
0.4596362457
 40
0.4913757643
 40
0.5232232351
 40
0.5551606749
 40
0.587168282
 40
0.6192248472
 40
0.6513081855
 40
0.6833955794
 40
0.7154642309
 40
0.7474917144
 40
0.779456424
 40
0.8113380097
 40
0.8431177978
 40
0.8747791805
 40
0.9063079772
 40
0.937692809
 40
0.9689250164
 40
1.0
 40
1.0
 40
1.0
 40
1.0
 10
10.7913126333
 20
7.3458897635
 30
0.0
 10
10.7878823938
 20
7.3425763952
 30
0.0
 10
10.7808886922
 20
7.3360845969
 30
0.0
 10
10.7700183348
 20
7.3267704995
 30
0.0
 10
10.7587817874
 20
7.317891494
 30
0.0
 10
10.743328394
 20
7.3066465294
 30
0.0
 10
10.7231630933
 20
7.2937328035
 30
0.0
 10
10.6977737552
 20
7.2801699673
 30
0.0
 10
10.6713186239
 20
7.2686052148
 30
0.0
 10
10.643944518
 20
7.2591027347
 30
0.0
 10
10.6158020554
 20
7.2517143789
 30
0.0
 10
10.5870463433
 20
7.2464805344
 30
0.0
 10
10.5578356958
 20
7.2434295869
 30
0.0
 10
10.5283308543
 20
7.2425779466
 30
0.0
 10
10.4986940873
 20
7.2439299516
 30
0.0
 10
10.469088309
 20
7.2474777754
 30
0.0
 10
10.4396761816
 20
7.2532015565
 30
0.0
 10
10.4106192441
 20
7.2610695473
 30
0.0
 10
10.3820770388
 20
7.2710382681
 30
0.0
 10
10.3542062215
 20
7.2830526918
 30
0.0
 10
10.3271597387
 20
7.29704664
 30
0.0
 10
10.3010860126
 20
7.3129431447
 30
0.0
 10
10.2761281048
 20
7.330654808
 30
0.0
 10
10.252422939
 20
7.3500842953
 30
0.0
 10
10.2301005934
 20
7.3711249126
 30
0.0
 10
10.2092835994
 20
7.3936611742
 30
0.0
 10
10.1900862087
 20
7.4175693689
 30
0.0
 10
10.1726138248
 20
7.4427182919
 30
0.0
 10
10.1569624499
 20
7.4689699608
 30
0.0
 10
10.143218134
 20
7.4961803432
 30
0.0
 10
10.1314564567
 20
7.5242001013
 30
0.0
 10
10.1217421916
 20
7.5528755113
 30
0.0
 10
10.1141289383
 20
7.5820490432
 30
0.0
 10
10.1086588254
 20
7.6115610449
 30
0.0
 10
10.1053620786
 20
7.6412473626
 30
0.0
 10
10.1046236849
 20
7.6611016091
 30
0.0
 10
10.1046236849
 20
7.6709998838
 30
0.0
  0
SPLINE
  5
398
100
AcDbEntity
  8
0
100
AcDbSpline
 62
7
  6
CONTINUOUS
 70
0
 71
3
 72
41
 73
37
 74
0
 42
0.0000001
 43
0.0000001
 44
0.0000000001
 40
0.0
 40
0.0
 40
0.0
 40
0.0
 40
0.0149666323
 40
0.0299386628
 40
0.0449190256
 40
0.0599106091
 40
0.0899329265
 40
0.120032833
 40
0.150229988
 40
0.1805417912
 40
0.2109830056
 40
0.2415654538
 40
0.2722977903
 40
0.3031853589
 40
0.3342301245
 40
0.3654306806
 40
0.3967823277
 40
0.4282772213
 40
0.4599045764
 40
0.4916509224
 40
0.5235004029
 40
0.5554351161
 40
0.5874354845
 40
0.6194806482
 40
0.651548876
 40
0.6836179902
 40
0.7156657958
 40
0.7476705107
 40
0.7796111896
 40
0.8114681384
 40
0.8432233088
 40
0.8748606684
 40
0.9063665367
 40
0.9377299687
 40
0.9689425842
 40
1.0
 40
1.0
 40
1.0
 40
1.0
 10
10.7911899555
 20
7.3460270353
 30
0.0
 10
10.7876994592
 20
7.3428647916
 30
0.0
 10
10.7805922743
 20
7.3366754924
 30
0.0
 10
10.7695735702
 20
7.3278152126
 30
0.0
 10
10.7582095152
 20
7.3193885218
 30
0.0
 10
10.7426125393
 20
7.3087427377
 30
0.0
 10
10.722318985
 20
7.2965705616
 30
0.0
 10
10.6968565185
 20
7.283877473
 30
0.0
 10
10.6704043142
 20
7.2731555459
 30
0.0
 10
10.6431054927
 20
7.2644627846
 30
0.0
 10
10.6151064734
 20
7.2578453961
 30
0.0
 10
10.5865576887
 20
7.2533386143
 30
0.0
 10
10.5576123564
 20
7.2509662288
 30
0.0
 10
10.5284257549
 20
7.2507406057
 30
0.0
 10
10.4991543697
 20
7.252662614
 30
0.0
 10
10.4699550719
 20
7.2567216268
 30
0.0
 10
10.4409842729
 20
7.2628955486
 30
0.0
 10
10.4123971026
 20
7.2711510122
 30
0.0
 10
10.384346593
 20
7.2814435543
 30
0.0
 10
10.3569828766
 20
7.2937178616
 30
0.0
 10
10.330452367
 20
7.3079080108
 30
0.0
 10
10.3048970058
 20
7.3239378829
 30
0.0
 10
10.2804535166
 20
7.3417215663
 30
0.0
 10
10.2572526924
 20
7.3611638194
 30
0.0
 10
10.2354186652
 20
7.3821605277
 30
0.0
 10
10.2150682667
 20
7.4045992894
 30
0.0
 10
10.1963104261
 20
7.4283600241
 30
0.0
 10
10.1792455989
 20
7.4533156074
 30
0.0
 10
10.1639652005
 20
7.4793325157
 30
0.0
 10
10.1505511142
 20
7.5062715427
 30
0.0
 10
10.1390752934
 20
7.5339885403
 30
0.0
 10
10.1295993812
 20
7.5623352366
 30
0.0
 10
10.1221743362
 20
7.5911597828
 30
0.0
 10
10.1168402151
 20
7.6203083598
 30
0.0
 10
10.1136257584
 20
7.6496228862
 30
0.0
 10
10.1129058877
 20
7.6692262729
 30
0.0
 10
10.1129058877
 20
7.6789998779
 30
0.0
  0
SPLINE
  5
399
100
AcDbEntity
  8
0
100
AcDbSpline
 62
7
  6
CONTINUOUS
 70
0
 71
3
 72
39
 73
35
 74
0
 42
0.0000001
 43
0.0000001
 44
0.0000000001
 40
0.0
 40
0.0
 40
0.0
 40
0.0
 40
0.0307265246
 40
0.0612836917
 40
0.0916944147
 40
0.1219869321
 40
0.1521938576
 40
0.1823510088
 40
0.212496076
 40
0.2426672092
 40
0.2729015709
 40
0.3032339494
 40
0.3336954773
 40
0.3643125234
 40
0.3951058088
 40
0.4260897478
 40
0.4572720576
 40
0.4886536225
 40
0.5202285792
 40
0.5519846451
 40
0.5839036301
 40
0.6159621046
 40
0.6481322227
 40
0.6803826419
 40
0.7126795226
 40
0.7449875917
 40
0.7772712324
 40
0.8094955799
 40
0.8416276023
 40
0.8736371456
 40
0.9054979123
 40
0.9371883589
 40
0.9686921348
 40
1.0
 40
1.0
 40
1.0
 40
1.0
 10
10.7449576269
 20
7.5917840762
 30
0.0
 10
10.7436256965
 20
7.5847338256
 30
0.0
 10
10.7403022025
 20
7.5707883946
 30
0.0
 10
10.7333561694
 20
7.5505013254
 30
0.0
 10
10.7245211093
 20
7.5310713839
 30
0.0
 10
10.7138725968
 20
7.5126675524
 30
0.0
 10
10.7015013007
 20
7.4954470277
 30
0.0
 10
10.6875130842
 20
7.4795576544
 30
0.0
 10
10.6720276747
 20
7.4651356941
 30
0.0
 10
10.6551778297
 20
7.4523047592
 30
0.0
 10
10.6371081035
 20
7.4411745983
 30
0.0
 10
10.6179734345
 20
7.4318403362
 30
0.0
 10
10.597937887
 20
7.4243814489
 30
0.0
 10
10.5771731056
 20
7.4188611814
 30
0.0
 10
10.5558567815
 20
7.4153261968
 30
0.0
 10
10.5341711655
 20
7.4138059749
 30
0.0
 10
10.5123014412
 20
7.414312798
 30
0.0
 10
10.4904341863
 20
7.4168417549
 30
0.0
 10
10.4687557767
 20
7.4213705891
 30
0.0
 10
10.4474508378
 20
7.4278601675
 30
0.0
 10
10.4267007313
 20
7.4362547883
 30
0.0
 10
10.406681968
 20
7.446482506
 30
0.0
 10
10.3875648311
 20
7.4584559901
 30
0.0
 10
10.3695119257
 20
7.47207314
 30
0.0
 10
10.3526767464
 20
7.4872178822
 30
0.0
 10
10.337202545
 20
7.5037613317
 30
0.0
 10
10.3232210183
 20
7.5215627161
 30
0.0
 10
10.3108511813
 20
7.540470581
 30
0.0
 10
10.3001985328
 20
7.560324141
 30
0.0
 10
10.2913539744
 20
7.5809545642
 30
0.0
 10
10.2843930977
 20
7.602186163
 30
0.0
 10
10.2793757277
 20
7.6238388988
 30
0.0
 10
10.276344955
 20
7.6457259964
 30
0.0
 10
10.2756643991
 20
7.6604018263
 30
0.0
 10
10.2756643991
 20
7.6677125368
 30
0.0
  0
SPLINE
  5
39A
100
AcDbEntity
  8
0
100
AcDbSpline
 62
7
  6
CONTINUOUS
 70
0
 71
3
 72
39
 73
35
 74
0
 42
0.0000001
 43
0.0000001
 44
0.0000000001
 40
0.0
 40
0.0
 40
0.0
 40
0.0
 40
0.0305826465
 40
0.061016458
 40
0.0913270643
 40
0.1215444325
 40
0.1517018423
 40
0.1818347218
 40
0.2119793801
 40
0.2421717023
 40
0.2724458653
 40
0.3028331271
 40
0.333360754
 40
0.3640511239
 40
0.3949210263
 40
0.4259811871
 40
0.4572360276
 40
0.4886836333
 40
0.5203159239
 40
0.552119023
 40
0.5840737812
 40
0.6161564305
 40
0.6483393596
 40
0.6805919767
 40
0.7128816329
 40
0.74517459
 40
0.7774370139
 40
0.8096359657
 40
0.8417403801
 40
0.8737219965
 40
0.9055562346
 40
0.9372230459
 40
0.9687071192
 40
1.0
 40
1.0
 40
1.0
 40
1.0
 10
10.7473804472
 20
7.607650887
 30
0.0
 10
10.7457420421
 20
7.6015120017
 30
0.0
 10
10.7419004513
 20
7.5894084445
 30
0.0
 10
10.7344718136
 20
7.5719198584
 30
0.0
 10
10.7254502573
 20
7.5552811782
 30
0.0
 10
10.7149095693
 20
7.5396302587
 30
0.0
 10
10.7029352939
 20
7.5250943383
 30
0.0
 10
10.6896250261
 20
7.5117922378
 30
0.0
 10
10.6750873555
 20
7.4998324217
 30
0.0
 10
10.6594409307
 20
7.4893123866
 30
0.0
 10
10.64281346
 20
7.4803177735
 30
0.0
 10
10.6253406739
 20
7.4729215698
 30
0.0
 10
10.6071650925
 20
7.4671836282
 30
0.0
 10
10.5884348339
 20
7.4631502385
 30
0.0
 10
10.5693024101
 20
7.4608536874
 30
0.0
 10
10.5499234453
 20
7.4603120645
 30
0.0
 10
10.5304554052
 20
7.4615292461
 30
0.0
 10
10.5110563465
 20
7.4644948607
 30
0.0
 10
10.4918836303
 20
7.469184314
 30
0.0
 10
10.4730926789
 20
7.4755591405
 30
0.0
 10
10.454835764
 20
7.4835673313
 30
0.0
 10
10.4372607571
 20
7.4931436551
 30
0.0
 10
10.4205099667
 20
7.5042102563
 30
0.0
 10
10.4047190467
 20
7.5166773305
 30
0.0
 10
10.3900158931
 20
7.5304437879
 30
0.0
 10
10.3765195756
 20
7.545398026
 30
0.0
 10
10.3643394642
 20
7.5614189071
 30
0.0
 10
10.3535743644
 20
7.5783767093
 30
0.0
 10
10.3443116238
 20
7.5961340752
 30
0.0
 10
10.3366265042
 20
7.6145472337
 30
0.0
 10
10.3305816019
 20
7.6334669094
 30
0.0
 10
10.3262263424
 20
7.6527403125
 30
0.0
 10
10.3235963058
 20
7.6722091686
 30
0.0
 10
10.3230059362
 20
7.6852588659
 30
0.0
 10
10.3230059362
 20
7.6917601835
 30
0.0
  0
SPLINE
  5
39B
100
AcDbEntity
  8
0
100
AcDbSpline
 62
7
  6
CONTINUOUS
 70
0
 71
3
 72
42
 73
38
 74
0
 42
0.0000001
 43
0.0000001
 44
0.0000000001
 40
0.0
 40
0.0
 40
0.0
 40
0.0
 40
0.0299419655
 40
0.0449235324
 40
0.0599142042
 40
0.0899287041
 40
0.1200139759
 40
0.1350926596
 40
0.1501966997
 40
0.180484041
 40
0.210897873
 40
0.2414513349
 40
0.2721543418
 40
0.3030134042
 40
0.3340315332
 40
0.3652082265
 40
0.3965395325
 40
0.4280181861
 40
0.4596338091
 40
0.4913731668
 40
0.523220476
 40
0.5551577527
 40
0.5871651956
 40
0.6192215962
 40
0.6513047693
 40
0.6833919978
 40
0.7154604838
 40
0.7474878019
 40
0.7794523464
 40
0.8113337686
 40
0.8431133915
 40
0.8747746163
 40
0.90630324
 40
0.9376879137
 40
0.9533257948
 40
0.9689252601
 40
1.0
 40
1.0
 40
1.0
 40
1.0
 10
10.6813029321
 20
7.5441104486
 30
0.0
 10
10.6780762515
 20
7.540993695
 30
0.0
 10
10.6730460282
 20
7.5365074242
 30
0.0
 10
10.6660013088
 20
7.5309409355
 30
0.0
 10
10.6587322477
 20
7.5256514414
 30
0.0
 10
10.6492473127
 20
7.5195773836
 30
0.0
 10
10.6393012075
 20
7.5142643339
 30
0.0
 10
10.6310982448
 20
7.5104846204
 30
0.0
 10
10.6227258307
 20
7.5070169247
 30
0.0
 10
10.6119843989
 20
7.5032881647
 30
0.0
 10
10.5987472062
 20
7.4998130409
 30
0.0
 10
10.5852211703
 20
7.4973511666
 30
0.0
 10
10.5714812509
 20
7.4959161237
 30
0.0
 10
10.5576029247
 20
7.4955155707
 30
0.0
 10
10.5436625545
 20
7.4961515461
 30
0.0
 10
10.5297367602
 20
7.4978203762
 30
0.0
 10
10.5159020582
 20
7.5005127273
 30
0.0
 10
10.5022344307
 20
7.5042136572
 30
0.0
 10
10.4888089182
 20
7.5089027037
 30
0.0
 10
10.475699212
 20
7.5145539995
 30
0.0
 10
10.4629772562
 20
7.5211364169
 30
0.0
 10
10.4507128575
 20
7.5286137392
 30
0.0
 10
10.4389733082
 20
7.5369448589
 30
0.0
 10
10.427823021
 20
7.546084003
 30
0.0
 10
10.4173231802
 20
7.5559809821
 30
0.0
 10
10.4075314092
 20
7.5665814635
 30
0.0
 10
10.3985014583
 20
7.5778272667
 30
0.0
 10
10.3902829119
 20
7.5896566802
 30
0.0
 10
10.3829209192
 20
7.6020047926
 30
0.0
 10
10.3764559478
 20
7.6148038593
 30
0.0
 10
10.3709235644
 20
7.6279836163
 30
0.0
 10
10.3663542287
 20
7.6414718562
 30
0.0
 10
10.3627731833
 20
7.6551940967
 30
0.0
 10
10.3606262669
 20
7.6667771562
 30
0.0
 10
10.3594219105
 20
7.6760840044
 30
0.0
 10
10.3585623909
 20
7.6853819467
 30
0.0
 10
10.3583021367
 20
7.6923785859
 30
0.0
 10
10.3583021367
 20
7.6970344665
 30
0.0
  0
SPLINE
  5
39C
100
AcDbEntity
  8
0
100
AcDbSpline
 62
7
  6
CONTINUOUS
 70
0
 71
3
 72
23
 73
19
 74
0
 42
0.0000001
 43
0.0000001
 44
0.0000000001
 40
0.0
 40
0.0
 40
0.0
 40
0.0
 40
0.0616886956
 40
0.1234094037
 40
0.1851812159
 40
0.2470227392
 40
0.3089519273
 40
0.3709859168
 40
0.4331408692
 40
0.4954318231
 40
0.5578725572
 40
0.6204755059
 40
0.683251584
 40
0.7462102085
 40
0.8093593149
 40
0.872704028
 40
0.9362514542
 40
1.0
 40
1.0
 40
1.0
 40
1.0
 10
10.2168876642
 20
7.94058339
 30
0.0
 10
10.2127534447
 20
7.9363262381
 30
0.0
 10
10.2046920744
 20
7.9276036392
 30
0.0
 10
10.1932580473
 20
7.9139347353
 30
0.0
 10
10.1825030735
 20
7.8997063816
 30
0.0
 10
10.1724504532
 20
7.8849493168
 30
0.0
 10
10.1631214666
 20
7.8696948919
 30
0.0
 10
10.1545359969
 20
7.8539756448
 30
0.0
 10
10.1467123123
 20
7.8378250592
 30
0.0
 10
10.1396670758
 20
7.8212775435
 30
0.0
 10
10.1334152434
 20
7.8043683632
 30
0.0
 10
10.1279700967
 20
7.7871335432
 30
0.0
 10
10.1233431964
 20
7.7696097972
 30
0.0
 10
10.1195443727
 20
7.7518344166
 30
0.0
 10
10.1165817308
 20
7.7338453591
 30
0.0
 10
10.114461388
 20
7.7156806212
 30
0.0
 10
10.1131880374
 20
7.6973795967
 30
0.0
 10
10.1129058877
 20
7.6851322604
 30
0.0
 10
10.1129058877
 20
7.6789998779
 30
0.0
  0
SPLINE
  5
39D
100
AcDbEntity
  8
0
100
AcDbSpline
 62
7
  6
CONTINUOUS
 70
0
 71
3
 72
23
 73
19
 74
0
 42
0.0000001
 43
0.0000001
 44
0.0000000001
 40
0.0
 40
0.0
 40
0.0
 40
0.0
 40
0.0630509762
 40
0.1257811295
 40
0.1882284312
 40
0.2504394748
 40
0.3124681531
 40
0.3743740475
 40
0.4362205971
 40
0.4980731146
 40
0.5599967253
 40
0.6220543092
 40
0.6843045418
 40
0.746800099
 40
0.8095860805
 40
0.872698938
 40
0.9361643615
 40
1.0
 40
1.0
 40
1.0
 40
1.0
 10
10.460899618
 20
7.8858651802
 30
0.0
 10
10.4544137957
 20
7.8848713159
 30
0.0
 10
10.4415536362
 20
7.8823280382
 30
0.0
 10
10.4227204435
 20
7.8768543794
 30
0.0
 10
10.4045239548
 20
7.8697699523
 30
0.0
 10
10.3870963153
 20
7.8611253338
 30
0.0
 10
10.3705618211
 20
7.8509820346
 30
0.0
 10
10.3550390405
 20
7.8394124948
 30
0.0
 10
10.340639136
 20
7.8264994208
 30
0.0
 10
10.3274652568
 20
7.8123352188
 30
0.0
 10
10.315611682
 20
7.7970213359
 30
0.0
 10
10.3051631237
 20
7.7806674998
 30
0.0
 10
10.29619415
 20
7.7633908741
 30
0.0
 10
10.2887686607
 20
7.7453151387
 30
0.0
 10
10.2829394038
 20
7.7265697777
 30
0.0
 10
10.2787476762
 20
7.7072884309
 30
0.0
 10
10.2762228673
 20
7.6876106482
 30
0.0
 10
10.2756643991
 20
7.6743557229
 30
0.0
 10
10.2756643991
 20
7.6677125368
 30
0.0
  0
SPLINE
  5
39E
100
AcDbEntity
  8
0
100
AcDbSpline
 62
7
  6
CONTINUOUS
 70
0
 71
3
 72
23
 73
19
 74
0
 42
0.0000001
 43
0.0000001
 44
0.0000000001
 40
0.0
 40
0.0
 40
0.0
 40
0.0
 40
0.0628201197
 40
0.1253635253
 40
0.1876703229
 40
0.2497871628
 40
0.3117660042
 40
0.3736626932
 40
0.4355354031
 40
0.4974429876
 40
0.5594433108
 40
0.621591612
 40
0.6839389651
 40
0.7465309044
 40
0.8094061426
 40
0.8725959951
 40
0.9361222326
 40
1.0
 40
1.0
 40
1.0
 40
1.0
 10
10.4770910863
 20
7.8877942573
 30
0.0
 10
10.4715886199
 20
7.8865355419
 30
0.0
 10
10.460706232
 20
7.8835681274
 30
0.0
 10
10.444847236
 20
7.8777815383
 30
0.0
 10
10.4295880622
 20
7.8707056687
 30
0.0
 10
10.4150282787
 20
7.8623861157
 30
0.0
 10
10.4012611233
 20
7.8528760956
 30
0.0
 10
10.3883752451
 20
7.8422366573
 30
0.0
 10
10.3764534819
 20
7.83053614
 30
0.0
 10
10.3655724743
 20
7.817849762
 30
0.0
 10
10.3558021117
 20
7.8042591114
 30
0.0
 10
10.3472050875
 20
7.789851599
 30
0.0
 10
10.3398364713
 20
7.7747198923
 30
0.0
 10
10.3337433848
 20
7.7589612466
 30
0.0
 10
10.3289646664
 20
7.7426770051
 30
0.0
 10
10.3255307649
 20
7.725971394
 30
0.0
 10
10.3234633034
 20
7.7089529794
 30
0.0
 10
10.3230059362
 20
7.697499816
 30
0.0
 10
10.3230059362
 20
7.6917601835
 30
0.0
  0
SPLINE
  5
39F
100
AcDbEntity
  8
0
100
AcDbSpline
 62
7
  6
CONTINUOUS
 70
0
 71
3
 72
21
 73
17
 74
0
 42
0.0000001
 43
0.0000001
 44
0.0000000001
 40
0.0
 40
0.0
 40
0.0
 40
0.0
 40
0.0617147819
 40
0.1234506692
 40
0.185228552
 40
0.2470689061
 40
0.3089915516
 40
0.3710154745
 40
0.4331586551
 40
0.4954378585
 40
0.5578685076
 40
0.6204644887
 40
0.6832380492
 40
0.7462000649
 40
0.8726823101
 40
1.0
 40
1.0
 40
1.0
 40
1.0
 10
10.4110465099
 20
7.8239004684
 30
0.0
 10
10.408958062
 20
7.8218831701
 30
0.0
 10
10.4048834817
 20
7.8177396227
 30
0.0
 10
10.399098302
 20
7.8112170163
 30
0.0
 10
10.3936519146
 20
7.804401108
 30
0.0
 10
10.3885571213
 20
7.7973078056
 30
0.0
 10
10.3838256396
 20
7.7899533997
 30
0.0
 10
10.3794683352
 20
7.7823549078
 30
0.0
 10
10.3754952568
 20
7.7745298415
 30
0.0
 10
10.3719155952
 20
7.7664962384
 30
0.0
 10
10.3687375323
 20
7.7582726392
 30
0.0
 10
10.3659683951
 20
7.7498780637
 30
0.0
 10
10.3636145679
 20
7.7413316244
 30
0.0
 10
10.3610334694
 20
7.7297448134
 30
0.0
 10
10.3588739377
 20
7.7149734922
 30
0.0
 10
10.3583021367
 20
7.7030246738
 30
0.0
 10
10.3583021367
 20
7.6970344665
 30
0.0
  0
SPLINE
  5
3A0
100
AcDbEntity
  8
0
100
AcDbSpline
 62
7
  6
CONTINUOUS
 70
0
 71
3
 72
44
 73
40
 74
0
 42
0.0000001
 43
0.0000001
 44
0.0000000001
 40
0.0
 40
0.0
 40
0.0
 40
0.0
 40
0.0149722504
 40
0.0299475576
 40
0.0449289656
 40
0.0599194752
 40
0.0899336509
 40
0.1200185962
 40
0.1350971147
 40
0.150200993
 40
0.1804880038
 40
0.2109015036
 40
0.2414546317
 40
0.2721573035
 40
0.3030160297
 40
0.3340338212
 40
0.3652101756
 40
0.3965411416
 40
0.4280194541
 40
0.4596347352
 40
0.4913737507
 40
0.5232207176
 40
0.5551576521
 40
0.5871647534
 40
0.6192208128
 40
0.6513036453
 40
0.6833905334
 40
0.7154586792
 40
0.7314811024
 40
0.747490488
 40
0.7794546928
 40
0.811335776
 40
0.8431150609
 40
0.8747759499
 40
0.9063042323
 40
0.9376885956
 40
0.9533263523
 40
0.9689255432
 40
1.0
 40
1.0
 40
1.0
 40
1.0
 10
11.4958114247
 20
9.9085928706
 30
0.0
 10
11.4940610489
 20
9.9069021281
 30
0.0
 10
11.4904923234
 20
9.903589493
 30
0.0
 10
11.4849454191
 20
9.8988366998
 30
0.0
 10
11.4792116706
 20
9.8943059216
 30
0.0
 10
11.4713261016
 20
9.8885678393
 30
0.0
 10
11.4610364792
 20
9.8819783421
 30
0.0
 10
11.4502466323
 20
9.8762145595
 30
0.0
 10
11.4413478096
 20
9.8721141009
 30
0.0
 10
11.4322651193
 20
9.8683522317
 30
0.0
 10
11.4206124667
 20
9.8643070655
 30
0.0
 10
11.4062523112
 20
9.8605370751
 30
0.0
 10
11.3915788073
 20
9.8578662847
 30
0.0
 10
11.3766732687
 20
9.856309443
 30
0.0
 10
11.3616175771
 20
9.855874856
 30
0.0
 10
11.346494574
 20
9.8565647351
 30
0.0
 10
11.3313873799
 20
9.8583750939
 30
0.0
 10
11.3163790026
 20
9.8612958067
 30
0.0
 10
11.3015518707
 20
9.8653106634
 30
0.0
 10
11.2869873907
 20
9.8703974659
 30
0.0
 10
11.272765506
 20
9.8765281525
 30
0.0
 10
11.2589642638
 20
9.8836689559
 30
0.0
 10
11.245659395
 20
9.8917805851
 30
0.0
 10
11.2329238961
 20
9.9008184538
 30
0.0
 10
11.2208276648
 20
9.9107328783
 30
0.0
 10
11.2094370046
 20
9.9214695158
 30
0.0
 10
11.1988147003
 20
9.932969037
 30
0.0
 10
11.190648196
 20
9.9431395814
 30
0.0
 10
11.1845552207
 20
9.9515933461
 30
0.0
 10
11.1787688134
 20
9.9602394986
 30
0.0
 10
11.1721160722
 20
9.9713978648
 30
0.0
 10
11.1651027968
 20
9.9852824976
 30
0.0
 10
11.1591010176
 20
9.9995804216
 30
0.0
 10
11.1541440445
 20
10.0142129183
 30
0.0
 10
11.1502591841
 20
10.0290992925
 30
0.0
 10
11.1479301328
 20
10.0416650116
 30
0.0
 10
11.1466235956
 20
10.0517614002
 30
0.0
 10
11.1456911571
 20
10.0618481322
 30
0.0
 10
11.1454088244
 20
10.0694383228
 30
0.0
 10
11.1454088244
 20
10.0744891937
 30
0.0
  0
SPLINE
  5
3A1
100
AcDbEntity
  8
0
100
AcDbSpline
 62
7
  6
CONTINUOUS
 70
0
 71
3
 72
23
 73
19
 74
0
 42
0.0000001
 43
0.0000001
 44
0.0000000001
 40
0.0
 40
0.0
 40
0.0
 40
0.0
 40
0.063777379
 40
0.1273447372
 40
0.1907019931
 40
0.2538561345
 40
0.3168131769
 40
0.3795820929
 40
0.4421733849
 40
0.5045993366
 40
0.5668738654
 40
0.6290123812
 40
0.6910316548
 40
0.7529496517
 40
0.8147853612
 40
0.8765586089
 40
0.9382898579
 40
1.0
 40
1.0
 40
1.0
 40
1.0
 10
10.1046236849
 20
7.6709998838
 30
0.0
 10
10.1046236849
 20
7.6773796761
 30
0.0
 10
10.1049290359
 20
7.6901204141
 30
0.0
 10
10.1063072933
 20
7.7091540386
 30
0.0
 10
10.1086020629
 20
7.7280367543
 30
0.0
 10
10.1118079169
 20
7.7467243107
 30
0.0
 10
10.1159176377
 20
7.765173921
 30
0.0
 10
10.1209217427
 20
7.7833429567
 30
0.0
 10
10.1268087647
 20
7.8011895511
 30
0.0
 10
10.1335651543
 20
7.8186725478
 30
0.0
 10
10.1411753662
 20
7.8357516295
 30
0.0
 10
10.149621887
 20
7.852387404
 30
0.0
 10
10.158885268
 20
7.8685414928
 30
0.0
 10
10.1689441892
 20
7.8841766313
 30
0.0
 10
10.1797754367
 20
7.8992567148
 30
0.0
 10
10.1913541574
 20
7.9137470792
 30
0.0
 10
10.2036531985
 20
7.92761384
 30
0.0
 10
10.2123154896
 20
7.9364229203
 30
0.0
 10
10.2167554422
 20
7.9407116001
 30
0.0
  0
SPLINE
  5
3A2
100
AcDbEntity
  8
0
100
AcDbSpline
 62
7
  6
CONTINUOUS
 70
0
 71
3
 72
44
 73
40
 74
0
 42
0.0000001
 43
0.0000001
 44
0.0000000001
 40
0.0
 40
0.0
 40
0.0
 40
0.0
 40
0.0149722504
 40
0.0299475576
 40
0.0449289656
 40
0.0599194752
 40
0.0899336509
 40
0.1200185962
 40
0.1350971147
 40
0.150200993
 40
0.1804880038
 40
0.2109015036
 40
0.2414546317
 40
0.2721573035
 40
0.3030160297
 40
0.3340338212
 40
0.3652101756
 40
0.3965411416
 40
0.4280194541
 40
0.4596347352
 40
0.4913737507
 40
0.5232207176
 40
0.5551576521
 40
0.5871647534
 40
0.6192208128
 40
0.6513036453
 40
0.6833905334
 40
0.7154586792
 40
0.7314811024
 40
0.747490488
 40
0.7794546928
 40
0.811335776
 40
0.8431150609
 40
0.8747759499
 40
0.9063042323
 40
0.9376885956
 40
0.9533263523
 40
0.9689255432
 40
1.0
 40
1.0
 40
1.0
 40
1.0
 10
10.4091448058
 20
6.8446943351
 30
0.0
 10
10.4073944299
 20
6.8430035927
 30
0.0
 10
10.4038257044
 20
6.8396909575
 30
0.0
 10
10.3982788001
 20
6.8349381643
 30
0.0
 10
10.3925450516
 20
6.8304073862
 30
0.0
 10
10.3846594826
 20
6.8246693039
 30
0.0
 10
10.3743698603
 20
6.8180798066
 30
0.0
 10
10.3635800133
 20
6.812316024
 30
0.0
 10
10.3546811906
 20
6.8082155655
 30
0.0
 10
10.3455985003
 20
6.8044536963
 30
0.0
 10
10.3339458478
 20
6.80040853
 30
0.0
 10
10.3195856923
 20
6.7966385396
 30
0.0
 10
10.3049121883
 20
6.7939677492
 30
0.0
 10
10.2900066497
 20
6.7924109076
 30
0.0
 10
10.2749509581
 20
6.7919763206
 30
0.0
 10
10.2598279551
 20
6.7926661996
 30
0.0
 10
10.2447207609
 20
6.7944765584
 30
0.0
 10
10.2297123837
 20
6.7973972713
 30
0.0
 10
10.2148852517
 20
6.801412128
 30
0.0
 10
10.2003207718
 20
6.8064989304
 30
0.0
 10
10.1860988871
 20
6.8126296171
 30
0.0
 10
10.1722976448
 20
6.8197704204
 30
0.0
 10
10.158992776
 20
6.8278820497
 30
0.0
 10
10.1462572771
 20
6.8369199183
 30
0.0
 10
10.1341610458
 20
6.8468343429
 30
0.0
 10
10.1227703856
 20
6.8575709804
 30
0.0
 10
10.1121480814
 20
6.8690705016
 30
0.0
 10
10.103981577
 20
6.879241046
 30
0.0
 10
10.0978886017
 20
6.8876948106
 30
0.0
 10
10.0921021944
 20
6.8963409631
 30
0.0
 10
10.0854494532
 20
6.9074993293
 30
0.0
 10
10.0784361779
 20
6.9213839621
 30
0.0
 10
10.0724343987
 20
6.9356818861
 30
0.0
 10
10.0674774255
 20
6.9503143829
 30
0.0
 10
10.0635925652
 20
6.965200757
 30
0.0
 10
10.0612635138
 20
6.9777664762
 30
0.0
 10
10.0599569766
 20
6.9878628647
 30
0.0
 10
10.0590245382
 20
6.9979495967
 30
0.0
 10
10.0587422055
 20
7.0055397874
 30
0.0
 10
10.0587422055
 20
7.0105906583
 30
0.0
  0
SPLINE
  5
3A3
100
AcDbEntity
  8
0
100
AcDbSpline
 62
7
  6
CONTINUOUS
 70
0
 71
3
 72
51
 73
47
 74
0
 42
0.0000001
 43
0.0000001
 44
0.0000000001
 40
0.0
 40
0.0
 40
0.0
 40
0.0
 40
0.0060458445
 40
0.0122610369
 40
0.0186764003
 40
0.0253195698
 40
0.0322150772
 40
0.0393843911
 40
0.0468461371
 40
0.0546163423
 40
0.0627086095
 40
0.0711344795
 40
0.0799035084
 40
0.0890236407
 40
0.0985012564
 40
0.1083414392
 40
0.1185480849
 40
0.1291240011
 40
0.1400711127
 40
0.1513904124
 40
0.1630822193
 40
0.1751460757
 40
0.1875809568
 40
0.2003852304
 40
0.213556733
 40
0.2270928522
 40
0.2552453644
 40
0.2848140196
 40
0.3157633667
 40
0.3480527862
 40
0.3816370461
 40
0.416466759
 40
0.4524887759
 40
0.489646528
 40
0.5278803257
 40
0.5671276279
 40
0.6073232887
 40
0.6483997875
 40
0.6902874449
 40
0.7329146264
 40
0.7762079567
 40
0.8200924635
 40
0.8644919585
 40
0.9093286314
 40
0.9545247649
 40
1.0
 40
1.0
 40
1.0
 40
1.0
 10
12.6794934104
 20
8.2159199056
 30
0.0
 10
12.6809917588
 20
8.2162665368
 30
0.0
 10
12.6840031838
 20
8.2170926277
 30
0.0
 10
12.6884800613
 20
8.2186946864
 30
0.0
 10
12.69297004
 20
8.220673667
 30
0.0
 10
12.6974707703
 20
8.223028035
 30
0.0
 10
12.7019804022
 20
8.2257564483
 30
0.0
 10
12.7064970291
 20
8.2288573486
 30
0.0
 10
12.7110187757
 20
8.2323291285
 30
0.0
 10
12.7155437042
 20
8.2361701001
 30
0.0
 10
12.7200699387
 20
8.2403783735
 30
0.0
 10
12.7245954548
 20
8.24495203
 30
0.0
 10
12.7291183384
 20
8.2498888853
 30
0.0
 10
12.7336365192
 20
8.255186704
 30
0.0
 10
12.7381480114
 20
8.2608430094
 30
0.0
 10
12.7426507514
 20
8.2668552058
 30
0.0
 10
12.7471426746
 20
8.2732205185
 30
0.0
 10
12.7516217493
 20
8.279935988
 30
0.0
 10
12.7560858548
 20
8.2869985272
 30
0.0
 10
12.7605329832
 20
8.2944048306
 30
0.0
 10
12.7649610038
 20
8.3021514819
 30
0.0
 10
12.7693679035
 20
8.310234854
 30
0.0
 10
12.7737515909
 20
8.3186511936
 30
0.0
 10
12.77811002
 20
8.3273965663
 30
0.0
 10
12.7824411868
 20
8.3364668954
 30
0.0
 10
12.7882530962
 20
8.3491547316
 30
0.0
 10
12.7954233047
 20
8.3658054715
 30
0.0
 10
12.8037781051
 20
8.3867593761
 30
0.0
 10
12.8119765371
 20
8.4089005241
 30
0.0
 10
12.8200031402
 20
8.4321874643
 30
0.0
 10
12.8278427817
 20
8.4565767644
 30
0.0
 10
12.8354806739
 20
8.4820228025
 30
0.0
 10
12.8429024103
 20
8.5084779512
 30
0.0
 10
12.8500939919
 20
8.5358926521
 30
0.0
 10
12.8570418565
 20
8.5642155224
 30
0.0
 10
12.8637329037
 20
8.5933934546
 30
0.0
 10
12.8701545201
 20
8.6233717202
 30
0.0
 10
12.8762946027
 20
8.6540940751
 30
0.0
 10
12.8821415809
 20
8.6855028662
 30
0.0
 10
12.8876844424
 20
8.7175391435
 30
0.0
 10
12.8929127457
 20
8.7501427627
 30
0.0
 10
12.8978166563
 20
8.7832525384
 30
0.0
 10
12.9023869208
 20
8.8168062435
 30
0.0
 10
12.9066149812
 20
8.8507410266
 30
0.0
 10
12.9104928218
 20
8.8849929568
 30
0.0
 10
12.9128339068
 20
8.9079390607
 30
0.0
 10
12.9139451585
 20
8.9194533948
 30
0.0
  0
SPLINE
  5
3A4
100
AcDbEntity
  8
0
100
AcDbSpline
 62
7
  6
CONTINUOUS
 70
0
 71
3
 72
41
 73
37
 74
0
 42
0.0000001
 43
0.0000001
 44
0.0000000001
 40
0.0
 40
0.0
 40
0.0
 40
0.0
 40
0.0077464617
 40
0.0155169813
 40
0.0233353842
 40
0.031225009
 40
0.0392085129
 40
0.0473077097
 40
0.0639299763
 40
0.0812499768
 40
0.099400385
 40
0.1184940753
 40
0.1386250614
 40
0.1598705402
 40
0.1822926717
 40
0.2059408052
 40
0.2308532388
 40
0.2570587702
 40
0.2845782825
 40
0.3134255801
 40
0.3436086809
 40
0.3751303278
 40
0.4079887853
 40
0.4421783948
 40
0.4776898408
 40
0.5145108176
 40
0.5526259982
 40
0.5920176035
 40
0.6326654433
 40
0.674547106
 40
0.7176382797
 40
0.7619127688
 40
0.8073426614
 40
0.8538978984
 40
0.9015480703
 40
1.0
 40
1.0
 40
1.0
 40
1.0
 10
12.8065720922
 20
9.8226330625
 30
0.0
 10
12.8075390636
 20
9.8225660039
 30
0.0
 10
12.8094725945
 20
9.822375743
 30
0.0
 10
12.8123587064
 20
9.8219229637
 30
0.0
 10
12.8152319196
 20
9.8213027057
 30
0.0
 10
12.8180914303
 20
9.8205152139
 30
0.0
 10
12.8209366962
 20
9.8195606716
 30
0.0
 10
12.8247428247
 20
9.8180528188
 30
0.0
 10
12.8294752092
 20
9.815733257
 30
0.0
 10
12.8350325938
 20
9.8123099798
 30
0.0
 10
12.8405148672
 20
9.8082271891
 30
0.0
 10
12.8459179138
 20
9.8034894894
 30
0.0
 10
12.85123852
 20
9.7981014564
 30
0.0
 10
12.8564731102
 20
9.7920677544
 30
0.0
 10
12.8616181927
 20
9.7853934294
 30
0.0
 10
12.8666700842
 20
9.7780838599
 30
0.0
 10
12.8716250406
 20
9.7701449002
 30
0.0
 10
12.8764793248
 20
9.7615829251
 30
0.0
 10
12.8812290811
 20
9.7524047871
 30
0.0
 10
12.8858705954
 20
9.742617918
 30
0.0
 10
12.8904000716
 20
9.7322302345
 30
0.0
 10
12.8948138486
 20
9.7212502041
 30
0.0
 10
12.8991083077
 20
9.7096867978
 30
0.0
 10
12.9032798794
 20
9.6975494882
 30
0.0
 10
12.9073251595
 20
9.6848482554
 30
0.0
 10
12.911240738
 20
9.6715935475
 30
0.0
 10
12.9150234074
 20
9.6577963004
 30
0.0
 10
12.9186699915
 20
9.6434679007
 30
0.0
 10
12.9221774565
 20
9.6286201919
 30
0.0
 10
12.9255428983
 20
9.6132654588
 30
0.0
 10
12.9287634767
 20
9.5974164009
 30
0.0
 10
12.9318365483
 20
9.5810861341
 30
0.0
 10
12.9347594927
 20
9.5642882446
 30
0.0
 10
12.9375299495
 20
9.5470365932
 30
0.0
 10
12.941055733
 20
9.5231886838
 30
0.0
 10
12.943403586
 20
9.5050565773
 30
0.0
 10
12.9448547875
 20
9.4928233288
 30
0.0
  0
SPLINE
  5
3A5
100
AcDbEntity
  8
0
100
AcDbSpline
 62
7
  6
CONTINUOUS
 70
0
 71
3
 72
89
 73
85
 74
0
 42
0.0000001
 43
0.0000001
 44
0.0000000001
 40
0.0
 40
0.0
 40
0.0
 40
0.0
 40
0.0040523249
 40
0.0082800557
 40
0.0126870713
 40
0.0172766357
 40
0.0220514614
 40
0.0270135953
 40
0.032164365
 40
0.0375046266
 40
0.0430347406
 40
0.0487546863
 40
0.0546640628
 40
0.0607620913
 40
0.0670477327
 40
0.073519604
 40
0.087014987
 40
0.1012329454
 40
0.1161543462
 40
0.1317571056
 40
0.1480165228
 40
0.1649055523
 40
0.1823950297
 40
0.2004538786
 40
0.2190492882
 40
0.2381468709
 40
0.2577108074
 40
0.2777039801
 40
0.2980880985
 40
0.3188238272
 40
0.3398709067
 40
0.361188268
 40
0.3827341465
 40
0.404466193
 40
0.4263415838
 40
0.4703486785
 40
0.5144083299
 40
0.5363492875
 40
0.5581728959
 40
0.5798361023
 40
0.6012962601
 40
0.6225112384
 40
0.6434395328
 40
0.6640403792
 40
0.6842738726
 40
0.7041010824
 40
0.7234841713
 40
0.7423865195
 40
0.7607728553
 40
0.778609395
 40
0.7958640003
 40
0.8125063385
 40
0.828508064
 40
0.8438430291
 40
0.8584875306
 40
0.8724206079
 40
0.8856244154
 40
0.8919484742
 40
0.8980851786
 40
0.9040334286
 40
0.9097923722
 40
0.9153615472
 40
0.9207408276
 40
0.9259305025
 40
0.9309313418
 40
0.9357445775
 40
0.9403720736
 40
0.9448162879
 40
0.9490804422
 40
0.9531685819
 40
0.9570856708
 40
0.9608377822
 40
0.964432143
 40
0.9678773767
 40
0.9711835783
 40
0.9774235928
 40
0.9803901921
 40
0.9832753695
 40
0.9860978509
 40
0.9888777795
 40
0.9916363177
 40
0.9943951655
 40
0.9971760117
 40
1.0
 40
1.0
 40
1.0
 40
1.0
 10
12.7198310349
 20
8.4643029174
 30
0.0
 10
12.7209950582
 20
8.4654272777
 30
0.0
 10
12.7233217584
 20
8.4677787167
 30
0.0
 10
12.7267370685
 20
8.4715231171
 30
0.0
 10
12.7301485732
 20
8.4755563377
 30
0.0
 10
12.7335543608
 20
8.4798760841
 30
0.0
 10
12.7369527751
 20
8.484480148
 30
0.0
 10
12.7403420725
 20
8.4893661966
 30
0.0
 10
12.743720569
 20
8.4945316768
 30
0.0
 10
12.7470864341
 20
8.4999739231
 30
0.0
 10
12.7504379556
 20
8.5056900716
 30
0.0
 10
12.7537733677
 20
8.5116771493
 30
0.0
 10
12.7570909144
 20
8.5179320329
 30
0.0
 10
12.7603888854
 20
8.5244514347
 30
0.0
 10
12.7636655164
 20
8.5312319617
 30
0.0
 10
12.7680651386
 20
8.5407492733
 30
0.0
 10
12.7734887829
 20
8.5532808593
 30
0.0
 10
12.7797975685
 20
8.5690981976
 30
0.0
 10
12.7859809968
 20
8.5858648487
 30
0.0
 10
12.7920259718
 20
8.6035455714
 30
0.0
 10
12.7979196822
 20
8.6221033471
 30
0.0
 10
12.8036496305
 20
8.6414991957
 30
0.0
 10
12.8092036714
 20
8.6616923444
 30
0.0
 10
12.8145700323
 20
8.6826403035
 30
0.0
 10
12.8197373403
 20
8.7042989713
 30
0.0
 10
12.8246946464
 20
8.7266227306
 30
0.0
 10
12.8294314486
 20
8.7495645476
 30
0.0
 10
12.8339377133
 20
8.7730760716
 30
0.0
 10
12.8382039031
 20
8.7971077375
 30
0.0
 10
12.8422209902
 20
8.8216088756
 30
0.0
 10
12.8459804748
 20
8.8465278203
 30
0.0
 10
12.849474406
 20
8.8718120246
 30
0.0
 10
12.8526953862
 20
8.8974081549
 30
0.0
 10
12.8556366319
 20
8.9232622614
 30
0.0
 10
12.8591837892
 20
8.9580732378
 30
0.0
 10
12.8628741994
 20
9.0018295521
 30
0.0
 10
12.8655636259
 20
9.0456849895
 30
0.0
 10
12.8671041338
 20
9.08072611
 30
0.0
 10
12.8679477265
 20
9.106842963
 30
0.0
 10
12.868479403
 20
9.132775952
 30
0.0
 10
12.8686980336
 20
9.1584704181
 30
0.0
 10
12.8686031801
 20
9.1838721555
 30
0.0
 10
12.8681950606
 20
9.2089275913
 30
0.0
 10
12.8674745593
 20
9.2335838832
 30
0.0
 10
12.8664432286
 20
9.2577890382
 30
0.0
 10
12.8651032811
 20
9.2814920223
 30
0.0
 10
12.8634575846
 20
9.3046428683
 30
0.0
 10
12.8615096569
 20
9.327192781
 30
0.0
 10
12.8592636593
 20
9.3490942434
 30
0.0
 10
12.8567243867
 20
9.3703011214
 30
0.0
 10
12.8538972662
 20
9.3907687694
 30
0.0
 10
12.8507883385
 20
9.4104541259
 30
0.0
 10
12.8474042451
 20
9.4293158162
 30
0.0
 10
12.8437522113
 20
9.4473142231
 30
0.0
 10
12.8398400334
 20
9.4644116664
 30
0.0
 10
12.835676036
 20
9.4805722138
 30
0.0
 10
12.831952035
 20
9.493408764
 30
0.0
 10
12.828844105
 20
9.5031763339
 30
0.0
 10
12.8264892578
 20
9.5101414531
 30
0.0
 10
12.8240782796
 20
9.5168480139
 30
0.0
 10
12.8216123546
 20
9.5232925032
 30
0.0
 10
12.8190928279
 20
9.5294715572
 30
0.0
 10
12.8165209983
 20
9.5353819477
 30
0.0
 10
12.813898192
 20
9.5410205881
 30
0.0
 10
12.8112258154
 20
9.5463845615
 30
0.0
 10
12.8085051811
 20
9.5514710604
 30
0.0
 10
12.80573775
 20
9.5562774781
 30
0.0
 10
12.8029248727
 20
9.5608013117
 30
0.0
 10
12.8000679798
 20
9.5650402349
 30
0.0
 10
12.7971684942
 20
9.5689920763
 30
0.0
 10
12.794227781
 20
9.5726547516
 30
0.0
 10
12.7912472714
 20
9.5760264273
 30
0.0
 10
12.78822841
 20
9.5791051783
 30
0.0
 10
12.7851721617
 20
9.5818896727
 30
0.0
 10
12.7811288001
 20
9.5851440812
 30
0.0
 10
12.7769314208
 20
9.5878937553
 30
0.0
 10
12.7726060204
 20
9.5900509433
 30
0.0
 10
12.7693861647
 20
9.5913403398
 30
0.0
 10
12.7661386201
 20
9.5923266151
 30
0.0
 10
12.7628652899
 20
9.5930089081
 30
0.0
 10
12.7595684873
 20
9.5933864964
 30
0.0
 10
12.756250492
 20
9.5934589296
 30
0.0
 10
12.7529140211
 20
9.5932264244
 30
0.0
 10
12.7507004846
 20
9.5928717546
 30
0.0
 10
12.7495954556
 20
9.5926461962
 30
0.0
  0
SPLINE
  5
3A6
100
AcDbEntity
  8
0
100
AcDbSpline
 62
7
  6
CONTINUOUS
 70
0
 71
3
 72
55
 73
51
 74
0
 42
0.0000001
 43
0.0000001
 44
0.0000000001
 40
0.0
 40
0.0
 40
0.0
 40
0.0
 40
0.0094795518
 40
0.0194667834
 40
0.0299598126
 40
0.0409546518
 40
0.0524454519
 40
0.0644248164
 40
0.0768838878
 40
0.089812518
 40
0.1031994446
 40
0.1170322955
 40
0.1312977557
 40
0.1459816338
 40
0.1610688697
 40
0.1765436816
 40
0.1923895625
 40
0.2085893294
 40
0.241978323
 40
0.2765624711
 40
0.3121851601
 40
0.3486832036
 40
0.3858879801
 40
0.4236265552
 40
0.4617227832
 40
0.4999983802
 40
0.5382739916
 40
0.5763702649
 40
0.6141089147
 40
0.6513137892
 40
0.6878119599
 40
0.7234348112
 40
0.7580191451
 40
0.791408338
 40
0.8076082277
 40
0.823454216
 40
0.8389291579
 40
0.8540165267
 40
0.8687005272
 40
0.8829661404
 40
0.8967991292
 40
0.9101861969
 40
0.9231149943
 40
0.9355742074
 40
0.9475537338
 40
0.9590447037
 40
0.97003969
 40
0.9805328971
 40
0.9905202962
 40
1.0
 40
1.0
 40
1.0
 40
1.0
 10
12.6099072368
 20
8.5392152838
 30
0.0
 10
12.6115697084
 20
8.5418775443
 30
0.0
 10
12.6148772701
 20
8.5474116242
 30
0.0
 10
12.61967382
 20
8.5560964781
 30
0.0
 10
12.6244293245
 20
8.5653714027
 30
0.0
 10
12.6291377683
 20
8.5752248321
 30
0.0
 10
12.6337933587
 20
8.5856446453
 30
0.0
 10
12.6383902451
 20
8.5966179463
 30
0.0
 10
12.6429226907
 20
8.6081311287
 30
0.0
 10
12.6473850401
 20
8.6201698853
 30
0.0
 10
12.6517716687
 20
8.6327192516
 30
0.0
 10
12.6560771062
 20
8.6457635956
 30
0.0
 10
12.660295952
 20
8.6592866642
 30
0.0
 10
12.6644228948
 20
8.6732716008
 30
0.0
 10
12.6684527936
 20
8.6877009551
 30
0.0
 10
12.6723805682
 20
8.7025567193
 30
0.0
 10
12.6762013223
 20
8.7178203651
 30
0.0
 10
12.6811967909
 20
8.7389026399
 30
0.0
 10
12.6871263253
 20
8.7661372435
 30
0.0
 10
12.6936732629
 20
8.799810076
 30
0.0
 10
12.6996882793
 20
8.8346270131
 30
0.0
 10
12.7051411272
 20
8.8704141628
 30
0.0
 10
12.710004379
 20
8.9069929345
 30
0.0
 10
12.7142536159
 20
8.9441806712
 30
0.0
 10
12.7178675152
 20
8.9817916599
 30
0.0
 10
12.7208279599
 20
9.0196380484
 30
0.0
 10
12.7231201472
 20
9.0575307967
 30
0.0
 10
12.724732653
 20
9.0952806301
 30
0.0
 10
12.7256574795
 20
9.1326989929
 30
0.0
 10
12.7258900987
 20
9.1695990061
 30
0.0
 10
12.7254294969
 20
9.2057963923
 30
0.0
 10
12.7242781902
 20
9.2411104849
 30
0.0
 10
12.722442127
 20
9.2753648767
 30
0.0
 10
12.720328803
 20
9.3031574339
 30
0.0
 10
12.7182913711
 20
9.3247275997
 30
0.0
 10
12.716614173
 20
9.3403726566
 30
0.0
 10
12.714774698
 20
9.3556285158
 30
0.0
 10
12.7127752122
 20
9.3704761497
 30
0.0
 10
12.7106182452
 20
9.3848970214
 30
0.0
 10
12.7083065307
 20
9.3988731402
 30
0.0
 10
12.7058429478
 20
9.4123870735
 30
0.0
 10
12.7032306234
 20
9.4254219801
 30
0.0
 10
12.7004728459
 20
9.4379616257
 30
0.0
 10
12.6975730584
 20
9.4499904046
 30
0.0
 10
12.6945349434
 20
9.461493373
 30
0.0
 10
12.6913622904
 20
9.4724562616
 30
0.0
 10
12.6880590747
 20
9.4828654813
 30
0.0
 10
12.6846294334
 20
9.4927082454
 30
0.0
 10
12.681077659
 20
9.5019722482
 30
0.0
 10
12.6785656912
 20
9.507910041
 30
0.0
 10
12.6772866365
 20
9.5107763589
 30
0.0
  0
SPLINE
  5
3A7
100
AcDbEntity
  8
0
100
AcDbSpline
 62
7
  6
CONTINUOUS
 70
0
 71
3
 72
43
 73
39
 74
0
 42
0.0000001
 43
0.0000001
 44
0.0000000001
 40
0.0
 40
0.0
 40
0.0
 40
0.0
 40
0.0115627088
 40
0.0234841412
 40
0.0357575093
 40
0.0483755319
 40
0.0746131214
 40
0.1021294075
 40
0.1308494588
 40
0.1606923873
 40
0.1915720245
 40
0.2233975216
 40
0.2560738967
 40
0.2895025469
 40
0.3235817335
 40
0.3582070519
 40
0.3932718879
 40
0.4286678674
 40
0.4642853
 40
0.5000136194
 40
0.5357418223
 40
0.5713589059
 40
0.6067543053
 40
0.6418183324
 40
0.6764426162
 40
0.7105205468
 40
0.7439477246
 40
0.7766224172
 40
0.8084460284
 40
0.8393235848
 40
0.8691642465
 40
0.8978818556
 40
0.9253955359
 40
0.9516303692
 40
0.9642469463
 40
0.9765188684
 40
0.9884387926
 40
1.0
 40
1.0
 40
1.0
 40
1.0
 10
12.5875982755
 20
8.6373389575
 30
0.0
 10
12.5887481561
 20
8.640158642
 30
0.0
 10
12.5910320657
 20
8.6459066243
 30
0.0
 10
12.5943633263
 20
8.6547151684
 30
0.0
 10
12.5976502541
 20
8.663836352
 30
0.0
 10
12.6020270084
 20
8.6765708604
 30
0.0
 10
12.6073557864
 20
8.6932208144
 30
0.0
 10
12.6134509243
 20
8.7140703716
 30
0.0
 10
12.6193066869
 20
8.7359726622
 30
0.0
 10
12.6249035442
 20
8.7588552427
 30
0.0
 10
12.6302228199
 20
8.782642555
 30
0.0
 10
12.6352467784
 20
8.8072559355
 30
0.0
 10
12.6399586768
 20
8.8326139616
 30
0.0
 10
12.644342821
 20
8.8586327098
 30
0.0
 10
12.6483846164
 20
8.8852260469
 30
0.0
 10
12.6520706151
 20
8.9123059183
 30
0.0
 10
12.6553885597
 20
8.9397826449
 30
0.0
 10
12.6583274234
 20
8.967565223
 30
0.0
 10
12.6608774453
 20
8.9955616287
 30
0.0
 10
12.6630301634
 20
9.0236791249
 30
0.0
 10
12.6647784414
 20
9.0518245709
 30
0.0
 10
12.6661164931
 20
9.0799047326
 30
0.0
 10
12.6670399018
 20
9.1078265934
 30
0.0
 10
12.6675456346
 20
9.1354976643
 30
0.0
 10
12.6676320543
 20
9.162826293
 30
0.0
 10
12.6672989247
 20
9.1897219693
 30
0.0
 10
12.6665474131
 20
9.2160956288
 30
0.0
 10
12.6653800879
 20
9.2418599522
 30
0.0
 10
12.6638009113
 20
9.2669296575
 30
0.0
 10
12.6618152297
 20
9.2912217957
 30
0.0
 10
12.6594297527
 20
9.3146560138
 30
0.0
 10
12.6566525526
 20
9.3371549055
 30
0.0
 10
12.6534929697
 20
9.3586440307
 30
0.0
 10
12.6505128607
 20
9.3758682332
 30
0.0
 10
12.6479352995
 20
9.3890833687
 30
0.0
 10
12.6459385432
 20
9.398569695
 30
0.0
 10
12.6438546936
 20
9.4077524626
 30
0.0
 10
12.6423858427
 20
9.4137598094
 30
0.0
 10
12.6416360708
 20
9.416710789
 30
0.0
  0
SPLINE
  5
3A8
100
AcDbEntity
  8
0
100
AcDbSpline
 62
7
  6
CONTINUOUS
 70
0
 71
3
 72
91
 73
87
 74
0
 42
0.0000001
 43
0.0000001
 44
0.0000000001
 40
0.0
 40
0.0
 40
0.0
 40
0.0
 40
0.0039801824
 40
0.0081241125
 40
0.0124359604
 40
0.0169193082
 40
0.0215771808
 40
0.0264119179
 40
0.0314251804
 40
0.036618156
 40
0.0419915391
 40
0.0475456573
 40
0.0532804234
 40
0.0591954189
 40
0.0652899227
 40
0.0715629017
 40
0.0780131034
 40
0.0846389837
 40
0.0984102885
 40
0.1128608532
 40
0.1279713725
 40
0.1437199568
 40
0.1600824082
 40
0.1770324532
 40
0.1945419392
 40
0.2125810061
 40
0.2311182422
 40
0.2501208275
 40
0.2695546626
 40
0.2893844909
 40
0.3095740146
 40
0.330086005
 40
0.35088241
 40
0.3719244606
 40
0.3931727759
 40
0.4145874652
 40
0.4361282289
 40
0.4577544586
 40
0.4794253371
 40
0.501099938
 40
0.5227373261
 40
0.5442966575
 40
0.5657372785
 40
0.5870188258
 40
0.6081013261
 40
0.6289452975
 40
0.6495118524
 40
0.6697628021
 40
0.6896607608
 40
0.7091692527
 40
0.7282528228
 40
0.7468771515
 40
0.7650091753
 40
0.7826172172
 40
0.7996711268
 40
0.8161424293
 40
0.8320044948
 40
0.8472327309
 40
0.8618048077
 40
0.8757009255
 40
0.8889041429
 40
0.8952417292
 40
0.9014012652
 40
0.9073816417
 40
0.9131820083
 40
0.9188018518
 40
0.9242409423
 40
0.9294994633
 40
0.9345779585
 40
0.9394774438
 40
0.944199427
 40
0.9487459568
 40
0.95311974
 40
0.9573241405
 40
0.9613633601
 40
0.9652424499
 40
0.9689674846
 40
0.9725456466
 40
0.9759853437
 40
0.9824865016
 40
0.9855753543
 40
0.9885738189
 40
0.9914977372
 40
0.9943643366
 40
0.9971920099
 40
1.0
 40
1.0
 40
1.0
 40
1.0
 10
10.0635348559
 20
10.7127013312
 30
0.0
 10
10.0648360878
 20
10.7139582247
 30
0.0
 10
10.0675511772
 20
10.7164631222
 30
0.0
 10
10.0718619042
 20
10.7201217136
 30
0.0
 10
10.0764891839
 20
10.7237540614
 30
0.0
 10
10.0814304778
 20
10.7273582371
 30
0.0
 10
10.0866833769
 20
10.7309325574
 30
0.0
 10
10.0922453073
 20
10.7344752834
 30
0.0
 10
10.0981134873
 20
10.7379847164
 30
0.0
 10
10.1042850054
 20
10.7414590353
 30
0.0
 10
10.110756745
 20
10.7448965724
 30
0.0
 10
10.117525489
 20
10.7482955592
 30
0.0
 10
10.124587834
 20
10.751654324
 30
0.0
 10
10.1319402374
 20
10.7549711694
 30
0.0
 10
10.1395790084
 20
10.758244405
 30
0.0
 10
10.1475002915
 20
10.7614724137
 30
0.0
 10
10.1557001205
 20
10.7646535358
 30
0.0
 10
10.1671466328
 20
10.7688848758
 30
0.0
 10
10.1821283333
 20
10.7740344986
 30
0.0
 10
10.200925174
 20
10.7799253565
 30
0.0
 10
10.2207271305
 20
10.7855923394
 30
0.0
 10
10.2414942305
 20
10.7910239199
 30
0.0
 10
10.263184703
 20
10.796209034
 30
0.0
 10
10.2857548061
 20
10.8011371191
 30
0.0
 10
10.3091589998
 20
10.8057981339
 30
0.0
 10
10.3333500223
 20
10.8101825858
 30
0.0
 10
10.3582789987
 20
10.8142815468
 30
0.0
 10
10.3838955445
 20
10.8180866719
 30
0.0
 10
10.4101478714
 20
10.8215902154
 30
0.0
 10
10.4369828946
 20
10.824785047
 30
0.0
 10
10.4643463416
 20
10.8276646654
 30
0.0
 10
10.4921828629
 20
10.8302232107
 30
0.0
 10
10.5204361444
 20
10.8324554797
 30
0.0
 10
10.549049024
 20
10.834356934
 30
0.0
 10
10.5779636084
 20
10.8359237078
 30
0.0
 10
10.6071213918
 20
10.8371526159
 30
0.0
 10
10.6364633746
 20
10.8380411594
 30
0.0
 10
10.6659301823
 20
10.8385875315
 30
0.0
 10
10.6954621866
 20
10.8387906197
 30
0.0
 10
10.724999626
 20
10.8386500115
 30
0.0
 10
10.7544827285
 20
10.8381659941
 30
0.0
 10
10.7838518328
 20
10.8373395523
 30
0.0
 10
10.8130475098
 20
10.8361723662
 30
0.0
 10
10.8420106821
 20
10.8346668086
 30
0.0
 10
10.8706827447
 20
10.8328259397
 30
0.0
 10
10.8990056835
 20
10.8306535013
 30
0.0
 10
10.9269221951
 20
10.8281539108
 30
0.0
 10
10.9543758041
 20
10.8253322541
 30
0.0
 10
10.9813109779
 20
10.8221942716
 30
0.0
 10
11.0076732393
 20
10.8187463483
 30
0.0
 10
11.0334092785
 20
10.8149955007
 30
0.0
 10
11.058467062
 20
10.8109493631
 30
0.0
 10
11.0827959412
 20
10.8066161718
 30
0.0
 10
11.1063467596
 20
10.8020047506
 30
0.0
 10
11.1290719585
 20
10.7971244937
 30
0.0
 10
11.1509256742
 20
10.7919853436
 30
0.0
 10
11.1718638445
 20
10.7865977693
 30
0.0
 10
11.1918442802
 20
10.780972744
 30
0.0
 10
11.2108268506
 20
10.7751217166
 30
0.0
 10
11.228773272
 20
10.769056585
 30
0.0
 10
11.2430234131
 20
10.7637644502
 30
0.0
 10
11.2538692398
 20
10.7594235983
 30
0.0
 10
11.2616112031
 20
10.7561665959
 30
0.0
 10
11.2690681796
 20
10.7528654306
 30
0.0
 10
11.2762364191
 20
10.7495217031
 30
0.0
 10
11.2831123354
 20
10.7461371574
 30
0.0
 10
11.2896924595
 20
10.7427134295
 30
0.0
 10
11.2959735159
 20
10.7392522933
 30
0.0
 10
11.3019523483
 20
10.7357554334
 30
0.0
 10
11.307625978
 20
10.7322246061
 30
0.0
 10
11.312991584
 20
10.7286615665
 30
0.0
 10
11.3180464747
 20
10.7250680246
 30
0.0
 10
11.3227881711
 20
10.72144579
 30
0.0
 10
11.327214273
 20
10.7177965332
 30
0.0
 10
11.3313226126
 20
10.7141220688
 30
0.0
 10
11.3351111183
 20
10.7104240338
 30
0.0
 10
11.338577803
 20
10.7067042905
 30
0.0
 10
11.3417211703
 20
10.7029640922
 30
0.0
 10
11.3454086371
 20
10.6980461627
 30
0.0
 10
11.3485398967
 20
10.6929956746
 30
0.0
 10
11.3510259807
 20
10.6878373459
 30
0.0
 10
11.3525280615
 20
10.6840223768
 30
0.0
 10
11.3536977866
 20
10.6801981253
 30
0.0
 10
11.3545341968
 20
10.6763664489
 30
0.0
 10
11.3550363679
 20
10.6725300793
 30
0.0
 10
11.3551481616
 20
10.6699670839
 30
0.0
 10
11.3551481614
 20
10.668690749
 30
0.0
  0
SPLINE
  5
3A9
100
AcDbEntity
  8
0
100
AcDbSpline
 62
7
  6
CONTINUOUS
 70
0
 71
3
 72
79
 73
75
 74
0
 42
0.0000001
 43
0.0000001
 44
0.0000000001
 40
0.0
 40
0.0
 40
0.0
 40
0.0
 40
0.0069315574
 40
0.0105986767
 40
0.0144066877
 40
0.0183600657
 40
0.022462566
 40
0.026717331
 40
0.0311268813
 40
0.0356932613
 40
0.0404180349
 40
0.0453023372
 40
0.0503469664
 40
0.0555523326
 40
0.060918574
 40
0.06644554
 40
0.0721328008
 40
0.0839850491
 40
0.0964680903
 40
0.1095712258
 40
0.1232811587
 40
0.1375823026
 40
0.1524570208
 40
0.1678858364
 40
0.1838476189
 40
0.2003197345
 40
0.2172781737
 40
0.2346976581
 40
0.252551756
 40
0.2708129854
 40
0.2894529036
 40
0.308442189
 40
0.327750719
 40
0.3473476593
 40
0.3672015419
 40
0.3872803383
 40
0.4075515304
 40
0.4485384014
 40
0.4898957113
 40
0.531353215
 40
0.572639826
 40
0.6134858936
 40
0.6336607498
 40
0.6536261848
 40
0.6733499231
 40
0.6928002158
 40
0.711945919
 40
0.7307565654
 40
0.7492024402
 40
0.7672546618
 40
0.7848852768
 40
0.8020673462
 40
0.818775033
 40
0.8349837026
 40
0.8506700379
 40
0.8658121762
 40
0.8803898387
 40
0.8943844882
 40
0.90777952
 40
0.9205605005
 40
0.9327154537
 40
0.944235197
 40
0.949755112
 40
0.9551143006
 40
0.9603126017
 40
0.9653501843
 40
0.9702274804
 40
0.9749452775
 40
0.9795047293
 40
0.9839073988
 40
0.9881554274
 40
0.9922514367
 40
0.9961984568
 40
1.0
 40
1.0
 40
1.0
 40
1.0
 10
11.3420638879
 20
10.6348431395
 30
0.0
 10
11.3401743136
 20
10.6372568867
 30
0.0
 10
11.3370840284
 20
10.6407937899
 30
0.0
 10
11.332584042
 20
10.6453053295
 30
0.0
 10
11.3288676925
 20
10.6487329939
 30
0.0
 10
11.3248755767
 20
10.6521392378
 30
0.0
 10
11.3206091603
 20
10.6555229296
 30
0.0
 10
11.3160703305
 20
10.6588825303
 30
0.0
 10
11.3112610622
 20
10.6622167048
 30
0.0
 10
11.3061834118
 20
10.6655239882
 30
0.0
 10
11.3008395782
 20
10.6688029753
 30
0.0
 10
11.2952318859
 20
10.6720522862
 30
0.0
 10
11.2893627407
 20
10.675270464
 30
0.0
 10
11.2832347114
 20
10.6784561698
 30
0.0
 10
11.2768504496
 20
10.6816079831
 30
0.0
 10
11.2702127226
 20
10.6847245536
 30
0.0
 10
11.2608998845
 20
10.6888885391
 30
0.0
 10
11.2486370498
 20
10.6939852677
 30
0.0
 10
11.2331545056
 20
10.699858295
 30
0.0
 10
11.2167356934
 20
10.7055591904
 30
0.0
 10
11.1994092626
 20
10.7110779375
 30
0.0
 10
11.1812052779
 20
10.7164048268
 30
0.0
 10
11.1621554646
 20
10.7215304777
 30
0.0
 10
11.1422930552
 20
10.7264458647
 30
0.0
 10
11.1216527382
 20
10.7311423239
 30
0.0
 10
11.1002705828
 20
10.7356115758
 30
0.0
 10
11.078183979
 20
10.739845736
 30
0.0
 10
11.0554315724
 20
10.7438373469
 30
0.0
 10
11.0320531899
 20
10.7475793782
 30
0.0
 10
11.0080897616
 20
10.751065237
 30
0.0
 10
10.9835832479
 20
10.7542887802
 30
0.0
 10
10.9585765701
 20
10.7572443261
 30
0.0
 10
10.9331135361
 20
10.7599266763
 30
0.0
 10
10.9072387544
 20
10.7623311116
 30
0.0
 10
10.8809975682
 20
10.7644533921
 30
0.0
 10
10.8544359167
 20
10.7662898032
 30
0.0
 10
10.8185246592
 20
10.768360287
 30
0.0
 10
10.7731777377
 20
10.7702067208
 30
0.0
 10
10.7184334407
 20
10.7712369543
 30
0.0
 10
10.6635469445
 20
10.7710822136
 30
0.0
 10
10.6089028625
 20
10.7697436207
 30
0.0
 10
10.5637033292
 20
10.7676411191
 30
0.0
 10
10.5279596854
 20
10.7653671888
 30
0.0
 10
10.501559507
 20
10.763381129
 30
0.0
 10
10.4755038677
 20
10.7611110882
 30
0.0
 10
10.4498383829
 20
10.7585610341
 30
0.0
 10
10.4246080262
 20
10.7557354687
 30
0.0
 10
10.3998569921
 20
10.7526393657
 30
0.0
 10
10.3756286371
 20
10.749278177
 30
0.0
 10
10.3519653959
 20
10.7456578164
 30
0.0
 10
10.3289087016
 20
10.7417846644
 30
0.0
 10
10.3064989116
 20
10.7376655495
 30
0.0
 10
10.2847752412
 20
10.7333077308
 30
0.0
 10
10.2637756937
 20
10.7287188868
 30
0.0
 10
10.2435369859
 20
10.7239071003
 30
0.0
 10
10.2240944717
 20
10.7188808589
 30
0.0
 10
10.2054820824
 20
10.713649023
 30
0.0
 10
10.1877322593
 20
10.7082208084
 30
0.0
 10
10.1708759147
 20
10.7026057653
 30
0.0
 10
10.1549422621
 20
10.6968137515
 30
0.0
 10
10.139959076
 20
10.6908549421
 30
0.0
 10
10.1281238459
 20
10.6856880511
 30
0.0
 10
10.1191603938
 20
10.6814704162
 30
0.0
 10
10.1127873072
 20
10.6783170798
 30
0.0
 10
10.1066705888
 20
10.6751299192
 30
0.0
 10
10.1008128618
 20
10.6719103419
 30
0.0
 10
10.0952166889
 20
10.6686597026
 30
0.0
 10
10.0898844964
 20
10.6653794276
 30
0.0
 10
10.0848185868
 20
10.6620709632
 30
0.0
 10
10.0800211583
 20
10.6587356588
 30
0.0
 10
10.0754942171
 20
10.655374947
 30
0.0
 10
10.071239718
 20
10.6519901634
 30
0.0
 10
10.0672596898
 20
10.6485829342
 30
0.0
 10
10.0647440574
 20
10.6462545183
 30
0.0
 10
10.0635348559
 20
10.6450865193
 30
0.0
  0
SPLINE
  5
3AA
100
AcDbEntity
  8
0
100
AcDbSpline
 62
7
  6
CONTINUOUS
 70
0
 71
3
 72
54
 73
50
 74
0
 42
0.0000001
 43
0.0000001
 44
0.0000000001
 40
0.0
 40
0.0
 40
0.0
 40
0.0
 40
0.0099472337
 40
0.0203698704
 40
0.0312644864
 40
0.0426260491
 40
0.0544480896
 40
0.0667227976
 40
0.0794412503
 40
0.0925934343
 40
0.1061683672
 40
0.1201542188
 40
0.1345382898
 40
0.1493071622
 40
0.1644467127
 40
0.1799421393
 40
0.1957780755
 40
0.2119385556
 40
0.2451662193
 40
0.2794882552
 40
0.3147604925
 40
0.3508330981
 40
0.3875515635
 40
0.424757678
 40
0.4622904654
 40
0.4999871083
 40
0.5376838689
 40
0.5752170109
 40
0.6124237148
 40
0.6491429955
 40
0.6852166394
 40
0.7204901413
 40
0.7548136583
 40
0.7880429977
 40
0.8200406729
 40
0.8355371161
 40
0.8506777018
 40
0.8654476672
 40
0.8798328731
 40
0.8938198766
 40
0.9073960261
 40
0.9205494374
 40
0.9332691503
 40
0.9455451651
 40
0.9573685051
 40
0.9687314146
 40
0.9796273864
 40
0.9900513765
 40
1.0
 40
1.0
 40
1.0
 40
1.0
 10
11.1774439653
 20
10.5524432501
 30
0.0
 10
11.1745450543
 20
10.5538889378
 30
0.0
 10
11.1685579462
 20
10.5567484948
 30
0.0
 10
11.1592410033
 20
10.5608576283
 30
0.0
 10
11.1493879443
 20
10.5648824088
 30
0.0
 10
11.1390102443
 20
10.5688180939
 30
0.0
 10
11.1281198263
 20
10.5726601046
 30
0.0
 10
11.1167292957
 20
10.5764039975
 30
0.0
 10
11.1048518258
 20
10.5800453738
 30
0.0
 10
11.0925011833
 20
10.5835799934
 30
0.0
 10
11.0796916947
 20
10.5870037428
 30
0.0
 10
11.0664382234
 20
10.5903125883
 30
0.0
 10
11.052756166
 20
10.5935026956
 30
0.0
 10
11.0386614189
 20
10.5965703217
 30
0.0
 10
11.0241703628
 20
10.5995118733
 30
0.0
 10
11.0092998532
 20
10.6023239339
 30
0.0
 10
10.9940671643
 20
10.6050032105
 30
0.0
 10
10.9731035509
 20
10.6084259694
 30
0.0
 10
10.9461222955
 20
10.6123388411
 30
0.0
 10
10.9128843023
 20
10.6164169246
 30
0.0
 10
10.8786474572
 20
10.6199006838
 30
0.0
 10
10.8435710575
 20
10.6227737469
 30
0.0
 10
10.8078181659
 20
10.6250225914
 30
0.0
 10
10.7715550826
 20
10.6266366428
 30
0.0
 10
10.7349504897
 20
10.6276083078
 30
0.0
 10
10.6981746782
 20
10.6279330124
 30
0.0
 10
10.661398743
 20
10.627609237
 30
0.0
 10
10.6247937797
 20
10.6266385057
 30
0.0
 10
10.588530081
 20
10.6250253809
 30
0.0
 10
10.5527763382
 20
10.6227774403
 30
0.0
 10
10.5176988377
 20
10.6199052638
 30
0.0
 10
10.4834607003
 20
10.616422368
 30
0.0
 10
10.4502210286
 20
10.6123451623
 30
0.0
 10
10.4181344397
 20
10.6076928103
 30
0.0
 10
10.3922112365
 20
10.6033094907
 30
0.0
 10
10.3721682854
 20
10.5995201881
 30
0.0
 10
10.3576761023
 20
10.5965789719
 30
0.0
 10
10.3435801915
 20
10.5935117142
 30
0.0
 10
10.3298969202
 20
10.5903219614
 30
0.0
 10
10.3166421939
 20
10.5870134347
 30
0.0
 10
10.3038314014
 20
10.5835900297
 30
0.0
 10
10.2914794171
 20
10.5800557146
 30
0.0
 10
10.2796005646
 20
10.5764146336
 30
0.0
 10
10.2682086075
 20
10.5726710491
 30
0.0
 10
10.2573167351
 20
10.5688292925
 30
0.0
 10
10.246937537
 20
10.5648938839
 30
0.0
 10
10.2370829472
 20
10.5608693581
 30
0.0
 10
10.2277644523
 20
10.5567604379
 30
0.0
 10
10.2217762666
 20
10.5539010655
 30
0.0
 10
10.2188768132
 20
10.5524554515
 30
0.0
  0
SPLINE
  5
3AB
100
AcDbEntity
  8
0
100
AcDbSpline
 62
4
  6
CONTINUOUS
 70
0
 71
3
 72
385
 73
381
 74
0
 42
0.0000001
 43
0.0000001
 44
0.0000000001
 40
0.0
 40
0.0
 40
0.0
 40
0.0
 40
0.015625
 40
0.0234375
 40
0.03125
 40
0.0390625
 40
0.04296875
 40
0.046875
 40
0.05078125
 40
0.0546875
 40
0.056640625
 40
0.05859375
 40
0.0595703125
 40
0.060546875
 40
0.0615234375
 40
0.0620117188
 40
0.0625
 40
0.0629882812
 40
0.0634765625
 40
0.064453125
 40
0.0654296875
 40
0.06640625
 40
0.068359375
 40
0.0703125
 40
0.07421875
 40
0.078125
 40
0.08203125
 40
0.0859375
 40
0.09375
 40
0.1015625
 40
0.10546875
 40
0.109375
 40
0.11328125
 40
0.1171875
 40
0.119140625
 40
0.12109375
 40
0.1220703125
 40
0.123046875
 40
0.1240234375
 40
0.1245117188
 40
0.1247558594
 40
0.125
 40
0.1252441406
 40
0.1254882812
 40
0.1259765625
 40
0.126953125
 40
0.1279296875
 40
0.12890625
 40
0.130859375
 40
0.1328125
 40
0.13671875
 40
0.140625
 40
0.14453125
 40
0.1484375
 40
0.15625
 40
0.1640625
 40
0.16796875
 40
0.171875
 40
0.17578125
 40
0.1796875
 40
0.181640625
 40
0.18359375
 40
0.1845703125
 40
0.185546875
 40
0.1865234375
 40
0.1870117188
 40
0.1872558594
 40
0.1875
 40
0.1877441406
 40
0.1879882812
 40
0.1884765625
 40
0.189453125
 40
0.1904296875
 40
0.19140625
 40
0.193359375
 40
0.1953125
 40
0.19921875
 40
0.203125
 40
0.20703125
 40
0.2109375
 40
0.21875
 40
0.2265625
 40
0.23046875
 40
0.234375
 40
0.23828125
 40
0.2421875
 40
0.244140625
 40
0.24609375
 40
0.2470703125
 40
0.248046875
 40
0.2490234375
 40
0.2495117188
 40
0.2497558594
 40
0.25
 40
0.2502441406
 40
0.2504882812
 40
0.2509765625
 40
0.251953125
 40
0.2529296875
 40
0.25390625
 40
0.255859375
 40
0.2578125
 40
0.26171875
 40
0.265625
 40
0.26953125
 40
0.2734375
 40
0.28125
 40
0.2890625
 40
0.29296875
 40
0.296875
 40
0.30078125
 40
0.3046875
 40
0.306640625
 40
0.30859375
 40
0.3095703125
 40
0.310546875
 40
0.3115234375
 40
0.3120117188
 40
0.3122558594
 40
0.3125
 40
0.3127441406
 40
0.3129882812
 40
0.3134765625
 40
0.314453125
 40
0.3154296875
 40
0.31640625
 40
0.318359375
 40
0.3203125
 40
0.32421875
 40
0.328125
 40
0.33203125
 40
0.3359375
 40
0.34375
 40
0.3515625
 40
0.35546875
 40
0.359375
 40
0.36328125
 40
0.3671875
 40
0.369140625
 40
0.37109375
 40
0.3720703125
 40
0.373046875
 40
0.3740234375
 40
0.3745117188
 40
0.3747558594
 40
0.375
 40
0.3752441406
 40
0.3754882812
 40
0.3759765625
 40
0.376953125
 40
0.3779296875
 40
0.37890625
 40
0.380859375
 40
0.3828125
 40
0.38671875
 40
0.390625
 40
0.39453125
 40
0.3984375
 40
0.40625
 40
0.4140625
 40
0.41796875
 40
0.421875
 40
0.42578125
 40
0.4296875
 40
0.431640625
 40
0.43359375
 40
0.4345703125
 40
0.435546875
 40
0.4365234375
 40
0.4370117188
 40
0.4372558594
 40
0.4375
 40
0.4377441406
 40
0.4379882812
 40
0.4384765625
 40
0.439453125
 40
0.4404296875
 40
0.44140625
 40
0.443359375
 40
0.4453125
 40
0.44921875
 40
0.453125
 40
0.45703125
 40
0.4609375
 40
0.46875
 40
0.4765625
 40
0.48046875
 40
0.484375
 40
0.48828125
 40
0.4921875
 40
0.494140625
 40
0.49609375
 40
0.4970703125
 40
0.498046875
 40
0.4990234375
 40
0.4995117188
 40
0.5
 40
0.5004882812
 40
0.5009765625
 40
0.501953125
 40
0.5029296875
 40
0.50390625
 40
0.505859375
 40
0.5078125
 40
0.51171875
 40
0.515625
 40
0.51953125
 40
0.5234375
 40
0.53125
 40
0.5390625
 40
0.54296875
 40
0.546875
 40
0.55078125
 40
0.5546875
 40
0.556640625
 40
0.55859375
 40
0.5595703125
 40
0.560546875
 40
0.5615234375
 40
0.5620117188
 40
0.5625
 40
0.5629882812
 40
0.5634765625
 40
0.564453125
 40
0.5654296875
 40
0.56640625
 40
0.568359375
 40
0.5703125
 40
0.57421875
 40
0.578125
 40
0.58203125
 40
0.5859375
 40
0.59375
 40
0.6015625
 40
0.60546875
 40
0.609375
 40
0.61328125
 40
0.6171875
 40
0.619140625
 40
0.62109375
 40
0.6220703125
 40
0.623046875
 40
0.6240234375
 40
0.6245117188
 40
0.625
 40
0.6254882812
 40
0.6259765625
 40
0.626953125
 40
0.6279296875
 40
0.62890625
 40
0.630859375
 40
0.6328125
 40
0.63671875
 40
0.640625
 40
0.64453125
 40
0.6484375
 40
0.65625
 40
0.6640625
 40
0.66796875
 40
0.671875
 40
0.67578125
 40
0.6796875
 40
0.681640625
 40
0.68359375
 40
0.6845703125
 40
0.685546875
 40
0.6865234375
 40
0.6870117188
 40
0.6875
 40
0.6879882812
 40
0.6884765625
 40
0.689453125
 40
0.6904296875
 40
0.69140625
 40
0.693359375
 40
0.6953125
 40
0.69921875
 40
0.703125
 40
0.70703125
 40
0.7109375
 40
0.71875
 40
0.7265625
 40
0.73046875
 40
0.734375
 40
0.73828125
 40
0.7421875
 40
0.744140625
 40
0.74609375
 40
0.7470703125
 40
0.748046875
 40
0.7490234375
 40
0.7495117188
 40
0.75
 40
0.7504882812
 40
0.7509765625
 40
0.751953125
 40
0.7529296875
 40
0.75390625
 40
0.755859375
 40
0.7578125
 40
0.76171875
 40
0.765625
 40
0.76953125
 40
0.7734375
 40
0.78125
 40
0.7890625
 40
0.79296875
 40
0.796875
 40
0.80078125
 40
0.8046875
 40
0.806640625
 40
0.80859375
 40
0.8095703125
 40
0.810546875
 40
0.8115234375
 40
0.8120117188
 40
0.8125
 40
0.8129882812
 40
0.8134765625
 40
0.814453125
 40
0.8154296875
 40
0.81640625
 40
0.818359375
 40
0.8203125
 40
0.82421875
 40
0.828125
 40
0.83203125
 40
0.8359375
 40
0.84375
 40
0.8515625
 40
0.85546875
 40
0.859375
 40
0.86328125
 40
0.8671875
 40
0.869140625
 40
0.87109375
 40
0.8720703125
 40
0.873046875
 40
0.8740234375
 40
0.8745117188
 40
0.875
 40
0.8754882812
 40
0.8759765625
 40
0.876953125
 40
0.8779296875
 40
0.87890625
 40
0.880859375
 40
0.8828125
 40
0.88671875
 40
0.890625
 40
0.89453125
 40
0.8984375
 40
0.90625
 40
0.9140625
 40
0.91796875
 40
0.921875
 40
0.92578125
 40
0.9296875
 40
0.931640625
 40
0.93359375
 40
0.9345703125
 40
0.935546875
 40
0.9365234375
 40
0.9370117188
 40
0.9375
 40
0.9379882812
 40
0.9384765625
 40
0.939453125
 40
0.9404296875
 40
0.94140625
 40
0.943359375
 40
0.9453125
 40
0.94921875
 40
0.953125
 40
0.95703125
 40
0.9609375
 40
0.96875
 40
0.9765625
 40
0.984375
 40
1.0
 40
1.0
 40
1.0
 40
1.0
 10
10.3809750547
 20
8.8955609421
 30
0.0
 10
10.3841082416
 20
8.8956508666
 30
0.0
 10
10.388808022
 20
8.8957857532
 30
0.0
 10
10.3950743958
 20
8.895965602
 30
0.0
 10
10.3997741762
 20
8.8961004885
 30
0.0
 10
10.4036906598
 20
8.8962128945
 30
0.0
 10
10.4068238469
 20
8.896302818
 30
0.0
 10
10.4091737365
 20
8.8963702641
 30
0.0
 10
10.4115236288
 20
8.8964376969
 30
0.0
 10
10.4134818642
 20
8.8964939324
 30
0.0
 10
10.4150484707
 20
8.8965388278
 30
0.0
 10
10.4160275584
 20
8.8965670992
 30
0.0
 10
10.4168109233
 20
8.8965892312
 30
0.0
 10
10.4173981875
 20
8.8966071588
 30
0.0
 10
10.4178883999
 20
8.8966178717
 30
0.0
 10
10.4182787182
 20
8.8966359219
 30
0.0
 10
10.4185765164
 20
8.8966235562
 30
0.0
 10
10.4188550024
 20
8.8967100638
 30
0.0
 10
10.4192330631
 20
8.8967908695
 30
0.0
 10
10.4197033244
 20
8.8969037264
 30
0.0
 10
10.4202686287
 20
8.8970340826
 30
0.0
 10
10.4210220217
 20
8.8972096624
 30
0.0
 10
10.4219638814
 20
8.8974285306
 30
0.0
 10
10.4234707908
 20
8.8977790587
 30
0.0
 10
10.4253544502
 20
8.8982171025
 30
0.0
 10
10.4276148317
 20
8.898742805
 30
0.0
 10
10.4298752159
 20
8.8992684941
 30
0.0
 10
10.4328890605
 20
8.8999694175
 30
0.0
 10
10.4366563665
 20
8.9008455703
 30
0.0
 10
10.4404236726
 20
8.9017217235
 30
0.0
 10
10.4434375173
 20
8.9024226463
 30
0.0
 10
10.4456979012
 20
8.9029483373
 30
0.0
 10
10.4479582834
 20
8.9034740327
 30
0.0
 10
10.4498419409
 20
8.9039120982
 30
0.0
 10
10.4513488542
 20
8.9042625821
 30
0.0
 10
10.4522907038
 20
8.9044815628
 30
0.0
 10
10.4530441176
 20
8.9046569118
 30
0.0
 10
10.4536093584
 20
8.9047879732
 30
0.0
 10
10.4540798183
 20
8.9048986235
 30
0.0
 10
10.4544102668
 20
8.9049732676
 30
0.0
 10
10.4545973356
 20
8.9050203108
 30
0.0
 10
10.4547425921
 20
8.9050432279
 30
0.0
 10
10.4548689083
 20
8.9051134113
 30
0.0
 10
10.4550439364
 20
8.9051905022
 30
0.0
 10
10.4553471576
 20
8.9053330928
 30
0.0
 10
10.45578194
 20
8.9055327777
 30
0.0
 10
10.4563029901
 20
8.9057741185
 30
0.0
 10
10.456997964
 20
8.9060953058
 30
0.0
 10
10.4578665992
 20
8.9064969956
 30
0.0
 10
10.4592564614
 20
8.9071395843
 30
0.0
 10
10.4609937733
 20
8.9079428597
 30
0.0
 10
10.4630785545
 20
8.9089067732
 30
0.0
 10
10.4651633338
 20
8.9098706912
 30
0.0
 10
10.4679430402
 20
8.9111559136
 30
0.0
 10
10.471417673
 20
8.9127624423
 30
0.0
 10
10.4748923059
 20
8.9143689705
 30
0.0
 10
10.477672012
 20
8.9156541936
 30
0.0
 10
10.4797567922
 20
8.9166181097
 30
0.0
 10
10.4818415701
 20
8.9175820303
 30
0.0
 10
10.4835788922
 20
8.9183852836
 30
0.0
 10
10.4849687337
 20
8.9190279172
 30
0.0
 10
10.4858374215
 20
8.9194294929
 30
0.0
 10
10.4865322873
 20
8.9197509145
 30
0.0
 10
10.4870536679
 20
8.9199915396
 30
0.0
 10
10.487487416
 20
8.9201934637
 30
0.0
 10
10.4877924836
 20
8.9203320569
 30
0.0
 10
10.4879645533
 20
8.9204155526
 30
0.0
 10
10.4880999571
 20
8.9204660625
 30
0.0
 10
10.4882110821
 20
8.92056287
 30
0.0
 10
10.4883677175
 20
8.9206757976
 30
0.0
 10
10.4886378837
 20
8.920880945
 30
0.0
 10
10.4890258983
 20
8.9211700791
 30
0.0
 10
10.4894906328
 20
8.9215187237
 30
0.0
 10
10.4901105872
 20
8.921982995
 30
0.0
 10
10.4908854246
 20
8.9225635356
 30
0.0
 10
10.4921252235
 20
8.923492288
 30
0.0
 10
10.4936749519
 20
8.9246532671
 30
0.0
 10
10.4955346347
 20
8.9260464255
 30
0.0
 10
10.4973943151
 20
8.9274395883
 30
0.0
 10
10.4998738898
 20
8.9292971372
 30
0.0
 10
10.5029733579
 20
8.9316190739
 30
0.0
 10
10.5060728262
 20
8.9339410102
 30
0.0
 10
10.5085524005
 20
8.9357985596
 30
0.0
 10
10.5104120822
 20
8.9371917207
 30
0.0
 10
10.5122717602
 20
8.9385848853
 30
0.0
 10
10.5138215034
 20
8.9397458452
 30
0.0
 10
10.515061272
 20
8.9406746367
 30
0.0
 10
10.5158361866
 20
8.9412550778
 30
0.0
 10
10.5164559827
 20
8.9417195535
 30
0.0
 10
10.5169212008
 20
8.9420675738
 30
0.0
 10
10.5173077025
 20
8.9423586611
 30
0.0
 10
10.5175805694
 20
8.9425603216
 30
0.0
 10
10.5177328776
 20
8.9426788361
 30
0.0
 10
10.5178572944
 20
8.9427584825
 30
0.0
 10
10.5179427763
 20
8.942873447
 30
0.0
 10
10.5180703332
 20
8.9430144136
 30
0.0
 10
10.5182872302
 20
8.9432668451
 30
0.0
 10
10.5186003911
 20
8.9436244606
 30
0.0
 10
10.5189747682
 20
8.9440548837
 30
0.0
 10
10.5194744322
 20
8.9446283325
 30
0.0
 10
10.5200988429
 20
8.9453452971
 30
0.0
 10
10.5210979947
 20
8.9464923546
 30
0.0
 10
10.522346902
 20
8.947926206
 30
0.0
 10
10.5238456046
 20
8.9496468151
 30
0.0
 10
10.5253443036
 20
8.9513674275
 30
0.0
 10
10.5273425701
 20
8.9536615762
 30
0.0
 10
10.5298404028
 20
8.9565292625
 30
0.0
 10
10.5323382358
 20
8.9593969485
 30
0.0
 10
10.5343365017
 20
8.9616910976
 30
0.0
 10
10.5358352023
 20
8.9634117087
 30
0.0
 10
10.5373338989
 20
8.9651323227
 30
0.0
 10
10.538582825
 20
8.9665661586
 30
0.0
 10
10.5395819383
 20
8.9677132477
 30
0.0
 10
10.5402064469
 20
8.968430132
 30
0.0
 10
10.5407059101
 20
8.9690037457
 30
0.0
 10
10.5410809009
 20
8.9694336652
 30
0.0
 10
10.5413921416
 20
8.9697928562
 30
0.0
 10
10.5416124665
 20
8.9700424751
 30
0.0
 10
10.5417345308
 20
8.9701879482
 30
0.0
 10
10.5418368842
 20
8.9702890703
 30
0.0
 10
10.541897935
 20
8.9704207064
 30
0.0
 10
10.541993743
 20
8.9705855775
 30
0.0
 10
10.5421546945
 20
8.970879061
 30
0.0
 10
10.5423881345
 20
8.9712957305
 30
0.0
 10
10.5426667605
 20
8.9717968436
 30
0.0
 10
10.5430387864
 20
8.9724646068
 30
0.0
 10
10.5435036391
 20
8.9732994436
 30
0.0
 10
10.544247504
 20
8.9746351082
 30
0.0
 10
10.5451773005
 20
8.9763047145
 30
0.0
 10
10.5462930711
 20
8.9783082311
 30
0.0
 10
10.5474088378
 20
8.9803117506
 30
0.0
 10
10.5488965281
 20
8.9829831089
 30
0.0
 10
10.5507561405
 20
8.9863223071
 30
0.0
 10
10.5526157532
 20
8.9896615052
 30
0.0
 10
10.5541034429
 20
8.9923328638
 30
0.0
 10
10.5552192114
 20
8.9943363823
 30
0.0
 10
10.5563349754
 20
8.9963399029
 30
0.0
 10
10.5572647925
 20
8.9980094967
 30
0.0
 10
10.5580086155
 20
8.9993451866
 30
0.0
 10
10.5584735746
 20
9.000179959
 30
0.0
 10
10.5588453822
 20
9.0008478544
 30
0.0
 10
10.5591246751
 20
9.0013485637
 30
0.0
 10
10.5593560285
 20
9.0017664967
 30
0.0
 10
10.559520705
 20
9.0020577246
 30
0.0
 10
10.5596105445
 20
9.0022262098
 30
0.0
 10
10.5596899284
 20
9.0023467444
 30
0.0
 10
10.559723426
 20
9.0024895618
 30
0.0
 10
10.5597840951
 20
9.0026722125
 30
0.0
 10
10.5598828087
 20
9.0029954726
 30
0.0
 10
10.5600277269
 20
9.0034553795
 30
0.0
 10
10.5601999599
 20
9.0040080781
 30
0.0
 10
10.5604301868
 20
9.0047447265
 30
0.0
 10
10.5607177709
 20
9.005665634
 30
0.0
 10
10.561178017
 20
9.0071390317
 30
0.0
 10
10.5617532863
 20
9.0089807975
 30
0.0
 10
10.5624436258
 20
9.0111909085
 30
0.0
 10
10.563133961
 20
9.0134010216
 30
0.0
 10
10.5640544094
 20
9.0163478383
 30
0.0
 10
10.5652049694
 20
9.0200313595
 30
0.0
 10
10.5663555298
 20
9.0237148806
 30
0.0
 10
10.5672759776
 20
9.0266616976
 30
0.0
 10
10.5679663147
 20
9.0288718099
 30
0.0
 10
10.5686566471
 20
9.0310819239
 30
0.0
 10
10.5692319386
 20
9.0329236803
 30
0.0
 10
10.5696921393
 20
9.0343970972
 30
0.0
 10
10.5699798388
 20
9.0353179558
 30
0.0
 10
10.5702098289
 20
9.0360547045
 30
0.0
 10
10.5703827855
 20
9.0366070968
 30
0.0
 10
10.5705254397
 20
9.037067962
 30
0.0
 10
10.5706281949
 20
9.0373895114
 30
0.0
 10
10.5706823883
 20
9.037574903
 30
0.0
 10
10.5707357774
 20
9.0377093012
 30
0.0
 10
10.570740452
 20
9.0378614569
 30
0.0
 10
10.570763677
 20
9.0380581371
 30
0.0
 10
10.5707964038
 20
9.0384052134
 30
0.0
 10
10.5708472954
 20
9.0388995279
 30
0.0
 10
10.5709065937
 20
9.0394933511
 30
0.0
 10
10.5709862769
 20
9.0402848898
 30
0.0
 10
10.571085669
 20
9.0412743905
 30
0.0
 10
10.5712448148
 20
9.0428575483
 30
0.0
 10
10.5714437065
 20
9.0448365104
 30
0.0
 10
10.5716823938
 20
9.0472112585
 30
0.0
 10
10.5719210766
 20
9.0495860084
 30
0.0
 10
10.5722393218
 20
9.0527523409
 30
0.0
 10
10.5726371279
 20
9.0567102568
 30
0.0
 10
10.5730349337
 20
9.0606681726
 30
0.0
 10
10.5733531796
 20
9.0638345053
 30
0.0
 10
10.5735918604
 20
9.0662092548
 30
0.0
 10
10.5738305549
 20
9.0685840045
 30
0.0
 10
10.5740294244
 20
9.0705629617
 30
0.0
 10
10.5741886153
 20
9.0721461294
 30
0.0
 10
10.5742878927
 20
9.073135605
 30
0.0
 10
10.5743678114
 20
9.073927195
 30
0.0
 10
10.5744263902
 20
9.0745208617
 30
0.0
 10
10.5744795327
 20
9.0750156658
 30
0.0
 10
10.5745123426
 20
9.0754113254
 30
0.0
 10
10.5745634663
 20
9.0757085721
 30
0.0
 10
10.574513377
 20
9.0760039028
 30
0.0
 10
10.5744819463
 20
9.0763983462
 30
0.0
 10
10.5744305277
 20
9.076891171
 30
0.0
 10
10.5743740176
 20
9.0774826589
 30
0.0
 10
10.5742968572
 20
9.0782712752
 30
0.0
 10
10.5742010277
 20
9.0792570572
 30
0.0
 10
10.5740473534
 20
9.080834302
 30
0.0
 10
10.5738553797
 20
9.0828058602
 30
0.0
 10
10.5736249602
 20
9.0851717291
 30
0.0
 10
10.5733945543
 20
9.0875375982
 30
0.0
 10
10.5730873417
 20
9.0906920903
 30
0.0
 10
10.5727033277
 20
9.0946352055
 30
0.0
 10
10.5723193125
 20
9.0985783206
 30
0.0
 10
10.5720121018
 20
9.1017328128
 30
0.0
 10
10.5717816903
 20
9.1040986816
 30
0.0
 10
10.5715512919
 20
9.106464552
 30
0.0
 10
10.5713592523
 20
9.1084361054
 30
0.0
 10
10.5712057124
 20
9.11001336
 30
0.0
 10
10.571109541
 20
9.1109991172
 30
0.0
 10
10.5710330825
 20
9.1117877845
 30
0.0
 10
10.570974428
 20
9.1123791164
 30
0.0
 10
10.5709297187
 20
9.1128724294
 30
0.0
 10
10.5708845998
 20
9.1132658767
 30
0.0
 10
10.5708763131
 20
9.1135642496
 30
0.0
 10
10.5707704925
 20
9.1138500743
 30
0.0
 10
10.5706634682
 20
9.1142355571
 30
0.0
 10
10.5705179986
 20
9.1147159068
 30
0.0
 10
10.5703484384
 20
9.1152929701
 30
0.0
 10
10.5701206106
 20
9.116062163
 30
0.0
 10
10.5698364242
 20
9.1170237311
 30
0.0
 10
10.5693813916
 20
9.1185621971
 30
0.0
 10
10.5688127155
 20
9.1204852943
 30
0.0
 10
10.5681302551
 20
9.1227930046
 30
0.0
 10
10.5674478078
 20
9.1251007167
 30
0.0
 10
10.5665378735
 20
9.1281776654
 30
0.0
 10
10.5654004573
 20
9.1320238517
 30
0.0
 10
10.5642630401
 20
9.1358700376
 30
0.0
 10
10.5633531075
 20
9.1389469868
 30
0.0
 10
10.5626706549
 20
9.1412546976
 30
0.0
 10
10.5619882146
 20
9.1435624126
 30
0.0
 10
10.5614194758
 20
9.1454854952
 30
0.0
 10
10.5609645712
 20
9.147023991
 30
0.0
 10
10.5606800589
 20
9.1479854833
 30
0.0
 10
10.5604529002
 20
9.1487548318
 30
0.0
 10
10.5602812958
 20
9.1493314197
 30
0.0
 10
10.5601422219
 20
9.1498132568
 30
0.0
 10
10.5600221492
 20
9.150195705
 30
0.0
 10
10.5599561777
 20
9.1504907973
 30
0.0
 10
10.5597982808
 20
9.1507543757
 30
0.0
 10
10.5596198624
 20
9.1511168219
 30
0.0
 10
10.5593858223
 20
9.1515661027
 30
0.0
 10
10.5591096899
 20
9.1521068562
 30
0.0
 10
10.5587398662
 20
9.1528272964
 30
0.0
 10
10.5582781506
 20
9.1537280398
 30
0.0
 10
10.5575390904
 20
9.1551691214
 30
0.0
 10
10.5566153734
 20
9.1569705103
 30
0.0
 10
10.5555068666
 20
9.1591321612
 30
0.0
 10
10.5543983721
 20
9.1612938164
 30
0.0
 10
10.5529203752
 20
9.1641760217
 30
0.0
 10
10.5510728807
 20
9.167778779
 30
0.0
 10
10.5492253851
 20
9.1713815358
 30
0.0
 10
10.5477473899
 20
9.1742637418
 30
0.0
 10
10.5466388904
 20
9.1764253949
 30
0.0
 10
10.5455304029
 20
9.1785870536
 30
0.0
 10
10.5446066257
 20
9.1803884181
 30
0.0
 10
10.5438676881
 20
9.1818295496
 30
0.0
 10
10.5434056607
 20
9.1827301659
 30
0.0
 10
10.5430364769
 20
9.183450867
 30
0.0
 10
10.5427583897
 20
9.1839908233
 30
0.0
 10
10.5425304656
 20
9.1844425985
 30
0.0
 10
10.5423395695
 20
9.1847999555
 30
0.0
 10
10.5422197788
 20
9.1850790759
 30
0.0
 10
10.542010741
 20
9.1853158175
 30
0.0
 10
10.541763199
 20
9.1856462763
 30
0.0
 10
10.5414430756
 20
9.186054271
 30
0.0
 10
10.5410635057
 20
9.1865460385
 30
0.0
 10
10.5405558135
 20
9.1872009692
 30
0.0
 10
10.5399217457
 20
9.1880198925
 30
0.0
 10
10.5389069313
 20
9.1893300246
 30
0.0
 10
10.5376385182
 20
9.1909677395
 30
0.0
 10
10.5361163775
 20
9.1929329761
 30
0.0
 10
10.5345942488
 20
9.1948982183
 30
0.0
 10
10.5325647397
 20
9.1975185394
 30
0.0
 10
10.5300278549
 20
9.2007939414
 30
0.0
 10
10.5274909692
 20
9.2040693428
 30
0.0
 10
10.5254614616
 20
9.2066896649
 30
0.0
 10
10.5239393285
 20
9.2086549039
 30
0.0
 10
10.5224172043
 20
9.2106201528
 30
0.0
 10
10.52114874
 20
9.2122578294
 30
0.0
 10
10.52013403
 20
9.2135680397
 30
0.0
 10
10.5194996964
 20
9.2143867639
 30
0.0
 10
10.5189925498
 20
9.2150421034
 30
0.0
 10
10.5186113129
 20
9.2155326221
 30
0.0
 10
10.518296405
 20
9.2159445238
 30
0.0
 10
10.5180382225
 20
9.2162670115
 30
0.0
 10
10.5178616803
 20
9.2165280967
 30
0.0
 10
10.5176198878
 20
9.2167158206
 30
0.0
 10
10.5173202905
 20
9.2169917453
 30
0.0
 10
10.5169379739
 20
9.2173278589
 30
0.0
 10
10.5164825412
 20
9.2177349585
 30
0.0
 10
10.5158741285
 20
9.2182764436
 30
0.0
 10
10.5151140129
 20
9.21895375
 30
0.0
 10
10.5138976042
 20
9.2200371887
 30
0.0
 10
10.5123771701
 20
9.2213915734
 30
0.0
 10
10.5105526163
 20
9.223016798
 30
0.0
 10
10.5087280712
 20
9.2246420326
 30
0.0
 10
10.5062953415
 20
9.2268090085
 30
0.0
 10
10.5032544304
 20
9.2295177297
 30
0.0
 10
10.5002135186
 20
9.23222645
 30
0.0
 10
10.4977807899
 20
9.2343934273
 30
0.0
 10
10.4959562415
 20
9.2360186575
 30
0.0
 10
10.4941317005
 20
9.2376438984
 30
0.0
 10
10.4926112264
 20
9.2389982326
 30
0.0
 10
10.4913948992
 20
9.2400817742
 30
0.0
 10
10.4906345762
 20
9.2407588189
 30
0.0
 10
10.4900265893
 20
9.2413008412
 30
0.0
 10
10.4895698558
 20
9.2417062993
 30
0.0
 10
10.489191609
 20
9.242047549
 30
0.0
 10
10.4888837085
 20
9.2423129949
 30
0.0
 10
10.4886672737
 20
9.2425327203
 30
0.0
 10
10.4883955279
 20
9.2426736587
 30
0.0
 10
10.488052521
 20
9.242889098
 30
0.0
 10
10.4876171335
 20
9.2431489546
 30
0.0
 10
10.4870975059
 20
9.2434648243
 30
0.0
 10
10.486403678
 20
9.2438845721
 30
0.0
 10
10.4855367325
 20
9.2444097403
 30
0.0
 10
10.48414943
 20
9.2452497392
 30
0.0
 10
10.482415367
 20
9.2462998305
 30
0.0
 10
10.4803344635
 20
9.2475599004
 30
0.0
 10
10.4782535674
 20
9.2488199809
 30
0.0
 10
10.4754790367
 20
9.2505000845
 30
0.0
 10
10.4720108743
 20
9.2526002154
 30
0.0
 10
10.4685427114
 20
9.2547003453
 30
0.0
 10
10.4657681815
 20
9.2563804505
 30
0.0
 10
10.4636872828
 20
9.2576405262
 30
0.0
 10
10.4616063893
 20
9.258900614
 30
0.0
 10
10.4598722953
 20
9.2599506496
 30
0.0
 10
10.458485056
 20
9.2607907621
 30
0.0
 10
10.4576179496
 20
9.2613156413
 30
0.0
 10
10.456924452
 20
9.2617359822
 30
0.0
 10
10.4564038153
 20
9.26205004
 30
0.0
 10
10.4559715848
 20
9.2623155655
 30
0.0
 10
10.455622137
 20
9.2625194391
 30
0.0
 10
10.4553700614
 20
9.2626956984
 30
0.0
 10
10.4550797763
 20
9.2627828149
 30
0.0
 10
10.4547060766
 20
9.262930109
 30
0.0
 10
10.4542343727
 20
9.2631035432
 30
0.0
 10
10.453670288
 20
9.263316237
 30
0.0
 10
10.4529174906
 20
9.2635982315
 30
0.0
 10
10.4519767281
 20
9.2639512716
 30
0.0
 10
10.4504713772
 20
9.26451583
 30
0.0
 10
10.4485897335
 20
9.265221633
 30
0.0
 10
10.4463317418
 20
9.2660685516
 30
0.0
 10
10.4440737552
 20
9.2669154822
 30
0.0
 10
10.4410631047
 20
9.2680447187
 30
0.0
 10
10.4372997922
 20
9.2694562661
 30
0.0
 10
10.4335364793
 20
9.2708678123
 30
0.0
 10
10.4305258294
 20
9.2719970506
 30
0.0
 10
10.4282678409
 20
9.272843976
 30
0.0
 10
10.4260098563
 20
9.2736909142
 30
0.0
 10
10.4241281904
 20
9.274396656
 30
0.0
 10
10.4226228848
 20
9.2749613392
 30
0.0
 10
10.4216820071
 20
9.2753140617
 30
0.0
 10
10.4209294462
 20
9.2755967082
 30
0.0
 10
10.4203646389
 20
9.2758074103
 30
0.0
 10
10.4198951958
 20
9.275987076
 30
0.0
 10
10.4195168835
 20
9.2761216565
 30
0.0
 10
10.4192406851
 20
9.2762475996
 30
0.0
 10
10.4189357221
 20
9.2762780876
 30
0.0
 10
10.4185391526
 20
9.276352082
 30
0.0
 10
10.4180399934
 20
9.2764331349
 30
0.0
 10
10.417442478
 20
9.2765352951
 30
0.0
 10
10.4166452753
 20
9.2766697984
 30
0.0
 10
10.4156489484
 20
9.2768385131
 30
0.0
 10
10.4140547267
 20
9.2771081293
 30
0.0
 10
10.4120619835
 20
9.2774452619
 30
0.0
 10
10.4096706771
 20
9.2778497729
 30
0.0
 10
10.4072793746
 20
9.2782542967
 30
0.0
 10
10.4040909699
 20
9.2787936574
 30
0.0
 10
10.4001054644
 20
9.2794678597
 30
0.0
 10
10.3953228577
 20
9.2802769019
 30
0.0
 10
10.3889460489
 20
9.281355625
 30
0.0
 10
10.3841634422
 20
9.2821646672
 30
0.0
 10
10.3809750378
 20
9.2827040288
 30
0.0
  0
SPLINE
  5
3AC
100
AcDbEntity
  8
0
100
AcDbSpline
 62
4
  6
CONTINUOUS
 70
0
 71
3
 72
385
 73
381
 74
0
 42
0.0000001
 43
0.0000001
 44
0.0000000001
 40
0.0
 40
0.0
 40
0.0
 40
0.0
 40
0.015625
 40
0.0234375
 40
0.03125
 40
0.0390625
 40
0.04296875
 40
0.046875
 40
0.05078125
 40
0.0546875
 40
0.056640625
 40
0.05859375
 40
0.0595703125
 40
0.060546875
 40
0.0615234375
 40
0.0620117188
 40
0.0625
 40
0.0629882812
 40
0.0634765625
 40
0.064453125
 40
0.0654296875
 40
0.06640625
 40
0.068359375
 40
0.0703125
 40
0.07421875
 40
0.078125
 40
0.08203125
 40
0.0859375
 40
0.09375
 40
0.1015625
 40
0.10546875
 40
0.109375
 40
0.11328125
 40
0.1171875
 40
0.119140625
 40
0.12109375
 40
0.1220703125
 40
0.123046875
 40
0.1240234375
 40
0.1245117188
 40
0.1247558594
 40
0.125
 40
0.1252441406
 40
0.1254882812
 40
0.1259765625
 40
0.126953125
 40
0.1279296875
 40
0.12890625
 40
0.130859375
 40
0.1328125
 40
0.13671875
 40
0.140625
 40
0.14453125
 40
0.1484375
 40
0.15625
 40
0.1640625
 40
0.16796875
 40
0.171875
 40
0.17578125
 40
0.1796875
 40
0.181640625
 40
0.18359375
 40
0.1845703125
 40
0.185546875
 40
0.1865234375
 40
0.1870117188
 40
0.1872558594
 40
0.1875
 40
0.1877441406
 40
0.1879882812
 40
0.1884765625
 40
0.189453125
 40
0.1904296875
 40
0.19140625
 40
0.193359375
 40
0.1953125
 40
0.19921875
 40
0.203125
 40
0.20703125
 40
0.2109375
 40
0.21875
 40
0.2265625
 40
0.23046875
 40
0.234375
 40
0.23828125
 40
0.2421875
 40
0.244140625
 40
0.24609375
 40
0.2470703125
 40
0.248046875
 40
0.2490234375
 40
0.2495117188
 40
0.2497558594
 40
0.25
 40
0.2502441406
 40
0.2504882812
 40
0.2509765625
 40
0.251953125
 40
0.2529296875
 40
0.25390625
 40
0.255859375
 40
0.2578125
 40
0.26171875
 40
0.265625
 40
0.26953125
 40
0.2734375
 40
0.28125
 40
0.2890625
 40
0.29296875
 40
0.296875
 40
0.30078125
 40
0.3046875
 40
0.306640625
 40
0.30859375
 40
0.3095703125
 40
0.310546875
 40
0.3115234375
 40
0.3120117188
 40
0.3122558594
 40
0.3125
 40
0.3127441406
 40
0.3129882812
 40
0.3134765625
 40
0.314453125
 40
0.3154296875
 40
0.31640625
 40
0.318359375
 40
0.3203125
 40
0.32421875
 40
0.328125
 40
0.33203125
 40
0.3359375
 40
0.34375
 40
0.3515625
 40
0.35546875
 40
0.359375
 40
0.36328125
 40
0.3671875
 40
0.369140625
 40
0.37109375
 40
0.3720703125
 40
0.373046875
 40
0.3740234375
 40
0.3745117188
 40
0.3747558594
 40
0.375
 40
0.3752441406
 40
0.3754882812
 40
0.3759765625
 40
0.376953125
 40
0.3779296875
 40
0.37890625
 40
0.380859375
 40
0.3828125
 40
0.38671875
 40
0.390625
 40
0.39453125
 40
0.3984375
 40
0.40625
 40
0.4140625
 40
0.41796875
 40
0.421875
 40
0.42578125
 40
0.4296875
 40
0.431640625
 40
0.43359375
 40
0.4345703125
 40
0.435546875
 40
0.4365234375
 40
0.4370117188
 40
0.4372558594
 40
0.4375
 40
0.4377441406
 40
0.4379882812
 40
0.4384765625
 40
0.439453125
 40
0.4404296875
 40
0.44140625
 40
0.443359375
 40
0.4453125
 40
0.44921875
 40
0.453125
 40
0.45703125
 40
0.4609375
 40
0.46875
 40
0.4765625
 40
0.48046875
 40
0.484375
 40
0.48828125
 40
0.4921875
 40
0.494140625
 40
0.49609375
 40
0.4970703125
 40
0.498046875
 40
0.4990234375
 40
0.4995117188
 40
0.5
 40
0.5004882812
 40
0.5009765625
 40
0.501953125
 40
0.5029296875
 40
0.50390625
 40
0.505859375
 40
0.5078125
 40
0.51171875
 40
0.515625
 40
0.51953125
 40
0.5234375
 40
0.53125
 40
0.5390625
 40
0.54296875
 40
0.546875
 40
0.55078125
 40
0.5546875
 40
0.556640625
 40
0.55859375
 40
0.5595703125
 40
0.560546875
 40
0.5615234375
 40
0.5620117188
 40
0.5625
 40
0.5629882812
 40
0.5634765625
 40
0.564453125
 40
0.5654296875
 40
0.56640625
 40
0.568359375
 40
0.5703125
 40
0.57421875
 40
0.578125
 40
0.58203125
 40
0.5859375
 40
0.59375
 40
0.6015625
 40
0.60546875
 40
0.609375
 40
0.61328125
 40
0.6171875
 40
0.619140625
 40
0.62109375
 40
0.6220703125
 40
0.623046875
 40
0.6240234375
 40
0.6245117188
 40
0.625
 40
0.6254882812
 40
0.6259765625
 40
0.626953125
 40
0.6279296875
 40
0.62890625
 40
0.630859375
 40
0.6328125
 40
0.63671875
 40
0.640625
 40
0.64453125
 40
0.6484375
 40
0.65625
 40
0.6640625
 40
0.66796875
 40
0.671875
 40
0.67578125
 40
0.6796875
 40
0.681640625
 40
0.68359375
 40
0.6845703125
 40
0.685546875
 40
0.6865234375
 40
0.6870117188
 40
0.6875
 40
0.6879882812
 40
0.6884765625
 40
0.689453125
 40
0.6904296875
 40
0.69140625
 40
0.693359375
 40
0.6953125
 40
0.69921875
 40
0.703125
 40
0.70703125
 40
0.7109375
 40
0.71875
 40
0.7265625
 40
0.73046875
 40
0.734375
 40
0.73828125
 40
0.7421875
 40
0.744140625
 40
0.74609375
 40
0.7470703125
 40
0.748046875
 40
0.7490234375
 40
0.7495117188
 40
0.75
 40
0.7504882812
 40
0.7509765625
 40
0.751953125
 40
0.7529296875
 40
0.75390625
 40
0.755859375
 40
0.7578125
 40
0.76171875
 40
0.765625
 40
0.76953125
 40
0.7734375
 40
0.78125
 40
0.7890625
 40
0.79296875
 40
0.796875
 40
0.80078125
 40
0.8046875
 40
0.806640625
 40
0.80859375
 40
0.8095703125
 40
0.810546875
 40
0.8115234375
 40
0.8120117188
 40
0.8125
 40
0.8129882812
 40
0.8134765625
 40
0.814453125
 40
0.8154296875
 40
0.81640625
 40
0.818359375
 40
0.8203125
 40
0.82421875
 40
0.828125
 40
0.83203125
 40
0.8359375
 40
0.84375
 40
0.8515625
 40
0.85546875
 40
0.859375
 40
0.86328125
 40
0.8671875
 40
0.869140625
 40
0.87109375
 40
0.8720703125
 40
0.873046875
 40
0.8740234375
 40
0.8745117188
 40
0.875
 40
0.8754882812
 40
0.8759765625
 40
0.876953125
 40
0.8779296875
 40
0.87890625
 40
0.880859375
 40
0.8828125
 40
0.88671875
 40
0.890625
 40
0.89453125
 40
0.8984375
 40
0.90625
 40
0.9140625
 40
0.91796875
 40
0.921875
 40
0.92578125
 40
0.9296875
 40
0.931640625
 40
0.93359375
 40
0.9345703125
 40
0.935546875
 40
0.9365234375
 40
0.9370117188
 40
0.9375
 40
0.9379882812
 40
0.9384765625
 40
0.939453125
 40
0.9404296875
 40
0.94140625
 40
0.943359375
 40
0.9453125
 40
0.94921875
 40
0.953125
 40
0.95703125
 40
0.9609375
 40
0.96875
 40
0.9765625
 40
0.984375
 40
1.0
 40
1.0
 40
1.0
 40
1.0
 10
10.3809750547
 20
9.2827040276
 30
0.0
 10
10.3778418678
 20
9.2826141032
 30
0.0
 10
10.3731420874
 20
9.2824792166
 30
0.0
 10
10.3668757136
 20
9.2822993677
 30
0.0
 10
10.3621759332
 20
9.2821644812
 30
0.0
 10
10.3582594496
 20
9.2820520753
 30
0.0
 10
10.3551262625
 20
9.2819621518
 30
0.0
 10
10.3527763729
 20
9.2818947057
 30
0.0
 10
10.3504264806
 20
9.2818272729
 30
0.0
 10
10.3484682452
 20
9.2817710374
 30
0.0
 10
10.3469016387
 20
9.281726142
 30
0.0
 10
10.345922551
 20
9.2816978705
 30
0.0
 10
10.3451391861
 20
9.2816757386
 30
0.0
 10
10.3445519219
 20
9.281657811
 30
0.0
 10
10.3440617095
 20
9.281647098
 30
0.0
 10
10.3436713912
 20
9.2816290479
 30
0.0
 10
10.343373593
 20
9.2816414135
 30
0.0
 10
10.343095107
 20
9.281554906
 30
0.0
 10
10.3427170463
 20
9.2814741002
 30
0.0
 10
10.342246785
 20
9.2813612434
 30
0.0
 10
10.3416814807
 20
9.2812308872
 30
0.0
 10
10.3409280877
 20
9.2810553074
 30
0.0
 10
10.339986228
 20
9.2808364392
 30
0.0
 10
10.3384793187
 20
9.280485911
 30
0.0
 10
10.3365956593
 20
9.2800478672
 30
0.0
 10
10.3343352777
 20
9.2795221648
 30
0.0
 10
10.3320748936
 20
9.2789964757
 30
0.0
 10
10.329061049
 20
9.2782955522
 30
0.0
 10
10.3252937429
 20
9.2774193995
 30
0.0
 10
10.3215264368
 20
9.2765432463
 30
0.0
 10
10.3185125922
 20
9.2758423235
 30
0.0
 10
10.3162522082
 20
9.2753166325
 30
0.0
 10
10.313991826
 20
9.274790937
 30
0.0
 10
10.3121081686
 20
9.2743528715
 30
0.0
 10
10.3106012552
 20
9.2740023876
 30
0.0
 10
10.3096594056
 20
9.273783407
 30
0.0
 10
10.3089059918
 20
9.273608058
 30
0.0
 10
10.3083407511
 20
9.2734769966
 30
0.0
 10
10.3078702911
 20
9.2733663462
 30
0.0
 10
10.3075398426
 20
9.2732917022
 30
0.0
 10
10.3073527739
 20
9.273244659
 30
0.0
 10
10.3072075174
 20
9.2732217418
 30
0.0
 10
10.3070812012
 20
9.2731515584
 30
0.0
 10
10.306906173
 20
9.2730744675
 30
0.0
 10
10.3066029518
 20
9.2729318769
 30
0.0
 10
10.3061681694
 20
9.2727321921
 30
0.0
 10
10.3056471194
 20
9.2724908512
 30
0.0
 10
10.3049521454
 20
9.2721696639
 30
0.0
 10
10.3040835103
 20
9.2717679741
 30
0.0
 10
10.3026936481
 20
9.2711253854
 30
0.0
 10
10.3009563361
 20
9.2703221101
 30
0.0
 10
10.298871555
 20
9.2693581966
 30
0.0
 10
10.2967867756
 20
9.2683942786
 30
0.0
 10
10.2940070692
 20
9.2671090561
 30
0.0
 10
10.2905324365
 20
9.2655025275
 30
0.0
 10
10.2870578035
 20
9.2638959992
 30
0.0
 10
10.2842780974
 20
9.2626107762
 30
0.0
 10
10.2821933172
 20
9.26164686
 30
0.0
 10
10.2801085394
 20
9.2606829394
 30
0.0
 10
10.2783712172
 20
9.2598796861
 30
0.0
 10
10.2769813757
 20
9.2592370525
 30
0.0
 10
10.2761126879
 20
9.2588354769
 30
0.0
 10
10.2754178221
 20
9.2585140553
 30
0.0
 10
10.2748964415
 20
9.2582734302
 30
0.0
 10
10.2744626934
 20
9.2580715061
 30
0.0
 10
10.2741576258
 20
9.2579329128
 30
0.0
 10
10.2739855561
 20
9.2578494172
 30
0.0
 10
10.2738501523
 20
9.2577989073
 30
0.0
 10
10.2737390273
 20
9.2577020997
 30
0.0
 10
10.2735823919
 20
9.2575891722
 30
0.0
 10
10.2733122257
 20
9.2573840247
 30
0.0
 10
10.2729242112
 20
9.2570948907
 30
0.0
 10
10.2724594767
 20
9.2567462461
 30
0.0
 10
10.2718395222
 20
9.2562819747
 30
0.0
 10
10.2710646848
 20
9.2557014341
 30
0.0
 10
10.2698248859
 20
9.2547726817
 30
0.0
 10
10.2682751575
 20
9.2536117026
 30
0.0
 10
10.2664154748
 20
9.2522185442
 30
0.0
 10
10.2645557943
 20
9.2508253814
 30
0.0
 10
10.2620762196
 20
9.2489678325
 30
0.0
 10
10.2589767516
 20
9.2466458959
 30
0.0
 10
10.2558772832
 20
9.2443239596
 30
0.0
 10
10.2533977089
 20
9.2424664102
 30
0.0
 10
10.2515380272
 20
9.241073249
 30
0.0
 10
10.2496783493
 20
9.2396800845
 30
0.0
 10
10.248128606
 20
9.2385191245
 30
0.0
 10
10.2468888374
 20
9.237590333
 30
0.0
 10
10.2461139229
 20
9.237009892
 30
0.0
 10
10.2454941267
 20
9.2365454163
 30
0.0
 10
10.2450289087
 20
9.2361973959
 30
0.0
 10
10.2446424069
 20
9.2359063086
 30
0.0
 10
10.24436954
 20
9.2357046481
 30
0.0
 10
10.2442172319
 20
9.2355861336
 30
0.0
 10
10.2440928151
 20
9.2355064873
 30
0.0
 10
10.2440073331
 20
9.2353915228
 30
0.0
 10
10.2438797762
 20
9.2352505561
 30
0.0
 10
10.2436628793
 20
9.2349981247
 30
0.0
 10
10.2433497184
 20
9.2346405091
 30
0.0
 10
10.2429753413
 20
9.2342100861
 30
0.0
 10
10.2424756772
 20
9.2336366373
 30
0.0
 10
10.2418512665
 20
9.2329196726
 30
0.0
 10
10.2408521147
 20
9.2317726151
 30
0.0
 10
10.2396032074
 20
9.2303387637
 30
0.0
 10
10.2381045048
 20
9.2286181547
 30
0.0
 10
10.2366058059
 20
9.2268975423
 30
0.0
 10
10.2346075393
 20
9.2246033936
 30
0.0
 10
10.2321097067
 20
9.2217357073
 30
0.0
 10
10.2296118737
 20
9.2188680213
 30
0.0
 10
10.2276136077
 20
9.2165738721
 30
0.0
 10
10.2261149071
 20
9.214853261
 30
0.0
 10
10.2246162106
 20
9.213132647
 30
0.0
 10
10.2233672844
 20
9.2116988111
 30
0.0
 10
10.2223681711
 20
9.210551722
 30
0.0
 10
10.2217436625
 20
9.2098348377
 30
0.0
 10
10.2212441994
 20
9.2092612241
 30
0.0
 10
10.2208692085
 20
9.2088313046
 30
0.0
 10
10.2205579679
 20
9.2084721135
 30
0.0
 10
10.2203376429
 20
9.2082224946
 30
0.0
 10
10.2202155786
 20
9.2080770215
 30
0.0
 10
10.2201132253
 20
9.2079758994
 30
0.0
 10
10.2200521744
 20
9.2078442634
 30
0.0
 10
10.2199563665
 20
9.2076793923
 30
0.0
 10
10.2197954149
 20
9.2073859088
 30
0.0
 10
10.2195619749
 20
9.2069692393
 30
0.0
 10
10.219283349
 20
9.2064681261
 30
0.0
 10
10.218911323
 20
9.2058003629
 30
0.0
 10
10.2184464703
 20
9.2049655262
 30
0.0
 10
10.2177026055
 20
9.2036298615
 30
0.0
 10
10.2167728089
 20
9.2019602553
 30
0.0
 10
10.2156570383
 20
9.1999567387
 30
0.0
 10
10.2145412716
 20
9.1979532192
 30
0.0
 10
10.2130535813
 20
9.1952818609
 30
0.0
 10
10.2111939689
 20
9.1919426626
 30
0.0
 10
10.2093343562
 20
9.1886034646
 30
0.0
 10
10.2078466665
 20
9.1859321059
 30
0.0
 10
10.2067308981
 20
9.1839285875
 30
0.0
 10
10.205615134
 20
9.1819250669
 30
0.0
 10
10.204685317
 20
9.1802554731
 30
0.0
 10
10.2039414939
 20
9.1789197831
 30
0.0
 10
10.2034765348
 20
9.1780850108
 30
0.0
 10
10.2031047272
 20
9.1774171153
 30
0.0
 10
10.2028254343
 20
9.1769164061
 30
0.0
 10
10.202594081
 20
9.176498473
 30
0.0
 10
10.2024294044
 20
9.1762072452
 30
0.0
 10
10.2023395649
 20
9.1760387599
 30
0.0
 10
10.202260181
 20
9.1759182254
 30
0.0
 10
10.2022266834
 20
9.175775408
 30
0.0
 10
10.2021660143
 20
9.1755927572
 30
0.0
 10
10.2020673007
 20
9.1752694971
 30
0.0
 10
10.2019223825
 20
9.1748095903
 30
0.0
 10
10.2017501495
 20
9.1742568917
 30
0.0
 10
10.2015199226
 20
9.1735202433
 30
0.0
 10
10.2012323385
 20
9.1725993358
 30
0.0
 10
10.2007720925
 20
9.171125938
 30
0.0
 10
10.2001968232
 20
9.1692841722
 30
0.0
 10
10.1995064836
 20
9.1670740613
 30
0.0
 10
10.1988161484
 20
9.1648639481
 30
0.0
 10
10.1978957
 20
9.1619171314
 30
0.0
 10
10.19674514
 20
9.1582336102
 30
0.0
 10
10.1955945796
 20
9.1545500892
 30
0.0
 10
10.1946741318
 20
9.1516032722
 30
0.0
 10
10.1939837948
 20
9.1493931599
 30
0.0
 10
10.1932934623
 20
9.1471830459
 30
0.0
 10
10.1927181708
 20
9.1453412895
 30
0.0
 10
10.1922579701
 20
9.1438678725
 30
0.0
 10
10.1919702706
 20
9.1429470139
 30
0.0
 10
10.1917402806
 20
9.1422102652
 30
0.0
 10
10.1915673239
 20
9.1416578729
 30
0.0
 10
10.1914246698
 20
9.1411970078
 30
0.0
 10
10.1913219145
 20
9.1408754583
 30
0.0
 10
10.1912677212
 20
9.1406900667
 30
0.0
 10
10.1912143321
 20
9.1405556685
 30
0.0
 10
10.1912096574
 20
9.1404035128
 30
0.0
 10
10.1911864324
 20
9.1402068326
 30
0.0
 10
10.1911537057
 20
9.1398597563
 30
0.0
 10
10.191102814
 20
9.1393654418
 30
0.0
 10
10.1910435157
 20
9.1387716186
 30
0.0
 10
10.1909638325
 20
9.1379800799
 30
0.0
 10
10.1908644404
 20
9.1369905793
 30
0.0
 10
10.1907052946
 20
9.1354074215
 30
0.0
 10
10.190506403
 20
9.1334284594
 30
0.0
 10
10.1902677156
 20
9.1310537112
 30
0.0
 10
10.1900290329
 20
9.1286789614
 30
0.0
 10
10.1897107876
 20
9.1255126288
 30
0.0
 10
10.1893129815
 20
9.1215547129
 30
0.0
 10
10.1889151757
 20
9.1175967971
 30
0.0
 10
10.1885969299
 20
9.1144304644
 30
0.0
 10
10.188358249
 20
9.112055715
 30
0.0
 10
10.1881195546
 20
9.1096809653
 30
0.0
 10
10.187920685
 20
9.107702008
 30
0.0
 10
10.1877614941
 20
9.1061188404
 30
0.0
 10
10.1876622167
 20
9.1051293647
 30
0.0
 10
10.1875822981
 20
9.1043377748
 30
0.0
 10
10.1875237192
 20
9.1037441081
 30
0.0
 10
10.1874705767
 20
9.1032493039
 30
0.0
 10
10.1874377668
 20
9.1028536443
 30
0.0
 10
10.1873866432
 20
9.1025563976
 30
0.0
 10
10.1874367325
 20
9.102261067
 30
0.0
 10
10.1874681632
 20
9.1018666235
 30
0.0
 10
10.1875195817
 20
9.1013737988
 30
0.0
 10
10.1875760919
 20
9.1007823108
 30
0.0
 10
10.1876532522
 20
9.0999936946
 30
0.0
 10
10.1877490817
 20
9.0990079125
 30
0.0
 10
10.187902756
 20
9.0974306677
 30
0.0
 10
10.1880947297
 20
9.0954591095
 30
0.0
 10
10.1883251492
 20
9.0930932406
 30
0.0
 10
10.1885555551
 20
9.0907273715
 30
0.0
 10
10.1888627677
 20
9.0875728794
 30
0.0
 10
10.1892467817
 20
9.0836297642
 30
0.0
 10
10.1896307969
 20
9.0796866491
 30
0.0
 10
10.1899380076
 20
9.0765321569
 30
0.0
 10
10.1901684191
 20
9.0741662882
 30
0.0
 10
10.1903988175
 20
9.0718004177
 30
0.0
 10
10.1905908571
 20
9.0698288643
 30
0.0
 10
10.190744397
 20
9.0682516098
 30
0.0
 10
10.1908405685
 20
9.0672658526
 30
0.0
 10
10.1909170269
 20
9.0664771852
 30
0.0
 10
10.1909756815
 20
9.0658858534
 30
0.0
 10
10.1910203908
 20
9.0653925404
 30
0.0
 10
10.1910655096
 20
9.0649990931
 30
0.0
 10
10.1910737963
 20
9.0647007202
 30
0.0
 10
10.1911796169
 20
9.0644148955
 30
0.0
 10
10.1912866413
 20
9.0640294126
 30
0.0
 10
10.1914321109
 20
9.063549063
 30
0.0
 10
10.191601671
 20
9.0629719997
 30
0.0
 10
10.1918294988
 20
9.0622028068
 30
0.0
 10
10.1921136852
 20
9.0612412386
 30
0.0
 10
10.1925687178
 20
9.0597027727
 30
0.0
 10
10.1931373939
 20
9.0577796755
 30
0.0
 10
10.1938198543
 20
9.0554719651
 30
0.0
 10
10.1945023016
 20
9.0531642531
 30
0.0
 10
10.1954122359
 20
9.0500873043
 30
0.0
 10
10.1965496521
 20
9.0462411181
 30
0.0
 10
10.1976870694
 20
9.0423949321
 30
0.0
 10
10.1985970019
 20
9.0393179829
 30
0.0
 10
10.1992794545
 20
9.0370102722
 30
0.0
 10
10.1999618948
 20
9.0347025571
 30
0.0
 10
10.2005306336
 20
9.0327794745
 30
0.0
 10
10.2009855382
 20
9.0312409788
 30
0.0
 10
10.2012700505
 20
9.0302794865
 30
0.0
 10
10.2014972092
 20
9.0295101379
 30
0.0
 10
10.2016688136
 20
9.02893355
 30
0.0
 10
10.2018078875
 20
9.0284517129
 30
0.0
 10
10.2019279602
 20
9.0280692647
 30
0.0
 10
10.2019939318
 20
9.0277741725
 30
0.0
 10
10.2021518286
 20
9.027510594
 30
0.0
 10
10.2023302471
 20
9.0271481479
 30
0.0
 10
10.2025642871
 20
9.0266988671
 30
0.0
 10
10.2028404196
 20
9.0261581135
 30
0.0
 10
10.2032102432
 20
9.0254376734
 30
0.0
 10
10.2036719588
 20
9.0245369299
 30
0.0
 10
10.204411019
 20
9.0230958484
 30
0.0
 10
10.205334736
 20
9.0212944594
 30
0.0
 10
10.2064432429
 20
9.0191328085
 30
0.0
 10
10.2075517373
 20
9.0169711534
 30
0.0
 10
10.2090297342
 20
9.0140889481
 30
0.0
 10
10.2108772287
 20
9.0104861908
 30
0.0
 10
10.2127247243
 20
9.006883434
 30
0.0
 10
10.2142027195
 20
9.0040012279
 30
0.0
 10
10.2153112191
 20
9.0018395749
 30
0.0
 10
10.2164197066
 20
8.9996779161
 30
0.0
 10
10.2173434837
 20
8.9978765517
 30
0.0
 10
10.2180824214
 20
8.9964354202
 30
0.0
 10
10.2185444487
 20
8.9955348038
 30
0.0
 10
10.2189136325
 20
8.9948141028
 30
0.0
 10
10.2191917197
 20
8.9942741464
 30
0.0
 10
10.2194196438
 20
8.9938223712
 30
0.0
 10
10.2196105399
 20
8.9934650142
 30
0.0
 10
10.2197303307
 20
8.9931858939
 30
0.0
 10
10.2199393685
 20
8.9929491523
 30
0.0
 10
10.2201869104
 20
8.9926186934
 30
0.0
 10
10.2205070338
 20
8.9922106988
 30
0.0
 10
10.2208866037
 20
8.9917189313
 30
0.0
 10
10.2213942959
 20
8.9910640006
 30
0.0
 10
10.2220283637
 20
8.9902450772
 30
0.0
 10
10.2230431782
 20
8.9889349452
 30
0.0
 10
10.2243115912
 20
8.9872972302
 30
0.0
 10
10.2258337319
 20
8.9853319937
 30
0.0
 10
10.2273558606
 20
8.9833667514
 30
0.0
 10
10.2293853697
 20
8.9807464304
 30
0.0
 10
10.2319222545
 20
8.9774710283
 30
0.0
 10
10.2344591402
 20
8.9741956269
 30
0.0
 10
10.2364886479
 20
8.9715753048
 30
0.0
 10
10.2380107809
 20
8.9696100658
 30
0.0
 10
10.2395329052
 20
8.9676448169
 30
0.0
 10
10.2408013694
 20
8.9660071404
 30
0.0
 10
10.2418160795
 20
8.9646969301
 30
0.0
 10
10.242450413
 20
8.9638782058
 30
0.0
 10
10.2429575597
 20
8.9632228664
 30
0.0
 10
10.2433387965
 20
8.9627323477
 30
0.0
 10
10.2436537045
 20
8.9623204459
 30
0.0
 10
10.2439118869
 20
8.9619979583
 30
0.0
 10
10.2440884292
 20
8.961736873
 30
0.0
 10
10.2443302217
 20
8.9615491491
 30
0.0
 10
10.2446298189
 20
8.9612732245
 30
0.0
 10
10.2450121355
 20
8.9609371109
 30
0.0
 10
10.2454675682
 20
8.9605300113
 30
0.0
 10
10.2460759809
 20
8.9599885262
 30
0.0
 10
10.2468360965
 20
8.9593112198
 30
0.0
 10
10.2480525052
 20
8.9582277811
 30
0.0
 10
10.2495729393
 20
8.9568733964
 30
0.0
 10
10.2513974932
 20
8.9552481717
 30
0.0
 10
10.2532220382
 20
8.9536229372
 30
0.0
 10
10.255654768
 20
8.9514559613
 30
0.0
 10
10.2586956791
 20
8.9487472401
 30
0.0
 10
10.2617365909
 20
8.9460385198
 30
0.0
 10
10.2641693195
 20
8.9438715424
 30
0.0
 10
10.2659938679
 20
8.9422463122
 30
0.0
 10
10.2678184089
 20
8.9406210714
 30
0.0
 10
10.269338883
 20
8.9392667371
 30
0.0
 10
10.2705552102
 20
8.9381831955
 30
0.0
 10
10.2713155332
 20
8.9375061509
 30
0.0
 10
10.2719235202
 20
8.9369641285
 30
0.0
 10
10.2723802537
 20
8.9365586705
 30
0.0
 10
10.2727585004
 20
8.9362174207
 30
0.0
 10
10.273066401
 20
8.9359519748
 30
0.0
 10
10.2732828357
 20
8.9357322495
 30
0.0
 10
10.2735545815
 20
8.935591311
 30
0.0
 10
10.2738975884
 20
8.9353758717
 30
0.0
 10
10.2743329759
 20
8.9351160151
 30
0.0
 10
10.2748526035
 20
8.9348001455
 30
0.0
 10
10.2755464314
 20
8.9343803976
 30
0.0
 10
10.2764133769
 20
8.9338552295
 30
0.0
 10
10.2778006794
 20
8.9330152306
 30
0.0
 10
10.2795347424
 20
8.9319651392
 30
0.0
 10
10.281615646
 20
8.9307050694
 30
0.0
 10
10.283696542
 20
8.9294449889
 30
0.0
 10
10.2864710727
 20
8.9277648853
 30
0.0
 10
10.2899392351
 20
8.9256647544
 30
0.0
 10
10.2934073981
 20
8.9235646244
 30
0.0
 10
10.2961819279
 20
8.9218845192
 30
0.0
 10
10.2982628266
 20
8.9206244435
 30
0.0
 10
10.3003437201
 20
8.9193643558
 30
0.0
 10
10.3020778142
 20
8.9183143201
 30
0.0
 10
10.3034650534
 20
8.9174742077
 30
0.0
 10
10.3043321598
 20
8.9169493284
 30
0.0
 10
10.3050256574
 20
8.9165289875
 30
0.0
 10
10.3055462941
 20
8.9162149298
 30
0.0
 10
10.3059785246
 20
8.9159494042
 30
0.0
 10
10.3063279724
 20
8.9157455306
 30
0.0
 10
10.306580048
 20
8.9155692714
 30
0.0
 10
10.3068703331
 20
8.9154821548
 30
0.0
 10
10.3072440328
 20
8.9153348607
 30
0.0
 10
10.3077157367
 20
8.9151614266
 30
0.0
 10
10.3082798214
 20
8.9149487328
 30
0.0
 10
10.3090326189
 20
8.9146667382
 30
0.0
 10
10.3099733813
 20
8.9143136982
 30
0.0
 10
10.3114787322
 20
8.9137491397
 30
0.0
 10
10.3133603759
 20
8.9130433368
 30
0.0
 10
10.3156183676
 20
8.9121964182
 30
0.0
 10
10.3178763542
 20
8.9113494876
 30
0.0
 10
10.3208870047
 20
8.910220251
 30
0.0
 10
10.3246503172
 20
8.9088087037
 30
0.0
 10
10.3284136302
 20
8.9073971575
 30
0.0
 10
10.3314242801
 20
8.9062679191
 30
0.0
 10
10.3336822685
 20
8.9054209938
 30
0.0
 10
10.3359402531
 20
8.9045740555
 30
0.0
 10
10.337821919
 20
8.9038683138
 30
0.0
 10
10.3393272246
 20
8.9033036305
 30
0.0
 10
10.3402681023
 20
8.902950908
 30
0.0
 10
10.3410206633
 20
8.9026682616
 30
0.0
 10
10.3415854705
 20
8.9024575595
 30
0.0
 10
10.3420549136
 20
8.9022778938
 30
0.0
 10
10.3424332259
 20
8.9021433133
 30
0.0
 10
10.3427094243
 20
8.9020173701
 30
0.0
 10
10.3430143873
 20
8.9019868821
 30
0.0
 10
10.3434109568
 20
8.9019128878
 30
0.0
 10
10.343910116
 20
8.9018318349
 30
0.0
 10
10.3445076315
 20
8.9017296747
 30
0.0
 10
10.3453048342
 20
8.9015951714
 30
0.0
 10
10.3463011611
 20
8.9014264567
 30
0.0
 10
10.3478953827
 20
8.9011568405
 30
0.0
 10
10.349888126
 20
8.9008197079
 30
0.0
 10
10.3522794324
 20
8.9004151969
 30
0.0
 10
10.3546707349
 20
8.900010673
 30
0.0
 10
10.3578591396
 20
8.8994713124
 30
0.0
 10
10.361844645
 20
8.89879711
 30
0.0
 10
10.3666272517
 20
8.8979880679
 30
0.0
 10
10.3730040605
 20
8.8969093448
 30
0.0
 10
10.3777866672
 20
8.8961003025
 30
0.0
 10
10.3809750716
 20
8.895560941
 30
0.0
  0
SPLINE
  5
3AD
100
AcDbEntity
  8
0
100
AcDbSpline
 62
7
  6
CONTINUOUS
 70
0
 71
3
 72
140
 73
136
 74
0
 42
0.0000001
 43
0.0000001
 44
0.0000000001
 40
0.0
 40
0.0
 40
0.0
 40
0.0
 40
0.03125
 40
0.046875
 40
0.0546875
 40
0.0625
 40
0.0703125
 40
0.078125
 40
0.09375
 40
0.109375
 40
0.1171875
 40
0.125
 40
0.1328125
 40
0.140625
 40
0.15625
 40
0.171875
 40
0.1796875
 40
0.1875
 40
0.1953125
 40
0.203125
 40
0.21875
 40
0.234375
 40
0.2421875
 40
0.24609375
 40
0.25
 40
0.25390625
 40
0.2578125
 40
0.265625
 40
0.28125
 40
0.296875
 40
0.3046875
 40
0.30859375
 40
0.3125
 40
0.31640625
 40
0.3203125
 40
0.328125
 40
0.34375
 40
0.359375
 40
0.3671875
 40
0.37109375
 40
0.373046875
 40
0.375
 40
0.376953125
 40
0.37890625
 40
0.3828125
 40
0.390625
 40
0.40625
 40
0.421875
 40
0.4296875
 40
0.43359375
 40
0.435546875
 40
0.4375
 40
0.439453125
 40
0.44140625
 40
0.4453125
 40
0.453125
 40
0.46875
 40
0.4765625
 40
0.484375
 40
0.4921875
 40
0.49609375
 40
0.498046875
 40
0.5
 40
0.501953125
 40
0.50390625
 40
0.5078125
 40
0.515625
 40
0.53125
 40
0.546875
 40
0.5546875
 40
0.55859375
 40
0.560546875
 40
0.5625
 40
0.564453125
 40
0.56640625
 40
0.5703125
 40
0.578125
 40
0.59375
 40
0.609375
 40
0.6171875
 40
0.62109375
 40
0.623046875
 40
0.625
 40
0.626953125
 40
0.62890625
 40
0.6328125
 40
0.640625
 40
0.65625
 40
0.671875
 40
0.6796875
 40
0.68359375
 40
0.685546875
 40
0.6875
 40
0.689453125
 40
0.69140625
 40
0.6953125
 40
0.703125
 40
0.7109375
 40
0.71875
 40
0.734375
 40
0.7421875
 40
0.74609375
 40
0.748046875
 40
0.75
 40
0.751953125
 40
0.75390625
 40
0.7578125
 40
0.765625
 40
0.78125
 40
0.796875
 40
0.8046875
 40
0.80859375
 40
0.8125
 40
0.81640625
 40
0.8203125
 40
0.828125
 40
0.84375
 40
0.859375
 40
0.8671875
 40
0.87109375
 40
0.875
 40
0.87890625
 40
0.8828125
 40
0.890625
 40
0.90625
 40
0.921875
 40
0.9296875
 40
0.93359375
 40
0.9375
 40
0.94140625
 40
0.9453125
 40
0.953125
 40
0.96875
 40
0.984375
 40
1.0
 40
1.0
 40
1.0
 40
1.0
 10
10.6901247776
 20
10.6609407549
 30
0.0
 10
10.6911195942
 20
10.6608981299
 30
0.0
 10
10.6926121345
 20
10.6608354224
 30
0.0
 10
10.6943523278
 20
10.6607579584
 30
0.0
 10
10.6953483007
 20
10.6607198437
 30
0.0
 10
10.6960908653
 20
10.6606740363
 30
0.0
 10
10.6968503022
 20
10.6606940393
 30
0.0
 10
10.6978570404
 20
10.6606976192
 30
0.0
 10
10.6991171145
 20
10.6607107491
 30
0.0
 10
10.7003778885
 20
10.6607181225
 30
0.0
 10
10.701383507
 20
10.6607309126
 30
0.0
 10
10.7021463031
 20
10.6607232852
 30
0.0
 10
10.7028762708
 20
10.6607810919
 30
0.0
 10
10.7038611229
 20
10.6608352081
 30
0.0
 10
10.7050875459
 20
10.6609114641
 30
0.0
 10
10.7063180849
 20
10.6609819763
 30
0.0
 10
10.7072963514
 20
10.6610452825
 30
0.0
 10
10.7080460757
 20
10.6610755193
 30
0.0
 10
10.7087347847
 20
10.6611712794
 30
0.0
 10
10.7096742985
 20
10.6612760986
 30
0.0
 10
10.7108419655
 20
10.6614147721
 30
0.0
 10
10.7120099896
 20
10.6615514239
 30
0.0
 10
10.7128315642
 20
10.6616459709
 30
0.0
 10
10.7132941435
 20
10.6617025059
 30
0.0
 10
10.713660623
 20
10.6617376996
 30
0.0
 10
10.7139523686
 20
10.6618004696
 30
0.0
 10
10.714367439
 20
10.6618745416
 30
0.0
 10
10.7150815801
 20
10.662008675
 30
0.0
 10
10.7161088419
 20
10.6621977398
 30
0.0
 10
10.7171311621
 20
10.6623884363
 30
0.0
 10
10.7178522214
 20
10.6625202852
 30
0.0
 10
10.7182564204
 20
10.662597947
 30
0.0
 10
10.7185815214
 20
10.6626497029
 30
0.0
 10
10.7188227328
 20
10.6627262607
 30
0.0
 10
10.7191736064
 20
10.6628196872
 30
0.0
 10
10.7197740354
 20
10.6629872078
 30
0.0
 10
10.7206386422
 20
10.6632244689
 30
0.0
 10
10.7215017489
 20
10.6634622808
 30
0.0
 10
10.722104278
 20
10.6636290303
 30
0.0
 10
10.7224084047
 20
10.6637118387
 30
0.0
 10
10.7225775199
 20
10.6637600885
 30
0.0
 10
10.722717553
 20
10.6637936456
 30
0.0
 10
10.7228071351
 20
10.6638372584
 30
0.0
 10
10.7229441745
 20
10.6638919015
 30
0.0
 10
10.7231758073
 20
10.6639891585
 30
0.0
 10
10.7236449236
 20
10.6641825079
 30
0.0
 10
10.7243117189
 20
10.6644593799
 30
0.0
 10
10.7249808535
 20
10.6647358359
 30
0.0
 10
10.7254466949
 20
10.6649297677
 30
0.0
 10
10.7256828307
 20
10.6650262239
 30
0.0
 10
10.7258126184
 20
10.6650821565
 30
0.0
 10
10.7259244818
 20
10.6651218075
 30
0.0
 10
10.7259808285
 20
10.6651702447
 30
0.0
 10
10.7260753205
 20
10.6652317633
 30
0.0
 10
10.7262316773
 20
10.6653408458
 30
0.0
 10
10.7265507845
 20
10.6655579977
 30
0.0
 10
10.7269127987
 20
10.6658066046
 30
0.0
 10
10.7272755453
 20
10.6660550695
 30
0.0
 10
10.7275480877
 20
10.6662414109
 30
0.0
 10
10.7277732932
 20
10.6663967789
 30
0.0
 10
10.7279347437
 20
10.6665053642
 30
0.0
 10
10.7280210494
 20
10.6665676833
 30
0.0
 10
10.7281025461
 20
10.6666136609
 30
0.0
 10
10.7281199489
 20
10.6666625501
 30
0.0
 10
10.7281655077
 20
10.6667267201
 30
0.0
 10
10.7282348362
 20
10.6668394901
 30
0.0
 10
10.7283809209
 20
10.6670646938
 30
0.0
 10
10.7285853721
 20
10.6673865956
 30
0.0
 10
10.7287926407
 20
10.6677084091
 30
0.0
 10
10.728934781
 20
10.6679337365
 30
0.0
 10
10.7290095332
 20
10.6680463363
 30
0.0
 10
10.7290463577
 20
10.6681107804
 30
0.0
 10
10.729090597
 20
10.6681588277
 30
0.0
 10
10.7290712985
 20
10.6682079673
 30
0.0
 10
10.7290677282
 20
10.6682731058
 30
0.0
 10
10.729051171
 20
10.6683872752
 30
0.0
 10
10.7290254201
 20
10.6686154897
 30
0.0
 10
10.7289844276
 20
10.6689415639
 30
0.0
 10
10.7289462317
 20
10.6692676609
 30
0.0
 10
10.7289165656
 20
10.6694958436
 30
0.0
 10
10.7289053919
 20
10.6696100568
 30
0.0
 10
10.7288931522
 20
10.6696751247
 30
0.0
 10
10.7289004911
 20
10.669724481
 30
0.0
 10
10.7288446826
 20
10.6697717145
 30
0.0
 10
10.7287922962
 20
10.669835433
 30
0.0
 10
10.7286903741
 20
10.6699465958
 30
0.0
 10
10.7284938486
 20
10.6701691686
 30
0.0
 10
10.7282089151
 20
10.6704869786
 30
0.0
 10
10.7279267722
 20
10.6708049226
 30
0.0
 10
10.72772634
 20
10.6710273078
 30
0.0
 10
10.7276297896
 20
10.6711387285
 30
0.0
 10
10.7275687527
 20
10.6712020316
 30
0.0
 10
10.7275395234
 20
10.6712505415
 30
0.0
 10
10.7274470331
 20
10.6712951039
 30
0.0
 10
10.7273457787
 20
10.6713558974
 30
0.0
 10
10.7271583034
 20
10.6714616447
 30
0.0
 10
10.7268958491
 20
10.6716130462
 30
0.0
 10
10.7265786371
 20
10.6717945906
 30
0.0
 10
10.7261563272
 20
10.67203667
 30
0.0
 10
10.7257347139
 20
10.6722789031
 30
0.0
 10
10.725363554
 20
10.6724904405
 30
0.0
 10
10.7251810417
 20
10.6725967668
 30
0.0
 10
10.7250718114
 20
10.6726566283
 30
0.0
 10
10.7250038247
 20
10.6727040542
 30
0.0
 10
10.7248825627
 20
10.6727418091
 30
0.0
 10
10.7247394606
 20
10.6727955218
 30
0.0
 10
10.7244803998
 20
10.6728879524
 30
0.0
 10
10.7239683156
 20
10.6730739052
 30
0.0
 10
10.7232343442
 20
10.6733391481
 30
0.0
 10
10.7224985631
 20
10.6736039279
 30
0.0
 10
10.7219890125
 20
10.673790529
 30
0.0
 10
10.7216889617
 20
10.6738951454
 30
0.0
 10
10.7214889901
 20
10.6739792873
 30
0.0
 10
10.7211931923
 20
10.6740417169
 30
0.0
 10
10.7208322281
 20
10.6741325325
 30
0.0
 10
10.7201848865
 20
10.6742879041
 30
0.0
 10
10.7192689188
 20
10.6745119293
 30
0.0
 10
10.7183475449
 20
10.6747344644
 30
0.0
 10
10.7177077719
 20
10.6748919221
 30
0.0
 10
10.7173349143
 20
10.6749794596
 30
0.0
 10
10.7170756077
 20
10.6750519467
 30
0.0
 10
10.7167385913
 20
10.675098317
 30
0.0
 10
10.7163163489
 20
10.6751692567
 30
0.0
 10
10.7155647251
 20
10.6752891272
 30
0.0
 10
10.7144981581
 20
10.6754628332
 30
0.0
 10
10.7134270552
 20
10.6756348303
 30
0.0
 10
10.7126817818
 20
10.6757570932
 30
0.0
 10
10.7122495601
 20
10.6758242734
 30
0.0
 10
10.7119431621
 20
10.6758821787
 30
0.0
 10
10.7115688664
 20
10.6759113455
 30
0.0
 10
10.711093489
 20
10.675960259
 30
0.0
 10
10.7102505436
 20
10.6760411869
 30
0.0
 10
10.7090521086
 20
10.6761592415
 30
0.0
 10
10.7076115
 20
10.6762998545
 30
0.0
 10
10.7066515678
 20
10.676393797
 30
0.0
 10
10.7061715426
 20
10.6764407432
 30
0.0
  0
SPLINE
  5
3AE
100
AcDbEntity
  8
0
100
AcDbSpline
 62
7
  6
CONTINUOUS
 70
0
 71
3
 72
140
 73
136
 74
0
 42
0.0000001
 43
0.0000001
 44
0.0000000001
 40
0.0
 40
0.0
 40
0.0
 40
0.0
 40
0.03125
 40
0.046875
 40
0.0546875
 40
0.0625
 40
0.0703125
 40
0.078125
 40
0.09375
 40
0.109375
 40
0.1171875
 40
0.125
 40
0.1328125
 40
0.140625
 40
0.15625
 40
0.171875
 40
0.1796875
 40
0.1875
 40
0.1953125
 40
0.203125
 40
0.21875
 40
0.234375
 40
0.2421875
 40
0.24609375
 40
0.25
 40
0.25390625
 40
0.2578125
 40
0.265625
 40
0.28125
 40
0.296875
 40
0.3046875
 40
0.30859375
 40
0.3125
 40
0.31640625
 40
0.3203125
 40
0.328125
 40
0.34375
 40
0.359375
 40
0.3671875
 40
0.37109375
 40
0.373046875
 40
0.375
 40
0.376953125
 40
0.37890625
 40
0.3828125
 40
0.390625
 40
0.40625
 40
0.421875
 40
0.4296875
 40
0.43359375
 40
0.435546875
 40
0.4375
 40
0.439453125
 40
0.44140625
 40
0.4453125
 40
0.453125
 40
0.46875
 40
0.4765625
 40
0.484375
 40
0.4921875
 40
0.49609375
 40
0.498046875
 40
0.5
 40
0.501953125
 40
0.50390625
 40
0.5078125
 40
0.515625
 40
0.53125
 40
0.546875
 40
0.5546875
 40
0.55859375
 40
0.560546875
 40
0.5625
 40
0.564453125
 40
0.56640625
 40
0.5703125
 40
0.578125
 40
0.59375
 40
0.609375
 40
0.6171875
 40
0.62109375
 40
0.623046875
 40
0.625
 40
0.626953125
 40
0.62890625
 40
0.6328125
 40
0.640625
 40
0.65625
 40
0.671875
 40
0.6796875
 40
0.68359375
 40
0.685546875
 40
0.6875
 40
0.689453125
 40
0.69140625
 40
0.6953125
 40
0.703125
 40
0.7109375
 40
0.71875
 40
0.734375
 40
0.7421875
 40
0.74609375
 40
0.748046875
 40
0.75
 40
0.751953125
 40
0.75390625
 40
0.7578125
 40
0.765625
 40
0.78125
 40
0.796875
 40
0.8046875
 40
0.80859375
 40
0.8125
 40
0.81640625
 40
0.8203125
 40
0.828125
 40
0.84375
 40
0.859375
 40
0.8671875
 40
0.87109375
 40
0.875
 40
0.87890625
 40
0.8828125
 40
0.890625
 40
0.90625
 40
0.921875
 40
0.9296875
 40
0.93359375
 40
0.9375
 40
0.94140625
 40
0.9453125
 40
0.953125
 40
0.96875
 40
0.984375
 40
1.0
 40
1.0
 40
1.0
 40
1.0
 10
10.7061715452
 20
10.676440743
 30
0.0
 10
10.7051767286
 20
10.676483368
 30
0.0
 10
10.7036841883
 20
10.6765460755
 30
0.0
 10
10.701943995
 20
10.6766235395
 30
0.0
 10
10.7009480221
 20
10.6766616542
 30
0.0
 10
10.7002054575
 20
10.6767074616
 30
0.0
 10
10.6994460206
 20
10.6766874586
 30
0.0
 10
10.6984392824
 20
10.6766838787
 30
0.0
 10
10.6971792083
 20
10.6766707488
 30
0.0
 10
10.6959184343
 20
10.6766633754
 30
0.0
 10
10.6949128158
 20
10.6766505853
 30
0.0
 10
10.6941500197
 20
10.6766582127
 30
0.0
 10
10.693420052
 20
10.676600406
 30
0.0
 10
10.6924351999
 20
10.6765462898
 30
0.0
 10
10.6912087769
 20
10.6764700338
 30
0.0
 10
10.6899782379
 20
10.6763995216
 30
0.0
 10
10.6889999714
 20
10.6763362154
 30
0.0
 10
10.6882502471
 20
10.6763059786
 30
0.0
 10
10.6875615381
 20
10.6762102185
 30
0.0
 10
10.6866220243
 20
10.6761053993
 30
0.0
 10
10.6854543573
 20
10.6759667258
 30
0.0
 10
10.6842863332
 20
10.675830074
 30
0.0
 10
10.6834647586
 20
10.675735527
 30
0.0
 10
10.6830021793
 20
10.675678992
 30
0.0
 10
10.6826356998
 20
10.6756437983
 30
0.0
 10
10.6823439542
 20
10.6755810283
 30
0.0
 10
10.6819288838
 20
10.6755069563
 30
0.0
 10
10.6812147427
 20
10.6753728229
 30
0.0
 10
10.6801874809
 20
10.6751837581
 30
0.0
 10
10.6791651607
 20
10.6749930616
 30
0.0
 10
10.6784441014
 20
10.6748612127
 30
0.0
 10
10.6780399024
 20
10.6747835509
 30
0.0
 10
10.6777148014
 20
10.674731795
 30
0.0
 10
10.67747359
 20
10.6746552372
 30
0.0
 10
10.6771227164
 20
10.6745618107
 30
0.0
 10
10.6765222874
 20
10.6743942901
 30
0.0
 10
10.6756576806
 20
10.674157029
 30
0.0
 10
10.6747945739
 20
10.6739192171
 30
0.0
 10
10.6741920448
 20
10.6737524676
 30
0.0
 10
10.6738879181
 20
10.6736696592
 30
0.0
 10
10.6737188029
 20
10.6736214094
 30
0.0
 10
10.6735787698
 20
10.6735878523
 30
0.0
 10
10.6734891877
 20
10.6735442395
 30
0.0
 10
10.6733521483
 20
10.6734895964
 30
0.0
 10
10.6731205155
 20
10.6733923394
 30
0.0
 10
10.6726513992
 20
10.67319899
 30
0.0
 10
10.6719846039
 20
10.672922118
 30
0.0
 10
10.6713154693
 20
10.672645662
 30
0.0
 10
10.6708496279
 20
10.6724517302
 30
0.0
 10
10.6706134921
 20
10.672355274
 30
0.0
 10
10.6704837043
 20
10.6722993414
 30
0.0
 10
10.670371841
 20
10.6722596904
 30
0.0
 10
10.6703154943
 20
10.6722112532
 30
0.0
 10
10.6702210023
 20
10.6721497346
 30
0.0
 10
10.6700646455
 20
10.6720406521
 30
0.0
 10
10.6697455383
 20
10.6718235002
 30
0.0
 10
10.6693835241
 20
10.6715748933
 30
0.0
 10
10.6690207774
 20
10.6713264284
 30
0.0
 10
10.6687482351
 20
10.671140087
 30
0.0
 10
10.6685230296
 20
10.670984719
 30
0.0
 10
10.6683615791
 20
10.6708761337
 30
0.0
 10
10.6682752734
 20
10.6708138146
 30
0.0
 10
10.6681937767
 20
10.670767837
 30
0.0
 10
10.6681763739
 20
10.6707189478
 30
0.0
 10
10.6681308151
 20
10.6706547778
 30
0.0
 10
10.6680614866
 20
10.6705420078
 30
0.0
 10
10.6679154019
 20
10.6703168041
 30
0.0
 10
10.6677109507
 20
10.6699949023
 30
0.0
 10
10.6675036821
 20
10.6696730888
 30
0.0
 10
10.6673615418
 20
10.6694477614
 30
0.0
 10
10.6672867896
 20
10.6693351616
 30
0.0
 10
10.6672499651
 20
10.6692707175
 30
0.0
 10
10.6672057258
 20
10.6692226702
 30
0.0
 10
10.6672250243
 20
10.6691735306
 30
0.0
 10
10.6672285946
 20
10.6691083921
 30
0.0
 10
10.6672451518
 20
10.6689942227
 30
0.0
 10
10.6672709027
 20
10.6687660082
 30
0.0
 10
10.6673118952
 20
10.668439934
 30
0.0
 10
10.6673500911
 20
10.668113837
 30
0.0
 10
10.6673797572
 20
10.6678856543
 30
0.0
 10
10.6673909309
 20
10.6677714411
 30
0.0
 10
10.6674031706
 20
10.6677063732
 30
0.0
 10
10.6673958317
 20
10.6676570169
 30
0.0
 10
10.6674516402
 20
10.6676097834
 30
0.0
 10
10.6675040266
 20
10.6675460649
 30
0.0
 10
10.6676059487
 20
10.6674349021
 30
0.0
 10
10.6678024742
 20
10.6672123293
 30
0.0
 10
10.6680874077
 20
10.6668945193
 30
0.0
 10
10.6683695506
 20
10.6665765753
 30
0.0
 10
10.6685699828
 20
10.6663541901
 30
0.0
 10
10.6686665332
 20
10.6662427694
 30
0.0
 10
10.6687275701
 20
10.6661794663
 30
0.0
 10
10.6687567994
 20
10.6661309564
 30
0.0
 10
10.6688492897
 20
10.666086394
 30
0.0
 10
10.6689505441
 20
10.6660256005
 30
0.0
 10
10.6691380194
 20
10.6659198532
 30
0.0
 10
10.6694004737
 20
10.6657684517
 30
0.0
 10
10.6697176857
 20
10.6655869073
 30
0.0
 10
10.6701399956
 20
10.6653448279
 30
0.0
 10
10.6705616089
 20
10.6651025948
 30
0.0
 10
10.6709327688
 20
10.6648910574
 30
0.0
 10
10.6711152811
 20
10.6647847311
 30
0.0
 10
10.6712245114
 20
10.6647248696
 30
0.0
 10
10.6712924981
 20
10.6646774437
 30
0.0
 10
10.6714137601
 20
10.6646396888
 30
0.0
 10
10.6715568622
 20
10.6645859761
 30
0.0
 10
10.671815923
 20
10.6644935455
 30
0.0
 10
10.6723280072
 20
10.6643075927
 30
0.0
 10
10.6730619786
 20
10.6640423498
 30
0.0
 10
10.6737977597
 20
10.66377757
 30
0.0
 10
10.6743073103
 20
10.6635909689
 30
0.0
 10
10.6746073611
 20
10.6634863525
 30
0.0
 10
10.6748073327
 20
10.6634022106
 30
0.0
 10
10.6751031305
 20
10.663339781
 30
0.0
 10
10.6754640947
 20
10.6632489654
 30
0.0
 10
10.6761114363
 20
10.6630935938
 30
0.0
 10
10.677027404
 20
10.6628695686
 30
0.0
 10
10.6779487779
 20
10.6626470335
 30
0.0
 10
10.6785885509
 20
10.6624895758
 30
0.0
 10
10.6789614085
 20
10.6624020383
 30
0.0
 10
10.6792207151
 20
10.6623295512
 30
0.0
 10
10.6795577315
 20
10.6622831809
 30
0.0
 10
10.6799799739
 20
10.6622122412
 30
0.0
 10
10.6807315977
 20
10.6620923707
 30
0.0
 10
10.6817981647
 20
10.6619186647
 30
0.0
 10
10.6828692676
 20
10.6617466676
 30
0.0
 10
10.683614541
 20
10.6616244047
 30
0.0
 10
10.6840467627
 20
10.6615572245
 30
0.0
 10
10.6843531607
 20
10.6614993192
 30
0.0
 10
10.6847274564
 20
10.6614701524
 30
0.0
 10
10.6852028338
 20
10.6614212389
 30
0.0
 10
10.6860457792
 20
10.661340311
 30
0.0
 10
10.6872442142
 20
10.6612222564
 30
0.0
 10
10.6886848228
 20
10.6610816434
 30
0.0
 10
10.689644755
 20
10.6609877009
 30
0.0
 10
10.6901247802
 20
10.6609407547
 30
0.0
  0
ENDSEC
  0
SECTION
  2
OBJECTS
  0
DICTIONARY
  5
C
100
AcDbDictionary
280
0
281
1
  3
ACAD_GROUP
350
D
  3
ACAD_MLINESTYLE
350
17
  3
ACAD_LAYOUT
350
1A
  3
ACAD_PLOTSETTINGS
350
19
  3
ACAD_PLOTSTYLENAME
350
E
  3
ACAD_IMAGE_DICT
350
       3B0
  3
ACAD_IMAGE_VARS
350
       3B1
  3
ACAD_TABLESTYLE
350
       3B2
  0
IMAGEDEF_REACTOR
  5
3AF
100
AcDbRasterImageDefReactor
 90
2
330
28F
  0
DICTIONARY
  5
D
102
{ACAD_REACTORS
330
C
102
}
100
AcDbDictionary
280
0
281
1
  0
ACDBDICTIONARYWDFLT
  5
E
102
{ACAD_REACTORS
330
C
102
}
100
AcDbDictionary
281
1
  3
Normal
350
F
100
AcDbDictionaryWithDefault
340
F
  0
DICTIONARY
  5
3B0
330
C
100
AcDbDictionary
281
1
  3
W3H_assy_2_img_1
350
       3B5
  0
RASTERVARIABLES
  5
3B1
330
C
100
AcDbRasterVariables
 90
0
 70
0
 71
1
 72
5
  0
DICTIONARY
  5
17
102
{ACAD_REACTORS
330
C
102
}
100
AcDbDictionary
280
0
281
1
  3
Standard
350
18
  0
DICTIONARY
  5
3B2
330
C
100
AcDbDictionary
281
1
  3
Standard
350
       3B6
  3
Standard1
350
       3B7
  0
DICTIONARY
  5
19
102
{ACAD_REACTORS
330
C
102
}
100
AcDbDictionary
281
1
  0
DICTIONARY
  5
1A
102
{ACAD_REACTORS
330
C
102
}
100
AcDbDictionary
281
1
  3
Model
350
3B3
  3
Layout1
350
3B4
  0
ACDBPLACEHOLDER
  5
F
102
{ACAD_REACTORS
330
E
102
}
  0
MLINESTYLE
  5
18
102
{ACAD_REACTORS
330
17
102
}
100
AcDbMlineStyle
  2
STANDARD
 70
0
  3

 62
256
 51
90.0
 52
90.0
 71
2
 49
0.5
 62
256
  6
BYLAYER
 49
-0.5
 62
256
  6
BYLAYER
  0
LAYOUT
  5
3B3
102
{ACAD_REACTORS
330
1A
102
}
100
AcDbPlotSettings
  1

  2
none_device
  4
ANSI_C_(22.00_x_17.00_Inches)
  6

 40
0.0
 41
0.0
 42
0.0
 43
0.0
 44
558.8
 45
431.8
 46
0.0
 47
0.0
 48
0.0
 49
0.0
140
0.0
141
0.0
142
1.0
143
1.0
 70
1024
 72
0
 73
0
 74
0
  7

 75
0
147
1.0
148
0.0
149
0.0
100
AcDbLayout
  1
Model
 70
0
 71
0
 10
0.0
 20
0.0
 11
22.0
 21
17.0
 12
0.0
 22
0.0
 32
0.0
 14
0.0
 24
0.0
 34
0.0
 15
0.0
 25
0.0
 35
0.0
146
0.0
 13
0.0
 23
0.0
 33
0.0
 16
1.0
 26
0.0
 36
0.0
 17
0.0
 27
1.0
 37
0.0
 76
0
330
20C
345
0
346
0
  0
LAYOUT
  5
3B4
102
{ACAD_REACTORS
330
1A
102
}
100
AcDbPlotSettings
  1

  2
none_device
  4
ANSI_C_(22.00_x_17.00_Inches)
  6

 40
0.0
 41
0.0
 42
0.0
 43
0.0
 44
558.8
 45
431.8
 46
0.0
 47
0.0
 48
0.0
 49
0.0
140
0.0
141
0.0
142
1.0
143
1.0
 70
0
 72
0
 73
0
 74
0
  7

 75
0
147
1.0
148
0.0
149
0.0
100
AcDbLayout
  1
Layout1
 70
0
 71
1
 10
0.0
 20
0.0
 11
22.0
 21
17.0
 12
0.0
 22
0.0
 32
0.0
 14
0.0
 24
0.0
 34
0.0
 15
0.0
 25
0.0
 35
0.0
146
0.0
 13
0.0
 23
0.0
 33
0.0
 16
1.0
 26
0.0
 36
0.0
 17
0.0
 27
1.0
 37
0.0
 76
0
330
20D
345
0
346
0
  0
IMAGEDEF
  5
3B5
102
{ACAD_REACTORS
330
3B0
330
3AF
102
}
100
AcDbRasterImageDef
 90
0
  1
W3H_assy_2_img_1.png
 10
369.0
 20
92.0
 11
0.0066666667
 21
0.0066666667
280
1
281
0
  0
TABLESTYLE
  5
3B6
102
{ACAD_REACTORS
330
3B2
330
292
330
293
102
}
330
3B2
100
AcDbTableStyle
  3
Standard
 70
0
 71
0
 40
0.06
 41
0.06
280
1
281
1
  7
Standard
140
0.18
170
1
 62
0
 63
7
283
0
  7
Standard
140
0.18
170
1
 62
0
 63
7
283
0
  7
Standard
140
0.18
170
1
 62
0
 63
7
283
0
  0
TABLESTYLE
  5
3B7
102
{ACAD_REACTORS
330
3B2
330
291
102
}
330
3B2
100
AcDbTableStyle
  3
Standard1
 70
1
 71
0
 40
0.06
 41
0.06
280
1
281
1
  7
Standard
140
0.18
170
1
 62
0
 63
7
283
0
  7
Standard
140
0.18
170
1
 62
0
 63
7
283
0
  7
Standard
140
0.18
170
1
 62
0
 63
7
283
0
  0
ENDSEC
  0
EOF
