999
DXF file: W3G_assy_2.dxf
999
Pro/ENGINEER 2014200 by Parametric Technology Corporation
  0
SECTION
  2
HEADER
  9
$ACADVER
  1
AC1021
  9
$DWGCODEPAGE
  3
ANSI_1252
  9
$EXTMAX
 10
22.0
 20
17.0
 30
0.0
  9
$EXTMIN
 10
0.0
 20
0.0
 30
0.0
  9
$LIMMIN
 10
0.0
 20
0.0
  9
$LIMMAX
 10
22.0
 20
17.0
  9
$VIEWCTR
 10
11.0
 20
8.5
  9
$VIEWSIZE
 40
17.0
  9
$CLAYER
  8
0
  9
$LTSCALE
 40
1.21
  9
$CELTYPE
  6
BYLAYER
  9
$DIMSCALE
 40
1.0
  9
$DIMASZ
 40
0.1875
  9
$DIMEXO
 40
0.0625
  9
$DIMDLI
 40
0.836
  9
$DIMEXE
 40
0.125
  9
$DIMCEN
 40
0.198
  9
$DIMLFAC
 40
1.0
  9
$DIMBLK
  1
_FILLED
  9
$DIMTXT
 40
0.1
  9
$DIMTOL
 70
0
  9
$DIMLIM
 70
0
  9
$DIMTFAC
 40
1.0
  9
$DIMGAP
 40
0.09
  9
$DIMDSEP
 70
46
  9
$AUNITS
 70
0
  9
$PDMODE
 70
3
  9
$PDSIZE
 40
0.3125
  9
$HANDSEED
  5
395
  9
$TILEMODE
 70
1
  9
$MEASUREMENT
 70
0
  9
$INSUNITS
 70
1
  0
ENDSEC
  0
SECTION
  2
CLASSES
  0
CLASS
  1
ACDBDICTIONARYWDFLT
  2
AcDbDictionaryWithDefault
  3
AutoCAD 2000
 90
0
 91
1
280
0
281
0
  0
CLASS
  1
ACDBPLACEHOLDER
  2
AcDbPlaceHolder
  3
AutoCAD 2000
 90
0
 91
1
280
0
281
0
  0
CLASS
  1
LAYOUT
  2
AcDbLayout
  3
AutoCAD 2000
 90
0
 91
0
280
0
281
0
  0
CLASS
  1
RASTERVARIABLES
  2
AcDbRasterVariables
  3
ISM
 90
0
 91
1
280
0
281
0
  0
CLASS
  1
IMAGEDEF
  2
AcDbRasterImageDef
  3
ISM
 90
0
 91
1
280
0
281
0
  0
CLASS
  1
IMAGEDEF_REACTOR
  2
AcDbRasterImageDefReactor
  3
ISM
 90
0
 91
1
280
0
281
0
  0
CLASS
  1
IMAGE
  2
AcDbRasterImage
  3
ISM
 90
127
 91
1
280
0
281
1
  0
CLASS
  1
TABLESTYLE
  2
AcDbTableStyle
  3
ObjectDBX Classes
 90
2047
 91
1
280
0
281
0
  0
CLASS
  1
ACAD_TABLE
  2
AcDbTable
  3
ObjectDBX Classes
 90
1025
 91
3
280
0
281
1
  0
ENDSEC
  0
SECTION
  2
TABLES
  0
TABLE
  2
VPORT
  5
8
100
AcDbSymbolTable
 70
2
  0
VPORT
  5
1F4
100
AcDbSymbolTableRecord
100
AcDbViewportTableRecord
  2
*ACTIVE
 70
0
 10
0.0
 20
0.0
 11
1.0
 21
1.0
 12
11.0
 22
8.5
 13
0.0
 23
0.0
 14
1.0
 24
1.0
 15
0.0
 25
0.0
 16
0.0
 26
0.0
 36
1.0
 17
0.0
 27
0.0
 37
0.0
 40
17.0
 41
1.2941176471
 42
50.0
 43
0.0
 44
0.0
 50
0.0
 51
0.0
 71
0
 72
100
 73
1
 74
1
 75
0
 76
0
 77
0
 78
0
  0
ENDTAB
  0
TABLE
  2
LTYPE
  5
5
100
AcDbSymbolTable
 70
6
  0
LTYPE
  5
14
100
AcDbSymbolTableRecord
100
AcDbLinetypeTableRecord
  2
BYBLOCK
 70
0
  3

 72
65
 73
0
 40
0.0
  0
LTYPE
  5
15
100
AcDbSymbolTableRecord
100
AcDbLinetypeTableRecord
  2
BYLAYER
 70
0
  3

 72
65
 73
0
 40
0.0
  0
LTYPE
  5
16
100
AcDbSymbolTableRecord
100
AcDbLinetypeTableRecord
  2
CONTINUOUS
 70
64
  3
Solid line
 72
65
 73
0
 40
0.0
  0
LTYPE
  5
1F5
100
AcDbSymbolTableRecord
100
AcDbLinetypeTableRecord
  2
CENTER
 70
64
  3
____ _ ____ _ ____ _ ____ _ ____ _ ____ _ ____
 72
65
 73
4
 40
0.6
 49
0.375
 74
0
 49
-0.075
 74
0
 49
0.075
 74
0
 49
-0.075
 74
0
  0
LTYPE
  5
1F6
100
AcDbSymbolTableRecord
100
AcDbLinetypeTableRecord
  2
HIDDEN
 70
64
  3
- - - - - - - - - - - - - - - - - - - -
 72
65
 73
2
 40
0.2
 49
0.1
 74
0
 49
-0.1
 74
0
  0
LTYPE
  5
1F7
100
AcDbSymbolTableRecord
100
AcDbLinetypeTableRecord
  2
PHANTOM
 70
64
  3
_____ _ _ _____ _ _ _____ _ _ _____
 72
65
 73
6
 40
0.8
 49
0.45
 74
0
 49
-0.05
 74
0
 49
0.1
 74
0
 49
-0.05
 74
0
 49
0.1
 74
0
 49
-0.05
 74
0
  0
LTYPE
  5
1F8
100
AcDbSymbolTableRecord
100
AcDbLinetypeTableRecord
  2
DOT
 70
64
  3
. . . . . . . . . . . . . . . . . . . .
 72
65
 73
2
 40
0.2
 49
0.1
 74
0
 49
-0.1
 74
0
  0
LTYPE
  5
1F9
100
AcDbSymbolTableRecord
100
AcDbLinetypeTableRecord
  2
DASHED
 70
64
  3
- - - - - - - - - - - - - - - - - - - -
 72
65
 73
2
 40
0.2
 49
0.1
 74
0
 49
-0.1
 74
0
  0
ENDTAB
  0
TABLE
  2
LAYER
  5
2
100
AcDbSymbolTable
 70
36
  0
LAYER
  5
10
100
AcDbSymbolTableRecord
100
AcDbLayerTableRecord
  2
0
 70
0
 62
7
  6
CONTINUOUS
370
-3
390
F
  0
LAYER
  5
1FA
100
AcDbSymbolTableRecord
100
AcDbLayerTableRecord
  2
DEFAULT_1
 70
0
 62
7
  6
CENTER
370
-3
390
F
  0
LAYER
  5
1FB
100
AcDbSymbolTableRecord
100
AcDbLayerTableRecord
  2
DEFAULT_2
 70
0
 62
8
  6
HIDDEN
370
-3
390
F
  0
LAYER
  5
1FC
100
AcDbSymbolTableRecord
100
AcDbLayerTableRecord
  2
DEFAULT_3
 70
0
 62
7
  6
PHANTOM
370
-3
390
F
  0
LAYER
  5
1FD
100
AcDbSymbolTableRecord
100
AcDbLayerTableRecord
  2
01___PRT_ALL_DTM_PLN
 70
0
 62
7
  6
CONTINUOUS
370
-3
390
F
  0
LAYER
  5
1FE
100
AcDbSymbolTableRecord
100
AcDbLayerTableRecord
  2
01___PRT_DEF_DTM_PLN
 70
0
 62
7
  6
CONTINUOUS
370
-3
390
F
  0
LAYER
  5
1FF
100
AcDbSymbolTableRecord
100
AcDbLayerTableRecord
  2
02___PRT_ALL_AXES
 70
0
 62
7
  6
CONTINUOUS
370
-3
390
F
  0
LAYER
  5
200
100
AcDbSymbolTableRecord
100
AcDbLayerTableRecord
  2
03___PRT_ALL_CURVES
 70
0
 62
7
  6
CONTINUOUS
370
-3
390
F
  0
LAYER
  5
201
100
AcDbSymbolTableRecord
100
AcDbLayerTableRecord
  2
04___PRT_ALL_DTM_PNT
 70
0
 62
7
  6
CONTINUOUS
370
-3
390
F
  0
LAYER
  5
202
100
AcDbSymbolTableRecord
100
AcDbLayerTableRecord
  2
05___PRT_ALL_DTM_CSYS
 70
0
 62
7
  6
CONTINUOUS
370
-3
390
F
  0
LAYER
  5
203
100
AcDbSymbolTableRecord
100
AcDbLayerTableRecord
  2
05___PRT_DEF_DTM_CSYS
 70
0
 62
7
  6
CONTINUOUS
370
-3
390
F
  0
LAYER
  5
204
100
AcDbSymbolTableRecord
100
AcDbLayerTableRecord
  2
06___PRT_ALL_SURFS
 70
0
 62
7
  6
CONTINUOUS
370
-3
390
F
  0
LAYER
  5
205
100
AcDbSymbolTableRecord
100
AcDbLayerTableRecord
  2
DATUM_PLANES
 70
0
 62
7
  6
CONTINUOUS
370
-3
390
F
  0
LAYER
  5
206
100
AcDbSymbolTableRecord
100
AcDbLayerTableRecord
  2
PORT_AREAS
 70
0
 62
7
  6
CONTINUOUS
370
-3
390
F
  0
LAYER
  5
207
100
AcDbSymbolTableRecord
100
AcDbLayerTableRecord
  2
SUNNBOMCOSMETIC
 70
0
 62
7
  6
CONTINUOUS
370
-3
390
F
  0
LAYER
  5
208
100
AcDbSymbolTableRecord
100
AcDbLayerTableRecord
  2
SUNNBOMSTAMPING
 70
0
 62
7
  6
CONTINUOUS
370
-3
390
F
  0
LAYER
  5
209
100
AcDbSymbolTableRecord
100
AcDbLayerTableRecord
  2
THREADS
 70
0
 62
7
  6
CONTINUOUS
370
-3
390
F
  0
ENDTAB
  0
TABLE
  2
STYLE
  5
3
100
AcDbSymbolTable
 70
1
  0
STYLE
  5
11
100
AcDbSymbolTableRecord
100
AcDbTextStyleTableRecord
  2
STANDARD
 70
0
 40
0.0
 41
0.8
 50
0.0
 71
0
 42
0.2
  3
txt
  4

  0
STYLE
  5
20A
100
AcDbSymbolTableRecord
100
AcDbTextStyleTableRecord
  2
TEXTSTYLE_1
 70
0
 40
0.0
 41
0.8
 50
0.0
 71
0
 42
0.2
  3
gdt
  4

  0
ENDTAB
  0
TABLE
  2
VIEW
  5
6
100
AcDbSymbolTable
 70
0
  0
ENDTAB
  0
TABLE
  2
UCS
  5
7
100
AcDbSymbolTable
 70
0
  0
ENDTAB
  0
TABLE
  2
APPID
  5
9
100
AcDbSymbolTable
 70
1
  0
APPID
  5
20B
100
AcDbSymbolTableRecord
100
AcDbRegAppTableRecord
  2
ACAD
 70
0
  0
ENDTAB
  0
TABLE
  2
BLOCK_RECORD
  5
1
100
AcDbSymbolTable
 70
0
  0
BLOCK_RECORD
  5
20C
100
AcDbSymbolTableRecord
100
AcDbBlockTableRecord
  2
*Model_Space
  0
BLOCK_RECORD
  5
20D
100
AcDbSymbolTableRecord
100
AcDbBlockTableRecord
  2
*Paper_Space
  0
BLOCK_RECORD
  5
20E
100
AcDbSymbolTableRecord
100
AcDbBlockTableRecord
  2
SUN_FIRST_THIRD_ANGLE_BL0
  0
BLOCK_RECORD
  5
20F
100
AcDbSymbolTableRecord
100
AcDbBlockTableRecord
  2
*T1
  0
BLOCK_RECORD
  5
210
100
AcDbSymbolTableRecord
100
AcDbBlockTableRecord
  2
*T2
  0
BLOCK_RECORD
  5
211
100
AcDbSymbolTableRecord
100
AcDbBlockTableRecord
  2
*T3
  0
ENDTAB
  0
TABLE
  2
DIMSTYLE
  5
A
100
AcDbSymbolTable
 70
1
100
AcDbDimStyleTable
 71
0
  0
DIMSTYLE
105
212
100
AcDbSymbolTableRecord
100
AcDbDimStyleTableRecord
  2
STANDARD
 70
0
  3

  4

 40
1.0
 41
0.1875
 42
0.0625
 43
0.38
 44
0.125
 45
0.0
 46
0.0
 47
0.001
 48
0.001
140
0.1
141
0.09
142
0.0
143
25.4
144
1.0
145
0.0
146
1.0
147
0.09
 71
0.0
 72
0.0
 73
1
 74
1
 75
0
 76
0
 77
0
 78
4
170
0
171
2
172
0
173
0
174
0
175
0
176
0
177
0
178
0
270
2
271
3
272
3
273
2
274
2
275
0
280
0
281
0
282
0
283
1
284
4
285
0
286
0
287
3
288
0
340
11
278
46
  0
ENDTAB
  0
ENDSEC
  0
SECTION
  2
BLOCKS
  0
BLOCK
  5
20
100
AcDbEntity
  8
0
100
AcDbBlockBegin
  2
*Model_Space
 70
0
 10
0.0
 20
0.0
 30
0.0
  3
*Model_Space
  1

  0
ENDBLK
  5
21
100
AcDbEntity
  8
0
100
AcDbBlockEnd
  0
BLOCK
  5
1C
100
AcDbEntity
  8
0
100
AcDbBlockBegin
  2
*Paper_Space
 70
0
 10
0.0
 20
0.0
 30
0.0
  3
*Paper_Space
  1

  0
ENDBLK
  5
1D
100
AcDbEntity
  8
0
100
AcDbBlockEnd
  0
BLOCK
  5
213
100
AcDbEntity
  8
0
100
AcDbBlockBegin
 62
2
  6
CONTINUOUS
  2
SUN_FIRST_THIRD_ANGLE_BL0
 70
64
 10
20.4816717061
 20
1.2289683772
  3
SUN_FIRST_THIRD_ANGLE_BL0
  1

  0
TEXT
  5
214
100
AcDbEntity
  8
0
100
AcDbText
 62
2
  6
CONTINUOUS
 10
19.4750896608
 20
1.4136269581
  7
STANDARD
 40
0.08
  1
FIRST ANGLE
 41
0.8
 72
0
100
AcDbText
  0
TEXT
  5
215
100
AcDbEntity
  8
0
100
AcDbText
 62
2
  6
CONTINUOUS
 10
20.7842537513
 20
1.4047600029
  7
STANDARD
 40
0.08
  1
THIRD ANGLE
 41
0.8
 72
0
100
AcDbText
  0
LINE
  5
216
100
AcDbEntity
  8
0
100
AcDbLine
 62
7
  6
CONTINUOUS
 10
19.4767170086
 20
1.1727031207
 11
19.6334271527
 21
1.1717972817
  0
LINE
  5
217
100
AcDbEntity
  8
0
100
AcDbLine
 62
7
  6
CONTINUOUS
 10
19.6596964832
 20
1.1717972817
 11
19.6950230232
 21
1.171593082
  0
LINE
  5
218
100
AcDbEntity
  8
0
100
AcDbLine
 62
7
  6
CONTINUOUS
 10
19.7194818561
 20
1.1708914427
 11
19.8852396156
 21
1.1699333054
  0
LINE
  5
219
100
AcDbEntity
  8
0
100
AcDbLine
 62
7
  6
CONTINUOUS
 10
19.4758111696
 20
1.2723454088
 11
19.88525039
 21
1.3511534004
  0
LINE
  5
21A
100
AcDbEntity
  8
0
100
AcDbLine
 62
7
  6
CONTINUOUS
 10
19.88525039
 20
1.3511534004
 11
19.8831348489
 21
0.9851647912
  0
LINE
  5
21B
100
AcDbEntity
  8
0
100
AcDbLine
 62
7
  6
CONTINUOUS
 10
19.8831348489
 20
0.9851647912
 11
19.4767170086
 21
1.0658141206
  0
LINE
  5
21C
100
AcDbEntity
  8
0
100
AcDbLine
 62
7
  6
CONTINUOUS
 10
19.4767170086
 20
1.0658141206
 11
19.4779056764
 21
1.2714536432
  0
CIRCLE
  5
21D
100
AcDbEntity
  8
0
100
AcDbCircle
 62
7
  6
CONTINUOUS
 10
20.2068232291
 20
1.1717972817
 40
0.175742101
  0
CIRCLE
  5
21E
100
AcDbEntity
  8
0
100
AcDbCircle
 62
7
  6
CONTINUOUS
 10
20.2068232291
 20
1.1717972817
 40
0.1005522074
  0
LINE
  5
21F
100
AcDbEntity
  8
0
100
AcDbLine
 62
7
  6
CONTINUOUS
 10
20.2077290681
 20
1.3756110529
 11
20.2071171714
 21
1.2379342989
  0
LINE
  5
220
100
AcDbEntity
  8
0
100
AcDbLine
 62
7
  6
CONTINUOUS
 10
20.2077290681
 20
1.2016899681
 11
20.2074674401
 21
1.1428236749
  0
LINE
  5
221
100
AcDbEntity
  8
0
100
AcDbLine
 62
7
  6
CONTINUOUS
 10
20.208634907
 20
1.101141841
 11
20.2080230104
 21
0.963465087
  0
LINE
  5
222
100
AcDbEntity
  8
0
100
AcDbLine
 62
7
  6
CONTINUOUS
 10
20.0066328138
 20
1.1745147986
 11
20.1443095678
 21
1.1739029019
  0
LINE
  5
223
100
AcDbEntity
  8
0
100
AcDbLine
 62
7
  6
CONTINUOUS
 10
20.1832714155
 20
1.1727031207
 11
20.238153505
 21
1.172335442
  0
LINE
  5
224
100
AcDbEntity
  8
0
100
AcDbLine
 62
7
  6
CONTINUOUS
 10
20.2756669918
 20
1.1717972817
 11
20.407916871
 21
1.1712095044
  0
CIRCLE
  5
225
100
AcDbEntity
  8
0
100
AcDbCircle
 62
7
  6
CONTINUOUS
 10
20.7509457401
 20
1.1693297793
 40
0.1722024983
  0
CIRCLE
  5
226
100
AcDbEntity
  8
0
100
AcDbCircle
 62
7
  6
CONTINUOUS
 10
20.7509457401
 20
1.1693297793
 40
0.0985164967
  0
LINE
  5
227
100
AcDbEntity
  8
0
100
AcDbLine
 62
7
  6
CONTINUOUS
 10
20.7169767782
 20
1.170462078
 11
20.7825395137
 21
1.1682766535
  0
LINE
  5
228
100
AcDbEntity
  8
0
100
AcDbLine
 62
7
  6
CONTINUOUS
 10
20.8177513651
 20
1.1693297793
 11
20.947965719
 21
1.1693297793
  0
LINE
  5
229
100
AcDbEntity
  8
0
100
AcDbLine
 62
7
  6
CONTINUOUS
 10
20.6875370113
 20
1.170462078
 11
20.5573226574
 21
1.170462078
  0
LINE
  5
22A
100
AcDbEntity
  8
0
100
AcDbLine
 62
7
  6
CONTINUOUS
 10
20.7486811426
 20
1.1987695462
 11
20.7486811426
 21
1.1432869085
  0
LINE
  5
22B
100
AcDbEntity
  8
0
100
AcDbLine
 62
7
  6
CONTINUOUS
 10
20.7498134414
 20
1.1059210505
 11
20.7498134414
 21
0.9757066966
  0
LINE
  5
22C
100
AcDbEntity
  8
0
100
AcDbLine
 62
7
  6
CONTINUOUS
 10
20.7486811426
 20
1.2338708068
 11
20.7486811426
 21
1.3640851607
  0
LINE
  5
22D
100
AcDbEntity
  8
0
100
AcDbLine
 62
7
  6
CONTINUOUS
 10
21.0702539817
 20
1.2701043662
 11
21.4790138229
 21
1.3448360823
  0
LINE
  5
22E
100
AcDbEntity
  8
0
100
AcDbLine
 62
7
  6
CONTINUOUS
 10
21.4790138229
 20
1.3448360823
 11
21.4790138229
 21
0.9779712941
  0
LINE
  5
22F
100
AcDbEntity
  8
0
100
AcDbLine
 62
7
  6
CONTINUOUS
 10
21.4790138229
 20
0.9779712941
 11
21.069121683
 21
1.0617614
  0
LINE
  5
230
100
AcDbEntity
  8
0
100
AcDbLine
 62
7
  6
CONTINUOUS
 10
21.0702539817
 20
1.2701043662
 11
21.069121683
 21
1.0617614
  0
LINE
  5
231
100
AcDbEntity
  8
0
100
AcDbLine
 62
7
  6
CONTINUOUS
 10
21.4790138229
 20
1.1693297793
 11
21.3159628059
 21
1.1693297793
  0
LINE
  5
232
100
AcDbEntity
  8
0
100
AcDbLine
 62
7
  6
CONTINUOUS
 10
21.2876553377
 20
1.1693297793
 11
21.2502894796
 21
1.1693297793
  0
LINE
  5
233
100
AcDbEntity
  8
0
100
AcDbLine
 62
7
  6
CONTINUOUS
 10
21.2208497126
 20
1.1659328831
 11
21.0713862804
 21
1.1659328831
  0
LINE
  5
234
100
AcDbEntity
  8
0
100
AcDbLine
 62
7
  6
CONTINUOUS
 10
20.4796138713
 20
1.5284908897
 11
20.4766766948
 21
0.9294458646
  0
ENDBLK
  5
235
100
AcDbEntity
  8
0
  6
BYBLOCK
 62
0
100
AcDbBlockEnd
  0
BLOCK
  5
236
100
AcDbEntity
  8
0
100
AcDbBlockBegin
  2
*T1
 70
1
 10
0.0
 20
0.0
  3
*T1
  1

  0
LINE
  5
237
100
AcDbEntity
  8
0
100
AcDbLine
 62
2
  6
CONTINUOUS
 10
9.275
 20
0.0
 11
-0.0
 21
0.0
  0
LINE
  5
238
100
AcDbEntity
  8
0
100
AcDbLine
 62
2
  6
CONTINUOUS
 10
9.275
 20
0.0
 11
9.275
 21
1.25
  0
LINE
  5
239
100
AcDbEntity
  8
0
100
AcDbLine
 62
2
  6
CONTINUOUS
 10
9.275
 20
0.625
 11
-0.0
 21
0.625
  0
LINE
  5
23A
100
AcDbEntity
  8
0
100
AcDbLine
 62
2
  6
CONTINUOUS
 10
9.275
 20
1.25
 11
-0.0
 21
1.25
  0
LINE
  5
23B
100
AcDbEntity
  8
0
100
AcDbLine
 62
2
  6
CONTINUOUS
 10
6.8
 20
0.0
 11
6.8
 21
1.25
  0
LINE
  5
23C
100
AcDbEntity
  8
0
100
AcDbLine
 62
2
  6
CONTINUOUS
 10
6.4
 20
0.0
 11
6.4
 21
0.625
  0
LINE
  5
23D
100
AcDbEntity
  8
0
100
AcDbLine
 62
2
  6
CONTINUOUS
 10
5.9
 20
0.0
 11
5.9
 21
0.625
  0
LINE
  5
23E
100
AcDbEntity
  8
0
100
AcDbLine
 62
2
  6
CONTINUOUS
 10
5.2
 20
0.0
 11
5.2
 21
0.625
  0
LINE
  5
23F
100
AcDbEntity
  8
0
100
AcDbLine
 62
2
  6
CONTINUOUS
 10
4.1
 20
0.0
 11
4.1
 21
1.25
  0
LINE
  5
240
100
AcDbEntity
  8
0
100
AcDbLine
 62
2
  6
CONTINUOUS
 10
-0.0
 20
0.0
 11
-0.0
 21
1.25
  0
MTEXT
  5
241
100
AcDbEntity
  8
0
100
AcDbMText
 62
2
  6
CONTINUOUS
  7
STANDARD
 71
2
 72
1
 10
6.6
 20
0.325
 30
0.0
 11
1.0
 21
0.0
 31
0.0
 44
0.9
  1
2
 40
0.125
 41
0.2
  0
MTEXT
  5
242
100
AcDbEntity
  8
0
100
AcDbMText
 62
2
  6
CONTINUOUS
  7
STANDARD
 71
2
 72
1
 10
6.15
 20
0.325
 30
0.0
 11
1.0
 21
0.0
 31
0.0
 44
0.9
  1
C
 40
0.125
 41
0.2
  0
MTEXT
  5
243
100
AcDbEntity
  8
0
100
AcDbMText
 62
2
  6
CONTINUOUS
  7
STANDARD
 71
2
 72
1
 10
5.55
 20
0.325
 30
0.0
 11
1.0
 21
0.0
 31
0.0
 44
0.9
  1
1.000
 40
0.125
 41
1.0
  0
MTEXT
  5
244
100
AcDbEntity
  8
0
100
AcDbMText
 62
2
  6
CONTINUOUS
  7
STANDARD
 71
2
 72
1
 10
4.65
 20
0.325
 30
0.0
 11
1.0
 21
0.0
 31
0.0
 44
0.9
  1
Jul-20-23
 40
0.125
 41
1.8
  0
MTEXT
  5
245
100
AcDbEntity
  8
0
100
AcDbMText
 62
2
  6
CONTINUOUS
  7
STANDARD
 71
2
 72
1
 10
2.05
 20
0.4625
 30
0.0
 11
1.0
 21
0.0
 31
0.0
 44
0.9
  1
T-2A Line mount\P(See Technical Data for Body Features)
 40
0.125
 41
7.6
  0
MTEXT
  5
246
100
AcDbEntity
  8
0
100
AcDbMText
 62
2
  6
CONTINUOUS
  7
STANDARD
 71
1
 72
1
 10
6.45
 20
0.5625
 30
0.0
 11
1.0
 21
0.0
 31
0.0
 44
0.9
  1
SHEET
 40
0.06
 41
0.48
  0
MTEXT
  5
247
100
AcDbEntity
  8
0
100
AcDbMText
 62
2
  6
CONTINUOUS
  7
STANDARD
 71
1
 72
1
 10
5.95
 20
0.5625
 30
0.0
 11
1.0
 21
0.0
 31
0.0
 44
0.9
  1
DWG SIZE
 40
0.06
 41
0.768
  0
MTEXT
  5
248
100
AcDbEntity
  8
0
100
AcDbMText
 62
2
  6
CONTINUOUS
  7
STANDARD
 71
1
 72
1
 10
5.25
 20
0.5625
 30
0.0
 11
1.0
 21
0.0
 31
0.0
 44
0.9
  1
SCALE
 40
0.06
 41
0.48
  0
MTEXT
  5
249
100
AcDbEntity
  8
0
100
AcDbMText
 62
2
  6
CONTINUOUS
  7
STANDARD
 71
1
 72
1
 10
4.15
 20
0.5625
 30
0.0
 11
1.0
 21
0.0
 31
0.0
 44
0.9
  1
DATE
 40
0.06
 41
0.384
  0
MTEXT
  5
24A
100
AcDbEntity
  8
0
100
AcDbMText
 62
2
  6
CONTINUOUS
  7
STANDARD
 71
1
 72
1
 10
0.05
 20
0.5625
 30
0.0
 11
1.0
 21
0.0
 31
0.0
 44
0.9
  1
DESCRIPTION
 40
0.06
 41
1.056
  0
MTEXT
  5
24B
100
AcDbEntity
  8
0
100
AcDbMText
 62
2
  6
CONTINUOUS
  7
STANDARD
 71
2
 72
1
 10
5.45
 20
1.0375
 30
0.0
 11
1.0
 21
0.0
 31
0.0
 44
0.9
  1
ALL DIMENSIONS IN INCH\PVIEWS ARE THIRD ANGLE
 40
0.12
 41
4.224
  0
MTEXT
  5
24C
100
AcDbEntity
  8
0
100
AcDbMText
 62
2
  6
CONTINUOUS
  7
STANDARD
 71
2
 72
1
 10
2.05
 20
0.95
 30
0.0
 11
1.0
 21
0.0
 31
0.0
 44
0.9
  1
W3G
 40
0.125
 41
0.6
  0
MTEXT
  5
24D
100
AcDbEntity
  8
0
100
AcDbMText
 62
2
  6
CONTINUOUS
  7
STANDARD
 71
1
 72
1
 10
0.05
 20
1.1875
 30
0.0
 11
1.0
 21
0.0
 31
0.0
 44
0.9
  1
MODEL
 40
0.06
 41
0.48
  0
ENDBLK
  5
24E
100
AcDbEntity
  8
0
  6
BYBLOCK
 62
0
100
AcDbBlockEnd
  0
BLOCK
  5
24F
100
AcDbEntity
  8
0
100
AcDbBlockBegin
  2
*T2
 70
1
 10
0.0
 20
0.0
  3
*T2
  1

  0
LINE
  5
250
100
AcDbEntity
  8
0
100
AcDbLine
 62
2
  6
CONTINUOUS
 10
0.0
 20
0.0
 11
9.055
 21
0.0
  0
LINE
  5
251
100
AcDbEntity
  8
0
100
AcDbLine
 62
2
  6
CONTINUOUS
 10
0.0
 20
0.0
 11
0.0
 21
-2.844
  0
LINE
  5
252
100
AcDbEntity
  8
0
100
AcDbLine
 62
2
  6
CONTINUOUS
 10
0.0
 20
-0.344
 11
9.055
 21
-0.344
  0
LINE
  5
253
100
AcDbEntity
  8
0
100
AcDbLine
 62
2
  6
CONTINUOUS
 10
0.0
 20
-0.594
 11
9.055
 21
-0.594
  0
LINE
  5
254
100
AcDbEntity
  8
0
100
AcDbLine
 62
2
  6
CONTINUOUS
 10
0.0
 20
-0.844
 11
9.055
 21
-0.844
  0
LINE
  5
255
100
AcDbEntity
  8
0
100
AcDbLine
 62
2
  6
CONTINUOUS
 10
0.0
 20
-1.094
 11
9.055
 21
-1.094
  0
LINE
  5
256
100
AcDbEntity
  8
0
100
AcDbLine
 62
2
  6
CONTINUOUS
 10
0.0
 20
-1.344
 11
9.055
 21
-1.344
  0
LINE
  5
257
100
AcDbEntity
  8
0
100
AcDbLine
 62
2
  6
CONTINUOUS
 10
0.0
 20
-1.594
 11
9.055
 21
-1.594
  0
LINE
  5
258
100
AcDbEntity
  8
0
100
AcDbLine
 62
2
  6
CONTINUOUS
 10
0.0
 20
-1.844
 11
9.055
 21
-1.844
  0
LINE
  5
259
100
AcDbEntity
  8
0
100
AcDbLine
 62
2
  6
CONTINUOUS
 10
0.0
 20
-2.094
 11
9.055
 21
-2.094
  0
LINE
  5
25A
100
AcDbEntity
  8
0
100
AcDbLine
 62
2
  6
CONTINUOUS
 10
0.0
 20
-2.344
 11
9.055
 21
-2.344
  0
LINE
  5
25B
100
AcDbEntity
  8
0
100
AcDbLine
 62
2
  6
CONTINUOUS
 10
0.0
 20
-2.594
 11
9.055
 21
-2.594
  0
LINE
  5
25C
100
AcDbEntity
  8
0
100
AcDbLine
 62
2
  6
CONTINUOUS
 10
0.0
 20
-2.844
 11
9.055
 21
-2.844
  0
LINE
  5
25D
100
AcDbEntity
  8
0
100
AcDbLine
 62
2
  6
CONTINUOUS
 10
3.055
 20
0.0
 11
3.055
 21
-2.844
  0
LINE
  5
25E
100
AcDbEntity
  8
0
100
AcDbLine
 62
2
  6
CONTINUOUS
 10
9.055
 20
0.0
 11
9.055
 21
-2.844
  0
MTEXT
  5
25F
100
AcDbEntity
  8
0
100
AcDbMText
 62
2
  6
CONTINUOUS
  7
STANDARD
 71
2
 72
1
 10
1.5275
 20
-0.0995
 30
0.0
 11
1.0
 21
0.0
 31
0.0
 44
0.9
  1
Technical Data
 40
0.145
 41
3.248
  0
MTEXT
  5
260
100
AcDbEntity
  8
0
100
AcDbMText
 62
2
  6
CONTINUOUS
  7
STANDARD
 71
2
 72
1
 10
4.555
 20
-0.0995
 30
0.0
 11
1.0
 21
0.0
 31
0.0
 44
0.9
  1
U.S. Units
 40
0.145
 41
2.32
  0
MTEXT
  5
261
100
AcDbEntity
  8
0
100
AcDbMText
 62
2
  6
CONTINUOUS
  7
STANDARD
 71
2
 72
1
 10
7.555
 20
-0.0995
 30
0.0
 11
1.0
 21
0.0
 31
0.0
 44
0.9
  1
Metric Units
 40
0.145
 41
2.784
  0
MTEXT
  5
262
100
AcDbEntity
  8
0
100
AcDbMText
 62
2
  6
CONTINUOUS
  7
STANDARD
 71
2
 72
1
 10
1.5275
 20
-0.4065
 30
0.0
 11
1.0
 21
0.0
 31
0.0
 44
0.9
  1
Cavity
 40
0.125
 41
1.2
  0
MTEXT
  5
263
100
AcDbEntity
  8
0
100
AcDbMText
 62
2
  6
CONTINUOUS
  7
STANDARD
 71
2
 72
1
 10
6.055
 20
-0.4065
 30
0.0
 11
1.0
 21
0.0
 31
0.0
 44
0.9
  1
T-2A
 40
0.125
 41
0.8
  0
MTEXT
  5
264
100
AcDbEntity
  8
0
100
AcDbMText
 62
2
  6
CONTINUOUS
  7
STANDARD
 71
2
 72
1
 10
1.5275
 20
-0.6565
 30
0.0
 11
1.0
 21
0.0
 31
0.0
 44
0.9
  1
Body Features
 40
0.125
 41
2.6
  0
MTEXT
  5
265
100
AcDbEntity
  8
0
100
AcDbMText
 62
2
  6
CONTINUOUS
  7
STANDARD
 71
2
 72
1
 10
6.055
 20
-0.6565
 30
0.0
 11
1.0
 21
0.0
 31
0.0
 44
0.9
  1
Ninety degree with reverse flow check - reducing
 40
0.125
 41
9.6
  0
MTEXT
  5
266
100
AcDbEntity
  8
0
100
AcDbMText
 62
2
  6
CONTINUOUS
  7
STANDARD
 71
2
 72
1
 10
1.5275
 20
-0.9065
 30
0.0
 11
1.0
 21
0.0
 31
0.0
 44
0.9
  1
Body Type
 40
0.125
 41
1.8
  0
MTEXT
  5
267
100
AcDbEntity
  8
0
100
AcDbMText
 62
2
  6
CONTINUOUS
  7
STANDARD
 71
2
 72
1
 10
6.055
 20
-0.9065
 30
0.0
 11
1.0
 21
0.0
 31
0.0
 44
0.9
  1
Line mount
 40
0.125
 41
2.0
  0
MTEXT
  5
268
100
AcDbEntity
  8
0
100
AcDbMText
 62
2
  6
CONTINUOUS
  7
STANDARD
 71
2
 72
1
 10
1.5275
 20
-1.1565
 30
0.0
 11
1.0
 21
0.0
 31
0.0
 44
0.9
  1
Interface
 40
0.125
 41
1.8
  0
MTEXT
  5
269
100
AcDbEntity
  8
0
100
AcDbMText
 62
2
  6
CONTINUOUS
  7
STANDARD
 71
2
 72
1
 10
6.055
 20
-1.1565
 30
0.0
 11
1.0
 21
0.0
 31
0.0
 44
0.9
  1
None
 40
0.125
 41
0.8
  0
MTEXT
  5
26A
100
AcDbEntity
  8
0
100
AcDbMText
 62
2
  6
CONTINUOUS
  7
STANDARD
 71
2
 72
1
 10
1.5275
 20
-1.4065
 30
0.0
 11
1.0
 21
0.0
 31
0.0
 44
0.9
  1
Open Cavity Quantity
 40
0.125
 41
4.0
  0
MTEXT
  5
26B
100
AcDbEntity
  8
0
100
AcDbMText
 62
2
  6
CONTINUOUS
  7
STANDARD
 71
2
 72
1
 10
6.055
 20
-1.4065
 30
0.0
 11
1.0
 21
0.0
 31
0.0
 44
0.9
  1
1
 40
0.125
 41
0.2
  0
MTEXT
  5
26C
100
AcDbEntity
  8
0
100
AcDbMText
 62
2
  6
CONTINUOUS
  7
STANDARD
 71
2
 72
1
 10
1.5275
 20
-1.6565
 30
0.0
 11
1.0
 21
0.0
 31
0.0
 44
0.9
  1
Weight
 40
0.125
 41
1.2
  0
MTEXT
  5
26D
100
AcDbEntity
  8
0
100
AcDbMText
 62
2
  6
CONTINUOUS
  7
STANDARD
 71
2
 72
1
 10
4.555
 20
-1.6565
 30
0.0
 11
1.0
 21
0.0
 31
0.0
 44
0.9
  1
1.911 lb.
 40
0.125
 41
1.8
  0
MTEXT
  5
26E
100
AcDbEntity
  8
0
100
AcDbMText
 62
2
  6
CONTINUOUS
  7
STANDARD
 71
2
 72
1
 10
7.555
 20
-1.6565
 30
0.0
 11
1.0
 21
0.0
 31
0.0
 44
0.9
  1
0,867 kg.
 40
0.125
 41
1.8
  0
MTEXT
  5
26F
100
AcDbEntity
  8
0
100
AcDbMText
 62
2
  6
CONTINUOUS
  7
STANDARD
 71
2
 72
1
 10
1.5275
 20
-1.9065
 30
0.0
 11
1.0
 21
0.0
 31
0.0
 44
0.9
  1
Mounting Hole Diameter
 40
0.125
 41
4.4
  0
MTEXT
  5
270
100
AcDbEntity
  8
0
100
AcDbMText
 62
2
  6
CONTINUOUS
  7
STANDARD
 71
2
 72
1
 10
4.555
 20
-1.9065
 30
0.0
 11
1.0
 21
0.0
 31
0.0
 44
0.9
  1
.42 in.
 40
0.125
 41
1.4
  0
MTEXT
  5
271
100
AcDbEntity
  8
0
100
AcDbMText
 62
2
  6
CONTINUOUS
  7
STANDARD
 71
2
 72
1
 10
7.555
 20
-1.9065
 30
0.0
 11
1.0
 21
0.0
 31
0.0
 44
0.9
  1
10,7 mm
 40
0.125
 41
1.4
  0
MTEXT
  5
272
100
AcDbEntity
  8
0
100
AcDbMText
 62
2
  6
CONTINUOUS
  7
STANDARD
 71
2
 72
1
 10
1.5275
 20
-2.1565
 30
0.0
 11
1.0
 21
0.0
 31
0.0
 44
0.9
  1
Mounting Hole Depth
 40
0.125
 41
3.8
  0
MTEXT
  5
273
100
AcDbEntity
  8
0
100
AcDbMText
 62
2
  6
CONTINUOUS
  7
STANDARD
 71
2
 72
1
 10
6.055
 20
-2.1565
 30
0.0
 11
1.0
 21
0.0
 31
0.0
 44
0.9
  1
Through
 40
0.125
 41
1.4
  0
MTEXT
  5
274
100
AcDbEntity
  8
0
100
AcDbMText
 62
2
  6
CONTINUOUS
  7
STANDARD
 71
2
 72
1
 10
1.5275
 20
-2.4065
 30
0.0
 11
1.0
 21
0.0
 31
0.0
 44
0.9
  1
Mounting Hole Quantity
 40
0.125
 41
4.4
  0
MTEXT
  5
275
100
AcDbEntity
  8
0
100
AcDbMText
 62
2
  6
CONTINUOUS
  7
STANDARD
 71
2
 72
1
 10
6.055
 20
-2.4065
 30
0.0
 11
1.0
 21
0.0
 31
0.0
 44
0.9
  1
2
 40
0.125
 41
0.2
  0
MTEXT
  5
276
100
AcDbEntity
  8
0
100
AcDbMText
 62
2
  6
CONTINUOUS
  7
STANDARD
 71
2
 72
1
 10
1.5275
 20
-2.6565
 30
0.0
 11
1.0
 21
0.0
 31
0.0
 44
0.9
  1
Includes integral cartridge(s)
 40
0.125
 41
6.0
  0
MTEXT
  5
277
100
AcDbEntity
  8
0
100
AcDbMText
 62
2
  6
CONTINUOUS
  7
STANDARD
 71
2
 72
1
 10
6.055
 20
-2.6565
 30
0.0
 11
1.0
 21
0.0
 31
0.0
 44
0.9
  1
Yes (see Included Components)
 40
0.125
 41
5.8
  0
ENDBLK
  5
278
100
AcDbEntity
  8
0
  6
BYBLOCK
 62
0
100
AcDbBlockEnd
  0
BLOCK
  5
279
100
AcDbEntity
  8
0
100
AcDbBlockBegin
  2
*T3
 70
1
 10
0.0
 20
0.0
  3
*T3
  1

  0
LINE
  5
27A
100
AcDbEntity
  8
0
100
AcDbLine
 62
2
  6
CONTINUOUS
 10
0.0
 20
0.0
 11
4.6
 21
0.0
  0
LINE
  5
27B
100
AcDbEntity
  8
0
100
AcDbLine
 62
2
  6
CONTINUOUS
 10
0.0
 20
0.0
 11
0.0
 21
-1.18775
  0
LINE
  5
27C
100
AcDbEntity
  8
0
100
AcDbLine
 62
2
  6
CONTINUOUS
 10
0.0
 20
-0.34375
 11
4.6
 21
-0.34375
  0
LINE
  5
27D
100
AcDbEntity
  8
0
100
AcDbLine
 62
2
  6
CONTINUOUS
 10
0.0
 20
-0.68775
 11
4.6
 21
-0.68775
  0
LINE
  5
27E
100
AcDbEntity
  8
0
100
AcDbLine
 62
2
  6
CONTINUOUS
 10
0.0
 20
-0.93775
 11
4.6
 21
-0.93775
  0
LINE
  5
27F
100
AcDbEntity
  8
0
100
AcDbLine
 62
2
  6
CONTINUOUS
 10
0.0
 20
-1.18775
 11
4.6
 21
-1.18775
  0
LINE
  5
280
100
AcDbEntity
  8
0
100
AcDbLine
 62
2
  6
CONTINUOUS
 10
1.3
 20
-0.34375
 11
1.3
 21
-1.18775
  0
LINE
  5
281
100
AcDbEntity
  8
0
100
AcDbLine
 62
2
  6
CONTINUOUS
 10
3.3
 20
-0.34375
 11
3.3
 21
-1.18775
  0
LINE
  5
282
100
AcDbEntity
  8
0
100
AcDbLine
 62
2
  6
CONTINUOUS
 10
4.6
 20
0.0
 11
4.6
 21
-1.18775
  0
MTEXT
  5
283
100
AcDbEntity
  8
0
100
AcDbMText
 62
2
  6
CONTINUOUS
  7
STANDARD
 71
2
 72
1
 10
2.3
 20
-0.099375
 30
0.0
 11
1.0
 21
0.0
 31
0.0
 44
0.9
  1
Port Headings
 40
0.145
 41
3.016
  0
MTEXT
  5
284
100
AcDbEntity
  8
0
100
AcDbMText
 62
2
  6
CONTINUOUS
  7
STANDARD
 71
2
 72
1
 10
0.65
 20
-0.44325
 30
0.0
 11
1.0
 21
0.0
 31
0.0
 44
0.9
  1
Product
 40
0.145
 41
1.624
  0
MTEXT
  5
285
100
AcDbEntity
  8
0
100
AcDbMText
 62
2
  6
CONTINUOUS
  7
STANDARD
 71
2
 72
1
 10
2.3
 20
-0.44325
 30
0.0
 11
1.0
 21
0.0
 31
0.0
 44
0.9
  1
Port
 40
0.145
 41
0.928
  0
MTEXT
  5
286
100
AcDbEntity
  8
0
100
AcDbMText
 62
2
  6
CONTINUOUS
  7
STANDARD
 71
2
 72
1
 10
3.95
 20
-0.44325
 30
0.0
 11
1.0
 21
0.0
 31
0.0
 44
0.9
  1
Size
 40
0.145
 41
0.928
  0
MTEXT
  5
287
100
AcDbEntity
  8
0
100
AcDbMText
 62
2
  6
CONTINUOUS
  7
STANDARD
 71
2
 72
1
 10
0.65
 20
-0.75025
 30
0.0
 11
1.0
 21
0.0
 31
0.0
 44
0.9
  1
W3G
 40
0.125
 41
0.6
  0
MTEXT
  5
288
100
AcDbEntity
  8
0
100
AcDbMText
 62
2
  6
CONTINUOUS
  7
STANDARD
 71
2
 72
1
 10
2.3
 20
-0.75025
 30
0.0
 11
1.0
 21
0.0
 31
0.0
 44
0.9
  1
Ports 1, 2, 3
 40
0.125
 41
2.6
  0
MTEXT
  5
289
100
AcDbEntity
  8
0
100
AcDbMText
 62
2
  6
CONTINUOUS
  7
STANDARD
 71
2
 72
1
 10
3.95
 20
-0.75025
 30
0.0
 11
1.0
 21
0.0
 31
0.0
 44
0.9
  1
SAE 10
 40
0.125
 41
1.2
  0
MTEXT
  5
28A
100
AcDbEntity
  8
0
100
AcDbMText
 62
2
  6
CONTINUOUS
  7
STANDARD
 71
2
 72
1
 10
0.65
 20
-1.00025
 30
0.0
 11
1.0
 21
0.0
 31
0.0
 44
0.9
  1
W3G
 40
0.125
 41
0.6
  0
MTEXT
  5
28B
100
AcDbEntity
  8
0
100
AcDbMText
 62
2
  6
CONTINUOUS
  7
STANDARD
 71
2
 72
1
 10
2.3
 20
-1.00025
 30
0.0
 11
1.0
 21
0.0
 31
0.0
 44
0.9
  1
Gage Port
 40
0.125
 41
1.8
  0
MTEXT
  5
28C
100
AcDbEntity
  8
0
100
AcDbMText
 62
2
  6
CONTINUOUS
  7
STANDARD
 71
2
 72
1
 10
3.95
 20
-1.00025
 30
0.0
 11
1.0
 21
0.0
 31
0.0
 44
0.9
  1
SAE 4
 40
0.125
 41
1.0
  0
ENDBLK
  5
28D
100
AcDbEntity
  8
0
  6
BYBLOCK
 62
0
100
AcDbBlockEnd
  0
ENDSEC
  0
SECTION
  2
ENTITIES
  0
IMAGE
  5
28E
100
AcDbEntity
  8
0
100
AcDbRasterImage
 62
7
  6
CONTINUOUS
 10
19.2297077316
 20
0.3094318264
 30
0.0
 11
0.0066666667
 21
0.0
 31
0.0
 12
0.0
 22
0.0066666667
 32
0.0
 13
369.0
 23
92.0
340
       392
 70
9
280
0
281
50
282
50
283
0
360
       38C
 71
1
 91
2
 14
-0.5
 24
-0.5
 14
368.5
 24
91.5
  0
INSERT
  5
28F
100
AcDbEntity
  8
0
100
AcDbBlockReference
 62
2
  6
CONTINUOUS
  2
SUN_FIRST_THIRD_ANGLE_BL0
 10
20.4816717061
 20
1.2289683772
  0
ACAD_TABLE
  5
290
100
AcDbEntity
  8
0
 62
2
  6
CONTINUOUS
100
AcDbBlockReference
  2
*T1
 10
12.42375
 20
0.30125
 30
0.0
100
AcDbTable
342
       394
343
20F
 11
1.0
 21
0.0
 31
0.0
 90
6
 91
4
 92
6
 93
20
 94
0
 95
0
 96
0
 70
1
 41
0.0
141
0.525
141
0.1
141
0.525
141
0.1
142
4.1
142
1.1
142
0.7
142
0.5
142
0.4
142
2.475
171
1
172
0
173
0
174
0
175
1
176
1
 91
33
178
0
145
0.0
301
CELL_VALUE
 90
4
  1
T-2A Line mount\P(See Technical Data for Body Features)
304
ACVALUE_END
170
2
140
0.125
171
1
172
0
173
0
174
0
175
1
176
1
 91
33
178
0
145
0.0
301
CELL_VALUE
 90
4
  1
Jul-20-23
304
ACVALUE_END
170
5
140
0.125
171
1
172
0
173
0
174
0
175
1
176
1
 91
33
178
0
145
0.0
301
CELL_VALUE
 90
4
  1
1.000
304
ACVALUE_END
170
5
140
0.125
171
1
172
0
173
0
174
0
175
1
176
1
 91
33
178
0
145
0.0
301
CELL_VALUE
 90
4
  1
C
304
ACVALUE_END
170
5
140
0.125
171
1
172
0
173
0
174
0
175
1
176
1
 91
33
178
0
145
0.0
301
CELL_VALUE
 90
4
  1
2
304
ACVALUE_END
170
5
140
0.125
171
1
172
0
173
0
174
0
175
1
176
1
 91
33
178
0
145
0.0
301
CELL_VALUE
 90
4
  1
 
304
ACVALUE_END
170
1
140
0.125
171
1
172
0
173
0
174
0
175
1
176
1
 91
33
178
0
145
0.0
301
CELL_VALUE
 90
4
  1
DESCRIPTION
304
ACVALUE_END
170
1
140
0.06
171
1
172
0
173
0
174
0
175
1
176
1
 91
33
178
0
145
0.0
301
CELL_VALUE
 90
4
  1
DATE
304
ACVALUE_END
170
1
140
0.06
171
1
172
0
173
0
174
0
175
1
176
1
 91
33
178
0
145
0.0
301
CELL_VALUE
 90
4
  1
SCALE
304
ACVALUE_END
170
1
140
0.06
171
1
172
0
173
0
174
0
175
1
176
1
 91
33
178
0
145
0.0
301
CELL_VALUE
 90
4
  1
DWG SIZE
304
ACVALUE_END
170
1
140
0.06
171
1
172
0
173
0
174
0
175
1
176
1
 91
33
178
0
145
0.0
301
CELL_VALUE
 90
4
  1
SHEET
304
ACVALUE_END
170
1
140
0.06
171
1
172
0
173
0
174
0
175
1
176
1
 91
33
178
0
145
0.0
301
CELL_VALUE
 90
4
  1
 
304
ACVALUE_END
170
1
140
0.125
171
1
172
0
173
0
174
0
175
1
176
1
 91
33
178
0
145
0.0
301
CELL_VALUE
 90
4
  1
W3G
304
ACVALUE_END
170
5
140
0.125
171
1
172
0
173
0
174
0
175
4
176
1
 91
33
178
0
145
0.0
301
CELL_VALUE
 90
4
  1
ALL DIMENSIONS IN INCH\PVIEWS ARE THIRD ANGLE
304
ACVALUE_END
170
5
140
0.12
171
1
172
0
173
1
174
0
175
1
176
1
 91
1
178
0
145
0.0
170
1
171
1
172
0
173
1
174
0
175
1
176
1
 91
1
178
0
145
0.0
170
1
171
1
172
0
173
1
174
0
175
1
176
1
 91
1
178
0
145
0.0
170
5
171
1
172
0
173
0
174
0
175
1
176
1
 91
33
178
0
145
0.0
301
CELL_VALUE
 90
4
  1
 
304
ACVALUE_END
170
1
140
0.125
171
1
172
0
173
0
174
0
175
1
176
1
 91
33
178
0
145
0.0
301
CELL_VALUE
 90
4
  1
MODEL
304
ACVALUE_END
170
1
140
0.06
171
1
172
0
173
0
174
0
175
1
176
1
 91
33
178
0
145
0.0
301
CELL_VALUE
 90
4
  1
 
304
ACVALUE_END
170
1
140
0.125
171
1
172
0
173
0
174
0
175
1
176
1
 91
33
178
0
145
0.0
301
CELL_VALUE
 90
4
  1
 
304
ACVALUE_END
170
1
140
0.125
171
1
172
0
173
0
174
0
175
1
176
1
 91
33
178
0
145
0.0
301
CELL_VALUE
 90
4
  1
 
304
ACVALUE_END
170
1
140
0.125
171
1
172
0
173
0
174
0
175
1
176
1
 91
33
178
0
145
0.0
301
CELL_VALUE
 90
4
  1
 
304
ACVALUE_END
170
1
140
0.125
171
1
172
0
173
0
174
0
175
1
176
1
 91
33
178
0
145
0.0
301
CELL_VALUE
 90
4
  1
 
304
ACVALUE_END
170
1
140
0.125
  0
ACAD_TABLE
  5
291
100
AcDbEntity
  8
0
 62
2
  6
CONTINUOUS
100
AcDbBlockReference
  2
*T2
 10
12.4237499994
 20
16.47875
 30
0.0
100
AcDbTable
342
       393
343
210
 11
1.0
 21
0.0
 31
0.0
 90
22
 91
11
 92
3
 93
16
 94
0
 95
0
 96
0
 41
0.028
141
0.344
141
0.25
141
0.25
141
0.25
141
0.25
141
0.25
141
0.25
141
0.25
141
0.25
141
0.25
141
0.25
142
3.055
142
3.0
142
3.0
171
1
172
0
173
0
174
0
175
1
176
1
 91
33
178
0
145
0.0
301
CELL_VALUE
 90
4
  1
Technical Data
304
ACVALUE_END
170
5
140
0.145
171
1
172
0
173
0
174
0
175
1
176
1
 91
33
178
0
145
0.0
301
CELL_VALUE
 90
4
  1
U.S. Units
304
ACVALUE_END
170
5
140
0.145
171
1
172
0
173
0
174
0
175
1
176
1
 91
33
178
0
145
0.0
301
CELL_VALUE
 90
4
  1
Metric Units
304
ACVALUE_END
170
5
140
0.145
171
1
172
0
173
0
174
0
175
1
176
1
 91
33
178
0
145
0.0
301
CELL_VALUE
 90
4
  1
Cavity
304
ACVALUE_END
170
5
140
0.125
171
1
172
0
173
0
174
0
175
2
176
1
 91
33
178
0
145
0.0
301
CELL_VALUE
 90
4
  1
T-2A
304
ACVALUE_END
170
5
140
0.125
171
1
172
0
173
1
174
0
175
1
176
1
 91
1
178
0
145
0.0
170
1
171
1
172
0
173
0
174
0
175
1
176
1
 91
33
178
0
145
0.0
301
CELL_VALUE
 90
4
  1
Body Features
304
ACVALUE_END
170
5
140
0.125
171
1
172
0
173
0
174
0
175
2
176
1
 91
33
178
0
145
0.0
301
CELL_VALUE
 90
4
  1
Ninety degree with reverse flow check - reducing
304
ACVALUE_END
170
5
140
0.125
171
1
172
0
173
1
174
0
175
1
176
1
 91
1
178
0
145
0.0
170
1
171
1
172
0
173
0
174
0
175
1
176
1
 91
33
178
0
145
0.0
301
CELL_VALUE
 90
4
  1
Body Type
304
ACVALUE_END
170
5
140
0.125
171
1
172
0
173
0
174
0
175
2
176
1
 91
33
178
0
145
0.0
301
CELL_VALUE
 90
4
  1
Line mount
304
ACVALUE_END
170
5
140
0.125
171
1
172
0
173
1
174
0
175
1
176
1
 91
1
178
0
145
0.0
170
1
171
1
172
0
173
0
174
0
175
1
176
1
 91
33
178
0
145
0.0
301
CELL_VALUE
 90
4
  1
Interface
304
ACVALUE_END
170
5
140
0.125
171
1
172
0
173
0
174
0
175
2
176
1
 91
33
178
0
145
0.0
301
CELL_VALUE
 90
4
  1
None
304
ACVALUE_END
170
5
140
0.125
171
1
172
0
173
1
174
0
175
1
176
1
 91
1
178
0
145
0.0
170
1
171
1
172
0
173
0
174
0
175
1
176
1
 91
33
178
0
145
0.0
301
CELL_VALUE
 90
4
  1
Open Cavity Quantity
304
ACVALUE_END
170
5
140
0.125
171
1
172
0
173
0
174
0
175
2
176
1
 91
33
178
0
145
0.0
301
CELL_VALUE
 90
4
  1
1
304
ACVALUE_END
170
5
140
0.125
171
1
172
0
173
1
174
0
175
1
176
1
 91
1
178
0
145
0.0
170
1
171
1
172
0
173
0
174
0
175
1
176
1
 91
33
178
0
145
0.0
301
CELL_VALUE
 90
4
  1
Weight
304
ACVALUE_END
170
5
140
0.125
171
1
172
0
173
0
174
0
175
1
176
1
 91
33
178
0
145
0.0
301
CELL_VALUE
 90
4
  1
1.911 lb.
304
ACVALUE_END
170
5
140
0.125
171
1
172
0
173
0
174
0
175
1
176
1
 91
33
178
0
145
0.0
301
CELL_VALUE
 90
4
  1
0,867 kg.
304
ACVALUE_END
170
5
140
0.125
171
1
172
0
173
0
174
0
175
1
176
1
 91
33
178
0
145
0.0
301
CELL_VALUE
 90
4
  1
Mounting Hole Diameter
304
ACVALUE_END
170
5
140
0.125
171
1
172
0
173
0
174
0
175
1
176
1
 91
33
178
0
145
0.0
301
CELL_VALUE
 90
4
  1
.42 in.
304
ACVALUE_END
170
5
140
0.125
171
1
172
0
173
0
174
0
175
1
176
1
 91
33
178
0
145
0.0
301
CELL_VALUE
 90
4
  1
10,7 mm
304
ACVALUE_END
170
5
140
0.125
171
1
172
0
173
0
174
0
175
1
176
1
 91
33
178
0
145
0.0
301
CELL_VALUE
 90
4
  1
Mounting Hole Depth
304
ACVALUE_END
170
5
140
0.125
171
1
172
0
173
0
174
0
175
2
176
1
 91
33
178
0
145
0.0
301
CELL_VALUE
 90
4
  1
Through
304
ACVALUE_END
170
5
140
0.125
171
1
172
0
173
1
174
0
175
1
176
1
 91
1
178
0
145
0.0
170
1
171
1
172
0
173
0
174
0
175
1
176
1
 91
33
178
0
145
0.0
301
CELL_VALUE
 90
4
  1
Mounting Hole Quantity
304
ACVALUE_END
170
5
140
0.125
171
1
172
0
173
0
174
0
175
2
176
1
 91
33
178
0
145
0.0
301
CELL_VALUE
 90
4
  1
2
304
ACVALUE_END
170
5
140
0.125
171
1
172
0
173
1
174
0
175
1
176
1
 91
1
178
0
145
0.0
170
1
171
1
172
0
173
0
174
0
175
1
176
1
 91
33
178
0
145
0.0
301
CELL_VALUE
 90
4
  1
Includes integral cartridge(s)
304
ACVALUE_END
170
5
140
0.125
171
1
172
0
173
0
174
0
175
2
176
1
 91
33
178
0
145
0.0
301
CELL_VALUE
 90
4
  1
Yes (see Included Components)
304
ACVALUE_END
170
5
140
0.125
171
1
172
0
173
1
174
0
175
1
176
1
 91
1
178
0
145
0.0
170
1
  0
ACAD_TABLE
  5
292
100
AcDbEntity
  8
0
 62
2
  6
CONTINUOUS
100
AcDbBlockReference
  2
*T3
 10
0.52125
 20
1.709
 30
0.0
100
AcDbTable
342
       393
343
211
 11
1.0
 21
0.0
 31
0.0
 90
22
 91
4
 92
3
 93
16
 94
0
 95
0
 96
0
 41
0.05
141
0.34375
141
0.344
141
0.25
141
0.25
142
1.3
142
2.0
142
1.3
171
1
172
0
173
0
174
0
175
3
176
1
 91
33
178
0
145
0.0
301
CELL_VALUE
 90
4
  1
Port Headings
304
ACVALUE_END
170
5
140
0.145
171
1
172
0
173
1
174
0
175
1
176
1
 91
1
178
0
145
0.0
170
1
171
1
172
0
173
1
174
0
175
1
176
1
 91
1
178
0
145
0.0
170
1
171
1
172
0
173
0
174
0
175
1
176
1
 91
33
178
0
145
0.0
301
CELL_VALUE
 90
4
  1
Product
304
ACVALUE_END
170
5
140
0.145
171
1
172
0
173
0
174
0
175
1
176
1
 91
33
178
0
145
0.0
301
CELL_VALUE
 90
4
  1
Port
304
ACVALUE_END
170
5
140
0.145
171
1
172
0
173
0
174
0
175
1
176
1
 91
33
178
0
145
0.0
301
CELL_VALUE
 90
4
  1
Size
304
ACVALUE_END
170
5
140
0.145
171
1
172
0
173
0
174
0
175
1
176
1
 91
33
178
0
145
0.0
301
CELL_VALUE
 90
4
  1
W3G
304
ACVALUE_END
170
5
140
0.125
171
1
172
0
173
0
174
0
175
1
176
1
 91
33
178
0
145
0.0
301
CELL_VALUE
 90
4
  1
Ports 1, 2, 3
304
ACVALUE_END
170
5
140
0.125
171
1
172
0
173
0
174
0
175
1
176
1
 91
33
178
0
145
0.0
301
CELL_VALUE
 90
4
  1
SAE 10
304
ACVALUE_END
170
5
140
0.125
171
1
172
0
173
0
174
0
175
1
176
1
 91
33
178
0
145
0.0
301
CELL_VALUE
 90
4
  1
W3G
304
ACVALUE_END
170
5
140
0.125
171
1
172
0
173
0
174
0
175
1
176
1
 91
33
178
0
145
0.0
301
CELL_VALUE
 90
4
  1
Gage Port
304
ACVALUE_END
170
5
140
0.125
171
1
172
0
173
0
174
0
175
1
176
1
 91
33
178
0
145
0.0
301
CELL_VALUE
 90
4
  1
SAE 4
304
ACVALUE_END
170
5
140
0.125
  0
MTEXT
  5
293
100
AcDbEntity
  8
0
100
AcDbMText
 62
2
  6
CONTINUOUS
  7
STANDARD
 71
1
 72
1
 10
0.52125
 20
5.75995
 30
0.0
 11
1.0
 21
0.0
 31
0.0
 44
0.6
  3
Notes\P \P1. Important: Carefully consider\P   the maximum system pressure. The\P   pressure rating of the manifold is\P   dependent on the manifold material,\P   with the port type/size a secondary\P   consideration. Manifolds\P   constructed of alu
  3
minum are not\P   rated for pressures higher than\P   3000 psi (210 bar), regardless of\P   the port type/size specified.\P2. This drawing is for reference\P   only. It is generated by an\P   automated process and does not fall\P   under Sun's docume
  1
nt control\P   process.
 40
0.1
 41
3.04
  0
LINE
  5
294
100
AcDbEntity
  8
0
100
AcDbLine
 62
7
  6
CONTINUOUS
 10
0.30125
 20
0.30125
 11
0.30125
 21
16.69875
  0
LINE
  5
295
100
AcDbEntity
  8
0
100
AcDbLine
 62
7
  6
CONTINUOUS
 10
0.30125
 20
0.30125
 11
21.69875
 21
0.30125
  0
LINE
  5
296
100
AcDbEntity
  8
0
100
AcDbLine
 62
7
  6
CONTINUOUS
 10
0.30125
 20
16.69875
 11
21.69875
 21
16.69875
  0
LINE
  5
297
100
AcDbEntity
  8
0
100
AcDbLine
 62
7
  6
CONTINUOUS
 10
21.69875
 20
0.30125
 11
21.69875
 21
16.69875
  0
LINE
  5
298
100
AcDbEntity
  8
0
100
AcDbLine
 62
7
  6
CONTINUOUS
 10
9.4433734597
 20
10.9566713866
 11
9.2838815019
 21
10.8026139764
  0
LINE
  5
299
100
AcDbEntity
  8
0
100
AcDbLine
 62
7
  6
CONTINUOUS
 10
9.2146371703
 20
10.7357290842
 11
9.0551452125
 21
10.5816716739
  0
LINE
  5
29A
100
AcDbEntity
  8
0
100
AcDbLine
 62
7
  6
CONTINUOUS
 10
9.3147911309
 20
10.8004703863
 11
9.2455467993
 21
10.7335854941
  0
LINE
  5
29B
100
AcDbEntity
  8
0
100
AcDbLine
 62
4
  6
CONTINUOUS
 10
9.3545822351
 20
10.0441352962
 11
9.3473377911
 21
10.0349784438
  0
LINE
  5
29C
100
AcDbEntity
  8
0
100
AcDbLine
 62
4
  6
CONTINUOUS
 10
9.361826679
 20
9.9856773406
 11
9.3473377911
 21
9.9673636314
  0
LINE
  5
29D
100
AcDbEntity
  8
0
100
AcDbLine
 62
4
  6
CONTINUOUS
 10
9.3038711273
 20
10.066970643
 11
9.3183600153
 21
10.0756250916
  0
LINE
  5
29E
100
AcDbEntity
  8
0
100
AcDbLine
 62
4
  6
CONTINUOUS
 10
9.3473377911
 20
10.0349784438
 11
9.3328489032
 21
10.0263239884
  0
LINE
  5
29F
100
AcDbEntity
  8
0
100
AcDbLine
 62
4
  6
CONTINUOUS
 10
9.3473377911
 20
9.9673636314
 11
9.3328489032
 21
9.9587091803
  0
LINE
  5
2A0
100
AcDbEntity
  8
0
100
AcDbLine
 62
7
  6
CONTINUOUS
 10
9.0551452125
 20
6.7179681398
 11
9.0551452125
 21
10.5816716739
  0
LINE
  5
2A1
100
AcDbEntity
  8
0
100
AcDbLine
 62
7
  6
CONTINUOUS
 10
9.0551452125
 20
6.7179681398
 11
12.5566265403
 21
6.475139585
  0
LINE
  5
2A2
100
AcDbEntity
  8
0
100
AcDbLine
 62
7
  6
CONTINUOUS
 10
11.2739877806
 20
6.1296039888
 11
11.29320567
 21
6.1201107194
  0
LINE
  5
2A3
100
AcDbEntity
  8
0
100
AcDbLine
 62
4
  6
CONTINUOUS
 10
9.3545822351
 20
10.0537945525
 11
9.3545822351
 21
10.0441352962
  0
LINE
  5
2A4
100
AcDbEntity
  8
0
100
AcDbLine
 62
4
  6
CONTINUOUS
 10
9.3545822351
 20
7.8698361143
 11
9.3545822351
 21
7.7539250108
  0
LINE
  5
2A5
100
AcDbEntity
  8
0
100
AcDbLine
 62
4
  6
CONTINUOUS
 10
9.361826679
 20
9.9953366004
 11
9.361826679
 21
9.9856773406
  0
LINE
  5
2A6
100
AcDbEntity
  8
0
100
AcDbLine
 62
4
  6
CONTINUOUS
 10
10.2567569766
 20
9.2281470782
 11
10.2567569766
 21
9.1701915252
  0
LINE
  5
2A7
100
AcDbEntity
  8
0
100
AcDbLine
 62
4
  6
CONTINUOUS
 10
10.3147125296
 20
9.1661722939
 11
10.3147125296
 21
9.1082167409
  0
LINE
  5
2A8
100
AcDbEntity
  8
0
100
AcDbLine
 62
4
  6
CONTINUOUS
 10
10.3436903061
 20
9.1062071253
 11
10.3436903061
 21
9.2221182313
  0
LINE
  5
2A9
100
AcDbEntity
  8
0
100
AcDbLine
 62
4
  6
CONTINUOUS
 10
10.3494858945
 20
8.1949371254
 11
10.3494858945
 21
8.1563000915
  0
LINE
  5
2AA
100
AcDbEntity
  8
0
100
AcDbLine
 62
4
  6
CONTINUOUS
 10
10.3910206802
 20
8.511778112
 11
10.3910206802
 21
8.627689218
  0
LINE
  5
2AB
100
AcDbEntity
  8
0
100
AcDbLine
 62
4
  6
CONTINUOUS
 10
10.2770414548
 20
8.1999611644
 11
10.2842858988
 21
8.2284365363
  0
LINE
  5
2AC
100
AcDbEntity
  8
0
100
AcDbLine
 62
4
  6
CONTINUOUS
 10
10.3132636746
 20
8.1394935932
 11
10.2987747867
 21
8.1501576599
  0
LINE
  5
2AD
100
AcDbEntity
  8
0
100
AcDbLine
 62
4
  6
CONTINUOUS
 10
10.2987747867
 20
8.1501576599
 11
10.2842858988
 21
8.1704809846
  0
LINE
  5
2AE
100
AcDbEntity
  8
0
100
AcDbLine
 62
4
  6
CONTINUOUS
 10
10.3422414505
 20
8.2437358247
 11
10.3494858945
 21
8.2335741576
  0
LINE
  5
2AF
100
AcDbEntity
  8
0
100
AcDbLine
 62
4
  6
CONTINUOUS
 10
10.2842858988
 20
8.1704809846
 11
10.2770414548
 21
8.1999611644
  0
LINE
  5
2B0
100
AcDbEntity
  8
0
100
AcDbLine
 62
4
  6
CONTINUOUS
 10
10.4016458591
 20
9.2180990001
 11
10.4016458591
 21
9.102187894
  0
LINE
  5
2B1
100
AcDbEntity
  8
0
100
AcDbLine
 62
4
  6
CONTINUOUS
 10
10.4306236356
 20
9.2160893844
 11
10.4306236356
 21
9.1001782784
  0
LINE
  5
2B2
100
AcDbEntity
  8
0
100
AcDbLine
 62
4
  6
CONTINUOUS
 10
10.4489762263
 20
8.6071112588
 11
10.4489762263
 21
8.5243176114
  0
LINE
  5
2B3
100
AcDbEntity
  8
0
100
AcDbLine
 62
4
  6
CONTINUOUS
 10
10.4885791886
 20
9.2120701532
 11
10.4885791886
 21
9.0961590472
  0
LINE
  5
2B4
100
AcDbEntity
  8
0
100
AcDbLine
 62
4
  6
CONTINUOUS
 10
10.6044902947
 20
9.0881205846
 11
10.6044902947
 21
9.2040316907
  0
LINE
  5
2B5
100
AcDbEntity
  8
0
100
AcDbLine
 62
4
  6
CONTINUOUS
 10
10.495892627
 20
8.5045052178
 11
10.5290100839
 21
8.6181196204
  0
LINE
  5
2B6
100
AcDbEntity
  8
0
100
AcDbLine
 62
4
  6
CONTINUOUS
 10
10.2842858988
 20
8.2284365363
 11
10.2987747867
 21
8.2467502481
  0
LINE
  5
2B7
100
AcDbEntity
  8
0
100
AcDbLine
 62
4
  6
CONTINUOUS
 10
10.4489762263
 20
8.5243176114
 11
10.4324174978
 21
8.5089072329
  0
LINE
  5
2B8
100
AcDbEntity
  8
0
100
AcDbLine
 62
4
  6
CONTINUOUS
 10
10.3277525626
 20
8.1384887854
 11
10.3132636746
 21
8.1394935932
  0
LINE
  5
2B9
100
AcDbEntity
  8
0
100
AcDbLine
 62
4
  6
CONTINUOUS
 10
10.3277525626
 20
8.2543998888
 11
10.3422414505
 21
8.2437358247
  0
LINE
  5
2BA
100
AcDbEntity
  8
0
100
AcDbLine
 62
4
  6
CONTINUOUS
 10
9.3038711273
 20
9.9703780548
 11
9.2966266834
 21
9.9805397176
  0
LINE
  5
2BB
100
AcDbEntity
  8
0
100
AcDbLine
 62
4
  6
CONTINUOUS
 10
9.3473377911
 20
10.0156599243
 11
9.361826679
 21
9.9953366004
  0
LINE
  5
2BC
100
AcDbEntity
  8
0
100
AcDbLine
 62
4
  6
CONTINUOUS
 10
9.3473377911
 20
10.0639562197
 11
9.3545822351
 21
10.0537945525
  0
LINE
  5
2BD
100
AcDbEntity
  8
0
100
AcDbLine
 62
4
  6
CONTINUOUS
 10
10.5290100839
 20
8.6181196204
 11
10.5621275546
 21
8.4999118099
  0
LINE
  5
2BE
100
AcDbEntity
  8
0
100
AcDbLine
 62
4
  6
CONTINUOUS
 10
10.6283624683
 20
8.4953184031
 11
10.6283624683
 21
8.6112295091
  0
LINE
  5
2BF
100
AcDbEntity
  8
0
100
AcDbLine
 62
4
  6
CONTINUOUS
 10
10.6624458477
 20
9.0841013534
 11
10.6624458477
 21
9.1420569064
  0
LINE
  5
2C0
100
AcDbEntity
  8
0
100
AcDbLine
 62
4
  6
CONTINUOUS
 10
10.6945973821
 20
8.4907249962
 11
10.6945973821
 21
8.6066361022
  0
LINE
  5
2C1
100
AcDbEntity
  8
0
100
AcDbLine
 62
4
  6
CONTINUOUS
 10
10.709776216
 20
9.0808189812
 11
10.709776216
 21
9.1387745342
  0
LINE
  5
2C2
100
AcDbEntity
  8
0
100
AcDbLine
 62
4
  6
CONTINUOUS
 10
10.767731769
 20
9.134755303
 11
10.767731769
 21
9.0188441969
  0
LINE
  5
2C3
100
AcDbEntity
  8
0
100
AcDbLine
 62
4
  6
CONTINUOUS
 10
10.8063688043
 20
9.0741202625
 11
10.8063688043
 21
9.1320758155
  0
LINE
  5
2C4
100
AcDbEntity
  8
0
100
AcDbLine
 62
4
  6
CONTINUOUS
 10
10.7318545211
 20
8.7431456381
 11
10.7566926172
 21
8.8573342163
  0
LINE
  5
2C5
100
AcDbEntity
  8
0
100
AcDbLine
 62
4
  6
CONTINUOUS
 10
10.6821783341
 20
8.7465906933
 11
10.7070164285
 21
8.8276618148
  0
LINE
  5
2C6
100
AcDbEntity
  8
0
100
AcDbLine
 62
4
  6
CONTINUOUS
 10
10.3494858945
 20
8.1563000915
 11
10.3422414505
 21
8.1471432365
  0
LINE
  5
2C7
100
AcDbEntity
  8
0
100
AcDbLine
 62
7
  6
CONTINUOUS
 10
12.5566265403
 20
10.3388431191
 11
12.9448547875
 21
10.7138428318
  0
LINE
  5
2C8
100
AcDbEntity
  8
0
100
AcDbLine
 62
4
  6
CONTINUOUS
 10
10.8974418125
 20
8.831014498
 11
10.914000534
 21
8.8464248752
  0
LINE
  5
2C9
100
AcDbEntity
  8
0
100
AcDbLine
 62
4
  6
CONTINUOUS
 10
10.8560449948
 20
8.7345329995
 11
10.8643243556
 21
8.7422381889
  0
LINE
  5
2CA
100
AcDbEntity
  8
0
100
AcDbLine
 62
4
  6
CONTINUOUS
 10
10.8477656341
 20
8.8013420958
 11
10.8615645641
 21
8.8086644975
  0
LINE
  5
2CB
100
AcDbEntity
  8
0
100
AcDbLine
 62
4
  6
CONTINUOUS
 10
10.3689423721
 20
8.5850637447
 11
10.3247857595
 21
8.5660477081
  0
LINE
  5
2CC
100
AcDbEntity
  8
0
100
AcDbLine
 62
4
  6
CONTINUOUS
 10
10.3205081186
 20
8.196946741
 11
10.3494858945
 21
8.1949371254
  0
LINE
  5
2CD
100
AcDbEntity
  8
0
100
AcDbLine
 62
4
  6
CONTINUOUS
 10
10.3132636746
 20
8.2554046966
 11
10.3277525626
 21
8.2543998888
  0
LINE
  5
2CE
100
AcDbEntity
  8
0
100
AcDbLine
 62
4
  6
CONTINUOUS
 10
10.3247857595
 20
8.5660477081
 11
10.3689423721
 21
8.5409071303
  0
LINE
  5
2CF
100
AcDbEntity
  8
0
100
AcDbLine
 62
4
  6
CONTINUOUS
 10
10.4324174978
 20
8.6248183389
 11
10.4489762263
 21
8.6071112588
  0
LINE
  5
2D0
100
AcDbEntity
  8
0
100
AcDbLine
 62
4
  6
CONTINUOUS
 10
10.7070164285
 20
8.8276618148
 11
10.7318545211
 21
8.7431456381
  0
LINE
  5
2D1
100
AcDbEntity
  8
0
100
AcDbLine
 62
4
  6
CONTINUOUS
 10
10.6573402397
 20
8.8642243271
 11
10.6821783341
 21
8.7465906933
  0
LINE
  5
2D2
100
AcDbEntity
  8
0
100
AcDbLine
 62
4
  6
CONTINUOUS
 10
10.8615645641
 20
8.8086644975
 11
10.8615645641
 21
8.8335025936
  0
LINE
  5
2D3
100
AcDbEntity
  8
0
100
AcDbLine
 62
4
  6
CONTINUOUS
 10
10.8643243573
 20
9.1860121372
 11
10.8643243573
 21
9.0701010312
  0
LINE
  5
2D4
100
AcDbEntity
  8
0
100
AcDbLine
 62
4
  6
CONTINUOUS
 10
10.8643243556
 20
8.7422381889
 11
10.8643243556
 21
8.7836350126
  0
LINE
  5
2D5
100
AcDbEntity
  8
0
100
AcDbLine
 62
4
  6
CONTINUOUS
 10
10.8684640688
 20
8.4952260307
 11
10.8684640688
 21
8.5780196781
  0
LINE
  5
2D6
100
AcDbEntity
  8
0
100
AcDbLine
 62
4
  6
CONTINUOUS
 10
10.8974418125
 20
8.7482208506
 11
10.8974418125
 21
8.831014498
  0
LINE
  5
2D7
100
AcDbEntity
  8
0
100
AcDbLine
 62
4
  6
CONTINUOUS
 10
10.9029613927
 20
9.1253770967
 11
10.9029613927
 21
9.0674215437
  0
LINE
  5
2D8
100
AcDbEntity
  8
0
100
AcDbLine
 62
4
  6
CONTINUOUS
 10
10.9553973655
 20
8.7938778099
 11
10.9553973655
 21
8.7276428892
  0
LINE
  5
2D9
100
AcDbEntity
  8
0
100
AcDbLine
 62
4
  6
CONTINUOUS
 10
10.9650566203
 20
8.4885273145
 11
10.9650566203
 21
8.5713209619
  0
LINE
  5
2DA
100
AcDbEntity
  8
0
100
AcDbLine
 62
4
  6
CONTINUOUS
 10
10.999553981
 20
9.0607228249
 11
10.999553981
 21
9.0993598603
  0
LINE
  5
2DB
100
AcDbEntity
  8
0
100
AcDbLine
 62
4
  6
CONTINUOUS
 10
11.0230121733
 20
8.5673017306
 11
11.0230121733
 21
8.4845080832
  0
LINE
  5
2DC
100
AcDbEntity
  8
0
100
AcDbLine
 62
4
  6
CONTINUOUS
 10
10.8684640688
 20
8.5780196781
 11
10.8850227903
 21
8.5934300553
  0
LINE
  5
2DD
100
AcDbEntity
  8
0
100
AcDbLine
 62
4
  6
CONTINUOUS
 10
10.9650566203
 20
8.5713209619
 11
10.9816153418
 21
8.5867313391
  0
LINE
  5
2DE
100
AcDbEntity
  8
0
100
AcDbLine
 62
4
  6
CONTINUOUS
 10
11.0230121733
 20
8.4845080832
 11
11.0064534518
 21
8.4690977043
  0
LINE
  5
2DF
100
AcDbEntity
  8
0
100
AcDbLine
 62
4
  6
CONTINUOUS
 10
10.2987747867
 20
8.2467502481
 11
10.3132636746
 21
8.2554046966
  0
LINE
  5
2E0
100
AcDbEntity
  8
0
100
AcDbLine
 62
4
  6
CONTINUOUS
 10
10.3422414505
 20
8.1471432365
 11
10.3277525626
 21
8.1384887854
  0
LINE
  5
2E1
100
AcDbEntity
  8
0
100
AcDbLine
 62
4
  6
CONTINUOUS
 10
11.0975264479
 20
8.4627817706
 11
11.0561296164
 21
8.4656526506
  0
LINE
  5
2E2
100
AcDbEntity
  8
0
100
AcDbLine
 62
4
  6
CONTINUOUS
 10
11.0064534518
 20
8.4690977043
 11
10.9816153418
 21
8.4708202331
  0
LINE
  5
2E3
100
AcDbEntity
  8
0
100
AcDbLine
 62
4
  6
CONTINUOUS
 10
10.9181402334
 20
8.4752222468
 11
10.8850227903
 21
8.4775189493
  0
LINE
  5
2E4
100
AcDbEntity
  8
0
100
AcDbLine
 62
4
  6
CONTINUOUS
 10
10.4324174978
 20
8.5089072329
 11
10.3910206802
 21
8.511778112
  0
LINE
  5
2E5
100
AcDbEntity
  8
0
100
AcDbLine
 62
4
  6
CONTINUOUS
 10
10.6945973821
 20
8.4907249962
 11
10.7442735744
 21
8.4872799406
  0
LINE
  5
2E6
100
AcDbEntity
  8
0
100
AcDbLine
 62
4
  6
CONTINUOUS
 10
11.1610016116
 20
8.458379753
 11
11.2106777762
 21
8.4549346993
  0
LINE
  5
2E7
100
AcDbEntity
  8
0
100
AcDbLine
 62
4
  6
CONTINUOUS
 10
10.5069317793
 20
8.5368571103
 11
10.5510883885
 21
8.5337948391
  0
LINE
  5
2E8
100
AcDbEntity
  8
0
100
AcDbLine
 62
4
  6
CONTINUOUS
 10
10.8850227903
 20
8.4775189493
 11
10.8684640688
 21
8.4952260307
  0
LINE
  5
2E9
100
AcDbEntity
  8
0
100
AcDbLine
 62
4
  6
CONTINUOUS
 10
10.9816153418
 20
8.4708202331
 11
10.9650566203
 21
8.4885273145
  0
LINE
  5
2EA
100
AcDbEntity
  8
0
100
AcDbLine
 62
4
  6
CONTINUOUS
 10
11.0561296164
 20
8.4656526506
 11
11.0561296164
 21
8.5815637566
  0
LINE
  5
2EB
100
AcDbEntity
  8
0
100
AcDbLine
 62
4
  6
CONTINUOUS
 10
11.057509534
 20
9.1146591467
 11
11.057509534
 21
9.0567035937
  0
LINE
  5
2EC
100
AcDbEntity
  8
0
100
AcDbLine
 62
4
  6
CONTINUOUS
 10
11.0961465694
 20
9.1119796592
 11
11.0961465694
 21
9.0540241062
  0
LINE
  5
2ED
100
AcDbEntity
  8
0
100
AcDbLine
 62
4
  6
CONTINUOUS
 10
11.1140851694
 20
8.5609857969
 11
11.1140851694
 21
8.4781921495
  0
LINE
  5
2EE
100
AcDbEntity
  8
0
100
AcDbLine
 62
4
  6
CONTINUOUS
 10
11.1541021224
 20
9.0500048749
 11
11.1541021224
 21
9.1079604279
  0
LINE
  5
2EF
100
AcDbEntity
  8
0
100
AcDbLine
 62
4
  6
CONTINUOUS
 10
11.1610016116
 20
8.458379753
 11
11.1610016116
 21
8.574290859
  0
LINE
  5
2F0
100
AcDbEntity
  8
0
100
AcDbLine
 62
7
  6
CONTINUOUS
 10
11.1657875035
 20
6.5715945998
 11
11.1657875035
 21
6.2662836504
  0
LINE
  5
2F1
100
AcDbEntity
  8
0
100
AcDbLine
 62
4
  6
CONTINUOUS
 10
11.1927391577
 20
9.0473253874
 11
11.1927391577
 21
9.1632364935
  0
LINE
  5
2F2
100
AcDbEntity
  8
0
100
AcDbLine
 62
4
  6
CONTINUOUS
 10
11.2313761931
 20
9.0446458999
 11
11.2313761931
 21
9.1026014529
  0
LINE
  5
2F3
100
AcDbEntity
  8
0
100
AcDbLine
 62
4
  6
CONTINUOUS
 10
11.1140851694
 20
8.4781921495
 11
11.0975264479
 21
8.4627817706
  0
LINE
  5
2F4
100
AcDbEntity
  8
0
100
AcDbLine
 62
4
  6
CONTINUOUS
 10
11.2879518284
 20
8.4992519144
 11
11.2437952192
 21
8.4802358793
  0
LINE
  5
2F5
100
AcDbEntity
  8
0
100
AcDbLine
 62
4
  6
CONTINUOUS
 10
11.1941190546
 20
8.5223179712
 11
11.1610016116
 21
8.5246146737
  0
LINE
  5
2F6
100
AcDbEntity
  8
0
100
AcDbLine
 62
4
  6
CONTINUOUS
 10
10.7277148528
 20
8.5546632125
 11
10.6945973821
 21
8.5569599169
  0
LINE
  5
2F7
100
AcDbEntity
  8
0
100
AcDbLine
 62
4
  6
CONTINUOUS
 10
10.3910206802
 20
8.627689218
 11
10.4324174978
 21
8.6248183389
  0
LINE
  5
2F8
100
AcDbEntity
  8
0
100
AcDbLine
 62
4
  6
CONTINUOUS
 10
10.5952449976
 20
8.6135262135
 11
10.6614799114
 21
8.6089328066
  0
LINE
  5
2F9
100
AcDbEntity
  8
0
100
AcDbLine
 62
4
  6
CONTINUOUS
 10
10.6945973821
 20
8.6066361022
 11
10.7442735744
 21
8.6031910466
  0
LINE
  5
2FA
100
AcDbEntity
  8
0
100
AcDbLine
 62
4
  6
CONTINUOUS
 10
10.8850227903
 20
8.5934300553
 11
10.9181402334
 21
8.5911333528
  0
LINE
  5
2FB
100
AcDbEntity
  8
0
100
AcDbLine
 62
4
  6
CONTINUOUS
 10
10.9816153418
 20
8.5867313391
 11
11.0064534518
 21
8.5850088103
  0
LINE
  5
2FC
100
AcDbEntity
  8
0
100
AcDbLine
 62
4
  6
CONTINUOUS
 10
11.0561296164
 20
8.5815637566
 11
11.0975264479
 21
8.5786928766
  0
LINE
  5
2FD
100
AcDbEntity
  8
0
100
AcDbLine
 62
4
  6
CONTINUOUS
 10
11.1610016116
 20
8.574290859
 11
11.2106777762
 21
8.5708458053
  0
LINE
  5
2FE
100
AcDbEntity
  8
0
100
AcDbLine
 62
4
  6
CONTINUOUS
 10
10.9553973655
 20
8.7276428892
 11
10.914000534
 21
8.7305137692
  0
LINE
  5
2FF
100
AcDbEntity
  8
0
100
AcDbLine
 62
4
  6
CONTINUOUS
 10
10.8146481633
 20
8.7374038795
 11
10.8560449948
 21
8.7345329995
  0
LINE
  5
300
100
AcDbEntity
  8
0
100
AcDbLine
 62
4
  6
CONTINUOUS
 10
11.2437952192
 20
8.5243924937
 11
11.2879518284
 21
8.4992519144
  0
LINE
  5
301
100
AcDbEntity
  8
0
100
AcDbLine
 62
4
  6
CONTINUOUS
 10
9.3183600153
 20
9.9597139881
 11
9.3038711273
 21
9.9703780548
  0
LINE
  5
302
100
AcDbEntity
  8
0
100
AcDbLine
 62
4
  6
CONTINUOUS
 10
11.0064534518
 20
8.5850088103
 11
11.0230121733
 21
8.5673017306
  0
LINE
  5
303
100
AcDbEntity
  8
0
100
AcDbLine
 62
4
  6
CONTINUOUS
 10
10.8643243556
 20
8.7836350126
 11
10.8477656341
 21
8.8013420958
  0
LINE
  5
304
100
AcDbEntity
  8
0
100
AcDbLine
 62
4
  6
CONTINUOUS
 10
10.914000534
 20
8.7305137692
 11
10.8974418125
 21
8.7482208506
  0
LINE
  5
305
100
AcDbEntity
  8
0
100
AcDbLine
 62
4
  6
CONTINUOUS
 10
11.0975264479
 20
8.5786928766
 11
11.1140851694
 21
8.5609857969
  0
LINE
  5
306
100
AcDbEntity
  8
0
100
AcDbLine
 62
4
  6
CONTINUOUS
 10
10.8615645641
 20
8.8335025936
 11
10.8477656341
 21
8.8510182811
  0
LINE
  5
307
100
AcDbEntity
  8
0
100
AcDbLine
 62
4
  6
CONTINUOUS
 10
11.2700132284
 20
9.0999219654
 11
11.2700132284
 21
9.0419664124
  0
LINE
  5
308
100
AcDbEntity
  8
0
100
AcDbLine
 62
7
  6
CONTINUOUS
 10
11.317207443
 20
6.5044269117
 11
11.317207443
 21
6.1200234704
  0
LINE
  5
309
100
AcDbEntity
  8
0
100
AcDbLine
 62
7
  6
CONTINUOUS
 10
11.3566802209
 20
6.4942106179
 11
11.3566802209
 21
6.1098071766
  0
LINE
  5
30A
100
AcDbEntity
  8
0
100
AcDbLine
 62
4
  6
CONTINUOUS
 10
11.3666058168
 20
9.0932232467
 11
11.3666058168
 21
9.0642454702
  0
LINE
  5
30B
100
AcDbEntity
  8
0
100
AcDbLine
 62
4
  6
CONTINUOUS
 10
11.4245613698
 20
9.0602262389
 11
11.4245613698
 21
9.0312484624
  0
LINE
  5
30C
100
AcDbEntity
  8
0
100
AcDbLine
 62
4
  6
CONTINUOUS
 10
12.2625021023
 20
8.9567163002
 11
12.2769909903
 21
8.9653707487
  0
LINE
  5
30D
100
AcDbEntity
  8
0
100
AcDbLine
 62
4
  6
CONTINUOUS
 10
12.3059687661
 20
8.9150648377
 11
12.2769909903
 21
8.8977559372
  0
LINE
  5
30E
100
AcDbEntity
  8
0
100
AcDbLine
 62
4
  6
CONTINUOUS
 10
10.8477656341
 20
8.8013420958
 11
10.8312068987
 21
8.802490448
  0
LINE
  5
30F
100
AcDbEntity
  8
0
100
AcDbLine
 62
4
  6
CONTINUOUS
 10
10.9305592832
 20
8.7956003367
 11
10.9553973655
 21
8.7938778099
  0
LINE
  5
310
100
AcDbEntity
  8
0
100
AcDbLine
 62
4
  6
CONTINUOUS
 10
10.8477656341
 20
8.8510182811
 11
10.8146481633
 21
8.8533149855
  0
LINE
  5
311
100
AcDbEntity
  8
0
100
AcDbLine
 62
4
  6
CONTINUOUS
 10
10.914000534
 20
8.8464248752
 11
10.9553973655
 21
8.8435539952
  0
LINE
  5
312
100
AcDbEntity
  8
0
100
AcDbLine
 62
4
  6
CONTINUOUS
 10
12.2552576584
 20
8.8509668569
 11
12.3132132101
 21
8.8469476258
  0
LINE
  5
313
100
AcDbEntity
  8
0
100
AcDbLine
 62
4
  6
CONTINUOUS
 10
9.3328489032
 20
10.0263239884
 11
9.3473377911
 21
10.0156599243
  0
LINE
  5
314
100
AcDbEntity
  8
0
100
AcDbLine
 62
4
  6
CONTINUOUS
 10
9.3328489032
 20
10.0746202838
 11
9.3473377911
 21
10.0639562197
  0
LINE
  5
315
100
AcDbEntity
  8
0
100
AcDbLine
 62
4
  6
CONTINUOUS
 10
10.767731769
 20
9.0188441969
 11
10.7290947336
 21
9.0215236844
  0
LINE
  5
316
100
AcDbEntity
  8
0
100
AcDbLine
 62
4
  6
CONTINUOUS
 10
12.2769909903
 20
8.9653707487
 11
12.2914798782
 21
8.9643659409
  0
LINE
  5
317
100
AcDbEntity
  8
0
100
AcDbLine
 62
4
  6
CONTINUOUS
 10
11.4245613698
 20
9.0312484624
 11
11.3666058168
 21
9.0352676937
  0
LINE
  5
318
100
AcDbEntity
  8
0
100
AcDbLine
 62
4
  6
CONTINUOUS
 10
11.057509534
 20
9.0567035937
 11
10.999553981
 21
9.0607228249
  0
LINE
  5
319
100
AcDbEntity
  8
0
100
AcDbLine
 62
4
  6
CONTINUOUS
 10
10.8643243573
 20
9.0701010312
 11
10.8063688043
 21
9.0741202625
  0
LINE
  5
31A
100
AcDbEntity
  8
0
100
AcDbLine
 62
4
  6
CONTINUOUS
 10
10.767731769
 20
9.07679975
 11
10.709776216
 21
9.0808189812
  0
LINE
  5
31B
100
AcDbEntity
  8
0
100
AcDbLine
 62
4
  6
CONTINUOUS
 10
10.4016458591
 20
9.102187894
 11
10.3436903061
 21
9.1062071253
  0
LINE
  5
31C
100
AcDbEntity
  8
0
100
AcDbLine
 62
4
  6
CONTINUOUS
 10
10.3147125296
 20
9.1082167409
 11
10.2567569766
 21
9.1122359722
  0
LINE
  5
31D
100
AcDbEntity
  8
0
100
AcDbLine
 62
4
  6
CONTINUOUS
 10
11.0961465694
 20
9.0540241062
 11
11.1541021224
 21
9.0500048749
  0
LINE
  5
31E
100
AcDbEntity
  8
0
100
AcDbLine
 62
4
  6
CONTINUOUS
 10
11.2700132284
 20
9.0419664124
 11
11.3279687814
 21
9.0379471812
  0
LINE
  5
31F
100
AcDbEntity
  8
0
100
AcDbLine
 62
4
  6
CONTINUOUS
 10
11.3666058168
 20
9.0642454702
 11
11.4245613698
 21
9.0602262389
  0
LINE
  5
320
100
AcDbEntity
  8
0
100
AcDbLine
 62
4
  6
CONTINUOUS
 10
10.999553981
 20
9.0993598603
 11
11.057509534
 21
9.095340629
  0
LINE
  5
321
100
AcDbEntity
  8
0
100
AcDbLine
 62
4
  6
CONTINUOUS
 10
11.057509534
 20
9.1146591467
 11
11.0188724987
 21
9.1173386342
  0
LINE
  5
322
100
AcDbEntity
  8
0
100
AcDbLine
 62
4
  6
CONTINUOUS
 10
10.6624458477
 20
9.1420569064
 11
10.6044902947
 21
9.1460761377
  0
LINE
  5
323
100
AcDbEntity
  8
0
100
AcDbLine
 62
4
  6
CONTINUOUS
 10
10.2567569766
 20
9.1701915252
 11
10.3147125296
 21
9.1661722939
  0
LINE
  5
324
100
AcDbEntity
  8
0
100
AcDbLine
 62
4
  6
CONTINUOUS
 10
10.8063688043
 20
9.1320758155
 11
10.8643243573
 21
9.1280565842
  0
LINE
  5
325
100
AcDbEntity
  8
0
100
AcDbLine
 62
4
  6
CONTINUOUS
 10
10.9029613927
 20
9.1253770967
 11
10.9609169457
 21
9.1213578655
  0
LINE
  5
326
100
AcDbEntity
  8
0
100
AcDbLine
 62
4
  6
CONTINUOUS
 10
11.2700132284
 20
9.0999219654
 11
11.3279687814
 21
9.0959027342
  0
LINE
  5
327
100
AcDbEntity
  8
0
100
AcDbLine
 62
4
  6
CONTINUOUS
 10
11.3666058168
 20
9.0932232467
 11
11.4245613698
 21
9.0892040154
  0
LINE
  5
328
100
AcDbEntity
  8
0
100
AcDbLine
 62
4
  6
CONTINUOUS
 10
11.2241317489
 20
9.1320816334
 11
11.2386206372
 21
9.1310768255
  0
LINE
  5
329
100
AcDbEntity
  8
0
100
AcDbLine
 62
4
  6
CONTINUOUS
 10
12.2552576584
 20
8.9475594408
 11
12.2625021023
 21
8.9567163002
  0
LINE
  5
32A
100
AcDbEntity
  8
0
100
AcDbLine
 62
4
  6
CONTINUOUS
 10
12.2769909903
 20
8.8977559372
 11
12.2625021023
 21
8.8794422289
  0
LINE
  5
32B
100
AcDbEntity
  8
0
100
AcDbLine
 62
4
  6
CONTINUOUS
 10
12.3132132101
 20
8.924221697
 11
12.3059687661
 21
8.9150648377
  0
LINE
  5
32C
100
AcDbEntity
  8
0
100
AcDbLine
 62
4
  6
CONTINUOUS
 10
10.3147125296
 20
9.2241278469
 11
10.2567569766
 21
9.2281470782
  0
LINE
  5
32D
100
AcDbEntity
  8
0
100
AcDbLine
 62
4
  6
CONTINUOUS
 10
10.4306236356
 20
9.2160893844
 11
10.4885791886
 21
9.2120701532
  0
LINE
  5
32E
100
AcDbEntity
  8
0
100
AcDbLine
 62
7
  6
CONTINUOUS
 10
11.9217866955
 20
6.4550203508
 11
11.9217866955
 21
6.0706169095
  0
LINE
  5
32F
100
AcDbEntity
  8
0
100
AcDbLine
 62
7
  6
CONTINUOUS
 10
11.9757074978
 20
6.4587597778
 11
11.9757074978
 21
6.0743563364
  0
LINE
  5
330
100
AcDbEntity
  8
0
100
AcDbLine
 62
4
  6
CONTINUOUS
 10
12.2625021023
 20
8.8794422289
 11
12.2552576584
 21
8.8509668569
  0
LINE
  5
331
100
AcDbEntity
  8
0
100
AcDbLine
 62
4
  6
CONTINUOUS
 10
12.2914798782
 20
8.9643659409
 11
12.3059687661
 21
8.9537018768
  0
LINE
  5
332
100
AcDbEntity
  8
0
100
AcDbLine
 62
4
  6
CONTINUOUS
 10
12.3132132101
 20
8.9435402097
 11
12.3132132101
 21
8.924221697
  0
LINE
  5
333
100
AcDbEntity
  8
0
100
AcDbLine
 62
7
  6
CONTINUOUS
 10
12.3893940328
 20
6.4867371987
 11
12.3893940328
 21
6.1814262494
  0
LINE
  5
334
100
AcDbEntity
  8
0
100
AcDbLine
 62
7
  6
CONTINUOUS
 10
12.4038420572
 20
6.4857352249
 11
12.4038420572
 21
6.1953819701
  0
LINE
  5
335
100
AcDbEntity
  8
0
100
AcDbLine
 62
4
  6
CONTINUOUS
 10
9.3328489032
 20
9.9587091803
 11
9.3183600153
 21
9.9597139881
  0
LINE
  5
336
100
AcDbEntity
  8
0
100
AcDbLine
 62
4
  6
CONTINUOUS
 10
9.3183600153
 20
10.0273287962
 11
9.3328489032
 21
10.0263239884
  0
LINE
  5
337
100
AcDbEntity
  8
0
100
AcDbLine
 62
4
  6
CONTINUOUS
 10
9.3183600153
 20
10.0756250916
 11
9.3328489032
 21
10.0746202838
  0
LINE
  5
338
100
AcDbEntity
  8
0
100
AcDbLine
 62
4
  6
CONTINUOUS
 10
12.3059687661
 20
8.9537018768
 11
12.3132132101
 21
8.9435402097
  0
LINE
  5
339
100
AcDbEntity
  8
0
100
AcDbLine
 62
7
  6
CONTINUOUS
 10
12.5566265403
 20
6.475139585
 11
12.5566265403
 21
10.3388431191
  0
LINE
  5
33A
100
AcDbEntity
  8
0
100
AcDbLine
 62
7
  6
CONTINUOUS
 10
12.9448547875
 20
6.8501392977
 11
12.9448547875
 21
10.7138428318
  0
LINE
  5
33B
100
AcDbEntity
  8
0
100
AcDbLine
 62
7
  6
CONTINUOUS
 10
9.0551452125
 20
10.5816716739
 11
12.5566265403
 21
10.3388431191
  0
LINE
  5
33C
100
AcDbEntity
  8
0
100
AcDbLine
 62
7
  6
CONTINUOUS
 10
9.2146371703
 20
10.7357290842
 11
9.2455467993
 21
10.7335854941
  0
LINE
  5
33D
100
AcDbEntity
  8
0
100
AcDbLine
 62
7
  6
CONTINUOUS
 10
9.2838815019
 20
10.8026139764
 11
9.3147911309
 21
10.8004703863
  0
LINE
  5
33E
100
AcDbEntity
  8
0
100
AcDbLine
 62
7
  6
CONTINUOUS
 10
12.9448547875
 20
10.7138428318
 11
9.4433734597
 21
10.9566713866
  0
LINE
  5
33F
100
AcDbEntity
  8
0
100
AcDbLine
 62
7
  6
CONTINUOUS
 10
12.5566265403
 20
6.475139585
 11
12.9448547875
 21
6.8501392977
  0
LINE
  5
340
100
AcDbEntity
  8
0
100
AcDbLine
 62
7
  6
CONTINUOUS
 10
12.3070979012
 20
6.1352630932
 11
12.2764238907
 21
6.1201107194
  0
ARC
  5
341
100
AcDbEntity
  8
0
100
AcDbCircle
 62
7
  6
CONTINUOUS
 10
11.7958543029
 20
8.2771297941
 40
2.210103635
100
AcDbArc
 50
273.2665005552
 51
274.6677615151
  0
ARC
  5
342
100
AcDbEntity
  8
0
100
AcDbCircle
 62
7
  6
CONTINUOUS
 10
11.7958543029
 20
8.6615332355
 40
2.210103635
100
AcDbArc
 50
273.2665005552
 51
274.6677615151
  0
ARC
  5
343
100
AcDbEntity
  8
0
100
AcDbCircle
 62
7
  6
CONTINUOUS
 10
11.5758797294
 20
7.4224973516
 40
0.9538158545
100
AcDbArc
 50
254.2644742826
 51
256.7139235525
  0
ARC
  5
344
100
AcDbEntity
  8
0
100
AcDbCircle
 62
7
  6
CONTINUOUS
 10
11.5758797294
 20
7.0380939102
 40
0.9538158545
100
AcDbArc
 50
254.2644742826
 51
256.7139235525
  0
ARC
  5
345
100
AcDbEntity
  8
0
100
AcDbCircle
 62
7
  6
CONTINUOUS
 10
11.9682168996
 20
6.8201582944
 40
0.7641475746
100
AcDbArc
 50
293.7608747297
 51
296.3085175792
  0
ARC
  5
346
100
AcDbEntity
  8
0
100
AcDbCircle
 62
7
  6
CONTINUOUS
 10
10.475181195
 20
7.6897486121
 40
0.3600467106
100
AcDbArc
 50
134.8320443738
 51
135.8393257379
  0
ARC
  5
347
100
AcDbEntity
  8
0
100
AcDbCircle
 62
7
  6
CONTINUOUS
 10
10.5494686798
 20
7.6128400878
 40
0.3600255271
100
AcDbArc
 50
312.1752390263
 51
313.3149651756
  0
ARC
  5
348
100
AcDbEntity
  8
0
100
AcDbCircle
 62
7
  6
CONTINUOUS
 10
10.5167920973
 20
7.6347514809
 40
0.2321760253
100
AcDbArc
 50
349.3351410777
 51
0.0338909318
  0
ARC
  5
349
100
AcDbEntity
  8
0
100
AcDbCircle
 62
7
  6
CONTINUOUS
 10
10.5267509676
 20
7.6652428087
 40
0.2084768963
100
AcDbArc
 50
43.769309109
 51
46.6396121034
  0
ARC
  5
34A
100
AcDbEntity
  8
0
100
AcDbCircle
 62
7
  6
CONTINUOUS
 10
10.5267984233
 20
7.6652883341
 40
0.2084111346
100
AcDbArc
 50
42.3918281774
 51
43.7692960467
  0
ARC
  5
34B
100
AcDbEntity
  8
0
100
AcDbCircle
 62
7
  6
CONTINUOUS
 10
10.5268898556
 20
7.6653881485
 40
0.2082758686
100
AcDbArc
 50
46.6399395303
 51
47.1144302282
  0
SPLINE
  5
34C
100
AcDbEntity
  8
0
100
AcDbSpline
 62
7
  6
CONTINUOUS
 70
0
 71
3
 72
9
 73
5
 74
0
 42
0.0000001
 43
0.0000001
 44
0.0000000001
 40
0.0
 40
0.0
 40
0.0
 40
0.0
 40
0.2426770998
 40
1.0
 40
1.0
 40
1.0
 40
1.0
 10
12.3972117905
 20
6.1883629334
 30
0.0
 10
12.3966036
 20
6.1877754665
 30
0.0
 10
12.3940705486
 20
6.1853825853
 30
0.0
 10
12.3914348349
 20
6.1830991158
 30
0.0
 10
12.3893940328
 20
6.1814262494
 30
0.0
  0
SPLINE
  5
34D
100
AcDbEntity
  8
0
100
AcDbSpline
 62
7
  6
CONTINUOUS
 70
0
 71
3
 72
9
 73
5
 74
0
 42
0.0000001
 43
0.0000001
 44
0.0000000001
 40
0.0
 40
0.0
 40
0.0
 40
0.0
 40
0.2426666479
 40
1.0
 40
1.0
 40
1.0
 40
1.0
 10
12.4038420572
 20
6.1953819701
 30
0.0
 10
12.4033344294
 20
6.1947881972
 30
0.0
 10
12.4012107336
 20
6.1923686127
 30
0.0
 10
12.3989653251
 20
6.1900567179
 30
0.0
 10
12.3972117905
 20
6.1883629334
 30
0.0
  0
SPLINE
  5
34E
100
AcDbEntity
  8
0
100
AcDbSpline
 62
7
  6
CONTINUOUS
 70
0
 71
3
 72
9
 73
5
 74
0
 42
0.0000001
 43
0.0000001
 44
0.0000000001
 40
0.0
 40
0.0
 40
0.0
 40
0.0
 40
0.504378312
 40
1.0
 40
1.0
 40
1.0
 40
1.0
 10
12.3893940328
 20
6.1814262494
 30
0.0
 10
12.3758902826
 20
6.1730173957
 30
0.0
 10
12.3487774452
 20
6.1568827397
 30
0.0
 10
12.3209046487
 20
6.1420855449
 30
0.0
 10
12.3068905107
 20
6.1351607025
 30
0.0
  0
SPLINE
  5
34F
100
AcDbEntity
  8
0
100
AcDbSpline
 62
7
  6
CONTINUOUS
 70
0
 71
3
 72
23
 73
19
 74
0
 42
0.0000001
 43
0.0000001
 44
0.0000000001
 40
0.0
 40
0.0
 40
0.0
 40
0.0
 40
0.0436203086
 40
0.0892268542
 40
0.137068591
 40
0.187353676
 40
0.2402538462
 40
0.2958872461
 40
0.3543311569
 40
0.4156094827
 40
0.4797102731
 40
0.5465788188
 40
0.6161346312
 40
0.6882694307
 40
0.7628606873
 40
0.8397744221
 40
0.9188692703
 40
1.0
 40
1.0
 40
1.0
 40
1.0
 10
11.2741960138
 20
6.1295011619
 30
0.0
 10
11.2718860781
 20
6.1306417304
 30
0.0
 10
11.2672489544
 20
6.1331568269
 30
0.0
 10
11.260421665
 20
6.1375178789
 30
0.0
 10
11.2535852761
 20
6.1425601655
 30
0.0
 10
11.2467437264
 20
6.1482910978
 30
0.0
 10
11.2399026282
 20
6.1547147486
 30
0.0
 10
11.2330650877
 20
6.161826321
 30
0.0
 10
11.2262368285
 20
6.169617133
 30
0.0
 10
11.2194205844
 20
6.1780705355
 30
0.0
 10
11.2126214159
 20
6.1871664414
 30
0.0
 10
11.2058415657
 20
6.1968788233
 30
0.0
 10
11.1990848988
 20
6.2071793714
 30
0.0
 10
11.1923530118
 20
6.2180363255
 30
0.0
 10
11.1856482948
 20
6.229417179
 30
0.0
 10
11.1789716456
 20
6.2412882614
 30
0.0
 10
11.1723241531
 20
6.2536161005
 30
0.0
 10
11.1679650351
 20
6.2620155176
 30
0.0
 10
11.1657875035
 20
6.2662836504
 30
0.0
  0
SPLINE
  5
350
100
AcDbEntity
  8
0
100
AcDbSpline
 62
7
  6
CONTINUOUS
 70
0
 71
3
 72
47
 73
43
 74
0
 42
0.0000001
 43
0.0000001
 44
0.0000000001
 40
0.0
 40
0.0
 40
0.0
 40
0.0
 40
0.0099874638
 40
0.0204476834
 40
0.0313771515
 40
0.0427708334
 40
0.0546218702
 40
0.0669225517
 40
0.0796641282
 40
0.0928362942
 40
0.1204271347
 40
0.1495984091
 40
0.1802407165
 40
0.2122338314
 40
0.2454489836
 40
0.2797497839
 40
0.3149929168
 40
0.3510298084
 40
0.3877071885
 40
0.4248680172
 40
0.4623527228
 40
0.4999997959
 40
0.5376468789
 40
0.575131606
 40
0.6122924455
 40
0.6489698269
 40
0.6850067267
 40
0.7202498875
 40
0.7545507276
 40
0.7877659112
 40
0.8197590481
 40
0.8504013805
 40
0.8795726993
 40
0.9071635849
 40
0.9203357726
 40
0.933077377
 40
0.9453780958
 40
0.9572291635
 40
0.968622847
 40
0.9795522717
 40
0.9900124597
 40
1.0
 40
1.0
 40
1.0
 40
1.0
 10
12.2764277761
 20
6.120112674
 30
0.0
 10
12.2734372418
 20
6.1186353963
 30
0.0
 10
12.2672635354
 20
6.1157134805
 30
0.0
 10
12.257661337
 20
6.1115140368
 30
0.0
 10
12.2475131589
 20
6.107401202
 30
0.0
 10
12.2368307109
 20
6.1033799922
 30
0.0
 10
12.2256263352
 20
6.099454687
 30
0.0
 10
12.2139128346
 20
6.0956299679
 30
0.0
 10
12.2017035786
 20
6.0919103971
 30
0.0
 10
12.1845157498
 20
6.0870208653
 30
0.0
 10
12.1618854375
 20
6.0812253838
 30
0.0
 10
12.1333941592
 20
6.0748567116
 30
0.0
 10
12.1032941102
 20
6.0690011877
 30
0.0
 10
12.071724104
 20
6.063685846
 30
0.0
 10
12.038829446
 20
6.0589356896
 30
0.0
 10
12.0047617949
 20
6.0547731575
 30
0.0
 10
11.9696783364
 20
6.0512174295
 30
0.0
 10
11.9337410155
 20
6.0482852591
 30
0.0
 10
11.8971157546
 20
6.0459904745
 30
0.0
 10
11.8599717221
 20
6.044343527
 30
0.0
 10
11.8224804982
 20
6.043352291
 30
0.0
 10
11.7848152579
 20
6.0430214344
 30
0.0
 10
11.7471500103
 20
6.0433522743
 30
0.0
 10
11.7096587719
 20
6.0443434943
 30
0.0
 10
11.6725147274
 20
6.045990425
 30
0.0
 10
11.6358894587
 20
6.0482851935
 30
0.0
 10
11.599952124
 20
6.051217347
 30
0.0
 10
11.5648686384
 20
6.0547730604
 30
0.0
 10
11.5308009522
 20
6.0589355779
 30
0.0
 10
11.4979062609
 20
6.0636857209
 30
0.0
 10
11.4663362255
 20
6.0690010468
 30
0.0
 10
11.4362361426
 20
6.0748565564
 30
0.0
 10
11.407744823
 20
6.081225219
 30
0.0
 10
11.385114469
 20
6.0870206871
 30
0.0
 10
11.3679266045
 20
6.0919102094
 30
0.0
 10
11.3557173178
 20
6.0956297787
 30
0.0
 10
11.3440037857
 20
6.099454505
 30
0.0
 10
11.3327993863
 20
6.1033798128
 30
0.0
 10
11.3221169355
 20
6.1074010043
 30
0.0
 10
11.3119687634
 20
6.1115137881
 30
0.0
 10
11.3023665475
 20
6.1157131934
 30
0.0
 10
11.2961928263
 20
6.1186351141
 30
0.0
 10
11.2932022733
 20
6.1201124117
 30
0.0
  0
SPLINE
  5
351
100
AcDbEntity
  8
0
100
AcDbSpline
 62
7
  6
CONTINUOUS
 70
0
 71
3
 72
15
 73
11
 74
0
 42
0.0000001
 43
0.0000001
 44
0.0000000001
 40
0.0
 40
0.0
 40
0.0
 40
0.0
 40
0.1299708166
 40
0.2593283487
 40
0.3876617857
 40
0.5145654289
 40
0.6396384778
 40
0.7624890516
 40
0.8827334041
 40
1.0
 40
1.0
 40
1.0
 40
1.0
 10
11.7695936258
 20
6.5295845285
 30
0.0
 10
11.7591427977
 20
6.5296610609
 30
0.0
 10
11.7382912601
 20
6.5299712049
 30
0.0
 10
11.7071318432
 20
6.5309081742
 30
0.0
 10
11.6762368199
 20
6.5323134805
 30
0.0
 10
11.6457114732
 20
6.5341818654
 30
0.0
 10
11.6156596761
 20
6.5365073986
 30
0.0
 10
11.5861836752
 20
6.5392816127
 30
0.0
 10
11.5573839181
 20
6.5424954177
 30
0.0
 10
11.5384433216
 20
6.5449567437
 30
0.0
 10
11.5291046195
 20
6.5462624977
 30
0.0
  0
SPLINE
  5
352
100
AcDbEntity
  8
0
100
AcDbSpline
 62
7
  6
CONTINUOUS
 70
0
 71
3
 72
10
 73
6
 74
0
 42
0.0000001
 43
0.0000001
 44
0.0000000001
 40
0.0
 40
0.0
 40
0.0
 40
0.0
 40
0.4950633206
 40
0.7463873743
 40
1.0
 40
1.0
 40
1.0
 40
1.0
 10
12.0671270389
 20
6.50936208
 30
0.0
 10
12.051567169
 20
6.5019147807
 30
0.0
 10
12.0284765004
 20
6.4899021548
 30
0.0
 10
11.9982496342
 20
6.4725644433
 30
0.0
 10
11.9832090059
 20
6.4634310049
 30
0.0
 10
11.9757074978
 20
6.4587597778
 30
0.0
  0
SPLINE
  5
353
100
AcDbEntity
  8
0
100
AcDbSpline
 62
7
  6
CONTINUOUS
 70
0
 71
3
 72
21
 73
17
 74
0
 42
0.0000001
 43
0.0000001
 44
0.0000000001
 40
0.0
 40
0.0
 40
0.0
 40
0.0
 40
0.1230212981
 40
0.1847065752
 40
0.2465215318
 40
0.3084771567
 40
0.3705832678
 40
0.432847904
 40
0.4952752623
 40
0.5578663069
 40
0.6206183946
 40
0.6835249868
 40
0.7465773451
 40
0.8097643485
 40
0.8730733734
 40
1.0
 40
1.0
 40
1.0
 40
1.0
 10
11.9217866955
 20
6.0706169095
 30
0.0
 10
11.8987075145
 20
6.0660695533
 30
0.0
 10
11.863875073
 20
6.060097147
 30
0.0
 10
11.817103858
 20
6.0541869996
 30
0.0
 10
11.7817925494
 20
6.0508597856
 30
0.0
 10
11.7463081066
 20
6.048725378
 30
0.0
 10
11.7106833855
 20
6.0478546417
 30
0.0
 10
11.674960174
 20
6.0483035369
 30
0.0
 10
11.6391865523
 20
6.0501055356
 30
0.0
 10
11.6034140261
 20
6.0532688215
 30
0.0
 10
11.5676940862
 20
6.0577777721
 30
0.0
 10
11.5320744728
 20
6.0635920139
 30
0.0
 10
11.4965963333
 20
6.070649728
 30
0.0
 10
11.4612921426
 20
6.0788754177
 30
0.0
 10
11.4144482164
 20
6.0912949697
 30
0.0
 10
11.3796878067
 20
6.1020827641
 30
0.0
 10
11.3566802209
 20
6.1098071766
 30
0.0
  0
SPLINE
  5
354
100
AcDbEntity
  8
0
100
AcDbSpline
 62
7
  6
CONTINUOUS
 70
0
 71
3
 72
21
 73
17
 74
0
 42
0.0000001
 43
0.0000001
 44
0.0000000001
 40
0.0
 40
0.0
 40
0.0
 40
0.0
 40
0.1269266266
 40
0.1902356515
 40
0.253422655
 40
0.3164750132
 40
0.3793816055
 40
0.4421336932
 40
0.5047247377
 40
0.567152096
 40
0.6294167323
 40
0.6915228434
 40
0.7534784683
 40
0.8152934248
 40
0.8769787019
 40
1.0
 40
1.0
 40
1.0
 40
1.0
 10
11.9217866955
 20
6.4550203508
 30
0.0
 10
11.8987791097
 20
6.4627447634
 30
0.0
 10
11.8640187
 20
6.4735325577
 30
0.0
 10
11.8171747739
 20
6.4859521098
 30
0.0
 10
11.7818705831
 20
6.4941777995
 30
0.0
 10
11.7463924436
 20
6.5012355135
 30
0.0
 10
11.7107728302
 20
6.5070497553
 30
0.0
 10
11.6750528903
 20
6.5115587059
 30
0.0
 10
11.6392803641
 20
6.5147219918
 30
0.0
 10
11.6035067424
 20
6.5165239906
 30
0.0
 10
11.5677835309
 20
6.5169728858
 30
0.0
 10
11.5321588098
 20
6.5161021494
 30
0.0
 10
11.496674367
 20
6.5139677418
 30
0.0
 10
11.4613630584
 20
6.5106405278
 30
0.0
 10
11.4145918435
 20
6.5047303804
 30
0.0
 10
11.3797594019
 20
6.4987579741
 30
0.0
 10
11.3566802209
 20
6.4942106179
 30
0.0
  0
SPLINE
  5
355
100
AcDbEntity
  8
0
100
AcDbSpline
 62
7
  6
CONTINUOUS
 70
0
 71
3
 72
11
 73
7
 74
0
 42
0.0000001
 43
0.0000001
 44
0.0000000001
 40
0.0
 40
0.0
 40
0.0
 40
0.0
 40
0.2465919593
 40
0.494712682
 40
0.7454424776
 40
1.0
 40
1.0
 40
1.0
 40
1.0
 10
11.317207443
 20
6.1200234704
 30
0.0
 10
11.3152650301
 20
6.1199686357
 30
0.0
 10
11.3113637204
 20
6.1199759822
 30
0.0
 10
11.3054980292
 20
6.120359504
 30
0.0
 10
11.2996079572
 20
6.1211377864
 30
0.0
 10
11.2957015001
 20
6.1219273342
 30
0.0
 10
11.293750055
 20
6.1223917956
 30
0.0
  0
SPLINE
  5
356
100
AcDbEntity
  8
0
100
AcDbSpline
 62
7
  6
CONTINUOUS
 70
0
 71
3
 72
10
 73
6
 74
0
 42
0.0000001
 43
0.0000001
 44
0.0000000001
 40
0.0
 40
0.0
 40
0.0
 40
0.0
 40
0.2418255986
 40
0.4885199497
 40
1.0
 40
1.0
 40
1.0
 40
1.0
 10
11.293750055
 20
6.1223917956
 30
0.0
 10
11.2921155375
 20
6.1227808253
 30
0.0
 10
11.2888352272
 20
6.1236616859
 30
0.0
 10
11.2822363268
 20
6.1258439912
 30
0.0
 10
11.2773824484
 20
6.1279278075
 30
0.0
 10
11.2741960138
 20
6.1295011619
 30
0.0
  0
SPLINE
  5
357
100
AcDbEntity
  8
0
100
AcDbSpline
 62
7
  6
CONTINUOUS
 70
0
 71
3
 72
11
 73
7
 74
0
 42
0.0000001
 43
0.0000001
 44
0.0000000001
 40
0.0
 40
0.0
 40
0.0
 40
0.0
 40
0.2633952514
 40
0.5183435581
 40
0.764111363
 40
1.0
 40
1.0
 40
1.0
 40
1.0
 10
11.317207443
 20
6.5044269117
 30
0.0
 10
11.3144909565
 20
6.5097514385
 30
0.0
 10
11.3090541588
 20
6.5201837483
 30
0.0
 10
11.3007279916
 20
6.5353962342
 30
0.0
 10
11.2923575312
 20
6.5498678773
 30
0.0
 10
11.2866260542
 20
6.5591776171
 30
0.0
 10
11.2837455337
 20
6.5636897717
 30
0.0
  0
LINE
  5
358
100
AcDbEntity
  8
0
100
AcDbLine
 62
7
  6
CONTINUOUS
 10
12.2761075525
 20
6.1207836726
 11
12.2753784385
 21
6.120463785
  0
SPLINE
  5
359
100
AcDbEntity
  8
0
100
AcDbSpline
 62
7
  6
CONTINUOUS
 70
0
 71
3
 72
15
 73
11
 74
0
 42
0.0000001
 43
0.0000001
 44
0.0000000001
 40
0.0
 40
0.0
 40
0.0
 40
0.0
 40
0.1321602046
 40
0.2618009952
 40
0.3890353631
 40
0.5141096583
 40
0.6373677171
 40
0.75919507
 40
0.8799649792
 40
1.0
 40
1.0
 40
1.0
 40
1.0
 10
12.2753784385
 20
6.120463785
 30
0.0
 10
12.2629973351
 20
6.1150400428
 30
0.0
 10
12.2381565712
 20
6.1049930537
 30
0.0
 10
12.2003625081
 20
6.0924596163
 30
0.0
 10
12.1624917387
 20
6.0827423268
 30
0.0
 10
12.124665363
 20
6.0758738226
 30
0.0
 10
12.0869979771
 20
6.0717739941
 30
0.0
 10
12.0495823951
 20
6.0702673062
 30
0.0
 10
12.0124815585
 20
6.0711141539
 30
0.0
 10
11.9879171391
 20
6.0730735039
 30
0.0
 10
11.9757074978
 20
6.0743563364
 30
0.0
  0
SPLINE
  5
35A
100
AcDbEntity
  8
0
100
AcDbSpline
 62
7
  6
CONTINUOUS
 70
0
 71
3
 72
91
 73
87
 74
0
 42
0.0000001
 43
0.0000001
 44
0.0000000001
 40
0.0
 40
0.0
 40
0.0
 40
0.0
 40
0.0039801824
 40
0.0081241125
 40
0.0124359604
 40
0.0169193082
 40
0.0215771808
 40
0.0264119179
 40
0.0314251804
 40
0.036618156
 40
0.0419915391
 40
0.0475456573
 40
0.0532804234
 40
0.0591954189
 40
0.0652899227
 40
0.0715629017
 40
0.0780131034
 40
0.0846389837
 40
0.0984102885
 40
0.1128608532
 40
0.1279713725
 40
0.1437199568
 40
0.1600824082
 40
0.1770324532
 40
0.1945419392
 40
0.2125810061
 40
0.2311182422
 40
0.2501208275
 40
0.2695546626
 40
0.2893844909
 40
0.3095740146
 40
0.330086005
 40
0.35088241
 40
0.3719244606
 40
0.3931727759
 40
0.4145874652
 40
0.4361282289
 40
0.4577544586
 40
0.4794253371
 40
0.501099938
 40
0.5227373261
 40
0.5442966575
 40
0.5657372785
 40
0.5870188258
 40
0.6081013261
 40
0.6289452975
 40
0.6495118524
 40
0.6697628021
 40
0.6896607608
 40
0.7091692527
 40
0.7282528228
 40
0.7468771515
 40
0.7650091753
 40
0.7826172172
 40
0.7996711268
 40
0.8161424293
 40
0.8320044948
 40
0.8472327309
 40
0.8618048077
 40
0.8757009255
 40
0.8889041429
 40
0.8952417292
 40
0.9014012652
 40
0.9073816417
 40
0.9131820083
 40
0.9188018518
 40
0.9242409423
 40
0.9294994633
 40
0.9345779585
 40
0.9394774438
 40
0.944199427
 40
0.9487459568
 40
0.95311974
 40
0.9573241405
 40
0.9613633601
 40
0.9652424499
 40
0.9689674846
 40
0.9725456466
 40
0.9759853437
 40
0.9824865016
 40
0.9855753543
 40
0.9885738189
 40
0.9914977372
 40
0.9943643366
 40
0.9971920099
 40
1.0
 40
1.0
 40
1.0
 40
1.0
 10
11.3327614669
 20
10.6246801667
 30
0.0
 10
11.331460235
 20
10.6234232732
 30
0.0
 10
11.3287451456
 20
10.6209183757
 30
0.0
 10
11.3244344186
 20
10.6172597843
 30
0.0
 10
11.3198071389
 20
10.6136274365
 30
0.0
 10
11.314865845
 20
10.6100232608
 30
0.0
 10
11.3096129459
 20
10.6064489405
 30
0.0
 10
11.3040510155
 20
10.6029062145
 30
0.0
 10
11.2981828355
 20
10.5993967815
 30
0.0
 10
11.2920113174
 20
10.5959224626
 30
0.0
 10
11.2855395778
 20
10.5924849255
 30
0.0
 10
11.2787708338
 20
10.5890859387
 30
0.0
 10
11.2717084888
 20
10.5857271739
 30
0.0
 10
11.2643560854
 20
10.5824103285
 30
0.0
 10
11.2567173144
 20
10.5791370929
 30
0.0
 10
11.2487960313
 20
10.5759090842
 30
0.0
 10
11.2405962023
 20
10.5727279621
 30
0.0
 10
11.22914969
 20
10.5684966221
 30
0.0
 10
11.2141679895
 20
10.5633469993
 30
0.0
 10
11.1953711488
 20
10.5574561414
 30
0.0
 10
11.1755691923
 20
10.5517891585
 30
0.0
 10
11.1548020923
 20
10.546357578
 30
0.0
 10
11.1331116198
 20
10.5411724639
 30
0.0
 10
11.1105415167
 20
10.5362443788
 30
0.0
 10
11.087137323
 20
10.531583364
 30
0.0
 10
11.0629463005
 20
10.5271989121
 30
0.0
 10
11.0380173241
 20
10.5230999511
 30
0.0
 10
11.0124007783
 20
10.519294826
 30
0.0
 10
10.9861484514
 20
10.5157912825
 30
0.0
 10
10.9593134282
 20
10.5125964509
 30
0.0
 10
10.9319499812
 20
10.5097168325
 30
0.0
 10
10.9041134599
 20
10.5071582872
 30
0.0
 10
10.8758601784
 20
10.5049260182
 30
0.0
 10
10.8472472988
 20
10.5030245639
 30
0.0
 10
10.8183327144
 20
10.5014577901
 30
0.0
 10
10.789174931
 20
10.500228882
 30
0.0
 10
10.7598329482
 20
10.4993403384
 30
0.0
 10
10.7303661405
 20
10.4987939664
 30
0.0
 10
10.7008341362
 20
10.4985908782
 30
0.0
 10
10.6712966968
 20
10.4987314864
 30
0.0
 10
10.6418135943
 20
10.4992155038
 30
0.0
 10
10.61244449
 20
10.5000419456
 30
0.0
 10
10.583248813
 20
10.5012091317
 30
0.0
 10
10.5542856406
 20
10.5027146893
 30
0.0
 10
10.5256135781
 20
10.5045555582
 30
0.0
 10
10.4972906393
 20
10.5067279966
 30
0.0
 10
10.4693741277
 20
10.5092275871
 30
0.0
 10
10.4419205187
 20
10.5120492438
 30
0.0
 10
10.4149853449
 20
10.5151872263
 30
0.0
 10
10.3886230835
 20
10.5186351496
 30
0.0
 10
10.3628870443
 20
10.5223859972
 30
0.0
 10
10.3378292608
 20
10.5264321348
 30
0.0
 10
10.3135003816
 20
10.5307653261
 30
0.0
 10
10.2899495632
 20
10.5353767473
 30
0.0
 10
10.2672243643
 20
10.5402570042
 30
0.0
 10
10.2453706486
 20
10.5453961543
 30
0.0
 10
10.2244324783
 20
10.5507837286
 30
0.0
 10
10.2044520426
 20
10.5564087539
 30
0.0
 10
10.1854694722
 20
10.5622597813
 30
0.0
 10
10.1675230508
 20
10.5683249129
 30
0.0
 10
10.1532729097
 20
10.5736170477
 30
0.0
 10
10.142427083
 20
10.5779578996
 30
0.0
 10
10.1346851197
 20
10.581214902
 30
0.0
 10
10.1272281432
 20
10.5845160673
 30
0.0
 10
10.1200599037
 20
10.5878597948
 30
0.0
 10
10.1131839874
 20
10.5912443405
 30
0.0
 10
10.1066038633
 20
10.5946680684
 30
0.0
 10
10.1003228069
 20
10.5981292046
 30
0.0
 10
10.0943439745
 20
10.6016260645
 30
0.0
 10
10.0886703448
 20
10.6051568918
 30
0.0
 10
10.0833047388
 20
10.6087199314
 30
0.0
 10
10.0782498481
 20
10.6123134733
 30
0.0
 10
10.0735081517
 20
10.6159357079
 30
0.0
 10
10.0690820498
 20
10.6195849647
 30
0.0
 10
10.0649737102
 20
10.6232594291
 30
0.0
 10
10.0611852045
 20
10.6269574641
 30
0.0
 10
10.0577185198
 20
10.6306772074
 30
0.0
 10
10.0545751524
 20
10.6344174057
 30
0.0
 10
10.0508876857
 20
10.6393353352
 30
0.0
 10
10.0477564261
 20
10.6443858233
 30
0.0
 10
10.0452703421
 20
10.649544152
 30
0.0
 10
10.0437682613
 20
10.6533591211
 30
0.0
 10
10.0425985362
 20
10.6571833726
 30
0.0
 10
10.041762126
 20
10.661015049
 30
0.0
 10
10.0412599549
 20
10.6648514186
 30
0.0
 10
10.0411481612
 20
10.667414414
 30
0.0
 10
10.0411481614
 20
10.6686907489
 30
0.0
  0
SPLINE
  5
35B
100
AcDbEntity
  8
0
100
AcDbSpline
 62
7
  6
CONTINUOUS
 70
0
 71
3
 72
18
 73
14
 74
0
 42
0.0000001
 43
0.0000001
 44
0.0000000001
 40
0.0
 40
0.0
 40
0.0
 40
0.0
 40
0.150467608
 40
0.291710008
 40
0.4244359371
 40
0.549562455
 40
0.6682139939
 40
0.7255497488
 40
0.7817912909
 40
0.8371402503
 40
0.8918093826
 40
0.9460201179
 40
1.0
 40
1.0
 40
1.0
 40
1.0
 10
12.7507406639
 20
9.6642540894
 30
0.0
 10
12.752633401
 20
9.6660823332
 30
0.0
 10
12.7564161879
 20
9.6695125891
 30
0.0
 10
12.7622738028
 20
9.6740839909
 30
0.0
 10
12.7681245376
 20
9.6779072807
 30
0.0
 10
12.7739623349
 20
9.6809761832
 30
0.0
 10
12.7788689392
 20
9.6829222138
 30
0.0
 10
12.7827645662
 20
9.6840784287
 30
0.0
 10
12.7856447907
 20
9.6847448546
 30
0.0
 10
12.7885154598
 20
9.6852198334
 30
0.0
 10
12.7913757691
 20
9.6855031971
 30
0.0
 10
12.794224581
 20
9.6855947981
 30
0.0
 10
12.7961172497
 20
9.6855278565
 30
0.0
 10
12.7970590414
 20
9.6854625471
 30
0.0
  0
SPLINE
  5
35C
100
AcDbEntity
  8
0
100
AcDbSpline
 62
7
  6
CONTINUOUS
 70
0
 71
3
 72
23
 73
19
 74
0
 42
0.0000001
 43
0.0000001
 44
0.0000000001
 40
0.0
 40
0.0
 40
0.0
 40
0.0
 40
0.063777379
 40
0.1273447372
 40
0.1907019931
 40
0.2538561345
 40
0.3168131769
 40
0.3795820929
 40
0.4421733849
 40
0.5045993366
 40
0.5668738654
 40
0.6290123812
 40
0.6910316548
 40
0.7529496517
 40
0.8147853612
 40
0.8765586089
 40
0.9382898579
 40
1.0
 40
1.0
 40
1.0
 40
1.0
 10
10.9034443906
 20
7.6156014797
 30
0.0
 10
10.9034443906
 20
7.6092216875
 30
0.0
 10
10.9031390397
 20
7.5964809495
 30
0.0
 10
10.9017607823
 20
7.577447325
 30
0.0
 10
10.8994660127
 20
7.5585646093
 30
0.0
 10
10.8962601587
 20
7.5398770529
 30
0.0
 10
10.8921504379
 20
7.5214274426
 30
0.0
 10
10.8871463328
 20
7.5032584069
 30
0.0
 10
10.8812593109
 20
7.4854118124
 30
0.0
 10
10.8745029213
 20
7.4679288158
 30
0.0
 10
10.8668927093
 20
7.4508497341
 30
0.0
 10
10.8584461886
 20
7.4342139596
 30
0.0
 10
10.8491828076
 20
7.4180598708
 30
0.0
 10
10.8391238863
 20
7.4024247322
 30
0.0
 10
10.8282926389
 20
7.3873446488
 30
0.0
 10
10.8167139181
 20
7.3728542843
 30
0.0
 10
10.8044148771
 20
7.3589875235
 30
0.0
 10
10.795752586
 20
7.3501784432
 30
0.0
 10
10.7913126333
 20
7.3458897635
 30
0.0
  0
SPLINE
  5
35D
100
AcDbEntity
  8
0
100
AcDbSpline
 62
7
  6
CONTINUOUS
 70
0
 71
3
 72
21
 73
17
 74
0
 42
0.0000001
 43
0.0000001
 44
0.0000000001
 40
0.0
 40
0.0
 40
0.0
 40
0.0
 40
0.1273175725
 40
0.2538000026
 40
0.3167619332
 40
0.3795354925
 40
0.4421314982
 40
0.5045621433
 40
0.5668413429
 40
0.6289845306
 40
0.6910084612
 40
0.7529311022
 40
0.8147714553
 40
0.8765493457
 40
0.9382852283
 40
1.0
 40
1.0
 40
1.0
 40
1.0
 10
11.5530295473
 20
10.0462206006
 30
0.0
 10
11.5530295473
 20
10.0397222743
 30
0.0
 10
11.5524092399
 20
10.0267598838
 30
0.0
 10
11.5500665607
 20
10.010735567
 30
0.0
 10
11.5472665211
 20
9.9981658876
 30
0.0
 10
11.5447130337
 20
9.988894491
 30
0.0
 10
11.5417090478
 20
9.9797878217
 30
0.0
 10
11.5382614124
 20
9.9708666426
 30
0.0
 10
11.534378108
 20
9.9621515801
 30
0.0
 10
11.5300680656
 20
9.9536627163
 30
0.0
 10
11.5253411718
 20
9.9454196605
 30
0.0
 10
11.520208343
 20
9.9374414072
 30
0.0
 10
11.5146814352
 20
9.9297463695
 30
0.0
 10
11.5087730949
 20
9.9223522597
 30
0.0
 10
11.5024971779
 20
9.9152763731
 30
0.0
 10
11.4980770277
 20
9.9107812868
 30
0.0
 10
11.4958114247
 20
9.9085928706
 30
0.0
  0
SPLINE
  5
35E
100
AcDbEntity
  8
0
100
AcDbSpline
 62
7
  6
CONTINUOUS
 70
0
 71
3
 72
21
 73
17
 74
0
 42
0.0000001
 43
0.0000001
 44
0.0000000001
 40
0.0
 40
0.0
 40
0.0
 40
0.0
 40
0.1273175725
 40
0.2538000026
 40
0.3167619332
 40
0.3795354925
 40
0.4421314982
 40
0.5045621433
 40
0.5668413429
 40
0.6289845306
 40
0.6910084612
 40
0.7529311022
 40
0.8147714553
 40
0.8765493457
 40
0.9382852283
 40
1.0
 40
1.0
 40
1.0
 40
1.0
 10
10.4663629283
 20
6.9823220651
 30
0.0
 10
10.4663629283
 20
6.9758237388
 30
0.0
 10
10.4657426209
 20
6.9628613483
 30
0.0
 10
10.4633999418
 20
6.9468370315
 30
0.0
 10
10.4605999021
 20
6.9342673522
 30
0.0
 10
10.4580464147
 20
6.9249959556
 30
0.0
 10
10.4550424288
 20
6.9158892863
 30
0.0
 10
10.4515947935
 20
6.9069681071
 30
0.0
 10
10.447711489
 20
6.8982530446
 30
0.0
 10
10.4434014467
 20
6.8897641809
 30
0.0
 10
10.4386745529
 20
6.881521125
 30
0.0
 10
10.4335417241
 20
6.8735428718
 30
0.0
 10
10.4280148163
 20
6.865847834
 30
0.0
 10
10.422106476
 20
6.8584537242
 30
0.0
 10
10.4158305589
 20
6.8513778376
 30
0.0
 10
10.4114104087
 20
6.8468827514
 30
0.0
 10
10.4091448058
 20
6.8446943351
 30
0.0
  0
SPLINE
  5
35F
100
AcDbEntity
  8
0
100
AcDbSpline
 62
7
  6
CONTINUOUS
 70
0
 71
3
 72
38
 73
34
 74
0
 42
0.0000001
 43
0.0000001
 44
0.0000000001
 40
0.0
 40
0.0
 40
0.0
 40
0.0
 40
0.0318213842
 40
0.0634517453
 40
0.0949009978
 40
0.1261870727
 40
0.1573361254
 40
0.1883808024
 40
0.2193587437
 40
0.2503108134
 40
0.2812795003
 40
0.3123073478
 40
0.3434357194
 40
0.3747035059
 40
0.4061459684
 40
0.4377933804
 40
0.5017663165
 40
0.5341330617
 40
0.5667359539
 40
0.5995454247
 40
0.6325092685
 40
0.6655493744
 40
0.6985602916
 40
0.7314115124
 40
0.7639547776
 40
0.7960363795
 40
0.8275131174
 40
0.8582680657
 40
0.8882228369
 40
0.9173436997
 40
0.9456413584
 40
0.9731660522
 40
1.0
 40
1.0
 40
1.0
 40
1.0
 10
10.4293946922
 20
7.765704606
 30
0.0
 10
10.4293946922
 20
7.7616102332
 30
0.0
 10
10.4297065344
 20
7.7534424917
 30
0.0
 10
10.4311143895
 20
7.7413015492
 30
0.0
 10
10.4334446177
 20
7.7293729533
 30
0.0
 10
10.4366711644
 20
7.7177196731
 30
0.0
 10
10.4407598267
 20
7.7063958715
 30
0.0
 10
10.4456704733
 20
7.6954475268
 30
0.0
 10
10.4513591527
 20
7.6849119383
 30
0.0
 10
10.4577801367
 20
7.6748182812
 30
0.0
 10
10.4648875986
 20
7.6651884592
 30
0.0
 10
10.4726368903
 20
7.6560382599
 30
0.0
 10
10.4809854361
 20
7.6473785891
 30
0.0
 10
10.4898929736
 20
7.639216874
 30
0.0
 10
10.4993223317
 20
7.6315578456
 30
0.0
 10
10.5125870736
 20
7.6219893458
 30
0.0
 10
10.5267269305
 20
7.6134756323
 30
0.0
 10
10.5415594073
 20
7.6060318575
 30
0.0
 10
10.5530767258
 20
7.6009552063
 30
0.0
 10
10.564899014
 20
7.5964192226
 30
0.0
 10
10.5769785378
 20
7.592437316
 30
0.0
 10
10.5892581766
 20
7.5890257795
 30
0.0
 10
10.6016713734
 20
7.5862022695
 30
0.0
 10
10.6141421327
 20
7.5839845135
 30
0.0
 10
10.6265872124
 20
7.5823884214
 30
0.0
 10
10.6389201295
 20
7.5814262311
 30
0.0
 10
10.6510564815
 20
7.5811050846
 30
0.0
 10
10.662919439
 20
7.5814264506
 30
0.0
 10
10.6744441309
 20
7.5823865572
 30
0.0
 10
10.6855799007
 20
7.5839776023
 30
0.0
 10
10.6962906972
 20
7.5861895632
 30
0.0
 10
10.7065522627
 20
7.5890114512
 30
0.0
 10
10.7131615942
 20
7.5913195929
 30
0.0
 10
10.7163787038
 20
7.5925729948
 30
0.0
  0
SPLINE
  5
360
100
AcDbEntity
  8
0
100
AcDbSpline
 62
7
  6
CONTINUOUS
 70
0
 71
3
 72
15
 73
11
 74
0
 42
0.0000001
 43
0.0000001
 44
0.0000000001
 40
0.0
 40
0.0
 40
0.0
 40
0.0
 40
0.1264307955
 40
0.2525920121
 40
0.3784166992
 40
0.5038308705
 40
0.6287601659
 40
0.7531351875
 40
0.8768961469
 40
1.0
 40
1.0
 40
1.0
 40
1.0
 10
10.4538683176
 20
7.8539898559
 30
0.0
 10
10.4519226642
 20
7.8506046865
 30
0.0
 10
10.4482334578
 20
7.843725399
 30
0.0
 10
10.4433393754
 20
7.8331054847
 30
0.0
 10
10.4391241558
 20
7.8222311164
 30
0.0
 10
10.4356214355
 20
7.8111463608
 30
0.0
 10
10.432861318
 20
7.7998994766
 30
0.0
 10
10.4308693521
 20
7.7885427781
 30
0.0
 10
10.4296650088
 20
7.7771327384
 30
0.0
 10
10.4293946922
 20
7.7695063391
 30
0.0
 10
10.4293946922
 20
7.765704606
 30
0.0
  0
SPLINE
  5
361
100
AcDbEntity
  8
0
100
AcDbSpline
 62
7
  6
CONTINUOUS
 70
0
 71
3
 72
21
 73
17
 74
0
 42
0.0000001
 43
0.0000001
 44
0.0000000001
 40
0.0
 40
0.0
 40
0.0
 40
0.0
 40
0.1273176899
 40
0.2537999351
 40
0.3167619508
 40
0.3795355113
 40
0.4421314924
 40
0.5045621415
 40
0.5668413449
 40
0.6289845255
 40
0.6910084484
 40
0.7529310939
 40
0.814771448
 40
0.8765493308
 40
0.9382852181
 40
1.0
 40
1.0
 40
1.0
 40
1.0
 10
10.7340473054
 20
7.6709764505
 30
0.0
 10
10.7340473054
 20
7.6649862431
 30
0.0
 10
10.7334755043
 20
7.6530374247
 30
0.0
 10
10.7313159726
 20
7.6382661035
 30
0.0
 10
10.7287348741
 20
7.6266792925
 30
0.0
 10
10.7263810469
 20
7.6181328532
 30
0.0
 10
10.7236119097
 20
7.6097382778
 30
0.0
 10
10.7204338468
 20
7.6015146786
 30
0.0
 10
10.7168541853
 20
7.5934810755
 30
0.0
 10
10.7128811068
 20
7.5856560091
 30
0.0
 10
10.7085238024
 20
7.5780575173
 30
0.0
 10
10.7037923207
 20
7.5707031113
 30
0.0
 10
10.6986975274
 20
7.563609809
 30
0.0
 10
10.6932511401
 20
7.5567939006
 30
0.0
 10
10.6874659603
 20
7.5502712942
 30
0.0
 10
10.68339138
 20
7.5461277469
 30
0.0
 10
10.6813029321
 20
7.5441104486
 30
0.0
  0
SPLINE
  5
362
100
AcDbEntity
  8
0
100
AcDbSpline
 62
7
  6
CONTINUOUS
 70
0
 71
3
 72
37
 73
33
 74
0
 42
0.0000001
 43
0.0000001
 44
0.0000000001
 40
0.0
 40
0.0
 40
0.0
 40
0.0
 40
0.0307116543
 40
0.0615425044
 40
0.0924882586
 40
0.1235467246
 40
0.1547123722
 40
0.1859791039
 40
0.217339439
 40
0.2487848218
 40
0.2803057167
 40
0.31189171
 40
0.3435316429
 40
0.3752137378
 40
0.406925737
 40
0.4386550464
 40
0.5020927812
 40
0.5654464029
 40
0.597071568
 40
0.6286394213
 40
0.6601390116
 40
0.6915601709
 40
0.7228936372
 40
0.7541311728
 40
0.7852656713
 40
0.8162912505
 40
0.8472033341
 40
0.8779987193
 40
0.9086756336
 40
0.9392337764
 40
0.9696743379
 40
1.0
 40
1.0
 40
1.0
 40
1.0
 10
10.748968082
 20
7.6348888149
 30
0.0
 10
10.748968082
 20
7.6393088317
 30
0.0
 10
10.7487197861
 20
7.6481679676
 30
0.0
 10
10.7476088553
 20
7.6614388902
 30
0.0
 10
10.7457620463
 20
7.6746783094
 30
0.0
 10
10.7431853853
 20
7.6878441441
 30
0.0
 10
10.7398868279
 20
7.7008955243
 30
0.0
 10
10.7358767779
 20
7.713791575
 30
0.0
 10
10.7311677803
 20
7.7264920276
 30
0.0
 10
10.7257745995
 20
7.7389572026
 30
0.0
 10
10.7197141168
 20
7.7511481656
 30
0.0
 10
10.7130052954
 20
7.7630268302
 30
0.0
 10
10.7056690867
 20
7.7745561112
 30
0.0
 10
10.6977285031
 20
7.7856999068
 30
0.0
 10
10.6892080471
 20
7.7964237153
 30
0.0
 10
10.6771134289
 20
7.8101136975
 30
0.0
 10
10.6606866845
 20
7.8260092403
 30
0.0
 10
10.642703493
 20
7.8400960854
 30
0.0
 10
10.6275216527
 20
7.8501690824
 30
0.0
 10
10.6157795178
 20
7.8570993225
 30
0.0
 10
10.6037140439
 20
7.8633860004
 30
0.0
 10
10.5913625771
 20
7.8690097244
 30
0.0
 10
10.5787637874
 20
7.8739528056
 30
0.0
 10
10.5659570147
 20
7.8781997936
 30
0.0
 10
10.5529822805
 20
7.8817373812
 30
0.0
 10
10.5398801233
 20
7.8845544741
 30
0.0
 10
10.5266914911
 20
7.8866422192
 30
0.0
 10
10.5134575943
 20
7.887994029
 30
0.0
 10
10.5002198471
 20
7.8886056272
 30
0.0
 10
10.4870194905
 20
7.8884750421
 30
0.0
 10
10.4738983725
 20
7.8876027049
 30
0.0
 10
10.4652137261
 20
7.8865262588
 30
0.0
 10
10.460899618
 20
7.8858651802
 30
0.0
  0
SPLINE
  5
363
100
AcDbEntity
  8
0
100
AcDbSpline
 62
7
  6
CONTINUOUS
 70
0
 71
3
 72
19
 73
15
 74
0
 42
0.0000001
 43
0.0000001
 44
0.0000000001
 40
0.0
 40
0.0
 40
0.0
 40
0.0
 40
0.0612631006
 40
0.1227350666
 40
0.1844040832
 40
0.2462701852
 40
0.3705300767
 40
0.4954766211
 40
0.621014252
 40
0.7470268331
 40
0.810186546
 40
0.8734142556
 40
0.9366916504
 40
1.0
 40
1.0
 40
1.0
 40
1.0
 10
10.7340473054
 20
7.6709764505
 30
0.0
 10
10.7340473054
 20
7.6740047545
 30
0.0
 10
10.7339005129
 20
7.6800726929
 30
0.0
 10
10.733243323
 20
7.6891675375
 30
0.0
 10
10.7321500175
 20
7.6982507256
 30
0.0
 10
10.7301119316
 20
7.7103325602
 30
0.0
 10
10.7264844216
 20
7.7253004313
 30
0.0
 10
10.720460053
 20
7.742844851
 30
0.0
 10
10.7128140813
 20
7.7598404266
 30
0.0
 10
10.7051540432
 20
7.7734070777
 30
0.0
 10
10.6982946473
 20
7.7838328137
 30
0.0
 10
10.6927908919
 20
7.7914268463
 30
0.0
 10
10.6869457897
 20
7.7987702588
 30
0.0
 10
10.682830613
 20
7.803487281
 30
0.0
 10
10.6807207806
 20
7.8057985079
 30
0.0
  0
SPLINE
  5
364
100
AcDbEntity
  8
0
100
AcDbSpline
 62
7
  6
CONTINUOUS
 70
0
 71
3
 72
29
 73
25
 74
0
 42
0.0000001
 43
0.0000001
 44
0.0000000001
 40
0.0
 40
0.0
 40
0.0
 40
0.0
 40
0.0646780806
 40
0.1292370535
 40
0.1936075594
 40
0.2577263809
 40
0.3215385935
 40
0.3849994871
 40
0.4480762362
 40
0.5107492496
 40
0.5730130812
 40
0.6348769016
 40
0.6656748193
 40
0.6963828307
 40
0.7270060837
 40
0.7575505285
 40
0.7880228544
 40
0.818430458
 40
0.8487813629
 40
0.8790841332
 40
0.9093478159
 40
0.9395818437
 40
0.9697959317
 40
1.0
 40
1.0
 40
1.0
 40
1.0
 10
10.6686291556
 20
7.8179948597
 30
0.0
 10
10.6641428752
 20
7.8221616621
 30
0.0
 10
10.654806095
 20
7.8300967142
 30
0.0
 10
10.6398277961
 20
7.840698933
 30
0.0
 10
10.6240121574
 20
7.8499045325
 30
0.0
 10
10.6075012731
 20
7.8576299777
 30
0.0
 10
10.5904417766
 20
7.8638065352
 30
0.0
 10
10.5729856395
 20
7.8683786827
 30
0.0
 10
10.5552884262
 20
7.8713051907
 30
0.0
 10
10.537507643
 20
7.8725594081
 30
0.0
 10
10.5198030456
 20
7.872129839
 30
0.0
 10
10.5052179524
 20
7.8703677415
 30
0.0
 10
10.4937525788
 20
7.8681245313
 30
0.0
 10
10.4852818177
 20
7.8660329576
 30
0.0
 10
10.476947206
 20
7.8635346439
 30
0.0
 10
10.4687671222
 20
7.8606351263
 30
0.0
 10
10.460759948
 20
7.8573408291
 30
0.0
 10
10.4529435474
 20
7.8536591679
 30
0.0
 10
10.4453354162
 20
7.8495983411
 30
0.0
 10
10.4379525923
 20
7.8451673768
 30
0.0
 10
10.4308115715
 20
7.8403762503
 30
0.0
 10
10.4239282839
 20
7.8352355928
 30
0.0
 10
10.4173183711
 20
7.8297570597
 30
0.0
 10
10.4131030697
 20
7.8258869649
 30
0.0
 10
10.4110465099
 20
7.8239004684
 30
0.0
  0
SPLINE
  5
365
100
AcDbEntity
  8
0
100
AcDbSpline
 62
7
  6
CONTINUOUS
 70
0
 71
3
 72
18
 73
14
 74
0
 42
0.0000001
 43
0.0000001
 44
0.0000000001
 40
0.0
 40
0.0
 40
0.0
 40
0.0
 40
0.0548620589
 40
0.1099280789
 40
0.165399508
 40
0.2214731255
 40
0.2783387361
 40
0.3361775086
 40
0.4554063416
 40
0.5804417492
 40
0.7123343341
 40
0.8519577333
 40
1.0
 40
1.0
 40
1.0
 40
1.0
 10
11.3551481614
 20
10.668690749
 30
0.0
 10
11.3551481613
 20
10.6677628817
 30
0.0
 10
11.3550892591
 20
10.6659031647
 30
0.0
 10
11.3548244565
 20
10.6631166149
 30
0.0
 10
11.3543832695
 20
10.6603316708
 30
0.0
 10
11.3537658437
 20
10.6575493497
 30
0.0
 10
11.3529724184
 20
10.6547703539
 30
0.0
 10
11.3516674113
 20
10.6510333496
 30
0.0
 10
11.3495768121
 20
10.6463593577
 30
0.0
 10
11.3463947897
 20
10.6408393554
 30
0.0
 10
11.3425192589
 20
10.6353550827
 30
0.0
 10
11.3379561161
 20
10.6299120438
 30
0.0
 10
11.3345623359
 20
10.6264196728
 30
0.0
 10
11.3327614669
 20
10.6246801667
 30
0.0
  0
SPLINE
  5
366
100
AcDbEntity
  8
0
100
AcDbSpline
 62
7
  6
CONTINUOUS
 70
0
 71
3
 72
9
 73
5
 74
0
 42
0.0000001
 43
0.0000001
 44
0.0000000001
 40
0.0
 40
0.0
 40
0.0
 40
0.0
 40
0.5056175571
 40
1.0
 40
1.0
 40
1.0
 40
1.0
 10
9.3126716048
 20
10.7986042962
 30
0.0
 10
9.311621772
 20
10.7991309337
 30
0.0
 10
9.3095096903
 20
10.800102998
 30
0.0
 10
9.3073331872
 20
10.8009214486
 30
0.0
 10
9.3062438119
 20
10.8012849487
 30
0.0
  0
SPLINE
  5
367
100
AcDbEntity
  8
0
100
AcDbSpline
 62
7
  6
CONTINUOUS
 70
0
 71
3
 72
41
 73
37
 74
0
 42
0.0000001
 43
0.0000001
 44
0.0000000001
 40
0.0
 40
0.0
 40
0.0
 40
0.0
 40
0.0149724862
 40
0.0299480307
 40
0.0449296746
 40
0.0599204222
 40
0.0899350731
 40
0.1200204959
 40
0.1501975964
 40
0.1804850878
 40
0.2108990702
 40
0.2414526838
 40
0.2721558423
 40
0.303015057
 40
0.3340333403
 40
0.3652101893
 40
0.3965416515
 40
0.4280204628
 40
0.4596362457
 40
0.4913757643
 40
0.5232232351
 40
0.5551606749
 40
0.587168282
 40
0.6192248472
 40
0.6513081855
 40
0.6833955794
 40
0.7154642309
 40
0.7474917144
 40
0.779456424
 40
0.8113380097
 40
0.8431177978
 40
0.8747791805
 40
0.9063079772
 40
0.937692809
 40
0.9689250164
 40
1.0
 40
1.0
 40
1.0
 40
1.0
 10
10.2167554422
 20
7.9407116001
 30
0.0
 10
10.2201856817
 20
7.9440249684
 30
0.0
 10
10.2271793833
 20
7.9505167667
 30
0.0
 10
10.2380497407
 20
7.9598308641
 30
0.0
 10
10.2492862881
 20
7.9687098696
 30
0.0
 10
10.2647396815
 20
7.9799548342
 30
0.0
 10
10.2849049823
 20
7.9928685601
 30
0.0
 10
10.3102943203
 20
8.0064313963
 30
0.0
 10
10.3367494517
 20
8.0179961488
 30
0.0
 10
10.3641235575
 20
8.0274986289
 30
0.0
 10
10.3922660201
 20
8.0348869846
 30
0.0
 10
10.4210217323
 20
8.0401208292
 30
0.0
 10
10.4502323797
 20
8.0431717767
 30
0.0
 10
10.4797372213
 20
8.044023417
 30
0.0
 10
10.5093739882
 20
8.042671412
 30
0.0
 10
10.5389797665
 20
8.0391235882
 30
0.0
 10
10.5683918939
 20
8.033399807
 30
0.0
 10
10.5974488315
 20
8.0255318163
 30
0.0
 10
10.6259910367
 20
8.0155630955
 30
0.0
 10
10.653861854
 20
8.0035486718
 30
0.0
 10
10.6809083368
 20
7.9895547236
 30
0.0
 10
10.706982063
 20
7.9736582189
 30
0.0
 10
10.7319399707
 20
7.9559465556
 30
0.0
 10
10.7556451365
 20
7.9365170683
 30
0.0
 10
10.7779674821
 20
7.915476451
 30
0.0
 10
10.7987844761
 20
7.8929401894
 30
0.0
 10
10.8179818668
 20
7.8690319947
 30
0.0
 10
10.8354542507
 20
7.8438830717
 30
0.0
 10
10.8511056257
 20
7.8176314028
 30
0.0
 10
10.8648499416
 20
7.7904210203
 30
0.0
 10
10.8766116188
 20
7.7624012622
 30
0.0
 10
10.886325884
 20
7.7337258523
 30
0.0
 10
10.8939391373
 20
7.7045523204
 30
0.0
 10
10.8994092501
 20
7.6750403187
 30
0.0
 10
10.902705997
 20
7.645354001
 30
0.0
 10
10.9034443906
 20
7.6254997545
 30
0.0
 10
10.9034443906
 20
7.6156014797
 30
0.0
  0
SPLINE
  5
368
100
AcDbEntity
  8
0
100
AcDbSpline
 62
7
  6
CONTINUOUS
 70
0
 71
3
 72
41
 73
37
 74
0
 42
0.0000001
 43
0.0000001
 44
0.0000000001
 40
0.0
 40
0.0
 40
0.0
 40
0.0
 40
0.0299421722
 40
0.0599087187
 40
0.0899234222
 40
0.1200088965
 40
0.1501860486
 40
0.1804735921
 40
0.2108876267
 40
0.2414412921
 40
0.2721445039
 40
0.3030037728
 40
0.3340221097
 40
0.3651990124
 40
0.3965305293
 40
0.4280093954
 40
0.4596252325
 40
0.4913648061
 40
0.523212333
 40
0.5551498293
 40
0.5871574933
 40
0.6192141165
 40
0.6512975132
 40
0.6833849656
 40
0.7154536753
 40
0.7314763803
 40
0.7474860474
 40
0.7794508144
 40
0.8113324582
 40
0.8431123019
 40
0.8747737477
 40
0.9063025846
 40
0.9376874998
 40
0.9533255315
 40
0.9689249968
 40
1.0
 40
1.0
 40
1.0
 40
1.0
 10
11.202626947
 20
10.2121169238
 30
0.0
 10
11.2061273649
 20
10.2154980862
 30
0.0
 10
11.2134034202
 20
10.2219875683
 30
0.0
 10
11.2250608267
 20
10.2308283247
 30
0.0
 10
11.2374019421
 20
10.2387313994
 30
0.0
 10
11.2503578173
 20
10.2456524502
 30
0.0
 10
11.26385722
 20
10.2515536676
 30
0.0
 10
11.2778256489
 20
10.2564026116
 30
0.0
 10
11.2921861295
 20
10.2601727509
 30
0.0
 10
11.3068595458
 20
10.2628435011
 30
0.0
 10
11.3217651081
 20
10.2644003536
 30
0.0
 10
11.3368207933
 20
10.2648349377
 30
0.0
 10
11.351943798
 20
10.2641450594
 30
0.0
 10
11.3670509917
 20
10.2623347004
 30
0.0
 10
11.3820593691
 20
10.2594139876
 30
0.0
 10
11.396886501
 20
10.2553991309
 30
0.0
 10
11.411450981
 20
10.2503123285
 30
0.0
 10
11.4256728657
 20
10.2441816418
 30
0.0
 10
11.4394741079
 20
10.2370408385
 30
0.0
 10
11.4527789767
 20
10.2289292092
 30
0.0
 10
11.4655144756
 20
10.2198913405
 30
0.0
 10
11.4776107069
 20
10.209976916
 30
0.0
 10
11.4890013671
 20
10.1992402785
 30
0.0
 10
11.4996236714
 20
10.1877407573
 30
0.0
 10
11.5077901757
 20
10.1775702129
 30
0.0
 10
11.513883151
 20
10.1691164483
 30
0.0
 10
11.5196695583
 20
10.1604702957
 30
0.0
 10
11.5263222995
 20
10.1493119296
 30
0.0
 10
11.5333355749
 20
10.1354272967
 30
0.0
 10
11.5393373541
 20
10.1211293727
 30
0.0
 10
11.5442943272
 20
10.106496876
 30
0.0
 10
11.5481791876
 20
10.0916105018
 30
0.0
 10
11.5505082389
 20
10.0790447827
 30
0.0
 10
11.5518147761
 20
10.0689483941
 30
0.0
 10
11.5527472146
 20
10.0588616621
 30
0.0
 10
11.5530295473
 20
10.0512714715
 30
0.0
 10
11.5530295473
 20
10.0462206006
 30
0.0
  0
SPLINE
  5
369
100
AcDbEntity
  8
0
100
AcDbSpline
 62
7
  6
CONTINUOUS
 70
0
 71
3
 72
41
 73
37
 74
0
 42
0.0000001
 43
0.0000001
 44
0.0000000001
 40
0.0
 40
0.0
 40
0.0
 40
0.0
 40
0.0299421722
 40
0.0599087187
 40
0.0899234222
 40
0.1200088965
 40
0.1501860486
 40
0.1804735921
 40
0.2108876267
 40
0.2414412921
 40
0.2721445039
 40
0.3030037728
 40
0.3340221097
 40
0.3651990124
 40
0.3965305293
 40
0.4280093954
 40
0.4596252325
 40
0.4913648061
 40
0.523212333
 40
0.5551498293
 40
0.5871574933
 40
0.6192141165
 40
0.6512975132
 40
0.6833849656
 40
0.7154536753
 40
0.7314763803
 40
0.7474860474
 40
0.7794508144
 40
0.8113324582
 40
0.8431123019
 40
0.8747737477
 40
0.9063025846
 40
0.9376874998
 40
0.9533255315
 40
0.9689249968
 40
1.0
 40
1.0
 40
1.0
 40
1.0
 10
10.115960328
 20
7.1482183883
 30
0.0
 10
10.1194607459
 20
7.1515995507
 30
0.0
 10
10.1267368012
 20
7.1580890328
 30
0.0
 10
10.1383942077
 20
7.1669297892
 30
0.0
 10
10.1507353231
 20
7.174832864
 30
0.0
 10
10.1636911984
 20
7.1817539148
 30
0.0
 10
10.177190601
 20
7.1876551322
 30
0.0
 10
10.1911590299
 20
7.1925040761
 30
0.0
 10
10.2055195106
 20
7.1962742154
 30
0.0
 10
10.2201929268
 20
7.1989449656
 30
0.0
 10
10.2350984891
 20
7.2005018181
 30
0.0
 10
10.2501541743
 20
7.2009364022
 30
0.0
 10
10.2652771791
 20
7.200246524
 30
0.0
 10
10.2803843728
 20
7.1984361649
 30
0.0
 10
10.2953927501
 20
7.1955154521
 30
0.0
 10
10.310219882
 20
7.1915005954
 30
0.0
 10
10.324784362
 20
7.186413793
 30
0.0
 10
10.3390062467
 20
7.1802831063
 30
0.0
 10
10.352807489
 20
7.173142303
 30
0.0
 10
10.3661123578
 20
7.1650306737
 30
0.0
 10
10.3788478567
 20
7.1559928051
 30
0.0
 10
10.390944088
 20
7.1460783805
 30
0.0
 10
10.4023347481
 20
7.135341743
 30
0.0
 10
10.4129570524
 20
7.1238422218
 30
0.0
 10
10.4211235568
 20
7.1136716774
 30
0.0
 10
10.4272165321
 20
7.1052179128
 30
0.0
 10
10.4330029394
 20
7.0965717603
 30
0.0
 10
10.4396556805
 20
7.0854133941
 30
0.0
 10
10.4466689559
 20
7.0715287613
 30
0.0
 10
10.4526707351
 20
7.0572308372
 30
0.0
 10
10.4576277083
 20
7.0425983405
 30
0.0
 10
10.4615125686
 20
7.0277119664
 30
0.0
 10
10.4638416199
 20
7.0151462472
 30
0.0
 10
10.4651481571
 20
7.0050498587
 30
0.0
 10
10.4660805956
 20
6.9949631266
 30
0.0
 10
10.4663629283
 20
6.987372936
 30
0.0
 10
10.4663629283
 20
6.9823220651
 30
0.0
  0
SPLINE
  5
36A
100
AcDbEntity
  8
0
100
AcDbSpline
 62
7
  6
CONTINUOUS
 70
0
 71
3
 72
91
 73
87
 74
0
 42
0.0000001
 43
0.0000001
 44
0.0000000001
 40
0.0
 40
0.0
 40
0.0
 40
0.0
 40
0.0027164146
 40
0.005453202
 40
0.008230252
 40
0.0110665198
 40
0.0139797053
 40
0.0169859824
 40
0.0200999174
 40
0.023334401
 40
0.0267007187
 40
0.0302086385
 40
0.0338665091
 40
0.0376814414
 40
0.0416593691
 40
0.0458052582
 40
0.0501231421
 40
0.0546162891
 40
0.0592872586
 40
0.064137982
 40
0.0691698666
 40
0.0743837897
 40
0.079780237
 40
0.0853592528
 40
0.0911205635
 40
0.0970635488
 40
0.1031872988
 40
0.1094906474
 40
0.1226297881
 40
0.1364673429
 40
0.1509860432
 40
0.166165828
 40
0.1819841602
 40
0.1984162836
 40
0.2154354412
 40
0.2330130641
 40
0.2511189358
 40
0.2697213391
 40
0.2887871904
 40
0.3082821639
 40
0.3281708096
 40
0.3484166635
 40
0.368982358
 40
0.3898297276
 40
0.4109199118
 40
0.4322134566
 40
0.4536704139
 40
0.4752504412
 40
0.4969128994
 40
0.5186169519
 40
0.5403216628
 40
0.5619860952
 40
0.5835694083
 40
0.6050309559
 40
0.6263303839
 40
0.6474277291
 40
0.6682835187
 40
0.688858872
 40
0.7091156002
 40
0.7290163102
 40
0.7485245085
 40
0.7676047097
 40
0.7862225487
 40
0.8043448976
 40
0.8219399925
 40
0.8389775679
 40
0.8554290014
 40
0.8712674776
 40
0.8864681732
 40
0.9010084737
 40
0.9148682315
 40
0.9280300795
 40
0.9343449284
 40
0.9404802779
 40
0.9464349254
 40
0.952207944
 40
0.9577987094
 40
0.9632068925
 40
0.9684325652
 40
0.9734761403
 40
0.9783384919
 40
0.9830209404
 40
0.9875254382
 40
0.9918545985
 40
0.9960115586
 40
1.0
 40
1.0
 40
1.0
 40
1.0
 10
12.7044222864
 20
8.3496708736
 30
0.0
 10
12.7031727464
 20
8.3497575241
 30
0.0
 10
12.7006706925
 20
8.3500445602
 30
0.0
 10
12.6969494576
 20
8.3508126726
 30
0.0
 10
12.6932563618
 20
8.3519182765
 30
0.0
 10
12.6895939957
 20
8.3533601947
 30
0.0
 10
12.6859643088
 20
8.3551372721
 30
0.0
 10
12.6823690993
 20
8.3572479976
 30
0.0
 10
12.6788100789
 20
8.3596909612
 30
0.0
 10
12.6752887936
 20
8.3624645581
 30
0.0
 10
12.6718067739
 20
8.365567187
 30
0.0
 10
12.6683655416
 20
8.3689971664
 30
0.0
 10
12.6649665518
 20
8.3727526704
 30
0.0
 10
12.6616113791
 20
8.3768318435
 30
0.0
 10
12.6583014686
 20
8.3812326014
 30
0.0
 10
12.6550384191
 20
8.3859528139
 30
0.0
 10
12.6518237075
 20
8.3909901242
 30
0.0
 10
12.6486588977
 20
8.3963420713
 30
0.0
 10
12.6455455121
 20
8.4020060143
 30
0.0
 10
12.6424850444
 20
8.4079791502
 30
0.0
 10
12.6394790428
 20
8.4142585394
 30
0.0
 10
12.6365289323
 20
8.4208410501
 30
0.0
 10
12.6336362416
 20
8.427723431
 30
0.0
 10
12.6308023549
 20
8.4349022409
 30
0.0
 10
12.628028729
 20
8.4423739126
 30
0.0
 10
12.625316739
 20
8.4501347082
 30
0.0
 10
12.6226677182
 20
8.4581807616
 30
0.0
 10
12.6191730939
 20
8.4694399924
 30
0.0
 10
12.6149841539
 20
8.4842054133
 30
0.0
 10
12.6102960058
 20
8.5027581069
 30
0.0
 10
12.6058889359
 20
8.5223450475
 30
0.0
 10
12.6017718867
 20
8.5429269707
 30
0.0
 10
12.5979532374
 20
8.5644627733
 30
0.0
 10
12.5944407582
 20
8.586909312
 30
0.0
 10
12.5912415975
 20
8.6102215886
 30
0.0
 10
12.5883622671
 20
8.6343528268
 30
0.0
 10
12.5858086278
 20
8.6592545807
 30
0.0
 10
12.5835858783
 20
8.6848768358
 30
0.0
 10
12.5816985452
 20
8.7111681135
 30
0.0
 10
12.5801504737
 20
8.7380755776
 30
0.0
 10
12.5789448215
 20
8.765545142
 30
0.0
 10
12.5780840497
 20
8.793521581
 30
0.0
 10
12.5775699204
 20
8.821948643
 30
0.0
 10
12.5774034943
 20
8.8507691653
 30
0.0
 10
12.5775851285
 20
8.8799251905
 30
0.0
 10
12.5781144767
 20
8.9093580838
 30
0.0
 10
12.5789904895
 20
8.9390086508
 30
0.0
 10
12.5802114172
 20
8.9688172575
 30
0.0
 10
12.5817748131
 20
8.9987239502
 30
0.0
 10
12.5836775365
 20
9.0286685771
 30
0.0
 10
12.5859157611
 20
9.05859091
 30
0.0
 10
12.5884849834
 20
9.0884307662
 30
0.0
 10
12.591380031
 20
9.1181281299
 30
0.0
 10
12.5945950738
 20
9.1476232725
 30
0.0
 10
12.5981236349
 20
9.1768568736
 30
0.0
 10
12.601958604
 20
9.2057701405
 30
0.0
 10
12.6060922509
 20
9.2343049279
 30
0.0
 10
12.6105162393
 20
9.2624038562
 30
0.0
 10
12.6152216457
 20
9.2900104276
 30
0.0
 10
12.620198977
 20
9.3170691401
 30
0.0
 10
12.6254381892
 20
9.3435256002
 30
0.0
 10
12.6309287074
 20
9.3693266333
 30
0.0
 10
12.6366594466
 20
9.394420393
 30
0.0
 10
12.6426188346
 20
9.4187564677
 30
0.0
 10
12.6487948329
 20
9.4422859873
 30
0.0
 10
12.6551749618
 20
9.4649617259
 30
0.0
 10
12.6617463274
 20
9.4867381991
 30
0.0
 10
12.6684956491
 20
9.5075717684
 30
0.0
 10
12.6754092872
 20
9.5274207125
 30
0.0
 10
12.6824732787
 20
9.5462454091
 30
0.0
 10
12.6896733605
 20
9.5640081294
 30
0.0
 10
12.6958570711
 20
9.5780838279
 30
0.0
 10
12.7008700237
 20
9.5887773482
 30
0.0
 10
12.7046027809
 20
9.5963993282
 30
0.0
 10
12.7083586583
 20
9.6037303281
 30
0.0
 10
12.7121358059
 20
9.6107666885
 30
0.0
 10
12.715932298
 20
9.6175049057
 30
0.0
 10
12.7197462863
 20
9.6239416054
 30
0.0
 10
12.7235758174
 20
9.6300736101
 30
0.0
 10
12.7274190495
 20
9.6358978418
 30
0.0
 10
12.7312740126
 20
9.6414114261
 30
0.0
 10
12.7351388441
 20
9.6466116252
 30
0.0
 10
12.7390116753
 20
9.651495901
 30
0.0
 10
12.7428906871
 20
9.6560618925
 30
0.0
 10
12.746773839
 20
9.660307123
 30
0.0
 10
12.749417902
 20
9.6629763995
 30
0.0
 10
12.7507406639
 20
9.6642540894
 30
0.0
  0
SPLINE
  5
36B
100
AcDbEntity
  8
0
100
AcDbSpline
 62
7
  6
CONTINUOUS
 70
0
 71
3
 72
78
 73
74
 74
0
 42
0.0000001
 43
0.0000001
 44
0.0000000001
 40
0.0
 40
0.0
 40
0.0
 40
0.0
 40
0.0027966476
 40
0.0056681923
 40
0.0116913031
 40
0.0148721197
 40
0.0181792354
 40
0.0216218554
 40
0.0252078937
 40
0.0289441294
 40
0.032836236
 40
0.03688899
 40
0.0411063258
 40
0.045491408
 40
0.0500468006
 40
0.0547744319
 40
0.0596757348
 40
0.064751701
 40
0.0700028536
 40
0.0810305963
 40
0.0927572205
 40
0.1051757946
 40
0.1182756111
 40
0.1320427083
 40
0.1464602862
 40
0.1615090655
 40
0.1771675585
 40
0.1934122822
 40
0.2102179317
 40
0.2275575676
 40
0.2454027642
 40
0.2637237333
 40
0.2824894264
 40
0.3016676614
 40
0.3212252345
 40
0.341128016
 40
0.3613410359
 40
0.3818285826
 40
0.4234806063
 40
0.4657878676
 40
0.508447355
 40
0.5511528464
 40
0.593597699
 40
0.6354776433
 40
0.6561123902
 40
0.6764943337
 40
0.6965873647
 40
0.7163560583
 40
0.7357657743
 40
0.7547827399
 40
0.7733741445
 40
0.7915082456
 40
0.8091544938
 40
0.82628363
 40
0.8428678026
 40
0.8588807047
 40
0.8742977492
 40
0.8890962286
 40
0.9032555052
 40
0.9167572512
 40
0.9295857653
 40
0.9417283401
 40
0.9531756968
 40
0.9586371424
 40
0.9639232299
 40
0.9690340425
 40
0.9739700665
 40
0.9787321594
 40
0.9833216466
 40
0.9877404821
 40
0.9919911256
 40
0.9960764804
 40
1.0
 40
1.0
 40
1.0
 40
1.0
 10
12.6790669492
 20
8.5500373457
 30
0.0
 10
12.6782161874
 20
8.5503381377
 30
0.0
 10
12.6765163448
 20
8.5510194602
 30
0.0
 10
12.6731321439
 20
8.5526926808
 30
0.0
 10
12.6698421369
 20
8.5548076978
 30
0.0
 10
12.6666663125
 20
8.5573020774
 30
0.0
 10
12.664266746
 20
8.5594284966
 30
0.0
 10
12.661894753
 20
8.5617748528
 30
0.0
 10
12.6595509645
 20
8.5643401692
 30
0.0
 10
12.657236525
 20
8.5671231878
 30
0.0
 10
12.6549523512
 20
8.5701225578
 30
0.0
 10
12.6526994894
 20
8.5733368854
 30
0.0
 10
12.650478953
 20
8.5767646634
 30
0.0
 10
12.6482917089
 20
8.5804042631
 30
0.0
 10
12.6461388167
 20
8.5842540029
 30
0.0
 10
12.6440212331
 20
8.5883120524
 30
0.0
 10
12.6419399593
 20
8.5925765017
 30
0.0
 10
12.6398959775
 20
8.5970453554
 30
0.0
 10
12.6371772016
 20
8.6033772548
 30
0.0
 10
12.633889256
 20
8.6117971988
 30
0.0
 10
12.6301691746
 20
8.6225216061
 30
0.0
 10
12.6266198583
 20
8.6340052505
 30
0.0
 10
12.6232481176
 20
8.6462263266
 30
0.0
 10
12.620060446
 20
8.659161789
 30
0.0
 10
12.6170629917
 20
8.6727870721
 30
0.0
 10
12.6142615541
 20
8.6870762636
 30
0.0
 10
12.6116615612
 20
8.7020021401
 30
0.0
 10
12.609268056
 20
8.7175362263
 30
0.0
 10
12.6070856675
 20
8.7336488514
 30
0.0
 10
12.6051186226
 20
8.750309218
 30
0.0
 10
12.6033707342
 20
8.7674854713
 30
0.0
 10
12.6018453968
 20
8.7851447561
 30
0.0
 10
12.6005455613
 20
8.8032532784
 30
0.0
 10
12.5994737447
 20
8.8217763739
 30
0.0
 10
12.5986320258
 20
8.8406785853
 30
0.0
 10
12.5980220524
 20
8.8599237157
 30
0.0
 10
12.5976449897
 20
8.8794749422
 30
0.0
 10
12.5974528279
 20
8.9060467725
 30
0.0
 10
12.5978055746
 20
8.939749151
 30
0.0
 10
12.599154472
 20
8.9805851314
 30
0.0
 10
12.6014213241
 20
9.0217209262
 30
0.0
 10
12.6045888367
 20
9.0628417009
 30
0.0
 10
12.6086327466
 20
9.1036327442
 30
0.0
 10
12.61272686
 20
9.137253987
 30
0.0
 10
12.6164231503
 20
9.1637454163
 30
0.0
 10
12.6193795509
 20
9.1832407639
 30
0.0
 10
12.6225279628
 20
9.2024228945
 30
0.0
 10
12.6258623653
 20
9.221255103
 30
0.0
 10
12.6293763389
 20
9.2397013283
 30
0.0
 10
12.6330631321
 20
9.2577262607
 30
0.0
 10
12.6369156602
 20
9.275295396
 30
0.0
 10
12.6409265218
 20
9.2923751112
 30
0.0
 10
12.6450879964
 20
9.3089327355
 30
0.0
 10
12.6493920776
 20
9.3249366091
 30
0.0
 10
12.6538304851
 20
9.3403561396
 30
0.0
 10
12.658394686
 20
9.3551618687
 30
0.0
 10
12.6630758922
 20
9.3693255429
 30
0.0
 10
12.6678650938
 20
9.3828201671
 30
0.0
 10
12.6727530809
 20
9.3956200604
 30
0.0
 10
12.677730469
 20
9.4077008911
 30
0.0
 10
12.6827877201
 20
9.4190398361
 30
0.0
 10
12.6879151424
 20
9.4296153369
 30
0.0
 10
12.6923044938
 20
9.437900773
 30
0.0
 10
12.695850514
 20
9.4441231944
 30
0.0
 10
12.6984796925
 20
9.4485134432
 30
0.0
 10
12.7011190946
 20
9.4526984601
 30
0.0
 10
12.703767455
 20
9.456676277
 30
0.0
 10
12.7064235095
 20
9.4604450103
 30
0.0
 10
12.7090860634
 20
9.4640028796
 30
0.0
 10
12.7117538665
 20
9.467348267
 30
0.0
 10
12.7144257545
 20
9.4704795837
 30
0.0
 10
12.7171003134
 20
9.4733952104
 30
0.0
 10
12.7189204816
 20
9.4752307534
 30
0.0
 10
12.7198310349
 20
9.4761102804
 30
0.0
  0
SPLINE
  5
36C
100
AcDbEntity
  8
0
100
AcDbSpline
 62
7
  6
CONTINUOUS
 70
0
 71
3
 72
15
 73
11
 74
0
 42
0.0000001
 43
0.0000001
 44
0.0000000001
 40
0.0
 40
0.0
 40
0.0
 40
0.0
 40
0.1084409689
 40
0.2203200574
 40
0.3363916714
 40
0.4573220485
 40
0.5836914378
 40
0.7159983307
 40
0.8546576762
 40
1.0
 40
1.0
 40
1.0
 40
1.0
 10
12.7442894383
 20
9.4905141043
 30
0.0
 10
12.743270941
 20
9.4903062054
 30
0.0
 10
12.7412207045
 20
9.4897848974
 30
0.0
 10
12.7381750539
 20
9.4887142616
 30
0.0
 10
12.7351195209
 20
9.4873458984
 30
0.0
 10
12.7320562839
 20
9.4856812129
 30
0.0
 10
12.7289868977
 20
9.4837215954
 30
0.0
 10
12.7259130032
 20
9.4814684925
 30
0.0
 10
12.7228364756
 20
9.4789236198
 30
0.0
 10
12.7208331221
 20
9.4770782224
 30
0.0
 10
12.7198310349
 20
9.4761102804
 30
0.0
  0
SPLINE
  5
36D
100
AcDbEntity
  8
0
100
AcDbSpline
 62
7
  6
CONTINUOUS
 70
0
 71
3
 72
79
 73
75
 74
0
 42
0.0000001
 43
0.0000001
 44
0.0000000001
 40
0.0
 40
0.0
 40
0.0
 40
0.0
 40
0.0069315574
 40
0.0105986767
 40
0.0144066877
 40
0.0183600657
 40
0.022462566
 40
0.026717331
 40
0.0311268813
 40
0.0356932613
 40
0.0404180349
 40
0.0453023372
 40
0.0503469664
 40
0.0555523326
 40
0.060918574
 40
0.06644554
 40
0.0721328008
 40
0.0839850491
 40
0.0964680903
 40
0.1095712258
 40
0.1232811587
 40
0.1375823026
 40
0.1524570208
 40
0.1678858364
 40
0.1838476189
 40
0.2003197345
 40
0.2172781737
 40
0.2346976581
 40
0.252551756
 40
0.2708129854
 40
0.2894529036
 40
0.308442189
 40
0.327750719
 40
0.3473476593
 40
0.3672015419
 40
0.3872803383
 40
0.4075515304
 40
0.4485384014
 40
0.4898957113
 40
0.531353215
 40
0.572639826
 40
0.6134858936
 40
0.6336607498
 40
0.6536261848
 40
0.6733499231
 40
0.6928002158
 40
0.711945919
 40
0.7307565654
 40
0.7492024402
 40
0.7672546618
 40
0.7848852768
 40
0.8020673462
 40
0.818775033
 40
0.8349837026
 40
0.8506700379
 40
0.8658121762
 40
0.8803898387
 40
0.8943844882
 40
0.90777952
 40
0.9205605005
 40
0.9327154537
 40
0.944235197
 40
0.949755112
 40
0.9551143006
 40
0.9603126017
 40
0.9653501843
 40
0.9702274804
 40
0.9749452775
 40
0.9795047293
 40
0.9839073988
 40
0.9881554274
 40
0.9922514367
 40
0.9961984568
 40
1.0
 40
1.0
 40
1.0
 40
1.0
 10
11.3420638879
 20
10.6348431395
 30
0.0
 10
11.3401743136
 20
10.6372568867
 30
0.0
 10
11.3370840284
 20
10.6407937899
 30
0.0
 10
11.332584042
 20
10.6453053295
 30
0.0
 10
11.3288676925
 20
10.6487329939
 30
0.0
 10
11.3248755767
 20
10.6521392378
 30
0.0
 10
11.3206091603
 20
10.6555229296
 30
0.0
 10
11.3160703305
 20
10.6588825303
 30
0.0
 10
11.3112610622
 20
10.6622167048
 30
0.0
 10
11.3061834118
 20
10.6655239882
 30
0.0
 10
11.3008395782
 20
10.6688029753
 30
0.0
 10
11.2952318859
 20
10.6720522862
 30
0.0
 10
11.2893627407
 20
10.675270464
 30
0.0
 10
11.2832347114
 20
10.6784561698
 30
0.0
 10
11.2768504496
 20
10.6816079831
 30
0.0
 10
11.2702127226
 20
10.6847245536
 30
0.0
 10
11.2608998845
 20
10.6888885391
 30
0.0
 10
11.2486370498
 20
10.6939852677
 30
0.0
 10
11.2331545056
 20
10.699858295
 30
0.0
 10
11.2167356934
 20
10.7055591904
 30
0.0
 10
11.1994092626
 20
10.7110779375
 30
0.0
 10
11.1812052779
 20
10.7164048268
 30
0.0
 10
11.1621554646
 20
10.7215304777
 30
0.0
 10
11.1422930552
 20
10.7264458647
 30
0.0
 10
11.1216527382
 20
10.7311423239
 30
0.0
 10
11.1002705828
 20
10.7356115758
 30
0.0
 10
11.078183979
 20
10.739845736
 30
0.0
 10
11.0554315724
 20
10.7438373469
 30
0.0
 10
11.0320531899
 20
10.7475793782
 30
0.0
 10
11.0080897616
 20
10.751065237
 30
0.0
 10
10.9835832479
 20
10.7542887802
 30
0.0
 10
10.9585765701
 20
10.7572443261
 30
0.0
 10
10.9331135361
 20
10.7599266763
 30
0.0
 10
10.9072387544
 20
10.7623311116
 30
0.0
 10
10.8809975682
 20
10.7644533921
 30
0.0
 10
10.8544359167
 20
10.7662898032
 30
0.0
 10
10.8185246592
 20
10.768360287
 30
0.0
 10
10.7731777377
 20
10.7702067208
 30
0.0
 10
10.7184334407
 20
10.7712369543
 30
0.0
 10
10.6635469445
 20
10.7710822136
 30
0.0
 10
10.6089028625
 20
10.7697436207
 30
0.0
 10
10.5637033292
 20
10.7676411191
 30
0.0
 10
10.5279596854
 20
10.7653671888
 30
0.0
 10
10.501559507
 20
10.763381129
 30
0.0
 10
10.4755038677
 20
10.7611110882
 30
0.0
 10
10.4498383829
 20
10.7585610341
 30
0.0
 10
10.4246080262
 20
10.7557354687
 30
0.0
 10
10.3998569921
 20
10.7526393657
 30
0.0
 10
10.3756286371
 20
10.749278177
 30
0.0
 10
10.3519653959
 20
10.7456578164
 30
0.0
 10
10.3289087016
 20
10.7417846644
 30
0.0
 10
10.3064989116
 20
10.7376655495
 30
0.0
 10
10.2847752412
 20
10.7333077308
 30
0.0
 10
10.2637756937
 20
10.7287188868
 30
0.0
 10
10.2435369859
 20
10.7239071003
 30
0.0
 10
10.2240944717
 20
10.7188808589
 30
0.0
 10
10.2054820824
 20
10.713649023
 30
0.0
 10
10.1877322593
 20
10.7082208084
 30
0.0
 10
10.1708759147
 20
10.7026057653
 30
0.0
 10
10.1549422621
 20
10.6968137515
 30
0.0
 10
10.139959076
 20
10.6908549421
 30
0.0
 10
10.1281238459
 20
10.6856880511
 30
0.0
 10
10.1191603938
 20
10.6814704162
 30
0.0
 10
10.1127873072
 20
10.6783170798
 30
0.0
 10
10.1066705888
 20
10.6751299192
 30
0.0
 10
10.1008128618
 20
10.6719103419
 30
0.0
 10
10.0952166889
 20
10.6686597026
 30
0.0
 10
10.0898844964
 20
10.6653794276
 30
0.0
 10
10.0848185868
 20
10.6620709632
 30
0.0
 10
10.0800211583
 20
10.6587356588
 30
0.0
 10
10.0754942171
 20
10.655374947
 30
0.0
 10
10.071239718
 20
10.6519901634
 30
0.0
 10
10.0672596898
 20
10.6485829342
 30
0.0
 10
10.0647440574
 20
10.6462545183
 30
0.0
 10
10.0635348559
 20
10.6450865193
 30
0.0
  0
SPLINE
  5
36E
100
AcDbEntity
  8
0
100
AcDbSpline
 62
7
  6
CONTINUOUS
 70
0
 71
3
 72
54
 73
50
 74
0
 42
0.0000001
 43
0.0000001
 44
0.0000000001
 40
0.0
 40
0.0
 40
0.0
 40
0.0
 40
0.0099472337
 40
0.0203698704
 40
0.0312644864
 40
0.0426260491
 40
0.0544480896
 40
0.0667227976
 40
0.0794412503
 40
0.0925934343
 40
0.1061683672
 40
0.1201542188
 40
0.1345382898
 40
0.1493071622
 40
0.1644467127
 40
0.1799421393
 40
0.1957780755
 40
0.2119385556
 40
0.2451662193
 40
0.2794882552
 40
0.3147604925
 40
0.3508330981
 40
0.3875515635
 40
0.424757678
 40
0.4622904654
 40
0.4999871083
 40
0.5376838689
 40
0.5752170109
 40
0.6124237148
 40
0.6491429955
 40
0.6852166394
 40
0.7204901413
 40
0.7548136583
 40
0.7880429977
 40
0.8200406729
 40
0.8355371161
 40
0.8506777018
 40
0.8654476672
 40
0.8798328731
 40
0.8938198766
 40
0.9073960261
 40
0.9205494374
 40
0.9332691503
 40
0.9455451651
 40
0.9573685051
 40
0.9687314146
 40
0.9796273864
 40
0.9900513765
 40
1.0
 40
1.0
 40
1.0
 40
1.0
 10
11.1774439653
 20
10.5524432501
 30
0.0
 10
11.1745450543
 20
10.5538889378
 30
0.0
 10
11.1685579462
 20
10.5567484948
 30
0.0
 10
11.1592410033
 20
10.5608576283
 30
0.0
 10
11.1493879443
 20
10.5648824088
 30
0.0
 10
11.1390102443
 20
10.5688180939
 30
0.0
 10
11.1281198263
 20
10.5726601046
 30
0.0
 10
11.1167292957
 20
10.5764039975
 30
0.0
 10
11.1048518258
 20
10.5800453738
 30
0.0
 10
11.0925011833
 20
10.5835799934
 30
0.0
 10
11.0796916947
 20
10.5870037428
 30
0.0
 10
11.0664382234
 20
10.5903125883
 30
0.0
 10
11.052756166
 20
10.5935026956
 30
0.0
 10
11.0386614189
 20
10.5965703217
 30
0.0
 10
11.0241703628
 20
10.5995118733
 30
0.0
 10
11.0092998532
 20
10.6023239339
 30
0.0
 10
10.9940671643
 20
10.6050032105
 30
0.0
 10
10.9731035509
 20
10.6084259694
 30
0.0
 10
10.9461222955
 20
10.6123388411
 30
0.0
 10
10.9128843023
 20
10.6164169246
 30
0.0
 10
10.8786474572
 20
10.6199006838
 30
0.0
 10
10.8435710575
 20
10.6227737469
 30
0.0
 10
10.8078181659
 20
10.6250225914
 30
0.0
 10
10.7715550826
 20
10.6266366428
 30
0.0
 10
10.7349504897
 20
10.6276083078
 30
0.0
 10
10.6981746782
 20
10.6279330124
 30
0.0
 10
10.661398743
 20
10.627609237
 30
0.0
 10
10.6247937797
 20
10.6266385057
 30
0.0
 10
10.588530081
 20
10.6250253809
 30
0.0
 10
10.5527763382
 20
10.6227774403
 30
0.0
 10
10.5176988377
 20
10.6199052638
 30
0.0
 10
10.4834607003
 20
10.616422368
 30
0.0
 10
10.4502210286
 20
10.6123451623
 30
0.0
 10
10.4181344397
 20
10.6076928103
 30
0.0
 10
10.3922112365
 20
10.6033094907
 30
0.0
 10
10.3721682854
 20
10.5995201881
 30
0.0
 10
10.3576761023
 20
10.5965789719
 30
0.0
 10
10.3435801915
 20
10.5935117142
 30
0.0
 10
10.3298969202
 20
10.5903219614
 30
0.0
 10
10.3166421939
 20
10.5870134347
 30
0.0
 10
10.3038314014
 20
10.5835900297
 30
0.0
 10
10.2914794171
 20
10.5800557146
 30
0.0
 10
10.2796005646
 20
10.5764146336
 30
0.0
 10
10.2682086075
 20
10.5726710491
 30
0.0
 10
10.2573167351
 20
10.5688292925
 30
0.0
 10
10.246937537
 20
10.5648938839
 30
0.0
 10
10.2370829472
 20
10.5608693581
 30
0.0
 10
10.2277644523
 20
10.5567604379
 30
0.0
 10
10.2217762666
 20
10.5539010655
 30
0.0
 10
10.2188768132
 20
10.5524554515
 30
0.0
  0
SPLINE
  5
36F
100
AcDbEntity
  8
0
100
AcDbSpline
 62
7
  6
CONTINUOUS
 70
0
 71
3
 72
21
 73
17
 74
0
 42
0.0000001
 43
0.0000001
 44
0.0000000001
 40
0.0
 40
0.0
 40
0.0
 40
0.0
 40
0.1273175725
 40
0.2538000026
 40
0.3167619332
 40
0.3795354925
 40
0.4421314982
 40
0.5045621433
 40
0.5668413429
 40
0.6289845306
 40
0.6910084612
 40
0.7529311022
 40
0.8147714553
 40
0.8765493457
 40
0.9382852283
 40
1.0
 40
1.0
 40
1.0
 40
1.0
 10
10.0587422055
 20
7.0105906583
 30
0.0
 10
10.0587422055
 20
7.0170889846
 30
0.0
 10
10.0593625129
 20
7.030051375
 30
0.0
 10
10.061705192
 20
7.0460756919
 30
0.0
 10
10.0645052317
 20
7.0586453712
 30
0.0
 10
10.0670587191
 20
7.0679167678
 30
0.0
 10
10.070062705
 20
7.0770234371
 30
0.0
 10
10.0735103403
 20
7.0859446162
 30
0.0
 10
10.0773936448
 20
7.0946596788
 30
0.0
 10
10.0817036871
 20
7.1031485425
 30
0.0
 10
10.0864305809
 20
7.1113915984
 30
0.0
 10
10.0915634097
 20
7.1193698516
 30
0.0
 10
10.0970903175
 20
7.1270648894
 30
0.0
 10
10.1029986578
 20
7.1344589992
 30
0.0
 10
10.1092745749
 20
7.1415348858
 30
0.0
 10
10.1136947251
 20
7.146029972
 30
0.0
 10
10.115960328
 20
7.1482183883
 30
0.0
  0
SPLINE
  5
370
100
AcDbEntity
  8
0
100
AcDbSpline
 62
7
  6
CONTINUOUS
 70
0
 71
3
 72
91
 73
87
 74
0
 42
0.0000001
 43
0.0000001
 44
0.0000000001
 40
0.0
 40
0.0
 40
0.0
 40
0.0
 40
0.0039801824
 40
0.0081241125
 40
0.0124359604
 40
0.0169193082
 40
0.0215771808
 40
0.0264119179
 40
0.0314251804
 40
0.036618156
 40
0.0419915391
 40
0.0475456573
 40
0.0532804234
 40
0.0591954189
 40
0.0652899227
 40
0.0715629017
 40
0.0780131034
 40
0.0846389837
 40
0.0984102885
 40
0.1128608532
 40
0.1279713725
 40
0.1437199568
 40
0.1600824082
 40
0.1770324532
 40
0.1945419392
 40
0.2125810061
 40
0.2311182422
 40
0.2501208275
 40
0.2695546626
 40
0.2893844909
 40
0.3095740146
 40
0.330086005
 40
0.35088241
 40
0.3719244606
 40
0.3931727759
 40
0.4145874652
 40
0.4361282289
 40
0.4577544586
 40
0.4794253371
 40
0.501099938
 40
0.5227373261
 40
0.5442966575
 40
0.5657372785
 40
0.5870188258
 40
0.6081013261
 40
0.6289452975
 40
0.6495118524
 40
0.6697628021
 40
0.6896607608
 40
0.7091692527
 40
0.7282528228
 40
0.7468771515
 40
0.7650091753
 40
0.7826172172
 40
0.7996711268
 40
0.8161424293
 40
0.8320044948
 40
0.8472327309
 40
0.8618048077
 40
0.8757009255
 40
0.8889041429
 40
0.8952417292
 40
0.9014012652
 40
0.9073816417
 40
0.9131820083
 40
0.9188018518
 40
0.9242409423
 40
0.9294994633
 40
0.9345779585
 40
0.9394774438
 40
0.944199427
 40
0.9487459568
 40
0.95311974
 40
0.9573241405
 40
0.9613633601
 40
0.9652424499
 40
0.9689674846
 40
0.9725456466
 40
0.9759853437
 40
0.9824865016
 40
0.9855753543
 40
0.9885738189
 40
0.9914977372
 40
0.9943643366
 40
0.9971920099
 40
1.0
 40
1.0
 40
1.0
 40
1.0
 10
10.0635348559
 20
10.7127013312
 30
0.0
 10
10.0648360878
 20
10.7139582247
 30
0.0
 10
10.0675511772
 20
10.7164631222
 30
0.0
 10
10.0718619042
 20
10.7201217136
 30
0.0
 10
10.0764891839
 20
10.7237540614
 30
0.0
 10
10.0814304778
 20
10.7273582371
 30
0.0
 10
10.0866833769
 20
10.7309325574
 30
0.0
 10
10.0922453073
 20
10.7344752834
 30
0.0
 10
10.0981134873
 20
10.7379847164
 30
0.0
 10
10.1042850054
 20
10.7414590353
 30
0.0
 10
10.110756745
 20
10.7448965724
 30
0.0
 10
10.117525489
 20
10.7482955592
 30
0.0
 10
10.124587834
 20
10.751654324
 30
0.0
 10
10.1319402374
 20
10.7549711694
 30
0.0
 10
10.1395790084
 20
10.758244405
 30
0.0
 10
10.1475002915
 20
10.7614724137
 30
0.0
 10
10.1557001205
 20
10.7646535358
 30
0.0
 10
10.1671466328
 20
10.7688848758
 30
0.0
 10
10.1821283333
 20
10.7740344986
 30
0.0
 10
10.200925174
 20
10.7799253565
 30
0.0
 10
10.2207271305
 20
10.7855923394
 30
0.0
 10
10.2414942305
 20
10.7910239199
 30
0.0
 10
10.263184703
 20
10.796209034
 30
0.0
 10
10.2857548061
 20
10.8011371191
 30
0.0
 10
10.3091589998
 20
10.8057981339
 30
0.0
 10
10.3333500223
 20
10.8101825858
 30
0.0
 10
10.3582789987
 20
10.8142815468
 30
0.0
 10
10.3838955445
 20
10.8180866719
 30
0.0
 10
10.4101478714
 20
10.8215902154
 30
0.0
 10
10.4369828946
 20
10.824785047
 30
0.0
 10
10.4643463416
 20
10.8276646654
 30
0.0
 10
10.4921828629
 20
10.8302232107
 30
0.0
 10
10.5204361444
 20
10.8324554797
 30
0.0
 10
10.549049024
 20
10.834356934
 30
0.0
 10
10.5779636084
 20
10.8359237078
 30
0.0
 10
10.6071213918
 20
10.8371526159
 30
0.0
 10
10.6364633746
 20
10.8380411594
 30
0.0
 10
10.6659301823
 20
10.8385875315
 30
0.0
 10
10.6954621866
 20
10.8387906197
 30
0.0
 10
10.724999626
 20
10.8386500115
 30
0.0
 10
10.7544827285
 20
10.8381659941
 30
0.0
 10
10.7838518328
 20
10.8373395523
 30
0.0
 10
10.8130475098
 20
10.8361723662
 30
0.0
 10
10.8420106821
 20
10.8346668086
 30
0.0
 10
10.8706827447
 20
10.8328259397
 30
0.0
 10
10.8990056835
 20
10.8306535013
 30
0.0
 10
10.9269221951
 20
10.8281539108
 30
0.0
 10
10.9543758041
 20
10.8253322541
 30
0.0
 10
10.9813109779
 20
10.8221942716
 30
0.0
 10
11.0076732393
 20
10.8187463483
 30
0.0
 10
11.0334092785
 20
10.8149955007
 30
0.0
 10
11.058467062
 20
10.8109493631
 30
0.0
 10
11.0827959412
 20
10.8066161718
 30
0.0
 10
11.1063467596
 20
10.8020047506
 30
0.0
 10
11.1290719585
 20
10.7971244937
 30
0.0
 10
11.1509256742
 20
10.7919853436
 30
0.0
 10
11.1718638445
 20
10.7865977693
 30
0.0
 10
11.1918442802
 20
10.780972744
 30
0.0
 10
11.2108268506
 20
10.7751217166
 30
0.0
 10
11.228773272
 20
10.769056585
 30
0.0
 10
11.2430234131
 20
10.7637644502
 30
0.0
 10
11.2538692398
 20
10.7594235983
 30
0.0
 10
11.2616112031
 20
10.7561665959
 30
0.0
 10
11.2690681796
 20
10.7528654306
 30
0.0
 10
11.2762364191
 20
10.7495217031
 30
0.0
 10
11.2831123354
 20
10.7461371574
 30
0.0
 10
11.2896924595
 20
10.7427134295
 30
0.0
 10
11.2959735159
 20
10.7392522933
 30
0.0
 10
11.3019523483
 20
10.7357554334
 30
0.0
 10
11.307625978
 20
10.7322246061
 30
0.0
 10
11.312991584
 20
10.7286615665
 30
0.0
 10
11.3180464747
 20
10.7250680246
 30
0.0
 10
11.3227881711
 20
10.72144579
 30
0.0
 10
11.327214273
 20
10.7177965332
 30
0.0
 10
11.3313226126
 20
10.7141220688
 30
0.0
 10
11.3351111183
 20
10.7104240338
 30
0.0
 10
11.338577803
 20
10.7067042905
 30
0.0
 10
11.3417211703
 20
10.7029640922
 30
0.0
 10
11.3454086371
 20
10.6980461627
 30
0.0
 10
11.3485398967
 20
10.6929956746
 30
0.0
 10
11.3510259807
 20
10.6878373459
 30
0.0
 10
11.3525280615
 20
10.6840223768
 30
0.0
 10
11.3536977866
 20
10.6801981253
 30
0.0
 10
11.3545341968
 20
10.6763664489
 30
0.0
 10
11.3550363679
 20
10.6725300793
 30
0.0
 10
11.3551481616
 20
10.6699670839
 30
0.0
 10
11.3551481614
 20
10.668690749
 30
0.0
  0
SPLINE
  5
371
100
AcDbEntity
  8
0
100
AcDbSpline
 62
7
  6
CONTINUOUS
 70
0
 71
3
 72
41
 73
37
 74
0
 42
0.0000001
 43
0.0000001
 44
0.0000000001
 40
0.0
 40
0.0
 40
0.0
 40
0.0
 40
0.0149724862
 40
0.0299480307
 40
0.0449296746
 40
0.0599204222
 40
0.0899350731
 40
0.1200204959
 40
0.1501975964
 40
0.1804850878
 40
0.2108990702
 40
0.2414526838
 40
0.2721558423
 40
0.303015057
 40
0.3340333403
 40
0.3652101893
 40
0.3965416515
 40
0.4280204628
 40
0.4596362457
 40
0.4913757643
 40
0.5232232351
 40
0.5551606749
 40
0.587168282
 40
0.6192248472
 40
0.6513081855
 40
0.6833955794
 40
0.7154642309
 40
0.7474917144
 40
0.779456424
 40
0.8113380097
 40
0.8431177978
 40
0.8747791805
 40
0.9063079772
 40
0.937692809
 40
0.9689250164
 40
1.0
 40
1.0
 40
1.0
 40
1.0
 10
10.7913126333
 20
7.3458897635
 30
0.0
 10
10.7878823938
 20
7.3425763952
 30
0.0
 10
10.7808886922
 20
7.3360845969
 30
0.0
 10
10.7700183348
 20
7.3267704995
 30
0.0
 10
10.7587817874
 20
7.317891494
 30
0.0
 10
10.743328394
 20
7.3066465294
 30
0.0
 10
10.7231630933
 20
7.2937328035
 30
0.0
 10
10.6977737552
 20
7.2801699673
 30
0.0
 10
10.6713186239
 20
7.2686052148
 30
0.0
 10
10.643944518
 20
7.2591027347
 30
0.0
 10
10.6158020554
 20
7.2517143789
 30
0.0
 10
10.5870463433
 20
7.2464805344
 30
0.0
 10
10.5578356958
 20
7.2434295869
 30
0.0
 10
10.5283308543
 20
7.2425779466
 30
0.0
 10
10.4986940873
 20
7.2439299516
 30
0.0
 10
10.469088309
 20
7.2474777754
 30
0.0
 10
10.4396761816
 20
7.2532015565
 30
0.0
 10
10.4106192441
 20
7.2610695473
 30
0.0
 10
10.3820770388
 20
7.2710382681
 30
0.0
 10
10.3542062215
 20
7.2830526918
 30
0.0
 10
10.3271597387
 20
7.29704664
 30
0.0
 10
10.3010860126
 20
7.3129431447
 30
0.0
 10
10.2761281048
 20
7.330654808
 30
0.0
 10
10.252422939
 20
7.3500842953
 30
0.0
 10
10.2301005934
 20
7.3711249126
 30
0.0
 10
10.2092835994
 20
7.3936611742
 30
0.0
 10
10.1900862087
 20
7.4175693689
 30
0.0
 10
10.1726138248
 20
7.4427182919
 30
0.0
 10
10.1569624499
 20
7.4689699608
 30
0.0
 10
10.143218134
 20
7.4961803432
 30
0.0
 10
10.1314564567
 20
7.5242001013
 30
0.0
 10
10.1217421916
 20
7.5528755113
 30
0.0
 10
10.1141289383
 20
7.5820490432
 30
0.0
 10
10.1086588254
 20
7.6115610449
 30
0.0
 10
10.1053620786
 20
7.6412473626
 30
0.0
 10
10.1046236849
 20
7.6611016091
 30
0.0
 10
10.1046236849
 20
7.6709998838
 30
0.0
  0
SPLINE
  5
372
100
AcDbEntity
  8
0
100
AcDbSpline
 62
7
  6
CONTINUOUS
 70
0
 71
3
 72
41
 73
37
 74
0
 42
0.0000001
 43
0.0000001
 44
0.0000000001
 40
0.0
 40
0.0
 40
0.0
 40
0.0
 40
0.0149666323
 40
0.0299386628
 40
0.0449190256
 40
0.0599106091
 40
0.0899329265
 40
0.120032833
 40
0.150229988
 40
0.1805417912
 40
0.2109830056
 40
0.2415654538
 40
0.2722977903
 40
0.3031853589
 40
0.3342301245
 40
0.3654306806
 40
0.3967823277
 40
0.4282772213
 40
0.4599045764
 40
0.4916509224
 40
0.5235004029
 40
0.5554351161
 40
0.5874354845
 40
0.6194806482
 40
0.651548876
 40
0.6836179902
 40
0.7156657958
 40
0.7476705107
 40
0.7796111896
 40
0.8114681384
 40
0.8432233088
 40
0.8748606684
 40
0.9063665367
 40
0.9377299687
 40
0.9689425842
 40
1.0
 40
1.0
 40
1.0
 40
1.0
 10
10.7911899555
 20
7.3460270353
 30
0.0
 10
10.7876994592
 20
7.3428647916
 30
0.0
 10
10.7805922743
 20
7.3366754924
 30
0.0
 10
10.7695735702
 20
7.3278152126
 30
0.0
 10
10.7582095152
 20
7.3193885218
 30
0.0
 10
10.7426125393
 20
7.3087427377
 30
0.0
 10
10.722318985
 20
7.2965705616
 30
0.0
 10
10.6968565185
 20
7.283877473
 30
0.0
 10
10.6704043142
 20
7.2731555459
 30
0.0
 10
10.6431054927
 20
7.2644627846
 30
0.0
 10
10.6151064734
 20
7.2578453961
 30
0.0
 10
10.5865576887
 20
7.2533386143
 30
0.0
 10
10.5576123564
 20
7.2509662288
 30
0.0
 10
10.5284257549
 20
7.2507406057
 30
0.0
 10
10.4991543697
 20
7.252662614
 30
0.0
 10
10.4699550719
 20
7.2567216268
 30
0.0
 10
10.4409842729
 20
7.2628955486
 30
0.0
 10
10.4123971026
 20
7.2711510122
 30
0.0
 10
10.384346593
 20
7.2814435543
 30
0.0
 10
10.3569828766
 20
7.2937178616
 30
0.0
 10
10.330452367
 20
7.3079080108
 30
0.0
 10
10.3048970058
 20
7.3239378829
 30
0.0
 10
10.2804535166
 20
7.3417215663
 30
0.0
 10
10.2572526924
 20
7.3611638194
 30
0.0
 10
10.2354186652
 20
7.3821605277
 30
0.0
 10
10.2150682667
 20
7.4045992894
 30
0.0
 10
10.1963104261
 20
7.4283600241
 30
0.0
 10
10.1792455989
 20
7.4533156074
 30
0.0
 10
10.1639652005
 20
7.4793325157
 30
0.0
 10
10.1505511142
 20
7.5062715427
 30
0.0
 10
10.1390752934
 20
7.5339885403
 30
0.0
 10
10.1295993812
 20
7.5623352366
 30
0.0
 10
10.1221743362
 20
7.5911597828
 30
0.0
 10
10.1168402151
 20
7.6203083598
 30
0.0
 10
10.1136257584
 20
7.6496228862
 30
0.0
 10
10.1129058877
 20
7.6692262729
 30
0.0
 10
10.1129058877
 20
7.6789998779
 30
0.0
  0
SPLINE
  5
373
100
AcDbEntity
  8
0
100
AcDbSpline
 62
7
  6
CONTINUOUS
 70
0
 71
3
 72
18
 73
14
 74
0
 42
0.0000001
 43
0.0000001
 44
0.0000000001
 40
0.0
 40
0.0
 40
0.0
 40
0.0
 40
0.0548620589
 40
0.1099280789
 40
0.165399508
 40
0.2214731255
 40
0.2783387361
 40
0.3361775086
 40
0.4554063416
 40
0.5804417492
 40
0.7123343341
 40
0.8519577333
 40
1.0
 40
1.0
 40
1.0
 40
1.0
 10
10.0411481614
 20
10.6686907489
 30
0.0
 10
10.0411481615
 20
10.6696186162
 30
0.0
 10
10.0412070637
 20
10.6714783332
 30
0.0
 10
10.0414718663
 20
10.674264883
 30
0.0
 10
10.0419130533
 20
10.6770498271
 30
0.0
 10
10.0425304791
 20
10.6798321482
 30
0.0
 10
10.0433239044
 20
10.682611144
 30
0.0
 10
10.0446289115
 20
10.6863481483
 30
0.0
 10
10.0467195107
 20
10.6910221402
 30
0.0
 10
10.0499015331
 20
10.6965421425
 30
0.0
 10
10.0537770639
 20
10.7020264152
 30
0.0
 10
10.0583402067
 20
10.7074694541
 30
0.0
 10
10.0617339869
 20
10.7109618251
 30
0.0
 10
10.0635348559
 20
10.7127013312
 30
0.0
  0
SPLINE
  5
374
100
AcDbEntity
  8
0
100
AcDbSpline
 62
7
  6
CONTINUOUS
 70
0
 71
3
 72
39
 73
35
 74
0
 42
0.0000001
 43
0.0000001
 44
0.0000000001
 40
0.0
 40
0.0
 40
0.0
 40
0.0
 40
0.0307265246
 40
0.0612836917
 40
0.0916944147
 40
0.1219869321
 40
0.1521938576
 40
0.1823510088
 40
0.212496076
 40
0.2426672092
 40
0.2729015709
 40
0.3032339494
 40
0.3336954773
 40
0.3643125234
 40
0.3951058088
 40
0.4260897478
 40
0.4572720576
 40
0.4886536225
 40
0.5202285792
 40
0.5519846451
 40
0.5839036301
 40
0.6159621046
 40
0.6481322227
 40
0.6803826419
 40
0.7126795226
 40
0.7449875917
 40
0.7772712324
 40
0.8094955799
 40
0.8416276023
 40
0.8736371456
 40
0.9054979123
 40
0.9371883589
 40
0.9686921348
 40
1.0
 40
1.0
 40
1.0
 40
1.0
 10
10.7449576269
 20
7.5917840762
 30
0.0
 10
10.7436256965
 20
7.5847338256
 30
0.0
 10
10.7403022025
 20
7.5707883946
 30
0.0
 10
10.7333561694
 20
7.5505013254
 30
0.0
 10
10.7245211093
 20
7.5310713839
 30
0.0
 10
10.7138725968
 20
7.5126675524
 30
0.0
 10
10.7015013007
 20
7.4954470277
 30
0.0
 10
10.6875130842
 20
7.4795576544
 30
0.0
 10
10.6720276747
 20
7.4651356941
 30
0.0
 10
10.6551778297
 20
7.4523047592
 30
0.0
 10
10.6371081035
 20
7.4411745983
 30
0.0
 10
10.6179734345
 20
7.4318403362
 30
0.0
 10
10.597937887
 20
7.4243814489
 30
0.0
 10
10.5771731056
 20
7.4188611814
 30
0.0
 10
10.5558567815
 20
7.4153261968
 30
0.0
 10
10.5341711655
 20
7.4138059749
 30
0.0
 10
10.5123014412
 20
7.414312798
 30
0.0
 10
10.4904341863
 20
7.4168417549
 30
0.0
 10
10.4687557767
 20
7.4213705891
 30
0.0
 10
10.4474508378
 20
7.4278601675
 30
0.0
 10
10.4267007313
 20
7.4362547883
 30
0.0
 10
10.406681968
 20
7.446482506
 30
0.0
 10
10.3875648311
 20
7.4584559901
 30
0.0
 10
10.3695119257
 20
7.47207314
 30
0.0
 10
10.3526767464
 20
7.4872178822
 30
0.0
 10
10.337202545
 20
7.5037613317
 30
0.0
 10
10.3232210183
 20
7.5215627161
 30
0.0
 10
10.3108511813
 20
7.540470581
 30
0.0
 10
10.3001985328
 20
7.560324141
 30
0.0
 10
10.2913539744
 20
7.5809545642
 30
0.0
 10
10.2843930977
 20
7.602186163
 30
0.0
 10
10.2793757277
 20
7.6238388988
 30
0.0
 10
10.276344955
 20
7.6457259964
 30
0.0
 10
10.2756643991
 20
7.6604018263
 30
0.0
 10
10.2756643991
 20
7.6677125368
 30
0.0
  0
SPLINE
  5
375
100
AcDbEntity
  8
0
100
AcDbSpline
 62
7
  6
CONTINUOUS
 70
0
 71
3
 72
39
 73
35
 74
0
 42
0.0000001
 43
0.0000001
 44
0.0000000001
 40
0.0
 40
0.0
 40
0.0
 40
0.0
 40
0.0305826465
 40
0.061016458
 40
0.0913270643
 40
0.1215444325
 40
0.1517018423
 40
0.1818347218
 40
0.2119793801
 40
0.2421717023
 40
0.2724458653
 40
0.3028331271
 40
0.333360754
 40
0.3640511239
 40
0.3949210263
 40
0.4259811871
 40
0.4572360276
 40
0.4886836333
 40
0.5203159239
 40
0.552119023
 40
0.5840737812
 40
0.6161564305
 40
0.6483393596
 40
0.6805919767
 40
0.7128816329
 40
0.74517459
 40
0.7774370139
 40
0.8096359657
 40
0.8417403801
 40
0.8737219965
 40
0.9055562346
 40
0.9372230459
 40
0.9687071192
 40
1.0
 40
1.0
 40
1.0
 40
1.0
 10
10.7473804472
 20
7.607650887
 30
0.0
 10
10.7457420421
 20
7.6015120017
 30
0.0
 10
10.7419004513
 20
7.5894084445
 30
0.0
 10
10.7344718136
 20
7.5719198584
 30
0.0
 10
10.7254502573
 20
7.5552811782
 30
0.0
 10
10.7149095693
 20
7.5396302587
 30
0.0
 10
10.7029352939
 20
7.5250943383
 30
0.0
 10
10.6896250261
 20
7.5117922378
 30
0.0
 10
10.6750873555
 20
7.4998324217
 30
0.0
 10
10.6594409307
 20
7.4893123866
 30
0.0
 10
10.64281346
 20
7.4803177735
 30
0.0
 10
10.6253406739
 20
7.4729215698
 30
0.0
 10
10.6071650925
 20
7.4671836282
 30
0.0
 10
10.5884348339
 20
7.4631502385
 30
0.0
 10
10.5693024101
 20
7.4608536874
 30
0.0
 10
10.5499234453
 20
7.4603120645
 30
0.0
 10
10.5304554052
 20
7.4615292461
 30
0.0
 10
10.5110563465
 20
7.4644948607
 30
0.0
 10
10.4918836303
 20
7.469184314
 30
0.0
 10
10.4730926789
 20
7.4755591405
 30
0.0
 10
10.454835764
 20
7.4835673313
 30
0.0
 10
10.4372607571
 20
7.4931436551
 30
0.0
 10
10.4205099667
 20
7.5042102563
 30
0.0
 10
10.4047190467
 20
7.5166773305
 30
0.0
 10
10.3900158931
 20
7.5304437879
 30
0.0
 10
10.3765195756
 20
7.545398026
 30
0.0
 10
10.3643394642
 20
7.5614189071
 30
0.0
 10
10.3535743644
 20
7.5783767093
 30
0.0
 10
10.3443116238
 20
7.5961340752
 30
0.0
 10
10.3366265042
 20
7.6145472337
 30
0.0
 10
10.3305816019
 20
7.6334669094
 30
0.0
 10
10.3262263424
 20
7.6527403125
 30
0.0
 10
10.3235963058
 20
7.6722091686
 30
0.0
 10
10.3230059362
 20
7.6852588659
 30
0.0
 10
10.3230059362
 20
7.6917601835
 30
0.0
  0
SPLINE
  5
376
100
AcDbEntity
  8
0
100
AcDbSpline
 62
7
  6
CONTINUOUS
 70
0
 71
3
 72
9
 73
5
 74
0
 42
0.0000001
 43
0.0000001
 44
0.0000000001
 40
0.0
 40
0.0
 40
0.0
 40
0.0
 40
0.4862217708
 40
1.0
 40
1.0
 40
1.0
 40
1.0
 10
10.054273172
 20
10.6348951546
 30
0.0
 10
10.0556511668
 20
10.6366525813
 30
0.0
 10
10.0586281809
 20
10.6401564017
 30
0.0
 10
10.0618375434
 20
10.6434470412
 30
0.0
 10
10.0635348559
 20
10.6450865193
 30
0.0
  0
SPLINE
  5
377
100
AcDbEntity
  8
0
100
AcDbSpline
 62
7
  6
CONTINUOUS
 70
0
 71
3
 72
42
 73
38
 74
0
 42
0.0000001
 43
0.0000001
 44
0.0000000001
 40
0.0
 40
0.0
 40
0.0
 40
0.0
 40
0.0299419655
 40
0.0449235324
 40
0.0599142042
 40
0.0899287041
 40
0.1200139759
 40
0.1350926596
 40
0.1501966997
 40
0.180484041
 40
0.210897873
 40
0.2414513349
 40
0.2721543418
 40
0.3030134042
 40
0.3340315332
 40
0.3652082265
 40
0.3965395325
 40
0.4280181861
 40
0.4596338091
 40
0.4913731668
 40
0.523220476
 40
0.5551577527
 40
0.5871651956
 40
0.6192215962
 40
0.6513047693
 40
0.6833919978
 40
0.7154604838
 40
0.7474878019
 40
0.7794523464
 40
0.8113337686
 40
0.8431133915
 40
0.8747746163
 40
0.90630324
 40
0.9376879137
 40
0.9533257948
 40
0.9689252601
 40
1.0
 40
1.0
 40
1.0
 40
1.0
 10
10.6813029321
 20
7.5441104486
 30
0.0
 10
10.6780762515
 20
7.540993695
 30
0.0
 10
10.6730460282
 20
7.5365074242
 30
0.0
 10
10.6660013088
 20
7.5309409355
 30
0.0
 10
10.6587322477
 20
7.5256514414
 30
0.0
 10
10.6492473127
 20
7.5195773836
 30
0.0
 10
10.6393012075
 20
7.5142643339
 30
0.0
 10
10.6310982448
 20
7.5104846204
 30
0.0
 10
10.6227258307
 20
7.5070169247
 30
0.0
 10
10.6119843989
 20
7.5032881647
 30
0.0
 10
10.5987472062
 20
7.4998130409
 30
0.0
 10
10.5852211703
 20
7.4973511666
 30
0.0
 10
10.5714812509
 20
7.4959161237
 30
0.0
 10
10.5576029247
 20
7.4955155707
 30
0.0
 10
10.5436625545
 20
7.4961515461
 30
0.0
 10
10.5297367602
 20
7.4978203762
 30
0.0
 10
10.5159020582
 20
7.5005127273
 30
0.0
 10
10.5022344307
 20
7.5042136572
 30
0.0
 10
10.4888089182
 20
7.5089027037
 30
0.0
 10
10.475699212
 20
7.5145539995
 30
0.0
 10
10.4629772562
 20
7.5211364169
 30
0.0
 10
10.4507128575
 20
7.5286137392
 30
0.0
 10
10.4389733082
 20
7.5369448589
 30
0.0
 10
10.427823021
 20
7.546084003
 30
0.0
 10
10.4173231802
 20
7.5559809821
 30
0.0
 10
10.4075314092
 20
7.5665814635
 30
0.0
 10
10.3985014583
 20
7.5778272667
 30
0.0
 10
10.3902829119
 20
7.5896566802
 30
0.0
 10
10.3829209192
 20
7.6020047926
 30
0.0
 10
10.3764559478
 20
7.6148038593
 30
0.0
 10
10.3709235644
 20
7.6279836163
 30
0.0
 10
10.3663542287
 20
7.6414718562
 30
0.0
 10
10.3627731833
 20
7.6551940967
 30
0.0
 10
10.3606262669
 20
7.6667771562
 30
0.0
 10
10.3594219105
 20
7.6760840044
 30
0.0
 10
10.3585623909
 20
7.6853819467
 30
0.0
 10
10.3583021367
 20
7.6923785859
 30
0.0
 10
10.3583021367
 20
7.6970344665
 30
0.0
  0
SPLINE
  5
378
100
AcDbEntity
  8
0
100
AcDbSpline
 62
7
  6
CONTINUOUS
 70
0
 71
3
 72
23
 73
19
 74
0
 42
0.0000001
 43
0.0000001
 44
0.0000000001
 40
0.0
 40
0.0
 40
0.0
 40
0.0
 40
0.063777379
 40
0.1273447372
 40
0.1907019931
 40
0.2538561345
 40
0.3168131769
 40
0.3795820929
 40
0.4421733849
 40
0.5045993366
 40
0.5668738654
 40
0.6290123812
 40
0.6910316548
 40
0.7529496517
 40
0.8147853612
 40
0.8765586089
 40
0.9382898579
 40
1.0
 40
1.0
 40
1.0
 40
1.0
 10
10.1046236849
 20
7.6709998838
 30
0.0
 10
10.1046236849
 20
7.6773796761
 30
0.0
 10
10.1049290359
 20
7.6901204141
 30
0.0
 10
10.1063072933
 20
7.7091540386
 30
0.0
 10
10.1086020629
 20
7.7280367543
 30
0.0
 10
10.1118079169
 20
7.7467243107
 30
0.0
 10
10.1159176377
 20
7.765173921
 30
0.0
 10
10.1209217427
 20
7.7833429567
 30
0.0
 10
10.1268087647
 20
7.8011895511
 30
0.0
 10
10.1335651543
 20
7.8186725478
 30
0.0
 10
10.1411753662
 20
7.8357516295
 30
0.0
 10
10.149621887
 20
7.852387404
 30
0.0
 10
10.158885268
 20
7.8685414928
 30
0.0
 10
10.1689441892
 20
7.8841766313
 30
0.0
 10
10.1797754367
 20
7.8992567148
 30
0.0
 10
10.1913541574
 20
7.9137470792
 30
0.0
 10
10.2036531985
 20
7.92761384
 30
0.0
 10
10.2123154896
 20
7.9364229203
 30
0.0
 10
10.2167554422
 20
7.9407116001
 30
0.0
  0
SPLINE
  5
379
100
AcDbEntity
  8
0
100
AcDbSpline
 62
7
  6
CONTINUOUS
 70
0
 71
3
 72
23
 73
19
 74
0
 42
0.0000001
 43
0.0000001
 44
0.0000000001
 40
0.0
 40
0.0
 40
0.0
 40
0.0
 40
0.0616886956
 40
0.1234094037
 40
0.1851812159
 40
0.2470227392
 40
0.3089519273
 40
0.3709859168
 40
0.4331408692
 40
0.4954318231
 40
0.5578725572
 40
0.6204755059
 40
0.683251584
 40
0.7462102085
 40
0.8093593149
 40
0.872704028
 40
0.9362514542
 40
1.0
 40
1.0
 40
1.0
 40
1.0
 10
10.2168876642
 20
7.94058339
 30
0.0
 10
10.2127534447
 20
7.9363262381
 30
0.0
 10
10.2046920744
 20
7.9276036392
 30
0.0
 10
10.1932580473
 20
7.9139347353
 30
0.0
 10
10.1825030735
 20
7.8997063816
 30
0.0
 10
10.1724504532
 20
7.8849493168
 30
0.0
 10
10.1631214666
 20
7.8696948919
 30
0.0
 10
10.1545359969
 20
7.8539756448
 30
0.0
 10
10.1467123123
 20
7.8378250592
 30
0.0
 10
10.1396670758
 20
7.8212775435
 30
0.0
 10
10.1334152434
 20
7.8043683632
 30
0.0
 10
10.1279700967
 20
7.7871335432
 30
0.0
 10
10.1233431964
 20
7.7696097972
 30
0.0
 10
10.1195443727
 20
7.7518344166
 30
0.0
 10
10.1165817308
 20
7.7338453591
 30
0.0
 10
10.114461388
 20
7.7156806212
 30
0.0
 10
10.1131880374
 20
7.6973795967
 30
0.0
 10
10.1129058877
 20
7.6851322604
 30
0.0
 10
10.1129058877
 20
7.6789998779
 30
0.0
  0
SPLINE
  5
37A
100
AcDbEntity
  8
0
100
AcDbSpline
 62
7
  6
CONTINUOUS
 70
0
 71
3
 72
23
 73
19
 74
0
 42
0.0000001
 43
0.0000001
 44
0.0000000001
 40
0.0
 40
0.0
 40
0.0
 40
0.0
 40
0.0630509762
 40
0.1257811295
 40
0.1882284312
 40
0.2504394748
 40
0.3124681531
 40
0.3743740475
 40
0.4362205971
 40
0.4980731146
 40
0.5599967253
 40
0.6220543092
 40
0.6843045418
 40
0.746800099
 40
0.8095860805
 40
0.872698938
 40
0.9361643615
 40
1.0
 40
1.0
 40
1.0
 40
1.0
 10
10.460899618
 20
7.8858651802
 30
0.0
 10
10.4544137957
 20
7.8848713159
 30
0.0
 10
10.4415536362
 20
7.8823280382
 30
0.0
 10
10.4227204435
 20
7.8768543794
 30
0.0
 10
10.4045239548
 20
7.8697699523
 30
0.0
 10
10.3870963153
 20
7.8611253338
 30
0.0
 10
10.3705618211
 20
7.8509820346
 30
0.0
 10
10.3550390405
 20
7.8394124948
 30
0.0
 10
10.340639136
 20
7.8264994208
 30
0.0
 10
10.3274652568
 20
7.8123352188
 30
0.0
 10
10.315611682
 20
7.7970213359
 30
0.0
 10
10.3051631237
 20
7.7806674998
 30
0.0
 10
10.29619415
 20
7.7633908741
 30
0.0
 10
10.2887686607
 20
7.7453151387
 30
0.0
 10
10.2829394038
 20
7.7265697777
 30
0.0
 10
10.2787476762
 20
7.7072884309
 30
0.0
 10
10.2762228673
 20
7.6876106482
 30
0.0
 10
10.2756643991
 20
7.6743557229
 30
0.0
 10
10.2756643991
 20
7.6677125368
 30
0.0
  0
SPLINE
  5
37B
100
AcDbEntity
  8
0
100
AcDbSpline
 62
7
  6
CONTINUOUS
 70
0
 71
3
 72
23
 73
19
 74
0
 42
0.0000001
 43
0.0000001
 44
0.0000000001
 40
0.0
 40
0.0
 40
0.0
 40
0.0
 40
0.0628201197
 40
0.1253635253
 40
0.1876703229
 40
0.2497871628
 40
0.3117660042
 40
0.3736626932
 40
0.4355354031
 40
0.4974429876
 40
0.5594433108
 40
0.621591612
 40
0.6839389651
 40
0.7465309044
 40
0.8094061426
 40
0.8725959951
 40
0.9361222326
 40
1.0
 40
1.0
 40
1.0
 40
1.0
 10
10.4770910863
 20
7.8877942573
 30
0.0
 10
10.4715886199
 20
7.8865355419
 30
0.0
 10
10.460706232
 20
7.8835681274
 30
0.0
 10
10.444847236
 20
7.8777815383
 30
0.0
 10
10.4295880622
 20
7.8707056687
 30
0.0
 10
10.4150282787
 20
7.8623861157
 30
0.0
 10
10.4012611233
 20
7.8528760956
 30
0.0
 10
10.3883752451
 20
7.8422366573
 30
0.0
 10
10.3764534819
 20
7.83053614
 30
0.0
 10
10.3655724743
 20
7.817849762
 30
0.0
 10
10.3558021117
 20
7.8042591114
 30
0.0
 10
10.3472050875
 20
7.789851599
 30
0.0
 10
10.3398364713
 20
7.7747198923
 30
0.0
 10
10.3337433848
 20
7.7589612466
 30
0.0
 10
10.3289646664
 20
7.7426770051
 30
0.0
 10
10.3255307649
 20
7.725971394
 30
0.0
 10
10.3234633034
 20
7.7089529794
 30
0.0
 10
10.3230059362
 20
7.697499816
 30
0.0
 10
10.3230059362
 20
7.6917601835
 30
0.0
  0
SPLINE
  5
37C
100
AcDbEntity
  8
0
100
AcDbSpline
 62
7
  6
CONTINUOUS
 70
0
 71
3
 72
85
 73
81
 74
0
 42
0.0000001
 43
0.0000001
 44
0.0000000001
 40
0.0
 40
0.0
 40
0.0
 40
0.0
 40
0.0039002874
 40
0.007959953
 40
0.0121823928
 40
0.0165705039
 40
0.0211267348
 40
0.0258529827
 40
0.0307505376
 40
0.035820289
 40
0.0410627102
 40
0.0464779453
 40
0.0520658204
 40
0.0578258328
 40
0.0637572574
 40
0.0698590767
 40
0.0825684787
 40
0.0959422527
 40
0.1099652717
 40
0.1246198549
 40
0.1398860545
 40
0.1557418861
 40
0.1721635247
 40
0.1891254803
 40
0.2066007459
 40
0.2245609287
 40
0.2429763691
 40
0.2618162473
 40
0.2810486887
 40
0.300640866
 40
0.3205590941
 40
0.3407689207
 40
0.361235215
 40
0.381922253
 40
0.4027938065
 40
0.4449429053
 40
0.4873865073
 40
0.5298252932
 40
0.5719599911
 40
0.5928207862
 40
0.6134947224
 40
0.633945603
 40
0.6541377419
 40
0.6740360488
 40
0.6936061165
 40
0.7128143097
 40
0.7316278585
 40
0.7500149575
 40
0.7679448608
 40
0.7853879852
 40
0.8023160205
 40
0.8187020495
 40
0.834520685
 40
0.8497482218
 40
0.8643628017
 40
0.8783446121
 40
0.8916761235
 40
0.9043423805
 40
0.9104223625
 40
0.9163318054
 40
0.9220697386
 40
0.9276354393
 40
0.9330284809
 40
0.9382486906
 40
0.9432962718
 40
0.9481717485
 40
0.9528760662
 40
0.9574106216
 40
0.9617772831
 40
0.9659785239
 40
0.9700174024
 40
0.973897724
 40
0.9776240792
 40
0.9812019521
 40
0.9846378632
 40
0.9879394181
 40
0.9911154961
 40
0.9941762904
 40
0.9971334258
 40
1.0
 40
1.0
 40
1.0
 40
1.0
 10
12.7198310349
 20
8.3730229214
 30
0.0
 10
12.7211094885
 20
8.3742578129
 30
0.0
 10
12.7236650903
 20
8.3768339864
 30
0.0
 10
12.7274209756
 20
8.3809241754
 30
0.0
 10
12.7311731386
 20
8.3853145802
 30
0.0
 10
12.7349196931
 20
8.3900029679
 30
0.0
 10
12.7386590107
 20
8.3949871939
 30
0.0
 10
12.7423893772
 20
8.4002650055
 30
0.0
 10
12.7461091387
 20
8.4058339395
 30
0.0
 10
12.7498165013
 20
8.4116914297
 30
0.0
 10
12.7535097759
 20
8.4178347269
 30
0.0
 10
12.7571872353
 20
8.4242609768
 30
0.0
 10
12.7608471461
 20
8.4309671923
 30
0.0
 10
12.7644878311
 20
8.4379502258
 30
0.0
 10
12.7681075544
 20
8.4452068386
 30
0.0
 10
12.7729697901
 20
8.4553810745
 30
0.0
 10
12.7789726641
 20
8.4687667939
 30
0.0
 10
12.7859715205
 20
8.4856535578
 30
0.0
 10
12.7928470122
 20
8.5035438484
 30
0.0
 10
12.7995861591
 20
8.522404128
 30
0.0
 10
12.8061762337
 20
8.5421991926
 30
0.0
 10
12.8126047817
 20
8.5628919669
 30
0.0
 10
12.8188596571
 20
8.5844436632
 30
0.0
 10
12.8249290387
 20
8.6068138447
 30
0.0
 10
12.8308014577
 20
8.6299605155
 30
0.0
 10
12.8364658186
 20
8.6538402022
 30
0.0
 10
12.8419114192
 20
8.6784080376
 30
0.0
 10
12.8471279757
 20
8.7036178448
 30
0.0
 10
12.8521056418
 20
8.729422227
 30
0.0
 10
12.8568350226
 20
8.7557726625
 30
0.0
 10
12.8613071925
 20
8.7826195965
 30
0.0
 10
12.8655137153
 20
8.8099125398
 30
0.0
 10
12.8694466454
 20
8.8376001458
 30
0.0
 10
12.8730985975
 20
8.8656303688
 30
0.0
 10
12.8775984309
 20
8.9035126602
 30
0.0
 10
12.8824679655
 20
8.9513326312
 30
0.0
 10
12.8870778211
 20
9.0090450647
 30
0.0
 10
12.8904379255
 20
9.0668371547
 30
0.0
 10
12.8921815319
 20
9.1148591209
 30
0.0
 10
12.8929260485
 20
9.1529830272
 30
0.0
 10
12.8931573338
 20
9.1812313049
 30
0.0
 10
12.8930630298
 20
9.2091756318
 30
0.0
 10
12.8926433092
 20
9.2367634827
 30
0.0
 10
12.8918989908
 20
9.2639429525
 30
0.0
 10
12.8908314985
 20
9.290662921
 30
0.0
 10
12.8894428693
 20
9.3168731323
 30
0.0
 10
12.8877357479
 20
9.3425242971
 30
0.0
 10
12.8857133886
 20
9.3675681875
 30
0.0
 10
12.8833796423
 20
9.3919577286
 30
0.0
 10
12.8807389505
 20
9.415647087
 30
0.0
 10
12.8777963373
 20
9.4385917582
 30
0.0
 10
12.8745573992
 20
9.4607486557
 30
0.0
 10
12.8710282973
 20
9.4820761989
 30
0.0
 10
12.8672157494
 20
9.5025344048
 30
0.0
 10
12.8631270069
 20
9.5220849467
 30
0.0
 10
12.8587698456
 20
9.5406913138
 30
0.0
 10
12.8541525243
 20
9.5583186117
 30
0.0
 10
12.8500411771
 20
9.5723499325
 30
0.0
 10
12.8466192251
 20
9.5830529477
 30
0.0
 10
12.8440282309
 20
9.5907054949
 30
0.0
 10
12.8413789018
 20
9.5980895296
 30
0.0
 10
12.8386724365
 20
9.6052016055
 30
0.0
 10
12.8359101529
 20
9.6120384096
 30
0.0
 10
12.8330932819
 20
9.6185967393
 30
0.0
 10
12.8302231924
 20
9.6248735562
 30
0.0
 10
12.8273011794
 20
9.6308659331
 30
0.0
 10
12.8243286
 20
9.6365710902
 30
0.0
 10
12.8213068458
 20
9.6419863981
 30
0.0
 10
12.8182372398
 20
9.6471093295
 30
0.0
 10
12.8151212359
 20
9.6519375526
 30
0.0
 10
12.8119601644
 20
9.6564688117
 30
0.0
 10
12.8087554555
 20
9.660701035
 30
0.0
 10
12.8055084974
 20
9.6646322657
 30
0.0
 10
12.8022206395
 20
9.6682606408
 30
0.0
 10
12.7988933216
 20
9.6715844895
 30
0.0
 10
12.7955278374
 20
9.6746021343
 30
0.0
 10
12.7921256441
 20
9.6773120917
 30
0.0
 10
12.7886880148
 20
9.6797129118
 30
0.0
 10
12.7852166735
 20
9.6818030599
 30
0.0
 10
12.7828473973
 20
9.6830055319
 30
0.0
 10
12.7816603745
 20
9.6835510602
 30
0.0
  0
SPLINE
  5
37D
100
AcDbEntity
  8
0
100
AcDbSpline
 62
7
  6
CONTINUOUS
 70
0
 71
3
 72
21
 73
17
 74
0
 42
0.0000001
 43
0.0000001
 44
0.0000000001
 40
0.0
 40
0.0
 40
0.0
 40
0.0
 40
0.0617147819
 40
0.1234506692
 40
0.185228552
 40
0.2470689061
 40
0.3089915516
 40
0.3710154745
 40
0.4331586551
 40
0.4954378585
 40
0.5578685076
 40
0.6204644887
 40
0.6832380492
 40
0.7462000649
 40
0.8726823101
 40
1.0
 40
1.0
 40
1.0
 40
1.0
 10
10.4110465099
 20
7.8239004684
 30
0.0
 10
10.408958062
 20
7.8218831701
 30
0.0
 10
10.4048834817
 20
7.8177396227
 30
0.0
 10
10.399098302
 20
7.8112170163
 30
0.0
 10
10.3936519146
 20
7.804401108
 30
0.0
 10
10.3885571213
 20
7.7973078056
 30
0.0
 10
10.3838256396
 20
7.7899533997
 30
0.0
 10
10.3794683352
 20
7.7823549078
 30
0.0
 10
10.3754952568
 20
7.7745298415
 30
0.0
 10
10.3719155952
 20
7.7664962384
 30
0.0
 10
10.3687375323
 20
7.7582726392
 30
0.0
 10
10.3659683951
 20
7.7498780637
 30
0.0
 10
10.3636145679
 20
7.7413316244
 30
0.0
 10
10.3610334694
 20
7.7297448134
 30
0.0
 10
10.3588739377
 20
7.7149734922
 30
0.0
 10
10.3583021367
 20
7.7030246738
 30
0.0
 10
10.3583021367
 20
7.6970344665
 30
0.0
  0
SPLINE
  5
37E
100
AcDbEntity
  8
0
100
AcDbSpline
 62
7
  6
CONTINUOUS
 70
0
 71
3
 72
15
 73
11
 74
0
 42
0.0000001
 43
0.0000001
 44
0.0000000001
 40
0.0
 40
0.0
 40
0.0
 40
0.0
 40
0.1433376929
 40
0.2807950841
 40
0.4126208888
 40
0.5391216052
 40
0.6606615842
 40
0.7776597641
 40
0.8905932603
 40
1.0
 40
1.0
 40
1.0
 40
1.0
 10
12.7198310349
 20
8.3730229214
 30
0.0
 10
12.7185643453
 20
8.3717993932
 30
0.0
 10
12.7160318186
 20
8.3694545939
 30
0.0
 10
12.7121528172
 20
8.3661874135
 30
0.0
 10
12.7082766188
 20
8.3632472966
 30
0.0
 10
12.7044051547
 20
8.3606359844
 30
0.0
 10
12.7005401376
 20
8.3583548881
 30
0.0
 10
12.696683137
 20
8.3564053716
 30
0.0
 10
12.6928362917
 20
8.3547887715
 30
0.0
 10
12.6902424148
 20
8.3539214763
 30
0.0
 10
12.6889513929
 20
8.3535470474
 30
0.0
  0
SPLINE
  5
37F
100
AcDbEntity
  8
0
100
AcDbSpline
 62
7
  6
CONTINUOUS
 70
0
 71
3
 72
41
 73
37
 74
0
 42
0.0000001
 43
0.0000001
 44
0.0000000001
 40
0.0
 40
0.0
 40
0.0
 40
0.0
 40
0.0299421722
 40
0.0599087187
 40
0.0899234222
 40
0.1200088965
 40
0.1501860486
 40
0.1804735921
 40
0.2108876267
 40
0.2414412921
 40
0.2721445039
 40
0.3030037728
 40
0.3340221097
 40
0.3651990124
 40
0.3965305293
 40
0.4280093954
 40
0.4596252325
 40
0.4913648061
 40
0.523212333
 40
0.5551498293
 40
0.5871574933
 40
0.6192141165
 40
0.6512975132
 40
0.6833849656
 40
0.7154536753
 40
0.7314763803
 40
0.7474860474
 40
0.7794508144
 40
0.8113324582
 40
0.8431123019
 40
0.8747737477
 40
0.9063025846
 40
0.9376874998
 40
0.9533255315
 40
0.9689249968
 40
1.0
 40
1.0
 40
1.0
 40
1.0
 10
11.4958114247
 20
9.9085928706
 30
0.0
 10
11.4923110068
 20
9.9052117082
 30
0.0
 10
11.4850349515
 20
9.8987222261
 30
0.0
 10
11.473377545
 20
9.8898814696
 30
0.0
 10
11.4610364296
 20
9.8819783949
 30
0.0
 10
11.4480805544
 20
9.8750573441
 30
0.0
 10
11.4345811517
 20
9.8691561267
 30
0.0
 10
11.4206127228
 20
9.8643071828
 30
0.0
 10
11.4062522422
 20
9.8605370435
 30
0.0
 10
11.3915788259
 20
9.8578662932
 30
0.0
 10
11.3766732636
 20
9.8563094407
 30
0.0
 10
11.3616175784
 20
9.8558748566
 30
0.0
 10
11.3464945737
 20
9.8565647349
 30
0.0
 10
11.33138738
 20
9.8583750939
 30
0.0
 10
11.3163790026
 20
9.8612958067
 30
0.0
 10
11.3015518707
 20
9.8653106635
 30
0.0
 10
11.2869873907
 20
9.8703974659
 30
0.0
 10
11.272765506
 20
9.8765281525
 30
0.0
 10
11.2589642638
 20
9.8836689559
 30
0.0
 10
11.245659395
 20
9.8917805851
 30
0.0
 10
11.2329238961
 20
9.9008184538
 30
0.0
 10
11.2208276648
 20
9.9107328783
 30
0.0
 10
11.2094370046
 20
9.9214695158
 30
0.0
 10
11.1988147003
 20
9.932969037
 30
0.0
 10
11.190648196
 20
9.9431395814
 30
0.0
 10
11.1845552207
 20
9.9515933461
 30
0.0
 10
11.1787688134
 20
9.9602394986
 30
0.0
 10
11.1721160722
 20
9.9713978648
 30
0.0
 10
11.1651027968
 20
9.9852824976
 30
0.0
 10
11.1591010176
 20
9.9995804216
 30
0.0
 10
11.1541440445
 20
10.0142129183
 30
0.0
 10
11.1502591841
 20
10.0290992925
 30
0.0
 10
11.1479301328
 20
10.0416650116
 30
0.0
 10
11.1466235956
 20
10.0517614002
 30
0.0
 10
11.1456911571
 20
10.0618481322
 30
0.0
 10
11.1454088244
 20
10.0694383228
 30
0.0
 10
11.1454088244
 20
10.0744891937
 30
0.0
  0
SPLINE
  5
380
100
AcDbEntity
  8
0
100
AcDbSpline
 62
7
  6
CONTINUOUS
 70
0
 71
3
 72
23
 73
19
 74
0
 42
0.0000001
 43
0.0000001
 44
0.0000000001
 40
0.0
 40
0.0
 40
0.0
 40
0.0
 40
0.0781366256
 40
0.1532314921
 40
0.2254044528
 40
0.2947999486
 40
0.3615917484
 40
0.4259788933
 40
0.4881872746
 40
0.5484705101
 40
0.6071104664
 40
0.6644173581
 40
0.7207256504
 40
0.7763896105
 40
0.8317771081
 40
0.8872618933
 40
0.9432156738
 40
1.0
 40
1.0
 40
1.0
 40
1.0
 10
12.7198310349
 20
8.5633103204
 30
0.0
 10
12.7189822956
 20
8.5624905012
 30
0.0
 10
12.7172853171
 20
8.5609159569
 30
0.0
 10
12.7146888999
 20
8.5587127196
 30
0.0
 10
12.7120942018
 20
8.5567169859
 30
0.0
 10
12.7095023928
 20
8.554929892
 30
0.0
 10
12.7069145609
 20
8.5533522539
 30
0.0
 10
12.7043316882
 20
8.5519849161
 30
0.0
 10
12.701754833
 20
8.5508286315
 30
0.0
 10
12.6991851087
 20
8.5498841084
 30
0.0
 10
12.6966236501
 20
8.549152126
 30
0.0
 10
12.6940717218
 20
8.548633226
 30
0.0
 10
12.6915306384
 20
8.5483279175
 30
0.0
 10
12.6890018085
 20
8.5482366051
 30
0.0
 10
12.6864867263
 20
8.5483593575
 30
0.0
 10
12.6839868392
 20
8.5486962147
 30
0.0
 10
12.6815038218
 20
8.5492468289
 30
0.0
 10
12.6798754657
 20
8.5497514897
 30
0.0
 10
12.6790669492
 20
8.5500373457
 30
0.0
  0
SPLINE
  5
381
100
AcDbEntity
  8
0
100
AcDbSpline
 62
7
  6
CONTINUOUS
 70
0
 71
3
 72
18
 73
14
 74
0
 42
0.0000001
 43
0.0000001
 44
0.0000000001
 40
0.0
 40
0.0
 40
0.0
 40
0.0
 40
0.150467608
 40
0.291710008
 40
0.4244359371
 40
0.549562455
 40
0.6682139939
 40
0.7255497488
 40
0.7817912909
 40
0.8371402503
 40
0.8918093826
 40
0.9460201179
 40
1.0
 40
1.0
 40
1.0
 40
1.0
 10
12.7507406639
 20
8.3708793313
 30
0.0
 10
12.7488479267
 20
8.3690510875
 30
0.0
 10
12.7450651398
 20
8.3656208316
 30
0.0
 10
12.7392075249
 20
8.3610494298
 30
0.0
 10
12.7333567901
 20
8.35722614
 30
0.0
 10
12.7275189929
 20
8.3541572375
 30
0.0
 10
12.7226123886
 20
8.3522112069
 30
0.0
 10
12.7187167615
 20
8.351054992
 30
0.0
 10
12.7158365371
 20
8.3503885661
 30
0.0
 10
12.712965868
 20
8.3499135873
 30
0.0
 10
12.7101055587
 20
8.3496302236
 30
0.0
 10
12.7072567468
 20
8.3495386226
 30
0.0
 10
12.7053640781
 20
8.3496055642
 30
0.0
 10
12.7044222864
 20
8.3496708736
 30
0.0
  0
SPLINE
  5
382
100
AcDbEntity
  8
0
100
AcDbSpline
 62
7
  6
CONTINUOUS
 70
0
 71
3
 72
41
 73
37
 74
0
 42
0.0000001
 43
0.0000001
 44
0.0000000001
 40
0.0
 40
0.0
 40
0.0
 40
0.0
 40
0.0299421722
 40
0.0599087187
 40
0.0899234222
 40
0.1200088965
 40
0.1501860486
 40
0.1804735921
 40
0.2108876267
 40
0.2414412921
 40
0.2721445039
 40
0.3030037728
 40
0.3340221097
 40
0.3651990124
 40
0.3965305293
 40
0.4280093954
 40
0.4596252325
 40
0.4913648061
 40
0.523212333
 40
0.5551498293
 40
0.5871574933
 40
0.6192141165
 40
0.6512975132
 40
0.6833849656
 40
0.7154536753
 40
0.7314763803
 40
0.7474860474
 40
0.7794508144
 40
0.8113324582
 40
0.8431123019
 40
0.8747737477
 40
0.9063025846
 40
0.9376874998
 40
0.9533255315
 40
0.9689249968
 40
1.0
 40
1.0
 40
1.0
 40
1.0
 10
10.4091448058
 20
6.8446943351
 30
0.0
 10
10.4056443878
 20
6.8413131727
 30
0.0
 10
10.3983683326
 20
6.8348236906
 30
0.0
 10
10.386710926
 20
6.8259829342
 30
0.0
 10
10.3743698107
 20
6.8180798594
 30
0.0
 10
10.3614139354
 20
6.8111588086
 30
0.0
 10
10.3479145328
 20
6.8052575912
 30
0.0
 10
10.3339461038
 20
6.8004086473
 30
0.0
 10
10.3195856232
 20
6.796638508
 30
0.0
 10
10.304912207
 20
6.7939677578
 30
0.0
 10
10.2900066447
 20
6.7924109052
 30
0.0
 10
10.2749509595
 20
6.7919763212
 30
0.0
 10
10.2598279547
 20
6.7926661994
 30
0.0
 10
10.244720761
 20
6.7944765585
 30
0.0
 10
10.2297123836
 20
6.7973972713
 30
0.0
 10
10.2148852517
 20
6.801412128
 30
0.0
 10
10.2003207718
 20
6.8064989304
 30
0.0
 10
10.1860988871
 20
6.8126296171
 30
0.0
 10
10.1722976448
 20
6.8197704204
 30
0.0
 10
10.158992776
 20
6.8278820497
 30
0.0
 10
10.1462572771
 20
6.8369199183
 30
0.0
 10
10.1341610458
 20
6.8468343429
 30
0.0
 10
10.1227703856
 20
6.8575709804
 30
0.0
 10
10.1121480814
 20
6.8690705016
 30
0.0
 10
10.103981577
 20
6.879241046
 30
0.0
 10
10.0978886017
 20
6.8876948106
 30
0.0
 10
10.0921021944
 20
6.8963409631
 30
0.0
 10
10.0854494532
 20
6.9074993293
 30
0.0
 10
10.0784361779
 20
6.9213839621
 30
0.0
 10
10.0724343987
 20
6.9356818861
 30
0.0
 10
10.0674774255
 20
6.9503143829
 30
0.0
 10
10.0635925652
 20
6.965200757
 30
0.0
 10
10.0612635138
 20
6.9777664762
 30
0.0
 10
10.0599569766
 20
6.9878628647
 30
0.0
 10
10.0590245382
 20
6.9979495967
 30
0.0
 10
10.0587422055
 20
7.0055397874
 30
0.0
 10
10.0587422055
 20
7.0105906583
 30
0.0
  0
SPLINE
  5
383
100
AcDbEntity
  8
0
100
AcDbSpline
 62
7
  6
CONTINUOUS
 70
0
 71
3
 72
21
 73
17
 74
0
 42
0.0000001
 43
0.0000001
 44
0.0000000001
 40
0.0
 40
0.0
 40
0.0
 40
0.0
 40
0.1273175725
 40
0.2538000026
 40
0.3167619332
 40
0.3795354925
 40
0.4421314982
 40
0.5045621433
 40
0.5668413429
 40
0.6289845306
 40
0.6910084612
 40
0.7529311022
 40
0.8147714553
 40
0.8765493457
 40
0.9382852283
 40
1.0
 40
1.0
 40
1.0
 40
1.0
 10
11.1454088244
 20
10.0744891937
 30
0.0
 10
11.1454088244
 20
10.0809875201
 30
0.0
 10
11.1460291319
 20
10.0939499105
 30
0.0
 10
11.148371811
 20
10.1099742273
 30
0.0
 10
11.1511718506
 20
10.1225439067
 30
0.0
 10
11.153725338
 20
10.1318153033
 30
0.0
 10
11.1567293239
 20
10.1409219726
 30
0.0
 10
11.1601769593
 20
10.1498431517
 30
0.0
 10
11.1640602637
 20
10.1585582142
 30
0.0
 10
11.1683703061
 20
10.167047078
 30
0.0
 10
11.1730971999
 20
10.1752901339
 30
0.0
 10
11.1782300287
 20
10.1832683871
 30
0.0
 10
11.1837569365
 20
10.1909634248
 30
0.0
 10
11.1896652768
 20
10.1983575346
 30
0.0
 10
11.1959411939
 20
10.2054334212
 30
0.0
 10
11.200361344
 20
10.2099285075
 30
0.0
 10
11.202626947
 20
10.2121169238
 30
0.0
  0
SPLINE
  5
384
100
AcDbEntity
  8
0
100
AcDbSpline
 62
7
  6
CONTINUOUS
 70
0
 71
3
 72
91
 73
87
 74
0
 42
0.0000001
 43
0.0000001
 44
0.0000000001
 40
0.0
 40
0.0
 40
0.0
 40
0.0
 40
0.0027164146
 40
0.005453202
 40
0.008230252
 40
0.0110665198
 40
0.0139797053
 40
0.0169859824
 40
0.0200999174
 40
0.023334401
 40
0.0267007187
 40
0.0302086385
 40
0.0338665091
 40
0.0376814414
 40
0.0416593691
 40
0.0458052582
 40
0.0501231421
 40
0.0546162891
 40
0.0592872586
 40
0.064137982
 40
0.0691698666
 40
0.0743837897
 40
0.079780237
 40
0.0853592528
 40
0.0911205635
 40
0.0970635488
 40
0.1031872988
 40
0.1094906474
 40
0.1226297881
 40
0.1364673429
 40
0.1509860432
 40
0.166165828
 40
0.1819841602
 40
0.1984162836
 40
0.2154354412
 40
0.2330130641
 40
0.2511189358
 40
0.2697213391
 40
0.2887871904
 40
0.3082821639
 40
0.3281708096
 40
0.3484166635
 40
0.368982358
 40
0.3898297276
 40
0.4109199118
 40
0.4322134566
 40
0.4536704139
 40
0.4752504412
 40
0.4969128994
 40
0.5186169519
 40
0.5403216628
 40
0.5619860952
 40
0.5835694083
 40
0.6050309559
 40
0.6263303839
 40
0.6474277291
 40
0.6682835187
 40
0.688858872
 40
0.7091156002
 40
0.7290163102
 40
0.7485245085
 40
0.7676047097
 40
0.7862225487
 40
0.8043448976
 40
0.8219399925
 40
0.8389775679
 40
0.8554290014
 40
0.8712674776
 40
0.8864681732
 40
0.9010084737
 40
0.9148682315
 40
0.9280300795
 40
0.9343449284
 40
0.9404802779
 40
0.9464349254
 40
0.952207944
 40
0.9577987094
 40
0.9632068925
 40
0.9684325652
 40
0.9734761403
 40
0.9783384919
 40
0.9830209404
 40
0.9875254382
 40
0.9918545985
 40
0.9960115586
 40
1.0
 40
1.0
 40
1.0
 40
1.0
 10
12.7970590414
 20
9.6854625471
 30
0.0
 10
12.7983085814
 20
9.6853758966
 30
0.0
 10
12.8008106352
 20
9.6850888605
 30
0.0
 10
12.8045318702
 20
9.6843207481
 30
0.0
 10
12.808224966
 20
9.6832151442
 30
0.0
 10
12.8118873321
 20
9.681773226
 30
0.0
 10
12.815517019
 20
9.6799961486
 30
0.0
 10
12.8191122284
 20
9.6778854231
 30
0.0
 10
12.8226712489
 20
9.6754424595
 30
0.0
 10
12.8261925341
 20
9.6726688626
 30
0.0
 10
12.8296745539
 20
9.6695662337
 30
0.0
 10
12.8331157862
 20
9.6661362543
 30
0.0
 10
12.836514776
 20
9.6623807503
 30
0.0
 10
12.8398699487
 20
9.6583015772
 30
0.0
 10
12.8431798591
 20
9.6539008193
 30
0.0
 10
12.8464429086
 20
9.6491806068
 30
0.0
 10
12.8496576202
 20
9.6441432965
 30
0.0
 10
12.8528224301
 20
9.6387913494
 30
0.0
 10
12.8559358157
 20
9.6331274064
 30
0.0
 10
12.8589962834
 20
9.6271542705
 30
0.0
 10
12.862002285
 20
9.6208748813
 30
0.0
 10
12.8649523955
 20
9.6142923706
 30
0.0
 10
12.8678450862
 20
9.6074099898
 30
0.0
 10
12.8706789729
 20
9.6002311798
 30
0.0
 10
12.8734525987
 20
9.5927595081
 30
0.0
 10
12.8761645888
 20
9.5849987125
 30
0.0
 10
12.8788136095
 20
9.5769526591
 30
0.0
 10
12.8823082339
 20
9.5656934284
 30
0.0
 10
12.8864971739
 20
9.5509280074
 30
0.0
 10
12.891185322
 20
9.5323753138
 30
0.0
 10
12.8955923919
 20
9.5127883733
 30
0.0
 10
12.8997094411
 20
9.49220645
 30
0.0
 10
12.9035280904
 20
9.4706706474
 30
0.0
 10
12.9070405696
 20
9.4482241087
 30
0.0
 10
12.9102397302
 20
9.4249118321
 30
0.0
 10
12.9131190607
 20
9.4007805939
 30
0.0
 10
12.9156727
 20
9.37587884
 30
0.0
 10
12.9178954494
 20
9.3502565849
 30
0.0
 10
12.9197827826
 20
9.3239653072
 30
0.0
 10
12.921330854
 20
9.2970578431
 30
0.0
 10
12.9225365062
 20
9.2695882787
 30
0.0
 10
12.923397278
 20
9.2416118397
 30
0.0
 10
12.9239114073
 20
9.2131847777
 30
0.0
 10
12.9240778335
 20
9.1843642554
 30
0.0
 10
12.9238961992
 20
9.1552082302
 30
0.0
 10
12.9233668511
 20
9.1257753369
 30
0.0
 10
12.9224908383
 20
9.0961247699
 30
0.0
 10
12.9212699106
 20
9.0663161632
 30
0.0
 10
12.9197065146
 20
9.0364094705
 30
0.0
 10
12.9178037913
 20
9.0064648436
 30
0.0
 10
12.9155655666
 20
8.9765425107
 30
0.0
 10
12.9129963444
 20
8.9467026545
 30
0.0
 10
12.9101012967
 20
8.9170052909
 30
0.0
 10
12.9068862539
 20
8.8875101482
 30
0.0
 10
12.9033576929
 20
8.8582765471
 30
0.0
 10
12.8995227238
 20
8.8293632802
 30
0.0
 10
12.8953890768
 20
8.8008284928
 30
0.0
 10
12.8909650885
 20
8.7727295645
 30
0.0
 10
12.8862596821
 20
8.7451229931
 30
0.0
 10
12.8812823508
 20
8.7180642806
 30
0.0
 10
12.8760431386
 20
8.6916078205
 30
0.0
 10
12.8705526204
 20
8.6658067874
 30
0.0
 10
12.8648218811
 20
8.6407130277
 30
0.0
 10
12.8588624932
 20
8.616376953
 30
0.0
 10
12.8526864949
 20
8.5928474334
 30
0.0
 10
12.846306366
 20
8.5701716948
 30
0.0
 10
12.8397350003
 20
8.5483952216
 30
0.0
 10
12.8329856786
 20
8.5275616524
 30
0.0
 10
12.8260720406
 20
8.5077127082
 30
0.0
 10
12.8190080491
 20
8.4888880116
 30
0.0
 10
12.8118079673
 20
8.4711252913
 30
0.0
 10
12.8056242566
 20
8.4570495928
 30
0.0
 10
12.8006113041
 20
8.4463560725
 30
0.0
 10
12.7968785469
 20
8.4387340925
 30
0.0
 10
12.7931226694
 20
8.4314030926
 30
0.0
 10
12.7893455219
 20
8.4243667322
 30
0.0
 10
12.7855490298
 20
8.417628515
 30
0.0
 10
12.7817350415
 20
8.4111918153
 30
0.0
 10
12.7779055104
 20
8.4050598107
 30
0.0
 10
12.7740622783
 20
8.3992355789
 30
0.0
 10
12.7702073151
 20
8.3937219946
 30
0.0
 10
12.7663424837
 20
8.3885217955
 30
0.0
 10
12.7624696525
 20
8.3836375198
 30
0.0
 10
12.7585906406
 20
8.3790715282
 30
0.0
 10
12.7547074888
 20
8.3748262977
 30
0.0
 10
12.7520634258
 20
8.3721570213
 30
0.0
 10
12.7507406639
 20
8.3708793313
 30
0.0
  0
SPLINE
  5
385
100
AcDbEntity
  8
0
100
AcDbSpline
 62
7
  6
CONTINUOUS
 70
0
 71
3
 72
85
 73
81
 74
0
 42
0.0000001
 43
0.0000001
 44
0.0000000001
 40
0.0
 40
0.0
 40
0.0
 40
0.0
 40
0.0040523132
 40
0.0082800586
 40
0.012687107
 40
0.0172766976
 40
0.0220515287
 40
0.0270136709
 40
0.0321644567
 40
0.0375047323
 40
0.0430348704
 40
0.0487548259
 40
0.0546642229
 40
0.0607622717
 40
0.0735193565
 40
0.0870147767
 40
0.1012327724
 40
0.116154216
 40
0.1317570291
 40
0.1480165025
 40
0.1649055819
 40
0.1823951061
 40
0.2004540051
 40
0.2190494741
 40
0.2381471209
 40
0.2577111186
 40
0.2777043474
 40
0.2980885222
 40
0.3188243129
 40
0.3398714579
 40
0.3611888839
 40
0.3827348247
 40
0.4263416346
 40
0.4703488554
 40
0.5144086288
 40
0.5581725713
 40
0.5798358349
 40
0.6012960488
 40
0.6225110822
 40
0.6434394295
 40
0.6640403257
 40
0.6842738677
 40
0.704101126
 40
0.7234842621
 40
0.7423866525
 40
0.7607730229
 40
0.7786095977
 40
0.7958642408
 40
0.8125066169
 40
0.828508374
 40
0.8438433585
 40
0.8584878757
 40
0.8724209751
 40
0.8856248089
 40
0.8980850902
 40
0.9040333293
 40
0.9097922914
 40
0.9153614672
 40
0.920740747
 40
0.9259304392
 40
0.9309312645
 40
0.9357445176
 40
0.9403720079
 40
0.9448162238
 40
0.9490803884
 40
0.9531685156
 40
0.9570856184
 40
0.9608377212
 40
0.9644320859
 40
0.9678773242
 40
0.9711835192
 40
0.9774235373
 40
0.9803901421
 40
0.9832753234
 40
0.9860978075
 40
0.9888777434
 40
0.9916362884
 40
0.9943951441
 40
0.9971759996
 40
1.0
 40
1.0
 40
1.0
 40
1.0
 10
12.7198310349
 20
8.5633103204
 30
0.0
 10
12.7207875535
 20
8.5642342465
 30
0.0
 10
12.7226994891
 20
8.5661665136
 30
0.0
 10
12.7255059836
 20
8.5692434364
 30
0.0
 10
12.7283093647
 20
8.5725576982
 30
0.0
 10
12.731108037
 20
8.5761074141
 30
0.0
 10
12.7339006515
 20
8.5798907531
 30
0.0
 10
12.7366857653
 20
8.583905812
 30
0.0
 10
12.7394620051
 20
8.5881504924
 30
0.0
 10
12.742227879
 20
8.5926225992
 30
0.0
 10
12.7449819484
 20
8.5973197908
 30
0.0
 10
12.7477227942
 20
8.6022396057
 30
0.0
 10
12.7504489624
 20
8.6073794974
 30
0.0
 10
12.7541176791
 20
8.6146319347
 30
0.0
 10
12.7586474956
 20
8.6242363286
 30
0.0
 10
12.7639237252
 20
8.6364269473
 30
0.0
 10
12.7691079084
 20
8.6494247888
 30
0.0
 10
12.7741890766
 20
8.6632025801
 30
0.0
 10
12.7791564685
 20
8.6777315472
 30
0.0
 10
12.7839995594
 20
8.6929812123
 30
0.0
 10
12.7887080844
 20
8.7089195529
 30
0.0
 10
12.7932720611
 20
8.7255130614
 30
0.0
 10
12.7976818139
 20
8.7427268293
 30
0.0
 10
12.8019279926
 20
8.7605246201
 30
0.0
 10
12.806001602
 20
8.7788689456
 30
0.0
 10
12.8098940161
 20
8.7977211507
 30
0.0
 10
12.8135969926
 20
8.817041502
 30
0.0
 10
12.817102691
 20
8.8367892731
 30
0.0
 10
12.8204036895
 20
8.8569228324
 30
0.0
 10
12.8234929971
 20
8.8773997163
 30
0.0
 10
12.8263641098
 20
8.8981767708
 30
0.0
 10
12.8299071486
 20
8.9263327978
 30
0.0
 10
12.8337431715
 20
8.9619542038
 30
0.0
 10
12.8373752777
 20
9.0050173033
 30
0.0
 10
12.8400235012
 20
9.0482037426
 30
0.0
 10
12.8413966808
 20
9.0841121266
 30
0.0
 10
12.8419812307
 20
9.1126211245
 30
0.0
 10
12.8421608707
 20
9.1337353006
 30
0.0
 10
12.8420829252
 20
9.1546089031
 30
0.0
 10
12.8417475515
 20
9.1751979414
 30
0.0
 10
12.8411554811
 20
9.1954589842
 30
0.0
 10
12.8403079907
 20
9.21534931
 30
0.0
 10
12.8392068988
 20
9.2348269823
 30
0.0
 10
12.8378545613
 20
9.2538509398
 30
0.0
 10
12.836253867
 20
9.2723810834
 30
0.0
 10
12.8344082327
 20
9.2903783664
 30
0.0
 10
12.8323216057
 20
9.3078048824
 30
0.0
 10
12.8299984454
 20
9.3246239464
 30
0.0
 10
12.8274437141
 20
9.3408001724
 30
0.0
 10
12.824662867
 20
9.356299551
 30
0.0
 10
12.8216618377
 20
9.3710895411
 30
0.0
 10
12.8184470349
 20
9.3851391283
 30
0.0
 10
12.8150253167
 20
9.3984189877
 30
0.0
 10
12.8114039473
 20
9.41090126
 30
0.0
 10
12.8081782159
 20
9.4207640903
 30
0.0
 10
12.8054949658
 20
9.4282281
 30
0.0
 10
12.8034686189
 20
9.4335237887
 30
0.0
 10
12.80139822
 20
9.4386013477
 30
0.0
 10
12.799284832
 20
9.4434581338
 30
0.0
 10
12.7971295906
 20
9.4480916233
 30
0.0
 10
12.7949335599
 20
9.4524993882
 30
0.0
 10
12.7926979317
 20
9.4566791626
 30
0.0
 10
12.7904238074
 20
9.4606287673
 30
0.0
 10
12.7881123502
 20
9.4643461648
 30
0.0
 10
12.7857647454
 20
9.4678294534
 30
0.0
 10
12.7833820919
 20
9.4710768052
 30
0.0
 10
12.7809656192
 20
9.4740865756
 30
0.0
 10
12.7785163933
 20
9.4768571851
 30
0.0
 10
12.7760356806
 20
9.4793871067
 30
0.0
 10
12.7735242463
 20
9.4816752301
 30
0.0
 10
12.7702016378
 20
9.4843494656
 30
0.0
 10
12.7667524886
 20
9.4866089648
 30
0.0
 10
12.763198138
 20
9.4883816001
 30
0.0
 10
12.7605522549
 20
9.4894411392
 30
0.0
 10
12.757883612
 20
9.4902515632
 30
0.0
 10
12.7551937917
 20
9.4908122444
 30
0.0
 10
12.7524846731
 20
9.4911224753
 30
0.0
 10
12.749758146
 20
9.4911820008
 30
0.0
 10
12.7470164343
 20
9.4909909217
 30
0.0
 10
12.7451974851
 20
9.4906994576
 30
0.0
 10
12.7442894383
 20
9.4905141043
 30
0.0
  0
SPLINE
  5
386
100
AcDbEntity
  8
0
100
AcDbSpline
 62
7
  6
CONTINUOUS
 70
0
 71
3
 72
55
 73
51
 74
0
 42
0.0000001
 43
0.0000001
 44
0.0000000001
 40
0.0
 40
0.0
 40
0.0
 40
0.0
 40
0.0090699789
 40
0.0186712564
 40
0.0288044185
 40
0.0394674254
 40
0.0506558358
 40
0.062363189
 40
0.074581302
 40
0.0873003499
 40
0.1005091399
 40
0.1141952128
 40
0.1283449031
 40
0.1429435424
 40
0.1579754532
 40
0.1734240519
 40
0.189271965
 40
0.2055009974
 40
0.2390256139
 40
0.2738398611
 40
0.309775937
 40
0.3466584054
 40
0.3843055342
 40
0.4225306108
 40
0.4611432025
 40
0.4999503976
 40
0.5387580465
 40
0.5773719998
 40
0.6155993352
 40
0.6532496004
 40
0.6901360674
 40
0.7260769872
 40
0.7608968794
 40
0.7944278945
 40
0.8106604114
 40
0.8265119595
 40
0.8419643829
 40
0.8570002692
 40
0.8716030226
 40
0.8857569945
 40
0.8994474571
 40
0.9126607685
 40
0.9253844623
 40
0.9376072891
 40
0.9493194692
 40
0.9605127675
 40
0.9711806958
 40
0.9813188471
 40
0.9909250818
 40
1.0
 40
1.0
 40
1.0
 40
1.0
 10
12.6324351753
 20
8.6159919312
 30
0.0
 10
12.6338647195
 20
8.6180746598
 30
0.0
 10
12.6367101214
 20
8.6224295613
 30
0.0
 10
12.6408313276
 20
8.6293145823
 30
0.0
 10
12.6449216269
 20
8.6367289521
 30
0.0
 10
12.6489754912
 20
8.6446628289
 30
0.0
 10
12.6529876114
 20
8.653105861
 30
0.0
 10
12.6569526596
 20
8.6620469131
 30
0.0
 10
12.6608653204
 20
8.6714741936
 30
0.0
 10
12.6647204014
 20
8.6813752126
 30
0.0
 10
12.6685127375
 20
8.6917368444
 30
0.0
 10
12.6722372392
 20
8.7025453339
 30
0.0
 10
12.6758889521
 20
8.7137863066
 30
0.0
 10
12.6794629602
 20
8.7254448127
 30
0.0
 10
12.6829544877
 20
8.7375053314
 30
0.0
 10
12.6863588685
 20
8.749951793
 30
0.0
 10
12.6896715437
 20
8.7627676326
 30
0.0
 10
12.6940071117
 20
8.7805173362
 30
0.0
 10
12.699153225
 20
8.8035044774
 30
0.0
 10
12.7048314409
 20
8.831988654
 30
0.0
 10
12.7100467295
 20
8.861511285
 30
0.0
 10
12.7147710778
 20
8.8919149663
 30
0.0
 10
12.7189791076
 20
8.9230377297
 30
0.0
 10
12.7226482436
 20
8.9547136642
 30
0.0
 10
12.725758816
 20
8.9867738929
 30
0.0
 10
12.728294177
 20
9.019047461
 30
0.0
 10
12.7302407951
 20
9.0513622637
 30
0.0
 10
12.7315883091
 20
9.0835459742
 30
0.0
 10
12.7323295847
 20
9.1154269701
 30
0.0
 10
12.7324607695
 20
9.1468352656
 30
0.0
 10
12.7319813142
 20
9.1776034098
 30
0.0
 10
12.7308939892
 20
9.2075674648
 30
0.0
 10
12.7292047887
 20
9.2365676414
 30
0.0
 10
12.7272833163
 20
9.2600496085
 30
0.0
 10
12.7254412141
 20
9.2782318355
 30
0.0
 10
12.7239306267
 20
9.2913854807
 30
0.0
 10
12.7222782289
 20
9.3041861053
 30
0.0
 10
12.7204862133
 20
9.316616668
 30
0.0
 10
12.7185569789
 20
9.3286606035
 30
0.0
 10
12.7164931497
 20
9.3403018774
 30
0.0
 10
12.714297478
 20
9.3515249963
 30
0.0
 10
12.7119729189
 20
9.3623150367
 30
0.0
 10
12.7095226194
 20
9.3726576676
 30
0.0
 10
12.7069498343
 20
9.3825391636
 30
0.0
 10
12.7042580419
 20
9.3919464412
 30
0.0
 10
12.7014508431
 20
9.4008670768
 30
0.0
 10
12.6985319599
 20
9.4092892951
 30
0.0
 10
12.6955052793
 20
9.4172021163
 30
0.0
 10
12.6923748487
 20
9.4245950026
 30
0.0
 10
12.6901584938
 20
9.4293043448
 30
0.0
 10
12.6890304451
 20
9.4315661613
 30
0.0
  0
SPLINE
  5
387
100
AcDbEntity
  8
0
100
AcDbSpline
 62
7
  6
CONTINUOUS
 70
0
 71
3
 72
43
 73
39
 74
0
 42
0.0000001
 43
0.0000001
 44
0.0000000001
 40
0.0
 40
0.0
 40
0.0
 40
0.0
 40
0.011219854
 40
0.0228253064
 40
0.0348097403
 40
0.0471659185
 40
0.0729604946
 40
0.1001396782
 40
0.1286250507
 40
0.1583309835
 40
0.1891654969
 40
0.2210310059
 40
0.2538249921
 40
0.287440623
 40
0.3217673373
 40
0.356691405
 40
0.3920964731
 40
0.4278640993
 40
0.4638742794
 40
0.5000059702
 40
0.5361376095
 40
0.5721476353
 40
0.6079150051
 40
0.6433197158
 40
0.6782433266
 40
0.7125694865
 40
0.7461844681
 40
0.7789777128
 40
0.8108423916
 40
0.8416759899
 40
0.8713809274
 40
0.8998652292
 40
0.9270432727
 40
0.9528366455
 40
0.9651922034
 40
0.9771759988
 40
0.9887808065
 40
1.0
 40
1.0
 40
1.0
 40
1.0
 10
12.6126779822
 20
8.6965174094
 30
0.0
 10
12.6136768014
 20
8.6988071171
 30
0.0
 10
12.6156611685
 20
8.7034861146
 30
0.0
 10
12.6185529904
 20
8.7106771515
 30
0.0
 10
12.6214083898
 20
8.7181542062
 30
0.0
 10
12.6252181905
 20
8.7286468858
 30
0.0
 10
12.629859273
 20
8.7424346525
 30
0.0
 10
12.6351668209
 20
8.7597794923
 30
0.0
 10
12.6402702514
 20
8.7780910606
 30
0.0
 10
12.6451511217
 20
8.7973038138
 30
0.0
 10
12.64979178
 20
8.8173491071
 30
0.0
 10
12.6541754587
 20
8.8381551886
 30
0.0
 10
12.658286327
 20
8.8596475497
 30
0.0
 10
12.662109549
 20
8.8817491816
 30
0.0
 10
12.665631335
 20
8.9043808661
 30
0.0
 10
12.6688389903
 20
8.9274614638
 30
0.0
 10
12.6717209593
 20
8.9509082107
 30
0.0
 10
12.6742668666
 20
8.9746370185
 30
0.0
 10
12.6764675535
 20
8.9985627795
 30
0.0
 10
12.6783151101
 20
9.0225996743
 30
0.0
 10
12.6798029039
 20
9.0466614821
 30
0.0
 10
12.6809256034
 20
9.0706618918
 30
0.0
 10
12.6816791976
 20
9.094514814
 30
0.0
 10
12.6820610108
 20
9.1181346921
 30
0.0
 10
12.682069713
 20
9.1414368114
 30
0.0
 10
12.6817053256
 20
9.1643376063
 30
0.0
 10
12.680969223
 20
9.1867549632
 30
0.0
 10
12.6798641288
 20
9.2086085201
 30
0.0
 10
12.6783941082
 20
9.2298199596
 30
0.0
 10
12.6765645566
 20
9.2503133032
 30
0.0
 10
12.6743821777
 20
9.2700151736
 30
0.0
 10
12.6718549798
 20
9.288855149
 30
0.0
 10
12.6689921836
 20
9.3067657706
 30
0.0
 10
12.6662985125
 20
9.3210614728
 30
0.0
 10
12.6639733775
 20
9.3319790008
 30
0.0
 10
12.6621772873
 20
9.3397781629
 30
0.0
 10
12.6603056515
 20
9.3472990617
 30
0.0
 10
12.6589860646
 20
9.3522068583
 30
0.0
 10
12.6583128285
 20
9.354612356
 30
0.0
  0
SPLINE
  5
388
100
AcDbEntity
  8
0
100
AcDbSpline
 62
4
  6
CONTINUOUS
 70
0
 71
3
 72
330
 73
326
 74
0
 42
0.0000001
 43
0.0000001
 44
0.0000000001
 40
0.0
 40
0.0
 40
0.0
 40
0.0
 40
0.015625
 40
0.0234375
 40
0.03125
 40
0.0390625
 40
0.04296875
 40
0.046875
 40
0.05078125
 40
0.0546875
 40
0.056640625
 40
0.05859375
 40
0.060546875
 40
0.0615234375
 40
0.0620117188
 40
0.0625
 40
0.0629882812
 40
0.0634765625
 40
0.064453125
 40
0.06640625
 40
0.068359375
 40
0.0703125
 40
0.07421875
 40
0.078125
 40
0.08203125
 40
0.0859375
 40
0.09375
 40
0.1015625
 40
0.10546875
 40
0.109375
 40
0.11328125
 40
0.1171875
 40
0.119140625
 40
0.12109375
 40
0.123046875
 40
0.1240234375
 40
0.1245117188
 40
0.125
 40
0.1254882812
 40
0.1259765625
 40
0.126953125
 40
0.12890625
 40
0.130859375
 40
0.1328125
 40
0.13671875
 40
0.140625
 40
0.14453125
 40
0.1484375
 40
0.15625
 40
0.1640625
 40
0.16796875
 40
0.171875
 40
0.17578125
 40
0.1796875
 40
0.181640625
 40
0.18359375
 40
0.185546875
 40
0.1865234375
 40
0.1870117188
 40
0.1875
 40
0.1879882812
 40
0.1884765625
 40
0.189453125
 40
0.19140625
 40
0.193359375
 40
0.1953125
 40
0.19921875
 40
0.203125
 40
0.20703125
 40
0.2109375
 40
0.21875
 40
0.2265625
 40
0.23046875
 40
0.234375
 40
0.23828125
 40
0.2421875
 40
0.244140625
 40
0.24609375
 40
0.248046875
 40
0.2490234375
 40
0.2495117188
 40
0.25
 40
0.2504882812
 40
0.2509765625
 40
0.251953125
 40
0.25390625
 40
0.255859375
 40
0.2578125
 40
0.26171875
 40
0.265625
 40
0.26953125
 40
0.2734375
 40
0.28125
 40
0.2890625
 40
0.29296875
 40
0.296875
 40
0.30078125
 40
0.3046875
 40
0.306640625
 40
0.30859375
 40
0.310546875
 40
0.3115234375
 40
0.3120117188
 40
0.3125
 40
0.3129882812
 40
0.3134765625
 40
0.314453125
 40
0.31640625
 40
0.318359375
 40
0.3203125
 40
0.32421875
 40
0.328125
 40
0.33203125
 40
0.3359375
 40
0.34375
 40
0.3515625
 40
0.35546875
 40
0.359375
 40
0.36328125
 40
0.3671875
 40
0.369140625
 40
0.37109375
 40
0.373046875
 40
0.3740234375
 40
0.3745117188
 40
0.375
 40
0.3754882812
 40
0.3759765625
 40
0.376953125
 40
0.37890625
 40
0.380859375
 40
0.3828125
 40
0.38671875
 40
0.390625
 40
0.39453125
 40
0.3984375
 40
0.40625
 40
0.4140625
 40
0.41796875
 40
0.421875
 40
0.42578125
 40
0.4296875
 40
0.431640625
 40
0.43359375
 40
0.435546875
 40
0.4365234375
 40
0.4370117188
 40
0.4375
 40
0.4379882812
 40
0.4384765625
 40
0.439453125
 40
0.44140625
 40
0.443359375
 40
0.4453125
 40
0.44921875
 40
0.453125
 40
0.45703125
 40
0.4609375
 40
0.46875
 40
0.4765625
 40
0.48046875
 40
0.484375
 40
0.48828125
 40
0.4921875
 40
0.494140625
 40
0.49609375
 40
0.498046875
 40
0.4990234375
 40
0.4995117188
 40
0.5
 40
0.5004882812
 40
0.5009765625
 40
0.501953125
 40
0.50390625
 40
0.505859375
 40
0.5078125
 40
0.51171875
 40
0.515625
 40
0.51953125
 40
0.5234375
 40
0.53125
 40
0.5390625
 40
0.546875
 40
0.55078125
 40
0.5546875
 40
0.556640625
 40
0.55859375
 40
0.560546875
 40
0.5615234375
 40
0.5620117188
 40
0.5625
 40
0.5629882812
 40
0.5634765625
 40
0.564453125
 40
0.56640625
 40
0.568359375
 40
0.5703125
 40
0.57421875
 40
0.578125
 40
0.5859375
 40
0.59375
 40
0.6015625
 40
0.609375
 40
0.61328125
 40
0.6171875
 40
0.619140625
 40
0.62109375
 40
0.623046875
 40
0.6240234375
 40
0.6245117188
 40
0.625
 40
0.6254882812
 40
0.6259765625
 40
0.626953125
 40
0.62890625
 40
0.630859375
 40
0.6328125
 40
0.63671875
 40
0.640625
 40
0.6484375
 40
0.65625
 40
0.6640625
 40
0.671875
 40
0.67578125
 40
0.6796875
 40
0.681640625
 40
0.68359375
 40
0.685546875
 40
0.6865234375
 40
0.6870117188
 40
0.6875
 40
0.6879882812
 40
0.6884765625
 40
0.689453125
 40
0.69140625
 40
0.693359375
 40
0.6953125
 40
0.69921875
 40
0.703125
 40
0.7109375
 40
0.71875
 40
0.7265625
 40
0.734375
 40
0.73828125
 40
0.7421875
 40
0.744140625
 40
0.74609375
 40
0.748046875
 40
0.7490234375
 40
0.7495117188
 40
0.75
 40
0.7504882812
 40
0.7509765625
 40
0.751953125
 40
0.75390625
 40
0.755859375
 40
0.7578125
 40
0.76171875
 40
0.765625
 40
0.7734375
 40
0.78125
 40
0.7890625
 40
0.796875
 40
0.80078125
 40
0.8046875
 40
0.806640625
 40
0.80859375
 40
0.810546875
 40
0.8115234375
 40
0.8120117188
 40
0.8125
 40
0.8129882812
 40
0.8134765625
 40
0.814453125
 40
0.81640625
 40
0.818359375
 40
0.8203125
 40
0.82421875
 40
0.828125
 40
0.8359375
 40
0.84375
 40
0.8515625
 40
0.859375
 40
0.86328125
 40
0.8671875
 40
0.869140625
 40
0.87109375
 40
0.873046875
 40
0.8740234375
 40
0.8745117188
 40
0.875
 40
0.8754882812
 40
0.8759765625
 40
0.876953125
 40
0.87890625
 40
0.880859375
 40
0.8828125
 40
0.88671875
 40
0.890625
 40
0.8984375
 40
0.90625
 40
0.9140625
 40
0.921875
 40
0.92578125
 40
0.9296875
 40
0.931640625
 40
0.93359375
 40
0.935546875
 40
0.9365234375
 40
0.9370117188
 40
0.9375
 40
0.9379882812
 40
0.9384765625
 40
0.939453125
 40
0.94140625
 40
0.943359375
 40
0.9453125
 40
0.94921875
 40
0.953125
 40
0.95703125
 40
0.9609375
 40
0.96875
 40
0.9765625
 40
0.984375
 40
1.0
 40
1.0
 40
1.0
 40
1.0
 10
10.3726680826
 20
8.9882864036
 30
0.0
 10
10.3754823224
 20
8.9883671741
 30
0.0
 10
10.3797036821
 20
8.9884883298
 30
0.0
 10
10.3853321618
 20
8.9886498705
 30
0.0
 10
10.3895535214
 20
8.9887710266
 30
0.0
 10
10.3930713214
 20
8.9888719882
 30
0.0
 10
10.3958855607
 20
8.9889527616
 30
0.0
 10
10.3979962423
 20
8.9890133301
 30
0.0
 10
10.4001069153
 20
8.989073943
 30
0.0
 10
10.4018658365
 20
8.9891243155
 30
0.0
 10
10.403272913
 20
8.9891649231
 30
0.0
 10
10.4043283856
 20
8.9891945328
 30
0.0
 10
10.4052074205
 20
8.9892218985
 30
0.0
 10
10.4058237764
 20
8.9892357737
 30
0.0
 10
10.4061743692
 20
8.9892519479
 30
0.0
 10
10.4064418508
 20
8.9892408506
 30
0.0
 10
10.4066919898
 20
8.9893185424
 30
0.0
 10
10.4070315577
 20
8.9893911609
 30
0.0
 10
10.4076229831
 20
8.989532673
 30
0.0
 10
10.4084693502
 20
8.989727289
 30
0.0
 10
10.4094843599
 20
8.9899640574
 30
0.0
 10
10.4108379264
 20
8.9902786206
 30
0.0
 10
10.4125298091
 20
8.9906722116
 30
0.0
 10
10.4145601006
 20
8.9911443549
 30
0.0
 10
10.4165903835
 20
8.9916165426
 30
0.0
 10
10.4192974304
 20
8.9922461107
 30
0.0
 10
10.4226812378
 20
8.9930330766
 30
0.0
 10
10.4260650464
 20
8.9938200386
 30
0.0
 10
10.4287720915
 20
8.9944496128
 30
0.0
 10
10.4308023798
 20
8.9949217822
 30
0.0
 10
10.4328326511
 20
8.9953939941
 30
0.0
 10
10.4345245968
 20
8.9957873718
 30
0.0
 10
10.4358780347
 20
8.9961023701
 30
0.0
 10
10.4368934373
 20
8.9963378097
 30
0.0
 10
10.437738575
 20
8.9965365828
 30
0.0
 10
10.438332195
 20
8.9966706739
 30
0.0
 10
10.4386682467
 20
8.9967551827
 30
0.0
 10
10.4389291866
 20
8.9967963512
 30
0.0
 10
10.4391561019
 20
8.9969224292
 30
0.0
 10
10.4394705238
 20
8.9970609158
 30
0.0
 10
10.4400152325
 20
8.9973170666
 30
0.0
 10
10.4407962787
 20
8.9976757819
 30
0.0
 10
10.4417322968
 20
8.9981093283
 30
0.0
 10
10.4429807531
 20
8.9986863115
 30
0.0
 10
10.4445411752
 20
8.9994079106
 30
0.0
 10
10.4464137453
 20
9.0002736709
 30
0.0
 10
10.4482862984
 20
9.0011394736
 30
0.0
 10
10.4507830418
 20
9.0022938624
 30
0.0
 10
10.4539039688
 20
9.0037368539
 30
0.0
 10
10.4570248974
 20
9.0051798417
 30
0.0
 10
10.4595216381
 20
9.0063342363
 30
0.0
 10
10.4613941994
 20
9.0072000214
 30
0.0
 10
10.4632667388
 20
9.008065848
 30
0.0
 10
10.4648272563
 20
9.0087872407
 30
0.0
 10
10.4660755182
 20
9.0093646449
 30
0.0
 10
10.4670121301
 20
9.0097969056
 30
0.0
 10
10.4677913182
 20
9.0101596434
 30
0.0
 10
10.468339344
 20
9.0104086133
 30
0.0
 10
10.4686484512
 20
9.0105586056
 30
0.0
 10
10.4688916915
 20
9.0106493419
 30
0.0
 10
10.4690913173
 20
9.0108232477
 30
0.0
 10
10.4693726982
 20
9.0110261116
 30
0.0
 10
10.4698580267
 20
9.0113946399
 30
0.0
 10
10.4705550589
 20
9.0119140424
 30
0.0
 10
10.4713899113
 20
9.0125403501
 30
0.0
 10
10.472503602
 20
9.0133743705
 30
0.0
 10
10.4738955252
 20
9.0144172585
 30
0.0
 10
10.4755659145
 20
9.0156685687
 30
0.0
 10
10.477236282
 20
9.0169199205
 30
0.0
 10
10.4794634464
 20
9.0185883749
 30
0.0
 10
10.4822473988
 20
9.0206739484
 30
0.0
 10
10.4850313538
 20
9.0227595186
 30
0.0
 10
10.4872585141
 20
9.0244279782
 30
0.0
 10
10.4889288936
 20
9.0256793146
 30
0.0
 10
10.4905992381
 20
9.0269306827
 30
0.0
 10
10.4919913008
 20
9.0279733906
 30
0.0
 10
10.493104707
 20
9.0288077782
 30
0.0
 10
10.4939404281
 20
9.0294329644
 30
0.0
 10
10.4946347425
 20
9.0299558758
 30
0.0
 10
10.4951249226
 20
9.0303181402
 30
0.0
 10
10.4953985301
 20
9.0305310405
 30
0.0
 10
10.4956220334
 20
9.0306741177
 30
0.0
 10
10.4957755938
 20
9.0308806408
 30
0.0
 10
10.4960047379
 20
9.0311338743
 30
0.0
 10
10.4963943731
 20
9.031587344
 30
0.0
 10
10.4969569377
 20
9.0322297671
 30
0.0
 10
10.4976294714
 20
9.0330029822
 30
0.0
 10
10.4985270716
 20
9.0340331297
 30
0.0
 10
10.4996487669
 20
9.0353210907
 30
0.0
 10
10.500994932
 20
9.0368665253
 30
0.0
 10
10.5023410621
 20
9.0384119916
 30
0.0
 10
10.5041359146
 20
9.0404726023
 30
0.0
 10
10.5063794755
 20
9.0430483697
 30
0.0
 10
10.5086230396
 20
9.0456241345
 30
0.0
 10
10.5104178869
 20
9.0476847493
 30
0.0
 10
10.5117640322
 20
9.0492302032
 30
0.0
 10
10.5131101404
 20
9.0507756845
 30
0.0
 10
10.5142320128
 20
9.0520635002
 30
0.0
 10
10.5151292519
 20
9.0530939439
 30
0.0
 10
10.5158028882
 20
9.0538662544
 30
0.0
 10
10.5163620032
 20
9.0545115078
 30
0.0
 10
10.5167577965
 20
9.054959925
 30
0.0
 10
10.5169770738
 20
9.0552212539
 30
0.0
 10
10.517160942
 20
9.0554029104
 30
0.0
 10
10.5172706142
 20
9.0556393823
 30
0.0
 10
10.5174427243
 20
9.055935558
 30
0.0
 10
10.5177318588
 20
9.0564627739
 30
0.0
 10
10.5181512121
 20
9.057211282
 30
0.0
 10
10.5186517378
 20
9.0581114852
 30
0.0
 10
10.5193200479
 20
9.0593110599
 30
0.0
 10
10.5201551121
 20
9.0608107671
 30
0.0
 10
10.5211573278
 20
9.0626103134
 30
0.0
 10
10.5221595064
 20
9.064409887
 30
0.0
 10
10.5234957576
 20
9.066809309
 30
0.0
 10
10.5251660666
 20
9.06980859
 30
0.0
 10
10.5268363791
 20
9.0728078688
 30
0.0
 10
10.5281726248
 20
9.0752072941
 30
0.0
 10
10.5291748198
 20
9.0770068578
 30
0.0
 10
10.5301769737
 20
9.0788064415
 30
0.0
 10
10.5310122303
 20
9.0803060323
 30
0.0
 10
10.5316801481
 20
9.0815058445
 30
0.0
 10
10.5321818719
 20
9.0824053222
 30
0.0
 10
10.5325974768
 20
9.0831561002
 30
0.0
 10
10.5328933029
 20
9.083679264
 30
0.0
 10
10.5330546913
 20
9.0839819321
 30
0.0
 10
10.5331972971
 20
9.0841984612
 30
0.0
 10
10.5332574724
 20
9.0844550195
 30
0.0
 10
10.5333664588
 20
9.0847831345
 30
0.0
 10
10.5335437886
 20
9.0853638413
 30
0.0
 10
10.5338041207
 20
9.0861900213
 30
0.0
 10
10.5341135213
 20
9.0871828931
 30
0.0
 10
10.5345271027
 20
9.0885062136
 30
0.0
 10
10.5350437201
 20
9.0901605388
 30
0.0
 10
10.535663815
 20
9.0921456541
 30
0.0
 10
10.5362838687
 20
9.0941307895
 30
0.0
 10
10.5371106215
 20
9.0967776297
 30
0.0
 10
10.5381440569
 20
9.1000861825
 30
0.0
 10
10.5391774961
 20
9.1033947337
 30
0.0
 10
10.5400042429
 20
9.1060415764
 30
0.0
 10
10.5406243145
 20
9.1080267043
 30
0.0
 10
10.5412443423
 20
9.110011848
 30
0.0
 10
10.5417611684
 20
9.1116660848
 30
0.0
 10
10.5421743242
 20
9.1129895855
 30
0.0
 10
10.5424850247
 20
9.1139819071
 30
0.0
 10
10.5427412897
 20
9.1148098085
 30
0.0
 10
10.54292588
 20
9.1153874423
 30
0.0
 10
10.5430232333
 20
9.1157204811
 30
0.0
 10
10.5431191419
 20
9.115961915
 30
0.0
 10
10.5431275394
 20
9.1162352486
 30
0.0
 10
10.543169261
 20
9.1165885664
 30
0.0
 10
10.5432280516
 20
9.1172120567
 30
0.0
 10
10.5433194737
 20
9.1181000469
 30
0.0
 10
10.5434259976
 20
9.1191667952
 30
0.0
 10
10.5435691411
 20
9.120588721
 30
0.0
 10
10.5437476891
 20
9.1223662673
 30
0.0
 10
10.5439621102
 20
9.1244992633
 30
0.0
 10
10.5441764876
 20
9.1266322752
 30
0.0
 10
10.5444623394
 20
9.1294762856
 30
0.0
 10
10.5448196484
 20
9.1330313004
 30
0.0
 10
10.5451769613
 20
9.1365863146
 30
0.0
 10
10.5454628068
 20
9.139430326
 30
0.0
 10
10.545677203
 20
9.1415633347
 30
0.0
 10
10.5458915537
 20
9.1436963426
 30
0.0
 10
10.5460703208
 20
9.1454738519
 30
0.0
 10
10.5462130175
 20
9.1468958533
 30
0.0
 10
10.546320906
 20
9.1479623708
 30
0.0
 10
10.5464080585
 20
9.1488510832
 30
0.0
 10
10.5464744711
 20
9.1494732842
 30
0.0
 10
10.5465039804
 20
9.1498286678
 30
0.0
 10
10.54654989
 20
9.1500956557
 30
0.0
 10
10.5465049095
 20
9.1503609229
 30
0.0
 10
10.5464766389
 20
9.1507152127
 30
0.0
 10
10.5464123942
 20
9.1513349403
 30
0.0
 10
10.5463283386
 20
9.1522204115
 30
0.0
 10
10.5462241664
 20
9.1532829144
 30
0.0
 10
10.5460864247
 20
9.1546996068
 30
0.0
 10
10.5459138514
 20
9.1564704649
 30
0.0
 10
10.5457069333
 20
9.1585954977
 30
0.0
 10
10.5454999698
 20
9.1607205297
 30
0.0
 10
10.5452240341
 20
9.1635539059
 30
0.0
 10
10.5448791109
 20
9.1670956264
 30
0.0
 10
10.5444651968
 20
9.1713456899
 30
0.0
 10
10.544120294
 20
9.1748874128
 30
0.0
 10
10.5438443134
 20
9.1777207836
 30
0.0
 10
10.5436719586
 20
9.1794916575
 30
0.0
 10
10.54353377
 20
9.1809083174
 30
0.0
 10
10.543430963
 20
9.1819709197
 30
0.0
 10
10.543342636
 20
9.1828560801
 30
0.0
 10
10.5432860164
 20
9.1834763625
 30
0.0
 10
10.5432455285
 20
9.1838297632
 30
0.0
 10
10.5432380759
 20
9.1840977616
 30
0.0
 10
10.5431430369
 20
9.1843544916
 30
0.0
 10
10.5430468693
 20
9.1847007288
 30
0.0
 10
10.5428643417
 20
9.1853048125
 30
0.0
 10
10.5426110299
 20
9.1861687468
 30
0.0
 10
10.5423038704
 20
9.1872050581
 30
0.0
 10
10.541895437
 20
9.1885869496
 30
0.0
 10
10.5413845142
 20
9.190314265
 30
0.0
 10
10.5405672508
 20
9.193077997
 30
0.0
 10
10.539545598
 20
9.1965326525
 30
0.0
 10
10.5383196481
 20
9.2006782439
 30
0.0
 10
10.5370936819
 20
9.2048238314
 30
0.0
 10
10.5360720699
 20
9.2082784964
 30
0.0
 10
10.5352547248
 20
9.2110422094
 30
0.0
 10
10.5347440096
 20
9.2127695731
 30
0.0
 10
10.5343351502
 20
9.2141513655
 30
0.0
 10
10.5340292921
 20
9.2151879795
 30
0.0
 10
10.5337719085
 20
9.2160509668
 30
0.0
 10
10.5335966497
 20
9.216656741
 30
0.0
 10
10.5334888357
 20
9.2170002696
 30
0.0
 10
10.5334295709
 20
9.2172653195
 30
0.0
 10
10.5332877563
 20
9.2175020697
 30
0.0
 10
10.5331274645
 20
9.2178276079
 30
0.0
 10
10.532833538
 20
9.2183927005
 30
0.0
 10
10.5324206569
 20
9.2192023801
 30
0.0
 10
10.5319221975
 20
9.2201729665
 30
0.0
 10
10.5312586335
 20
9.2214674411
 30
0.0
 10
10.5304288194
 20
9.2230854113
 30
0.0
 10
10.5291013176
 20
9.2256742324
 30
0.0
 10
10.5274418711
 20
9.2289102349
 30
0.0
 10
10.5254505669
 20
9.2327934491
 30
0.0
 10
10.5234592471
 20
9.236676657
 30
0.0
 10
10.5217998396
 20
9.2399126755
 30
0.0
 10
10.5204722597
 20
9.2425014647
 30
0.0
 10
10.5196426441
 20
9.2441195159
 30
0.0
 10
10.5189786728
 20
9.2454138243
 30
0.0
 10
10.5184814578
 20
9.2463849183
 30
0.0
 10
10.518064683
 20
9.2471930098
 30
0.0
 10
10.5177777074
 20
9.2477609374
 30
0.0
 10
10.5176062786
 20
9.2480819332
 30
0.0
 10
10.5174986734
 20
9.248332636
 30
0.0
 10
10.5173109236
 20
9.2485452822
 30
0.0
 10
10.5170885458
 20
9.2488420851
 30
0.0
 10
10.5166863598
 20
9.2493553053
 30
0.0
 10
10.516118618
 20
9.2500917105
 30
0.0
 10
10.5154344131
 20
9.2509740127
 30
0.0
 10
10.5145231579
 20
9.2521508991
 30
0.0
 10
10.5133837404
 20
9.2536218415
 30
0.0
 10
10.5115608672
 20
9.255975442
 30
0.0
 10
10.5092822085
 20
9.2589174104
 30
0.0
 10
10.5065478483
 20
9.2624477879
 30
0.0
 10
10.5038134748
 20
9.2659781554
 30
0.0
 10
10.5015348494
 20
9.2689201488
 30
0.0
 10
10.4997119096
 20
9.2712736994
 30
0.0
 10
10.4985726613
 20
9.2727447686
 30
0.0
 10
10.4976610588
 20
9.2739213947
 30
0.0
 10
10.4969779151
 20
9.274804492
 30
0.0
 10
10.4964068529
 20
9.2755384097
 30
0.0
 10
10.4960105944
 20
9.2760560704
 30
0.0
 10
10.4957787194
 20
9.2763457585
 30
0.0
 10
10.4956201421
 20
9.2765802591
 30
0.0
 10
10.4954029696
 20
9.2767488806
 30
0.0
 10
10.4951338449
 20
9.2769966885
 30
0.0
 10
10.4946533539
 20
9.2774196459
 30
0.0
 10
10.4939719168
 20
9.2780294683
 30
0.0
 10
10.4931520613
 20
9.2787588592
 30
0.0
 10
10.4920596649
 20
9.2797322172
 30
0.0
 10
10.4906939146
 20
9.2809486282
 30
0.0
 10
10.4885088566
 20
9.2828950461
 30
0.0
 10
10.485777485
 20
9.285328013
 30
0.0
 10
10.4824998612
 20
9.2882475988
 30
0.0
 10
10.4792222271
 20
9.2911671714
 30
0.0
 10
10.4764908814
 20
9.2936001711
 30
0.0
 10
10.4743057714
 20
9.2955465234
 30
0.0
 10
10.4729401532
 20
9.2967631011
 30
0.0
 10
10.4718474857
 20
9.297736117
 30
0.0
 10
10.4710284584
 20
9.2984665531
 30
0.0
 10
10.4703444302
 20
9.2990731055
 30
0.0
 10
10.4698685647
 20
9.2995019002
 30
0.0
 10
10.4695920289
 20
9.2997403553
 30
0.0
 10
10.469397621
 20
9.2999377058
 30
0.0
 10
10.4691535433
 20
9.3000643049
 30
0.0
 10
10.4688454318
 20
9.3002577825
 30
0.0
 10
10.4682981644
 20
9.3005848701
 30
0.0
 10
10.467520574
 20
9.3010581496
 30
0.0
 10
10.4665856592
 20
9.3016235118
 30
0.0
 10
10.465339737
 20
9.3023782268
 30
0.0
 10
10.4637821183
 20
9.3033213129
 30
0.0
 10
10.4612900491
 20
9.3048304227
 30
0.0
 10
10.458174921
 20
9.3067167504
 30
0.0
 10
10.4544367859
 20
9.308980371
 30
0.0
 10
10.4506986428
 20
9.3112439772
 30
0.0
 10
10.4475835348
 20
9.3131303411
 30
0.0
 10
10.4450914253
 20
9.3146393785
 30
0.0
 10
10.443533909
 20
9.3155826485
 30
0.0
 10
10.4422877766
 20
9.316336986
 30
0.0
 10
10.4413535042
 20
9.3169035018
 30
0.0
 10
10.4405739039
 20
9.3173731721
 30
0.0
 10
10.4400302245
 20
9.3177067025
 30
0.0
 10
10.4397163641
 20
9.3178898572
 30
0.0
 10
10.4394899452
 20
9.3180481652
 30
0.0
 10
10.4392292138
 20
9.3181264223
 30
0.0
 10
10.4388935405
 20
9.3182586877
 30
0.0
 10
10.4383005359
 20
9.3184771425
 30
0.0
 10
10.4374563018
 20
9.3187960225
 30
0.0
 10
10.436441973
 20
9.3191757671
 30
0.0
 10
10.4350899705
 20
9.3196831101
 30
0.0
 10
10.4333998181
 20
9.3203169406
 30
0.0
 10
10.4306956576
 20
9.3213312642
 30
0.0
 10
10.4273154284
 20
9.3225991014
 30
0.0
 10
10.4232591662
 20
9.3241205369
 30
0.0
 10
10.4192028982
 20
9.3256419565
 30
0.0
 10
10.4158226834
 20
9.3269098334
 30
0.0
 10
10.4131184941
 20
9.3279240774
 30
0.0
 10
10.4114284151
 20
9.3285581102
 30
0.0
 10
10.410076262
 20
9.3290650382
 30
0.0
 10
10.4090623932
 20
9.3294460508
 30
0.0
 10
10.4082167198
 20
9.3297609634
 30
0.0
 10
10.4076262847
 20
9.3299865005
 30
0.0
 10
10.4072864943
 20
9.3301074183
 30
0.0
 10
10.4070384092
 20
9.3302205317
 30
0.0
 10
10.4067644931
 20
9.3302479254
 30
0.0
 10
10.4064082818
 20
9.3303143503
 30
0.0
 10
10.405780714
 20
9.3304166629
 30
0.0
 10
10.4048863833
 20
9.330570107
 30
0.0
 10
10.4038122471
 20
9.3307511225
 30
0.0
 10
10.4023803936
 20
9.3309935654
 30
0.0
 10
10.4005904641
 20
9.3312962454
 30
0.0
 10
10.398442597
 20
9.3316596216
 30
0.0
 10
10.396294717
 20
9.332022955
 30
0.0
 10
10.3934308815
 20
9.3325074144
 30
0.0
 10
10.3898510856
 20
9.3331129835
 30
0.0
 10
10.3855553312
 20
9.3338396687
 30
0.0
 10
10.3798276583
 20
9.3348085815
 30
0.0
 10
10.3755319038
 20
9.3355352663
 30
0.0
 10
10.3726680674
 20
9.3360197228
 30
0.0
  0
SPLINE
  5
389
100
AcDbEntity
  8
0
100
AcDbSpline
 62
4
  6
CONTINUOUS
 70
0
 71
3
 72
330
 73
326
 74
0
 42
0.0000001
 43
0.0000001
 44
0.0000000001
 40
0.0
 40
0.0
 40
0.0
 40
0.0
 40
0.015625
 40
0.0234375
 40
0.03125
 40
0.0390625
 40
0.04296875
 40
0.046875
 40
0.05078125
 40
0.0546875
 40
0.056640625
 40
0.05859375
 40
0.060546875
 40
0.0615234375
 40
0.0620117188
 40
0.0625
 40
0.0629882812
 40
0.0634765625
 40
0.064453125
 40
0.06640625
 40
0.068359375
 40
0.0703125
 40
0.07421875
 40
0.078125
 40
0.08203125
 40
0.0859375
 40
0.09375
 40
0.1015625
 40
0.10546875
 40
0.109375
 40
0.11328125
 40
0.1171875
 40
0.119140625
 40
0.12109375
 40
0.123046875
 40
0.1240234375
 40
0.1245117188
 40
0.125
 40
0.1254882812
 40
0.1259765625
 40
0.126953125
 40
0.12890625
 40
0.130859375
 40
0.1328125
 40
0.13671875
 40
0.140625
 40
0.14453125
 40
0.1484375
 40
0.15625
 40
0.1640625
 40
0.16796875
 40
0.171875
 40
0.17578125
 40
0.1796875
 40
0.181640625
 40
0.18359375
 40
0.185546875
 40
0.1865234375
 40
0.1870117188
 40
0.1875
 40
0.1879882812
 40
0.1884765625
 40
0.189453125
 40
0.19140625
 40
0.193359375
 40
0.1953125
 40
0.19921875
 40
0.203125
 40
0.20703125
 40
0.2109375
 40
0.21875
 40
0.2265625
 40
0.23046875
 40
0.234375
 40
0.23828125
 40
0.2421875
 40
0.244140625
 40
0.24609375
 40
0.248046875
 40
0.2490234375
 40
0.2495117188
 40
0.25
 40
0.2504882812
 40
0.2509765625
 40
0.251953125
 40
0.25390625
 40
0.255859375
 40
0.2578125
 40
0.26171875
 40
0.265625
 40
0.26953125
 40
0.2734375
 40
0.28125
 40
0.2890625
 40
0.29296875
 40
0.296875
 40
0.30078125
 40
0.3046875
 40
0.306640625
 40
0.30859375
 40
0.310546875
 40
0.3115234375
 40
0.3120117188
 40
0.3125
 40
0.3129882812
 40
0.3134765625
 40
0.314453125
 40
0.31640625
 40
0.318359375
 40
0.3203125
 40
0.32421875
 40
0.328125
 40
0.33203125
 40
0.3359375
 40
0.34375
 40
0.3515625
 40
0.35546875
 40
0.359375
 40
0.36328125
 40
0.3671875
 40
0.369140625
 40
0.37109375
 40
0.373046875
 40
0.3740234375
 40
0.3745117188
 40
0.375
 40
0.3754882812
 40
0.3759765625
 40
0.376953125
 40
0.37890625
 40
0.380859375
 40
0.3828125
 40
0.38671875
 40
0.390625
 40
0.39453125
 40
0.3984375
 40
0.40625
 40
0.4140625
 40
0.41796875
 40
0.421875
 40
0.42578125
 40
0.4296875
 40
0.431640625
 40
0.43359375
 40
0.435546875
 40
0.4365234375
 40
0.4370117188
 40
0.4375
 40
0.4379882812
 40
0.4384765625
 40
0.439453125
 40
0.44140625
 40
0.443359375
 40
0.4453125
 40
0.44921875
 40
0.453125
 40
0.45703125
 40
0.4609375
 40
0.46875
 40
0.4765625
 40
0.48046875
 40
0.484375
 40
0.48828125
 40
0.4921875
 40
0.494140625
 40
0.49609375
 40
0.498046875
 40
0.4990234375
 40
0.4995117188
 40
0.5
 40
0.5004882812
 40
0.5009765625
 40
0.501953125
 40
0.50390625
 40
0.505859375
 40
0.5078125
 40
0.51171875
 40
0.515625
 40
0.51953125
 40
0.5234375
 40
0.53125
 40
0.5390625
 40
0.546875
 40
0.55078125
 40
0.5546875
 40
0.556640625
 40
0.55859375
 40
0.560546875
 40
0.5615234375
 40
0.5620117188
 40
0.5625
 40
0.5629882812
 40
0.5634765625
 40
0.564453125
 40
0.56640625
 40
0.568359375
 40
0.5703125
 40
0.57421875
 40
0.578125
 40
0.5859375
 40
0.59375
 40
0.6015625
 40
0.609375
 40
0.61328125
 40
0.6171875
 40
0.619140625
 40
0.62109375
 40
0.623046875
 40
0.6240234375
 40
0.6245117188
 40
0.625
 40
0.6254882812
 40
0.6259765625
 40
0.626953125
 40
0.62890625
 40
0.630859375
 40
0.6328125
 40
0.63671875
 40
0.640625
 40
0.6484375
 40
0.65625
 40
0.6640625
 40
0.671875
 40
0.67578125
 40
0.6796875
 40
0.681640625
 40
0.68359375
 40
0.685546875
 40
0.6865234375
 40
0.6870117188
 40
0.6875
 40
0.6879882812
 40
0.6884765625
 40
0.689453125
 40
0.69140625
 40
0.693359375
 40
0.6953125
 40
0.69921875
 40
0.703125
 40
0.7109375
 40
0.71875
 40
0.7265625
 40
0.734375
 40
0.73828125
 40
0.7421875
 40
0.744140625
 40
0.74609375
 40
0.748046875
 40
0.7490234375
 40
0.7495117188
 40
0.75
 40
0.7504882812
 40
0.7509765625
 40
0.751953125
 40
0.75390625
 40
0.755859375
 40
0.7578125
 40
0.76171875
 40
0.765625
 40
0.7734375
 40
0.78125
 40
0.7890625
 40
0.796875
 40
0.80078125
 40
0.8046875
 40
0.806640625
 40
0.80859375
 40
0.810546875
 40
0.8115234375
 40
0.8120117188
 40
0.8125
 40
0.8129882812
 40
0.8134765625
 40
0.814453125
 40
0.81640625
 40
0.818359375
 40
0.8203125
 40
0.82421875
 40
0.828125
 40
0.8359375
 40
0.84375
 40
0.8515625
 40
0.859375
 40
0.86328125
 40
0.8671875
 40
0.869140625
 40
0.87109375
 40
0.873046875
 40
0.8740234375
 40
0.8745117188
 40
0.875
 40
0.8754882812
 40
0.8759765625
 40
0.876953125
 40
0.87890625
 40
0.880859375
 40
0.8828125
 40
0.88671875
 40
0.890625
 40
0.8984375
 40
0.90625
 40
0.9140625
 40
0.921875
 40
0.92578125
 40
0.9296875
 40
0.931640625
 40
0.93359375
 40
0.935546875
 40
0.9365234375
 40
0.9370117188
 40
0.9375
 40
0.9379882812
 40
0.9384765625
 40
0.939453125
 40
0.94140625
 40
0.943359375
 40
0.9453125
 40
0.94921875
 40
0.953125
 40
0.95703125
 40
0.9609375
 40
0.96875
 40
0.9765625
 40
0.984375
 40
1.0
 40
1.0
 40
1.0
 40
1.0
 10
10.3726680826
 20
9.3360197217
 30
0.0
 10
10.3698538428
 20
9.3359389513
 30
0.0
 10
10.3656324831
 20
9.3358177956
 30
0.0
 10
10.3600040034
 20
9.3356562549
 30
0.0
 10
10.3557826438
 20
9.3355350987
 30
0.0
 10
10.3522648438
 20
9.3354341372
 30
0.0
 10
10.3494506046
 20
9.3353533637
 30
0.0
 10
10.3473399229
 20
9.3352927952
 30
0.0
 10
10.3452292499
 20
9.3352321823
 30
0.0
 10
10.3434703287
 20
9.3351818099
 30
0.0
 10
10.3420632522
 20
9.3351412023
 30
0.0
 10
10.3410077796
 20
9.3351115925
 30
0.0
 10
10.3401287447
 20
9.3350842268
 30
0.0
 10
10.3395123888
 20
9.3350703517
 30
0.0
 10
10.339161796
 20
9.3350541774
 30
0.0
 10
10.3388943145
 20
9.3350652747
 30
0.0
 10
10.3386441755
 20
9.3349875829
 30
0.0
 10
10.3383046075
 20
9.3349149644
 30
0.0
 10
10.3377131821
 20
9.3347734524
 30
0.0
 10
10.3368668151
 20
9.3345788363
 30
0.0
 10
10.3358518054
 20
9.334342068
 30
0.0
 10
10.3344982388
 20
9.3340275048
 30
0.0
 10
10.3328063561
 20
9.3336339137
 30
0.0
 10
10.3307760646
 20
9.3331617704
 30
0.0
 10
10.3287457817
 20
9.3326895827
 30
0.0
 10
10.3260387348
 20
9.3320600147
 30
0.0
 10
10.3226549274
 20
9.3312730488
 30
0.0
 10
10.3192711189
 20
9.3304860867
 30
0.0
 10
10.3165640737
 20
9.3298565126
 30
0.0
 10
10.3145337854
 20
9.3293843431
 30
0.0
 10
10.3125035142
 20
9.3289121312
 30
0.0
 10
10.3108115684
 20
9.3285187535
 30
0.0
 10
10.3094581305
 20
9.3282037553
 30
0.0
 10
10.3084427279
 20
9.3279683156
 30
0.0
 10
10.3075975902
 20
9.3277695425
 30
0.0
 10
10.3070039702
 20
9.3276354514
 30
0.0
 10
10.3066679185
 20
9.3275509427
 30
0.0
 10
10.3064069787
 20
9.3275097741
 30
0.0
 10
10.3061800633
 20
9.3273836962
 30
0.0
 10
10.3058656415
 20
9.3272452096
 30
0.0
 10
10.3053209328
 20
9.3269890587
 30
0.0
 10
10.3045398865
 20
9.3266303434
 30
0.0
 10
10.3036038685
 20
9.326196797
 30
0.0
 10
10.3023554121
 20
9.3256198138
 30
0.0
 10
10.30079499
 20
9.3248982147
 30
0.0
 10
10.2989224199
 20
9.3240324545
 30
0.0
 10
10.2970498668
 20
9.3231666517
 30
0.0
 10
10.2945531234
 20
9.322012263
 30
0.0
 10
10.2914321964
 20
9.3205692715
 30
0.0
 10
10.2883112678
 20
9.3191262836
 30
0.0
 10
10.2858145271
 20
9.317971889
 30
0.0
 10
10.2839419658
 20
9.317106104
 30
0.0
 10
10.2820694264
 20
9.3162402773
 30
0.0
 10
10.2805089089
 20
9.3155188847
 30
0.0
 10
10.2792606471
 20
9.3149414805
 30
0.0
 10
10.2783240351
 20
9.3145092198
 30
0.0
 10
10.277544847
 20
9.3141464819
 30
0.0
 10
10.2769968212
 20
9.313897512
 30
0.0
 10
10.276687714
 20
9.3137475198
 30
0.0
 10
10.2764444737
 20
9.3136567834
 30
0.0
 10
10.2762448479
 20
9.3134828777
 30
0.0
 10
10.275963467
 20
9.3132800138
 30
0.0
 10
10.2754781385
 20
9.3129114854
 30
0.0
 10
10.2747811063
 20
9.3123920829
 30
0.0
 10
10.2739462539
 20
9.3117657752
 30
0.0
 10
10.2728325632
 20
9.3109317549
 30
0.0
 10
10.27144064
 20
9.3098888669
 30
0.0
 10
10.2697702507
 20
9.3086375567
 30
0.0
 10
10.2680998832
 20
9.3073862049
 30
0.0
 10
10.2658727188
 20
9.3057177504
 30
0.0
 10
10.2630887664
 20
9.3036321769
 30
0.0
 10
10.2603048115
 20
9.3015466067
 30
0.0
 10
10.2580776511
 20
9.2998781471
 30
0.0
 10
10.2564072716
 20
9.2986268107
 30
0.0
 10
10.2547369271
 20
9.2973754427
 30
0.0
 10
10.2533448644
 20
9.2963327347
 30
0.0
 10
10.2522314582
 20
9.2954983471
 30
0.0
 10
10.2513957371
 20
9.2948731609
 30
0.0
 10
10.2507014227
 20
9.2943502496
 30
0.0
 10
10.2502112426
 20
9.2939879851
 30
0.0
 10
10.2499376351
 20
9.2937750849
 30
0.0
 10
10.2497141318
 20
9.2936320076
 30
0.0
 10
10.2495605714
 20
9.2934254845
 30
0.0
 10
10.2493314273
 20
9.293172251
 30
0.0
 10
10.2489417921
 20
9.2927187813
 30
0.0
 10
10.2483792275
 20
9.2920763582
 30
0.0
 10
10.2477066938
 20
9.2913031431
 30
0.0
 10
10.2468090936
 20
9.2902729956
 30
0.0
 10
10.2456873983
 20
9.2889850346
 30
0.0
 10
10.2443412332
 20
9.2874396
 30
0.0
 10
10.2429951031
 20
9.2858941337
 30
0.0
 10
10.2412002507
 20
9.2838335231
 30
0.0
 10
10.2389566897
 20
9.2812577556
 30
0.0
 10
10.2367131257
 20
9.2786819908
 30
0.0
 10
10.2349182783
 20
9.276621376
 30
0.0
 10
10.233572133
 20
9.2750759222
 30
0.0
 10
10.2322260248
 20
9.2735304409
 30
0.0
 10
10.2311041524
 20
9.2722426252
 30
0.0
 10
10.2302069133
 20
9.2712121814
 30
0.0
 10
10.229533277
 20
9.2704398709
 30
0.0
 10
10.2289741621
 20
9.2697946175
 30
0.0
 10
10.2285783687
 20
9.2693462004
 30
0.0
 10
10.2283590915
 20
9.2690848714
 30
0.0
 10
10.2281752232
 20
9.2689032149
 30
0.0
 10
10.228065551
 20
9.268666743
 30
0.0
 10
10.2278934409
 20
9.2683705673
 30
0.0
 10
10.2276043064
 20
9.2678433515
 30
0.0
 10
10.2271849531
 20
9.2670948434
 30
0.0
 10
10.2266844274
 20
9.2661946401
 30
0.0
 10
10.2260161173
 20
9.2649950655
 30
0.0
 10
10.2251810531
 20
9.2634953582
 30
0.0
 10
10.2241788374
 20
9.261695812
 30
0.0
 10
10.2231766588
 20
9.2598962383
 30
0.0
 10
10.2218404076
 20
9.2574968163
 30
0.0
 10
10.2201700986
 20
9.2544975354
 30
0.0
 10
10.2184997861
 20
9.2514982565
 30
0.0
 10
10.2171635405
 20
9.2490988312
 30
0.0
 10
10.2161613454
 20
9.2472992675
 30
0.0
 10
10.2151591915
 20
9.2454996838
 30
0.0
 10
10.2143239349
 20
9.2440000931
 30
0.0
 10
10.2136560171
 20
9.2428002809
 30
0.0
 10
10.2131542933
 20
9.2419008031
 30
0.0
 10
10.2127386884
 20
9.2411500252
 30
0.0
 10
10.2124428623
 20
9.2406268614
 30
0.0
 10
10.212281474
 20
9.2403241932
 30
0.0
 10
10.2121388682
 20
9.2401076641
 30
0.0
 10
10.2120786929
 20
9.2398511059
 30
0.0
 10
10.2119697065
 20
9.2395229908
 30
0.0
 10
10.2117923766
 20
9.238942284
 30
0.0
 10
10.2115320445
 20
9.238116104
 30
0.0
 10
10.2112226439
 20
9.2371232322
 30
0.0
 10
10.2108090625
 20
9.2357999117
 30
0.0
 10
10.2102924451
 20
9.2341455866
 30
0.0
 10
10.2096723502
 20
9.2321604712
 30
0.0
 10
10.2090522965
 20
9.2301753358
 30
0.0
 10
10.2082255438
 20
9.2275284956
 30
0.0
 10
10.2071921083
 20
9.2242199428
 30
0.0
 10
10.2061586691
 20
9.2209113916
 30
0.0
 10
10.2053319223
 20
9.2182645489
 30
0.0
 10
10.2047118507
 20
9.2162794211
 30
0.0
 10
10.2040918229
 20
9.2142942773
 30
0.0
 10
10.2035749968
 20
9.2126400405
 30
0.0
 10
10.2031618411
 20
9.2113165398
 30
0.0
 10
10.2028511405
 20
9.2103242182
 30
0.0
 10
10.2025948755
 20
9.2094963168
 30
0.0
 10
10.2024102852
 20
9.2089186831
 30
0.0
 10
10.2023129319
 20
9.2085856442
 30
0.0
 10
10.2022170234
 20
9.2083442103
 30
0.0
 10
10.2022086258
 20
9.2080708768
 30
0.0
 10
10.2021669043
 20
9.207717559
 30
0.0
 10
10.2021081136
 20
9.2070940686
 30
0.0
 10
10.2020166915
 20
9.2062060785
 30
0.0
 10
10.2019101677
 20
9.2051393302
 30
0.0
 10
10.2017670241
 20
9.2037174044
 30
0.0
 10
10.2015884761
 20
9.201939858
 30
0.0
 10
10.201374055
 20
9.199806862
 30
0.0
 10
10.2011596776
 20
9.1976738501
 30
0.0
 10
10.2008738258
 20
9.1948298398
 30
0.0
 10
10.2005165168
 20
9.1912748249
 30
0.0
 10
10.2001592039
 20
9.1877198108
 30
0.0
 10
10.1998733584
 20
9.1848757994
 30
0.0
 10
10.1996589622
 20
9.1827427906
 30
0.0
 10
10.1994446116
 20
9.1806097827
 30
0.0
 10
10.1992658445
 20
9.1788322734
 30
0.0
 10
10.1991231477
 20
9.177410272
 30
0.0
 10
10.1990152592
 20
9.1763437546
 30
0.0
 10
10.1989281067
 20
9.1754550422
 30
0.0
 10
10.1988616941
 20
9.1748328412
 30
0.0
 10
10.1988321848
 20
9.1744774575
 30
0.0
 10
10.1987862752
 20
9.1742104697
 30
0.0
 10
10.1988312558
 20
9.1739452024
 30
0.0
 10
10.1988595263
 20
9.1735909126
 30
0.0
 10
10.198923771
 20
9.1729711851
 30
0.0
 10
10.1990078266
 20
9.1720857138
 30
0.0
 10
10.1991119989
 20
9.1710232109
 30
0.0
 10
10.1992497405
 20
9.1696065185
 30
0.0
 10
10.1994223138
 20
9.1678356605
 30
0.0
 10
10.1996292319
 20
9.1657106276
 30
0.0
 10
10.1998361954
 20
9.1635855956
 30
0.0
 10
10.2001121311
 20
9.1607522194
 30
0.0
 10
10.2004570543
 20
9.1572104989
 30
0.0
 10
10.2008709684
 20
9.1529604355
 30
0.0
 10
10.2012158712
 20
9.1494187125
 30
0.0
 10
10.2014918518
 20
9.1465853417
 30
0.0
 10
10.2016642066
 20
9.1448144678
 30
0.0
 10
10.2018023952
 20
9.1433978079
 30
0.0
 10
10.2019052022
 20
9.1423352057
 30
0.0
 10
10.2019935292
 20
9.1414500453
 30
0.0
 10
10.2020501488
 20
9.1408297628
 30
0.0
 10
10.2020906367
 20
9.1404763621
 30
0.0
 10
10.2020980894
 20
9.1402083637
 30
0.0
 10
10.2021931284
 20
9.1399516338
 30
0.0
 10
10.2022892959
 20
9.1396053966
 30
0.0
 10
10.2024718235
 20
9.1390013128
 30
0.0
 10
10.2027251353
 20
9.1381373785
 30
0.0
 10
10.2030322948
 20
9.1371010673
 30
0.0
 10
10.2034407282
 20
9.1357191757
 30
0.0
 10
10.203951651
 20
9.1339918603
 30
0.0
 10
10.2047689144
 20
9.1312281283
 30
0.0
 10
10.2057905672
 20
9.1277734728
 30
0.0
 10
10.2070165171
 20
9.1236278815
 30
0.0
 10
10.2082424833
 20
9.1194822939
 30
0.0
 10
10.2092640953
 20
9.1160276289
 30
0.0
 10
10.2100814404
 20
9.1132639159
 30
0.0
 10
10.2105921556
 20
9.1115365522
 30
0.0
 10
10.2110010151
 20
9.1101547598
 30
0.0
 10
10.2113068732
 20
9.1091181458
 30
0.0
 10
10.2115642567
 20
9.1082551586
 30
0.0
 10
10.2117395155
 20
9.1076493843
 30
0.0
 10
10.2118473295
 20
9.1073058557
 30
0.0
 10
10.2119065943
 20
9.1070408058
 30
0.0
 10
10.2120484089
 20
9.1068040556
 30
0.0
 10
10.2122087007
 20
9.1064785175
 30
0.0
 10
10.2125026272
 20
9.1059134249
 30
0.0
 10
10.2129155083
 20
9.1051037452
 30
0.0
 10
10.2134139678
 20
9.1041331589
 30
0.0
 10
10.2140775318
 20
9.1028386843
 30
0.0
 10
10.2149073458
 20
9.1012207141
 30
0.0
 10
10.2162348476
 20
9.098631893
 30
0.0
 10
10.2178942941
 20
9.0953958904
 30
0.0
 10
10.2198855983
 20
9.0915126762
 30
0.0
 10
10.2218769182
 20
9.0876294684
 30
0.0
 10
10.2235363256
 20
9.0843934499
 30
0.0
 10
10.2248639055
 20
9.0818046606
 30
0.0
 10
10.2256935211
 20
9.0801866095
 30
0.0
 10
10.2263574924
 20
9.078892301
 30
0.0
 10
10.2268547074
 20
9.0779212071
 30
0.0
 10
10.2272714822
 20
9.0771131155
 30
0.0
 10
10.2275584578
 20
9.076545188
 30
0.0
 10
10.2277298867
 20
9.0762241921
 30
0.0
 10
10.2278374918
 20
9.0759734894
 30
0.0
 10
10.2280252416
 20
9.0757608431
 30
0.0
 10
10.2282476194
 20
9.0754640402
 30
0.0
 10
10.2286498054
 20
9.07495082
 30
0.0
 10
10.2292175472
 20
9.0742144148
 30
0.0
 10
10.2299017521
 20
9.0733321126
 30
0.0
 10
10.2308130073
 20
9.0721552262
 30
0.0
 10
10.2319524248
 20
9.0706842838
 30
0.0
 10
10.233775298
 20
9.0683306833
 30
0.0
 10
10.2360539567
 20
9.0653887149
 30
0.0
 10
10.2387883169
 20
9.0618583374
 30
0.0
 10
10.2415226904
 20
9.0583279699
 30
0.0
 10
10.2438013158
 20
9.0553859765
 30
0.0
 10
10.2456242556
 20
9.053032426
 30
0.0
 10
10.2467635039
 20
9.0515613568
 30
0.0
 10
10.2476751064
 20
9.0503847306
 30
0.0
 10
10.2483582501
 20
9.0495016334
 30
0.0
 10
10.2489293123
 20
9.0487677156
 30
0.0
 10
10.2493255708
 20
9.0482500549
 30
0.0
 10
10.2495574459
 20
9.0479603668
 30
0.0
 10
10.2497160231
 20
9.0477258662
 30
0.0
 10
10.2499331956
 20
9.0475572448
 30
0.0
 10
10.2502023203
 20
9.0473094368
 30
0.0
 10
10.2506828113
 20
9.0468864794
 30
0.0
 10
10.2513642484
 20
9.0462766571
 30
0.0
 10
10.2521841039
 20
9.0455472662
 30
0.0
 10
10.2532765003
 20
9.0445739081
 30
0.0
 10
10.2546422506
 20
9.0433574971
 30
0.0
 10
10.2568273086
 20
9.0414110793
 30
0.0
 10
10.2595586803
 20
9.0389781123
 30
0.0
 10
10.262836304
 20
9.0360585266
 30
0.0
 10
10.2661139382
 20
9.0331389539
 30
0.0
 10
10.2688452838
 20
9.0307059542
 30
0.0
 10
10.2710303938
 20
9.028759602
 30
0.0
 10
10.2723960121
 20
9.0275430243
 30
0.0
 10
10.2734886795
 20
9.0265700083
 30
0.0
 10
10.2743077068
 20
9.0258395723
 30
0.0
 10
10.274991735
 20
9.0252330198
 30
0.0
 10
10.2754676005
 20
9.0248042251
 30
0.0
 10
10.2757441364
 20
9.02456577
 30
0.0
 10
10.2759385442
 20
9.0243684196
 30
0.0
 10
10.2761826219
 20
9.0242418205
 30
0.0
 10
10.2764907334
 20
9.0240483428
 30
0.0
 10
10.2770380009
 20
9.0237212552
 30
0.0
 10
10.2778155912
 20
9.0232479758
 30
0.0
 10
10.278750506
 20
9.0226826135
 30
0.0
 10
10.2799964282
 20
9.0219278985
 30
0.0
 10
10.2815540469
 20
9.0209848124
 30
0.0
 10
10.2840461161
 20
9.0194757027
 30
0.0
 10
10.2871612442
 20
9.017589375
 30
0.0
 10
10.2908993793
 20
9.0153257543
 30
0.0
 10
10.2946375224
 20
9.0130621481
 30
0.0
 10
10.2977526304
 20
9.0111757842
 30
0.0
 10
10.3002447399
 20
9.0096667468
 30
0.0
 10
10.3018022562
 20
9.0087234768
 30
0.0
 10
10.3030483886
 20
9.0079691393
 30
0.0
 10
10.303982661
 20
9.0074026236
 30
0.0
 10
10.3047622613
 20
9.0069329532
 30
0.0
 10
10.3053059407
 20
9.0065994228
 30
0.0
 10
10.3056198011
 20
9.0064162681
 30
0.0
 10
10.30584622
 20
9.0062579601
 30
0.0
 10
10.3061069514
 20
9.006179703
 30
0.0
 10
10.3064426247
 20
9.0060474376
 30
0.0
 10
10.3070356294
 20
9.0058289828
 30
0.0
 10
10.3078798634
 20
9.0055101029
 30
0.0
 10
10.3088941922
 20
9.0051303583
 30
0.0
 10
10.3102461948
 20
9.0046230153
 30
0.0
 10
10.3119363472
 20
9.0039891847
 30
0.0
 10
10.3146405076
 20
9.0029748612
 30
0.0
 10
10.3180207368
 20
9.001707024
 30
0.0
 10
10.322076999
 20
9.0001855885
 30
0.0
 10
10.326133267
 20
8.9986641689
 30
0.0
 10
10.3295134818
 20
8.9973962919
 30
0.0
 10
10.3322176711
 20
8.9963820479
 30
0.0
 10
10.3339077501
 20
8.9957480151
 30
0.0
 10
10.3352599032
 20
8.9952410872
 30
0.0
 10
10.336273772
 20
8.9948600745
 30
0.0
 10
10.3371194454
 20
8.9945451619
 30
0.0
 10
10.3377098806
 20
8.9943196248
 30
0.0
 10
10.3380496709
 20
8.994198707
 30
0.0
 10
10.338297756
 20
8.9940855937
 30
0.0
 10
10.3385716721
 20
8.9940582
 30
0.0
 10
10.3389278835
 20
8.9939917751
 30
0.0
 10
10.3395554512
 20
8.9938894625
 30
0.0
 10
10.3404497819
 20
8.9937360183
 30
0.0
 10
10.3415239182
 20
8.9935550029
 30
0.0
 10
10.3429557716
 20
8.9933125599
 30
0.0
 10
10.3447457011
 20
8.9930098799
 30
0.0
 10
10.3468935682
 20
8.9926465037
 30
0.0
 10
10.3490414482
 20
8.9922831704
 30
0.0
 10
10.3519052837
 20
8.9917987109
 30
0.0
 10
10.3554850796
 20
8.9911931418
 30
0.0
 10
10.3597808341
 20
8.9904664566
 30
0.0
 10
10.3655085069
 20
8.9894975438
 30
0.0
 10
10.3698042614
 20
8.9887708591
 30
0.0
 10
10.3726680978
 20
8.9882864026
 30
0.0
  0
SPLINE
  5
38A
100
AcDbEntity
  8
0
100
AcDbSpline
 62
7
  6
CONTINUOUS
 70
0
 71
3
 72
140
 73
136
 74
0
 42
0.0000001
 43
0.0000001
 44
0.0000000001
 40
0.0
 40
0.0
 40
0.0
 40
0.0
 40
0.03125
 40
0.046875
 40
0.0546875
 40
0.0625
 40
0.0703125
 40
0.078125
 40
0.09375
 40
0.109375
 40
0.1171875
 40
0.125
 40
0.1328125
 40
0.140625
 40
0.15625
 40
0.171875
 40
0.1796875
 40
0.1875
 40
0.1953125
 40
0.203125
 40
0.21875
 40
0.234375
 40
0.2421875
 40
0.24609375
 40
0.25
 40
0.25390625
 40
0.2578125
 40
0.265625
 40
0.28125
 40
0.296875
 40
0.3046875
 40
0.30859375
 40
0.3125
 40
0.31640625
 40
0.3203125
 40
0.328125
 40
0.34375
 40
0.359375
 40
0.3671875
 40
0.37109375
 40
0.373046875
 40
0.375
 40
0.376953125
 40
0.37890625
 40
0.3828125
 40
0.390625
 40
0.40625
 40
0.421875
 40
0.4296875
 40
0.43359375
 40
0.435546875
 40
0.4375
 40
0.439453125
 40
0.44140625
 40
0.4453125
 40
0.453125
 40
0.46875
 40
0.4765625
 40
0.484375
 40
0.4921875
 40
0.49609375
 40
0.498046875
 40
0.5
 40
0.501953125
 40
0.50390625
 40
0.5078125
 40
0.515625
 40
0.53125
 40
0.546875
 40
0.5546875
 40
0.55859375
 40
0.560546875
 40
0.5625
 40
0.564453125
 40
0.56640625
 40
0.5703125
 40
0.578125
 40
0.59375
 40
0.609375
 40
0.6171875
 40
0.62109375
 40
0.623046875
 40
0.625
 40
0.626953125
 40
0.62890625
 40
0.6328125
 40
0.640625
 40
0.65625
 40
0.671875
 40
0.6796875
 40
0.68359375
 40
0.685546875
 40
0.6875
 40
0.689453125
 40
0.69140625
 40
0.6953125
 40
0.703125
 40
0.7109375
 40
0.71875
 40
0.734375
 40
0.7421875
 40
0.74609375
 40
0.748046875
 40
0.75
 40
0.751953125
 40
0.75390625
 40
0.7578125
 40
0.765625
 40
0.78125
 40
0.796875
 40
0.8046875
 40
0.80859375
 40
0.8125
 40
0.81640625
 40
0.8203125
 40
0.828125
 40
0.84375
 40
0.859375
 40
0.8671875
 40
0.87109375
 40
0.875
 40
0.87890625
 40
0.8828125
 40
0.890625
 40
0.90625
 40
0.921875
 40
0.9296875
 40
0.93359375
 40
0.9375
 40
0.94140625
 40
0.9453125
 40
0.953125
 40
0.96875
 40
0.984375
 40
1.0
 40
1.0
 40
1.0
 40
1.0
 10
10.6901247776
 20
10.6609407549
 30
0.0
 10
10.6911195942
 20
10.6608981299
 30
0.0
 10
10.6926121345
 20
10.6608354224
 30
0.0
 10
10.6943523278
 20
10.6607579584
 30
0.0
 10
10.6953483007
 20
10.6607198437
 30
0.0
 10
10.6960908653
 20
10.6606740363
 30
0.0
 10
10.6968503022
 20
10.6606940393
 30
0.0
 10
10.6978570404
 20
10.6606976192
 30
0.0
 10
10.6991171145
 20
10.6607107491
 30
0.0
 10
10.7003778885
 20
10.6607181225
 30
0.0
 10
10.701383507
 20
10.6607309126
 30
0.0
 10
10.7021463031
 20
10.6607232852
 30
0.0
 10
10.7028762708
 20
10.6607810919
 30
0.0
 10
10.7038611229
 20
10.6608352081
 30
0.0
 10
10.7050875459
 20
10.6609114641
 30
0.0
 10
10.7063180849
 20
10.6609819763
 30
0.0
 10
10.7072963514
 20
10.6610452825
 30
0.0
 10
10.7080460757
 20
10.6610755193
 30
0.0
 10
10.7087347847
 20
10.6611712794
 30
0.0
 10
10.7096742985
 20
10.6612760986
 30
0.0
 10
10.7108419655
 20
10.6614147721
 30
0.0
 10
10.7120099896
 20
10.6615514239
 30
0.0
 10
10.7128315642
 20
10.6616459709
 30
0.0
 10
10.7132941435
 20
10.6617025059
 30
0.0
 10
10.713660623
 20
10.6617376996
 30
0.0
 10
10.7139523686
 20
10.6618004696
 30
0.0
 10
10.714367439
 20
10.6618745416
 30
0.0
 10
10.7150815801
 20
10.662008675
 30
0.0
 10
10.7161088419
 20
10.6621977398
 30
0.0
 10
10.7171311621
 20
10.6623884363
 30
0.0
 10
10.7178522214
 20
10.6625202852
 30
0.0
 10
10.7182564204
 20
10.662597947
 30
0.0
 10
10.7185815214
 20
10.6626497029
 30
0.0
 10
10.7188227328
 20
10.6627262607
 30
0.0
 10
10.7191736064
 20
10.6628196872
 30
0.0
 10
10.7197740354
 20
10.6629872078
 30
0.0
 10
10.7206386422
 20
10.6632244689
 30
0.0
 10
10.7215017489
 20
10.6634622808
 30
0.0
 10
10.722104278
 20
10.6636290303
 30
0.0
 10
10.7224084047
 20
10.6637118387
 30
0.0
 10
10.7225775199
 20
10.6637600885
 30
0.0
 10
10.722717553
 20
10.6637936456
 30
0.0
 10
10.7228071351
 20
10.6638372584
 30
0.0
 10
10.7229441745
 20
10.6638919015
 30
0.0
 10
10.7231758073
 20
10.6639891585
 30
0.0
 10
10.7236449236
 20
10.6641825079
 30
0.0
 10
10.7243117189
 20
10.6644593799
 30
0.0
 10
10.7249808535
 20
10.6647358359
 30
0.0
 10
10.7254466949
 20
10.6649297677
 30
0.0
 10
10.7256828307
 20
10.6650262239
 30
0.0
 10
10.7258126184
 20
10.6650821565
 30
0.0
 10
10.7259244818
 20
10.6651218075
 30
0.0
 10
10.7259808285
 20
10.6651702447
 30
0.0
 10
10.7260753205
 20
10.6652317633
 30
0.0
 10
10.7262316773
 20
10.6653408458
 30
0.0
 10
10.7265507845
 20
10.6655579977
 30
0.0
 10
10.7269127987
 20
10.6658066046
 30
0.0
 10
10.7272755453
 20
10.6660550695
 30
0.0
 10
10.7275480877
 20
10.6662414109
 30
0.0
 10
10.7277732932
 20
10.6663967789
 30
0.0
 10
10.7279347437
 20
10.6665053642
 30
0.0
 10
10.7280210494
 20
10.6665676833
 30
0.0
 10
10.7281025461
 20
10.6666136609
 30
0.0
 10
10.7281199489
 20
10.6666625501
 30
0.0
 10
10.7281655077
 20
10.6667267201
 30
0.0
 10
10.7282348362
 20
10.6668394901
 30
0.0
 10
10.7283809209
 20
10.6670646938
 30
0.0
 10
10.7285853721
 20
10.6673865956
 30
0.0
 10
10.7287926407
 20
10.6677084091
 30
0.0
 10
10.728934781
 20
10.6679337365
 30
0.0
 10
10.7290095332
 20
10.6680463363
 30
0.0
 10
10.7290463577
 20
10.6681107804
 30
0.0
 10
10.729090597
 20
10.6681588277
 30
0.0
 10
10.7290712985
 20
10.6682079673
 30
0.0
 10
10.7290677282
 20
10.6682731058
 30
0.0
 10
10.729051171
 20
10.6683872752
 30
0.0
 10
10.7290254201
 20
10.6686154897
 30
0.0
 10
10.7289844276
 20
10.6689415639
 30
0.0
 10
10.7289462317
 20
10.6692676609
 30
0.0
 10
10.7289165656
 20
10.6694958436
 30
0.0
 10
10.7289053919
 20
10.6696100568
 30
0.0
 10
10.7288931522
 20
10.6696751247
 30
0.0
 10
10.7289004911
 20
10.669724481
 30
0.0
 10
10.7288446826
 20
10.6697717145
 30
0.0
 10
10.7287922962
 20
10.669835433
 30
0.0
 10
10.7286903741
 20
10.6699465958
 30
0.0
 10
10.7284938486
 20
10.6701691686
 30
0.0
 10
10.7282089151
 20
10.6704869786
 30
0.0
 10
10.7279267722
 20
10.6708049226
 30
0.0
 10
10.72772634
 20
10.6710273078
 30
0.0
 10
10.7276297896
 20
10.6711387285
 30
0.0
 10
10.7275687527
 20
10.6712020316
 30
0.0
 10
10.7275395234
 20
10.6712505415
 30
0.0
 10
10.7274470331
 20
10.6712951039
 30
0.0
 10
10.7273457787
 20
10.6713558974
 30
0.0
 10
10.7271583034
 20
10.6714616447
 30
0.0
 10
10.7268958491
 20
10.6716130462
 30
0.0
 10
10.7265786371
 20
10.6717945906
 30
0.0
 10
10.7261563272
 20
10.67203667
 30
0.0
 10
10.7257347139
 20
10.6722789031
 30
0.0
 10
10.725363554
 20
10.6724904405
 30
0.0
 10
10.7251810417
 20
10.6725967668
 30
0.0
 10
10.7250718114
 20
10.6726566283
 30
0.0
 10
10.7250038247
 20
10.6727040542
 30
0.0
 10
10.7248825627
 20
10.6727418091
 30
0.0
 10
10.7247394606
 20
10.6727955218
 30
0.0
 10
10.7244803998
 20
10.6728879524
 30
0.0
 10
10.7239683156
 20
10.6730739052
 30
0.0
 10
10.7232343442
 20
10.6733391481
 30
0.0
 10
10.7224985631
 20
10.6736039279
 30
0.0
 10
10.7219890125
 20
10.673790529
 30
0.0
 10
10.7216889617
 20
10.6738951454
 30
0.0
 10
10.7214889901
 20
10.6739792873
 30
0.0
 10
10.7211931923
 20
10.6740417169
 30
0.0
 10
10.7208322281
 20
10.6741325325
 30
0.0
 10
10.7201848865
 20
10.6742879041
 30
0.0
 10
10.7192689188
 20
10.6745119293
 30
0.0
 10
10.7183475449
 20
10.6747344644
 30
0.0
 10
10.7177077719
 20
10.6748919221
 30
0.0
 10
10.7173349143
 20
10.6749794596
 30
0.0
 10
10.7170756077
 20
10.6750519467
 30
0.0
 10
10.7167385913
 20
10.675098317
 30
0.0
 10
10.7163163489
 20
10.6751692567
 30
0.0
 10
10.7155647251
 20
10.6752891272
 30
0.0
 10
10.7144981581
 20
10.6754628332
 30
0.0
 10
10.7134270552
 20
10.6756348303
 30
0.0
 10
10.7126817818
 20
10.6757570932
 30
0.0
 10
10.7122495601
 20
10.6758242734
 30
0.0
 10
10.7119431621
 20
10.6758821787
 30
0.0
 10
10.7115688664
 20
10.6759113455
 30
0.0
 10
10.711093489
 20
10.675960259
 30
0.0
 10
10.7102505436
 20
10.6760411869
 30
0.0
 10
10.7090521086
 20
10.6761592415
 30
0.0
 10
10.7076115
 20
10.6762998545
 30
0.0
 10
10.7066515678
 20
10.676393797
 30
0.0
 10
10.7061715426
 20
10.6764407432
 30
0.0
  0
SPLINE
  5
38B
100
AcDbEntity
  8
0
100
AcDbSpline
 62
7
  6
CONTINUOUS
 70
0
 71
3
 72
140
 73
136
 74
0
 42
0.0000001
 43
0.0000001
 44
0.0000000001
 40
0.0
 40
0.0
 40
0.0
 40
0.0
 40
0.03125
 40
0.046875
 40
0.0546875
 40
0.0625
 40
0.0703125
 40
0.078125
 40
0.09375
 40
0.109375
 40
0.1171875
 40
0.125
 40
0.1328125
 40
0.140625
 40
0.15625
 40
0.171875
 40
0.1796875
 40
0.1875
 40
0.1953125
 40
0.203125
 40
0.21875
 40
0.234375
 40
0.2421875
 40
0.24609375
 40
0.25
 40
0.25390625
 40
0.2578125
 40
0.265625
 40
0.28125
 40
0.296875
 40
0.3046875
 40
0.30859375
 40
0.3125
 40
0.31640625
 40
0.3203125
 40
0.328125
 40
0.34375
 40
0.359375
 40
0.3671875
 40
0.37109375
 40
0.373046875
 40
0.375
 40
0.376953125
 40
0.37890625
 40
0.3828125
 40
0.390625
 40
0.40625
 40
0.421875
 40
0.4296875
 40
0.43359375
 40
0.435546875
 40
0.4375
 40
0.439453125
 40
0.44140625
 40
0.4453125
 40
0.453125
 40
0.46875
 40
0.4765625
 40
0.484375
 40
0.4921875
 40
0.49609375
 40
0.498046875
 40
0.5
 40
0.501953125
 40
0.50390625
 40
0.5078125
 40
0.515625
 40
0.53125
 40
0.546875
 40
0.5546875
 40
0.55859375
 40
0.560546875
 40
0.5625
 40
0.564453125
 40
0.56640625
 40
0.5703125
 40
0.578125
 40
0.59375
 40
0.609375
 40
0.6171875
 40
0.62109375
 40
0.623046875
 40
0.625
 40
0.626953125
 40
0.62890625
 40
0.6328125
 40
0.640625
 40
0.65625
 40
0.671875
 40
0.6796875
 40
0.68359375
 40
0.685546875
 40
0.6875
 40
0.689453125
 40
0.69140625
 40
0.6953125
 40
0.703125
 40
0.7109375
 40
0.71875
 40
0.734375
 40
0.7421875
 40
0.74609375
 40
0.748046875
 40
0.75
 40
0.751953125
 40
0.75390625
 40
0.7578125
 40
0.765625
 40
0.78125
 40
0.796875
 40
0.8046875
 40
0.80859375
 40
0.8125
 40
0.81640625
 40
0.8203125
 40
0.828125
 40
0.84375
 40
0.859375
 40
0.8671875
 40
0.87109375
 40
0.875
 40
0.87890625
 40
0.8828125
 40
0.890625
 40
0.90625
 40
0.921875
 40
0.9296875
 40
0.93359375
 40
0.9375
 40
0.94140625
 40
0.9453125
 40
0.953125
 40
0.96875
 40
0.984375
 40
1.0
 40
1.0
 40
1.0
 40
1.0
 10
10.7061715452
 20
10.676440743
 30
0.0
 10
10.7051767286
 20
10.676483368
 30
0.0
 10
10.7036841883
 20
10.6765460755
 30
0.0
 10
10.701943995
 20
10.6766235395
 30
0.0
 10
10.7009480221
 20
10.6766616542
 30
0.0
 10
10.7002054575
 20
10.6767074616
 30
0.0
 10
10.6994460206
 20
10.6766874586
 30
0.0
 10
10.6984392824
 20
10.6766838787
 30
0.0
 10
10.6971792083
 20
10.6766707488
 30
0.0
 10
10.6959184343
 20
10.6766633754
 30
0.0
 10
10.6949128158
 20
10.6766505853
 30
0.0
 10
10.6941500197
 20
10.6766582127
 30
0.0
 10
10.693420052
 20
10.676600406
 30
0.0
 10
10.6924351999
 20
10.6765462898
 30
0.0
 10
10.6912087769
 20
10.6764700338
 30
0.0
 10
10.6899782379
 20
10.6763995216
 30
0.0
 10
10.6889999714
 20
10.6763362154
 30
0.0
 10
10.6882502471
 20
10.6763059786
 30
0.0
 10
10.6875615381
 20
10.6762102185
 30
0.0
 10
10.6866220243
 20
10.6761053993
 30
0.0
 10
10.6854543573
 20
10.6759667258
 30
0.0
 10
10.6842863332
 20
10.675830074
 30
0.0
 10
10.6834647586
 20
10.675735527
 30
0.0
 10
10.6830021793
 20
10.675678992
 30
0.0
 10
10.6826356998
 20
10.6756437983
 30
0.0
 10
10.6823439542
 20
10.6755810283
 30
0.0
 10
10.6819288838
 20
10.6755069563
 30
0.0
 10
10.6812147427
 20
10.6753728229
 30
0.0
 10
10.6801874809
 20
10.6751837581
 30
0.0
 10
10.6791651607
 20
10.6749930616
 30
0.0
 10
10.6784441014
 20
10.6748612127
 30
0.0
 10
10.6780399024
 20
10.6747835509
 30
0.0
 10
10.6777148014
 20
10.674731795
 30
0.0
 10
10.67747359
 20
10.6746552372
 30
0.0
 10
10.6771227164
 20
10.6745618107
 30
0.0
 10
10.6765222874
 20
10.6743942901
 30
0.0
 10
10.6756576806
 20
10.674157029
 30
0.0
 10
10.6747945739
 20
10.6739192171
 30
0.0
 10
10.6741920448
 20
10.6737524676
 30
0.0
 10
10.6738879181
 20
10.6736696592
 30
0.0
 10
10.6737188029
 20
10.6736214094
 30
0.0
 10
10.6735787698
 20
10.6735878523
 30
0.0
 10
10.6734891877
 20
10.6735442395
 30
0.0
 10
10.6733521483
 20
10.6734895964
 30
0.0
 10
10.6731205155
 20
10.6733923394
 30
0.0
 10
10.6726513992
 20
10.67319899
 30
0.0
 10
10.6719846039
 20
10.672922118
 30
0.0
 10
10.6713154693
 20
10.672645662
 30
0.0
 10
10.6708496279
 20
10.6724517302
 30
0.0
 10
10.6706134921
 20
10.672355274
 30
0.0
 10
10.6704837043
 20
10.6722993414
 30
0.0
 10
10.670371841
 20
10.6722596904
 30
0.0
 10
10.6703154943
 20
10.6722112532
 30
0.0
 10
10.6702210023
 20
10.6721497346
 30
0.0
 10
10.6700646455
 20
10.6720406521
 30
0.0
 10
10.6697455383
 20
10.6718235002
 30
0.0
 10
10.6693835241
 20
10.6715748933
 30
0.0
 10
10.6690207774
 20
10.6713264284
 30
0.0
 10
10.6687482351
 20
10.671140087
 30
0.0
 10
10.6685230296
 20
10.670984719
 30
0.0
 10
10.6683615791
 20
10.6708761337
 30
0.0
 10
10.6682752734
 20
10.6708138146
 30
0.0
 10
10.6681937767
 20
10.670767837
 30
0.0
 10
10.6681763739
 20
10.6707189478
 30
0.0
 10
10.6681308151
 20
10.6706547778
 30
0.0
 10
10.6680614866
 20
10.6705420078
 30
0.0
 10
10.6679154019
 20
10.6703168041
 30
0.0
 10
10.6677109507
 20
10.6699949023
 30
0.0
 10
10.6675036821
 20
10.6696730888
 30
0.0
 10
10.6673615418
 20
10.6694477614
 30
0.0
 10
10.6672867896
 20
10.6693351616
 30
0.0
 10
10.6672499651
 20
10.6692707175
 30
0.0
 10
10.6672057258
 20
10.6692226702
 30
0.0
 10
10.6672250243
 20
10.6691735306
 30
0.0
 10
10.6672285946
 20
10.6691083921
 30
0.0
 10
10.6672451518
 20
10.6689942227
 30
0.0
 10
10.6672709027
 20
10.6687660082
 30
0.0
 10
10.6673118952
 20
10.668439934
 30
0.0
 10
10.6673500911
 20
10.668113837
 30
0.0
 10
10.6673797572
 20
10.6678856543
 30
0.0
 10
10.6673909309
 20
10.6677714411
 30
0.0
 10
10.6674031706
 20
10.6677063732
 30
0.0
 10
10.6673958317
 20
10.6676570169
 30
0.0
 10
10.6674516402
 20
10.6676097834
 30
0.0
 10
10.6675040266
 20
10.6675460649
 30
0.0
 10
10.6676059487
 20
10.6674349021
 30
0.0
 10
10.6678024742
 20
10.6672123293
 30
0.0
 10
10.6680874077
 20
10.6668945193
 30
0.0
 10
10.6683695506
 20
10.6665765753
 30
0.0
 10
10.6685699828
 20
10.6663541901
 30
0.0
 10
10.6686665332
 20
10.6662427694
 30
0.0
 10
10.6687275701
 20
10.6661794663
 30
0.0
 10
10.6687567994
 20
10.6661309564
 30
0.0
 10
10.6688492897
 20
10.666086394
 30
0.0
 10
10.6689505441
 20
10.6660256005
 30
0.0
 10
10.6691380194
 20
10.6659198532
 30
0.0
 10
10.6694004737
 20
10.6657684517
 30
0.0
 10
10.6697176857
 20
10.6655869073
 30
0.0
 10
10.6701399956
 20
10.6653448279
 30
0.0
 10
10.6705616089
 20
10.6651025948
 30
0.0
 10
10.6709327688
 20
10.6648910574
 30
0.0
 10
10.6711152811
 20
10.6647847311
 30
0.0
 10
10.6712245114
 20
10.6647248696
 30
0.0
 10
10.6712924981
 20
10.6646774437
 30
0.0
 10
10.6714137601
 20
10.6646396888
 30
0.0
 10
10.6715568622
 20
10.6645859761
 30
0.0
 10
10.671815923
 20
10.6644935455
 30
0.0
 10
10.6723280072
 20
10.6643075927
 30
0.0
 10
10.6730619786
 20
10.6640423498
 30
0.0
 10
10.6737977597
 20
10.66377757
 30
0.0
 10
10.6743073103
 20
10.6635909689
 30
0.0
 10
10.6746073611
 20
10.6634863525
 30
0.0
 10
10.6748073327
 20
10.6634022106
 30
0.0
 10
10.6751031305
 20
10.663339781
 30
0.0
 10
10.6754640947
 20
10.6632489654
 30
0.0
 10
10.6761114363
 20
10.6630935938
 30
0.0
 10
10.677027404
 20
10.6628695686
 30
0.0
 10
10.6779487779
 20
10.6626470335
 30
0.0
 10
10.6785885509
 20
10.6624895758
 30
0.0
 10
10.6789614085
 20
10.6624020383
 30
0.0
 10
10.6792207151
 20
10.6623295512
 30
0.0
 10
10.6795577315
 20
10.6622831809
 30
0.0
 10
10.6799799739
 20
10.6622122412
 30
0.0
 10
10.6807315977
 20
10.6620923707
 30
0.0
 10
10.6817981647
 20
10.6619186647
 30
0.0
 10
10.6828692676
 20
10.6617466676
 30
0.0
 10
10.683614541
 20
10.6616244047
 30
0.0
 10
10.6840467627
 20
10.6615572245
 30
0.0
 10
10.6843531607
 20
10.6614993192
 30
0.0
 10
10.6847274564
 20
10.6614701524
 30
0.0
 10
10.6852028338
 20
10.6614212389
 30
0.0
 10
10.6860457792
 20
10.661340311
 30
0.0
 10
10.6872442142
 20
10.6612222564
 30
0.0
 10
10.6886848228
 20
10.6610816434
 30
0.0
 10
10.689644755
 20
10.6609877009
 30
0.0
 10
10.6901247802
 20
10.6609407547
 30
0.0
  0
ENDSEC
  0
SECTION
  2
OBJECTS
  0
DICTIONARY
  5
C
100
AcDbDictionary
280
0
281
1
  3
ACAD_GROUP
350
D
  3
ACAD_MLINESTYLE
350
17
  3
ACAD_LAYOUT
350
1A
  3
ACAD_PLOTSETTINGS
350
19
  3
ACAD_PLOTSTYLENAME
350
E
  3
ACAD_IMAGE_DICT
350
       38D
  3
ACAD_IMAGE_VARS
350
       38E
  3
ACAD_TABLESTYLE
350
       38F
  0
IMAGEDEF_REACTOR
  5
38C
100
AcDbRasterImageDefReactor
 90
2
330
28E
  0
DICTIONARY
  5
D
102
{ACAD_REACTORS
330
C
102
}
100
AcDbDictionary
280
0
281
1
  0
ACDBDICTIONARYWDFLT
  5
E
102
{ACAD_REACTORS
330
C
102
}
100
AcDbDictionary
281
1
  3
Normal
350
F
100
AcDbDictionaryWithDefault
340
F
  0
DICTIONARY
  5
38D
330
C
100
AcDbDictionary
281
1
  3
W3G_assy_2_img_1
350
       392
  0
RASTERVARIABLES
  5
38E
330
C
100
AcDbRasterVariables
 90
0
 70
0
 71
1
 72
5
  0
DICTIONARY
  5
17
102
{ACAD_REACTORS
330
C
102
}
100
AcDbDictionary
280
0
281
1
  3
Standard
350
18
  0
DICTIONARY
  5
38F
330
C
100
AcDbDictionary
281
1
  3
Standard
350
       393
  3
Standard1
350
       394
  0
DICTIONARY
  5
19
102
{ACAD_REACTORS
330
C
102
}
100
AcDbDictionary
281
1
  0
DICTIONARY
  5
1A
102
{ACAD_REACTORS
330
C
102
}
100
AcDbDictionary
281
1
  3
Model
350
390
  3
Layout1
350
391
  0
ACDBPLACEHOLDER
  5
F
102
{ACAD_REACTORS
330
E
102
}
  0
MLINESTYLE
  5
18
102
{ACAD_REACTORS
330
17
102
}
100
AcDbMlineStyle
  2
STANDARD
 70
0
  3

 62
256
 51
90.0
 52
90.0
 71
2
 49
0.5
 62
256
  6
BYLAYER
 49
-0.5
 62
256
  6
BYLAYER
  0
LAYOUT
  5
390
102
{ACAD_REACTORS
330
1A
102
}
100
AcDbPlotSettings
  1

  2
none_device
  4
ANSI_C_(22.00_x_17.00_Inches)
  6

 40
0.0
 41
0.0
 42
0.0
 43
0.0
 44
558.8
 45
431.8
 46
0.0
 47
0.0
 48
0.0
 49
0.0
140
0.0
141
0.0
142
1.0
143
1.0
 70
1024
 72
0
 73
0
 74
0
  7

 75
0
147
1.0
148
0.0
149
0.0
100
AcDbLayout
  1
Model
 70
0
 71
0
 10
0.0
 20
0.0
 11
22.0
 21
17.0
 12
0.0
 22
0.0
 32
0.0
 14
0.0
 24
0.0
 34
0.0
 15
0.0
 25
0.0
 35
0.0
146
0.0
 13
0.0
 23
0.0
 33
0.0
 16
1.0
 26
0.0
 36
0.0
 17
0.0
 27
1.0
 37
0.0
 76
0
330
20C
345
0
346
0
  0
LAYOUT
  5
391
102
{ACAD_REACTORS
330
1A
102
}
100
AcDbPlotSettings
  1

  2
none_device
  4
ANSI_C_(22.00_x_17.00_Inches)
  6

 40
0.0
 41
0.0
 42
0.0
 43
0.0
 44
558.8
 45
431.8
 46
0.0
 47
0.0
 48
0.0
 49
0.0
140
0.0
141
0.0
142
1.0
143
1.0
 70
0
 72
0
 73
0
 74
0
  7

 75
0
147
1.0
148
0.0
149
0.0
100
AcDbLayout
  1
Layout1
 70
0
 71
1
 10
0.0
 20
0.0
 11
22.0
 21
17.0
 12
0.0
 22
0.0
 32
0.0
 14
0.0
 24
0.0
 34
0.0
 15
0.0
 25
0.0
 35
0.0
146
0.0
 13
0.0
 23
0.0
 33
0.0
 16
1.0
 26
0.0
 36
0.0
 17
0.0
 27
1.0
 37
0.0
 76
0
330
20D
345
0
346
0
  0
IMAGEDEF
  5
392
102
{ACAD_REACTORS
330
38D
330
38C
102
}
100
AcDbRasterImageDef
 90
0
  1
W3G_assy_2_img_1.png
 10
369.0
 20
92.0
 11
0.0066666667
 21
0.0066666667
280
1
281
0
  0
TABLESTYLE
  5
393
102
{ACAD_REACTORS
330
38F
330
291
330
292
102
}
330
38F
100
AcDbTableStyle
  3
Standard
 70
0
 71
0
 40
0.06
 41
0.06
280
1
281
1
  7
Standard
140
0.18
170
1
 62
0
 63
7
283
0
  7
Standard
140
0.18
170
1
 62
0
 63
7
283
0
  7
Standard
140
0.18
170
1
 62
0
 63
7
283
0
  0
TABLESTYLE
  5
394
102
{ACAD_REACTORS
330
38F
330
290
102
}
330
38F
100
AcDbTableStyle
  3
Standard1
 70
1
 71
0
 40
0.06
 41
0.06
280
1
281
1
  7
Standard
140
0.18
170
1
 62
0
 63
7
283
0
  7
Standard
140
0.18
170
1
 62
0
 63
7
283
0
  7
Standard
140
0.18
170
1
 62
0
 63
7
283
0
  0
ENDSEC
  0
EOF
