999
DXF file: W3F_assy_2.dxf
999
Pro/ENGINEER 2014200 by Parametric Technology Corporation
  0
SECTION
  2
HEADER
  9
$ACADVER
  1
AC1021
  9
$DWGCODEPAGE
  3
ANSI_1252
  9
$EXTMAX
 10
22.0
 20
17.0
 30
0.0
  9
$EXTMIN
 10
0.0
 20
0.0
 30
0.0
  9
$LIMMIN
 10
0.0
 20
0.0
  9
$LIMMAX
 10
22.0
 20
17.0
  9
$VIEWCTR
 10
11.0
 20
8.5
  9
$VIEWSIZE
 40
17.0
  9
$CLAYER
  8
0
  9
$LTSCALE
 40
1.21
  9
$CELTYPE
  6
BYLAYER
  9
$DIMSCALE
 40
1.0
  9
$DIMASZ
 40
0.1875
  9
$DIMEXO
 40
0.0625
  9
$DIMDLI
 40
0.836
  9
$DIMEXE
 40
0.125
  9
$DIMCEN
 40
0.198
  9
$DIMLFAC
 40
1.0
  9
$DIMBLK
  1
_FILLED
  9
$DIMTXT
 40
0.1
  9
$DIMTOL
 70
0
  9
$DIMLIM
 70
0
  9
$DIMTFAC
 40
1.0
  9
$DIMGAP
 40
0.09
  9
$DIMDSEP
 70
46
  9
$AUNITS
 70
0
  9
$PDMODE
 70
3
  9
$PDSIZE
 40
0.3125
  9
$HANDSEED
  5
3A6
  9
$TILEMODE
 70
1
  9
$MEASUREMENT
 70
0
  9
$INSUNITS
 70
1
  0
ENDSEC
  0
SECTION
  2
CLASSES
  0
CLASS
  1
ACDBDICTIONARYWDFLT
  2
AcDbDictionaryWithDefault
  3
AutoCAD 2000
 90
0
 91
1
280
0
281
0
  0
CLASS
  1
ACDBPLACEHOLDER
  2
AcDbPlaceHolder
  3
AutoCAD 2000
 90
0
 91
1
280
0
281
0
  0
CLASS
  1
LAYOUT
  2
AcDbLayout
  3
AutoCAD 2000
 90
0
 91
0
280
0
281
0
  0
CLASS
  1
RASTERVARIABLES
  2
AcDbRasterVariables
  3
ISM
 90
0
 91
1
280
0
281
0
  0
CLASS
  1
IMAGEDEF
  2
AcDbRasterImageDef
  3
ISM
 90
0
 91
1
280
0
281
0
  0
CLASS
  1
IMAGEDEF_REACTOR
  2
AcDbRasterImageDefReactor
  3
ISM
 90
0
 91
1
280
0
281
0
  0
CLASS
  1
IMAGE
  2
AcDbRasterImage
  3
ISM
 90
127
 91
1
280
0
281
1
  0
CLASS
  1
TABLESTYLE
  2
AcDbTableStyle
  3
ObjectDBX Classes
 90
2047
 91
1
280
0
281
0
  0
CLASS
  1
ACAD_TABLE
  2
AcDbTable
  3
ObjectDBX Classes
 90
1025
 91
3
280
0
281
1
  0
ENDSEC
  0
SECTION
  2
TABLES
  0
TABLE
  2
VPORT
  5
8
100
AcDbSymbolTable
 70
2
  0
VPORT
  5
1F4
100
AcDbSymbolTableRecord
100
AcDbViewportTableRecord
  2
*ACTIVE
 70
0
 10
0.0
 20
0.0
 11
1.0
 21
1.0
 12
11.0
 22
8.5
 13
0.0
 23
0.0
 14
1.0
 24
1.0
 15
0.0
 25
0.0
 16
0.0
 26
0.0
 36
1.0
 17
0.0
 27
0.0
 37
0.0
 40
17.0
 41
1.2941176471
 42
50.0
 43
0.0
 44
0.0
 50
0.0
 51
0.0
 71
0
 72
100
 73
1
 74
1
 75
0
 76
0
 77
0
 78
0
  0
ENDTAB
  0
TABLE
  2
LTYPE
  5
5
100
AcDbSymbolTable
 70
6
  0
LTYPE
  5
14
100
AcDbSymbolTableRecord
100
AcDbLinetypeTableRecord
  2
BYBLOCK
 70
0
  3

 72
65
 73
0
 40
0.0
  0
LTYPE
  5
15
100
AcDbSymbolTableRecord
100
AcDbLinetypeTableRecord
  2
BYLAYER
 70
0
  3

 72
65
 73
0
 40
0.0
  0
LTYPE
  5
16
100
AcDbSymbolTableRecord
100
AcDbLinetypeTableRecord
  2
CONTINUOUS
 70
64
  3
Solid line
 72
65
 73
0
 40
0.0
  0
LTYPE
  5
1F5
100
AcDbSymbolTableRecord
100
AcDbLinetypeTableRecord
  2
CENTER
 70
64
  3
____ _ ____ _ ____ _ ____ _ ____ _ ____ _ ____
 72
65
 73
4
 40
0.6
 49
0.375
 74
0
 49
-0.075
 74
0
 49
0.075
 74
0
 49
-0.075
 74
0
  0
LTYPE
  5
1F6
100
AcDbSymbolTableRecord
100
AcDbLinetypeTableRecord
  2
HIDDEN
 70
64
  3
- - - - - - - - - - - - - - - - - - - -
 72
65
 73
2
 40
0.2
 49
0.1
 74
0
 49
-0.1
 74
0
  0
LTYPE
  5
1F7
100
AcDbSymbolTableRecord
100
AcDbLinetypeTableRecord
  2
PHANTOM
 70
64
  3
_____ _ _ _____ _ _ _____ _ _ _____
 72
65
 73
6
 40
0.8
 49
0.45
 74
0
 49
-0.05
 74
0
 49
0.1
 74
0
 49
-0.05
 74
0
 49
0.1
 74
0
 49
-0.05
 74
0
  0
LTYPE
  5
1F8
100
AcDbSymbolTableRecord
100
AcDbLinetypeTableRecord
  2
DOT
 70
64
  3
. . . . . . . . . . . . . . . . . . . .
 72
65
 73
2
 40
0.2
 49
0.1
 74
0
 49
-0.1
 74
0
  0
LTYPE
  5
1F9
100
AcDbSymbolTableRecord
100
AcDbLinetypeTableRecord
  2
DASHED
 70
64
  3
- - - - - - - - - - - - - - - - - - - -
 72
65
 73
2
 40
0.2
 49
0.1
 74
0
 49
-0.1
 74
0
  0
ENDTAB
  0
TABLE
  2
LAYER
  5
2
100
AcDbSymbolTable
 70
36
  0
LAYER
  5
10
100
AcDbSymbolTableRecord
100
AcDbLayerTableRecord
  2
0
 70
0
 62
7
  6
CONTINUOUS
370
-3
390
F
  0
LAYER
  5
1FA
100
AcDbSymbolTableRecord
100
AcDbLayerTableRecord
  2
DEFAULT_1
 70
0
 62
7
  6
CENTER
370
-3
390
F
  0
LAYER
  5
1FB
100
AcDbSymbolTableRecord
100
AcDbLayerTableRecord
  2
DEFAULT_2
 70
0
 62
8
  6
HIDDEN
370
-3
390
F
  0
LAYER
  5
1FC
100
AcDbSymbolTableRecord
100
AcDbLayerTableRecord
  2
DEFAULT_3
 70
0
 62
7
  6
PHANTOM
370
-3
390
F
  0
LAYER
  5
1FD
100
AcDbSymbolTableRecord
100
AcDbLayerTableRecord
  2
01___PRT_ALL_DTM_PLN
 70
0
 62
7
  6
CONTINUOUS
370
-3
390
F
  0
LAYER
  5
1FE
100
AcDbSymbolTableRecord
100
AcDbLayerTableRecord
  2
01___PRT_DEF_DTM_PLN
 70
0
 62
7
  6
CONTINUOUS
370
-3
390
F
  0
LAYER
  5
1FF
100
AcDbSymbolTableRecord
100
AcDbLayerTableRecord
  2
02___PRT_ALL_AXES
 70
0
 62
7
  6
CONTINUOUS
370
-3
390
F
  0
LAYER
  5
200
100
AcDbSymbolTableRecord
100
AcDbLayerTableRecord
  2
03___PRT_ALL_CURVES
 70
0
 62
7
  6
CONTINUOUS
370
-3
390
F
  0
LAYER
  5
201
100
AcDbSymbolTableRecord
100
AcDbLayerTableRecord
  2
04___PRT_ALL_DTM_PNT
 70
0
 62
7
  6
CONTINUOUS
370
-3
390
F
  0
LAYER
  5
202
100
AcDbSymbolTableRecord
100
AcDbLayerTableRecord
  2
05___PRT_ALL_DTM_CSYS
 70
0
 62
7
  6
CONTINUOUS
370
-3
390
F
  0
LAYER
  5
203
100
AcDbSymbolTableRecord
100
AcDbLayerTableRecord
  2
05___PRT_DEF_DTM_CSYS
 70
0
 62
7
  6
CONTINUOUS
370
-3
390
F
  0
LAYER
  5
204
100
AcDbSymbolTableRecord
100
AcDbLayerTableRecord
  2
06___PRT_ALL_SURFS
 70
0
 62
7
  6
CONTINUOUS
370
-3
390
F
  0
LAYER
  5
205
100
AcDbSymbolTableRecord
100
AcDbLayerTableRecord
  2
DATUM_PLANES
 70
0
 62
7
  6
CONTINUOUS
370
-3
390
F
  0
LAYER
  5
206
100
AcDbSymbolTableRecord
100
AcDbLayerTableRecord
  2
PORT_AREAS
 70
0
 62
7
  6
CONTINUOUS
370
-3
390
F
  0
LAYER
  5
207
100
AcDbSymbolTableRecord
100
AcDbLayerTableRecord
  2
SUNNBOMCOSMETIC
 70
0
 62
7
  6
CONTINUOUS
370
-3
390
F
  0
LAYER
  5
208
100
AcDbSymbolTableRecord
100
AcDbLayerTableRecord
  2
SUNNBOMSTAMPING
 70
0
 62
7
  6
CONTINUOUS
370
-3
390
F
  0
LAYER
  5
209
100
AcDbSymbolTableRecord
100
AcDbLayerTableRecord
  2
THREADS
 70
0
 62
7
  6
CONTINUOUS
370
-3
390
F
  0
ENDTAB
  0
TABLE
  2
STYLE
  5
3
100
AcDbSymbolTable
 70
1
  0
STYLE
  5
11
100
AcDbSymbolTableRecord
100
AcDbTextStyleTableRecord
  2
STANDARD
 70
0
 40
0.0
 41
0.8
 50
0.0
 71
0
 42
0.2
  3
txt
  4

  0
STYLE
  5
20A
100
AcDbSymbolTableRecord
100
AcDbTextStyleTableRecord
  2
TEXTSTYLE_1
 70
0
 40
0.0
 41
0.8
 50
0.0
 71
0
 42
0.2
  3
gdt
  4

  0
ENDTAB
  0
TABLE
  2
VIEW
  5
6
100
AcDbSymbolTable
 70
0
  0
ENDTAB
  0
TABLE
  2
UCS
  5
7
100
AcDbSymbolTable
 70
0
  0
ENDTAB
  0
TABLE
  2
APPID
  5
9
100
AcDbSymbolTable
 70
1
  0
APPID
  5
20B
100
AcDbSymbolTableRecord
100
AcDbRegAppTableRecord
  2
ACAD
 70
0
  0
ENDTAB
  0
TABLE
  2
BLOCK_RECORD
  5
1
100
AcDbSymbolTable
 70
0
  0
BLOCK_RECORD
  5
20C
100
AcDbSymbolTableRecord
100
AcDbBlockTableRecord
  2
*Model_Space
  0
BLOCK_RECORD
  5
20D
100
AcDbSymbolTableRecord
100
AcDbBlockTableRecord
  2
*Paper_Space
  0
BLOCK_RECORD
  5
20E
100
AcDbSymbolTableRecord
100
AcDbBlockTableRecord
  2
SUN_FIRST_THIRD_ANGLE_BL0
  0
BLOCK_RECORD
  5
20F
100
AcDbSymbolTableRecord
100
AcDbBlockTableRecord
  2
*T1
  0
BLOCK_RECORD
  5
210
100
AcDbSymbolTableRecord
100
AcDbBlockTableRecord
  2
*T2
  0
BLOCK_RECORD
  5
211
100
AcDbSymbolTableRecord
100
AcDbBlockTableRecord
  2
*T3
  0
ENDTAB
  0
TABLE
  2
DIMSTYLE
  5
A
100
AcDbSymbolTable
 70
1
100
AcDbDimStyleTable
 71
0
  0
DIMSTYLE
105
212
100
AcDbSymbolTableRecord
100
AcDbDimStyleTableRecord
  2
STANDARD
 70
0
  3

  4

 40
1.0
 41
0.1875
 42
0.0625
 43
0.38
 44
0.125
 45
0.0
 46
0.0
 47
0.001
 48
0.001
140
0.1
141
0.09
142
0.0
143
25.4
144
1.0
145
0.0
146
1.0
147
0.09
 71
0.0
 72
0.0
 73
1
 74
1
 75
0
 76
0
 77
0
 78
4
170
0
171
2
172
0
173
0
174
0
175
0
176
0
177
0
178
0
270
2
271
3
272
3
273
2
274
2
275
0
280
0
281
0
282
0
283
1
284
4
285
0
286
0
287
3
288
0
340
11
278
46
  0
ENDTAB
  0
ENDSEC
  0
SECTION
  2
BLOCKS
  0
BLOCK
  5
20
100
AcDbEntity
  8
0
100
AcDbBlockBegin
  2
*Model_Space
 70
0
 10
0.0
 20
0.0
 30
0.0
  3
*Model_Space
  1

  0
ENDBLK
  5
21
100
AcDbEntity
  8
0
100
AcDbBlockEnd
  0
BLOCK
  5
1C
100
AcDbEntity
  8
0
100
AcDbBlockBegin
  2
*Paper_Space
 70
0
 10
0.0
 20
0.0
 30
0.0
  3
*Paper_Space
  1

  0
ENDBLK
  5
1D
100
AcDbEntity
  8
0
100
AcDbBlockEnd
  0
BLOCK
  5
213
100
AcDbEntity
  8
0
100
AcDbBlockBegin
 62
2
  6
CONTINUOUS
  2
SUN_FIRST_THIRD_ANGLE_BL0
 70
64
 10
20.4816717061
 20
1.2289683772
  3
SUN_FIRST_THIRD_ANGLE_BL0
  1

  0
TEXT
  5
214
100
AcDbEntity
  8
0
100
AcDbText
 62
2
  6
CONTINUOUS
 10
19.4750896608
 20
1.4136269581
  7
STANDARD
 40
0.08
  1
FIRST ANGLE
 41
0.8
 72
0
100
AcDbText
  0
TEXT
  5
215
100
AcDbEntity
  8
0
100
AcDbText
 62
2
  6
CONTINUOUS
 10
20.7842537513
 20
1.4047600029
  7
STANDARD
 40
0.08
  1
THIRD ANGLE
 41
0.8
 72
0
100
AcDbText
  0
LINE
  5
216
100
AcDbEntity
  8
0
100
AcDbLine
 62
7
  6
CONTINUOUS
 10
19.4767170086
 20
1.1727031207
 11
19.6334271527
 21
1.1717972817
  0
LINE
  5
217
100
AcDbEntity
  8
0
100
AcDbLine
 62
7
  6
CONTINUOUS
 10
19.6596964832
 20
1.1717972817
 11
19.6950230232
 21
1.171593082
  0
LINE
  5
218
100
AcDbEntity
  8
0
100
AcDbLine
 62
7
  6
CONTINUOUS
 10
19.7194818561
 20
1.1708914427
 11
19.8852396156
 21
1.1699333054
  0
LINE
  5
219
100
AcDbEntity
  8
0
100
AcDbLine
 62
7
  6
CONTINUOUS
 10
19.4758111696
 20
1.2723454088
 11
19.88525039
 21
1.3511534004
  0
LINE
  5
21A
100
AcDbEntity
  8
0
100
AcDbLine
 62
7
  6
CONTINUOUS
 10
19.88525039
 20
1.3511534004
 11
19.8831348489
 21
0.9851647912
  0
LINE
  5
21B
100
AcDbEntity
  8
0
100
AcDbLine
 62
7
  6
CONTINUOUS
 10
19.8831348489
 20
0.9851647912
 11
19.4767170086
 21
1.0658141206
  0
LINE
  5
21C
100
AcDbEntity
  8
0
100
AcDbLine
 62
7
  6
CONTINUOUS
 10
19.4767170086
 20
1.0658141206
 11
19.4779056764
 21
1.2714536432
  0
CIRCLE
  5
21D
100
AcDbEntity
  8
0
100
AcDbCircle
 62
7
  6
CONTINUOUS
 10
20.2068232291
 20
1.1717972817
 40
0.175742101
  0
CIRCLE
  5
21E
100
AcDbEntity
  8
0
100
AcDbCircle
 62
7
  6
CONTINUOUS
 10
20.2068232291
 20
1.1717972817
 40
0.1005522074
  0
LINE
  5
21F
100
AcDbEntity
  8
0
100
AcDbLine
 62
7
  6
CONTINUOUS
 10
20.2077290681
 20
1.3756110529
 11
20.2071171714
 21
1.2379342989
  0
LINE
  5
220
100
AcDbEntity
  8
0
100
AcDbLine
 62
7
  6
CONTINUOUS
 10
20.2077290681
 20
1.2016899681
 11
20.2074674401
 21
1.1428236749
  0
LINE
  5
221
100
AcDbEntity
  8
0
100
AcDbLine
 62
7
  6
CONTINUOUS
 10
20.208634907
 20
1.101141841
 11
20.2080230104
 21
0.963465087
  0
LINE
  5
222
100
AcDbEntity
  8
0
100
AcDbLine
 62
7
  6
CONTINUOUS
 10
20.0066328138
 20
1.1745147986
 11
20.1443095678
 21
1.1739029019
  0
LINE
  5
223
100
AcDbEntity
  8
0
100
AcDbLine
 62
7
  6
CONTINUOUS
 10
20.1832714155
 20
1.1727031207
 11
20.238153505
 21
1.172335442
  0
LINE
  5
224
100
AcDbEntity
  8
0
100
AcDbLine
 62
7
  6
CONTINUOUS
 10
20.2756669918
 20
1.1717972817
 11
20.407916871
 21
1.1712095044
  0
CIRCLE
  5
225
100
AcDbEntity
  8
0
100
AcDbCircle
 62
7
  6
CONTINUOUS
 10
20.7509457401
 20
1.1693297793
 40
0.1722024983
  0
CIRCLE
  5
226
100
AcDbEntity
  8
0
100
AcDbCircle
 62
7
  6
CONTINUOUS
 10
20.7509457401
 20
1.1693297793
 40
0.0985164967
  0
LINE
  5
227
100
AcDbEntity
  8
0
100
AcDbLine
 62
7
  6
CONTINUOUS
 10
20.7169767782
 20
1.170462078
 11
20.7825395137
 21
1.1682766535
  0
LINE
  5
228
100
AcDbEntity
  8
0
100
AcDbLine
 62
7
  6
CONTINUOUS
 10
20.8177513651
 20
1.1693297793
 11
20.947965719
 21
1.1693297793
  0
LINE
  5
229
100
AcDbEntity
  8
0
100
AcDbLine
 62
7
  6
CONTINUOUS
 10
20.6875370113
 20
1.170462078
 11
20.5573226574
 21
1.170462078
  0
LINE
  5
22A
100
AcDbEntity
  8
0
100
AcDbLine
 62
7
  6
CONTINUOUS
 10
20.7486811426
 20
1.1987695462
 11
20.7486811426
 21
1.1432869085
  0
LINE
  5
22B
100
AcDbEntity
  8
0
100
AcDbLine
 62
7
  6
CONTINUOUS
 10
20.7498134414
 20
1.1059210505
 11
20.7498134414
 21
0.9757066966
  0
LINE
  5
22C
100
AcDbEntity
  8
0
100
AcDbLine
 62
7
  6
CONTINUOUS
 10
20.7486811426
 20
1.2338708068
 11
20.7486811426
 21
1.3640851607
  0
LINE
  5
22D
100
AcDbEntity
  8
0
100
AcDbLine
 62
7
  6
CONTINUOUS
 10
21.0702539817
 20
1.2701043662
 11
21.4790138229
 21
1.3448360823
  0
LINE
  5
22E
100
AcDbEntity
  8
0
100
AcDbLine
 62
7
  6
CONTINUOUS
 10
21.4790138229
 20
1.3448360823
 11
21.4790138229
 21
0.9779712941
  0
LINE
  5
22F
100
AcDbEntity
  8
0
100
AcDbLine
 62
7
  6
CONTINUOUS
 10
21.4790138229
 20
0.9779712941
 11
21.069121683
 21
1.0617614
  0
LINE
  5
230
100
AcDbEntity
  8
0
100
AcDbLine
 62
7
  6
CONTINUOUS
 10
21.0702539817
 20
1.2701043662
 11
21.069121683
 21
1.0617614
  0
LINE
  5
231
100
AcDbEntity
  8
0
100
AcDbLine
 62
7
  6
CONTINUOUS
 10
21.4790138229
 20
1.1693297793
 11
21.3159628059
 21
1.1693297793
  0
LINE
  5
232
100
AcDbEntity
  8
0
100
AcDbLine
 62
7
  6
CONTINUOUS
 10
21.2876553377
 20
1.1693297793
 11
21.2502894796
 21
1.1693297793
  0
LINE
  5
233
100
AcDbEntity
  8
0
100
AcDbLine
 62
7
  6
CONTINUOUS
 10
21.2208497126
 20
1.1659328831
 11
21.0713862804
 21
1.1659328831
  0
LINE
  5
234
100
AcDbEntity
  8
0
100
AcDbLine
 62
7
  6
CONTINUOUS
 10
20.4796138713
 20
1.5284908897
 11
20.4766766948
 21
0.9294458646
  0
ENDBLK
  5
235
100
AcDbEntity
  8
0
  6
BYBLOCK
 62
0
100
AcDbBlockEnd
  0
BLOCK
  5
236
100
AcDbEntity
  8
0
100
AcDbBlockBegin
  2
*T1
 70
1
 10
0.0
 20
0.0
  3
*T1
  1

  0
LINE
  5
237
100
AcDbEntity
  8
0
100
AcDbLine
 62
2
  6
CONTINUOUS
 10
9.275
 20
0.0
 11
-0.0
 21
0.0
  0
LINE
  5
238
100
AcDbEntity
  8
0
100
AcDbLine
 62
2
  6
CONTINUOUS
 10
9.275
 20
0.0
 11
9.275
 21
1.25
  0
LINE
  5
239
100
AcDbEntity
  8
0
100
AcDbLine
 62
2
  6
CONTINUOUS
 10
9.275
 20
0.625
 11
-0.0
 21
0.625
  0
LINE
  5
23A
100
AcDbEntity
  8
0
100
AcDbLine
 62
2
  6
CONTINUOUS
 10
9.275
 20
1.25
 11
-0.0
 21
1.25
  0
LINE
  5
23B
100
AcDbEntity
  8
0
100
AcDbLine
 62
2
  6
CONTINUOUS
 10
6.8
 20
0.0
 11
6.8
 21
1.25
  0
LINE
  5
23C
100
AcDbEntity
  8
0
100
AcDbLine
 62
2
  6
CONTINUOUS
 10
6.4
 20
0.0
 11
6.4
 21
0.625
  0
LINE
  5
23D
100
AcDbEntity
  8
0
100
AcDbLine
 62
2
  6
CONTINUOUS
 10
5.9
 20
0.0
 11
5.9
 21
0.625
  0
LINE
  5
23E
100
AcDbEntity
  8
0
100
AcDbLine
 62
2
  6
CONTINUOUS
 10
5.2
 20
0.0
 11
5.2
 21
0.625
  0
LINE
  5
23F
100
AcDbEntity
  8
0
100
AcDbLine
 62
2
  6
CONTINUOUS
 10
4.1
 20
0.0
 11
4.1
 21
1.25
  0
LINE
  5
240
100
AcDbEntity
  8
0
100
AcDbLine
 62
2
  6
CONTINUOUS
 10
-0.0
 20
0.0
 11
-0.0
 21
1.25
  0
MTEXT
  5
241
100
AcDbEntity
  8
0
100
AcDbMText
 62
2
  6
CONTINUOUS
  7
STANDARD
 71
2
 72
1
 10
6.6
 20
0.325
 30
0.0
 11
1.0
 21
0.0
 31
0.0
 44
0.9
  1
2
 40
0.125
 41
0.2
  0
MTEXT
  5
242
100
AcDbEntity
  8
0
100
AcDbMText
 62
2
  6
CONTINUOUS
  7
STANDARD
 71
2
 72
1
 10
6.15
 20
0.325
 30
0.0
 11
1.0
 21
0.0
 31
0.0
 44
0.9
  1
C
 40
0.125
 41
0.2
  0
MTEXT
  5
243
100
AcDbEntity
  8
0
100
AcDbMText
 62
2
  6
CONTINUOUS
  7
STANDARD
 71
2
 72
1
 10
5.55
 20
0.325
 30
0.0
 11
1.0
 21
0.0
 31
0.0
 44
0.9
  1
1.000
 40
0.125
 41
1.0
  0
MTEXT
  5
244
100
AcDbEntity
  8
0
100
AcDbMText
 62
2
  6
CONTINUOUS
  7
STANDARD
 71
2
 72
1
 10
4.65
 20
0.325
 30
0.0
 11
1.0
 21
0.0
 31
0.0
 44
0.9
  1
Mar-29-22
 40
0.125
 41
1.8
  0
MTEXT
  5
245
100
AcDbEntity
  8
0
100
AcDbMText
 62
2
  6
CONTINUOUS
  7
STANDARD
 71
2
 72
1
 10
2.05
 20
0.4625
 30
0.0
 11
1.0
 21
0.0
 31
0.0
 44
0.9
  1
T-2A Line mount\P(See Technical Data for Body Features)
 40
0.125
 41
7.6
  0
MTEXT
  5
246
100
AcDbEntity
  8
0
100
AcDbMText
 62
2
  6
CONTINUOUS
  7
STANDARD
 71
1
 72
1
 10
6.45
 20
0.5625
 30
0.0
 11
1.0
 21
0.0
 31
0.0
 44
0.9
  1
SHEET
 40
0.06
 41
0.48
  0
MTEXT
  5
247
100
AcDbEntity
  8
0
100
AcDbMText
 62
2
  6
CONTINUOUS
  7
STANDARD
 71
1
 72
1
 10
5.95
 20
0.5625
 30
0.0
 11
1.0
 21
0.0
 31
0.0
 44
0.9
  1
DWG SIZE
 40
0.06
 41
0.768
  0
MTEXT
  5
248
100
AcDbEntity
  8
0
100
AcDbMText
 62
2
  6
CONTINUOUS
  7
STANDARD
 71
1
 72
1
 10
5.25
 20
0.5625
 30
0.0
 11
1.0
 21
0.0
 31
0.0
 44
0.9
  1
SCALE
 40
0.06
 41
0.48
  0
MTEXT
  5
249
100
AcDbEntity
  8
0
100
AcDbMText
 62
2
  6
CONTINUOUS
  7
STANDARD
 71
1
 72
1
 10
4.15
 20
0.5625
 30
0.0
 11
1.0
 21
0.0
 31
0.0
 44
0.9
  1
DATE
 40
0.06
 41
0.384
  0
MTEXT
  5
24A
100
AcDbEntity
  8
0
100
AcDbMText
 62
2
  6
CONTINUOUS
  7
STANDARD
 71
1
 72
1
 10
0.05
 20
0.5625
 30
0.0
 11
1.0
 21
0.0
 31
0.0
 44
0.9
  1
DESCRIPTION
 40
0.06
 41
1.056
  0
MTEXT
  5
24B
100
AcDbEntity
  8
0
100
AcDbMText
 62
2
  6
CONTINUOUS
  7
STANDARD
 71
2
 72
1
 10
5.45
 20
1.0375
 30
0.0
 11
1.0
 21
0.0
 31
0.0
 44
0.9
  1
ALL DIMENSIONS IN INCH\PVIEWS ARE THIRD ANGLE
 40
0.12
 41
4.224
  0
MTEXT
  5
24C
100
AcDbEntity
  8
0
100
AcDbMText
 62
2
  6
CONTINUOUS
  7
STANDARD
 71
2
 72
1
 10
2.05
 20
0.95
 30
0.0
 11
1.0
 21
0.0
 31
0.0
 44
0.9
  1
W3F
 40
0.125
 41
0.6
  0
MTEXT
  5
24D
100
AcDbEntity
  8
0
100
AcDbMText
 62
2
  6
CONTINUOUS
  7
STANDARD
 71
1
 72
1
 10
0.05
 20
1.1875
 30
0.0
 11
1.0
 21
0.0
 31
0.0
 44
0.9
  1
MODEL
 40
0.06
 41
0.48
  0
ENDBLK
  5
24E
100
AcDbEntity
  8
0
  6
BYBLOCK
 62
0
100
AcDbBlockEnd
  0
BLOCK
  5
24F
100
AcDbEntity
  8
0
100
AcDbBlockBegin
  2
*T2
 70
1
 10
0.0
 20
0.0
  3
*T2
  1

  0
LINE
  5
250
100
AcDbEntity
  8
0
100
AcDbLine
 62
2
  6
CONTINUOUS
 10
0.0
 20
0.0
 11
9.055
 21
0.0
  0
LINE
  5
251
100
AcDbEntity
  8
0
100
AcDbLine
 62
2
  6
CONTINUOUS
 10
0.0
 20
0.0
 11
0.0
 21
-2.844
  0
LINE
  5
252
100
AcDbEntity
  8
0
100
AcDbLine
 62
2
  6
CONTINUOUS
 10
0.0
 20
-0.344
 11
9.055
 21
-0.344
  0
LINE
  5
253
100
AcDbEntity
  8
0
100
AcDbLine
 62
2
  6
CONTINUOUS
 10
0.0
 20
-0.594
 11
9.055
 21
-0.594
  0
LINE
  5
254
100
AcDbEntity
  8
0
100
AcDbLine
 62
2
  6
CONTINUOUS
 10
0.0
 20
-0.844
 11
9.055
 21
-0.844
  0
LINE
  5
255
100
AcDbEntity
  8
0
100
AcDbLine
 62
2
  6
CONTINUOUS
 10
0.0
 20
-1.094
 11
9.055
 21
-1.094
  0
LINE
  5
256
100
AcDbEntity
  8
0
100
AcDbLine
 62
2
  6
CONTINUOUS
 10
0.0
 20
-1.344
 11
9.055
 21
-1.344
  0
LINE
  5
257
100
AcDbEntity
  8
0
100
AcDbLine
 62
2
  6
CONTINUOUS
 10
0.0
 20
-1.594
 11
9.055
 21
-1.594
  0
LINE
  5
258
100
AcDbEntity
  8
0
100
AcDbLine
 62
2
  6
CONTINUOUS
 10
0.0
 20
-1.844
 11
9.055
 21
-1.844
  0
LINE
  5
259
100
AcDbEntity
  8
0
100
AcDbLine
 62
2
  6
CONTINUOUS
 10
0.0
 20
-2.094
 11
9.055
 21
-2.094
  0
LINE
  5
25A
100
AcDbEntity
  8
0
100
AcDbLine
 62
2
  6
CONTINUOUS
 10
0.0
 20
-2.344
 11
9.055
 21
-2.344
  0
LINE
  5
25B
100
AcDbEntity
  8
0
100
AcDbLine
 62
2
  6
CONTINUOUS
 10
0.0
 20
-2.594
 11
9.055
 21
-2.594
  0
LINE
  5
25C
100
AcDbEntity
  8
0
100
AcDbLine
 62
2
  6
CONTINUOUS
 10
0.0
 20
-2.844
 11
9.055
 21
-2.844
  0
LINE
  5
25D
100
AcDbEntity
  8
0
100
AcDbLine
 62
2
  6
CONTINUOUS
 10
3.055
 20
0.0
 11
3.055
 21
-2.844
  0
LINE
  5
25E
100
AcDbEntity
  8
0
100
AcDbLine
 62
2
  6
CONTINUOUS
 10
9.055
 20
0.0
 11
9.055
 21
-2.844
  0
MTEXT
  5
25F
100
AcDbEntity
  8
0
100
AcDbMText
 62
2
  6
CONTINUOUS
  7
STANDARD
 71
2
 72
1
 10
1.5275
 20
-0.0995
 30
0.0
 11
1.0
 21
0.0
 31
0.0
 44
0.9
  1
Technical Data
 40
0.145
 41
3.248
  0
MTEXT
  5
260
100
AcDbEntity
  8
0
100
AcDbMText
 62
2
  6
CONTINUOUS
  7
STANDARD
 71
2
 72
1
 10
4.555
 20
-0.0995
 30
0.0
 11
1.0
 21
0.0
 31
0.0
 44
0.9
  1
U.S. Units
 40
0.145
 41
2.32
  0
MTEXT
  5
261
100
AcDbEntity
  8
0
100
AcDbMText
 62
2
  6
CONTINUOUS
  7
STANDARD
 71
2
 72
1
 10
7.555
 20
-0.0995
 30
0.0
 11
1.0
 21
0.0
 31
0.0
 44
0.9
  1
Metric Units
 40
0.145
 41
2.784
  0
MTEXT
  5
262
100
AcDbEntity
  8
0
100
AcDbMText
 62
2
  6
CONTINUOUS
  7
STANDARD
 71
2
 72
1
 10
1.5275
 20
-0.4065
 30
0.0
 11
1.0
 21
0.0
 31
0.0
 44
0.9
  1
Cavity
 40
0.125
 41
1.2
  0
MTEXT
  5
263
100
AcDbEntity
  8
0
100
AcDbMText
 62
2
  6
CONTINUOUS
  7
STANDARD
 71
2
 72
1
 10
6.055
 20
-0.4065
 30
0.0
 11
1.0
 21
0.0
 31
0.0
 44
0.9
  1
T-2A
 40
0.125
 41
0.8
  0
MTEXT
  5
264
100
AcDbEntity
  8
0
100
AcDbMText
 62
2
  6
CONTINUOUS
  7
STANDARD
 71
2
 72
1
 10
1.5275
 20
-0.6565
 30
0.0
 11
1.0
 21
0.0
 31
0.0
 44
0.9
  1
Body Features
 40
0.125
 41
2.6
  0
MTEXT
  5
265
100
AcDbEntity
  8
0
100
AcDbMText
 62
2
  6
CONTINUOUS
  7
STANDARD
 71
2
 72
1
 10
6.055
 20
-0.6565
 30
0.0
 11
1.0
 21
0.0
 31
0.0
 44
0.9
  1
Ninety degree with reverse flow check - reducing
 40
0.125
 41
9.6
  0
MTEXT
  5
266
100
AcDbEntity
  8
0
100
AcDbMText
 62
2
  6
CONTINUOUS
  7
STANDARD
 71
2
 72
1
 10
1.5275
 20
-0.9065
 30
0.0
 11
1.0
 21
0.0
 31
0.0
 44
0.9
  1
Body Type
 40
0.125
 41
1.8
  0
MTEXT
  5
267
100
AcDbEntity
  8
0
100
AcDbMText
 62
2
  6
CONTINUOUS
  7
STANDARD
 71
2
 72
1
 10
6.055
 20
-0.9065
 30
0.0
 11
1.0
 21
0.0
 31
0.0
 44
0.9
  1
Line mount
 40
0.125
 41
2.0
  0
MTEXT
  5
268
100
AcDbEntity
  8
0
100
AcDbMText
 62
2
  6
CONTINUOUS
  7
STANDARD
 71
2
 72
1
 10
1.5275
 20
-1.1565
 30
0.0
 11
1.0
 21
0.0
 31
0.0
 44
0.9
  1
Interface
 40
0.125
 41
1.8
  0
MTEXT
  5
269
100
AcDbEntity
  8
0
100
AcDbMText
 62
2
  6
CONTINUOUS
  7
STANDARD
 71
2
 72
1
 10
6.055
 20
-1.1565
 30
0.0
 11
1.0
 21
0.0
 31
0.0
 44
0.9
  1
None
 40
0.125
 41
0.8
  0
MTEXT
  5
26A
100
AcDbEntity
  8
0
100
AcDbMText
 62
2
  6
CONTINUOUS
  7
STANDARD
 71
2
 72
1
 10
1.5275
 20
-1.4065
 30
0.0
 11
1.0
 21
0.0
 31
0.0
 44
0.9
  1
Open Cavity Quantity
 40
0.125
 41
4.0
  0
MTEXT
  5
26B
100
AcDbEntity
  8
0
100
AcDbMText
 62
2
  6
CONTINUOUS
  7
STANDARD
 71
2
 72
1
 10
6.055
 20
-1.4065
 30
0.0
 11
1.0
 21
0.0
 31
0.0
 44
0.9
  1
1
 40
0.125
 41
0.2
  0
MTEXT
  5
26C
100
AcDbEntity
  8
0
100
AcDbMText
 62
2
  6
CONTINUOUS
  7
STANDARD
 71
2
 72
1
 10
1.5275
 20
-1.6565
 30
0.0
 11
1.0
 21
0.0
 31
0.0
 44
0.9
  1
Weight
 40
0.125
 41
1.2
  0
MTEXT
  5
26D
100
AcDbEntity
  8
0
100
AcDbMText
 62
2
  6
CONTINUOUS
  7
STANDARD
 71
2
 72
1
 10
4.555
 20
-1.6565
 30
0.0
 11
1.0
 21
0.0
 31
0.0
 44
0.9
  1
1.948 lb.
 40
0.125
 41
1.8
  0
MTEXT
  5
26E
100
AcDbEntity
  8
0
100
AcDbMText
 62
2
  6
CONTINUOUS
  7
STANDARD
 71
2
 72
1
 10
7.555
 20
-1.6565
 30
0.0
 11
1.0
 21
0.0
 31
0.0
 44
0.9
  1
0,883 kg.
 40
0.125
 41
1.8
  0
MTEXT
  5
26F
100
AcDbEntity
  8
0
100
AcDbMText
 62
2
  6
CONTINUOUS
  7
STANDARD
 71
2
 72
1
 10
1.5275
 20
-1.9065
 30
0.0
 11
1.0
 21
0.0
 31
0.0
 44
0.9
  1
Mounting Hole Diameter
 40
0.125
 41
4.4
  0
MTEXT
  5
270
100
AcDbEntity
  8
0
100
AcDbMText
 62
2
  6
CONTINUOUS
  7
STANDARD
 71
2
 72
1
 10
4.555
 20
-1.9065
 30
0.0
 11
1.0
 21
0.0
 31
0.0
 44
0.9
  1
.42 in.
 40
0.125
 41
1.4
  0
MTEXT
  5
271
100
AcDbEntity
  8
0
100
AcDbMText
 62
2
  6
CONTINUOUS
  7
STANDARD
 71
2
 72
1
 10
7.555
 20
-1.9065
 30
0.0
 11
1.0
 21
0.0
 31
0.0
 44
0.9
  1
10,7 mm
 40
0.125
 41
1.4
  0
MTEXT
  5
272
100
AcDbEntity
  8
0
100
AcDbMText
 62
2
  6
CONTINUOUS
  7
STANDARD
 71
2
 72
1
 10
1.5275
 20
-2.1565
 30
0.0
 11
1.0
 21
0.0
 31
0.0
 44
0.9
  1
Mounting Hole Depth
 40
0.125
 41
3.8
  0
MTEXT
  5
273
100
AcDbEntity
  8
0
100
AcDbMText
 62
2
  6
CONTINUOUS
  7
STANDARD
 71
2
 72
1
 10
6.055
 20
-2.1565
 30
0.0
 11
1.0
 21
0.0
 31
0.0
 44
0.9
  1
Through
 40
0.125
 41
1.4
  0
MTEXT
  5
274
100
AcDbEntity
  8
0
100
AcDbMText
 62
2
  6
CONTINUOUS
  7
STANDARD
 71
2
 72
1
 10
1.5275
 20
-2.4065
 30
0.0
 11
1.0
 21
0.0
 31
0.0
 44
0.9
  1
Mounting Hole Quantity
 40
0.125
 41
4.4
  0
MTEXT
  5
275
100
AcDbEntity
  8
0
100
AcDbMText
 62
2
  6
CONTINUOUS
  7
STANDARD
 71
2
 72
1
 10
6.055
 20
-2.4065
 30
0.0
 11
1.0
 21
0.0
 31
0.0
 44
0.9
  1
2
 40
0.125
 41
0.2
  0
MTEXT
  5
276
100
AcDbEntity
  8
0
100
AcDbMText
 62
2
  6
CONTINUOUS
  7
STANDARD
 71
2
 72
1
 10
1.5275
 20
-2.6565
 30
0.0
 11
1.0
 21
0.0
 31
0.0
 44
0.9
  1
Includes integral cartridge(s)
 40
0.125
 41
6.0
  0
MTEXT
  5
277
100
AcDbEntity
  8
0
100
AcDbMText
 62
2
  6
CONTINUOUS
  7
STANDARD
 71
2
 72
1
 10
6.055
 20
-2.6565
 30
0.0
 11
1.0
 21
0.0
 31
0.0
 44
0.9
  1
Yes (see Included Components)
 40
0.125
 41
5.8
  0
ENDBLK
  5
278
100
AcDbEntity
  8
0
  6
BYBLOCK
 62
0
100
AcDbBlockEnd
  0
BLOCK
  5
279
100
AcDbEntity
  8
0
100
AcDbBlockBegin
  2
*T3
 70
1
 10
0.0
 20
0.0
  3
*T3
  1

  0
LINE
  5
27A
100
AcDbEntity
  8
0
100
AcDbLine
 62
2
  6
CONTINUOUS
 10
0.0
 20
0.0
 11
4.6
 21
0.0
  0
LINE
  5
27B
100
AcDbEntity
  8
0
100
AcDbLine
 62
2
  6
CONTINUOUS
 10
0.0
 20
0.0
 11
0.0
 21
-1.18775
  0
LINE
  5
27C
100
AcDbEntity
  8
0
100
AcDbLine
 62
2
  6
CONTINUOUS
 10
0.0
 20
-0.34375
 11
4.6
 21
-0.34375
  0
LINE
  5
27D
100
AcDbEntity
  8
0
100
AcDbLine
 62
2
  6
CONTINUOUS
 10
0.0
 20
-0.68775
 11
4.6
 21
-0.68775
  0
LINE
  5
27E
100
AcDbEntity
  8
0
100
AcDbLine
 62
2
  6
CONTINUOUS
 10
0.0
 20
-0.93775
 11
4.6
 21
-0.93775
  0
LINE
  5
27F
100
AcDbEntity
  8
0
100
AcDbLine
 62
2
  6
CONTINUOUS
 10
0.0
 20
-1.18775
 11
4.6
 21
-1.18775
  0
LINE
  5
280
100
AcDbEntity
  8
0
100
AcDbLine
 62
2
  6
CONTINUOUS
 10
1.3
 20
-0.34375
 11
1.3
 21
-1.18775
  0
LINE
  5
281
100
AcDbEntity
  8
0
100
AcDbLine
 62
2
  6
CONTINUOUS
 10
3.3
 20
-0.34375
 11
3.3
 21
-1.18775
  0
LINE
  5
282
100
AcDbEntity
  8
0
100
AcDbLine
 62
2
  6
CONTINUOUS
 10
4.6
 20
0.0
 11
4.6
 21
-1.18775
  0
MTEXT
  5
283
100
AcDbEntity
  8
0
100
AcDbMText
 62
2
  6
CONTINUOUS
  7
STANDARD
 71
2
 72
1
 10
2.3
 20
-0.099375
 30
0.0
 11
1.0
 21
0.0
 31
0.0
 44
0.9
  1
Port Headings
 40
0.145
 41
3.016
  0
MTEXT
  5
284
100
AcDbEntity
  8
0
100
AcDbMText
 62
2
  6
CONTINUOUS
  7
STANDARD
 71
2
 72
1
 10
0.65
 20
-0.44325
 30
0.0
 11
1.0
 21
0.0
 31
0.0
 44
0.9
  1
Product
 40
0.145
 41
1.624
  0
MTEXT
  5
285
100
AcDbEntity
  8
0
100
AcDbMText
 62
2
  6
CONTINUOUS
  7
STANDARD
 71
2
 72
1
 10
2.3
 20
-0.44325
 30
0.0
 11
1.0
 21
0.0
 31
0.0
 44
0.9
  1
Port
 40
0.145
 41
0.928
  0
MTEXT
  5
286
100
AcDbEntity
  8
0
100
AcDbMText
 62
2
  6
CONTINUOUS
  7
STANDARD
 71
2
 72
1
 10
3.95
 20
-0.44325
 30
0.0
 11
1.0
 21
0.0
 31
0.0
 44
0.9
  1
Size
 40
0.145
 41
0.928
  0
MTEXT
  5
287
100
AcDbEntity
  8
0
100
AcDbMText
 62
2
  6
CONTINUOUS
  7
STANDARD
 71
2
 72
1
 10
0.65
 20
-0.75025
 30
0.0
 11
1.0
 21
0.0
 31
0.0
 44
0.9
  1
W3F
 40
0.125
 41
0.6
  0
MTEXT
  5
288
100
AcDbEntity
  8
0
100
AcDbMText
 62
2
  6
CONTINUOUS
  7
STANDARD
 71
2
 72
1
 10
2.3
 20
-0.75025
 30
0.0
 11
1.0
 21
0.0
 31
0.0
 44
0.9
  1
Ports 1, 2, 3
 40
0.125
 41
2.6
  0
MTEXT
  5
289
100
AcDbEntity
  8
0
100
AcDbMText
 62
2
  6
CONTINUOUS
  7
STANDARD
 71
2
 72
1
 10
3.95
 20
-0.75025
 30
0.0
 11
1.0
 21
0.0
 31
0.0
 44
0.9
  1
SAE 8
 40
0.125
 41
1.0
  0
MTEXT
  5
28A
100
AcDbEntity
  8
0
100
AcDbMText
 62
2
  6
CONTINUOUS
  7
STANDARD
 71
2
 72
1
 10
0.65
 20
-1.00025
 30
0.0
 11
1.0
 21
0.0
 31
0.0
 44
0.9
  1
W3F
 40
0.125
 41
0.6
  0
MTEXT
  5
28B
100
AcDbEntity
  8
0
100
AcDbMText
 62
2
  6
CONTINUOUS
  7
STANDARD
 71
2
 72
1
 10
2.3
 20
-1.00025
 30
0.0
 11
1.0
 21
0.0
 31
0.0
 44
0.9
  1
Gage Port
 40
0.125
 41
1.8
  0
MTEXT
  5
28C
100
AcDbEntity
  8
0
100
AcDbMText
 62
2
  6
CONTINUOUS
  7
STANDARD
 71
2
 72
1
 10
3.95
 20
-1.00025
 30
0.0
 11
1.0
 21
0.0
 31
0.0
 44
0.9
  1
SAE 4
 40
0.125
 41
1.0
  0
ENDBLK
  5
28D
100
AcDbEntity
  8
0
  6
BYBLOCK
 62
0
100
AcDbBlockEnd
  0
ENDSEC
  0
SECTION
  2
ENTITIES
  0
IMAGE
  5
28E
100
AcDbEntity
  8
0
100
AcDbRasterImage
 62
7
  6
CONTINUOUS
 10
19.2297077316
 20
0.3094318264
 30
0.0
 11
0.0066666667
 21
0.0
 31
0.0
 12
0.0
 22
0.0066666667
 32
0.0
 13
369.0
 23
92.0
340
       3A3
 70
9
280
0
281
50
282
50
283
0
360
       39D
 71
1
 91
2
 14
-0.5
 24
-0.5
 14
368.5
 24
91.5
  0
INSERT
  5
28F
100
AcDbEntity
  8
0
100
AcDbBlockReference
 62
2
  6
CONTINUOUS
  2
SUN_FIRST_THIRD_ANGLE_BL0
 10
20.4816717061
 20
1.2289683772
  0
ACAD_TABLE
  5
290
100
AcDbEntity
  8
0
 62
2
  6
CONTINUOUS
100
AcDbBlockReference
  2
*T1
 10
12.42375
 20
0.30125
 30
0.0
100
AcDbTable
342
       3A5
343
20F
 11
1.0
 21
0.0
 31
0.0
 90
6
 91
4
 92
6
 93
20
 94
0
 95
0
 96
0
 70
1
 41
0.0
141
0.525
141
0.1
141
0.525
141
0.1
142
4.1
142
1.1
142
0.7
142
0.5
142
0.4
142
2.475
171
1
172
0
173
0
174
0
175
1
176
1
 91
33
178
0
145
0.0
301
CELL_VALUE
 90
4
  1
T-2A Line mount\P(See Technical Data for Body Features)
304
ACVALUE_END
170
2
140
0.125
171
1
172
0
173
0
174
0
175
1
176
1
 91
33
178
0
145
0.0
301
CELL_VALUE
 90
4
  1
Mar-29-22
304
ACVALUE_END
170
5
140
0.125
171
1
172
0
173
0
174
0
175
1
176
1
 91
33
178
0
145
0.0
301
CELL_VALUE
 90
4
  1
1.000
304
ACVALUE_END
170
5
140
0.125
171
1
172
0
173
0
174
0
175
1
176
1
 91
33
178
0
145
0.0
301
CELL_VALUE
 90
4
  1
C
304
ACVALUE_END
170
5
140
0.125
171
1
172
0
173
0
174
0
175
1
176
1
 91
33
178
0
145
0.0
301
CELL_VALUE
 90
4
  1
2
304
ACVALUE_END
170
5
140
0.125
171
1
172
0
173
0
174
0
175
1
176
1
 91
33
178
0
145
0.0
301
CELL_VALUE
 90
4
  1
 
304
ACVALUE_END
170
1
140
0.125
171
1
172
0
173
0
174
0
175
1
176
1
 91
33
178
0
145
0.0
301
CELL_VALUE
 90
4
  1
DESCRIPTION
304
ACVALUE_END
170
1
140
0.06
171
1
172
0
173
0
174
0
175
1
176
1
 91
33
178
0
145
0.0
301
CELL_VALUE
 90
4
  1
DATE
304
ACVALUE_END
170
1
140
0.06
171
1
172
0
173
0
174
0
175
1
176
1
 91
33
178
0
145
0.0
301
CELL_VALUE
 90
4
  1
SCALE
304
ACVALUE_END
170
1
140
0.06
171
1
172
0
173
0
174
0
175
1
176
1
 91
33
178
0
145
0.0
301
CELL_VALUE
 90
4
  1
DWG SIZE
304
ACVALUE_END
170
1
140
0.06
171
1
172
0
173
0
174
0
175
1
176
1
 91
33
178
0
145
0.0
301
CELL_VALUE
 90
4
  1
SHEET
304
ACVALUE_END
170
1
140
0.06
171
1
172
0
173
0
174
0
175
1
176
1
 91
33
178
0
145
0.0
301
CELL_VALUE
 90
4
  1
 
304
ACVALUE_END
170
1
140
0.125
171
1
172
0
173
0
174
0
175
1
176
1
 91
33
178
0
145
0.0
301
CELL_VALUE
 90
4
  1
W3F
304
ACVALUE_END
170
5
140
0.125
171
1
172
0
173
0
174
0
175
4
176
1
 91
33
178
0
145
0.0
301
CELL_VALUE
 90
4
  1
ALL DIMENSIONS IN INCH\PVIEWS ARE THIRD ANGLE
304
ACVALUE_END
170
5
140
0.12
171
1
172
0
173
1
174
0
175
1
176
1
 91
1
178
0
145
0.0
170
1
171
1
172
0
173
1
174
0
175
1
176
1
 91
1
178
0
145
0.0
170
1
171
1
172
0
173
1
174
0
175
1
176
1
 91
1
178
0
145
0.0
170
5
171
1
172
0
173
0
174
0
175
1
176
1
 91
33
178
0
145
0.0
301
CELL_VALUE
 90
4
  1
 
304
ACVALUE_END
170
1
140
0.125
171
1
172
0
173
0
174
0
175
1
176
1
 91
33
178
0
145
0.0
301
CELL_VALUE
 90
4
  1
MODEL
304
ACVALUE_END
170
1
140
0.06
171
1
172
0
173
0
174
0
175
1
176
1
 91
33
178
0
145
0.0
301
CELL_VALUE
 90
4
  1
 
304
ACVALUE_END
170
1
140
0.125
171
1
172
0
173
0
174
0
175
1
176
1
 91
33
178
0
145
0.0
301
CELL_VALUE
 90
4
  1
 
304
ACVALUE_END
170
1
140
0.125
171
1
172
0
173
0
174
0
175
1
176
1
 91
33
178
0
145
0.0
301
CELL_VALUE
 90
4
  1
 
304
ACVALUE_END
170
1
140
0.125
171
1
172
0
173
0
174
0
175
1
176
1
 91
33
178
0
145
0.0
301
CELL_VALUE
 90
4
  1
 
304
ACVALUE_END
170
1
140
0.125
171
1
172
0
173
0
174
0
175
1
176
1
 91
33
178
0
145
0.0
301
CELL_VALUE
 90
4
  1
 
304
ACVALUE_END
170
1
140
0.125
  0
ACAD_TABLE
  5
291
100
AcDbEntity
  8
0
 62
2
  6
CONTINUOUS
100
AcDbBlockReference
  2
*T2
 10
12.4237499994
 20
16.47875
 30
0.0
100
AcDbTable
342
       3A4
343
210
 11
1.0
 21
0.0
 31
0.0
 90
22
 91
11
 92
3
 93
16
 94
0
 95
0
 96
0
 41
0.028
141
0.344
141
0.25
141
0.25
141
0.25
141
0.25
141
0.25
141
0.25
141
0.25
141
0.25
141
0.25
141
0.25
142
3.055
142
3.0
142
3.0
171
1
172
0
173
0
174
0
175
1
176
1
 91
33
178
0
145
0.0
301
CELL_VALUE
 90
4
  1
Technical Data
304
ACVALUE_END
170
5
140
0.145
171
1
172
0
173
0
174
0
175
1
176
1
 91
33
178
0
145
0.0
301
CELL_VALUE
 90
4
  1
U.S. Units
304
ACVALUE_END
170
5
140
0.145
171
1
172
0
173
0
174
0
175
1
176
1
 91
33
178
0
145
0.0
301
CELL_VALUE
 90
4
  1
Metric Units
304
ACVALUE_END
170
5
140
0.145
171
1
172
0
173
0
174
0
175
1
176
1
 91
33
178
0
145
0.0
301
CELL_VALUE
 90
4
  1
Cavity
304
ACVALUE_END
170
5
140
0.125
171
1
172
0
173
0
174
0
175
2
176
1
 91
33
178
0
145
0.0
301
CELL_VALUE
 90
4
  1
T-2A
304
ACVALUE_END
170
5
140
0.125
171
1
172
0
173
1
174
0
175
1
176
1
 91
1
178
0
145
0.0
170
1
171
1
172
0
173
0
174
0
175
1
176
1
 91
33
178
0
145
0.0
301
CELL_VALUE
 90
4
  1
Body Features
304
ACVALUE_END
170
5
140
0.125
171
1
172
0
173
0
174
0
175
2
176
1
 91
33
178
0
145
0.0
301
CELL_VALUE
 90
4
  1
Ninety degree with reverse flow check - reducing
304
ACVALUE_END
170
5
140
0.125
171
1
172
0
173
1
174
0
175
1
176
1
 91
1
178
0
145
0.0
170
1
171
1
172
0
173
0
174
0
175
1
176
1
 91
33
178
0
145
0.0
301
CELL_VALUE
 90
4
  1
Body Type
304
ACVALUE_END
170
5
140
0.125
171
1
172
0
173
0
174
0
175
2
176
1
 91
33
178
0
145
0.0
301
CELL_VALUE
 90
4
  1
Line mount
304
ACVALUE_END
170
5
140
0.125
171
1
172
0
173
1
174
0
175
1
176
1
 91
1
178
0
145
0.0
170
1
171
1
172
0
173
0
174
0
175
1
176
1
 91
33
178
0
145
0.0
301
CELL_VALUE
 90
4
  1
Interface
304
ACVALUE_END
170
5
140
0.125
171
1
172
0
173
0
174
0
175
2
176
1
 91
33
178
0
145
0.0
301
CELL_VALUE
 90
4
  1
None
304
ACVALUE_END
170
5
140
0.125
171
1
172
0
173
1
174
0
175
1
176
1
 91
1
178
0
145
0.0
170
1
171
1
172
0
173
0
174
0
175
1
176
1
 91
33
178
0
145
0.0
301
CELL_VALUE
 90
4
  1
Open Cavity Quantity
304
ACVALUE_END
170
5
140
0.125
171
1
172
0
173
0
174
0
175
2
176
1
 91
33
178
0
145
0.0
301
CELL_VALUE
 90
4
  1
1
304
ACVALUE_END
170
5
140
0.125
171
1
172
0
173
1
174
0
175
1
176
1
 91
1
178
0
145
0.0
170
1
171
1
172
0
173
0
174
0
175
1
176
1
 91
33
178
0
145
0.0
301
CELL_VALUE
 90
4
  1
Weight
304
ACVALUE_END
170
5
140
0.125
171
1
172
0
173
0
174
0
175
1
176
1
 91
33
178
0
145
0.0
301
CELL_VALUE
 90
4
  1
1.948 lb.
304
ACVALUE_END
170
5
140
0.125
171
1
172
0
173
0
174
0
175
1
176
1
 91
33
178
0
145
0.0
301
CELL_VALUE
 90
4
  1
0,883 kg.
304
ACVALUE_END
170
5
140
0.125
171
1
172
0
173
0
174
0
175
1
176
1
 91
33
178
0
145
0.0
301
CELL_VALUE
 90
4
  1
Mounting Hole Diameter
304
ACVALUE_END
170
5
140
0.125
171
1
172
0
173
0
174
0
175
1
176
1
 91
33
178
0
145
0.0
301
CELL_VALUE
 90
4
  1
.42 in.
304
ACVALUE_END
170
5
140
0.125
171
1
172
0
173
0
174
0
175
1
176
1
 91
33
178
0
145
0.0
301
CELL_VALUE
 90
4
  1
10,7 mm
304
ACVALUE_END
170
5
140
0.125
171
1
172
0
173
0
174
0
175
1
176
1
 91
33
178
0
145
0.0
301
CELL_VALUE
 90
4
  1
Mounting Hole Depth
304
ACVALUE_END
170
5
140
0.125
171
1
172
0
173
0
174
0
175
2
176
1
 91
33
178
0
145
0.0
301
CELL_VALUE
 90
4
  1
Through
304
ACVALUE_END
170
5
140
0.125
171
1
172
0
173
1
174
0
175
1
176
1
 91
1
178
0
145
0.0
170
1
171
1
172
0
173
0
174
0
175
1
176
1
 91
33
178
0
145
0.0
301
CELL_VALUE
 90
4
  1
Mounting Hole Quantity
304
ACVALUE_END
170
5
140
0.125
171
1
172
0
173
0
174
0
175
2
176
1
 91
33
178
0
145
0.0
301
CELL_VALUE
 90
4
  1
2
304
ACVALUE_END
170
5
140
0.125
171
1
172
0
173
1
174
0
175
1
176
1
 91
1
178
0
145
0.0
170
1
171
1
172
0
173
0
174
0
175
1
176
1
 91
33
178
0
145
0.0
301
CELL_VALUE
 90
4
  1
Includes integral cartridge(s)
304
ACVALUE_END
170
5
140
0.125
171
1
172
0
173
0
174
0
175
2
176
1
 91
33
178
0
145
0.0
301
CELL_VALUE
 90
4
  1
Yes (see Included Components)
304
ACVALUE_END
170
5
140
0.125
171
1
172
0
173
1
174
0
175
1
176
1
 91
1
178
0
145
0.0
170
1
  0
ACAD_TABLE
  5
292
100
AcDbEntity
  8
0
 62
2
  6
CONTINUOUS
100
AcDbBlockReference
  2
*T3
 10
0.52125
 20
1.709
 30
0.0
100
AcDbTable
342
       3A4
343
211
 11
1.0
 21
0.0
 31
0.0
 90
22
 91
4
 92
3
 93
16
 94
0
 95
0
 96
0
 41
0.05
141
0.34375
141
0.344
141
0.25
141
0.25
142
1.3
142
2.0
142
1.3
171
1
172
0
173
0
174
0
175
3
176
1
 91
33
178
0
145
0.0
301
CELL_VALUE
 90
4
  1
Port Headings
304
ACVALUE_END
170
5
140
0.145
171
1
172
0
173
1
174
0
175
1
176
1
 91
1
178
0
145
0.0
170
1
171
1
172
0
173
1
174
0
175
1
176
1
 91
1
178
0
145
0.0
170
1
171
1
172
0
173
0
174
0
175
1
176
1
 91
33
178
0
145
0.0
301
CELL_VALUE
 90
4
  1
Product
304
ACVALUE_END
170
5
140
0.145
171
1
172
0
173
0
174
0
175
1
176
1
 91
33
178
0
145
0.0
301
CELL_VALUE
 90
4
  1
Port
304
ACVALUE_END
170
5
140
0.145
171
1
172
0
173
0
174
0
175
1
176
1
 91
33
178
0
145
0.0
301
CELL_VALUE
 90
4
  1
Size
304
ACVALUE_END
170
5
140
0.145
171
1
172
0
173
0
174
0
175
1
176
1
 91
33
178
0
145
0.0
301
CELL_VALUE
 90
4
  1
W3F
304
ACVALUE_END
170
5
140
0.125
171
1
172
0
173
0
174
0
175
1
176
1
 91
33
178
0
145
0.0
301
CELL_VALUE
 90
4
  1
Ports 1, 2, 3
304
ACVALUE_END
170
5
140
0.125
171
1
172
0
173
0
174
0
175
1
176
1
 91
33
178
0
145
0.0
301
CELL_VALUE
 90
4
  1
SAE 8
304
ACVALUE_END
170
5
140
0.125
171
1
172
0
173
0
174
0
175
1
176
1
 91
33
178
0
145
0.0
301
CELL_VALUE
 90
4
  1
W3F
304
ACVALUE_END
170
5
140
0.125
171
1
172
0
173
0
174
0
175
1
176
1
 91
33
178
0
145
0.0
301
CELL_VALUE
 90
4
  1
Gage Port
304
ACVALUE_END
170
5
140
0.125
171
1
172
0
173
0
174
0
175
1
176
1
 91
33
178
0
145
0.0
301
CELL_VALUE
 90
4
  1
SAE 4
304
ACVALUE_END
170
5
140
0.125
  0
MTEXT
  5
293
100
AcDbEntity
  8
0
100
AcDbMText
 62
2
  6
CONTINUOUS
  7
STANDARD
 71
1
 72
1
 10
0.52125
 20
5.75995
 30
0.0
 11
1.0
 21
0.0
 31
0.0
 44
0.6
  3
Notes\P \P1. Important: Carefully consider\P   the maximum system pressure. The\P   pressure rating of the manifold is\P   dependent on the manifold material,\P   with the port type/size a secondary\P   consideration. Manifolds\P   constructed of alu
  1
minum are not\P   rated for pressures higher than\P   3000 psi (210 bar), regardless of\P   the port type/size specified.
 40
0.1
 41
3.04
  0
LINE
  5
294
100
AcDbEntity
  8
0
100
AcDbLine
 62
7
  6
CONTINUOUS
 10
0.30125
 20
0.30125
 11
0.30125
 21
16.69875
  0
LINE
  5
295
100
AcDbEntity
  8
0
100
AcDbLine
 62
7
  6
CONTINUOUS
 10
0.30125
 20
0.30125
 11
21.69875
 21
0.30125
  0
LINE
  5
296
100
AcDbEntity
  8
0
100
AcDbLine
 62
7
  6
CONTINUOUS
 10
0.30125
 20
16.69875
 11
21.69875
 21
16.69875
  0
LINE
  5
297
100
AcDbEntity
  8
0
100
AcDbLine
 62
7
  6
CONTINUOUS
 10
21.69875
 20
0.30125
 11
21.69875
 21
16.69875
  0
LINE
  5
298
100
AcDbEntity
  8
0
100
AcDbLine
 62
7
  6
CONTINUOUS
 10
9.4433734597
 20
10.9566713866
 11
9.0551452125
 21
10.5816716739
  0
LINE
  5
299
100
AcDbEntity
  8
0
100
AcDbLine
 62
4
  6
CONTINUOUS
 10
9.301456247
 20
10.047819596
 11
9.294211803
 21
10.0386627436
  0
LINE
  5
29A
100
AcDbEntity
  8
0
100
AcDbLine
 62
4
  6
CONTINUOUS
 10
9.308700691
 20
9.9893616404
 11
9.294211803
 21
9.9710479312
  0
LINE
  5
29B
100
AcDbEntity
  8
0
100
AcDbLine
 62
4
  6
CONTINUOUS
 10
9.2507451393
 20
10.0706549428
 11
9.2652340272
 21
10.0793093913
  0
LINE
  5
29C
100
AcDbEntity
  8
0
100
AcDbLine
 62
4
  6
CONTINUOUS
 10
9.294211803
 20
10.0386627436
 11
9.2797229151
 21
10.0300082881
  0
LINE
  5
29D
100
AcDbEntity
  8
0
100
AcDbLine
 62
4
  6
CONTINUOUS
 10
9.294211803
 20
9.9710479312
 11
9.2797229151
 21
9.9623934801
  0
LINE
  5
29E
100
AcDbEntity
  8
0
100
AcDbLine
 62
7
  6
CONTINUOUS
 10
9.0551452125
 20
6.7179681398
 11
9.0551452125
 21
10.5816716739
  0
LINE
  5
29F
100
AcDbEntity
  8
0
100
AcDbLine
 62
7
  6
CONTINUOUS
 10
9.0551452125
 20
6.7179681398
 11
12.5566265403
 21
6.475139585
  0
LINE
  5
2A0
100
AcDbEntity
  8
0
100
AcDbLine
 62
7
  6
CONTINUOUS
 10
11.2739877806
 20
6.1296039888
 11
11.29320567
 21
6.1201107194
  0
LINE
  5
2A1
100
AcDbEntity
  8
0
100
AcDbLine
 62
4
  6
CONTINUOUS
 10
9.301456247
 20
10.0574788523
 11
9.301456247
 21
10.047819596
  0
LINE
  5
2A2
100
AcDbEntity
  8
0
100
AcDbLine
 62
4
  6
CONTINUOUS
 10
9.301456247
 20
7.873520414
 11
9.301456247
 21
7.7576093106
  0
LINE
  5
2A3
100
AcDbEntity
  8
0
100
AcDbLine
 62
4
  6
CONTINUOUS
 10
9.308700691
 20
9.9990209002
 11
9.308700691
 21
9.9893616404
  0
LINE
  5
2A4
100
AcDbEntity
  8
0
100
AcDbLine
 62
4
  6
CONTINUOUS
 10
10.2640704391
 20
9.1869329193
 11
10.2806291689
 21
9.2023432955
  0
LINE
  5
2A5
100
AcDbEntity
  8
0
100
AcDbLine
 62
4
  6
CONTINUOUS
 10
10.3054672627
 20
9.0847096644
 11
10.3220259908
 21
9.1001200425
  0
LINE
  5
2A6
100
AcDbEntity
  8
0
100
AcDbLine
 62
4
  6
CONTINUOUS
 10
10.3965402775
 20
9.0783937294
 11
10.4130989987
 21
9.093804108
  0
LINE
  5
2A7
100
AcDbEntity
  8
0
100
AcDbLine
 62
4
  6
CONTINUOUS
 10
10.2640704391
 20
9.1703741912
 11
10.2640704391
 21
9.1869329193
  0
LINE
  5
2A8
100
AcDbEntity
  8
0
100
AcDbLine
 62
4
  6
CONTINUOUS
 10
10.3220259908
 20
9.1001200425
 11
10.3220259908
 21
9.1166787723
  0
LINE
  5
2A9
100
AcDbEntity
  8
0
100
AcDbLine
 62
4
  6
CONTINUOUS
 10
10.3494858945
 20
8.1949371254
 11
10.3494858945
 21
8.1563000915
  0
LINE
  5
2AA
100
AcDbEntity
  8
0
100
AcDbLine
 62
4
  6
CONTINUOUS
 10
10.355143447
 20
9.1971757128
 11
10.355143447
 21
9.0978233392
  0
LINE
  5
2AB
100
AcDbEntity
  8
0
100
AcDbLine
 62
4
  6
CONTINUOUS
 10
10.3910207075
 20
8.4876298854
 11
10.3910207075
 21
8.6035409888
  0
LINE
  5
2AC
100
AcDbEntity
  8
0
100
AcDbLine
 62
4
  6
CONTINUOUS
 10
10.2770414548
 20
8.1999611644
 11
10.2842858988
 21
8.2284365363
  0
LINE
  5
2AD
100
AcDbEntity
  8
0
100
AcDbLine
 62
4
  6
CONTINUOUS
 10
10.7829106269
 20
9.1261131345
 11
10.7994693481
 21
9.1332441507
  0
LINE
  5
2AE
100
AcDbEntity
  8
0
100
AcDbLine
 62
4
  6
CONTINUOUS
 10
10.3132636746
 20
8.1394935932
 11
10.2987747867
 21
8.1501576599
  0
LINE
  5
2AF
100
AcDbEntity
  8
0
100
AcDbLine
 62
4
  6
CONTINUOUS
 10
10.2987747867
 20
8.1501576599
 11
10.2842858988
 21
8.1704809846
  0
LINE
  5
2B0
100
AcDbEntity
  8
0
100
AcDbLine
 62
4
  6
CONTINUOUS
 10
10.3422414505
 20
8.2437358247
 11
10.3494858945
 21
8.2335741576
  0
LINE
  5
2B1
100
AcDbEntity
  8
0
100
AcDbLine
 62
4
  6
CONTINUOUS
 10
10.2842858988
 20
8.1704809846
 11
10.2770414548
 21
8.1999611644
  0
LINE
  5
2B2
100
AcDbEntity
  8
0
100
AcDbLine
 62
4
  6
CONTINUOUS
 10
10.4130989987
 20
9.093804108
 11
10.4130989987
 21
9.1931564816
  0
LINE
  5
2B3
100
AcDbEntity
  8
0
100
AcDbLine
 62
4
  6
CONTINUOUS
 10
10.4462164548
 20
9.0749486748
 11
10.4462164548
 21
9.1908597782
  0
LINE
  5
2B4
100
AcDbEntity
  8
0
100
AcDbLine
 62
4
  6
CONTINUOUS
 10
10.4489762523
 20
8.5829630301
 11
10.4489762523
 21
8.5001693845
  0
LINE
  5
2B5
100
AcDbEntity
  8
0
100
AcDbLine
 62
4
  6
CONTINUOUS
 10
10.5041720066
 20
9.0709294436
 11
10.5041720066
 21
9.1868405471
  0
LINE
  5
2B6
100
AcDbEntity
  8
0
100
AcDbLine
 62
4
  6
CONTINUOUS
 10
10.4958926519
 20
8.4803569913
 11
10.5290101081
 21
8.5939713914
  0
LINE
  5
2B7
100
AcDbEntity
  8
0
100
AcDbLine
 62
4
  6
CONTINUOUS
 10
10.7277148528
 20
9.0278288128
 11
10.7608322952
 21
9.1359236395
  0
LINE
  5
2B8
100
AcDbEntity
  8
0
100
AcDbLine
 62
4
  6
CONTINUOUS
 10
10.2842858988
 20
8.2284365363
 11
10.2987747867
 21
8.2467502481
  0
LINE
  5
2B9
100
AcDbEntity
  8
0
100
AcDbLine
 62
4
  6
CONTINUOUS
 10
10.9402185609
 20
9.073806972
 11
10.956777282
 21
9.0809379848
  0
LINE
  5
2BA
100
AcDbEntity
  8
0
100
AcDbLine
 62
4
  6
CONTINUOUS
 10
10.3277525626
 20
8.1384887854
 11
10.3132636746
 21
8.1394935932
  0
LINE
  5
2BB
100
AcDbEntity
  8
0
100
AcDbLine
 62
4
  6
CONTINUOUS
 10
10.3277525626
 20
8.2543998888
 11
10.3422414505
 21
8.2437358247
  0
LINE
  5
2BC
100
AcDbEntity
  8
0
100
AcDbLine
 62
4
  6
CONTINUOUS
 10
9.2507451393
 20
9.9740623546
 11
9.2435006953
 21
9.9842240174
  0
LINE
  5
2BD
100
AcDbEntity
  8
0
100
AcDbLine
 62
4
  6
CONTINUOUS
 10
9.294211803
 20
10.019344224
 11
9.308700691
 21
9.9990209002
  0
LINE
  5
2BE
100
AcDbEntity
  8
0
100
AcDbLine
 62
4
  6
CONTINUOUS
 10
9.294211803
 20
10.0676405194
 11
9.301456247
 21
10.0574788523
  0
LINE
  5
2BF
100
AcDbEntity
  8
0
100
AcDbLine
 62
4
  6
CONTINUOUS
 10
10.5290101081
 20
8.5939713914
 11
10.562127578
 21
8.4757635836
  0
LINE
  5
2C0
100
AcDbEntity
  8
0
100
AcDbLine
 62
4
  6
CONTINUOUS
 10
10.6283624903
 20
8.4711701768
 11
10.6283624903
 21
8.5870812803
  0
LINE
  5
2C1
100
AcDbEntity
  8
0
100
AcDbLine
 62
4
  6
CONTINUOUS
 10
10.6283624706
 20
9.0623168057
 11
10.6283624706
 21
9.1782279091
  0
LINE
  5
2C2
100
AcDbEntity
  8
0
100
AcDbLine
 62
4
  6
CONTINUOUS
 10
10.6780386617
 20
9.1333860299
 11
10.6780386617
 21
9.0588717502
  0
LINE
  5
2C3
100
AcDbEntity
  8
0
100
AcDbLine
 62
4
  6
CONTINUOUS
 10
10.6945974026
 20
8.4665767701
 11
10.6945974026
 21
8.5824878735
  0
LINE
  5
2C4
100
AcDbEntity
  8
0
100
AcDbLine
 62
4
  6
CONTINUOUS
 10
10.7829106269
 20
9.0598782196
 11
10.7829106269
 21
9.1261131345
  0
LINE
  5
2C5
100
AcDbEntity
  8
0
100
AcDbLine
 62
4
  6
CONTINUOUS
 10
10.7359942246
 20
8.7187103183
 11
10.7608323202
 21
8.8328988939
  0
LINE
  5
2C6
100
AcDbEntity
  8
0
100
AcDbLine
 62
4
  6
CONTINUOUS
 10
10.6863180386
 20
8.7221553735
 11
10.7111561325
 21
8.8032264931
  0
LINE
  5
2C7
100
AcDbEntity
  8
0
100
AcDbLine
 62
4
  6
CONTINUOUS
 10
10.3494858945
 20
8.1563000915
 11
10.3422414505
 21
8.1471432365
  0
LINE
  5
2C8
100
AcDbEntity
  8
0
100
AcDbLine
 62
7
  6
CONTINUOUS
 10
12.5566265403
 20
10.3388431191
 11
12.9448547875
 21
10.7138428318
  0
LINE
  5
2C9
100
AcDbEntity
  8
0
100
AcDbLine
 62
4
  6
CONTINUOUS
 10
10.4489762523
 20
8.5001693845
 11
10.4324175242
 21
8.4847590064
  0
LINE
  5
2CA
100
AcDbEntity
  8
0
100
AcDbLine
 62
4
  6
CONTINUOUS
 10
11.2244767089
 20
9.0954904227
 11
11.2327560418
 21
9.1031956165
  0
LINE
  5
2CB
100
AcDbEntity
  8
0
100
AcDbLine
 62
4
  6
CONTINUOUS
 10
10.8601846955
 20
8.7100976799
 11
10.8684640561
 21
8.7178028692
  0
LINE
  5
2CC
100
AcDbEntity
  8
0
100
AcDbLine
 62
4
  6
CONTINUOUS
 10
11.298991037
 20
9.0903228365
 11
11.30727037
 21
9.0980280303
  0
LINE
  5
2CD
100
AcDbEntity
  8
0
100
AcDbLine
 62
4
  6
CONTINUOUS
 10
10.8519053349
 20
8.7769067747
 11
10.8657042646
 21
8.7842291762
  0
LINE
  5
2CE
100
AcDbEntity
  8
0
100
AcDbLine
 62
4
  6
CONTINUOUS
 10
10.3689423999
 20
8.5609155165
 11
10.3247857882
 21
8.5418994803
  0
LINE
  5
2CF
100
AcDbEntity
  8
0
100
AcDbLine
 62
4
  6
CONTINUOUS
 10
10.3205081186
 20
8.196946741
 11
10.3494858945
 21
8.1949371254
  0
LINE
  5
2D0
100
AcDbEntity
  8
0
100
AcDbLine
 62
4
  6
CONTINUOUS
 10
10.3132636746
 20
8.2554046966
 11
10.3277525626
 21
8.2543998888
  0
LINE
  5
2D1
100
AcDbEntity
  8
0
100
AcDbLine
 62
4
  6
CONTINUOUS
 10
10.3247857882
 20
8.5418994803
 11
10.3689423999
 21
8.5167589031
  0
LINE
  5
2D2
100
AcDbEntity
  8
0
100
AcDbLine
 62
4
  6
CONTINUOUS
 10
10.4324175242
 20
8.6006701098
 11
10.4489762523
 21
8.5829630301
  0
LINE
  5
2D3
100
AcDbEntity
  8
0
100
AcDbLine
 62
4
  6
CONTINUOUS
 10
10.4462164548
 20
9.1908597782
 11
10.5041720066
 21
9.0709294436
  0
LINE
  5
2D4
100
AcDbEntity
  8
0
100
AcDbLine
 62
4
  6
CONTINUOUS
 10
10.7111561325
 20
8.8032264931
 11
10.7359942246
 21
8.7187103183
  0
LINE
  5
2D5
100
AcDbEntity
  8
0
100
AcDbLine
 62
4
  6
CONTINUOUS
 10
10.6614799448
 20
8.8397890046
 11
10.6863180386
 21
8.7221553735
  0
LINE
  5
2D6
100
AcDbEntity
  8
0
100
AcDbLine
 62
4
  6
CONTINUOUS
 10
10.8325867904
 20
9.1640649045
 11
10.8325867904
 21
9.048153801
  0
LINE
  5
2D7
100
AcDbEntity
  8
0
100
AcDbLine
 62
4
  6
CONTINUOUS
 10
10.8657042646
 20
8.7842291762
 11
10.8657042646
 21
8.8090672718
  0
LINE
  5
2D8
100
AcDbEntity
  8
0
100
AcDbLine
 62
4
  6
CONTINUOUS
 10
10.865704288
 20
9.0458570948
 11
10.865704288
 21
9.1286507421
  0
LINE
  5
2D9
100
AcDbEntity
  8
0
100
AcDbLine
 62
4
  6
CONTINUOUS
 10
10.8684640561
 20
8.7178028692
 11
10.8684640561
 21
8.7591996919
  0
LINE
  5
2DA
100
AcDbEntity
  8
0
100
AcDbLine
 62
4
  6
CONTINUOUS
 10
10.8684640854
 20
8.4710778045
 11
10.8684640854
 21
8.55387145
  0
LINE
  5
2DB
100
AcDbEntity
  8
0
100
AcDbLine
 62
4
  6
CONTINUOUS
 10
10.9015815123
 20
8.7072268009
 11
10.9015815123
 21
8.8231379043
  0
LINE
  5
2DC
100
AcDbEntity
  8
0
100
AcDbLine
 62
4
  6
CONTINUOUS
 10
10.9043412856
 20
9.1176918897
 11
10.9043412856
 21
9.1011331616
  0
LINE
  5
2DD
100
AcDbEntity
  8
0
100
AcDbLine
 62
4
  6
CONTINUOUS
 10
10.9402185609
 20
9.0489688773
 11
10.9402185609
 21
9.073806972
  0
LINE
  5
2DE
100
AcDbEntity
  8
0
100
AcDbLine
 62
4
  6
CONTINUOUS
 10
10.9650566348
 20
8.4643790884
 11
10.9650566348
 21
8.547172734
  0
LINE
  5
2DF
100
AcDbEntity
  8
0
100
AcDbLine
 62
4
  6
CONTINUOUS
 10
10.9898947244
 20
9.0372444588
 11
10.9898947244
 21
9.103479378
  0
LINE
  5
2E0
100
AcDbEntity
  8
0
100
AcDbLine
 62
4
  6
CONTINUOUS
 10
11.0230121667
 20
9.1177414036
 11
11.0230121667
 21
9.0432271212
  0
LINE
  5
2E1
100
AcDbEntity
  8
0
100
AcDbLine
 62
4
  6
CONTINUOUS
 10
11.0230121865
 20
8.5431535028
 11
11.0230121865
 21
8.4603598573
  0
LINE
  5
2E2
100
AcDbEntity
  8
0
100
AcDbLine
 62
4
  6
CONTINUOUS
 10
11.1830798783
 20
9.1397581263
 11
11.1803201007
 21
9.13167015
  0
LINE
  5
2E3
100
AcDbEntity
  8
0
100
AcDbLine
 62
4
  6
CONTINUOUS
 10
11.3403878123
 20
9.0129376805
 11
11.3486671453
 21
9.0206428718
  0
LINE
  5
2E4
100
AcDbEntity
  8
0
100
AcDbLine
 62
4
  6
CONTINUOUS
 10
10.8684640854
 20
8.55387145
 11
10.8850228066
 21
8.5692818269
  0
LINE
  5
2E5
100
AcDbEntity
  8
0
100
AcDbLine
 62
4
  6
CONTINUOUS
 10
10.9650566348
 20
8.547172734
 11
10.9816153559
 21
8.5625831108
  0
LINE
  5
2E6
100
AcDbEntity
  8
0
100
AcDbLine
 62
4
  6
CONTINUOUS
 10
10.2987747867
 20
8.2467502481
 11
10.3132636746
 21
8.2554046966
  0
LINE
  5
2E7
100
AcDbEntity
  8
0
100
AcDbLine
 62
4
  6
CONTINUOUS
 10
10.3422414505
 20
8.1471432365
 11
10.3277525626
 21
8.1384887854
  0
LINE
  5
2E8
100
AcDbEntity
  8
0
100
AcDbLine
 62
4
  6
CONTINUOUS
 10
11.0975264594
 20
8.4386335451
 11
11.0561296288
 21
8.441504425
  0
LINE
  5
2E9
100
AcDbEntity
  8
0
100
AcDbLine
 62
4
  6
CONTINUOUS
 10
11.0064534653
 20
8.4449494787
 11
10.9816153559
 21
8.4466720074
  0
LINE
  5
2EA
100
AcDbEntity
  8
0
100
AcDbLine
 62
4
  6
CONTINUOUS
 10
10.9181402489
 20
8.451074021
 11
10.8850228066
 21
8.4533707235
  0
LINE
  5
2EB
100
AcDbEntity
  8
0
100
AcDbLine
 62
4
  6
CONTINUOUS
 10
10.4324175242
 20
8.4847590064
 11
10.3910207075
 21
8.4876298854
  0
LINE
  5
2EC
100
AcDbEntity
  8
0
100
AcDbLine
 62
4
  6
CONTINUOUS
 10
10.6945974026
 20
8.4665767701
 11
10.7442735938
 21
8.4631317145
  0
LINE
  5
2ED
100
AcDbEntity
  8
0
100
AcDbLine
 62
4
  6
CONTINUOUS
 10
11.1610016217
 20
8.4342315276
 11
11.2106777852
 21
8.430786474
  0
LINE
  5
2EE
100
AcDbEntity
  8
0
100
AcDbLine
 62
4
  6
CONTINUOUS
 10
10.506931804
 20
8.5127088831
 11
10.5510884122
 21
8.509646612
  0
LINE
  5
2EF
100
AcDbEntity
  8
0
100
AcDbLine
 62
4
  6
CONTINUOUS
 10
11.194119064
 20
8.4981697444
 11
11.1610016217
 21
8.5004664468
  0
LINE
  5
2F0
100
AcDbEntity
  8
0
100
AcDbLine
 62
4
  6
CONTINUOUS
 10
10.7277148726
 20
8.5305149849
 11
10.6945974026
 21
8.5328116893
  0
LINE
  5
2F1
100
AcDbEntity
  8
0
100
AcDbLine
 62
4
  6
CONTINUOUS
 10
10.3220259908
 20
9.1166787723
 11
10.2640704391
 21
9.1703741912
  0
LINE
  5
2F2
100
AcDbEntity
  8
0
100
AcDbLine
 62
4
  6
CONTINUOUS
 10
10.2640704391
 20
9.0958599088
 11
10.272349804
 21
9.087006368
  0
LINE
  5
2F3
100
AcDbEntity
  8
0
100
AcDbLine
 62
4
  6
CONTINUOUS
 10
10.8850228066
 20
8.4533707235
 11
10.8684640854
 21
8.4710778045
  0
LINE
  5
2F4
100
AcDbEntity
  8
0
100
AcDbLine
 62
4
  6
CONTINUOUS
 10
10.355143447
 20
9.0978233392
 11
10.371702175
 21
9.0801162577
  0
LINE
  5
2F5
100
AcDbEntity
  8
0
100
AcDbLine
 62
4
  6
CONTINUOUS
 10
10.9816153559
 20
8.4466720074
 11
10.9650566348
 21
8.4643790884
  0
LINE
  5
2F6
100
AcDbEntity
  8
0
100
AcDbLine
 62
4
  6
CONTINUOUS
 10
10.3137466268
 20
9.200046592
 11
10.3220259908
 21
9.1911930487
  0
LINE
  5
2F7
100
AcDbEntity
  8
0
100
AcDbLine
 62
4
  6
CONTINUOUS
 10
10.7111561317
 20
9.1393686931
 11
10.735994241
 21
9.0548525171
  0
LINE
  5
2F8
100
AcDbEntity
  8
0
100
AcDbLine
 62
4
  6
CONTINUOUS
 10
11.0561296288
 20
8.441504425
 11
11.0561296288
 21
8.5574155285
  0
LINE
  5
2F9
100
AcDbEntity
  8
0
100
AcDbLine
 62
4
  6
CONTINUOUS
 10
11.0726883855
 20
9.0315026989
 11
11.0726883855
 21
9.1142963461
  0
LINE
  5
2FA
100
AcDbEntity
  8
0
100
AcDbLine
 62
4
  6
CONTINUOUS
 10
11.1058058278
 20
9.0374853613
 11
11.1058058278
 21
9.1451170999
  0
LINE
  5
2FB
100
AcDbEntity
  8
0
100
AcDbLine
 62
4
  6
CONTINUOUS
 10
11.1140851805
 20
8.5368375692
 11
11.1140851805
 21
8.4540439237
  0
LINE
  5
2FC
100
AcDbEntity
  8
0
100
AcDbLine
 62
4
  6
CONTINUOUS
 10
11.1610016217
 20
8.4342315276
 11
11.1610016217
 21
8.5501426311
  0
LINE
  5
2FD
100
AcDbEntity
  8
0
100
AcDbLine
 62
7
  6
CONTINUOUS
 10
11.1657875035
 20
6.5715945998
 11
11.1657875035
 21
6.2662836504
  0
LINE
  5
2FE
100
AcDbEntity
  8
0
100
AcDbLine
 62
4
  6
CONTINUOUS
 10
11.1803201007
 20
9.0240384141
 11
11.1803201007
 21
9.1068320613
  0
LINE
  5
2FF
100
AcDbEntity
  8
0
100
AcDbLine
 62
4
  6
CONTINUOUS
 10
11.1803201007
 20
9.13167015
 11
11.1803201007
 21
9.1399495175
  0
LINE
  5
300
100
AcDbEntity
  8
0
100
AcDbLine
 62
4
  6
CONTINUOUS
 10
11.2244767089
 20
9.0292555078
 11
11.2244767089
 21
9.0954904227
  0
LINE
  5
301
100
AcDbEntity
  8
0
100
AcDbLine
 62
4
  6
CONTINUOUS
 10
11.0230121865
 20
8.4603598573
 11
11.0064534653
 21
8.4449494787
  0
LINE
  5
302
100
AcDbEntity
  8
0
100
AcDbLine
 62
4
  6
CONTINUOUS
 10
11.1140851805
 20
8.4540439237
 11
11.0975264594
 21
8.4386335451
  0
LINE
  5
303
100
AcDbEntity
  8
0
100
AcDbLine
 62
4
  6
CONTINUOUS
 10
11.2879518357
 20
8.4751036881
 11
11.2437952275
 21
8.4560876534
  0
LINE
  5
304
100
AcDbEntity
  8
0
100
AcDbLine
 62
4
  6
CONTINUOUS
 10
10.3910207075
 20
8.6035409888
 11
10.4324175242
 21
8.6006701098
  0
LINE
  5
305
100
AcDbEntity
  8
0
100
AcDbLine
 62
4
  6
CONTINUOUS
 10
10.5952450204
 20
8.5893779846
 11
10.6614799327
 21
8.5847845778
  0
LINE
  5
306
100
AcDbEntity
  8
0
100
AcDbLine
 62
4
  6
CONTINUOUS
 10
10.6945974026
 20
8.5824878735
 11
10.7442735938
 21
8.5790428179
  0
LINE
  5
307
100
AcDbEntity
  8
0
100
AcDbLine
 62
4
  6
CONTINUOUS
 10
10.8850228066
 20
8.5692818269
 11
10.9181402489
 21
8.5669851245
  0
LINE
  5
308
100
AcDbEntity
  8
0
100
AcDbLine
 62
4
  6
CONTINUOUS
 10
10.9816153559
 20
8.5625831108
 11
11.0064534653
 21
8.5608605821
  0
LINE
  5
309
100
AcDbEntity
  8
0
100
AcDbLine
 62
4
  6
CONTINUOUS
 10
11.0561296288
 20
8.5574155285
 11
11.0975264594
 21
8.5545446485
  0
LINE
  5
30A
100
AcDbEntity
  8
0
100
AcDbLine
 62
4
  6
CONTINUOUS
 10
11.1610016217
 20
8.5501426311
 11
11.2106777852
 21
8.5466975774
  0
LINE
  5
30B
100
AcDbEntity
  8
0
100
AcDbLine
 62
4
  6
CONTINUOUS
 10
10.818787865
 20
8.7129685598
 11
10.8601846955
 21
8.7100976799
  0
LINE
  5
30C
100
AcDbEntity
  8
0
100
AcDbLine
 62
4
  6
CONTINUOUS
 10
11.2437952275
 20
8.5002442668
 11
11.2879518357
 21
8.4751036881
  0
LINE
  5
30D
100
AcDbEntity
  8
0
100
AcDbLine
 62
4
  6
CONTINUOUS
 10
9.2652340272
 20
9.9633982879
 11
9.2507451393
 21
9.9740623546
  0
LINE
  5
30E
100
AcDbEntity
  8
0
100
AcDbLine
 62
4
  6
CONTINUOUS
 10
9.2797229151
 20
10.0300082881
 11
9.294211803
 21
10.019344224
  0
LINE
  5
30F
100
AcDbEntity
  8
0
100
AcDbLine
 62
4
  6
CONTINUOUS
 10
11.0064534653
 20
8.5608605821
 11
11.0230121865
 21
8.5431535028
  0
LINE
  5
310
100
AcDbEntity
  8
0
100
AcDbLine
 62
4
  6
CONTINUOUS
 10
10.8684640561
 20
8.7591996919
 11
10.8519053349
 21
8.7769067747
  0
LINE
  5
311
100
AcDbEntity
  8
0
100
AcDbLine
 62
4
  6
CONTINUOUS
 10
11.0975264594
 20
8.5545446485
 11
11.1140851805
 21
8.5368375692
  0
LINE
  5
312
100
AcDbEntity
  8
0
100
AcDbLine
 62
4
  6
CONTINUOUS
 10
10.6697593011
 20
9.142239573
 11
10.6780386617
 21
9.1333860299
  0
LINE
  5
313
100
AcDbEntity
  8
0
100
AcDbLine
 62
4
  6
CONTINUOUS
 10
10.8657042646
 20
8.8090672718
 11
10.8519053349
 21
8.8265829589
  0
LINE
  5
314
100
AcDbEntity
  8
0
100
AcDbLine
 62
4
  6
CONTINUOUS
 10
11.298991037
 20
9.0654847443
 11
11.298991037
 21
9.0903228365
  0
LINE
  5
315
100
AcDbEntity
  8
0
100
AcDbLine
 62
7
  6
CONTINUOUS
 10
11.317207443
 20
6.5044269117
 11
11.317207443
 21
6.1200234704
  0
LINE
  5
316
100
AcDbEntity
  8
0
100
AcDbLine
 62
4
  6
CONTINUOUS
 10
11.3486671453
 20
9.0206428718
 11
11.3486671453
 21
9.0454809665
  0
LINE
  5
317
100
AcDbEntity
  8
0
100
AcDbLine
 62
7
  6
CONTINUOUS
 10
11.3566802209
 20
6.4942106179
 11
11.3566802209
 21
6.1098071766
  0
LINE
  5
318
100
AcDbEntity
  8
0
100
AcDbLine
 62
4
  6
CONTINUOUS
 10
12.2625021023
 20
8.9567163002
 11
12.2769909903
 21
8.9653707487
  0
LINE
  5
319
100
AcDbEntity
  8
0
100
AcDbLine
 62
4
  6
CONTINUOUS
 10
12.3059687661
 20
8.9150648377
 11
12.2769909903
 21
8.8977559372
  0
LINE
  5
31A
100
AcDbEntity
  8
0
100
AcDbLine
 62
4
  6
CONTINUOUS
 10
10.9512577034
 20
8.7700166645
 11
10.9015815123
 21
8.7734617201
  0
LINE
  5
31B
100
AcDbEntity
  8
0
100
AcDbLine
 62
4
  6
CONTINUOUS
 10
10.8519053349
 20
8.7769067747
 11
10.8353466
 21
8.7780551268
  0
LINE
  5
31C
100
AcDbEntity
  8
0
100
AcDbLine
 62
4
  6
CONTINUOUS
 10
10.8519053349
 20
8.8265829589
 11
10.818787865
 21
8.8288796632
  0
LINE
  5
31D
100
AcDbEntity
  8
0
100
AcDbLine
 62
4
  6
CONTINUOUS
 10
10.9015815123
 20
8.8231379043
 11
10.9512577034
 21
8.8196928487
  0
LINE
  5
31E
100
AcDbEntity
  8
0
100
AcDbLine
 62
4
  6
CONTINUOUS
 10
12.2552576584
 20
8.8509668569
 11
12.3132132101
 21
8.8469476258
  0
LINE
  5
31F
100
AcDbEntity
  8
0
100
AcDbLine
 62
4
  6
CONTINUOUS
 10
10.7994693481
 20
9.0504505035
 11
10.7829106269
 21
9.0598782196
  0
LINE
  5
320
100
AcDbEntity
  8
0
100
AcDbLine
 62
4
  6
CONTINUOUS
 10
9.2797229151
 20
10.0783045835
 11
9.294211803
 21
10.0676405194
  0
LINE
  5
321
100
AcDbEntity
  8
0
100
AcDbLine
 62
4
  6
CONTINUOUS
 10
11.0230121667
 20
9.0432271212
 11
11.0312915549
 21
9.0343735788
  0
LINE
  5
322
100
AcDbEntity
  8
0
100
AcDbLine
 62
4
  6
CONTINUOUS
 10
11.114085216
 20
9.0286318189
 11
11.1058058278
 21
9.0374853613
  0
LINE
  5
323
100
AcDbEntity
  8
0
100
AcDbLine
 62
4
  6
CONTINUOUS
 10
10.8988217303
 20
9.1263540396
 11
10.9043412856
 21
9.1176918897
  0
LINE
  5
324
100
AcDbEntity
  8
0
100
AcDbLine
 62
4
  6
CONTINUOUS
 10
10.9898947244
 20
9.103479378
 11
10.9816153914
 21
9.1206122797
  0
LINE
  5
325
100
AcDbEntity
  8
0
100
AcDbLine
 62
4
  6
CONTINUOUS
 10
10.7111561317
 20
9.028977164
 11
10.7277148528
 21
9.0278288128
  0
LINE
  5
326
100
AcDbEntity
  8
0
100
AcDbLine
 62
4
  6
CONTINUOUS
 10
11.2658735947
 20
9.0181052591
 11
11.2327560418
 21
9.0204019692
  0
LINE
  5
327
100
AcDbEntity
  8
0
100
AcDbLine
 62
4
  6
CONTINUOUS
 10
11.1306439372
 20
9.0274834677
 11
11.114085216
 21
9.0286318189
  0
LINE
  5
328
100
AcDbEntity
  8
0
100
AcDbLine
 62
4
  6
CONTINUOUS
 10
10.9898947244
 20
9.0372444588
 11
10.956777282
 21
9.0395411612
  0
LINE
  5
329
100
AcDbEntity
  8
0
100
AcDbLine
 62
4
  6
CONTINUOUS
 10
10.8325867904
 20
9.048153801
 11
10.7994693481
 21
9.0504505035
  0
LINE
  5
32A
100
AcDbEntity
  8
0
100
AcDbLine
 62
4
  6
CONTINUOUS
 10
10.272349804
 20
9.087006368
 11
10.3054672627
 21
9.0847096644
  0
LINE
  5
32B
100
AcDbEntity
  8
0
100
AcDbLine
 62
4
  6
CONTINUOUS
 10
10.371702175
 20
9.0801162577
 11
10.3965402775
 21
9.0783937294
  0
LINE
  5
32C
100
AcDbEntity
  8
0
100
AcDbLine
 62
4
  6
CONTINUOUS
 10
11.0312915549
 20
9.0343735788
 11
11.0726883855
 21
9.0315026989
  0
LINE
  5
32D
100
AcDbEntity
  8
0
100
AcDbLine
 62
4
  6
CONTINUOUS
 10
11.30727037
 20
9.015234383
 11
11.3403878123
 21
9.0129376805
  0
LINE
  5
32E
100
AcDbEntity
  8
0
100
AcDbLine
 62
4
  6
CONTINUOUS
 10
12.2769909903
 20
8.9653707487
 11
12.2914798782
 21
8.9643659409
  0
LINE
  5
32F
100
AcDbEntity
  8
0
100
AcDbLine
 62
4
  6
CONTINUOUS
 10
10.956777282
 20
9.0809379848
 11
10.9898947244
 21
9.0786412824
  0
LINE
  5
330
100
AcDbEntity
  8
0
100
AcDbLine
 62
4
  6
CONTINUOUS
 10
10.9816153914
 20
9.1206122797
 11
10.9402185609
 21
9.1234831597
  0
LINE
  5
331
100
AcDbEntity
  8
0
100
AcDbLine
 62
4
  6
CONTINUOUS
 10
10.6283624706
 20
9.145110453
 11
10.6697593011
 21
9.142239573
  0
LINE
  5
332
100
AcDbEntity
  8
0
100
AcDbLine
 62
4
  6
CONTINUOUS
 10
10.7994693481
 20
9.1332441507
 11
10.8325867904
 21
9.1309474483
  0
LINE
  5
333
100
AcDbEntity
  8
0
100
AcDbLine
 62
4
  6
CONTINUOUS
 10
10.865704288
 20
9.1286507421
 11
10.8988217303
 21
9.1263540396
  0
LINE
  5
334
100
AcDbEntity
  8
0
100
AcDbLine
 62
4
  6
CONTINUOUS
 10
11.2327560418
 20
9.1031956165
 11
11.2658735947
 21
9.1008989064
  0
LINE
  5
335
100
AcDbEntity
  8
0
100
AcDbLine
 62
4
  6
CONTINUOUS
 10
11.30727037
 20
9.0980280303
 11
11.3403878123
 21
9.0957313278
  0
LINE
  5
336
100
AcDbEntity
  8
0
100
AcDbLine
 62
4
  6
CONTINUOUS
 10
10.2806291689
 20
9.2023432955
 11
10.3137466268
 21
9.200046592
  0
LINE
  5
337
100
AcDbEntity
  8
0
100
AcDbLine
 62
4
  6
CONTINUOUS
 10
11.1803201007
 20
9.1399495175
 11
11.1830798783
 21
9.1397581263
  0
LINE
  5
338
100
AcDbEntity
  8
0
100
AcDbLine
 62
4
  6
CONTINUOUS
 10
11.3403878123
 20
9.0515747162
 11
11.30727037
 21
9.0593909946
  0
LINE
  5
339
100
AcDbEntity
  8
0
100
AcDbLine
 62
4
  6
CONTINUOUS
 10
10.956777282
 20
9.0395411612
 11
10.9402185609
 21
9.0489688773
  0
LINE
  5
33A
100
AcDbEntity
  8
0
100
AcDbLine
 62
4
  6
CONTINUOUS
 10
11.30727037
 20
9.0593909946
 11
11.298991037
 21
9.0654847443
  0
LINE
  5
33B
100
AcDbEntity
  8
0
100
AcDbLine
 62
4
  6
CONTINUOUS
 10
11.3486671453
 20
9.0454809665
 11
11.3403878123
 21
9.0515747162
  0
LINE
  5
33C
100
AcDbEntity
  8
0
100
AcDbLine
 62
4
  6
CONTINUOUS
 10
11.2327560418
 20
9.0204019692
 11
11.2244767089
 21
9.0292555078
  0
LINE
  5
33D
100
AcDbEntity
  8
0
100
AcDbLine
 62
4
  6
CONTINUOUS
 10
11.298991037
 20
9.0240879216
 11
11.30727037
 21
9.015234383
  0
LINE
  5
33E
100
AcDbEntity
  8
0
100
AcDbLine
 62
4
  6
CONTINUOUS
 10
12.2552576584
 20
8.9475594408
 11
12.2625021023
 21
8.9567163002
  0
LINE
  5
33F
100
AcDbEntity
  8
0
100
AcDbLine
 62
4
  6
CONTINUOUS
 10
12.2769909903
 20
8.8977559372
 11
12.2625021023
 21
8.8794422289
  0
LINE
  5
340
100
AcDbEntity
  8
0
100
AcDbLine
 62
4
  6
CONTINUOUS
 10
12.3132132101
 20
8.924221697
 11
12.3059687661
 21
8.9150648377
  0
LINE
  5
341
100
AcDbEntity
  8
0
100
AcDbLine
 62
4
  6
CONTINUOUS
 10
11.3403878123
 20
9.0957313278
 11
11.3486671453
 21
9.0868777867
  0
LINE
  5
342
100
AcDbEntity
  8
0
100
AcDbLine
 62
7
  6
CONTINUOUS
 10
11.9217866955
 20
6.4550203508
 11
11.9217866955
 21
6.0706169095
  0
LINE
  5
343
100
AcDbEntity
  8
0
100
AcDbLine
 62
7
  6
CONTINUOUS
 10
11.9757074978
 20
6.4587597778
 11
11.9757074978
 21
6.0743563364
  0
LINE
  5
344
100
AcDbEntity
  8
0
100
AcDbLine
 62
4
  6
CONTINUOUS
 10
12.2625021023
 20
8.8794422289
 11
12.2552576584
 21
8.8509668569
  0
LINE
  5
345
100
AcDbEntity
  8
0
100
AcDbLine
 62
4
  6
CONTINUOUS
 10
12.2914798782
 20
8.9643659409
 11
12.3059687661
 21
8.9537018768
  0
LINE
  5
346
100
AcDbEntity
  8
0
100
AcDbLine
 62
4
  6
CONTINUOUS
 10
12.3132132101
 20
8.9435402097
 11
12.3132132101
 21
8.924221697
  0
LINE
  5
347
100
AcDbEntity
  8
0
100
AcDbLine
 62
7
  6
CONTINUOUS
 10
12.3893940328
 20
6.4867371987
 11
12.3893940328
 21
6.1814262494
  0
LINE
  5
348
100
AcDbEntity
  8
0
100
AcDbLine
 62
7
  6
CONTINUOUS
 10
12.4038420572
 20
6.4857352249
 11
12.4038420572
 21
6.1953819701
  0
LINE
  5
349
100
AcDbEntity
  8
0
100
AcDbLine
 62
4
  6
CONTINUOUS
 10
9.2797229151
 20
9.9623934801
 11
9.2652340272
 21
9.9633982879
  0
LINE
  5
34A
100
AcDbEntity
  8
0
100
AcDbLine
 62
4
  6
CONTINUOUS
 10
9.2652340272
 20
10.0310130959
 11
9.2797229151
 21
10.0300082881
  0
LINE
  5
34B
100
AcDbEntity
  8
0
100
AcDbLine
 62
4
  6
CONTINUOUS
 10
9.2652340272
 20
10.0793093913
 11
9.2797229151
 21
10.0783045835
  0
LINE
  5
34C
100
AcDbEntity
  8
0
100
AcDbLine
 62
4
  6
CONTINUOUS
 10
12.3059687661
 20
8.9537018768
 11
12.3132132101
 21
8.9435402097
  0
LINE
  5
34D
100
AcDbEntity
  8
0
100
AcDbLine
 62
7
  6
CONTINUOUS
 10
12.5566265403
 20
6.475139585
 11
12.5566265403
 21
10.3388431191
  0
LINE
  5
34E
100
AcDbEntity
  8
0
100
AcDbLine
 62
7
  6
CONTINUOUS
 10
12.9448547875
 20
6.8501392977
 11
12.9448547875
 21
10.7138428318
  0
LINE
  5
34F
100
AcDbEntity
  8
0
100
AcDbLine
 62
7
  6
CONTINUOUS
 10
9.0551452125
 20
10.5816716739
 11
12.5566265403
 21
10.3388431191
  0
LINE
  5
350
100
AcDbEntity
  8
0
100
AcDbLine
 62
7
  6
CONTINUOUS
 10
12.9448547875
 20
10.7138428318
 11
9.4433734597
 21
10.9566713866
  0
LINE
  5
351
100
AcDbEntity
  8
0
100
AcDbLine
 62
7
  6
CONTINUOUS
 10
12.5566265403
 20
6.475139585
 11
12.9448547875
 21
6.8501392977
  0
LINE
  5
352
100
AcDbEntity
  8
0
100
AcDbLine
 62
7
  6
CONTINUOUS
 10
12.3070979012
 20
6.1352630932
 11
12.2764238907
 21
6.1201107194
  0
ARC
  5
353
100
AcDbEntity
  8
0
100
AcDbCircle
 62
7
  6
CONTINUOUS
 10
11.7958543029
 20
8.2771297941
 40
2.210103635
100
AcDbArc
 50
273.2665005552
 51
274.6677615151
  0
ARC
  5
354
100
AcDbEntity
  8
0
100
AcDbCircle
 62
7
  6
CONTINUOUS
 10
11.7958543029
 20
8.6615332355
 40
2.210103635
100
AcDbArc
 50
273.2665005552
 51
274.6677615151
  0
ARC
  5
355
100
AcDbEntity
  8
0
100
AcDbCircle
 62
7
  6
CONTINUOUS
 10
11.5758797294
 20
7.4224973516
 40
0.9538158545
100
AcDbArc
 50
254.2644742826
 51
256.7139235525
  0
ARC
  5
356
100
AcDbEntity
  8
0
100
AcDbCircle
 62
7
  6
CONTINUOUS
 10
11.5758797294
 20
7.0380939102
 40
0.9538158545
100
AcDbArc
 50
254.2644742826
 51
256.7139235525
  0
ARC
  5
357
100
AcDbEntity
  8
0
100
AcDbCircle
 62
7
  6
CONTINUOUS
 10
11.9682168996
 20
6.8201582944
 40
0.7641475746
100
AcDbArc
 50
293.7608747297
 51
296.3085175792
  0
ARC
  5
358
100
AcDbEntity
  8
0
100
AcDbCircle
 62
7
  6
CONTINUOUS
 10
10.475181195
 20
7.6897486121
 40
0.3600467106
100
AcDbArc
 50
134.8320443738
 51
135.8393257379
  0
ARC
  5
359
100
AcDbEntity
  8
0
100
AcDbCircle
 62
7
  6
CONTINUOUS
 10
10.5494686798
 20
7.6128400878
 40
0.3600255271
100
AcDbArc
 50
312.1752390263
 51
313.3149651756
  0
ARC
  5
35A
100
AcDbEntity
  8
0
100
AcDbCircle
 62
7
  6
CONTINUOUS
 10
10.5167920973
 20
7.6347514809
 40
0.2321760253
100
AcDbArc
 50
349.3351410777
 51
0.0338909318
  0
ARC
  5
35B
100
AcDbEntity
  8
0
100
AcDbCircle
 62
7
  6
CONTINUOUS
 10
10.5267509676
 20
7.6652428087
 40
0.2084768963
100
AcDbArc
 50
43.769309109
 51
46.6396121034
  0
ARC
  5
35C
100
AcDbEntity
  8
0
100
AcDbCircle
 62
7
  6
CONTINUOUS
 10
10.5267984233
 20
7.6652883341
 40
0.2084111346
100
AcDbArc
 50
42.3918281774
 51
43.7692960467
  0
ARC
  5
35D
100
AcDbEntity
  8
0
100
AcDbCircle
 62
7
  6
CONTINUOUS
 10
10.5268898556
 20
7.6653881485
 40
0.2082758686
100
AcDbArc
 50
46.6399395303
 51
47.1144302282
  0
SPLINE
  5
35E
100
AcDbEntity
  8
0
100
AcDbSpline
 62
7
  6
CONTINUOUS
 70
0
 71
3
 72
9
 73
5
 74
0
 42
0.0000001
 43
0.0000001
 44
0.0000000001
 40
0.0
 40
0.0
 40
0.0
 40
0.0
 40
0.2426770998
 40
1.0
 40
1.0
 40
1.0
 40
1.0
 10
12.3972117905
 20
6.1883629334
 30
0.0
 10
12.3966036
 20
6.1877754665
 30
0.0
 10
12.3940705486
 20
6.1853825853
 30
0.0
 10
12.3914348349
 20
6.1830991158
 30
0.0
 10
12.3893940328
 20
6.1814262494
 30
0.0
  0
SPLINE
  5
35F
100
AcDbEntity
  8
0
100
AcDbSpline
 62
7
  6
CONTINUOUS
 70
0
 71
3
 72
9
 73
5
 74
0
 42
0.0000001
 43
0.0000001
 44
0.0000000001
 40
0.0
 40
0.0
 40
0.0
 40
0.0
 40
0.2426666479
 40
1.0
 40
1.0
 40
1.0
 40
1.0
 10
12.4038420572
 20
6.1953819701
 30
0.0
 10
12.4033344294
 20
6.1947881972
 30
0.0
 10
12.4012107336
 20
6.1923686127
 30
0.0
 10
12.3989653251
 20
6.1900567179
 30
0.0
 10
12.3972117905
 20
6.1883629334
 30
0.0
  0
SPLINE
  5
360
100
AcDbEntity
  8
0
100
AcDbSpline
 62
7
  6
CONTINUOUS
 70
0
 71
3
 72
9
 73
5
 74
0
 42
0.0000001
 43
0.0000001
 44
0.0000000001
 40
0.0
 40
0.0
 40
0.0
 40
0.0
 40
0.504378312
 40
1.0
 40
1.0
 40
1.0
 40
1.0
 10
12.3893940328
 20
6.1814262494
 30
0.0
 10
12.3758902826
 20
6.1730173957
 30
0.0
 10
12.3487774452
 20
6.1568827397
 30
0.0
 10
12.3209046487
 20
6.1420855449
 30
0.0
 10
12.3068905107
 20
6.1351607025
 30
0.0
  0
SPLINE
  5
361
100
AcDbEntity
  8
0
100
AcDbSpline
 62
7
  6
CONTINUOUS
 70
0
 71
3
 72
23
 73
19
 74
0
 42
0.0000001
 43
0.0000001
 44
0.0000000001
 40
0.0
 40
0.0
 40
0.0
 40
0.0
 40
0.0436203086
 40
0.0892268542
 40
0.137068591
 40
0.187353676
 40
0.2402538462
 40
0.2958872461
 40
0.3543311569
 40
0.4156094827
 40
0.4797102731
 40
0.5465788188
 40
0.6161346312
 40
0.6882694307
 40
0.7628606873
 40
0.8397744221
 40
0.9188692703
 40
1.0
 40
1.0
 40
1.0
 40
1.0
 10
11.2741960138
 20
6.1295011619
 30
0.0
 10
11.2718860781
 20
6.1306417304
 30
0.0
 10
11.2672489544
 20
6.1331568269
 30
0.0
 10
11.260421665
 20
6.1375178789
 30
0.0
 10
11.2535852761
 20
6.1425601655
 30
0.0
 10
11.2467437264
 20
6.1482910978
 30
0.0
 10
11.2399026282
 20
6.1547147486
 30
0.0
 10
11.2330650877
 20
6.161826321
 30
0.0
 10
11.2262368285
 20
6.169617133
 30
0.0
 10
11.2194205844
 20
6.1780705355
 30
0.0
 10
11.2126214159
 20
6.1871664414
 30
0.0
 10
11.2058415657
 20
6.1968788233
 30
0.0
 10
11.1990848988
 20
6.2071793714
 30
0.0
 10
11.1923530118
 20
6.2180363255
 30
0.0
 10
11.1856482948
 20
6.229417179
 30
0.0
 10
11.1789716456
 20
6.2412882614
 30
0.0
 10
11.1723241531
 20
6.2536161005
 30
0.0
 10
11.1679650351
 20
6.2620155176
 30
0.0
 10
11.1657875035
 20
6.2662836504
 30
0.0
  0
SPLINE
  5
362
100
AcDbEntity
  8
0
100
AcDbSpline
 62
7
  6
CONTINUOUS
 70
0
 71
3
 72
47
 73
43
 74
0
 42
0.0000001
 43
0.0000001
 44
0.0000000001
 40
0.0
 40
0.0
 40
0.0
 40
0.0
 40
0.0099874638
 40
0.0204476834
 40
0.0313771515
 40
0.0427708334
 40
0.0546218702
 40
0.0669225517
 40
0.0796641282
 40
0.0928362942
 40
0.1204271347
 40
0.1495984091
 40
0.1802407165
 40
0.2122338314
 40
0.2454489836
 40
0.2797497839
 40
0.3149929168
 40
0.3510298084
 40
0.3877071885
 40
0.4248680172
 40
0.4623527228
 40
0.4999997959
 40
0.5376468789
 40
0.575131606
 40
0.6122924455
 40
0.6489698269
 40
0.6850067267
 40
0.7202498875
 40
0.7545507276
 40
0.7877659112
 40
0.8197590481
 40
0.8504013805
 40
0.8795726993
 40
0.9071635849
 40
0.9203357726
 40
0.933077377
 40
0.9453780958
 40
0.9572291635
 40
0.968622847
 40
0.9795522717
 40
0.9900124597
 40
1.0
 40
1.0
 40
1.0
 40
1.0
 10
12.2764277761
 20
6.120112674
 30
0.0
 10
12.2734372418
 20
6.1186353963
 30
0.0
 10
12.2672635354
 20
6.1157134805
 30
0.0
 10
12.257661337
 20
6.1115140368
 30
0.0
 10
12.2475131589
 20
6.107401202
 30
0.0
 10
12.2368307109
 20
6.1033799922
 30
0.0
 10
12.2256263352
 20
6.099454687
 30
0.0
 10
12.2139128346
 20
6.0956299679
 30
0.0
 10
12.2017035786
 20
6.0919103971
 30
0.0
 10
12.1845157498
 20
6.0870208653
 30
0.0
 10
12.1618854375
 20
6.0812253838
 30
0.0
 10
12.1333941592
 20
6.0748567116
 30
0.0
 10
12.1032941102
 20
6.0690011877
 30
0.0
 10
12.071724104
 20
6.063685846
 30
0.0
 10
12.038829446
 20
6.0589356896
 30
0.0
 10
12.0047617949
 20
6.0547731575
 30
0.0
 10
11.9696783364
 20
6.0512174295
 30
0.0
 10
11.9337410155
 20
6.0482852591
 30
0.0
 10
11.8971157546
 20
6.0459904745
 30
0.0
 10
11.8599717221
 20
6.044343527
 30
0.0
 10
11.8224804982
 20
6.043352291
 30
0.0
 10
11.7848152579
 20
6.0430214344
 30
0.0
 10
11.7471500103
 20
6.0433522743
 30
0.0
 10
11.7096587719
 20
6.0443434943
 30
0.0
 10
11.6725147274
 20
6.045990425
 30
0.0
 10
11.6358894587
 20
6.0482851935
 30
0.0
 10
11.599952124
 20
6.051217347
 30
0.0
 10
11.5648686384
 20
6.0547730604
 30
0.0
 10
11.5308009522
 20
6.0589355779
 30
0.0
 10
11.4979062609
 20
6.0636857209
 30
0.0
 10
11.4663362255
 20
6.0690010468
 30
0.0
 10
11.4362361426
 20
6.0748565564
 30
0.0
 10
11.407744823
 20
6.081225219
 30
0.0
 10
11.385114469
 20
6.0870206871
 30
0.0
 10
11.3679266045
 20
6.0919102094
 30
0.0
 10
11.3557173178
 20
6.0956297787
 30
0.0
 10
11.3440037857
 20
6.099454505
 30
0.0
 10
11.3327993863
 20
6.1033798128
 30
0.0
 10
11.3221169355
 20
6.1074010043
 30
0.0
 10
11.3119687634
 20
6.1115137881
 30
0.0
 10
11.3023665475
 20
6.1157131934
 30
0.0
 10
11.2961928263
 20
6.1186351141
 30
0.0
 10
11.2932022733
 20
6.1201124117
 30
0.0
  0
SPLINE
  5
363
100
AcDbEntity
  8
0
100
AcDbSpline
 62
7
  6
CONTINUOUS
 70
0
 71
3
 72
15
 73
11
 74
0
 42
0.0000001
 43
0.0000001
 44
0.0000000001
 40
0.0
 40
0.0
 40
0.0
 40
0.0
 40
0.1299708166
 40
0.2593283487
 40
0.3876617857
 40
0.5145654289
 40
0.6396384778
 40
0.7624890516
 40
0.8827334041
 40
1.0
 40
1.0
 40
1.0
 40
1.0
 10
11.7695936258
 20
6.5295845285
 30
0.0
 10
11.7591427977
 20
6.5296610609
 30
0.0
 10
11.7382912601
 20
6.5299712049
 30
0.0
 10
11.7071318432
 20
6.5309081742
 30
0.0
 10
11.6762368199
 20
6.5323134805
 30
0.0
 10
11.6457114732
 20
6.5341818654
 30
0.0
 10
11.6156596761
 20
6.5365073986
 30
0.0
 10
11.5861836752
 20
6.5392816127
 30
0.0
 10
11.5573839181
 20
6.5424954177
 30
0.0
 10
11.5384433216
 20
6.5449567437
 30
0.0
 10
11.5291046195
 20
6.5462624977
 30
0.0
  0
SPLINE
  5
364
100
AcDbEntity
  8
0
100
AcDbSpline
 62
7
  6
CONTINUOUS
 70
0
 71
3
 72
10
 73
6
 74
0
 42
0.0000001
 43
0.0000001
 44
0.0000000001
 40
0.0
 40
0.0
 40
0.0
 40
0.0
 40
0.4950633206
 40
0.7463873743
 40
1.0
 40
1.0
 40
1.0
 40
1.0
 10
12.0671270389
 20
6.50936208
 30
0.0
 10
12.051567169
 20
6.5019147807
 30
0.0
 10
12.0284765004
 20
6.4899021548
 30
0.0
 10
11.9982496342
 20
6.4725644433
 30
0.0
 10
11.9832090059
 20
6.4634310049
 30
0.0
 10
11.9757074978
 20
6.4587597778
 30
0.0
  0
SPLINE
  5
365
100
AcDbEntity
  8
0
100
AcDbSpline
 62
7
  6
CONTINUOUS
 70
0
 71
3
 72
21
 73
17
 74
0
 42
0.0000001
 43
0.0000001
 44
0.0000000001
 40
0.0
 40
0.0
 40
0.0
 40
0.0
 40
0.1230212981
 40
0.1847065752
 40
0.2465215318
 40
0.3084771567
 40
0.3705832678
 40
0.432847904
 40
0.4952752623
 40
0.5578663069
 40
0.6206183946
 40
0.6835249868
 40
0.7465773451
 40
0.8097643485
 40
0.8730733734
 40
1.0
 40
1.0
 40
1.0
 40
1.0
 10
11.9217866955
 20
6.0706169095
 30
0.0
 10
11.8987075145
 20
6.0660695533
 30
0.0
 10
11.863875073
 20
6.060097147
 30
0.0
 10
11.817103858
 20
6.0541869996
 30
0.0
 10
11.7817925494
 20
6.0508597856
 30
0.0
 10
11.7463081066
 20
6.048725378
 30
0.0
 10
11.7106833855
 20
6.0478546417
 30
0.0
 10
11.674960174
 20
6.0483035369
 30
0.0
 10
11.6391865523
 20
6.0501055356
 30
0.0
 10
11.6034140261
 20
6.0532688215
 30
0.0
 10
11.5676940862
 20
6.0577777721
 30
0.0
 10
11.5320744728
 20
6.0635920139
 30
0.0
 10
11.4965963333
 20
6.070649728
 30
0.0
 10
11.4612921426
 20
6.0788754177
 30
0.0
 10
11.4144482164
 20
6.0912949697
 30
0.0
 10
11.3796878067
 20
6.1020827641
 30
0.0
 10
11.3566802209
 20
6.1098071766
 30
0.0
  0
SPLINE
  5
366
100
AcDbEntity
  8
0
100
AcDbSpline
 62
7
  6
CONTINUOUS
 70
0
 71
3
 72
21
 73
17
 74
0
 42
0.0000001
 43
0.0000001
 44
0.0000000001
 40
0.0
 40
0.0
 40
0.0
 40
0.0
 40
0.1269266266
 40
0.1902356515
 40
0.253422655
 40
0.3164750132
 40
0.3793816055
 40
0.4421336932
 40
0.5047247377
 40
0.567152096
 40
0.6294167323
 40
0.6915228434
 40
0.7534784683
 40
0.8152934248
 40
0.8769787019
 40
1.0
 40
1.0
 40
1.0
 40
1.0
 10
11.9217866955
 20
6.4550203508
 30
0.0
 10
11.8987791097
 20
6.4627447634
 30
0.0
 10
11.8640187
 20
6.4735325577
 30
0.0
 10
11.8171747739
 20
6.4859521098
 30
0.0
 10
11.7818705831
 20
6.4941777995
 30
0.0
 10
11.7463924436
 20
6.5012355135
 30
0.0
 10
11.7107728302
 20
6.5070497553
 30
0.0
 10
11.6750528903
 20
6.5115587059
 30
0.0
 10
11.6392803641
 20
6.5147219918
 30
0.0
 10
11.6035067424
 20
6.5165239906
 30
0.0
 10
11.5677835309
 20
6.5169728858
 30
0.0
 10
11.5321588098
 20
6.5161021494
 30
0.0
 10
11.496674367
 20
6.5139677418
 30
0.0
 10
11.4613630584
 20
6.5106405278
 30
0.0
 10
11.4145918435
 20
6.5047303804
 30
0.0
 10
11.3797594019
 20
6.4987579741
 30
0.0
 10
11.3566802209
 20
6.4942106179
 30
0.0
  0
SPLINE
  5
367
100
AcDbEntity
  8
0
100
AcDbSpline
 62
7
  6
CONTINUOUS
 70
0
 71
3
 72
11
 73
7
 74
0
 42
0.0000001
 43
0.0000001
 44
0.0000000001
 40
0.0
 40
0.0
 40
0.0
 40
0.0
 40
0.2465919593
 40
0.494712682
 40
0.7454424776
 40
1.0
 40
1.0
 40
1.0
 40
1.0
 10
11.317207443
 20
6.1200234704
 30
0.0
 10
11.3152650301
 20
6.1199686357
 30
0.0
 10
11.3113637204
 20
6.1199759822
 30
0.0
 10
11.3054980292
 20
6.120359504
 30
0.0
 10
11.2996079572
 20
6.1211377864
 30
0.0
 10
11.2957015001
 20
6.1219273342
 30
0.0
 10
11.293750055
 20
6.1223917956
 30
0.0
  0
SPLINE
  5
368
100
AcDbEntity
  8
0
100
AcDbSpline
 62
7
  6
CONTINUOUS
 70
0
 71
3
 72
10
 73
6
 74
0
 42
0.0000001
 43
0.0000001
 44
0.0000000001
 40
0.0
 40
0.0
 40
0.0
 40
0.0
 40
0.2418255986
 40
0.4885199497
 40
1.0
 40
1.0
 40
1.0
 40
1.0
 10
11.293750055
 20
6.1223917956
 30
0.0
 10
11.2921155375
 20
6.1227808253
 30
0.0
 10
11.2888352272
 20
6.1236616859
 30
0.0
 10
11.2822363268
 20
6.1258439912
 30
0.0
 10
11.2773824484
 20
6.1279278075
 30
0.0
 10
11.2741960138
 20
6.1295011619
 30
0.0
  0
SPLINE
  5
369
100
AcDbEntity
  8
0
100
AcDbSpline
 62
7
  6
CONTINUOUS
 70
0
 71
3
 72
11
 73
7
 74
0
 42
0.0000001
 43
0.0000001
 44
0.0000000001
 40
0.0
 40
0.0
 40
0.0
 40
0.0
 40
0.2633952514
 40
0.5183435581
 40
0.764111363
 40
1.0
 40
1.0
 40
1.0
 40
1.0
 10
11.317207443
 20
6.5044269117
 30
0.0
 10
11.3144909565
 20
6.5097514385
 30
0.0
 10
11.3090541588
 20
6.5201837483
 30
0.0
 10
11.3007279916
 20
6.5353962342
 30
0.0
 10
11.2923575312
 20
6.5498678773
 30
0.0
 10
11.2866260542
 20
6.5591776171
 30
0.0
 10
11.2837455337
 20
6.5636897717
 30
0.0
  0
LINE
  5
36A
100
AcDbEntity
  8
0
100
AcDbLine
 62
7
  6
CONTINUOUS
 10
12.2761075525
 20
6.1207836726
 11
12.2753784385
 21
6.120463785
  0
SPLINE
  5
36B
100
AcDbEntity
  8
0
100
AcDbSpline
 62
7
  6
CONTINUOUS
 70
0
 71
3
 72
15
 73
11
 74
0
 42
0.0000001
 43
0.0000001
 44
0.0000000001
 40
0.0
 40
0.0
 40
0.0
 40
0.0
 40
0.1321602046
 40
0.2618009952
 40
0.3890353631
 40
0.5141096583
 40
0.6373677171
 40
0.75919507
 40
0.8799649792
 40
1.0
 40
1.0
 40
1.0
 40
1.0
 10
12.2753784385
 20
6.120463785
 30
0.0
 10
12.2629973351
 20
6.1150400428
 30
0.0
 10
12.2381565712
 20
6.1049930537
 30
0.0
 10
12.2003625081
 20
6.0924596163
 30
0.0
 10
12.1624917387
 20
6.0827423268
 30
0.0
 10
12.124665363
 20
6.0758738226
 30
0.0
 10
12.0869979771
 20
6.0717739941
 30
0.0
 10
12.0495823951
 20
6.0702673062
 30
0.0
 10
12.0124815585
 20
6.0711141539
 30
0.0
 10
11.9879171391
 20
6.0730735039
 30
0.0
 10
11.9757074978
 20
6.0743563364
 30
0.0
  0
SPLINE
  5
36C
100
AcDbEntity
  8
0
100
AcDbSpline
 62
7
  6
CONTINUOUS
 70
0
 71
3
 72
91
 73
87
 74
0
 42
0.0000001
 43
0.0000001
 44
0.0000000001
 40
0.0
 40
0.0
 40
0.0
 40
0.0
 40
0.0039801824
 40
0.0081241125
 40
0.0124359604
 40
0.0169193082
 40
0.0215771808
 40
0.0264119179
 40
0.0314251804
 40
0.036618156
 40
0.0419915391
 40
0.0475456573
 40
0.0532804234
 40
0.0591954189
 40
0.0652899227
 40
0.0715629017
 40
0.0780131034
 40
0.0846389837
 40
0.0984102885
 40
0.1128608532
 40
0.1279713725
 40
0.1437199568
 40
0.1600824082
 40
0.1770324532
 40
0.1945419392
 40
0.2125810061
 40
0.2311182422
 40
0.2501208275
 40
0.2695546626
 40
0.2893844909
 40
0.3095740146
 40
0.330086005
 40
0.35088241
 40
0.3719244606
 40
0.3931727759
 40
0.4145874652
 40
0.4361282289
 40
0.4577544586
 40
0.4794253371
 40
0.501099938
 40
0.5227373261
 40
0.5442966575
 40
0.5657372785
 40
0.5870188258
 40
0.6081013261
 40
0.6289452975
 40
0.6495118524
 40
0.6697628021
 40
0.6896607608
 40
0.7091692527
 40
0.7282528228
 40
0.7468771515
 40
0.7650091753
 40
0.7826172172
 40
0.7996711268
 40
0.8161424293
 40
0.8320044948
 40
0.8472327309
 40
0.8618048077
 40
0.8757009255
 40
0.8889041429
 40
0.8952417292
 40
0.9014012652
 40
0.9073816417
 40
0.9131820083
 40
0.9188018518
 40
0.9242409423
 40
0.9294994633
 40
0.9345779585
 40
0.9394774438
 40
0.944199427
 40
0.9487459568
 40
0.95311974
 40
0.9573241405
 40
0.9613633601
 40
0.9652424499
 40
0.9689674846
 40
0.9725456466
 40
0.9759853437
 40
0.9824865016
 40
0.9855753543
 40
0.9885738189
 40
0.9914977372
 40
0.9943643366
 40
0.9971920099
 40
1.0
 40
1.0
 40
1.0
 40
1.0
 10
11.3327614669
 20
10.6246801667
 30
0.0
 10
11.331460235
 20
10.6234232732
 30
0.0
 10
11.3287451456
 20
10.6209183757
 30
0.0
 10
11.3244344186
 20
10.6172597843
 30
0.0
 10
11.3198071389
 20
10.6136274365
 30
0.0
 10
11.314865845
 20
10.6100232608
 30
0.0
 10
11.3096129459
 20
10.6064489405
 30
0.0
 10
11.3040510155
 20
10.6029062145
 30
0.0
 10
11.2981828355
 20
10.5993967815
 30
0.0
 10
11.2920113174
 20
10.5959224626
 30
0.0
 10
11.2855395778
 20
10.5924849255
 30
0.0
 10
11.2787708338
 20
10.5890859387
 30
0.0
 10
11.2717084888
 20
10.5857271739
 30
0.0
 10
11.2643560854
 20
10.5824103285
 30
0.0
 10
11.2567173144
 20
10.5791370929
 30
0.0
 10
11.2487960313
 20
10.5759090842
 30
0.0
 10
11.2405962023
 20
10.5727279621
 30
0.0
 10
11.22914969
 20
10.5684966221
 30
0.0
 10
11.2141679895
 20
10.5633469993
 30
0.0
 10
11.1953711488
 20
10.5574561414
 30
0.0
 10
11.1755691923
 20
10.5517891585
 30
0.0
 10
11.1548020923
 20
10.546357578
 30
0.0
 10
11.1331116198
 20
10.5411724639
 30
0.0
 10
11.1105415167
 20
10.5362443788
 30
0.0
 10
11.087137323
 20
10.531583364
 30
0.0
 10
11.0629463005
 20
10.5271989121
 30
0.0
 10
11.0380173241
 20
10.5230999511
 30
0.0
 10
11.0124007783
 20
10.519294826
 30
0.0
 10
10.9861484514
 20
10.5157912825
 30
0.0
 10
10.9593134282
 20
10.5125964509
 30
0.0
 10
10.9319499812
 20
10.5097168325
 30
0.0
 10
10.9041134599
 20
10.5071582872
 30
0.0
 10
10.8758601784
 20
10.5049260182
 30
0.0
 10
10.8472472988
 20
10.5030245639
 30
0.0
 10
10.8183327144
 20
10.5014577901
 30
0.0
 10
10.789174931
 20
10.500228882
 30
0.0
 10
10.7598329482
 20
10.4993403384
 30
0.0
 10
10.7303661405
 20
10.4987939664
 30
0.0
 10
10.7008341362
 20
10.4985908782
 30
0.0
 10
10.6712966968
 20
10.4987314864
 30
0.0
 10
10.6418135943
 20
10.4992155038
 30
0.0
 10
10.61244449
 20
10.5000419456
 30
0.0
 10
10.583248813
 20
10.5012091317
 30
0.0
 10
10.5542856406
 20
10.5027146893
 30
0.0
 10
10.5256135781
 20
10.5045555582
 30
0.0
 10
10.4972906393
 20
10.5067279966
 30
0.0
 10
10.4693741277
 20
10.5092275871
 30
0.0
 10
10.4419205187
 20
10.5120492438
 30
0.0
 10
10.4149853449
 20
10.5151872263
 30
0.0
 10
10.3886230835
 20
10.5186351496
 30
0.0
 10
10.3628870443
 20
10.5223859972
 30
0.0
 10
10.3378292608
 20
10.5264321348
 30
0.0
 10
10.3135003816
 20
10.5307653261
 30
0.0
 10
10.2899495632
 20
10.5353767473
 30
0.0
 10
10.2672243643
 20
10.5402570042
 30
0.0
 10
10.2453706486
 20
10.5453961543
 30
0.0
 10
10.2244324783
 20
10.5507837286
 30
0.0
 10
10.2044520426
 20
10.5564087539
 30
0.0
 10
10.1854694722
 20
10.5622597813
 30
0.0
 10
10.1675230508
 20
10.5683249129
 30
0.0
 10
10.1532729097
 20
10.5736170477
 30
0.0
 10
10.142427083
 20
10.5779578996
 30
0.0
 10
10.1346851197
 20
10.581214902
 30
0.0
 10
10.1272281432
 20
10.5845160673
 30
0.0
 10
10.1200599037
 20
10.5878597948
 30
0.0
 10
10.1131839874
 20
10.5912443405
 30
0.0
 10
10.1066038633
 20
10.5946680684
 30
0.0
 10
10.1003228069
 20
10.5981292046
 30
0.0
 10
10.0943439745
 20
10.6016260645
 30
0.0
 10
10.0886703448
 20
10.6051568918
 30
0.0
 10
10.0833047388
 20
10.6087199314
 30
0.0
 10
10.0782498481
 20
10.6123134733
 30
0.0
 10
10.0735081517
 20
10.6159357079
 30
0.0
 10
10.0690820498
 20
10.6195849647
 30
0.0
 10
10.0649737102
 20
10.6232594291
 30
0.0
 10
10.0611852045
 20
10.6269574641
 30
0.0
 10
10.0577185198
 20
10.6306772074
 30
0.0
 10
10.0545751524
 20
10.6344174057
 30
0.0
 10
10.0508876857
 20
10.6393353352
 30
0.0
 10
10.0477564261
 20
10.6443858233
 30
0.0
 10
10.0452703421
 20
10.649544152
 30
0.0
 10
10.0437682613
 20
10.6533591211
 30
0.0
 10
10.0425985362
 20
10.6571833726
 30
0.0
 10
10.041762126
 20
10.661015049
 30
0.0
 10
10.0412599549
 20
10.6648514186
 30
0.0
 10
10.0411481612
 20
10.667414414
 30
0.0
 10
10.0411481614
 20
10.6686907489
 30
0.0
  0
SPLINE
  5
36D
100
AcDbEntity
  8
0
100
AcDbSpline
 62
7
  6
CONTINUOUS
 70
0
 71
3
 72
19
 73
15
 74
0
 42
0.0000001
 43
0.0000001
 44
0.0000000001
 40
0.0
 40
0.0
 40
0.0
 40
0.0
 40
0.1504611406
 40
0.2916985742
 40
0.4244193292
 40
0.4878835935
 40
0.5495802133
 40
0.6682271463
 40
0.7255606136
 40
0.7817999183
 40
0.8371467056
 40
0.8918136429
 40
0.9460222308
 40
1.0
 40
1.0
 40
1.0
 40
1.0
 10
12.7507406639
 20
9.5874629816
 30
0.0
 10
12.7524086445
 20
9.5890741273
 30
0.0
 10
12.7557423025
 20
9.5920970922
 30
0.0
 10
12.7609041552
 20
9.5961255345
 30
0.0
 10
12.7652641436
 20
9.5989746814
 30
0.0
 10
12.7687409633
 20
9.600904042
 30
0.0
 10
12.7721152072
 20
9.6025604509
 30
0.0
 10
12.7755289626
 20
9.6039144087
 30
0.0
 10
12.7789619198
 20
9.6049332802
 30
0.0
 10
12.7815001546
 20
9.6055205714
 30
0.0
 10
12.7840299426
 20
9.6059391585
 30
0.0
 10
12.786550611
 20
9.6061888591
 30
0.0
 10
12.7890611433
 20
9.6062695697
 30
0.0
 10
12.7907290701
 20
9.6062105887
 30
0.0
 10
12.7915590301
 20
9.6061530335
 30
0.0
  0
SPLINE
  5
36E
100
AcDbEntity
  8
0
100
AcDbSpline
 62
7
  6
CONTINUOUS
 70
0
 71
3
 72
23
 73
19
 74
0
 42
0.0000001
 43
0.0000001
 44
0.0000000001
 40
0.0
 40
0.0
 40
0.0
 40
0.0
 40
0.063777379
 40
0.1273447372
 40
0.1907019931
 40
0.2538561345
 40
0.3168131769
 40
0.3795820929
 40
0.4421733849
 40
0.5045993366
 40
0.5668738654
 40
0.6290123812
 40
0.6910316548
 40
0.7529496517
 40
0.8147853612
 40
0.8765586089
 40
0.9382898579
 40
1.0
 40
1.0
 40
1.0
 40
1.0
 10
10.9034443906
 20
7.6156014797
 30
0.0
 10
10.9034443906
 20
7.6092216875
 30
0.0
 10
10.9031390397
 20
7.5964809495
 30
0.0
 10
10.9017607823
 20
7.577447325
 30
0.0
 10
10.8994660127
 20
7.5585646093
 30
0.0
 10
10.8962601587
 20
7.5398770529
 30
0.0
 10
10.8921504379
 20
7.5214274426
 30
0.0
 10
10.8871463328
 20
7.5032584069
 30
0.0
 10
10.8812593109
 20
7.4854118124
 30
0.0
 10
10.8745029213
 20
7.4679288158
 30
0.0
 10
10.8668927093
 20
7.4508497341
 30
0.0
 10
10.8584461886
 20
7.4342139596
 30
0.0
 10
10.8491828076
 20
7.4180598708
 30
0.0
 10
10.8391238863
 20
7.4024247322
 30
0.0
 10
10.8282926389
 20
7.3873446488
 30
0.0
 10
10.8167139181
 20
7.3728542843
 30
0.0
 10
10.8044148771
 20
7.3589875235
 30
0.0
 10
10.795752586
 20
7.3501784432
 30
0.0
 10
10.7913126333
 20
7.3458897635
 30
0.0
  0
SPLINE
  5
36F
100
AcDbEntity
  8
0
100
AcDbSpline
 62
7
  6
CONTINUOUS
 70
0
 71
3
 72
21
 73
17
 74
0
 42
0.0000001
 43
0.0000001
 44
0.0000000001
 40
0.0
 40
0.0
 40
0.0
 40
0.0
 40
0.1273175725
 40
0.2538000026
 40
0.3167619332
 40
0.3795354925
 40
0.4421314982
 40
0.5045621433
 40
0.5668413429
 40
0.6289845306
 40
0.6910084612
 40
0.7529311022
 40
0.8147714553
 40
0.8765493457
 40
0.9382852283
 40
1.0
 40
1.0
 40
1.0
 40
1.0
 10
11.5530295473
 20
10.0462206006
 30
0.0
 10
11.5530295473
 20
10.0397222743
 30
0.0
 10
11.5524092399
 20
10.0267598838
 30
0.0
 10
11.5500665607
 20
10.010735567
 30
0.0
 10
11.5472665211
 20
9.9981658876
 30
0.0
 10
11.5447130337
 20
9.988894491
 30
0.0
 10
11.5417090478
 20
9.9797878217
 30
0.0
 10
11.5382614124
 20
9.9708666426
 30
0.0
 10
11.534378108
 20
9.9621515801
 30
0.0
 10
11.5300680656
 20
9.9536627163
 30
0.0
 10
11.5253411718
 20
9.9454196605
 30
0.0
 10
11.520208343
 20
9.9374414072
 30
0.0
 10
11.5146814352
 20
9.9297463695
 30
0.0
 10
11.5087730949
 20
9.9223522597
 30
0.0
 10
11.5024971779
 20
9.9152763731
 30
0.0
 10
11.4980770277
 20
9.9107812868
 30
0.0
 10
11.4958114247
 20
9.9085928706
 30
0.0
  0
SPLINE
  5
370
100
AcDbEntity
  8
0
100
AcDbSpline
 62
7
  6
CONTINUOUS
 70
0
 71
3
 72
21
 73
17
 74
0
 42
0.0000001
 43
0.0000001
 44
0.0000000001
 40
0.0
 40
0.0
 40
0.0
 40
0.0
 40
0.1273175725
 40
0.2538000026
 40
0.3167619332
 40
0.3795354925
 40
0.4421314982
 40
0.5045621433
 40
0.5668413429
 40
0.6289845306
 40
0.6910084612
 40
0.7529311022
 40
0.8147714553
 40
0.8765493457
 40
0.9382852283
 40
1.0
 40
1.0
 40
1.0
 40
1.0
 10
10.4663629283
 20
6.9823220651
 30
0.0
 10
10.4663629283
 20
6.9758237388
 30
0.0
 10
10.4657426209
 20
6.9628613483
 30
0.0
 10
10.4633999418
 20
6.9468370315
 30
0.0
 10
10.4605999021
 20
6.9342673522
 30
0.0
 10
10.4580464147
 20
6.9249959556
 30
0.0
 10
10.4550424288
 20
6.9158892863
 30
0.0
 10
10.4515947935
 20
6.9069681071
 30
0.0
 10
10.447711489
 20
6.8982530446
 30
0.0
 10
10.4434014467
 20
6.8897641809
 30
0.0
 10
10.4386745529
 20
6.881521125
 30
0.0
 10
10.4335417241
 20
6.8735428718
 30
0.0
 10
10.4280148163
 20
6.865847834
 30
0.0
 10
10.422106476
 20
6.8584537242
 30
0.0
 10
10.4158305589
 20
6.8513778376
 30
0.0
 10
10.4114104087
 20
6.8468827514
 30
0.0
 10
10.4091448058
 20
6.8446943351
 30
0.0
  0
SPLINE
  5
371
100
AcDbEntity
  8
0
100
AcDbSpline
 62
7
  6
CONTINUOUS
 70
0
 71
3
 72
38
 73
34
 74
0
 42
0.0000001
 43
0.0000001
 44
0.0000000001
 40
0.0
 40
0.0
 40
0.0
 40
0.0
 40
0.0318213842
 40
0.0634517453
 40
0.0949009978
 40
0.1261870727
 40
0.1573361254
 40
0.1883808024
 40
0.2193587437
 40
0.2503108134
 40
0.2812795003
 40
0.3123073478
 40
0.3434357194
 40
0.3747035059
 40
0.4061459684
 40
0.4377933804
 40
0.5017663165
 40
0.5341330617
 40
0.5667359539
 40
0.5995454247
 40
0.6325092685
 40
0.6655493744
 40
0.6985602916
 40
0.7314115124
 40
0.7639547776
 40
0.7960363795
 40
0.8275131174
 40
0.8582680657
 40
0.8882228369
 40
0.9173436997
 40
0.9456413584
 40
0.9731660522
 40
1.0
 40
1.0
 40
1.0
 40
1.0
 10
10.4293946922
 20
7.765704606
 30
0.0
 10
10.4293946922
 20
7.7616102332
 30
0.0
 10
10.4297065344
 20
7.7534424917
 30
0.0
 10
10.4311143895
 20
7.7413015492
 30
0.0
 10
10.4334446177
 20
7.7293729533
 30
0.0
 10
10.4366711644
 20
7.7177196731
 30
0.0
 10
10.4407598267
 20
7.7063958715
 30
0.0
 10
10.4456704733
 20
7.6954475268
 30
0.0
 10
10.4513591527
 20
7.6849119383
 30
0.0
 10
10.4577801367
 20
7.6748182812
 30
0.0
 10
10.4648875986
 20
7.6651884592
 30
0.0
 10
10.4726368903
 20
7.6560382599
 30
0.0
 10
10.4809854361
 20
7.6473785891
 30
0.0
 10
10.4898929736
 20
7.639216874
 30
0.0
 10
10.4993223317
 20
7.6315578456
 30
0.0
 10
10.5125870736
 20
7.6219893458
 30
0.0
 10
10.5267269305
 20
7.6134756323
 30
0.0
 10
10.5415594073
 20
7.6060318575
 30
0.0
 10
10.5530767258
 20
7.6009552063
 30
0.0
 10
10.564899014
 20
7.5964192226
 30
0.0
 10
10.5769785378
 20
7.592437316
 30
0.0
 10
10.5892581766
 20
7.5890257795
 30
0.0
 10
10.6016713734
 20
7.5862022695
 30
0.0
 10
10.6141421327
 20
7.5839845135
 30
0.0
 10
10.6265872124
 20
7.5823884214
 30
0.0
 10
10.6389201295
 20
7.5814262311
 30
0.0
 10
10.6510564815
 20
7.5811050846
 30
0.0
 10
10.662919439
 20
7.5814264506
 30
0.0
 10
10.6744441309
 20
7.5823865572
 30
0.0
 10
10.6855799007
 20
7.5839776023
 30
0.0
 10
10.6962906972
 20
7.5861895632
 30
0.0
 10
10.7065522627
 20
7.5890114512
 30
0.0
 10
10.7131615942
 20
7.5913195929
 30
0.0
 10
10.7163787038
 20
7.5925729948
 30
0.0
  0
SPLINE
  5
372
100
AcDbEntity
  8
0
100
AcDbSpline
 62
7
  6
CONTINUOUS
 70
0
 71
3
 72
15
 73
11
 74
0
 42
0.0000001
 43
0.0000001
 44
0.0000000001
 40
0.0
 40
0.0
 40
0.0
 40
0.0
 40
0.1264307955
 40
0.2525920121
 40
0.3784166992
 40
0.5038308705
 40
0.6287601659
 40
0.7531351875
 40
0.8768961469
 40
1.0
 40
1.0
 40
1.0
 40
1.0
 10
10.4538683176
 20
7.8539898559
 30
0.0
 10
10.4519226642
 20
7.8506046865
 30
0.0
 10
10.4482334578
 20
7.843725399
 30
0.0
 10
10.4433393754
 20
7.8331054847
 30
0.0
 10
10.4391241558
 20
7.8222311164
 30
0.0
 10
10.4356214355
 20
7.8111463608
 30
0.0
 10
10.432861318
 20
7.7998994766
 30
0.0
 10
10.4308693521
 20
7.7885427781
 30
0.0
 10
10.4296650088
 20
7.7771327384
 30
0.0
 10
10.4293946922
 20
7.7695063391
 30
0.0
 10
10.4293946922
 20
7.765704606
 30
0.0
  0
SPLINE
  5
373
100
AcDbEntity
  8
0
100
AcDbSpline
 62
7
  6
CONTINUOUS
 70
0
 71
3
 72
21
 73
17
 74
0
 42
0.0000001
 43
0.0000001
 44
0.0000000001
 40
0.0
 40
0.0
 40
0.0
 40
0.0
 40
0.1273176899
 40
0.2537999351
 40
0.3167619508
 40
0.3795355113
 40
0.4421314924
 40
0.5045621415
 40
0.5668413449
 40
0.6289845255
 40
0.6910084484
 40
0.7529310939
 40
0.814771448
 40
0.8765493308
 40
0.9382852181
 40
1.0
 40
1.0
 40
1.0
 40
1.0
 10
10.7340473054
 20
7.6709764505
 30
0.0
 10
10.7340473054
 20
7.6649862431
 30
0.0
 10
10.7334755043
 20
7.6530374247
 30
0.0
 10
10.7313159726
 20
7.6382661035
 30
0.0
 10
10.7287348741
 20
7.6266792925
 30
0.0
 10
10.7263810469
 20
7.6181328532
 30
0.0
 10
10.7236119097
 20
7.6097382778
 30
0.0
 10
10.7204338468
 20
7.6015146786
 30
0.0
 10
10.7168541853
 20
7.5934810755
 30
0.0
 10
10.7128811068
 20
7.5856560091
 30
0.0
 10
10.7085238024
 20
7.5780575173
 30
0.0
 10
10.7037923207
 20
7.5707031113
 30
0.0
 10
10.6986975274
 20
7.563609809
 30
0.0
 10
10.6932511401
 20
7.5567939006
 30
0.0
 10
10.6874659603
 20
7.5502712942
 30
0.0
 10
10.68339138
 20
7.5461277469
 30
0.0
 10
10.6813029321
 20
7.5441104486
 30
0.0
  0
SPLINE
  5
374
100
AcDbEntity
  8
0
100
AcDbSpline
 62
7
  6
CONTINUOUS
 70
0
 71
3
 72
37
 73
33
 74
0
 42
0.0000001
 43
0.0000001
 44
0.0000000001
 40
0.0
 40
0.0
 40
0.0
 40
0.0
 40
0.0307116543
 40
0.0615425044
 40
0.0924882586
 40
0.1235467246
 40
0.1547123722
 40
0.1859791039
 40
0.217339439
 40
0.2487848218
 40
0.2803057167
 40
0.31189171
 40
0.3435316429
 40
0.3752137378
 40
0.406925737
 40
0.4386550464
 40
0.5020927812
 40
0.5654464029
 40
0.597071568
 40
0.6286394213
 40
0.6601390116
 40
0.6915601709
 40
0.7228936372
 40
0.7541311728
 40
0.7852656713
 40
0.8162912505
 40
0.8472033341
 40
0.8779987193
 40
0.9086756336
 40
0.9392337764
 40
0.9696743379
 40
1.0
 40
1.0
 40
1.0
 40
1.0
 10
10.748968082
 20
7.6348888149
 30
0.0
 10
10.748968082
 20
7.6393088317
 30
0.0
 10
10.7487197861
 20
7.6481679676
 30
0.0
 10
10.7476088553
 20
7.6614388902
 30
0.0
 10
10.7457620463
 20
7.6746783094
 30
0.0
 10
10.7431853853
 20
7.6878441441
 30
0.0
 10
10.7398868279
 20
7.7008955243
 30
0.0
 10
10.7358767779
 20
7.713791575
 30
0.0
 10
10.7311677803
 20
7.7264920276
 30
0.0
 10
10.7257745995
 20
7.7389572026
 30
0.0
 10
10.7197141168
 20
7.7511481656
 30
0.0
 10
10.7130052954
 20
7.7630268302
 30
0.0
 10
10.7056690867
 20
7.7745561112
 30
0.0
 10
10.6977285031
 20
7.7856999068
 30
0.0
 10
10.6892080471
 20
7.7964237153
 30
0.0
 10
10.6771134289
 20
7.8101136975
 30
0.0
 10
10.6606866845
 20
7.8260092403
 30
0.0
 10
10.642703493
 20
7.8400960854
 30
0.0
 10
10.6275216527
 20
7.8501690824
 30
0.0
 10
10.6157795178
 20
7.8570993225
 30
0.0
 10
10.6037140439
 20
7.8633860004
 30
0.0
 10
10.5913625771
 20
7.8690097244
 30
0.0
 10
10.5787637874
 20
7.8739528056
 30
0.0
 10
10.5659570147
 20
7.8781997936
 30
0.0
 10
10.5529822805
 20
7.8817373812
 30
0.0
 10
10.5398801233
 20
7.8845544741
 30
0.0
 10
10.5266914911
 20
7.8866422192
 30
0.0
 10
10.5134575943
 20
7.887994029
 30
0.0
 10
10.5002198471
 20
7.8886056272
 30
0.0
 10
10.4870194905
 20
7.8884750421
 30
0.0
 10
10.4738983725
 20
7.8876027049
 30
0.0
 10
10.4652137261
 20
7.8865262588
 30
0.0
 10
10.460899618
 20
7.8858651802
 30
0.0
  0
SPLINE
  5
375
100
AcDbEntity
  8
0
100
AcDbSpline
 62
7
  6
CONTINUOUS
 70
0
 71
3
 72
19
 73
15
 74
0
 42
0.0000001
 43
0.0000001
 44
0.0000000001
 40
0.0
 40
0.0
 40
0.0
 40
0.0
 40
0.0612631006
 40
0.1227350666
 40
0.1844040832
 40
0.2462701852
 40
0.3705300767
 40
0.4954766211
 40
0.621014252
 40
0.7470268331
 40
0.810186546
 40
0.8734142556
 40
0.9366916504
 40
1.0
 40
1.0
 40
1.0
 40
1.0
 10
10.7340473054
 20
7.6709764505
 30
0.0
 10
10.7340473054
 20
7.6740047545
 30
0.0
 10
10.7339005129
 20
7.6800726929
 30
0.0
 10
10.733243323
 20
7.6891675375
 30
0.0
 10
10.7321500175
 20
7.6982507256
 30
0.0
 10
10.7301119316
 20
7.7103325602
 30
0.0
 10
10.7264844216
 20
7.7253004313
 30
0.0
 10
10.720460053
 20
7.742844851
 30
0.0
 10
10.7128140813
 20
7.7598404266
 30
0.0
 10
10.7051540432
 20
7.7734070777
 30
0.0
 10
10.6982946473
 20
7.7838328137
 30
0.0
 10
10.6927908919
 20
7.7914268463
 30
0.0
 10
10.6869457897
 20
7.7987702588
 30
0.0
 10
10.682830613
 20
7.803487281
 30
0.0
 10
10.6807207806
 20
7.8057985079
 30
0.0
  0
SPLINE
  5
376
100
AcDbEntity
  8
0
100
AcDbSpline
 62
7
  6
CONTINUOUS
 70
0
 71
3
 72
29
 73
25
 74
0
 42
0.0000001
 43
0.0000001
 44
0.0000000001
 40
0.0
 40
0.0
 40
0.0
 40
0.0
 40
0.0646780806
 40
0.1292370535
 40
0.1936075594
 40
0.2577263809
 40
0.3215385935
 40
0.3849994871
 40
0.4480762362
 40
0.5107492496
 40
0.5730130812
 40
0.6348769016
 40
0.6656748193
 40
0.6963828307
 40
0.7270060837
 40
0.7575505285
 40
0.7880228544
 40
0.818430458
 40
0.8487813629
 40
0.8790841332
 40
0.9093478159
 40
0.9395818437
 40
0.9697959317
 40
1.0
 40
1.0
 40
1.0
 40
1.0
 10
10.6686291556
 20
7.8179948597
 30
0.0
 10
10.6641428752
 20
7.8221616621
 30
0.0
 10
10.654806095
 20
7.8300967142
 30
0.0
 10
10.6398277961
 20
7.840698933
 30
0.0
 10
10.6240121574
 20
7.8499045325
 30
0.0
 10
10.6075012731
 20
7.8576299777
 30
0.0
 10
10.5904417766
 20
7.8638065352
 30
0.0
 10
10.5729856395
 20
7.8683786827
 30
0.0
 10
10.5552884262
 20
7.8713051907
 30
0.0
 10
10.537507643
 20
7.8725594081
 30
0.0
 10
10.5198030456
 20
7.872129839
 30
0.0
 10
10.5052179524
 20
7.8703677415
 30
0.0
 10
10.4937525788
 20
7.8681245313
 30
0.0
 10
10.4852818177
 20
7.8660329576
 30
0.0
 10
10.476947206
 20
7.8635346439
 30
0.0
 10
10.4687671222
 20
7.8606351263
 30
0.0
 10
10.460759948
 20
7.8573408291
 30
0.0
 10
10.4529435474
 20
7.8536591679
 30
0.0
 10
10.4453354162
 20
7.8495983411
 30
0.0
 10
10.4379525923
 20
7.8451673768
 30
0.0
 10
10.4308115715
 20
7.8403762503
 30
0.0
 10
10.4239282839
 20
7.8352355928
 30
0.0
 10
10.4173183711
 20
7.8297570597
 30
0.0
 10
10.4131030697
 20
7.8258869649
 30
0.0
 10
10.4110465099
 20
7.8239004684
 30
0.0
  0
SPLINE
  5
377
100
AcDbEntity
  8
0
100
AcDbSpline
 62
7
  6
CONTINUOUS
 70
0
 71
3
 72
18
 73
14
 74
0
 42
0.0000001
 43
0.0000001
 44
0.0000000001
 40
0.0
 40
0.0
 40
0.0
 40
0.0
 40
0.0548620589
 40
0.1099280789
 40
0.165399508
 40
0.2214731255
 40
0.2783387361
 40
0.3361775086
 40
0.4554063416
 40
0.5804417492
 40
0.7123343341
 40
0.8519577333
 40
1.0
 40
1.0
 40
1.0
 40
1.0
 10
11.3551481614
 20
10.668690749
 30
0.0
 10
11.3551481613
 20
10.6677628817
 30
0.0
 10
11.3550892591
 20
10.6659031647
 30
0.0
 10
11.3548244565
 20
10.6631166149
 30
0.0
 10
11.3543832695
 20
10.6603316708
 30
0.0
 10
11.3537658437
 20
10.6575493497
 30
0.0
 10
11.3529724184
 20
10.6547703539
 30
0.0
 10
11.3516674113
 20
10.6510333496
 30
0.0
 10
11.3495768121
 20
10.6463593577
 30
0.0
 10
11.3463947897
 20
10.6408393554
 30
0.0
 10
11.3425192589
 20
10.6353550827
 30
0.0
 10
11.3379561161
 20
10.6299120438
 30
0.0
 10
11.3345623359
 20
10.6264196728
 30
0.0
 10
11.3327614669
 20
10.6246801667
 30
0.0
  0
SPLINE
  5
378
100
AcDbEntity
  8
0
100
AcDbSpline
 62
7
  6
CONTINUOUS
 70
0
 71
3
 72
41
 73
37
 74
0
 42
0.0000001
 43
0.0000001
 44
0.0000000001
 40
0.0
 40
0.0
 40
0.0
 40
0.0
 40
0.0149724862
 40
0.0299480307
 40
0.0449296746
 40
0.0599204222
 40
0.0899350731
 40
0.1200204959
 40
0.1501975964
 40
0.1804850878
 40
0.2108990702
 40
0.2414526838
 40
0.2721558423
 40
0.303015057
 40
0.3340333403
 40
0.3652101893
 40
0.3965416515
 40
0.4280204628
 40
0.4596362457
 40
0.4913757643
 40
0.5232232351
 40
0.5551606749
 40
0.587168282
 40
0.6192248472
 40
0.6513081855
 40
0.6833955794
 40
0.7154642309
 40
0.7474917144
 40
0.779456424
 40
0.8113380097
 40
0.8431177978
 40
0.8747791805
 40
0.9063079772
 40
0.937692809
 40
0.9689250164
 40
1.0
 40
1.0
 40
1.0
 40
1.0
 10
10.2167554422
 20
7.9407116001
 30
0.0
 10
10.2201856817
 20
7.9440249684
 30
0.0
 10
10.2271793833
 20
7.9505167667
 30
0.0
 10
10.2380497407
 20
7.9598308641
 30
0.0
 10
10.2492862881
 20
7.9687098696
 30
0.0
 10
10.2647396815
 20
7.9799548342
 30
0.0
 10
10.2849049823
 20
7.9928685601
 30
0.0
 10
10.3102943203
 20
8.0064313963
 30
0.0
 10
10.3367494517
 20
8.0179961488
 30
0.0
 10
10.3641235575
 20
8.0274986289
 30
0.0
 10
10.3922660201
 20
8.0348869846
 30
0.0
 10
10.4210217323
 20
8.0401208292
 30
0.0
 10
10.4502323797
 20
8.0431717767
 30
0.0
 10
10.4797372213
 20
8.044023417
 30
0.0
 10
10.5093739882
 20
8.042671412
 30
0.0
 10
10.5389797665
 20
8.0391235882
 30
0.0
 10
10.5683918939
 20
8.033399807
 30
0.0
 10
10.5974488315
 20
8.0255318163
 30
0.0
 10
10.6259910367
 20
8.0155630955
 30
0.0
 10
10.653861854
 20
8.0035486718
 30
0.0
 10
10.6809083368
 20
7.9895547236
 30
0.0
 10
10.706982063
 20
7.9736582189
 30
0.0
 10
10.7319399707
 20
7.9559465556
 30
0.0
 10
10.7556451365
 20
7.9365170683
 30
0.0
 10
10.7779674821
 20
7.915476451
 30
0.0
 10
10.7987844761
 20
7.8929401894
 30
0.0
 10
10.8179818668
 20
7.8690319947
 30
0.0
 10
10.8354542507
 20
7.8438830717
 30
0.0
 10
10.8511056257
 20
7.8176314028
 30
0.0
 10
10.8648499416
 20
7.7904210203
 30
0.0
 10
10.8766116188
 20
7.7624012622
 30
0.0
 10
10.886325884
 20
7.7337258523
 30
0.0
 10
10.8939391373
 20
7.7045523204
 30
0.0
 10
10.8994092501
 20
7.6750403187
 30
0.0
 10
10.902705997
 20
7.645354001
 30
0.0
 10
10.9034443906
 20
7.6254997545
 30
0.0
 10
10.9034443906
 20
7.6156014797
 30
0.0
  0
SPLINE
  5
379
100
AcDbEntity
  8
0
100
AcDbSpline
 62
7
  6
CONTINUOUS
 70
0
 71
3
 72
41
 73
37
 74
0
 42
0.0000001
 43
0.0000001
 44
0.0000000001
 40
0.0
 40
0.0
 40
0.0
 40
0.0
 40
0.0299421722
 40
0.0599087187
 40
0.0899234222
 40
0.1200088965
 40
0.1501860486
 40
0.1804735921
 40
0.2108876267
 40
0.2414412921
 40
0.2721445039
 40
0.3030037728
 40
0.3340221097
 40
0.3651990124
 40
0.3965305293
 40
0.4280093954
 40
0.4596252325
 40
0.4913648061
 40
0.523212333
 40
0.5551498293
 40
0.5871574933
 40
0.6192141165
 40
0.6512975132
 40
0.6833849656
 40
0.7154536753
 40
0.7314763803
 40
0.7474860474
 40
0.7794508144
 40
0.8113324582
 40
0.8431123019
 40
0.8747737477
 40
0.9063025846
 40
0.9376874998
 40
0.9533255315
 40
0.9689249968
 40
1.0
 40
1.0
 40
1.0
 40
1.0
 10
11.202626947
 20
10.2121169238
 30
0.0
 10
11.2061273649
 20
10.2154980862
 30
0.0
 10
11.2134034202
 20
10.2219875683
 30
0.0
 10
11.2250608267
 20
10.2308283247
 30
0.0
 10
11.2374019421
 20
10.2387313994
 30
0.0
 10
11.2503578173
 20
10.2456524502
 30
0.0
 10
11.26385722
 20
10.2515536676
 30
0.0
 10
11.2778256489
 20
10.2564026116
 30
0.0
 10
11.2921861295
 20
10.2601727509
 30
0.0
 10
11.3068595458
 20
10.2628435011
 30
0.0
 10
11.3217651081
 20
10.2644003536
 30
0.0
 10
11.3368207933
 20
10.2648349377
 30
0.0
 10
11.351943798
 20
10.2641450594
 30
0.0
 10
11.3670509917
 20
10.2623347004
 30
0.0
 10
11.3820593691
 20
10.2594139876
 30
0.0
 10
11.396886501
 20
10.2553991309
 30
0.0
 10
11.411450981
 20
10.2503123285
 30
0.0
 10
11.4256728657
 20
10.2441816418
 30
0.0
 10
11.4394741079
 20
10.2370408385
 30
0.0
 10
11.4527789767
 20
10.2289292092
 30
0.0
 10
11.4655144756
 20
10.2198913405
 30
0.0
 10
11.4776107069
 20
10.209976916
 30
0.0
 10
11.4890013671
 20
10.1992402785
 30
0.0
 10
11.4996236714
 20
10.1877407573
 30
0.0
 10
11.5077901757
 20
10.1775702129
 30
0.0
 10
11.513883151
 20
10.1691164483
 30
0.0
 10
11.5196695583
 20
10.1604702957
 30
0.0
 10
11.5263222995
 20
10.1493119296
 30
0.0
 10
11.5333355749
 20
10.1354272967
 30
0.0
 10
11.5393373541
 20
10.1211293727
 30
0.0
 10
11.5442943272
 20
10.106496876
 30
0.0
 10
11.5481791876
 20
10.0916105018
 30
0.0
 10
11.5505082389
 20
10.0790447827
 30
0.0
 10
11.5518147761
 20
10.0689483941
 30
0.0
 10
11.5527472146
 20
10.0588616621
 30
0.0
 10
11.5530295473
 20
10.0512714715
 30
0.0
 10
11.5530295473
 20
10.0462206006
 30
0.0
  0
SPLINE
  5
37A
100
AcDbEntity
  8
0
100
AcDbSpline
 62
7
  6
CONTINUOUS
 70
0
 71
3
 72
41
 73
37
 74
0
 42
0.0000001
 43
0.0000001
 44
0.0000000001
 40
0.0
 40
0.0
 40
0.0
 40
0.0
 40
0.0299421722
 40
0.0599087187
 40
0.0899234222
 40
0.1200088965
 40
0.1501860486
 40
0.1804735921
 40
0.2108876267
 40
0.2414412921
 40
0.2721445039
 40
0.3030037728
 40
0.3340221097
 40
0.3651990124
 40
0.3965305293
 40
0.4280093954
 40
0.4596252325
 40
0.4913648061
 40
0.523212333
 40
0.5551498293
 40
0.5871574933
 40
0.6192141165
 40
0.6512975132
 40
0.6833849656
 40
0.7154536753
 40
0.7314763803
 40
0.7474860474
 40
0.7794508144
 40
0.8113324582
 40
0.8431123019
 40
0.8747737477
 40
0.9063025846
 40
0.9376874998
 40
0.9533255315
 40
0.9689249968
 40
1.0
 40
1.0
 40
1.0
 40
1.0
 10
10.115960328
 20
7.1482183883
 30
0.0
 10
10.1194607459
 20
7.1515995507
 30
0.0
 10
10.1267368012
 20
7.1580890328
 30
0.0
 10
10.1383942077
 20
7.1669297892
 30
0.0
 10
10.1507353231
 20
7.174832864
 30
0.0
 10
10.1636911984
 20
7.1817539148
 30
0.0
 10
10.177190601
 20
7.1876551322
 30
0.0
 10
10.1911590299
 20
7.1925040761
 30
0.0
 10
10.2055195106
 20
7.1962742154
 30
0.0
 10
10.2201929268
 20
7.1989449656
 30
0.0
 10
10.2350984891
 20
7.2005018181
 30
0.0
 10
10.2501541743
 20
7.2009364022
 30
0.0
 10
10.2652771791
 20
7.200246524
 30
0.0
 10
10.2803843728
 20
7.1984361649
 30
0.0
 10
10.2953927501
 20
7.1955154521
 30
0.0
 10
10.310219882
 20
7.1915005954
 30
0.0
 10
10.324784362
 20
7.186413793
 30
0.0
 10
10.3390062467
 20
7.1802831063
 30
0.0
 10
10.352807489
 20
7.173142303
 30
0.0
 10
10.3661123578
 20
7.1650306737
 30
0.0
 10
10.3788478567
 20
7.1559928051
 30
0.0
 10
10.390944088
 20
7.1460783805
 30
0.0
 10
10.4023347481
 20
7.135341743
 30
0.0
 10
10.4129570524
 20
7.1238422218
 30
0.0
 10
10.4211235568
 20
7.1136716774
 30
0.0
 10
10.4272165321
 20
7.1052179128
 30
0.0
 10
10.4330029394
 20
7.0965717603
 30
0.0
 10
10.4396556805
 20
7.0854133941
 30
0.0
 10
10.4466689559
 20
7.0715287613
 30
0.0
 10
10.4526707351
 20
7.0572308372
 30
0.0
 10
10.4576277083
 20
7.0425983405
 30
0.0
 10
10.4615125686
 20
7.0277119664
 30
0.0
 10
10.4638416199
 20
7.0151462472
 30
0.0
 10
10.4651481571
 20
7.0050498587
 30
0.0
 10
10.4660805956
 20
6.9949631266
 30
0.0
 10
10.4663629283
 20
6.987372936
 30
0.0
 10
10.4663629283
 20
6.9823220651
 30
0.0
  0
SPLINE
  5
37B
100
AcDbEntity
  8
0
100
AcDbSpline
 62
7
  6
CONTINUOUS
 70
0
 71
3
 72
88
 73
84
 74
0
 42
0.0000001
 43
0.0000001
 44
0.0000000001
 40
0.0
 40
0.0
 40
0.0
 40
0.0
 40
0.0027164206
 40
0.0054532135
 40
0.00823027
 40
0.0110665466
 40
0.0139797362
 40
0.0169860264
 40
0.0200999638
 40
0.0233344621
 40
0.0267007864
 40
0.030208716
 40
0.033866602
 40
0.0376815365
 40
0.0416594862
 40
0.0458053757
 40
0.0501232805
 40
0.0546164357
 40
0.0592874172
 40
0.0641381604
 40
0.0691700473
 40
0.0743839976
 40
0.0797804461
 40
0.085359486
 40
0.0911208072
 40
0.097063806
 40
0.1031875785
 40
0.1094909314
 40
0.1226301057
 40
0.1364676988
 40
0.1509864378
 40
0.1661662591
 40
0.1819846247
 40
0.1984167804
 40
0.2154359739
 40
0.2330136371
 40
0.2511195505
 40
0.2697219952
 40
0.2887878869
 40
0.3082829001
 40
0.3281715858
 40
0.3484174815
 40
0.3689832185
 40
0.3898306305
 40
0.410920857
 40
0.4322144439
 40
0.4536714439
 40
0.4969133241
 40
0.5403214886
 40
0.5835686279
 40
0.6050302166
 40
0.6263296837
 40
0.6474270673
 40
0.6682828961
 40
0.6888582896
 40
0.7091150586
 40
0.7290158075
 40
0.7485240405
 40
0.7676042737
 40
0.7862221443
 40
0.8043445271
 40
0.8219396585
 40
0.8389772699
 40
0.8554287349
 40
0.8712672375
 40
0.8864679574
 40
0.9010082824
 40
0.9148680665
 40
0.9280299429
 40
0.9343448017
 40
0.9404801679
 40
0.9464348204
 40
0.9522078552
 40
0.9577986253
 40
0.9632068219
 40
0.9684325067
 40
0.9734760906
 40
0.9783384494
 40
0.9830208978
 40
0.9875254123
 40
0.9918545974
 40
0.9960115688
 40
1.0
 40
1.0
 40
1.0
 40
1.0
 10
12.7099222976
 20
8.4289803872
 30
0.0
 10
12.7088211347
 20
8.4290567495
 30
0.0
 10
12.7066161907
 20
8.4293097235
 30
0.0
 10
12.703336834
 20
8.4299866182
 30
0.0
 10
12.7000822762
 20
8.430960945
 30
0.0
 10
12.696854808
 20
8.4322316636
 30
0.0
 10
12.6936561159
 20
8.4337977018
 30
0.0
 10
12.6904878425
 20
8.4356578257
 30
0.0
 10
12.6873514176
 20
8.437810674
 30
0.0
 10
12.6842482895
 20
8.4402549491
 30
0.0
 10
12.6811797337
 20
8.442989149
 30
0.0
 10
12.6781471322
 20
8.4460118414
 30
0.0
 10
12.6751517722
 20
8.4493214123
 30
0.0
 10
12.672194987
 20
8.4529161916
 30
0.0
 10
12.6692781452
 20
8.4567944039
 30
0.0
 10
12.6664025381
 20
8.4609541008
 30
0.0
 10
12.6635695842
 20
8.4653932719
 30
0.0
 10
12.6607805698
 20
8.4701096991
 30
0.0
 10
12.6580368844
 20
8.4751010806
 30
0.0
 10
12.6553398493
 20
8.4803649439
 30
0.0
 10
12.6526907727
 20
8.4858986815
 30
0.0
 10
12.6500910055
 20
8.4916995627
 30
0.0
 10
12.6475417812
 20
8.4977646894
 30
0.0
 10
12.6450444284
 20
8.5040910585
 30
0.0
 10
12.6426001487
 20
8.5106755054
 30
0.0
 10
12.6402101948
 20
8.5175147466
 30
0.0
 10
12.637875746
 20
8.5246053734
 30
0.0
 10
12.6347960754
 20
8.5345276204
 30
0.0
 10
12.6311045657
 20
8.5475397229
 30
0.0
 10
12.6269731159
 20
8.5638893804
 30
0.0
 10
12.623089371
 20
8.5811504733
 30
0.0
 10
12.6194612059
 20
8.5992883948
 30
0.0
 10
12.616096005
 20
8.6182669221
 30
0.0
 10
12.6130006162
 20
8.6380480377
 30
0.0
 10
12.6101813426
 20
8.6585920905
 30
0.0
 10
12.6076439232
 20
8.6798578596
 30
0.0
 10
12.6053935209
 20
8.70180265
 30
0.0
 10
12.6034347164
 20
8.7243823842
 30
0.0
 10
12.601771498
 20
8.7475516955
 30
0.0
 10
12.6004072545
 20
8.7712640221
 30
0.0
 10
12.5993447688
 20
8.7954717017
 30
0.0
 10
12.5985862121
 20
8.8201260674
 30
0.0
 10
12.5981331363
 20
8.8451775462
 30
0.0
 10
12.5979864738
 20
8.8705757654
 30
0.0
 10
12.5981465455
 20
8.8962696384
 30
0.0
 10
12.5986130224
 20
8.9222075363
 30
0.0
 10
12.5996450389
 20
8.9571356467
 30
0.0
 10
12.6016941879
 20
9.0010208472
 30
0.0
 10
12.6053367747
 20
9.0536824204
 30
0.0
 10
12.6093495321
 20
9.0974358097
 30
0.0
 10
12.6131366318
 20
9.1321797657
 30
0.0
 10
12.6162462145
 20
9.1579420304
 30
0.0
 10
12.6196257962
 20
9.1834219676
 30
0.0
 10
12.623268593
 20
9.2085683776
 30
0.0
 10
12.6271672515
 20
9.2333306845
 30
0.0
 10
12.6313139109
 20
9.257659101
 30
0.0
 10
12.6357002062
 20
9.2815047126
 30
0.0
 10
12.6403172881
 20
9.3048195834
 30
0.0
 10
12.645155835
 20
9.3275568541
 30
0.0
 10
12.650206077
 20
9.3496708376
 30
0.0
 10
12.6554578146
 20
9.3711171115
 30
0.0
 10
12.6609004393
 20
9.3918526087
 30
0.0
 10
12.6665229548
 20
9.411835708
 30
0.0
 10
12.6723140008
 20
9.4310263222
 30
0.0
 10
12.6782618728
 20
9.449385994
 30
0.0
 10
12.6843545492
 20
9.466877959
 30
0.0
 10
12.6905797241
 20
9.4834673033
 30
0.0
 10
12.6969248303
 20
9.499120779
 30
0.0
 10
12.7023742468
 20
9.5115250546
 30
0.0
 10
12.7067919412
 20
9.5209487663
 30
0.0
 10
12.7100814408
 20
9.5276656733
 30
0.0
 10
12.7133913373
 20
9.534126145
 30
0.0
 10
12.7167199531
 20
9.5403269723
 30
0.0
 10
12.7200656381
 20
9.5462650523
 30
0.0
 10
12.7234267274
 20
9.5519374252
 30
0.0
 10
12.7268015213
 20
9.5573412825
 30
0.0
 10
12.73018839
 20
9.5624739101
 30
0.0
 10
12.7335855845
 20
9.5673327814
 30
0.0
 10
12.7369914882
 20
9.5719154759
 30
0.0
 10
12.7404044388
 20
9.5762197732
 30
0.0
 10
12.7438228472
 20
9.5802435786
 30
0.0
 10
12.7472448924
 20
9.5839847077
 30
0.0
 10
12.7495749793
 20
9.5863370167
 30
0.0
 10
12.7507406639
 20
9.5874629816
 30
0.0
  0
SPLINE
  5
37C
100
AcDbEntity
  8
0
100
AcDbSpline
 62
7
  6
CONTINUOUS
 70
0
 71
3
 72
74
 73
70
 74
0
 42
0.0000001
 43
0.0000001
 44
0.0000000001
 40
0.0
 40
0.0
 40
0.0
 40
0.0
 40
0.0027966546
 40
0.0056682183
 40
0.0116913545
 40
0.0148721981
 40
0.0181793217
 40
0.0216219649
 40
0.0252080308
 40
0.028944272
 40
0.0328364138
 40
0.036889186
 40
0.0411065363
 40
0.0454916585
 40
0.0500470582
 40
0.0547747194
 40
0.059676056
 40
0.0700025141
 40
0.0810302932
 40
0.0927569712
 40
0.1051756126
 40
0.1182754822
 40
0.1320426197
 40
0.1464602546
 40
0.1615091005
 40
0.1771676493
 40
0.193412418
 40
0.2102181257
 40
0.2275578249
 40
0.2454030779
 40
0.2637240969
 40
0.2824898479
 40
0.301668142
 40
0.3212257705
 40
0.3411286057
 40
0.3818285434
 40
0.4234806754
 40
0.4657880425
 40
0.508447634
 40
0.5511532257
 40
0.5935981755
 40
0.6354782143
 40
0.6764942703
 40
0.696587341
 40
0.7163560828
 40
0.7357658452
 40
0.7547828439
 40
0.7733742819
 40
0.7915084296
 40
0.8091547208
 40
0.8262838838
 40
0.8428680843
 40
0.8588810294
 40
0.874298112
 40
0.8890966136
 40
0.9032559139
 40
0.9167576967
 40
0.9295862426
 40
0.9417288371
 40
0.9531762129
 40
0.9639231508
 40
0.9690339726
 40
0.9739700079
 40
0.9787320973
 40
0.9833215957
 40
0.9877404596
 40
0.991991133
 40
0.9960764972
 40
1.0
 40
1.0
 40
1.0
 40
1.0
 10
12.6848902099
 20
8.6171335534
 30
0.0
 10
12.6841609867
 20
8.6173913775
 30
0.0
 10
12.682703972
 20
8.6179753594
 30
0.0
 10
12.6798032504
 20
8.619409603
 30
0.0
 10
12.6769832243
 20
8.6212224596
 30
0.0
 10
12.6742611185
 20
8.6233605475
 30
0.0
 10
12.6722043306
 20
8.6251831844
 30
0.0
 10
12.670171204
 20
8.6271943694
 30
0.0
 10
12.668162258
 20
8.629393234
 30
0.0
 10
12.6661784308
 20
8.6317786728
 30
0.0
 10
12.664220594
 20
8.6343495901
 30
0.0
 10
12.6622895651
 20
8.6371047346
 30
0.0
 10
12.6603862403
 20
8.6400428366
 30
0.0
 10
12.6585114864
 20
8.6431625173
 30
0.0
 10
12.6566661341
 20
8.6464622928
 30
0.0
 10
12.6548510591
 20
8.6499406409
 30
0.0
 10
12.6524302463
 20
8.6549010028
 30
0.0
 10
12.6494954885
 20
8.6615461748
 30
0.0
 10
12.6461665382
 20
8.6700706959
 30
0.0
 10
12.642977899
 20
8.6792632073
 30
0.0
 10
12.6399356453
 20
8.6891063114
 30
0.0
 10
12.6370455879
 20
8.6995815453
 30
0.0
 10
12.6343132963
 20
8.7106690876
 30
0.0
 10
12.6317440588
 20
8.722347914
 30
0.0
 10
12.6293428394
 20
8.7345958066
 30
0.0
 10
12.6271142815
 20
8.7473894233
 30
0.0
 10
12.6250627048
 20
8.7607043573
 30
0.0
 10
12.6231920948
 20
8.7745151838
 30
0.0
 10
12.6215060666
 20
8.7887955048
 30
0.0
 10
12.6200078834
 20
8.8035180104
 30
0.0
 10
12.6187004526
 20
8.8186545394
 30
0.0
 10
12.6175863147
 20
8.8341761304
 30
0.0
 10
12.6166676263
 20
8.8500530654
 30
0.0
 10
12.6159461439
 20
8.8662549734
 30
0.0
 10
12.6152438912
 20
8.8884139921
 30
0.0
 10
12.6148770375
 20
8.9166948648
 30
0.0
 10
12.6152377594
 20
8.9511724684
 30
0.0
 10
12.616394006
 20
8.9861748314
 30
0.0
 10
12.6183370182
 20
9.0214340392
 30
0.0
 10
12.6210520405
 20
9.0566803707
 30
0.0
 10
12.6245182326
 20
9.0916442081
 30
0.0
 10
12.628708989
 20
9.1260579367
 30
0.0
 10
12.6328055573
 20
9.1542480866
 30
0.0
 10
12.636428432
 20
9.1763213061
 30
0.0
 10
12.6392865017
 20
9.1924632002
 30
0.0
 10
12.6422984716
 20
9.208274234
 30
0.0
 10
12.6454585863
 20
9.2237241589
 30
0.0
 10
12.6487607558
 20
9.2387834009
 30
0.0
 10
12.6521986309
 20
9.2534231464
 30
0.0
 10
12.6557656047
 20
9.2676153843
 30
0.0
 10
12.6594548211
 20
9.2813329725
 30
0.0
 10
12.6632591726
 20
9.2945496969
 30
0.0
 10
12.6671713374
 20
9.3072403135
 30
0.0
 10
12.6711837952
 20
9.3193805963
 30
0.0
 10
12.6752888278
 20
9.3309474022
 30
0.0
 10
12.6794785316
 20
9.3419187221
 30
0.0
 10
12.6837448582
 20
9.3522737244
 30
0.0
 10
12.6880796353
 20
9.3619927768
 30
0.0
 10
12.6924745881
 20
9.3710576049
 30
0.0
 10
12.6969213197
 20
9.3794510333
 30
0.0
 10
12.7007242338
 20
9.3859783141
 30
0.0
 10
12.7037922317
 20
9.3908430219
 30
0.0
 10
12.7060622602
 20
9.3942525787
 30
0.0
 10
12.7083388735
 20
9.3974829134
 30
0.0
 10
12.7106210622
 20
9.4005325148
 30
0.0
 10
12.7129077545
 20
9.4033999968
 30
0.0
 10
12.7151979544
 20
9.4060839844
 30
0.0
 10
12.7174904294
 20
9.4085830911
 30
0.0
 10
12.7190505663
 20
9.4101564085
 30
0.0
 10
12.7198310349
 20
9.4109102832
 30
0.0
  0
SPLINE
  5
37D
100
AcDbEntity
  8
0
100
AcDbSpline
 62
7
  6
CONTINUOUS
 70
0
 71
3
 72
15
 73
11
 74
0
 42
0.0000001
 43
0.0000001
 44
0.0000000001
 40
0.0
 40
0.0
 40
0.0
 40
0.0
 40
0.1084411279
 40
0.2203204234
 40
0.3363917976
 40
0.4573220227
 40
0.5836916406
 40
0.7159994405
 40
0.8546588732
 40
1.0
 40
1.0
 40
1.0
 40
1.0
 10
12.7407951647
 20
9.4232563736
 30
0.0
 10
12.7399221743
 20
9.4230781721
 30
0.0
 10
12.7381648449
 20
9.4226313252
 30
0.0
 10
12.7355543187
 20
9.4217136213
 30
0.0
 10
12.7329353144
 20
9.4205407518
 30
0.0
 10
12.7303097167
 20
9.4191138744
 30
0.0
 10
12.7276788318
 20
9.4174342123
 30
0.0
 10
12.7250440887
 20
9.4155029812
 30
0.0
 10
12.7224070911
 20
9.4133216813
 30
0.0
 10
12.720689952
 20
9.4117399336
 30
0.0
 10
12.7198310349
 20
9.4109102832
 30
0.0
  0
SPLINE
  5
37E
100
AcDbEntity
  8
0
100
AcDbSpline
 62
7
  6
CONTINUOUS
 70
0
 71
3
 72
21
 73
17
 74
0
 42
0.0000001
 43
0.0000001
 44
0.0000000001
 40
0.0
 40
0.0
 40
0.0
 40
0.0
 40
0.1273175725
 40
0.2538000026
 40
0.3167619332
 40
0.3795354925
 40
0.4421314982
 40
0.5045621433
 40
0.5668413429
 40
0.6289845306
 40
0.6910084612
 40
0.7529311022
 40
0.8147714553
 40
0.8765493457
 40
0.9382852283
 40
1.0
 40
1.0
 40
1.0
 40
1.0
 10
10.0587422055
 20
7.0105906583
 30
0.0
 10
10.0587422055
 20
7.0170889846
 30
0.0
 10
10.0593625129
 20
7.030051375
 30
0.0
 10
10.061705192
 20
7.0460756919
 30
0.0
 10
10.0645052317
 20
7.0586453712
 30
0.0
 10
10.0670587191
 20
7.0679167678
 30
0.0
 10
10.070062705
 20
7.0770234371
 30
0.0
 10
10.0735103403
 20
7.0859446162
 30
0.0
 10
10.0773936448
 20
7.0946596788
 30
0.0
 10
10.0817036871
 20
7.1031485425
 30
0.0
 10
10.0864305809
 20
7.1113915984
 30
0.0
 10
10.0915634097
 20
7.1193698516
 30
0.0
 10
10.0970903175
 20
7.1270648894
 30
0.0
 10
10.1029986578
 20
7.1344589992
 30
0.0
 10
10.1092745749
 20
7.1415348858
 30
0.0
 10
10.1136947251
 20
7.146029972
 30
0.0
 10
10.115960328
 20
7.1482183883
 30
0.0
  0
SPLINE
  5
37F
100
AcDbEntity
  8
0
100
AcDbSpline
 62
7
  6
CONTINUOUS
 70
0
 71
3
 72
91
 73
87
 74
0
 42
0.0000001
 43
0.0000001
 44
0.0000000001
 40
0.0
 40
0.0
 40
0.0
 40
0.0
 40
0.0039801824
 40
0.0081241125
 40
0.0124359604
 40
0.0169193082
 40
0.0215771808
 40
0.0264119179
 40
0.0314251804
 40
0.036618156
 40
0.0419915391
 40
0.0475456573
 40
0.0532804234
 40
0.0591954189
 40
0.0652899227
 40
0.0715629017
 40
0.0780131034
 40
0.0846389837
 40
0.0984102885
 40
0.1128608532
 40
0.1279713725
 40
0.1437199568
 40
0.1600824082
 40
0.1770324532
 40
0.1945419392
 40
0.2125810061
 40
0.2311182422
 40
0.2501208275
 40
0.2695546626
 40
0.2893844909
 40
0.3095740146
 40
0.330086005
 40
0.35088241
 40
0.3719244606
 40
0.3931727759
 40
0.4145874652
 40
0.4361282289
 40
0.4577544586
 40
0.4794253371
 40
0.501099938
 40
0.5227373261
 40
0.5442966575
 40
0.5657372785
 40
0.5870188258
 40
0.6081013261
 40
0.6289452975
 40
0.6495118524
 40
0.6697628021
 40
0.6896607608
 40
0.7091692527
 40
0.7282528228
 40
0.7468771515
 40
0.7650091753
 40
0.7826172172
 40
0.7996711268
 40
0.8161424293
 40
0.8320044948
 40
0.8472327309
 40
0.8618048077
 40
0.8757009255
 40
0.8889041429
 40
0.8952417292
 40
0.9014012652
 40
0.9073816417
 40
0.9131820083
 40
0.9188018518
 40
0.9242409423
 40
0.9294994633
 40
0.9345779585
 40
0.9394774438
 40
0.944199427
 40
0.9487459568
 40
0.95311974
 40
0.9573241405
 40
0.9613633601
 40
0.9652424499
 40
0.9689674846
 40
0.9725456466
 40
0.9759853437
 40
0.9824865016
 40
0.9855753543
 40
0.9885738189
 40
0.9914977372
 40
0.9943643366
 40
0.9971920099
 40
1.0
 40
1.0
 40
1.0
 40
1.0
 10
10.0635348559
 20
10.7127013312
 30
0.0
 10
10.0648360878
 20
10.7139582247
 30
0.0
 10
10.0675511772
 20
10.7164631222
 30
0.0
 10
10.0718619042
 20
10.7201217136
 30
0.0
 10
10.0764891839
 20
10.7237540614
 30
0.0
 10
10.0814304778
 20
10.7273582371
 30
0.0
 10
10.0866833769
 20
10.7309325574
 30
0.0
 10
10.0922453073
 20
10.7344752834
 30
0.0
 10
10.0981134873
 20
10.7379847164
 30
0.0
 10
10.1042850054
 20
10.7414590353
 30
0.0
 10
10.110756745
 20
10.7448965724
 30
0.0
 10
10.117525489
 20
10.7482955592
 30
0.0
 10
10.124587834
 20
10.751654324
 30
0.0
 10
10.1319402374
 20
10.7549711694
 30
0.0
 10
10.1395790084
 20
10.758244405
 30
0.0
 10
10.1475002915
 20
10.7614724137
 30
0.0
 10
10.1557001205
 20
10.7646535358
 30
0.0
 10
10.1671466328
 20
10.7688848758
 30
0.0
 10
10.1821283333
 20
10.7740344986
 30
0.0
 10
10.200925174
 20
10.7799253565
 30
0.0
 10
10.2207271305
 20
10.7855923394
 30
0.0
 10
10.2414942305
 20
10.7910239199
 30
0.0
 10
10.263184703
 20
10.796209034
 30
0.0
 10
10.2857548061
 20
10.8011371191
 30
0.0
 10
10.3091589998
 20
10.8057981339
 30
0.0
 10
10.3333500223
 20
10.8101825858
 30
0.0
 10
10.3582789987
 20
10.8142815468
 30
0.0
 10
10.3838955445
 20
10.8180866719
 30
0.0
 10
10.4101478714
 20
10.8215902154
 30
0.0
 10
10.4369828946
 20
10.824785047
 30
0.0
 10
10.4643463416
 20
10.8276646654
 30
0.0
 10
10.4921828629
 20
10.8302232107
 30
0.0
 10
10.5204361444
 20
10.8324554797
 30
0.0
 10
10.549049024
 20
10.834356934
 30
0.0
 10
10.5779636084
 20
10.8359237078
 30
0.0
 10
10.6071213918
 20
10.8371526159
 30
0.0
 10
10.6364633746
 20
10.8380411594
 30
0.0
 10
10.6659301823
 20
10.8385875315
 30
0.0
 10
10.6954621866
 20
10.8387906197
 30
0.0
 10
10.724999626
 20
10.8386500115
 30
0.0
 10
10.7544827285
 20
10.8381659941
 30
0.0
 10
10.7838518328
 20
10.8373395523
 30
0.0
 10
10.8130475098
 20
10.8361723662
 30
0.0
 10
10.8420106821
 20
10.8346668086
 30
0.0
 10
10.8706827447
 20
10.8328259397
 30
0.0
 10
10.8990056835
 20
10.8306535013
 30
0.0
 10
10.9269221951
 20
10.8281539108
 30
0.0
 10
10.9543758041
 20
10.8253322541
 30
0.0
 10
10.9813109779
 20
10.8221942716
 30
0.0
 10
11.0076732393
 20
10.8187463483
 30
0.0
 10
11.0334092785
 20
10.8149955007
 30
0.0
 10
11.058467062
 20
10.8109493631
 30
0.0
 10
11.0827959412
 20
10.8066161718
 30
0.0
 10
11.1063467596
 20
10.8020047506
 30
0.0
 10
11.1290719585
 20
10.7971244937
 30
0.0
 10
11.1509256742
 20
10.7919853436
 30
0.0
 10
11.1718638445
 20
10.7865977693
 30
0.0
 10
11.1918442802
 20
10.780972744
 30
0.0
 10
11.2108268506
 20
10.7751217166
 30
0.0
 10
11.228773272
 20
10.769056585
 30
0.0
 10
11.2430234131
 20
10.7637644502
 30
0.0
 10
11.2538692398
 20
10.7594235983
 30
0.0
 10
11.2616112031
 20
10.7561665959
 30
0.0
 10
11.2690681796
 20
10.7528654306
 30
0.0
 10
11.2762364191
 20
10.7495217031
 30
0.0
 10
11.2831123354
 20
10.7461371574
 30
0.0
 10
11.2896924595
 20
10.7427134295
 30
0.0
 10
11.2959735159
 20
10.7392522933
 30
0.0
 10
11.3019523483
 20
10.7357554334
 30
0.0
 10
11.307625978
 20
10.7322246061
 30
0.0
 10
11.312991584
 20
10.7286615665
 30
0.0
 10
11.3180464747
 20
10.7250680246
 30
0.0
 10
11.3227881711
 20
10.72144579
 30
0.0
 10
11.327214273
 20
10.7177965332
 30
0.0
 10
11.3313226126
 20
10.7141220688
 30
0.0
 10
11.3351111183
 20
10.7104240338
 30
0.0
 10
11.338577803
 20
10.7067042905
 30
0.0
 10
11.3417211703
 20
10.7029640922
 30
0.0
 10
11.3454086371
 20
10.6980461627
 30
0.0
 10
11.3485398967
 20
10.6929956746
 30
0.0
 10
11.3510259807
 20
10.6878373459
 30
0.0
 10
11.3525280615
 20
10.6840223768
 30
0.0
 10
11.3536977866
 20
10.6801981253
 30
0.0
 10
11.3545341968
 20
10.6763664489
 30
0.0
 10
11.3550363679
 20
10.6725300793
 30
0.0
 10
11.3551481616
 20
10.6699670839
 30
0.0
 10
11.3551481614
 20
10.668690749
 30
0.0
  0
SPLINE
  5
380
100
AcDbEntity
  8
0
100
AcDbSpline
 62
7
  6
CONTINUOUS
 70
0
 71
3
 72
18
 73
14
 74
0
 42
0.0000001
 43
0.0000001
 44
0.0000000001
 40
0.0
 40
0.0
 40
0.0
 40
0.0
 40
0.0548620589
 40
0.1099280789
 40
0.165399508
 40
0.2214731255
 40
0.2783387361
 40
0.3361775086
 40
0.4554063416
 40
0.5804417492
 40
0.7123343341
 40
0.8519577333
 40
1.0
 40
1.0
 40
1.0
 40
1.0
 10
10.0411481614
 20
10.6686907489
 30
0.0
 10
10.0411481615
 20
10.6696186162
 30
0.0
 10
10.0412070637
 20
10.6714783332
 30
0.0
 10
10.0414718663
 20
10.674264883
 30
0.0
 10
10.0419130533
 20
10.6770498271
 30
0.0
 10
10.0425304791
 20
10.6798321482
 30
0.0
 10
10.0433239044
 20
10.682611144
 30
0.0
 10
10.0446289115
 20
10.6863481483
 30
0.0
 10
10.0467195107
 20
10.6910221402
 30
0.0
 10
10.0499015331
 20
10.6965421425
 30
0.0
 10
10.0537770639
 20
10.7020264152
 30
0.0
 10
10.0583402067
 20
10.7074694541
 30
0.0
 10
10.0617339869
 20
10.7109618251
 30
0.0
 10
10.0635348559
 20
10.7127013312
 30
0.0
  0
SPLINE
  5
381
100
AcDbEntity
  8
0
100
AcDbSpline
 62
7
  6
CONTINUOUS
 70
0
 71
3
 72
41
 73
37
 74
0
 42
0.0000001
 43
0.0000001
 44
0.0000000001
 40
0.0
 40
0.0
 40
0.0
 40
0.0
 40
0.0149724862
 40
0.0299480307
 40
0.0449296746
 40
0.0599204222
 40
0.0899350731
 40
0.1200204959
 40
0.1501975964
 40
0.1804850878
 40
0.2108990702
 40
0.2414526838
 40
0.2721558423
 40
0.303015057
 40
0.3340333403
 40
0.3652101893
 40
0.3965416515
 40
0.4280204628
 40
0.4596362457
 40
0.4913757643
 40
0.5232232351
 40
0.5551606749
 40
0.587168282
 40
0.6192248472
 40
0.6513081855
 40
0.6833955794
 40
0.7154642309
 40
0.7474917144
 40
0.779456424
 40
0.8113380097
 40
0.8431177978
 40
0.8747791805
 40
0.9063079772
 40
0.937692809
 40
0.9689250164
 40
1.0
 40
1.0
 40
1.0
 40
1.0
 10
10.7913126333
 20
7.3458897635
 30
0.0
 10
10.7878823938
 20
7.3425763952
 30
0.0
 10
10.7808886922
 20
7.3360845969
 30
0.0
 10
10.7700183348
 20
7.3267704995
 30
0.0
 10
10.7587817874
 20
7.317891494
 30
0.0
 10
10.743328394
 20
7.3066465294
 30
0.0
 10
10.7231630933
 20
7.2937328035
 30
0.0
 10
10.6977737552
 20
7.2801699673
 30
0.0
 10
10.6713186239
 20
7.2686052148
 30
0.0
 10
10.643944518
 20
7.2591027347
 30
0.0
 10
10.6158020554
 20
7.2517143789
 30
0.0
 10
10.5870463433
 20
7.2464805344
 30
0.0
 10
10.5578356958
 20
7.2434295869
 30
0.0
 10
10.5283308543
 20
7.2425779466
 30
0.0
 10
10.4986940873
 20
7.2439299516
 30
0.0
 10
10.469088309
 20
7.2474777754
 30
0.0
 10
10.4396761816
 20
7.2532015565
 30
0.0
 10
10.4106192441
 20
7.2610695473
 30
0.0
 10
10.3820770388
 20
7.2710382681
 30
0.0
 10
10.3542062215
 20
7.2830526918
 30
0.0
 10
10.3271597387
 20
7.29704664
 30
0.0
 10
10.3010860126
 20
7.3129431447
 30
0.0
 10
10.2761281048
 20
7.330654808
 30
0.0
 10
10.252422939
 20
7.3500842953
 30
0.0
 10
10.2301005934
 20
7.3711249126
 30
0.0
 10
10.2092835994
 20
7.3936611742
 30
0.0
 10
10.1900862087
 20
7.4175693689
 30
0.0
 10
10.1726138248
 20
7.4427182919
 30
0.0
 10
10.1569624499
 20
7.4689699608
 30
0.0
 10
10.143218134
 20
7.4961803432
 30
0.0
 10
10.1314564567
 20
7.5242001013
 30
0.0
 10
10.1217421916
 20
7.5528755113
 30
0.0
 10
10.1141289383
 20
7.5820490432
 30
0.0
 10
10.1086588254
 20
7.6115610449
 30
0.0
 10
10.1053620786
 20
7.6412473626
 30
0.0
 10
10.1046236849
 20
7.6611016091
 30
0.0
 10
10.1046236849
 20
7.6709998838
 30
0.0
  0
SPLINE
  5
382
100
AcDbEntity
  8
0
100
AcDbSpline
 62
7
  6
CONTINUOUS
 70
0
 71
3
 72
41
 73
37
 74
0
 42
0.0000001
 43
0.0000001
 44
0.0000000001
 40
0.0
 40
0.0
 40
0.0
 40
0.0
 40
0.0149666323
 40
0.0299386628
 40
0.0449190256
 40
0.0599106091
 40
0.0899329265
 40
0.120032833
 40
0.150229988
 40
0.1805417912
 40
0.2109830056
 40
0.2415654538
 40
0.2722977903
 40
0.3031853589
 40
0.3342301245
 40
0.3654306806
 40
0.3967823277
 40
0.4282772213
 40
0.4599045764
 40
0.4916509224
 40
0.5235004029
 40
0.5554351161
 40
0.5874354845
 40
0.6194806482
 40
0.651548876
 40
0.6836179902
 40
0.7156657958
 40
0.7476705107
 40
0.7796111896
 40
0.8114681384
 40
0.8432233088
 40
0.8748606684
 40
0.9063665367
 40
0.9377299687
 40
0.9689425842
 40
1.0
 40
1.0
 40
1.0
 40
1.0
 10
10.7911899555
 20
7.3460270353
 30
0.0
 10
10.7876994592
 20
7.3428647916
 30
0.0
 10
10.7805922743
 20
7.3366754924
 30
0.0
 10
10.7695735702
 20
7.3278152126
 30
0.0
 10
10.7582095152
 20
7.3193885218
 30
0.0
 10
10.7426125393
 20
7.3087427377
 30
0.0
 10
10.722318985
 20
7.2965705616
 30
0.0
 10
10.6968565185
 20
7.283877473
 30
0.0
 10
10.6704043142
 20
7.2731555459
 30
0.0
 10
10.6431054927
 20
7.2644627846
 30
0.0
 10
10.6151064734
 20
7.2578453961
 30
0.0
 10
10.5865576887
 20
7.2533386143
 30
0.0
 10
10.5576123564
 20
7.2509662288
 30
0.0
 10
10.5284257549
 20
7.2507406057
 30
0.0
 10
10.4991543697
 20
7.252662614
 30
0.0
 10
10.4699550719
 20
7.2567216268
 30
0.0
 10
10.4409842729
 20
7.2628955486
 30
0.0
 10
10.4123971026
 20
7.2711510122
 30
0.0
 10
10.384346593
 20
7.2814435543
 30
0.0
 10
10.3569828766
 20
7.2937178616
 30
0.0
 10
10.330452367
 20
7.3079080108
 30
0.0
 10
10.3048970058
 20
7.3239378829
 30
0.0
 10
10.2804535166
 20
7.3417215663
 30
0.0
 10
10.2572526924
 20
7.3611638194
 30
0.0
 10
10.2354186652
 20
7.3821605277
 30
0.0
 10
10.2150682667
 20
7.4045992894
 30
0.0
 10
10.1963104261
 20
7.4283600241
 30
0.0
 10
10.1792455989
 20
7.4533156074
 30
0.0
 10
10.1639652005
 20
7.4793325157
 30
0.0
 10
10.1505511142
 20
7.5062715427
 30
0.0
 10
10.1390752934
 20
7.5339885403
 30
0.0
 10
10.1295993812
 20
7.5623352366
 30
0.0
 10
10.1221743362
 20
7.5911597828
 30
0.0
 10
10.1168402151
 20
7.6203083598
 30
0.0
 10
10.1136257584
 20
7.6496228862
 30
0.0
 10
10.1129058877
 20
7.6692262729
 30
0.0
 10
10.1129058877
 20
7.6789998779
 30
0.0
  0
SPLINE
  5
383
100
AcDbEntity
  8
0
100
AcDbSpline
 62
7
  6
CONTINUOUS
 70
0
 71
3
 72
9
 73
5
 74
0
 42
0.0000001
 43
0.0000001
 44
0.0000000001
 40
0.0
 40
0.0
 40
0.0
 40
0.0
 40
0.4862217708
 40
1.0
 40
1.0
 40
1.0
 40
1.0
 10
10.054273172
 20
10.6348951546
 30
0.0
 10
10.0556511668
 20
10.6366525813
 30
0.0
 10
10.0586281809
 20
10.6401564017
 30
0.0
 10
10.0618375434
 20
10.6434470412
 30
0.0
 10
10.0635348559
 20
10.6450865193
 30
0.0
  0
SPLINE
  5
384
100
AcDbEntity
  8
0
100
AcDbSpline
 62
7
  6
CONTINUOUS
 70
0
 71
3
 72
39
 73
35
 74
0
 42
0.0000001
 43
0.0000001
 44
0.0000000001
 40
0.0
 40
0.0
 40
0.0
 40
0.0
 40
0.0307265246
 40
0.0612836917
 40
0.0916944147
 40
0.1219869321
 40
0.1521938576
 40
0.1823510088
 40
0.212496076
 40
0.2426672092
 40
0.2729015709
 40
0.3032339494
 40
0.3336954773
 40
0.3643125234
 40
0.3951058088
 40
0.4260897478
 40
0.4572720576
 40
0.4886536225
 40
0.5202285792
 40
0.5519846451
 40
0.5839036301
 40
0.6159621046
 40
0.6481322227
 40
0.6803826419
 40
0.7126795226
 40
0.7449875917
 40
0.7772712324
 40
0.8094955799
 40
0.8416276023
 40
0.8736371456
 40
0.9054979123
 40
0.9371883589
 40
0.9686921348
 40
1.0
 40
1.0
 40
1.0
 40
1.0
 10
10.7449576269
 20
7.5917840762
 30
0.0
 10
10.7436256965
 20
7.5847338256
 30
0.0
 10
10.7403022025
 20
7.5707883946
 30
0.0
 10
10.7333561694
 20
7.5505013254
 30
0.0
 10
10.7245211093
 20
7.5310713839
 30
0.0
 10
10.7138725968
 20
7.5126675524
 30
0.0
 10
10.7015013007
 20
7.4954470277
 30
0.0
 10
10.6875130842
 20
7.4795576544
 30
0.0
 10
10.6720276747
 20
7.4651356941
 30
0.0
 10
10.6551778297
 20
7.4523047592
 30
0.0
 10
10.6371081035
 20
7.4411745983
 30
0.0
 10
10.6179734345
 20
7.4318403362
 30
0.0
 10
10.597937887
 20
7.4243814489
 30
0.0
 10
10.5771731056
 20
7.4188611814
 30
0.0
 10
10.5558567815
 20
7.4153261968
 30
0.0
 10
10.5341711655
 20
7.4138059749
 30
0.0
 10
10.5123014412
 20
7.414312798
 30
0.0
 10
10.4904341863
 20
7.4168417549
 30
0.0
 10
10.4687557767
 20
7.4213705891
 30
0.0
 10
10.4474508378
 20
7.4278601675
 30
0.0
 10
10.4267007313
 20
7.4362547883
 30
0.0
 10
10.406681968
 20
7.446482506
 30
0.0
 10
10.3875648311
 20
7.4584559901
 30
0.0
 10
10.3695119257
 20
7.47207314
 30
0.0
 10
10.3526767464
 20
7.4872178822
 30
0.0
 10
10.337202545
 20
7.5037613317
 30
0.0
 10
10.3232210183
 20
7.5215627161
 30
0.0
 10
10.3108511813
 20
7.540470581
 30
0.0
 10
10.3001985328
 20
7.560324141
 30
0.0
 10
10.2913539744
 20
7.5809545642
 30
0.0
 10
10.2843930977
 20
7.602186163
 30
0.0
 10
10.2793757277
 20
7.6238388988
 30
0.0
 10
10.276344955
 20
7.6457259964
 30
0.0
 10
10.2756643991
 20
7.6604018263
 30
0.0
 10
10.2756643991
 20
7.6677125368
 30
0.0
  0
SPLINE
  5
385
100
AcDbEntity
  8
0
100
AcDbSpline
 62
7
  6
CONTINUOUS
 70
0
 71
3
 72
39
 73
35
 74
0
 42
0.0000001
 43
0.0000001
 44
0.0000000001
 40
0.0
 40
0.0
 40
0.0
 40
0.0
 40
0.0305826465
 40
0.061016458
 40
0.0913270643
 40
0.1215444325
 40
0.1517018423
 40
0.1818347218
 40
0.2119793801
 40
0.2421717023
 40
0.2724458653
 40
0.3028331271
 40
0.333360754
 40
0.3640511239
 40
0.3949210263
 40
0.4259811871
 40
0.4572360276
 40
0.4886836333
 40
0.5203159239
 40
0.552119023
 40
0.5840737812
 40
0.6161564305
 40
0.6483393596
 40
0.6805919767
 40
0.7128816329
 40
0.74517459
 40
0.7774370139
 40
0.8096359657
 40
0.8417403801
 40
0.8737219965
 40
0.9055562346
 40
0.9372230459
 40
0.9687071192
 40
1.0
 40
1.0
 40
1.0
 40
1.0
 10
10.7473804472
 20
7.607650887
 30
0.0
 10
10.7457420421
 20
7.6015120017
 30
0.0
 10
10.7419004513
 20
7.5894084445
 30
0.0
 10
10.7344718136
 20
7.5719198584
 30
0.0
 10
10.7254502573
 20
7.5552811782
 30
0.0
 10
10.7149095693
 20
7.5396302587
 30
0.0
 10
10.7029352939
 20
7.5250943383
 30
0.0
 10
10.6896250261
 20
7.5117922378
 30
0.0
 10
10.6750873555
 20
7.4998324217
 30
0.0
 10
10.6594409307
 20
7.4893123866
 30
0.0
 10
10.64281346
 20
7.4803177735
 30
0.0
 10
10.6253406739
 20
7.4729215698
 30
0.0
 10
10.6071650925
 20
7.4671836282
 30
0.0
 10
10.5884348339
 20
7.4631502385
 30
0.0
 10
10.5693024101
 20
7.4608536874
 30
0.0
 10
10.5499234453
 20
7.4603120645
 30
0.0
 10
10.5304554052
 20
7.4615292461
 30
0.0
 10
10.5110563465
 20
7.4644948607
 30
0.0
 10
10.4918836303
 20
7.469184314
 30
0.0
 10
10.4730926789
 20
7.4755591405
 30
0.0
 10
10.454835764
 20
7.4835673313
 30
0.0
 10
10.4372607571
 20
7.4931436551
 30
0.0
 10
10.4205099667
 20
7.5042102563
 30
0.0
 10
10.4047190467
 20
7.5166773305
 30
0.0
 10
10.3900158931
 20
7.5304437879
 30
0.0
 10
10.3765195756
 20
7.545398026
 30
0.0
 10
10.3643394642
 20
7.5614189071
 30
0.0
 10
10.3535743644
 20
7.5783767093
 30
0.0
 10
10.3443116238
 20
7.5961340752
 30
0.0
 10
10.3366265042
 20
7.6145472337
 30
0.0
 10
10.3305816019
 20
7.6334669094
 30
0.0
 10
10.3262263424
 20
7.6527403125
 30
0.0
 10
10.3235963058
 20
7.6722091686
 30
0.0
 10
10.3230059362
 20
7.6852588659
 30
0.0
 10
10.3230059362
 20
7.6917601835
 30
0.0
  0
SPLINE
  5
386
100
AcDbEntity
  8
0
100
AcDbSpline
 62
7
  6
CONTINUOUS
 70
0
 71
3
 72
42
 73
38
 74
0
 42
0.0000001
 43
0.0000001
 44
0.0000000001
 40
0.0
 40
0.0
 40
0.0
 40
0.0
 40
0.0299419655
 40
0.0449235324
 40
0.0599142042
 40
0.0899287041
 40
0.1200139759
 40
0.1350926596
 40
0.1501966997
 40
0.180484041
 40
0.210897873
 40
0.2414513349
 40
0.2721543418
 40
0.3030134042
 40
0.3340315332
 40
0.3652082265
 40
0.3965395325
 40
0.4280181861
 40
0.4596338091
 40
0.4913731668
 40
0.523220476
 40
0.5551577527
 40
0.5871651956
 40
0.6192215962
 40
0.6513047693
 40
0.6833919978
 40
0.7154604838
 40
0.7474878019
 40
0.7794523464
 40
0.8113337686
 40
0.8431133915
 40
0.8747746163
 40
0.90630324
 40
0.9376879137
 40
0.9533257948
 40
0.9689252601
 40
1.0
 40
1.0
 40
1.0
 40
1.0
 10
10.6813029321
 20
7.5441104486
 30
0.0
 10
10.6780762515
 20
7.540993695
 30
0.0
 10
10.6730460282
 20
7.5365074242
 30
0.0
 10
10.6660013088
 20
7.5309409355
 30
0.0
 10
10.6587322477
 20
7.5256514414
 30
0.0
 10
10.6492473127
 20
7.5195773836
 30
0.0
 10
10.6393012075
 20
7.5142643339
 30
0.0
 10
10.6310982448
 20
7.5104846204
 30
0.0
 10
10.6227258307
 20
7.5070169247
 30
0.0
 10
10.6119843989
 20
7.5032881647
 30
0.0
 10
10.5987472062
 20
7.4998130409
 30
0.0
 10
10.5852211703
 20
7.4973511666
 30
0.0
 10
10.5714812509
 20
7.4959161237
 30
0.0
 10
10.5576029247
 20
7.4955155707
 30
0.0
 10
10.5436625545
 20
7.4961515461
 30
0.0
 10
10.5297367602
 20
7.4978203762
 30
0.0
 10
10.5159020582
 20
7.5005127273
 30
0.0
 10
10.5022344307
 20
7.5042136572
 30
0.0
 10
10.4888089182
 20
7.5089027037
 30
0.0
 10
10.475699212
 20
7.5145539995
 30
0.0
 10
10.4629772562
 20
7.5211364169
 30
0.0
 10
10.4507128575
 20
7.5286137392
 30
0.0
 10
10.4389733082
 20
7.5369448589
 30
0.0
 10
10.427823021
 20
7.546084003
 30
0.0
 10
10.4173231802
 20
7.5559809821
 30
0.0
 10
10.4075314092
 20
7.5665814635
 30
0.0
 10
10.3985014583
 20
7.5778272667
 30
0.0
 10
10.3902829119
 20
7.5896566802
 30
0.0
 10
10.3829209192
 20
7.6020047926
 30
0.0
 10
10.3764559478
 20
7.6148038593
 30
0.0
 10
10.3709235644
 20
7.6279836163
 30
0.0
 10
10.3663542287
 20
7.6414718562
 30
0.0
 10
10.3627731833
 20
7.6551940967
 30
0.0
 10
10.3606262669
 20
7.6667771562
 30
0.0
 10
10.3594219105
 20
7.6760840044
 30
0.0
 10
10.3585623909
 20
7.6853819467
 30
0.0
 10
10.3583021367
 20
7.6923785859
 30
0.0
 10
10.3583021367
 20
7.6970344665
 30
0.0
  0
SPLINE
  5
387
100
AcDbEntity
  8
0
100
AcDbSpline
 62
7
  6
CONTINUOUS
 70
0
 71
3
 72
23
 73
19
 74
0
 42
0.0000001
 43
0.0000001
 44
0.0000000001
 40
0.0
 40
0.0
 40
0.0
 40
0.0
 40
0.0616886956
 40
0.1234094037
 40
0.1851812159
 40
0.2470227392
 40
0.3089519273
 40
0.3709859168
 40
0.4331408692
 40
0.4954318231
 40
0.5578725572
 40
0.6204755059
 40
0.683251584
 40
0.7462102085
 40
0.8093593149
 40
0.872704028
 40
0.9362514542
 40
1.0
 40
1.0
 40
1.0
 40
1.0
 10
10.2168876642
 20
7.94058339
 30
0.0
 10
10.2127534447
 20
7.9363262381
 30
0.0
 10
10.2046920744
 20
7.9276036392
 30
0.0
 10
10.1932580473
 20
7.9139347353
 30
0.0
 10
10.1825030735
 20
7.8997063816
 30
0.0
 10
10.1724504532
 20
7.8849493168
 30
0.0
 10
10.1631214666
 20
7.8696948919
 30
0.0
 10
10.1545359969
 20
7.8539756448
 30
0.0
 10
10.1467123123
 20
7.8378250592
 30
0.0
 10
10.1396670758
 20
7.8212775435
 30
0.0
 10
10.1334152434
 20
7.8043683632
 30
0.0
 10
10.1279700967
 20
7.7871335432
 30
0.0
 10
10.1233431964
 20
7.7696097972
 30
0.0
 10
10.1195443727
 20
7.7518344166
 30
0.0
 10
10.1165817308
 20
7.7338453591
 30
0.0
 10
10.114461388
 20
7.7156806212
 30
0.0
 10
10.1131880374
 20
7.6973795967
 30
0.0
 10
10.1129058877
 20
7.6851322604
 30
0.0
 10
10.1129058877
 20
7.6789998779
 30
0.0
  0
SPLINE
  5
388
100
AcDbEntity
  8
0
100
AcDbSpline
 62
7
  6
CONTINUOUS
 70
0
 71
3
 72
23
 73
19
 74
0
 42
0.0000001
 43
0.0000001
 44
0.0000000001
 40
0.0
 40
0.0
 40
0.0
 40
0.0
 40
0.0630509762
 40
0.1257811295
 40
0.1882284312
 40
0.2504394748
 40
0.3124681531
 40
0.3743740475
 40
0.4362205971
 40
0.4980731146
 40
0.5599967253
 40
0.6220543092
 40
0.6843045418
 40
0.746800099
 40
0.8095860805
 40
0.872698938
 40
0.9361643615
 40
1.0
 40
1.0
 40
1.0
 40
1.0
 10
10.460899618
 20
7.8858651802
 30
0.0
 10
10.4544137957
 20
7.8848713159
 30
0.0
 10
10.4415536362
 20
7.8823280382
 30
0.0
 10
10.4227204435
 20
7.8768543794
 30
0.0
 10
10.4045239548
 20
7.8697699523
 30
0.0
 10
10.3870963153
 20
7.8611253338
 30
0.0
 10
10.3705618211
 20
7.8509820346
 30
0.0
 10
10.3550390405
 20
7.8394124948
 30
0.0
 10
10.340639136
 20
7.8264994208
 30
0.0
 10
10.3274652568
 20
7.8123352188
 30
0.0
 10
10.315611682
 20
7.7970213359
 30
0.0
 10
10.3051631237
 20
7.7806674998
 30
0.0
 10
10.29619415
 20
7.7633908741
 30
0.0
 10
10.2887686607
 20
7.7453151387
 30
0.0
 10
10.2829394038
 20
7.7265697777
 30
0.0
 10
10.2787476762
 20
7.7072884309
 30
0.0
 10
10.2762228673
 20
7.6876106482
 30
0.0
 10
10.2756643991
 20
7.6743557229
 30
0.0
 10
10.2756643991
 20
7.6677125368
 30
0.0
  0
SPLINE
  5
389
100
AcDbEntity
  8
0
100
AcDbSpline
 62
7
  6
CONTINUOUS
 70
0
 71
3
 72
23
 73
19
 74
0
 42
0.0000001
 43
0.0000001
 44
0.0000000001
 40
0.0
 40
0.0
 40
0.0
 40
0.0
 40
0.0628201197
 40
0.1253635253
 40
0.1876703229
 40
0.2497871628
 40
0.3117660042
 40
0.3736626932
 40
0.4355354031
 40
0.4974429876
 40
0.5594433108
 40
0.621591612
 40
0.6839389651
 40
0.7465309044
 40
0.8094061426
 40
0.8725959951
 40
0.9361222326
 40
1.0
 40
1.0
 40
1.0
 40
1.0
 10
10.4770910863
 20
7.8877942573
 30
0.0
 10
10.4715886199
 20
7.8865355419
 30
0.0
 10
10.460706232
 20
7.8835681274
 30
0.0
 10
10.444847236
 20
7.8777815383
 30
0.0
 10
10.4295880622
 20
7.8707056687
 30
0.0
 10
10.4150282787
 20
7.8623861157
 30
0.0
 10
10.4012611233
 20
7.8528760956
 30
0.0
 10
10.3883752451
 20
7.8422366573
 30
0.0
 10
10.3764534819
 20
7.83053614
 30
0.0
 10
10.3655724743
 20
7.817849762
 30
0.0
 10
10.3558021117
 20
7.8042591114
 30
0.0
 10
10.3472050875
 20
7.789851599
 30
0.0
 10
10.3398364713
 20
7.7747198923
 30
0.0
 10
10.3337433848
 20
7.7589612466
 30
0.0
 10
10.3289646664
 20
7.7426770051
 30
0.0
 10
10.3255307649
 20
7.725971394
 30
0.0
 10
10.3234633034
 20
7.7089529794
 30
0.0
 10
10.3230059362
 20
7.697499816
 30
0.0
 10
10.3230059362
 20
7.6917601835
 30
0.0
  0
SPLINE
  5
38A
100
AcDbEntity
  8
0
100
AcDbSpline
 62
7
  6
CONTINUOUS
 70
0
 71
3
 72
82
 73
78
 74
0
 42
0.0000001
 43
0.0000001
 44
0.0000000001
 40
0.0
 40
0.0
 40
0.0
 40
0.0
 40
0.0038898794
 40
0.0079380865
 40
0.0121479784
 40
0.0165224052
 40
0.0210637847
 40
0.0257740229
 40
0.0306544134
 40
0.0357058367
 40
0.0409287837
 40
0.0463233877
 40
0.0518895072
 40
0.057626652
 40
0.0696104686
 40
0.0822666818
 40
0.0955833044
 40
0.1095454691
 40
0.1241357775
 40
0.1393345747
 40
0.1551201954
 40
0.1714691617
 40
0.1883563484
 40
0.2057551234
 40
0.2236374715
 40
0.2419741247
 40
0.2607346717
 40
0.2798876588
 40
0.299400682
 40
0.3192404775
 40
0.3393730204
 40
0.3597636121
 40
0.380376965
 40
0.4011772838
 40
0.4431929771
 40
0.4855180606
 40
0.5278564855
 40
0.5699120867
 40
0.6113912107
 40
0.6318245106
 40
0.6520060724
 40
0.6719010837
 40
0.6914753891
 40
0.7106955835
 40
0.729529105
 40
0.7479443209
 40
0.765910622
 40
0.7833985233
 40
0.80037978
 40
0.8168275061
 40
0.8327162929
 40
0.8480223507
 40
0.8627236707
 40
0.8768002264
 40
0.8902341982
 40
0.9030102372
 40
0.9151158025
 40
0.9209143367
 40
0.9265420835
 40
0.9319984562
 40
0.9372831868
 40
0.9423963059
 40
0.9473381606
 40
0.9521095211
 40
0.9567115252
 40
0.9611458139
 40
0.9654145443
 40
0.9695204371
 40
0.9734669202
 40
0.9772581192
 40
0.9808990308
 40
0.9843955869
 40
0.9877547486
 40
0.9909846782
 40
0.9940947704
 40
0.9970958085
 40
1.0
 40
1.0
 40
1.0
 40
1.0
 10
12.7198310349
 20
8.4498140291
 30
0.0
 10
12.7209530089
 20
8.4508977728
 30
0.0
 10
12.7231958266
 20
8.4531582489
 30
0.0
 10
12.7264923087
 20
8.4567464778
 30
0.0
 10
12.7297855659
 20
8.460597152
 30
0.0
 10
12.7330739293
 20
8.464708329
 30
0.0
 10
12.7363559923
 20
8.4690781257
 30
0.0
 10
12.7396302536
 20
8.4737045965
 30
0.0
 10
12.7428952816
 20
8.478585601
 30
0.0
 10
12.7461495313
 20
8.4837189013
 30
0.0
 10
12.7493914962
 20
8.4891021218
 30
0.0
 10
12.7526197049
 20
8.4947327609
 30
0.0
 10
12.7558326419
 20
8.5006082434
 30
0.0
 10
12.7601571739
 20
8.5088856537
 30
0.0
 10
12.7655042026
 20
8.5198340967
 30
0.0
 10
12.7717465209
 20
8.5337189303
 30
0.0
 10
12.7778929026
 20
8.5485093206
 30
0.0
 10
12.7839318503
 20
8.5641778108
 30
0.0
 10
12.7898520649
 20
8.5806954656
 30
0.0
 10
12.7956424609
 20
8.598031639
 30
0.0
 10
12.801292187
 20
8.6161541367
 30
0.0
 10
12.8067906525
 20
8.6350292643
 30
0.0
 10
12.8121275475
 20
8.6546219023
 30
0.0
 10
12.8172928655
 20
8.6748955686
 30
0.0
 10
12.8222769319
 20
8.6958124888
 30
0.0
 10
12.8270704095
 20
8.7173336761
 30
0.0
 10
12.8316643192
 20
8.7394190094
 30
0.0
 10
12.8360500552
 20
8.7620273085
 30
0.0
 10
12.8402194035
 20
8.7851164077
 30
0.0
 10
12.8441645641
 20
8.8086432344
 30
0.0
 10
12.8478781568
 20
8.8325638983
 30
0.0
 10
12.8513532263
 20
8.8568337619
 30
0.0
 10
12.8545832958
 20
8.8814075764
 30
0.0
 10
12.8585683981
 20
8.9146266674
 30
0.0
 10
12.8628907358
 20
8.9565717535
 30
0.0
 10
12.8670004721
 20
9.007209742
 30
0.0
 10
12.8700193864
 20
9.0579406646
 30
0.0
 10
12.8719250341
 20
9.1083859941
 30
0.0
 10
12.8725770645
 20
9.1500778371
 30
0.0
 10
12.8725229393
 20
9.1829995925
 30
0.0
 10
12.8721979601
 20
9.2072635686
 30
0.0
 10
12.8715891152
 20
9.231177495
 30
0.0
 10
12.870697533
 20
9.2546967891
 30
0.0
 10
12.8695249086
 20
9.2777775644
 30
0.0
 10
12.8680734624
 20
9.3003767723
 30
0.0
 10
12.8663459377
 20
9.322452266
 30
0.0
 10
12.8643455954
 20
9.3439628811
 30
0.0
 10
12.8620762066
 20
9.3648685146
 30
0.0
 10
12.8595420539
 20
9.3851302076
 30
0.0
 10
12.8567479244
 20
9.4047102214
 30
0.0
 10
12.8536990918
 20
9.4235721078
 30
0.0
 10
12.8504013086
 20
9.4416807766
 30
0.0
 10
12.8468607913
 20
9.4590025769
 30
0.0
 10
12.8430842152
 20
9.4755053512
 30
0.0
 10
12.8390787019
 20
9.4911585906
 30
0.0
 10
12.8348517714
 20
9.5059332126
 30
0.0
 10
12.8310995907
 20
9.5176530145
 30
0.0
 10
12.8279843253
 20
9.5265611523
 30
0.0
 10
12.8256310509
 20
9.532909705
 30
0.0
 10
12.8232284635
 20
9.5390189008
 30
0.0
 10
12.820777675
 20
9.544885926
 30
0.0
 10
12.8182798372
 20
9.5505080709
 30
0.0
 10
12.8157360588
 20
9.5558827273
 30
0.0
 10
12.8131475656
 20
9.561007439
 30
0.0
 10
12.8105154904
 20
9.5658798323
 30
0.0
 10
12.8078410513
 20
9.5704976792
 30
0.0
 10
12.8051254666
 20
9.5748588739
 30
0.0
 10
12.8023698985
 20
9.5789613947
 30
0.0
 10
12.7995756232
 20
9.5828034007
 30
0.0
 10
12.7967437996
 20
9.5863831003
 30
0.0
 10
12.7938756596
 20
9.5896988561
 30
0.0
 10
12.7909724243
 20
9.5927491391
 30
0.0
 10
12.7880352344
 20
9.5955324539
 30
0.0
 10
12.7850653686
 20
9.5980474841
 30
0.0
 10
12.7820639076
 20
9.6002929141
 30
0.0
 10
12.779032341
 20
9.6022674047
 30
0.0
 10
12.7769607288
 20
9.60341974
 30
0.0
 10
12.7759223827
 20
9.6039471947
 30
0.0
  0
SPLINE
  5
38B
100
AcDbEntity
  8
0
100
AcDbSpline
 62
7
  6
CONTINUOUS
 70
0
 71
3
 72
21
 73
17
 74
0
 42
0.0000001
 43
0.0000001
 44
0.0000000001
 40
0.0
 40
0.0
 40
0.0
 40
0.0
 40
0.0617147819
 40
0.1234506692
 40
0.185228552
 40
0.2470689061
 40
0.3089915516
 40
0.3710154745
 40
0.4331586551
 40
0.4954378585
 40
0.5578685076
 40
0.6204644887
 40
0.6832380492
 40
0.7462000649
 40
0.8726823101
 40
1.0
 40
1.0
 40
1.0
 40
1.0
 10
10.4110465099
 20
7.8239004684
 30
0.0
 10
10.408958062
 20
7.8218831701
 30
0.0
 10
10.4048834817
 20
7.8177396227
 30
0.0
 10
10.399098302
 20
7.8112170163
 30
0.0
 10
10.3936519146
 20
7.804401108
 30
0.0
 10
10.3885571213
 20
7.7973078056
 30
0.0
 10
10.3838256396
 20
7.7899533997
 30
0.0
 10
10.3794683352
 20
7.7823549078
 30
0.0
 10
10.3754952568
 20
7.7745298415
 30
0.0
 10
10.3719155952
 20
7.7664962384
 30
0.0
 10
10.3687375323
 20
7.7582726392
 30
0.0
 10
10.3659683951
 20
7.7498780637
 30
0.0
 10
10.3636145679
 20
7.7413316244
 30
0.0
 10
10.3610334694
 20
7.7297448134
 30
0.0
 10
10.3588739377
 20
7.7149734922
 30
0.0
 10
10.3583021367
 20
7.7030246738
 30
0.0
 10
10.3583021367
 20
7.6970344665
 30
0.0
  0
SPLINE
  5
38C
100
AcDbEntity
  8
0
100
AcDbSpline
 62
7
  6
CONTINUOUS
 70
0
 71
3
 72
19
 73
15
 74
0
 42
0.0000001
 43
0.0000001
 44
0.0000000001
 40
0.0
 40
0.0
 40
0.0
 40
0.0
 40
0.1504611406
 40
0.2916985742
 40
0.4244193292
 40
0.4878835935
 40
0.5495802133
 40
0.6682271463
 40
0.7255606136
 40
0.7817999183
 40
0.8371467056
 40
0.8918136429
 40
0.9460222308
 40
1.0
 40
1.0
 40
1.0
 40
1.0
 10
12.7507406639
 20
8.4476704391
 30
0.0
 10
12.7490726833
 20
8.4460592934
 30
0.0
 10
12.7457390252
 20
8.4430363286
 30
0.0
 10
12.7405771725
 20
8.4390078862
 30
0.0
 10
12.7362171841
 20
8.4361587394
 30
0.0
 10
12.7327403644
 20
8.4342293787
 30
0.0
 10
12.7293661205
 20
8.4325729698
 30
0.0
 10
12.7259523652
 20
8.431219012
 30
0.0
 10
12.722519408
 20
8.4302001405
 30
0.0
 10
12.7199811732
 20
8.4296128494
 30
0.0
 10
12.7174513852
 20
8.4291942622
 30
0.0
 10
12.7149307168
 20
8.4289445616
 30
0.0
 10
12.7124201845
 20
8.428863851
 30
0.0
 10
12.7107522577
 20
8.4289228321
 30
0.0
 10
12.7099222976
 20
8.4289803872
 30
0.0
  0
SPLINE
  5
38D
100
AcDbEntity
  8
0
100
AcDbSpline
 62
7
  6
CONTINUOUS
 70
0
 71
3
 72
15
 73
11
 74
0
 42
0.0000001
 43
0.0000001
 44
0.0000000001
 40
0.0
 40
0.0
 40
0.0
 40
0.0
 40
0.1420254567
 40
0.2786671754
 40
0.4101299125
 40
0.5366603676
 40
0.6585534893
 40
0.7761459604
 40
0.8898190154
 40
1.0
 40
1.0
 40
1.0
 40
1.0
 10
12.7198310349
 20
8.4498140291
 30
0.0
 10
12.7187991972
 20
8.4488173504
 30
0.0
 10
12.7167361082
 20
8.4469010779
 30
0.0
 10
12.7135812373
 20
8.4442141113
 30
0.0
 10
12.7104283708
 20
8.4417724668
 30
0.0
 10
12.7072788609
 20
8.4395774323
 30
0.0
 10
12.7041339727
 20
8.4376299568
 30
0.0
 10
12.7009947794
 20
8.435930997
 30
0.0
 10
12.697862738
 20
8.4344814749
 30
0.0
 10
12.6957498224
 20
8.4336702996
 30
0.0
 10
12.6946971456
 20
8.4333090623
 30
0.0
  0
SPLINE
  5
38E
100
AcDbEntity
  8
0
100
AcDbSpline
 62
7
  6
CONTINUOUS
 70
0
 71
3
 72
41
 73
37
 74
0
 42
0.0000001
 43
0.0000001
 44
0.0000000001
 40
0.0
 40
0.0
 40
0.0
 40
0.0
 40
0.0299421722
 40
0.0599087187
 40
0.0899234222
 40
0.1200088965
 40
0.1501860486
 40
0.1804735921
 40
0.2108876267
 40
0.2414412921
 40
0.2721445039
 40
0.3030037728
 40
0.3340221097
 40
0.3651990124
 40
0.3965305293
 40
0.4280093954
 40
0.4596252325
 40
0.4913648061
 40
0.523212333
 40
0.5551498293
 40
0.5871574933
 40
0.6192141165
 40
0.6512975132
 40
0.6833849656
 40
0.7154536753
 40
0.7314763803
 40
0.7474860474
 40
0.7794508144
 40
0.8113324582
 40
0.8431123019
 40
0.8747737477
 40
0.9063025846
 40
0.9376874998
 40
0.9533255315
 40
0.9689249968
 40
1.0
 40
1.0
 40
1.0
 40
1.0
 10
11.4958114247
 20
9.9085928706
 30
0.0
 10
11.4923110068
 20
9.9052117082
 30
0.0
 10
11.4850349515
 20
9.8987222261
 30
0.0
 10
11.473377545
 20
9.8898814696
 30
0.0
 10
11.4610364296
 20
9.8819783949
 30
0.0
 10
11.4480805544
 20
9.8750573441
 30
0.0
 10
11.4345811517
 20
9.8691561267
 30
0.0
 10
11.4206127228
 20
9.8643071828
 30
0.0
 10
11.4062522422
 20
9.8605370435
 30
0.0
 10
11.3915788259
 20
9.8578662932
 30
0.0
 10
11.3766732636
 20
9.8563094407
 30
0.0
 10
11.3616175784
 20
9.8558748566
 30
0.0
 10
11.3464945737
 20
9.8565647349
 30
0.0
 10
11.33138738
 20
9.8583750939
 30
0.0
 10
11.3163790026
 20
9.8612958067
 30
0.0
 10
11.3015518707
 20
9.8653106635
 30
0.0
 10
11.2869873907
 20
9.8703974659
 30
0.0
 10
11.272765506
 20
9.8765281525
 30
0.0
 10
11.2589642638
 20
9.8836689559
 30
0.0
 10
11.245659395
 20
9.8917805851
 30
0.0
 10
11.2329238961
 20
9.9008184538
 30
0.0
 10
11.2208276648
 20
9.9107328783
 30
0.0
 10
11.2094370046
 20
9.9214695158
 30
0.0
 10
11.1988147003
 20
9.932969037
 30
0.0
 10
11.190648196
 20
9.9431395814
 30
0.0
 10
11.1845552207
 20
9.9515933461
 30
0.0
 10
11.1787688134
 20
9.9602394986
 30
0.0
 10
11.1721160722
 20
9.9713978648
 30
0.0
 10
11.1651027968
 20
9.9852824976
 30
0.0
 10
11.1591010176
 20
9.9995804216
 30
0.0
 10
11.1541440445
 20
10.0142129183
 30
0.0
 10
11.1502591841
 20
10.0290992925
 30
0.0
 10
11.1479301328
 20
10.0416650116
 30
0.0
 10
11.1466235956
 20
10.0517614002
 30
0.0
 10
11.1456911571
 20
10.0618481322
 30
0.0
 10
11.1454088244
 20
10.0694383228
 30
0.0
 10
11.1454088244
 20
10.0744891937
 30
0.0
  0
SPLINE
  5
38F
100
AcDbEntity
  8
0
100
AcDbSpline
 62
7
  6
CONTINUOUS
 70
0
 71
3
 72
19
 73
15
 74
0
 42
0.0000001
 43
0.0000001
 44
0.0000000001
 40
0.0
 40
0.0
 40
0.0
 40
0.0
 40
0.1532268151
 40
0.2947792672
 40
0.4259266361
 40
0.5483709413
 40
0.6070238647
 40
0.6643433042
 40
0.7206639744
 40
0.7763401531
 40
0.8317398391
 40
0.8872368568
 40
0.9432030378
 40
1.0
 40
1.0
 40
1.0
 40
1.0
 10
12.7198310349
 20
8.6285103176
 30
0.0
 10
12.7184047237
 20
8.6271326067
 30
0.0
 10
12.7155549022
 20
8.6245877356
 30
0.0
 10
12.7111035199
 20
8.6213201604
 30
0.0
 10
12.7066581099
 20
8.6187681231
 30
0.0
 10
12.7029082959
 20
8.6172231903
 30
0.0
 10
12.6999389288
 20
8.6163747128
 30
0.0
 10
12.6977514938
 20
8.6159299337
 30
0.0
 10
12.6955734268
 20
8.6156682469
 30
0.0
 10
12.6934058429
 20
8.6155899843
 30
0.0
 10
12.6912500504
 20
8.6156952353
 30
0.0
 10
12.6891072761
 20
8.6159839589
 30
0.0
 10
12.6869789658
 20
8.6164559418
 30
0.0
 10
12.6855832284
 20
8.6168885298
 30
0.0
 10
12.6848902099
 20
8.6171335534
 30
0.0
  0
SPLINE
  5
390
100
AcDbEntity
  8
0
100
AcDbSpline
 62
7
  6
CONTINUOUS
 70
0
 71
3
 72
41
 73
37
 74
0
 42
0.0000001
 43
0.0000001
 44
0.0000000001
 40
0.0
 40
0.0
 40
0.0
 40
0.0
 40
0.0299421722
 40
0.0599087187
 40
0.0899234222
 40
0.1200088965
 40
0.1501860486
 40
0.1804735921
 40
0.2108876267
 40
0.2414412921
 40
0.2721445039
 40
0.3030037728
 40
0.3340221097
 40
0.3651990124
 40
0.3965305293
 40
0.4280093954
 40
0.4596252325
 40
0.4913648061
 40
0.523212333
 40
0.5551498293
 40
0.5871574933
 40
0.6192141165
 40
0.6512975132
 40
0.6833849656
 40
0.7154536753
 40
0.7314763803
 40
0.7474860474
 40
0.7794508144
 40
0.8113324582
 40
0.8431123019
 40
0.8747737477
 40
0.9063025846
 40
0.9376874998
 40
0.9533255315
 40
0.9689249968
 40
1.0
 40
1.0
 40
1.0
 40
1.0
 10
10.4091448058
 20
6.8446943351
 30
0.0
 10
10.4056443878
 20
6.8413131727
 30
0.0
 10
10.3983683326
 20
6.8348236906
 30
0.0
 10
10.386710926
 20
6.8259829342
 30
0.0
 10
10.3743698107
 20
6.8180798594
 30
0.0
 10
10.3614139354
 20
6.8111588086
 30
0.0
 10
10.3479145328
 20
6.8052575912
 30
0.0
 10
10.3339461038
 20
6.8004086473
 30
0.0
 10
10.3195856232
 20
6.796638508
 30
0.0
 10
10.304912207
 20
6.7939677578
 30
0.0
 10
10.2900066447
 20
6.7924109052
 30
0.0
 10
10.2749509595
 20
6.7919763212
 30
0.0
 10
10.2598279547
 20
6.7926661994
 30
0.0
 10
10.244720761
 20
6.7944765585
 30
0.0
 10
10.2297123836
 20
6.7973972713
 30
0.0
 10
10.2148852517
 20
6.801412128
 30
0.0
 10
10.2003207718
 20
6.8064989304
 30
0.0
 10
10.1860988871
 20
6.8126296171
 30
0.0
 10
10.1722976448
 20
6.8197704204
 30
0.0
 10
10.158992776
 20
6.8278820497
 30
0.0
 10
10.1462572771
 20
6.8369199183
 30
0.0
 10
10.1341610458
 20
6.8468343429
 30
0.0
 10
10.1227703856
 20
6.8575709804
 30
0.0
 10
10.1121480814
 20
6.8690705016
 30
0.0
 10
10.103981577
 20
6.879241046
 30
0.0
 10
10.0978886017
 20
6.8876948106
 30
0.0
 10
10.0921021944
 20
6.8963409631
 30
0.0
 10
10.0854494532
 20
6.9074993293
 30
0.0
 10
10.0784361779
 20
6.9213839621
 30
0.0
 10
10.0724343987
 20
6.9356818861
 30
0.0
 10
10.0674774255
 20
6.9503143829
 30
0.0
 10
10.0635925652
 20
6.965200757
 30
0.0
 10
10.0612635138
 20
6.9777664762
 30
0.0
 10
10.0599569766
 20
6.9878628647
 30
0.0
 10
10.0590245382
 20
6.9979495967
 30
0.0
 10
10.0587422055
 20
7.0055397874
 30
0.0
 10
10.0587422055
 20
7.0105906583
 30
0.0
  0
SPLINE
  5
391
100
AcDbEntity
  8
0
100
AcDbSpline
 62
7
  6
CONTINUOUS
 70
0
 71
3
 72
23
 73
19
 74
0
 42
0.0000001
 43
0.0000001
 44
0.0000000001
 40
0.0
 40
0.0
 40
0.0
 40
0.0
 40
0.063777379
 40
0.1273447372
 40
0.1907019931
 40
0.2538561345
 40
0.3168131769
 40
0.3795820929
 40
0.4421733849
 40
0.5045993366
 40
0.5668738654
 40
0.6290123812
 40
0.6910316548
 40
0.7529496517
 40
0.8147853612
 40
0.8765586089
 40
0.9382898579
 40
1.0
 40
1.0
 40
1.0
 40
1.0
 10
10.1046236849
 20
7.6709998838
 30
0.0
 10
10.1046236849
 20
7.6773796761
 30
0.0
 10
10.1049290359
 20
7.6901204141
 30
0.0
 10
10.1063072933
 20
7.7091540386
 30
0.0
 10
10.1086020629
 20
7.7280367543
 30
0.0
 10
10.1118079169
 20
7.7467243107
 30
0.0
 10
10.1159176377
 20
7.765173921
 30
0.0
 10
10.1209217427
 20
7.7833429567
 30
0.0
 10
10.1268087647
 20
7.8011895511
 30
0.0
 10
10.1335651543
 20
7.8186725478
 30
0.0
 10
10.1411753662
 20
7.8357516295
 30
0.0
 10
10.149621887
 20
7.852387404
 30
0.0
 10
10.158885268
 20
7.8685414928
 30
0.0
 10
10.1689441892
 20
7.8841766313
 30
0.0
 10
10.1797754367
 20
7.8992567148
 30
0.0
 10
10.1913541574
 20
7.9137470792
 30
0.0
 10
10.2036531985
 20
7.92761384
 30
0.0
 10
10.2123154896
 20
7.9364229203
 30
0.0
 10
10.2167554422
 20
7.9407116001
 30
0.0
  0
SPLINE
  5
392
100
AcDbEntity
  8
0
100
AcDbSpline
 62
7
  6
CONTINUOUS
 70
0
 71
3
 72
88
 73
84
 74
0
 42
0.0000001
 43
0.0000001
 44
0.0000000001
 40
0.0
 40
0.0
 40
0.0
 40
0.0
 40
0.0027164206
 40
0.0054532135
 40
0.00823027
 40
0.0110665466
 40
0.0139797362
 40
0.0169860264
 40
0.0200999638
 40
0.0233344621
 40
0.0267007864
 40
0.030208716
 40
0.033866602
 40
0.0376815365
 40
0.0416594862
 40
0.0458053757
 40
0.0501232805
 40
0.0546164357
 40
0.0592874172
 40
0.0641381604
 40
0.0691700473
 40
0.0743839976
 40
0.0797804461
 40
0.085359486
 40
0.0911208072
 40
0.097063806
 40
0.1031875785
 40
0.1094909314
 40
0.1226301057
 40
0.1364676988
 40
0.1509864378
 40
0.1661662591
 40
0.1819846247
 40
0.1984167804
 40
0.2154359739
 40
0.2330136371
 40
0.2511195505
 40
0.2697219952
 40
0.2887878869
 40
0.3082829001
 40
0.3281715858
 40
0.3484174815
 40
0.3689832185
 40
0.3898306305
 40
0.410920857
 40
0.4322144439
 40
0.4536714439
 40
0.4969133241
 40
0.5403214886
 40
0.5835686279
 40
0.6050302166
 40
0.6263296837
 40
0.6474270673
 40
0.6682828961
 40
0.6888582896
 40
0.7091150586
 40
0.7290158075
 40
0.7485240405
 40
0.7676042737
 40
0.7862221443
 40
0.8043445271
 40
0.8219396585
 40
0.8389772699
 40
0.8554287349
 40
0.8712672375
 40
0.8864679574
 40
0.9010082824
 40
0.9148680665
 40
0.9280299429
 40
0.9343448017
 40
0.9404801679
 40
0.9464348204
 40
0.9522078552
 40
0.9577986253
 40
0.9632068219
 40
0.9684325067
 40
0.9734760906
 40
0.9783384494
 40
0.9830208978
 40
0.9875254123
 40
0.9918545974
 40
0.9960115688
 40
1.0
 40
1.0
 40
1.0
 40
1.0
 10
12.7915590301
 20
9.6061530335
 30
0.0
 10
12.792660193
 20
9.6060766712
 30
0.0
 10
12.7948651371
 20
9.6058236972
 30
0.0
 10
12.7981444937
 20
9.6051468025
 30
0.0
 10
12.8013990516
 20
9.6041724757
 30
0.0
 10
12.8046265198
 20
9.6029017571
 30
0.0
 10
12.8078252119
 20
9.6013357189
 30
0.0
 10
12.8109934853
 20
9.599475595
 30
0.0
 10
12.8141299101
 20
9.5973227467
 30
0.0
 10
12.8172330383
 20
9.5948784717
 30
0.0
 10
12.820301594
 20
9.5921442717
 30
0.0
 10
12.8233341956
 20
9.5891215793
 30
0.0
 10
12.8263295556
 20
9.5858120084
 30
0.0
 10
12.8292863408
 20
9.5822172291
 30
0.0
 10
12.8322031825
 20
9.5783390168
 30
0.0
 10
12.8350787896
 20
9.5741793199
 30
0.0
 10
12.8379117435
 20
9.5697401488
 30
0.0
 10
12.8407007579
 20
9.5650237216
 30
0.0
 10
12.8434444433
 20
9.5600323402
 30
0.0
 10
12.8461414785
 20
9.5547684768
 30
0.0
 10
12.848790555
 20
9.5492347392
 30
0.0
 10
12.8513903223
 20
9.543433858
 30
0.0
 10
12.8539395465
 20
9.5373687313
 30
0.0
 10
12.8564368993
 20
9.5310423622
 30
0.0
 10
12.8588811791
 20
9.5244579153
 30
0.0
 10
12.861271133
 20
9.5176186741
 30
0.0
 10
12.8636055818
 20
9.5105280473
 30
0.0
 10
12.8666852523
 20
9.5006058003
 30
0.0
 10
12.870376762
 20
9.4875936978
 30
0.0
 10
12.8745082119
 20
9.4712440403
 30
0.0
 10
12.8783919567
 20
9.4539829474
 30
0.0
 10
12.8820201219
 20
9.435845026
 30
0.0
 10
12.8853853228
 20
9.4168664986
 30
0.0
 10
12.8884807116
 20
9.397085383
 30
0.0
 10
12.8912999852
 20
9.3765413302
 30
0.0
 10
12.8938374046
 20
9.3552755611
 30
0.0
 10
12.8960878069
 20
9.3333307707
 30
0.0
 10
12.8980466114
 20
9.3107510365
 30
0.0
 10
12.8997098297
 20
9.2875817252
 30
0.0
 10
12.9010740733
 20
9.2638693986
 30
0.0
 10
12.902136559
 20
9.239661719
 30
0.0
 10
12.9028951157
 20
9.2150073533
 30
0.0
 10
12.9033481915
 20
9.1899558745
 30
0.0
 10
12.9034948539
 20
9.1645576553
 30
0.0
 10
12.9033347823
 20
9.1388637824
 30
0.0
 10
12.9028683054
 20
9.1129258844
 30
0.0
 10
12.9018362888
 20
9.077997774
 30
0.0
 10
12.8997871399
 20
9.0341125735
 30
0.0
 10
12.8961445531
 20
8.9814510003
 30
0.0
 10
12.8921317957
 20
8.937697611
 30
0.0
 10
12.888344696
 20
8.902953655
 30
0.0
 10
12.8852351133
 20
8.8771913903
 30
0.0
 10
12.8818555315
 20
8.8517114531
 30
0.0
 10
12.8782127347
 20
8.8265650431
 30
0.0
 10
12.8743140763
 20
8.8018027362
 30
0.0
 10
12.8701674168
 20
8.7774743197
 30
0.0
 10
12.8657811215
 20
8.7536287081
 30
0.0
 10
12.8611640396
 20
8.7303138373
 30
0.0
 10
12.8563254927
 20
8.7075765667
 30
0.0
 10
12.8512752507
 20
8.6854625831
 30
0.0
 10
12.8460235132
 20
8.6640163092
 30
0.0
 10
12.8405808884
 20
8.643280812
 30
0.0
 10
12.834958373
 20
8.6232977127
 30
0.0
 10
12.829167327
 20
8.6041070985
 30
0.0
 10
12.823219455
 20
8.5857474268
 30
0.0
 10
12.8171267786
 20
8.5682554617
 30
0.0
 10
12.8109016037
 20
8.5516661174
 30
0.0
 10
12.8045564975
 20
8.5360126417
 30
0.0
 10
12.799107081
 20
8.5236083661
 30
0.0
 10
12.7946893865
 20
8.5141846544
 30
0.0
 10
12.7913998869
 20
8.5074677474
 30
0.0
 10
12.7880899905
 20
8.5010072757
 30
0.0
 10
12.7847613746
 20
8.4948064484
 30
0.0
 10
12.7814156896
 20
8.4888683684
 30
0.0
 10
12.7780546004
 20
8.4831959955
 30
0.0
 10
12.7746798065
 20
8.4777921382
 30
0.0
 10
12.7712929378
 20
8.4726595106
 30
0.0
 10
12.7678957433
 20
8.4678006393
 30
0.0
 10
12.7644898396
 20
8.4632179448
 30
0.0
 10
12.761076889
 20
8.4589136476
 30
0.0
 10
12.7576584806
 20
8.4548898421
 30
0.0
 10
12.7542364354
 20
8.451148713
 30
0.0
 10
12.7519063485
 20
8.448796404
 30
0.0
 10
12.7507406639
 20
8.4476704391
 30
0.0
  0
SPLINE
  5
393
100
AcDbEntity
  8
0
100
AcDbSpline
 62
7
  6
CONTINUOUS
 70
0
 71
3
 72
81
 73
77
 74
0
 42
0.0000001
 43
0.0000001
 44
0.0000000001
 40
0.0
 40
0.0
 40
0.0
 40
0.0
 40
0.0040523
 40
0.0082800607
 40
0.0126871453
 40
0.0172767676
 40
0.0220516095
 40
0.0270137572
 40
0.0321645622
 40
0.0375048519
 40
0.043035017
 40
0.0487549916
 40
0.0607619183
 40
0.0735190437
 40
0.087014504
 40
0.1012325497
 40
0.1161540562
 40
0.1317569258
 40
0.1480164485
 40
0.1649055806
 40
0.1823951717
 40
0.200454143
 40
0.2190496755
 40
0.2381473809
 40
0.2577114442
 40
0.2777047486
 40
0.2980889978
 40
0.3188248566
 40
0.3398720686
 40
0.3827347929
 40
0.4263417459
 40
0.4703491099
 40
0.514409022
 40
0.5581731
 40
0.6012959281
 40
0.6225110233
 40
0.6434394292
 40
0.6640403808
 40
0.6842739777
 40
0.7041012903
 40
0.7234844759
 40
0.7423869065
 40
0.7607733182
 40
0.7786099377
 40
0.7958646234
 40
0.8125070285
 40
0.8285088054
 40
0.8438438177
 40
0.8584883682
 40
0.8724214924
 40
0.8856253318
 40
0.8980856159
 40
0.9097922254
 40
0.9153614065
 40
0.9207407001
 40
0.9259303755
 40
0.9309312202
 40
0.9357444643
 40
0.9403719534
 40
0.9448161817
 40
0.949080328
 40
0.9531684682
 40
0.9570855643
 40
0.9608376623
 40
0.9644320366
 40
0.967877261
 40
0.9711834636
 40
0.9774234772
 40
0.9803900893
 40
0.9832752684
 40
0.9860977592
 40
0.9888777013
 40
0.991636254
 40
0.9943951185
 40
0.9971759862
 40
1.0
 40
1.0
 40
1.0
 40
1.0
 10
12.7198310349
 20
8.6285103176
 30
0.0
 10
12.7206509033
 20
8.6293022497
 30
0.0
 10
12.7222897003
 20
8.6309584762
 30
0.0
 10
12.724695267
 20
8.6335958411
 30
0.0
 10
12.7270981793
 20
8.6364366435
 30
0.0
 10
12.7294970464
 20
8.6394792691
 30
0.0
 10
12.7318907193
 20
8.642722133
 30
0.0
 10
12.7342779588
 20
8.6461636122
 30
0.0
 10
12.7366575871
 20
8.6498019143
 30
0.0
 10
12.7390283442
 20
8.6536351475
 30
0.0
 10
12.7413889863
 20
8.6576613224
 30
0.0
 10
12.7445730099
 20
8.6633767747
 30
0.0
 10
12.7485104486
 20
8.6709969867
 30
0.0
 10
12.7531023036
 20
8.6807325729
 30
0.0
 10
12.7576247988
 20
8.6911817972
 30
0.0
 10
12.762068386
 20
8.7023227837
 30
0.0
 10
12.7664236706
 20
8.7141323473
 30
0.0
 10
12.770681437
 20
8.7265857599
 30
0.0
 10
12.7748326627
 20
8.7396569117
 30
0.0
 10
12.7788685467
 20
8.7533183575
 30
0.0
 10
12.7827805259
 20
8.7675413832
 30
0.0
 10
12.7865603106
 20
8.7822960621
 30
0.0
 10
12.7901998939
 20
8.7975513271
 30
0.0
 10
12.7936915643
 20
8.8132750468
 30
0.0
 10
12.7970279215
 20
8.8294340946
 30
0.0
 10
12.8002018985
 20
8.8459944168
 30
0.0
 10
12.8032067749
 20
8.8629210934
 30
0.0
 10
12.8060362198
 20
8.8801784607
 30
0.0
 10
12.809588251
 20
8.9037228867
 30
0.0
 10
12.8135398659
 20
8.9337107343
 30
0.0
 10
12.817470065
 20
8.9702053257
 30
0.0
 10
12.8205832574
 20
9.007116676
 30
0.0
 10
12.8228532004
 20
9.044133733
 30
0.0
 10
12.8242607459
 20
9.0809445546
 30
0.0
 10
12.8247078786
 20
9.1113528783
 30
0.0
 10
12.8246183761
 20
9.1353381061
 30
0.0
 10
12.824330893
 20
9.1529858761
 30
0.0
 10
12.8238234004
 20
9.1703524839
 30
0.0
 10
12.8230969734
 20
9.1874013395
 30
0.0
 10
12.8221531757
 20
9.2040964898
 30
0.0
 10
12.8209940232
 20
9.2204027387
 30
0.0
 10
12.8196219882
 20
9.2362857153
 30
0.0
 10
12.8180400084
 20
9.2517119542
 30
0.0
 10
12.8162514659
 20
9.2666489661
 30
0.0
 10
12.8142601814
 20
9.2810653028
 30
0.0
 10
12.812070402
 20
9.2949306284
 30
0.0
 10
12.8096868052
 20
9.3082157964
 30
0.0
 10
12.8071144875
 20
9.3208929168
 30
0.0
 10
12.8043589392
 20
9.3329354232
 30
0.0
 10
12.8014260313
 20
9.3443181107
 30
0.0
 10
12.7983219929
 20
9.3550173037
 30
0.0
 10
12.7950534029
 20
9.3650106184
 30
0.0
 10
12.7921519379
 20
9.3728585976
 30
0.0
 10
12.7897456375
 20
9.3787600841
 30
0.0
 10
12.7879341596
 20
9.3829230423
 30
0.0
 10
12.7860867826
 20
9.3868945822
 30
0.0
 10
12.7842044915
 20
9.3906726637
 30
0.0
 10
12.7822882211
 20
9.3942553098
 30
0.0
 10
12.7803389635
 20
9.3976406695
 30
0.0
 10
12.778357732
 20
9.4008270083
 30
0.0
 10
12.776345466
 20
9.4038126533
 30
0.0
 10
12.774303212
 20
9.4065960975
 30
0.0
 10
12.7722319364
 20
9.409175881
 30
0.0
 10
12.770132588
 20
9.4115506663
 30
0.0
 10
12.7680062812
 20
9.4137191755
 30
0.0
 10
12.7658535934
 20
9.4156803815
 30
0.0
 10
12.7630056632
 20
9.4179725894
 30
0.0
 10
12.760049221
 20
9.4199092474
 30
0.0
 10
12.7570026496
 20
9.4214286608
 30
0.0
 10
12.7547347329
 20
9.4223367886
 30
0.0
 10
12.752447329
 20
9.4230314382
 30
0.0
 10
12.7501417638
 20
9.4235120048
 30
0.0
 10
12.7478196582
 20
9.4237778797
 30
0.0
 10
12.7454826326
 20
9.4238289084
 30
0.0
 10
12.7431325924
 20
9.4236650844
 30
0.0
 10
12.7415734916
 20
9.4234152516
 30
0.0
 10
12.7407951647
 20
9.4232563736
 30
0.0
  0
SPLINE
  5
394
100
AcDbEntity
  8
0
100
AcDbSpline
 62
7
  6
CONTINUOUS
 70
0
 71
3
 72
49
 73
45
 74
0
 42
0.0000001
 43
0.0000001
 44
0.0000000001
 40
0.0
 40
0.0
 40
0.0
 40
0.0
 40
0.0103081795
 40
0.0210694622
 40
0.0322787793
 40
0.0439297867
 40
0.0560150397
 40
0.0685261031
 40
0.0814535826
 40
0.0947873094
 40
0.1085162585
 40
0.122628781
 40
0.151953738
 40
0.182656841
 40
0.2146233633
 40
0.2477310536
 40
0.2818511264
 40
0.3168491725
 40
0.3525860197
 40
0.3889185603
 40
0.4257005575
 40
0.462783437
 40
0.50001707
 40
0.5372505523
 40
0.5743329803
 40
0.6111142278
 40
0.647445724
 40
0.6831812374
 40
0.7181776673
 40
0.7522958504
 40
0.7854013885
 40
0.8173655079
 40
0.8480659716
 40
0.8773880687
 40
0.8914990836
 40
0.9052264784
 40
0.9185586025
 40
0.9314844419
 40
0.9439938198
 40
0.9560773588
 40
0.9677266134
 40
0.9789341571
 40
0.9896936354
 40
1.0
 40
1.0
 40
1.0
 40
1.0
 10
12.6374332697
 20
8.6984846061
 30
0.0
 10
12.6384893798
 20
8.7005026088
 30
0.0
 10
12.6405890412
 20
8.7046583997
 30
0.0
 10
12.6436413327
 20
8.7111051937
 30
0.0
 10
12.6466613381
 20
8.717893245
 30
0.0
 10
12.649645774
 20
8.7250152052
 30
0.0
 10
12.6525914256
 20
8.7324634477
 30
0.0
 10
12.6554950843
 20
8.7402299618
 30
0.0
 10
12.6583536371
 20
8.7483063857
 30
0.0
 10
12.6611639405
 20
8.7566840222
 30
0.0
 10
12.6639230192
 20
8.7653538437
 30
0.0
 10
12.6675761497
 20
8.7774456976
 30
0.0
 10
12.6719821091
 20
8.7932260921
 30
0.0
 10
12.6769539238
 20
8.8129373658
 30
0.0
 10
12.6816540056
 20
8.8335732117
 30
0.0
 10
12.6860618911
 20
8.8550445585
 30
0.0
 10
12.6901583783
 20
8.8772588395
 30
0.0
 10
12.6939256433
 20
8.9001201755
 30
0.0
 10
12.6973473062
 20
8.9235298689
 30
0.0
 10
12.7004085024
 20
8.9473868213
 30
0.0
 10
12.7030959438
 20
8.9715879835
 30
0.0
 10
12.7053979757
 20
8.9960288048
 30
0.0
 10
12.7073046261
 20
9.0206036905
 30
0.0
 10
12.7088076486
 20
9.0452064612
 30
0.0
 10
12.7099005575
 20
9.0697308162
 30
0.0
 10
12.710578657
 20
9.0940707959
 30
0.0
 10
12.7108390621
 20
9.1181212439
 30
0.0
 10
12.7106807125
 20
9.1417782659
 30
0.0
 10
12.710104379
 20
9.1649396836
 30
0.0
 10
12.7091126649
 20
9.1875054878
 30
0.0
 10
12.707709992
 20
9.2093782628
 30
0.0
 10
12.7059026049
 20
9.2304636841
 30
0.0
 10
12.7036984789
 20
9.2506707153
 30
0.0
 10
12.7015123204
 20
9.266906581
 30
0.0
 10
12.6995627679
 20
9.2793855428
 30
0.0
 10
12.6980264881
 20
9.2883521148
 30
0.0
 10
12.6963991453
 20
9.2970363317
 30
0.0
 10
12.6946824488
 20
9.305428843
 30
0.0
 10
12.6928783008
 20
9.313520602
 30
0.0
 10
12.6909886441
 20
9.3213028989
 30
0.0
 10
12.6890155358
 20
9.3287673575
 30
0.0
 10
12.6869611237
 20
9.3359059826
 30
0.0
 10
12.68482763
 20
9.3427110431
 30
0.0
 10
12.6833215107
 20
9.3471159651
 30
0.0
 10
12.6825539624
 20
9.3492599676
 30
0.0
  0
SPLINE
  5
395
100
AcDbEntity
  8
0
100
AcDbSpline
 62
7
  6
CONTINUOUS
 70
0
 71
3
 72
79
 73
75
 74
0
 42
0.0000001
 43
0.0000001
 44
0.0000000001
 40
0.0
 40
0.0
 40
0.0
 40
0.0
 40
0.0069315574
 40
0.0105986767
 40
0.0144066877
 40
0.0183600657
 40
0.022462566
 40
0.026717331
 40
0.0311268813
 40
0.0356932613
 40
0.0404180349
 40
0.0453023372
 40
0.0503469664
 40
0.0555523326
 40
0.060918574
 40
0.06644554
 40
0.0721328008
 40
0.0839850491
 40
0.0964680903
 40
0.1095712258
 40
0.1232811587
 40
0.1375823026
 40
0.1524570208
 40
0.1678858364
 40
0.1838476189
 40
0.2003197345
 40
0.2172781737
 40
0.2346976581
 40
0.252551756
 40
0.2708129854
 40
0.2894529036
 40
0.308442189
 40
0.327750719
 40
0.3473476593
 40
0.3672015419
 40
0.3872803383
 40
0.4075515304
 40
0.4485384014
 40
0.4898957113
 40
0.531353215
 40
0.572639826
 40
0.6134858936
 40
0.6336607498
 40
0.6536261848
 40
0.6733499231
 40
0.6928002158
 40
0.711945919
 40
0.7307565654
 40
0.7492024402
 40
0.7672546618
 40
0.7848852768
 40
0.8020673462
 40
0.818775033
 40
0.8349837026
 40
0.8506700379
 40
0.8658121762
 40
0.8803898387
 40
0.8943844882
 40
0.90777952
 40
0.9205605005
 40
0.9327154537
 40
0.944235197
 40
0.949755112
 40
0.9551143006
 40
0.9603126017
 40
0.9653501843
 40
0.9702274804
 40
0.9749452775
 40
0.9795047293
 40
0.9839073988
 40
0.9881554274
 40
0.9922514367
 40
0.9961984568
 40
1.0
 40
1.0
 40
1.0
 40
1.0
 10
11.3420638879
 20
10.6348431395
 30
0.0
 10
11.3401743136
 20
10.6372568867
 30
0.0
 10
11.3370840284
 20
10.6407937899
 30
0.0
 10
11.332584042
 20
10.6453053295
 30
0.0
 10
11.3288676925
 20
10.6487329939
 30
0.0
 10
11.3248755767
 20
10.6521392378
 30
0.0
 10
11.3206091603
 20
10.6555229296
 30
0.0
 10
11.3160703305
 20
10.6588825303
 30
0.0
 10
11.3112610622
 20
10.6622167048
 30
0.0
 10
11.3061834118
 20
10.6655239882
 30
0.0
 10
11.3008395782
 20
10.6688029753
 30
0.0
 10
11.2952318859
 20
10.6720522862
 30
0.0
 10
11.2893627407
 20
10.675270464
 30
0.0
 10
11.2832347114
 20
10.6784561698
 30
0.0
 10
11.2768504496
 20
10.6816079831
 30
0.0
 10
11.2702127226
 20
10.6847245536
 30
0.0
 10
11.2608998845
 20
10.6888885391
 30
0.0
 10
11.2486370498
 20
10.6939852677
 30
0.0
 10
11.2331545056
 20
10.699858295
 30
0.0
 10
11.2167356934
 20
10.7055591904
 30
0.0
 10
11.1994092626
 20
10.7110779375
 30
0.0
 10
11.1812052779
 20
10.7164048268
 30
0.0
 10
11.1621554646
 20
10.7215304777
 30
0.0
 10
11.1422930552
 20
10.7264458647
 30
0.0
 10
11.1216527382
 20
10.7311423239
 30
0.0
 10
11.1002705828
 20
10.7356115758
 30
0.0
 10
11.078183979
 20
10.739845736
 30
0.0
 10
11.0554315724
 20
10.7438373469
 30
0.0
 10
11.0320531899
 20
10.7475793782
 30
0.0
 10
11.0080897616
 20
10.751065237
 30
0.0
 10
10.9835832479
 20
10.7542887802
 30
0.0
 10
10.9585765701
 20
10.7572443261
 30
0.0
 10
10.9331135361
 20
10.7599266763
 30
0.0
 10
10.9072387544
 20
10.7623311116
 30
0.0
 10
10.8809975682
 20
10.7644533921
 30
0.0
 10
10.8544359167
 20
10.7662898032
 30
0.0
 10
10.8185246592
 20
10.768360287
 30
0.0
 10
10.7731777377
 20
10.7702067208
 30
0.0
 10
10.7184334407
 20
10.7712369543
 30
0.0
 10
10.6635469445
 20
10.7710822136
 30
0.0
 10
10.6089028625
 20
10.7697436207
 30
0.0
 10
10.5637033292
 20
10.7676411191
 30
0.0
 10
10.5279596854
 20
10.7653671888
 30
0.0
 10
10.501559507
 20
10.763381129
 30
0.0
 10
10.4755038677
 20
10.7611110882
 30
0.0
 10
10.4498383829
 20
10.7585610341
 30
0.0
 10
10.4246080262
 20
10.7557354687
 30
0.0
 10
10.3998569921
 20
10.7526393657
 30
0.0
 10
10.3756286371
 20
10.749278177
 30
0.0
 10
10.3519653959
 20
10.7456578164
 30
0.0
 10
10.3289087016
 20
10.7417846644
 30
0.0
 10
10.3064989116
 20
10.7376655495
 30
0.0
 10
10.2847752412
 20
10.7333077308
 30
0.0
 10
10.2637756937
 20
10.7287188868
 30
0.0
 10
10.2435369859
 20
10.7239071003
 30
0.0
 10
10.2240944717
 20
10.7188808589
 30
0.0
 10
10.2054820824
 20
10.713649023
 30
0.0
 10
10.1877322593
 20
10.7082208084
 30
0.0
 10
10.1708759147
 20
10.7026057653
 30
0.0
 10
10.1549422621
 20
10.6968137515
 30
0.0
 10
10.139959076
 20
10.6908549421
 30
0.0
 10
10.1281238459
 20
10.6856880511
 30
0.0
 10
10.1191603938
 20
10.6814704162
 30
0.0
 10
10.1127873072
 20
10.6783170798
 30
0.0
 10
10.1066705888
 20
10.6751299192
 30
0.0
 10
10.1008128618
 20
10.6719103419
 30
0.0
 10
10.0952166889
 20
10.6686597026
 30
0.0
 10
10.0898844964
 20
10.6653794276
 30
0.0
 10
10.0848185868
 20
10.6620709632
 30
0.0
 10
10.0800211583
 20
10.6587356588
 30
0.0
 10
10.0754942171
 20
10.655374947
 30
0.0
 10
10.071239718
 20
10.6519901634
 30
0.0
 10
10.0672596898
 20
10.6485829342
 30
0.0
 10
10.0647440574
 20
10.6462545183
 30
0.0
 10
10.0635348559
 20
10.6450865193
 30
0.0
  0
SPLINE
  5
396
100
AcDbEntity
  8
0
100
AcDbSpline
 62
7
  6
CONTINUOUS
 70
0
 71
3
 72
54
 73
50
 74
0
 42
0.0000001
 43
0.0000001
 44
0.0000000001
 40
0.0
 40
0.0
 40
0.0
 40
0.0
 40
0.0099472337
 40
0.0203698704
 40
0.0312644864
 40
0.0426260491
 40
0.0544480896
 40
0.0667227976
 40
0.0794412503
 40
0.0925934343
 40
0.1061683672
 40
0.1201542188
 40
0.1345382898
 40
0.1493071622
 40
0.1644467127
 40
0.1799421393
 40
0.1957780755
 40
0.2119385556
 40
0.2451662193
 40
0.2794882552
 40
0.3147604925
 40
0.3508330981
 40
0.3875515635
 40
0.424757678
 40
0.4622904654
 40
0.4999871083
 40
0.5376838689
 40
0.5752170109
 40
0.6124237148
 40
0.6491429955
 40
0.6852166394
 40
0.7204901413
 40
0.7548136583
 40
0.7880429977
 40
0.8200406729
 40
0.8355371161
 40
0.8506777018
 40
0.8654476672
 40
0.8798328731
 40
0.8938198766
 40
0.9073960261
 40
0.9205494374
 40
0.9332691503
 40
0.9455451651
 40
0.9573685051
 40
0.9687314146
 40
0.9796273864
 40
0.9900513765
 40
1.0
 40
1.0
 40
1.0
 40
1.0
 10
11.1774439653
 20
10.5524432501
 30
0.0
 10
11.1745450543
 20
10.5538889378
 30
0.0
 10
11.1685579462
 20
10.5567484948
 30
0.0
 10
11.1592410033
 20
10.5608576283
 30
0.0
 10
11.1493879443
 20
10.5648824088
 30
0.0
 10
11.1390102443
 20
10.5688180939
 30
0.0
 10
11.1281198263
 20
10.5726601046
 30
0.0
 10
11.1167292957
 20
10.5764039975
 30
0.0
 10
11.1048518258
 20
10.5800453738
 30
0.0
 10
11.0925011833
 20
10.5835799934
 30
0.0
 10
11.0796916947
 20
10.5870037428
 30
0.0
 10
11.0664382234
 20
10.5903125883
 30
0.0
 10
11.052756166
 20
10.5935026956
 30
0.0
 10
11.0386614189
 20
10.5965703217
 30
0.0
 10
11.0241703628
 20
10.5995118733
 30
0.0
 10
11.0092998532
 20
10.6023239339
 30
0.0
 10
10.9940671643
 20
10.6050032105
 30
0.0
 10
10.9731035509
 20
10.6084259694
 30
0.0
 10
10.9461222955
 20
10.6123388411
 30
0.0
 10
10.9128843023
 20
10.6164169246
 30
0.0
 10
10.8786474572
 20
10.6199006838
 30
0.0
 10
10.8435710575
 20
10.6227737469
 30
0.0
 10
10.8078181659
 20
10.6250225914
 30
0.0
 10
10.7715550826
 20
10.6266366428
 30
0.0
 10
10.7349504897
 20
10.6276083078
 30
0.0
 10
10.6981746782
 20
10.6279330124
 30
0.0
 10
10.661398743
 20
10.627609237
 30
0.0
 10
10.6247937797
 20
10.6266385057
 30
0.0
 10
10.588530081
 20
10.6250253809
 30
0.0
 10
10.5527763382
 20
10.6227774403
 30
0.0
 10
10.5176988377
 20
10.6199052638
 30
0.0
 10
10.4834607003
 20
10.616422368
 30
0.0
 10
10.4502210286
 20
10.6123451623
 30
0.0
 10
10.4181344397
 20
10.6076928103
 30
0.0
 10
10.3922112365
 20
10.6033094907
 30
0.0
 10
10.3721682854
 20
10.5995201881
 30
0.0
 10
10.3576761023
 20
10.5965789719
 30
0.0
 10
10.3435801915
 20
10.5935117142
 30
0.0
 10
10.3298969202
 20
10.5903219614
 30
0.0
 10
10.3166421939
 20
10.5870134347
 30
0.0
 10
10.3038314014
 20
10.5835900297
 30
0.0
 10
10.2914794171
 20
10.5800557146
 30
0.0
 10
10.2796005646
 20
10.5764146336
 30
0.0
 10
10.2682086075
 20
10.5726710491
 30
0.0
 10
10.2573167351
 20
10.5688292925
 30
0.0
 10
10.246937537
 20
10.5648938839
 30
0.0
 10
10.2370829472
 20
10.5608693581
 30
0.0
 10
10.2277644523
 20
10.5567604379
 30
0.0
 10
10.2217762666
 20
10.5539010655
 30
0.0
 10
10.2188768132
 20
10.5524554515
 30
0.0
  0
SPLINE
  5
397
100
AcDbEntity
  8
0
100
AcDbSpline
 62
7
  6
CONTINUOUS
 70
0
 71
3
 72
37
 73
33
 74
0
 42
0.0000001
 43
0.0000001
 44
0.0000000001
 40
0.0
 40
0.0
 40
0.0
 40
0.0
 40
0.0248575314
 40
0.05088978
 40
0.0780398965
 40
0.1062462384
 40
0.1354428883
 40
0.1655601032
 40
0.196524711
 40
0.2282604746
 40
0.2606884323
 40
0.2937272164
 40
0.3272933798
 40
0.3613017073
 40
0.3956655154
 40
0.4302969474
 40
0.5000056497
 40
0.5697141581
 40
0.6043453548
 40
0.638708837
 40
0.6727167427
 40
0.7062823868
 40
0.7393205593
 40
0.7717478227
 40
0.8034828178
 40
0.8344465774
 40
0.8645628543
 40
0.8937584797
 40
0.9219637228
 40
0.9491126825
 40
0.9751437277
 40
1.0
 40
1.0
 40
1.0
 40
1.0
 10
12.6239531386
 20
8.7694252511
 30
0.0
 10
12.6253819951
 20
8.7734655913
 30
0.0
 10
12.6281927803
 20
8.781778029
 30
0.0
 10
12.6321889587
 20
8.7946265112
 30
0.0
 10
12.636054438
 20
8.8081165258
 30
0.0
 10
12.6397785259
 20
8.8222111505
 30
0.0
 10
12.6433509761
 20
8.8368719412
 30
0.0
 10
12.6467619472
 20
8.8520588314
 30
0.0
 10
12.6500020497
 20
8.8677303098
 30
0.0
 10
12.6530623665
 20
8.8838435198
 30
0.0
 10
12.6559344771
 20
8.9003543834
 30
0.0
 10
12.658610486
 20
8.9172177202
 30
0.0
 10
12.6610830422
 20
8.9343873799
 30
0.0
 10
12.6633453461
 20
8.9518163582
 30
0.0
 10
12.6653912129
 20
8.969456978
 30
0.0
 10
12.6678280312
 20
8.9932463015
 30
0.0
 10
12.6702938402
 20
9.0231552876
 30
0.0
 10
12.6719797484
 20
9.0531183137
 30
0.0
 10
12.672849718
 20
9.0770161572
 30
0.0
 10
12.6732582327
 20
9.0947701465
 30
0.0
 10
12.673423163
 20
9.1123443442
 30
0.0
 10
12.6733440554
 20
9.1296906753
 30
0.0
 10
12.6730211596
 20
9.1467616491
 30
0.0
 10
12.6724553891
 20
9.1635105461
 30
0.0
 10
12.6716483298
 20
9.179891531
 30
0.0
 10
12.6706022334
 20
9.1958597834
 30
0.0
 10
12.6693200124
 20
9.2113716236
 30
0.0
 10
12.6678052385
 20
9.226384642
 30
0.0
 10
12.6660621314
 20
9.2408578022
 30
0.0
 10
12.6640955372
 20
9.254751621
 30
0.0
 10
12.6619109473
 20
9.2680280555
 30
0.0
 10
12.6602743442
 20
9.2766484509
 30
0.0
 10
12.6594167996
 20
9.2808471099
 30
0.0
  0
SPLINE
  5
398
100
AcDbEntity
  8
0
100
AcDbSpline
 62
7
  6
CONTINUOUS
 70
0
 71
3
 72
21
 73
17
 74
0
 42
0.0000001
 43
0.0000001
 44
0.0000000001
 40
0.0
 40
0.0
 40
0.0
 40
0.0
 40
0.1273175725
 40
0.2538000026
 40
0.3167619332
 40
0.3795354925
 40
0.4421314982
 40
0.5045621433
 40
0.5668413429
 40
0.6289845306
 40
0.6910084612
 40
0.7529311022
 40
0.8147714553
 40
0.8765493457
 40
0.9382852283
 40
1.0
 40
1.0
 40
1.0
 40
1.0
 10
11.1454088244
 20
10.0744891937
 30
0.0
 10
11.1454088244
 20
10.0809875201
 30
0.0
 10
11.1460291319
 20
10.0939499105
 30
0.0
 10
11.148371811
 20
10.1099742273
 30
0.0
 10
11.1511718506
 20
10.1225439067
 30
0.0
 10
11.153725338
 20
10.1318153033
 30
0.0
 10
11.1567293239
 20
10.1409219726
 30
0.0
 10
11.1601769593
 20
10.1498431517
 30
0.0
 10
11.1640602637
 20
10.1585582142
 30
0.0
 10
11.1683703061
 20
10.167047078
 30
0.0
 10
11.1730971999
 20
10.1752901339
 30
0.0
 10
11.1782300287
 20
10.1832683871
 30
0.0
 10
11.1837569365
 20
10.1909634248
 30
0.0
 10
11.1896652768
 20
10.1983575346
 30
0.0
 10
11.1959411939
 20
10.2054334212
 30
0.0
 10
11.200361344
 20
10.2099285075
 30
0.0
 10
11.202626947
 20
10.2121169238
 30
0.0
  0
SPLINE
  5
399
100
AcDbEntity
  8
0
100
AcDbSpline
 62
4
  6
CONTINUOUS
 70
0
 71
3
 72
387
 73
383
 74
0
 42
0.0000001
 43
0.0000001
 44
0.0000000001
 40
0.0
 40
0.0
 40
0.0
 40
0.0
 40
0.015625
 40
0.0234375
 40
0.03125
 40
0.0390625
 40
0.04296875
 40
0.046875
 40
0.05078125
 40
0.0546875
 40
0.056640625
 40
0.05859375
 40
0.0595703125
 40
0.060546875
 40
0.0615234375
 40
0.0620117188
 40
0.0625
 40
0.0629882812
 40
0.0634765625
 40
0.064453125
 40
0.0654296875
 40
0.06640625
 40
0.068359375
 40
0.0703125
 40
0.07421875
 40
0.078125
 40
0.08203125
 40
0.0859375
 40
0.09375
 40
0.1015625
 40
0.10546875
 40
0.109375
 40
0.11328125
 40
0.1171875
 40
0.119140625
 40
0.12109375
 40
0.1220703125
 40
0.123046875
 40
0.1240234375
 40
0.1245117188
 40
0.1247558594
 40
0.125
 40
0.1252441406
 40
0.1254882812
 40
0.1259765625
 40
0.126953125
 40
0.1279296875
 40
0.12890625
 40
0.130859375
 40
0.1328125
 40
0.13671875
 40
0.140625
 40
0.14453125
 40
0.1484375
 40
0.15625
 40
0.1640625
 40
0.16796875
 40
0.171875
 40
0.17578125
 40
0.1796875
 40
0.181640625
 40
0.18359375
 40
0.1845703125
 40
0.185546875
 40
0.1865234375
 40
0.1870117188
 40
0.1872558594
 40
0.1875
 40
0.1877441406
 40
0.1879882812
 40
0.1884765625
 40
0.189453125
 40
0.1904296875
 40
0.19140625
 40
0.193359375
 40
0.1953125
 40
0.19921875
 40
0.203125
 40
0.20703125
 40
0.2109375
 40
0.21875
 40
0.2265625
 40
0.23046875
 40
0.234375
 40
0.23828125
 40
0.2421875
 40
0.244140625
 40
0.24609375
 40
0.2470703125
 40
0.248046875
 40
0.2490234375
 40
0.2495117188
 40
0.2497558594
 40
0.25
 40
0.2502441406
 40
0.2504882812
 40
0.2509765625
 40
0.251953125
 40
0.2529296875
 40
0.25390625
 40
0.255859375
 40
0.2578125
 40
0.26171875
 40
0.265625
 40
0.26953125
 40
0.2734375
 40
0.28125
 40
0.2890625
 40
0.29296875
 40
0.296875
 40
0.30078125
 40
0.3046875
 40
0.306640625
 40
0.30859375
 40
0.3095703125
 40
0.310546875
 40
0.3115234375
 40
0.3120117188
 40
0.3122558594
 40
0.3125
 40
0.3127441406
 40
0.3129882812
 40
0.3134765625
 40
0.314453125
 40
0.3154296875
 40
0.31640625
 40
0.318359375
 40
0.3203125
 40
0.32421875
 40
0.328125
 40
0.33203125
 40
0.3359375
 40
0.34375
 40
0.3515625
 40
0.35546875
 40
0.359375
 40
0.36328125
 40
0.3671875
 40
0.369140625
 40
0.37109375
 40
0.3720703125
 40
0.373046875
 40
0.3740234375
 40
0.3745117188
 40
0.3747558594
 40
0.375
 40
0.3752441406
 40
0.3754882812
 40
0.3759765625
 40
0.376953125
 40
0.3779296875
 40
0.37890625
 40
0.380859375
 40
0.3828125
 40
0.38671875
 40
0.390625
 40
0.39453125
 40
0.3984375
 40
0.40625
 40
0.4140625
 40
0.41796875
 40
0.421875
 40
0.42578125
 40
0.4296875
 40
0.431640625
 40
0.43359375
 40
0.4345703125
 40
0.435546875
 40
0.4365234375
 40
0.4370117188
 40
0.4372558594
 40
0.4375
 40
0.4377441406
 40
0.4379882812
 40
0.4384765625
 40
0.439453125
 40
0.4404296875
 40
0.44140625
 40
0.443359375
 40
0.4453125
 40
0.44921875
 40
0.453125
 40
0.45703125
 40
0.4609375
 40
0.46875
 40
0.4765625
 40
0.48046875
 40
0.484375
 40
0.48828125
 40
0.4921875
 40
0.494140625
 40
0.49609375
 40
0.4970703125
 40
0.498046875
 40
0.4990234375
 40
0.4995117188
 40
0.4997558594
 40
0.5
 40
0.5002441406
 40
0.5004882812
 40
0.5009765625
 40
0.501953125
 40
0.5029296875
 40
0.50390625
 40
0.505859375
 40
0.5078125
 40
0.51171875
 40
0.515625
 40
0.51953125
 40
0.5234375
 40
0.53125
 40
0.5390625
 40
0.54296875
 40
0.546875
 40
0.55078125
 40
0.5546875
 40
0.556640625
 40
0.55859375
 40
0.5595703125
 40
0.560546875
 40
0.5615234375
 40
0.5620117188
 40
0.5625
 40
0.5629882812
 40
0.5634765625
 40
0.564453125
 40
0.5654296875
 40
0.56640625
 40
0.568359375
 40
0.5703125
 40
0.57421875
 40
0.578125
 40
0.58203125
 40
0.5859375
 40
0.59375
 40
0.6015625
 40
0.60546875
 40
0.609375
 40
0.61328125
 40
0.6171875
 40
0.619140625
 40
0.62109375
 40
0.6220703125
 40
0.623046875
 40
0.6240234375
 40
0.6245117188
 40
0.625
 40
0.6254882812
 40
0.6259765625
 40
0.626953125
 40
0.6279296875
 40
0.62890625
 40
0.630859375
 40
0.6328125
 40
0.63671875
 40
0.640625
 40
0.64453125
 40
0.6484375
 40
0.65625
 40
0.6640625
 40
0.66796875
 40
0.671875
 40
0.67578125
 40
0.6796875
 40
0.681640625
 40
0.68359375
 40
0.6845703125
 40
0.685546875
 40
0.6865234375
 40
0.6870117188
 40
0.6875
 40
0.6879882812
 40
0.6884765625
 40
0.689453125
 40
0.6904296875
 40
0.69140625
 40
0.693359375
 40
0.6953125
 40
0.69921875
 40
0.703125
 40
0.70703125
 40
0.7109375
 40
0.71875
 40
0.7265625
 40
0.73046875
 40
0.734375
 40
0.73828125
 40
0.7421875
 40
0.744140625
 40
0.74609375
 40
0.7470703125
 40
0.748046875
 40
0.7490234375
 40
0.7495117188
 40
0.75
 40
0.7504882812
 40
0.7509765625
 40
0.751953125
 40
0.7529296875
 40
0.75390625
 40
0.755859375
 40
0.7578125
 40
0.76171875
 40
0.765625
 40
0.76953125
 40
0.7734375
 40
0.78125
 40
0.7890625
 40
0.79296875
 40
0.796875
 40
0.80078125
 40
0.8046875
 40
0.806640625
 40
0.80859375
 40
0.8095703125
 40
0.810546875
 40
0.8115234375
 40
0.8120117188
 40
0.8125
 40
0.8129882812
 40
0.8134765625
 40
0.814453125
 40
0.8154296875
 40
0.81640625
 40
0.818359375
 40
0.8203125
 40
0.82421875
 40
0.828125
 40
0.83203125
 40
0.8359375
 40
0.84375
 40
0.8515625
 40
0.85546875
 40
0.859375
 40
0.86328125
 40
0.8671875
 40
0.869140625
 40
0.87109375
 40
0.8720703125
 40
0.873046875
 40
0.8740234375
 40
0.8745117188
 40
0.875
 40
0.8754882812
 40
0.8759765625
 40
0.876953125
 40
0.8779296875
 40
0.87890625
 40
0.880859375
 40
0.8828125
 40
0.88671875
 40
0.890625
 40
0.89453125
 40
0.8984375
 40
0.90625
 40
0.9140625
 40
0.91796875
 40
0.921875
 40
0.92578125
 40
0.9296875
 40
0.931640625
 40
0.93359375
 40
0.9345703125
 40
0.935546875
 40
0.9365234375
 40
0.9370117188
 40
0.9375
 40
0.9379882812
 40
0.9384765625
 40
0.939453125
 40
0.9404296875
 40
0.94140625
 40
0.943359375
 40
0.9453125
 40
0.94921875
 40
0.953125
 40
0.95703125
 40
0.9609375
 40
0.96875
 40
0.9765625
 40
0.984375
 40
1.0
 40
1.0
 40
1.0
 40
1.0
 10
10.3809750547
 20
8.9438571903
 30
0.0
 10
10.3841082416
 20
8.9439471147
 30
0.0
 10
10.388808022
 20
8.9440820013
 30
0.0
 10
10.3950743958
 20
8.9442618501
 30
0.0
 10
10.3997741762
 20
8.9443967366
 30
0.0
 10
10.4036906598
 20
8.9445091426
 30
0.0
 10
10.4068238469
 20
8.9445990661
 30
0.0
 10
10.4091737365
 20
8.9446665122
 30
0.0
 10
10.4115236288
 20
8.944733945
 30
0.0
 10
10.4134818642
 20
8.9447901805
 30
0.0
 10
10.4150484707
 20
8.9448350759
 30
0.0
 10
10.4160275584
 20
8.9448633474
 30
0.0
 10
10.4168109233
 20
8.9448854793
 30
0.0
 10
10.4173981875
 20
8.9449034069
 30
0.0
 10
10.4178883999
 20
8.9449141199
 30
0.0
 10
10.4182787182
 20
8.94493217
 30
0.0
 10
10.4185765164
 20
8.9449198043
 30
0.0
 10
10.4188550024
 20
8.9450063119
 30
0.0
 10
10.4192330631
 20
8.9450871176
 30
0.0
 10
10.4197033244
 20
8.9451999745
 30
0.0
 10
10.4202686287
 20
8.9453303307
 30
0.0
 10
10.4210220217
 20
8.9455059105
 30
0.0
 10
10.4219638814
 20
8.9457247787
 30
0.0
 10
10.4234707908
 20
8.9460753068
 30
0.0
 10
10.4253544502
 20
8.9465133506
 30
0.0
 10
10.4276148317
 20
8.9470390531
 30
0.0
 10
10.4298752159
 20
8.9475647422
 30
0.0
 10
10.4328890605
 20
8.9482656656
 30
0.0
 10
10.4366563665
 20
8.9491418184
 30
0.0
 10
10.4404236726
 20
8.9500179716
 30
0.0
 10
10.4434375173
 20
8.9507188944
 30
0.0
 10
10.4456979012
 20
8.9512445854
 30
0.0
 10
10.4479582834
 20
8.9517702809
 30
0.0
 10
10.4498419409
 20
8.9522083463
 30
0.0
 10
10.4513488542
 20
8.9525588303
 30
0.0
 10
10.4522907038
 20
8.9527778109
 30
0.0
 10
10.4530441176
 20
8.9529531599
 30
0.0
 10
10.4536093584
 20
8.9530842213
 30
0.0
 10
10.4540798183
 20
8.9531948717
 30
0.0
 10
10.4544102668
 20
8.9532695157
 30
0.0
 10
10.4545973356
 20
8.9533165589
 30
0.0
 10
10.4547425921
 20
8.9533394761
 30
0.0
 10
10.4548689083
 20
8.9534096595
 30
0.0
 10
10.4550439364
 20
8.9534867503
 30
0.0
 10
10.4553471576
 20
8.9536293409
 30
0.0
 10
10.45578194
 20
8.9538290258
 30
0.0
 10
10.4563029901
 20
8.9540703666
 30
0.0
 10
10.456997964
 20
8.954391554
 30
0.0
 10
10.4578665992
 20
8.9547932437
 30
0.0
 10
10.4592564614
 20
8.9554358325
 30
0.0
 10
10.4609937733
 20
8.9562391078
 30
0.0
 10
10.4630785545
 20
8.9572030213
 30
0.0
 10
10.4651633338
 20
8.9581669393
 30
0.0
 10
10.4679430402
 20
8.9594521617
 30
0.0
 10
10.471417673
 20
8.9610586904
 30
0.0
 10
10.4748923059
 20
8.9626652186
 30
0.0
 10
10.477672012
 20
8.9639504417
 30
0.0
 10
10.4797567922
 20
8.9649143579
 30
0.0
 10
10.4818415701
 20
8.9658782784
 30
0.0
 10
10.4835788922
 20
8.9666815318
 30
0.0
 10
10.4849687337
 20
8.9673241653
 30
0.0
 10
10.4858374215
 20
8.967725741
 30
0.0
 10
10.4865322873
 20
8.9680471626
 30
0.0
 10
10.4870536679
 20
8.9682877877
 30
0.0
 10
10.487487416
 20
8.9684897118
 30
0.0
 10
10.4877924836
 20
8.968628305
 30
0.0
 10
10.4879645533
 20
8.9687118007
 30
0.0
 10
10.4880999571
 20
8.9687623106
 30
0.0
 10
10.4882110821
 20
8.9688591181
 30
0.0
 10
10.4883677175
 20
8.9689720457
 30
0.0
 10
10.4886378837
 20
8.9691771931
 30
0.0
 10
10.4890258983
 20
8.9694663272
 30
0.0
 10
10.4894906328
 20
8.9698149718
 30
0.0
 10
10.4901105872
 20
8.9702792432
 30
0.0
 10
10.4908854246
 20
8.9708597838
 30
0.0
 10
10.4921252235
 20
8.9717885361
 30
0.0
 10
10.4936749519
 20
8.9729495153
 30
0.0
 10
10.4955346347
 20
8.9743426736
 30
0.0
 10
10.4973943151
 20
8.9757358365
 30
0.0
 10
10.4998738898
 20
8.9775933853
 30
0.0
 10
10.5029733579
 20
8.979915322
 30
0.0
 10
10.5060728262
 20
8.9822372583
 30
0.0
 10
10.5085524005
 20
8.9840948077
 30
0.0
 10
10.5104120822
 20
8.9854879689
 30
0.0
 10
10.5122717602
 20
8.9868811334
 30
0.0
 10
10.5138215034
 20
8.9880420933
 30
0.0
 10
10.515061272
 20
8.9889708849
 30
0.0
 10
10.5158361866
 20
8.9895513259
 30
0.0
 10
10.5164559827
 20
8.9900158016
 30
0.0
 10
10.5169212008
 20
8.9903638219
 30
0.0
 10
10.5173077025
 20
8.9906549092
 30
0.0
 10
10.5175805694
 20
8.9908565698
 30
0.0
 10
10.5177328776
 20
8.9909750842
 30
0.0
 10
10.5178572944
 20
8.9910547306
 30
0.0
 10
10.5179427763
 20
8.9911696951
 30
0.0
 10
10.5180703332
 20
8.9913106617
 30
0.0
 10
10.5182872302
 20
8.9915630932
 30
0.0
 10
10.5186003911
 20
8.9919207087
 30
0.0
 10
10.5189747682
 20
8.9923511318
 30
0.0
 10
10.5194744322
 20
8.9929245806
 30
0.0
 10
10.5200988429
 20
8.9936415452
 30
0.0
 10
10.5210979947
 20
8.9947886028
 30
0.0
 10
10.522346902
 20
8.9962224541
 30
0.0
 10
10.5238456046
 20
8.9979430632
 30
0.0
 10
10.5253443036
 20
8.9996636756
 30
0.0
 10
10.5273425701
 20
9.0019578243
 30
0.0
 10
10.5298404028
 20
9.0048255106
 30
0.0
 10
10.5323382358
 20
9.0076931966
 30
0.0
 10
10.5343365017
 20
9.0099873457
 30
0.0
 10
10.5358352023
 20
9.0117079568
 30
0.0
 10
10.5373338989
 20
9.0134285708
 30
0.0
 10
10.538582825
 20
9.0148624067
 30
0.0
 10
10.5395819383
 20
9.0160094958
 30
0.0
 10
10.5402064469
 20
9.0167263802
 30
0.0
 10
10.5407059101
 20
9.0172999938
 30
0.0
 10
10.5410809009
 20
9.0177299133
 30
0.0
 10
10.5413921416
 20
9.0180891043
 30
0.0
 10
10.5416124665
 20
9.0183387232
 30
0.0
 10
10.5417345308
 20
9.0184841963
 30
0.0
 10
10.5418368842
 20
9.0185853185
 30
0.0
 10
10.541897935
 20
9.0187169545
 30
0.0
 10
10.541993743
 20
9.0188818256
 30
0.0
 10
10.5421546945
 20
9.0191753091
 30
0.0
 10
10.5423881345
 20
9.0195919786
 30
0.0
 10
10.5426667605
 20
9.0200930917
 30
0.0
 10
10.5430387864
 20
9.020760855
 30
0.0
 10
10.5435036391
 20
9.0215956917
 30
0.0
 10
10.544247504
 20
9.0229313563
 30
0.0
 10
10.5451773005
 20
9.0246009626
 30
0.0
 10
10.5462930711
 20
9.0266044792
 30
0.0
 10
10.5474088378
 20
9.0286079987
 30
0.0
 10
10.5488965281
 20
9.031279357
 30
0.0
 10
10.5507561405
 20
9.0346185553
 30
0.0
 10
10.5526157532
 20
9.0379577533
 30
0.0
 10
10.5541034429
 20
9.040629112
 30
0.0
 10
10.5552192114
 20
9.0426326304
 30
0.0
 10
10.5563349754
 20
9.044636151
 30
0.0
 10
10.5572647925
 20
9.0463057448
 30
0.0
 10
10.5580086155
 20
9.0476414347
 30
0.0
 10
10.5584735746
 20
9.0484762071
 30
0.0
 10
10.5588453822
 20
9.0491441025
 30
0.0
 10
10.5591246751
 20
9.0496448118
 30
0.0
 10
10.5593560285
 20
9.0500627448
 30
0.0
 10
10.559520705
 20
9.0503539727
 30
0.0
 10
10.5596105445
 20
9.0505224579
 30
0.0
 10
10.5596899284
 20
9.0506429925
 30
0.0
 10
10.559723426
 20
9.0507858099
 30
0.0
 10
10.5597840951
 20
9.0509684606
 30
0.0
 10
10.5598828087
 20
9.0512917207
 30
0.0
 10
10.5600277269
 20
9.0517516276
 30
0.0
 10
10.5601999599
 20
9.0523043262
 30
0.0
 10
10.5604301868
 20
9.0530409746
 30
0.0
 10
10.5607177709
 20
9.0539618821
 30
0.0
 10
10.561178017
 20
9.0554352798
 30
0.0
 10
10.5617532863
 20
9.0572770456
 30
0.0
 10
10.5624436258
 20
9.0594871566
 30
0.0
 10
10.563133961
 20
9.0616972697
 30
0.0
 10
10.5640544094
 20
9.0646440865
 30
0.0
 10
10.5652049694
 20
9.0683276076
 30
0.0
 10
10.5663555298
 20
9.0720111287
 30
0.0
 10
10.5672759776
 20
9.0749579457
 30
0.0
 10
10.5679663147
 20
9.077168058
 30
0.0
 10
10.5686566471
 20
9.079378172
 30
0.0
 10
10.5692319386
 20
9.0812199284
 30
0.0
 10
10.5696921393
 20
9.0826933453
 30
0.0
 10
10.5699798388
 20
9.0836142039
 30
0.0
 10
10.5702098289
 20
9.0843509526
 30
0.0
 10
10.5703827855
 20
9.084903345
 30
0.0
 10
10.5705254397
 20
9.0853642101
 30
0.0
 10
10.5706281949
 20
9.0856857595
 30
0.0
 10
10.5706823883
 20
9.0858711511
 30
0.0
 10
10.5707357774
 20
9.0860055494
 30
0.0
 10
10.570740452
 20
9.086157705
 30
0.0
 10
10.570763677
 20
9.0863543852
 30
0.0
 10
10.5707964038
 20
9.0867014615
 30
0.0
 10
10.5708472954
 20
9.087195776
 30
0.0
 10
10.5709065937
 20
9.0877895992
 30
0.0
 10
10.5709862769
 20
9.088581138
 30
0.0
 10
10.571085669
 20
9.0895706386
 30
0.0
 10
10.5712448148
 20
9.0911537964
 30
0.0
 10
10.5714437065
 20
9.0931327585
 30
0.0
 10
10.5716823938
 20
9.0955075066
 30
0.0
 10
10.5719210766
 20
9.0978822565
 30
0.0
 10
10.5722393218
 20
9.101048589
 30
0.0
 10
10.5726371278
 20
9.1050065049
 30
0.0
 10
10.5730349342
 20
9.1089644208
 30
0.0
 10
10.5733531787
 20
9.1121307534
 30
0.0
 10
10.5735918635
 20
9.1145055029
 30
0.0
 10
10.5738305433
 20
9.1168802524
 30
0.0
 10
10.5740294583
 20
9.1188592105
 30
0.0
 10
10.5741885565
 20
9.1204423764
 30
0.0
 10
10.5742880698
 20
9.1214318565
 30
0.0
 10
10.5743675043
 20
9.1222234373
 30
0.0
 10
10.5744275623
 20
9.122817132
 30
0.0
 10
10.5744760772
 20
9.1233118485
 30
0.0
 10
10.5745130468
 20
9.1236582071
 30
0.0
 10
10.5745294737
 20
9.1238560373
 30
0.0
 10
10.57455503
 20
9.1240046605
 30
0.0
 10
10.5745299909
 20
9.124152326
 30
0.0
 10
10.5745142536
 20
9.1243495473
 30
0.0
 10
10.5744784907
 20
9.1246945289
 30
0.0
 10
10.5744316997
 20
9.1251874413
 30
0.0
 10
10.5743737105
 20
9.1257789012
 30
0.0
 10
10.5742970343
 20
9.1265675266
 30
0.0
 10
10.5742009689
 20
9.1275533043
 30
0.0
 10
10.5740473874
 20
9.1291305508
 30
0.0
 10
10.5738553682
 20
9.1311021081
 30
0.0
 10
10.5736249633
 20
9.1334679773
 30
0.0
 10
10.5733945535
 20
9.1358338464
 30
0.0
 10
10.5730873422
 20
9.1389883385
 30
0.0
 10
10.5727033275
 20
9.1429314536
 30
0.0
 10
10.5723193126
 20
9.1468745687
 30
0.0
 10
10.5720121018
 20
9.150029061
 30
0.0
 10
10.5717816903
 20
9.1523949297
 30
0.0
 10
10.5715512919
 20
9.1547608001
 30
0.0
 10
10.5713592523
 20
9.1567323535
 30
0.0
 10
10.5712057124
 20
9.1583096081
 30
0.0
 10
10.571109541
 20
9.1592953653
 30
0.0
 10
10.5710330825
 20
9.1600840326
 30
0.0
 10
10.570974428
 20
9.1606753645
 30
0.0
 10
10.5709297187
 20
9.1611686775
 30
0.0
 10
10.5708845998
 20
9.1615621248
 30
0.0
 10
10.5708763131
 20
9.1618604977
 30
0.0
 10
10.5707704925
 20
9.1621463224
 30
0.0
 10
10.5706634682
 20
9.1625318052
 30
0.0
 10
10.5705179986
 20
9.1630121549
 30
0.0
 10
10.5703484384
 20
9.1635892182
 30
0.0
 10
10.5701206106
 20
9.1643584111
 30
0.0
 10
10.5698364242
 20
9.1653199792
 30
0.0
 10
10.5693813916
 20
9.1668584452
 30
0.0
 10
10.5688127155
 20
9.1687815424
 30
0.0
 10
10.5681302551
 20
9.1710892527
 30
0.0
 10
10.5674478078
 20
9.1733969648
 30
0.0
 10
10.5665378735
 20
9.1764739136
 30
0.0
 10
10.5654004573
 20
9.1803200998
 30
0.0
 10
10.5642630401
 20
9.1841662857
 30
0.0
 10
10.5633531075
 20
9.1872432349
 30
0.0
 10
10.5626706549
 20
9.1895509457
 30
0.0
 10
10.5619882146
 20
9.1918586607
 30
0.0
 10
10.5614194758
 20
9.1937817433
 30
0.0
 10
10.5609645712
 20
9.1953202391
 30
0.0
 10
10.5606800589
 20
9.1962817314
 30
0.0
 10
10.5604529002
 20
9.1970510799
 30
0.0
 10
10.5602812958
 20
9.1976276678
 30
0.0
 10
10.5601422219
 20
9.1981095049
 30
0.0
 10
10.5600221492
 20
9.1984919531
 30
0.0
 10
10.5599561777
 20
9.1987870454
 30
0.0
 10
10.5597982808
 20
9.1990506239
 30
0.0
 10
10.5596198624
 20
9.19941307
 30
0.0
 10
10.5593858223
 20
9.1998623508
 30
0.0
 10
10.5591096899
 20
9.2004031044
 30
0.0
 10
10.5587398662
 20
9.2011235445
 30
0.0
 10
10.5582781506
 20
9.202024288
 30
0.0
 10
10.5575390904
 20
9.2034653695
 30
0.0
 10
10.5566153734
 20
9.2052667585
 30
0.0
 10
10.5555068666
 20
9.2074284093
 30
0.0
 10
10.5543983721
 20
9.2095900645
 30
0.0
 10
10.5529203752
 20
9.2124722698
 30
0.0
 10
10.5510728807
 20
9.2160750271
 30
0.0
 10
10.5492253851
 20
9.2196777839
 30
0.0
 10
10.5477473899
 20
9.2225599899
 30
0.0
 10
10.5466388904
 20
9.224721643
 30
0.0
 10
10.5455304029
 20
9.2268833017
 30
0.0
 10
10.5446066257
 20
9.2286846662
 30
0.0
 10
10.5438676881
 20
9.2301257977
 30
0.0
 10
10.5434056607
 20
9.231026414
 30
0.0
 10
10.5430364769
 20
9.2317471151
 30
0.0
 10
10.5427583897
 20
9.2322870714
 30
0.0
 10
10.5425304656
 20
9.2327388467
 30
0.0
 10
10.5423395695
 20
9.2330962037
 30
0.0
 10
10.5422197788
 20
9.233375324
 30
0.0
 10
10.542010741
 20
9.2336120656
 30
0.0
 10
10.541763199
 20
9.2339425245
 30
0.0
 10
10.5414430756
 20
9.2343505191
 30
0.0
 10
10.5410635057
 20
9.2348422866
 30
0.0
 10
10.5405558135
 20
9.2354972173
 30
0.0
 10
10.5399217457
 20
9.2363161406
 30
0.0
 10
10.5389069313
 20
9.2376262727
 30
0.0
 10
10.5376385182
 20
9.2392639876
 30
0.0
 10
10.5361163775
 20
9.2412292242
 30
0.0
 10
10.5345942488
 20
9.2431944665
 30
0.0
 10
10.5325647397
 20
9.2458147875
 30
0.0
 10
10.5300278549
 20
9.2490901896
 30
0.0
 10
10.5274909692
 20
9.2523655909
 30
0.0
 10
10.5254614616
 20
9.2549859131
 30
0.0
 10
10.5239393285
 20
9.256951152
 30
0.0
 10
10.5224172043
 20
9.2589164009
 30
0.0
 10
10.52114874
 20
9.2605540775
 30
0.0
 10
10.52013403
 20
9.2618642878
 30
0.0
 10
10.5194996964
 20
9.262683012
 30
0.0
 10
10.5189925498
 20
9.2633383515
 30
0.0
 10
10.5186113129
 20
9.2638288702
 30
0.0
 10
10.518296405
 20
9.2642407719
 30
0.0
 10
10.5180382225
 20
9.2645632596
 30
0.0
 10
10.5178616803
 20
9.2648243449
 30
0.0
 10
10.5176198878
 20
9.2650120688
 30
0.0
 10
10.5173202905
 20
9.2652879934
 30
0.0
 10
10.5169379739
 20
9.265624107
 30
0.0
 10
10.5164825412
 20
9.2660312066
 30
0.0
 10
10.5158741285
 20
9.2665726917
 30
0.0
 10
10.5151140129
 20
9.2672499981
 30
0.0
 10
10.5138976042
 20
9.2683334368
 30
0.0
 10
10.5123771701
 20
9.2696878215
 30
0.0
 10
10.5105526163
 20
9.2713130461
 30
0.0
 10
10.5087280712
 20
9.2729382807
 30
0.0
 10
10.5062953415
 20
9.2751052566
 30
0.0
 10
10.5032544304
 20
9.2778139778
 30
0.0
 10
10.5002135186
 20
9.2805226981
 30
0.0
 10
10.4977807899
 20
9.2826896754
 30
0.0
 10
10.4959562415
 20
9.2843149057
 30
0.0
 10
10.4941317005
 20
9.2859401465
 30
0.0
 10
10.4926112264
 20
9.2872944808
 30
0.0
 10
10.4913948992
 20
9.2883780223
 30
0.0
 10
10.4906345762
 20
9.289055067
 30
0.0
 10
10.4900265893
 20
9.2895970894
 30
0.0
 10
10.4895698558
 20
9.2900025474
 30
0.0
 10
10.489191609
 20
9.2903437972
 30
0.0
 10
10.4888837085
 20
9.290609243
 30
0.0
 10
10.4886672737
 20
9.2908289684
 30
0.0
 10
10.4883955279
 20
9.2909699069
 30
0.0
 10
10.488052521
 20
9.2911853461
 30
0.0
 10
10.4876171335
 20
9.2914452028
 30
0.0
 10
10.4870975059
 20
9.2917610724
 30
0.0
 10
10.486403678
 20
9.2921808202
 30
0.0
 10
10.4855367325
 20
9.2927059884
 30
0.0
 10
10.48414943
 20
9.2935459873
 30
0.0
 10
10.482415367
 20
9.2945960786
 30
0.0
 10
10.4803344635
 20
9.2958561485
 30
0.0
 10
10.4782535674
 20
9.297116229
 30
0.0
 10
10.4754790367
 20
9.2987963326
 30
0.0
 10
10.4720108743
 20
9.3008964635
 30
0.0
 10
10.4685427114
 20
9.3029965934
 30
0.0
 10
10.4657681815
 20
9.3046766986
 30
0.0
 10
10.4636872828
 20
9.3059367743
 30
0.0
 10
10.4616063893
 20
9.3071968621
 30
0.0
 10
10.4598722953
 20
9.3082468978
 30
0.0
 10
10.458485056
 20
9.3090870102
 30
0.0
 10
10.4576179496
 20
9.3096118894
 30
0.0
 10
10.456924452
 20
9.3100322303
 30
0.0
 10
10.4564038153
 20
9.3103462881
 30
0.0
 10
10.4559715848
 20
9.3106118136
 30
0.0
 10
10.455622137
 20
9.3108156873
 30
0.0
 10
10.4553700614
 20
9.3109919465
 30
0.0
 10
10.4550797763
 20
9.3110790631
 30
0.0
 10
10.4547060766
 20
9.3112263572
 30
0.0
 10
10.4542343727
 20
9.3113997913
 30
0.0
 10
10.453670288
 20
9.3116124851
 30
0.0
 10
10.4529174906
 20
9.3118944796
 30
0.0
 10
10.4519767281
 20
9.3122475197
 30
0.0
 10
10.4504713772
 20
9.3128120781
 30
0.0
 10
10.4485897335
 20
9.3135178811
 30
0.0
 10
10.4463317418
 20
9.3143647997
 30
0.0
 10
10.4440737552
 20
9.3152117303
 30
0.0
 10
10.4410631047
 20
9.3163409669
 30
0.0
 10
10.4372997922
 20
9.3177525142
 30
0.0
 10
10.4335364793
 20
9.3191640604
 30
0.0
 10
10.4305258294
 20
9.3202932987
 30
0.0
 10
10.4282678409
 20
9.3211402241
 30
0.0
 10
10.4260098563
 20
9.3219871624
 30
0.0
 10
10.4241281904
 20
9.3226929041
 30
0.0
 10
10.4226228848
 20
9.3232575874
 30
0.0
 10
10.4216820071
 20
9.3236103098
 30
0.0
 10
10.4209294462
 20
9.3238929563
 30
0.0
 10
10.4203646389
 20
9.3241036584
 30
0.0
 10
10.4198951958
 20
9.3242833241
 30
0.0
 10
10.4195168835
 20
9.3244179046
 30
0.0
 10
10.4192406851
 20
9.3245438477
 30
0.0
 10
10.4189357221
 20
9.3245743357
 30
0.0
 10
10.4185391526
 20
9.3246483301
 30
0.0
 10
10.4180399934
 20
9.324729383
 30
0.0
 10
10.417442478
 20
9.3248315432
 30
0.0
 10
10.4166452753
 20
9.3249660465
 30
0.0
 10
10.4156489484
 20
9.3251347612
 30
0.0
 10
10.4140547267
 20
9.3254043774
 30
0.0
 10
10.4120619835
 20
9.32574151
 30
0.0
 10
10.4096706771
 20
9.326146021
 30
0.0
 10
10.4072793746
 20
9.3265505448
 30
0.0
 10
10.4040909699
 20
9.3270899055
 30
0.0
 10
10.4001054644
 20
9.3277641078
 30
0.0
 10
10.3953228577
 20
9.32857315
 30
0.0
 10
10.3889460489
 20
9.3296518731
 30
0.0
 10
10.3841634422
 20
9.3304609154
 30
0.0
 10
10.3809750378
 20
9.3310002769
 30
0.0
  0
SPLINE
  5
39A
100
AcDbEntity
  8
0
100
AcDbSpline
 62
4
  6
CONTINUOUS
 70
0
 71
3
 72
387
 73
383
 74
0
 42
0.0000001
 43
0.0000001
 44
0.0000000001
 40
0.0
 40
0.0
 40
0.0
 40
0.0
 40
0.015625
 40
0.0234375
 40
0.03125
 40
0.0390625
 40
0.04296875
 40
0.046875
 40
0.05078125
 40
0.0546875
 40
0.056640625
 40
0.05859375
 40
0.0595703125
 40
0.060546875
 40
0.0615234375
 40
0.0620117188
 40
0.0625
 40
0.0629882812
 40
0.0634765625
 40
0.064453125
 40
0.0654296875
 40
0.06640625
 40
0.068359375
 40
0.0703125
 40
0.07421875
 40
0.078125
 40
0.08203125
 40
0.0859375
 40
0.09375
 40
0.1015625
 40
0.10546875
 40
0.109375
 40
0.11328125
 40
0.1171875
 40
0.119140625
 40
0.12109375
 40
0.1220703125
 40
0.123046875
 40
0.1240234375
 40
0.1245117188
 40
0.1247558594
 40
0.125
 40
0.1252441406
 40
0.1254882812
 40
0.1259765625
 40
0.126953125
 40
0.1279296875
 40
0.12890625
 40
0.130859375
 40
0.1328125
 40
0.13671875
 40
0.140625
 40
0.14453125
 40
0.1484375
 40
0.15625
 40
0.1640625
 40
0.16796875
 40
0.171875
 40
0.17578125
 40
0.1796875
 40
0.181640625
 40
0.18359375
 40
0.1845703125
 40
0.185546875
 40
0.1865234375
 40
0.1870117188
 40
0.1872558594
 40
0.1875
 40
0.1877441406
 40
0.1879882812
 40
0.1884765625
 40
0.189453125
 40
0.1904296875
 40
0.19140625
 40
0.193359375
 40
0.1953125
 40
0.19921875
 40
0.203125
 40
0.20703125
 40
0.2109375
 40
0.21875
 40
0.2265625
 40
0.23046875
 40
0.234375
 40
0.23828125
 40
0.2421875
 40
0.244140625
 40
0.24609375
 40
0.2470703125
 40
0.248046875
 40
0.2490234375
 40
0.2495117188
 40
0.2497558594
 40
0.25
 40
0.2502441406
 40
0.2504882812
 40
0.2509765625
 40
0.251953125
 40
0.2529296875
 40
0.25390625
 40
0.255859375
 40
0.2578125
 40
0.26171875
 40
0.265625
 40
0.26953125
 40
0.2734375
 40
0.28125
 40
0.2890625
 40
0.29296875
 40
0.296875
 40
0.30078125
 40
0.3046875
 40
0.306640625
 40
0.30859375
 40
0.3095703125
 40
0.310546875
 40
0.3115234375
 40
0.3120117188
 40
0.3122558594
 40
0.3125
 40
0.3127441406
 40
0.3129882812
 40
0.3134765625
 40
0.314453125
 40
0.3154296875
 40
0.31640625
 40
0.318359375
 40
0.3203125
 40
0.32421875
 40
0.328125
 40
0.33203125
 40
0.3359375
 40
0.34375
 40
0.3515625
 40
0.35546875
 40
0.359375
 40
0.36328125
 40
0.3671875
 40
0.369140625
 40
0.37109375
 40
0.3720703125
 40
0.373046875
 40
0.3740234375
 40
0.3745117188
 40
0.3747558594
 40
0.375
 40
0.3752441406
 40
0.3754882812
 40
0.3759765625
 40
0.376953125
 40
0.3779296875
 40
0.37890625
 40
0.380859375
 40
0.3828125
 40
0.38671875
 40
0.390625
 40
0.39453125
 40
0.3984375
 40
0.40625
 40
0.4140625
 40
0.41796875
 40
0.421875
 40
0.42578125
 40
0.4296875
 40
0.431640625
 40
0.43359375
 40
0.4345703125
 40
0.435546875
 40
0.4365234375
 40
0.4370117188
 40
0.4372558594
 40
0.4375
 40
0.4377441406
 40
0.4379882812
 40
0.4384765625
 40
0.439453125
 40
0.4404296875
 40
0.44140625
 40
0.443359375
 40
0.4453125
 40
0.44921875
 40
0.453125
 40
0.45703125
 40
0.4609375
 40
0.46875
 40
0.4765625
 40
0.48046875
 40
0.484375
 40
0.48828125
 40
0.4921875
 40
0.494140625
 40
0.49609375
 40
0.4970703125
 40
0.498046875
 40
0.4990234375
 40
0.4995117188
 40
0.4997558594
 40
0.5
 40
0.5002441406
 40
0.5004882812
 40
0.5009765625
 40
0.501953125
 40
0.5029296875
 40
0.50390625
 40
0.505859375
 40
0.5078125
 40
0.51171875
 40
0.515625
 40
0.51953125
 40
0.5234375
 40
0.53125
 40
0.5390625
 40
0.54296875
 40
0.546875
 40
0.55078125
 40
0.5546875
 40
0.556640625
 40
0.55859375
 40
0.5595703125
 40
0.560546875
 40
0.5615234375
 40
0.5620117188
 40
0.5625
 40
0.5629882812
 40
0.5634765625
 40
0.564453125
 40
0.5654296875
 40
0.56640625
 40
0.568359375
 40
0.5703125
 40
0.57421875
 40
0.578125
 40
0.58203125
 40
0.5859375
 40
0.59375
 40
0.6015625
 40
0.60546875
 40
0.609375
 40
0.61328125
 40
0.6171875
 40
0.619140625
 40
0.62109375
 40
0.6220703125
 40
0.623046875
 40
0.6240234375
 40
0.6245117188
 40
0.625
 40
0.6254882812
 40
0.6259765625
 40
0.626953125
 40
0.6279296875
 40
0.62890625
 40
0.630859375
 40
0.6328125
 40
0.63671875
 40
0.640625
 40
0.64453125
 40
0.6484375
 40
0.65625
 40
0.6640625
 40
0.66796875
 40
0.671875
 40
0.67578125
 40
0.6796875
 40
0.681640625
 40
0.68359375
 40
0.6845703125
 40
0.685546875
 40
0.6865234375
 40
0.6870117188
 40
0.6875
 40
0.6879882812
 40
0.6884765625
 40
0.689453125
 40
0.6904296875
 40
0.69140625
 40
0.693359375
 40
0.6953125
 40
0.69921875
 40
0.703125
 40
0.70703125
 40
0.7109375
 40
0.71875
 40
0.7265625
 40
0.73046875
 40
0.734375
 40
0.73828125
 40
0.7421875
 40
0.744140625
 40
0.74609375
 40
0.7470703125
 40
0.748046875
 40
0.7490234375
 40
0.7495117188
 40
0.75
 40
0.7504882812
 40
0.7509765625
 40
0.751953125
 40
0.7529296875
 40
0.75390625
 40
0.755859375
 40
0.7578125
 40
0.76171875
 40
0.765625
 40
0.76953125
 40
0.7734375
 40
0.78125
 40
0.7890625
 40
0.79296875
 40
0.796875
 40
0.80078125
 40
0.8046875
 40
0.806640625
 40
0.80859375
 40
0.8095703125
 40
0.810546875
 40
0.8115234375
 40
0.8120117188
 40
0.8125
 40
0.8129882812
 40
0.8134765625
 40
0.814453125
 40
0.8154296875
 40
0.81640625
 40
0.818359375
 40
0.8203125
 40
0.82421875
 40
0.828125
 40
0.83203125
 40
0.8359375
 40
0.84375
 40
0.8515625
 40
0.85546875
 40
0.859375
 40
0.86328125
 40
0.8671875
 40
0.869140625
 40
0.87109375
 40
0.8720703125
 40
0.873046875
 40
0.8740234375
 40
0.8745117188
 40
0.875
 40
0.8754882812
 40
0.8759765625
 40
0.876953125
 40
0.8779296875
 40
0.87890625
 40
0.880859375
 40
0.8828125
 40
0.88671875
 40
0.890625
 40
0.89453125
 40
0.8984375
 40
0.90625
 40
0.9140625
 40
0.91796875
 40
0.921875
 40
0.92578125
 40
0.9296875
 40
0.931640625
 40
0.93359375
 40
0.9345703125
 40
0.935546875
 40
0.9365234375
 40
0.9370117188
 40
0.9375
 40
0.9379882812
 40
0.9384765625
 40
0.939453125
 40
0.9404296875
 40
0.94140625
 40
0.943359375
 40
0.9453125
 40
0.94921875
 40
0.953125
 40
0.95703125
 40
0.9609375
 40
0.96875
 40
0.9765625
 40
0.984375
 40
1.0
 40
1.0
 40
1.0
 40
1.0
 10
10.3809750547
 20
9.3310002757
 30
0.0
 10
10.3778418678
 20
9.3309103513
 30
0.0
 10
10.3731420874
 20
9.3307754647
 30
0.0
 10
10.3668757136
 20
9.3305956158
 30
0.0
 10
10.3621759332
 20
9.3304607294
 30
0.0
 10
10.3582594496
 20
9.3303483234
 30
0.0
 10
10.3551262625
 20
9.3302583999
 30
0.0
 10
10.3527763729
 20
9.3301909538
 30
0.0
 10
10.3504264806
 20
9.330123521
 30
0.0
 10
10.3484682452
 20
9.3300672855
 30
0.0
 10
10.3469016387
 20
9.3300223901
 30
0.0
 10
10.345922551
 20
9.3299941186
 30
0.0
 10
10.3451391861
 20
9.3299719867
 30
0.0
 10
10.3445519219
 20
9.3299540591
 30
0.0
 10
10.3440617095
 20
9.3299433461
 30
0.0
 10
10.3436713912
 20
9.329925296
 30
0.0
 10
10.343373593
 20
9.3299376616
 30
0.0
 10
10.343095107
 20
9.3298511541
 30
0.0
 10
10.3427170463
 20
9.3297703483
 30
0.0
 10
10.342246785
 20
9.3296574915
 30
0.0
 10
10.3416814807
 20
9.3295271353
 30
0.0
 10
10.3409280877
 20
9.3293515555
 30
0.0
 10
10.339986228
 20
9.3291326873
 30
0.0
 10
10.3384793187
 20
9.3287821592
 30
0.0
 10
10.3365956593
 20
9.3283441154
 30
0.0
 10
10.3343352777
 20
9.3278184129
 30
0.0
 10
10.3320748936
 20
9.3272927238
 30
0.0
 10
10.329061049
 20
9.3265918003
 30
0.0
 10
10.3252937429
 20
9.3257156476
 30
0.0
 10
10.3215264368
 20
9.3248394944
 30
0.0
 10
10.3185125922
 20
9.3241385716
 30
0.0
 10
10.3162522082
 20
9.3236128806
 30
0.0
 10
10.313991826
 20
9.3230871851
 30
0.0
 10
10.3121081686
 20
9.3226491196
 30
0.0
 10
10.3106012552
 20
9.3222986357
 30
0.0
 10
10.3096594056
 20
9.3220796551
 30
0.0
 10
10.3089059918
 20
9.3219043061
 30
0.0
 10
10.3083407511
 20
9.3217732447
 30
0.0
 10
10.3078702911
 20
9.3216625943
 30
0.0
 10
10.3075398426
 20
9.3215879503
 30
0.0
 10
10.3073527739
 20
9.3215409071
 30
0.0
 10
10.3072075174
 20
9.3215179899
 30
0.0
 10
10.3070812012
 20
9.3214478065
 30
0.0
 10
10.306906173
 20
9.3213707157
 30
0.0
 10
10.3066029518
 20
9.321228125
 30
0.0
 10
10.3061681694
 20
9.3210284402
 30
0.0
 10
10.3056471194
 20
9.3207870994
 30
0.0
 10
10.3049521454
 20
9.320465912
 30
0.0
 10
10.3040835103
 20
9.3200642223
 30
0.0
 10
10.3026936481
 20
9.3194216335
 30
0.0
 10
10.3009563361
 20
9.3186183582
 30
0.0
 10
10.298871555
 20
9.3176544447
 30
0.0
 10
10.2967867756
 20
9.3166905267
 30
0.0
 10
10.2940070692
 20
9.3154053042
 30
0.0
 10
10.2905324365
 20
9.3137987756
 30
0.0
 10
10.2870578035
 20
9.3121922473
 30
0.0
 10
10.2842780974
 20
9.3109070243
 30
0.0
 10
10.2821933172
 20
9.3099431081
 30
0.0
 10
10.2801085394
 20
9.3089791876
 30
0.0
 10
10.2783712172
 20
9.3081759342
 30
0.0
 10
10.2769813757
 20
9.3075333007
 30
0.0
 10
10.2761126879
 20
9.307131725
 30
0.0
 10
10.2754178221
 20
9.3068103034
 30
0.0
 10
10.2748964415
 20
9.3065696783
 30
0.0
 10
10.2744626934
 20
9.3063677542
 30
0.0
 10
10.2741576258
 20
9.306229161
 30
0.0
 10
10.2739855561
 20
9.3061456653
 30
0.0
 10
10.2738501523
 20
9.3060951554
 30
0.0
 10
10.2737390273
 20
9.3059983479
 30
0.0
 10
10.2735823919
 20
9.3058854203
 30
0.0
 10
10.2733122257
 20
9.3056802728
 30
0.0
 10
10.2729242112
 20
9.3053911388
 30
0.0
 10
10.2724594767
 20
9.3050424942
 30
0.0
 10
10.2718395222
 20
9.3045782228
 30
0.0
 10
10.2710646848
 20
9.3039976822
 30
0.0
 10
10.2698248859
 20
9.3030689298
 30
0.0
 10
10.2682751575
 20
9.3019079507
 30
0.0
 10
10.2664154748
 20
9.3005147923
 30
0.0
 10
10.2645557943
 20
9.2991216295
 30
0.0
 10
10.2620762196
 20
9.2972640807
 30
0.0
 10
10.2589767516
 20
9.294942144
 30
0.0
 10
10.2558772832
 20
9.2926202077
 30
0.0
 10
10.2533977089
 20
9.2907626583
 30
0.0
 10
10.2515380272
 20
9.2893694971
 30
0.0
 10
10.2496783493
 20
9.2879763326
 30
0.0
 10
10.248128606
 20
9.2868153726
 30
0.0
 10
10.2468888374
 20
9.2858865811
 30
0.0
 10
10.2461139229
 20
9.2853061401
 30
0.0
 10
10.2454941267
 20
9.2848416644
 30
0.0
 10
10.2450289087
 20
9.2844936441
 30
0.0
 10
10.2446424069
 20
9.2842025567
 30
0.0
 10
10.24436954
 20
9.2840008962
 30
0.0
 10
10.2442172319
 20
9.2838823817
 30
0.0
 10
10.2440928151
 20
9.2838027354
 30
0.0
 10
10.2440073331
 20
9.2836877709
 30
0.0
 10
10.2438797762
 20
9.2835468042
 30
0.0
 10
10.2436628793
 20
9.2832943728
 30
0.0
 10
10.2433497184
 20
9.2829367573
 30
0.0
 10
10.2429753413
 20
9.2825063342
 30
0.0
 10
10.2424756772
 20
9.2819328854
 30
0.0
 10
10.2418512665
 20
9.2812159208
 30
0.0
 10
10.2408521147
 20
9.2800688632
 30
0.0
 10
10.2396032074
 20
9.2786350118
 30
0.0
 10
10.2381045048
 20
9.2769144028
 30
0.0
 10
10.2366058059
 20
9.2751937904
 30
0.0
 10
10.2346075393
 20
9.2728996417
 30
0.0
 10
10.2321097067
 20
9.2700319554
 30
0.0
 10
10.2296118737
 20
9.2671642694
 30
0.0
 10
10.2276136077
 20
9.2648701202
 30
0.0
 10
10.2261149071
 20
9.2631495091
 30
0.0
 10
10.2246162106
 20
9.2614288951
 30
0.0
 10
10.2233672844
 20
9.2599950592
 30
0.0
 10
10.2223681711
 20
9.2588479701
 30
0.0
 10
10.2217436625
 20
9.2581310858
 30
0.0
 10
10.2212441994
 20
9.2575574722
 30
0.0
 10
10.2208692085
 20
9.2571275527
 30
0.0
 10
10.2205579679
 20
9.2567683616
 30
0.0
 10
10.2203376429
 20
9.2565187428
 30
0.0
 10
10.2202155786
 20
9.2563732697
 30
0.0
 10
10.2201132253
 20
9.2562721475
 30
0.0
 10
10.2200521744
 20
9.2561405115
 30
0.0
 10
10.2199563665
 20
9.2559756404
 30
0.0
 10
10.2197954149
 20
9.2556821569
 30
0.0
 10
10.2195619749
 20
9.2552654874
 30
0.0
 10
10.219283349
 20
9.2547643743
 30
0.0
 10
10.218911323
 20
9.254096611
 30
0.0
 10
10.2184464703
 20
9.2532617743
 30
0.0
 10
10.2177026055
 20
9.2519261096
 30
0.0
 10
10.2167728089
 20
9.2502565034
 30
0.0
 10
10.2156570383
 20
9.2482529868
 30
0.0
 10
10.2145412716
 20
9.2462494673
 30
0.0
 10
10.2130535813
 20
9.243578109
 30
0.0
 10
10.2111939689
 20
9.2402389107
 30
0.0
 10
10.2093343562
 20
9.2368997127
 30
0.0
 10
10.2078466665
 20
9.234228354
 30
0.0
 10
10.2067308981
 20
9.2322248356
 30
0.0
 10
10.205615134
 20
9.230221315
 30
0.0
 10
10.204685317
 20
9.2285517212
 30
0.0
 10
10.2039414939
 20
9.2272160312
 30
0.0
 10
10.2034765348
 20
9.2263812589
 30
0.0
 10
10.2031047272
 20
9.2257133635
 30
0.0
 10
10.2028254343
 20
9.2252126542
 30
0.0
 10
10.202594081
 20
9.2247947211
 30
0.0
 10
10.2024294044
 20
9.2245034933
 30
0.0
 10
10.2023395649
 20
9.224335008
 30
0.0
 10
10.202260181
 20
9.2242144735
 30
0.0
 10
10.2022266834
 20
9.2240716561
 30
0.0
 10
10.2021660143
 20
9.2238890054
 30
0.0
 10
10.2020673007
 20
9.2235657453
 30
0.0
 10
10.2019223825
 20
9.2231058384
 30
0.0
 10
10.2017501495
 20
9.2225531398
 30
0.0
 10
10.2015199226
 20
9.2218164914
 30
0.0
 10
10.2012323385
 20
9.2208955839
 30
0.0
 10
10.2007720925
 20
9.2194221861
 30
0.0
 10
10.2001968232
 20
9.2175804204
 30
0.0
 10
10.1995064836
 20
9.2153703094
 30
0.0
 10
10.1988161484
 20
9.2131601963
 30
0.0
 10
10.1978957
 20
9.2102133795
 30
0.0
 10
10.19674514
 20
9.2065298583
 30
0.0
 10
10.1955945796
 20
9.2028463373
 30
0.0
 10
10.1946741318
 20
9.1998995203
 30
0.0
 10
10.1939837948
 20
9.197689408
 30
0.0
 10
10.1932934623
 20
9.195479294
 30
0.0
 10
10.1927181708
 20
9.1936375376
 30
0.0
 10
10.1922579701
 20
9.1921641207
 30
0.0
 10
10.1919702706
 20
9.191243262
 30
0.0
 10
10.1917402806
 20
9.1905065134
 30
0.0
 10
10.1915673239
 20
9.189954121
 30
0.0
 10
10.1914246698
 20
9.1894932559
 30
0.0
 10
10.1913219145
 20
9.1891717065
 30
0.0
 10
10.1912677212
 20
9.1889863148
 30
0.0
 10
10.1912143321
 20
9.1888519166
 30
0.0
 10
10.1912096574
 20
9.188699761
 30
0.0
 10
10.1911864324
 20
9.1885030807
 30
0.0
 10
10.1911537057
 20
9.1881560044
 30
0.0
 10
10.191102814
 20
9.1876616899
 30
0.0
 10
10.1910435157
 20
9.1870678667
 30
0.0
 10
10.1909638325
 20
9.186276328
 30
0.0
 10
10.1908644404
 20
9.1852868274
 30
0.0
 10
10.1907052946
 20
9.1837036696
 30
0.0
 10
10.190506403
 20
9.1817247075
 30
0.0
 10
10.1902677156
 20
9.1793499593
 30
0.0
 10
10.1900290329
 20
9.1769752095
 30
0.0
 10
10.1897107876
 20
9.1738088769
 30
0.0
 10
10.1893129816
 20
9.169850961
 30
0.0
 10
10.1889151753
 20
9.1658930452
 30
0.0
 10
10.1885969307
 20
9.1627267126
 30
0.0
 10
10.188358246
 20
9.1603519631
 30
0.0
 10
10.1881195661
 20
9.1579772136
 30
0.0
 10
10.1879206511
 20
9.1559982555
 30
0.0
 10
10.1877615529
 20
9.1544150896
 30
0.0
 10
10.1876620396
 20
9.1534256095
 30
0.0
 10
10.1875826051
 20
9.1526340287
 30
0.0
 10
10.1875225472
 20
9.152040334
 30
0.0
 10
10.1874740323
 20
9.1515456175
 30
0.0
 10
10.1874370626
 20
9.1511992589
 30
0.0
 10
10.1874206357
 20
9.1510014287
 30
0.0
 10
10.1873950794
 20
9.1508528054
 30
0.0
 10
10.1874201186
 20
9.15070514
 30
0.0
 10
10.1874358558
 20
9.1505079187
 30
0.0
 10
10.1874716187
 20
9.150162937
 30
0.0
 10
10.1875184097
 20
9.1496700247
 30
0.0
 10
10.1875763989
 20
9.1490785648
 30
0.0
 10
10.1876530751
 20
9.1482899394
 30
0.0
 10
10.1877491405
 20
9.1473041617
 30
0.0
 10
10.1879027221
 20
9.1457269152
 30
0.0
 10
10.1880947412
 20
9.1437553579
 30
0.0
 10
10.1883251462
 20
9.1413894887
 30
0.0
 10
10.1885555559
 20
9.1390236196
 30
0.0
 10
10.1888627673
 20
9.1358691275
 30
0.0
 10
10.1892467819
 20
9.1319260123
 30
0.0
 10
10.1896307969
 20
9.1279828973
 30
0.0
 10
10.1899380076
 20
9.124828405
 30
0.0
 10
10.1901684191
 20
9.1224625363
 30
0.0
 10
10.1903988175
 20
9.1200966659
 30
0.0
 10
10.1905908571
 20
9.1181251124
 30
0.0
 10
10.190744397
 20
9.1165478579
 30
0.0
 10
10.1908405685
 20
9.1155621007
 30
0.0
 10
10.1909170269
 20
9.1147734334
 30
0.0
 10
10.1909756815
 20
9.1141821015
 30
0.0
 10
10.1910203908
 20
9.1136887885
 30
0.0
 10
10.1910655096
 20
9.1132953412
 30
0.0
 10
10.1910737963
 20
9.1129969683
 30
0.0
 10
10.1911796169
 20
9.1127111436
 30
0.0
 10
10.1912866413
 20
9.1123256608
 30
0.0
 10
10.1914321109
 20
9.1118453111
 30
0.0
 10
10.191601671
 20
9.1112682478
 30
0.0
 10
10.1918294988
 20
9.1104990549
 30
0.0
 10
10.1921136852
 20
9.1095374868
 30
0.0
 10
10.1925687178
 20
9.1079990208
 30
0.0
 10
10.1931373939
 20
9.1060759236
 30
0.0
 10
10.1938198543
 20
9.1037682132
 30
0.0
 10
10.1945023016
 20
9.1014605012
 30
0.0
 10
10.1954122359
 20
9.0983835524
 30
0.0
 10
10.1965496521
 20
9.0945373662
 30
0.0
 10
10.1976870694
 20
9.0906911802
 30
0.0
 10
10.1985970019
 20
9.0876142311
 30
0.0
 10
10.1992794545
 20
9.0853065203
 30
0.0
 10
10.1999618948
 20
9.0829988052
 30
0.0
 10
10.2005306336
 20
9.0810757226
 30
0.0
 10
10.2009855382
 20
9.0795372269
 30
0.0
 10
10.2012700505
 20
9.0785757346
 30
0.0
 10
10.2014972092
 20
9.0778063861
 30
0.0
 10
10.2016688136
 20
9.0772297982
 30
0.0
 10
10.2018078875
 20
9.0767479611
 30
0.0
 10
10.2019279602
 20
9.0763655129
 30
0.0
 10
10.2019939318
 20
9.0760704206
 30
0.0
 10
10.2021518286
 20
9.0758068421
 30
0.0
 10
10.2023302471
 20
9.075444396
 30
0.0
 10
10.2025642871
 20
9.0749951152
 30
0.0
 10
10.2028404196
 20
9.0744543616
 30
0.0
 10
10.2032102432
 20
9.0737339215
 30
0.0
 10
10.2036719588
 20
9.072833178
 30
0.0
 10
10.204411019
 20
9.0713920965
 30
0.0
 10
10.205334736
 20
9.0695907075
 30
0.0
 10
10.2064432429
 20
9.0674290566
 30
0.0
 10
10.2075517373
 20
9.0652674015
 30
0.0
 10
10.2090297342
 20
9.0623851962
 30
0.0
 10
10.2108772287
 20
9.0587824389
 30
0.0
 10
10.2127247243
 20
9.0551796821
 30
0.0
 10
10.2142027195
 20
9.052297476
 30
0.0
 10
10.2153112191
 20
9.050135823
 30
0.0
 10
10.2164197066
 20
9.0479741643
 30
0.0
 10
10.2173434837
 20
9.0461727998
 30
0.0
 10
10.2180824214
 20
9.0447316683
 30
0.0
 10
10.2185444487
 20
9.0438310519
 30
0.0
 10
10.2189136325
 20
9.0431103509
 30
0.0
 10
10.2191917197
 20
9.0425703946
 30
0.0
 10
10.2194196438
 20
9.0421186193
 30
0.0
 10
10.2196105399
 20
9.0417612623
 30
0.0
 10
10.2197303307
 20
9.041482142
 30
0.0
 10
10.2199393685
 20
9.0412454004
 30
0.0
 10
10.2201869104
 20
9.0409149415
 30
0.0
 10
10.2205070338
 20
9.0405069469
 30
0.0
 10
10.2208866037
 20
9.0400151794
 30
0.0
 10
10.2213942959
 20
9.0393602487
 30
0.0
 10
10.2220283637
 20
9.0385413253
 30
0.0
 10
10.2230431782
 20
9.0372311933
 30
0.0
 10
10.2243115912
 20
9.0355934783
 30
0.0
 10
10.2258337319
 20
9.0336282418
 30
0.0
 10
10.2273558606
 20
9.0316629995
 30
0.0
 10
10.2293853697
 20
9.0290426785
 30
0.0
 10
10.2319222545
 20
9.0257672764
 30
0.0
 10
10.2344591402
 20
9.022491875
 30
0.0
 10
10.2364886479
 20
9.0198715529
 30
0.0
 10
10.2380107809
 20
9.0179063139
 30
0.0
 10
10.2395329052
 20
9.0159410651
 30
0.0
 10
10.2408013694
 20
9.0143033885
 30
0.0
 10
10.2418160795
 20
9.0129931782
 30
0.0
 10
10.242450413
 20
9.012174454
 30
0.0
 10
10.2429575597
 20
9.0115191145
 30
0.0
 10
10.2433387965
 20
9.0110285958
 30
0.0
 10
10.2436537045
 20
9.0106166941
 30
0.0
 10
10.2439118869
 20
9.0102942064
 30
0.0
 10
10.2440884292
 20
9.0100331211
 30
0.0
 10
10.2443302217
 20
9.0098453972
 30
0.0
 10
10.2446298189
 20
9.0095694726
 30
0.0
 10
10.2450121355
 20
9.009233359
 30
0.0
 10
10.2454675682
 20
9.0088262594
 30
0.0
 10
10.2460759809
 20
9.0082847743
 30
0.0
 10
10.2468360965
 20
9.0076074679
 30
0.0
 10
10.2480525052
 20
9.0065240292
 30
0.0
 10
10.2495729393
 20
9.0051696445
 30
0.0
 10
10.2513974932
 20
9.0035444198
 30
0.0
 10
10.2532220382
 20
9.0019191853
 30
0.0
 10
10.255654768
 20
8.9997522094
 30
0.0
 10
10.2586956791
 20
8.9970434882
 30
0.0
 10
10.2617365909
 20
8.9943347679
 30
0.0
 10
10.2641693195
 20
8.9921677905
 30
0.0
 10
10.2659938679
 20
8.9905425603
 30
0.0
 10
10.2678184089
 20
8.9889173195
 30
0.0
 10
10.269338883
 20
8.9875629852
 30
0.0
 10
10.2705552102
 20
8.9864794437
 30
0.0
 10
10.2713155332
 20
8.985802399
 30
0.0
 10
10.2719235202
 20
8.9852603766
 30
0.0
 10
10.2723802537
 20
8.9848549186
 30
0.0
 10
10.2727585004
 20
8.9845136688
 30
0.0
 10
10.273066401
 20
8.984248223
 30
0.0
 10
10.2732828357
 20
8.9840284976
 30
0.0
 10
10.2735545815
 20
8.9838875591
 30
0.0
 10
10.2738975884
 20
8.9836721199
 30
0.0
 10
10.2743329759
 20
8.9834122632
 30
0.0
 10
10.2748526035
 20
8.9830963936
 30
0.0
 10
10.2755464314
 20
8.9826766457
 30
0.0
 10
10.2764133769
 20
8.9821514776
 30
0.0
 10
10.2778006794
 20
8.9813114787
 30
0.0
 10
10.2795347424
 20
8.9802613873
 30
0.0
 10
10.281615646
 20
8.9790013175
 30
0.0
 10
10.283696542
 20
8.977741237
 30
0.0
 10
10.2864710727
 20
8.9760611334
 30
0.0
 10
10.2899392351
 20
8.9739610025
 30
0.0
 10
10.2934073981
 20
8.9718608726
 30
0.0
 10
10.2961819279
 20
8.9701807674
 30
0.0
 10
10.2982628266
 20
8.9689206916
 30
0.0
 10
10.3003437201
 20
8.9676606039
 30
0.0
 10
10.3020778142
 20
8.9666105682
 30
0.0
 10
10.3034650534
 20
8.9657704558
 30
0.0
 10
10.3043321598
 20
8.9652455765
 30
0.0
 10
10.3050256574
 20
8.9648252356
 30
0.0
 10
10.3055462941
 20
8.9645111779
 30
0.0
 10
10.3059785246
 20
8.9642456523
 30
0.0
 10
10.3063279724
 20
8.9640417787
 30
0.0
 10
10.306580048
 20
8.9638655195
 30
0.0
 10
10.3068703331
 20
8.9637784029
 30
0.0
 10
10.3072440328
 20
8.9636311088
 30
0.0
 10
10.3077157367
 20
8.9634576747
 30
0.0
 10
10.3082798214
 20
8.9632449809
 30
0.0
 10
10.3090326189
 20
8.9629629864
 30
0.0
 10
10.3099733813
 20
8.9626099463
 30
0.0
 10
10.3114787322
 20
8.9620453878
 30
0.0
 10
10.3133603759
 20
8.9613395849
 30
0.0
 10
10.3156183676
 20
8.9604926663
 30
0.0
 10
10.3178763542
 20
8.9596457357
 30
0.0
 10
10.3208870047
 20
8.9585164991
 30
0.0
 10
10.3246503172
 20
8.9571049518
 30
0.0
 10
10.3284136302
 20
8.9556934056
 30
0.0
 10
10.3314242801
 20
8.9545641672
 30
0.0
 10
10.3336822685
 20
8.9537172419
 30
0.0
 10
10.3359402531
 20
8.9528703036
 30
0.0
 10
10.337821919
 20
8.9521645619
 30
0.0
 10
10.3393272246
 20
8.9515998786
 30
0.0
 10
10.3402681023
 20
8.9512471562
 30
0.0
 10
10.3410206633
 20
8.9509645097
 30
0.0
 10
10.3415854705
 20
8.9507538076
 30
0.0
 10
10.3420549136
 20
8.9505741419
 30
0.0
 10
10.3424332259
 20
8.9504395614
 30
0.0
 10
10.3427094243
 20
8.9503136182
 30
0.0
 10
10.3430143873
 20
8.9502831303
 30
0.0
 10
10.3434109568
 20
8.9502091359
 30
0.0
 10
10.343910116
 20
8.950128083
 30
0.0
 10
10.3445076315
 20
8.9500259228
 30
0.0
 10
10.3453048342
 20
8.9498914195
 30
0.0
 10
10.3463011611
 20
8.9497227048
 30
0.0
 10
10.3478953827
 20
8.9494530886
 30
0.0
 10
10.349888126
 20
8.949115956
 30
0.0
 10
10.3522794324
 20
8.948711445
 30
0.0
 10
10.3546707349
 20
8.9483069211
 30
0.0
 10
10.3578591396
 20
8.9477675605
 30
0.0
 10
10.361844645
 20
8.9470933582
 30
0.0
 10
10.3666272517
 20
8.946284316
 30
0.0
 10
10.3730040605
 20
8.9452055929
 30
0.0
 10
10.3777866672
 20
8.9443965506
 30
0.0
 10
10.3809750716
 20
8.9438571891
 30
0.0
  0
SPLINE
  5
39B
100
AcDbEntity
  8
0
100
AcDbSpline
 62
7
  6
CONTINUOUS
 70
0
 71
3
 72
140
 73
136
 74
0
 42
0.0000001
 43
0.0000001
 44
0.0000000001
 40
0.0
 40
0.0
 40
0.0
 40
0.0
 40
0.03125
 40
0.046875
 40
0.0546875
 40
0.0625
 40
0.0703125
 40
0.078125
 40
0.09375
 40
0.109375
 40
0.1171875
 40
0.125
 40
0.1328125
 40
0.140625
 40
0.15625
 40
0.171875
 40
0.1796875
 40
0.1875
 40
0.1953125
 40
0.203125
 40
0.21875
 40
0.234375
 40
0.2421875
 40
0.24609375
 40
0.25
 40
0.25390625
 40
0.2578125
 40
0.265625
 40
0.28125
 40
0.296875
 40
0.3046875
 40
0.30859375
 40
0.3125
 40
0.31640625
 40
0.3203125
 40
0.328125
 40
0.34375
 40
0.359375
 40
0.3671875
 40
0.37109375
 40
0.373046875
 40
0.375
 40
0.376953125
 40
0.37890625
 40
0.3828125
 40
0.390625
 40
0.40625
 40
0.421875
 40
0.4296875
 40
0.43359375
 40
0.435546875
 40
0.4375
 40
0.439453125
 40
0.44140625
 40
0.4453125
 40
0.453125
 40
0.46875
 40
0.4765625
 40
0.484375
 40
0.4921875
 40
0.49609375
 40
0.498046875
 40
0.5
 40
0.501953125
 40
0.50390625
 40
0.5078125
 40
0.515625
 40
0.53125
 40
0.546875
 40
0.5546875
 40
0.55859375
 40
0.560546875
 40
0.5625
 40
0.564453125
 40
0.56640625
 40
0.5703125
 40
0.578125
 40
0.59375
 40
0.609375
 40
0.6171875
 40
0.62109375
 40
0.623046875
 40
0.625
 40
0.626953125
 40
0.62890625
 40
0.6328125
 40
0.640625
 40
0.65625
 40
0.671875
 40
0.6796875
 40
0.68359375
 40
0.685546875
 40
0.6875
 40
0.689453125
 40
0.69140625
 40
0.6953125
 40
0.703125
 40
0.7109375
 40
0.71875
 40
0.734375
 40
0.7421875
 40
0.74609375
 40
0.748046875
 40
0.75
 40
0.751953125
 40
0.75390625
 40
0.7578125
 40
0.765625
 40
0.78125
 40
0.796875
 40
0.8046875
 40
0.80859375
 40
0.8125
 40
0.81640625
 40
0.8203125
 40
0.828125
 40
0.84375
 40
0.859375
 40
0.8671875
 40
0.87109375
 40
0.875
 40
0.87890625
 40
0.8828125
 40
0.890625
 40
0.90625
 40
0.921875
 40
0.9296875
 40
0.93359375
 40
0.9375
 40
0.94140625
 40
0.9453125
 40
0.953125
 40
0.96875
 40
0.984375
 40
1.0
 40
1.0
 40
1.0
 40
1.0
 10
10.6901247776
 20
10.6609407549
 30
0.0
 10
10.6911195942
 20
10.6608981299
 30
0.0
 10
10.6926121345
 20
10.6608354224
 30
0.0
 10
10.6943523278
 20
10.6607579584
 30
0.0
 10
10.6953483007
 20
10.6607198437
 30
0.0
 10
10.6960908653
 20
10.6606740363
 30
0.0
 10
10.6968503022
 20
10.6606940393
 30
0.0
 10
10.6978570404
 20
10.6606976192
 30
0.0
 10
10.6991171145
 20
10.6607107491
 30
0.0
 10
10.7003778885
 20
10.6607181225
 30
0.0
 10
10.701383507
 20
10.6607309126
 30
0.0
 10
10.7021463031
 20
10.6607232852
 30
0.0
 10
10.7028762708
 20
10.6607810919
 30
0.0
 10
10.7038611229
 20
10.6608352081
 30
0.0
 10
10.7050875459
 20
10.6609114641
 30
0.0
 10
10.7063180849
 20
10.6609819763
 30
0.0
 10
10.7072963514
 20
10.6610452825
 30
0.0
 10
10.7080460757
 20
10.6610755193
 30
0.0
 10
10.7087347847
 20
10.6611712794
 30
0.0
 10
10.7096742985
 20
10.6612760986
 30
0.0
 10
10.7108419655
 20
10.6614147721
 30
0.0
 10
10.7120099896
 20
10.6615514239
 30
0.0
 10
10.7128315642
 20
10.6616459709
 30
0.0
 10
10.7132941435
 20
10.6617025059
 30
0.0
 10
10.713660623
 20
10.6617376996
 30
0.0
 10
10.7139523686
 20
10.6618004696
 30
0.0
 10
10.714367439
 20
10.6618745416
 30
0.0
 10
10.7150815801
 20
10.662008675
 30
0.0
 10
10.7161088419
 20
10.6621977398
 30
0.0
 10
10.7171311621
 20
10.6623884363
 30
0.0
 10
10.7178522214
 20
10.6625202852
 30
0.0
 10
10.7182564204
 20
10.662597947
 30
0.0
 10
10.7185815214
 20
10.6626497029
 30
0.0
 10
10.7188227328
 20
10.6627262607
 30
0.0
 10
10.7191736064
 20
10.6628196872
 30
0.0
 10
10.7197740354
 20
10.6629872078
 30
0.0
 10
10.7206386422
 20
10.6632244689
 30
0.0
 10
10.7215017489
 20
10.6634622808
 30
0.0
 10
10.722104278
 20
10.6636290303
 30
0.0
 10
10.7224084047
 20
10.6637118387
 30
0.0
 10
10.7225775199
 20
10.6637600885
 30
0.0
 10
10.722717553
 20
10.6637936456
 30
0.0
 10
10.7228071351
 20
10.6638372584
 30
0.0
 10
10.7229441745
 20
10.6638919015
 30
0.0
 10
10.7231758073
 20
10.6639891585
 30
0.0
 10
10.7236449236
 20
10.6641825079
 30
0.0
 10
10.7243117189
 20
10.6644593799
 30
0.0
 10
10.7249808535
 20
10.6647358359
 30
0.0
 10
10.7254466949
 20
10.6649297677
 30
0.0
 10
10.7256828307
 20
10.6650262239
 30
0.0
 10
10.7258126184
 20
10.6650821565
 30
0.0
 10
10.7259244818
 20
10.6651218075
 30
0.0
 10
10.7259808285
 20
10.6651702447
 30
0.0
 10
10.7260753205
 20
10.6652317633
 30
0.0
 10
10.7262316773
 20
10.6653408458
 30
0.0
 10
10.7265507845
 20
10.6655579977
 30
0.0
 10
10.7269127987
 20
10.6658066046
 30
0.0
 10
10.7272755453
 20
10.6660550695
 30
0.0
 10
10.7275480877
 20
10.6662414109
 30
0.0
 10
10.7277732932
 20
10.6663967789
 30
0.0
 10
10.7279347437
 20
10.6665053642
 30
0.0
 10
10.7280210494
 20
10.6665676833
 30
0.0
 10
10.7281025461
 20
10.6666136609
 30
0.0
 10
10.7281199489
 20
10.6666625501
 30
0.0
 10
10.7281655077
 20
10.6667267201
 30
0.0
 10
10.7282348362
 20
10.6668394901
 30
0.0
 10
10.7283809209
 20
10.6670646938
 30
0.0
 10
10.7285853721
 20
10.6673865956
 30
0.0
 10
10.7287926407
 20
10.6677084091
 30
0.0
 10
10.728934781
 20
10.6679337365
 30
0.0
 10
10.7290095332
 20
10.6680463363
 30
0.0
 10
10.7290463577
 20
10.6681107804
 30
0.0
 10
10.729090597
 20
10.6681588277
 30
0.0
 10
10.7290712985
 20
10.6682079673
 30
0.0
 10
10.7290677282
 20
10.6682731058
 30
0.0
 10
10.729051171
 20
10.6683872752
 30
0.0
 10
10.7290254201
 20
10.6686154897
 30
0.0
 10
10.7289844276
 20
10.6689415639
 30
0.0
 10
10.7289462317
 20
10.6692676609
 30
0.0
 10
10.7289165656
 20
10.6694958436
 30
0.0
 10
10.7289053919
 20
10.6696100568
 30
0.0
 10
10.7288931522
 20
10.6696751247
 30
0.0
 10
10.7289004911
 20
10.669724481
 30
0.0
 10
10.7288446826
 20
10.6697717145
 30
0.0
 10
10.7287922962
 20
10.669835433
 30
0.0
 10
10.7286903741
 20
10.6699465958
 30
0.0
 10
10.7284938486
 20
10.6701691686
 30
0.0
 10
10.7282089151
 20
10.6704869786
 30
0.0
 10
10.7279267722
 20
10.6708049226
 30
0.0
 10
10.72772634
 20
10.6710273078
 30
0.0
 10
10.7276297896
 20
10.6711387285
 30
0.0
 10
10.7275687527
 20
10.6712020316
 30
0.0
 10
10.7275395234
 20
10.6712505415
 30
0.0
 10
10.7274470331
 20
10.6712951039
 30
0.0
 10
10.7273457787
 20
10.6713558974
 30
0.0
 10
10.7271583034
 20
10.6714616447
 30
0.0
 10
10.7268958491
 20
10.6716130462
 30
0.0
 10
10.7265786371
 20
10.6717945906
 30
0.0
 10
10.7261563272
 20
10.67203667
 30
0.0
 10
10.7257347139
 20
10.6722789031
 30
0.0
 10
10.725363554
 20
10.6724904405
 30
0.0
 10
10.7251810417
 20
10.6725967668
 30
0.0
 10
10.7250718114
 20
10.6726566283
 30
0.0
 10
10.7250038247
 20
10.6727040542
 30
0.0
 10
10.7248825627
 20
10.6727418091
 30
0.0
 10
10.7247394606
 20
10.6727955218
 30
0.0
 10
10.7244803998
 20
10.6728879524
 30
0.0
 10
10.7239683156
 20
10.6730739052
 30
0.0
 10
10.7232343442
 20
10.6733391481
 30
0.0
 10
10.7224985631
 20
10.6736039279
 30
0.0
 10
10.7219890125
 20
10.673790529
 30
0.0
 10
10.7216889617
 20
10.6738951454
 30
0.0
 10
10.7214889901
 20
10.6739792873
 30
0.0
 10
10.7211931923
 20
10.6740417169
 30
0.0
 10
10.7208322281
 20
10.6741325325
 30
0.0
 10
10.7201848865
 20
10.6742879041
 30
0.0
 10
10.7192689188
 20
10.6745119293
 30
0.0
 10
10.7183475449
 20
10.6747344644
 30
0.0
 10
10.7177077719
 20
10.6748919221
 30
0.0
 10
10.7173349143
 20
10.6749794596
 30
0.0
 10
10.7170756077
 20
10.6750519467
 30
0.0
 10
10.7167385913
 20
10.675098317
 30
0.0
 10
10.7163163489
 20
10.6751692567
 30
0.0
 10
10.7155647251
 20
10.6752891272
 30
0.0
 10
10.7144981581
 20
10.6754628332
 30
0.0
 10
10.7134270552
 20
10.6756348303
 30
0.0
 10
10.7126817818
 20
10.6757570932
 30
0.0
 10
10.7122495601
 20
10.6758242734
 30
0.0
 10
10.7119431621
 20
10.6758821787
 30
0.0
 10
10.7115688664
 20
10.6759113455
 30
0.0
 10
10.711093489
 20
10.675960259
 30
0.0
 10
10.7102505436
 20
10.6760411869
 30
0.0
 10
10.7090521086
 20
10.6761592415
 30
0.0
 10
10.7076115
 20
10.6762998545
 30
0.0
 10
10.7066515678
 20
10.676393797
 30
0.0
 10
10.7061715426
 20
10.6764407432
 30
0.0
  0
SPLINE
  5
39C
100
AcDbEntity
  8
0
100
AcDbSpline
 62
7
  6
CONTINUOUS
 70
0
 71
3
 72
140
 73
136
 74
0
 42
0.0000001
 43
0.0000001
 44
0.0000000001
 40
0.0
 40
0.0
 40
0.0
 40
0.0
 40
0.03125
 40
0.046875
 40
0.0546875
 40
0.0625
 40
0.0703125
 40
0.078125
 40
0.09375
 40
0.109375
 40
0.1171875
 40
0.125
 40
0.1328125
 40
0.140625
 40
0.15625
 40
0.171875
 40
0.1796875
 40
0.1875
 40
0.1953125
 40
0.203125
 40
0.21875
 40
0.234375
 40
0.2421875
 40
0.24609375
 40
0.25
 40
0.25390625
 40
0.2578125
 40
0.265625
 40
0.28125
 40
0.296875
 40
0.3046875
 40
0.30859375
 40
0.3125
 40
0.31640625
 40
0.3203125
 40
0.328125
 40
0.34375
 40
0.359375
 40
0.3671875
 40
0.37109375
 40
0.373046875
 40
0.375
 40
0.376953125
 40
0.37890625
 40
0.3828125
 40
0.390625
 40
0.40625
 40
0.421875
 40
0.4296875
 40
0.43359375
 40
0.435546875
 40
0.4375
 40
0.439453125
 40
0.44140625
 40
0.4453125
 40
0.453125
 40
0.46875
 40
0.4765625
 40
0.484375
 40
0.4921875
 40
0.49609375
 40
0.498046875
 40
0.5
 40
0.501953125
 40
0.50390625
 40
0.5078125
 40
0.515625
 40
0.53125
 40
0.546875
 40
0.5546875
 40
0.55859375
 40
0.560546875
 40
0.5625
 40
0.564453125
 40
0.56640625
 40
0.5703125
 40
0.578125
 40
0.59375
 40
0.609375
 40
0.6171875
 40
0.62109375
 40
0.623046875
 40
0.625
 40
0.626953125
 40
0.62890625
 40
0.6328125
 40
0.640625
 40
0.65625
 40
0.671875
 40
0.6796875
 40
0.68359375
 40
0.685546875
 40
0.6875
 40
0.689453125
 40
0.69140625
 40
0.6953125
 40
0.703125
 40
0.7109375
 40
0.71875
 40
0.734375
 40
0.7421875
 40
0.74609375
 40
0.748046875
 40
0.75
 40
0.751953125
 40
0.75390625
 40
0.7578125
 40
0.765625
 40
0.78125
 40
0.796875
 40
0.8046875
 40
0.80859375
 40
0.8125
 40
0.81640625
 40
0.8203125
 40
0.828125
 40
0.84375
 40
0.859375
 40
0.8671875
 40
0.87109375
 40
0.875
 40
0.87890625
 40
0.8828125
 40
0.890625
 40
0.90625
 40
0.921875
 40
0.9296875
 40
0.93359375
 40
0.9375
 40
0.94140625
 40
0.9453125
 40
0.953125
 40
0.96875
 40
0.984375
 40
1.0
 40
1.0
 40
1.0
 40
1.0
 10
10.7061715452
 20
10.676440743
 30
0.0
 10
10.7051767286
 20
10.676483368
 30
0.0
 10
10.7036841883
 20
10.6765460755
 30
0.0
 10
10.701943995
 20
10.6766235395
 30
0.0
 10
10.7009480221
 20
10.6766616542
 30
0.0
 10
10.7002054575
 20
10.6767074616
 30
0.0
 10
10.6994460206
 20
10.6766874586
 30
0.0
 10
10.6984392824
 20
10.6766838787
 30
0.0
 10
10.6971792083
 20
10.6766707488
 30
0.0
 10
10.6959184343
 20
10.6766633754
 30
0.0
 10
10.6949128158
 20
10.6766505853
 30
0.0
 10
10.6941500197
 20
10.6766582127
 30
0.0
 10
10.693420052
 20
10.676600406
 30
0.0
 10
10.6924351999
 20
10.6765462898
 30
0.0
 10
10.6912087769
 20
10.6764700338
 30
0.0
 10
10.6899782379
 20
10.6763995216
 30
0.0
 10
10.6889999714
 20
10.6763362154
 30
0.0
 10
10.6882502471
 20
10.6763059786
 30
0.0
 10
10.6875615381
 20
10.6762102185
 30
0.0
 10
10.6866220243
 20
10.6761053993
 30
0.0
 10
10.6854543573
 20
10.6759667258
 30
0.0
 10
10.6842863332
 20
10.675830074
 30
0.0
 10
10.6834647586
 20
10.675735527
 30
0.0
 10
10.6830021793
 20
10.675678992
 30
0.0
 10
10.6826356998
 20
10.6756437983
 30
0.0
 10
10.6823439542
 20
10.6755810283
 30
0.0
 10
10.6819288838
 20
10.6755069563
 30
0.0
 10
10.6812147427
 20
10.6753728229
 30
0.0
 10
10.6801874809
 20
10.6751837581
 30
0.0
 10
10.6791651607
 20
10.6749930616
 30
0.0
 10
10.6784441014
 20
10.6748612127
 30
0.0
 10
10.6780399024
 20
10.6747835509
 30
0.0
 10
10.6777148014
 20
10.674731795
 30
0.0
 10
10.67747359
 20
10.6746552372
 30
0.0
 10
10.6771227164
 20
10.6745618107
 30
0.0
 10
10.6765222874
 20
10.6743942901
 30
0.0
 10
10.6756576806
 20
10.674157029
 30
0.0
 10
10.6747945739
 20
10.6739192171
 30
0.0
 10
10.6741920448
 20
10.6737524676
 30
0.0
 10
10.6738879181
 20
10.6736696592
 30
0.0
 10
10.6737188029
 20
10.6736214094
 30
0.0
 10
10.6735787698
 20
10.6735878523
 30
0.0
 10
10.6734891877
 20
10.6735442395
 30
0.0
 10
10.6733521483
 20
10.6734895964
 30
0.0
 10
10.6731205155
 20
10.6733923394
 30
0.0
 10
10.6726513992
 20
10.67319899
 30
0.0
 10
10.6719846039
 20
10.672922118
 30
0.0
 10
10.6713154693
 20
10.672645662
 30
0.0
 10
10.6708496279
 20
10.6724517302
 30
0.0
 10
10.6706134921
 20
10.672355274
 30
0.0
 10
10.6704837043
 20
10.6722993414
 30
0.0
 10
10.670371841
 20
10.6722596904
 30
0.0
 10
10.6703154943
 20
10.6722112532
 30
0.0
 10
10.6702210023
 20
10.6721497346
 30
0.0
 10
10.6700646455
 20
10.6720406521
 30
0.0
 10
10.6697455383
 20
10.6718235002
 30
0.0
 10
10.6693835241
 20
10.6715748933
 30
0.0
 10
10.6690207774
 20
10.6713264284
 30
0.0
 10
10.6687482351
 20
10.671140087
 30
0.0
 10
10.6685230296
 20
10.670984719
 30
0.0
 10
10.6683615791
 20
10.6708761337
 30
0.0
 10
10.6682752734
 20
10.6708138146
 30
0.0
 10
10.6681937767
 20
10.670767837
 30
0.0
 10
10.6681763739
 20
10.6707189478
 30
0.0
 10
10.6681308151
 20
10.6706547778
 30
0.0
 10
10.6680614866
 20
10.6705420078
 30
0.0
 10
10.6679154019
 20
10.6703168041
 30
0.0
 10
10.6677109507
 20
10.6699949023
 30
0.0
 10
10.6675036821
 20
10.6696730888
 30
0.0
 10
10.6673615418
 20
10.6694477614
 30
0.0
 10
10.6672867896
 20
10.6693351616
 30
0.0
 10
10.6672499651
 20
10.6692707175
 30
0.0
 10
10.6672057258
 20
10.6692226702
 30
0.0
 10
10.6672250243
 20
10.6691735306
 30
0.0
 10
10.6672285946
 20
10.6691083921
 30
0.0
 10
10.6672451518
 20
10.6689942227
 30
0.0
 10
10.6672709027
 20
10.6687660082
 30
0.0
 10
10.6673118952
 20
10.668439934
 30
0.0
 10
10.6673500911
 20
10.668113837
 30
0.0
 10
10.6673797572
 20
10.6678856543
 30
0.0
 10
10.6673909309
 20
10.6677714411
 30
0.0
 10
10.6674031706
 20
10.6677063732
 30
0.0
 10
10.6673958317
 20
10.6676570169
 30
0.0
 10
10.6674516402
 20
10.6676097834
 30
0.0
 10
10.6675040266
 20
10.6675460649
 30
0.0
 10
10.6676059487
 20
10.6674349021
 30
0.0
 10
10.6678024742
 20
10.6672123293
 30
0.0
 10
10.6680874077
 20
10.6668945193
 30
0.0
 10
10.6683695506
 20
10.6665765753
 30
0.0
 10
10.6685699828
 20
10.6663541901
 30
0.0
 10
10.6686665332
 20
10.6662427694
 30
0.0
 10
10.6687275701
 20
10.6661794663
 30
0.0
 10
10.6687567994
 20
10.6661309564
 30
0.0
 10
10.6688492897
 20
10.666086394
 30
0.0
 10
10.6689505441
 20
10.6660256005
 30
0.0
 10
10.6691380194
 20
10.6659198532
 30
0.0
 10
10.6694004737
 20
10.6657684517
 30
0.0
 10
10.6697176857
 20
10.6655869073
 30
0.0
 10
10.6701399956
 20
10.6653448279
 30
0.0
 10
10.6705616089
 20
10.6651025948
 30
0.0
 10
10.6709327688
 20
10.6648910574
 30
0.0
 10
10.6711152811
 20
10.6647847311
 30
0.0
 10
10.6712245114
 20
10.6647248696
 30
0.0
 10
10.6712924981
 20
10.6646774437
 30
0.0
 10
10.6714137601
 20
10.6646396888
 30
0.0
 10
10.6715568622
 20
10.6645859761
 30
0.0
 10
10.671815923
 20
10.6644935455
 30
0.0
 10
10.6723280072
 20
10.6643075927
 30
0.0
 10
10.6730619786
 20
10.6640423498
 30
0.0
 10
10.6737977597
 20
10.66377757
 30
0.0
 10
10.6743073103
 20
10.6635909689
 30
0.0
 10
10.6746073611
 20
10.6634863525
 30
0.0
 10
10.6748073327
 20
10.6634022106
 30
0.0
 10
10.6751031305
 20
10.663339781
 30
0.0
 10
10.6754640947
 20
10.6632489654
 30
0.0
 10
10.6761114363
 20
10.6630935938
 30
0.0
 10
10.677027404
 20
10.6628695686
 30
0.0
 10
10.6779487779
 20
10.6626470335
 30
0.0
 10
10.6785885509
 20
10.6624895758
 30
0.0
 10
10.6789614085
 20
10.6624020383
 30
0.0
 10
10.6792207151
 20
10.6623295512
 30
0.0
 10
10.6795577315
 20
10.6622831809
 30
0.0
 10
10.6799799739
 20
10.6622122412
 30
0.0
 10
10.6807315977
 20
10.6620923707
 30
0.0
 10
10.6817981647
 20
10.6619186647
 30
0.0
 10
10.6828692676
 20
10.6617466676
 30
0.0
 10
10.683614541
 20
10.6616244047
 30
0.0
 10
10.6840467627
 20
10.6615572245
 30
0.0
 10
10.6843531607
 20
10.6614993192
 30
0.0
 10
10.6847274564
 20
10.6614701524
 30
0.0
 10
10.6852028338
 20
10.6614212389
 30
0.0
 10
10.6860457792
 20
10.661340311
 30
0.0
 10
10.6872442142
 20
10.6612222564
 30
0.0
 10
10.6886848228
 20
10.6610816434
 30
0.0
 10
10.689644755
 20
10.6609877009
 30
0.0
 10
10.6901247802
 20
10.6609407547
 30
0.0
  0
ENDSEC
  0
SECTION
  2
OBJECTS
  0
DICTIONARY
  5
C
100
AcDbDictionary
280
0
281
1
  3
ACAD_GROUP
350
D
  3
ACAD_MLINESTYLE
350
17
  3
ACAD_LAYOUT
350
1A
  3
ACAD_PLOTSETTINGS
350
19
  3
ACAD_PLOTSTYLENAME
350
E
  3
ACAD_IMAGE_DICT
350
       39E
  3
ACAD_IMAGE_VARS
350
       39F
  3
ACAD_TABLESTYLE
350
       3A0
  0
IMAGEDEF_REACTOR
  5
39D
100
AcDbRasterImageDefReactor
 90
2
330
28E
  0
DICTIONARY
  5
D
102
{ACAD_REACTORS
330
C
102
}
100
AcDbDictionary
280
0
281
1
  0
ACDBDICTIONARYWDFLT
  5
E
102
{ACAD_REACTORS
330
C
102
}
100
AcDbDictionary
281
1
  3
Normal
350
F
100
AcDbDictionaryWithDefault
340
F
  0
DICTIONARY
  5
39E
330
C
100
AcDbDictionary
281
1
  3
W3F_assy_2_img_1
350
       3A3
  0
RASTERVARIABLES
  5
39F
330
C
100
AcDbRasterVariables
 90
0
 70
0
 71
1
 72
5
  0
DICTIONARY
  5
17
102
{ACAD_REACTORS
330
C
102
}
100
AcDbDictionary
280
0
281
1
  3
Standard
350
18
  0
DICTIONARY
  5
3A0
330
C
100
AcDbDictionary
281
1
  3
Standard
350
       3A4
  3
Standard1
350
       3A5
  0
DICTIONARY
  5
19
102
{ACAD_REACTORS
330
C
102
}
100
AcDbDictionary
281
1
  0
DICTIONARY
  5
1A
102
{ACAD_REACTORS
330
C
102
}
100
AcDbDictionary
281
1
  3
Model
350
3A1
  3
Layout1
350
3A2
  0
ACDBPLACEHOLDER
  5
F
102
{ACAD_REACTORS
330
E
102
}
  0
MLINESTYLE
  5
18
102
{ACAD_REACTORS
330
17
102
}
100
AcDbMlineStyle
  2
STANDARD
 70
0
  3

 62
256
 51
90.0
 52
90.0
 71
2
 49
0.5
 62
256
  6
BYLAYER
 49
-0.5
 62
256
  6
BYLAYER
  0
LAYOUT
  5
3A1
102
{ACAD_REACTORS
330
1A
102
}
100
AcDbPlotSettings
  1

  2
none_device
  4
ANSI_C_(22.00_x_17.00_Inches)
  6

 40
0.0
 41
0.0
 42
0.0
 43
0.0
 44
558.8
 45
431.8
 46
0.0
 47
0.0
 48
0.0
 49
0.0
140
0.0
141
0.0
142
1.0
143
1.0
 70
1024
 72
0
 73
0
 74
0
  7

 75
0
147
1.0
148
0.0
149
0.0
100
AcDbLayout
  1
Model
 70
0
 71
0
 10
0.0
 20
0.0
 11
22.0
 21
17.0
 12
0.0
 22
0.0
 32
0.0
 14
0.0
 24
0.0
 34
0.0
 15
0.0
 25
0.0
 35
0.0
146
0.0
 13
0.0
 23
0.0
 33
0.0
 16
1.0
 26
0.0
 36
0.0
 17
0.0
 27
1.0
 37
0.0
 76
0
330
20C
345
0
346
0
  0
LAYOUT
  5
3A2
102
{ACAD_REACTORS
330
1A
102
}
100
AcDbPlotSettings
  1

  2
none_device
  4
ANSI_C_(22.00_x_17.00_Inches)
  6

 40
0.0
 41
0.0
 42
0.0
 43
0.0
 44
558.8
 45
431.8
 46
0.0
 47
0.0
 48
0.0
 49
0.0
140
0.0
141
0.0
142
1.0
143
1.0
 70
0
 72
0
 73
0
 74
0
  7

 75
0
147
1.0
148
0.0
149
0.0
100
AcDbLayout
  1
Layout1
 70
0
 71
1
 10
0.0
 20
0.0
 11
22.0
 21
17.0
 12
0.0
 22
0.0
 32
0.0
 14
0.0
 24
0.0
 34
0.0
 15
0.0
 25
0.0
 35
0.0
146
0.0
 13
0.0
 23
0.0
 33
0.0
 16
1.0
 26
0.0
 36
0.0
 17
0.0
 27
1.0
 37
0.0
 76
0
330
20D
345
0
346
0
  0
IMAGEDEF
  5
3A3
102
{ACAD_REACTORS
330
39E
330
39D
102
}
100
AcDbRasterImageDef
 90
0
  1
W3F_assy_2_img_1.png
 10
369.0
 20
92.0
 11
0.0066666667
 21
0.0066666667
280
1
281
0
  0
TABLESTYLE
  5
3A4
102
{ACAD_REACTORS
330
3A0
330
291
330
292
102
}
330
3A0
100
AcDbTableStyle
  3
Standard
 70
0
 71
0
 40
0.06
 41
0.06
280
1
281
1
  7
Standard
140
0.18
170
1
 62
0
 63
7
283
0
  7
Standard
140
0.18
170
1
 62
0
 63
7
283
0
  7
Standard
140
0.18
170
1
 62
0
 63
7
283
0
  0
TABLESTYLE
  5
3A5
102
{ACAD_REACTORS
330
3A0
330
290
102
}
330
3A0
100
AcDbTableStyle
  3
Standard1
 70
1
 71
0
 40
0.06
 41
0.06
280
1
281
1
  7
Standard
140
0.18
170
1
 62
0
 63
7
283
0
  7
Standard
140
0.18
170
1
 62
0
 63
7
283
0
  7
Standard
140
0.18
170
1
 62
0
 63
7
283
0
  0
ENDSEC
  0
EOF
