999
DXF file: VVU_assy_2.dxf
999
Pro/ENGINEER 2014200 by Parametric Technology Corporation
  0
SECTION
  2
HEADER
  9
$ACADVER
  1
AC1021
  9
$DWGCODEPAGE
  3
ANSI_1252
  9
$EXTMAX
 10
22.0
 20
17.0
 30
0.0
  9
$EXTMIN
 10
0.0
 20
0.0
 30
0.0
  9
$LIMMIN
 10
0.0
 20
0.0
  9
$LIMMAX
 10
22.0
 20
17.0
  9
$VIEWCTR
 10
11.0
 20
8.5
  9
$VIEWSIZE
 40
17.0
  9
$CLAYER
  8
0
  9
$LTSCALE
 40
1.21
  9
$CELTYPE
  6
BYLAYER
  9
$DIMSCALE
 40
1.0
  9
$DIMASZ
 40
0.1875
  9
$DIMEXO
 40
0.0625
  9
$DIMDLI
 40
0.836
  9
$DIMEXE
 40
0.125
  9
$DIMCEN
 40
0.198
  9
$DIMLFAC
 40
1.0
  9
$DIMBLK
  1
_FILLED
  9
$DIMTXT
 40
0.1
  9
$DIMTOL
 70
0
  9
$DIMLIM
 70
0
  9
$DIMTFAC
 40
1.0
  9
$DIMGAP
 40
0.09
  9
$DIMDSEP
 70
46
  9
$AUNITS
 70
0
  9
$PDMODE
 70
3
  9
$PDSIZE
 40
0.3125
  9
$HANDSEED
  5
436
  9
$TILEMODE
 70
1
  9
$MEASUREMENT
 70
0
  9
$INSUNITS
 70
1
  0
ENDSEC
  0
SECTION
  2
CLASSES
  0
CLASS
  1
ACDBDICTIONARYWDFLT
  2
AcDbDictionaryWithDefault
  3
AutoCAD 2000
 90
0
 91
1
280
0
281
0
  0
CLASS
  1
ACDBPLACEHOLDER
  2
AcDbPlaceHolder
  3
AutoCAD 2000
 90
0
 91
1
280
0
281
0
  0
CLASS
  1
LAYOUT
  2
AcDbLayout
  3
AutoCAD 2000
 90
0
 91
0
280
0
281
0
  0
CLASS
  1
RASTERVARIABLES
  2
AcDbRasterVariables
  3
ISM
 90
0
 91
1
280
0
281
0
  0
CLASS
  1
IMAGEDEF
  2
AcDbRasterImageDef
  3
ISM
 90
0
 91
1
280
0
281
0
  0
CLASS
  1
IMAGEDEF_REACTOR
  2
AcDbRasterImageDefReactor
  3
ISM
 90
0
 91
1
280
0
281
0
  0
CLASS
  1
IMAGE
  2
AcDbRasterImage
  3
ISM
 90
127
 91
1
280
0
281
1
  0
CLASS
  1
TABLESTYLE
  2
AcDbTableStyle
  3
ObjectDBX Classes
 90
2047
 91
1
280
0
281
0
  0
CLASS
  1
ACAD_TABLE
  2
AcDbTable
  3
ObjectDBX Classes
 90
1025
 91
3
280
0
281
1
  0
ENDSEC
  0
SECTION
  2
TABLES
  0
TABLE
  2
VPORT
  5
8
100
AcDbSymbolTable
 70
2
  0
VPORT
  5
1F4
100
AcDbSymbolTableRecord
100
AcDbViewportTableRecord
  2
*ACTIVE
 70
0
 10
0.0
 20
0.0
 11
1.0
 21
1.0
 12
11.0
 22
8.5
 13
0.0
 23
0.0
 14
1.0
 24
1.0
 15
0.0
 25
0.0
 16
0.0
 26
0.0
 36
1.0
 17
0.0
 27
0.0
 37
0.0
 40
17.0
 41
1.2941176471
 42
50.0
 43
0.0
 44
0.0
 50
0.0
 51
0.0
 71
0
 72
100
 73
1
 74
1
 75
0
 76
0
 77
0
 78
0
  0
ENDTAB
  0
TABLE
  2
LTYPE
  5
5
100
AcDbSymbolTable
 70
6
  0
LTYPE
  5
14
100
AcDbSymbolTableRecord
100
AcDbLinetypeTableRecord
  2
BYBLOCK
 70
0
  3

 72
65
 73
0
 40
0.0
  0
LTYPE
  5
15
100
AcDbSymbolTableRecord
100
AcDbLinetypeTableRecord
  2
BYLAYER
 70
0
  3

 72
65
 73
0
 40
0.0
  0
LTYPE
  5
16
100
AcDbSymbolTableRecord
100
AcDbLinetypeTableRecord
  2
CONTINUOUS
 70
64
  3
Solid line
 72
65
 73
0
 40
0.0
  0
LTYPE
  5
1F5
100
AcDbSymbolTableRecord
100
AcDbLinetypeTableRecord
  2
CENTER
 70
64
  3
____ _ ____ _ ____ _ ____ _ ____ _ ____ _ ____
 72
65
 73
4
 40
0.6
 49
0.375
 74
0
 49
-0.075
 74
0
 49
0.075
 74
0
 49
-0.075
 74
0
  0
LTYPE
  5
1F6
100
AcDbSymbolTableRecord
100
AcDbLinetypeTableRecord
  2
HIDDEN
 70
64
  3
- - - - - - - - - - - - - - - - - - - -
 72
65
 73
2
 40
0.2
 49
0.1
 74
0
 49
-0.1
 74
0
  0
LTYPE
  5
1F7
100
AcDbSymbolTableRecord
100
AcDbLinetypeTableRecord
  2
PHANTOM
 70
64
  3
_____ _ _ _____ _ _ _____ _ _ _____
 72
65
 73
6
 40
0.8
 49
0.45
 74
0
 49
-0.05
 74
0
 49
0.1
 74
0
 49
-0.05
 74
0
 49
0.1
 74
0
 49
-0.05
 74
0
  0
LTYPE
  5
1F8
100
AcDbSymbolTableRecord
100
AcDbLinetypeTableRecord
  2
DOT
 70
64
  3
. . . . . . . . . . . . . . . . . . . .
 72
65
 73
2
 40
0.2
 49
0.1
 74
0
 49
-0.1
 74
0
  0
LTYPE
  5
1F9
100
AcDbSymbolTableRecord
100
AcDbLinetypeTableRecord
  2
DASHED
 70
64
  3
- - - - - - - - - - - - - - - - - - - -
 72
65
 73
2
 40
0.2
 49
0.1
 74
0
 49
-0.1
 74
0
  0
ENDTAB
  0
TABLE
  2
LAYER
  5
2
100
AcDbSymbolTable
 70
36
  0
LAYER
  5
10
100
AcDbSymbolTableRecord
100
AcDbLayerTableRecord
  2
0
 70
0
 62
7
  6
CONTINUOUS
370
-3
390
F
  0
LAYER
  5
1FA
100
AcDbSymbolTableRecord
100
AcDbLayerTableRecord
  2
DEFAULT_1
 70
0
 62
7
  6
CENTER
370
-3
390
F
  0
LAYER
  5
1FB
100
AcDbSymbolTableRecord
100
AcDbLayerTableRecord
  2
DEFAULT_2
 70
0
 62
8
  6
HIDDEN
370
-3
390
F
  0
LAYER
  5
1FC
100
AcDbSymbolTableRecord
100
AcDbLayerTableRecord
  2
DEFAULT_3
 70
0
 62
7
  6
PHANTOM
370
-3
390
F
  0
LAYER
  5
1FD
100
AcDbSymbolTableRecord
100
AcDbLayerTableRecord
  2
DATUM_PLANES
 70
0
 62
7
  6
CONTINUOUS
370
-3
390
F
  0
LAYER
  5
1FE
100
AcDbSymbolTableRecord
100
AcDbLayerTableRecord
  2
PORT_AREAS
 70
0
 62
7
  6
CONTINUOUS
370
-3
390
F
  0
LAYER
  5
1FF
100
AcDbSymbolTableRecord
100
AcDbLayerTableRecord
  2
SUNNBOMCOSMETIC
 70
0
 62
7
  6
CONTINUOUS
370
-3
390
F
  0
LAYER
  5
200
100
AcDbSymbolTableRecord
100
AcDbLayerTableRecord
  2
SUNNBOMSTAMPING
 70
0
 62
7
  6
CONTINUOUS
370
-3
390
F
  0
LAYER
  5
201
100
AcDbSymbolTableRecord
100
AcDbLayerTableRecord
  2
THREADS
 70
0
 62
7
  6
CONTINUOUS
370
-3
390
F
  0
ENDTAB
  0
TABLE
  2
STYLE
  5
3
100
AcDbSymbolTable
 70
1
  0
STYLE
  5
11
100
AcDbSymbolTableRecord
100
AcDbTextStyleTableRecord
  2
STANDARD
 70
0
 40
0.0
 41
0.8
 50
0.0
 71
0
 42
0.2
  3
txt
  4

  0
STYLE
  5
202
100
AcDbSymbolTableRecord
100
AcDbTextStyleTableRecord
  2
TEXTSTYLE_1
 70
0
 40
0.0
 41
0.8
 50
0.0
 71
0
 42
0.2
  3
gdt
  4

  0
ENDTAB
  0
TABLE
  2
VIEW
  5
6
100
AcDbSymbolTable
 70
0
  0
ENDTAB
  0
TABLE
  2
UCS
  5
7
100
AcDbSymbolTable
 70
0
  0
ENDTAB
  0
TABLE
  2
APPID
  5
9
100
AcDbSymbolTable
 70
1
  0
APPID
  5
203
100
AcDbSymbolTableRecord
100
AcDbRegAppTableRecord
  2
ACAD
 70
0
  0
ENDTAB
  0
TABLE
  2
BLOCK_RECORD
  5
1
100
AcDbSymbolTable
 70
0
  0
BLOCK_RECORD
  5
204
100
AcDbSymbolTableRecord
100
AcDbBlockTableRecord
  2
*Model_Space
  0
BLOCK_RECORD
  5
205
100
AcDbSymbolTableRecord
100
AcDbBlockTableRecord
  2
*Paper_Space
  0
BLOCK_RECORD
  5
206
100
AcDbSymbolTableRecord
100
AcDbBlockTableRecord
  2
SUN_FIRST_THIRD_ANGLE_BL0
  0
BLOCK_RECORD
  5
207
100
AcDbSymbolTableRecord
100
AcDbBlockTableRecord
  2
*T1
  0
BLOCK_RECORD
  5
208
100
AcDbSymbolTableRecord
100
AcDbBlockTableRecord
  2
*T2
  0
BLOCK_RECORD
  5
209
100
AcDbSymbolTableRecord
100
AcDbBlockTableRecord
  2
*T3
  0
ENDTAB
  0
TABLE
  2
DIMSTYLE
  5
A
100
AcDbSymbolTable
 70
1
100
AcDbDimStyleTable
 71
0
  0
DIMSTYLE
105
20A
100
AcDbSymbolTableRecord
100
AcDbDimStyleTableRecord
  2
STANDARD
 70
0
  3

  4

 40
1.0
 41
0.1875
 42
0.0625
 43
0.38
 44
0.125
 45
0.0
 46
0.0
 47
0.001
 48
0.001
140
0.1
141
0.09
142
0.0
143
25.4
144
1.0
145
0.0
146
1.0
147
0.09
 71
0.0
 72
0.0
 73
1
 74
1
 75
0
 76
0
 77
0
 78
4
170
0
171
2
172
0
173
0
174
0
175
0
176
0
177
0
178
0
270
2
271
3
272
3
273
2
274
2
275
0
280
0
281
0
282
0
283
1
284
4
285
0
286
0
287
3
288
0
340
11
278
46
  0
ENDTAB
  0
ENDSEC
  0
SECTION
  2
BLOCKS
  0
BLOCK
  5
20
100
AcDbEntity
  8
0
100
AcDbBlockBegin
  2
*Model_Space
 70
0
 10
0.0
 20
0.0
 30
0.0
  3
*Model_Space
  1

  0
ENDBLK
  5
21
100
AcDbEntity
  8
0
100
AcDbBlockEnd
  0
BLOCK
  5
1C
100
AcDbEntity
  8
0
100
AcDbBlockBegin
  2
*Paper_Space
 70
0
 10
0.0
 20
0.0
 30
0.0
  3
*Paper_Space
  1

  0
ENDBLK
  5
1D
100
AcDbEntity
  8
0
100
AcDbBlockEnd
  0
BLOCK
  5
20B
100
AcDbEntity
  8
0
100
AcDbBlockBegin
 62
2
  6
CONTINUOUS
  2
SUN_FIRST_THIRD_ANGLE_BL0
 70
64
 10
20.4816717061
 20
1.2289683772
  3
SUN_FIRST_THIRD_ANGLE_BL0
  1

  0
TEXT
  5
20C
100
AcDbEntity
  8
0
100
AcDbText
 62
2
  6
CONTINUOUS
 10
19.4750896608
 20
1.4136269581
  7
STANDARD
 40
0.08
  1
FIRST ANGLE
 41
0.8
 72
0
100
AcDbText
  0
TEXT
  5
20D
100
AcDbEntity
  8
0
100
AcDbText
 62
2
  6
CONTINUOUS
 10
20.7842537513
 20
1.4047600029
  7
STANDARD
 40
0.08
  1
THIRD ANGLE
 41
0.8
 72
0
100
AcDbText
  0
LINE
  5
20E
100
AcDbEntity
  8
0
100
AcDbLine
 62
7
  6
CONTINUOUS
 10
19.4767170086
 20
1.1727031207
 11
19.6334271527
 21
1.1717972817
  0
LINE
  5
20F
100
AcDbEntity
  8
0
100
AcDbLine
 62
7
  6
CONTINUOUS
 10
19.6596964832
 20
1.1717972817
 11
19.6950230232
 21
1.171593082
  0
LINE
  5
210
100
AcDbEntity
  8
0
100
AcDbLine
 62
7
  6
CONTINUOUS
 10
19.7194818561
 20
1.1708914427
 11
19.8852396156
 21
1.1699333054
  0
LINE
  5
211
100
AcDbEntity
  8
0
100
AcDbLine
 62
7
  6
CONTINUOUS
 10
19.4758111696
 20
1.2723454088
 11
19.88525039
 21
1.3511534004
  0
LINE
  5
212
100
AcDbEntity
  8
0
100
AcDbLine
 62
7
  6
CONTINUOUS
 10
19.88525039
 20
1.3511534004
 11
19.8831348489
 21
0.9851647912
  0
LINE
  5
213
100
AcDbEntity
  8
0
100
AcDbLine
 62
7
  6
CONTINUOUS
 10
19.8831348489
 20
0.9851647912
 11
19.4767170086
 21
1.0658141206
  0
LINE
  5
214
100
AcDbEntity
  8
0
100
AcDbLine
 62
7
  6
CONTINUOUS
 10
19.4767170086
 20
1.0658141206
 11
19.4779056764
 21
1.2714536432
  0
CIRCLE
  5
215
100
AcDbEntity
  8
0
100
AcDbCircle
 62
7
  6
CONTINUOUS
 10
20.2068232291
 20
1.1717972817
 40
0.175742101
  0
CIRCLE
  5
216
100
AcDbEntity
  8
0
100
AcDbCircle
 62
7
  6
CONTINUOUS
 10
20.2068232291
 20
1.1717972817
 40
0.1005522074
  0
LINE
  5
217
100
AcDbEntity
  8
0
100
AcDbLine
 62
7
  6
CONTINUOUS
 10
20.2077290681
 20
1.3756110529
 11
20.2071171714
 21
1.2379342989
  0
LINE
  5
218
100
AcDbEntity
  8
0
100
AcDbLine
 62
7
  6
CONTINUOUS
 10
20.2077290681
 20
1.2016899681
 11
20.2074674401
 21
1.1428236749
  0
LINE
  5
219
100
AcDbEntity
  8
0
100
AcDbLine
 62
7
  6
CONTINUOUS
 10
20.208634907
 20
1.101141841
 11
20.2080230104
 21
0.963465087
  0
LINE
  5
21A
100
AcDbEntity
  8
0
100
AcDbLine
 62
7
  6
CONTINUOUS
 10
20.0066328138
 20
1.1745147986
 11
20.1443095678
 21
1.1739029019
  0
LINE
  5
21B
100
AcDbEntity
  8
0
100
AcDbLine
 62
7
  6
CONTINUOUS
 10
20.1832714155
 20
1.1727031207
 11
20.238153505
 21
1.172335442
  0
LINE
  5
21C
100
AcDbEntity
  8
0
100
AcDbLine
 62
7
  6
CONTINUOUS
 10
20.2756669918
 20
1.1717972817
 11
20.407916871
 21
1.1712095044
  0
CIRCLE
  5
21D
100
AcDbEntity
  8
0
100
AcDbCircle
 62
7
  6
CONTINUOUS
 10
20.7509457401
 20
1.1693297793
 40
0.1722024983
  0
CIRCLE
  5
21E
100
AcDbEntity
  8
0
100
AcDbCircle
 62
7
  6
CONTINUOUS
 10
20.7509457401
 20
1.1693297793
 40
0.0985164967
  0
LINE
  5
21F
100
AcDbEntity
  8
0
100
AcDbLine
 62
7
  6
CONTINUOUS
 10
20.7169767782
 20
1.170462078
 11
20.7825395137
 21
1.1682766535
  0
LINE
  5
220
100
AcDbEntity
  8
0
100
AcDbLine
 62
7
  6
CONTINUOUS
 10
20.8177513651
 20
1.1693297793
 11
20.947965719
 21
1.1693297793
  0
LINE
  5
221
100
AcDbEntity
  8
0
100
AcDbLine
 62
7
  6
CONTINUOUS
 10
20.6875370113
 20
1.170462078
 11
20.5573226574
 21
1.170462078
  0
LINE
  5
222
100
AcDbEntity
  8
0
100
AcDbLine
 62
7
  6
CONTINUOUS
 10
20.7486811426
 20
1.1987695462
 11
20.7486811426
 21
1.1432869085
  0
LINE
  5
223
100
AcDbEntity
  8
0
100
AcDbLine
 62
7
  6
CONTINUOUS
 10
20.7498134414
 20
1.1059210505
 11
20.7498134414
 21
0.9757066966
  0
LINE
  5
224
100
AcDbEntity
  8
0
100
AcDbLine
 62
7
  6
CONTINUOUS
 10
20.7486811426
 20
1.2338708068
 11
20.7486811426
 21
1.3640851607
  0
LINE
  5
225
100
AcDbEntity
  8
0
100
AcDbLine
 62
7
  6
CONTINUOUS
 10
21.0702539817
 20
1.2701043662
 11
21.4790138229
 21
1.3448360823
  0
LINE
  5
226
100
AcDbEntity
  8
0
100
AcDbLine
 62
7
  6
CONTINUOUS
 10
21.4790138229
 20
1.3448360823
 11
21.4790138229
 21
0.9779712941
  0
LINE
  5
227
100
AcDbEntity
  8
0
100
AcDbLine
 62
7
  6
CONTINUOUS
 10
21.4790138229
 20
0.9779712941
 11
21.069121683
 21
1.0617614
  0
LINE
  5
228
100
AcDbEntity
  8
0
100
AcDbLine
 62
7
  6
CONTINUOUS
 10
21.0702539817
 20
1.2701043662
 11
21.069121683
 21
1.0617614
  0
LINE
  5
229
100
AcDbEntity
  8
0
100
AcDbLine
 62
7
  6
CONTINUOUS
 10
21.4790138229
 20
1.1693297793
 11
21.3159628059
 21
1.1693297793
  0
LINE
  5
22A
100
AcDbEntity
  8
0
100
AcDbLine
 62
7
  6
CONTINUOUS
 10
21.2876553377
 20
1.1693297793
 11
21.2502894796
 21
1.1693297793
  0
LINE
  5
22B
100
AcDbEntity
  8
0
100
AcDbLine
 62
7
  6
CONTINUOUS
 10
21.2208497126
 20
1.1659328831
 11
21.0713862804
 21
1.1659328831
  0
LINE
  5
22C
100
AcDbEntity
  8
0
100
AcDbLine
 62
7
  6
CONTINUOUS
 10
20.4796138713
 20
1.5284908897
 11
20.4766766948
 21
0.9294458646
  0
ENDBLK
  5
22D
100
AcDbEntity
  8
0
  6
BYBLOCK
 62
0
100
AcDbBlockEnd
  0
BLOCK
  5
22E
100
AcDbEntity
  8
0
100
AcDbBlockBegin
  2
*T1
 70
1
 10
0.0
 20
0.0
  3
*T1
  1

  0
LINE
  5
22F
100
AcDbEntity
  8
0
100
AcDbLine
 62
2
  6
CONTINUOUS
 10
9.275
 20
0.0
 11
-0.0
 21
0.0
  0
LINE
  5
230
100
AcDbEntity
  8
0
100
AcDbLine
 62
2
  6
CONTINUOUS
 10
9.275
 20
0.0
 11
9.275
 21
1.25
  0
LINE
  5
231
100
AcDbEntity
  8
0
100
AcDbLine
 62
2
  6
CONTINUOUS
 10
9.275
 20
0.625
 11
-0.0
 21
0.625
  0
LINE
  5
232
100
AcDbEntity
  8
0
100
AcDbLine
 62
2
  6
CONTINUOUS
 10
9.275
 20
1.25
 11
-0.0
 21
1.25
  0
LINE
  5
233
100
AcDbEntity
  8
0
100
AcDbLine
 62
2
  6
CONTINUOUS
 10
6.8
 20
0.0
 11
6.8
 21
1.25
  0
LINE
  5
234
100
AcDbEntity
  8
0
100
AcDbLine
 62
2
  6
CONTINUOUS
 10
6.4
 20
0.0
 11
6.4
 21
0.625
  0
LINE
  5
235
100
AcDbEntity
  8
0
100
AcDbLine
 62
2
  6
CONTINUOUS
 10
5.9
 20
0.0
 11
5.9
 21
0.625
  0
LINE
  5
236
100
AcDbEntity
  8
0
100
AcDbLine
 62
2
  6
CONTINUOUS
 10
5.2
 20
0.0
 11
5.2
 21
0.625
  0
LINE
  5
237
100
AcDbEntity
  8
0
100
AcDbLine
 62
2
  6
CONTINUOUS
 10
4.1
 20
0.0
 11
4.1
 21
1.25
  0
LINE
  5
238
100
AcDbEntity
  8
0
100
AcDbLine
 62
2
  6
CONTINUOUS
 10
-0.0
 20
0.0
 11
-0.0
 21
1.25
  0
MTEXT
  5
239
100
AcDbEntity
  8
0
100
AcDbMText
 62
2
  6
CONTINUOUS
  7
STANDARD
 71
2
 72
1
 10
6.6
 20
0.325
 30
0.0
 11
1.0
 21
0.0
 31
0.0
 44
0.9
  1
2
 40
0.125
 41
0.2
  0
MTEXT
  5
23A
100
AcDbEntity
  8
0
100
AcDbMText
 62
2
  6
CONTINUOUS
  7
STANDARD
 71
2
 72
1
 10
6.15
 20
0.325
 30
0.0
 11
1.0
 21
0.0
 31
0.0
 44
0.9
  1
C
 40
0.125
 41
0.2
  0
MTEXT
  5
23B
100
AcDbEntity
  8
0
100
AcDbMText
 62
2
  6
CONTINUOUS
  7
STANDARD
 71
2
 72
1
 10
5.55
 20
0.325
 30
0.0
 11
1.0
 21
0.0
 31
0.0
 44
0.9
  1
1.000
 40
0.125
 41
1.0
  0
MTEXT
  5
23C
100
AcDbEntity
  8
0
100
AcDbMText
 62
2
  6
CONTINUOUS
  7
STANDARD
 71
2
 72
1
 10
4.65
 20
0.325
 30
0.0
 11
1.0
 21
0.0
 31
0.0
 44
0.9
  1
Aug-07-20
 40
0.125
 41
1.8
  0
MTEXT
  5
23D
100
AcDbEntity
  8
0
100
AcDbMText
 62
2
  6
CONTINUOUS
  7
STANDARD
 71
2
 72
1
 10
2.05
 20
0.4625
 30
0.0
 11
1.0
 21
0.0
 31
0.0
 44
0.9
  1
T-10A Line mount Special - 2 bolt\P(See Technical Data for Body Features)
 40
0.125
 41
7.6
  0
MTEXT
  5
23E
100
AcDbEntity
  8
0
100
AcDbMText
 62
2
  6
CONTINUOUS
  7
STANDARD
 71
1
 72
1
 10
6.45
 20
0.5625
 30
0.0
 11
1.0
 21
0.0
 31
0.0
 44
0.9
  1
SHEET
 40
0.06
 41
0.48
  0
MTEXT
  5
23F
100
AcDbEntity
  8
0
100
AcDbMText
 62
2
  6
CONTINUOUS
  7
STANDARD
 71
1
 72
1
 10
5.95
 20
0.5625
 30
0.0
 11
1.0
 21
0.0
 31
0.0
 44
0.9
  1
DWG SIZE
 40
0.06
 41
0.768
  0
MTEXT
  5
240
100
AcDbEntity
  8
0
100
AcDbMText
 62
2
  6
CONTINUOUS
  7
STANDARD
 71
1
 72
1
 10
5.25
 20
0.5625
 30
0.0
 11
1.0
 21
0.0
 31
0.0
 44
0.9
  1
SCALE
 40
0.06
 41
0.48
  0
MTEXT
  5
241
100
AcDbEntity
  8
0
100
AcDbMText
 62
2
  6
CONTINUOUS
  7
STANDARD
 71
1
 72
1
 10
4.15
 20
0.5625
 30
0.0
 11
1.0
 21
0.0
 31
0.0
 44
0.9
  1
DATE
 40
0.06
 41
0.384
  0
MTEXT
  5
242
100
AcDbEntity
  8
0
100
AcDbMText
 62
2
  6
CONTINUOUS
  7
STANDARD
 71
1
 72
1
 10
0.05
 20
0.5625
 30
0.0
 11
1.0
 21
0.0
 31
0.0
 44
0.9
  1
DESCRIPTION
 40
0.06
 41
1.056
  0
MTEXT
  5
243
100
AcDbEntity
  8
0
100
AcDbMText
 62
2
  6
CONTINUOUS
  7
STANDARD
 71
2
 72
1
 10
5.45
 20
1.0375
 30
0.0
 11
1.0
 21
0.0
 31
0.0
 44
0.9
  1
ALL DIMENSIONS IN INCH\PVIEWS ARE THIRD ANGLE
 40
0.12
 41
4.224
  0
MTEXT
  5
244
100
AcDbEntity
  8
0
100
AcDbMText
 62
2
  6
CONTINUOUS
  7
STANDARD
 71
2
 72
1
 10
2.05
 20
0.95
 30
0.0
 11
1.0
 21
0.0
 31
0.0
 44
0.9
  1
VVU
 40
0.125
 41
0.6
  0
MTEXT
  5
245
100
AcDbEntity
  8
0
100
AcDbMText
 62
2
  6
CONTINUOUS
  7
STANDARD
 71
1
 72
1
 10
0.05
 20
1.1875
 30
0.0
 11
1.0
 21
0.0
 31
0.0
 44
0.9
  1
MODEL
 40
0.06
 41
0.48
  0
ENDBLK
  5
246
100
AcDbEntity
  8
0
  6
BYBLOCK
 62
0
100
AcDbBlockEnd
  0
BLOCK
  5
247
100
AcDbEntity
  8
0
100
AcDbBlockBegin
  2
*T2
 70
1
 10
0.0
 20
0.0
  3
*T2
  1

  0
LINE
  5
248
100
AcDbEntity
  8
0
100
AcDbLine
 62
2
  6
CONTINUOUS
 10
0.0
 20
0.0
 11
9.055
 21
0.0
  0
LINE
  5
249
100
AcDbEntity
  8
0
100
AcDbLine
 62
2
  6
CONTINUOUS
 10
0.0
 20
0.0
 11
0.0
 21
-2.594
  0
LINE
  5
24A
100
AcDbEntity
  8
0
100
AcDbLine
 62
2
  6
CONTINUOUS
 10
0.0
 20
-0.344
 11
9.055
 21
-0.344
  0
LINE
  5
24B
100
AcDbEntity
  8
0
100
AcDbLine
 62
2
  6
CONTINUOUS
 10
0.0
 20
-0.594
 11
9.055
 21
-0.594
  0
LINE
  5
24C
100
AcDbEntity
  8
0
100
AcDbLine
 62
2
  6
CONTINUOUS
 10
0.0
 20
-0.844
 11
9.055
 21
-0.844
  0
LINE
  5
24D
100
AcDbEntity
  8
0
100
AcDbLine
 62
2
  6
CONTINUOUS
 10
0.0
 20
-1.094
 11
9.055
 21
-1.094
  0
LINE
  5
24E
100
AcDbEntity
  8
0
100
AcDbLine
 62
2
  6
CONTINUOUS
 10
0.0
 20
-1.344
 11
9.055
 21
-1.344
  0
LINE
  5
24F
100
AcDbEntity
  8
0
100
AcDbLine
 62
2
  6
CONTINUOUS
 10
0.0
 20
-1.594
 11
9.055
 21
-1.594
  0
LINE
  5
250
100
AcDbEntity
  8
0
100
AcDbLine
 62
2
  6
CONTINUOUS
 10
0.0
 20
-1.844
 11
9.055
 21
-1.844
  0
LINE
  5
251
100
AcDbEntity
  8
0
100
AcDbLine
 62
2
  6
CONTINUOUS
 10
0.0
 20
-2.094
 11
9.055
 21
-2.094
  0
LINE
  5
252
100
AcDbEntity
  8
0
100
AcDbLine
 62
2
  6
CONTINUOUS
 10
0.0
 20
-2.344
 11
9.055
 21
-2.344
  0
LINE
  5
253
100
AcDbEntity
  8
0
100
AcDbLine
 62
2
  6
CONTINUOUS
 10
0.0
 20
-2.594
 11
9.055
 21
-2.594
  0
LINE
  5
254
100
AcDbEntity
  8
0
100
AcDbLine
 62
2
  6
CONTINUOUS
 10
3.055
 20
0.0
 11
3.055
 21
-2.594
  0
LINE
  5
255
100
AcDbEntity
  8
0
100
AcDbLine
 62
2
  6
CONTINUOUS
 10
9.055
 20
0.0
 11
9.055
 21
-2.594
  0
MTEXT
  5
256
100
AcDbEntity
  8
0
100
AcDbMText
 62
2
  6
CONTINUOUS
  7
STANDARD
 71
2
 72
1
 10
1.5275
 20
-0.0995
 30
0.0
 11
1.0
 21
0.0
 31
0.0
 44
0.9
  1
Technical Data
 40
0.145
 41
3.248
  0
MTEXT
  5
257
100
AcDbEntity
  8
0
100
AcDbMText
 62
2
  6
CONTINUOUS
  7
STANDARD
 71
2
 72
1
 10
4.555
 20
-0.0995
 30
0.0
 11
1.0
 21
0.0
 31
0.0
 44
0.9
  1
U.S. Units
 40
0.145
 41
2.32
  0
MTEXT
  5
258
100
AcDbEntity
  8
0
100
AcDbMText
 62
2
  6
CONTINUOUS
  7
STANDARD
 71
2
 72
1
 10
7.555
 20
-0.0995
 30
0.0
 11
1.0
 21
0.0
 31
0.0
 44
0.9
  1
Metric Units
 40
0.145
 41
2.784
  0
MTEXT
  5
259
100
AcDbEntity
  8
0
100
AcDbMText
 62
2
  6
CONTINUOUS
  7
STANDARD
 71
2
 72
1
 10
1.5275
 20
-0.4065
 30
0.0
 11
1.0
 21
0.0
 31
0.0
 44
0.9
  1
Cavity
 40
0.125
 41
1.2
  0
MTEXT
  5
25A
100
AcDbEntity
  8
0
100
AcDbMText
 62
2
  6
CONTINUOUS
  7
STANDARD
 71
2
 72
1
 10
6.055
 20
-0.4065
 30
0.0
 11
1.0
 21
0.0
 31
0.0
 44
0.9
  1
T-10A
 40
0.125
 41
1.0
  0
MTEXT
  5
25B
100
AcDbEntity
  8
0
100
AcDbMText
 62
2
  6
CONTINUOUS
  7
STANDARD
 71
2
 72
1
 10
1.5275
 20
-0.6565
 30
0.0
 11
1.0
 21
0.0
 31
0.0
 44
0.9
  1
Body Features
 40
0.125
 41
2.6
  0
MTEXT
  5
25C
100
AcDbEntity
  8
0
100
AcDbMText
 62
2
  6
CONTINUOUS
  7
STANDARD
 71
2
 72
1
 10
6.055
 20
-0.6565
 30
0.0
 11
1.0
 21
0.0
 31
0.0
 44
0.9
  1
Direct mount, cross port with make up checks
 40
0.125
 41
8.8
  0
MTEXT
  5
25D
100
AcDbEntity
  8
0
100
AcDbMText
 62
2
  6
CONTINUOUS
  7
STANDARD
 71
2
 72
1
 10
1.5275
 20
-0.9065
 30
0.0
 11
1.0
 21
0.0
 31
0.0
 44
0.9
  1
Body Type
 40
0.125
 41
1.8
  0
MTEXT
  5
25E
100
AcDbEntity
  8
0
100
AcDbMText
 62
2
  6
CONTINUOUS
  7
STANDARD
 71
2
 72
1
 10
6.055
 20
-0.9065
 30
0.0
 11
1.0
 21
0.0
 31
0.0
 44
0.9
  1
Line mount
 40
0.125
 41
2.0
  0
MTEXT
  5
25F
100
AcDbEntity
  8
0
100
AcDbMText
 62
2
  6
CONTINUOUS
  7
STANDARD
 71
2
 72
1
 10
1.5275
 20
-1.1565
 30
0.0
 11
1.0
 21
0.0
 31
0.0
 44
0.9
  1
Interface
 40
0.125
 41
1.8
  0
MTEXT
  5
260
100
AcDbEntity
  8
0
100
AcDbMText
 62
2
  6
CONTINUOUS
  7
STANDARD
 71
2
 72
1
 10
6.055
 20
-1.1565
 30
0.0
 11
1.0
 21
0.0
 31
0.0
 44
0.9
  1
Special - 2 bolt
 40
0.125
 41
3.2
  0
MTEXT
  5
261
100
AcDbEntity
  8
0
100
AcDbMText
 62
2
  6
CONTINUOUS
  7
STANDARD
 71
2
 72
1
 10
1.5275
 20
-1.4065
 30
0.0
 11
1.0
 21
0.0
 31
0.0
 44
0.9
  1
Open Cavity Quantity
 40
0.125
 41
4.0
  0
MTEXT
  5
262
100
AcDbEntity
  8
0
100
AcDbMText
 62
2
  6
CONTINUOUS
  7
STANDARD
 71
2
 72
1
 10
6.055
 20
-1.4065
 30
0.0
 11
1.0
 21
0.0
 31
0.0
 44
0.9
  1
2
 40
0.125
 41
0.2
  0
MTEXT
  5
263
100
AcDbEntity
  8
0
100
AcDbMText
 62
2
  6
CONTINUOUS
  7
STANDARD
 71
2
 72
1
 10
1.5275
 20
-1.6565
 30
0.0
 11
1.0
 21
0.0
 31
0.0
 44
0.9
  1
Weight
 40
0.125
 41
1.2
  0
MTEXT
  5
264
100
AcDbEntity
  8
0
100
AcDbMText
 62
2
  6
CONTINUOUS
  7
STANDARD
 71
2
 72
1
 10
4.555
 20
-1.6565
 30
0.0
 11
1.0
 21
0.0
 31
0.0
 44
0.9
  1
3.610 lb.
 40
0.125
 41
1.8
  0
MTEXT
  5
265
100
AcDbEntity
  8
0
100
AcDbMText
 62
2
  6
CONTINUOUS
  7
STANDARD
 71
2
 72
1
 10
7.555
 20
-1.6565
 30
0.0
 11
1.0
 21
0.0
 31
0.0
 44
0.9
  1
1,637 kg.
 40
0.125
 41
1.8
  0
MTEXT
  5
266
100
AcDbEntity
  8
0
100
AcDbMText
 62
2
  6
CONTINUOUS
  7
STANDARD
 71
2
 72
1
 10
1.5275
 20
-1.9065
 30
0.0
 11
1.0
 21
0.0
 31
0.0
 44
0.9
  1
Mounting Hole Diameter
 40
0.125
 41
4.4
  0
MTEXT
  5
267
100
AcDbEntity
  8
0
100
AcDbMText
 62
2
  6
CONTINUOUS
  7
STANDARD
 71
2
 72
1
 10
4.555
 20
-1.9065
 30
0.0
 11
1.0
 21
0.0
 31
0.0
 44
0.9
  1
.34 in.
 40
0.125
 41
1.4
  0
MTEXT
  5
268
100
AcDbEntity
  8
0
100
AcDbMText
 62
2
  6
CONTINUOUS
  7
STANDARD
 71
2
 72
1
 10
7.555
 20
-1.9065
 30
0.0
 11
1.0
 21
0.0
 31
0.0
 44
0.9
  1
8.6 mm
 40
0.125
 41
1.2
  0
MTEXT
  5
269
100
AcDbEntity
  8
0
100
AcDbMText
 62
2
  6
CONTINUOUS
  7
STANDARD
 71
2
 72
1
 10
1.5275
 20
-2.1565
 30
0.0
 11
1.0
 21
0.0
 31
0.0
 44
0.9
  1
Mounting Hole Depth
 40
0.125
 41
3.8
  0
MTEXT
  5
26A
100
AcDbEntity
  8
0
100
AcDbMText
 62
2
  6
CONTINUOUS
  7
STANDARD
 71
2
 72
1
 10
6.055
 20
-2.1565
 30
0.0
 11
1.0
 21
0.0
 31
0.0
 44
0.9
  1
Through
 40
0.125
 41
1.4
  0
MTEXT
  5
26B
100
AcDbEntity
  8
0
100
AcDbMText
 62
2
  6
CONTINUOUS
  7
STANDARD
 71
2
 72
1
 10
1.5275
 20
-2.4065
 30
0.0
 11
1.0
 21
0.0
 31
0.0
 44
0.9
  1
Mounting Hole Quantity
 40
0.125
 41
4.4
  0
MTEXT
  5
26C
100
AcDbEntity
  8
0
100
AcDbMText
 62
2
  6
CONTINUOUS
  7
STANDARD
 71
2
 72
1
 10
6.055
 20
-2.4065
 30
0.0
 11
1.0
 21
0.0
 31
0.0
 44
0.9
  1
2
 40
0.125
 41
0.2
  0
ENDBLK
  5
26D
100
AcDbEntity
  8
0
  6
BYBLOCK
 62
0
100
AcDbBlockEnd
  0
BLOCK
  5
26E
100
AcDbEntity
  8
0
100
AcDbBlockBegin
  2
*T3
 70
1
 10
0.0
 20
0.0
  3
*T3
  1

  0
LINE
  5
26F
100
AcDbEntity
  8
0
100
AcDbLine
 62
2
  6
CONTINUOUS
 10
0.0
 20
0.0
 11
4.6
 21
0.0
  0
LINE
  5
270
100
AcDbEntity
  8
0
100
AcDbLine
 62
2
  6
CONTINUOUS
 10
0.0
 20
0.0
 11
0.0
 21
-1.18775
  0
LINE
  5
271
100
AcDbEntity
  8
0
100
AcDbLine
 62
2
  6
CONTINUOUS
 10
0.0
 20
-0.34375
 11
4.6
 21
-0.34375
  0
LINE
  5
272
100
AcDbEntity
  8
0
100
AcDbLine
 62
2
  6
CONTINUOUS
 10
0.0
 20
-0.68775
 11
4.6
 21
-0.68775
  0
LINE
  5
273
100
AcDbEntity
  8
0
100
AcDbLine
 62
2
  6
CONTINUOUS
 10
0.0
 20
-0.93775
 11
4.6
 21
-0.93775
  0
LINE
  5
274
100
AcDbEntity
  8
0
100
AcDbLine
 62
2
  6
CONTINUOUS
 10
0.0
 20
-1.18775
 11
4.6
 21
-1.18775
  0
LINE
  5
275
100
AcDbEntity
  8
0
100
AcDbLine
 62
2
  6
CONTINUOUS
 10
1.3
 20
-0.34375
 11
1.3
 21
-1.18775
  0
LINE
  5
276
100
AcDbEntity
  8
0
100
AcDbLine
 62
2
  6
CONTINUOUS
 10
3.3
 20
-0.34375
 11
3.3
 21
-1.18775
  0
LINE
  5
277
100
AcDbEntity
  8
0
100
AcDbLine
 62
2
  6
CONTINUOUS
 10
4.6
 20
0.0
 11
4.6
 21
-1.18775
  0
MTEXT
  5
278
100
AcDbEntity
  8
0
100
AcDbMText
 62
2
  6
CONTINUOUS
  7
STANDARD
 71
2
 72
1
 10
2.3
 20
-0.099375
 30
0.0
 11
1.0
 21
0.0
 31
0.0
 44
0.9
  1
Port Headings
 40
0.145
 41
3.016
  0
MTEXT
  5
279
100
AcDbEntity
  8
0
100
AcDbMText
 62
2
  6
CONTINUOUS
  7
STANDARD
 71
2
 72
1
 10
0.65
 20
-0.44325
 30
0.0
 11
1.0
 21
0.0
 31
0.0
 44
0.9
  1
Product
 40
0.145
 41
1.624
  0
MTEXT
  5
27A
100
AcDbEntity
  8
0
100
AcDbMText
 62
2
  6
CONTINUOUS
  7
STANDARD
 71
2
 72
1
 10
2.3
 20
-0.44325
 30
0.0
 11
1.0
 21
0.0
 31
0.0
 44
0.9
  1
Port
 40
0.145
 41
0.928
  0
MTEXT
  5
27B
100
AcDbEntity
  8
0
100
AcDbMText
 62
2
  6
CONTINUOUS
  7
STANDARD
 71
2
 72
1
 10
3.95
 20
-0.44325
 30
0.0
 11
1.0
 21
0.0
 31
0.0
 44
0.9
  1
Size
 40
0.145
 41
0.928
  0
MTEXT
  5
27C
100
AcDbEntity
  8
0
100
AcDbMText
 62
2
  6
CONTINUOUS
  7
STANDARD
 71
2
 72
1
 10
0.65
 20
-0.75025
 30
0.0
 11
1.0
 21
0.0
 31
0.0
 44
0.9
  1
VVU
 40
0.125
 41
0.6
  0
MTEXT
  5
27D
100
AcDbEntity
  8
0
100
AcDbMText
 62
2
  6
CONTINUOUS
  7
STANDARD
 71
2
 72
1
 10
2.3
 20
-0.75025
 30
0.0
 11
1.0
 21
0.0
 31
0.0
 44
0.9
  1
Ports A & B
 40
0.125
 41
2.2
  0
MTEXT
  5
27E
100
AcDbEntity
  8
0
100
AcDbMText
 62
2
  6
CONTINUOUS
  7
STANDARD
 71
2
 72
1
 10
3.95
 20
-0.75025
 30
0.0
 11
1.0
 21
0.0
 31
0.0
 44
0.9
  1
SAE 8
 40
0.125
 41
1.0
  0
MTEXT
  5
27F
100
AcDbEntity
  8
0
100
AcDbMText
 62
2
  6
CONTINUOUS
  7
STANDARD
 71
2
 72
1
 10
0.65
 20
-1.00025
 30
0.0
 11
1.0
 21
0.0
 31
0.0
 44
0.9
  1
VVU
 40
0.125
 41
0.6
  0
MTEXT
  5
280
100
AcDbEntity
  8
0
100
AcDbMText
 62
2
  6
CONTINUOUS
  7
STANDARD
 71
2
 72
1
 10
2.3
 20
-1.00025
 30
0.0
 11
1.0
 21
0.0
 31
0.0
 44
0.9
  1
Port T
 40
0.125
 41
1.2
  0
MTEXT
  5
281
100
AcDbEntity
  8
0
100
AcDbMText
 62
2
  6
CONTINUOUS
  7
STANDARD
 71
2
 72
1
 10
3.95
 20
-1.00025
 30
0.0
 11
1.0
 21
0.0
 31
0.0
 44
0.9
  1
SAE 8
 40
0.125
 41
1.0
  0
ENDBLK
  5
282
100
AcDbEntity
  8
0
  6
BYBLOCK
 62
0
100
AcDbBlockEnd
  0
ENDSEC
  0
SECTION
  2
ENTITIES
  0
IMAGE
  5
283
100
AcDbEntity
  8
0
100
AcDbRasterImage
 62
7
  6
CONTINUOUS
 10
19.2297077316
 20
0.3094318264
 30
0.0
 11
0.0066666667
 21
0.0
 31
0.0
 12
0.0
 22
0.0066666667
 32
0.0
 13
369.0
 23
92.0
340
       433
 70
9
280
0
281
50
282
50
283
0
360
       42D
 71
1
 91
2
 14
-0.5
 24
-0.5
 14
368.5
 24
91.5
  0
INSERT
  5
284
100
AcDbEntity
  8
0
100
AcDbBlockReference
 62
2
  6
CONTINUOUS
  2
SUN_FIRST_THIRD_ANGLE_BL0
 10
20.4816717061
 20
1.2289683772
  0
ACAD_TABLE
  5
285
100
AcDbEntity
  8
0
 62
2
  6
CONTINUOUS
100
AcDbBlockReference
  2
*T1
 10
12.42375
 20
0.30125
 30
0.0
100
AcDbTable
342
       435
343
207
 11
1.0
 21
0.0
 31
0.0
 90
6
 91
4
 92
6
 93
20
 94
0
 95
0
 96
0
 70
1
 41
0.0
141
0.525
141
0.1
141
0.525
141
0.1
142
4.1
142
1.1
142
0.7
142
0.5
142
0.4
142
2.475
171
1
172
0
173
0
174
0
175
1
176
1
 91
33
178
0
145
0.0
301
CELL_VALUE
 90
4
  1
T-10A Line mount Special - 2 bolt\P(See Technical Data for Body Features)
304
ACVALUE_END
170
2
140
0.125
171
1
172
0
173
0
174
0
175
1
176
1
 91
33
178
0
145
0.0
301
CELL_VALUE
 90
4
  1
Aug-07-20
304
ACVALUE_END
170
5
140
0.125
171
1
172
0
173
0
174
0
175
1
176
1
 91
33
178
0
145
0.0
301
CELL_VALUE
 90
4
  1
1.000
304
ACVALUE_END
170
5
140
0.125
171
1
172
0
173
0
174
0
175
1
176
1
 91
33
178
0
145
0.0
301
CELL_VALUE
 90
4
  1
C
304
ACVALUE_END
170
5
140
0.125
171
1
172
0
173
0
174
0
175
1
176
1
 91
33
178
0
145
0.0
301
CELL_VALUE
 90
4
  1
2
304
ACVALUE_END
170
5
140
0.125
171
1
172
0
173
0
174
0
175
1
176
1
 91
33
178
0
145
0.0
301
CELL_VALUE
 90
4
  1
 
304
ACVALUE_END
170
1
140
0.125
171
1
172
0
173
0
174
0
175
1
176
1
 91
33
178
0
145
0.0
301
CELL_VALUE
 90
4
  1
DESCRIPTION
304
ACVALUE_END
170
1
140
0.06
171
1
172
0
173
0
174
0
175
1
176
1
 91
33
178
0
145
0.0
301
CELL_VALUE
 90
4
  1
DATE
304
ACVALUE_END
170
1
140
0.06
171
1
172
0
173
0
174
0
175
1
176
1
 91
33
178
0
145
0.0
301
CELL_VALUE
 90
4
  1
SCALE
304
ACVALUE_END
170
1
140
0.06
171
1
172
0
173
0
174
0
175
1
176
1
 91
33
178
0
145
0.0
301
CELL_VALUE
 90
4
  1
DWG SIZE
304
ACVALUE_END
170
1
140
0.06
171
1
172
0
173
0
174
0
175
1
176
1
 91
33
178
0
145
0.0
301
CELL_VALUE
 90
4
  1
SHEET
304
ACVALUE_END
170
1
140
0.06
171
1
172
0
173
0
174
0
175
1
176
1
 91
33
178
0
145
0.0
301
CELL_VALUE
 90
4
  1
 
304
ACVALUE_END
170
1
140
0.125
171
1
172
0
173
0
174
0
175
1
176
1
 91
33
178
0
145
0.0
301
CELL_VALUE
 90
4
  1
VVU
304
ACVALUE_END
170
5
140
0.125
171
1
172
0
173
0
174
0
175
4
176
1
 91
33
178
0
145
0.0
301
CELL_VALUE
 90
4
  1
ALL DIMENSIONS IN INCH\PVIEWS ARE THIRD ANGLE
304
ACVALUE_END
170
5
140
0.12
171
1
172
0
173
1
174
0
175
1
176
1
 91
1
178
0
145
0.0
170
1
171
1
172
0
173
1
174
0
175
1
176
1
 91
1
178
0
145
0.0
170
1
171
1
172
0
173
1
174
0
175
1
176
1
 91
1
178
0
145
0.0
170
5
171
1
172
0
173
0
174
0
175
1
176
1
 91
33
178
0
145
0.0
301
CELL_VALUE
 90
4
  1
 
304
ACVALUE_END
170
1
140
0.125
171
1
172
0
173
0
174
0
175
1
176
1
 91
33
178
0
145
0.0
301
CELL_VALUE
 90
4
  1
MODEL
304
ACVALUE_END
170
1
140
0.06
171
1
172
0
173
0
174
0
175
1
176
1
 91
33
178
0
145
0.0
301
CELL_VALUE
 90
4
  1
 
304
ACVALUE_END
170
1
140
0.125
171
1
172
0
173
0
174
0
175
1
176
1
 91
33
178
0
145
0.0
301
CELL_VALUE
 90
4
  1
 
304
ACVALUE_END
170
1
140
0.125
171
1
172
0
173
0
174
0
175
1
176
1
 91
33
178
0
145
0.0
301
CELL_VALUE
 90
4
  1
 
304
ACVALUE_END
170
1
140
0.125
171
1
172
0
173
0
174
0
175
1
176
1
 91
33
178
0
145
0.0
301
CELL_VALUE
 90
4
  1
 
304
ACVALUE_END
170
1
140
0.125
171
1
172
0
173
0
174
0
175
1
176
1
 91
33
178
0
145
0.0
301
CELL_VALUE
 90
4
  1
 
304
ACVALUE_END
170
1
140
0.125
  0
ACAD_TABLE
  5
286
100
AcDbEntity
  8
0
 62
2
  6
CONTINUOUS
100
AcDbBlockReference
  2
*T2
 10
12.4237499994
 20
16.47875
 30
0.0
100
AcDbTable
342
       434
343
208
 11
1.0
 21
0.0
 31
0.0
 90
22
 91
10
 92
3
 93
16
 94
0
 95
0
 96
0
 41
0.028
141
0.344
141
0.25
141
0.25
141
0.25
141
0.25
141
0.25
141
0.25
141
0.25
141
0.25
141
0.25
142
3.055
142
3.0
142
3.0
171
1
172
0
173
0
174
0
175
1
176
1
 91
33
178
0
145
0.0
301
CELL_VALUE
 90
4
  1
Technical Data
304
ACVALUE_END
170
5
140
0.145
171
1
172
0
173
0
174
0
175
1
176
1
 91
33
178
0
145
0.0
301
CELL_VALUE
 90
4
  1
U.S. Units
304
ACVALUE_END
170
5
140
0.145
171
1
172
0
173
0
174
0
175
1
176
1
 91
33
178
0
145
0.0
301
CELL_VALUE
 90
4
  1
Metric Units
304
ACVALUE_END
170
5
140
0.145
171
1
172
0
173
0
174
0
175
1
176
1
 91
33
178
0
145
0.0
301
CELL_VALUE
 90
4
  1
Cavity
304
ACVALUE_END
170
5
140
0.125
171
1
172
0
173
0
174
0
175
2
176
1
 91
33
178
0
145
0.0
301
CELL_VALUE
 90
4
  1
T-10A
304
ACVALUE_END
170
5
140
0.125
171
1
172
0
173
1
174
0
175
1
176
1
 91
1
178
0
145
0.0
170
1
171
1
172
0
173
0
174
0
175
1
176
1
 91
33
178
0
145
0.0
301
CELL_VALUE
 90
4
  1
Body Features
304
ACVALUE_END
170
5
140
0.125
171
1
172
0
173
0
174
0
175
2
176
1
 91
33
178
0
145
0.0
301
CELL_VALUE
 90
4
  1
Direct mount, cross port with make up checks
304
ACVALUE_END
170
5
140
0.125
171
1
172
0
173
1
174
0
175
1
176
1
 91
1
178
0
145
0.0
170
1
171
1
172
0
173
0
174
0
175
1
176
1
 91
33
178
0
145
0.0
301
CELL_VALUE
 90
4
  1
Body Type
304
ACVALUE_END
170
5
140
0.125
171
1
172
0
173
0
174
0
175
2
176
1
 91
33
178
0
145
0.0
301
CELL_VALUE
 90
4
  1
Line mount
304
ACVALUE_END
170
5
140
0.125
171
1
172
0
173
1
174
0
175
1
176
1
 91
1
178
0
145
0.0
170
1
171
1
172
0
173
0
174
0
175
1
176
1
 91
33
178
0
145
0.0
301
CELL_VALUE
 90
4
  1
Interface
304
ACVALUE_END
170
5
140
0.125
171
1
172
0
173
0
174
0
175
2
176
1
 91
33
178
0
145
0.0
301
CELL_VALUE
 90
4
  1
Special - 2 bolt
304
ACVALUE_END
170
5
140
0.125
171
1
172
0
173
1
174
0
175
1
176
1
 91
1
178
0
145
0.0
170
1
171
1
172
0
173
0
174
0
175
1
176
1
 91
33
178
0
145
0.0
301
CELL_VALUE
 90
4
  1
Open Cavity Quantity
304
ACVALUE_END
170
5
140
0.125
171
1
172
0
173
0
174
0
175
2
176
1
 91
33
178
0
145
0.0
301
CELL_VALUE
 90
4
  1
2
304
ACVALUE_END
170
5
140
0.125
171
1
172
0
173
1
174
0
175
1
176
1
 91
1
178
0
145
0.0
170
1
171
1
172
0
173
0
174
0
175
1
176
1
 91
33
178
0
145
0.0
301
CELL_VALUE
 90
4
  1
Weight
304
ACVALUE_END
170
5
140
0.125
171
1
172
0
173
0
174
0
175
1
176
1
 91
33
178
0
145
0.0
301
CELL_VALUE
 90
4
  1
3.610 lb.
304
ACVALUE_END
170
5
140
0.125
171
1
172
0
173
0
174
0
175
1
176
1
 91
33
178
0
145
0.0
301
CELL_VALUE
 90
4
  1
1,637 kg.
304
ACVALUE_END
170
5
140
0.125
171
1
172
0
173
0
174
0
175
1
176
1
 91
33
178
0
145
0.0
301
CELL_VALUE
 90
4
  1
Mounting Hole Diameter
304
ACVALUE_END
170
5
140
0.125
171
1
172
0
173
0
174
0
175
1
176
1
 91
33
178
0
145
0.0
301
CELL_VALUE
 90
4
  1
.34 in.
304
ACVALUE_END
170
5
140
0.125
171
1
172
0
173
0
174
0
175
1
176
1
 91
33
178
0
145
0.0
301
CELL_VALUE
 90
4
  1
8.6 mm
304
ACVALUE_END
170
5
140
0.125
171
1
172
0
173
0
174
0
175
1
176
1
 91
33
178
0
145
0.0
301
CELL_VALUE
 90
4
  1
Mounting Hole Depth
304
ACVALUE_END
170
5
140
0.125
171
1
172
0
173
0
174
0
175
2
176
1
 91
33
178
0
145
0.0
301
CELL_VALUE
 90
4
  1
Through
304
ACVALUE_END
170
5
140
0.125
171
1
172
0
173
1
174
0
175
1
176
1
 91
1
178
0
145
0.0
170
1
171
1
172
0
173
0
174
0
175
1
176
1
 91
33
178
0
145
0.0
301
CELL_VALUE
 90
4
  1
Mounting Hole Quantity
304
ACVALUE_END
170
5
140
0.125
171
1
172
0
173
0
174
0
175
2
176
1
 91
33
178
0
145
0.0
301
CELL_VALUE
 90
4
  1
2
304
ACVALUE_END
170
5
140
0.125
171
1
172
0
173
1
174
0
175
1
176
1
 91
1
178
0
145
0.0
170
1
  0
ACAD_TABLE
  5
287
100
AcDbEntity
  8
0
 62
2
  6
CONTINUOUS
100
AcDbBlockReference
  2
*T3
 10
0.52125
 20
1.709
 30
0.0
100
AcDbTable
342
       434
343
209
 11
1.0
 21
0.0
 31
0.0
 90
22
 91
4
 92
3
 93
16
 94
0
 95
0
 96
0
 41
0.05
141
0.34375
141
0.344
141
0.25
141
0.25
142
1.3
142
2.0
142
1.3
171
1
172
0
173
0
174
0
175
3
176
1
 91
33
178
0
145
0.0
301
CELL_VALUE
 90
4
  1
Port Headings
304
ACVALUE_END
170
5
140
0.145
171
1
172
0
173
1
174
0
175
1
176
1
 91
1
178
0
145
0.0
170
1
171
1
172
0
173
1
174
0
175
1
176
1
 91
1
178
0
145
0.0
170
1
171
1
172
0
173
0
174
0
175
1
176
1
 91
33
178
0
145
0.0
301
CELL_VALUE
 90
4
  1
Product
304
ACVALUE_END
170
5
140
0.145
171
1
172
0
173
0
174
0
175
1
176
1
 91
33
178
0
145
0.0
301
CELL_VALUE
 90
4
  1
Port
304
ACVALUE_END
170
5
140
0.145
171
1
172
0
173
0
174
0
175
1
176
1
 91
33
178
0
145
0.0
301
CELL_VALUE
 90
4
  1
Size
304
ACVALUE_END
170
5
140
0.145
171
1
172
0
173
0
174
0
175
1
176
1
 91
33
178
0
145
0.0
301
CELL_VALUE
 90
4
  1
VVU
304
ACVALUE_END
170
5
140
0.125
171
1
172
0
173
0
174
0
175
1
176
1
 91
33
178
0
145
0.0
301
CELL_VALUE
 90
4
  1
Ports A & B
304
ACVALUE_END
170
5
140
0.125
171
1
172
0
173
0
174
0
175
1
176
1
 91
33
178
0
145
0.0
301
CELL_VALUE
 90
4
  1
SAE 8
304
ACVALUE_END
170
5
140
0.125
171
1
172
0
173
0
174
0
175
1
176
1
 91
33
178
0
145
0.0
301
CELL_VALUE
 90
4
  1
VVU
304
ACVALUE_END
170
5
140
0.125
171
1
172
0
173
0
174
0
175
1
176
1
 91
33
178
0
145
0.0
301
CELL_VALUE
 90
4
  1
Port T
304
ACVALUE_END
170
5
140
0.125
171
1
172
0
173
0
174
0
175
1
176
1
 91
33
178
0
145
0.0
301
CELL_VALUE
 90
4
  1
SAE 8
304
ACVALUE_END
170
5
140
0.125
  0
MTEXT
  5
288
100
AcDbEntity
  8
0
100
AcDbMText
 62
2
  6
CONTINUOUS
  7
STANDARD
 71
1
 72
1
 10
0.52125
 20
5.75995
 30
0.0
 11
1.0
 21
0.0
 31
0.0
 44
0.6
  3
Notes\P \P1. Important: Carefully consider\P   the maximum system pressure. The\P   pressure rating of the manifold is\P   dependent on the manifold material,\P   with the port type/size a secondary\P   consideration. Manifolds\P   constructed of alu
  1
minum are not\P   rated for pressures higher than\P   3000 psi (210 bar), regardless of\P   the port type/size specified.
 40
0.1
 41
3.04
  0
LINE
  5
289
100
AcDbEntity
  8
0
100
AcDbLine
 62
7
  6
CONTINUOUS
 10
0.30125
 20
0.30125
 11
0.30125
 21
16.69875
  0
LINE
  5
28A
100
AcDbEntity
  8
0
100
AcDbLine
 62
7
  6
CONTINUOUS
 10
0.30125
 20
0.30125
 11
21.69875
 21
0.30125
  0
LINE
  5
28B
100
AcDbEntity
  8
0
100
AcDbLine
 62
7
  6
CONTINUOUS
 10
0.30125
 20
16.69875
 11
21.69875
 21
16.69875
  0
LINE
  5
28C
100
AcDbEntity
  8
0
100
AcDbLine
 62
7
  6
CONTINUOUS
 10
21.69875
 20
0.30125
 11
21.69875
 21
16.69875
  0
LINE
  5
28D
100
AcDbEntity
  8
0
100
AcDbLine
 62
7
  6
CONTINUOUS
 10
9.4880722025
 20
10.9604213686
 11
8.7923671928
 21
10.2884218924
  0
LINE
  5
28E
100
AcDbEntity
  8
0
100
AcDbLine
 62
7
  6
CONTINUOUS
 10
8.7923671928
 20
10.2884218924
 11
8.7923671928
 21
6.2740337878
  0
LINE
  5
28F
100
AcDbEntity
  8
0
100
AcDbLine
 62
7
  6
CONTINUOUS
 10
8.7923671928
 20
6.2740337878
 11
12.1731077851
 21
6.0395786314
  0
LINE
  5
290
100
AcDbEntity
  8
0
100
AcDbLine
 62
7
  6
CONTINUOUS
 10
12.6353168166
 20
6.7619933701
 11
13.0559160423
 21
6.7328247147
  0
LINE
  5
291
100
AcDbEntity
  8
0
100
AcDbLine
 62
7
  6
CONTINUOUS
 10
12.3897687113
 20
6.8299011962
 11
12.5404164303
 21
6.8194537414
  0
LINE
  5
292
100
AcDbEntity
  8
0
100
AcDbLine
 62
4
  6
CONTINUOUS
 10
10.7531967087
 20
6.8624942121
 11
10.6372856052
 21
6.9067548943
  0
LINE
  5
293
100
AcDbEntity
  8
0
100
AcDbLine
 62
4
  6
CONTINUOUS
 10
9.7168962526
 20
7.5994708816
 11
9.7003375246
 21
7.6171779631
  0
LINE
  5
294
100
AcDbEntity
  8
0
100
AcDbLine
 62
4
  6
CONTINUOUS
 10
9.7003375246
 20
7.6171779631
 11
9.7003375246
 21
7.650295421
  0
LINE
  5
295
100
AcDbEntity
  8
0
100
AcDbLine
 62
4
  6
CONTINUOUS
 10
9.7003375246
 20
8.5168688949
 11
9.7003375246
 21
8.5196286725
  0
LINE
  5
296
100
AcDbEntity
  8
0
100
AcDbLine
 62
4
  6
CONTINUOUS
 10
10.6372856052
 20
6.9067548943
 11
10.7531967087
 21
6.9349386518
  0
LINE
  5
297
100
AcDbEntity
  8
0
100
AcDbLine
 62
7
  6
CONTINUOUS
 10
12.537408639
 20
6.8783843166
 11
12.9580078648
 21
6.8492156613
  0
LINE
  5
298
100
AcDbEntity
  8
0
100
AcDbLine
 62
7
  6
CONTINUOUS
 10
11.6934113281
 20
6.9628967005
 11
11.7737151073
 21
6.9573276145
  0
LINE
  5
299
100
AcDbEntity
  8
0
100
AcDbLine
 62
7
  6
CONTINUOUS
 10
12.5297440335
 20
6.9205257088
 11
12.9503432592
 21
6.8913570534
  0
LINE
  5
29A
100
AcDbEntity
  8
0
100
AcDbLine
 62
7
  6
CONTINUOUS
 10
11.2997738682
 20
7.0528456662
 11
11.4562538613
 21
7.0419937418
  0
LINE
  5
29B
100
AcDbEntity
  8
0
100
AcDbLine
 62
7
  6
CONTINUOUS
 10
11.475572379
 20
7.0406539981
 11
11.4861975637
 21
7.039917139
  0
LINE
  5
29C
100
AcDbEntity
  8
0
100
AcDbLine
 62
7
  6
CONTINUOUS
 10
11.5055160814
 20
7.0385773953
 11
11.6434928704
 21
7.0290086724
  0
LINE
  5
29D
100
AcDbEntity
  8
0
100
AcDbLine
 62
4
  6
CONTINUOUS
 10
9.816248628
 20
7.6339775946
 11
9.7996898982
 21
7.6516846745
  0
LINE
  5
29E
100
AcDbEntity
  8
0
100
AcDbLine
 62
4
  6
CONTINUOUS
 10
9.816248628
 20
7.7250506094
 11
9.7996898982
 21
7.7427576824
  0
LINE
  5
29F
100
AcDbEntity
  8
0
100
AcDbLine
 62
4
  6
CONTINUOUS
 10
9.7417343482
 20
8.1165885416
 11
9.7334549807
 21
8.1337214389
  0
LINE
  5
2A0
100
AcDbEntity
  8
0
100
AcDbLine
 62
4
  6
CONTINUOUS
 10
9.7334549807
 20
8.3158674822
 11
9.7334549807
 21
8.2744706517
  0
LINE
  5
2A1
100
AcDbEntity
  8
0
100
AcDbLine
 62
4
  6
CONTINUOUS
 10
9.7334549807
 20
7.9626145614
 11
9.7334549807
 21
8.0040113919
  0
LINE
  5
2A2
100
AcDbEntity
  8
0
100
AcDbLine
 62
4
  6
CONTINUOUS
 10
9.7334549807
 20
8.1337214389
 11
9.7334549807
 21
8.1668388812
  0
LINE
  5
2A3
100
AcDbEntity
  8
0
100
AcDbLine
 62
4
  6
CONTINUOUS
 10
9.7334549807
 20
8.1999563788
 11
9.7334549807
 21
8.2330738211
  0
LINE
  5
2A4
100
AcDbEntity
  8
0
100
AcDbLine
 62
4
  6
CONTINUOUS
 10
9.7334549807
 20
8.5670081326
 11
9.7334549807
 21
8.6001256855
  0
LINE
  5
2A5
100
AcDbEntity
  8
0
100
AcDbLine
 62
4
  6
CONTINUOUS
 10
9.7334549807
 20
8.6415224608
 11
9.7334549807
 21
8.6746399031
  0
LINE
  5
2A6
100
AcDbEntity
  8
0
100
AcDbLine
 62
4
  6
CONTINUOUS
 10
9.7748518044
 20
8.2881584934
 11
9.7748518044
 21
8.3212759357
  0
LINE
  5
2A7
100
AcDbEntity
  8
0
100
AcDbLine
 62
4
  6
CONTINUOUS
 10
9.816248628
 20
8.5943839266
 11
9.816248628
 21
8.5612663737
  0
LINE
  5
2A8
100
AcDbEntity
  8
0
100
AcDbLine
 62
4
  6
CONTINUOUS
 10
9.816248628
 20
8.4591542691
 11
9.816248628
 21
8.4425955479
  0
LINE
  5
2A9
100
AcDbEntity
  8
0
100
AcDbLine
 62
4
  6
CONTINUOUS
 10
9.816248628
 20
8.3184050562
 11
9.816248628
 21
8.2852876139
  0
LINE
  5
2AA
100
AcDbEntity
  8
0
100
AcDbLine
 62
4
  6
CONTINUOUS
 10
9.816248628
 20
8.1610971223
 11
9.816248628
 21
8.1279796799
  0
LINE
  5
2AB
100
AcDbEntity
  8
0
100
AcDbLine
 62
4
  6
CONTINUOUS
 10
9.816248628
 20
7.6008601359
 11
9.816248628
 21
7.6339775946
  0
LINE
  5
2AC
100
AcDbEntity
  8
0
100
AcDbLine
 62
4
  6
CONTINUOUS
 10
9.816248628
 20
7.7002125069
 11
9.816248628
 21
7.7250506094
  0
LINE
  5
2AD
100
AcDbEntity
  8
0
100
AcDbLine
 62
4
  6
CONTINUOUS
 10
9.816248628
 20
8.3598018868
 11
9.816248628
 21
8.4011987173
  0
LINE
  5
2AE
100
AcDbEntity
  8
0
100
AcDbLine
 62
4
  6
CONTINUOUS
 10
9.816248628
 20
8.6357807019
 11
9.816248628
 21
8.6688981442
  0
LINE
  5
2AF
100
AcDbEntity
  8
0
100
AcDbLine
 62
4
  6
CONTINUOUS
 10
9.8438465098
 20
8.0377525439
 11
9.8438465098
 21
8.0543112651
  0
LINE
  5
2B0
100
AcDbEntity
  8
0
100
AcDbLine
 62
4
  6
CONTINUOUS
 10
9.7776115924
 20
8.6715776317
 11
9.7720920163
 21
8.6388429733
  0
LINE
  5
2B1
100
AcDbEntity
  8
0
100
AcDbLine
 62
4
  6
CONTINUOUS
 10
9.7831311684
 20
8.6794741808
 11
9.7776115924
 21
8.6715776317
  0
LINE
  5
2B2
100
AcDbEntity
  8
0
100
AcDbLine
 62
4
  6
CONTINUOUS
 10
9.7720920163
 20
8.6388429733
 11
9.7665724403
 21
8.6309464242
  0
LINE
  5
2B3
100
AcDbEntity
  8
0
100
AcDbLine
 62
7
  6
CONTINUOUS
 10
11.4133903122
 20
7.2176967676
 11
11.4270019705
 21
7.2169888965
  0
LINE
  5
2B4
100
AcDbEntity
  8
0
100
AcDbLine
 62
4
  6
CONTINUOUS
 10
9.7831311684
 20
8.2710255964
 11
9.7748518044
 21
8.2881584934
  0
LINE
  5
2B5
100
AcDbEntity
  8
0
100
AcDbLine
 62
4
  6
CONTINUOUS
 10
9.816248628
 20
8.2852876139
 11
9.8079692631
 21
8.2693030686
  0
LINE
  5
2B6
100
AcDbEntity
  8
0
100
AcDbLine
 62
4
  6
CONTINUOUS
 10
9.816248628
 20
8.1279796799
 11
9.8079692631
 21
8.1119951347
  0
LINE
  5
2B7
100
AcDbEntity
  8
0
100
AcDbLine
 62
4
  6
CONTINUOUS
 10
9.7334549807
 20
8.6746399031
 11
9.7417343482
 21
8.68234506
  0
LINE
  5
2B8
100
AcDbEntity
  8
0
100
AcDbLine
 62
4
  6
CONTINUOUS
 10
9.8079692631
 20
8.6280755448
 11
9.816248628
 21
8.6357807019
  0
LINE
  5
2B9
100
AcDbEntity
  8
0
100
AcDbLine
 62
4
  6
CONTINUOUS
 10
10.6469448616
 20
9.4295663099
 11
10.6372856052
 21
9.4229917376
  0
LINE
  5
2BA
100
AcDbEntity
  8
0
100
AcDbLine
 62
4
  6
CONTINUOUS
 10
10.7049004167
 20
9.4327915224
 11
10.6855819006
 21
9.4196423782
  0
LINE
  5
2BB
100
AcDbEntity
  8
0
100
AcDbLine
 62
7
  6
CONTINUOUS
 10
12.5297440335
 20
7.3424516877
 11
12.9503432592
 21
7.3132830323
  0
LINE
  5
2BC
100
AcDbEntity
  8
0
100
AcDbLine
 62
7
  6
CONTINUOUS
 10
12.537408639
 20
7.3993999617
 11
12.9580078648
 21
7.3702313063
  0
LINE
  5
2BD
100
AcDbEntity
  8
0
100
AcDbLine
 62
4
  6
CONTINUOUS
 10
9.7334549807
 20
7.5983225299
 11
9.7168962526
 21
7.5994708816
  0
LINE
  5
2BE
100
AcDbEntity
  8
0
100
AcDbLine
 62
4
  6
CONTINUOUS
 10
9.7996898982
 20
7.6516846745
 11
9.7831311684
 21
7.6528330263
  0
LINE
  5
2BF
100
AcDbEntity
  8
0
100
AcDbLine
 62
4
  6
CONTINUOUS
 10
9.7003375246
 20
7.6916922412
 11
9.7996898982
 21
7.6848021306
  0
LINE
  5
2C0
100
AcDbEntity
  8
0
100
AcDbLine
 62
4
  6
CONTINUOUS
 10
10.4073952555
 20
7.6785348815
 11
10.2914841521
 21
7.6865733438
  0
LINE
  5
2C1
100
AcDbEntity
  8
0
100
AcDbLine
 62
4
  6
CONTINUOUS
 10
10.4073952555
 20
7.7834068259
 11
10.2914841521
 21
7.8245627444
  0
LINE
  5
2C2
100
AcDbEntity
  8
0
100
AcDbLine
 62
4
  6
CONTINUOUS
 10
10.3908365257
 20
7.7376387781
 11
10.4073952555
 21
7.7199316982
  0
LINE
  5
2C3
100
AcDbEntity
  8
0
100
AcDbLine
 62
4
  6
CONTINUOUS
 10
9.7417343482
 20
8.5581546236
 11
9.7334549807
 21
8.5670081326
  0
LINE
  5
2C4
100
AcDbEntity
  8
0
100
AcDbLine
 62
4
  6
CONTINUOUS
 10
10.3356407603
 20
7.6614327651
 11
10.3577190678
 21
7.6157450176
  0
LINE
  5
2C5
100
AcDbEntity
  8
0
100
AcDbLine
 62
4
  6
CONTINUOUS
 10
10.1523908279
 20
8.1957411379
 11
10.1523908279
 21
8.2205792197
  0
LINE
  5
2C6
100
AcDbEntity
  8
0
100
AcDbLine
 62
4
  6
CONTINUOUS
 10
10.2914841521
 20
7.6865733438
 11
10.2914841521
 21
7.7279701605
  0
LINE
  5
2C7
100
AcDbEntity
  8
0
100
AcDbLine
 62
4
  6
CONTINUOUS
 10
10.2914841521
 20
7.8907976567
 11
10.2914841521
 21
7.957032569
  0
LINE
  5
2C8
100
AcDbEntity
  8
0
100
AcDbLine
 62
4
  6
CONTINUOUS
 10
10.2914841521
 20
7.990150039
 11
10.2914841521
 21
8.0398262301
  0
LINE
  5
2C9
100
AcDbEntity
  8
0
100
AcDbLine
 62
4
  6
CONTINUOUS
 10
10.2914841521
 20
8.1805754429
 11
10.2914841521
 21
8.2136928853
  0
LINE
  5
2CA
100
AcDbEntity
  8
0
100
AcDbLine
 62
4
  6
CONTINUOUS
 10
10.2914841521
 20
8.2771679923
 11
10.2914841521
 21
8.3020061017
  0
LINE
  5
2CB
100
AcDbEntity
  8
0
100
AcDbLine
 62
4
  6
CONTINUOUS
 10
10.2914841521
 20
8.3516822651
 11
10.2914841521
 21
8.3930790957
  0
LINE
  5
2CC
100
AcDbEntity
  8
0
100
AcDbLine
 62
4
  6
CONTINUOUS
 10
10.2914841521
 20
8.456554258
 11
10.2914841521
 21
8.5062304215
  0
LINE
  5
2CD
100
AcDbEntity
  8
0
100
AcDbLine
 62
4
  6
CONTINUOUS
 10
10.3411603363
 20
8.4862266452
 11
10.3411603363
 21
8.4531092029
  0
LINE
  5
2CE
100
AcDbEntity
  8
0
100
AcDbLine
 62
4
  6
CONTINUOUS
 10
10.3411603363
 20
8.0198224539
 11
10.3411603363
 21
7.9867049839
  0
LINE
  5
2CF
100
AcDbEntity
  8
0
100
AcDbLine
 62
4
  6
CONTINUOUS
 10
9.816248628
 20
8.5612663737
 11
9.8079692631
 21
8.5535612167
  0
LINE
  5
2D0
100
AcDbEntity
  8
0
100
AcDbLine
 62
4
  6
CONTINUOUS
 10
9.816248628
 20
8.4425955479
 11
9.8079692631
 21
8.4348903356
  0
LINE
  5
2D1
100
AcDbEntity
  8
0
100
AcDbLine
 62
4
  6
CONTINUOUS
 10
9.8079692631
 20
8.3520966745
 11
9.816248628
 21
8.3598018868
  0
LINE
  5
2D2
100
AcDbEntity
  8
0
100
AcDbLine
 62
4
  6
CONTINUOUS
 10
9.7996898982
 20
7.7427576824
 11
9.7003375246
 21
7.7496477929
  0
LINE
  5
2D3
100
AcDbEntity
  8
0
100
AcDbLine
 62
4
  6
CONTINUOUS
 10
9.816248628
 20
7.7747267867
 11
9.7003375246
 21
7.782765249
  0
LINE
  5
2D4
100
AcDbEntity
  8
0
100
AcDbLine
 62
4
  6
CONTINUOUS
 10
10.3080428801
 20
7.7433805369
 11
10.3908365257
 21
7.7376387781
  0
LINE
  5
2D5
100
AcDbEntity
  8
0
100
AcDbLine
 62
4
  6
CONTINUOUS
 10
9.816248628
 20
7.8326823384
 11
9.7003375246
 21
7.8407208007
  0
LINE
  5
2D6
100
AcDbEntity
  8
0
100
AcDbLine
 62
7
  6
CONTINUOUS
 10
12.4489860543
 20
7.6828480354
 11
12.5991513595
 21
7.6724340361
  0
LINE
  5
2D7
100
AcDbEntity
  8
0
100
AcDbLine
 62
7
  6
CONTINUOUS
 10
12.6353168166
 20
7.7049349941
 11
13.0559160423
 21
7.6757663387
  0
LINE
  5
2D8
100
AcDbEntity
  8
0
100
AcDbLine
 62
7
  6
CONTINUOUS
 10
12.6506460277
 20
7.7197418759
 11
13.0712452535
 21
7.6905732205
  0
LINE
  5
2D9
100
AcDbEntity
  8
0
100
AcDbLine
 62
4
  6
CONTINUOUS
 10
10.1523908279
 20
8.0191146948
 11
10.0364797245
 21
8.0602706167
  0
LINE
  5
2DA
100
AcDbEntity
  8
0
100
AcDbLine
 62
4
  6
CONTINUOUS
 10
10.1523908279
 20
8.1157072821
 11
10.0364797245
 21
8.1568632006
  0
LINE
  5
2DB
100
AcDbEntity
  8
0
100
AcDbLine
 62
4
  6
CONTINUOUS
 10
9.8438465098
 20
8.0543112651
 11
9.7334549807
 21
8.095084386
  0
LINE
  5
2DC
100
AcDbEntity
  8
0
100
AcDbLine
 62
4
  6
CONTINUOUS
 10
9.7417343482
 20
8.6326689518
 11
9.7334549807
 21
8.6415224608
  0
LINE
  5
2DD
100
AcDbEntity
  8
0
100
AcDbLine
 62
4
  6
CONTINUOUS
 10
10.1523908279
 20
8.2205792197
 11
10.1358320981
 21
8.2382863203
  0
LINE
  5
2DE
100
AcDbEntity
  8
0
100
AcDbLine
 62
4
  6
CONTINUOUS
 10
9.816248628
 20
8.6688981442
 11
9.8079692631
 21
8.677751653
  0
LINE
  5
2DF
100
AcDbEntity
  8
0
100
AcDbLine
 62
4
  6
CONTINUOUS
 10
10.3080428801
 20
8.1628683701
 11
10.2914841521
 21
8.1805754429
  0
LINE
  5
2E0
100
AcDbEntity
  8
0
100
AcDbLine
 62
4
  6
CONTINUOUS
 10
10.3080428801
 20
8.2594609194
 11
10.2914841521
 21
8.2771679923
  0
LINE
  5
2E1
100
AcDbEntity
  8
0
100
AcDbLine
 62
4
  6
CONTINUOUS
 10
10.3742777959
 20
7.7967426816
 11
10.3742777959
 21
7.8408992898
  0
LINE
  5
2E2
100
AcDbEntity
  8
0
100
AcDbLine
 62
4
  6
CONTINUOUS
 10
10.4073952555
 20
8.3850406334
 11
10.4073952555
 21
8.3436438028
  0
LINE
  5
2E3
100
AcDbEntity
  8
0
100
AcDbLine
 62
4
  6
CONTINUOUS
 10
10.4073952555
 20
8.2939676393
 11
10.4073952555
 21
8.2691295299
  0
LINE
  5
2E4
100
AcDbEntity
  8
0
100
AcDbLine
 62
4
  6
CONTINUOUS
 10
10.4073952555
 20
8.2056544229
 11
10.4073952555
 21
8.1725369806
  0
LINE
  5
2E5
100
AcDbEntity
  8
0
100
AcDbLine
 62
4
  6
CONTINUOUS
 10
10.4073952555
 20
7.7199316982
 11
10.4073952555
 21
7.6785348815
  0
LINE
  5
2E6
100
AcDbEntity
  8
0
100
AcDbLine
 62
4
  6
CONTINUOUS
 10
10.4073952555
 20
7.9821115766
 11
10.4073952555
 21
8.0317877678
  0
LINE
  5
2E7
100
AcDbEntity
  8
0
100
AcDbLine
 62
4
  6
CONTINUOUS
 10
10.4073952555
 20
8.4485157957
 11
10.4073952555
 21
8.4981919592
  0
LINE
  5
2E8
100
AcDbEntity
  8
0
100
AcDbLine
 62
4
  6
CONTINUOUS
 10
10.3356407603
 20
8.5362855926
 11
10.3577190678
 21
8.578911065
  0
LINE
  5
2E9
100
AcDbEntity
  8
0
100
AcDbLine
 62
7
  6
CONTINUOUS
 10
11.3183749617
 20
9.5192493993
 11
11.3057861635
 21
9.5075330762
  0
LINE
  5
2EA
100
AcDbEntity
  8
0
100
AcDbLine
 62
4
  6
CONTINUOUS
 10
9.7334549807
 20
8.0040113919
 11
9.7417343482
 21
8.0117165764
  0
LINE
  5
2EB
100
AcDbEntity
  8
0
100
AcDbLine
 62
4
  6
CONTINUOUS
 10
9.7334549807
 20
8.2330738211
 11
9.7417343482
 21
8.2380192003
  0
LINE
  5
2EC
100
AcDbEntity
  8
0
100
AcDbLine
 62
4
  6
CONTINUOUS
 10
10.2914841521
 20
7.8245627444
 11
10.4073952555
 21
7.849641752
  0
LINE
  5
2ED
100
AcDbEntity
  8
0
100
AcDbLine
 62
4
  6
CONTINUOUS
 10
10.4073952555
 20
7.9158766643
 11
10.2914841521
 21
7.9239151267
  0
LINE
  5
2EE
100
AcDbEntity
  8
0
100
AcDbLine
 62
4
  6
CONTINUOUS
 10
9.816248628
 20
7.9568728024
 11
9.7003375246
 21
7.9649112648
  0
LINE
  5
2EF
100
AcDbEntity
  8
0
100
AcDbLine
 62
4
  6
CONTINUOUS
 10
9.7417343482
 20
8.0117165764
 11
9.816248628
 21
8.0065489936
  0
LINE
  5
2F0
100
AcDbEntity
  8
0
100
AcDbLine
 62
4
  6
CONTINUOUS
 10
10.4073952555
 20
7.9821115766
 11
10.2914841521
 21
7.990150039
  0
LINE
  5
2F1
100
AcDbEntity
  8
0
100
AcDbLine
 62
4
  6
CONTINUOUS
 10
9.8079692631
 20
8.1119951347
 11
9.7417343482
 21
8.1165885416
  0
LINE
  5
2F2
100
AcDbEntity
  8
0
100
AcDbLine
 62
4
  6
CONTINUOUS
 10
9.7003375246
 20
8.1691355846
 11
9.816248628
 21
8.1610971223
  0
LINE
  5
2F3
100
AcDbEntity
  8
0
100
AcDbLine
 62
4
  6
CONTINUOUS
 10
9.7003375246
 20
8.5196286725
 11
9.7086168921
 21
8.5162947188
  0
LINE
  5
2F4
100
AcDbEntity
  8
0
100
AcDbLine
 62
4
  6
CONTINUOUS
 10
10.3908365257
 20
8.3116747123
 11
10.4073952555
 21
8.2939676393
  0
LINE
  5
2F5
100
AcDbEntity
  8
0
100
AcDbLine
 62
4
  6
CONTINUOUS
 10
10.3908365257
 20
8.4027477064
 11
10.4073952555
 21
8.3850406334
  0
LINE
  5
2F6
100
AcDbEntity
  8
0
100
AcDbLine
 62
7
  6
CONTINUOUS
 10
11.4581676207
 20
7.0513951057
 11
11.449820693
 21
7.0616580895
  0
LINE
  5
2F7
100
AcDbEntity
  8
0
100
AcDbLine
 62
7
  6
CONTINUOUS
 10
11.4881113231
 20
7.0493185029
 11
11.4797643954
 21
7.0595814867
  0
LINE
  5
2F8
100
AcDbEntity
  8
0
100
AcDbLine
 62
7
  6
CONTINUOUS
 10
11.6637815765
 20
6.9862940868
 11
11.6721285042
 21
6.976031103
  0
LINE
  5
2F9
100
AcDbEntity
  8
0
100
AcDbLine
 62
4
  6
CONTINUOUS
 10
10.3577190678
 20
8.578911065
 11
10.3797973736
 21
8.5332233211
  0
LINE
  5
2FA
100
AcDbEntity
  8
0
100
AcDbLine
 62
4
  6
CONTINUOUS
 10
10.6372856052
 20
9.4229917376
 11
10.6372856052
 21
9.3722806299
  0
LINE
  5
2FB
100
AcDbEntity
  8
0
100
AcDbLine
 62
4
  6
CONTINUOUS
 10
10.6855819006
 20
9.3689312704
 11
10.6855819006
 21
9.4196423782
  0
LINE
  5
2FC
100
AcDbEntity
  8
0
100
AcDbLine
 62
4
  6
CONTINUOUS
 10
10.714559673
 20
6.8796625876
 11
10.714559673
 21
6.9231292514
  0
LINE
  5
2FD
100
AcDbEntity
  8
0
100
AcDbLine
 62
4
  6
CONTINUOUS
 10
10.7531967087
 20
9.3642421675
 11
10.7531967087
 21
9.4149532753
  0
LINE
  5
2FE
100
AcDbEntity
  8
0
100
AcDbLine
 62
4
  6
CONTINUOUS
 10
9.7831311684
 20
7.6528330263
 11
9.7334549807
 21
7.5983225299
  0
LINE
  5
2FF
100
AcDbEntity
  8
0
100
AcDbLine
 62
7
  6
CONTINUOUS
 10
12.8688127948
 20
10.7259662122
 11
12.1731077851
 21
10.053966736
  0
LINE
  5
300
100
AcDbEntity
  8
0
100
AcDbLine
 62
4
  6
CONTINUOUS
 10
10.2914841521
 20
8.3930790957
 11
10.3080428801
 21
8.4084894652
  0
LINE
  5
301
100
AcDbEntity
  8
0
100
AcDbLine
 62
4
  6
CONTINUOUS
 10
10.1358320981
 20
8.1803307548
 11
10.1523908279
 21
8.1957411379
  0
LINE
  5
302
100
AcDbEntity
  8
0
100
AcDbLine
 62
4
  6
CONTINUOUS
 10
10.2914841521
 20
8.3020061017
 11
10.3080428801
 21
8.3174164711
  0
LINE
  5
303
100
AcDbEntity
  8
0
100
AcDbLine
 62
4
  6
CONTINUOUS
 10
9.7003375246
 20
7.650295421
 11
9.7086168921
 21
7.6580006089
  0
LINE
  5
304
100
AcDbEntity
  8
0
100
AcDbLine
 62
4
  6
CONTINUOUS
 10
10.4073952555
 20
8.2691295299
 11
10.3908365257
 21
8.2537191606
  0
LINE
  5
305
100
AcDbEntity
  8
0
100
AcDbLine
 62
4
  6
CONTINUOUS
 10
9.7996898982
 20
7.6848021306
 11
9.816248628
 21
7.7002125069
  0
LINE
  5
306
100
AcDbEntity
  8
0
100
AcDbLine
 62
4
  6
CONTINUOUS
 10
9.7500137088
 20
8.3229984635
 11
9.7334549807
 21
8.3158674822
  0
LINE
  5
307
100
AcDbEntity
  8
0
100
AcDbLine
 62
4
  6
CONTINUOUS
 10
10.0364797245
 20
7.9940356975
 11
10.1523908279
 21
8.0191146948
  0
LINE
  5
308
100
AcDbEntity
  8
0
100
AcDbLine
 62
4
  6
CONTINUOUS
 10
10.0364797245
 20
8.0906282814
 11
10.1523908279
 21
8.1157072821
  0
LINE
  5
309
100
AcDbEntity
  8
0
100
AcDbLine
 62
4
  6
CONTINUOUS
 10
9.816248628
 20
8.1942146199
 11
9.7334549807
 21
8.1999563788
  0
LINE
  5
30A
100
AcDbEntity
  8
0
100
AcDbLine
 62
4
  6
CONTINUOUS
 10
10.3908365257
 20
8.1571266112
 11
10.3080428801
 21
8.1628683701
  0
LINE
  5
30B
100
AcDbEntity
  8
0
100
AcDbLine
 62
4
  6
CONTINUOUS
 10
10.0364797245
 20
8.1872208653
 11
10.1358320981
 21
8.1803307548
  0
LINE
  5
30C
100
AcDbEntity
  8
0
100
AcDbLine
 62
4
  6
CONTINUOUS
 10
9.7417343482
 20
8.2380192003
 11
9.7582930763
 21
8.2368708487
  0
LINE
  5
30D
100
AcDbEntity
  8
0
100
AcDbLine
 62
4
  6
CONTINUOUS
 10
10.1358320981
 20
8.2382863203
 11
10.0364797245
 21
8.2451764308
  0
LINE
  5
30E
100
AcDbEntity
  8
0
100
AcDbLine
 62
4
  6
CONTINUOUS
 10
9.8079692631
 20
8.2693030686
 11
9.7831311684
 21
8.2710255964
  0
LINE
  5
30F
100
AcDbEntity
  8
0
100
AcDbLine
 62
4
  6
CONTINUOUS
 10
10.3908365257
 20
8.2537191606
 11
10.3080428801
 21
8.2594609194
  0
LINE
  5
310
100
AcDbEntity
  8
0
100
AcDbLine
 62
4
  6
CONTINUOUS
 10
9.816248628
 20
8.3184050562
 11
9.7500137088
 21
8.3229984635
  0
LINE
  5
311
100
AcDbEntity
  8
0
100
AcDbLine
 62
4
  6
CONTINUOUS
 10
9.7334549807
 20
8.3572642575
 11
9.8079692631
 21
8.3520966745
  0
LINE
  5
312
100
AcDbEntity
  8
0
100
AcDbLine
 62
4
  6
CONTINUOUS
 10
10.3080428801
 20
8.3174164711
 11
10.3908365257
 21
8.3116747123
  0
LINE
  5
313
100
AcDbEntity
  8
0
100
AcDbLine
 62
4
  6
CONTINUOUS
 10
10.4073952555
 20
8.3436438028
 11
10.2914841521
 21
8.3516822651
  0
LINE
  5
314
100
AcDbEntity
  8
0
100
AcDbLine
 62
4
  6
CONTINUOUS
 10
10.3577190678
 20
7.6157450176
 11
10.3797973736
 21
7.6583704935
  0
LINE
  5
315
100
AcDbEntity
  8
0
100
AcDbLine
 62
7
  6
CONTINUOUS
 10
12.5835769803
 20
10.1635324897
 11
12.5846216304
 21
10.1645231392
  0
LINE
  5
316
100
AcDbEntity
  8
0
100
AcDbLine
 62
7
  6
CONTINUOUS
 10
12.6429814221
 20
10.2188172195
 11
12.644176155
 21
10.2199501971
  0
LINE
  5
317
100
AcDbEntity
  8
0
100
AcDbLine
 62
4
  6
CONTINUOUS
 10
10.4073952555
 20
8.1725369806
 11
10.3908365257
 21
8.1571266112
  0
LINE
  5
318
100
AcDbEntity
  8
0
100
AcDbLine
 62
4
  6
CONTINUOUS
 10
9.8079692631
 20
7.5931549469
 11
9.816248628
 21
7.6008601359
  0
LINE
  5
319
100
AcDbEntity
  8
0
100
AcDbLine
 62
7
  6
CONTINUOUS
 10
12.5846214518
 20
10.164522973
 11
12.6441761509
 21
10.2199501934
  0
LINE
  5
31A
100
AcDbEntity
  8
0
100
AcDbLine
 62
4
  6
CONTINUOUS
 10
9.7334549807
 20
8.0454082225
 11
9.816248628
 21
8.0645045729
  0
LINE
  5
31B
100
AcDbEntity
  8
0
100
AcDbLine
 62
4
  6
CONTINUOUS
 10
9.816248628
 20
8.4011987173
 11
9.7334549807
 21
8.4069404763
  0
LINE
  5
31C
100
AcDbEntity
  8
0
100
AcDbLine
 62
4
  6
CONTINUOUS
 10
9.8079692631
 20
8.4348903356
 11
9.7003375246
 21
8.442354622
  0
LINE
  5
31D
100
AcDbEntity
  8
0
100
AcDbLine
 62
4
  6
CONTINUOUS
 10
10.3080428801
 20
8.4084894652
 11
10.3908365257
 21
8.4027477064
  0
LINE
  5
31E
100
AcDbEntity
  8
0
100
AcDbLine
 62
4
  6
CONTINUOUS
 10
10.4073952555
 20
8.4485157957
 11
10.2914841521
 21
8.456554258
  0
LINE
  5
31F
100
AcDbEntity
  8
0
100
AcDbLine
 62
4
  6
CONTINUOUS
 10
9.816248628
 20
8.5088304326
 11
9.7334549807
 21
8.5145721915
  0
LINE
  5
320
100
AcDbEntity
  8
0
100
AcDbLine
 62
4
  6
CONTINUOUS
 10
9.7086168921
 20
8.5162947188
 11
9.7003375246
 21
8.5168688949
  0
LINE
  5
321
100
AcDbEntity
  8
0
100
AcDbLine
 62
4
  6
CONTINUOUS
 10
9.8079692631
 20
8.5535612167
 11
9.7417343482
 21
8.5581546236
  0
LINE
  5
322
100
AcDbEntity
  8
0
100
AcDbLine
 62
4
  6
CONTINUOUS
 10
10.2914841521
 20
7.7279701605
 11
10.3080428801
 21
7.7433805369
  0
LINE
  5
323
100
AcDbEntity
  8
0
100
AcDbLine
 62
4
  6
CONTINUOUS
 10
9.7003375246
 20
7.782765249
 11
9.816248628
 21
7.8326823384
  0
LINE
  5
324
100
AcDbEntity
  8
0
100
AcDbLine
 62
4
  6
CONTINUOUS
 10
9.7665724403
 20
8.6309464242
 11
9.7417343482
 21
8.6326689518
  0
LINE
  5
325
100
AcDbEntity
  8
0
100
AcDbLine
 62
4
  6
CONTINUOUS
 10
9.8079692631
 20
8.677751653
 11
9.7831311684
 21
8.6794741808
  0
LINE
  5
326
100
AcDbEntity
  8
0
100
AcDbLine
 62
7
  6
CONTINUOUS
 10
12.5274748234
 20
6.8348818
 11
12.5360834023
 21
6.8242971024
  0
LINE
  5
327
100
AcDbEntity
  8
0
100
AcDbLine
 62
4
  6
CONTINUOUS
 10
12.3854686378
 20
6.5885730962
 11
12.3815863554
 21
6.5944823581
  0
LINE
  5
328
100
AcDbEntity
  8
0
100
AcDbLine
 62
4
  6
CONTINUOUS
 10
12.3893509201
 20
6.7082341967
 11
12.3932332025
 21
6.7023249374
  0
LINE
  5
329
100
AcDbEntity
  8
0
100
AcDbLine
 62
4
  6
CONTINUOUS
 10
12.3854686378
 20
9.2100959816
 11
12.3893509201
 21
9.2138459786
  0
LINE
  5
32A
100
AcDbEntity
  8
0
100
AcDbLine
 62
4
  6
CONTINUOUS
 10
12.4417617324
 20
9.2644709387
 11
12.4495262971
 21
9.2719709328
  0
LINE
  5
32B
100
AcDbEntity
  8
0
100
AcDbLine
 62
4
  6
CONTINUOUS
 10
12.4495262971
 20
6.7663591508
 11
12.4534085795
 21
6.7604498916
  0
LINE
  5
32C
100
AcDbEntity
  8
0
100
AcDbLine
 62
4
  6
CONTINUOUS
 10
12.4747611326
 20
9.2190718458
 11
12.4864079798
 21
9.2303218369
  0
LINE
  5
32D
100
AcDbEntity
  8
0
100
AcDbLine
 62
4
  6
CONTINUOUS
 10
12.4495262971
 20
9.1560598293
 11
12.4417617324
 21
9.1485598353
  0
LINE
  5
32E
100
AcDbEntity
  8
0
100
AcDbLine
 62
4
  6
CONTINUOUS
 10
12.3893509201
 20
9.0979348752
 11
12.3854686378
 21
9.0941848781
  0
LINE
  5
32F
100
AcDbEntity
  8
0
100
AcDbLine
 62
4
  6
CONTINUOUS
 10
10.6855819006
 20
9.4196423782
 11
10.6759226374
 21
9.4275566943
  0
LINE
  5
330
100
AcDbEntity
  8
0
100
AcDbLine
 62
4
  6
CONTINUOUS
 10
10.7531967087
 20
9.4149532753
 11
10.7338781909
 21
9.430781907
  0
LINE
  5
331
100
AcDbEntity
  8
0
100
AcDbLine
 62
4
  6
CONTINUOUS
 10
10.6372856052
 20
9.3722806299
 11
10.7531967087
 21
9.3642421675
  0
LINE
  5
332
100
AcDbEntity
  8
0
100
AcDbLine
 62
7
  6
CONTINUOUS
 10
12.6353168166
 20
9.2676052096
 11
13.0559160423
 21
9.2384365542
  0
LINE
  5
333
100
AcDbEntity
  8
0
100
AcDbLine
 62
4
  6
CONTINUOUS
 10
10.6759226374
 20
9.4275566943
 11
10.6469448616
 21
9.4295663099
  0
LINE
  5
334
100
AcDbEntity
  8
0
100
AcDbLine
 62
4
  6
CONTINUOUS
 10
10.7338781909
 20
9.430781907
 11
10.7049004167
 21
9.4327915224
  0
LINE
  5
335
100
AcDbEntity
  8
0
100
AcDbLine
 62
4
  6
CONTINUOUS
 10
12.3815863554
 20
6.5944823581
 11
12.377704073
 21
6.610050878
  0
LINE
  5
336
100
AcDbEntity
  8
0
100
AcDbLine
 62
7
  6
CONTINUOUS
 10
12.3897687113
 20
9.3355130357
 11
12.5404164303
 21
9.3250655809
  0
LINE
  5
337
100
AcDbEntity
  8
0
100
AcDbLine
 62
7
  6
CONTINUOUS
 10
12.537408639
 20
9.3839961561
 11
12.9580078648
 21
9.3548275008
  0
LINE
  5
338
100
AcDbEntity
  8
0
100
AcDbLine
 62
7
  6
CONTINUOUS
 10
11.6934113281
 20
9.46850854
 11
11.7737151073
 21
9.462939454
  0
LINE
  5
339
100
AcDbEntity
  8
0
100
AcDbLine
 62
7
  6
CONTINUOUS
 10
12.5297440335
 20
9.4261375483
 11
12.9503432592
 21
9.3969688929
  0
LINE
  5
33A
100
AcDbEntity
  8
0
100
AcDbLine
 62
7
  6
CONTINUOUS
 10
11.2997738682
 20
9.5584575057
 11
11.4562538613
 21
9.5476055813
  0
LINE
  5
33B
100
AcDbEntity
  8
0
100
AcDbLine
 62
7
  6
CONTINUOUS
 10
11.475572379
 20
9.5462658376
 11
11.4861975637
 21
9.5455289785
  0
LINE
  5
33C
100
AcDbEntity
  8
0
100
AcDbLine
 62
7
  6
CONTINUOUS
 10
11.5055160814
 20
9.5441892348
 11
11.6434928704
 21
9.534620512
  0
LINE
  5
33D
100
AcDbEntity
  8
0
100
AcDbLine
 62
7
  6
CONTINUOUS
 10
11.4581676207
 20
9.5570069452
 11
11.449820693
 21
9.567269929
  0
LINE
  5
33E
100
AcDbEntity
  8
0
100
AcDbLine
 62
7
  6
CONTINUOUS
 10
11.4881113231
 20
9.5549303424
 11
11.4797643954
 21
9.5651933262
  0
LINE
  5
33F
100
AcDbEntity
  8
0
100
AcDbLine
 62
4
  6
CONTINUOUS
 10
12.3932332025
 20
6.7023249374
 11
12.3951743437
 21
6.6945406727
  0
LINE
  5
340
100
AcDbEntity
  8
0
100
AcDbLine
 62
4
  6
CONTINUOUS
 10
12.4534085795
 20
6.7604498916
 11
12.4572908619
 21
6.7448813691
  0
LINE
  5
341
100
AcDbEntity
  8
0
100
AcDbLine
 62
4
  6
CONTINUOUS
 10
12.4107034733
 20
6.7288591804
 11
12.4262326028
 21
6.6279480652
  0
LINE
  5
342
100
AcDbEntity
  8
0
100
AcDbLine
 62
4
  6
CONTINUOUS
 10
12.4805845562
 20
6.7963591272
 11
12.4902902622
 21
6.6898230164
  0
LINE
  5
343
100
AcDbEntity
  8
0
100
AcDbLine
 62
4
  6
CONTINUOUS
 10
12.377704073
 20
6.610050878
 11
12.3757629318
 21
6.6371536553
  0
LINE
  5
344
100
AcDbEntity
  8
0
100
AcDbLine
 62
4
  6
CONTINUOUS
 10
12.4572908619
 20
6.7448813691
 11
12.4592320031
 21
6.7177785917
  0
LINE
  5
345
100
AcDbEntity
  8
0
100
AcDbLine
 62
7
  6
CONTINUOUS
 10
12.1731077851
 20
10.053966736
 11
12.1731077851
 21
6.0395786314
  0
LINE
  5
346
100
AcDbEntity
  8
0
100
AcDbLine
 62
4
  6
CONTINUOUS
 10
12.3757629318
 20
9.1427654372
 11
12.377704073
 21
9.1736182116
  0
LINE
  5
347
100
AcDbEntity
  8
0
100
AcDbLine
 62
4
  6
CONTINUOUS
 10
12.4107034733
 20
9.1185598589
 11
12.4262326028
 21
9.2494709505
  0
LINE
  5
348
100
AcDbEntity
  8
0
100
AcDbLine
 62
4
  6
CONTINUOUS
 10
12.377704073
 20
9.1736182116
 11
12.3815863554
 21
9.1966867282
  0
LINE
  5
349
100
AcDbEntity
  8
0
100
AcDbLine
 62
4
  6
CONTINUOUS
 10
12.3951743437
 20
9.1228783886
 11
12.3932332025
 21
9.1113441311
  0
LINE
  5
34A
100
AcDbEntity
  8
0
100
AcDbLine
 62
4
  6
CONTINUOUS
 10
12.4572908619
 20
9.1925375993
 11
12.4534085795
 21
9.1694690853
  0
LINE
  5
34B
100
AcDbEntity
  8
0
100
AcDbLine
 62
4
  6
CONTINUOUS
 10
12.3815863554
 20
9.1966867282
 11
12.3854686378
 21
9.2100959816
  0
LINE
  5
34C
100
AcDbEntity
  8
0
100
AcDbLine
 62
4
  6
CONTINUOUS
 10
12.3932332025
 20
9.1113441311
 11
12.3893509201
 21
9.0979348752
  0
LINE
  5
34D
100
AcDbEntity
  8
0
100
AcDbLine
 62
4
  6
CONTINUOUS
 10
12.4534085795
 20
9.1694690853
 11
12.4495262971
 21
9.1560598293
  0
LINE
  5
34E
100
AcDbEntity
  8
0
100
AcDbLine
 62
7
  6
CONTINUOUS
 10
11.3183749617
 20
7.0136375598
 11
11.3057861635
 21
7.0019212367
  0
LINE
  5
34F
100
AcDbEntity
  8
0
100
AcDbLine
 62
7
  6
CONTINUOUS
 10
11.4133903122
 20
9.7233086071
 11
11.4270019705
 21
9.722600736
  0
LINE
  5
350
100
AcDbEntity
  8
0
100
AcDbLine
 62
7
  6
CONTINUOUS
 10
11.6637815765
 20
9.4919059263
 11
11.6721285042
 21
9.4816429425
  0
LINE
  5
351
100
AcDbEntity
  8
0
100
AcDbLine
 62
4
  6
CONTINUOUS
 10
12.4805845562
 20
9.3019709091
 11
12.4902902622
 21
9.1954347983
  0
LINE
  5
352
100
AcDbEntity
  8
0
100
AcDbLine
 62
4
  6
CONTINUOUS
 10
12.377704073
 20
9.1156626599
 11
12.3757629318
 21
9.1427654372
  0
LINE
  5
353
100
AcDbEntity
  8
0
100
AcDbLine
 62
4
  6
CONTINUOUS
 10
12.4572908619
 20
9.250493151
 11
12.4592320031
 21
9.2233903737
  0
LINE
  5
354
100
AcDbEntity
  8
0
100
AcDbLine
 62
4
  6
CONTINUOUS
 10
12.4417617324
 20
6.6429480533
 11
12.4417617324
 21
6.7588591568
  0
LINE
  5
355
100
AcDbEntity
  8
0
100
AcDbLine
 62
4
  6
CONTINUOUS
 10
12.4417617324
 20
9.1485598353
 11
12.4417617324
 21
9.2644709387
  0
LINE
  5
356
100
AcDbEntity
  8
0
100
AcDbLine
 62
4
  6
CONTINUOUS
 10
12.4592320031
 20
9.2233903737
 11
12.4572908619
 21
9.1925375993
  0
LINE
  5
357
100
AcDbEntity
  8
0
100
AcDbLine
 62
4
  6
CONTINUOUS
 10
12.3757629318
 20
6.6371536553
 11
12.377704073
 21
6.6680064297
  0
LINE
  5
358
100
AcDbEntity
  8
0
100
AcDbLine
 62
4
  6
CONTINUOUS
 10
12.4592320031
 20
6.7177785917
 11
12.4572908619
 21
6.6869258174
  0
LINE
  5
359
100
AcDbEntity
  8
0
100
AcDbLine
 62
4
  6
CONTINUOUS
 10
12.4708788502
 20
9.1766848131
 11
12.4805845562
 21
9.3019709091
  0
LINE
  5
35A
100
AcDbEntity
  8
0
100
AcDbLine
 62
7
  6
CONTINUOUS
 10
13.101086747
 20
9.2996236756
 11
13.1178353642
 21
9.3280207011
  0
LINE
  5
35B
100
AcDbEntity
  8
0
100
AcDbLine
 62
7
  6
CONTINUOUS
 10
12.5297440335
 20
9.8480635272
 11
12.9503432592
 21
9.8188948718
  0
LINE
  5
35C
100
AcDbEntity
  8
0
100
AcDbLine
 62
7
  6
CONTINUOUS
 10
12.537408639
 20
9.9050118012
 11
12.9580078648
 21
9.8758431458
  0
LINE
  5
35D
100
AcDbEntity
  8
0
100
AcDbLine
 62
4
  6
CONTINUOUS
 10
12.3854686378
 20
9.0941848781
 11
12.3815863554
 21
9.10009414
  0
LINE
  5
35E
100
AcDbEntity
  8
0
100
AcDbLine
 62
4
  6
CONTINUOUS
 10
12.3893509201
 20
9.2138459786
 11
12.3932332025
 21
9.2079367193
  0
LINE
  5
35F
100
AcDbEntity
  8
0
100
AcDbLine
 62
4
  6
CONTINUOUS
 10
12.3815863554
 20
9.10009414
 11
12.377704073
 21
9.1156626599
  0
LINE
  5
360
100
AcDbEntity
  8
0
100
AcDbLine
 62
4
  6
CONTINUOUS
 10
12.3932332025
 20
9.2079367193
 11
12.3951743437
 21
9.2001524546
  0
LINE
  5
361
100
AcDbEntity
  8
0
100
AcDbLine
 62
4
  6
CONTINUOUS
 10
12.4107034733
 20
9.2344709623
 11
12.4262326028
 21
9.1335598471
  0
LINE
  5
362
100
AcDbEntity
  8
0
100
AcDbLine
 62
4
  6
CONTINUOUS
 10
12.4708788502
 20
6.6710730312
 11
12.4805845562
 21
6.7963591272
  0
LINE
  5
363
100
AcDbEntity
  8
0
100
AcDbLine
 62
4
  6
CONTINUOUS
 10
12.4107034733
 20
6.612948077
 11
12.4262326028
 21
6.7438591686
  0
LINE
  5
364
100
AcDbEntity
  8
0
100
AcDbLine
 62
4
  6
CONTINUOUS
 10
12.377704073
 20
6.6680064297
 11
12.3815863554
 21
6.6910749463
  0
LINE
  5
365
100
AcDbEntity
  8
0
100
AcDbLine
 62
4
  6
CONTINUOUS
 10
12.3951743437
 20
6.6172666066
 11
12.3932332025
 21
6.6057323492
  0
LINE
  5
366
100
AcDbEntity
  8
0
100
AcDbLine
 62
4
  6
CONTINUOUS
 10
12.4572908619
 20
6.6869258174
 11
12.4534085795
 21
6.6638573034
  0
LINE
  5
367
100
AcDbEntity
  8
0
100
AcDbLine
 62
7
  6
CONTINUOUS
 10
12.5835769803
 20
7.6579206502
 11
12.5846216304
 21
7.6589112997
  0
LINE
  5
368
100
AcDbEntity
  8
0
100
AcDbLine
 62
7
  6
CONTINUOUS
 10
12.6429814221
 20
7.71320538
 11
12.644176155
 21
7.7143383576
  0
LINE
  5
369
100
AcDbEntity
  8
0
100
AcDbLine
 62
7
  6
CONTINUOUS
 10
12.5846214518
 20
7.6589111335
 11
12.6441761509
 21
7.7143383539
  0
LINE
  5
36A
100
AcDbEntity
  8
0
100
AcDbLine
 62
7
  6
CONTINUOUS
 10
8.7923671928
 20
10.2884218924
 11
12.1731077851
 21
10.053966736
  0
LINE
  5
36B
100
AcDbEntity
  8
0
100
AcDbLine
 62
7
  6
CONTINUOUS
 10
12.4489860543
 20
10.1884598749
 11
12.5991513595
 21
10.1780458756
  0
LINE
  5
36C
100
AcDbEntity
  8
0
100
AcDbLine
 62
7
  6
CONTINUOUS
 10
12.5274748234
 20
9.3404936395
 11
12.5360834023
 21
9.3299089419
  0
LINE
  5
36D
100
AcDbEntity
  8
0
100
AcDbLine
 62
4
  6
CONTINUOUS
 10
12.4495262971
 20
9.2719709328
 11
12.4534085795
 21
9.2660616735
  0
LINE
  5
36E
100
AcDbEntity
  8
0
100
AcDbLine
 62
7
  6
CONTINUOUS
 10
13.1642924814
 20
7.6060143139
 11
13.1710522698
 21
7.5897733139
  0
LINE
  5
36F
100
AcDbEntity
  8
0
100
AcDbLine
 62
4
  6
CONTINUOUS
 10
12.4534085795
 20
9.2660616735
 11
12.4572908619
 21
9.250493151
  0
LINE
  5
370
100
AcDbEntity
  8
0
100
AcDbLine
 62
7
  6
CONTINUOUS
 10
12.8688127948
 20
6.7115781076
 11
12.8688127948
 21
6.745800369
  0
LINE
  5
371
100
AcDbEntity
  8
0
100
AcDbLine
 62
7
  6
CONTINUOUS
 10
12.8688127948
 20
7.7046119592
 11
12.8688127948
 21
9.2514122085
  0
LINE
  5
372
100
AcDbEntity
  8
0
100
AcDbLine
 62
7
  6
CONTINUOUS
 10
12.8688127948
 20
10.2102237987
 11
12.8688127948
 21
10.7259662122
  0
LINE
  5
373
100
AcDbEntity
  8
0
100
AcDbLine
 62
4
  6
CONTINUOUS
 10
12.3815863554
 20
6.6910749463
 11
12.3854686378
 21
6.7044841996
  0
LINE
  5
374
100
AcDbEntity
  8
0
100
AcDbLine
 62
4
  6
CONTINUOUS
 10
12.3932332025
 20
6.6057323492
 11
12.3893509201
 21
6.5923230932
  0
LINE
  5
375
100
AcDbEntity
  8
0
100
AcDbLine
 62
4
  6
CONTINUOUS
 10
12.4534085795
 20
6.6638573034
 11
12.4495262971
 21
6.6504480474
  0
LINE
  5
376
100
AcDbEntity
  8
0
100
AcDbLine
 62
7
  6
CONTINUOUS
 10
12.6353168166
 20
10.2105468336
 11
13.0559160423
 21
10.1813781782
  0
LINE
  5
377
100
AcDbEntity
  8
0
100
AcDbLine
 62
7
  6
CONTINUOUS
 10
12.6506460277
 20
10.2253537154
 11
13.0712452535
 21
10.19618506
  0
LINE
  5
378
100
AcDbEntity
  8
0
100
AcDbLine
 62
4
  6
CONTINUOUS
 10
12.3854686378
 20
6.7044841996
 11
12.3893509201
 21
6.7082341967
  0
LINE
  5
379
100
AcDbEntity
  8
0
100
AcDbLine
 62
4
  6
CONTINUOUS
 10
12.4417617324
 20
6.7588591568
 11
12.4495262971
 21
6.7663591508
  0
LINE
  5
37A
100
AcDbEntity
  8
0
100
AcDbLine
 62
4
  6
CONTINUOUS
 10
12.4747611326
 20
6.7134600638
 11
12.4864079798
 21
6.724710055
  0
LINE
  5
37B
100
AcDbEntity
  8
0
100
AcDbLine
 62
4
  6
CONTINUOUS
 10
12.4495262971
 20
6.6504480474
 11
12.4417617324
 21
6.6429480533
  0
LINE
  5
37C
100
AcDbEntity
  8
0
100
AcDbLine
 62
4
  6
CONTINUOUS
 10
12.3893509201
 20
6.5923230932
 11
12.3854686378
 21
6.5885730962
  0
LINE
  5
37D
100
AcDbEntity
  8
0
100
AcDbLine
 62
7
  6
CONTINUOUS
 10
9.4880722025
 20
10.9604213686
 11
12.8688127948
 21
10.7259662122
  0
LINE
  5
37E
100
AcDbEntity
  8
0
100
AcDbLine
 62
7
  6
CONTINUOUS
 10
12.1731077851
 20
6.0395786314
 11
12.8688127948
 21
6.7115781076
  0
LINE
  5
37F
100
AcDbEntity
  8
0
100
AcDbLine
 62
7
  6
CONTINUOUS
 10
13.1642924814
 20
10.1116261534
 11
13.1710522698
 21
10.0953851534
  0
LINE
  5
380
100
AcDbEntity
  8
0
100
AcDbLine
 62
7
  6
CONTINUOUS
 10
13.101086747
 20
6.7940118361
 11
13.1178353642
 21
6.8224088616
  0
ARC
  5
381
100
AcDbEntity
  8
0
100
AcDbCircle
 62
7
  6
CONTINUOUS
 10
14.3019897196
 20
7.1329170121
 40
1.7845894633
100
AcDbArc
 50
171.4122169565
 51
173.2571553889
  0
ARC
  5
382
100
AcDbEntity
  8
0
100
AcDbCircle
 62
7
  6
CONTINUOUS
 10
14.3019897196
 20
9.6385288516
 40
1.7845894633
100
AcDbArc
 50
171.4122169565
 51
173.2571553889
  0
ARC
  5
383
100
AcDbEntity
  8
0
100
AcDbCircle
 62
7
  6
CONTINUOUS
 10
14.7225889453
 20
9.6093601962
 40
1.7845894632
100
AcDbArc
 50
171.4122169565
 51
173.2571553889
  0
ARC
  5
384
100
AcDbEntity
  8
0
100
AcDbCircle
 62
7
  6
CONTINUOUS
 10
14.7225889453
 20
7.1037483567
 40
1.7845894632
100
AcDbArc
 50
171.4122169565
 51
173.2571553889
  0
ARC
  5
385
100
AcDbEntity
  8
0
100
AcDbCircle
 62
7
  6
CONTINUOUS
 10
11.7308139594
 20
11.0767688165
 40
1.6061023255
100
AcDbArc
 50
253.4390756975
 51
253.7441980758
  0
ARC
  5
386
100
AcDbEntity
  8
0
100
AcDbCircle
 62
7
  6
CONTINUOUS
 10
11.7308139594
 20
8.5711569767
 40
1.6061023252
100
AcDbArc
 50
253.4390756975
 51
253.7441980759
  0
ARC
  5
387
100
AcDbEntity
  8
0
100
AcDbCircle
 62
7
  6
CONTINUOUS
 10
11.3806742344
 20
6.8723040832
 40
0.4488155977
100
AcDbArc
 50
134.388937101
 51
135.4765236279
  0
ARC
  5
388
100
AcDbEntity
  8
0
100
AcDbCircle
 62
7
  6
CONTINUOUS
 10
11.3806742343
 20
9.3779159227
 40
0.4488155976
100
AcDbArc
 50
134.388937101
 51
135.4765236279
  0
ARC
  5
389
100
AcDbEntity
  8
0
100
AcDbCircle
 62
7
  6
CONTINUOUS
 10
11.4733475584
 20
9.2819731431
 40
0.448792653
100
AcDbArc
 50
312.5373777031
 51
313.4305415313
  0
ARC
  5
38A
100
AcDbEntity
  8
0
100
AcDbCircle
 62
7
  6
CONTINUOUS
 10
11.4733475585
 20
6.7763613036
 40
0.4487926529
100
AcDbArc
 50
312.537377703
 51
313.4305415314
  0
ARC
  5
38B
100
AcDbEntity
  8
0
100
AcDbCircle
 62
7
  6
CONTINUOUS
 10
11.4597060906
 20
9.3315148478
 40
0.3599418851
100
AcDbArc
 50
355.4216196897
 51
357.6103299022
  0
ARC
  5
38C
100
AcDbEntity
  8
0
100
AcDbCircle
 62
7
  6
CONTINUOUS
 10
11.4597060906
 20
6.8259030083
 40
0.3599418851
100
AcDbArc
 50
355.4216196897
 51
357.6103299021
  0
SPLINE
  5
38D
100
AcDbEntity
  8
0
100
AcDbSpline
 62
7
  6
CONTINUOUS
 70
0
 71
3
 72
11
 73
7
 74
0
 42
0.0000001
 43
0.0000001
 44
0.0000000001
 40
0.0
 40
0.0
 40
0.0
 40
0.0
 40
0.23931218
 40
0.4830390763
 40
0.7353544119
 40
1.0
 40
1.0
 40
1.0
 40
1.0
 10
11.4861975484
 20
7.0399171836
 30
0.0
 10
11.4870232479
 20
7.03985985
 30
0.0
 10
11.4887004566
 20
7.0398630859
 30
0.0
 10
11.4912257293
 20
7.0402234538
 30
0.0
 10
11.4937653161
 20
7.0409366959
 30
0.0
 10
11.495419697
 20
7.0416268363
 30
0.0
 10
11.4962445889
 20
7.0420234954
 30
0.0
  0
SPLINE
  5
38E
100
AcDbEntity
  8
0
100
AcDbSpline
 62
7
  6
CONTINUOUS
 70
0
 71
3
 72
9
 73
5
 74
0
 42
0.0000001
 43
0.0000001
 44
0.0000000001
 40
0.0
 40
0.0
 40
0.0
 40
0.0
 40
0.5031574893
 40
1.0
 40
1.0
 40
1.0
 40
1.0
 10
13.0712452535
 20
6.7476315965
 30
0.0
 10
13.076543782
 20
6.7552699318
 30
0.0
 10
13.0868341888
 20
6.7706191829
 30
0.0
 10
13.0965570899
 20
6.7863359642
 30
0.0
 10
13.1012222372
 20
6.7942416177
 30
0.0
  0
SPLINE
  5
38F
100
AcDbEntity
  8
0
100
AcDbSpline
 62
7
  6
CONTINUOUS
 70
0
 71
3
 72
23
 73
19
 74
0
 42
0.0000001
 43
0.0000001
 44
0.0000000001
 40
0.0
 40
0.0
 40
0.0
 40
0.0
 40
0.0854682494
 40
0.1684691554
 40
0.2488356416
 40
0.3264117226
 40
0.4010490965
 40
0.4726108597
 40
0.5409723155
 40
0.6060202241
 40
0.6676590626
 40
0.7258066686
 40
0.780404785
 40
0.8314148184
 40
0.8788296558
 40
0.9226753554
 40
0.9630226691
 40
1.0
 40
1.0
 40
1.0
 40
1.0
 10
11.6244546309
 20
7.1392587245
 30
0.0
 10
11.6248192665
 20
7.1347240945
 30
0.0
 10
11.6256084373
 20
7.1257912116
 30
0.0
 10
11.6269962325
 20
7.1126185613
 30
0.0
 10
11.6285686475
 20
7.0998897403
 30
0.0
 10
11.6303217613
 20
7.0876340158
 30
0.0
 10
11.6322516166
 20
7.0758794584
 30
0.0
 10
11.6343537352
 20
7.0646529977
 30
0.0
 10
11.6366230419
 20
7.0539802866
 30
0.0
 10
11.639054584
 20
7.0438856914
 30
0.0
 10
11.6416422596
 20
7.0343921392
 30
0.0
 10
11.6443806082
 20
7.0255211831
 30
0.0
 10
11.6472627928
 20
7.0172927229
 30
0.0
 10
11.650282746
 20
7.0097251594
 30
0.0
 10
11.6534333765
 20
7.0028351533
 30
0.0
 10
11.6567082275
 20
6.9966373865
 30
0.0
 10
11.6601002885
 20
6.9911457486
 30
0.0
 10
11.6625387888
 20
6.9878222056
 30
0.0
 10
11.6637806542
 20
6.9862952368
 30
0.0
  0
SPLINE
  5
390
100
AcDbEntity
  8
0
100
AcDbSpline
 62
7
  6
CONTINUOUS
 70
0
 71
3
 72
11
 73
7
 74
0
 42
0.0000001
 43
0.0000001
 44
0.0000000001
 40
0.0
 40
0.0
 40
0.0
 40
0.0
 40
0.23931218
 40
0.4830390763
 40
0.7353544119
 40
1.0
 40
1.0
 40
1.0
 40
1.0
 10
11.456253846
 20
7.0419937864
 30
0.0
 10
11.4570795455
 20
7.0419364528
 30
0.0
 10
11.4587567542
 20
7.0419396888
 30
0.0
 10
11.4612820269
 20
7.0423000566
 30
0.0
 10
11.4638216137
 20
7.0430132987
 30
0.0
 10
11.4654759946
 20
7.0437034391
 30
0.0
 10
11.4663008865
 20
7.0441000982
 30
0.0
  0
SPLINE
  5
391
100
AcDbEntity
  8
0
100
AcDbSpline
 62
7
  6
CONTINUOUS
 70
0
 71
3
 72
20
 73
16
 74
0
 42
0.0000001
 43
0.0000001
 44
0.0000000001
 40
0.0
 40
0.0
 40
0.0
 40
0.0
 40
0.0441791417
 40
0.0899007132
 40
0.1376605872
 40
0.1878308397
 40
0.2406763804
 40
0.2963507783
 40
0.3549361367
 40
0.4164409011
 40
0.547901299
 40
0.6899600946
 40
0.8412798853
 40
0.91989408
 40
1.0
 40
1.0
 40
1.0
 40
1.0
 10
11.2831978952
 20
7.0984582727
 30
0.0
 10
11.2833585605
 20
7.0992138492
 30
0.0
 10
11.2838057681
 20
7.1007280986
 30
0.0
 10
11.2848185961
 20
7.1029197974
 30
0.0
 10
11.2861710869
 20
7.105044578
 30
0.0
 10
11.2878514069
 20
7.1070837119
 30
0.0
 10
11.2898469482
 20
7.1090190838
 30
0.0
 10
11.2921425859
 20
7.1108339221
 30
0.0
 10
11.2947234711
 20
7.1125100294
 30
0.0
 10
11.2986071953
 20
7.114584041
 30
0.0
 10
11.3040936842
 20
7.1167053742
 30
0.0
 10
11.3113473564
 20
7.1183985524
 30
0.0
 10
11.3178353757
 20
7.1190641887
 30
0.0
 10
11.3232578918
 20
7.1191450686
 30
0.0
 10
11.3260325343
 20
7.1190293502
 30
0.0
 10
11.3274298252
 20
7.1189324478
 30
0.0
  0
SPLINE
  5
392
100
AcDbEntity
  8
0
100
AcDbSpline
 62
7
  6
CONTINUOUS
 70
0
 71
3
 72
10
 73
6
 74
0
 42
0.0000001
 43
0.0000001
 44
0.0000000001
 40
0.0
 40
0.0
 40
0.0
 40
0.0
 40
0.2694539138
 40
0.5253905011
 40
1.0
 40
1.0
 40
1.0
 40
1.0
 10
11.3057861766
 20
7.0019214549
 30
0.0
 10
11.3049943857
 20
7.0011845212
 30
0.0
 10
11.3034114365
 20
6.9997882703
 30
0.0
 10
11.3002443656
 20
6.9973200962
 30
0.0
 10
11.2977529919
 20
6.995746162
 30
0.0
 10
11.2960613088
 20
6.9948697603
 30
0.0
  0
SPLINE
  5
393
100
AcDbEntity
  8
0
100
AcDbSpline
 62
7
  6
CONTINUOUS
 70
0
 71
3
 72
15
 73
11
 74
0
 42
0.0000001
 43
0.0000001
 44
0.0000000001
 40
0.0
 40
0.0
 40
0.0
 40
0.0
 40
0.1492642703
 40
0.2896953669
 40
0.4220154514
 40
0.5471145627
 40
0.6660755991
 40
0.7801953209
 40
0.8909594714
 40
1.0
 40
1.0
 40
1.0
 40
1.0
 10
11.4581676402
 20
7.0513950992
 30
0.0
 10
11.4588279769
 20
7.0505831449
 30
0.0
 10
11.4601599304
 20
7.0490471087
 30
0.0
 10
11.4622596523
 20
7.0469581118
 30
0.0
 10
11.4643963426
 20
7.0451591344
 30
0.0
 10
11.4665683525
 20
7.0436526912
 30
0.0
 10
11.4687741756
 20
7.0424416751
 30
0.0
 10
11.4710116574
 20
7.0415284726
 30
0.0
 10
11.4732773935
 20
7.0409152102
 30
0.0
 10
11.4748096579
 20
7.0407070022
 30
0.0
 10
11.4755723637
 20
7.0406540426
 30
0.0
  0
SPLINE
  5
394
100
AcDbEntity
  8
0
100
AcDbSpline
 62
7
  6
CONTINUOUS
 70
0
 71
3
 72
15
 73
11
 74
0
 42
0.0000001
 43
0.0000001
 44
0.0000000001
 40
0.0
 40
0.0
 40
0.0
 40
0.0
 40
0.1492642703
 40
0.2896953669
 40
0.4220154514
 40
0.5471145627
 40
0.6660755991
 40
0.7801953209
 40
0.8909594714
 40
1.0
 40
1.0
 40
1.0
 40
1.0
 10
11.4881113425
 20
7.0493184964
 30
0.0
 10
11.4887716792
 20
7.0485065421
 30
0.0
 10
11.4901036327
 20
7.0469705058
 30
0.0
 10
11.4922033547
 20
7.044881509
 30
0.0
 10
11.4943400449
 20
7.0430825316
 30
0.0
 10
11.4965120549
 20
7.0415760884
 30
0.0
 10
11.498717878
 20
7.0403650723
 30
0.0
 10
11.5009553598
 20
7.0394518698
 30
0.0
 10
11.5032210959
 20
7.0388386074
 30
0.0
 10
11.5047533603
 20
7.0386303994
 30
0.0
 10
11.505516066
 20
7.0385774398
 30
0.0
  0
SPLINE
  5
395
100
AcDbEntity
  8
0
100
AcDbSpline
 62
7
  6
CONTINUOUS
 70
0
 71
3
 72
21
 73
17
 74
0
 42
0.0000001
 43
0.0000001
 44
0.0000000001
 40
0.0
 40
0.0
 40
0.0
 40
0.0
 40
0.0428974577
 40
0.0885577298
 40
0.1370510264
 40
0.1884015156
 40
0.2425965509
 40
0.2995844531
 40
0.3592921686
 40
0.4216215902
 40
0.4864609637
 40
0.5536888475
 40
0.6231759323
 40
0.6947917147
 40
0.8438964931
 40
1.0
 40
1.0
 40
1.0
 40
1.0
 10
12.5358476253
 20
6.8245872538
 30
0.0
 10
12.5369156869
 20
6.8232740937
 30
0.0
 10
12.5392152084
 20
6.820639234
 30
0.0
 10
12.5430086209
 20
6.8167814362
 30
0.0
 10
12.5472431525
 20
6.812900859
 30
0.0
 10
12.5519080917
 20
6.8090015607
 30
0.0
 10
12.5569906392
 20
6.8050877538
 30
0.0
 10
12.5624750477
 20
6.8011625691
 30
0.0
 10
12.5683446929
 20
6.7972303391
 30
0.0
 10
12.5745808725
 20
6.7932938344
 30
0.0
 10
12.5811646143
 20
6.7893564666
 30
0.0
 10
12.5880762541
 20
6.7854208885
 30
0.0
 10
12.5952960991
 20
6.7814893708
 30
0.0
 10
12.6054448051
 20
6.7761842831
 30
0.0
 10
12.6187784695
 20
6.7695994698
 30
0.0
 10
12.6297041286
 20
6.764530837
 30
0.0
 10
12.6353168166
 20
6.7619933701
 30
0.0
  0
SPLINE
  5
396
100
AcDbEntity
  8
0
100
AcDbSpline
 62
7
  6
CONTINUOUS
 70
0
 71
3
 72
9
 73
5
 74
0
 42
0.0000001
 43
0.0000001
 44
0.0000000001
 40
0.0
 40
0.0
 40
0.0
 40
0.0
 40
0.2591057607
 40
1.0
 40
1.0
 40
1.0
 40
1.0
 10
12.644176155
 20
7.7143383571
 30
0.0
 10
12.6447092542
 20
7.7148345094
 30
0.0
 10
12.6467907432
 20
7.7167232037
 30
0.0
 10
12.6489717008
 20
7.7185037153
 30
0.0
 10
12.6506460277
 20
7.7197418759
 30
0.0
  0
SPLINE
  5
397
100
AcDbEntity
  8
0
100
AcDbSpline
 62
7
  6
CONTINUOUS
 70
0
 71
3
 72
23
 73
19
 74
0
 42
0.0000001
 43
0.0000001
 44
0.0000000001
 40
0.0
 40
0.0
 40
0.0
 40
0.0
 40
0.0436724157
 40
0.0893267601
 40
0.1372047487
 40
0.1875090477
 40
0.2404068901
 40
0.296015519
 40
0.3544134046
 40
0.4156293672
 40
0.4796582843
 40
0.5464546217
 40
0.6159479897
 40
0.6880406991
 40
0.7626206446
 40
0.8395632316
 40
0.9187357859
 40
1.0
 40
1.0
 40
1.0
 40
1.0
 10
13.1643704418
 20
7.6058269304
 30
0.0
 10
13.1636559026
 20
7.6075446379
 30
0.0
 10
13.1620599373
 20
7.611003414
 30
0.0
 10
13.1592393655
 20
7.6161275193
 30
0.0
 10
13.1559330051
 20
7.6212911843
 30
0.0
 10
13.1521359056
 20
7.626492074
 30
0.0
 10
13.1478453414
 20
7.6317267567
 30
0.0
 10
13.1430643831
 20
7.6369929339
 30
0.0
 10
13.1377985991
 20
7.6422864886
 30
0.0
 10
13.1320588586
 20
7.6476048284
 30
0.0
 10
13.1258582442
 20
7.6529436875
 30
0.0
 10
13.1192139208
 20
7.6583003489
 30
0.0
 10
13.1121445762
 20
7.6636708763
 30
0.0
 10
13.1046714213
 20
7.66905268
 30
0.0
 10
13.0968162497
 20
7.6744425339
 30
0.0
 10
13.0886018809
 20
7.6798381863
 30
0.0
 10
13.0800511392
 20
7.6852371756
 30
0.0
 10
13.0742142591
 20
7.6887930911
 30
0.0
 10
13.0712452535
 20
7.6905732205
 30
0.0
  0
SPLINE
  5
398
100
AcDbEntity
  8
0
100
AcDbSpline
 62
7
  6
CONTINUOUS
 70
0
 71
3
 72
47
 73
43
 74
0
 42
0.0000001
 43
0.0000001
 44
0.0000000001
 40
0.0
 40
0.0
 40
0.0
 40
0.0
 40
0.0097390984
 40
0.0199698072
 40
0.0306887317
 40
0.0418911598
 40
0.0535704221
 40
0.0657185723
 40
0.0783268092
 40
0.0913846967
 40
0.1188025604
 40
0.1478724225
 40
0.1784807364
 40
0.2105025339
 40
0.2438035416
 40
0.2782414042
 40
0.3136664125
 40
0.3499229968
 40
0.3868507735
 40
0.4242852893
 40
0.4620592396
 40
0.5000034157
 40
0.5379475321
 40
0.5757213983
 40
0.6131557754
 40
0.6500833021
 40
0.6863396619
 40
0.7217643567
 40
0.7562017407
 40
0.7895023834
 40
0.8215237618
 40
0.8521314048
 40
0.8812007446
 40
0.9086180892
 40
0.9216755501
 40
0.9342834294
 40
0.946431425
 40
0.9581102198
 40
0.9693122405
 40
0.9800309001
 40
0.9902611012
 40
1.0
 40
1.0
 40
1.0
 40
1.0
 10
13.11783659
 20
6.8224109263
 30
0.0
 10
13.119128854
 20
6.8246020015
 30
0.0
 10
13.1216992224
 20
6.8291419327
 30
0.0
 10
13.1254296629
 20
6.8362378239
 30
0.0
 10
13.1291259128
 20
6.8437796431
 30
0.0
 10
13.1327832009
 20
6.8517584519
 30
0.0
 10
13.1363973476
 20
6.8601647387
 30
0.0
 10
13.1399640901
 20
6.8689885017
 30
0.0
 10
13.1434789784
 20
6.8782193597
 30
0.0
 10
13.1481673951
 20
6.8912684289
 30
0.0
 10
13.1538497565
 20
6.9085253881
 30
0.0
 10
13.160291814
 20
6.9303461547
 30
0.0
 10
13.1664319771
 20
6.9534999114
 30
0.0
 10
13.1722407754
 20
6.9778761674
 30
0.0
 10
13.1776901343
 20
7.0033588253
 30
0.0
 10
13.1827536243
 20
7.0298263141
 30
0.0
 10
13.1874069385
 20
7.0571522375
 30
0.0
 10
13.191627706
 20
7.0852060218
 30
0.0
 10
13.1953954831
 20
7.1138536093
 30
0.0
 10
13.1986922168
 20
7.1429580454
 30
0.0
 10
13.2015021497
 20
7.1723801598
 30
0.0
 10
13.2038116902
 20
7.2019792668
 30
0.0
 10
13.2056097917
 20
7.2316138175
 30
0.0
 10
13.2068879716
 20
7.2611420825
 30
0.0
 10
13.2076400692
 20
7.290422858
 30
0.0
 10
13.2078625188
 20
7.3193161383
 30
0.0
 10
13.2075544851
 20
7.3476837801
 30
0.0
 10
13.2067175168
 20
7.3753901737
 30
0.0
 10
13.2053557055
 20
7.4023029228
 30
0.0
 10
13.2034759277
 20
7.4282935089
 30
0.0
 10
13.2010874149
 20
7.4532378475
 30
0.0
 10
13.1982018143
 20
7.4770170652
 30
0.0
 10
13.1948333602
 20
7.4995177107
 30
0.0
 10
13.1915874224
 20
7.5173934451
 30
0.0
 10
13.1887449602
 20
7.5309643866
 30
0.0
 10
13.1865377739
 20
7.5405917767
 30
0.0
 10
13.1842232367
 20
7.5498231634
 30
0.0
 10
13.1818038819
 20
7.5586475355
 30
0.0
 10
13.1792828833
 20
7.5670544639
 30
0.0
 10
13.1766631754
 20
7.5750340172
 30
0.0
 10
13.1739477476
 20
7.5825765813
 30
0.0
 10
13.1720285695
 20
7.5874276204
 30
0.0
 10
13.1710511024
 20
7.5897760347
 30
0.0
  0
SPLINE
  5
399
100
AcDbEntity
  8
0
100
AcDbSpline
 62
7
  6
CONTINUOUS
 70
0
 71
3
 72
15
 73
11
 74
0
 42
0.0000001
 43
0.0000001
 44
0.0000000001
 40
0.0
 40
0.0
 40
0.0
 40
0.0
 40
0.149263301
 40
0.2896979577
 40
0.422017905
 40
0.5471113478
 40
0.6660720915
 40
0.7801934149
 40
0.8909569897
 40
1.0
 40
1.0
 40
1.0
 40
1.0
 10
11.6721286536
 20
6.9760309358
 30
0.0
 10
11.6729361583
 20
6.9750381051
 30
0.0
 10
11.6745649235
 20
6.9731598208
 30
0.0
 10
11.6771324031
 20
6.9706052478
 30
0.0
 10
11.67974512
 20
6.9684053699
 30
0.0
 10
11.6824012523
 20
6.9665635978
 30
0.0
 10
11.6850984542
 20
6.9650826736
 30
0.0
 10
11.6878343255
 20
6.9639655792
 30
0.0
 10
11.6906050005
 20
6.9632158118
 30
0.0
 10
11.6924787355
 20
6.9629615492
 30
0.0
 10
11.6934114108
 20
6.9628968747
 30
0.0
  0
SPLINE
  5
39A
100
AcDbEntity
  8
0
100
AcDbSpline
 62
7
  6
CONTINUOUS
 70
0
 71
3
 72
27
 73
23
 74
0
 42
0.0000001
 43
0.0000001
 44
0.0000000001
 40
0.0
 40
0.0
 40
0.0
 40
0.0
 40
0.0758443957
 40
0.1528915599
 40
0.2304020015
 40
0.3077412605
 40
0.384238315
 40
0.4591873061
 40
0.5318979495
 40
0.6016868354
 40
0.6678941225
 40
0.7299103883
 40
0.7872064084
 40
0.8139697239
 40
0.8394255214
 40
0.8635605283
 40
0.8863881781
 40
0.928237232
 40
0.9474582022
 40
0.9657026392
 40
0.9831434275
 40
1.0
 40
1.0
 40
1.0
 40
1.0
 10
11.3274298252
 20
7.1189324478
 30
0.0
 10
11.3294927996
 20
7.11878938
 30
0.0
 10
11.3336413766
 20
7.1183323071
 30
0.0
 10
11.3398208516
 20
7.1171717587
 30
0.0
 10
11.3459379921
 20
7.115550482
 30
0.0
 10
11.3519106541
 20
7.1135061988
 30
0.0
 10
11.357664459
 20
7.1110842453
 30
0.0
 10
11.3631281902
 20
7.108335146
 30
0.0
 10
11.3682367001
 20
7.1053171426
 30
0.0
 10
11.372929098
 20
7.1020897934
 30
0.0
 10
11.3771501531
 20
7.0987155768
 30
0.0
 10
11.380848636
 20
7.0952571375
 30
0.0
 10
11.3835162073
 20
7.0922908429
 30
0.0
 10
11.3853363847
 20
7.0899221453
 30
0.0
 10
11.3865120977
 20
7.0882027394
 30
0.0
 10
11.3875257163
 20
7.0865063521
 30
0.0
 10
11.3886243322
 20
7.0843474623
 30
0.0
 10
11.3894364952
 20
7.0821944761
 30
0.0
 10
11.3898955801
 20
7.0800778056
 30
0.0
 10
11.3900551448
 20
7.0785859861
 30
0.0
 10
11.3900377732
 20
7.0771500635
 30
0.0
 10
11.3899058913
 20
7.0762209959
 30
0.0
 10
11.3898103198
 20
7.075771441
 30
0.0
  0
SPLINE
  5
39B
100
AcDbEntity
  8
0
100
AcDbSpline
 62
7
  6
CONTINUOUS
 70
0
 71
3
 72
15
 73
11
 74
0
 42
0.0000001
 43
0.0000001
 44
0.0000000001
 40
0.0
 40
0.0
 40
0.0
 40
0.0
 40
0.1506156046
 40
0.2938730183
 40
0.4297343309
 40
0.5582045838
 40
0.6793379741
 40
0.7932307785
 40
0.9000375874
 40
1.0
 40
1.0
 40
1.0
 40
1.0
 10
11.3426803726
 20
7.0494234478
 30
0.0
 10
11.341717897
 20
7.0474641261
 30
0.0
 10
11.3397871359
 20
7.0436667957
 30
0.0
 10
11.3367924824
 20
7.0382043688
 30
0.0
 10
11.3337749521
 20
7.0331242527
 30
0.0
 10
11.3307383574
 20
7.0284329639
 30
0.0
 10
11.3276867541
 20
7.0241361742
 30
0.0
 10
11.3246237549
 20
7.0202392059
 30
0.0
 10
11.3215529126
 20
7.0167474374
 30
0.0
 10
11.3194345056
 20
7.014623846
 30
0.0
 10
11.3183739375
 20
7.0136368047
 30
0.0
  0
SPLINE
  5
39C
100
AcDbEntity
  8
0
100
AcDbSpline
 62
7
  6
CONTINUOUS
 70
0
 71
3
 72
9
 73
5
 74
0
 42
0.0000001
 43
0.0000001
 44
0.0000000001
 40
0.0
 40
0.0
 40
0.0
 40
0.0
 40
0.4858145728
 40
1.0
 40
1.0
 40
1.0
 40
1.0
 10
13.0559160423
 20
6.7328247147
 30
0.0
 10
13.0572283342
 20
6.7337951513
 30
0.0
 10
13.059854945
 20
6.7358948382
 30
0.0
 10
13.0623381738
 20
6.7381610727
 30
0.0
 10
13.0635806479
 20
6.7393612106
 30
0.0
  0
SPLINE
  5
39D
100
AcDbEntity
  8
0
100
AcDbSpline
 62
7
  6
CONTINUOUS
 70
0
 71
3
 72
9
 73
5
 74
0
 42
0.0000001
 43
0.0000001
 44
0.0000000001
 40
0.0
 40
0.0
 40
0.0
 40
0.0
 40
0.4861313864
 40
1.0
 40
1.0
 40
1.0
 40
1.0
 10
13.0635806479
 20
6.7393612106
 30
0.0
 10
13.0648953096
 20
6.7406310763
 30
0.0
 10
13.0675216687
 20
6.7433247505
 30
0.0
 10
13.0700036902
 20
6.7461512132
 30
0.0
 10
13.0712452535
 20
6.7476315965
 30
0.0
  0
SPLINE
  5
39E
100
AcDbEntity
  8
0
100
AcDbSpline
 62
7
  6
CONTINUOUS
 70
0
 71
3
 72
23
 73
19
 74
0
 42
0.0000001
 43
0.0000001
 44
0.0000000001
 40
0.0
 40
0.0
 40
0.0
 40
0.0
 40
0.0905930295
 40
0.1778069855
 40
0.261343913
 40
0.3409300564
 40
0.4163307627
 40
0.4873778384
 40
0.5539924193
 40
0.616211852
 40
0.674207123
 40
0.7282848837
 40
0.7788825408
 40
0.8265444333
 40
0.8718788188
 40
0.9155123948
 40
0.9580437977
 40
1.0
 40
1.0
 40
1.0
 40
1.0
 10
12.9580078648
 20
6.8492156613
 30
0.0
 10
12.9621547182
 20
6.8467293287
 30
0.0
 10
12.9702460571
 20
6.8417690757
 30
0.0
 10
12.9819643212
 20
6.8342007225
 30
0.0
 10
12.9929848172
 20
6.8266431816
 30
0.0
 10
13.003245336
 20
6.8191030954
 30
0.0
 10
13.0126869373
 20
6.8115880198
 30
0.0
 10
13.0212567336
 20
6.8041064393
 30
0.0
 10
13.0289106332
 20
6.7966666251
 30
0.0
 10
13.0356167805
 20
6.7892769722
 30
0.0
 10
13.0413577523
 20
6.7819456597
 30
0.0
 10
13.0461305586
 20
6.7746797344
 30
0.0
 10
13.0499473518
 20
6.7674860638
 30
0.0
 10
13.0528351284
 20
6.7603716426
 30
0.0
 10
13.0548329178
 20
6.7533430472
 30
0.0
 10
13.055990823
 20
6.7464059961
 30
0.0
 10
13.0563676608
 20
6.7395654489
 30
0.0
 10
13.0561390074
 20
6.7350528612
 30
0.0
 10
13.0559160423
 20
6.7328247147
 30
0.0
  0
SPLINE
  5
39F
100
AcDbEntity
  8
0
100
AcDbSpline
 62
7
  6
CONTINUOUS
 70
0
 71
3
 72
23
 73
19
 74
0
 42
0.0000001
 43
0.0000001
 44
0.0000000001
 40
0.0
 40
0.0
 40
0.0
 40
0.0
 40
0.0657824384
 40
0.1295529758
 40
0.1914115468
 40
0.2515226432
 40
0.3101233257
 40
0.3675405506
 40
0.4241930076
 40
0.4805920295
 40
0.5373372389
 40
0.5950890082
 40
0.6545470072
 40
0.7164061583
 40
0.7813261893
 40
0.849908183
 40
0.9226572192
 40
1.0
 40
1.0
 40
1.0
 40
1.0
 10
12.537408639
 20
6.8783843166
 30
0.0
 10
12.5365449635
 20
6.877398701
 30
0.0
 10
12.5348921104
 20
6.8754146139
 30
0.0
 10
12.5326220127
 20
6.8723479355
 30
0.0
 10
12.5306154322
 20
6.8692355772
 30
0.0
 10
12.5288884393
 20
6.8660760183
 30
0.0
 10
12.5274580381
 20
6.8628674292
 30
0.0
 10
12.526341743
 20
6.8596084575
 30
0.0
 10
12.5255571761
 20
6.8562984275
 30
0.0
 10
12.5251220464
 20
6.8529374477
 30
0.0
 10
12.5250539392
 20
6.8495267593
 30
0.0
 10
12.5253675593
 20
6.8460684723
 30
0.0
 10
12.5260774678
 20
6.8425654526
 30
0.0
 10
12.5271942028
 20
6.8390206106
 30
0.0
 10
12.5287264929
 20
6.8354366803
 30
0.0
 10
12.5306813688
 20
6.8318168036
 30
0.0
 10
12.533061279
 20
6.8281629656
 30
0.0
 10
12.5348754038
 20
6.8257825804
 30
0.0
 10
12.5358476253
 20
6.8245872538
 30
0.0
  0
SPLINE
  5
3A0
100
AcDbEntity
  8
0
100
AcDbSpline
 62
7
  6
CONTINUOUS
 70
0
 71
3
 72
22
 73
18
 74
0
 42
0.0000001
 43
0.0000001
 44
0.0000000001
 40
0.0
 40
0.0
 40
0.0
 40
0.0
 40
0.1689131164
 40
0.2495991194
 40
0.3275189981
 40
0.4025023627
 40
0.4743908694
 40
0.543035784
 40
0.6083076791
 40
0.6700876283
 40
0.7282785284
 40
0.7828063155
 40
0.8336175616
 40
0.8806969906
 40
0.9240630945
 40
0.9637851014
 40
1.0
 40
1.0
 40
1.0
 40
1.0
 10
11.4241831531
 20
7.1920850724
 30
0.0
 10
11.4247149804
 20
7.1838604608
 30
0.0
 10
11.4256907779
 20
7.1717177336
 30
0.0
 10
11.4274064152
 20
7.1558287263
 30
0.0
 10
11.4288486081
 20
7.1445219975
 30
0.0
 10
11.4304618206
 20
7.1336721575
 30
0.0
 10
11.4322416454
 20
7.123307168
 30
0.0
 10
11.43418388
 20
7.1134537891
 30
0.0
 10
11.4362828058
 20
7.1041373744
 30
0.0
 10
11.4385333196
 20
7.0953819116
 30
0.0
 10
11.4409295129
 20
7.0872098474
 30
0.0
 10
11.4434646756
 20
7.079641869
 30
0.0
 10
11.4461330495
 20
7.0726971881
 30
0.0
 10
11.4489271424
 20
7.0663929469
 30
0.0
 10
11.4518406629
 20
7.0607443041
 30
0.0
 10
11.454866734
 20
7.0557655602
 30
0.0
 10
11.4570527261
 20
7.0527660048
 30
0.0
 10
11.4581676402
 20
7.0513950992
 30
0.0
  0
SPLINE
  5
3A1
100
AcDbEntity
  8
0
100
AcDbSpline
 62
7
  6
CONTINUOUS
 70
0
 71
3
 72
9
 73
5
 74
0
 42
0.0000001
 43
0.0000001
 44
0.0000000001
 40
0.0
 40
0.0
 40
0.0
 40
0.0
 40
0.5176467173
 40
1.0
 40
1.0
 40
1.0
 40
1.0
 10
13.1710511024
 20
7.5897760347
 30
0.0
 10
13.1698756963
 20
7.5926000075
 30
0.0
 10
13.1674888278
 20
7.5980081122
 30
0.0
 10
13.1648323565
 20
7.6032902224
 30
0.0
 10
13.1634755133
 20
7.6057968183
 30
0.0
  0
SPLINE
  5
3A2
100
AcDbEntity
  8
0
100
AcDbSpline
 62
7
  6
CONTINUOUS
 70
0
 71
3
 72
27
 73
23
 74
0
 42
0.0000001
 43
0.0000001
 44
0.0000000001
 40
0.0
 40
0.0
 40
0.0
 40
0.0
 40
0.0854025407
 40
0.1648941103
 40
0.2386988467
 40
0.3071319875
 40
0.3706314256
 40
0.4297810297
 40
0.4853300617
 40
0.5120569723
 40
0.5382478941
 40
0.5640442016
 40
0.5895946751
 40
0.6150529163
 40
0.6405740509
 40
0.6663118661
 40
0.6924161344
 40
0.7462535425
 40
0.8031604333
 40
0.8640010247
 40
0.9294483287
 40
1.0
 40
1.0
 40
1.0
 40
1.0
 10
13.1634755133
 20
7.6057968183
 30
0.0
 10
13.1623204084
 20
7.6079307283
 30
0.0
 10
13.1599835593
 20
7.6119947691
 30
0.0
 10
13.1562463365
 20
7.6176598036
 30
0.0
 10
13.1524098038
 20
7.6226644657
 30
0.0
 10
13.1484782657
 20
7.6270005855
 30
0.0
 10
13.144455467
 20
7.630660953
 30
0.0
 10
13.1403460948
 20
7.633638249
 30
0.0
 10
13.1368055639
 20
7.6355674503
 30
0.0
 10
13.1339529234
 20
7.6367400803
 30
0.0
 10
13.1318244675
 20
7.6374339042
 30
0.0
 10
13.1296810115
 20
7.6379524919
 30
0.0
 10
13.1275235264
 20
7.6382953929
 30
0.0
 10
13.1253531818
 20
7.6384625049
 30
0.0
 10
13.1231711461
 20
7.638453836
 30
0.0
 10
13.1209784588
 20
7.6382693883
 30
0.0
 10
13.1180125955
 20
7.6377846738
 30
0.0
 10
13.1142578879
 20
7.6367180382
 30
0.0
 10
13.109783479
 20
7.6347497526
 30
0.0
 10
13.1052976955
 20
7.6320876745
 30
0.0
 10
13.1008068506
 20
7.6287402881
 30
0.0
 10
13.0979253982
 20
7.6261579149
 30
0.0
 10
13.0964836245
 20
7.6247652683
 30
0.0
  0
SPLINE
  5
3A3
100
AcDbEntity
  8
0
100
AcDbSpline
 62
7
  6
CONTINUOUS
 70
0
 71
3
 72
32
 73
28
 74
0
 42
0.0000001
 43
0.0000001
 44
0.0000000001
 40
0.0
 40
0.0
 40
0.0
 40
0.0
 40
0.0984168272
 40
0.1931166653
 40
0.2837167077
 40
0.3698621945
 40
0.4512332413
 40
0.5275446358
 40
0.5985505394
 40
0.6320029232
 40
0.6640612117
 40
0.6947094563
 40
0.7239368503
 40
0.7517402071
 40
0.7781213678
 40
0.8030879528
 40
0.826657161
 40
0.848858246
 40
0.8697313649
 40
0.8893301897
 40
0.9077275683
 40
0.9250185923
 40
0.9413217188
 40
0.9567823898
 40
0.9715764372
 40
0.9859073512
 40
1.0
 40
1.0
 40
1.0
 40
1.0
 10
11.4347435314
 20
7.1923605465
 30
0.0
 10
11.4350929923
 20
7.1868461373
 30
0.0
 10
11.4358918443
 20
7.1760323198
 30
0.0
 10
11.437427554
 20
7.1601762164
 30
0.0
 10
11.4392720573
 20
7.1450466043
 30
0.0
 10
11.4414168995
 20
7.1307126419
 30
0.0
 10
11.4438518751
 20
7.1172391464
 30
0.0
 10
11.4465656777
 20
7.104687114
 30
0.0
 10
11.4490966388
 20
7.0948551891
 30
0.0
 10
11.4512651013
 20
7.0875031273
 30
0.0
 10
11.4529206982
 20
7.0823639003
 30
0.0
 10
11.4546361582
 20
7.0774950841
 30
0.0
 10
11.4564097218
 20
7.0729022173
 30
0.0
 10
11.458239161
 20
7.0685902955
 30
0.0
 10
11.4601223992
 20
7.0645640572
 30
0.0
 10
11.4620575202
 20
7.0608281007
 30
0.0
 10
11.4640425476
 20
7.0573866059
 30
0.0
 10
11.4660751695
 20
7.0542431144
 30
0.0
 10
11.4681533255
 20
7.0514009723
 30
0.0
 10
11.4702752729
 20
7.0488635094
 30
0.0
 10
11.4724391828
 20
7.0466336463
 30
0.0
 10
11.4746430847
 20
7.0447138048
 30
0.0
 10
11.4768853119
 20
7.0431066071
 30
0.0
 10
11.4791642426
 20
7.0418152794
 30
0.0
 10
11.4814776578
 20
7.0408426926
 30
0.0
 10
11.4838217867
 20
7.0401913
 30
0.0
 10
11.4854082374
 20
7.0399719905
 30
0.0
 10
11.4861975484
 20
7.0399171836
 30
0.0
  0
SPLINE
  5
3A4
100
AcDbEntity
  8
0
100
AcDbSpline
 62
7
  6
CONTINUOUS
 70
0
 71
3
 72
22
 73
18
 74
0
 42
0.0000001
 43
0.0000001
 44
0.0000000001
 40
0.0
 40
0.0
 40
0.0
 40
0.0
 40
0.1689714217
 40
0.2497054213
 40
0.3276805612
 40
0.4027209288
 40
0.4746647944
 40
0.5433591463
 40
0.6086707932
 40
0.6704778223
 40
0.7286792489
 40
0.7831985952
 40
0.8339798764
 40
0.8810057086
 40
0.9242936103
 40
0.9639123066
 40
1.0
 40
1.0
 40
1.0
 40
1.0
 10
11.4539934904
 20
7.1921146102
 30
0.0
 10
11.4545109243
 20
7.1837671481
 30
0.0
 10
11.4554687518
 20
7.1714415554
 30
0.0
 10
11.457168099
 20
7.1553110812
 30
0.0
 10
11.4586023981
 20
7.1438297418
 30
0.0
 10
11.4602118684
 20
7.1328111285
 30
0.0
 10
11.461991867
 20
7.1222842544
 30
0.0
 10
11.4639381667
 20
7.1122768542
 30
0.0
 10
11.4660449503
 20
7.102815221
 30
0.0
 10
11.4683068738
 20
7.0939242081
 30
0.0
 10
11.4707180032
 20
7.0856271046
 30
0.0
 10
11.4732713581
 20
7.0779453498
 30
0.0
 10
11.4759610205
 20
7.0708988369
 30
0.0
 10
11.478779329
 20
7.0645053437
 30
0.0
 10
11.4817197315
 20
7.0587805286
 30
0.0
 10
11.4847751985
 20
7.0537391859
 30
0.0
 10
11.486984329
 20
7.0507042796
 30
0.0
 10
11.4881113425
 20
7.0493184964
 30
0.0
  0
SPLINE
  5
3A5
100
AcDbEntity
  8
0
100
AcDbSpline
 62
7
  6
CONTINUOUS
 70
0
 71
3
 72
21
 73
17
 74
0
 42
0.0000001
 43
0.0000001
 44
0.0000000001
 40
0.0
 40
0.0
 40
0.0
 40
0.0
 40
0.1602951167
 40
0.312018373
 40
0.3843803258
 40
0.4542644253
 40
0.5215740623
 40
0.5862190465
 40
0.6481166548
 40
0.7071964876
 40
0.7633953648
 40
0.8166645948
 40
0.866969269
 40
0.9142885147
 40
0.9586245927
 40
1.0
 40
1.0
 40
1.0
 40
1.0
 10
11.6315367888
 20
7.134638919
 30
0.0
 10
11.632180777
 20
7.1265103687
 30
0.0
 10
11.6336492883
 20
7.110703932
 30
0.0
 10
11.6360554055
 20
7.0912957805
 30
0.0
 10
11.6382862711
 20
7.0765085141
 30
0.0
 10
11.6400724262
 20
7.0659986941
 30
0.0
 10
11.6419945648
 20
7.0559121826
 30
0.0
 10
11.6440492665
 20
7.0462667416
 30
0.0
 10
11.6462330982
 20
7.0370793895
 30
0.0
 10
11.6485417904
 20
7.0283662324
 30
0.0
 10
11.6509715447
 20
7.0201425783
 30
0.0
 10
11.6535179426
 20
7.012422775
 30
0.0
 10
11.6561762936
 20
7.0052202048
 30
0.0
 10
11.6589424174
 20
6.9985473128
 30
0.0
 10
11.6618109564
 20
6.9924156696
 30
0.0
 10
11.6638588244
 20
6.9885634916
 30
0.0
 10
11.6649030051
 20
6.9867360557
 30
0.0
  0
SPLINE
  5
3A6
100
AcDbEntity
  8
0
100
AcDbSpline
 62
7
  6
CONTINUOUS
 70
0
 71
3
 72
9
 73
5
 74
0
 42
0.0000001
 43
0.0000001
 44
0.0000000001
 40
0.0
 40
0.0
 40
0.0
 40
0.0
 40
0.5221049272
 40
1.0
 40
1.0
 40
1.0
 40
1.0
 10
11.6649030051
 20
6.9867360557
 30
0.0
 10
11.6660190674
 20
6.9847828189
 30
0.0
 10
11.6682791326
 20
6.9811096049
 30
0.0
 10
11.6708293847
 20
6.9776283927
 30
0.0
 10
11.6721286536
 20
6.9760309358
 30
0.0
  0
SPLINE
  5
3A7
100
AcDbEntity
  8
0
100
AcDbSpline
 62
7
  6
CONTINUOUS
 70
0
 71
3
 72
22
 73
18
 74
0
 42
0.0000001
 43
0.0000001
 44
0.0000000001
 40
0.0
 40
0.0
 40
0.0
 40
0.0
 40
0.0448572366
 40
0.09028369
 40
0.136825187
 40
0.1849870171
 40
0.235222345
 40
0.2879215062
 40
0.343413634
 40
0.4019736779
 40
0.4638289836
 40
0.5291610926
 40
0.5981084958
 40
0.6707791407
 40
0.7472564539
 40
0.827602156
 40
1.0
 40
1.0
 40
1.0
 40
1.0
 10
11.299775333
 20
7.0528455783
 30
0.0
 10
11.299092385
 20
7.0528929114
 30
0.0
 10
11.2977221149
 20
7.0530692971
 30
0.0
 10
11.2956916792
 20
7.0535749695
 30
0.0
 10
11.293682962
 20
7.054321184
 30
0.0
 10
11.29169838
 20
7.0553065527
 30
0.0
 10
11.2897396705
 20
7.0565297565
 30
0.0
 10
11.2878081762
 20
7.0579888736
 30
0.0
 10
11.2859050783
 20
7.059682098
 30
0.0
 10
11.2840316083
 20
7.0616078097
 30
0.0
 10
11.2821891367
 20
7.0637644887
 30
0.0
 10
11.2803790128
 20
7.0661503328
 30
0.0
 10
11.2786023792
 20
7.0687631538
 30
0.0
 10
11.2768606135
 20
7.0716007567
 30
0.0
 10
11.275155051
 20
7.0746609368
 30
0.0
 10
11.2728777454
 20
7.0791405943
 30
0.0
 10
11.271312299
 20
7.0826696817
 30
0.0
 10
11.2703113934
 20
7.0851029022
 30
0.0
  0
SPLINE
  5
3A8
100
AcDbEntity
  8
0
100
AcDbSpline
 62
7
  6
CONTINUOUS
 70
0
 71
3
 72
23
 73
19
 74
0
 42
0.0000001
 43
0.0000001
 44
0.0000000001
 40
0.0
 40
0.0
 40
0.0
 40
0.0
 40
0.042218669
 40
0.0872047657
 40
0.1353668694
 40
0.1869353442
 40
0.2419820422
 40
0.3004466988
 40
0.3621601768
 40
0.4268614659
 40
0.4942157533
 40
0.5638221445
 40
0.6352227297
 40
0.7079101733
 40
0.7813236628
 40
0.8548829205
 40
0.928000168
 40
1.0
 40
1.0
 40
1.0
 40
1.0
 10
11.2887406599
 20
7.1078119724
 30
0.0
 10
11.2891858597
 20
7.1069391004
 30
0.0
 10
11.2902549482
 20
7.1052097179
 30
0.0
 10
11.2922731711
 20
7.1027910527
 30
0.0
 10
11.2947271409
 20
7.1004872073
 30
0.0
 10
11.2975918548
 20
7.0983108275
 30
0.0
 10
11.3008391135
 20
7.0962695122
 30
0.0
 10
11.3044384267
 20
7.0943693952
 30
0.0
 10
11.3083569113
 20
7.0926147047
 30
0.0
 10
11.3125591976
 20
7.0910073817
 30
0.0
 10
11.3170081497
 20
7.0895487458
 30
0.0
 10
11.3216644895
 20
7.0882386355
 30
0.0
 10
11.3264871901
 20
7.0870767508
 30
0.0
 10
11.3314331688
 20
7.0860626046
 30
0.0
 10
11.3364578211
 20
7.0851958347
 30
0.0
 10
11.3415157348
 20
7.0844766763
 30
0.0
 10
11.3465594801
 20
7.0839062768
 30
0.0
 10
11.3499161423
 20
7.0836232532
 30
0.0
 10
11.3515831792
 20
7.0835076438
 30
0.0
  0
SPLINE
  5
3A9
100
AcDbEntity
  8
0
100
AcDbSpline
 62
7
  6
CONTINUOUS
 70
0
 71
3
 72
24
 73
20
 74
0
 42
0.0000001
 43
0.0000001
 44
0.0000000001
 40
0.0
 40
0.0
 40
0.0
 40
0.0
 40
0.0395782721
 40
0.079309003
 40
0.1204312624
 40
0.1640271417
 40
0.1870418946
 40
0.2109720345
 40
0.2618157255
 40
0.3169690266
 40
0.3766221293
 40
0.4408238367
 40
0.5094990958
 40
0.5824522332
 40
0.6594278101
 40
0.7400978275
 40
0.8240924426
 40
0.9109294877
 40
1.0
 40
1.0
 40
1.0
 40
1.0
 10
11.3898103198
 20
7.075771441
 30
0.0
 10
11.3896812046
 20
7.075164101
 30
0.0
 10
11.3893080739
 20
7.0739677686
 30
0.0
 10
11.3884036032
 20
7.072296513
 30
0.0
 10
11.3871699031
 20
7.0707704883
 30
0.0
 10
11.3859011497
 20
7.069643386
 30
0.0
 10
11.3847461236
 20
7.068815308
 30
0.0
 10
11.3834432014
 20
7.0680035298
 30
0.0
 10
11.3816189695
 20
7.0670842168
 30
0.0
 10
11.3791916721
 20
7.0661468692
 30
0.0
 10
11.3764959258
 20
7.0653504636
 30
0.0
 10
11.3735460011
 20
7.064692665
 30
0.0
 10
11.3703578059
 20
7.0641709736
 30
0.0
 10
11.3669492511
 20
7.0637821307
 30
0.0
 10
11.3633398923
 20
7.0635234915
 30
0.0
 10
11.3595504972
 20
7.063392262
 30
0.0
 10
11.3556042377
 20
7.0633857908
 30
0.0
 10
11.3515279299
 20
7.0635011861
 30
0.0
 10
11.3487722029
 20
7.063656029
 30
0.0
 10
11.3473781932
 20
7.0637527039
 30
0.0
  0
SPLINE
  5
3AA
100
AcDbEntity
  8
0
100
AcDbSpline
 62
7
  6
CONTINUOUS
 70
0
 71
3
 72
32
 73
28
 74
0
 42
0.0000001
 43
0.0000001
 44
0.0000000001
 40
0.0
 40
0.0
 40
0.0
 40
0.0
 40
0.0984789147
 40
0.1931791535
 40
0.2837283231
 40
0.3697871549
 40
0.4510464362
 40
0.5272343109
 40
0.5981150256
 40
0.6315084691
 40
0.6635116797
 40
0.6941098099
 40
0.7232940375
 40
0.7510623854
 40
0.77741765
 40
0.8023685548
 40
0.8259339984
 40
0.8481442258
 40
0.8690402068
 40
0.888676441
 40
0.9071266766
 40
0.9244861206
 40
0.9408728079
 40
0.9564310937
 40
0.9713347906
 40
0.9857841788
 40
1.0
 40
1.0
 40
1.0
 40
1.0
 10
11.4050546849
 20
7.1905669932
 30
0.0
 10
11.4054230357
 20
7.1851779134
 30
0.0
 10
11.406256286
 20
7.1746136738
 30
0.0
 10
11.4078343072
 20
7.1591297239
 30
0.0
 10
11.4097110178
 20
7.1443653335
 30
0.0
 10
11.4118775445
 20
7.1303860461
 30
0.0
 10
11.4143243594
 20
7.1172531668
 30
0.0
 10
11.4170399871
 20
7.1050244469
 30
0.0
 10
11.4195647016
 20
7.0954498549
 30
0.0
 10
11.4217231061
 20
7.0882926496
 30
0.0
 10
11.4233691069
 20
7.0832904999
 30
0.0
 10
11.4250728909
 20
7.0785523206
 30
0.0
 10
11.4268326583
 20
7.0740832926
 30
0.0
 10
11.4286462916
 20
7.0698881236
 30
0.0
 10
11.4305118109
 20
7.0659713257
 30
0.0
 10
11.4324274304
 20
7.0623372754
 30
0.0
 10
11.4343911563
 20
7.0589898592
 30
0.0
 10
11.436400808
 20
7.0559324225
 30
0.0
 10
11.4384544238
 20
7.0531681607
 30
0.0
 10
11.4405503686
 20
7.0507002662
 30
0.0
 10
11.4426868164
 20
7.0485314465
 30
0.0
 10
11.4448619014
 20
7.0466640191
 30
0.0
 10
11.4470740119
 20
7.0451005063
 30
0.0
 10
11.4493215656
 20
7.0438440052
 30
0.0
 10
11.4516023707
 20
7.0428971686
 30
0.0
 10
11.4539128151
 20
7.0422623046
 30
0.0
 10
11.4554759689
 20
7.0420477994
 30
0.0
 10
11.456253846
 20
7.0419937864
 30
0.0
  0
SPLINE
  5
3AB
100
AcDbEntity
  8
0
100
AcDbSpline
 62
7
  6
CONTINUOUS
 70
0
 71
3
 72
30
 73
26
 74
0
 42
0.0000001
 43
0.0000001
 44
0.0000000001
 40
0.0
 40
0.0
 40
0.0
 40
0.0
 40
0.0777230269
 40
0.1567540976
 40
0.2359933621
 40
0.3145017977
 40
0.3913781415
 40
0.4657736573
 40
0.5369601153
 40
0.6043260399
 40
0.66740685
 40
0.6972519951
 40
0.725936785
 40
0.7534602069
 40
0.7798409518
 40
0.8051168294
 40
0.8293460473
 40
0.8526114002
 40
0.8750194949
 40
0.8966995918
 40
0.9178044501
 40
0.9385036728
 40
0.9589778398
 40
0.9794152135
 40
1.0
 40
1.0
 40
1.0
 40
1.0
 10
11.3473781932
 20
7.0637527039
 30
0.0
 10
11.3453104817
 20
7.0638961002
 30
0.0
 10
11.3411454927
 20
7.0642661992
 30
0.0
 10
11.3349002884
 20
7.0650540337
 30
0.0
 10
11.3286680664
 20
7.0660784829
 30
0.0
 10
11.3225373038
 20
7.0673369174
 30
0.0
 10
11.3165915003
 20
7.0688275245
 30
0.0
 10
11.3109117811
 20
7.070549657
 30
0.0
 10
11.3055749589
 20
7.0725008957
 30
0.0
 10
11.3006535956
 20
7.074677869
 30
0.0
 10
11.296886723
 20
7.0767112612
 30
0.0
 10
11.2941510876
 20
7.0784553087
 30
0.0
 10
11.2922823501
 20
7.079789279
 30
0.0
 10
11.2905660249
 20
7.0811716532
 30
0.0
 10
11.2890083603
 20
7.0825995546
 30
0.0
 10
11.2876148682
 20
7.0840695448
 30
0.0
 10
11.2863913624
 20
7.0855786069
 30
0.0
 10
11.2853431462
 20
7.0871230406
 30
0.0
 10
11.2844736876
 20
7.0886978297
 30
0.0
 10
11.2837867166
 20
7.0902982048
 30
0.0
 10
11.2832862199
 20
7.091918976
 30
0.0
 10
11.2829734727
 20
7.0935535999
 30
0.0
 10
11.2828493928
 20
7.0951955738
 30
0.0
 10
11.2829150712
 20
7.0968376868
 30
0.0
 10
11.2830837207
 20
7.097921333
 30
0.0
 10
11.2831978952
 20
7.0984582727
 30
0.0
  0
SPLINE
  5
3AC
100
AcDbEntity
  8
0
100
AcDbSpline
 62
7
  6
CONTINUOUS
 70
0
 71
3
 72
16
 73
12
 74
0
 42
0.0000001
 43
0.0000001
 44
0.0000000001
 40
0.0
 40
0.0
 40
0.0
 40
0.0
 40
0.153116556
 40
0.3005428109
 40
0.4407187755
 40
0.5724457075
 40
0.6947228808
 40
0.8068592242
 40
0.8590244096
 40
0.908579538
 40
1.0
 40
1.0
 40
1.0
 40
1.0
 10
11.3515831792
 20
7.0835076438
 30
0.0
 10
11.353415098
 20
7.0833805998
 30
0.0
 10
11.3570152693
 20
7.0831899286
 30
0.0
 10
11.3623011861
 20
7.0830983063
 30
0.0
 10
11.3673304166
 20
7.0832121809
 30
0.0
 10
11.372048594
 20
7.0835383382
 30
0.0
 10
11.3764081407
 20
7.0840848575
 30
0.0
 10
11.3797848869
 20
7.0847454158
 30
0.0
 10
11.3822646
 20
7.0854046203
 30
0.0
 10
11.3844713806
 20
7.0861096042
 30
0.0
 10
11.3860404414
 20
7.0867552308
 30
0.0
 10
11.3870201486
 20
7.0872474386
 30
0.0
  0
SPLINE
  5
3AD
100
AcDbEntity
  8
0
100
AcDbSpline
 62
7
  6
CONTINUOUS
 70
0
 71
3
 72
22
 73
18
 74
0
 42
0.0000001
 43
0.0000001
 44
0.0000000001
 40
0.0
 40
0.0
 40
0.0
 40
0.0
 40
0.1687246346
 40
0.2492649173
 40
0.3270240184
 40
0.4018451813
 40
0.4735782166
 40
0.5420863796
 40
0.6072496865
 40
0.6689579797
 40
0.7271245295
 40
0.7816814588
 40
0.8325825173
 40
0.8798177506
 40
0.9234082485
 40
0.9634244939
 40
1.0
 40
1.0
 40
1.0
 40
1.0
 10
11.417427817
 20
7.1917761518
 30
0.0
 10
11.4179767185
 20
7.184170022
 30
0.0
 10
11.4189622715
 20
7.1729441765
 30
0.0
 10
11.4206563148
 20
7.158260293
 30
0.0
 10
11.422065407
 20
7.1478177632
 30
0.0
 10
11.4236286657
 20
7.1377998582
 30
0.0
 10
11.4253424809
 20
7.1282309776
 30
0.0
 10
11.4272027357
 20
7.1191344851
 30
0.0
 10
11.4292043354
 20
7.1105324603
 30
0.0
 10
11.4313428714
 20
7.1024458269
 30
0.0
 10
11.4336127443
 20
7.0948940789
 30
0.0
 10
11.4360082214
 20
7.0878952805
 30
0.0
 10
11.4385240911
 20
7.081466216
 30
0.0
 10
11.4411536241
 20
7.0756218193
 30
0.0
 10
11.4438913939
 20
7.0703754399
 30
0.0
 10
11.4467311614
 20
7.0657396032
 30
0.0
 10
11.4487777065
 20
7.0629405669
 30
0.0
 10
11.4498207444
 20
7.0616580433
 30
0.0
  0
SPLINE
  5
3AE
100
AcDbEntity
  8
0
100
AcDbSpline
 62
7
  6
CONTINUOUS
 70
0
 71
3
 72
22
 73
18
 74
0
 42
0.0000001
 43
0.0000001
 44
0.0000000001
 40
0.0
 40
0.0
 40
0.0
 40
0.0
 40
0.1688266877
 40
0.249440333
 40
0.3272798006
 40
0.4021821665
 40
0.4739927951
 40
0.5425686352
 40
0.6077852764
 40
0.6695282589
 40
0.7277058351
 40
0.7822471045
 40
0.8331022161
 40
0.8802586735
 40
0.923736302
 40
0.9636049938
 40
1.0
 40
1.0
 40
1.0
 40
1.0
 10
11.4471786811
 20
7.1924430733
 30
0.0
 10
11.4477101336
 20
7.1846759535
 30
0.0
 10
11.4486742039
 20
7.1732107346
 30
0.0
 10
11.4503493825
 20
7.1582111267
 30
0.0
 10
11.4517499034
 20
7.1475409307
 30
0.0
 10
11.4533098508
 20
7.1373032871
 30
0.0
 10
11.4550253147
 20
7.1275238578
 30
0.0
 10
11.4568922316
 20
7.1182272306
 30
0.0
 10
11.4589052687
 20
7.1094366407
 30
0.0
 10
11.4610597849
 20
7.1011740759
 30
0.0
 10
11.4633501238
 20
7.0934600721
 30
0.0
 10
11.4657701876
 20
7.0863136078
 30
0.0
 10
11.4683146106
 20
7.0797523209
 30
0.0
 10
11.4709764092
 20
7.0737919198
 30
0.0
 10
11.4737498499
 20
7.0684463714
 30
0.0
 10
11.4766285004
 20
7.0637288177
 30
0.0
 10
11.4787055063
 20
7.0608835179
 30
0.0
 10
11.4797644467
 20
7.0595814405
 30
0.0
  0
SPLINE
  5
3AF
100
AcDbEntity
  8
0
100
AcDbSpline
 62
7
  6
CONTINUOUS
 70
0
 71
3
 72
71
 73
67
 74
0
 42
0.0000001
 43
0.0000001
 44
0.0000000001
 40
0.0
 40
0.0
 40
0.0
 40
0.0
 40
0.0086183045
 40
0.0180359393
 40
0.0282774105
 40
0.0393564625
 40
0.0512781296
 40
0.0640378958
 40
0.0776250913
 40
0.0920232179
 40
0.1072117868
 40
0.1231658307
 40
0.1398572842
 40
0.1572546971
 40
0.1753241334
 40
0.1940290039
 40
0.2133306066
 40
0.2331881854
 40
0.2535591738
 40
0.2743994301
 40
0.3173027715
 40
0.361519727
 40
0.4066550892
 40
0.4523029813
 40
0.4980515862
 40
0.543487947
 40
0.5882027195
 40
0.6317948689
 40
0.6738765337
 40
0.6942352243
 40
0.7140792978
 40
0.733366459
 40
0.7520557836
 40
0.7701088067
 40
0.787488863
 40
0.8041621715
 40
0.8200973202
 40
0.835266318
 40
0.8496443582
 40
0.8632108551
 40
0.8759496714
 40
0.8878502332
 40
0.8989085158
 40
0.9091285724
 40
0.918524806
 40
0.9229228333
 40
0.9271266484
 40
0.9311423984
 40
0.9349775433
 40
0.9386412816
 40
0.9421446441
 40
0.9487194173
 40
0.9518277341
 40
0.9548406328
 40
0.9577798837
 40
0.9606690845
 40
0.9635332345
 40
0.9663980304
 40
0.9692891128
 40
0.9722313973
 40
0.9752484705
 40
0.978362059
 40
0.9849504617
 40
0.9884622309
 40
0.9921349033
 40
1.0
 40
1.0
 40
1.0
 40
1.0
 10
13.0964836245
 20
7.6247652683
 30
0.0
 10
13.094578294
 20
7.6229248604
 30
0.0
 10
13.0907795544
 20
7.6188757517
 30
0.0
 10
13.085343188
 20
7.6120853893
 30
0.0
 10
13.0799349347
 20
7.6043309986
 30
0.0
 10
13.0745670069
 20
7.5956315654
 30
0.0
 10
13.0692515688
 20
7.5860062128
 30
0.0
 10
13.0640004307
 20
7.5754772817
 30
0.0
 10
13.0588266926
 20
7.5640692041
 30
0.0
 10
13.0537423161
 20
7.5518090727
 30
0.0
 10
13.0487599318
 20
7.5387258772
 30
0.0
 10
13.0438912188
 20
7.5248508434
 30
0.0
 10
13.0391482717
 20
7.5102170727
 30
0.0
 10
13.0345423291
 20
7.4948596459
 30
0.0
 10
13.0300847421
 20
7.4788153646
 30
0.0
 10
13.0257861551
 20
7.4621227663
 30
0.0
 10
13.0216570785
 20
7.4448219403
 30
0.0
 10
13.0177074571
 20
7.4269544962
 30
0.0
 10
13.0139468191
 20
7.408563363
 30
0.0
 10
13.0091505679
 20
7.3831567438
 30
0.0
 10
13.003708756
 20
7.3504169843
 30
0.0
 10
12.998123229
 20
7.3101461907
 30
0.0
 10
12.9934753421
 20
7.2689074414
 30
0.0
 10
12.9898100803
 20
7.2270973598
 30
0.0
 10
12.9871628611
 20
7.1851177996
 30
0.0
 10
12.9855590832
 20
7.1433724047
 30
0.0
 10
12.9850138555
 20
7.102262392
 30
0.0
 10
12.985532011
 20
7.0621831449
 30
0.0
 10
12.9868590155
 20
7.0296135661
 30
0.0
 10
12.9884665301
 20
7.0043718023
 30
0.0
 10
12.9899185736
 20
6.9861431079
 30
0.0
 10
12.9916262783
 20
6.9684519807
 30
0.0
 10
12.9935858478
 20
6.951340889
 30
0.0
 10
12.9957921677
 20
6.9348509932
 30
0.0
 10
12.9982401465
 20
6.9190218632
 30
0.0
 10
13.0009235331
 20
6.9038914896
 30
0.0
 10
13.003836018
 20
6.8894961045
 30
0.0
 10
13.0069702832
 20
6.875870133
 30
0.0
 10
13.0103188634
 20
6.863046058
 30
0.0
 10
13.0138734964
 20
6.8510543332
 30
0.0
 10
13.0176256798
 20
6.8399232416
 30
0.0
 10
13.0215664158
 20
6.8296788827
 30
0.0
 10
13.0256864805
 20
6.8203447204
 30
0.0
 10
13.029976497
 20
6.8119425627
 30
0.0
 10
13.0337648441
 20
6.8055989609
 30
0.0
 10
13.0368845325
 20
6.8010286153
 30
0.0
 10
13.0392087136
 20
6.7979221878
 30
0.0
 10
13.0415677501
 20
6.7950628899
 30
0.0
 10
13.0439604534
 20
6.7924526486
 30
0.0
 10
13.0463859456
 20
6.7900927418
 30
0.0
 10
13.0495926034
 20
6.7873409776
 30
0.0
 10
13.0529321724
 20
6.7850125293
 30
0.0
 10
13.0563861356
 20
6.7831877726
 30
0.0
 10
13.0589546812
 20
6.7821017782
 30
0.0
 10
13.0615473745
 20
6.7812744082
 30
0.0
 10
13.0641625225
 20
6.7807067878
 30
0.0
 10
13.0667979536
 20
6.7803997525
 30
0.0
 10
13.0694513724
 20
6.7803533689
 30
0.0
 10
13.0721205254
 20
6.7805675403
 30
0.0
 10
13.0748031947
 20
6.7810419383
 30
0.0
 10
13.0774975029
 20
6.7817760091
 30
0.0
 10
13.0811712938
 20
6.7831244058
 30
0.0
 10
13.0848008359
 20
6.7849866619
 30
0.0
 10
13.0883570843
 20
6.7872865441
 30
0.0
 10
13.0920797368
 20
6.7900368398
 30
0.0
 10
13.0947448128
 20
6.7923894454
 30
0.0
 10
13.0964836245
 20
6.7940690085
 30
0.0
  0
SPLINE
  5
3B0
100
AcDbEntity
  8
0
100
AcDbSpline
 62
7
  6
CONTINUOUS
 70
0
 71
3
 72
11
 73
7
 74
0
 42
0.0000001
 43
0.0000001
 44
0.0000000001
 40
0.0
 40
0.0
 40
0.0
 40
0.0
 40
0.2194340125
 40
0.4588817458
 40
0.7189543789
 40
1.0
 40
1.0
 40
1.0
 40
1.0
 10
13.0964836245
 20
6.7940690085
 30
0.0
 10
13.0983556263
 20
6.7958772235
 30
0.0
 10
13.1020883574
 20
6.7998492249
 30
0.0
 10
13.1074346466
 20
6.8065010014
 30
0.0
 10
13.1127541108
 20
6.8140853465
 30
0.0
 10
13.1161431484
 20
6.8195396415
 30
0.0
 10
13.11783659
 20
6.8224109263
 30
0.0
  0
SPLINE
  5
3B1
100
AcDbEntity
  8
0
100
AcDbSpline
 62
7
  6
CONTINUOUS
 70
0
 71
3
 72
15
 73
11
 74
0
 42
0.0000001
 43
0.0000001
 44
0.0000000001
 40
0.0
 40
0.0
 40
0.0
 40
0.0
 40
0.1520540631
 40
0.2925498238
 40
0.4228796996
 40
0.5448610149
 40
0.6607607174
 40
0.7732723466
 40
0.8853533337
 40
1.0
 40
1.0
 40
1.0
 40
1.0
 10
11.3183739375
 20
7.0136368047
 30
0.0
 10
11.3172126917
 20
7.0125560655
 30
0.0
 10
11.3148923013
 20
7.0105657395
 30
0.0
 10
11.3112684821
 20
7.0080350553
 30
0.0
 10
11.3076498759
 20
7.006088879
 30
0.0
 10
11.3040411544
 20
7.0047342083
 30
0.0
 10
11.300448359
 20
7.0039802064
 30
0.0
 10
11.2968818466
 20
7.003833741
 30
0.0
 10
11.2933563025
 20
7.0042970845
 30
0.0
 10
11.2910843965
 20
7.0049982823
 30
0.0
 10
11.2899718127
 20
7.0054373373
 30
0.0
  0
SPLINE
  5
3B2
100
AcDbEntity
  8
0
100
AcDbSpline
 62
7
  6
CONTINUOUS
 70
0
 71
3
 72
9
 73
5
 74
0
 42
0.0000001
 43
0.0000001
 44
0.0000000001
 40
0.0
 40
0.0
 40
0.0
 40
0.0
 40
0.5135770252
 40
1.0
 40
1.0
 40
1.0
 40
1.0
 10
12.5297440335
 20
6.9205257088
 30
0.0
 10
12.5308574156
 20
6.9132773141
 30
0.0
 10
12.5332045594
 20
6.8991905152
 30
0.0
 10
12.5359568669
 20
6.8851765701
 30
0.0
 10
12.537408639
 20
6.8783843166
 30
0.0
  0
SPLINE
  5
3B3
100
AcDbEntity
  8
0
100
AcDbSpline
 62
7
  6
CONTINUOUS
 70
0
 71
3
 72
9
 73
5
 74
0
 42
0.0000001
 43
0.0000001
 44
0.0000000001
 40
0.0
 40
0.0
 40
0.0
 40
0.0
 40
0.4861313864
 40
1.0
 40
1.0
 40
1.0
 40
1.0
 10
12.6429814221
 20
7.71320538
 30
0.0
 10
12.6416667604
 20
7.7119355142
 30
0.0
 10
12.6390404013
 20
7.70924184
 30
0.0
 10
12.6365583798
 20
7.7064153773
 30
0.0
 10
12.6353168166
 20
7.7049349941
 30
0.0
  0
SPLINE
  5
3B4
100
AcDbEntity
  8
0
100
AcDbSpline
 62
7
  6
CONTINUOUS
 70
0
 71
3
 72
54
 73
50
 74
0
 42
0.0000001
 43
0.0000001
 44
0.0000000001
 40
0.0
 40
0.0
 40
0.0
 40
0.0
 40
0.007652089
 40
0.015894366
 40
0.0247439424
 40
0.0342118339
 40
0.0443042741
 40
0.0550231148
 40
0.0663650317
 40
0.0783237981
 40
0.0908901752
 40
0.1040523709
 40
0.1177968755
 40
0.1321075661
 40
0.1469670977
 40
0.1623562975
 40
0.1946388894
 40
0.2287769769
 40
0.2645731558
 40
0.3018150254
 40
0.3402776489
 40
0.3797259005
 40
0.4199165946
 40
0.4606005868
 40
0.501524826
 40
0.5424342761
 40
0.5830740552
 40
0.6231914734
 40
0.662537972
 40
0.7008711266
 40
0.7379568961
 40
0.7735717508
 40
0.807504894
 40
0.8237795609
 40
0.839561876
 40
0.8548301306
 40
0.8695643322
 40
0.8837453965
 40
0.8973564055
 40
0.9103819253
 40
0.922808461
 40
0.9346251851
 40
0.9458232135
 40
0.9563972633
 40
0.9663451664
 40
0.9756689065
 40
0.9843759069
 40
0.9924791644
 40
1.0
 40
1.0
 40
1.0
 40
1.0
 10
12.5835769803
 20
7.6579206502
 30
0.0
 10
12.5820153592
 20
7.65641224
 30
0.0
 10
12.5788984921
 20
7.6531462394
 30
0.0
 10
12.5744012217
 20
7.6477495951
 30
0.0
 10
12.5699197878
 20
7.6416862326
 30
0.0
 10
12.56546194
 20
7.634966595
 30
0.0
 10
12.5610341435
 20
7.6276013139
 30
0.0
 10
12.5566437188
 20
7.6196018747
 30
0.0
 10
12.5522973371
 20
7.6109813029
 30
0.0
 10
12.5480025464
 20
7.6017535478
 30
0.0
 10
12.5437664136
 20
7.5919337818
 30
0.0
 10
12.5395957851
 20
7.581538167
 30
0.0
 10
12.5354979234
 20
7.5705837362
 30
0.0
 10
12.5314792971
 20
7.5590886531
 30
0.0
 10
12.5275468362
 20
7.5470718574
 30
0.0
 10
12.5223439833
 20
7.5301086345
 30
0.0
 10
12.5161261238
 20
7.5077397689
 30
0.0
 10
12.5092205005
 20
7.4795673588
 30
0.0
 10
12.5028032207
 20
7.4498388454
 30
0.0
 10
12.4969173861
 20
7.4187513151
 30
0.0
 10
12.4916025185
 20
7.3865106933
 30
0.0
 10
12.4868942211
 20
7.3533308533
 30
0.0
 10
12.4828240092
 20
7.31943196
 30
0.0
 10
12.4794190952
 20
7.2850390211
 30
0.0
 10
12.4767022247
 20
7.2503803788
 30
0.0
 10
12.4746914604
 20
7.2156861752
 30
0.0
 10
12.4734000829
 20
7.1811867882
 30
0.0
 10
12.4728365508
 20
7.1471112695
 30
0.0
 10
12.4730044127
 20
7.1136858278
 30
0.0
 10
12.4739023178
 20
7.0811323305
 30
0.0
 10
12.4755238843
 20
7.049666649
 30
0.0
 10
12.4778579252
 20
7.0194975962
 30
0.0
 10
12.4804172592
 20
6.9952775636
 30
0.0
 10
12.4828265403
 20
6.9767087839
 30
0.0
 10
12.4847753647
 20
6.9634224446
 30
0.0
 10
12.4868880453
 20
6.9506039137
 30
0.0
 10
12.4891607578
 20
6.9382744088
 30
0.0
 10
12.4915900266
 20
6.9264543609
 30
0.0
 10
12.49417153
 20
6.9151633078
 30
0.0
 10
12.4969009825
 20
6.9044198798
 30
0.0
 10
12.4997740138
 20
6.8942418057
 30
0.0
 10
12.5027854522
 20
6.8846457449
 30
0.0
 10
12.5059307321
 20
6.8756474625
 30
0.0
 10
12.5092043351
 20
6.8672615396
 30
0.0
 10
12.5126010214
 20
6.8595014903
 30
0.0
 10
12.5161155481
 20
6.8523798528
 30
0.0
 10
12.5197421443
 20
6.8459075179
 30
0.0
 10
12.5234755868
 20
6.8400953146
 30
0.0
 10
12.5261284951
 20
6.8365373016
 30
0.0
 10
12.5274749099
 20
6.8348817648
 30
0.0
  0
SPLINE
  5
3B5
100
AcDbEntity
  8
0
100
AcDbSpline
 62
7
  6
CONTINUOUS
 70
0
 71
3
 72
9
 73
5
 74
0
 42
0.0000001
 43
0.0000001
 44
0.0000000001
 40
0.0
 40
0.0
 40
0.0
 40
0.0
 40
0.4861313864
 40
1.0
 40
1.0
 40
1.0
 40
1.0
 10
13.0635806479
 20
7.6840367246
 30
0.0
 10
13.0622659862
 20
7.6827668589
 30
0.0
 10
13.0596396271
 20
7.6800731847
 30
0.0
 10
13.0571576056
 20
7.677246722
 30
0.0
 10
13.0559160423
 20
7.6757663387
 30
0.0
  0
SPLINE
  5
3B6
100
AcDbEntity
  8
0
100
AcDbSpline
 62
7
  6
CONTINUOUS
 70
0
 71
3
 72
9
 73
5
 74
0
 42
0.0000001
 43
0.0000001
 44
0.0000000001
 40
0.0
 40
0.0
 40
0.0
 40
0.0
 40
0.5135770252
 40
1.0
 40
1.0
 40
1.0
 40
1.0
 10
12.9503432592
 20
6.8913570534
 30
0.0
 10
12.9514566413
 20
6.8841086588
 30
0.0
 10
12.9538037851
 20
6.8700218598
 30
0.0
 10
12.9565560926
 20
6.8560079148
 30
0.0
 10
12.9580078648
 20
6.8492156613
 30
0.0
  0
SPLINE
  5
3B7
100
AcDbEntity
  8
0
100
AcDbSpline
 62
7
  6
CONTINUOUS
 70
0
 71
3
 72
9
 73
5
 74
0
 42
0.0000001
 43
0.0000001
 44
0.0000000001
 40
0.0
 40
0.0
 40
0.0
 40
0.0
 40
0.4858145728
 40
1.0
 40
1.0
 40
1.0
 40
1.0
 10
13.0712452535
 20
7.6905732205
 30
0.0
 10
13.0699329615
 20
7.6896027839
 30
0.0
 10
13.0673063508
 20
7.687503097
 30
0.0
 10
13.064823122
 20
7.6852368625
 30
0.0
 10
13.0635806479
 20
7.6840367246
 30
0.0
  0
SPLINE
  5
3B8
100
AcDbEntity
  8
0
100
AcDbSpline
 62
7
  6
CONTINUOUS
 70
0
 71
3
 72
23
 73
19
 74
0
 42
0.0000001
 43
0.0000001
 44
0.0000000001
 40
0.0
 40
0.0
 40
0.0
 40
0.0
 40
0.0587350933
 40
0.1176761322
 40
0.1768834012
 40
0.2364298769
 40
0.296393117
 40
0.3568540153
 40
0.4178926034
 40
0.47958109
 40
0.5419794553
 40
0.6051314844
 40
0.6690613323
 40
0.7337740206
 40
0.7992568094
 40
0.8654818333
 40
0.9324122741
 40
1.0
 40
1.0
 40
1.0
 40
1.0
 10
13.0559160423
 20
7.6757663387
 30
0.0
 10
13.0561386955
 20
7.6693663287
 30
0.0
 10
13.0563668394
 20
7.6565350046
 30
0.0
 10
13.0559977658
 20
7.6372484131
 30
0.0
 10
13.0548572982
 20
7.6179024496
 30
0.0
 10
13.0528865674
 20
7.5985106797
 30
0.0
 10
13.0500327498
 20
7.5790902767
 30
0.0
 10
13.0462524288
 20
7.5596625391
 30
0.0
 10
13.0415135943
 20
7.5402521573
 30
0.0
 10
13.0358001033
 20
7.5208856658
 30
0.0
 10
13.02911295
 20
7.5015896824
 30
0.0
 10
13.0214688501
 20
7.482389627
 30
0.0
 10
13.0129004068
 20
7.4633076532
 30
0.0
 10
13.0034535962
 20
7.4443613529
 30
0.0
 10
12.9931829703
 20
7.4255638998
 30
0.0
 10
12.9821492092
 20
7.4069232665
 30
0.0
 10
12.9704162207
 20
7.3884431766
 30
0.0
 10
12.9622080188
 20
7.3762862298
 30
0.0
 10
12.9580078648
 20
7.3702313063
 30
0.0
  0
SPLINE
  5
3B9
100
AcDbEntity
  8
0
100
AcDbSpline
 62
7
  6
CONTINUOUS
 70
0
 71
3
 72
27
 73
23
 74
0
 42
0.0000001
 43
0.0000001
 44
0.0000000001
 40
0.0
 40
0.0
 40
0.0
 40
0.0
 40
0.0708187736
 40
0.1406233766
 40
0.2092866259
 40
0.2766939089
 40
0.3427459169
 40
0.4073797473
 40
0.4391648366
 40
0.4705976452
 40
0.5016875373
 40
0.5324483694
 40
0.5628989257
 40
0.5930606357
 40
0.6229595933
 40
0.6526228523
 40
0.7113477024
 40
0.7694836895
 40
0.8272499768
 40
0.8848327195
 40
0.9423811972
 40
1.0
 40
1.0
 40
1.0
 40
1.0
 10
12.6353168166
 20
7.7049349941
 30
0.0
 10
12.6297156633
 20
7.6992143144
 30
0.0
 10
12.6187793348
 20
7.6876705681
 30
0.0
 10
12.6031714548
 20
7.669879995
 30
0.0
 10
12.5886025797
 20
7.6517180662
 30
0.0
 10
12.5752181628
 20
7.6331840738
 30
0.0
 10
12.563169044
 20
7.6142909236
 30
0.0
 10
12.5543136331
 20
7.5981805883
 30
0.0
 10
12.5480494245
 20
7.5851515057
 30
0.0
 10
12.543794345
 20
7.5753727995
 30
0.0
 10
12.5399666225
 20
7.5655431292
 30
0.0
 10
12.5365759921
 20
7.5556714495
 30
0.0
 10
12.5336254019
 20
7.545768775
 30
0.0
 10
12.5311188127
 20
7.5358449618
 30
0.0
 10
12.5290530763
 20
7.5259108228
 30
0.0
 10
12.5268890545
 20
7.5127111445
 30
0.0
 10
12.5252453735
 20
7.4962069187
 30
0.0
 10
12.5249014988
 20
7.4764476731
 30
0.0
 10
12.5260695135
 20
7.4568516637
 30
0.0
 10
12.5286114912
 20
7.4374562874
 30
0.0
 10
12.5323853384
 20
7.4182829303
 30
0.0
 10
12.5356280519
 20
7.4056657846
 30
0.0
 10
12.537408639
 20
7.3993999617
 30
0.0
  0
SPLINE
  5
3BA
100
AcDbEntity
  8
0
100
AcDbSpline
 62
7
  6
CONTINUOUS
 70
0
 71
3
 72
21
 73
17
 74
0
 42
0.0000001
 43
0.0000001
 44
0.0000000001
 40
0.0
 40
0.0
 40
0.0
 40
0.0
 40
0.1268939481
 40
0.19018282
 40
0.253348645
 40
0.3163802526
 40
0.3792680625
 40
0.4420048434
 40
0.5045854769
 40
0.5670083659
 40
0.6292751195
 40
0.6913901909
 40
0.7533613917
 40
0.8151980596
 40
0.8769105574
 40
1.0
 40
1.0
 40
1.0
 40
1.0
 10
12.9503432592
 20
7.3132830323
 30
0.0
 10
12.9547781311
 20
7.2957770708
 30
0.0
 10
12.9608264499
 20
7.2693799136
 30
0.0
 10
12.9674291872
 20
7.2339302898
 30
0.0
 10
12.971580765
 20
7.2072804395
 30
0.0
 10
12.9748788477
 20
7.180568784
 30
0.0
 10
12.9772745217
 20
7.1538218592
 30
0.0
 10
12.9787286704
 20
7.1270711644
 30
0.0
 10
12.9792168413
 20
7.1003513744
 30
0.0
 10
12.9787311141
 20
7.0736983972
 30
0.0
 10
12.9772792203
 20
7.0471470584
 30
0.0
 10
12.9748854458
 20
7.0207288612
 30
0.0
 10
12.9715888332
 20
6.9944702935
 30
0.0
 10
12.9674382191
 20
6.9683913463
 30
0.0
 10
12.9608478215
 20
6.9339109302
 30
0.0
 10
12.9547918924
 20
6.9083003082
 30
0.0
 10
12.9503432592
 20
6.8913570534
 30
0.0
  0
SPLINE
  5
3BB
100
AcDbEntity
  8
0
100
AcDbSpline
 62
7
  6
CONTINUOUS
 70
0
 71
3
 72
28
 73
24
 74
0
 42
0.0000001
 43
0.0000001
 44
0.0000000001
 40
0.0
 40
0.0
 40
0.0
 40
0.0
 40
0.0609398761
 40
0.0914572702
 40
0.1220081365
 40
0.183218848
 40
0.2446060848
 40
0.3061987468
 40
0.3680249854
 40
0.3990371105
 40
0.4301163603
 40
0.4612639539
 40
0.4924813846
 40
0.5237687001
 40
0.5551254907
 40
0.5865508962
 40
0.618042786
 40
0.6812102733
 40
0.7446118243
 40
0.8082195938
 40
0.8720042464
 40
0.9359407082
 40
1.0
 40
1.0
 40
1.0
 40
1.0
 10
12.5297440335
 20
7.3424516877
 30
0.0
 10
12.5260303957
 20
7.3343945419
 30
0.0
 10
12.5206804112
 20
7.3221971396
 30
0.0
 10
12.5140551297
 20
7.3057155436
 30
0.0
 10
12.5077783803
 20
7.289055803
 30
0.0
 10
12.5006427539
 20
7.2679228238
 30
0.0
 10
12.4933661691
 20
7.2421009317
 30
0.0
 10
12.4875145905
 20
7.2158255004
 30
0.0
 10
12.4839414559
 20
7.1936131105
 30
0.0
 10
12.481915059
 20
7.1756844762
 30
0.0
 10
12.4808208555
 20
7.162152244
 30
0.0
 10
12.4801607303
 20
7.1485620489
 30
0.0
 10
12.4799412542
 20
7.1349272682
 30
0.0
 10
12.4801617153
 20
7.1212620612
 30
0.0
 10
12.4808227878
 20
7.1075808259
 30
0.0
 10
12.4819178603
 20
7.093897569
 30
0.0
 10
12.4839494603
 20
7.0756521181
 30
0.0
 10
12.4875338278
 20
7.0529073086
 30
0.0
 10
12.4933880174
 20
7.0258333196
 30
0.0
 10
12.500665363
 20
6.9990153981
 30
0.0
 10
12.5092218886
 20
6.9724982493
 30
0.0
 10
12.5189141644
 20
6.9463070069
 30
0.0
 10
12.5260368122
 20
6.9290831266
 30
0.0
 10
12.5297440335
 20
6.9205257088
 30
0.0
  0
SPLINE
  5
3BC
100
AcDbEntity
  8
0
100
AcDbSpline
 62
7
  6
CONTINUOUS
 70
0
 71
3
 72
11
 73
7
 74
0
 42
0.0000001
 43
0.0000001
 44
0.0000000001
 40
0.0
 40
0.0
 40
0.0
 40
0.0
 40
0.23931218
 40
0.4830390763
 40
0.7353544119
 40
1.0
 40
1.0
 40
1.0
 40
1.0
 10
11.4861975484
 20
9.5455290231
 30
0.0
 10
11.4870232479
 20
9.5454716895
 30
0.0
 10
11.4887004566
 20
9.5454749254
 30
0.0
 10
11.4912257293
 20
9.5458352933
 30
0.0
 10
11.4937653161
 20
9.5465485354
 30
0.0
 10
11.495419697
 20
9.5472386758
 30
0.0
 10
11.4962445889
 20
9.5476353349
 30
0.0
  0
SPLINE
  5
3BD
100
AcDbEntity
  8
0
100
AcDbSpline
 62
7
  6
CONTINUOUS
 70
0
 71
3
 72
9
 73
5
 74
0
 42
0.0000001
 43
0.0000001
 44
0.0000000001
 40
0.0
 40
0.0
 40
0.0
 40
0.0
 40
0.5031574893
 40
1.0
 40
1.0
 40
1.0
 40
1.0
 10
13.0712452535
 20
9.253243436
 30
0.0
 10
13.076543782
 20
9.2608817713
 30
0.0
 10
13.0868341888
 20
9.2762310224
 30
0.0
 10
13.0965570899
 20
9.2919478037
 30
0.0
 10
13.1012222372
 20
9.2998534572
 30
0.0
  0
SPLINE
  5
3BE
100
AcDbEntity
  8
0
100
AcDbSpline
 62
7
  6
CONTINUOUS
 70
0
 71
3
 72
23
 73
19
 74
0
 42
0.0000001
 43
0.0000001
 44
0.0000000001
 40
0.0
 40
0.0
 40
0.0
 40
0.0
 40
0.0854682494
 40
0.1684691554
 40
0.2488356416
 40
0.3264117226
 40
0.4010490965
 40
0.4726108597
 40
0.5409723155
 40
0.6060202241
 40
0.6676590626
 40
0.7258066686
 40
0.780404785
 40
0.8314148184
 40
0.8788296558
 40
0.9226753554
 40
0.9630226691
 40
1.0
 40
1.0
 40
1.0
 40
1.0
 10
11.6244546309
 20
9.644870564
 30
0.0
 10
11.6248192665
 20
9.640335934
 30
0.0
 10
11.6256084373
 20
9.6314030511
 30
0.0
 10
11.6269962325
 20
9.6182304008
 30
0.0
 10
11.6285686475
 20
9.6055015798
 30
0.0
 10
11.6303217613
 20
9.5932458553
 30
0.0
 10
11.6322516166
 20
9.5814912979
 30
0.0
 10
11.6343537352
 20
9.5702648372
 30
0.0
 10
11.6366230419
 20
9.5595921261
 30
0.0
 10
11.639054584
 20
9.5494975309
 30
0.0
 10
11.6416422596
 20
9.5400039787
 30
0.0
 10
11.6443806082
 20
9.5311330226
 30
0.0
 10
11.6472627928
 20
9.5229045624
 30
0.0
 10
11.650282746
 20
9.5153369989
 30
0.0
 10
11.6534333765
 20
9.5084469928
 30
0.0
 10
11.6567082275
 20
9.502249226
 30
0.0
 10
11.6601002885
 20
9.4967575881
 30
0.0
 10
11.6625387888
 20
9.4934340451
 30
0.0
 10
11.6637806542
 20
9.4919070763
 30
0.0
  0
SPLINE
  5
3BF
100
AcDbEntity
  8
0
100
AcDbSpline
 62
7
  6
CONTINUOUS
 70
0
 71
3
 72
11
 73
7
 74
0
 42
0.0000001
 43
0.0000001
 44
0.0000000001
 40
0.0
 40
0.0
 40
0.0
 40
0.0
 40
0.23931218
 40
0.4830390763
 40
0.7353544119
 40
1.0
 40
1.0
 40
1.0
 40
1.0
 10
11.456253846
 20
9.5476056259
 30
0.0
 10
11.4570795455
 20
9.5475482923
 30
0.0
 10
11.4587567542
 20
9.5475515283
 30
0.0
 10
11.4612820269
 20
9.5479118961
 30
0.0
 10
11.4638216137
 20
9.5486251382
 30
0.0
 10
11.4654759946
 20
9.5493152786
 30
0.0
 10
11.4663008865
 20
9.5497119377
 30
0.0
  0
SPLINE
  5
3C0
100
AcDbEntity
  8
0
100
AcDbSpline
 62
7
  6
CONTINUOUS
 70
0
 71
3
 72
20
 73
16
 74
0
 42
0.0000001
 43
0.0000001
 44
0.0000000001
 40
0.0
 40
0.0
 40
0.0
 40
0.0
 40
0.0441791417
 40
0.0899007132
 40
0.1376605872
 40
0.1878308397
 40
0.2406763804
 40
0.2963507783
 40
0.3549361367
 40
0.4164409011
 40
0.547901299
 40
0.6899600946
 40
0.8412798853
 40
0.91989408
 40
1.0
 40
1.0
 40
1.0
 40
1.0
 10
11.2831978952
 20
9.6040701122
 30
0.0
 10
11.2833585605
 20
9.6048256887
 30
0.0
 10
11.2838057681
 20
9.6063399381
 30
0.0
 10
11.2848185961
 20
9.6085316369
 30
0.0
 10
11.2861710869
 20
9.6106564175
 30
0.0
 10
11.2878514069
 20
9.6126955514
 30
0.0
 10
11.2898469482
 20
9.6146309234
 30
0.0
 10
11.2921425859
 20
9.6164457616
 30
0.0
 10
11.2947234711
 20
9.6181218689
 30
0.0
 10
11.2986071953
 20
9.6201958805
 30
0.0
 10
11.3040936842
 20
9.6223172137
 30
0.0
 10
11.3113473564
 20
9.6240103919
 30
0.0
 10
11.3178353757
 20
9.6246760282
 30
0.0
 10
11.3232578918
 20
9.6247569081
 30
0.0
 10
11.3260325343
 20
9.6246411897
 30
0.0
 10
11.3274298252
 20
9.6245442873
 30
0.0
  0
SPLINE
  5
3C1
100
AcDbEntity
  8
0
100
AcDbSpline
 62
7
  6
CONTINUOUS
 70
0
 71
3
 72
10
 73
6
 74
0
 42
0.0000001
 43
0.0000001
 44
0.0000000001
 40
0.0
 40
0.0
 40
0.0
 40
0.0
 40
0.2694539138
 40
0.5253905011
 40
1.0
 40
1.0
 40
1.0
 40
1.0
 10
11.3057861766
 20
9.5075332944
 30
0.0
 10
11.3049943857
 20
9.5067963607
 30
0.0
 10
11.3034114365
 20
9.5054001098
 30
0.0
 10
11.3002443656
 20
9.5029319357
 30
0.0
 10
11.2977529919
 20
9.5013580015
 30
0.0
 10
11.2960613088
 20
9.5004815998
 30
0.0
  0
SPLINE
  5
3C2
100
AcDbEntity
  8
0
100
AcDbSpline
 62
7
  6
CONTINUOUS
 70
0
 71
3
 72
15
 73
11
 74
0
 42
0.0000001
 43
0.0000001
 44
0.0000000001
 40
0.0
 40
0.0
 40
0.0
 40
0.0
 40
0.1492642703
 40
0.2896953669
 40
0.4220154514
 40
0.5471145627
 40
0.6660755991
 40
0.7801953209
 40
0.8909594714
 40
1.0
 40
1.0
 40
1.0
 40
1.0
 10
11.4581676402
 20
9.5570069387
 30
0.0
 10
11.4588279769
 20
9.5561949844
 30
0.0
 10
11.4601599304
 20
9.5546589482
 30
0.0
 10
11.4622596523
 20
9.5525699513
 30
0.0
 10
11.4643963426
 20
9.5507709739
 30
0.0
 10
11.4665683525
 20
9.5492645307
 30
0.0
 10
11.4687741756
 20
9.5480535146
 30
0.0
 10
11.4710116574
 20
9.5471403121
 30
0.0
 10
11.4732773935
 20
9.5465270497
 30
0.0
 10
11.4748096579
 20
9.5463188417
 30
0.0
 10
11.4755723637
 20
9.5462658821
 30
0.0
  0
SPLINE
  5
3C3
100
AcDbEntity
  8
0
100
AcDbSpline
 62
7
  6
CONTINUOUS
 70
0
 71
3
 72
15
 73
11
 74
0
 42
0.0000001
 43
0.0000001
 44
0.0000000001
 40
0.0
 40
0.0
 40
0.0
 40
0.0
 40
0.1492642703
 40
0.2896953669
 40
0.4220154514
 40
0.5471145627
 40
0.6660755991
 40
0.7801953209
 40
0.8909594714
 40
1.0
 40
1.0
 40
1.0
 40
1.0
 10
11.4881113425
 20
9.5549303359
 30
0.0
 10
11.4887716792
 20
9.5541183816
 30
0.0
 10
11.4901036327
 20
9.5525823453
 30
0.0
 10
11.4922033547
 20
9.5504933485
 30
0.0
 10
11.4943400449
 20
9.5486943711
 30
0.0
 10
11.4965120549
 20
9.5471879279
 30
0.0
 10
11.498717878
 20
9.5459769118
 30
0.0
 10
11.5009553598
 20
9.5450637093
 30
0.0
 10
11.5032210959
 20
9.5444504469
 30
0.0
 10
11.5047533603
 20
9.5442422389
 30
0.0
 10
11.505516066
 20
9.5441892793
 30
0.0
  0
SPLINE
  5
3C4
100
AcDbEntity
  8
0
100
AcDbSpline
 62
7
  6
CONTINUOUS
 70
0
 71
3
 72
21
 73
17
 74
0
 42
0.0000001
 43
0.0000001
 44
0.0000000001
 40
0.0
 40
0.0
 40
0.0
 40
0.0
 40
0.0428974577
 40
0.0885577298
 40
0.1370510264
 40
0.1884015156
 40
0.2425965509
 40
0.2995844531
 40
0.3592921686
 40
0.4216215902
 40
0.4864609637
 40
0.5536888475
 40
0.6231759323
 40
0.6947917147
 40
0.8438964931
 40
1.0
 40
1.0
 40
1.0
 40
1.0
 10
12.5358476253
 20
9.3301990933
 30
0.0
 10
12.5369156869
 20
9.3288859332
 30
0.0
 10
12.5392152084
 20
9.3262510735
 30
0.0
 10
12.5430086209
 20
9.3223932757
 30
0.0
 10
12.5472431525
 20
9.3185126985
 30
0.0
 10
12.5519080917
 20
9.3146134002
 30
0.0
 10
12.5569906392
 20
9.3106995933
 30
0.0
 10
12.5624750477
 20
9.3067744086
 30
0.0
 10
12.5683446929
 20
9.3028421786
 30
0.0
 10
12.5745808725
 20
9.2989056739
 30
0.0
 10
12.5811646143
 20
9.2949683061
 30
0.0
 10
12.5880762541
 20
9.291032728
 30
0.0
 10
12.5952960991
 20
9.2871012103
 30
0.0
 10
12.6054448051
 20
9.2817961226
 30
0.0
 10
12.6187784695
 20
9.2752113093
 30
0.0
 10
12.6297041286
 20
9.2701426765
 30
0.0
 10
12.6353168166
 20
9.2676052096
 30
0.0
  0
SPLINE
  5
3C5
100
AcDbEntity
  8
0
100
AcDbSpline
 62
7
  6
CONTINUOUS
 70
0
 71
3
 72
9
 73
5
 74
0
 42
0.0000001
 43
0.0000001
 44
0.0000000001
 40
0.0
 40
0.0
 40
0.0
 40
0.0
 40
0.2591057607
 40
1.0
 40
1.0
 40
1.0
 40
1.0
 10
12.644176155
 20
10.2199501966
 30
0.0
 10
12.6447092542
 20
10.2204463489
 30
0.0
 10
12.6467907432
 20
10.2223350432
 30
0.0
 10
12.6489717008
 20
10.2241155548
 30
0.0
 10
12.6506460277
 20
10.2253537154
 30
0.0
  0
SPLINE
  5
3C6
100
AcDbEntity
  8
0
100
AcDbSpline
 62
7
  6
CONTINUOUS
 70
0
 71
3
 72
23
 73
19
 74
0
 42
0.0000001
 43
0.0000001
 44
0.0000000001
 40
0.0
 40
0.0
 40
0.0
 40
0.0
 40
0.0436724157
 40
0.0893267601
 40
0.1372047487
 40
0.1875090477
 40
0.2404068901
 40
0.296015519
 40
0.3544134046
 40
0.4156293672
 40
0.4796582843
 40
0.5464546217
 40
0.6159479897
 40
0.6880406991
 40
0.7626206446
 40
0.8395632316
 40
0.9187357859
 40
1.0
 40
1.0
 40
1.0
 40
1.0
 10
13.1643704418
 20
10.1114387699
 30
0.0
 10
13.1636559026
 20
10.1131564774
 30
0.0
 10
13.1620599373
 20
10.1166152536
 30
0.0
 10
13.1592393655
 20
10.1217393588
 30
0.0
 10
13.1559330051
 20
10.1269030239
 30
0.0
 10
13.1521359056
 20
10.1321039135
 30
0.0
 10
13.1478453414
 20
10.1373385962
 30
0.0
 10
13.1430643831
 20
10.1426047734
 30
0.0
 10
13.1377985991
 20
10.1478983281
 30
0.0
 10
13.1320588586
 20
10.1532166679
 30
0.0
 10
13.1258582442
 20
10.158555527
 30
0.0
 10
13.1192139208
 20
10.1639121884
 30
0.0
 10
13.1121445762
 20
10.1692827158
 30
0.0
 10
13.1046714213
 20
10.1746645195
 30
0.0
 10
13.0968162497
 20
10.1800543734
 30
0.0
 10
13.0886018809
 20
10.1854500258
 30
0.0
 10
13.0800511392
 20
10.1908490152
 30
0.0
 10
13.0742142591
 20
10.1944049306
 30
0.0
 10
13.0712452535
 20
10.19618506
 30
0.0
  0
SPLINE
  5
3C7
100
AcDbEntity
  8
0
100
AcDbSpline
 62
7
  6
CONTINUOUS
 70
0
 71
3
 72
47
 73
43
 74
0
 42
0.0000001
 43
0.0000001
 44
0.0000000001
 40
0.0
 40
0.0
 40
0.0
 40
0.0
 40
0.0097390984
 40
0.0199698072
 40
0.0306887317
 40
0.0418911598
 40
0.0535704221
 40
0.0657185723
 40
0.0783268092
 40
0.0913846967
 40
0.1188025604
 40
0.1478724225
 40
0.1784807364
 40
0.2105025339
 40
0.2438035416
 40
0.2782414042
 40
0.3136664125
 40
0.3499229968
 40
0.3868507735
 40
0.4242852893
 40
0.4620592396
 40
0.5000034157
 40
0.5379475321
 40
0.5757213983
 40
0.6131557754
 40
0.6500833021
 40
0.6863396619
 40
0.7217643567
 40
0.7562017407
 40
0.7895023834
 40
0.8215237618
 40
0.8521314048
 40
0.8812007446
 40
0.9086180892
 40
0.9216755501
 40
0.9342834294
 40
0.946431425
 40
0.9581102198
 40
0.9693122405
 40
0.9800309001
 40
0.9902611012
 40
1.0
 40
1.0
 40
1.0
 40
1.0
 10
13.11783659
 20
9.3280227658
 30
0.0
 10
13.119128854
 20
9.330213841
 30
0.0
 10
13.1216992224
 20
9.3347537722
 30
0.0
 10
13.1254296629
 20
9.3418496634
 30
0.0
 10
13.1291259128
 20
9.3493914826
 30
0.0
 10
13.1327832009
 20
9.3573702914
 30
0.0
 10
13.1363973476
 20
9.3657765782
 30
0.0
 10
13.1399640901
 20
9.3746003412
 30
0.0
 10
13.1434789784
 20
9.3838311992
 30
0.0
 10
13.1481673951
 20
9.3968802684
 30
0.0
 10
13.1538497565
 20
9.4141372276
 30
0.0
 10
13.160291814
 20
9.4359579942
 30
0.0
 10
13.1664319771
 20
9.4591117509
 30
0.0
 10
13.1722407754
 20
9.4834880069
 30
0.0
 10
13.1776901343
 20
9.5089706648
 30
0.0
 10
13.1827536243
 20
9.5354381536
 30
0.0
 10
13.1874069385
 20
9.562764077
 30
0.0
 10
13.191627706
 20
9.5908178613
 30
0.0
 10
13.1953954831
 20
9.6194654488
 30
0.0
 10
13.1986922168
 20
9.6485698849
 30
0.0
 10
13.2015021497
 20
9.6779919993
 30
0.0
 10
13.2038116902
 20
9.7075911063
 30
0.0
 10
13.2056097917
 20
9.737225657
 30
0.0
 10
13.2068879716
 20
9.766753922
 30
0.0
 10
13.2076400692
 20
9.7960346975
 30
0.0
 10
13.2078625188
 20
9.8249279778
 30
0.0
 10
13.2075544851
 20
9.8532956196
 30
0.0
 10
13.2067175168
 20
9.8810020132
 30
0.0
 10
13.2053557055
 20
9.9079147623
 30
0.0
 10
13.2034759277
 20
9.9339053484
 30
0.0
 10
13.2010874149
 20
9.958849687
 30
0.0
 10
13.1982018143
 20
9.9826289047
 30
0.0
 10
13.1948333602
 20
10.0051295502
 30
0.0
 10
13.1915874224
 20
10.0230052846
 30
0.0
 10
13.1887449602
 20
10.0365762261
 30
0.0
 10
13.1865377739
 20
10.0462036162
 30
0.0
 10
13.1842232367
 20
10.0554350029
 30
0.0
 10
13.1818038819
 20
10.064259375
 30
0.0
 10
13.1792828833
 20
10.0726663034
 30
0.0
 10
13.1766631754
 20
10.0806458567
 30
0.0
 10
13.1739477476
 20
10.0881884208
 30
0.0
 10
13.1720285695
 20
10.0930394599
 30
0.0
 10
13.1710511024
 20
10.0953878742
 30
0.0
  0
SPLINE
  5
3C8
100
AcDbEntity
  8
0
100
AcDbSpline
 62
7
  6
CONTINUOUS
 70
0
 71
3
 72
15
 73
11
 74
0
 42
0.0000001
 43
0.0000001
 44
0.0000000001
 40
0.0
 40
0.0
 40
0.0
 40
0.0
 40
0.149263301
 40
0.2896979577
 40
0.422017905
 40
0.5471113478
 40
0.6660720915
 40
0.7801934149
 40
0.8909569897
 40
1.0
 40
1.0
 40
1.0
 40
1.0
 10
11.6721286536
 20
9.4816427753
 30
0.0
 10
11.6729361583
 20
9.4806499446
 30
0.0
 10
11.6745649235
 20
9.4787716603
 30
0.0
 10
11.6771324031
 20
9.4762170873
 30
0.0
 10
11.67974512
 20
9.4740172094
 30
0.0
 10
11.6824012523
 20
9.4721754373
 30
0.0
 10
11.6850984542
 20
9.4706945131
 30
0.0
 10
11.6878343255
 20
9.4695774188
 30
0.0
 10
11.6906050005
 20
9.4688276513
 30
0.0
 10
11.6924787355
 20
9.4685733887
 30
0.0
 10
11.6934114108
 20
9.4685087142
 30
0.0
  0
SPLINE
  5
3C9
100
AcDbEntity
  8
0
100
AcDbSpline
 62
7
  6
CONTINUOUS
 70
0
 71
3
 72
27
 73
23
 74
0
 42
0.0000001
 43
0.0000001
 44
0.0000000001
 40
0.0
 40
0.0
 40
0.0
 40
0.0
 40
0.0758443957
 40
0.1528915599
 40
0.2304020015
 40
0.3077412605
 40
0.384238315
 40
0.4591873061
 40
0.5318979495
 40
0.6016868354
 40
0.6678941225
 40
0.7299103883
 40
0.7872064084
 40
0.8139697239
 40
0.8394255214
 40
0.8635605283
 40
0.8863881781
 40
0.928237232
 40
0.9474582022
 40
0.9657026392
 40
0.9831434275
 40
1.0
 40
1.0
 40
1.0
 40
1.0
 10
11.3274298252
 20
9.6245442873
 30
0.0
 10
11.3294927996
 20
9.6244012195
 30
0.0
 10
11.3336413766
 20
9.6239441466
 30
0.0
 10
11.3398208516
 20
9.6227835982
 30
0.0
 10
11.3459379921
 20
9.6211623215
 30
0.0
 10
11.3519106541
 20
9.6191180383
 30
0.0
 10
11.357664459
 20
9.6166960848
 30
0.0
 10
11.3631281902
 20
9.6139469855
 30
0.0
 10
11.3682367001
 20
9.6109289821
 30
0.0
 10
11.372929098
 20
9.6077016329
 30
0.0
 10
11.3771501531
 20
9.6043274163
 30
0.0
 10
11.380848636
 20
9.600868977
 30
0.0
 10
11.3835162073
 20
9.5979026824
 30
0.0
 10
11.3853363847
 20
9.5955339848
 30
0.0
 10
11.3865120977
 20
9.5938145789
 30
0.0
 10
11.3875257163
 20
9.5921181916
 30
0.0
 10
11.3886243322
 20
9.5899593018
 30
0.0
 10
11.3894364952
 20
9.5878063156
 30
0.0
 10
11.3898955801
 20
9.5856896451
 30
0.0
 10
11.3900551448
 20
9.5841978256
 30
0.0
 10
11.3900377732
 20
9.582761903
 30
0.0
 10
11.3899058913
 20
9.5818328354
 30
0.0
 10
11.3898103198
 20
9.5813832805
 30
0.0
  0
SPLINE
  5
3CA
100
AcDbEntity
  8
0
100
AcDbSpline
 62
7
  6
CONTINUOUS
 70
0
 71
3
 72
15
 73
11
 74
0
 42
0.0000001
 43
0.0000001
 44
0.0000000001
 40
0.0
 40
0.0
 40
0.0
 40
0.0
 40
0.1506156046
 40
0.2938730183
 40
0.4297343309
 40
0.5582045838
 40
0.6793379741
 40
0.7932307785
 40
0.9000375874
 40
1.0
 40
1.0
 40
1.0
 40
1.0
 10
11.3426803726
 20
9.5550352873
 30
0.0
 10
11.341717897
 20
9.5530759656
 30
0.0
 10
11.3397871359
 20
9.5492786352
 30
0.0
 10
11.3367924824
 20
9.5438162083
 30
0.0
 10
11.3337749521
 20
9.5387360922
 30
0.0
 10
11.3307383574
 20
9.5340448034
 30
0.0
 10
11.3276867541
 20
9.5297480137
 30
0.0
 10
11.3246237549
 20
9.5258510454
 30
0.0
 10
11.3215529126
 20
9.5223592769
 30
0.0
 10
11.3194345056
 20
9.5202356855
 30
0.0
 10
11.3183739375
 20
9.5192486442
 30
0.0
  0
SPLINE
  5
3CB
100
AcDbEntity
  8
0
100
AcDbSpline
 62
7
  6
CONTINUOUS
 70
0
 71
3
 72
9
 73
5
 74
0
 42
0.0000001
 43
0.0000001
 44
0.0000000001
 40
0.0
 40
0.0
 40
0.0
 40
0.0
 40
0.4858145728
 40
1.0
 40
1.0
 40
1.0
 40
1.0
 10
13.0559160423
 20
9.2384365542
 30
0.0
 10
13.0572283342
 20
9.2394069908
 30
0.0
 10
13.059854945
 20
9.2415066777
 30
0.0
 10
13.0623381738
 20
9.2437729122
 30
0.0
 10
13.0635806479
 20
9.2449730501
 30
0.0
  0
SPLINE
  5
3CC
100
AcDbEntity
  8
0
100
AcDbSpline
 62
7
  6
CONTINUOUS
 70
0
 71
3
 72
9
 73
5
 74
0
 42
0.0000001
 43
0.0000001
 44
0.0000000001
 40
0.0
 40
0.0
 40
0.0
 40
0.0
 40
0.4861313864
 40
1.0
 40
1.0
 40
1.0
 40
1.0
 10
13.0635806479
 20
9.2449730501
 30
0.0
 10
13.0648953096
 20
9.2462429158
 30
0.0
 10
13.0675216687
 20
9.24893659
 30
0.0
 10
13.0700036902
 20
9.2517630527
 30
0.0
 10
13.0712452535
 20
9.253243436
 30
0.0
  0
SPLINE
  5
3CD
100
AcDbEntity
  8
0
100
AcDbSpline
 62
7
  6
CONTINUOUS
 70
0
 71
3
 72
23
 73
19
 74
0
 42
0.0000001
 43
0.0000001
 44
0.0000000001
 40
0.0
 40
0.0
 40
0.0
 40
0.0
 40
0.0905930295
 40
0.1778069855
 40
0.261343913
 40
0.3409300564
 40
0.4163307627
 40
0.4873778384
 40
0.5539924193
 40
0.616211852
 40
0.674207123
 40
0.7282848837
 40
0.7788825408
 40
0.8265444333
 40
0.8718788188
 40
0.9155123948
 40
0.9580437977
 40
1.0
 40
1.0
 40
1.0
 40
1.0
 10
12.9580078648
 20
9.3548275008
 30
0.0
 10
12.9621547182
 20
9.3523411682
 30
0.0
 10
12.9702460571
 20
9.3473809152
 30
0.0
 10
12.9819643212
 20
9.339812562
 30
0.0
 10
12.9929848172
 20
9.3322550211
 30
0.0
 10
13.003245336
 20
9.3247149349
 30
0.0
 10
13.0126869373
 20
9.3171998593
 30
0.0
 10
13.0212567336
 20
9.3097182788
 30
0.0
 10
13.0289106332
 20
9.3022784646
 30
0.0
 10
13.0356167805
 20
9.2948888117
 30
0.0
 10
13.0413577523
 20
9.2875574992
 30
0.0
 10
13.0461305586
 20
9.2802915739
 30
0.0
 10
13.0499473518
 20
9.2730979033
 30
0.0
 10
13.0528351284
 20
9.2659834821
 30
0.0
 10
13.0548329178
 20
9.2589548867
 30
0.0
 10
13.055990823
 20
9.2520178356
 30
0.0
 10
13.0563676608
 20
9.2451772884
 30
0.0
 10
13.0561390074
 20
9.2406647007
 30
0.0
 10
13.0559160423
 20
9.2384365542
 30
0.0
  0
SPLINE
  5
3CE
100
AcDbEntity
  8
0
100
AcDbSpline
 62
7
  6
CONTINUOUS
 70
0
 71
3
 72
23
 73
19
 74
0
 42
0.0000001
 43
0.0000001
 44
0.0000000001
 40
0.0
 40
0.0
 40
0.0
 40
0.0
 40
0.0657824384
 40
0.1295529758
 40
0.1914115468
 40
0.2515226432
 40
0.3101233257
 40
0.3675405506
 40
0.4241930076
 40
0.4805920295
 40
0.5373372389
 40
0.5950890082
 40
0.6545470072
 40
0.7164061583
 40
0.7813261893
 40
0.849908183
 40
0.9226572192
 40
1.0
 40
1.0
 40
1.0
 40
1.0
 10
12.537408639
 20
9.3839961561
 30
0.0
 10
12.5365449635
 20
9.3830105405
 30
0.0
 10
12.5348921104
 20
9.3810264534
 30
0.0
 10
12.5326220127
 20
9.377959775
 30
0.0
 10
12.5306154322
 20
9.3748474167
 30
0.0
 10
12.5288884393
 20
9.3716878578
 30
0.0
 10
12.5274580381
 20
9.3684792687
 30
0.0
 10
12.526341743
 20
9.365220297
 30
0.0
 10
12.5255571761
 20
9.361910267
 30
0.0
 10
12.5251220464
 20
9.3585492872
 30
0.0
 10
12.5250539392
 20
9.3551385988
 30
0.0
 10
12.5253675593
 20
9.3516803118
 30
0.0
 10
12.5260774678
 20
9.3481772921
 30
0.0
 10
12.5271942028
 20
9.3446324501
 30
0.0
 10
12.5287264929
 20
9.3410485198
 30
0.0
 10
12.5306813688
 20
9.3374286431
 30
0.0
 10
12.533061279
 20
9.3337748051
 30
0.0
 10
12.5348754038
 20
9.3313944199
 30
0.0
 10
12.5358476253
 20
9.3301990933
 30
0.0
  0
SPLINE
  5
3CF
100
AcDbEntity
  8
0
100
AcDbSpline
 62
7
  6
CONTINUOUS
 70
0
 71
3
 72
22
 73
18
 74
0
 42
0.0000001
 43
0.0000001
 44
0.0000000001
 40
0.0
 40
0.0
 40
0.0
 40
0.0
 40
0.1689131164
 40
0.2495991194
 40
0.3275189981
 40
0.4025023627
 40
0.4743908694
 40
0.543035784
 40
0.6083076791
 40
0.6700876283
 40
0.7282785284
 40
0.7828063155
 40
0.8336175616
 40
0.8806969906
 40
0.9240630945
 40
0.9637851014
 40
1.0
 40
1.0
 40
1.0
 40
1.0
 10
11.4241831531
 20
9.6976969119
 30
0.0
 10
11.4247149804
 20
9.6894723003
 30
0.0
 10
11.4256907779
 20
9.6773295731
 30
0.0
 10
11.4274064152
 20
9.6614405658
 30
0.0
 10
11.4288486081
 20
9.650133837
 30
0.0
 10
11.4304618206
 20
9.639283997
 30
0.0
 10
11.4322416454
 20
9.6289190075
 30
0.0
 10
11.43418388
 20
9.6190656286
 30
0.0
 10
11.4362828058
 20
9.6097492139
 30
0.0
 10
11.4385333196
 20
9.6009937511
 30
0.0
 10
11.4409295129
 20
9.5928216869
 30
0.0
 10
11.4434646756
 20
9.5852537085
 30
0.0
 10
11.4461330495
 20
9.5783090276
 30
0.0
 10
11.4489271424
 20
9.5720047864
 30
0.0
 10
11.4518406629
 20
9.5663561436
 30
0.0
 10
11.454866734
 20
9.5613773997
 30
0.0
 10
11.4570527261
 20
9.5583778443
 30
0.0
 10
11.4581676402
 20
9.5570069387
 30
0.0
  0
SPLINE
  5
3D0
100
AcDbEntity
  8
0
100
AcDbSpline
 62
7
  6
CONTINUOUS
 70
0
 71
3
 72
9
 73
5
 74
0
 42
0.0000001
 43
0.0000001
 44
0.0000000001
 40
0.0
 40
0.0
 40
0.0
 40
0.0
 40
0.5176467173
 40
1.0
 40
1.0
 40
1.0
 40
1.0
 10
13.1710511024
 20
10.0953878742
 30
0.0
 10
13.1698756963
 20
10.098211847
 30
0.0
 10
13.1674888278
 20
10.1036199517
 30
0.0
 10
13.1648323565
 20
10.1089020619
 30
0.0
 10
13.1634755133
 20
10.1114086578
 30
0.0
  0
SPLINE
  5
3D1
100
AcDbEntity
  8
0
100
AcDbSpline
 62
7
  6
CONTINUOUS
 70
0
 71
3
 72
27
 73
23
 74
0
 42
0.0000001
 43
0.0000001
 44
0.0000000001
 40
0.0
 40
0.0
 40
0.0
 40
0.0
 40
0.0854025407
 40
0.1648941103
 40
0.2386988467
 40
0.3071319875
 40
0.3706314256
 40
0.4297810297
 40
0.4853300617
 40
0.5120569723
 40
0.5382478941
 40
0.5640442016
 40
0.5895946751
 40
0.6150529163
 40
0.6405740509
 40
0.6663118661
 40
0.6924161344
 40
0.7462535425
 40
0.8031604333
 40
0.8640010247
 40
0.9294483287
 40
1.0
 40
1.0
 40
1.0
 40
1.0
 10
13.1634755133
 20
10.1114086578
 30
0.0
 10
13.1623204084
 20
10.1135425678
 30
0.0
 10
13.1599835593
 20
10.1176066086
 30
0.0
 10
13.1562463365
 20
10.1232716431
 30
0.0
 10
13.1524098038
 20
10.1282763052
 30
0.0
 10
13.1484782657
 20
10.132612425
 30
0.0
 10
13.144455467
 20
10.1362727925
 30
0.0
 10
13.1403460948
 20
10.1392500886
 30
0.0
 10
13.1368055639
 20
10.1411792898
 30
0.0
 10
13.1339529234
 20
10.1423519198
 30
0.0
 10
13.1318244675
 20
10.1430457438
 30
0.0
 10
13.1296810115
 20
10.1435643314
 30
0.0
 10
13.1275235264
 20
10.1439072324
 30
0.0
 10
13.1253531818
 20
10.1440743444
 30
0.0
 10
13.1231711461
 20
10.1440656755
 30
0.0
 10
13.1209784588
 20
10.1438812278
 30
0.0
 10
13.1180125955
 20
10.1433965133
 30
0.0
 10
13.1142578879
 20
10.1423298777
 30
0.0
 10
13.109783479
 20
10.1403615921
 30
0.0
 10
13.1052976955
 20
10.137699514
 30
0.0
 10
13.1008068506
 20
10.1343521276
 30
0.0
 10
13.0979253982
 20
10.1317697544
 30
0.0
 10
13.0964836245
 20
10.1303771078
 30
0.0
  0
SPLINE
  5
3D2
100
AcDbEntity
  8
0
100
AcDbSpline
 62
7
  6
CONTINUOUS
 70
0
 71
3
 72
32
 73
28
 74
0
 42
0.0000001
 43
0.0000001
 44
0.0000000001
 40
0.0
 40
0.0
 40
0.0
 40
0.0
 40
0.0984168272
 40
0.1931166653
 40
0.2837167077
 40
0.3698621945
 40
0.4512332413
 40
0.5275446358
 40
0.5985505394
 40
0.6320029232
 40
0.6640612117
 40
0.6947094563
 40
0.7239368503
 40
0.7517402071
 40
0.7781213678
 40
0.8030879528
 40
0.826657161
 40
0.848858246
 40
0.8697313649
 40
0.8893301897
 40
0.9077275683
 40
0.9250185923
 40
0.9413217188
 40
0.9567823898
 40
0.9715764372
 40
0.9859073512
 40
1.0
 40
1.0
 40
1.0
 40
1.0
 10
11.4347435314
 20
9.697972386
 30
0.0
 10
11.4350929923
 20
9.6924579768
 30
0.0
 10
11.4358918443
 20
9.6816441593
 30
0.0
 10
11.437427554
 20
9.6657880559
 30
0.0
 10
11.4392720573
 20
9.6506584438
 30
0.0
 10
11.4414168995
 20
9.6363244814
 30
0.0
 10
11.4438518751
 20
9.6228509859
 30
0.0
 10
11.4465656777
 20
9.6102989535
 30
0.0
 10
11.4490966388
 20
9.6004670286
 30
0.0
 10
11.4512651013
 20
9.5931149668
 30
0.0
 10
11.4529206982
 20
9.5879757398
 30
0.0
 10
11.4546361582
 20
9.5831069236
 30
0.0
 10
11.4564097218
 20
9.5785140568
 30
0.0
 10
11.458239161
 20
9.574202135
 30
0.0
 10
11.4601223992
 20
9.5701758967
 30
0.0
 10
11.4620575202
 20
9.5664399402
 30
0.0
 10
11.4640425476
 20
9.5629984454
 30
0.0
 10
11.4660751695
 20
9.5598549539
 30
0.0
 10
11.4681533255
 20
9.5570128118
 30
0.0
 10
11.4702752729
 20
9.5544753489
 30
0.0
 10
11.4724391828
 20
9.5522454858
 30
0.0
 10
11.4746430847
 20
9.5503256443
 30
0.0
 10
11.4768853119
 20
9.5487184466
 30
0.0
 10
11.4791642426
 20
9.5474271189
 30
0.0
 10
11.4814776578
 20
9.5464545321
 30
0.0
 10
11.4838217867
 20
9.5458031395
 30
0.0
 10
11.4854082374
 20
9.54558383
 30
0.0
 10
11.4861975484
 20
9.5455290231
 30
0.0
  0
SPLINE
  5
3D3
100
AcDbEntity
  8
0
100
AcDbSpline
 62
7
  6
CONTINUOUS
 70
0
 71
3
 72
22
 73
18
 74
0
 42
0.0000001
 43
0.0000001
 44
0.0000000001
 40
0.0
 40
0.0
 40
0.0
 40
0.0
 40
0.1689714217
 40
0.2497054213
 40
0.3276805612
 40
0.4027209288
 40
0.4746647944
 40
0.5433591463
 40
0.6086707932
 40
0.6704778223
 40
0.7286792489
 40
0.7831985952
 40
0.8339798764
 40
0.8810057086
 40
0.9242936103
 40
0.9639123066
 40
1.0
 40
1.0
 40
1.0
 40
1.0
 10
11.4539934904
 20
9.6977264497
 30
0.0
 10
11.4545109243
 20
9.6893789876
 30
0.0
 10
11.4554687518
 20
9.6770533949
 30
0.0
 10
11.457168099
 20
9.6609229207
 30
0.0
 10
11.4586023981
 20
9.6494415813
 30
0.0
 10
11.4602118684
 20
9.638422968
 30
0.0
 10
11.461991867
 20
9.6278960939
 30
0.0
 10
11.4639381667
 20
9.6178886937
 30
0.0
 10
11.4660449503
 20
9.6084270605
 30
0.0
 10
11.4683068738
 20
9.5995360476
 30
0.0
 10
11.4707180032
 20
9.5912389441
 30
0.0
 10
11.4732713581
 20
9.5835571893
 30
0.0
 10
11.4759610205
 20
9.5765106764
 30
0.0
 10
11.478779329
 20
9.5701171832
 30
0.0
 10
11.4817197315
 20
9.5643923681
 30
0.0
 10
11.4847751985
 20
9.5593510254
 30
0.0
 10
11.486984329
 20
9.5563161191
 30
0.0
 10
11.4881113425
 20
9.5549303359
 30
0.0
  0
SPLINE
  5
3D4
100
AcDbEntity
  8
0
100
AcDbSpline
 62
7
  6
CONTINUOUS
 70
0
 71
3
 72
21
 73
17
 74
0
 42
0.0000001
 43
0.0000001
 44
0.0000000001
 40
0.0
 40
0.0
 40
0.0
 40
0.0
 40
0.1602951167
 40
0.312018373
 40
0.3843803258
 40
0.4542644253
 40
0.5215740623
 40
0.5862190465
 40
0.6481166548
 40
0.7071964876
 40
0.7633953648
 40
0.8166645948
 40
0.866969269
 40
0.9142885147
 40
0.9586245927
 40
1.0
 40
1.0
 40
1.0
 40
1.0
 10
11.6315367888
 20
9.6402507585
 30
0.0
 10
11.632180777
 20
9.6321222082
 30
0.0
 10
11.6336492883
 20
9.6163157715
 30
0.0
 10
11.6360554055
 20
9.59690762
 30
0.0
 10
11.6382862711
 20
9.5821203536
 30
0.0
 10
11.6400724262
 20
9.5716105336
 30
0.0
 10
11.6419945648
 20
9.5615240221
 30
0.0
 10
11.6440492665
 20
9.5518785811
 30
0.0
 10
11.6462330982
 20
9.542691229
 30
0.0
 10
11.6485417904
 20
9.5339780719
 30
0.0
 10
11.6509715447
 20
9.5257544178
 30
0.0
 10
11.6535179426
 20
9.5180346145
 30
0.0
 10
11.6561762936
 20
9.5108320443
 30
0.0
 10
11.6589424174
 20
9.5041591523
 30
0.0
 10
11.6618109564
 20
9.4980275091
 30
0.0
 10
11.6638588244
 20
9.4941753311
 30
0.0
 10
11.6649030051
 20
9.4923478952
 30
0.0
  0
SPLINE
  5
3D5
100
AcDbEntity
  8
0
100
AcDbSpline
 62
7
  6
CONTINUOUS
 70
0
 71
3
 72
9
 73
5
 74
0
 42
0.0000001
 43
0.0000001
 44
0.0000000001
 40
0.0
 40
0.0
 40
0.0
 40
0.0
 40
0.5221049272
 40
1.0
 40
1.0
 40
1.0
 40
1.0
 10
11.6649030051
 20
9.4923478952
 30
0.0
 10
11.6660190674
 20
9.4903946584
 30
0.0
 10
11.6682791326
 20
9.4867214444
 30
0.0
 10
11.6708293847
 20
9.4832402322
 30
0.0
 10
11.6721286536
 20
9.4816427753
 30
0.0
  0
SPLINE
  5
3D6
100
AcDbEntity
  8
0
100
AcDbSpline
 62
7
  6
CONTINUOUS
 70
0
 71
3
 72
22
 73
18
 74
0
 42
0.0000001
 43
0.0000001
 44
0.0000000001
 40
0.0
 40
0.0
 40
0.0
 40
0.0
 40
0.0448572366
 40
0.09028369
 40
0.136825187
 40
0.1849870171
 40
0.235222345
 40
0.2879215062
 40
0.343413634
 40
0.4019736779
 40
0.4638289836
 40
0.5291610926
 40
0.5981084958
 40
0.6707791407
 40
0.7472564539
 40
0.827602156
 40
1.0
 40
1.0
 40
1.0
 40
1.0
 10
11.299775333
 20
9.5584574178
 30
0.0
 10
11.299092385
 20
9.5585047509
 30
0.0
 10
11.2977221149
 20
9.5586811366
 30
0.0
 10
11.2956916792
 20
9.559186809
 30
0.0
 10
11.293682962
 20
9.5599330235
 30
0.0
 10
11.29169838
 20
9.5609183922
 30
0.0
 10
11.2897396705
 20
9.562141596
 30
0.0
 10
11.2878081762
 20
9.5636007131
 30
0.0
 10
11.2859050783
 20
9.5652939375
 30
0.0
 10
11.2840316083
 20
9.5672196492
 30
0.0
 10
11.2821891367
 20
9.5693763282
 30
0.0
 10
11.2803790128
 20
9.5717621723
 30
0.0
 10
11.2786023792
 20
9.5743749934
 30
0.0
 10
11.2768606135
 20
9.5772125962
 30
0.0
 10
11.275155051
 20
9.5802727763
 30
0.0
 10
11.2728777454
 20
9.5847524338
 30
0.0
 10
11.271312299
 20
9.5882815212
 30
0.0
 10
11.2703113934
 20
9.5907147417
 30
0.0
  0
SPLINE
  5
3D7
100
AcDbEntity
  8
0
100
AcDbSpline
 62
7
  6
CONTINUOUS
 70
0
 71
3
 72
23
 73
19
 74
0
 42
0.0000001
 43
0.0000001
 44
0.0000000001
 40
0.0
 40
0.0
 40
0.0
 40
0.0
 40
0.042218669
 40
0.0872047657
 40
0.1353668694
 40
0.1869353442
 40
0.2419820422
 40
0.3004466988
 40
0.3621601768
 40
0.4268614659
 40
0.4942157533
 40
0.5638221445
 40
0.6352227297
 40
0.7079101733
 40
0.7813236628
 40
0.8548829205
 40
0.928000168
 40
1.0
 40
1.0
 40
1.0
 40
1.0
 10
11.2887406599
 20
9.6134238119
 30
0.0
 10
11.2891858597
 20
9.6125509399
 30
0.0
 10
11.2902549482
 20
9.6108215574
 30
0.0
 10
11.2922731711
 20
9.6084028922
 30
0.0
 10
11.2947271409
 20
9.6060990468
 30
0.0
 10
11.2975918548
 20
9.603922667
 30
0.0
 10
11.3008391135
 20
9.6018813517
 30
0.0
 10
11.3044384267
 20
9.5999812347
 30
0.0
 10
11.3083569113
 20
9.5982265442
 30
0.0
 10
11.3125591976
 20
9.5966192212
 30
0.0
 10
11.3170081497
 20
9.5951605853
 30
0.0
 10
11.3216644895
 20
9.593850475
 30
0.0
 10
11.3264871901
 20
9.5926885903
 30
0.0
 10
11.3314331688
 20
9.5916744442
 30
0.0
 10
11.3364578211
 20
9.5908076742
 30
0.0
 10
11.3415157348
 20
9.5900885158
 30
0.0
 10
11.3465594801
 20
9.5895181163
 30
0.0
 10
11.3499161423
 20
9.5892350927
 30
0.0
 10
11.3515831792
 20
9.5891194833
 30
0.0
  0
SPLINE
  5
3D8
100
AcDbEntity
  8
0
100
AcDbSpline
 62
7
  6
CONTINUOUS
 70
0
 71
3
 72
24
 73
20
 74
0
 42
0.0000001
 43
0.0000001
 44
0.0000000001
 40
0.0
 40
0.0
 40
0.0
 40
0.0
 40
0.0395782721
 40
0.079309003
 40
0.1204312624
 40
0.1640271417
 40
0.1870418946
 40
0.2109720345
 40
0.2618157255
 40
0.3169690266
 40
0.3766221293
 40
0.4408238367
 40
0.5094990958
 40
0.5824522332
 40
0.6594278101
 40
0.7400978275
 40
0.8240924426
 40
0.9109294877
 40
1.0
 40
1.0
 40
1.0
 40
1.0
 10
11.3898103198
 20
9.5813832805
 30
0.0
 10
11.3896812046
 20
9.5807759405
 30
0.0
 10
11.3893080739
 20
9.5795796081
 30
0.0
 10
11.3884036032
 20
9.5779083525
 30
0.0
 10
11.3871699031
 20
9.5763823278
 30
0.0
 10
11.3859011497
 20
9.5752552255
 30
0.0
 10
11.3847461236
 20
9.5744271475
 30
0.0
 10
11.3834432014
 20
9.5736153693
 30
0.0
 10
11.3816189695
 20
9.5726960563
 30
0.0
 10
11.3791916721
 20
9.5717587087
 30
0.0
 10
11.3764959258
 20
9.5709623031
 30
0.0
 10
11.3735460011
 20
9.5703045045
 30
0.0
 10
11.3703578059
 20
9.5697828131
 30
0.0
 10
11.3669492511
 20
9.5693939702
 30
0.0
 10
11.3633398923
 20
9.569135331
 30
0.0
 10
11.3595504972
 20
9.5690041015
 30
0.0
 10
11.3556042377
 20
9.5689976303
 30
0.0
 10
11.3515279299
 20
9.5691130256
 30
0.0
 10
11.3487722029
 20
9.5692678685
 30
0.0
 10
11.3473781932
 20
9.5693645434
 30
0.0
  0
SPLINE
  5
3D9
100
AcDbEntity
  8
0
100
AcDbSpline
 62
7
  6
CONTINUOUS
 70
0
 71
3
 72
32
 73
28
 74
0
 42
0.0000001
 43
0.0000001
 44
0.0000000001
 40
0.0
 40
0.0
 40
0.0
 40
0.0
 40
0.0984789147
 40
0.1931791535
 40
0.2837283231
 40
0.3697871549
 40
0.4510464362
 40
0.5272343109
 40
0.5981150256
 40
0.6315084691
 40
0.6635116797
 40
0.6941098099
 40
0.7232940375
 40
0.7510623854
 40
0.77741765
 40
0.8023685548
 40
0.8259339984
 40
0.8481442258
 40
0.8690402068
 40
0.888676441
 40
0.9071266766
 40
0.9244861206
 40
0.9408728079
 40
0.9564310937
 40
0.9713347906
 40
0.9857841788
 40
1.0
 40
1.0
 40
1.0
 40
1.0
 10
11.4050546849
 20
9.6961788327
 30
0.0
 10
11.4054230357
 20
9.6907897529
 30
0.0
 10
11.406256286
 20
9.6802255133
 30
0.0
 10
11.4078343072
 20
9.6647415634
 30
0.0
 10
11.4097110178
 20
9.649977173
 30
0.0
 10
11.4118775445
 20
9.6359978856
 30
0.0
 10
11.4143243594
 20
9.6228650063
 30
0.0
 10
11.4170399871
 20
9.6106362864
 30
0.0
 10
11.4195647016
 20
9.6010616944
 30
0.0
 10
11.4217231061
 20
9.5939044891
 30
0.0
 10
11.4233691069
 20
9.5889023394
 30
0.0
 10
11.4250728909
 20
9.5841641601
 30
0.0
 10
11.4268326583
 20
9.5796951321
 30
0.0
 10
11.4286462916
 20
9.5754999631
 30
0.0
 10
11.4305118109
 20
9.5715831652
 30
0.0
 10
11.4324274304
 20
9.5679491149
 30
0.0
 10
11.4343911563
 20
9.5646016987
 30
0.0
 10
11.436400808
 20
9.561544262
 30
0.0
 10
11.4384544238
 20
9.5587800002
 30
0.0
 10
11.4405503686
 20
9.5563121057
 30
0.0
 10
11.4426868164
 20
9.554143286
 30
0.0
 10
11.4448619014
 20
9.5522758586
 30
0.0
 10
11.4470740119
 20
9.5507123458
 30
0.0
 10
11.4493215656
 20
9.5494558447
 30
0.0
 10
11.4516023707
 20
9.5485090081
 30
0.0
 10
11.4539128151
 20
9.5478741441
 30
0.0
 10
11.4554759689
 20
9.5476596389
 30
0.0
 10
11.456253846
 20
9.5476056259
 30
0.0
  0
SPLINE
  5
3DA
100
AcDbEntity
  8
0
100
AcDbSpline
 62
7
  6
CONTINUOUS
 70
0
 71
3
 72
30
 73
26
 74
0
 42
0.0000001
 43
0.0000001
 44
0.0000000001
 40
0.0
 40
0.0
 40
0.0
 40
0.0
 40
0.0777230269
 40
0.1567540976
 40
0.2359933621
 40
0.3145017977
 40
0.3913781415
 40
0.4657736573
 40
0.5369601153
 40
0.6043260399
 40
0.66740685
 40
0.6972519951
 40
0.725936785
 40
0.7534602069
 40
0.7798409518
 40
0.8051168294
 40
0.8293460473
 40
0.8526114002
 40
0.8750194949
 40
0.8966995918
 40
0.9178044501
 40
0.9385036728
 40
0.9589778398
 40
0.9794152135
 40
1.0
 40
1.0
 40
1.0
 40
1.0
 10
11.3473781932
 20
9.5693645434
 30
0.0
 10
11.3453104817
 20
9.5695079397
 30
0.0
 10
11.3411454927
 20
9.5698780387
 30
0.0
 10
11.3349002884
 20
9.5706658732
 30
0.0
 10
11.3286680664
 20
9.5716903224
 30
0.0
 10
11.3225373038
 20
9.5729487569
 30
0.0
 10
11.3165915003
 20
9.574439364
 30
0.0
 10
11.3109117811
 20
9.5761614965
 30
0.0
 10
11.3055749589
 20
9.5781127352
 30
0.0
 10
11.3006535956
 20
9.5802897085
 30
0.0
 10
11.296886723
 20
9.5823231007
 30
0.0
 10
11.2941510876
 20
9.5840671482
 30
0.0
 10
11.2922823501
 20
9.5854011185
 30
0.0
 10
11.2905660249
 20
9.5867834927
 30
0.0
 10
11.2890083603
 20
9.5882113941
 30
0.0
 10
11.2876148682
 20
9.5896813843
 30
0.0
 10
11.2863913624
 20
9.5911904464
 30
0.0
 10
11.2853431462
 20
9.5927348801
 30
0.0
 10
11.2844736876
 20
9.5943096692
 30
0.0
 10
11.2837867166
 20
9.5959100443
 30
0.0
 10
11.2832862199
 20
9.5975308155
 30
0.0
 10
11.2829734727
 20
9.5991654394
 30
0.0
 10
11.2828493928
 20
9.6008074133
 30
0.0
 10
11.2829150712
 20
9.6024495263
 30
0.0
 10
11.2830837207
 20
9.6035331725
 30
0.0
 10
11.2831978952
 20
9.6040701122
 30
0.0
  0
SPLINE
  5
3DB
100
AcDbEntity
  8
0
100
AcDbSpline
 62
7
  6
CONTINUOUS
 70
0
 71
3
 72
16
 73
12
 74
0
 42
0.0000001
 43
0.0000001
 44
0.0000000001
 40
0.0
 40
0.0
 40
0.0
 40
0.0
 40
0.153116556
 40
0.3005428109
 40
0.4407187755
 40
0.5724457075
 40
0.6947228808
 40
0.8068592242
 40
0.8590244096
 40
0.908579538
 40
1.0
 40
1.0
 40
1.0
 40
1.0
 10
11.3515831792
 20
9.5891194833
 30
0.0
 10
11.353415098
 20
9.5889924393
 30
0.0
 10
11.3570152693
 20
9.5888017681
 30
0.0
 10
11.3623011861
 20
9.5887101458
 30
0.0
 10
11.3673304166
 20
9.5888240204
 30
0.0
 10
11.372048594
 20
9.5891501777
 30
0.0
 10
11.3764081407
 20
9.589696697
 30
0.0
 10
11.3797848869
 20
9.5903572553
 30
0.0
 10
11.3822646
 20
9.5910164598
 30
0.0
 10
11.3844713806
 20
9.5917214437
 30
0.0
 10
11.3860404414
 20
9.5923670703
 30
0.0
 10
11.3870201486
 20
9.5928592781
 30
0.0
  0
SPLINE
  5
3DC
100
AcDbEntity
  8
0
100
AcDbSpline
 62
7
  6
CONTINUOUS
 70
0
 71
3
 72
22
 73
18
 74
0
 42
0.0000001
 43
0.0000001
 44
0.0000000001
 40
0.0
 40
0.0
 40
0.0
 40
0.0
 40
0.1687246346
 40
0.2492649173
 40
0.3270240184
 40
0.4018451813
 40
0.4735782166
 40
0.5420863796
 40
0.6072496865
 40
0.6689579797
 40
0.7271245295
 40
0.7816814588
 40
0.8325825173
 40
0.8798177506
 40
0.9234082485
 40
0.9634244939
 40
1.0
 40
1.0
 40
1.0
 40
1.0
 10
11.417427817
 20
9.6973879913
 30
0.0
 10
11.4179767185
 20
9.6897818615
 30
0.0
 10
11.4189622715
 20
9.678556016
 30
0.0
 10
11.4206563148
 20
9.6638721325
 30
0.0
 10
11.422065407
 20
9.6534296027
 30
0.0
 10
11.4236286657
 20
9.6434116977
 30
0.0
 10
11.4253424809
 20
9.6338428171
 30
0.0
 10
11.4272027357
 20
9.6247463246
 30
0.0
 10
11.4292043354
 20
9.6161442998
 30
0.0
 10
11.4313428714
 20
9.6080576664
 30
0.0
 10
11.4336127443
 20
9.6005059184
 30
0.0
 10
11.4360082214
 20
9.59350712
 30
0.0
 10
11.4385240911
 20
9.5870780555
 30
0.0
 10
11.4411536241
 20
9.5812336588
 30
0.0
 10
11.4438913939
 20
9.5759872794
 30
0.0
 10
11.4467311614
 20
9.5713514427
 30
0.0
 10
11.4487777065
 20
9.5685524064
 30
0.0
 10
11.4498207444
 20
9.5672698828
 30
0.0
  0
SPLINE
  5
3DD
100
AcDbEntity
  8
0
100
AcDbSpline
 62
7
  6
CONTINUOUS
 70
0
 71
3
 72
22
 73
18
 74
0
 42
0.0000001
 43
0.0000001
 44
0.0000000001
 40
0.0
 40
0.0
 40
0.0
 40
0.0
 40
0.1688266877
 40
0.249440333
 40
0.3272798006
 40
0.4021821665
 40
0.4739927951
 40
0.5425686352
 40
0.6077852764
 40
0.6695282589
 40
0.7277058351
 40
0.7822471045
 40
0.8331022161
 40
0.8802586735
 40
0.923736302
 40
0.9636049938
 40
1.0
 40
1.0
 40
1.0
 40
1.0
 10
11.4471786811
 20
9.6980549128
 30
0.0
 10
11.4477101336
 20
9.690287793
 30
0.0
 10
11.4486742039
 20
9.6788225742
 30
0.0
 10
11.4503493825
 20
9.6638229662
 30
0.0
 10
11.4517499034
 20
9.6531527702
 30
0.0
 10
11.4533098508
 20
9.6429151266
 30
0.0
 10
11.4550253147
 20
9.6331356974
 30
0.0
 10
11.4568922316
 20
9.6238390701
 30
0.0
 10
11.4589052687
 20
9.6150484802
 30
0.0
 10
11.4610597849
 20
9.6067859154
 30
0.0
 10
11.4633501238
 20
9.5990719116
 30
0.0
 10
11.4657701876
 20
9.5919254473
 30
0.0
 10
11.4683146106
 20
9.5853641604
 30
0.0
 10
11.4709764092
 20
9.5794037593
 30
0.0
 10
11.4737498499
 20
9.5740582109
 30
0.0
 10
11.4766285004
 20
9.5693406572
 30
0.0
 10
11.4787055063
 20
9.5664953574
 30
0.0
 10
11.4797644467
 20
9.56519328
 30
0.0
  0
SPLINE
  5
3DE
100
AcDbEntity
  8
0
100
AcDbSpline
 62
7
  6
CONTINUOUS
 70
0
 71
3
 72
71
 73
67
 74
0
 42
0.0000001
 43
0.0000001
 44
0.0000000001
 40
0.0
 40
0.0
 40
0.0
 40
0.0
 40
0.0086183045
 40
0.0180359393
 40
0.0282774105
 40
0.0393564625
 40
0.0512781296
 40
0.0640378958
 40
0.0776250913
 40
0.0920232179
 40
0.1072117868
 40
0.1231658307
 40
0.1398572842
 40
0.1572546971
 40
0.1753241334
 40
0.1940290039
 40
0.2133306066
 40
0.2331881854
 40
0.2535591738
 40
0.2743994301
 40
0.3173027715
 40
0.361519727
 40
0.4066550892
 40
0.4523029813
 40
0.4980515862
 40
0.543487947
 40
0.5882027195
 40
0.6317948689
 40
0.6738765337
 40
0.6942352243
 40
0.7140792978
 40
0.733366459
 40
0.7520557836
 40
0.7701088067
 40
0.787488863
 40
0.8041621715
 40
0.8200973202
 40
0.835266318
 40
0.8496443582
 40
0.8632108551
 40
0.8759496714
 40
0.8878502332
 40
0.8989085158
 40
0.9091285724
 40
0.918524806
 40
0.9229228333
 40
0.9271266484
 40
0.9311423984
 40
0.9349775433
 40
0.9386412816
 40
0.9421446441
 40
0.9487194173
 40
0.9518277341
 40
0.9548406328
 40
0.9577798837
 40
0.9606690845
 40
0.9635332345
 40
0.9663980304
 40
0.9692891128
 40
0.9722313973
 40
0.9752484705
 40
0.978362059
 40
0.9849504617
 40
0.9884622309
 40
0.9921349033
 40
1.0
 40
1.0
 40
1.0
 40
1.0
 10
13.0964836245
 20
10.1303771078
 30
0.0
 10
13.094578294
 20
10.1285366999
 30
0.0
 10
13.0907795544
 20
10.1244875912
 30
0.0
 10
13.085343188
 20
10.1176972288
 30
0.0
 10
13.0799349347
 20
10.1099428381
 30
0.0
 10
13.0745670069
 20
10.1012434049
 30
0.0
 10
13.0692515688
 20
10.0916180523
 30
0.0
 10
13.0640004307
 20
10.0810891212
 30
0.0
 10
13.0588266926
 20
10.0696810436
 30
0.0
 10
13.0537423161
 20
10.0574209122
 30
0.0
 10
13.0487599318
 20
10.0443377167
 30
0.0
 10
13.0438912188
 20
10.0304626829
 30
0.0
 10
13.0391482717
 20
10.0158289122
 30
0.0
 10
13.0345423291
 20
10.0004714854
 30
0.0
 10
13.0300847421
 20
9.9844272041
 30
0.0
 10
13.0257861551
 20
9.9677346058
 30
0.0
 10
13.0216570785
 20
9.9504337798
 30
0.0
 10
13.0177074571
 20
9.9325663357
 30
0.0
 10
13.0139468191
 20
9.9141752025
 30
0.0
 10
13.0091505679
 20
9.8887685833
 30
0.0
 10
13.003708756
 20
9.8560288238
 30
0.0
 10
12.998123229
 20
9.8157580302
 30
0.0
 10
12.9934753421
 20
9.7745192809
 30
0.0
 10
12.9898100803
 20
9.7327091993
 30
0.0
 10
12.9871628611
 20
9.6907296391
 30
0.0
 10
12.9855590832
 20
9.6489842442
 30
0.0
 10
12.9850138555
 20
9.6078742315
 30
0.0
 10
12.985532011
 20
9.5677949844
 30
0.0
 10
12.9868590155
 20
9.5352254056
 30
0.0
 10
12.9884665301
 20
9.5099836418
 30
0.0
 10
12.9899185736
 20
9.4917549474
 30
0.0
 10
12.9916262783
 20
9.4740638202
 30
0.0
 10
12.9935858478
 20
9.4569527285
 30
0.0
 10
12.9957921677
 20
9.4404628327
 30
0.0
 10
12.9982401465
 20
9.4246337027
 30
0.0
 10
13.0009235331
 20
9.4095033291
 30
0.0
 10
13.003836018
 20
9.395107944
 30
0.0
 10
13.0069702832
 20
9.3814819725
 30
0.0
 10
13.0103188634
 20
9.3686578975
 30
0.0
 10
13.0138734964
 20
9.3566661727
 30
0.0
 10
13.0176256798
 20
9.3455350811
 30
0.0
 10
13.0215664158
 20
9.3352907222
 30
0.0
 10
13.0256864805
 20
9.3259565599
 30
0.0
 10
13.029976497
 20
9.3175544022
 30
0.0
 10
13.0337648441
 20
9.3112108004
 30
0.0
 10
13.0368845325
 20
9.3066404548
 30
0.0
 10
13.0392087136
 20
9.3035340273
 30
0.0
 10
13.0415677501
 20
9.3006747294
 30
0.0
 10
13.0439604534
 20
9.2980644881
 30
0.0
 10
13.0463859456
 20
9.2957045813
 30
0.0
 10
13.0495926034
 20
9.2929528171
 30
0.0
 10
13.0529321724
 20
9.2906243688
 30
0.0
 10
13.0563861356
 20
9.2887996121
 30
0.0
 10
13.0589546812
 20
9.2877136177
 30
0.0
 10
13.0615473745
 20
9.2868862477
 30
0.0
 10
13.0641625225
 20
9.2863186273
 30
0.0
 10
13.0667979536
 20
9.286011592
 30
0.0
 10
13.0694513724
 20
9.2859652084
 30
0.0
 10
13.0721205254
 20
9.2861793798
 30
0.0
 10
13.0748031947
 20
9.2866537778
 30
0.0
 10
13.0774975029
 20
9.2873878487
 30
0.0
 10
13.0811712938
 20
9.2887362453
 30
0.0
 10
13.0848008359
 20
9.2905985014
 30
0.0
 10
13.0883570843
 20
9.2928983836
 30
0.0
 10
13.0920797368
 20
9.2956486793
 30
0.0
 10
13.0947448128
 20
9.2980012849
 30
0.0
 10
13.0964836245
 20
9.299680848
 30
0.0
  0
SPLINE
  5
3DF
100
AcDbEntity
  8
0
100
AcDbSpline
 62
7
  6
CONTINUOUS
 70
0
 71
3
 72
11
 73
7
 74
0
 42
0.0000001
 43
0.0000001
 44
0.0000000001
 40
0.0
 40
0.0
 40
0.0
 40
0.0
 40
0.2194340125
 40
0.4588817458
 40
0.7189543789
 40
1.0
 40
1.0
 40
1.0
 40
1.0
 10
13.0964836245
 20
9.299680848
 30
0.0
 10
13.0983556263
 20
9.301489063
 30
0.0
 10
13.1020883574
 20
9.3054610644
 30
0.0
 10
13.1074346466
 20
9.3121128409
 30
0.0
 10
13.1127541108
 20
9.319697186
 30
0.0
 10
13.1161431484
 20
9.325151481
 30
0.0
 10
13.11783659
 20
9.3280227658
 30
0.0
  0
SPLINE
  5
3E0
100
AcDbEntity
  8
0
100
AcDbSpline
 62
7
  6
CONTINUOUS
 70
0
 71
3
 72
15
 73
11
 74
0
 42
0.0000001
 43
0.0000001
 44
0.0000000001
 40
0.0
 40
0.0
 40
0.0
 40
0.0
 40
0.1520540631
 40
0.2925498238
 40
0.4228796996
 40
0.5448610149
 40
0.6607607174
 40
0.7732723466
 40
0.8853533337
 40
1.0
 40
1.0
 40
1.0
 40
1.0
 10
11.3183739375
 20
9.5192486442
 30
0.0
 10
11.3172126917
 20
9.518167905
 30
0.0
 10
11.3148923013
 20
9.516177579
 30
0.0
 10
11.3112684821
 20
9.5136468948
 30
0.0
 10
11.3076498759
 20
9.5117007185
 30
0.0
 10
11.3040411544
 20
9.5103460478
 30
0.0
 10
11.300448359
 20
9.5095920459
 30
0.0
 10
11.2968818466
 20
9.5094455805
 30
0.0
 10
11.2933563025
 20
9.509908924
 30
0.0
 10
11.2910843965
 20
9.5106101218
 30
0.0
 10
11.2899718127
 20
9.5110491768
 30
0.0
  0
SPLINE
  5
3E1
100
AcDbEntity
  8
0
100
AcDbSpline
 62
7
  6
CONTINUOUS
 70
0
 71
3
 72
9
 73
5
 74
0
 42
0.0000001
 43
0.0000001
 44
0.0000000001
 40
0.0
 40
0.0
 40
0.0
 40
0.0
 40
0.5135770252
 40
1.0
 40
1.0
 40
1.0
 40
1.0
 10
12.5297440335
 20
9.4261375483
 30
0.0
 10
12.5308574156
 20
9.4188891536
 30
0.0
 10
12.5332045594
 20
9.4048023547
 30
0.0
 10
12.5359568669
 20
9.3907884096
 30
0.0
 10
12.537408639
 20
9.3839961561
 30
0.0
  0
SPLINE
  5
3E2
100
AcDbEntity
  8
0
100
AcDbSpline
 62
7
  6
CONTINUOUS
 70
0
 71
3
 72
9
 73
5
 74
0
 42
0.0000001
 43
0.0000001
 44
0.0000000001
 40
0.0
 40
0.0
 40
0.0
 40
0.0
 40
0.4861313864
 40
1.0
 40
1.0
 40
1.0
 40
1.0
 10
12.6429814221
 20
10.2188172195
 30
0.0
 10
12.6416667604
 20
10.2175473537
 30
0.0
 10
12.6390404013
 20
10.2148536795
 30
0.0
 10
12.6365583798
 20
10.2120272168
 30
0.0
 10
12.6353168166
 20
10.2105468336
 30
0.0
  0
SPLINE
  5
3E3
100
AcDbEntity
  8
0
100
AcDbSpline
 62
7
  6
CONTINUOUS
 70
0
 71
3
 72
54
 73
50
 74
0
 42
0.0000001
 43
0.0000001
 44
0.0000000001
 40
0.0
 40
0.0
 40
0.0
 40
0.0
 40
0.007652089
 40
0.015894366
 40
0.0247439424
 40
0.0342118339
 40
0.0443042741
 40
0.0550231148
 40
0.0663650317
 40
0.0783237981
 40
0.0908901752
 40
0.1040523709
 40
0.1177968755
 40
0.1321075661
 40
0.1469670977
 40
0.1623562975
 40
0.1946388894
 40
0.2287769769
 40
0.2645731558
 40
0.3018150254
 40
0.3402776489
 40
0.3797259005
 40
0.4199165946
 40
0.4606005868
 40
0.501524826
 40
0.5424342761
 40
0.5830740552
 40
0.6231914734
 40
0.662537972
 40
0.7008711266
 40
0.7379568961
 40
0.7735717508
 40
0.807504894
 40
0.8237795609
 40
0.839561876
 40
0.8548301306
 40
0.8695643322
 40
0.8837453965
 40
0.8973564055
 40
0.9103819253
 40
0.922808461
 40
0.9346251851
 40
0.9458232135
 40
0.9563972633
 40
0.9663451664
 40
0.9756689065
 40
0.9843759069
 40
0.9924791644
 40
1.0
 40
1.0
 40
1.0
 40
1.0
 10
12.5835769803
 20
10.1635324897
 30
0.0
 10
12.5820153592
 20
10.1620240795
 30
0.0
 10
12.5788984921
 20
10.1587580789
 30
0.0
 10
12.5744012217
 20
10.1533614346
 30
0.0
 10
12.5699197878
 20
10.1472980721
 30
0.0
 10
12.56546194
 20
10.1405784345
 30
0.0
 10
12.5610341435
 20
10.1332131534
 30
0.0
 10
12.5566437188
 20
10.1252137142
 30
0.0
 10
12.5522973371
 20
10.1165931424
 30
0.0
 10
12.5480025464
 20
10.1073653873
 30
0.0
 10
12.5437664136
 20
10.0975456213
 30
0.0
 10
12.5395957851
 20
10.0871500065
 30
0.0
 10
12.5354979234
 20
10.0761955757
 30
0.0
 10
12.5314792971
 20
10.0647004926
 30
0.0
 10
12.5275468362
 20
10.052683697
 30
0.0
 10
12.5223439833
 20
10.035720474
 30
0.0
 10
12.5161261238
 20
10.0133516084
 30
0.0
 10
12.5092205005
 20
9.9851791983
 30
0.0
 10
12.5028032207
 20
9.9554506849
 30
0.0
 10
12.4969173861
 20
9.9243631546
 30
0.0
 10
12.4916025185
 20
9.8921225328
 30
0.0
 10
12.4868942211
 20
9.8589426928
 30
0.0
 10
12.4828240092
 20
9.8250437995
 30
0.0
 10
12.4794190952
 20
9.7906508606
 30
0.0
 10
12.4767022247
 20
9.7559922183
 30
0.0
 10
12.4746914604
 20
9.7212980147
 30
0.0
 10
12.4734000829
 20
9.6867986277
 30
0.0
 10
12.4728365508
 20
9.652723109
 30
0.0
 10
12.4730044127
 20
9.6192976673
 30
0.0
 10
12.4739023178
 20
9.58674417
 30
0.0
 10
12.4755238843
 20
9.5552784885
 30
0.0
 10
12.4778579252
 20
9.5251094357
 30
0.0
 10
12.4804172592
 20
9.5008894031
 30
0.0
 10
12.4828265403
 20
9.4823206234
 30
0.0
 10
12.4847753647
 20
9.4690342841
 30
0.0
 10
12.4868880453
 20
9.4562157532
 30
0.0
 10
12.4891607578
 20
9.4438862483
 30
0.0
 10
12.4915900266
 20
9.4320662004
 30
0.0
 10
12.49417153
 20
9.4207751473
 30
0.0
 10
12.4969009825
 20
9.4100317193
 30
0.0
 10
12.4997740138
 20
9.3998536452
 30
0.0
 10
12.5027854522
 20
9.3902575844
 30
0.0
 10
12.5059307321
 20
9.3812593021
 30
0.0
 10
12.5092043351
 20
9.3728733791
 30
0.0
 10
12.5126010214
 20
9.3651133298
 30
0.0
 10
12.5161155481
 20
9.3579916923
 30
0.0
 10
12.5197421443
 20
9.3515193574
 30
0.0
 10
12.5234755868
 20
9.3457071541
 30
0.0
 10
12.5261284951
 20
9.3421491411
 30
0.0
 10
12.5274749099
 20
9.3404936043
 30
0.0
  0
SPLINE
  5
3E4
100
AcDbEntity
  8
0
100
AcDbSpline
 62
7
  6
CONTINUOUS
 70
0
 71
3
 72
9
 73
5
 74
0
 42
0.0000001
 43
0.0000001
 44
0.0000000001
 40
0.0
 40
0.0
 40
0.0
 40
0.0
 40
0.4861313864
 40
1.0
 40
1.0
 40
1.0
 40
1.0
 10
13.0635806479
 20
10.1896485641
 30
0.0
 10
13.0622659862
 20
10.1883786984
 30
0.0
 10
13.0596396271
 20
10.1856850242
 30
0.0
 10
13.0571576056
 20
10.1828585615
 30
0.0
 10
13.0559160423
 20
10.1813781782
 30
0.0
  0
SPLINE
  5
3E5
100
AcDbEntity
  8
0
100
AcDbSpline
 62
7
  6
CONTINUOUS
 70
0
 71
3
 72
9
 73
5
 74
0
 42
0.0000001
 43
0.0000001
 44
0.0000000001
 40
0.0
 40
0.0
 40
0.0
 40
0.0
 40
0.5135770252
 40
1.0
 40
1.0
 40
1.0
 40
1.0
 10
12.9503432592
 20
9.3969688929
 30
0.0
 10
12.9514566413
 20
9.3897204983
 30
0.0
 10
12.9538037851
 20
9.3756336993
 30
0.0
 10
12.9565560926
 20
9.3616197543
 30
0.0
 10
12.9580078648
 20
9.3548275008
 30
0.0
  0
SPLINE
  5
3E6
100
AcDbEntity
  8
0
100
AcDbSpline
 62
7
  6
CONTINUOUS
 70
0
 71
3
 72
9
 73
5
 74
0
 42
0.0000001
 43
0.0000001
 44
0.0000000001
 40
0.0
 40
0.0
 40
0.0
 40
0.0
 40
0.4858145728
 40
1.0
 40
1.0
 40
1.0
 40
1.0
 10
13.0712452535
 20
10.19618506
 30
0.0
 10
13.0699329615
 20
10.1952146234
 30
0.0
 10
13.0673063508
 20
10.1931149365
 30
0.0
 10
13.064823122
 20
10.190848702
 30
0.0
 10
13.0635806479
 20
10.1896485641
 30
0.0
  0
SPLINE
  5
3E7
100
AcDbEntity
  8
0
100
AcDbSpline
 62
7
  6
CONTINUOUS
 70
0
 71
3
 72
23
 73
19
 74
0
 42
0.0000001
 43
0.0000001
 44
0.0000000001
 40
0.0
 40
0.0
 40
0.0
 40
0.0
 40
0.0587350933
 40
0.1176761322
 40
0.1768834012
 40
0.2364298769
 40
0.296393117
 40
0.3568540153
 40
0.4178926034
 40
0.47958109
 40
0.5419794553
 40
0.6051314844
 40
0.6690613323
 40
0.7337740206
 40
0.7992568094
 40
0.8654818333
 40
0.9324122741
 40
1.0
 40
1.0
 40
1.0
 40
1.0
 10
13.0559160423
 20
10.1813781782
 30
0.0
 10
13.0561386955
 20
10.1749781682
 30
0.0
 10
13.0563668394
 20
10.1621468441
 30
0.0
 10
13.0559977658
 20
10.1428602526
 30
0.0
 10
13.0548572982
 20
10.1235142891
 30
0.0
 10
13.0528865674
 20
10.1041225192
 30
0.0
 10
13.0500327498
 20
10.0847021162
 30
0.0
 10
13.0462524288
 20
10.0652743786
 30
0.0
 10
13.0415135943
 20
10.0458639968
 30
0.0
 10
13.0358001033
 20
10.0264975053
 30
0.0
 10
13.02911295
 20
10.0072015219
 30
0.0
 10
13.0214688501
 20
9.9880014665
 30
0.0
 10
13.0129004068
 20
9.9689194927
 30
0.0
 10
13.0034535962
 20
9.9499731924
 30
0.0
 10
12.9931829703
 20
9.9311757393
 30
0.0
 10
12.9821492092
 20
9.912535106
 30
0.0
 10
12.9704162207
 20
9.8940550161
 30
0.0
 10
12.9622080188
 20
9.8818980693
 30
0.0
 10
12.9580078648
 20
9.8758431458
 30
0.0
  0
SPLINE
  5
3E8
100
AcDbEntity
  8
0
100
AcDbSpline
 62
7
  6
CONTINUOUS
 70
0
 71
3
 72
27
 73
23
 74
0
 42
0.0000001
 43
0.0000001
 44
0.0000000001
 40
0.0
 40
0.0
 40
0.0
 40
0.0
 40
0.0708187736
 40
0.1406233766
 40
0.2092866259
 40
0.2766939089
 40
0.3427459169
 40
0.4073797473
 40
0.4391648366
 40
0.4705976452
 40
0.5016875373
 40
0.5324483694
 40
0.5628989257
 40
0.5930606357
 40
0.6229595933
 40
0.6526228523
 40
0.7113477024
 40
0.7694836895
 40
0.8272499768
 40
0.8848327195
 40
0.9423811972
 40
1.0
 40
1.0
 40
1.0
 40
1.0
 10
12.6353168166
 20
10.2105468336
 30
0.0
 10
12.6297156633
 20
10.2048261539
 30
0.0
 10
12.6187793348
 20
10.1932824076
 30
0.0
 10
12.6031714548
 20
10.1754918345
 30
0.0
 10
12.5886025797
 20
10.1573299057
 30
0.0
 10
12.5752181628
 20
10.1387959133
 30
0.0
 10
12.563169044
 20
10.1199027631
 30
0.0
 10
12.5543136331
 20
10.1037924278
 30
0.0
 10
12.5480494245
 20
10.0907633452
 30
0.0
 10
12.543794345
 20
10.080984639
 30
0.0
 10
12.5399666225
 20
10.0711549687
 30
0.0
 10
12.5365759921
 20
10.061283289
 30
0.0
 10
12.5336254019
 20
10.0513806145
 30
0.0
 10
12.5311188127
 20
10.0414568013
 30
0.0
 10
12.5290530763
 20
10.0315226623
 30
0.0
 10
12.5268890545
 20
10.018322984
 30
0.0
 10
12.5252453735
 20
10.0018187582
 30
0.0
 10
12.5249014988
 20
9.9820595126
 30
0.0
 10
12.5260695135
 20
9.9624635033
 30
0.0
 10
12.5286114912
 20
9.9430681269
 30
0.0
 10
12.5323853384
 20
9.9238947698
 30
0.0
 10
12.5356280519
 20
9.9112776241
 30
0.0
 10
12.537408639
 20
9.9050118012
 30
0.0
  0
SPLINE
  5
3E9
100
AcDbEntity
  8
0
100
AcDbSpline
 62
7
  6
CONTINUOUS
 70
0
 71
3
 72
21
 73
17
 74
0
 42
0.0000001
 43
0.0000001
 44
0.0000000001
 40
0.0
 40
0.0
 40
0.0
 40
0.0
 40
0.1268939481
 40
0.19018282
 40
0.253348645
 40
0.3163802526
 40
0.3792680625
 40
0.4420048434
 40
0.5045854769
 40
0.5670083659
 40
0.6292751195
 40
0.6913901909
 40
0.7533613917
 40
0.8151980596
 40
0.8769105574
 40
1.0
 40
1.0
 40
1.0
 40
1.0
 10
12.9503432592
 20
9.8188948718
 30
0.0
 10
12.9547781311
 20
9.8013889103
 30
0.0
 10
12.9608264499
 20
9.7749917531
 30
0.0
 10
12.9674291872
 20
9.7395421293
 30
0.0
 10
12.971580765
 20
9.712892279
 30
0.0
 10
12.9748788477
 20
9.6861806235
 30
0.0
 10
12.9772745217
 20
9.6594336987
 30
0.0
 10
12.9787286704
 20
9.6326830039
 30
0.0
 10
12.9792168413
 20
9.6059632139
 30
0.0
 10
12.9787311141
 20
9.5793102367
 30
0.0
 10
12.9772792203
 20
9.5527588979
 30
0.0
 10
12.9748854458
 20
9.5263407007
 30
0.0
 10
12.9715888332
 20
9.5000821331
 30
0.0
 10
12.9674382191
 20
9.4740031858
 30
0.0
 10
12.9608478215
 20
9.4395227697
 30
0.0
 10
12.9547918924
 20
9.4139121477
 30
0.0
 10
12.9503432592
 20
9.3969688929
 30
0.0
  0
SPLINE
  5
3EA
100
AcDbEntity
  8
0
100
AcDbSpline
 62
7
  6
CONTINUOUS
 70
0
 71
3
 72
28
 73
24
 74
0
 42
0.0000001
 43
0.0000001
 44
0.0000000001
 40
0.0
 40
0.0
 40
0.0
 40
0.0
 40
0.0609398761
 40
0.0914572702
 40
0.1220081365
 40
0.183218848
 40
0.2446060848
 40
0.3061987468
 40
0.3680249854
 40
0.3990371105
 40
0.4301163603
 40
0.4612639539
 40
0.4924813846
 40
0.5237687001
 40
0.5551254907
 40
0.5865508962
 40
0.618042786
 40
0.6812102733
 40
0.7446118243
 40
0.8082195938
 40
0.8720042464
 40
0.9359407082
 40
1.0
 40
1.0
 40
1.0
 40
1.0
 10
12.5297440335
 20
9.8480635272
 30
0.0
 10
12.5260303957
 20
9.8400063814
 30
0.0
 10
12.5206804112
 20
9.8278089791
 30
0.0
 10
12.5140551297
 20
9.8113273831
 30
0.0
 10
12.5077783803
 20
9.7946676425
 30
0.0
 10
12.5006427539
 20
9.7735346634
 30
0.0
 10
12.4933661691
 20
9.7477127712
 30
0.0
 10
12.4875145905
 20
9.7214373399
 30
0.0
 10
12.4839414559
 20
9.69922495
 30
0.0
 10
12.481915059
 20
9.6812963157
 30
0.0
 10
12.4808208555
 20
9.6677640835
 30
0.0
 10
12.4801607303
 20
9.6541738884
 30
0.0
 10
12.4799412542
 20
9.6405391077
 30
0.0
 10
12.4801617153
 20
9.6268739007
 30
0.0
 10
12.4808227878
 20
9.6131926654
 30
0.0
 10
12.4819178603
 20
9.5995094085
 30
0.0
 10
12.4839494603
 20
9.5812639576
 30
0.0
 10
12.4875338278
 20
9.5585191481
 30
0.0
 10
12.4933880174
 20
9.5314451591
 30
0.0
 10
12.500665363
 20
9.5046272376
 30
0.0
 10
12.5092218886
 20
9.4781100888
 30
0.0
 10
12.5189141644
 20
9.4519188464
 30
0.0
 10
12.5260368122
 20
9.4346949661
 30
0.0
 10
12.5297440335
 20
9.4261375483
 30
0.0
  0
SPLINE
  5
3EB
100
AcDbEntity
  8
0
100
AcDbSpline
 62
7
  6
CONTINUOUS
 70
0
 71
3
 72
50
 73
46
 74
0
 42
0.0000001
 43
0.0000001
 44
0.0000000001
 40
0.0
 40
0.0
 40
0.0
 40
0.0
 40
0.0417744591
 40
0.0840381198
 40
0.1266601534
 40
0.1695087396
 40
0.2124509082
 40
0.2553534299
 40
0.2980831906
 40
0.3405077712
 40
0.3824959546
 40
0.4239182613
 40
0.4646474805
 40
0.5045592119
 40
0.5435324166
 40
0.5814499846
 40
0.6181993253
 40
0.6536729913
 40
0.6877693505
 40
0.7203933294
 40
0.751457256
 40
0.7808818522
 40
0.7949577198
 40
0.8085984755
 40
0.8217972213
 40
0.8345477729
 40
0.8468449369
 40
0.8586844179
 40
0.8700630925
 40
0.8809789914
 40
0.8914315785
 40
0.9014218354
 40
0.9109525628
 40
0.9200286018
 40
0.9286571898
 40
0.9368483568
 40
0.9446153781
 40
0.9519753766
 40
0.9589498962
 40
0.965565679
 40
0.9778458808
 40
0.9836071375
 40
0.9891799038
 40
0.9946230061
 40
1.0
 40
1.0
 40
1.0
 40
1.0
 10
12.3205051096
 20
9.6534912454
 30
0.0
 10
12.3205051096
 20
9.6615225729
 30
0.0
 10
12.3206304092
 20
9.6776795316
 30
0.0
 10
12.3211843215
 20
9.7020250601
 30
0.0
 10
12.3221036936
 20
9.7265662186
 30
0.0
 10
12.323385493
 20
9.7512217112
 30
0.0
 10
12.3250254973
 20
9.7759100131
 30
0.0
 10
12.3270182782
 20
9.8005494285
 30
0.0
 10
12.3293572377
 20
9.8250584469
 30
0.0
 10
12.3320346209
 20
9.8493559843
 30
0.0
 10
12.3350415453
 20
9.8733616638
 30
0.0
 10
12.3383680281
 20
9.8969960801
 30
0.0
 10
12.3420030199
 20
9.920181066
 30
0.0
 10
12.3459344396
 20
9.9428399533
 30
0.0
 10
12.3501492141
 20
9.9648978311
 30
0.0
 10
12.3546333208
 20
9.9862817982
 30
0.0
 10
12.3593718325
 20
10.0069212098
 30
0.0
 10
12.3643489663
 20
10.0267479262
 30
0.0
 10
12.3695481372
 20
10.0456965266
 30
0.0
 10
12.3749520084
 20
10.0637046261
 30
0.0
 10
12.3805425732
 20
10.0807128097
 30
0.0
 10
12.3854106554
 20
10.0941989294
 30
0.0
 10
12.3893941048
 20
10.1044374236
 30
0.0
 10
12.3923725305
 20
10.1117183722
 30
0.0
 10
12.3953835113
 20
10.1187093528
 30
0.0
 10
12.3984246309
 20
10.1254046105
 30
0.0
 10
12.4014933249
 20
10.1317986519
 30
0.0
 10
12.4045871032
 20
10.1378862213
 30
0.0
 10
12.4077033827
 20
10.1436623443
 30
0.0
 10
12.4108396373
 20
10.149122293
 30
0.0
 10
12.4139932797
 20
10.1542616293
 30
0.0
 10
12.4171617689
 20
10.1590761743
 30
0.0
 10
12.4203425422
 20
10.1635620402
 30
0.0
 10
12.423533073
 20
10.1677156114
 30
0.0
 10
12.4267308697
 20
10.1715335539
 30
0.0
 10
12.4299334501
 20
10.1750128036
 30
0.0
 10
12.4331385055
 20
10.1781505769
 30
0.0
 10
12.4363434624
 20
10.1809442126
 30
0.0
 10
12.4395469083
 20
10.1833917092
 30
0.0
 10
12.4437072796
 20
10.1861216565
 30
0.0
 10
12.4479727732
 20
10.1882566307
 30
0.0
 10
12.4522932917
 20
10.1896727254
 30
0.0
 10
12.4554521827
 20
10.1903557358
 30
0.0
 10
12.4585933713
 20
10.1906799401
 30
0.0
 10
12.4606788853
 20
10.1906561752
 30
0.0
 10
12.4617101598
 20
10.1905846599
 30
0.0
  0
SPLINE
  5
3EC
100
AcDbEntity
  8
0
100
AcDbSpline
 62
7
  6
CONTINUOUS
 70
0
 71
3
 72
50
 73
46
 74
0
 42
0.0000001
 43
0.0000001
 44
0.0000000001
 40
0.0
 40
0.0
 40
0.0
 40
0.0
 40
0.0417744591
 40
0.0840381198
 40
0.1266601534
 40
0.1695087396
 40
0.2124509082
 40
0.2553534299
 40
0.2980831906
 40
0.3405077712
 40
0.3824959546
 40
0.4239182613
 40
0.4646474805
 40
0.5045592119
 40
0.5435324166
 40
0.5814499846
 40
0.6181993253
 40
0.6536729913
 40
0.6877693505
 40
0.7203933294
 40
0.751457256
 40
0.7808818522
 40
0.7949577198
 40
0.8085984755
 40
0.8217972213
 40
0.8345477729
 40
0.8468449369
 40
0.8586844179
 40
0.8700630925
 40
0.8809789914
 40
0.8914315785
 40
0.9014218354
 40
0.9109525628
 40
0.9200286018
 40
0.9286571898
 40
0.9368483568
 40
0.9446153781
 40
0.9519753766
 40
0.9589498962
 40
0.965565679
 40
0.9778458808
 40
0.9836071375
 40
0.9891799038
 40
0.9946230061
 40
1.0
 40
1.0
 40
1.0
 40
1.0
 10
12.3205051096
 20
7.1478794059
 30
0.0
 10
12.3205051096
 20
7.1559107334
 30
0.0
 10
12.3206304092
 20
7.1720676921
 30
0.0
 10
12.3211843215
 20
7.1964132206
 30
0.0
 10
12.3221036936
 20
7.2209543791
 30
0.0
 10
12.323385493
 20
7.2456098716
 30
0.0
 10
12.3250254973
 20
7.2702981736
 30
0.0
 10
12.3270182782
 20
7.294937589
 30
0.0
 10
12.3293572377
 20
7.3194466074
 30
0.0
 10
12.3320346209
 20
7.3437441448
 30
0.0
 10
12.3350415453
 20
7.3677498243
 30
0.0
 10
12.3383680281
 20
7.3913842406
 30
0.0
 10
12.3420030199
 20
7.4145692265
 30
0.0
 10
12.3459344396
 20
7.4372281138
 30
0.0
 10
12.3501492141
 20
7.4592859916
 30
0.0
 10
12.3546333208
 20
7.4806699587
 30
0.0
 10
12.3593718325
 20
7.5013093703
 30
0.0
 10
12.3643489663
 20
7.5211360867
 30
0.0
 10
12.3695481372
 20
7.5400846871
 30
0.0
 10
12.3749520084
 20
7.5580927866
 30
0.0
 10
12.3805425732
 20
7.5751009702
 30
0.0
 10
12.3854106554
 20
7.5885870899
 30
0.0
 10
12.3893941048
 20
7.5988255841
 30
0.0
 10
12.3923725305
 20
7.6061065327
 30
0.0
 10
12.3953835113
 20
7.6130975133
 30
0.0
 10
12.3984246309
 20
7.619792771
 30
0.0
 10
12.4014933249
 20
7.6261868124
 30
0.0
 10
12.4045871032
 20
7.6322743818
 30
0.0
 10
12.4077033827
 20
7.6380505048
 30
0.0
 10
12.4108396373
 20
7.6435104535
 30
0.0
 10
12.4139932797
 20
7.6486497898
 30
0.0
 10
12.4171617689
 20
7.6534643348
 30
0.0
 10
12.4203425422
 20
7.6579502007
 30
0.0
 10
12.423533073
 20
7.6621037719
 30
0.0
 10
12.4267308697
 20
7.6659217144
 30
0.0
 10
12.4299334501
 20
7.6694009641
 30
0.0
 10
12.4331385055
 20
7.6725387374
 30
0.0
 10
12.4363434624
 20
7.6753323731
 30
0.0
 10
12.4395469083
 20
7.6777798697
 30
0.0
 10
12.4437072796
 20
7.680509817
 30
0.0
 10
12.4479727732
 20
7.6826447912
 30
0.0
 10
12.4522932917
 20
7.6840608859
 30
0.0
 10
12.4554521827
 20
7.6847438963
 30
0.0
 10
12.4585933713
 20
7.6850681006
 30
0.0
 10
12.4606788853
 20
7.6850443357
 30
0.0
 10
12.4617101598
 20
7.6849728204
 30
0.0
  0
SPLINE
  5
3ED
100
AcDbEntity
  8
0
100
AcDbSpline
 62
7
  6
CONTINUOUS
 70
0
 71
3
 72
41
 73
37
 74
0
 42
0.0000001
 43
0.0000001
 44
0.0000000001
 40
0.0
 40
0.0
 40
0.0
 40
0.0
 40
0.0311444983
 40
0.062442467
 40
0.093887251
 40
0.1254695609
 40
0.157177086
 40
0.1889950997
 40
0.2209066479
 40
0.2528929497
 40
0.284933762
 40
0.3170077852
 40
0.3490930781
 40
0.3811674822
 40
0.4132090489
 40
0.445196464
 40
0.4771094635
 40
0.5089292351
 40
0.540638799
 40
0.5722233621
 40
0.6036706378
 40
0.6349711269
 40
0.6661183495
 40
0.6971090237
 40
0.7279431823
 40
0.7586242225
 40
0.7891588828
 40
0.8195571428
 40
0.8498320452
 40
0.86493089
 40
0.8800050502
 40
0.9100832578
 40
0.9400926753
 40
0.9550812784
 40
0.9700610371
 40
1.0
 40
1.0
 40
1.0
 40
1.0
 10
10.5126812088
 20
9.1587590684
 30
0.0
 10
10.516738141
 20
9.1584777191
 30
0.0
 10
10.5248544207
 20
9.1576166752
 30
0.0
 10
10.5369304329
 20
9.1554477233
 30
0.0
 10
10.5488771177
 20
9.1524096239
 30
0.0
 10
10.5606299126
 20
9.1485187819
 30
0.0
 10
10.5721264107
 20
9.1437960091
 30
0.0
 10
10.5833052783
 20
9.1382665876
 30
0.0
 10
10.5941069655
 20
9.1319600588
 30
0.0
 10
10.6044739148
 20
9.124910098
 30
0.0
 10
10.6143508914
 20
9.1171543224
 30
0.0
 10
10.623685267
 20
9.1087340968
 30
0.0
 10
10.6324272988
 20
9.0996943133
 30
0.0
 10
10.6405303914
 20
9.0900831544
 30
0.0
 10
10.6479513431
 20
9.0799518389
 30
0.0
 10
10.6546505736
 20
9.0693543514
 30
0.0
 10
10.6605923339
 20
9.0583471582
 30
0.0
 10
10.6657448952
 20
9.0469889095
 30
0.0
 10
10.6700807181
 20
9.0353401314
 30
0.0
 10
10.6735765988
 20
9.0234629067
 30
0.0
 10
10.6762137946
 20
9.011420549
 30
0.0
 10
10.6779781251
 20
8.9992772699
 30
0.0
 10
10.6788600511
 20
8.98709784
 30
0.0
 10
10.6788547309
 20
8.9749472514
 30
0.0
 10
10.6779620454
 20
8.9628903617
 30
0.0
 10
10.6761866292
 20
8.9509915973
 30
0.0
 10
10.6735377648
 20
8.9393144375
 30
0.0
 10
10.67002967
 20
8.9279217173
 30
0.0
 10
10.6664016941
 20
8.9187056723
 30
0.0
 10
10.66309099
 20
8.911538761
 30
0.0
 10
10.6595180762
 20
8.9045276903
 30
0.0
 10
10.6545573032
 20
8.8960474206
 30
0.0
 10
10.6489584763
 20
8.8879876847
 30
0.0
 10
10.644120272
 20
8.8818270131
 30
0.0
 10
10.6390512538
 20
8.8758674337
 30
0.0
 10
10.6349900997
 20
8.8716247009
 30
0.0
 10
10.6321783527
 20
8.8689087432
 30
0.0
  0
SPLINE
  5
3EE
100
AcDbEntity
  8
0
100
AcDbSpline
 62
7
  6
CONTINUOUS
 70
0
 71
3
 72
41
 73
37
 74
0
 42
0.0000001
 43
0.0000001
 44
0.0000000001
 40
0.0
 40
0.0
 40
0.0
 40
0.0
 40
0.0311444983
 40
0.062442467
 40
0.093887251
 40
0.1254695609
 40
0.157177086
 40
0.1889950997
 40
0.2209066479
 40
0.2528929497
 40
0.284933762
 40
0.3170077852
 40
0.3490930781
 40
0.3811674822
 40
0.4132090489
 40
0.445196464
 40
0.4771094635
 40
0.5089292351
 40
0.540638799
 40
0.5722233621
 40
0.6036706378
 40
0.6349711269
 40
0.6661183495
 40
0.6971090237
 40
0.7279431823
 40
0.7586242225
 40
0.7891588828
 40
0.8195571428
 40
0.8498320452
 40
0.86493089
 40
0.8800050502
 40
0.9100832578
 40
0.9400926753
 40
0.9550812784
 40
0.9700610371
 40
1.0
 40
1.0
 40
1.0
 40
1.0
 10
11.9016827095
 20
7.8241145569
 30
0.0
 10
11.9057396417
 20
7.8238332077
 30
0.0
 10
11.9138559214
 20
7.8229721638
 30
0.0
 10
11.9259319335
 20
7.8208032119
 30
0.0
 10
11.9378786183
 20
7.8177651125
 30
0.0
 10
11.9496314133
 20
7.8138742705
 30
0.0
 10
11.9611279114
 20
7.8091514977
 30
0.0
 10
11.972306779
 20
7.8036220762
 30
0.0
 10
11.9831084661
 20
7.7973155474
 30
0.0
 10
11.9934754155
 20
7.7902655866
 30
0.0
 10
12.0033523921
 20
7.782509811
 30
0.0
 10
12.0126867677
 20
7.7740895854
 30
0.0
 10
12.0214287994
 20
7.7650498019
 30
0.0
 10
12.0295318921
 20
7.755438643
 30
0.0
 10
12.0369528437
 20
7.7453073275
 30
0.0
 10
12.0436520743
 20
7.73470984
 30
0.0
 10
12.0495938345
 20
7.7237026467
 30
0.0
 10
12.0547463959
 20
7.7123443981
 30
0.0
 10
12.0590822187
 20
7.70069562
 30
0.0
 10
12.0625780995
 20
7.6888183953
 30
0.0
 10
12.0652152952
 20
7.6767760376
 30
0.0
 10
12.0669796258
 20
7.6646327585
 30
0.0
 10
12.0678615517
 20
7.6524533286
 30
0.0
 10
12.0678562315
 20
7.64030274
 30
0.0
 10
12.066963546
 20
7.6282458503
 30
0.0
 10
12.0651881299
 20
7.6163470859
 30
0.0
 10
12.0625392655
 20
7.604669926
 30
0.0
 10
12.0590311706
 20
7.5932772059
 30
0.0
 10
12.0554031948
 20
7.5840611609
 30
0.0
 10
12.0520924907
 20
7.5768942496
 30
0.0
 10
12.0485195768
 20
7.5698831789
 30
0.0
 10
12.0435588039
 20
7.5614029092
 30
0.0
 10
12.0379599769
 20
7.5533431733
 30
0.0
 10
12.0331217726
 20
7.5471825016
 30
0.0
 10
12.0280527544
 20
7.5412229223
 30
0.0
 10
12.0239916003
 20
7.5369801894
 30
0.0
 10
12.0211798534
 20
7.5342642318
 30
0.0
  0
SPLINE
  5
3EF
100
AcDbEntity
  8
0
100
AcDbSpline
 62
7
  6
CONTINUOUS
 70
0
 71
3
 72
44
 73
40
 74
0
 42
0.0000001
 43
0.0000001
 44
0.0000000001
 40
0.0
 40
0.0
 40
0.0
 40
0.0
 40
0.0311441543
 40
0.0624413527
 40
0.0938856704
 40
0.1254674301
 40
0.1571744232
 40
0.1889918967
 40
0.2209029056
 40
0.2528886665
 40
0.2849289365
 40
0.3170024165
 40
0.3490871655
 40
0.3811610253
 40
0.4132020474
 40
0.4451889174
 40
0.477101372
 40
0.5089205996
 40
0.5406296198
 40
0.5722136396
 40
0.603660374
 40
0.6349603231
 40
0.6661070065
 40
0.6970971441
 40
0.7279307688
 40
0.7586112764
 40
0.7891454071
 40
0.8195431409
 40
0.8498175195
 40
0.8649161013
 40
0.8799900027
 40
0.8950415891
 40
0.9100733537
 40
0.9250879052
 40
0.9400879559
 40
0.9550763011
 40
0.9700558055
 40
0.9850293877
 40
1.0
 40
1.0
 40
1.0
 40
1.0
 10
11.4187197677
 20
9.8198866632
 30
0.0
 10
11.4308788886
 20
9.8190434253
 30
0.0
 10
11.455204207
 20
9.8164628033
 30
0.0
 10
11.4913972636
 20
9.8099621457
 30
0.0
 10
11.527202661
 20
9.8008566973
 30
0.0
 10
11.5624270181
 20
9.7891953747
 30
0.0
 10
11.5968832003
 20
9.7750406913
 30
0.0
 10
11.6303874172
 20
9.7584684012
 30
0.0
 10
11.6627611741
 20
9.7395670286
 30
0.0
 10
11.6938319551
 20
9.7184374875
 30
0.0
 10
11.7234342402
 20
9.6951925618
 30
0.0
 10
11.7514102888
 20
9.6699562114
 30
0.0
 10
11.7776109871
 20
9.6428629565
 30
0.0
 10
11.8018967165
 20
9.6140572413
 30
0.0
 10
11.8241380016
 20
9.5836925742
 30
0.0
 10
11.8442161758
 20
9.5519307266
 30
0.0
 10
11.8620241191
 20
9.5189409543
 30
0.0
 10
11.8774667599
 20
9.4848990488
 30
0.0
 10
11.8904615227
 20
9.4499863964
 30
0.0
 10
11.9009388615
 20
9.414389071
 30
0.0
 10
11.908842643
 20
9.3782968423
 30
0.0
 10
11.9141303467
 20
9.3419021527
 30
0.0
 10
11.9167733495
 20
9.3053991267
 30
0.0
 10
11.9167571914
 20
9.2689825592
 30
0.0
 10
11.9140815143
 20
9.2328468304
 30
0.0
 10
11.9087601614
 20
9.1971850452
 30
0.0
 10
11.9008209881
 20
9.1621874394
 30
0.0
 10
11.8903066478
 20
9.12804239
 30
0.0
 10
11.8794329735
 20
9.100420919
 30
0.0
 10
11.8695103608
 20
9.0789412639
 30
0.0
 10
11.8614720737
 20
9.0631682807
 30
0.0
 10
11.8528425337
 20
9.0477410841
 30
0.0
 10
11.843633095
 20
9.0326800052
 30
0.0
 10
11.8338561055
 20
9.0180052495
 30
0.0
 10
11.8235246475
 20
9.003736374
 30
0.0
 10
11.8126524799
 20
8.9898925166
 30
0.0
 10
11.8012540919
 20
8.9764920886
 30
0.0
 10
11.7893449939
 20
8.9635532169
 30
0.0
 10
11.7810747669
 20
8.9552457017
 30
0.0
 10
11.7768608087
 20
8.9511753409
 30
0.0
  0
SPLINE
  5
3F0
100
AcDbEntity
  8
0
100
AcDbSpline
 62
7
  6
CONTINUOUS
 70
0
 71
3
 72
44
 73
40
 74
0
 42
0.0000001
 43
0.0000001
 44
0.0000000001
 40
0.0
 40
0.0
 40
0.0
 40
0.0
 40
0.0311441543
 40
0.0624413527
 40
0.0938856704
 40
0.1254674301
 40
0.1571744232
 40
0.1889918967
 40
0.2209029056
 40
0.2528886665
 40
0.2849289365
 40
0.3170024165
 40
0.3490871655
 40
0.3811610253
 40
0.4132020474
 40
0.4451889174
 40
0.477101372
 40
0.5089205996
 40
0.5406296198
 40
0.5722136396
 40
0.603660374
 40
0.6349603231
 40
0.6661070065
 40
0.6970971441
 40
0.7279307688
 40
0.7586112764
 40
0.7891454071
 40
0.8195431409
 40
0.8498175195
 40
0.8649161013
 40
0.8799900027
 40
0.8950415891
 40
0.9100733537
 40
0.9250879052
 40
0.9400879559
 40
0.9550763011
 40
0.9700558055
 40
0.9850293877
 40
1.0
 40
1.0
 40
1.0
 40
1.0
 10
11.4187197677
 20
7.3142748237
 30
0.0
 10
11.4308788886
 20
7.3134315858
 30
0.0
 10
11.455204207
 20
7.3108509638
 30
0.0
 10
11.4913972636
 20
7.3043503062
 30
0.0
 10
11.527202661
 20
7.2952448578
 30
0.0
 10
11.5624270181
 20
7.2835835352
 30
0.0
 10
11.5968832003
 20
7.2694288518
 30
0.0
 10
11.6303874172
 20
7.2528565617
 30
0.0
 10
11.6627611741
 20
7.2339551891
 30
0.0
 10
11.6938319551
 20
7.212825648
 30
0.0
 10
11.7234342402
 20
7.1895807223
 30
0.0
 10
11.7514102888
 20
7.1643443719
 30
0.0
 10
11.7776109871
 20
7.137251117
 30
0.0
 10
11.8018967165
 20
7.1084454018
 30
0.0
 10
11.8241380016
 20
7.0780807347
 30
0.0
 10
11.8442161758
 20
7.0463188871
 30
0.0
 10
11.8620241191
 20
7.0133291148
 30
0.0
 10
11.8774667599
 20
6.9792872093
 30
0.0
 10
11.8904615227
 20
6.9443745569
 30
0.0
 10
11.9009388615
 20
6.9087772315
 30
0.0
 10
11.908842643
 20
6.8726850028
 30
0.0
 10
11.9141303467
 20
6.8362903132
 30
0.0
 10
11.9167733495
 20
6.7997872872
 30
0.0
 10
11.9167571914
 20
6.7633707197
 30
0.0
 10
11.9140815143
 20
6.7272349909
 30
0.0
 10
11.9087601614
 20
6.6915732057
 30
0.0
 10
11.9008209881
 20
6.6565755999
 30
0.0
 10
11.8903066478
 20
6.6224305505
 30
0.0
 10
11.8794329735
 20
6.5948090795
 30
0.0
 10
11.8695103608
 20
6.5733294244
 30
0.0
 10
11.8614720737
 20
6.5575564412
 30
0.0
 10
11.8528425337
 20
6.5421292446
 30
0.0
 10
11.843633095
 20
6.5270681657
 30
0.0
 10
11.8338561055
 20
6.51239341
 30
0.0
 10
11.8235246475
 20
6.4981245345
 30
0.0
 10
11.8126524799
 20
6.4842806771
 30
0.0
 10
11.8012540919
 20
6.4708802491
 30
0.0
 10
11.7893449939
 20
6.4579413774
 30
0.0
 10
11.7810747669
 20
6.4496338622
 30
0.0
 10
11.7768608087
 20
6.4455635014
 30
0.0
  0
SPLINE
  5
3F1
100
AcDbEntity
  8
0
100
AcDbSpline
 62
7
  6
CONTINUOUS
 70
0
 71
3
 72
16
 73
12
 74
0
 42
0.0000001
 43
0.0000001
 44
0.0000000001
 40
0.0
 40
0.0
 40
0.0
 40
0.0
 40
0.1047113552
 40
0.2152892354
 40
0.3318212129
 40
0.4543080559
 40
0.5826455995
 40
0.6489595654
 40
0.7166431083
 40
0.8558965837
 40
1.0
 40
1.0
 40
1.0
 40
1.0
 10
11.2730190241
 20
9.5372921272
 30
0.0
 10
11.271945411
 20
9.5416898832
 30
0.0
 10
11.270208119
 20
9.5508525747
 30
0.0
 10
11.268942396
 20
9.5651638574
 30
0.0
 10
11.2690738464
 20
9.5803007188
 30
0.0
 10
11.2707124952
 20
9.5961202346
 30
0.0
 10
11.2733752553
 20
9.6095904572
 30
0.0
 10
11.2763060114
 20
9.6205496876
 30
0.0
 10
11.2798566286
 20
9.6318203745
 30
0.0
 10
11.2853580492
 20
9.6459848955
 30
0.0
 10
11.2907337505
 20
9.6570099118
 30
0.0
 10
11.2936831585
 20
9.66249743
 30
0.0
  0
SPLINE
  5
3F2
100
AcDbEntity
  8
0
100
AcDbSpline
 62
7
  6
CONTINUOUS
 70
0
 71
3
 72
16
 73
12
 74
0
 42
0.0000001
 43
0.0000001
 44
0.0000000001
 40
0.0
 40
0.0
 40
0.0
 40
0.0
 40
0.1047113552
 40
0.2152892354
 40
0.3318212129
 40
0.4543080559
 40
0.5826455995
 40
0.6489595654
 40
0.7166431083
 40
0.8558965837
 40
1.0
 40
1.0
 40
1.0
 40
1.0
 10
11.2730190241
 20
7.0316802877
 30
0.0
 10
11.271945411
 20
7.0360780437
 30
0.0
 10
11.270208119
 20
7.0452407352
 30
0.0
 10
11.268942396
 20
7.0595520179
 30
0.0
 10
11.2690738464
 20
7.0746888793
 30
0.0
 10
11.2707124952
 20
7.0905083951
 30
0.0
 10
11.2733752553
 20
7.1039786177
 30
0.0
 10
11.2763060114
 20
7.1149378481
 30
0.0
 10
11.2798566286
 20
7.126208535
 30
0.0
 10
11.2853580492
 20
7.140373056
 30
0.0
 10
11.2907337505
 20
7.1513980723
 30
0.0
 10
11.2936831585
 20
7.1568855905
 30
0.0
  0
SPLINE
  5
3F3
100
AcDbEntity
  8
0
100
AcDbSpline
 62
7
  6
CONTINUOUS
 70
0
 71
3
 72
21
 73
17
 74
0
 42
0.0000001
 43
0.0000001
 44
0.0000000001
 40
0.0
 40
0.0
 40
0.0
 40
0.0
 40
0.061653237
 40
0.123329498
 40
0.1850515502
 40
0.2468416698
 40
0.3087213548
 40
0.370711108
 40
0.4328302426
 40
0.495096636
 40
0.5575265765
 40
0.6201345494
 40
0.682933126
 40
0.7459332432
 40
0.8725261314
 40
1.0
 40
1.0
 40
1.0
 40
1.0
 10
10.3931840649
 20
9.1163308895
 30
0.0
 10
10.3951142682
 20
9.1181953356
 30
0.0
 10
10.3990764958
 20
9.1218218708
 30
0.0
 10
10.4053048605
 20
9.1269353712
 30
0.0
 10
10.4118036645
 20
9.1317109057
 30
0.0
 10
10.418556333
 20
9.1361362119
 30
0.0
 10
10.4255459285
 20
9.1402001639
 30
0.0
 10
10.432754784
 20
9.1438925773
 30
0.0
 10
10.4401647489
 20
9.1472041555
 30
0.0
 10
10.4477571658
 20
9.1501265218
 30
0.0
 10
10.4555128959
 20
9.1526523942
 30
0.0
 10
10.4634123464
 20
9.1547754212
 30
0.0
 10
10.4714358668
 20
9.156490237
 30
0.0
 10
10.4822876014
 20
9.1582292929
 30
0.0
 10
10.4960675823
 20
9.1593591505
 30
0.0
 10
10.5071458564
 20
9.1591429463
 30
0.0
 10
10.5126812088
 20
9.1587590684
 30
0.0
  0
SPLINE
  5
3F4
100
AcDbEntity
  8
0
100
AcDbSpline
 62
7
  6
CONTINUOUS
 70
0
 71
3
 72
21
 73
17
 74
0
 42
0.0000001
 43
0.0000001
 44
0.0000000001
 40
0.0
 40
0.0
 40
0.0
 40
0.0
 40
0.061653237
 40
0.123329498
 40
0.1850515502
 40
0.2468416698
 40
0.3087213548
 40
0.370711108
 40
0.4328302426
 40
0.495096636
 40
0.5575265765
 40
0.6201345494
 40
0.682933126
 40
0.7459332432
 40
0.8725261314
 40
1.0
 40
1.0
 40
1.0
 40
1.0
 10
11.7821855655
 20
7.7816863781
 30
0.0
 10
11.7841157689
 20
7.7835508242
 30
0.0
 10
11.7880779965
 20
7.7871773594
 30
0.0
 10
11.7943063612
 20
7.7922908598
 30
0.0
 10
11.8008051652
 20
7.7970663943
 30
0.0
 10
11.8075578336
 20
7.8014917005
 30
0.0
 10
11.8145474292
 20
7.8055556525
 30
0.0
 10
11.8217562846
 20
7.8092480658
 30
0.0
 10
11.8291662495
 20
7.8125596441
 30
0.0
 10
11.8367586665
 20
7.8154820104
 30
0.0
 10
11.8445143966
 20
7.8180078828
 30
0.0
 10
11.852413847
 20
7.8201309098
 30
0.0
 10
11.8604373674
 20
7.8218457256
 30
0.0
 10
11.871289102
 20
7.8235847815
 30
0.0
 10
11.8850690829
 20
7.8247146391
 30
0.0
 10
11.896147357
 20
7.8244984349
 30
0.0
 10
11.9016827095
 20
7.8241145569
 30
0.0
  0
SPLINE
  5
3F5
100
AcDbEntity
  8
0
100
AcDbSpline
 62
7
  6
CONTINUOUS
 70
0
 71
3
 72
23
 73
19
 74
0
 42
0.0000001
 43
0.0000001
 44
0.0000000001
 40
0.0
 40
0.0
 40
0.0
 40
0.0
 40
0.0616482057
 40
0.123319439
 40
0.1850364697
 40
0.2468215573
 40
0.308696204
 40
0.3706809203
 40
0.4327950036
 40
0.4950563332
 40
0.5574811873
 40
0.6200840738
 40
0.6828776141
 40
0.7458723365
 40
0.8090768798
 40
0.872497055
 40
0.9361379958
 40
1.0
 40
1.0
 40
1.0
 40
1.0
 10
11.0605787267
 20
9.6927283997
 30
0.0
 10
11.0663636887
 20
9.6983162299
 30
0.0
 10
11.0782388965
 20
9.709184988
 30
0.0
 10
11.0969057476
 20
9.7245103759
 30
0.0
 10
11.11638319
 20
9.7388227693
 30
0.0
 10
11.1366214685
 20
9.752085495
 30
0.0
 10
11.1575697563
 20
9.7642653307
 30
0.0
 10
11.1791752122
 20
9.7753315779
 30
0.0
 10
11.2013834038
 20
9.7852564086
 30
0.0
 10
11.2241383678
 20
9.7940148668
 30
0.0
 10
11.2473827732
 20
9.8015849484
 30
0.0
 10
11.2710580669
 20
9.8079476518
 30
0.0
 10
11.2951046107
 20
9.813087009
 30
0.0
 10
11.319461879
 20
9.816990169
 30
0.0
 10
11.3440684471
 20
9.8196473254
 30
0.0
 10
11.3688626819
 20
9.821051932
 30
0.0
 10
11.3937812542
 20
9.8212004527
 30
0.0
 10
11.4104079198
 20
9.8204630918
 30
0.0
 10
11.4187197677
 20
9.8198866632
 30
0.0
  0
SPLINE
  5
3F6
100
AcDbEntity
  8
0
100
AcDbSpline
 62
7
  6
CONTINUOUS
 70
0
 71
3
 72
23
 73
19
 74
0
 42
0.0000001
 43
0.0000001
 44
0.0000000001
 40
0.0
 40
0.0
 40
0.0
 40
0.0
 40
0.0616482066
 40
0.1233194429
 40
0.1850364775
 40
0.2468215655
 40
0.3086962091
 40
0.3706809218
 40
0.432795004
 40
0.4950563347
 40
0.557481182
 40
0.6200840771
 40
0.6828775923
 40
0.745872331
 40
0.8090769758
 40
0.8724966943
 40
0.9361387053
 40
1.0
 40
1.0
 40
1.0
 40
1.0
 10
11.2246479252
 20
9.6127657723
 30
0.0
 10
11.2285083147
 20
9.6164946207
 30
0.0
 10
11.2364327904
 20
9.623747543
 30
0.0
 10
11.248889437
 20
9.6339744441
 30
0.0
 10
11.2618870154
 20
9.6435253456
 30
0.0
 10
11.2753923174
 20
9.65237578
 30
0.0
 10
11.2893714153
 20
9.6605035929
 30
0.0
 10
11.3037890485
 20
9.6678882998
 30
0.0
 10
11.3186089005
 20
9.6745113197
 30
0.0
 10
11.3337936306
 20
9.6803559824
 30
0.0
 10
11.3493049718
 20
9.6854076291
 30
0.0
 10
11.3651038488
 20
9.6896535778
 30
0.0
 10
11.3811504675
 20
9.6930831799
 30
0.0
 10
11.3974044513
 20
9.6956878296
 30
0.0
 10
11.4138247618
 20
9.6974609663
 30
0.0
 10
11.430370393
 20
9.6983983233
 30
0.0
 10
11.4469989285
 20
9.6984973956
 30
0.0
 10
11.458094188
 20
9.6980053683
 30
0.0
 10
11.4636407492
 20
9.697620713
 30
0.0
  0
SPLINE
  5
3F7
100
AcDbEntity
  8
0
100
AcDbSpline
 62
7
  6
CONTINUOUS
 70
0
 71
3
 72
37
 73
33
 74
0
 42
0.0000001
 43
0.0000001
 44
0.0000000001
 40
0.0
 40
0.0
 40
0.0
 40
0.0
 40
0.0306013745
 40
0.0613062049
 40
0.0921130058
 40
0.1230193308
 40
0.1540218034
 40
0.1851161559
 40
0.2162972751
 40
0.2475592588
 40
0.2788954764
 40
0.310298632
 40
0.3417608331
 40
0.3732736625
 40
0.404828257
 40
0.4364153889
 40
0.4996324179
 40
0.5628633555
 40
0.5944677459
 40
0.6260462912
 40
0.6575895543
 40
0.6890884048
 40
0.7205341026
 40
0.7519183785
 40
0.7832335064
 40
0.8144723831
 40
0.8456285799
 40
0.8766964031
 40
0.9076711052
 40
0.9385482274
 40
0.9693258185
 40
1.0
 40
1.0
 40
1.0
 40
1.0
 10
11.8196508422
 20
9.3027219079
 30
0.0
 10
11.8196508367
 20
9.3091568921
 30
0.0
 10
11.8193337826
 20
9.3220508077
 30
0.0
 10
11.8179139006
 20
9.3413758643
 30
0.0
 10
11.8155523854
 20
9.3606735904
 30
0.0
 10
11.8122549662
 20
9.3798969025
 30
0.0
 10
11.8080296183
 20
9.3989996813
 30
0.0
 10
11.8028865378
 20
9.4179358878
 30
0.0
 10
11.7968381475
 20
9.4366599481
 30
0.0
 10
11.7898990519
 20
9.4551267901
 30
0.0
 10
11.7820859847
 20
9.4732919683
 30
0.0
 10
11.7734177825
 20
9.4911117536
 30
0.0
 10
11.763915299
 20
9.5085432782
 30
0.0
 10
11.7536015107
 20
9.5255444855
 30
0.0
 10
11.7425009428
 20
9.5420748349
 30
0.0
 10
11.7266855686
 20
9.563436475
 30
0.0
 10
11.7050897336
 20
9.5887604327
 30
0.0
 10
11.6812656451
 20
9.612005513
 30
0.0
 10
11.6610029536
 20
9.6292242334
 30
0.0
 10
11.645242411
 20
9.6414176712
 30
0.0
 10
11.6289564696
 20
9.6528607588
 30
0.0
 10
11.6121839689
 20
9.6635262804
 30
0.0
 10
11.5949653731
 20
9.6733884562
 30
0.0
 10
11.5773421038
 20
9.6824235622
 30
0.0
 10
11.5593565835
 20
9.6906098236
 30
0.0
 10
11.5410520963
 20
9.6979275068
 30
0.0
 10
11.522472704
 20
9.7043589506
 30
0.0
 10
11.5036631013
 20
9.7098886569
 30
0.0
 10
11.4846686761
 20
9.7145032179
 30
0.0
 10
11.465534848
 20
9.7181916537
 30
0.0
 10
11.4463084684
 20
9.7209447745
 30
0.0
 10
11.4334368094
 20
9.7221544784
 30
0.0
 10
11.4270019705
 20
9.722600736
 30
0.0
  0
SPLINE
  5
3F8
100
AcDbEntity
  8
0
100
AcDbSpline
 62
7
  6
CONTINUOUS
 70
0
 71
3
 72
39
 73
35
 74
0
 42
0.0000001
 43
0.0000001
 44
0.0000000001
 40
0.0
 40
0.0
 40
0.0
 40
0.0
 40
0.0299393045
 40
0.0599022798
 40
0.0899120366
 40
0.1199905833
 40
0.150158316
 40
0.1804335578
 40
0.2108321576
 40
0.2413671585
 40
0.2720485409
 40
0.3028830438
 40
0.333874065
 40
0.3650216373
 40
0.3963224783
 40
0.4277701079
 40
0.4593550269
 40
0.491064949
 40
0.5228850812
 40
0.5547984436
 40
0.5867862233
 40
0.6188281557
 40
0.6509029262
 40
0.682988586
 40
0.7150629765
 40
0.7471041562
 40
0.7790908249
 40
0.8110027396
 40
0.8428211151
 40
0.8745290118
 40
0.9061116503
 40
0.9375568979
 40
0.968854964
 40
1.0
 40
1.0
 40
1.0
 40
1.0
 10
11.7026335732
 20
9.1179186457
 30
0.0
 10
11.708257102
 20
9.1233505552
 30
0.0
 10
11.7190874202
 20
9.134664665
 30
0.0
 10
11.7339615325
 20
9.152862263
 30
0.0
 10
11.7473919128
 20
9.1721959512
 30
0.0
 10
11.7593054174
 20
9.1925608513
 30
0.0
 10
11.7696388144
 20
9.2138482383
 30
0.0
 10
11.7783369291
 20
9.2359440297
 30
0.0
 10
11.7853535091
 20
9.2587299863
 30
0.0
 10
11.7906513022
 20
9.2820842023
 30
0.0
 10
11.7942022812
 20
9.3058818076
 30
0.0
 10
11.7959877672
 20
9.3299956283
 30
0.0
 10
11.7959985131
 20
9.3542968689
 30
0.0
 10
11.7942347476
 20
9.378655796
 30
0.0
 10
11.7907061631
 20
9.4029424284
 30
0.0
 10
11.7854318403
 20
9.427027223
 30
0.0
 10
11.7784401409
 20
9.4507817568
 30
0.0
 10
11.7697685497
 20
9.4740794021
 30
0.0
 10
11.759463471
 20
9.4967959913
 30
0.0
 10
11.7475799789
 20
9.518810469
 30
0.0
 10
11.7341815287
 20
9.5400055308
 30
0.0
 10
11.7193396257
 20
9.5602682463
 30
0.0
 10
11.7031334333
 20
9.5794906473
 30
0.0
 10
11.6856493566
 20
9.5975702969
 30
0.0
 10
11.666980586
 20
9.6144108295
 30
0.0
 10
11.6472266057
 20
9.6299224583
 30
0.0
 10
11.6264926702
 20
9.6440224496
 30
0.0
 10
11.6048892479
 20
9.6566355607
 30
0.0
 10
11.5825314589
 20
9.6676944541
 30
0.0
 10
11.5595384091
 20
9.6771400284
 30
0.0
 10
11.536032746
 20
9.6849217754
 30
0.0
 10
11.5121393539
 20
9.6909979563
 30
0.0
 10
11.4879872691
 20
9.6953359353
 30
0.0
 10
11.4717546831
 20
9.6970580097
 30
0.0
 10
11.4636407492
 20
9.697620713
 30
0.0
  0
SPLINE
  5
3F9
100
AcDbEntity
  8
0
100
AcDbSpline
 62
7
  6
CONTINUOUS
 70
0
 71
3
 72
23
 73
19
 74
0
 42
0.0000001
 43
0.0000001
 44
0.0000000001
 40
0.0
 40
0.0
 40
0.0
 40
0.0
 40
0.0616482057
 40
0.123319439
 40
0.1850364697
 40
0.2468215573
 40
0.308696204
 40
0.3706809203
 40
0.4327950036
 40
0.4950563332
 40
0.5574811873
 40
0.6200840738
 40
0.6828776141
 40
0.7458723365
 40
0.8090768798
 40
0.872497055
 40
0.9361379958
 40
1.0
 40
1.0
 40
1.0
 40
1.0
 10
11.0605787267
 20
7.1871165602
 30
0.0
 10
11.0663636887
 20
7.1927043904
 30
0.0
 10
11.0782388965
 20
7.2035731485
 30
0.0
 10
11.0969057476
 20
7.2188985364
 30
0.0
 10
11.11638319
 20
7.2332109298
 30
0.0
 10
11.1366214685
 20
7.2464736555
 30
0.0
 10
11.1575697563
 20
7.2586534912
 30
0.0
 10
11.1791752122
 20
7.2697197384
 30
0.0
 10
11.2013834038
 20
7.2796445691
 30
0.0
 10
11.2241383678
 20
7.2884030273
 30
0.0
 10
11.2473827732
 20
7.2959731089
 30
0.0
 10
11.2710580669
 20
7.3023358123
 30
0.0
 10
11.2951046107
 20
7.3074751695
 30
0.0
 10
11.319461879
 20
7.3113783295
 30
0.0
 10
11.3440684471
 20
7.3140354859
 30
0.0
 10
11.3688626819
 20
7.3154400925
 30
0.0
 10
11.3937812542
 20
7.3155886132
 30
0.0
 10
11.4104079198
 20
7.3148512523
 30
0.0
 10
11.4187197677
 20
7.3142748237
 30
0.0
  0
SPLINE
  5
3FA
100
AcDbEntity
  8
0
100
AcDbSpline
 62
7
  6
CONTINUOUS
 70
0
 71
3
 72
23
 73
19
 74
0
 42
0.0000001
 43
0.0000001
 44
0.0000000001
 40
0.0
 40
0.0
 40
0.0
 40
0.0
 40
0.0616482066
 40
0.1233194429
 40
0.1850364775
 40
0.2468215655
 40
0.3086962091
 40
0.3706809218
 40
0.432795004
 40
0.4950563347
 40
0.557481182
 40
0.6200840771
 40
0.6828775923
 40
0.745872331
 40
0.8090769758
 40
0.8724966943
 40
0.9361387053
 40
1.0
 40
1.0
 40
1.0
 40
1.0
 10
11.2246479252
 20
7.1071539328
 30
0.0
 10
11.2285083147
 20
7.1108827812
 30
0.0
 10
11.2364327904
 20
7.1181357035
 30
0.0
 10
11.248889437
 20
7.1283626046
 30
0.0
 10
11.2618870154
 20
7.1379135061
 30
0.0
 10
11.2753923174
 20
7.1467639405
 30
0.0
 10
11.2893714153
 20
7.1548917534
 30
0.0
 10
11.3037890485
 20
7.1622764603
 30
0.0
 10
11.3186089005
 20
7.1688994802
 30
0.0
 10
11.3337936306
 20
7.1747441429
 30
0.0
 10
11.3493049718
 20
7.1797957896
 30
0.0
 10
11.3651038488
 20
7.1840417383
 30
0.0
 10
11.3811504675
 20
7.1874713404
 30
0.0
 10
11.3974044513
 20
7.1900759901
 30
0.0
 10
11.4138247618
 20
7.1918491268
 30
0.0
 10
11.430370393
 20
7.1927864838
 30
0.0
 10
11.4469989285
 20
7.1928855561
 30
0.0
 10
11.458094188
 20
7.1923935288
 30
0.0
 10
11.4636407492
 20
7.1920088735
 30
0.0
  0
SPLINE
  5
3FB
100
AcDbEntity
  8
0
100
AcDbSpline
 62
7
  6
CONTINUOUS
 70
0
 71
3
 72
37
 73
33
 74
0
 42
0.0000001
 43
0.0000001
 44
0.0000000001
 40
0.0
 40
0.0
 40
0.0
 40
0.0
 40
0.0306013745
 40
0.0613062049
 40
0.0921130058
 40
0.1230193308
 40
0.1540218034
 40
0.1851161559
 40
0.2162972751
 40
0.2475592588
 40
0.2788954764
 40
0.310298632
 40
0.3417608331
 40
0.3732736625
 40
0.404828257
 40
0.4364153889
 40
0.4996324179
 40
0.5628633555
 40
0.5944677459
 40
0.6260462912
 40
0.6575895543
 40
0.6890884048
 40
0.7205341026
 40
0.7519183785
 40
0.7832335064
 40
0.8144723831
 40
0.8456285799
 40
0.8766964031
 40
0.9076711052
 40
0.9385482274
 40
0.9693258185
 40
1.0
 40
1.0
 40
1.0
 40
1.0
 10
11.8196508422
 20
6.7971100684
 30
0.0
 10
11.8196508367
 20
6.8035450526
 30
0.0
 10
11.8193337826
 20
6.8164389682
 30
0.0
 10
11.8179139006
 20
6.8357640248
 30
0.0
 10
11.8155523854
 20
6.8550617509
 30
0.0
 10
11.8122549662
 20
6.874285063
 30
0.0
 10
11.8080296183
 20
6.8933878418
 30
0.0
 10
11.8028865378
 20
6.9123240482
 30
0.0
 10
11.7968381475
 20
6.9310481086
 30
0.0
 10
11.7898990519
 20
6.9495149506
 30
0.0
 10
11.7820859847
 20
6.9676801288
 30
0.0
 10
11.7734177825
 20
6.9854999141
 30
0.0
 10
11.763915299
 20
7.0029314387
 30
0.0
 10
11.7536015107
 20
7.0199326459
 30
0.0
 10
11.7425009428
 20
7.0364629954
 30
0.0
 10
11.7266855686
 20
7.0578246355
 30
0.0
 10
11.7050897336
 20
7.0831485932
 30
0.0
 10
11.6812656451
 20
7.1063936735
 30
0.0
 10
11.6610029536
 20
7.1236123939
 30
0.0
 10
11.645242411
 20
7.1358058317
 30
0.0
 10
11.6289564696
 20
7.1472489193
 30
0.0
 10
11.6121839689
 20
7.1579144409
 30
0.0
 10
11.5949653731
 20
7.1677766167
 30
0.0
 10
11.5773421038
 20
7.1768117227
 30
0.0
 10
11.5593565835
 20
7.1849979841
 30
0.0
 10
11.5410520963
 20
7.1923156673
 30
0.0
 10
11.522472704
 20
7.1987471111
 30
0.0
 10
11.5036631013
 20
7.2042768174
 30
0.0
 10
11.4846686761
 20
7.2088913784
 30
0.0
 10
11.465534848
 20
7.2125798142
 30
0.0
 10
11.4463084684
 20
7.215332935
 30
0.0
 10
11.4334368094
 20
7.2165426389
 30
0.0
 10
11.4270019705
 20
7.2169888965
 30
0.0
  0
SPLINE
  5
3FC
100
AcDbEntity
  8
0
100
AcDbSpline
 62
7
  6
CONTINUOUS
 70
0
 71
3
 72
39
 73
35
 74
0
 42
0.0000001
 43
0.0000001
 44
0.0000000001
 40
0.0
 40
0.0
 40
0.0
 40
0.0
 40
0.0299393045
 40
0.0599022798
 40
0.0899120366
 40
0.1199905833
 40
0.150158316
 40
0.1804335578
 40
0.2108321576
 40
0.2413671585
 40
0.2720485409
 40
0.3028830438
 40
0.333874065
 40
0.3650216373
 40
0.3963224783
 40
0.4277701079
 40
0.4593550269
 40
0.491064949
 40
0.5228850812
 40
0.5547984436
 40
0.5867862233
 40
0.6188281557
 40
0.6509029262
 40
0.682988586
 40
0.7150629765
 40
0.7471041562
 40
0.7790908249
 40
0.8110027396
 40
0.8428211151
 40
0.8745290118
 40
0.9061116503
 40
0.9375568979
 40
0.968854964
 40
1.0
 40
1.0
 40
1.0
 40
1.0
 10
11.7026335732
 20
6.6123068062
 30
0.0
 10
11.708257102
 20
6.6177387157
 30
0.0
 10
11.7190874202
 20
6.6290528255
 30
0.0
 10
11.7339615325
 20
6.6472504235
 30
0.0
 10
11.7473919128
 20
6.6665841117
 30
0.0
 10
11.7593054174
 20
6.6869490118
 30
0.0
 10
11.7696388144
 20
6.7082363988
 30
0.0
 10
11.7783369291
 20
6.7303321902
 30
0.0
 10
11.7853535091
 20
6.7531181468
 30
0.0
 10
11.7906513022
 20
6.7764723628
 30
0.0
 10
11.7942022812
 20
6.8002699681
 30
0.0
 10
11.7959877672
 20
6.8243837888
 30
0.0
 10
11.7959985131
 20
6.8486850294
 30
0.0
 10
11.7942347476
 20
6.8730439565
 30
0.0
 10
11.7907061631
 20
6.8973305889
 30
0.0
 10
11.7854318403
 20
6.9214153835
 30
0.0
 10
11.7784401409
 20
6.9451699173
 30
0.0
 10
11.7697685497
 20
6.9684675626
 30
0.0
 10
11.759463471
 20
6.9911841518
 30
0.0
 10
11.7475799789
 20
7.0131986295
 30
0.0
 10
11.7341815287
 20
7.0343936913
 30
0.0
 10
11.7193396257
 20
7.0546564068
 30
0.0
 10
11.7031334333
 20
7.0738788078
 30
0.0
 10
11.6856493566
 20
7.0919584574
 30
0.0
 10
11.666980586
 20
7.10879899
 30
0.0
 10
11.6472266057
 20
7.1243106188
 30
0.0
 10
11.6264926702
 20
7.1384106101
 30
0.0
 10
11.6048892479
 20
7.1510237212
 30
0.0
 10
11.5825314589
 20
7.1620826146
 30
0.0
 10
11.5595384091
 20
7.1715281889
 30
0.0
 10
11.536032746
 20
7.1793099359
 30
0.0
 10
11.5121393539
 20
7.1853861168
 30
0.0
 10
11.4879872691
 20
7.1897240958
 30
0.0
 10
11.4717546831
 20
7.1914461702
 30
0.0
 10
11.4636407492
 20
7.1920088735
 30
0.0
  0
SPLINE
  5
3FD
100
AcDbEntity
  8
0
100
AcDbSpline
 62
7
  6
CONTINUOUS
 70
0
 71
3
 72
40
 73
36
 74
0
 42
0.0000001
 43
0.0000001
 44
0.0000000001
 40
0.0
 40
0.0
 40
0.0
 40
0.0
 40
0.0063160423
 40
0.0126709865
 40
0.0191029724
 40
0.0256486827
 40
0.0323427081
 40
0.0392172067
 40
0.0536153583
 40
0.0690524996
 40
0.0856858071
 40
0.1036340937
 40
0.1229841962
 40
0.143797065
 40
0.1661130709
 40
0.1899559871
 40
0.2153360382
 40
0.2422525011
 40
0.2706954866
 40
0.3006471939
 40
0.3320831972
 40
0.3649732978
 40
0.3992820311
 40
0.4349693787
 40
0.4719912661
 40
0.5102997798
 40
0.5498435954
 40
0.5905683418
 40
0.6324167182
 40
0.6753287759
 40
0.7192421939
 40
0.7640923801
 40
0.8098128754
 40
0.9035866165
 40
1.0
 40
1.0
 40
1.0
 40
1.0
 10
12.4021430734
 20
9.331647666
 30
0.0
 10
12.4014154466
 20
9.3316981244
 30
0.0
 10
12.3999591514
 20
9.331858923
 30
0.0
 10
12.3977910236
 20
9.3322780014
 30
0.0
 10
12.3956373844
 20
9.3328749817
 30
0.0
 10
12.3934995082
 20
9.3336494403
 30
0.0
 10
12.3913782272
 20
9.3346008232
 30
0.0
 10
12.3885298078
 20
9.3361277107
 30
0.0
 10
12.3850051357
 20
9.338505241
 30
0.0
 10
12.3809283005
 20
9.342009883
 30
0.0
 10
12.3769422717
 20
9.3462019074
 30
0.0
 10
12.3730516962
 20
9.3510735917
 30
0.0
 10
12.3692607809
 20
9.3566173066
 30
0.0
 10
12.3655744862
 20
9.3628244903
 30
0.0
 10
12.3619980506
 20
9.3696856183
 30
0.0
 10
12.3585368891
 20
9.3771900087
 30
0.0
 10
12.3551963949
 20
9.3853258058
 30
0.0
 10
12.3519819394
 20
9.3940800335
 30
0.0
 10
12.3488987784
 20
9.4034386082
 30
0.0
 10
12.3459519558
 20
9.4133863582
 30
0.0
 10
12.3431463467
 20
9.4239070926
 30
0.0
 10
12.3404866281
 20
9.434983633
 30
0.0
 10
12.3379772034
 20
9.4465978351
 30
0.0
 10
12.3356222457
 20
9.4587306426
 30
0.0
 10
12.3334256978
 20
9.4713621277
 30
0.0
 10
12.3313912089
 20
9.484471514
 30
0.0
 10
12.3295221597
 20
9.4980372223
 30
0.0
 10
12.3278216816
 20
9.5120369151
 30
0.0
 10
12.3262926059
 20
9.5264475265
 30
0.0
 10
12.3249374666
 20
9.5412453035
 30
0.0
 10
12.3237585408
 20
9.556405843
 30
0.0
 10
12.3227577717
 20
9.5719041791
 30
0.0
 10
12.3216539864
 20
9.5931640505
 30
0.0
 10
12.3207409907
 20
9.6203939416
 30
0.0
 10
12.3205051096
 20
9.6423574638
 30
0.0
 10
12.3205051096
 20
9.6534912454
 30
0.0
  0
SPLINE
  5
3FE
100
AcDbEntity
  8
0
100
AcDbSpline
 62
7
  6
CONTINUOUS
 70
0
 71
3
 72
21
 73
17
 74
0
 42
0.0000001
 43
0.0000001
 44
0.0000000001
 40
0.0
 40
0.0
 40
0.0
 40
0.0
 40
0.0472836668
 40
0.095935242
 40
0.1461993728
 40
0.1982711993
 40
0.3083229029
 40
0.3666159079
 40
0.4271656348
 40
0.4900393681
 40
0.5552965936
 40
0.6931113823
 40
0.7658587607
 40
0.8412166153
 40
0.9192475481
 40
1.0
 40
1.0
 40
1.0
 40
1.0
 10
11.34342609
 20
9.4687224546
 30
0.0
 10
11.3419099631
 20
9.4688275158
 30
0.0
 10
11.3388434837
 20
9.469212628
 30
0.0
 10
11.3342603709
 20
9.4702837525
 30
0.0
 10
11.3296592715
 20
9.4718512334
 30
0.0
 10
11.3234230509
 20
9.4746470664
 30
0.0
 10
11.3173703391
 20
9.4784044043
 30
0.0
 10
11.3116101546
 20
9.4829883708
 30
0.0
 10
11.3073248802
 20
9.4869656629
 30
0.0
 10
11.3031900206
 20
9.4914092004
 30
0.0
 10
11.2978209593
 20
9.498067767
 30
0.0
 10
11.2929939515
 20
9.5055420632
 30
0.0
 10
11.2887788205
 20
9.5137131955
 30
0.0
 10
11.2858704147
 20
9.5203803171
 30
0.0
 10
11.2833070925
 20
9.5274609363
 30
0.0
 10
11.2818748893
 20
9.5323635288
 30
0.0
 10
11.2812237908
 20
9.5348760316
 30
0.0
  0
SPLINE
  5
3FF
100
AcDbEntity
  8
0
100
AcDbSpline
 62
7
  6
CONTINUOUS
 70
0
 71
3
 72
21
 73
17
 74
0
 42
0.0000001
 43
0.0000001
 44
0.0000000001
 40
0.0
 40
0.0
 40
0.0
 40
0.0
 40
0.0472836668
 40
0.095935242
 40
0.1461993728
 40
0.1982711993
 40
0.3083229029
 40
0.3666159079
 40
0.4271656348
 40
0.4900393681
 40
0.5552965936
 40
0.6931113823
 40
0.7658587607
 40
0.8412166153
 40
0.9192475481
 40
1.0
 40
1.0
 40
1.0
 40
1.0
 10
11.34342609
 20
6.9631106151
 30
0.0
 10
11.3419099631
 20
6.9632156763
 30
0.0
 10
11.3388434837
 20
6.9636007885
 30
0.0
 10
11.3342603709
 20
6.964671913
 30
0.0
 10
11.3296592715
 20
6.9662393939
 30
0.0
 10
11.3234230509
 20
6.9690352269
 30
0.0
 10
11.3173703391
 20
6.9727925648
 30
0.0
 10
11.3116101546
 20
6.9773765313
 30
0.0
 10
11.3073248802
 20
6.9813538234
 30
0.0
 10
11.3031900206
 20
6.9857973609
 30
0.0
 10
11.2978209593
 20
6.9924559275
 30
0.0
 10
11.2929939515
 20
6.9999302237
 30
0.0
 10
11.2887788205
 20
7.008101356
 30
0.0
 10
11.2858704147
 20
7.0147684776
 30
0.0
 10
11.2833070925
 20
7.0218490968
 30
0.0
 10
11.2818748893
 20
7.0267516893
 30
0.0
 10
11.2812237908
 20
7.0292641921
 30
0.0
  0
SPLINE
  5
400
100
AcDbEntity
  8
0
100
AcDbSpline
 62
7
  6
CONTINUOUS
 70
0
 71
3
 72
40
 73
36
 74
0
 42
0.0000001
 43
0.0000001
 44
0.0000000001
 40
0.0
 40
0.0
 40
0.0
 40
0.0
 40
0.0063160423
 40
0.0126709865
 40
0.0191029724
 40
0.0256486827
 40
0.0323427081
 40
0.0392172067
 40
0.0536153583
 40
0.0690524996
 40
0.0856858071
 40
0.1036340937
 40
0.1229841962
 40
0.143797065
 40
0.1661130709
 40
0.1899559871
 40
0.2153360382
 40
0.2422525011
 40
0.2706954866
 40
0.3006471939
 40
0.3320831972
 40
0.3649732978
 40
0.3992820311
 40
0.4349693787
 40
0.4719912661
 40
0.5102997798
 40
0.5498435954
 40
0.5905683418
 40
0.6324167182
 40
0.6753287759
 40
0.7192421939
 40
0.7640923801
 40
0.8098128754
 40
0.9035866165
 40
1.0
 40
1.0
 40
1.0
 40
1.0
 10
12.4021430734
 20
6.8260358265
 30
0.0
 10
12.4014154466
 20
6.8260862849
 30
0.0
 10
12.3999591514
 20
6.8262470835
 30
0.0
 10
12.3977910236
 20
6.8266661619
 30
0.0
 10
12.3956373844
 20
6.8272631422
 30
0.0
 10
12.3934995082
 20
6.8280376008
 30
0.0
 10
12.3913782272
 20
6.8289889837
 30
0.0
 10
12.3885298078
 20
6.8305158712
 30
0.0
 10
12.3850051357
 20
6.8328934015
 30
0.0
 10
12.3809283005
 20
6.8363980435
 30
0.0
 10
12.3769422717
 20
6.8405900679
 30
0.0
 10
12.3730516962
 20
6.8454617522
 30
0.0
 10
12.3692607809
 20
6.8510054671
 30
0.0
 10
12.3655744862
 20
6.8572126508
 30
0.0
 10
12.3619980506
 20
6.8640737788
 30
0.0
 10
12.3585368891
 20
6.8715781692
 30
0.0
 10
12.3551963949
 20
6.8797139663
 30
0.0
 10
12.3519819394
 20
6.888468194
 30
0.0
 10
12.3488987784
 20
6.8978267687
 30
0.0
 10
12.3459519558
 20
6.9077745187
 30
0.0
 10
12.3431463467
 20
6.9182952531
 30
0.0
 10
12.3404866281
 20
6.9293717935
 30
0.0
 10
12.3379772034
 20
6.9409859956
 30
0.0
 10
12.3356222457
 20
6.9531188031
 30
0.0
 10
12.3334256978
 20
6.9657502882
 30
0.0
 10
12.3313912089
 20
6.9788596745
 30
0.0
 10
12.3295221597
 20
6.9924253828
 30
0.0
 10
12.3278216816
 20
7.0064250756
 30
0.0
 10
12.3262926059
 20
7.020835687
 30
0.0
 10
12.3249374666
 20
7.035633464
 30
0.0
 10
12.3237585408
 20
7.0507940035
 30
0.0
 10
12.3227577717
 20
7.0662923396
 30
0.0
 10
12.3216539864
 20
7.087552211
 30
0.0
 10
12.3207409907
 20
7.1147821021
 30
0.0
 10
12.3205051096
 20
7.1367456243
 30
0.0
 10
12.3205051096
 20
7.1478794059
 30
0.0
  0
SPLINE
  5
401
100
AcDbEntity
  8
0
100
AcDbSpline
 62
7
  6
CONTINUOUS
 70
0
 71
3
 72
23
 73
19
 74
0
 42
0.0000001
 43
0.0000001
 44
0.0000000001
 40
0.0
 40
0.0
 40
0.0
 40
0.0
 40
0.0638382759
 40
0.1274626197
 40
0.1908722683
 40
0.2540725401
 40
0.317068435
 40
0.3798678757
 40
0.4424804376
 40
0.5049176302
 40
0.5671927177
 40
0.6293206087
 40
0.6913177185
 40
0.7532018072
 40
0.8149918049
 40
0.8767076202
 40
0.9383699367
 40
1.0
 40
1.0
 40
1.0
 40
1.0
 10
11.4270019705
 20
8.8320170714
 30
0.0
 10
11.4350664897
 20
8.8314577951
 30
0.0
 10
11.4511982973
 20
8.8307304037
 30
0.0
 10
11.4753776167
 20
8.8308200844
 30
0.0
 10
11.4994433952
 20
8.8320921958
 30
0.0
 10
11.5233377075
 20
8.8345436553
 30
0.0
 10
11.5470042768
 20
8.8381688239
 30
0.0
 10
11.5703869043
 20
8.8429591095
 30
0.0
 10
11.5934302
 20
8.8489032494
 30
0.0
 10
11.6160795269
 20
8.8559872046
 30
0.0
 10
11.6382811886
 20
8.8641942281
 30
0.0
 10
11.6599825412
 20
8.8735049083
 30
0.0
 10
11.6811321172
 20
8.8838972087
 30
0.0
 10
11.701679766
 20
8.8953465382
 30
0.0
 10
11.7215767039
 20
8.9078257403
 30
0.0
 10
11.740775893
 20
8.9213054068
 30
0.0
 10
11.7592311785
 20
8.9357530162
 30
0.0
 10
11.7710128102
 20
8.9460101215
 30
0.0
 10
11.7767632727
 20
8.9512863582
 30
0.0
  0
SPLINE
  5
402
100
AcDbEntity
  8
0
100
AcDbSpline
 62
7
  6
CONTINUOUS
 70
0
 71
3
 72
41
 73
37
 74
0
 42
0.0000001
 43
0.0000001
 44
0.0000000001
 40
0.0
 40
0.0
 40
0.0
 40
0.0
 40
0.0311303675
 40
0.0624121863
 40
0.0938397419
 40
0.1254035955
 40
0.1570919015
 40
0.1888903161
 40
0.2207823565
 40
0.252749738
 40
0.284772734
 40
0.3168305604
 40
0.3489017741
 40
0.3809646792
 40
0.4129977364
 40
0.4449799718
 40
0.4768913757
 40
0.5087132904
 40
0.5404287807
 40
0.5720229764
 40
0.6034833841
 40
0.6348001654
 40
0.6659663707
 40
0.6969781178
 40
0.7278347172
 40
0.7585387368
 40
0.7890959957
 40
0.8195154843
 40
0.8498092124
 40
0.879991985
 40
0.9100811006
 40
0.9400959843
 40
0.9550849344
 40
0.9700633614
 40
0.9850340934
 40
1.0
 40
1.0
 40
1.0
 40
1.0
 10
11.4270019705
 20
8.8320170714
 30
0.0
 10
11.4149675177
 20
8.8328516635
 30
0.0
 10
11.3908917475
 20
8.8353967095
 30
0.0
 10
11.3550649539
 20
8.8417907824
 30
0.0
 10
11.3196140537
 20
8.8507374463
 30
0.0
 10
11.2847266098
 20
8.8621896104
 30
0.0
 10
11.2505842216
 20
8.8760871605
 30
0.0
 10
11.2173653047
 20
8.892357226
 30
0.0
 10
11.1852432232
 20
8.9109146278
 30
0.0
 10
11.1543856832
 20
8.9316623201
 30
0.0
 10
11.1249537575
 20
8.9544918395
 30
0.0
 10
11.0971010665
 20
8.979283872
 30
0.0
 10
11.0709730207
 20
9.0059089255
 30
0.0
 10
11.0467060798
 20
9.0342279914
 30
0.0
 10
11.0244269772
 20
9.0640932012
 30
0.0
 10
11.0042521007
 20
9.0953486357
 30
0.0
 10
10.9862869202
 20
9.1278311463
 30
0.0
 10
10.9706254387
 20
9.1613711842
 30
0.0
 10
10.957349616
 20
9.1957936364
 30
0.0
 10
10.9465290218
 20
9.2309187746
 30
0.0
 10
10.9382204831
 20
9.2665631762
 30
0.0
 10
10.9324677537
 20
9.3025406542
 30
0.0
 10
10.9293012147
 20
9.3386632137
 30
0.0
 10
10.9287377978
 20
9.3747420417
 30
0.0
 10
10.9307808861
 20
9.4105884693
 30
0.0
 10
10.9354202125
 20
9.4460149519
 30
0.0
 10
10.9426318819
 20
9.4808360482
 30
0.0
 10
10.9523785721
 20
9.5148694153
 30
0.0
 10
10.9646096034
 20
9.5479366276
 30
0.0
 10
10.9792614631
 20
9.579864625
 30
0.0
 10
10.9962567884
 20
9.6104848812
 30
0.0
 10
11.0123092396
 20
9.6347938069
 30
0.0
 10
11.0262223129
 20
9.6534195838
 30
0.0
 10
11.0371780912
 20
9.6669613413
 30
0.0
 10
11.0486436199
 20
9.6800617462
 30
0.0
 10
11.0566186446
 20
9.6884912767
 30
0.0
 10
11.0606852302
 20
9.6926260718
 30
0.0
  0
SPLINE
  5
403
100
AcDbEntity
  8
0
100
AcDbSpline
 62
7
  6
CONTINUOUS
 70
0
 71
3
 72
69
 73
65
 74
0
 42
0.0000001
 43
0.0000001
 44
0.0000000001
 40
0.0
 40
0.0
 40
0.0
 40
0.0
 40
0.0156746985
 40
0.0314017014
 40
0.0471790069
 40
0.0630056953
 40
0.0788795444
 40
0.0947982006
 40
0.1107588446
 40
0.1267582874
 40
0.1427930069
 40
0.1588591687
 40
0.1749526664
 40
0.1910691564
 40
0.2072040983
 40
0.2233527945
 40
0.2395104297
 40
0.2556721118
 40
0.2879796228
 40
0.3202445207
 40
0.3363533175
 40
0.3524375465
 40
0.3684929452
 40
0.3845155009
 40
0.4005014861
 40
0.4164474926
 40
0.4323504641
 40
0.4482077281
 40
0.4640170215
 40
0.4797765139
 40
0.495484828
 40
0.5111410576
 40
0.5267447814
 40
0.5422960714
 40
0.5577954962
 40
0.5732441201
 40
0.5886434987
 40
0.6039956698
 40
0.6193031369
 40
0.634568848
 40
0.6497961697
 40
0.6649888563
 40
0.6801510163
 40
0.6952870716
 40
0.7104017133
 40
0.7254998542
 40
0.7405865782
 40
0.7556670889
 40
0.7707466552
 40
0.7858305563
 40
0.8009240255
 40
0.8160321957
 40
0.8311600466
 40
0.8463123538
 40
0.8614936409
 40
0.8767081332
 40
0.8919597166
 40
0.9072518984
 40
0.9225877836
 40
0.9379700253
 40
0.9534008492
 40
0.9688819957
 40
0.9844144965
 40
1.0
 40
1.0
 40
1.0
 40
1.0
 10
11.4270019705
 20
8.9373029927
 30
0.0
 10
11.4206382599
 20
8.9377443175
 30
0.0
 10
11.4079089052
 20
8.9389371765
 30
0.0
 10
11.38889368
 20
8.9416444884
 30
0.0
 10
11.3699679691
 20
8.9452667553
 30
0.0
 10
11.351177112
 20
8.9497951371
 30
0.0
 10
11.332565045
 20
8.9552191056
 30
0.0
 10
11.3141756997
 20
8.9615257992
 30
0.0
 10
11.2960523404
 20
8.9687003441
 30
0.0
 10
11.2782376361
 20
8.9767258087
 30
0.0
 10
11.260773522
 20
8.9855832704
 30
0.0
 10
11.2437011115
 20
8.99525186
 30
0.0
 10
11.2270606003
 20
9.0057088113
 30
0.0
 10
11.2108911605
 20
9.0169294724
 30
0.0
 10
11.1952308259
 20
9.0288874319
 30
0.0
 10
11.1801165422
 20
9.0415544284
 30
0.0
 10
11.1655835816
 20
9.0549010096
 30
0.0
 10
11.1470324014
 20
9.0735549813
 30
0.0
 10
11.1254668767
 20
9.098405954
 30
0.0
 10
11.1062534572
 20
9.1250910024
 30
0.0
 10
11.0924106396
 20
9.1473819652
 30
0.0
 10
11.0828203988
 20
9.164524029
 30
0.0
 10
11.0740410682
 20
9.1820555916
 30
0.0
 10
11.0660930472
 20
9.1999357653
 30
0.0
 10
11.0589951515
 20
9.2181223582
 30
0.0
 10
11.0527641144
 20
9.236572588
 30
0.0
 10
11.0474146409
 20
9.2552430073
 30
0.0
 10
11.0429593433
 20
9.2740896546
 30
0.0
 10
11.0394087455
 20
9.2930681525
 30
0.0
 10
11.0367712484
 20
9.3121338106
 30
0.0
 10
11.0350531188
 20
9.3312417283
 30
0.0
 10
11.0342584465
 20
9.350346897
 30
0.0
 10
11.0343891299
 20
9.3694043102
 30
0.0
 10
11.0354449016
 20
9.3883690694
 30
0.0
 10
11.0374233213
 20
9.407196488
 30
0.0
 10
11.0403197862
 20
9.4258421928
 30
0.0
 10
11.04412752
 20
9.4442622315
 30
0.0
 10
11.0488375745
 20
9.4624131826
 30
0.0
 10
11.0544388861
 20
9.4802522513
 30
0.0
 10
11.0609182916
 20
9.4977373699
 30
0.0
 10
11.0682605642
 20
9.5148272942
 30
0.0
 10
11.076448432
 20
9.5314817064
 30
0.0
 10
11.0854625996
 20
9.547661324
 30
0.0
 10
11.09528183
 20
9.5633279774
 30
0.0
 10
11.1058829864
 20
9.5784447017
 30
0.0
 10
11.1172410894
 20
9.5929758215
 30
0.0
 10
11.1293293663
 20
9.6068870412
 30
0.0
 10
11.1421192935
 20
9.6201455494
 30
0.0
 10
11.1555806984
 20
9.6327200707
 30
0.0
 10
11.1696818249
 20
9.644580943
 30
0.0
 10
11.1843894104
 20
9.6557001848
 30
0.0
 10
11.1996687599
 20
9.6660515645
 30
0.0
 10
11.2154838101
 20
9.6756106944
 30
0.0
 10
11.2317972432
 20
9.6843550541
 30
0.0
 10
11.2485705716
 20
9.6922640454
 30
0.0
 10
11.2657642294
 20
9.6993190382
 30
0.0
 10
11.2833376633
 20
9.7055034136
 30
0.0
 10
11.3012494194
 20
9.7108026443
 30
0.0
 10
11.3194572504
 20
9.7152042783
 30
0.0
 10
11.3379182388
 20
9.7186979921
 30
0.0
 10
11.3565888329
 20
9.7212755837
 30
0.0
 10
11.375425108
 20
9.7229309722
 30
0.0
 10
11.3943823662
 20
9.7236604469
 30
0.0
 10
11.4070514208
 20
9.7235284042
 30
0.0
 10
11.4133903099
 20
9.7233086736
 30
0.0
  0
SPLINE
  5
404
100
AcDbEntity
  8
0
100
AcDbSpline
 62
7
  6
CONTINUOUS
 70
0
 71
3
 72
71
 73
67
 74
0
 42
0.0000001
 43
0.0000001
 44
0.0000000001
 40
0.0
 40
0.0
 40
0.0
 40
0.0
 40
0.0156735421
 40
0.0313988053
 40
0.0471736305
 40
0.0629972634
 40
0.0788675388
 40
0.0947821781
 40
0.1107384785
 40
0.1267333628
 40
0.1427634377
 40
0.158825004
 40
0.1749140967
 40
0.1910265207
 40
0.2071578863
 40
0.2233036451
 40
0.239459128
 40
0.2556195859
 40
0.2717802296
 40
0.2879362682
 40
0.3040829472
 40
0.3202155903
 40
0.3363296391
 40
0.3524206901
 40
0.3684845311
 40
0.3845171779
 40
0.4005149113
 40
0.4164743096
 40
0.4323922779
 40
0.448266077
 40
0.464093353
 40
0.4798721602
 40
0.4956009812
 40
0.5112787427
 40
0.5269048314
 40
0.5424791058
 40
0.5580019
 40
0.5734740249
 40
0.5888967647
 40
0.6042718723
 40
0.6196015567
 40
0.6348884637
 40
0.6501356541
 40
0.665346578
 40
0.6805250452
 40
0.6956751885
 40
0.7108014235
 40
0.7259084054
 40
0.7410009846
 40
0.7560841584
 40
0.7711630199
 40
0.786242705
 40
0.8013283409
 40
0.8164249947
 40
0.8315376225
 40
0.8466710184
 40
0.8618297659
 40
0.8770181934
 40
0.8922403339
 40
0.9074998859
 40
0.9228001795
 40
0.9381441482
 40
0.9535342813
 40
0.9689726915
 40
0.9844609166
 40
1.0
 40
1.0
 40
1.0
 40
1.0
 10
11.4549544043
 20
8.9922554305
 30
0.0
 10
11.4491238702
 20
8.9926597794
 30
0.0
 10
11.4374610316
 20
8.9937488433
 30
0.0
 10
11.4200374365
 20
8.9962122318
 30
0.0
 10
11.4026936352
 20
8.999502786
 30
0.0
 10
11.3854700998
 20
9.003612655
 30
0.0
 10
11.3684059924
 20
9.0085325727
 30
0.0
 10
11.3515405154
 20
9.0142511733
 30
0.0
 10
11.3349122778
 20
9.0207553165
 30
0.0
 10
11.3185593772
 20
9.028030078
 30
0.0
 10
11.3025192786
 20
9.0360587726
 30
0.0
 10
11.2868287374
 20
9.0448230069
 30
0.0
 10
11.2715236872
 20
9.0543026634
 30
0.0
 10
11.2566391826
 20
9.0644760029
 30
0.0
 10
11.2422093193
 20
9.0753197091
 30
0.0
 10
11.2282671657
 20
9.086808947
 30
0.0
 10
11.2148446614
 20
9.0989173863
 30
0.0
 10
11.2019725422
 20
9.1116172667
 30
0.0
 10
11.1896802959
 20
9.1248794907
 30
0.0
 10
11.1779960926
 20
9.1386736816
 30
0.0
 10
11.1669467219
 20
9.1529682506
 30
0.0
 10
11.1565574875
 20
9.1677304362
 30
0.0
 10
11.1468521925
 20
9.1829264179
 30
0.0
 10
11.1378530841
 20
9.1985213874
 30
0.0
 10
11.1295808131
 20
9.2144796312
 30
0.0
 10
11.122054348
 20
9.2307645894
 30
0.0
 10
11.1152909334
 20
9.2473389474
 30
0.0
 10
11.1093060858
 20
9.2641647355
 30
0.0
 10
11.104113552
 20
9.2812034093
 30
0.0
 10
11.0997252778
 20
9.2984159348
 30
0.0
 10
11.0961513261
 20
9.3157628654
 30
0.0
 10
11.0933999103
 20
9.3332044501
 30
0.0
 10
11.0914773713
 20
9.350700719
 30
0.0
 10
11.0903881734
 20
9.3682115729
 30
0.0
 10
11.0901348473
 20
9.3856968702
 30
0.0
 10
11.0907179908
 20
9.4031165251
 30
0.0
 10
11.0921363042
 20
9.4204305988
 30
0.0
 10
11.0943865851
 20
9.4375993866
 30
0.0
 10
11.0974637332
 20
9.4545835068
 30
0.0
 10
11.101360706
 20
9.4713440029
 30
0.0
 10
11.106068595
 20
9.4878424257
 30
0.0
 10
11.1115766391
 20
9.5040409194
 30
0.0
 10
11.1178722578
 20
9.5199023015
 30
0.0
 10
11.1249410334
 20
9.5353901661
 30
0.0
 10
11.1327667546
 20
9.5504689699
 30
0.0
 10
11.1413314871
 20
9.5651040987
 30
0.0
 10
11.1506156056
 20
9.5792619467
 30
0.0
 10
11.1605978348
 20
9.5929099943
 30
0.0
 10
11.171255254
 20
9.6060169183
 30
0.0
 10
11.1825634032
 20
9.6185526314
 30
0.0
 10
11.1944963324
 20
9.6304883529
 30
0.0
 10
11.2070266669
 20
9.6417966651
 30
0.0
 10
11.2201256356
 20
9.6524516135
 30
0.0
 10
11.2337631516
 20
9.6624287622
 30
0.0
 10
11.2479079042
 20
9.6717052218
 30
0.0
 10
11.2625274248
 20
9.6802597054
 30
0.0
 10
11.2775881571
 20
9.6880725788
 30
0.0
 10
11.293055512
 20
9.6951259559
 30
0.0
 10
11.3088939809
 20
9.701403684
 30
0.0
 10
11.3250672127
 20
9.7068913863
 30
0.0
 10
11.3415380949
 20
9.7115764832
 30
0.0
 10
11.358268834
 20
9.7154482591
 30
0.0
 10
11.3752210104
 20
9.7184979081
 30
0.0
 10
11.3923558686
 20
9.720718443
 30
0.0
 10
11.4096335375
 20
9.7221048233
 30
0.0
 10
11.4212029251
 20
9.722470274
 30
0.0
 10
11.4269971602
 20
9.7225139364
 30
0.0
  0
SPLINE
  5
405
100
AcDbEntity
  8
0
100
AcDbSpline
 62
7
  6
CONTINUOUS
 70
0
 71
3
 72
39
 73
35
 74
0
 42
0.0000001
 43
0.0000001
 44
0.0000000001
 40
0.0
 40
0.0
 40
0.0
 40
0.0
 40
0.031145036
 40
0.0624431021
 40
0.0938883497
 40
0.1254709882
 40
0.1571788849
 40
0.1889972604
 40
0.2209091751
 40
0.2528958438
 40
0.2849370235
 40
0.317011414
 40
0.3490970738
 40
0.3811718443
 40
0.4132137767
 40
0.4452015564
 40
0.4771149188
 40
0.508935051
 40
0.5406449731
 40
0.5722298921
 40
0.6036775217
 40
0.6349783627
 40
0.666125935
 40
0.6971169562
 40
0.7279514591
 40
0.7586328415
 40
0.7891678424
 40
0.8195664422
 40
0.849841684
 40
0.8800094167
 40
0.9100879634
 40
0.9400977202
 40
0.9700606955
 40
1.0
 40
1.0
 40
1.0
 40
1.0
 10
11.4636407492
 20
9.0330637051
 30
0.0
 10
11.4555268153
 20
9.0336264083
 30
0.0
 10
11.4392942293
 20
9.0353484828
 30
0.0
 10
11.4151421445
 20
9.0396864617
 30
0.0
 10
11.3912487525
 20
9.0457626427
 30
0.0
 10
11.3677430893
 20
9.0535443897
 30
0.0
 10
11.3447500395
 20
9.0629899639
 30
0.0
 10
11.3223922506
 20
9.0740488574
 30
0.0
 10
11.3007888282
 20
9.0866619685
 30
0.0
 10
11.2800548928
 20
9.1007619598
 30
0.0
 10
11.2603009124
 20
9.1162735886
 30
0.0
 10
11.2416321418
 20
9.1331141211
 30
0.0
 10
11.2241480651
 20
9.1511937708
 30
0.0
 10
11.2079418727
 20
9.1704161718
 30
0.0
 10
11.1930999697
 20
9.1906788873
 30
0.0
 10
11.1797015195
 20
9.2118739491
 30
0.0
 10
11.1678180274
 20
9.2338884268
 30
0.0
 10
11.1575129487
 20
9.256605016
 30
0.0
 10
11.1488413575
 20
9.2799026612
 30
0.0
 10
11.1418496582
 20
9.3036571951
 30
0.0
 10
11.1365753354
 20
9.3277419897
 30
0.0
 10
11.1330467508
 20
9.3520286221
 30
0.0
 10
11.1312829853
 20
9.3763875491
 30
0.0
 10
11.1312937313
 20
9.4006887897
 30
0.0
 10
11.1330792172
 20
9.4248026104
 30
0.0
 10
11.1366301963
 20
9.4486002158
 30
0.0
 10
11.1419279893
 20
9.4719544317
 30
0.0
 10
11.1489445693
 20
9.4947403883
 30
0.0
 10
11.157642684
 20
9.5168361798
 30
0.0
 10
11.167976081
 20
9.5381235667
 30
0.0
 10
11.1798895856
 20
9.5584884668
 30
0.0
 10
11.1933199659
 20
9.577822155
 30
0.0
 10
11.2081940782
 20
9.596019753
 30
0.0
 10
11.2190243964
 20
9.6073338629
 30
0.0
 10
11.2246479252
 20
9.6127657723
 30
0.0
  0
SPLINE
  5
406
100
AcDbEntity
  8
0
100
AcDbSpline
 62
7
  6
CONTINUOUS
 70
0
 71
3
 72
44
 73
40
 74
0
 42
0.0000001
 43
0.0000001
 44
0.0000000001
 40
0.0
 40
0.0
 40
0.0
 40
0.0
 40
0.0311441543
 40
0.0624413527
 40
0.0938856704
 40
0.1254674301
 40
0.1571744232
 40
0.1889918967
 40
0.2209029056
 40
0.2528886665
 40
0.2849289365
 40
0.3170024165
 40
0.3490871655
 40
0.3811610253
 40
0.4132020474
 40
0.4451889174
 40
0.477101372
 40
0.5089205996
 40
0.5406296198
 40
0.5722136396
 40
0.603660374
 40
0.6349603231
 40
0.6661070065
 40
0.6970971441
 40
0.7279307688
 40
0.7586112764
 40
0.7891454071
 40
0.8195431409
 40
0.8498175195
 40
0.8649161013
 40
0.8799900027
 40
0.8950415891
 40
0.9100733537
 40
0.9250879052
 40
0.9400879559
 40
0.9550763011
 40
0.9700558055
 40
0.9850293877
 40
1.0
 40
1.0
 40
1.0
 40
1.0
 10
11.4187197677
 20
6.3184052378
 30
0.0
 10
11.4065606468
 20
6.3192484757
 30
0.0
 10
11.3822353284
 20
6.3218290978
 30
0.0
 10
11.3460422718
 20
6.3283297554
 30
0.0
 10
11.3102368744
 20
6.3374352037
 30
0.0
 10
11.2750125173
 20
6.3490965264
 30
0.0
 10
11.2405563351
 20
6.3632512097
 30
0.0
 10
11.2070521182
 20
6.3798234999
 30
0.0
 10
11.1746783613
 20
6.3987248725
 30
0.0
 10
11.1436075803
 20
6.4198544135
 30
0.0
 10
11.1140052952
 20
6.4430993392
 30
0.0
 10
11.0860292466
 20
6.4683356896
 30
0.0
 10
11.0598285483
 20
6.4954289445
 30
0.0
 10
11.0355428189
 20
6.5242346597
 30
0.0
 10
11.0133015338
 20
6.5545993269
 30
0.0
 10
10.9932233596
 20
6.5863611744
 30
0.0
 10
10.9754154163
 20
6.6193509467
 30
0.0
 10
10.9599727755
 20
6.6533928522
 30
0.0
 10
10.9469780127
 20
6.6883055046
 30
0.0
 10
10.9365006739
 20
6.7239028301
 30
0.0
 10
10.9285968924
 20
6.7599950587
 30
0.0
 10
10.9233091887
 20
6.7963897484
 30
0.0
 10
10.9206661859
 20
6.8328927743
 30
0.0
 10
10.920682344
 20
6.8693093419
 30
0.0
 10
10.9233580211
 20
6.9054450706
 30
0.0
 10
10.928679374
 20
6.9411068558
 30
0.0
 10
10.9366185473
 20
6.9761044617
 30
0.0
 10
10.9471328876
 20
7.0102495111
 30
0.0
 10
10.9580065619
 20
7.037870982
 30
0.0
 10
10.9679291746
 20
7.0593506372
 30
0.0
 10
10.9759674617
 20
7.0751236204
 30
0.0
 10
10.9845970017
 20
7.0905508169
 30
0.0
 10
10.9938064404
 20
7.1056118958
 30
0.0
 10
11.0035834299
 20
7.1202866515
 30
0.0
 10
11.0139148879
 20
7.1345555271
 30
0.0
 10
11.0247870555
 20
7.1483993845
 30
0.0
 10
11.0361854435
 20
7.1617998125
 30
0.0
 10
11.0480945415
 20
7.1747386841
 30
0.0
 10
11.0563647685
 20
7.1830461993
 30
0.0
 10
11.0605787267
 20
7.1871165602
 30
0.0
  0
SPLINE
  5
407
100
AcDbEntity
  8
0
100
AcDbSpline
 62
7
  6
CONTINUOUS
 70
0
 71
3
 72
37
 73
33
 74
0
 42
0.0000001
 43
0.0000001
 44
0.0000000001
 40
0.0
 40
0.0
 40
0.0
 40
0.0
 40
0.03068892
 40
0.061483286
 40
0.0923790372
 40
0.1233740984
 40
0.1544637722
 40
0.1856430476
 40
0.2169059191
 40
0.2482456099
 40
0.2796546374
 40
0.3111248708
 40
0.3426476175
 40
0.3742137013
 40
0.4058135513
 40
0.4374372915
 40
0.5006987055
 40
0.563933474
 40
0.5955241604
 40
0.6270781554
 40
0.6585859999
 40
0.690038654
 40
0.7214275843
 40
0.7527448475
 40
0.7839831638
 40
0.8151359971
 40
0.8461976058
 40
0.8771631006
 40
0.9080286584
 40
0.9387908349
 40
0.9694488519
 40
1.0
 40
1.0
 40
1.0
 40
1.0
 10
11.605624129
 20
9.1779365337
 30
0.0
 10
11.6002019276
 20
9.1783125646
 30
0.0
 10
11.5893557928
 20
9.1793371101
 30
0.0
 10
11.573157072
 20
9.1816800092
 30
0.0
 10
11.5570393929
 20
9.1848260499
 30
0.0
 10
11.541043766
 20
9.1887670855
 30
0.0
 10
11.5252099379
 20
9.1934933713
 30
0.0
 10
11.5095776113
 20
9.1989929981
 30
0.0
 10
11.4941858635
 20
9.2052521941
 30
0.0
 10
11.4790731945
 20
9.2122552612
 30
0.0
 10
11.464277398
 20
9.219984657
 30
0.0
 10
11.4498354841
 20
9.2284210245
 30
0.0
 10
11.4357835548
 20
9.2375432753
 30
0.0
 10
11.4221568372
 20
9.2473284969
 30
0.0
 10
11.4089891026
 20
9.2577525059
 30
0.0
 10
11.3920890385
 20
9.2724669618
 30
0.0
 10
11.3722767407
 20
9.2923198268
 30
0.0
 10
11.3544055491
 20
9.3139290974
 30
0.0
 10
11.3413815193
 20
9.3321407958
 30
0.0
 10
11.3322762307
 20
9.3462237114
 30
0.0
 10
11.3238552264
 20
9.3606975399
 30
0.0
 10
11.3161393136
 20
9.3755264173
 30
0.0
 10
11.3091478831
 20
9.3906731651
 30
0.0
 10
11.3028984154
 20
9.4060999195
 30
0.0
 10
11.2974065699
 20
9.4217680894
 30
0.0
 10
11.2926861138
 20
9.4376384881
 30
0.0
 10
11.2887489004
 20
9.4536714124
 30
0.0
 10
11.2856047997
 20
9.4698267792
 30
0.0
 10
11.2832617573
 20
9.4860640704
 30
0.0
 10
11.2817255507
 20
9.5023429424
 30
0.0
 10
11.2810002326
 20
9.5186219471
 30
0.0
 10
11.281058539
 20
9.5294677314
 30
0.0
 10
11.2812237908
 20
9.5348760316
 30
0.0
  0
SPLINE
  5
408
100
AcDbEntity
  8
0
100
AcDbSpline
 62
7
  6
CONTINUOUS
 70
0
 71
3
 72
17
 73
13
 74
0
 42
0.0000001
 43
0.0000001
 44
0.0000000001
 40
0.0
 40
0.0
 40
0.0
 40
0.0
 40
0.1267560686
 40
0.2529742703
 40
0.3786620038
 40
0.4413193763
 40
0.5038506125
 40
0.6285328224
 40
0.7527555328
 40
0.8147143623
 40
0.8765734239
 40
1.0
 40
1.0
 40
1.0
 40
1.0
 10
11.6050693266
 20
9.1696732286
 30
0.0
 10
11.6118481482
 20
9.1692031158
 30
0.0
 10
11.6254094269
 20
9.1686769057
 30
0.0
 10
11.6457153585
 20
9.169139756
 30
0.0
 10
11.6625296712
 20
9.1705705008
 30
0.0
 10
11.6758636337
 20
9.1723395304
 30
0.0
 10
11.6890822879
 20
9.1745178669
 30
0.0
 10
11.7054203136
 20
9.1780108099
 30
0.0
 10
11.7214738307
 20
9.1825271397
 30
0.0
 10
11.7340879172
 20
9.1867399801
 30
0.0
 10
11.7465197094
 20
9.1913407669
 30
0.0
 10
11.755665949
 20
9.1952377914
 30
0.0
 10
11.7616656649
 20
9.198027599
 30
0.0
  0
SPLINE
  5
409
100
AcDbEntity
  8
0
100
AcDbSpline
 62
7
  6
CONTINUOUS
 70
0
 71
3
 72
37
 73
33
 74
0
 42
0.0000001
 43
0.0000001
 44
0.0000000001
 40
0.0
 40
0.0
 40
0.0
 40
0.0
 40
0.030692194
 40
0.0614902742
 40
0.0923901397
 40
0.1233896879
 40
0.1544841687
 40
0.185668513
 40
0.2169366467
 40
0.2482817162
 40
0.2796961555
 40
0.3111717449
 40
0.3426996986
 40
0.3742707453
 40
0.4058752174
 40
0.4375031432
 40
0.5007711056
 40
0.5640096108
 40
0.5956009975
 40
0.6271547832
 40
0.6586614608
 40
0.6901119549
 40
0.7214977102
 40
0.7528107759
 40
0.7840438803
 40
0.8151905117
 40
0.8462449694
 40
0.8772024221
 40
0.9080591228
 40
0.9388117157
 40
0.969459541
 40
1.0
 40
1.0
 40
1.0
 40
1.0
 10
11.6050693266
 20
9.1696732286
 30
0.0
 10
11.5994951711
 20
9.1700597976
 30
0.0
 10
11.5883450656
 20
9.1711142122
 30
0.0
 10
11.5716928423
 20
9.1735278821
 30
0.0
 10
11.555124618
 20
9.1767705326
 30
0.0
 10
11.5386828962
 20
9.1808336976
 30
0.0
 10
11.5224088685
 20
9.1857072475
 30
0.0
 10
11.5063436771
 20
9.1913788009
 30
0.0
 10
11.4905278117
 20
9.1978340385
 30
0.0
 10
11.4750011589
 20
9.2050566373
 30
0.0
 10
11.4598028669
 20
9.2130283559
 30
0.0
 10
11.4449712654
 20
9.2217290663
 30
0.0
 10
11.4305437357
 20
9.2311368403
 30
0.0
 10
11.4165567441
 20
9.2412278541
 30
0.0
 10
11.4030452402
 20
9.2519769631
 30
0.0
 10
11.3857105517
 20
9.2671490491
 30
0.0
 10
11.3654018759
 20
9.2876167386
 30
0.0
 10
11.3471028899
 20
9.3098908962
 30
0.0
 10
11.3337815737
 20
9.3286592086
 30
0.0
 10
11.3244766845
 20
9.3431703047
 30
0.0
 10
11.3158799989
 20
9.3580818821
 30
0.0
 10
11.3080129328
 20
9.373356688
 30
0.0
 10
11.3008954204
 20
9.3889561108
 30
0.0
 10
11.2945454043
 20
9.4048408341
 30
0.0
 10
11.2889789277
 20
9.4209707941
 30
0.0
 10
11.2842100608
 20
9.4373053166
 30
0.0
 10
11.2802508785
 20
9.4538032009
 30
0.0
 10
11.2771113889
 20
9.4704228614
 30
0.0
 10
11.2747995935
 20
9.4871222718
 30
0.0
 10
11.2733212382
 20
9.5038595989
 30
0.0
 10
11.2726802657
 20
9.5205918741
 30
0.0
 10
11.27281247
 20
9.5317360451
 30
0.0
 10
11.2730190241
 20
9.5372921272
 30
0.0
  0
SPLINE
  5
40A
100
AcDbEntity
  8
0
100
AcDbSpline
 62
7
  6
CONTINUOUS
 70
0
 71
3
 72
39
 73
35
 74
0
 42
0.0000001
 43
0.0000001
 44
0.0000000001
 40
0.0
 40
0.0
 40
0.0
 40
0.0
 40
0.0319477248
 40
0.0637877967
 40
0.095519264
 40
0.1271452216
 40
0.1586681299
 40
0.1900920684
 40
0.2214219681
 40
0.2526637292
 40
0.283824164
 40
0.3149109166
 40
0.3459323993
 40
0.3768977066
 40
0.4078165263
 40
0.4386990394
 40
0.4695558129
 40
0.5003976877
 40
0.5312356628
 40
0.5620807792
 40
0.5929440024
 40
0.6238361052
 40
0.6547675522
 40
0.6857483898
 40
0.7167881405
 40
0.7478957077
 40
0.7790792872
 40
0.8103462864
 40
0.8417032531
 40
0.8731558151
 40
0.9047086318
 40
0.936365359
 40
0.9681286223
 40
1.0
 40
1.0
 40
1.0
 40
1.0
 10
11.4270019705
 20
8.9373029927
 30
0.0
 10
11.4334150606
 20
8.9368582434
 30
0.0
 10
11.4462435444
 20
8.9362824404
 30
0.0
 10
11.4654710985
 20
8.936365675
 30
0.0
 10
11.4846068565
 20
8.9373972083
 30
0.0
 10
11.5036039124
 20
8.9393744412
 30
0.0
 10
11.522416812
 20
8.9422927846
 30
0.0
 10
11.5410000995
 20
8.9461452084
 30
0.0
 10
11.559309008
 20
8.9509224876
 30
0.0
 10
11.5772993917
 20
8.9566131362
 30
0.0
 10
11.5949278725
 20
8.9632034735
 30
0.0
 10
11.6121519359
 20
8.9706776528
 30
0.0
 10
11.6289300324
 20
8.979017697
 30
0.0
 10
11.6452216851
 20
8.988203529
 30
0.0
 10
11.660987599
 20
8.9982130065
 30
0.0
 10
11.6761897418
 20
9.0090220051
 30
0.0
 10
11.6907914383
 20
9.0206044701
 30
0.0
 10
11.7047574578
 20
9.0329324803
 30
0.0
 10
11.7180540995
 20
9.0459763138
 30
0.0
 10
11.7306493007
 20
9.059704496
 30
0.0
 10
11.742512693
 20
9.0740839045
 30
0.0
 10
11.7536156739
 20
9.0890798487
 30
0.0
 10
11.7639314767
 20
9.1046561531
 30
0.0
 10
11.7734352294
 20
9.120775247
 30
0.0
 10
11.7821040428
 20
9.1373982396
 30
0.0
 10
11.7899170549
 20
9.1544850261
 30
0.0
 10
11.7968554649
 20
9.171994393
 30
0.0
 10
11.8029025819
 20
9.1898841163
 30
0.0
 10
11.8080438587
 20
9.2081110589
 30
0.0
 10
11.8122669414
 20
9.2266312879
 30
0.0
 10
11.8155617136
 20
9.2454001114
 30
0.0
 10
11.8179202875
 20
9.2643724546
 30
0.0
 10
11.819337027
 20
9.2835019948
 30
0.0
 10
11.8196508476
 20
9.296308777
 30
0.0
 10
11.8196508422
 20
9.3027219079
 30
0.0
  0
SPLINE
  5
40B
100
AcDbEntity
  8
0
100
AcDbSpline
 62
7
  6
CONTINUOUS
 70
0
 71
3
 72
39
 73
35
 74
0
 42
0.0000001
 43
0.0000001
 44
0.0000000001
 40
0.0
 40
0.0
 40
0.0
 40
0.0
 40
0.0319823297
 40
0.0638628159
 40
0.0956395843
 40
0.1273158291
 40
0.1588935211
 40
0.190376072
 40
0.2217677445
 40
0.25307356
 40
0.2842993638
 40
0.3154517347
 40
0.3465379414
 40
0.3775658752
 40
0.4085439757
 40
0.439481157
 40
0.4703867273
 40
0.5012702987
 40
0.5321416923
 40
0.5630108458
 40
0.5938877201
 40
0.6247822036
 40
0.6557040137
 40
0.6866626028
 40
0.7176670721
 40
0.7487260876
 40
0.7798477976
 40
0.8110397557
 40
0.8423088563
 40
0.8736612794
 40
0.9051024364
 40
0.9366369228
 40
0.968268485
 40
1.0
 40
1.0
 40
1.0
 40
1.0
 10
11.4549544043
 20
8.9922554305
 30
0.0
 10
11.460610054
 20
8.9918632099
 30
0.0
 10
11.4719232718
 20
8.9913414687
 30
0.0
 10
11.4888823804
 20
8.9913514913
 30
0.0
 10
11.5057685398
 20
8.9921555281
 30
0.0
 10
11.5225443525
 20
8.9937516921
 30
0.0
 10
11.5391737038
 20
8.9961366936
 30
0.0
 10
11.5556203654
 20
8.9993053271
 30
0.0
 10
11.5718486315
 20
9.0032507266
 30
0.0
 10
11.5878232388
 20
9.0079643676
 30
0.0
 10
11.6035094589
 20
9.0134360638
 30
0.0
 10
11.618873203
 20
9.0196539369
 30
0.0
 10
11.6338810819
 20
9.0266044845
 30
0.0
 10
11.6485004698
 20
9.0342726273
 30
0.0
 10
11.662699567
 20
9.0426417462
 30
0.0
 10
11.6764475056
 20
9.0516936545
 30
0.0
 10
11.689714406
 20
9.0614086707
 30
0.0
 10
11.7024714231
 20
9.0717656883
 30
0.0
 10
11.7146908013
 20
9.0827422208
 30
0.0
 10
11.7263459766
 20
9.0943144029
 30
0.0
 10
11.7374116304
 20
9.1064570591
 30
0.0
 10
11.7478637128
 20
9.119143791
 30
0.0
 10
11.7576794897
 20
9.1323470307
 30
0.0
 10
11.7668376312
 20
9.1460380694
 30
0.0
 10
11.7753182686
 20
9.1601871222
 30
0.0
 10
11.7831029891
 20
9.174763427
 30
0.0
 10
11.7901748752
 20
9.1897353048
 30
0.0
 10
11.7965185719
 20
9.205070211
 30
0.0
 10
11.8021203492
 20
9.2207347974
 30
0.0
 10
11.8069680687
 20
9.2366950286
 30
0.0
 10
11.8110512083
 20
9.2529161928
 30
0.0
 10
11.8143609268
 20
9.2693631761
 30
0.0
 10
11.8168900473
 20
9.2859997527
 30
0.0
 10
11.8180503688
 20
9.297176459
 30
0.0
 10
11.818499426
 20
9.3027832789
 30
0.0
  0
SPLINE
  5
40C
100
AcDbEntity
  8
0
100
AcDbSpline
 62
7
  6
CONTINUOUS
 70
0
 71
3
 72
23
 73
19
 74
0
 42
0.0000001
 43
0.0000001
 44
0.0000000001
 40
0.0
 40
0.0
 40
0.0
 40
0.0
 40
0.0638612947
 40
0.1275033057
 40
0.1909230242
 40
0.254127669
 40
0.3171224077
 40
0.3799159229
 40
0.442518818
 40
0.5049436653
 40
0.567204996
 40
0.6293190782
 40
0.6913037909
 40
0.7531784345
 40
0.8149635225
 40
0.8766805571
 40
0.9383517934
 40
1.0
 40
1.0
 40
1.0
 40
1.0
 10
11.4636407492
 20
9.0330637051
 30
0.0
 10
11.4691873104
 20
9.0326790498
 30
0.0
 10
11.4802825699
 20
9.0321870225
 30
0.0
 10
11.4969111054
 20
9.0322860948
 30
0.0
 10
11.5134567366
 20
9.0332234517
 30
0.0
 10
11.5298770471
 20
9.0349965884
 30
0.0
 10
11.5461310309
 20
9.0376012382
 30
0.0
 10
11.5621776496
 20
9.0410308402
 30
0.0
 10
11.5779765266
 20
9.045276789
 30
0.0
 10
11.5934878678
 20
9.0503284357
 30
0.0
 10
11.608672598
 20
9.0561730984
 30
0.0
 10
11.6234924499
 20
9.0627961183
 30
0.0
 10
11.6379100832
 20
9.0701808252
 30
0.0
 10
11.651889181
 20
9.0783086381
 30
0.0
 10
11.6653944831
 20
9.0871590724
 30
0.0
 10
11.6783920614
 20
9.0967099739
 30
0.0
 10
11.690848708
 20
9.1069368751
 30
0.0
 10
11.6987731837
 20
9.1141897973
 30
0.0
 10
11.7026335732
 20
9.1179186457
 30
0.0
  0
SPLINE
  5
40D
100
AcDbEntity
  8
0
100
AcDbSpline
 62
7
  6
CONTINUOUS
 70
0
 71
3
 72
23
 73
19
 74
0
 42
0.0000001
 43
0.0000001
 44
0.0000000001
 40
0.0
 40
0.0
 40
0.0
 40
0.0
 40
0.0638382759
 40
0.1274626197
 40
0.1908722683
 40
0.2540725401
 40
0.317068435
 40
0.3798678757
 40
0.4424804376
 40
0.5049176302
 40
0.5671927177
 40
0.6293206087
 40
0.6913177185
 40
0.7532018072
 40
0.8149918049
 40
0.8767076202
 40
0.9383699367
 40
1.0
 40
1.0
 40
1.0
 40
1.0
 10
11.4270019705
 20
6.3264052319
 30
0.0
 10
11.4350664897
 20
6.3258459556
 30
0.0
 10
11.4511982973
 20
6.3251185642
 30
0.0
 10
11.4753776167
 20
6.3252082449
 30
0.0
 10
11.4994433952
 20
6.3264803563
 30
0.0
 10
11.5233377075
 20
6.3289318158
 30
0.0
 10
11.5470042768
 20
6.3325569843
 30
0.0
 10
11.5703869043
 20
6.33734727
 30
0.0
 10
11.5934302
 20
6.3432914099
 30
0.0
 10
11.6160795269
 20
6.3503753651
 30
0.0
 10
11.6382811886
 20
6.3585823886
 30
0.0
 10
11.6599825412
 20
6.3678930688
 30
0.0
 10
11.6811321172
 20
6.3782853692
 30
0.0
 10
11.701679766
 20
6.3897346987
 30
0.0
 10
11.7215767039
 20
6.4022139008
 30
0.0
 10
11.740775893
 20
6.4156935673
 30
0.0
 10
11.7592311785
 20
6.4301411767
 30
0.0
 10
11.7710128102
 20
6.440398282
 30
0.0
 10
11.7767632727
 20
6.4456745187
 30
0.0
  0
SPLINE
  5
40E
100
AcDbEntity
  8
0
100
AcDbSpline
 62
7
  6
CONTINUOUS
 70
0
 71
3
 72
41
 73
37
 74
0
 42
0.0000001
 43
0.0000001
 44
0.0000000001
 40
0.0
 40
0.0
 40
0.0
 40
0.0
 40
0.0311303675
 40
0.0624121863
 40
0.0938397419
 40
0.1254035955
 40
0.1570919015
 40
0.1888903161
 40
0.2207823565
 40
0.252749738
 40
0.284772734
 40
0.3168305604
 40
0.3489017741
 40
0.3809646792
 40
0.4129977364
 40
0.4449799718
 40
0.4768913757
 40
0.5087132904
 40
0.5404287807
 40
0.5720229764
 40
0.6034833841
 40
0.6348001654
 40
0.6659663707
 40
0.6969781178
 40
0.7278347172
 40
0.7585387368
 40
0.7890959957
 40
0.8195154843
 40
0.8498092124
 40
0.879991985
 40
0.9100811006
 40
0.9400959843
 40
0.9550849344
 40
0.9700633614
 40
0.9850340934
 40
1.0
 40
1.0
 40
1.0
 40
1.0
 10
11.4270019705
 20
6.3264052319
 30
0.0
 10
11.4149675177
 20
6.327239824
 30
0.0
 10
11.3908917475
 20
6.32978487
 30
0.0
 10
11.3550649539
 20
6.3361789429
 30
0.0
 10
11.3196140537
 20
6.3451256068
 30
0.0
 10
11.2847266098
 20
6.3565777709
 30
0.0
 10
11.2505842216
 20
6.370475321
 30
0.0
 10
11.2173653047
 20
6.3867453865
 30
0.0
 10
11.1852432232
 20
6.4053027883
 30
0.0
 10
11.1543856832
 20
6.4260504806
 30
0.0
 10
11.1249537575
 20
6.44888
 30
0.0
 10
11.0971010665
 20
6.4736720325
 30
0.0
 10
11.0709730207
 20
6.500297086
 30
0.0
 10
11.0467060798
 20
6.5286161519
 30
0.0
 10
11.0244269772
 20
6.5584813617
 30
0.0
 10
11.0042521007
 20
6.5897367962
 30
0.0
 10
10.9862869202
 20
6.6222193068
 30
0.0
 10
10.9706254387
 20
6.6557593447
 30
0.0
 10
10.957349616
 20
6.6901817969
 30
0.0
 10
10.9465290218
 20
6.7253069351
 30
0.0
 10
10.9382204831
 20
6.7609513367
 30
0.0
 10
10.9324677537
 20
6.7969288147
 30
0.0
 10
10.9293012147
 20
6.8330513742
 30
0.0
 10
10.9287377978
 20
6.8691302022
 30
0.0
 10
10.9307808861
 20
6.9049766298
 30
0.0
 10
10.9354202125
 20
6.9404031124
 30
0.0
 10
10.9426318819
 20
6.9752242087
 30
0.0
 10
10.9523785721
 20
7.0092575758
 30
0.0
 10
10.9646096034
 20
7.0423247881
 30
0.0
 10
10.9792614631
 20
7.0742527854
 30
0.0
 10
10.9962567884
 20
7.1048730417
 30
0.0
 10
11.0123092396
 20
7.1291819674
 30
0.0
 10
11.0262223129
 20
7.1478077443
 30
0.0
 10
11.0371780912
 20
7.1613495017
 30
0.0
 10
11.0486436199
 20
7.1744499067
 30
0.0
 10
11.0566186446
 20
7.1828794372
 30
0.0
 10
11.0606852302
 20
7.1870142323
 30
0.0
  0
SPLINE
  5
40F
100
AcDbEntity
  8
0
100
AcDbSpline
 62
7
  6
CONTINUOUS
 70
0
 71
3
 72
69
 73
65
 74
0
 42
0.0000001
 43
0.0000001
 44
0.0000000001
 40
0.0
 40
0.0
 40
0.0
 40
0.0
 40
0.0156746985
 40
0.0314017014
 40
0.0471790069
 40
0.0630056953
 40
0.0788795444
 40
0.0947982006
 40
0.1107588446
 40
0.1267582874
 40
0.1427930069
 40
0.1588591687
 40
0.1749526664
 40
0.1910691564
 40
0.2072040983
 40
0.2233527945
 40
0.2395104297
 40
0.2556721118
 40
0.2879796228
 40
0.3202445207
 40
0.3363533175
 40
0.3524375465
 40
0.3684929452
 40
0.3845155009
 40
0.4005014861
 40
0.4164474926
 40
0.4323504641
 40
0.4482077281
 40
0.4640170215
 40
0.4797765139
 40
0.495484828
 40
0.5111410576
 40
0.5267447814
 40
0.5422960714
 40
0.5577954962
 40
0.5732441201
 40
0.5886434987
 40
0.6039956698
 40
0.6193031369
 40
0.634568848
 40
0.6497961697
 40
0.6649888563
 40
0.6801510163
 40
0.6952870716
 40
0.7104017133
 40
0.7254998542
 40
0.7405865782
 40
0.7556670889
 40
0.7707466552
 40
0.7858305563
 40
0.8009240255
 40
0.8160321957
 40
0.8311600466
 40
0.8463123538
 40
0.8614936409
 40
0.8767081332
 40
0.8919597166
 40
0.9072518984
 40
0.9225877836
 40
0.9379700253
 40
0.9534008492
 40
0.9688819957
 40
0.9844144965
 40
1.0
 40
1.0
 40
1.0
 40
1.0
 10
11.4270019705
 20
6.4316911532
 30
0.0
 10
11.4206382599
 20
6.432132478
 30
0.0
 10
11.4079089052
 20
6.433325337
 30
0.0
 10
11.38889368
 20
6.4360326489
 30
0.0
 10
11.3699679691
 20
6.4396549158
 30
0.0
 10
11.351177112
 20
6.4441832976
 30
0.0
 10
11.332565045
 20
6.4496072661
 30
0.0
 10
11.3141756997
 20
6.4559139597
 30
0.0
 10
11.2960523404
 20
6.4630885046
 30
0.0
 10
11.2782376361
 20
6.4711139692
 30
0.0
 10
11.260773522
 20
6.4799714309
 30
0.0
 10
11.2437011115
 20
6.4896400205
 30
0.0
 10
11.2270606003
 20
6.5000969718
 30
0.0
 10
11.2108911605
 20
6.5113176329
 30
0.0
 10
11.1952308259
 20
6.5232755924
 30
0.0
 10
11.1801165422
 20
6.5359425889
 30
0.0
 10
11.1655835816
 20
6.5492891701
 30
0.0
 10
11.1470324014
 20
6.5679431418
 30
0.0
 10
11.1254668767
 20
6.5927941145
 30
0.0
 10
11.1062534572
 20
6.6194791629
 30
0.0
 10
11.0924106396
 20
6.6417701257
 30
0.0
 10
11.0828203988
 20
6.6589121895
 30
0.0
 10
11.0740410682
 20
6.6764437521
 30
0.0
 10
11.0660930472
 20
6.6943239258
 30
0.0
 10
11.0589951515
 20
6.7125105187
 30
0.0
 10
11.0527641144
 20
6.7309607485
 30
0.0
 10
11.0474146409
 20
6.7496311678
 30
0.0
 10
11.0429593433
 20
6.7684778151
 30
0.0
 10
11.0394087455
 20
6.787456313
 30
0.0
 10
11.0367712484
 20
6.8065219711
 30
0.0
 10
11.0350531188
 20
6.8256298888
 30
0.0
 10
11.0342584465
 20
6.8447350575
 30
0.0
 10
11.0343891299
 20
6.8637924707
 30
0.0
 10
11.0354449016
 20
6.8827572299
 30
0.0
 10
11.0374233213
 20
6.9015846485
 30
0.0
 10
11.0403197862
 20
6.9202303533
 30
0.0
 10
11.04412752
 20
6.938650392
 30
0.0
 10
11.0488375745
 20
6.9568013431
 30
0.0
 10
11.0544388861
 20
6.9746404118
 30
0.0
 10
11.0609182916
 20
6.9921255304
 30
0.0
 10
11.0682605642
 20
7.0092154547
 30
0.0
 10
11.076448432
 20
7.0258698669
 30
0.0
 10
11.0854625996
 20
7.0420494845
 30
0.0
 10
11.09528183
 20
7.0577161379
 30
0.0
 10
11.1058829864
 20
7.0728328622
 30
0.0
 10
11.1172410894
 20
7.087363982
 30
0.0
 10
11.1293293663
 20
7.1012752017
 30
0.0
 10
11.1421192935
 20
7.1145337099
 30
0.0
 10
11.1555806984
 20
7.1271082312
 30
0.0
 10
11.1696818249
 20
7.1389691035
 30
0.0
 10
11.1843894104
 20
7.1500883453
 30
0.0
 10
11.1996687599
 20
7.160439725
 30
0.0
 10
11.2154838101
 20
7.1699988549
 30
0.0
 10
11.2317972432
 20
7.1787432146
 30
0.0
 10
11.2485705716
 20
7.1866522059
 30
0.0
 10
11.2657642294
 20
7.1937071987
 30
0.0
 10
11.2833376633
 20
7.1998915741
 30
0.0
 10
11.3012494194
 20
7.2051908047
 30
0.0
 10
11.3194572504
 20
7.2095924388
 30
0.0
 10
11.3379182388
 20
7.2130861526
 30
0.0
 10
11.3565888329
 20
7.2156637442
 30
0.0
 10
11.375425108
 20
7.2173191327
 30
0.0
 10
11.3943823662
 20
7.2180486074
 30
0.0
 10
11.4070514208
 20
7.2179165647
 30
0.0
 10
11.4133903099
 20
7.2176968341
 30
0.0
  0
SPLINE
  5
410
100
AcDbEntity
  8
0
100
AcDbSpline
 62
7
  6
CONTINUOUS
 70
0
 71
3
 72
71
 73
67
 74
0
 42
0.0000001
 43
0.0000001
 44
0.0000000001
 40
0.0
 40
0.0
 40
0.0
 40
0.0
 40
0.0156735421
 40
0.0313988053
 40
0.0471736305
 40
0.0629972634
 40
0.0788675388
 40
0.0947821781
 40
0.1107384785
 40
0.1267333628
 40
0.1427634377
 40
0.158825004
 40
0.1749140967
 40
0.1910265207
 40
0.2071578863
 40
0.2233036451
 40
0.239459128
 40
0.2556195859
 40
0.2717802296
 40
0.2879362682
 40
0.3040829472
 40
0.3202155903
 40
0.3363296391
 40
0.3524206901
 40
0.3684845311
 40
0.3845171779
 40
0.4005149113
 40
0.4164743096
 40
0.4323922779
 40
0.448266077
 40
0.464093353
 40
0.4798721602
 40
0.4956009812
 40
0.5112787427
 40
0.5269048314
 40
0.5424791058
 40
0.5580019
 40
0.5734740249
 40
0.5888967647
 40
0.6042718723
 40
0.6196015567
 40
0.6348884637
 40
0.6501356541
 40
0.665346578
 40
0.6805250452
 40
0.6956751885
 40
0.7108014235
 40
0.7259084054
 40
0.7410009846
 40
0.7560841584
 40
0.7711630199
 40
0.786242705
 40
0.8013283409
 40
0.8164249947
 40
0.8315376225
 40
0.8466710184
 40
0.8618297659
 40
0.8770181934
 40
0.8922403339
 40
0.9074998859
 40
0.9228001795
 40
0.9381441482
 40
0.9535342813
 40
0.9689726915
 40
0.9844609166
 40
1.0
 40
1.0
 40
1.0
 40
1.0
 10
11.4549544043
 20
6.486643591
 30
0.0
 10
11.4491238702
 20
6.4870479399
 30
0.0
 10
11.4374610316
 20
6.4881370038
 30
0.0
 10
11.4200374365
 20
6.4906003923
 30
0.0
 10
11.4026936352
 20
6.4938909465
 30
0.0
 10
11.3854700998
 20
6.4980008155
 30
0.0
 10
11.3684059924
 20
6.5029207332
 30
0.0
 10
11.3515405154
 20
6.5086393338
 30
0.0
 10
11.3349122778
 20
6.515143477
 30
0.0
 10
11.3185593772
 20
6.5224182385
 30
0.0
 10
11.3025192786
 20
6.5304469331
 30
0.0
 10
11.2868287374
 20
6.5392111674
 30
0.0
 10
11.2715236872
 20
6.5486908239
 30
0.0
 10
11.2566391826
 20
6.5588641634
 30
0.0
 10
11.2422093193
 20
6.5697078696
 30
0.0
 10
11.2282671657
 20
6.5811971075
 30
0.0
 10
11.2148446614
 20
6.5933055468
 30
0.0
 10
11.2019725422
 20
6.6060054272
 30
0.0
 10
11.1896802959
 20
6.6192676512
 30
0.0
 10
11.1779960926
 20
6.6330618421
 30
0.0
 10
11.1669467219
 20
6.6473564111
 30
0.0
 10
11.1565574875
 20
6.6621185967
 30
0.0
 10
11.1468521925
 20
6.6773145784
 30
0.0
 10
11.1378530841
 20
6.6929095479
 30
0.0
 10
11.1295808131
 20
6.7088677917
 30
0.0
 10
11.122054348
 20
6.7251527499
 30
0.0
 10
11.1152909334
 20
6.7417271079
 30
0.0
 10
11.1093060858
 20
6.758552896
 30
0.0
 10
11.104113552
 20
6.7755915698
 30
0.0
 10
11.0997252778
 20
6.7928040953
 30
0.0
 10
11.0961513261
 20
6.8101510259
 30
0.0
 10
11.0933999103
 20
6.8275926106
 30
0.0
 10
11.0914773713
 20
6.8450888795
 30
0.0
 10
11.0903881734
 20
6.8625997334
 30
0.0
 10
11.0901348473
 20
6.8800850307
 30
0.0
 10
11.0907179908
 20
6.8975046856
 30
0.0
 10
11.0921363042
 20
6.9148187593
 30
0.0
 10
11.0943865851
 20
6.9319875471
 30
0.0
 10
11.0974637332
 20
6.9489716673
 30
0.0
 10
11.101360706
 20
6.9657321634
 30
0.0
 10
11.106068595
 20
6.9822305862
 30
0.0
 10
11.1115766391
 20
6.9984290799
 30
0.0
 10
11.1178722578
 20
7.014290462
 30
0.0
 10
11.1249410334
 20
7.0297783266
 30
0.0
 10
11.1327667546
 20
7.0448571304
 30
0.0
 10
11.1413314871
 20
7.0594922592
 30
0.0
 10
11.1506156056
 20
7.0736501072
 30
0.0
 10
11.1605978348
 20
7.0872981548
 30
0.0
 10
11.171255254
 20
7.1004050788
 30
0.0
 10
11.1825634032
 20
7.1129407919
 30
0.0
 10
11.1944963324
 20
7.1248765134
 30
0.0
 10
11.2070266669
 20
7.1361848256
 30
0.0
 10
11.2201256356
 20
7.146839774
 30
0.0
 10
11.2337631516
 20
7.1568169227
 30
0.0
 10
11.2479079042
 20
7.1660933823
 30
0.0
 10
11.2625274248
 20
7.1746478659
 30
0.0
 10
11.2775881571
 20
7.1824607393
 30
0.0
 10
11.293055512
 20
7.1895141164
 30
0.0
 10
11.3088939809
 20
7.1957918445
 30
0.0
 10
11.3250672127
 20
7.2012795468
 30
0.0
 10
11.3415380949
 20
7.2059646437
 30
0.0
 10
11.358268834
 20
7.2098364196
 30
0.0
 10
11.3752210104
 20
7.2128860686
 30
0.0
 10
11.3923558686
 20
7.2151066035
 30
0.0
 10
11.4096335375
 20
7.2164929838
 30
0.0
 10
11.4212029251
 20
7.2168584345
 30
0.0
 10
11.4269971602
 20
7.2169020969
 30
0.0
  0
SPLINE
  5
411
100
AcDbEntity
  8
0
100
AcDbSpline
 62
7
  6
CONTINUOUS
 70
0
 71
3
 72
39
 73
35
 74
0
 42
0.0000001
 43
0.0000001
 44
0.0000000001
 40
0.0
 40
0.0
 40
0.0
 40
0.0
 40
0.031145036
 40
0.0624431021
 40
0.0938883497
 40
0.1254709882
 40
0.1571788849
 40
0.1889972604
 40
0.2209091751
 40
0.2528958438
 40
0.2849370235
 40
0.317011414
 40
0.3490970738
 40
0.3811718443
 40
0.4132137767
 40
0.4452015564
 40
0.4771149188
 40
0.508935051
 40
0.5406449731
 40
0.5722298921
 40
0.6036775217
 40
0.6349783627
 40
0.666125935
 40
0.6971169562
 40
0.7279514591
 40
0.7586328415
 40
0.7891678424
 40
0.8195664422
 40
0.849841684
 40
0.8800094167
 40
0.9100879634
 40
0.9400977202
 40
0.9700606955
 40
1.0
 40
1.0
 40
1.0
 40
1.0
 10
11.4636407492
 20
6.5274518656
 30
0.0
 10
11.4555268153
 20
6.5280145688
 30
0.0
 10
11.4392942293
 20
6.5297366433
 30
0.0
 10
11.4151421445
 20
6.5340746222
 30
0.0
 10
11.3912487525
 20
6.5401508032
 30
0.0
 10
11.3677430893
 20
6.5479325502
 30
0.0
 10
11.3447500395
 20
6.5573781244
 30
0.0
 10
11.3223922506
 20
6.5684370179
 30
0.0
 10
11.3007888282
 20
6.581050129
 30
0.0
 10
11.2800548928
 20
6.5951501203
 30
0.0
 10
11.2603009124
 20
6.6106617491
 30
0.0
 10
11.2416321418
 20
6.6275022816
 30
0.0
 10
11.2241480651
 20
6.6455819313
 30
0.0
 10
11.2079418727
 20
6.6648043323
 30
0.0
 10
11.1930999697
 20
6.6850670478
 30
0.0
 10
11.1797015195
 20
6.7062621096
 30
0.0
 10
11.1678180274
 20
6.7282765873
 30
0.0
 10
11.1575129487
 20
6.7509931765
 30
0.0
 10
11.1488413575
 20
6.7742908217
 30
0.0
 10
11.1418496582
 20
6.7980453556
 30
0.0
 10
11.1365753354
 20
6.8221301502
 30
0.0
 10
11.1330467508
 20
6.8464167826
 30
0.0
 10
11.1312829853
 20
6.8707757096
 30
0.0
 10
11.1312937313
 20
6.8950769502
 30
0.0
 10
11.1330792172
 20
6.9191907709
 30
0.0
 10
11.1366301963
 20
6.9429883763
 30
0.0
 10
11.1419279893
 20
6.9663425922
 30
0.0
 10
11.1489445693
 20
6.9891285488
 30
0.0
 10
11.157642684
 20
7.0112243403
 30
0.0
 10
11.167976081
 20
7.0325117272
 30
0.0
 10
11.1798895856
 20
7.0528766273
 30
0.0
 10
11.1933199659
 20
7.0722103155
 30
0.0
 10
11.2081940782
 20
7.0904079135
 30
0.0
 10
11.2190243964
 20
7.1017220234
 30
0.0
 10
11.2246479252
 20
7.1071539328
 30
0.0
  0
SPLINE
  5
412
100
AcDbEntity
  8
0
100
AcDbSpline
 62
7
  6
CONTINUOUS
 70
0
 71
3
 72
37
 73
33
 74
0
 42
0.0000001
 43
0.0000001
 44
0.0000000001
 40
0.0
 40
0.0
 40
0.0
 40
0.0
 40
0.03068892
 40
0.061483286
 40
0.0923790372
 40
0.1233740984
 40
0.1544637722
 40
0.1856430476
 40
0.2169059191
 40
0.2482456099
 40
0.2796546374
 40
0.3111248708
 40
0.3426476175
 40
0.3742137013
 40
0.4058135513
 40
0.4374372915
 40
0.5006987055
 40
0.563933474
 40
0.5955241604
 40
0.6270781554
 40
0.6585859999
 40
0.690038654
 40
0.7214275843
 40
0.7527448475
 40
0.7839831638
 40
0.8151359971
 40
0.8461976058
 40
0.8771631006
 40
0.9080286584
 40
0.9387908349
 40
0.9694488519
 40
1.0
 40
1.0
 40
1.0
 40
1.0
 10
11.605624129
 20
6.6723246942
 30
0.0
 10
11.6002019276
 20
6.6727007251
 30
0.0
 10
11.5893557928
 20
6.6737252706
 30
0.0
 10
11.573157072
 20
6.6760681697
 30
0.0
 10
11.5570393929
 20
6.6792142104
 30
0.0
 10
11.541043766
 20
6.683155246
 30
0.0
 10
11.5252099379
 20
6.6878815318
 30
0.0
 10
11.5095776113
 20
6.6933811586
 30
0.0
 10
11.4941858635
 20
6.6996403546
 30
0.0
 10
11.4790731945
 20
6.7066434217
 30
0.0
 10
11.464277398
 20
6.7143728175
 30
0.0
 10
11.4498354841
 20
6.722809185
 30
0.0
 10
11.4357835548
 20
6.7319314358
 30
0.0
 10
11.4221568372
 20
6.7417166574
 30
0.0
 10
11.4089891026
 20
6.7521406664
 30
0.0
 10
11.3920890385
 20
6.7668551223
 30
0.0
 10
11.3722767407
 20
6.7867079873
 30
0.0
 10
11.3544055491
 20
6.8083172579
 30
0.0
 10
11.3413815193
 20
6.8265289563
 30
0.0
 10
11.3322762307
 20
6.8406118719
 30
0.0
 10
11.3238552264
 20
6.8550857004
 30
0.0
 10
11.3161393136
 20
6.8699145778
 30
0.0
 10
11.3091478831
 20
6.8850613256
 30
0.0
 10
11.3028984154
 20
6.90048808
 30
0.0
 10
11.2974065699
 20
6.9161562499
 30
0.0
 10
11.2926861138
 20
6.9320266486
 30
0.0
 10
11.2887489004
 20
6.9480595729
 30
0.0
 10
11.2856047997
 20
6.9642149397
 30
0.0
 10
11.2832617573
 20
6.9804522309
 30
0.0
 10
11.2817255507
 20
6.9967311029
 30
0.0
 10
11.2810002326
 20
7.0130101076
 30
0.0
 10
11.281058539
 20
7.0238558919
 30
0.0
 10
11.2812237908
 20
7.0292641921
 30
0.0
  0
SPLINE
  5
413
100
AcDbEntity
  8
0
100
AcDbSpline
 62
7
  6
CONTINUOUS
 70
0
 71
3
 72
17
 73
13
 74
0
 42
0.0000001
 43
0.0000001
 44
0.0000000001
 40
0.0
 40
0.0
 40
0.0
 40
0.0
 40
0.1267560686
 40
0.2529742703
 40
0.3786620038
 40
0.4413193763
 40
0.5038506125
 40
0.6285328224
 40
0.7527555328
 40
0.8147143623
 40
0.8765734239
 40
1.0
 40
1.0
 40
1.0
 40
1.0
 10
11.6050693266
 20
6.6640613891
 30
0.0
 10
11.6118481482
 20
6.6635912763
 30
0.0
 10
11.6254094269
 20
6.6630650662
 30
0.0
 10
11.6457153585
 20
6.6635279165
 30
0.0
 10
11.6625296712
 20
6.6649586613
 30
0.0
 10
11.6758636337
 20
6.6667276909
 30
0.0
 10
11.6890822879
 20
6.6689060274
 30
0.0
 10
11.7054203136
 20
6.6723989704
 30
0.0
 10
11.7214738307
 20
6.6769153002
 30
0.0
 10
11.7340879172
 20
6.6811281406
 30
0.0
 10
11.7465197094
 20
6.6857289274
 30
0.0
 10
11.755665949
 20
6.6896259519
 30
0.0
 10
11.7616656649
 20
6.6924157595
 30
0.0
  0
SPLINE
  5
414
100
AcDbEntity
  8
0
100
AcDbSpline
 62
7
  6
CONTINUOUS
 70
0
 71
3
 72
37
 73
33
 74
0
 42
0.0000001
 43
0.0000001
 44
0.0000000001
 40
0.0
 40
0.0
 40
0.0
 40
0.0
 40
0.030692194
 40
0.0614902742
 40
0.0923901397
 40
0.1233896879
 40
0.1544841687
 40
0.185668513
 40
0.2169366467
 40
0.2482817162
 40
0.2796961555
 40
0.3111717449
 40
0.3426996986
 40
0.3742707453
 40
0.4058752174
 40
0.4375031432
 40
0.5007711056
 40
0.5640096108
 40
0.5956009975
 40
0.6271547832
 40
0.6586614608
 40
0.6901119549
 40
0.7214977102
 40
0.7528107759
 40
0.7840438803
 40
0.8151905117
 40
0.8462449694
 40
0.8772024221
 40
0.9080591228
 40
0.9388117157
 40
0.969459541
 40
1.0
 40
1.0
 40
1.0
 40
1.0
 10
11.6050693266
 20
6.6640613891
 30
0.0
 10
11.5994951711
 20
6.6644479581
 30
0.0
 10
11.5883450656
 20
6.6655023727
 30
0.0
 10
11.5716928423
 20
6.6679160426
 30
0.0
 10
11.555124618
 20
6.6711586931
 30
0.0
 10
11.5386828962
 20
6.6752218581
 30
0.0
 10
11.5224088685
 20
6.680095408
 30
0.0
 10
11.5063436771
 20
6.6857669614
 30
0.0
 10
11.4905278117
 20
6.692222199
 30
0.0
 10
11.4750011589
 20
6.6994447978
 30
0.0
 10
11.4598028669
 20
6.7074165164
 30
0.0
 10
11.4449712654
 20
6.7161172268
 30
0.0
 10
11.4305437357
 20
6.7255250008
 30
0.0
 10
11.4165567441
 20
6.7356160146
 30
0.0
 10
11.4030452402
 20
6.7463651236
 30
0.0
 10
11.3857105517
 20
6.7615372096
 30
0.0
 10
11.3654018759
 20
6.7820048991
 30
0.0
 10
11.3471028899
 20
6.8042790567
 30
0.0
 10
11.3337815737
 20
6.8230473691
 30
0.0
 10
11.3244766845
 20
6.8375584652
 30
0.0
 10
11.3158799989
 20
6.8524700426
 30
0.0
 10
11.3080129328
 20
6.8677448485
 30
0.0
 10
11.3008954204
 20
6.8833442713
 30
0.0
 10
11.2945454043
 20
6.8992289946
 30
0.0
 10
11.2889789277
 20
6.9153589546
 30
0.0
 10
11.2842100608
 20
6.9316934771
 30
0.0
 10
11.2802508785
 20
6.9481913614
 30
0.0
 10
11.2771113889
 20
6.9648110219
 30
0.0
 10
11.2747995935
 20
6.9815104323
 30
0.0
 10
11.2733212382
 20
6.9982477594
 30
0.0
 10
11.2726802657
 20
7.0149800346
 30
0.0
 10
11.27281247
 20
7.0261242056
 30
0.0
 10
11.2730190241
 20
7.0316802877
 30
0.0
  0
SPLINE
  5
415
100
AcDbEntity
  8
0
100
AcDbSpline
 62
7
  6
CONTINUOUS
 70
0
 71
3
 72
39
 73
35
 74
0
 42
0.0000001
 43
0.0000001
 44
0.0000000001
 40
0.0
 40
0.0
 40
0.0
 40
0.0
 40
0.0319477248
 40
0.0637877967
 40
0.095519264
 40
0.1271452216
 40
0.1586681299
 40
0.1900920684
 40
0.2214219681
 40
0.2526637292
 40
0.283824164
 40
0.3149109166
 40
0.3459323993
 40
0.3768977066
 40
0.4078165263
 40
0.4386990394
 40
0.4695558129
 40
0.5003976877
 40
0.5312356628
 40
0.5620807792
 40
0.5929440024
 40
0.6238361052
 40
0.6547675522
 40
0.6857483898
 40
0.7167881405
 40
0.7478957077
 40
0.7790792872
 40
0.8103462864
 40
0.8417032531
 40
0.8731558151
 40
0.9047086318
 40
0.936365359
 40
0.9681286223
 40
1.0
 40
1.0
 40
1.0
 40
1.0
 10
11.4270019705
 20
6.4316911532
 30
0.0
 10
11.4334150606
 20
6.4312464039
 30
0.0
 10
11.4462435444
 20
6.4306706009
 30
0.0
 10
11.4654710985
 20
6.4307538355
 30
0.0
 10
11.4846068565
 20
6.4317853688
 30
0.0
 10
11.5036039124
 20
6.4337626017
 30
0.0
 10
11.522416812
 20
6.4366809451
 30
0.0
 10
11.5410000995
 20
6.4405333689
 30
0.0
 10
11.559309008
 20
6.4453106481
 30
0.0
 10
11.5772993917
 20
6.4510012967
 30
0.0
 10
11.5949278725
 20
6.457591634
 30
0.0
 10
11.6121519359
 20
6.4650658133
 30
0.0
 10
11.6289300324
 20
6.4734058575
 30
0.0
 10
11.6452216851
 20
6.4825916895
 30
0.0
 10
11.660987599
 20
6.492601167
 30
0.0
 10
11.6761897418
 20
6.5034101656
 30
0.0
 10
11.6907914383
 20
6.5149926306
 30
0.0
 10
11.7047574578
 20
6.5273206408
 30
0.0
 10
11.7180540995
 20
6.5403644743
 30
0.0
 10
11.7306493007
 20
6.5540926565
 30
0.0
 10
11.742512693
 20
6.568472065
 30
0.0
 10
11.7536156739
 20
6.5834680092
 30
0.0
 10
11.7639314767
 20
6.5990443136
 30
0.0
 10
11.7734352294
 20
6.6151634075
 30
0.0
 10
11.7821040428
 20
6.6317864001
 30
0.0
 10
11.7899170549
 20
6.6488731866
 30
0.0
 10
11.7968554649
 20
6.6663825535
 30
0.0
 10
11.8029025819
 20
6.6842722768
 30
0.0
 10
11.8080438587
 20
6.7024992194
 30
0.0
 10
11.8122669414
 20
6.7210194484
 30
0.0
 10
11.8155617136
 20
6.7397882719
 30
0.0
 10
11.8179202875
 20
6.7587606151
 30
0.0
 10
11.819337027
 20
6.7778901553
 30
0.0
 10
11.8196508476
 20
6.7906969375
 30
0.0
 10
11.8196508422
 20
6.7971100684
 30
0.0
  0
SPLINE
  5
416
100
AcDbEntity
  8
0
100
AcDbSpline
 62
7
  6
CONTINUOUS
 70
0
 71
3
 72
39
 73
35
 74
0
 42
0.0000001
 43
0.0000001
 44
0.0000000001
 40
0.0
 40
0.0
 40
0.0
 40
0.0
 40
0.0319823297
 40
0.0638628159
 40
0.0956395843
 40
0.1273158291
 40
0.1588935211
 40
0.190376072
 40
0.2217677445
 40
0.25307356
 40
0.2842993638
 40
0.3154517347
 40
0.3465379414
 40
0.3775658752
 40
0.4085439757
 40
0.439481157
 40
0.4703867273
 40
0.5012702987
 40
0.5321416923
 40
0.5630108458
 40
0.5938877201
 40
0.6247822036
 40
0.6557040137
 40
0.6866626028
 40
0.7176670721
 40
0.7487260876
 40
0.7798477976
 40
0.8110397557
 40
0.8423088563
 40
0.8736612794
 40
0.9051024364
 40
0.9366369228
 40
0.968268485
 40
1.0
 40
1.0
 40
1.0
 40
1.0
 10
11.4549544043
 20
6.486643591
 30
0.0
 10
11.460610054
 20
6.4862513704
 30
0.0
 10
11.4719232718
 20
6.4857296292
 30
0.0
 10
11.4888823804
 20
6.4857396518
 30
0.0
 10
11.5057685398
 20
6.4865436886
 30
0.0
 10
11.5225443525
 20
6.4881398526
 30
0.0
 10
11.5391737038
 20
6.4905248541
 30
0.0
 10
11.5556203654
 20
6.4936934876
 30
0.0
 10
11.5718486315
 20
6.4976388871
 30
0.0
 10
11.5878232388
 20
6.5023525281
 30
0.0
 10
11.6035094589
 20
6.5078242243
 30
0.0
 10
11.618873203
 20
6.5140420974
 30
0.0
 10
11.6338810819
 20
6.520992645
 30
0.0
 10
11.6485004698
 20
6.5286607877
 30
0.0
 10
11.662699567
 20
6.5370299067
 30
0.0
 10
11.6764475056
 20
6.546081815
 30
0.0
 10
11.689714406
 20
6.5557968312
 30
0.0
 10
11.7024714231
 20
6.5661538488
 30
0.0
 10
11.7146908013
 20
6.5771303813
 30
0.0
 10
11.7263459766
 20
6.5887025634
 30
0.0
 10
11.7374116304
 20
6.6008452196
 30
0.0
 10
11.7478637128
 20
6.6135319515
 30
0.0
 10
11.7576794897
 20
6.6267351912
 30
0.0
 10
11.7668376312
 20
6.6404262299
 30
0.0
 10
11.7753182686
 20
6.6545752827
 30
0.0
 10
11.7831029891
 20
6.6691515875
 30
0.0
 10
11.7901748752
 20
6.6841234652
 30
0.0
 10
11.7965185719
 20
6.6994583715
 30
0.0
 10
11.8021203492
 20
6.7151229579
 30
0.0
 10
11.8069680687
 20
6.7310831891
 30
0.0
 10
11.8110512083
 20
6.7473043533
 30
0.0
 10
11.8143609268
 20
6.7637513366
 30
0.0
 10
11.8168900473
 20
6.7803879132
 30
0.0
 10
11.8180503688
 20
6.7915646195
 30
0.0
 10
11.818499426
 20
6.7971714394
 30
0.0
  0
SPLINE
  5
417
100
AcDbEntity
  8
0
100
AcDbSpline
 62
7
  6
CONTINUOUS
 70
0
 71
3
 72
23
 73
19
 74
0
 42
0.0000001
 43
0.0000001
 44
0.0000000001
 40
0.0
 40
0.0
 40
0.0
 40
0.0
 40
0.0638612947
 40
0.1275033057
 40
0.1909230242
 40
0.254127669
 40
0.3171224077
 40
0.3799159229
 40
0.442518818
 40
0.5049436653
 40
0.567204996
 40
0.6293190782
 40
0.6913037909
 40
0.7531784345
 40
0.8149635225
 40
0.8766805571
 40
0.9383517934
 40
1.0
 40
1.0
 40
1.0
 40
1.0
 10
11.4636407492
 20
6.5274518656
 30
0.0
 10
11.4691873104
 20
6.5270672103
 30
0.0
 10
11.4802825699
 20
6.526575183
 30
0.0
 10
11.4969111054
 20
6.5266742553
 30
0.0
 10
11.5134567366
 20
6.5276116122
 30
0.0
 10
11.5298770471
 20
6.5293847489
 30
0.0
 10
11.5461310309
 20
6.5319893987
 30
0.0
 10
11.5621776496
 20
6.5354190007
 30
0.0
 10
11.5779765266
 20
6.5396649495
 30
0.0
 10
11.5934878678
 20
6.5447165962
 30
0.0
 10
11.608672598
 20
6.5505612589
 30
0.0
 10
11.6234924499
 20
6.5571842788
 30
0.0
 10
11.6379100832
 20
6.5645689857
 30
0.0
 10
11.651889181
 20
6.5726967986
 30
0.0
 10
11.6653944831
 20
6.5815472329
 30
0.0
 10
11.6783920614
 20
6.5910981344
 30
0.0
 10
11.690848708
 20
6.6013250356
 30
0.0
 10
11.6987731837
 20
6.6085779578
 30
0.0
 10
11.7026335732
 20
6.6123068062
 30
0.0
  0
SPLINE
  5
418
100
AcDbEntity
  8
0
100
AcDbSpline
 62
7
  6
CONTINUOUS
 70
0
 71
3
 72
23
 73
19
 74
0
 42
0.0000001
 43
0.0000001
 44
0.0000000001
 40
0.0
 40
0.0
 40
0.0
 40
0.0
 40
0.085759765
 40
0.1685207532
 40
0.2482270009
 40
0.3248301218
 40
0.3982898337
 40
0.4685749523
 40
0.5356648182
 40
0.5995502353
 40
0.6602360305
 40
0.7177422665
 40
0.7721082399
 40
0.8233945172
 40
0.8716887497
 40
0.9171092351
 40
0.959812765
 40
1.0
 40
1.0
 40
1.0
 40
1.0
 10
11.3703617669
 20
9.5534885372
 30
0.0
 10
11.3694298856
 20
9.5509937245
 30
0.0
 10
11.3675548385
 20
9.5461075587
 30
0.0
 10
11.3646532518
 20
9.5389655593
 30
0.0
 10
11.3617150994
 20
9.532147001
 30
0.0
 10
11.3587435874
 20
9.5256592512
 30
0.0
 10
11.3557419275
 20
9.519509271
 30
0.0
 10
11.3527133511
 20
9.5137036544
 30
0.0
 10
11.3496611345
 20
9.5082485939
 30
0.0
 10
11.3465885077
 20
9.5031499046
 30
0.0
 10
11.3434987722
 20
9.4984129645
 30
0.0
 10
11.3403951061
 20
9.494042786
 30
0.0
 10
11.3372807734
 20
9.4900439065
 30
0.0
 10
11.3341588136
 20
9.4864205323
 30
0.0
 10
11.3310323769
 20
9.4831763971
 30
0.0
 10
11.3279041554
 20
9.480314926
 30
0.0
 10
11.3247773993
 20
9.4778393977
 30
0.0
 10
11.3226339241
 20
9.476407289
 30
0.0
 10
11.321564982
 20
9.4757632464
 30
0.0
  0
SPLINE
  5
419
100
AcDbEntity
  8
0
100
AcDbSpline
 62
7
  6
CONTINUOUS
 70
0
 71
3
 72
23
 73
19
 74
0
 42
0.0000001
 43
0.0000001
 44
0.0000000001
 40
0.0
 40
0.0
 40
0.0
 40
0.0
 40
0.0861257653
 40
0.169118445
 40
0.2489363532
 40
0.3255467242
 40
0.3989248325
 40
0.4690570083
 40
0.5359401339
 40
0.5995852839
 40
0.6600178859
 40
0.7172822688
 40
0.7714429
 40
0.8225902087
 40
0.8708433586
 40
0.9163575671
 40
0.9593284475
 40
1.0
 40
1.0
 40
1.0
 40
1.0
 10
11.3476292414
 20
9.5550957794
 30
0.0
 10
11.3467657215
 20
9.5530054784
 30
0.0
 10
11.3450306629
 20
9.5489170437
 30
0.0
 10
11.3423510169
 20
9.5429539509
 30
0.0
 10
11.33964454
 20
9.5372785266
 30
0.0
 10
11.3369139345
 20
9.5318962566
 30
0.0
 10
11.334161774
 20
9.5268123314
 30
0.0
 10
11.3313907823
 20
9.522031604
 30
0.0
 10
11.328603542
 20
9.5175586696
 30
0.0
 10
11.3258027773
 20
9.5133977493
 30
0.0
 10
11.3229910398
 20
9.5095528194
 30
0.0
 10
11.3201710064
 20
9.5060274555
 30
0.0
 10
11.3173451417
 20
9.5028250206
 30
0.0
 10
11.3145159946
 20
9.4999484609
 30
0.0
 10
11.3116858934
 20
9.4974006041
 30
0.0
 10
11.3088570842
 20
9.4951838341
 30
0.0
 10
11.3060320558
 20
9.4933007914
 30
0.0
 10
11.304103329
 20
9.4922423686
 30
0.0
 10
11.3031429395
 20
9.4917751107
 30
0.0
  0
SPLINE
  5
41A
100
AcDbEntity
  8
0
100
AcDbSpline
 62
7
  6
CONTINUOUS
 70
0
 71
3
 72
11
 73
7
 74
0
 42
0.0000001
 43
0.0000001
 44
0.0000000001
 40
0.0
 40
0.0
 40
0.0
 40
0.0
 40
0.2603419793
 40
0.5119349624
 40
0.7575040107
 40
1.0
 40
1.0
 40
1.0
 40
1.0
 10
12.4148646361
 20
9.3337087559
 30
0.0
 10
12.4138138297
 20
9.3333014517
 30
0.0
 10
12.4117076049
 20
9.3325983048
 30
0.0
 10
12.4084993099
 20
9.3318906449
 30
0.0
 10
12.4053086075
 20
9.3315528041
 30
0.0
 10
12.4031902887
 20
9.3315750453
 30
0.0
 10
12.4021430734
 20
9.331647666
 30
0.0
  0
SPLINE
  5
41B
100
AcDbEntity
  8
0
100
AcDbSpline
 62
7
  6
CONTINUOUS
 70
0
 71
3
 72
21
 73
17
 74
0
 42
0.0000001
 43
0.0000001
 44
0.0000000001
 40
0.0
 40
0.0
 40
0.0
 40
0.0
 40
0.061653237
 40
0.123329498
 40
0.1850515502
 40
0.2468416698
 40
0.3087213548
 40
0.370711108
 40
0.4328302426
 40
0.495096636
 40
0.5575265765
 40
0.6201345494
 40
0.682933126
 40
0.7459332432
 40
0.8725261314
 40
1.0
 40
1.0
 40
1.0
 40
1.0
 10
10.6321783527
 20
8.8689087432
 30
0.0
 10
10.6302481494
 20
8.8670442972
 30
0.0
 10
10.6262859218
 20
8.863417762
 30
0.0
 10
10.6200575571
 20
8.8583042616
 30
0.0
 10
10.6135587531
 20
8.8535287271
 30
0.0
 10
10.6068060846
 20
8.8491034208
 30
0.0
 10
10.5998164891
 20
8.8450394689
 30
0.0
 10
10.5926076336
 20
8.8413470555
 30
0.0
 10
10.5851976688
 20
8.8380354773
 30
0.0
 10
10.5776052518
 20
8.835113111
 30
0.0
 10
10.5698495217
 20
8.8325872386
 30
0.0
 10
10.5619500712
 20
8.8304642115
 30
0.0
 10
10.5539265509
 20
8.8287493958
 30
0.0
 10
10.5430748162
 20
8.8270103399
 30
0.0
 10
10.5292948354
 20
8.8258804823
 30
0.0
 10
10.5182165613
 20
8.8260966864
 30
0.0
 10
10.5126812088
 20
8.8264805644
 30
0.0
  0
SPLINE
  5
41C
100
AcDbEntity
  8
0
100
AcDbSpline
 62
7
  6
CONTINUOUS
 70
0
 71
3
 72
21
 73
17
 74
0
 42
0.0000001
 43
0.0000001
 44
0.0000000001
 40
0.0
 40
0.0
 40
0.0
 40
0.0
 40
0.061653237
 40
0.123329498
 40
0.1850515502
 40
0.2468416698
 40
0.3087213548
 40
0.370711108
 40
0.4328302426
 40
0.495096636
 40
0.5575265765
 40
0.6201345494
 40
0.682933126
 40
0.7459332432
 40
0.8725261314
 40
1.0
 40
1.0
 40
1.0
 40
1.0
 10
12.0211798534
 20
7.5342642318
 30
0.0
 10
12.01924965
 20
7.5323997858
 30
0.0
 10
12.0152874224
 20
7.5287732506
 30
0.0
 10
12.0090590577
 20
7.5236597502
 30
0.0
 10
12.0025602537
 20
7.5188842157
 30
0.0
 10
11.9958075853
 20
7.5144589094
 30
0.0
 10
11.9888179897
 20
7.5103949574
 30
0.0
 10
11.9816091343
 20
7.5067025441
 30
0.0
 10
11.9741991694
 20
7.5033909658
 30
0.0
 10
11.9666067524
 20
7.5004685995
 30
0.0
 10
11.9588510223
 20
7.4979427272
 30
0.0
 10
11.9509515719
 20
7.4958197001
 30
0.0
 10
11.9429280515
 20
7.4941048844
 30
0.0
 10
11.9320763169
 20
7.4923658284
 30
0.0
 10
11.918296336
 20
7.4912359709
 30
0.0
 10
11.9072180619
 20
7.491452175
 30
0.0
 10
11.9016827095
 20
7.491836053
 30
0.0
  0
SPLINE
  5
41D
100
AcDbEntity
  8
0
100
AcDbSpline
 62
7
  6
CONTINUOUS
 70
0
 71
3
 72
23
 73
19
 74
0
 42
0.0000001
 43
0.0000001
 44
0.0000000001
 40
0.0
 40
0.0
 40
0.0
 40
0.0
 40
0.0616482057
 40
0.123319439
 40
0.1850364697
 40
0.2468215573
 40
0.308696204
 40
0.3706809203
 40
0.4327950036
 40
0.4950563332
 40
0.5574811873
 40
0.6200840738
 40
0.6828776141
 40
0.7458723365
 40
0.8090768798
 40
0.872497055
 40
0.9361379958
 40
1.0
 40
1.0
 40
1.0
 40
1.0
 10
11.7768608087
 20
8.9511753409
 30
0.0
 10
11.7710758467
 20
8.9455875107
 30
0.0
 10
11.7592006389
 20
8.9347187525
 30
0.0
 10
11.7405337878
 20
8.9193933647
 30
0.0
 10
11.7210563454
 20
8.9050809713
 30
0.0
 10
11.7008180669
 20
8.8918182456
 30
0.0
 10
11.6798697791
 20
8.8796384098
 30
0.0
 10
11.6582643232
 20
8.8685721627
 30
0.0
 10
11.6360561316
 20
8.8586473319
 30
0.0
 10
11.6133011676
 20
8.8498888737
 30
0.0
 10
11.5900567622
 20
8.8423187922
 30
0.0
 10
11.5663814685
 20
8.8359560887
 30
0.0
 10
11.5423349247
 20
8.8308167315
 30
0.0
 10
11.5179776564
 20
8.8269135716
 30
0.0
 10
11.4933710883
 20
8.8242564151
 30
0.0
 10
11.4685768535
 20
8.8228518086
 30
0.0
 10
11.4436582812
 20
8.8227032878
 30
0.0
 10
11.4270316156
 20
8.8234406487
 30
0.0
 10
11.4187197677
 20
8.8240170773
 30
0.0
  0
SPLINE
  5
41E
100
AcDbEntity
  8
0
100
AcDbSpline
 62
7
  6
CONTINUOUS
 70
0
 71
3
 72
23
 73
19
 74
0
 42
0.0000001
 43
0.0000001
 44
0.0000000001
 40
0.0
 40
0.0
 40
0.0
 40
0.0
 40
0.085759765
 40
0.1685207532
 40
0.2482270009
 40
0.3248301218
 40
0.3982898337
 40
0.4685749523
 40
0.5356648182
 40
0.5995502353
 40
0.6602360305
 40
0.7177422665
 40
0.7721082399
 40
0.8233945172
 40
0.8716887497
 40
0.9171092351
 40
0.959812765
 40
1.0
 40
1.0
 40
1.0
 40
1.0
 10
11.3703617669
 20
7.0478766977
 30
0.0
 10
11.3694298856
 20
7.045381885
 30
0.0
 10
11.3675548385
 20
7.0404957192
 30
0.0
 10
11.3646532518
 20
7.0333537198
 30
0.0
 10
11.3617150994
 20
7.0265351614
 30
0.0
 10
11.3587435874
 20
7.0200474117
 30
0.0
 10
11.3557419275
 20
7.0138974315
 30
0.0
 10
11.3527133511
 20
7.0080918149
 30
0.0
 10
11.3496611345
 20
7.0026367544
 30
0.0
 10
11.3465885077
 20
6.9975380651
 30
0.0
 10
11.3434987722
 20
6.992801125
 30
0.0
 10
11.3403951061
 20
6.9884309465
 30
0.0
 10
11.3372807734
 20
6.984432067
 30
0.0
 10
11.3341588136
 20
6.9808086928
 30
0.0
 10
11.3310323769
 20
6.9775645576
 30
0.0
 10
11.3279041554
 20
6.9747030865
 30
0.0
 10
11.3247773993
 20
6.9722275582
 30
0.0
 10
11.3226339241
 20
6.9707954495
 30
0.0
 10
11.321564982
 20
6.9701514069
 30
0.0
  0
SPLINE
  5
41F
100
AcDbEntity
  8
0
100
AcDbSpline
 62
7
  6
CONTINUOUS
 70
0
 71
3
 72
23
 73
19
 74
0
 42
0.0000001
 43
0.0000001
 44
0.0000000001
 40
0.0
 40
0.0
 40
0.0
 40
0.0
 40
0.0861257653
 40
0.169118445
 40
0.2489363532
 40
0.3255467242
 40
0.3989248325
 40
0.4690570083
 40
0.5359401339
 40
0.5995852839
 40
0.6600178859
 40
0.7172822688
 40
0.7714429
 40
0.8225902087
 40
0.8708433586
 40
0.9163575671
 40
0.9593284475
 40
1.0
 40
1.0
 40
1.0
 40
1.0
 10
11.3476292414
 20
7.0494839399
 30
0.0
 10
11.3467657215
 20
7.0473936389
 30
0.0
 10
11.3450306629
 20
7.0433052042
 30
0.0
 10
11.3423510169
 20
7.0373421114
 30
0.0
 10
11.33964454
 20
7.0316666871
 30
0.0
 10
11.3369139345
 20
7.0262844171
 30
0.0
 10
11.334161774
 20
7.0212004919
 30
0.0
 10
11.3313907823
 20
7.0164197645
 30
0.0
 10
11.328603542
 20
7.0119468301
 30
0.0
 10
11.3258027773
 20
7.0077859098
 30
0.0
 10
11.3229910398
 20
7.0039409799
 30
0.0
 10
11.3201710064
 20
7.000415616
 30
0.0
 10
11.3173451417
 20
6.9972131811
 30
0.0
 10
11.3145159946
 20
6.9943366214
 30
0.0
 10
11.3116858934
 20
6.9917887646
 30
0.0
 10
11.3088570842
 20
6.9895719946
 30
0.0
 10
11.3060320558
 20
6.9876889519
 30
0.0
 10
11.304103329
 20
6.9866305291
 30
0.0
 10
11.3031429395
 20
6.9861632712
 30
0.0
  0
SPLINE
  5
420
100
AcDbEntity
  8
0
100
AcDbSpline
 62
7
  6
CONTINUOUS
 70
0
 71
3
 72
30
 73
26
 74
0
 42
0.0000001
 43
0.0000001
 44
0.0000000001
 40
0.0
 40
0.0
 40
0.0
 40
0.0
 40
0.0914755728
 40
0.178294461
 40
0.2604266788
 40
0.3378804466
 40
0.4107123929
 40
0.4790389315
 40
0.5430489612
 40
0.6030169092
 40
0.6316054938
 40
0.659331133
 40
0.7124290034
 40
0.7379652127
 40
0.7629244492
 40
0.7873904501
 40
0.8114512726
 40
0.8351974232
 40
0.858719073
 40
0.8821073338
 40
0.9054504106
 40
0.9288329151
 40
0.9523364258
 40
0.976035631
 40
1.0
 40
1.0
 40
1.0
 40
1.0
 10
11.4027771115
 20
9.5512021428
 30
0.0
 10
11.4020908264
 20
9.5478874072
 30
0.0
 10
11.4006931248
 20
9.5414387918
 30
0.0
 10
11.3984174713
 20
9.5320730311
 30
0.0
 10
11.395986042
 20
9.5232830923
 30
0.0
 10
11.3933706677
 20
9.5150870315
 30
0.0
 10
11.3905463926
 20
9.5075024713
 30
0.0
 10
11.3874919196
 20
9.5005463135
 30
0.0
 10
11.3841906787
 20
9.49423522
 30
0.0
 10
11.3811770038
 20
9.4894518295
 30
0.0
 10
11.3786292028
 20
9.4859820873
 30
0.0
 10
11.3760721348
 20
9.4828415059
 30
0.0
 10
11.3733469686
 20
9.4799877984
 30
0.0
 10
11.370457597
 20
9.4774654296
 30
0.0
 10
11.3682561803
 20
9.4757744619
 30
0.0
 10
11.3659946422
 20
9.4742608618
 30
0.0
 10
11.3636750637
 20
9.472925419
 30
0.0
 10
11.3613000409
 20
9.471768889
 30
0.0
 10
11.3588726332
 20
9.4707914812
 30
0.0
 10
11.3563960724
 20
9.4699936557
 30
0.0
 10
11.3538740033
 20
9.469375425
 30
0.0
 10
11.3513103247
 20
9.4689366143
 30
0.0
 10
11.3487091167
 20
9.4686771277
 30
0.0
 10
11.3460748866
 20
9.4685964506
 30
0.0
 10
11.344310765
 20
9.4686611504
 30
0.0
 10
11.34342609
 20
9.4687224546
 30
0.0
  0
SPLINE
  5
421
100
AcDbEntity
  8
0
100
AcDbSpline
 62
7
  6
CONTINUOUS
 70
0
 71
3
 72
15
 73
11
 74
0
 42
0.0000001
 43
0.0000001
 44
0.0000000001
 40
0.0
 40
0.0
 40
0.0
 40
0.0
 40
0.1233750942
 40
0.2471259927
 40
0.3713074323
 40
0.4959663103
 40
0.6211407533
 40
0.7468600896
 40
0.8731428873
 40
1.0
 40
1.0
 40
1.0
 40
1.0
 10
11.7677468919
 20
9.2100867427
 30
0.0
 10
11.7616122298
 20
9.2069747776
 30
0.0
 10
11.7491036287
 20
9.2011658561
 30
0.0
 10
11.7297567138
 20
9.1937544772
 30
0.0
 10
11.7098788863
 20
9.1876626846
 30
0.0
 10
11.6895563737
 20
9.1829169968
 30
0.0
 10
11.6688758857
 20
9.1795373716
 30
0.0
 10
11.6479256762
 20
9.1775381963
 30
0.0
 10
11.6267964182
 20
9.1769277072
 30
0.0
 10
11.6126801606
 20
9.1774471962
 30
0.0
 10
11.605624129
 20
9.1779365337
 30
0.0
  0
SPLINE
  5
422
100
AcDbEntity
  8
0
100
AcDbSpline
 62
7
  6
CONTINUOUS
 70
0
 71
3
 72
23
 73
19
 74
0
 42
0.0000001
 43
0.0000001
 44
0.0000000001
 40
0.0
 40
0.0
 40
0.0
 40
0.0
 40
0.0616482057
 40
0.123319439
 40
0.1850364697
 40
0.2468215573
 40
0.308696204
 40
0.3706809203
 40
0.4327950036
 40
0.4950563332
 40
0.5574811873
 40
0.6200840738
 40
0.6828776141
 40
0.7458723365
 40
0.8090768798
 40
0.872497055
 40
0.9361379958
 40
1.0
 40
1.0
 40
1.0
 40
1.0
 10
11.7768608087
 20
6.4455635014
 30
0.0
 10
11.7710758467
 20
6.4399756712
 30
0.0
 10
11.7592006389
 20
6.429106913
 30
0.0
 10
11.7405337878
 20
6.4137815252
 30
0.0
 10
11.7210563454
 20
6.3994691318
 30
0.0
 10
11.7008180669
 20
6.3862064061
 30
0.0
 10
11.6798697791
 20
6.3740265703
 30
0.0
 10
11.6582643232
 20
6.3629603232
 30
0.0
 10
11.6360561316
 20
6.3530354924
 30
0.0
 10
11.6133011676
 20
6.3442770342
 30
0.0
 10
11.5900567622
 20
6.3367069526
 30
0.0
 10
11.5663814685
 20
6.3303442492
 30
0.0
 10
11.5423349247
 20
6.325204892
 30
0.0
 10
11.5179776564
 20
6.3213017321
 30
0.0
 10
11.4933710883
 20
6.3186445756
 30
0.0
 10
11.4685768535
 20
6.3172399691
 30
0.0
 10
11.4436582812
 20
6.3170914483
 30
0.0
 10
11.4270316156
 20
6.3178288092
 30
0.0
 10
11.4187197677
 20
6.3184052378
 30
0.0
  0
SPLINE
  5
423
100
AcDbEntity
  8
0
100
AcDbSpline
 62
7
  6
CONTINUOUS
 70
0
 71
3
 72
30
 73
26
 74
0
 42
0.0000001
 43
0.0000001
 44
0.0000000001
 40
0.0
 40
0.0
 40
0.0
 40
0.0
 40
0.0914755728
 40
0.178294461
 40
0.2604266788
 40
0.3378804466
 40
0.4107123929
 40
0.4790389315
 40
0.5430489612
 40
0.6030169092
 40
0.6316054938
 40
0.659331133
 40
0.7124290034
 40
0.7379652127
 40
0.7629244492
 40
0.7873904501
 40
0.8114512726
 40
0.8351974232
 40
0.858719073
 40
0.8821073338
 40
0.9054504106
 40
0.9288329151
 40
0.9523364258
 40
0.976035631
 40
1.0
 40
1.0
 40
1.0
 40
1.0
 10
11.4027771115
 20
7.0455903033
 30
0.0
 10
11.4020908264
 20
7.0422755677
 30
0.0
 10
11.4006931248
 20
7.0358269523
 30
0.0
 10
11.3984174713
 20
7.0264611916
 30
0.0
 10
11.395986042
 20
7.0176712528
 30
0.0
 10
11.3933706677
 20
7.009475192
 30
0.0
 10
11.3905463926
 20
7.0018906318
 30
0.0
 10
11.3874919196
 20
6.994934474
 30
0.0
 10
11.3841906787
 20
6.9886233805
 30
0.0
 10
11.3811770038
 20
6.98383999
 30
0.0
 10
11.3786292028
 20
6.9803702478
 30
0.0
 10
11.3760721348
 20
6.9772296664
 30
0.0
 10
11.3733469686
 20
6.9743759589
 30
0.0
 10
11.370457597
 20
6.9718535901
 30
0.0
 10
11.3682561803
 20
6.9701626224
 30
0.0
 10
11.3659946422
 20
6.9686490223
 30
0.0
 10
11.3636750637
 20
6.9673135795
 30
0.0
 10
11.3613000409
 20
6.9661570495
 30
0.0
 10
11.3588726332
 20
6.9651796417
 30
0.0
 10
11.3563960724
 20
6.9643818162
 30
0.0
 10
11.3538740033
 20
6.9637635855
 30
0.0
 10
11.3513103247
 20
6.9633247748
 30
0.0
 10
11.3487091167
 20
6.9630652882
 30
0.0
 10
11.3460748866
 20
6.9629846111
 30
0.0
 10
11.344310765
 20
6.9630493109
 30
0.0
 10
11.34342609
 20
6.9631106151
 30
0.0
  0
SPLINE
  5
424
100
AcDbEntity
  8
0
100
AcDbSpline
 62
7
  6
CONTINUOUS
 70
0
 71
3
 72
15
 73
11
 74
0
 42
0.0000001
 43
0.0000001
 44
0.0000000001
 40
0.0
 40
0.0
 40
0.0
 40
0.0
 40
0.1233750942
 40
0.2471259927
 40
0.3713074323
 40
0.4959663103
 40
0.6211407533
 40
0.7468600896
 40
0.8731428873
 40
1.0
 40
1.0
 40
1.0
 40
1.0
 10
11.7677468919
 20
6.7044749032
 30
0.0
 10
11.7616122298
 20
6.7013629381
 30
0.0
 10
11.7491036287
 20
6.6955540166
 30
0.0
 10
11.7297567138
 20
6.6881426377
 30
0.0
 10
11.7098788863
 20
6.6820508451
 30
0.0
 10
11.6895563737
 20
6.6773051573
 30
0.0
 10
11.6688758857
 20
6.6739255321
 30
0.0
 10
11.6479256762
 20
6.6719263568
 30
0.0
 10
11.6267964182
 20
6.6713158677
 30
0.0
 10
11.6126801606
 20
6.6718353567
 30
0.0
 10
11.605624129
 20
6.6723246942
 30
0.0
  0
SPLINE
  5
425
100
AcDbEntity
  8
0
100
AcDbSpline
 62
7
  6
CONTINUOUS
 70
0
 71
3
 72
41
 73
37
 74
0
 42
0.0000001
 43
0.0000001
 44
0.0000000001
 40
0.0
 40
0.0
 40
0.0
 40
0.0
 40
0.0311444983
 40
0.062442467
 40
0.093887251
 40
0.1254695609
 40
0.157177086
 40
0.1889950997
 40
0.2209066479
 40
0.2528929497
 40
0.284933762
 40
0.3170077852
 40
0.3490930781
 40
0.3811674822
 40
0.4132090489
 40
0.445196464
 40
0.4771094635
 40
0.5089292351
 40
0.540638799
 40
0.5722233621
 40
0.6036706378
 40
0.6349711269
 40
0.6661183495
 40
0.6971090237
 40
0.7279431823
 40
0.7586242225
 40
0.7891588828
 40
0.8195571428
 40
0.8498320452
 40
0.86493089
 40
0.8800050502
 40
0.9100832578
 40
0.9400926753
 40
0.9550812784
 40
0.9700610371
 40
1.0
 40
1.0
 40
1.0
 40
1.0
 10
10.5126812088
 20
8.8264805644
 30
0.0
 10
10.5086242766
 20
8.8267619136
 30
0.0
 10
10.5005079969
 20
8.8276229576
 30
0.0
 10
10.4884319848
 20
8.8297919095
 30
0.0
 10
10.4764853
 20
8.8328300088
 30
0.0
 10
10.464732505
 20
8.8367208509
 30
0.0
 10
10.4532360069
 20
8.8414436237
 30
0.0
 10
10.4420571393
 20
8.8469730452
 30
0.0
 10
10.4312554521
 20
8.853279574
 30
0.0
 10
10.4208885028
 20
8.8603295347
 30
0.0
 10
10.4110115262
 20
8.8680853104
 30
0.0
 10
10.4016771506
 20
8.876505536
 30
0.0
 10
10.3929351188
 20
8.8855453195
 30
0.0
 10
10.3848320262
 20
8.8951564783
 30
0.0
 10
10.3774110745
 20
8.9052877939
 30
0.0
 10
10.370711844
 20
8.9158852814
 30
0.0
 10
10.3647700837
 20
8.9268924746
 30
0.0
 10
10.3596175224
 20
8.9382507232
 30
0.0
 10
10.3552816995
 20
8.9498995014
 30
0.0
 10
10.3517858188
 20
8.9617767261
 30
0.0
 10
10.3491486231
 20
8.9738190838
 30
0.0
 10
10.3473842925
 20
8.9859623629
 30
0.0
 10
10.3465023665
 20
8.9981417927
 30
0.0
 10
10.3465076868
 20
9.0102923814
 30
0.0
 10
10.3474003723
 20
9.0223492711
 30
0.0
 10
10.3491757884
 20
9.0342480354
 30
0.0
 10
10.3518246528
 20
9.0459251953
 30
0.0
 10
10.3553327477
 20
9.0573179154
 30
0.0
 10
10.3589607235
 20
9.0665339605
 30
0.0
 10
10.3622714276
 20
9.0737008718
 30
0.0
 10
10.3658443415
 20
9.0807119425
 30
0.0
 10
10.3708051144
 20
9.0891922122
 30
0.0
 10
10.3764039413
 20
9.097251948
 30
0.0
 10
10.3812421456
 20
9.1034126197
 30
0.0
 10
10.3863111639
 20
9.1093721991
 30
0.0
 10
10.390372318
 20
9.1136149319
 30
0.0
 10
10.3931840649
 20
9.1163308895
 30
0.0
  0
SPLINE
  5
426
100
AcDbEntity
  8
0
100
AcDbSpline
 62
7
  6
CONTINUOUS
 70
0
 71
3
 72
11
 73
7
 74
0
 42
0.0000001
 43
0.0000001
 44
0.0000000001
 40
0.0
 40
0.0
 40
0.0
 40
0.0
 40
0.2424234943
 40
0.4879502721
 40
0.7395594861
 40
1.0
 40
1.0
 40
1.0
 40
1.0
 10
12.4617101598
 20
10.1905846599
 30
0.0
 10
12.4627628101
 20
10.1905116622
 30
0.0
 10
12.4648749397
 20
10.1902392504
 30
0.0
 10
12.468004516
 20
10.1894572747
 30
0.0
 10
12.4711000493
 20
10.1883027521
 30
0.0
 10
12.4730986247
 20
10.1873062724
 30
0.0
 10
12.474087823
 20
10.1867526166
 30
0.0
  0
SPLINE
  5
427
100
AcDbEntity
  8
0
100
AcDbSpline
 62
7
  6
CONTINUOUS
 70
0
 71
3
 72
41
 73
37
 74
0
 42
0.0000001
 43
0.0000001
 44
0.0000000001
 40
0.0
 40
0.0
 40
0.0
 40
0.0
 40
0.0311444983
 40
0.062442467
 40
0.093887251
 40
0.1254695609
 40
0.157177086
 40
0.1889950997
 40
0.2209066479
 40
0.2528929497
 40
0.284933762
 40
0.3170077852
 40
0.3490930781
 40
0.3811674822
 40
0.4132090489
 40
0.445196464
 40
0.4771094635
 40
0.5089292351
 40
0.540638799
 40
0.5722233621
 40
0.6036706378
 40
0.6349711269
 40
0.6661183495
 40
0.6971090237
 40
0.7279431823
 40
0.7586242225
 40
0.7891588828
 40
0.8195571428
 40
0.8498320452
 40
0.86493089
 40
0.8800050502
 40
0.9100832578
 40
0.9400926753
 40
0.9550812784
 40
0.9700610371
 40
1.0
 40
1.0
 40
1.0
 40
1.0
 10
11.9016827095
 20
7.491836053
 30
0.0
 10
11.8976257772
 20
7.4921174022
 30
0.0
 10
11.8895094975
 20
7.4929784462
 30
0.0
 10
11.8774334854
 20
7.4951473981
 30
0.0
 10
11.8654868006
 20
7.4981854974
 30
0.0
 10
11.8537340056
 20
7.5020763395
 30
0.0
 10
11.8422375075
 20
7.5067991123
 30
0.0
 10
11.8310586399
 20
7.5123285338
 30
0.0
 10
11.8202569528
 20
7.5186350625
 30
0.0
 10
11.8098900034
 20
7.5256850233
 30
0.0
 10
11.8000130268
 20
7.533440799
 30
0.0
 10
11.7906786512
 20
7.5418610245
 30
0.0
 10
11.7819366195
 20
7.5509008081
 30
0.0
 10
11.7738335268
 20
7.5605119669
 30
0.0
 10
11.7664125752
 20
7.5706432825
 30
0.0
 10
11.7597133446
 20
7.58124077
 30
0.0
 10
11.7537715844
 20
7.5922479632
 30
0.0
 10
11.748619023
 20
7.6036062118
 30
0.0
 10
11.7442832002
 20
7.61525499
 30
0.0
 10
11.7407873195
 20
7.6271322147
 30
0.0
 10
11.7381501237
 20
7.6391745723
 30
0.0
 10
11.7363857932
 20
7.6513178515
 30
0.0
 10
11.7355038672
 20
7.6634972813
 30
0.0
 10
11.7355091874
 20
7.6756478699
 30
0.0
 10
11.7364018729
 20
7.6877047597
 30
0.0
 10
11.738177289
 20
7.699603524
 30
0.0
 10
11.7408261534
 20
7.7112806839
 30
0.0
 10
11.7443342483
 20
7.722673404
 30
0.0
 10
11.7479622241
 20
7.7318894491
 30
0.0
 10
11.7512729282
 20
7.7390563604
 30
0.0
 10
11.7548458421
 20
7.7460674311
 30
0.0
 10
11.7598066151
 20
7.7545477008
 30
0.0
 10
11.765405442
 20
7.7626074366
 30
0.0
 10
11.7702436463
 20
7.7687681083
 30
0.0
 10
11.7753126645
 20
7.7747276877
 30
0.0
 10
11.7793738186
 20
7.7789704205
 30
0.0
 10
11.7821855655
 20
7.7816863781
 30
0.0
  0
SPLINE
  5
428
100
AcDbEntity
  8
0
100
AcDbSpline
 62
7
  6
CONTINUOUS
 70
0
 71
3
 72
11
 73
7
 74
0
 42
0.0000001
 43
0.0000001
 44
0.0000000001
 40
0.0
 40
0.0
 40
0.0
 40
0.0
 40
0.2603419793
 40
0.5119349624
 40
0.7575040107
 40
1.0
 40
1.0
 40
1.0
 40
1.0
 10
12.4148646361
 20
6.8280969164
 30
0.0
 10
12.4138138297
 20
6.8276896122
 30
0.0
 10
12.4117076049
 20
6.8269864653
 30
0.0
 10
12.4084993099
 20
6.8262788054
 30
0.0
 10
12.4053086075
 20
6.8259409646
 30
0.0
 10
12.4031902887
 20
6.8259632058
 30
0.0
 10
12.4021430734
 20
6.8260358265
 30
0.0
  0
SPLINE
  5
429
100
AcDbEntity
  8
0
100
AcDbSpline
 62
7
  6
CONTINUOUS
 70
0
 71
3
 72
11
 73
7
 74
0
 42
0.0000001
 43
0.0000001
 44
0.0000000001
 40
0.0
 40
0.0
 40
0.0
 40
0.0
 40
0.2424234943
 40
0.4879502721
 40
0.7395594861
 40
1.0
 40
1.0
 40
1.0
 40
1.0
 10
12.4617101598
 20
7.6849728204
 30
0.0
 10
12.4627628101
 20
7.6848998227
 30
0.0
 10
12.4648749397
 20
7.6846274109
 30
0.0
 10
12.468004516
 20
7.6838454352
 30
0.0
 10
12.4711000493
 20
7.6826909126
 30
0.0
 10
12.4730986247
 20
7.6816944329
 30
0.0
 10
12.474087823
 20
7.6811407771
 30
0.0
  0
SPLINE
  5
42A
100
AcDbEntity
  8
0
100
AcDbSpline
 62
7
  6
CONTINUOUS
 70
0
 71
3
 72
44
 73
40
 74
0
 42
0.0000001
 43
0.0000001
 44
0.0000000001
 40
0.0
 40
0.0
 40
0.0
 40
0.0
 40
0.0311441543
 40
0.0624413527
 40
0.0938856704
 40
0.1254674301
 40
0.1571744232
 40
0.1889918967
 40
0.2209029056
 40
0.2528886665
 40
0.2849289365
 40
0.3170024165
 40
0.3490871655
 40
0.3811610253
 40
0.4132020474
 40
0.4451889174
 40
0.477101372
 40
0.5089205996
 40
0.5406296198
 40
0.5722136396
 40
0.603660374
 40
0.6349603231
 40
0.6661070065
 40
0.6970971441
 40
0.7279307688
 40
0.7586112764
 40
0.7891454071
 40
0.8195431409
 40
0.8498175195
 40
0.8649161013
 40
0.8799900027
 40
0.8950415891
 40
0.9100733537
 40
0.9250879052
 40
0.9400879559
 40
0.9550763011
 40
0.9700558055
 40
0.9850293877
 40
1.0
 40
1.0
 40
1.0
 40
1.0
 10
11.4187197677
 20
8.8240170773
 30
0.0
 10
11.4065606468
 20
8.8248603152
 30
0.0
 10
11.3822353284
 20
8.8274409373
 30
0.0
 10
11.3460422718
 20
8.8339415949
 30
0.0
 10
11.3102368744
 20
8.8430470432
 30
0.0
 10
11.2750125173
 20
8.8547083659
 30
0.0
 10
11.2405563351
 20
8.8688630492
 30
0.0
 10
11.2070521182
 20
8.8854353394
 30
0.0
 10
11.1746783613
 20
8.904336712
 30
0.0
 10
11.1436075803
 20
8.925466253
 30
0.0
 10
11.1140052952
 20
8.9487111787
 30
0.0
 10
11.0860292466
 20
8.9739475291
 30
0.0
 10
11.0598285483
 20
9.001040784
 30
0.0
 10
11.0355428189
 20
9.0298464992
 30
0.0
 10
11.0133015338
 20
9.0602111664
 30
0.0
 10
10.9932233596
 20
9.0919730139
 30
0.0
 10
10.9754154163
 20
9.1249627862
 30
0.0
 10
10.9599727755
 20
9.1590046917
 30
0.0
 10
10.9469780127
 20
9.1939173441
 30
0.0
 10
10.9365006739
 20
9.2295146696
 30
0.0
 10
10.9285968924
 20
9.2656068982
 30
0.0
 10
10.9233091887
 20
9.3020015879
 30
0.0
 10
10.9206661859
 20
9.3385046138
 30
0.0
 10
10.920682344
 20
9.3749211814
 30
0.0
 10
10.9233580211
 20
9.4110569101
 30
0.0
 10
10.928679374
 20
9.4467186953
 30
0.0
 10
10.9366185473
 20
9.4817163012
 30
0.0
 10
10.9471328876
 20
9.5158613506
 30
0.0
 10
10.9580065619
 20
9.5434828215
 30
0.0
 10
10.9679291746
 20
9.5649624767
 30
0.0
 10
10.9759674617
 20
9.5807354599
 30
0.0
 10
10.9845970017
 20
9.5961626564
 30
0.0
 10
10.9938064404
 20
9.6112237353
 30
0.0
 10
11.0035834299
 20
9.625898491
 30
0.0
 10
11.0139148879
 20
9.6401673666
 30
0.0
 10
11.0247870555
 20
9.654011224
 30
0.0
 10
11.0361854435
 20
9.667411652
 30
0.0
 10
11.0480945415
 20
9.6803505236
 30
0.0
 10
11.0563647685
 20
9.6886580388
 30
0.0
 10
11.0605787267
 20
9.6927283997
 30
0.0
  0
SPLINE
  5
42B
100
AcDbEntity
  8
0
100
AcDbSpline
 62
4
  6
CONTINUOUS
 70
0
 71
3
 72
338
 73
334
 74
0
 42
0.0000001
 43
0.0000001
 44
0.0000000001
 40
0.0
 40
0.0
 40
0.0
 40
0.0
 40
0.015625
 40
0.0234375
 40
0.03125
 40
0.0390625
 40
0.04296875
 40
0.046875
 40
0.05078125
 40
0.0546875
 40
0.056640625
 40
0.05859375
 40
0.060546875
 40
0.0615234375
 40
0.0620117188
 40
0.0625
 40
0.0629882812
 40
0.0634765625
 40
0.064453125
 40
0.06640625
 40
0.068359375
 40
0.0703125
 40
0.07421875
 40
0.078125
 40
0.0859375
 40
0.09375
 40
0.1015625
 40
0.109375
 40
0.11328125
 40
0.1171875
 40
0.119140625
 40
0.12109375
 40
0.123046875
 40
0.1240234375
 40
0.1245117188
 40
0.125
 40
0.1254882812
 40
0.1259765625
 40
0.126953125
 40
0.12890625
 40
0.130859375
 40
0.1328125
 40
0.13671875
 40
0.140625
 40
0.1484375
 40
0.15625
 40
0.1640625
 40
0.16796875
 40
0.171875
 40
0.17578125
 40
0.1796875
 40
0.181640625
 40
0.18359375
 40
0.185546875
 40
0.1865234375
 40
0.1870117188
 40
0.1875
 40
0.1879882812
 40
0.1884765625
 40
0.189453125
 40
0.19140625
 40
0.193359375
 40
0.1953125
 40
0.19921875
 40
0.203125
 40
0.20703125
 40
0.2109375
 40
0.21875
 40
0.2265625
 40
0.234375
 40
0.23828125
 40
0.2421875
 40
0.244140625
 40
0.24609375
 40
0.248046875
 40
0.2490234375
 40
0.2495117188
 40
0.25
 40
0.2504882812
 40
0.2509765625
 40
0.251953125
 40
0.25390625
 40
0.255859375
 40
0.2578125
 40
0.26171875
 40
0.265625
 40
0.2734375
 40
0.28125
 40
0.2890625
 40
0.296875
 40
0.30078125
 40
0.3046875
 40
0.306640625
 40
0.30859375
 40
0.310546875
 40
0.3115234375
 40
0.3120117188
 40
0.3125
 40
0.3129882812
 40
0.3134765625
 40
0.314453125
 40
0.31640625
 40
0.318359375
 40
0.3203125
 40
0.32421875
 40
0.328125
 40
0.3359375
 40
0.34375
 40
0.3515625
 40
0.359375
 40
0.36328125
 40
0.3671875
 40
0.369140625
 40
0.37109375
 40
0.373046875
 40
0.3740234375
 40
0.3745117188
 40
0.375
 40
0.3754882812
 40
0.3759765625
 40
0.376953125
 40
0.37890625
 40
0.380859375
 40
0.3828125
 40
0.38671875
 40
0.390625
 40
0.3984375
 40
0.40625
 40
0.4140625
 40
0.41796875
 40
0.421875
 40
0.42578125
 40
0.4296875
 40
0.431640625
 40
0.43359375
 40
0.435546875
 40
0.4365234375
 40
0.4370117188
 40
0.4375
 40
0.4379882812
 40
0.4384765625
 40
0.439453125
 40
0.44140625
 40
0.443359375
 40
0.4453125
 40
0.44921875
 40
0.453125
 40
0.45703125
 40
0.4609375
 40
0.46875
 40
0.4765625
 40
0.48046875
 40
0.484375
 40
0.48828125
 40
0.4921875
 40
0.494140625
 40
0.49609375
 40
0.498046875
 40
0.4990234375
 40
0.4995117188
 40
0.5
 40
0.5004882812
 40
0.5009765625
 40
0.501953125
 40
0.50390625
 40
0.505859375
 40
0.5078125
 40
0.51171875
 40
0.515625
 40
0.51953125
 40
0.5234375
 40
0.53125
 40
0.5390625
 40
0.54296875
 40
0.546875
 40
0.55078125
 40
0.5546875
 40
0.556640625
 40
0.55859375
 40
0.560546875
 40
0.5615234375
 40
0.5620117188
 40
0.5625
 40
0.5629882812
 40
0.5634765625
 40
0.564453125
 40
0.56640625
 40
0.568359375
 40
0.5703125
 40
0.57421875
 40
0.578125
 40
0.58203125
 40
0.5859375
 40
0.59375
 40
0.6015625
 40
0.60546875
 40
0.609375
 40
0.61328125
 40
0.6171875
 40
0.619140625
 40
0.62109375
 40
0.623046875
 40
0.6240234375
 40
0.6245117188
 40
0.625
 40
0.6254882812
 40
0.6259765625
 40
0.626953125
 40
0.62890625
 40
0.630859375
 40
0.6328125
 40
0.63671875
 40
0.640625
 40
0.64453125
 40
0.6484375
 40
0.65625
 40
0.6640625
 40
0.66796875
 40
0.671875
 40
0.67578125
 40
0.6796875
 40
0.681640625
 40
0.68359375
 40
0.6845703125
 40
0.685546875
 40
0.6865234375
 40
0.6870117188
 40
0.6875
 40
0.6879882812
 40
0.6884765625
 40
0.689453125
 40
0.6904296875
 40
0.69140625
 40
0.693359375
 40
0.6953125
 40
0.69921875
 40
0.703125
 40
0.70703125
 40
0.7109375
 40
0.71875
 40
0.7265625
 40
0.73046875
 40
0.734375
 40
0.73828125
 40
0.7421875
 40
0.744140625
 40
0.74609375
 40
0.7470703125
 40
0.748046875
 40
0.7490234375
 40
0.7495117188
 40
0.75
 40
0.7504882812
 40
0.7509765625
 40
0.751953125
 40
0.7529296875
 40
0.75390625
 40
0.755859375
 40
0.7578125
 40
0.76171875
 40
0.765625
 40
0.76953125
 40
0.7734375
 40
0.78125
 40
0.7890625
 40
0.79296875
 40
0.796875
 40
0.80078125
 40
0.8046875
 40
0.806640625
 40
0.80859375
 40
0.810546875
 40
0.8115234375
 40
0.8120117188
 40
0.8125
 40
0.8129882812
 40
0.8134765625
 40
0.814453125
 40
0.81640625
 40
0.818359375
 40
0.8203125
 40
0.82421875
 40
0.828125
 40
0.83203125
 40
0.8359375
 40
0.84375
 40
0.8515625
 40
0.85546875
 40
0.859375
 40
0.86328125
 40
0.8671875
 40
0.869140625
 40
0.87109375
 40
0.873046875
 40
0.8740234375
 40
0.8745117188
 40
0.875
 40
0.8754882812
 40
0.8759765625
 40
0.876953125
 40
0.87890625
 40
0.880859375
 40
0.8828125
 40
0.88671875
 40
0.890625
 40
0.89453125
 40
0.8984375
 40
0.90625
 40
0.9140625
 40
0.91796875
 40
0.921875
 40
0.92578125
 40
0.9296875
 40
0.931640625
 40
0.93359375
 40
0.935546875
 40
0.9365234375
 40
0.9370117188
 40
0.9375
 40
0.9379882812
 40
0.9384765625
 40
0.939453125
 40
0.94140625
 40
0.943359375
 40
0.9453125
 40
0.94921875
 40
0.953125
 40
0.95703125
 40
0.9609375
 40
0.96875
 40
0.9765625
 40
0.984375
 40
1.0
 40
1.0
 40
1.0
 40
1.0
 10
9.5647215335
 20
7.7269288498
 30
0.0
 10
9.5650287452
 20
7.7237743577
 30
0.0
 10
9.5654895628
 20
7.7190426195
 30
0.0
 10
9.5661039859
 20
7.7127336353
 30
0.0
 10
9.5665648039
 20
7.7080018972
 30
0.0
 10
9.5669488169
 20
7.7040587818
 30
0.0
 10
9.5672560319
 20
7.7009042901
 30
0.0
 10
9.5674864304
 20
7.6985384197
 30
0.0
 10
9.5677168776
 20
7.6961725556
 30
0.0
 10
9.5679087652
 20
7.6942009826
 30
0.0
 10
9.5680626152
 20
7.6926237679
 30
0.0
 10
9.5681770737
 20
7.6914407374
 30
0.0
 10
9.5682754111
 20
7.6904552589
 30
0.0
 10
9.5683384475
 20
7.6897646778
 30
0.0
 10
9.5683835241
 20
7.689371225
 30
0.0
 10
9.5683918214
 20
7.6890728535
 30
0.0
 10
9.5684976315
 20
7.6887870274
 30
0.0
 10
9.568604698
 20
7.68840155
 30
0.0
 10
9.568807912
 20
7.6877290034
 30
0.0
 10
9.5690899325
 20
7.6867671567
 30
0.0
 10
9.5694319034
 20
7.6856133968
 30
0.0
 10
9.569886626
 20
7.6840748909
 30
0.0
 10
9.5704554533
 20
7.6821518132
 30
0.0
 10
9.5713653399
 20
7.6790748583
 30
0.0
 10
9.57250278
 20
7.6752286752
 30
0.0
 10
9.5738676708
 20
7.6706132503
 30
0.0
 10
9.5752325799
 20
7.6659978296
 30
0.0
 10
9.5763699745
 20
7.662151636
 30
0.0
 10
9.577279952
 20
7.6590747022
 30
0.0
 10
9.5778485483
 20
7.6571515707
 30
0.0
 10
9.5783037451
 20
7.6556131752
 30
0.0
 10
9.5786442671
 20
7.6544590783
 30
0.0
 10
9.5789308208
 20
7.6534982858
 30
0.0
 10
9.5791259422
 20
7.6528238572
 30
0.0
 10
9.5792459752
 20
7.6524413953
 30
0.0
 10
9.5793119567
 20
7.6521463065
 30
0.0
 10
9.5794698436
 20
7.6518827246
 30
0.0
 10
9.5796483018
 20
7.6515202921
 30
0.0
 10
9.5799755399
 20
7.6508911557
 30
0.0
 10
9.5804352142
 20
7.6499897124
 30
0.0
 10
9.5809901657
 20
7.6489091263
 30
0.0
 10
9.5817289336
 20
7.6474679446
 30
0.0
 10
9.5826527932
 20
7.6456666045
 30
0.0
 10
9.5841307453
 20
7.6427843837
 30
0.0
 10
9.5859782618
 20
7.639181634
 30
0.0
 10
9.5881952494
 20
7.6348583234
 30
0.0
 10
9.5900427446
 20
7.6312555662
 30
0.0
 10
9.5915207435
 20
7.6283733619
 30
0.0
 10
9.5926292312
 20
7.6262117033
 30
0.0
 10
9.5937377634
 20
7.6240500658
 30
0.0
 10
9.5946614014
 20
7.6222486352
 30
0.0
 10
9.5954006229
 20
7.6208076385
 30
0.0
 10
9.5959541889
 20
7.6197264873
 30
0.0
 10
9.5964181981
 20
7.618826812
 30
0.0
 10
9.5967376976
 20
7.6181945194
 30
0.0
 10
9.5969285551
 20
7.617837144
 30
0.0
 10
9.5970483554
 20
7.6175580283
 30
0.0
 10
9.5972573836
 20
7.6173212821
 30
0.0
 10
9.5975049641
 20
7.6169908416
 30
0.0
 10
9.5979527312
 20
7.6164194564
 30
0.0
 10
9.5985848171
 20
7.615599592
 30
0.0
 10
9.5993465652
 20
7.6146172955
 30
0.0
 10
9.6003610958
 20
7.6133070287
 30
0.0
 10
9.6016296481
 20
7.6116693798
 30
0.0
 10
9.6031517441
 20
7.6097041221
 30
0.0
 10
9.6046738846
 20
7.6077388854
 30
0.0
 10
9.6067033899
 20
7.6051185627
 30
0.0
 10
9.6092402756
 20
7.6018431603
 30
0.0
 10
9.6122845424
 20
7.5979126835
 30
0.0
 10
9.6148214125
 20
7.5946372645
 30
0.0
 10
9.616850952
 20
7.5920169783
 30
0.0
 10
9.6181193151
 20
7.5903791879
 30
0.0
 10
9.6191342326
 20
7.5890692108
 30
0.0
 10
9.6198947992
 20
7.5880860293
 30
0.0
 10
9.6205305817
 20
7.5872689342
 30
0.0
 10
9.6209717496
 20
7.5866926053
 30
0.0
 10
9.6212299038
 20
7.5863700859
 30
0.0
 10
9.6214064531
 20
7.5861090085
 30
0.0
 10
9.6216482385
 20
7.5859212767
 30
0.0
 10
9.621947864
 20
7.5856453838
 30
0.0
 10
9.6224828106
 20
7.5851744913
 30
0.0
 10
9.6232414772
 20
7.5844955557
 30
0.0
 10
9.6241542497
 20
7.5836835005
 30
0.0
 10
9.6253704509
 20
7.5825998286
 30
0.0
 10
9.6268909862
 20
7.5812455577
 30
0.0
 10
9.6293236841
 20
7.5790785459
 30
0.0
 10
9.6323646112
 20
7.5763698428
 30
0.0
 10
9.6360136988
 20
7.5731193707
 30
0.0
 10
9.6396627981
 20
7.5698689132
 30
0.0
 10
9.6427036962
 20
7.5671601736
 30
0.0
 10
9.645136452
 20
7.5649932348
 30
0.0
 10
9.6466568402
 20
7.5636387783
 30
0.0
 10
9.6478733433
 20
7.5625554872
 30
0.0
 10
9.6487851937
 20
7.5617422685
 30
0.0
 10
9.649546745
 20
7.5610669735
 30
0.0
 10
9.650076542
 20
7.560589582
 30
0.0
 10
9.6503844185
 20
7.560324102
 30
0.0
 10
9.6506008593
 20
7.5601043852
 30
0.0
 10
9.6508725991
 20
7.5599634382
 30
0.0
 10
9.6512156299
 20
7.559748033
 30
0.0
 10
9.651824921
 20
7.5593838755
 30
0.0
 10
9.6526906382
 20
7.5588569578
 30
0.0
 10
9.65373151
 20
7.5582275212
 30
0.0
 10
9.6551186366
 20
7.5573872718
 30
0.0
 10
9.6568527855
 20
7.5563373027
 30
0.0
 10
9.6596272891
 20
7.5546571605
 30
0.0
 10
9.663095465
 20
7.552557049
 30
0.0
 10
9.6672572553
 20
7.5500368847
 30
0.0
 10
9.6714190546
 20
7.5475167366
 30
0.0
 10
9.674887208
 20
7.5454165848
 30
0.0
 10
9.6776617565
 20
7.5437365232
 30
0.0
 10
9.6793957913
 20
7.5426863493
 30
0.0
 10
9.680783152
 20
7.5418465202
 30
0.0
 10
9.6818233086
 20
7.5412157994
 30
0.0
 10
9.6826912636
 20
7.5406928997
 30
0.0
 10
9.6832965599
 20
7.5403215692
 30
0.0
 10
9.6836459912
 20
7.540117657
 30
0.0
 10
9.6838980709
 20
7.5399414074
 30
0.0
 10
9.6841883519
 20
7.5398542812
 30
0.0
 10
9.6845620681
 20
7.5397070257
 30
0.0
 10
9.68522228
 20
7.5394638127
 30
0.0
 10
9.6861621939
 20
7.5391087931
 30
0.0
 10
9.6872914799
 20
7.5386860107
 30
0.0
 10
9.6887967094
 20
7.5381211689
 30
0.0
 10
9.6906784123
 20
7.5374155042
 30
0.0
 10
9.6936890442
 20
7.5362862241
 30
0.0
 10
9.6974523659
 20
7.5348746981
 30
0.0
 10
9.7019683384
 20
7.5331808357
 30
0.0
 10
9.7057316513
 20
7.531769289
 30
0.0
 10
9.7087423024
 20
7.5306400546
 30
0.0
 10
9.711000287
 20
7.5297931165
 30
0.0
 10
9.713258286
 20
7.5289462261
 30
0.0
 10
9.7151399071
 20
7.5282403355
 30
0.0
 10
9.7166453042
 20
7.5276759558
 30
0.0
 10
9.717774078
 20
7.5272517618
 30
0.0
 10
9.7187155945
 20
7.5269011591
 30
0.0
 10
9.7193729455
 20
7.5266500611
 30
0.0
 10
9.7197512454
 20
7.5265154393
 30
0.0
 10
9.7200274469
 20
7.5263895064
 30
0.0
 10
9.7203324067
 20
7.5263590081
 30
0.0
 10
9.7207289884
 20
7.5262850551
 30
0.0
 10
9.7214276802
 20
7.5261711471
 30
0.0
 10
9.7224233679
 20
7.5260003126
 30
0.0
 10
9.723619239
 20
7.5257987821
 30
0.0
 10
9.7252133685
 20
7.5255288624
 30
0.0
 10
9.7272061557
 20
7.5251918787
 30
0.0
 10
9.7295974467
 20
7.5247873199
 30
0.0
 10
9.7319887519
 20
7.5243828089
 30
0.0
 10
9.735177154
 20
7.5238434441
 30
0.0
 10
9.7391626582
 20
7.5231692445
 30
0.0
 10
9.743148162
 20
7.5224950405
 30
0.0
 10
9.7463365647
 20
7.5219556826
 30
0.0
 10
9.7487278679
 20
7.5215511508
 30
0.0
 10
9.7511191667
 20
7.5211466699
 30
0.0
 10
9.7531119296
 20
7.520809444
 30
0.0
 10
9.7547061087
 20
7.5205400183
 30
0.0
 10
9.7559018282
 20
7.520336979
 30
0.0
 10
9.7568979903
 20
7.5201708651
 30
0.0
 10
9.7575958351
 20
7.5200485301
 30
0.0
 10
9.757993774
 20
7.5199880792
 30
0.0
 10
9.7582945652
 20
7.5199161066
 30
0.0
 10
9.758586423
 20
7.5199459445
 30
0.0
 10
9.7589786829
 20
7.5199502157
 30
0.0
 10
9.7596636859
 20
7.5199742364
 30
0.0
 10
9.7606430206
 20
7.5199999012
 30
0.0
 10
9.7618178974
 20
7.5200344016
 30
0.0
 10
9.7633845132
 20
7.5200791088
 30
0.0
 10
9.7653427441
 20
7.5201354366
 30
0.0
 10
9.7676926378
 20
7.5202028398
 30
0.0
 10
9.770042527
 20
7.5202702938
 30
0.0
 10
9.7731757143
 20
7.5203602146
 30
0.0
 10
9.7770921977
 20
7.5204726224
 30
0.0
 10
9.7810086817
 20
7.5205850257
 30
0.0
 10
9.7841418679
 20
7.5206749536
 30
0.0
 10
9.7864917602
 20
7.5207423865
 30
0.0
 10
9.7888416427
 20
7.5208098688
 30
0.0
 10
9.7907999083
 20
7.5208659502
 30
0.0
 10
9.7923664534
 20
7.52091116
 30
0.0
 10
9.7935415461
 20
7.5209441255
 30
0.0
 10
9.794520205
 20
7.5209745926
 30
0.0
 10
9.7952064145
 20
7.5209900403
 30
0.0
 10
9.7955967412
 20
7.5210080476
 30
0.0
 10
9.7958945373
 20
7.5209956926
 30
0.0
 10
9.7961730254
 20
7.5210821895
 30
0.0
 10
9.7965510777
 20
7.5211630381
 30
0.0
 10
9.7972095313
 20
7.5213205882
 30
0.0
 10
9.7981518199
 20
7.5215372607
 30
0.0
 10
9.799281864
 20
7.5218008628
 30
0.0
 10
9.8007888348
 20
7.5221510765
 30
0.0
 10
9.8026724641
 20
7.5225892745
 30
0.0
 10
9.8049328553
 20
7.5231149274
 30
0.0
 10
9.8071932369
 20
7.5236406297
 30
0.0
 10
9.8102070824
 20
7.5243415488
 30
0.0
 10
9.8139743879
 20
7.5252177041
 30
0.0
 10
9.8177416946
 20
7.5260938552
 30
0.0
 10
9.8207555381
 20
7.526794781
 30
0.0
 10
9.8230159257
 20
7.527320463
 30
0.0
 10
9.8252762943
 20
7.5278461922
 30
0.0
 10
9.8271599938
 20
7.5282841527
 30
0.0
 10
9.8286668214
 20
7.5286348508
 30
0.0
 10
9.8297973029
 20
7.5288969736
 30
0.0
 10
9.8307382228
 20
7.5291182743
 30
0.0
 10
9.8313991198
 20
7.5292675623
 30
0.0
 10
9.8317732573
 20
7.5293616488
 30
0.0
 10
9.8320637704
 20
7.5294074831
 30
0.0
 10
9.8323164027
 20
7.5295478499
 30
0.0
 10
9.8326664591
 20
7.5297020316
 30
0.0
 10
9.8332729014
 20
7.5299872129
 30
0.0
 10
9.8341424662
 20
7.5303865826
 30
0.0
 10
9.8351845663
 20
7.5308692642
 30
0.0
 10
9.8365745143
 20
7.5315116388
 30
0.0
 10
9.8383117842
 20
7.5323150192
 30
0.0
 10
9.8403965789
 20
7.5332788989
 30
0.0
 10
9.8424813546
 20
7.5342428259
 30
0.0
 10
9.8452610622
 20
7.5355280454
 30
0.0
 10
9.8487356945
 20
7.5371345754
 30
0.0
 10
9.8522103273
 20
7.5387411038
 30
0.0
 10
9.854990034
 20
7.5400263257
 30
0.0
 10
9.8570748123
 20
7.5409902454
 30
0.0
 10
9.8591595972
 20
7.5419541526
 30
0.0
 10
9.8608968975
 20
7.5427574475
 30
0.0
 10
9.8622867835
 20
7.5433999963
 30
0.0
 10
9.8631553581
 20
7.5438017878
 30
0.0
 10
9.8638504562
 20
7.5441227664
 30
0.0
 10
9.8643711271
 20
7.5443647449
 30
0.0
 10
9.8648070957
 20
7.5445624345
 30
0.0
 10
9.8651512141
 20
7.5447294659
 30
0.0
 10
9.8654220269
 20
7.5448304757
 30
0.0
 10
9.8656442716
 20
7.5450241008
 30
0.0
 10
9.8659575634
 20
7.5452499159
 30
0.0
 10
9.8663433574
 20
7.5455432844
 30
0.0
 10
9.8668088017
 20
7.5458905756
 30
0.0
 10
9.8674285238
 20
7.54635529
 30
0.0
 10
9.8682034744
 20
7.5469356147
 30
0.0
 10
9.8694432288
 20
7.5478644519
 30
0.0
 10
9.870992979
 20
7.5490253895
 30
0.0
 10
9.8728526548
 20
7.5504185612
 30
0.0
 10
9.874712337
 20
7.5518117205
 30
0.0
 10
9.8771919111
 20
7.5536692705
 30
0.0
 10
9.8802913796
 20
7.5559912065
 30
0.0
 10
9.8833908474
 20
7.5583131434
 30
0.0
 10
9.8858704227
 20
7.5601706919
 30
0.0
 10
9.8877301014
 20
7.5615638558
 30
0.0
 10
9.8895897906
 20
7.5629570101
 30
0.0
 10
9.8911394989
 20
7.5641180018
 30
0.0
 10
9.8923793388
 20
7.5650467286
 30
0.0
 10
9.8931540718
 20
7.5656273343
 30
0.0
 10
9.8937742405
 20
7.566091472
 30
0.0
 10
9.8942383204
 20
7.5664405248
 30
0.0
 10
9.8946283832
 20
7.5667283818
 30
0.0
 10
9.8949329658
 20
7.5669654414
 30
0.0
 10
9.8951818079
 20
7.5671247264
 30
0.0
 10
9.8953527634
 20
7.5673546631
 30
0.0
 10
9.8956079109
 20
7.5676365658
 30
0.0
 10
9.8959175107
 20
7.5679974116
 30
0.0
 10
9.896293026
 20
7.5684268022
 30
0.0
 10
9.8967923175
 20
7.569000589
 30
0.0
 10
9.8974169097
 20
7.569717389
 30
0.0
 10
9.8984159902
 20
7.5708645112
 30
0.0
 10
9.8996649324
 20
7.5722983308
 30
0.0
 10
9.9011636238
 20
7.5740189501
 30
0.0
 10
9.9026623257
 20
7.5757395598
 30
0.0
 10
9.9046605913
 20
7.5780337093
 30
0.0
 10
9.9071584241
 20
7.5809013955
 30
0.0
 10
9.9096562582
 20
7.5837690807
 30
0.0
 10
9.9116545217
 20
7.5860632317
 30
0.0
 10
9.9131532301
 20
7.587783837
 30
0.0
 10
9.9146518972
 20
7.5895044728
 30
0.0
 10
9.915900915
 20
7.5909382409
 30
0.0
 10
9.9168998413
 20
7.5920854682
 30
0.0
 10
9.917649823
 20
7.5929453072
 30
0.0
 10
9.9182723042
 20
7.5936636893
 30
0.0
 10
9.9187129542
 20
7.5941629271
 30
0.0
 10
9.9189570828
 20
7.5944538733
 30
0.0
 10
9.9191617895
 20
7.5946561176
 30
0.0
 10
9.9192838912
 20
7.5949193896
 30
0.0
 10
9.9194755071
 20
7.5952491318
 30
0.0
 10
9.9197974101
 20
7.5958360988
 30
0.0
 10
9.9202642902
 20
7.5966694378
 30
0.0
 10
9.9208215421
 20
7.5976716641
 30
0.0
 10
9.921565594
 20
7.5990071905
 30
0.0
 10
9.9224952988
 20
7.6006768645
 30
0.0
 10
9.9236110989
 20
7.6026803593
 30
0.0
 10
9.9247268578
 20
7.6046838846
 30
0.0
 10
9.9262145507
 20
7.607355241
 30
0.0
 10
9.9280741614
 20
7.6106944404
 30
0.0
 10
9.9299337759
 20
7.6140336375
 30
0.0
 10
9.9314214627
 20
7.6167049976
 30
0.0
 10
9.9325372398
 20
7.6187085118
 30
0.0
 10
9.9336529711
 20
7.6207120483
 30
0.0
 10
9.9345828901
 20
7.6223815926
 30
0.0
 10
9.9353265053
 20
7.6237173835
 30
0.0
 10
9.935885091
 20
7.624718802
 30
0.0
 10
9.9363477978
 20
7.6255546681
 30
0.0
 10
9.9366771508
 20
7.6261371238
 30
0.0
 10
9.9368568299
 20
7.6264740943
 30
0.0
 10
9.9370155977
 20
7.6267151634
 30
0.0
 10
9.9370825929
 20
7.6270007983
 30
0.0
 10
9.9372039311
 20
7.6273660997
 30
0.0
 10
9.9374013582
 20
7.6280126199
 30
0.0
 10
9.9376911946
 20
7.6289324336
 30
0.0
 10
9.9380356607
 20
7.6300378308
 30
0.0
 10
9.9384961146
 20
7.6315111276
 30
0.0
 10
9.939071282
 20
7.6333529429
 30
0.0
 10
9.9397616543
 20
7.635563038
 30
0.0
 10
9.9404519807
 20
7.6377731553
 30
0.0
 10
9.9413724321
 20
7.6407199707
 30
0.0
 10
9.9425229902
 20
7.6444034927
 30
0.0
 10
9.9436735525
 20
7.648087013
 30
0.0
 10
9.9445939972
 20
7.6510338311
 30
0.0
 10
9.9452843436
 20
7.6532439401
 30
0.0
 10
9.9459746412
 20
7.6554540667
 30
0.0
 10
9.946550041
 20
7.6572957837
 30
0.0
 10
9.947010021
 20
7.6587692811
 30
0.0
 10
9.9473559343
 20
7.6598740657
 30
0.0
 10
9.9476412426
 20
7.660795796
 30
0.0
 10
9.9478467532
 20
7.6614388948
 30
0.0
 10
9.9479551398
 20
7.6618096781
 30
0.0
 10
9.948061918
 20
7.6620784745
 30
0.0
 10
9.9480712673
 20
7.662382786
 30
0.0
 10
9.9481177173
 20
7.6627761466
 30
0.0
 10
9.9481831708
 20
7.6634702995
 30
0.0
 10
9.9482849541
 20
7.664458929
 30
0.0
 10
9.9484035507
 20
7.6656465759
 30
0.0
 10
9.9485629172
 20
7.667229654
 30
0.0
 10
9.9487617006
 20
7.6692086564
 30
0.0
 10
9.9490004228
 20
7.6715833929
 30
0.0
 10
9.9492390962
 20
7.6739581472
 30
0.0
 10
9.9495573445
 20
7.6771244801
 30
0.0
 10
9.949955149
 20
7.6810823983
 30
0.0
 10
9.9504325169
 20
7.6858318992
 30
0.0
 10
9.9510690066
 20
7.6921645674
 30
0.0
 10
9.9515463741
 20
7.6969140685
 30
0.0
 10
9.951864619
 20
7.7000804026
 30
0.0
  0
SPLINE
  5
42C
100
AcDbEntity
  8
0
100
AcDbSpline
 62
4
  6
CONTINUOUS
 70
0
 71
3
 72
338
 73
334
 74
0
 42
0.0000001
 43
0.0000001
 44
0.0000000001
 40
0.0
 40
0.0
 40
0.0
 40
0.0
 40
0.015625
 40
0.0234375
 40
0.03125
 40
0.0390625
 40
0.04296875
 40
0.046875
 40
0.05078125
 40
0.0546875
 40
0.056640625
 40
0.05859375
 40
0.060546875
 40
0.0615234375
 40
0.0620117188
 40
0.0625
 40
0.0629882812
 40
0.0634765625
 40
0.064453125
 40
0.06640625
 40
0.068359375
 40
0.0703125
 40
0.07421875
 40
0.078125
 40
0.0859375
 40
0.09375
 40
0.1015625
 40
0.109375
 40
0.11328125
 40
0.1171875
 40
0.119140625
 40
0.12109375
 40
0.123046875
 40
0.1240234375
 40
0.1245117188
 40
0.125
 40
0.1254882812
 40
0.1259765625
 40
0.126953125
 40
0.12890625
 40
0.130859375
 40
0.1328125
 40
0.13671875
 40
0.140625
 40
0.1484375
 40
0.15625
 40
0.1640625
 40
0.16796875
 40
0.171875
 40
0.17578125
 40
0.1796875
 40
0.181640625
 40
0.18359375
 40
0.185546875
 40
0.1865234375
 40
0.1870117188
 40
0.1875
 40
0.1879882812
 40
0.1884765625
 40
0.189453125
 40
0.19140625
 40
0.193359375
 40
0.1953125
 40
0.19921875
 40
0.203125
 40
0.20703125
 40
0.2109375
 40
0.21875
 40
0.2265625
 40
0.234375
 40
0.23828125
 40
0.2421875
 40
0.244140625
 40
0.24609375
 40
0.248046875
 40
0.2490234375
 40
0.2495117188
 40
0.25
 40
0.2504882812
 40
0.2509765625
 40
0.251953125
 40
0.25390625
 40
0.255859375
 40
0.2578125
 40
0.26171875
 40
0.265625
 40
0.2734375
 40
0.28125
 40
0.2890625
 40
0.296875
 40
0.30078125
 40
0.3046875
 40
0.306640625
 40
0.30859375
 40
0.310546875
 40
0.3115234375
 40
0.3120117188
 40
0.3125
 40
0.3129882812
 40
0.3134765625
 40
0.314453125
 40
0.31640625
 40
0.318359375
 40
0.3203125
 40
0.32421875
 40
0.328125
 40
0.3359375
 40
0.34375
 40
0.3515625
 40
0.359375
 40
0.36328125
 40
0.3671875
 40
0.369140625
 40
0.37109375
 40
0.373046875
 40
0.3740234375
 40
0.3745117188
 40
0.375
 40
0.3754882812
 40
0.3759765625
 40
0.376953125
 40
0.37890625
 40
0.380859375
 40
0.3828125
 40
0.38671875
 40
0.390625
 40
0.3984375
 40
0.40625
 40
0.4140625
 40
0.41796875
 40
0.421875
 40
0.42578125
 40
0.4296875
 40
0.431640625
 40
0.43359375
 40
0.435546875
 40
0.4365234375
 40
0.4370117188
 40
0.4375
 40
0.4379882812
 40
0.4384765625
 40
0.439453125
 40
0.44140625
 40
0.443359375
 40
0.4453125
 40
0.44921875
 40
0.453125
 40
0.45703125
 40
0.4609375
 40
0.46875
 40
0.4765625
 40
0.48046875
 40
0.484375
 40
0.48828125
 40
0.4921875
 40
0.494140625
 40
0.49609375
 40
0.498046875
 40
0.4990234375
 40
0.4995117188
 40
0.5
 40
0.5004882812
 40
0.5009765625
 40
0.501953125
 40
0.50390625
 40
0.505859375
 40
0.5078125
 40
0.51171875
 40
0.515625
 40
0.51953125
 40
0.5234375
 40
0.53125
 40
0.5390625
 40
0.54296875
 40
0.546875
 40
0.55078125
 40
0.5546875
 40
0.556640625
 40
0.55859375
 40
0.560546875
 40
0.5615234375
 40
0.5620117188
 40
0.5625
 40
0.5629882812
 40
0.5634765625
 40
0.564453125
 40
0.56640625
 40
0.568359375
 40
0.5703125
 40
0.57421875
 40
0.578125
 40
0.58203125
 40
0.5859375
 40
0.59375
 40
0.6015625
 40
0.60546875
 40
0.609375
 40
0.61328125
 40
0.6171875
 40
0.619140625
 40
0.62109375
 40
0.623046875
 40
0.6240234375
 40
0.6245117188
 40
0.625
 40
0.6254882812
 40
0.6259765625
 40
0.626953125
 40
0.62890625
 40
0.630859375
 40
0.6328125
 40
0.63671875
 40
0.640625
 40
0.64453125
 40
0.6484375
 40
0.65625
 40
0.6640625
 40
0.66796875
 40
0.671875
 40
0.67578125
 40
0.6796875
 40
0.681640625
 40
0.68359375
 40
0.6845703125
 40
0.685546875
 40
0.6865234375
 40
0.6870117188
 40
0.6875
 40
0.6879882812
 40
0.6884765625
 40
0.689453125
 40
0.6904296875
 40
0.69140625
 40
0.693359375
 40
0.6953125
 40
0.69921875
 40
0.703125
 40
0.70703125
 40
0.7109375
 40
0.71875
 40
0.7265625
 40
0.73046875
 40
0.734375
 40
0.73828125
 40
0.7421875
 40
0.744140625
 40
0.74609375
 40
0.7470703125
 40
0.748046875
 40
0.7490234375
 40
0.7495117188
 40
0.75
 40
0.7504882812
 40
0.7509765625
 40
0.751953125
 40
0.7529296875
 40
0.75390625
 40
0.755859375
 40
0.7578125
 40
0.76171875
 40
0.765625
 40
0.76953125
 40
0.7734375
 40
0.78125
 40
0.7890625
 40
0.79296875
 40
0.796875
 40
0.80078125
 40
0.8046875
 40
0.806640625
 40
0.80859375
 40
0.810546875
 40
0.8115234375
 40
0.8120117188
 40
0.8125
 40
0.8129882812
 40
0.8134765625
 40
0.814453125
 40
0.81640625
 40
0.818359375
 40
0.8203125
 40
0.82421875
 40
0.828125
 40
0.83203125
 40
0.8359375
 40
0.84375
 40
0.8515625
 40
0.85546875
 40
0.859375
 40
0.86328125
 40
0.8671875
 40
0.869140625
 40
0.87109375
 40
0.873046875
 40
0.8740234375
 40
0.8745117188
 40
0.875
 40
0.8754882812
 40
0.8759765625
 40
0.876953125
 40
0.87890625
 40
0.880859375
 40
0.8828125
 40
0.88671875
 40
0.890625
 40
0.89453125
 40
0.8984375
 40
0.90625
 40
0.9140625
 40
0.91796875
 40
0.921875
 40
0.92578125
 40
0.9296875
 40
0.931640625
 40
0.93359375
 40
0.935546875
 40
0.9365234375
 40
0.9370117188
 40
0.9375
 40
0.9379882812
 40
0.9384765625
 40
0.939453125
 40
0.94140625
 40
0.943359375
 40
0.9453125
 40
0.94921875
 40
0.953125
 40
0.95703125
 40
0.9609375
 40
0.96875
 40
0.9765625
 40
0.984375
 40
1.0
 40
1.0
 40
1.0
 40
1.0
 10
9.951864619
 20
7.7000803857
 30
0.0
 10
9.9515574073
 20
7.7032348778
 30
0.0
 10
9.9510965898
 20
7.7079666159
 30
0.0
 10
9.9504821666
 20
7.7142756002
 30
0.0
 10
9.9500213486
 20
7.7190073383
 30
0.0
 10
9.9496373357
 20
7.7229504537
 30
0.0
 10
9.9493301207
 20
7.7261049454
 30
0.0
 10
9.9490997222
 20
7.7284708158
 30
0.0
 10
9.9488692749
 20
7.7308366799
 30
0.0
 10
9.9486773874
 20
7.7328082529
 30
0.0
 10
9.9485235373
 20
7.7343854675
 30
0.0
 10
9.9484090789
 20
7.735568498
 30
0.0
 10
9.9483107415
 20
7.7365539766
 30
0.0
 10
9.948247705
 20
7.7372445577
 30
0.0
 10
9.9482026284
 20
7.7376380104
 30
0.0
 10
9.9481943312
 20
7.737936382
 30
0.0
 10
9.9480885211
 20
7.738222208
 30
0.0
 10
9.9479814545
 20
7.7386076854
 30
0.0
 10
9.9477782405
 20
7.739280232
 30
0.0
 10
9.9474962201
 20
7.7402420788
 30
0.0
 10
9.9471542491
 20
7.7413958387
 30
0.0
 10
9.9466995266
 20
7.7429343445
 30
0.0
 10
9.9461306993
 20
7.7448574223
 30
0.0
 10
9.9452208127
 20
7.7479343772
 30
0.0
 10
9.9440833726
 20
7.7517805602
 30
0.0
 10
9.9427184817
 20
7.7563959852
 30
0.0
 10
9.9413535727
 20
7.7610114059
 30
0.0
 10
9.940216178
 20
7.7648575995
 30
0.0
 10
9.9393062005
 20
7.7679345333
 30
0.0
 10
9.9387376043
 20
7.7698576647
 30
0.0
 10
9.9382824075
 20
7.7713960603
 30
0.0
 10
9.9379418854
 20
7.7725501572
 30
0.0
 10
9.9376553317
 20
7.7735109496
 30
0.0
 10
9.9374602103
 20
7.7741853783
 30
0.0
 10
9.9373401774
 20
7.7745678401
 30
0.0
 10
9.9372741959
 20
7.774862929
 30
0.0
 10
9.937116309
 20
7.7751265109
 30
0.0
 10
9.9369378508
 20
7.7754889434
 30
0.0
 10
9.9366106126
 20
7.7761180798
 30
0.0
 10
9.9361509384
 20
7.7770195231
 30
0.0
 10
9.9355959869
 20
7.7781001092
 30
0.0
 10
9.9348572189
 20
7.7795412909
 30
0.0
 10
9.9339333593
 20
7.781342631
 30
0.0
 10
9.9324554073
 20
7.7842248517
 30
0.0
 10
9.9306078908
 20
7.7878276014
 30
0.0
 10
9.9283909032
 20
7.7921509121
 30
0.0
 10
9.926543408
 20
7.7957536693
 30
0.0
 10
9.9250654091
 20
7.7986358735
 30
0.0
 10
9.9239569214
 20
7.8007975322
 30
0.0
 10
9.9228483891
 20
7.8029591697
 30
0.0
 10
9.9219247512
 20
7.8047606003
 30
0.0
 10
9.9211855297
 20
7.806201597
 30
0.0
 10
9.9206319637
 20
7.8072827482
 30
0.0
 10
9.9201679545
 20
7.8081824235
 30
0.0
 10
9.919848455
 20
7.8088147161
 30
0.0
 10
9.9196575975
 20
7.8091720915
 30
0.0
 10
9.9195377971
 20
7.8094512072
 30
0.0
 10
9.919328769
 20
7.8096879534
 30
0.0
 10
9.9190811884
 20
7.8100183939
 30
0.0
 10
9.9186334214
 20
7.810589779
 30
0.0
 10
9.9180013355
 20
7.8114096435
 30
0.0
 10
9.9172395873
 20
7.8123919399
 30
0.0
 10
9.9162250567
 20
7.8137022068
 30
0.0
 10
9.9149565045
 20
7.8153398556
 30
0.0
 10
9.9134344085
 20
7.8173051134
 30
0.0
 10
9.9119122679
 20
7.8192703501
 30
0.0
 10
9.9098827626
 20
7.8218906728
 30
0.0
 10
9.907345877
 20
7.8251660752
 30
0.0
 10
9.9043016101
 20
7.829096552
 30
0.0
 10
9.90176474
 20
7.8323719709
 30
0.0
 10
9.8997352005
 20
7.8349922572
 30
0.0
 10
9.8984668374
 20
7.8366300476
 30
0.0
 10
9.89745192
 20
7.8379400246
 30
0.0
 10
9.8966913534
 20
7.8389232062
 30
0.0
 10
9.8960555708
 20
7.8397403013
 30
0.0
 10
9.895614403
 20
7.8403166302
 30
0.0
 10
9.8953562488
 20
7.8406391496
 30
0.0
 10
9.8951796995
 20
7.840900227
 30
0.0
 10
9.894937914
 20
7.8410879588
 30
0.0
 10
9.8946382886
 20
7.8413638517
 30
0.0
 10
9.8941033419
 20
7.8418347442
 30
0.0
 10
9.8933446753
 20
7.8425136797
 30
0.0
 10
9.8924319029
 20
7.8433257349
 30
0.0
 10
9.8912157016
 20
7.8444094069
 30
0.0
 10
9.8896951663
 20
7.8457636778
 30
0.0
 10
9.8872624685
 20
7.8479306896
 30
0.0
 10
9.8842215414
 20
7.8506393927
 30
0.0
 10
9.8805724537
 20
7.8538898648
 30
0.0
 10
9.8769233545
 20
7.8571403222
 30
0.0
 10
9.8738824563
 20
7.8598490619
 30
0.0
 10
9.8714497006
 20
7.8620160007
 30
0.0
 10
9.8699293123
 20
7.8633704571
 30
0.0
 10
9.8687128093
 20
7.8644537482
 30
0.0
 10
9.8678009588
 20
7.865266967
 30
0.0
 10
9.8670394075
 20
7.865942262
 30
0.0
 10
9.8665096106
 20
7.8664196535
 30
0.0
 10
9.866201734
 20
7.8666851335
 30
0.0
 10
9.8659852933
 20
7.8669048503
 30
0.0
 10
9.8657135535
 20
7.8670457973
 30
0.0
 10
9.8653705226
 20
7.8672612024
 30
0.0
 10
9.8647612316
 20
7.8676253599
 30
0.0
 10
9.8638955143
 20
7.8681522777
 30
0.0
 10
9.8628546425
 20
7.8687817143
 30
0.0
 10
9.8614675159
 20
7.8696219637
 30
0.0
 10
9.8597333671
 20
7.8706719328
 30
0.0
 10
9.8569588635
 20
7.872352075
 30
0.0
 10
9.8534906876
 20
7.8744521865
 30
0.0
 10
9.8493288973
 20
7.8769723507
 30
0.0
 10
9.845167098
 20
7.8794924989
 30
0.0
 10
9.8416989445
 20
7.8815926507
 30
0.0
 10
9.838924396
 20
7.8832727123
 30
0.0
 10
9.8371903613
 20
7.8843228862
 30
0.0
 10
9.8358030005
 20
7.8851627152
 30
0.0
 10
9.8347628439
 20
7.8857934361
 30
0.0
 10
9.833894889
 20
7.8863163357
 30
0.0
 10
9.8332895926
 20
7.8866876662
 30
0.0
 10
9.8329401613
 20
7.8868915784
 30
0.0
 10
9.8326880816
 20
7.887067828
 30
0.0
 10
9.8323978007
 20
7.8871549542
 30
0.0
 10
9.8320240844
 20
7.8873022097
 30
0.0
 10
9.8313638726
 20
7.8875454228
 30
0.0
 10
9.8304239587
 20
7.8879004424
 30
0.0
 10
9.8292946726
 20
7.8883232247
 30
0.0
 10
9.8277894432
 20
7.8888880666
 30
0.0
 10
9.8259077402
 20
7.8895937313
 30
0.0
 10
9.8228971084
 20
7.8907230114
 30
0.0
 10
9.8191337867
 20
7.8921345374
 30
0.0
 10
9.8146178142
 20
7.8938283998
 30
0.0
 10
9.8108545012
 20
7.8952399465
 30
0.0
 10
9.8078438502
 20
7.8963691809
 30
0.0
 10
9.8055858655
 20
7.8972161189
 30
0.0
 10
9.8033278665
 20
7.8980630094
 30
0.0
 10
9.8014462455
 20
7.8987689
 30
0.0
 10
9.7999408484
 20
7.8993332796
 30
0.0
 10
9.7988120745
 20
7.8997574737
 30
0.0
 10
9.7978705581
 20
7.9001080764
 30
0.0
 10
9.797213207
 20
7.9003591744
 30
0.0
 10
9.7968349071
 20
7.9004937962
 30
0.0
 10
9.7965587056
 20
7.9006197291
 30
0.0
 10
9.7962537459
 20
7.9006502273
 30
0.0
 10
9.7958571641
 20
7.9007241804
 30
0.0
 10
9.7951584723
 20
7.9008380884
 30
0.0
 10
9.7941627846
 20
7.9010089228
 30
0.0
 10
9.7929669135
 20
7.9012104534
 30
0.0
 10
9.791372784
 20
7.9014803731
 30
0.0
 10
9.7893799968
 20
7.9018173568
 30
0.0
 10
9.7869887059
 20
7.9022219155
 30
0.0
 10
9.7845974006
 20
7.9026264266
 30
0.0
 10
9.7814089986
 20
7.9031657914
 30
0.0
 10
9.7774234943
 20
7.903839991
 30
0.0
 10
9.7734379906
 20
7.904514195
 30
0.0
 10
9.7702495878
 20
7.9050535529
 30
0.0
 10
9.7678582846
 20
7.9054580847
 30
0.0
 10
9.7654669859
 20
7.9058625655
 30
0.0
 10
9.763474223
 20
7.9061997915
 30
0.0
 10
9.7618800439
 20
7.9064692172
 30
0.0
 10
9.7606843244
 20
7.9066722565
 30
0.0
 10
9.7596881622
 20
7.9068383704
 30
0.0
 10
9.7589903174
 20
7.9069607054
 30
0.0
 10
9.7585923786
 20
7.9070211562
 30
0.0
 10
9.7582915874
 20
7.9070931289
 30
0.0
 10
9.7579997295
 20
7.907063291
 30
0.0
 10
9.7576074696
 20
7.9070590197
 30
0.0
 10
9.7569224666
 20
7.9070349991
 30
0.0
 10
9.7559431319
 20
7.9070093343
 30
0.0
 10
9.7547682552
 20
7.9069748338
 30
0.0
 10
9.7532016393
 20
7.9069301266
 30
0.0
 10
9.7512434085
 20
7.9068737988
 30
0.0
 10
9.7488935148
 20
7.9068063957
 30
0.0
 10
9.7465436255
 20
7.9067389417
 30
0.0
 10
9.7434104383
 20
7.9066490208
 30
0.0
 10
9.7394939549
 20
7.9065366131
 30
0.0
 10
9.7355774709
 20
7.9064242098
 30
0.0
 10
9.7324442846
 20
7.9063342819
 30
0.0
 10
9.7300943924
 20
7.906266849
 30
0.0
 10
9.7277445098
 20
7.9061993667
 30
0.0
 10
9.7257862443
 20
7.9061432853
 30
0.0
 10
9.7242196992
 20
7.9060980755
 30
0.0
 10
9.7230446064
 20
7.90606511
 30
0.0
 10
9.7220659476
 20
7.9060346429
 30
0.0
 10
9.721379738
 20
7.9060191952
 30
0.0
 10
9.7209894114
 20
7.9060011879
 30
0.0
 10
9.7206916153
 20
7.9060135428
 30
0.0
 10
9.7204131272
 20
7.9059270459
 30
0.0
 10
9.7200350749
 20
7.9058461974
 30
0.0
 10
9.7193766212
 20
7.9056886473
 30
0.0
 10
9.7184343326
 20
7.9054719748
 30
0.0
 10
9.7173042885
 20
7.9052083727
 30
0.0
 10
9.7157973178
 20
7.904858159
 30
0.0
 10
9.7139136885
 20
7.904419961
 30
0.0
 10
9.7116532972
 20
7.9038943081
 30
0.0
 10
9.7093929157
 20
7.9033686058
 30
0.0
 10
9.7063790702
 20
7.9026676867
 30
0.0
 10
9.7026117647
 20
7.9017915314
 30
0.0
 10
9.698844458
 20
7.9009153803
 30
0.0
 10
9.6958306145
 20
7.9002144544
 30
0.0
 10
9.6935702269
 20
7.8996887725
 30
0.0
 10
9.6913098582
 20
7.8991630432
 30
0.0
 10
9.6894261587
 20
7.8987250828
 30
0.0
 10
9.6879193312
 20
7.8983743847
 30
0.0
 10
9.6867888496
 20
7.8981122619
 30
0.0
 10
9.6858479297
 20
7.8978909612
 30
0.0
 10
9.6851870328
 20
7.8977416731
 30
0.0
 10
9.6848128952
 20
7.8976475867
 30
0.0
 10
9.6845223822
 20
7.8976017524
 30
0.0
 10
9.6842697498
 20
7.8974613856
 30
0.0
 10
9.6839196935
 20
7.8973072038
 30
0.0
 10
9.6833132511
 20
7.8970220226
 30
0.0
 10
9.6824436863
 20
7.8966226529
 30
0.0
 10
9.6814015862
 20
7.8961399712
 30
0.0
 10
9.6800116382
 20
7.8954975966
 30
0.0
 10
9.6782743683
 20
7.8946942163
 30
0.0
 10
9.6761895737
 20
7.8937303366
 30
0.0
 10
9.6741047979
 20
7.8927664096
 30
0.0
 10
9.6713250904
 20
7.89148119
 30
0.0
 10
9.6678504581
 20
7.8898746601
 30
0.0
 10
9.6643758253
 20
7.8882681317
 30
0.0
 10
9.6615961186
 20
7.8869829097
 30
0.0
 10
9.6595113403
 20
7.8860189901
 30
0.0
 10
9.6574265554
 20
7.8850550829
 30
0.0
 10
9.6556892551
 20
7.8842517879
 30
0.0
 10
9.6542993691
 20
7.8836092392
 30
0.0
 10
9.6534307944
 20
7.8832074477
 30
0.0
 10
9.6527356964
 20
7.8828864691
 30
0.0
 10
9.6522150255
 20
7.8826444906
 30
0.0
 10
9.6517790568
 20
7.882446801
 30
0.0
 10
9.6514349385
 20
7.8822797695
 30
0.0
 10
9.6511641257
 20
7.8821787597
 30
0.0
 10
9.6509418809
 20
7.8819851347
 30
0.0
 10
9.6506285891
 20
7.8817593196
 30
0.0
 10
9.6502427951
 20
7.8814659511
 30
0.0
 10
9.6497773509
 20
7.8811186599
 30
0.0
 10
9.6491576288
 20
7.8806539455
 30
0.0
 10
9.6483826782
 20
7.8800736207
 30
0.0
 10
9.6471429237
 20
7.8791447835
 30
0.0
 10
9.6455931735
 20
7.877983846
 30
0.0
 10
9.6437334978
 20
7.8765906743
 30
0.0
 10
9.6418738155
 20
7.875197515
 30
0.0
 10
9.6393942414
 20
7.873339965
 30
0.0
 10
9.6362947729
 20
7.871018029
 30
0.0
 10
9.6331953051
 20
7.8686960921
 30
0.0
 10
9.6307157299
 20
7.8668385436
 30
0.0
 10
9.6288560512
 20
7.8654453797
 30
0.0
 10
9.626996362
 20
7.8640522254
 30
0.0
 10
9.6254466537
 20
7.8628912337
 30
0.0
 10
9.6242068138
 20
7.8619625069
 30
0.0
 10
9.6234320807
 20
7.8613819012
 30
0.0
 10
9.622811912
 20
7.8609177634
 30
0.0
 10
9.6223478321
 20
7.8605687107
 30
0.0
 10
9.6219577694
 20
7.8602808536
 30
0.0
 10
9.6216531867
 20
7.8600437941
 30
0.0
 10
9.6214043447
 20
7.8598845091
 30
0.0
 10
9.6212333892
 20
7.8596545724
 30
0.0
 10
9.6209782417
 20
7.8593726697
 30
0.0
 10
9.6206686418
 20
7.8590118239
 30
0.0
 10
9.6202931266
 20
7.8585824332
 30
0.0
 10
9.619793835
 20
7.8580086465
 30
0.0
 10
9.6191692428
 20
7.8572918465
 30
0.0
 10
9.6181701624
 20
7.8561447243
 30
0.0
 10
9.6169212201
 20
7.8547109046
 30
0.0
 10
9.6154225287
 20
7.8529902854
 30
0.0
 10
9.6139238268
 20
7.8512696757
 30
0.0
 10
9.6119255612
 20
7.8489755262
 30
0.0
 10
9.6094277284
 20
7.84610784
 30
0.0
 10
9.6069298943
 20
7.8432401548
 30
0.0
 10
9.6049316309
 20
7.8409460038
 30
0.0
 10
9.6034329225
 20
7.8392253985
 30
0.0
 10
9.6019342554
 20
7.8375047627
 30
0.0
 10
9.6006852375
 20
7.8360709946
 30
0.0
 10
9.5996863113
 20
7.8349237673
 30
0.0
 10
9.5989363296
 20
7.8340639282
 30
0.0
 10
9.5983138483
 20
7.8333455461
 30
0.0
 10
9.5978731984
 20
7.8328463084
 30
0.0
 10
9.5976290697
 20
7.8325553622
 30
0.0
 10
9.5974243631
 20
7.8323531179
 30
0.0
 10
9.5973022613
 20
7.8320898459
 30
0.0
 10
9.5971106455
 20
7.8317601036
 30
0.0
 10
9.5967887424
 20
7.8311731366
 30
0.0
 10
9.5963218624
 20
7.8303397976
 30
0.0
 10
9.5957646105
 20
7.8293375714
 30
0.0
 10
9.5950205586
 20
7.828002045
 30
0.0
 10
9.5940908537
 20
7.8263323709
 30
0.0
 10
9.5929750536
 20
7.8243288762
 30
0.0
 10
9.5918592948
 20
7.8223253508
 30
0.0
 10
9.5903716019
 20
7.8196539945
 30
0.0
 10
9.5885119912
 20
7.8163147951
 30
0.0
 10
9.5866523767
 20
7.812975598
 30
0.0
 10
9.5851646899
 20
7.8103042379
 30
0.0
 10
9.5840489127
 20
7.8083007237
 30
0.0
 10
9.5829331814
 20
7.8062971872
 30
0.0
 10
9.5820032624
 20
7.8046276429
 30
0.0
 10
9.5812596473
 20
7.803291852
 30
0.0
 10
9.5807010615
 20
7.8022904334
 30
0.0
 10
9.5802383548
 20
7.8014545673
 30
0.0
 10
9.5799090017
 20
7.8008721117
 30
0.0
 10
9.5797293226
 20
7.8005351412
 30
0.0
 10
9.5795705548
 20
7.800294072
 30
0.0
 10
9.5795035597
 20
7.8000084372
 30
0.0
 10
9.5793822215
 20
7.7996431358
 30
0.0
 10
9.5791847943
 20
7.7989966156
 30
0.0
 10
9.5788949579
 20
7.7980768019
 30
0.0
 10
9.5785504919
 20
7.7969714047
 30
0.0
 10
9.5780900379
 20
7.7954981078
 30
0.0
 10
9.5775148706
 20
7.7936562926
 30
0.0
 10
9.5768244982
 20
7.7914461975
 30
0.0
 10
9.5761341718
 20
7.7892360801
 30
0.0
 10
9.5752137205
 20
7.7862892648
 30
0.0
 10
9.5740631623
 20
7.7826057428
 30
0.0
 10
9.5729126001
 20
7.7789222225
 30
0.0
 10
9.5719921553
 20
7.7759754043
 30
0.0
 10
9.571301809
 20
7.7737652954
 30
0.0
 10
9.5706115114
 20
7.7715551687
 30
0.0
 10
9.5700361116
 20
7.7697134518
 30
0.0
 10
9.5695761316
 20
7.7682399544
 30
0.0
 10
9.5692302183
 20
7.7671351697
 30
0.0
 10
9.5689449099
 20
7.7662134395
 30
0.0
 10
9.5687393994
 20
7.7655703406
 30
0.0
 10
9.5686310128
 20
7.7651995574
 30
0.0
 10
9.5685242346
 20
7.764930761
 30
0.0
 10
9.5685148853
 20
7.7646264495
 30
0.0
 10
9.5684684353
 20
7.7642330889
 30
0.0
 10
9.5684029817
 20
7.7635389359
 30
0.0
 10
9.5683011985
 20
7.7625503065
 30
0.0
 10
9.5681826019
 20
7.7613626596
 30
0.0
 10
9.5680232354
 20
7.7597795815
 30
0.0
 10
9.567824452
 20
7.7578005791
 30
0.0
 10
9.5675857298
 20
7.7554258425
 30
0.0
 10
9.5673470563
 20
7.7530510882
 30
0.0
 10
9.5670288081
 20
7.7498847554
 30
0.0
 10
9.5666310035
 20
7.7459268372
 30
0.0
 10
9.5661536356
 20
7.7411773363
 30
0.0
 10
9.5655171459
 20
7.7348446681
 30
0.0
 10
9.5650397785
 20
7.730095167
 30
0.0
 10
9.5647215335
 20
7.7269288329
 30
0.0
  0
ENDSEC
  0
SECTION
  2
OBJECTS
  0
DICTIONARY
  5
C
100
AcDbDictionary
280
0
281
1
  3
ACAD_GROUP
350
D
  3
ACAD_MLINESTYLE
350
17
  3
ACAD_LAYOUT
350
1A
  3
ACAD_PLOTSETTINGS
350
19
  3
ACAD_PLOTSTYLENAME
350
E
  3
ACAD_IMAGE_DICT
350
       42E
  3
ACAD_IMAGE_VARS
350
       42F
  3
ACAD_TABLESTYLE
350
       430
  0
IMAGEDEF_REACTOR
  5
42D
100
AcDbRasterImageDefReactor
 90
2
330
283
  0
DICTIONARY
  5
D
102
{ACAD_REACTORS
330
C
102
}
100
AcDbDictionary
280
0
281
1
  0
ACDBDICTIONARYWDFLT
  5
E
102
{ACAD_REACTORS
330
C
102
}
100
AcDbDictionary
281
1
  3
Normal
350
F
100
AcDbDictionaryWithDefault
340
F
  0
DICTIONARY
  5
42E
330
C
100
AcDbDictionary
281
1
  3
VVU_assy_2_img_1
350
       433
  0
RASTERVARIABLES
  5
42F
330
C
100
AcDbRasterVariables
 90
0
 70
0
 71
1
 72
5
  0
DICTIONARY
  5
17
102
{ACAD_REACTORS
330
C
102
}
100
AcDbDictionary
280
0
281
1
  3
Standard
350
18
  0
DICTIONARY
  5
430
330
C
100
AcDbDictionary
281
1
  3
Standard
350
       434
  3
Standard1
350
       435
  0
DICTIONARY
  5
19
102
{ACAD_REACTORS
330
C
102
}
100
AcDbDictionary
281
1
  0
DICTIONARY
  5
1A
102
{ACAD_REACTORS
330
C
102
}
100
AcDbDictionary
281
1
  3
Model
350
431
  3
Layout1
350
432
  0
ACDBPLACEHOLDER
  5
F
102
{ACAD_REACTORS
330
E
102
}
  0
MLINESTYLE
  5
18
102
{ACAD_REACTORS
330
17
102
}
100
AcDbMlineStyle
  2
STANDARD
 70
0
  3

 62
256
 51
90.0
 52
90.0
 71
2
 49
0.5
 62
256
  6
BYLAYER
 49
-0.5
 62
256
  6
BYLAYER
  0
LAYOUT
  5
431
102
{ACAD_REACTORS
330
1A
102
}
100
AcDbPlotSettings
  1

  2
none_device
  4
ANSI_C_(22.00_x_17.00_Inches)
  6

 40
0.0
 41
0.0
 42
0.0
 43
0.0
 44
558.8
 45
431.8
 46
0.0
 47
0.0
 48
0.0
 49
0.0
140
0.0
141
0.0
142
1.0
143
1.0
 70
1024
 72
0
 73
0
 74
0
  7

 75
0
147
1.0
148
0.0
149
0.0
100
AcDbLayout
  1
Model
 70
0
 71
0
 10
0.0
 20
0.0
 11
22.0
 21
17.0
 12
0.0
 22
0.0
 32
0.0
 14
0.0
 24
0.0
 34
0.0
 15
0.0
 25
0.0
 35
0.0
146
0.0
 13
0.0
 23
0.0
 33
0.0
 16
1.0
 26
0.0
 36
0.0
 17
0.0
 27
1.0
 37
0.0
 76
0
330
204
345
0
346
0
  0
LAYOUT
  5
432
102
{ACAD_REACTORS
330
1A
102
}
100
AcDbPlotSettings
  1

  2
none_device
  4
ANSI_C_(22.00_x_17.00_Inches)
  6

 40
0.0
 41
0.0
 42
0.0
 43
0.0
 44
558.8
 45
431.8
 46
0.0
 47
0.0
 48
0.0
 49
0.0
140
0.0
141
0.0
142
1.0
143
1.0
 70
0
 72
0
 73
0
 74
0
  7

 75
0
147
1.0
148
0.0
149
0.0
100
AcDbLayout
  1
Layout1
 70
0
 71
1
 10
0.0
 20
0.0
 11
22.0
 21
17.0
 12
0.0
 22
0.0
 32
0.0
 14
0.0
 24
0.0
 34
0.0
 15
0.0
 25
0.0
 35
0.0
146
0.0
 13
0.0
 23
0.0
 33
0.0
 16
1.0
 26
0.0
 36
0.0
 17
0.0
 27
1.0
 37
0.0
 76
0
330
205
345
0
346
0
  0
IMAGEDEF
  5
433
102
{ACAD_REACTORS
330
42E
330
42D
102
}
100
AcDbRasterImageDef
 90
0
  1
VVU_assy_2_img_1.png
 10
369.0
 20
92.0
 11
0.0066666667
 21
0.0066666667
280
1
281
0
  0
TABLESTYLE
  5
434
102
{ACAD_REACTORS
330
430
330
286
330
287
102
}
330
430
100
AcDbTableStyle
  3
Standard
 70
0
 71
0
 40
0.06
 41
0.06
280
1
281
1
  7
Standard
140
0.18
170
1
 62
0
 63
7
283
0
  7
Standard
140
0.18
170
1
 62
0
 63
7
283
0
  7
Standard
140
0.18
170
1
 62
0
 63
7
283
0
  0
TABLESTYLE
  5
435
102
{ACAD_REACTORS
330
430
330
285
102
}
330
430
100
AcDbTableStyle
  3
Standard1
 70
1
 71
0
 40
0.06
 41
0.06
280
1
281
1
  7
Standard
140
0.18
170
1
 62
0
 63
7
283
0
  7
Standard
140
0.18
170
1
 62
0
 63
7
283
0
  7
Standard
140
0.18
170
1
 62
0
 63
7
283
0
  0
ENDSEC
  0
EOF
