999
DXF file: VTS_assy_2.dxf
999
Pro/ENGINEER 2014200 by Parametric Technology Corporation
  0
SECTION
  2
HEADER
  9
$ACADVER
  1
AC1021
  9
$DWGCODEPAGE
  3
ANSI_1252
  9
$EXTMAX
 10
22.0
 20
17.0
 30
0.0
  9
$EXTMIN
 10
0.0
 20
0.0
 30
0.0
  9
$LIMMIN
 10
0.0
 20
0.0
  9
$LIMMAX
 10
22.0
 20
17.0
  9
$VIEWCTR
 10
11.0
 20
8.5
  9
$VIEWSIZE
 40
17.0
  9
$CLAYER
  8
0
  9
$LTSCALE
 40
1.21
  9
$CELTYPE
  6
BYLAYER
  9
$DIMSCALE
 40
1.0
  9
$DIMASZ
 40
0.1875
  9
$DIMEXO
 40
0.0625
  9
$DIMDLI
 40
0.836
  9
$DIMEXE
 40
0.125
  9
$DIMCEN
 40
0.198
  9
$DIMLFAC
 40
1.0
  9
$DIMBLK
  1
_FILLED
  9
$DIMTXT
 40
0.1
  9
$DIMTOL
 70
0
  9
$DIMLIM
 70
0
  9
$DIMTFAC
 40
1.0
  9
$DIMGAP
 40
0.09
  9
$DIMDSEP
 70
46
  9
$AUNITS
 70
0
  9
$PDMODE
 70
3
  9
$PDSIZE
 40
0.3125
  9
$HANDSEED
  5
36B
  9
$TILEMODE
 70
1
  9
$MEASUREMENT
 70
0
  9
$INSUNITS
 70
1
  0
ENDSEC
  0
SECTION
  2
CLASSES
  0
CLASS
  1
ACDBDICTIONARYWDFLT
  2
AcDbDictionaryWithDefault
  3
AutoCAD 2000
 90
0
 91
1
280
0
281
0
  0
CLASS
  1
ACDBPLACEHOLDER
  2
AcDbPlaceHolder
  3
AutoCAD 2000
 90
0
 91
1
280
0
281
0
  0
CLASS
  1
LAYOUT
  2
AcDbLayout
  3
AutoCAD 2000
 90
0
 91
0
280
0
281
0
  0
CLASS
  1
RASTERVARIABLES
  2
AcDbRasterVariables
  3
ISM
 90
0
 91
1
280
0
281
0
  0
CLASS
  1
IMAGEDEF
  2
AcDbRasterImageDef
  3
ISM
 90
0
 91
1
280
0
281
0
  0
CLASS
  1
IMAGEDEF_REACTOR
  2
AcDbRasterImageDefReactor
  3
ISM
 90
0
 91
1
280
0
281
0
  0
CLASS
  1
IMAGE
  2
AcDbRasterImage
  3
ISM
 90
127
 91
1
280
0
281
1
  0
CLASS
  1
TABLESTYLE
  2
AcDbTableStyle
  3
ObjectDBX Classes
 90
2047
 91
1
280
0
281
0
  0
CLASS
  1
ACAD_TABLE
  2
AcDbTable
  3
ObjectDBX Classes
 90
1025
 91
2
280
0
281
1
  0
ENDSEC
  0
SECTION
  2
TABLES
  0
TABLE
  2
VPORT
  5
8
100
AcDbSymbolTable
 70
2
  0
VPORT
  5
1F4
100
AcDbSymbolTableRecord
100
AcDbViewportTableRecord
  2
*ACTIVE
 70
0
 10
0.0
 20
0.0
 11
1.0
 21
1.0
 12
11.0
 22
8.5
 13
0.0
 23
0.0
 14
1.0
 24
1.0
 15
0.0
 25
0.0
 16
0.0
 26
0.0
 36
1.0
 17
0.0
 27
0.0
 37
0.0
 40
17.0
 41
1.2941176471
 42
50.0
 43
0.0
 44
0.0
 50
0.0
 51
0.0
 71
0
 72
100
 73
1
 74
1
 75
0
 76
0
 77
0
 78
0
  0
ENDTAB
  0
TABLE
  2
LTYPE
  5
5
100
AcDbSymbolTable
 70
6
  0
LTYPE
  5
14
100
AcDbSymbolTableRecord
100
AcDbLinetypeTableRecord
  2
BYBLOCK
 70
0
  3

 72
65
 73
0
 40
0.0
  0
LTYPE
  5
15
100
AcDbSymbolTableRecord
100
AcDbLinetypeTableRecord
  2
BYLAYER
 70
0
  3

 72
65
 73
0
 40
0.0
  0
LTYPE
  5
16
100
AcDbSymbolTableRecord
100
AcDbLinetypeTableRecord
  2
CONTINUOUS
 70
64
  3
Solid line
 72
65
 73
0
 40
0.0
  0
LTYPE
  5
1F5
100
AcDbSymbolTableRecord
100
AcDbLinetypeTableRecord
  2
CENTER
 70
64
  3
____ _ ____ _ ____ _ ____ _ ____ _ ____ _ ____
 72
65
 73
4
 40
0.6
 49
0.375
 74
0
 49
-0.075
 74
0
 49
0.075
 74
0
 49
-0.075
 74
0
  0
LTYPE
  5
1F6
100
AcDbSymbolTableRecord
100
AcDbLinetypeTableRecord
  2
HIDDEN
 70
64
  3
- - - - - - - - - - - - - - - - - - - -
 72
65
 73
2
 40
0.2
 49
0.1
 74
0
 49
-0.1
 74
0
  0
LTYPE
  5
1F7
100
AcDbSymbolTableRecord
100
AcDbLinetypeTableRecord
  2
PHANTOM
 70
64
  3
_____ _ _ _____ _ _ _____ _ _ _____
 72
65
 73
6
 40
0.8
 49
0.45
 74
0
 49
-0.05
 74
0
 49
0.1
 74
0
 49
-0.05
 74
0
 49
0.1
 74
0
 49
-0.05
 74
0
  0
LTYPE
  5
1F8
100
AcDbSymbolTableRecord
100
AcDbLinetypeTableRecord
  2
DOT
 70
64
  3
. . . . . . . . . . . . . . . . . . . .
 72
65
 73
2
 40
0.2
 49
0.1
 74
0
 49
-0.1
 74
0
  0
LTYPE
  5
1F9
100
AcDbSymbolTableRecord
100
AcDbLinetypeTableRecord
  2
DASHED
 70
64
  3
- - - - - - - - - - - - - - - - - - - -
 72
65
 73
2
 40
0.2
 49
0.1
 74
0
 49
-0.1
 74
0
  0
ENDTAB
  0
TABLE
  2
LAYER
  5
2
100
AcDbSymbolTable
 70
36
  0
LAYER
  5
10
100
AcDbSymbolTableRecord
100
AcDbLayerTableRecord
  2
0
 70
0
 62
7
  6
CONTINUOUS
370
-3
390
F
  0
LAYER
  5
1FA
100
AcDbSymbolTableRecord
100
AcDbLayerTableRecord
  2
DEFAULT_1
 70
0
 62
7
  6
CENTER
370
-3
390
F
  0
LAYER
  5
1FB
100
AcDbSymbolTableRecord
100
AcDbLayerTableRecord
  2
DEFAULT_2
 70
0
 62
8
  6
HIDDEN
370
-3
390
F
  0
LAYER
  5
1FC
100
AcDbSymbolTableRecord
100
AcDbLayerTableRecord
  2
DEFAULT_3
 70
0
 62
7
  6
PHANTOM
370
-3
390
F
  0
LAYER
  5
1FD
100
AcDbSymbolTableRecord
100
AcDbLayerTableRecord
  2
DATUM_PLANES
 70
0
 62
7
  6
CONTINUOUS
370
-3
390
F
  0
LAYER
  5
1FE
100
AcDbSymbolTableRecord
100
AcDbLayerTableRecord
  2
DIMENSIONS
 70
0
 62
7
  6
CONTINUOUS
370
-3
390
F
  0
LAYER
  5
1FF
100
AcDbSymbolTableRecord
100
AcDbLayerTableRecord
  2
DTM_500001
 70
0
 62
7
  6
CONTINUOUS
370
-3
390
F
  0
LAYER
  5
200
100
AcDbSymbolTableRecord
100
AcDbLayerTableRecord
  2
PARAMETERDIMENSIONS
 70
0
 62
7
  6
CONTINUOUS
370
-3
390
F
  0
LAYER
  5
201
100
AcDbSymbolTableRecord
100
AcDbLayerTableRecord
  2
PORT_AREAS
 70
0
 62
7
  6
CONTINUOUS
370
-3
390
F
  0
LAYER
  5
202
100
AcDbSymbolTableRecord
100
AcDbLayerTableRecord
  2
SUNNBOMCOSMETIC
 70
0
 62
7
  6
CONTINUOUS
370
-3
390
F
  0
LAYER
  5
203
100
AcDbSymbolTableRecord
100
AcDbLayerTableRecord
  2
SUNNBOMSTAMPING
 70
0
 62
7
  6
CONTINUOUS
370
-3
390
F
  0
LAYER
  5
204
100
AcDbSymbolTableRecord
100
AcDbLayerTableRecord
  2
THREADS
 70
0
 62
7
  6
CONTINUOUS
370
-3
390
F
  0
ENDTAB
  0
TABLE
  2
STYLE
  5
3
100
AcDbSymbolTable
 70
1
  0
STYLE
  5
11
100
AcDbSymbolTableRecord
100
AcDbTextStyleTableRecord
  2
STANDARD
 70
0
 40
0.0
 41
0.8
 50
0.0
 71
0
 42
0.2
  3
txt
  4

  0
STYLE
  5
205
100
AcDbSymbolTableRecord
100
AcDbTextStyleTableRecord
  2
TEXTSTYLE_1
 70
0
 40
0.0
 41
0.8
 50
0.0
 71
0
 42
0.2
  3
gdt
  4

  0
ENDTAB
  0
TABLE
  2
VIEW
  5
6
100
AcDbSymbolTable
 70
0
  0
ENDTAB
  0
TABLE
  2
UCS
  5
7
100
AcDbSymbolTable
 70
0
  0
ENDTAB
  0
TABLE
  2
APPID
  5
9
100
AcDbSymbolTable
 70
1
  0
APPID
  5
206
100
AcDbSymbolTableRecord
100
AcDbRegAppTableRecord
  2
ACAD
 70
0
  0
ENDTAB
  0
TABLE
  2
BLOCK_RECORD
  5
1
100
AcDbSymbolTable
 70
0
  0
BLOCK_RECORD
  5
207
100
AcDbSymbolTableRecord
100
AcDbBlockTableRecord
  2
*Model_Space
  0
BLOCK_RECORD
  5
208
100
AcDbSymbolTableRecord
100
AcDbBlockTableRecord
  2
*Paper_Space
  0
BLOCK_RECORD
  5
209
100
AcDbSymbolTableRecord
100
AcDbBlockTableRecord
  2
SUN_FIRST_THIRD_ANGLE_BL0
  0
BLOCK_RECORD
  5
20A
100
AcDbSymbolTableRecord
100
AcDbBlockTableRecord
  2
*T1
  0
BLOCK_RECORD
  5
20B
100
AcDbSymbolTableRecord
100
AcDbBlockTableRecord
  2
*T2
  0
ENDTAB
  0
TABLE
  2
DIMSTYLE
  5
A
100
AcDbSymbolTable
 70
1
100
AcDbDimStyleTable
 71
0
  0
DIMSTYLE
105
20C
100
AcDbSymbolTableRecord
100
AcDbDimStyleTableRecord
  2
STANDARD
 70
0
  3

  4

 40
1.0
 41
0.1875
 42
0.0625
 43
0.38
 44
0.125
 45
0.0
 46
0.0
 47
0.001
 48
0.001
140
0.1
141
0.09
142
0.0
143
25.4
144
1.0
145
0.0
146
1.0
147
0.09
 71
0.0
 72
0.0
 73
1
 74
1
 75
0
 76
0
 77
0
 78
4
170
0
171
2
172
0
173
0
174
0
175
0
176
0
177
0
178
0
270
2
271
3
272
3
273
2
274
2
275
0
280
0
281
0
282
0
283
1
284
4
285
0
286
0
287
3
288
0
340
11
278
46
  0
ENDTAB
  0
ENDSEC
  0
SECTION
  2
BLOCKS
  0
BLOCK
  5
20
100
AcDbEntity
  8
0
100
AcDbBlockBegin
  2
*Model_Space
 70
0
 10
0.0
 20
0.0
 30
0.0
  3
*Model_Space
  1

  0
ENDBLK
  5
21
100
AcDbEntity
  8
0
100
AcDbBlockEnd
  0
BLOCK
  5
1C
100
AcDbEntity
  8
0
100
AcDbBlockBegin
  2
*Paper_Space
 70
0
 10
0.0
 20
0.0
 30
0.0
  3
*Paper_Space
  1

  0
ENDBLK
  5
1D
100
AcDbEntity
  8
0
100
AcDbBlockEnd
  0
BLOCK
  5
20D
100
AcDbEntity
  8
0
100
AcDbBlockBegin
 62
2
  6
CONTINUOUS
  2
SUN_FIRST_THIRD_ANGLE_BL0
 70
64
 10
20.4816717061
 20
1.2289683772
  3
SUN_FIRST_THIRD_ANGLE_BL0
  1

  0
TEXT
  5
20E
100
AcDbEntity
  8
0
100
AcDbText
 62
2
  6
CONTINUOUS
 10
19.4750896608
 20
1.4136269581
  7
STANDARD
 40
0.08
  1
FIRST ANGLE
 41
0.8
 72
0
100
AcDbText
  0
TEXT
  5
20F
100
AcDbEntity
  8
0
100
AcDbText
 62
2
  6
CONTINUOUS
 10
20.7842537513
 20
1.4047600029
  7
STANDARD
 40
0.08
  1
THIRD ANGLE
 41
0.8
 72
0
100
AcDbText
  0
LINE
  5
210
100
AcDbEntity
  8
0
100
AcDbLine
 62
7
  6
CONTINUOUS
 10
19.4767170086
 20
1.1727031207
 11
19.6334271527
 21
1.1717972817
  0
LINE
  5
211
100
AcDbEntity
  8
0
100
AcDbLine
 62
7
  6
CONTINUOUS
 10
19.6596964832
 20
1.1717972817
 11
19.6950230232
 21
1.171593082
  0
LINE
  5
212
100
AcDbEntity
  8
0
100
AcDbLine
 62
7
  6
CONTINUOUS
 10
19.7194818561
 20
1.1708914427
 11
19.8852396156
 21
1.1699333054
  0
LINE
  5
213
100
AcDbEntity
  8
0
100
AcDbLine
 62
7
  6
CONTINUOUS
 10
19.4758111696
 20
1.2723454088
 11
19.88525039
 21
1.3511534004
  0
LINE
  5
214
100
AcDbEntity
  8
0
100
AcDbLine
 62
7
  6
CONTINUOUS
 10
19.88525039
 20
1.3511534004
 11
19.8831348489
 21
0.9851647912
  0
LINE
  5
215
100
AcDbEntity
  8
0
100
AcDbLine
 62
7
  6
CONTINUOUS
 10
19.8831348489
 20
0.9851647912
 11
19.4767170086
 21
1.0658141206
  0
LINE
  5
216
100
AcDbEntity
  8
0
100
AcDbLine
 62
7
  6
CONTINUOUS
 10
19.4767170086
 20
1.0658141206
 11
19.4779056764
 21
1.2714536432
  0
CIRCLE
  5
217
100
AcDbEntity
  8
0
100
AcDbCircle
 62
7
  6
CONTINUOUS
 10
20.2068232291
 20
1.1717972817
 40
0.175742101
  0
CIRCLE
  5
218
100
AcDbEntity
  8
0
100
AcDbCircle
 62
7
  6
CONTINUOUS
 10
20.2068232291
 20
1.1717972817
 40
0.1005522074
  0
LINE
  5
219
100
AcDbEntity
  8
0
100
AcDbLine
 62
7
  6
CONTINUOUS
 10
20.2077290681
 20
1.3756110529
 11
20.2071171714
 21
1.2379342989
  0
LINE
  5
21A
100
AcDbEntity
  8
0
100
AcDbLine
 62
7
  6
CONTINUOUS
 10
20.2077290681
 20
1.2016899681
 11
20.2074674401
 21
1.1428236749
  0
LINE
  5
21B
100
AcDbEntity
  8
0
100
AcDbLine
 62
7
  6
CONTINUOUS
 10
20.208634907
 20
1.101141841
 11
20.2080230104
 21
0.963465087
  0
LINE
  5
21C
100
AcDbEntity
  8
0
100
AcDbLine
 62
7
  6
CONTINUOUS
 10
20.0066328138
 20
1.1745147986
 11
20.1443095678
 21
1.1739029019
  0
LINE
  5
21D
100
AcDbEntity
  8
0
100
AcDbLine
 62
7
  6
CONTINUOUS
 10
20.1832714155
 20
1.1727031207
 11
20.238153505
 21
1.172335442
  0
LINE
  5
21E
100
AcDbEntity
  8
0
100
AcDbLine
 62
7
  6
CONTINUOUS
 10
20.2756669918
 20
1.1717972817
 11
20.407916871
 21
1.1712095044
  0
CIRCLE
  5
21F
100
AcDbEntity
  8
0
100
AcDbCircle
 62
7
  6
CONTINUOUS
 10
20.7509457401
 20
1.1693297793
 40
0.1722024983
  0
CIRCLE
  5
220
100
AcDbEntity
  8
0
100
AcDbCircle
 62
7
  6
CONTINUOUS
 10
20.7509457401
 20
1.1693297793
 40
0.0985164967
  0
LINE
  5
221
100
AcDbEntity
  8
0
100
AcDbLine
 62
7
  6
CONTINUOUS
 10
20.7169767782
 20
1.170462078
 11
20.7825395137
 21
1.1682766535
  0
LINE
  5
222
100
AcDbEntity
  8
0
100
AcDbLine
 62
7
  6
CONTINUOUS
 10
20.8177513651
 20
1.1693297793
 11
20.947965719
 21
1.1693297793
  0
LINE
  5
223
100
AcDbEntity
  8
0
100
AcDbLine
 62
7
  6
CONTINUOUS
 10
20.6875370113
 20
1.170462078
 11
20.5573226574
 21
1.170462078
  0
LINE
  5
224
100
AcDbEntity
  8
0
100
AcDbLine
 62
7
  6
CONTINUOUS
 10
20.7486811426
 20
1.1987695462
 11
20.7486811426
 21
1.1432869085
  0
LINE
  5
225
100
AcDbEntity
  8
0
100
AcDbLine
 62
7
  6
CONTINUOUS
 10
20.7498134414
 20
1.1059210505
 11
20.7498134414
 21
0.9757066966
  0
LINE
  5
226
100
AcDbEntity
  8
0
100
AcDbLine
 62
7
  6
CONTINUOUS
 10
20.7486811426
 20
1.2338708068
 11
20.7486811426
 21
1.3640851607
  0
LINE
  5
227
100
AcDbEntity
  8
0
100
AcDbLine
 62
7
  6
CONTINUOUS
 10
21.0702539817
 20
1.2701043662
 11
21.4790138229
 21
1.3448360823
  0
LINE
  5
228
100
AcDbEntity
  8
0
100
AcDbLine
 62
7
  6
CONTINUOUS
 10
21.4790138229
 20
1.3448360823
 11
21.4790138229
 21
0.9779712941
  0
LINE
  5
229
100
AcDbEntity
  8
0
100
AcDbLine
 62
7
  6
CONTINUOUS
 10
21.4790138229
 20
0.9779712941
 11
21.069121683
 21
1.0617614
  0
LINE
  5
22A
100
AcDbEntity
  8
0
100
AcDbLine
 62
7
  6
CONTINUOUS
 10
21.0702539817
 20
1.2701043662
 11
21.069121683
 21
1.0617614
  0
LINE
  5
22B
100
AcDbEntity
  8
0
100
AcDbLine
 62
7
  6
CONTINUOUS
 10
21.4790138229
 20
1.1693297793
 11
21.3159628059
 21
1.1693297793
  0
LINE
  5
22C
100
AcDbEntity
  8
0
100
AcDbLine
 62
7
  6
CONTINUOUS
 10
21.2876553377
 20
1.1693297793
 11
21.2502894796
 21
1.1693297793
  0
LINE
  5
22D
100
AcDbEntity
  8
0
100
AcDbLine
 62
7
  6
CONTINUOUS
 10
21.2208497126
 20
1.1659328831
 11
21.0713862804
 21
1.1659328831
  0
LINE
  5
22E
100
AcDbEntity
  8
0
100
AcDbLine
 62
7
  6
CONTINUOUS
 10
20.4796138713
 20
1.5284908897
 11
20.4766766948
 21
0.9294458646
  0
ENDBLK
  5
22F
100
AcDbEntity
  8
0
  6
BYBLOCK
 62
0
100
AcDbBlockEnd
  0
BLOCK
  5
230
100
AcDbEntity
  8
0
100
AcDbBlockBegin
  2
*T1
 70
1
 10
0.0
 20
0.0
  3
*T1
  1

  0
LINE
  5
231
100
AcDbEntity
  8
0
100
AcDbLine
 62
2
  6
CONTINUOUS
 10
9.275
 20
0.0
 11
-0.0
 21
0.0
  0
LINE
  5
232
100
AcDbEntity
  8
0
100
AcDbLine
 62
2
  6
CONTINUOUS
 10
9.275
 20
0.0
 11
9.275
 21
1.25
  0
LINE
  5
233
100
AcDbEntity
  8
0
100
AcDbLine
 62
2
  6
CONTINUOUS
 10
9.275
 20
0.625
 11
-0.0
 21
0.625
  0
LINE
  5
234
100
AcDbEntity
  8
0
100
AcDbLine
 62
2
  6
CONTINUOUS
 10
9.275
 20
1.25
 11
-0.0
 21
1.25
  0
LINE
  5
235
100
AcDbEntity
  8
0
100
AcDbLine
 62
2
  6
CONTINUOUS
 10
6.8
 20
0.0
 11
6.8
 21
1.25
  0
LINE
  5
236
100
AcDbEntity
  8
0
100
AcDbLine
 62
2
  6
CONTINUOUS
 10
6.4
 20
0.0
 11
6.4
 21
0.625
  0
LINE
  5
237
100
AcDbEntity
  8
0
100
AcDbLine
 62
2
  6
CONTINUOUS
 10
5.9
 20
0.0
 11
5.9
 21
0.625
  0
LINE
  5
238
100
AcDbEntity
  8
0
100
AcDbLine
 62
2
  6
CONTINUOUS
 10
5.2
 20
0.0
 11
5.2
 21
0.625
  0
LINE
  5
239
100
AcDbEntity
  8
0
100
AcDbLine
 62
2
  6
CONTINUOUS
 10
4.1
 20
0.0
 11
4.1
 21
1.25
  0
LINE
  5
23A
100
AcDbEntity
  8
0
100
AcDbLine
 62
2
  6
CONTINUOUS
 10
-0.0
 20
0.0
 11
-0.0
 21
1.25
  0
MTEXT
  5
23B
100
AcDbEntity
  8
0
100
AcDbMText
 62
2
  6
CONTINUOUS
  7
STANDARD
 71
2
 72
1
 10
6.6
 20
0.325
 30
0.0
 11
1.0
 21
0.0
 31
0.0
 44
0.9
  1
2
 40
0.125
 41
0.2
  0
MTEXT
  5
23C
100
AcDbEntity
  8
0
100
AcDbMText
 62
2
  6
CONTINUOUS
  7
STANDARD
 71
2
 72
1
 10
6.15
 20
0.325
 30
0.0
 11
1.0
 21
0.0
 31
0.0
 44
0.9
  1
C
 40
0.125
 41
0.2
  0
MTEXT
  5
23D
100
AcDbEntity
  8
0
100
AcDbMText
 62
2
  6
CONTINUOUS
  7
STANDARD
 71
2
 72
1
 10
5.55
 20
0.325
 30
0.0
 11
1.0
 21
0.0
 31
0.0
 44
0.9
  1
2.000
 40
0.125
 41
1.0
  0
MTEXT
  5
23E
100
AcDbEntity
  8
0
100
AcDbMText
 62
2
  6
CONTINUOUS
  7
STANDARD
 71
2
 72
1
 10
4.65
 20
0.325
 30
0.0
 11
1.0
 21
0.0
 31
0.0
 44
0.9
  1
Oct-05-20
 40
0.125
 41
1.8
  0
MTEXT
  5
23F
100
AcDbEntity
  8
0
100
AcDbMText
 62
2
  6
CONTINUOUS
  7
STANDARD
 71
2
 72
1
 10
2.05
 20
0.4625
 30
0.0
 11
1.0
 21
0.0
 31
0.0
 44
0.9
  1
T-11A Motor mount Eaton/Char-Lynn H & S\PCross pilot
 40
0.125
 41
7.8
  0
MTEXT
  5
240
100
AcDbEntity
  8
0
100
AcDbMText
 62
2
  6
CONTINUOUS
  7
STANDARD
 71
1
 72
1
 10
6.45
 20
0.5625
 30
0.0
 11
1.0
 21
0.0
 31
0.0
 44
0.9
  1
SHEET
 40
0.06
 41
0.48
  0
MTEXT
  5
241
100
AcDbEntity
  8
0
100
AcDbMText
 62
2
  6
CONTINUOUS
  7
STANDARD
 71
1
 72
1
 10
5.95
 20
0.5625
 30
0.0
 11
1.0
 21
0.0
 31
0.0
 44
0.9
  1
DWG SIZE
 40
0.06
 41
0.768
  0
MTEXT
  5
242
100
AcDbEntity
  8
0
100
AcDbMText
 62
2
  6
CONTINUOUS
  7
STANDARD
 71
1
 72
1
 10
5.25
 20
0.5625
 30
0.0
 11
1.0
 21
0.0
 31
0.0
 44
0.9
  1
SCALE
 40
0.06
 41
0.48
  0
MTEXT
  5
243
100
AcDbEntity
  8
0
100
AcDbMText
 62
2
  6
CONTINUOUS
  7
STANDARD
 71
1
 72
1
 10
4.15
 20
0.5625
 30
0.0
 11
1.0
 21
0.0
 31
0.0
 44
0.9
  1
DATE
 40
0.06
 41
0.384
  0
MTEXT
  5
244
100
AcDbEntity
  8
0
100
AcDbMText
 62
2
  6
CONTINUOUS
  7
STANDARD
 71
1
 72
1
 10
0.05
 20
0.5625
 30
0.0
 11
1.0
 21
0.0
 31
0.0
 44
0.9
  1
DESCRIPTION
 40
0.06
 41
1.056
  0
MTEXT
  5
245
100
AcDbEntity
  8
0
100
AcDbMText
 62
2
  6
CONTINUOUS
  7
STANDARD
 71
2
 72
1
 10
5.45
 20
1.0375
 30
0.0
 11
1.0
 21
0.0
 31
0.0
 44
0.9
  1
ALL DIMENSIONS IN INCH\PVIEWS ARE THIRD ANGLE
 40
0.12
 41
4.224
  0
MTEXT
  5
246
100
AcDbEntity
  8
0
100
AcDbMText
 62
2
  6
CONTINUOUS
  7
STANDARD
 71
2
 72
1
 10
2.05
 20
0.95
 30
0.0
 11
1.0
 21
0.0
 31
0.0
 44
0.9
  1
VTS
 40
0.125
 41
0.6
  0
MTEXT
  5
247
100
AcDbEntity
  8
0
100
AcDbMText
 62
2
  6
CONTINUOUS
  7
STANDARD
 71
1
 72
1
 10
0.05
 20
1.1875
 30
0.0
 11
1.0
 21
0.0
 31
0.0
 44
0.9
  1
MODEL
 40
0.06
 41
0.48
  0
ENDBLK
  5
248
100
AcDbEntity
  8
0
  6
BYBLOCK
 62
0
100
AcDbBlockEnd
  0
BLOCK
  5
249
100
AcDbEntity
  8
0
100
AcDbBlockBegin
  2
*T2
 70
1
 10
0.0
 20
0.0
  3
*T2
  1

  0
LINE
  5
24A
100
AcDbEntity
  8
0
100
AcDbLine
 62
2
  6
CONTINUOUS
 10
0.0
 20
0.0
 11
9.055
 21
0.0
  0
LINE
  5
24B
100
AcDbEntity
  8
0
100
AcDbLine
 62
2
  6
CONTINUOUS
 10
0.0
 20
0.0
 11
0.0
 21
-1.844
  0
LINE
  5
24C
100
AcDbEntity
  8
0
100
AcDbLine
 62
2
  6
CONTINUOUS
 10
0.0
 20
-0.344
 11
9.055
 21
-0.344
  0
LINE
  5
24D
100
AcDbEntity
  8
0
100
AcDbLine
 62
2
  6
CONTINUOUS
 10
0.0
 20
-0.594
 11
9.055
 21
-0.594
  0
LINE
  5
24E
100
AcDbEntity
  8
0
100
AcDbLine
 62
2
  6
CONTINUOUS
 10
0.0
 20
-0.844
 11
9.055
 21
-0.844
  0
LINE
  5
24F
100
AcDbEntity
  8
0
100
AcDbLine
 62
2
  6
CONTINUOUS
 10
0.0
 20
-1.094
 11
9.055
 21
-1.094
  0
LINE
  5
250
100
AcDbEntity
  8
0
100
AcDbLine
 62
2
  6
CONTINUOUS
 10
0.0
 20
-1.344
 11
9.055
 21
-1.344
  0
LINE
  5
251
100
AcDbEntity
  8
0
100
AcDbLine
 62
2
  6
CONTINUOUS
 10
0.0
 20
-1.594
 11
9.055
 21
-1.594
  0
LINE
  5
252
100
AcDbEntity
  8
0
100
AcDbLine
 62
2
  6
CONTINUOUS
 10
0.0
 20
-1.844
 11
9.055
 21
-1.844
  0
LINE
  5
253
100
AcDbEntity
  8
0
100
AcDbLine
 62
2
  6
CONTINUOUS
 10
3.055
 20
0.0
 11
3.055
 21
-1.844
  0
LINE
  5
254
100
AcDbEntity
  8
0
100
AcDbLine
 62
2
  6
CONTINUOUS
 10
9.055
 20
0.0
 11
9.055
 21
-1.844
  0
MTEXT
  5
255
100
AcDbEntity
  8
0
100
AcDbMText
 62
2
  6
CONTINUOUS
  7
STANDARD
 71
2
 72
1
 10
1.5275
 20
-0.0995
 30
0.0
 11
1.0
 21
0.0
 31
0.0
 44
0.9
  1
Technical Data
 40
0.145
 41
3.248
  0
MTEXT
  5
256
100
AcDbEntity
  8
0
100
AcDbMText
 62
2
  6
CONTINUOUS
  7
STANDARD
 71
2
 72
1
 10
4.555
 20
-0.0995
 30
0.0
 11
1.0
 21
0.0
 31
0.0
 44
0.9
  1
U.S. Units
 40
0.145
 41
2.32
  0
MTEXT
  5
257
100
AcDbEntity
  8
0
100
AcDbMText
 62
2
  6
CONTINUOUS
  7
STANDARD
 71
2
 72
1
 10
7.555
 20
-0.0995
 30
0.0
 11
1.0
 21
0.0
 31
0.0
 44
0.9
  1
Metric Units
 40
0.145
 41
2.784
  0
MTEXT
  5
258
100
AcDbEntity
  8
0
100
AcDbMText
 62
2
  6
CONTINUOUS
  7
STANDARD
 71
2
 72
1
 10
1.5275
 20
-0.4065
 30
0.0
 11
1.0
 21
0.0
 31
0.0
 44
0.9
  1
Cavity
 40
0.125
 41
1.2
  0
MTEXT
  5
259
100
AcDbEntity
  8
0
100
AcDbMText
 62
2
  6
CONTINUOUS
  7
STANDARD
 71
2
 72
1
 10
6.055
 20
-0.4065
 30
0.0
 11
1.0
 21
0.0
 31
0.0
 44
0.9
  1
T-11A
 40
0.125
 41
1.0
  0
MTEXT
  5
25A
100
AcDbEntity
  8
0
100
AcDbMText
 62
2
  6
CONTINUOUS
  7
STANDARD
 71
2
 72
1
 10
1.5275
 20
-0.6565
 30
0.0
 11
1.0
 21
0.0
 31
0.0
 44
0.9
  1
Body Features
 40
0.125
 41
2.6
  0
MTEXT
  5
25B
100
AcDbEntity
  8
0
100
AcDbMText
 62
2
  6
CONTINUOUS
  7
STANDARD
 71
2
 72
1
 10
6.055
 20
-0.6565
 30
0.0
 11
1.0
 21
0.0
 31
0.0
 44
0.9
  1
Cross pilot
 40
0.125
 41
2.2
  0
MTEXT
  5
25C
100
AcDbEntity
  8
0
100
AcDbMText
 62
2
  6
CONTINUOUS
  7
STANDARD
 71
2
 72
1
 10
1.5275
 20
-0.9065
 30
0.0
 11
1.0
 21
0.0
 31
0.0
 44
0.9
  1
Body Type
 40
0.125
 41
1.8
  0
MTEXT
  5
25D
100
AcDbEntity
  8
0
100
AcDbMText
 62
2
  6
CONTINUOUS
  7
STANDARD
 71
2
 72
1
 10
6.055
 20
-0.9065
 30
0.0
 11
1.0
 21
0.0
 31
0.0
 44
0.9
  1
Motor mount
 40
0.125
 41
2.2
  0
MTEXT
  5
25E
100
AcDbEntity
  8
0
100
AcDbMText
 62
2
  6
CONTINUOUS
  7
STANDARD
 71
2
 72
1
 10
1.5275
 20
-1.1565
 30
0.0
 11
1.0
 21
0.0
 31
0.0
 44
0.9
  1
Interface
 40
0.125
 41
1.8
  0
MTEXT
  5
25F
100
AcDbEntity
  8
0
100
AcDbMText
 62
2
  6
CONTINUOUS
  7
STANDARD
 71
2
 72
1
 10
6.055
 20
-1.1565
 30
0.0
 11
1.0
 21
0.0
 31
0.0
 44
0.9
  1
Eaton/Char-Lynn H & S
 40
0.125
 41
4.2
  0
MTEXT
  5
260
100
AcDbEntity
  8
0
100
AcDbMText
 62
2
  6
CONTINUOUS
  7
STANDARD
 71
2
 72
1
 10
1.5275
 20
-1.4065
 30
0.0
 11
1.0
 21
0.0
 31
0.0
 44
0.9
  1
Open Cavity Quantity
 40
0.125
 41
4.0
  0
MTEXT
  5
261
100
AcDbEntity
  8
0
100
AcDbMText
 62
2
  6
CONTINUOUS
  7
STANDARD
 71
2
 72
1
 10
6.055
 20
-1.4065
 30
0.0
 11
1.0
 21
0.0
 31
0.0
 44
0.9
  1
2
 40
0.125
 41
0.2
  0
MTEXT
  5
262
100
AcDbEntity
  8
0
100
AcDbMText
 62
2
  6
CONTINUOUS
  7
STANDARD
 71
2
 72
1
 10
1.5275
 20
-1.6565
 30
0.0
 11
1.0
 21
0.0
 31
0.0
 44
0.9
  1
Weight
 40
0.125
 41
1.2
  0
MTEXT
  5
263
100
AcDbEntity
  8
0
100
AcDbMText
 62
2
  6
CONTINUOUS
  7
STANDARD
 71
2
 72
1
 10
4.555
 20
-1.6565
 30
0.0
 11
1.0
 21
0.0
 31
0.0
 44
0.9
  1
1.346 lb.
 40
0.125
 41
1.8
  0
MTEXT
  5
264
100
AcDbEntity
  8
0
100
AcDbMText
 62
2
  6
CONTINUOUS
  7
STANDARD
 71
2
 72
1
 10
7.555
 20
-1.6565
 30
0.0
 11
1.0
 21
0.0
 31
0.0
 44
0.9
  1
0,610 kg.
 40
0.125
 41
1.8
  0
ENDBLK
  5
265
100
AcDbEntity
  8
0
  6
BYBLOCK
 62
0
100
AcDbBlockEnd
  0
ENDSEC
  0
SECTION
  2
ENTITIES
  0
IMAGE
  5
266
100
AcDbEntity
  8
0
100
AcDbRasterImage
 62
7
  6
CONTINUOUS
 10
19.2297077316
 20
0.3094318264
 30
0.0
 11
0.0066666667
 21
0.0
 31
0.0
 12
0.0
 22
0.0066666667
 32
0.0
 13
369.0
 23
92.0
340
       368
 70
9
280
0
281
50
282
50
283
0
360
       362
 71
1
 91
2
 14
-0.5
 24
-0.5
 14
368.5
 24
91.5
  0
INSERT
  5
267
100
AcDbEntity
  8
0
100
AcDbBlockReference
 62
2
  6
CONTINUOUS
  2
SUN_FIRST_THIRD_ANGLE_BL0
 10
20.4816717061
 20
1.2289683772
  0
ACAD_TABLE
  5
268
100
AcDbEntity
  8
0
 62
2
  6
CONTINUOUS
100
AcDbBlockReference
  2
*T1
 10
12.42375
 20
0.30125
 30
0.0
100
AcDbTable
342
       36A
343
20A
 11
1.0
 21
0.0
 31
0.0
 90
6
 91
4
 92
6
 93
20
 94
0
 95
0
 96
0
 70
1
 41
0.0
141
0.525
141
0.1
141
0.525
141
0.1
142
4.1
142
1.1
142
0.7
142
0.5
142
0.4
142
2.475
171
1
172
0
173
0
174
0
175
1
176
1
 91
33
178
0
145
0.0
301
CELL_VALUE
 90
4
  1
T-11A Motor mount Eaton/Char-Lynn H & S\PCross pilot
304
ACVALUE_END
170
2
140
0.125
171
1
172
0
173
0
174
0
175
1
176
1
 91
33
178
0
145
0.0
301
CELL_VALUE
 90
4
  1
Oct-05-20
304
ACVALUE_END
170
5
140
0.125
171
1
172
0
173
0
174
0
175
1
176
1
 91
33
178
0
145
0.0
301
CELL_VALUE
 90
4
  1
2.000
304
ACVALUE_END
170
5
140
0.125
171
1
172
0
173
0
174
0
175
1
176
1
 91
33
178
0
145
0.0
301
CELL_VALUE
 90
4
  1
C
304
ACVALUE_END
170
5
140
0.125
171
1
172
0
173
0
174
0
175
1
176
1
 91
33
178
0
145
0.0
301
CELL_VALUE
 90
4
  1
2
304
ACVALUE_END
170
5
140
0.125
171
1
172
0
173
0
174
0
175
1
176
1
 91
33
178
0
145
0.0
301
CELL_VALUE
 90
4
  1
 
304
ACVALUE_END
170
1
140
0.125
171
1
172
0
173
0
174
0
175
1
176
1
 91
33
178
0
145
0.0
301
CELL_VALUE
 90
4
  1
DESCRIPTION
304
ACVALUE_END
170
1
140
0.06
171
1
172
0
173
0
174
0
175
1
176
1
 91
33
178
0
145
0.0
301
CELL_VALUE
 90
4
  1
DATE
304
ACVALUE_END
170
1
140
0.06
171
1
172
0
173
0
174
0
175
1
176
1
 91
33
178
0
145
0.0
301
CELL_VALUE
 90
4
  1
SCALE
304
ACVALUE_END
170
1
140
0.06
171
1
172
0
173
0
174
0
175
1
176
1
 91
33
178
0
145
0.0
301
CELL_VALUE
 90
4
  1
DWG SIZE
304
ACVALUE_END
170
1
140
0.06
171
1
172
0
173
0
174
0
175
1
176
1
 91
33
178
0
145
0.0
301
CELL_VALUE
 90
4
  1
SHEET
304
ACVALUE_END
170
1
140
0.06
171
1
172
0
173
0
174
0
175
1
176
1
 91
33
178
0
145
0.0
301
CELL_VALUE
 90
4
  1
 
304
ACVALUE_END
170
1
140
0.125
171
1
172
0
173
0
174
0
175
1
176
1
 91
33
178
0
145
0.0
301
CELL_VALUE
 90
4
  1
VTS
304
ACVALUE_END
170
5
140
0.125
171
1
172
0
173
0
174
0
175
4
176
1
 91
33
178
0
145
0.0
301
CELL_VALUE
 90
4
  1
ALL DIMENSIONS IN INCH\PVIEWS ARE THIRD ANGLE
304
ACVALUE_END
170
5
140
0.12
171
1
172
0
173
1
174
0
175
1
176
1
 91
1
178
0
145
0.0
170
1
171
1
172
0
173
1
174
0
175
1
176
1
 91
1
178
0
145
0.0
170
1
171
1
172
0
173
1
174
0
175
1
176
1
 91
1
178
0
145
0.0
170
5
171
1
172
0
173
0
174
0
175
1
176
1
 91
33
178
0
145
0.0
301
CELL_VALUE
 90
4
  1
 
304
ACVALUE_END
170
1
140
0.125
171
1
172
0
173
0
174
0
175
1
176
1
 91
33
178
0
145
0.0
301
CELL_VALUE
 90
4
  1
MODEL
304
ACVALUE_END
170
1
140
0.06
171
1
172
0
173
0
174
0
175
1
176
1
 91
33
178
0
145
0.0
301
CELL_VALUE
 90
4
  1
 
304
ACVALUE_END
170
1
140
0.125
171
1
172
0
173
0
174
0
175
1
176
1
 91
33
178
0
145
0.0
301
CELL_VALUE
 90
4
  1
 
304
ACVALUE_END
170
1
140
0.125
171
1
172
0
173
0
174
0
175
1
176
1
 91
33
178
0
145
0.0
301
CELL_VALUE
 90
4
  1
 
304
ACVALUE_END
170
1
140
0.125
171
1
172
0
173
0
174
0
175
1
176
1
 91
33
178
0
145
0.0
301
CELL_VALUE
 90
4
  1
 
304
ACVALUE_END
170
1
140
0.125
171
1
172
0
173
0
174
0
175
1
176
1
 91
33
178
0
145
0.0
301
CELL_VALUE
 90
4
  1
 
304
ACVALUE_END
170
1
140
0.125
  0
ACAD_TABLE
  5
269
100
AcDbEntity
  8
0
 62
2
  6
CONTINUOUS
100
AcDbBlockReference
  2
*T2
 10
12.4237499994
 20
16.47875
 30
0.0
100
AcDbTable
342
       369
343
20B
 11
1.0
 21
0.0
 31
0.0
 90
22
 91
7
 92
3
 93
16
 94
0
 95
0
 96
0
 41
0.028
141
0.344
141
0.25
141
0.25
141
0.25
141
0.25
141
0.25
141
0.25
142
3.055
142
3.0
142
3.0
171
1
172
0
173
0
174
0
175
1
176
1
 91
33
178
0
145
0.0
301
CELL_VALUE
 90
4
  1
Technical Data
304
ACVALUE_END
170
5
140
0.145
171
1
172
0
173
0
174
0
175
1
176
1
 91
33
178
0
145
0.0
301
CELL_VALUE
 90
4
  1
U.S. Units
304
ACVALUE_END
170
5
140
0.145
171
1
172
0
173
0
174
0
175
1
176
1
 91
33
178
0
145
0.0
301
CELL_VALUE
 90
4
  1
Metric Units
304
ACVALUE_END
170
5
140
0.145
171
1
172
0
173
0
174
0
175
1
176
1
 91
33
178
0
145
0.0
301
CELL_VALUE
 90
4
  1
Cavity
304
ACVALUE_END
170
5
140
0.125
171
1
172
0
173
0
174
0
175
2
176
1
 91
33
178
0
145
0.0
301
CELL_VALUE
 90
4
  1
T-11A
304
ACVALUE_END
170
5
140
0.125
171
1
172
0
173
1
174
0
175
1
176
1
 91
1
178
0
145
0.0
170
1
171
1
172
0
173
0
174
0
175
1
176
1
 91
33
178
0
145
0.0
301
CELL_VALUE
 90
4
  1
Body Features
304
ACVALUE_END
170
5
140
0.125
171
1
172
0
173
0
174
0
175
2
176
1
 91
33
178
0
145
0.0
301
CELL_VALUE
 90
4
  1
Cross pilot
304
ACVALUE_END
170
5
140
0.125
171
1
172
0
173
1
174
0
175
1
176
1
 91
1
178
0
145
0.0
170
1
171
1
172
0
173
0
174
0
175
1
176
1
 91
33
178
0
145
0.0
301
CELL_VALUE
 90
4
  1
Body Type
304
ACVALUE_END
170
5
140
0.125
171
1
172
0
173
0
174
0
175
2
176
1
 91
33
178
0
145
0.0
301
CELL_VALUE
 90
4
  1
Motor mount
304
ACVALUE_END
170
5
140
0.125
171
1
172
0
173
1
174
0
175
1
176
1
 91
1
178
0
145
0.0
170
1
171
1
172
0
173
0
174
0
175
1
176
1
 91
33
178
0
145
0.0
301
CELL_VALUE
 90
4
  1
Interface
304
ACVALUE_END
170
5
140
0.125
171
1
172
0
173
0
174
0
175
2
176
1
 91
33
178
0
145
0.0
301
CELL_VALUE
 90
4
  1
Eaton/Char-Lynn H & S
304
ACVALUE_END
170
5
140
0.125
171
1
172
0
173
1
174
0
175
1
176
1
 91
1
178
0
145
0.0
170
1
171
1
172
0
173
0
174
0
175
1
176
1
 91
33
178
0
145
0.0
301
CELL_VALUE
 90
4
  1
Open Cavity Quantity
304
ACVALUE_END
170
5
140
0.125
171
1
172
0
173
0
174
0
175
2
176
1
 91
33
178
0
145
0.0
301
CELL_VALUE
 90
4
  1
2
304
ACVALUE_END
170
5
140
0.125
171
1
172
0
173
1
174
0
175
1
176
1
 91
1
178
0
145
0.0
170
1
171
1
172
0
173
0
174
0
175
1
176
1
 91
33
178
0
145
0.0
301
CELL_VALUE
 90
4
  1
Weight
304
ACVALUE_END
170
5
140
0.125
171
1
172
0
173
0
174
0
175
1
176
1
 91
33
178
0
145
0.0
301
CELL_VALUE
 90
4
  1
1.346 lb.
304
ACVALUE_END
170
5
140
0.125
171
1
172
0
173
0
174
0
175
1
176
1
 91
33
178
0
145
0.0
301
CELL_VALUE
 90
4
  1
0,610 kg.
304
ACVALUE_END
170
5
140
0.125
  0
MTEXT
  5
26A
100
AcDbEntity
  8
0
100
AcDbMText
 62
2
  6
CONTINUOUS
  7
STANDARD
 71
1
 72
1
 10
0.52125
 20
5.75995
 30
0.0
 11
1.0
 21
0.0
 31
0.0
 44
0.6
  3
Notes\P \P1. Important: Carefully consider\P   the maximum system pressure. The\P   pressure rating of the manifold is\P   dependent on the manifold material,\P   with the port type/size a secondary\P   consideration. Manifolds\P   constructed of alu
  1
minum are not\P   rated for pressures higher than\P   3000 psi (210 bar), regardless of\P   the port type/size specified.
 40
0.1
 41
3.04
  0
LINE
  5
26B
100
AcDbEntity
  8
0
100
AcDbLine
 62
7
  6
CONTINUOUS
 10
0.30125
 20
0.30125
 11
0.30125
 21
16.69875
  0
LINE
  5
26C
100
AcDbEntity
  8
0
100
AcDbLine
 62
7
  6
CONTINUOUS
 10
0.30125
 20
0.30125
 11
21.69875
 21
0.30125
  0
LINE
  5
26D
100
AcDbEntity
  8
0
100
AcDbLine
 62
7
  6
CONTINUOUS
 10
0.30125
 20
16.69875
 11
21.69875
 21
16.69875
  0
LINE
  5
26E
100
AcDbEntity
  8
0
100
AcDbLine
 62
7
  6
CONTINUOUS
 10
21.69875
 20
0.30125
 11
21.69875
 21
16.69875
  0
LINE
  5
26F
100
AcDbEntity
  8
0
100
AcDbLine
 62
7
  6
CONTINUOUS
 10
6.1657258478
 20
8.9779693829
 11
6.1657258478
 21
6.6829295537
  0
LINE
  5
270
100
AcDbEntity
  8
0
100
AcDbLine
 62
7
  6
CONTINUOUS
 10
8.1068670841
 20
10.8529679466
 11
6.9279380694
 21
9.7142098966
  0
LINE
  5
271
100
AcDbEntity
  8
0
100
AcDbLine
 62
7
  6
CONTINUOUS
 10
6.8922395074
 20
9.6797277315
 11
6.1657258478
 21
8.9779693829
  0
LINE
  5
272
100
AcDbEntity
  8
0
100
AcDbLine
 62
7
  6
CONTINUOUS
 10
6.9231491372
 20
9.6775841414
 11
6.9588476991
 21
9.7120663065
  0
LINE
  5
273
100
AcDbEntity
  8
0
100
AcDbLine
 62
4
  6
CONTINUOUS
 10
7.1067164935
 20
9.6618966918
 11
7.1170692441
 21
9.6718966815
  0
LINE
  5
274
100
AcDbEntity
  8
0
100
AcDbLine
 62
4
  6
CONTINUOUS
 10
7.4585859375
 20
9.6267765037
 11
7.448258016
 21
9.6918004953
  0
LINE
  5
275
100
AcDbEntity
  8
0
100
AcDbLine
 62
4
  6
CONTINUOUS
 10
7.2443733434
 20
9.6898630084
 11
7.2743913609
 21
9.7038581888
  0
LINE
  5
276
100
AcDbEntity
  8
0
100
AcDbLine
 62
4
  6
CONTINUOUS
 10
7.448258016
 20
9.6918004953
 11
7.3136970582
 21
9.6368245816
  0
LINE
  5
277
100
AcDbEntity
  8
0
100
AcDbLine
 62
7
  6
CONTINUOUS
 10
6.1657258478
 20
6.6829295537
 11
13.8931329159
 21
6.1470320534
  0
LINE
  5
278
100
AcDbEntity
  8
0
100
AcDbLine
 62
4
  6
CONTINUOUS
 10
9.8773199749
 20
9.6859512631
 11
9.8640092919
 21
9.6730941298
  0
LINE
  5
279
100
AcDbEntity
  8
0
100
AcDbLine
 62
4
  6
CONTINUOUS
 10
9.9544877205
 20
9.6576326089
 11
9.9411770389
 21
9.6447754769
  0
LINE
  5
27A
100
AcDbEntity
  8
0
100
AcDbLine
 62
4
  6
CONTINUOUS
 10
10.1257008477
 20
9.6687259911
 11
10.0902056952
 21
9.6344403045
  0
LINE
  5
27B
100
AcDbEntity
  8
0
100
AcDbLine
 62
7
  6
CONTINUOUS
 10
14.6196465756
 20
6.848790402
 11
14.5887369459
 21
6.8509339921
  0
LINE
  5
27C
100
AcDbEntity
  8
0
100
AcDbLine
 62
4
  6
CONTINUOUS
 10
10.2184509584
 20
9.6668871598
 11
10.1740820158
 21
9.6240300497
  0
LINE
  5
27D
100
AcDbEntity
  8
0
100
AcDbLine
 62
4
  6
CONTINUOUS
 10
10.160771336
 20
9.6111729196
 11
10.1563344403
 21
9.6068872071
  0
LINE
  5
27E
100
AcDbEntity
  8
0
100
AcDbLine
 62
4
  6
CONTINUOUS
 10
10.5738821592
 20
9.9702074364
 11
10.511765641
 21
9.9102074837
  0
LINE
  5
27F
100
AcDbEntity
  8
0
100
AcDbLine
 62
4
  6
CONTINUOUS
 10
10.614472311
 20
9.9122715726
 11
10.6588412527
 21
9.9551286817
  0
LINE
  5
280
100
AcDbEntity
  8
0
100
AcDbLine
 62
4
  6
CONTINUOUS
 10
10.3630426099
 20
9.652266284
 11
10.305362986
 21
9.5965520424
  0
LINE
  5
281
100
AcDbEntity
  8
0
100
AcDbLine
 62
4
  6
CONTINUOUS
 10
10.4337143889
 20
9.6519585902
 11
10.3893454463
 21
9.6091014801
  0
LINE
  5
282
100
AcDbEntity
  8
0
100
AcDbLine
 62
4
  6
CONTINUOUS
 10
10.7836261449
 20
9.9556616416
 11
10.7215096267
 21
9.8956616889
  0
LINE
  5
283
100
AcDbEntity
  8
0
100
AcDbLine
 62
4
  6
CONTINUOUS
 10
10.4886978838
 20
9.6022113652
 11
10.5286299321
 21
9.6407827642
  0
LINE
  5
284
100
AcDbEntity
  8
0
100
AcDbLine
 62
4
  6
CONTINUOUS
 10
10.7966182991
 20
9.8996397054
 11
10.8409872408
 21
9.9424968146
  0
LINE
  5
285
100
AcDbEntity
  8
0
100
AcDbLine
 62
4
  6
CONTINUOUS
 10
10.5993017111
 20
9.6404750704
 11
10.5638065562
 21
9.6061893816
  0
LINE
  5
286
100
AcDbEntity
  8
0
100
AcDbLine
 62
4
  6
CONTINUOUS
 10
10.9568983443
 20
9.9344583522
 11
10.9125294026
 21
9.891601243
  0
LINE
  5
287
100
AcDbEntity
  8
0
100
AcDbLine
 62
4
  6
CONTINUOUS
 10
11.3341571066
 20
9.7760051444
 11
11.2058056692
 21
9.720598599
  0
LINE
  5
288
100
AcDbEntity
  8
0
100
AcDbLine
 62
4
  6
CONTINUOUS
 10
10.150814885
 20
9.6072699896
 11
10.160771336
 21
9.6111729196
  0
LINE
  5
289
100
AcDbEntity
  8
0
100
AcDbLine
 62
7
  6
CONTINUOUS
 10
14.6553451376
 20
6.883272567
 11
14.6244355078
 21
6.8854161571
  0
LINE
  5
28A
100
AcDbEntity
  8
0
100
AcDbLine
 62
4
  6
CONTINUOUS
 10
7.1160290025
 20
9.6558918855
 11
7.1067164935
 21
9.6618966918
  0
LINE
  5
28B
100
AcDbEntity
  8
0
100
AcDbLine
 62
4
  6
CONTINUOUS
 10
10.6942171437
 20
9.629299252
 11
10.6809064607
 21
9.6164421187
  0
LINE
  5
28C
100
AcDbEntity
  8
0
100
AcDbLine
 62
4
  6
CONTINUOUS
 10
10.8837172152
 20
9.7980564355
 11
10.8748434265
 21
9.7894850133
  0
LINE
  5
28D
100
AcDbEntity
  8
0
100
AcDbLine
 62
4
  6
CONTINUOUS
 10
10.7304765417
 20
9.5900373705
 11
10.7393503295
 21
9.5986087918
  0
LINE
  5
28E
100
AcDbEntity
  8
0
100
AcDbLine
 62
4
  6
CONTINUOUS
 10
10.9641331647
 20
9.7557322853
 11
10.9552593769
 21
9.747160864
  0
LINE
  5
28F
100
AcDbEntity
  8
0
100
AcDbLine
 62
4
  6
CONTINUOUS
 10
11.1500834429
 20
9.9210609201
 11
11.1057145013
 21
9.878203811
  0
LINE
  5
290
100
AcDbEntity
  8
0
100
AcDbLine
 62
4
  6
CONTINUOUS
 10
10.8476825838
 20
9.6232497984
 11
10.8033136412
 21
9.5803926883
  0
LINE
  5
291
100
AcDbEntity
  8
0
100
AcDbLine
 62
4
  6
CONTINUOUS
 10
10.8518010609
 20
9.5586564332
 11
10.913917579
 21
9.6186563859
  0
LINE
  5
292
100
AcDbEntity
  8
0
100
AcDbLine
 62
4
  6
CONTINUOUS
 10
11.1409719319
 20
9.7894025818
 11
11.0788554138
 21
9.7294026291
  0
LINE
  5
293
100
AcDbEntity
  8
0
100
AcDbLine
 62
4
  6
CONTINUOUS
 10
11.0088330117
 20
9.6074805675
 11
10.9733378592
 21
9.5731948809
  0
LINE
  5
294
100
AcDbEntity
  8
0
100
AcDbLine
 62
4
  6
CONTINUOUS
 10
11.9041000986
 20
9.877956509
 11
11.7757486682
 21
9.8225499631
  0
LINE
  5
295
100
AcDbEntity
  8
0
100
AcDbLine
 62
4
  6
CONTINUOUS
 10
11.1384511014
 20
9.6183963018
 11
11.0130576269
 21
9.5658468935
  0
LINE
  5
296
100
AcDbEntity
  8
0
100
AcDbLine
 62
4
  6
CONTINUOUS
 10
11.5066905972
 20
9.9055169515
 11
11.444574079
 21
9.8455169988
  0
LINE
  5
297
100
AcDbEntity
  8
0
100
AcDbLine
 62
4
  6
CONTINUOUS
 10
11.1830817896
 20
9.55864909
 11
11.2230138364
 21
9.5972204876
  0
LINE
  5
298
100
AcDbEntity
  8
0
100
AcDbLine
 62
4
  6
CONTINUOUS
 10
11.6391604218
 20
9.896330138
 11
11.5770439036
 21
9.8363301853
  0
LINE
  5
299
100
AcDbEntity
  8
0
100
AcDbLine
 62
4
  6
CONTINUOUS
 10
11.3223662187
 20
9.5903303765
 11
11.2602497005
 21
9.5303304238
  0
LINE
  5
29A
100
AcDbEntity
  8
0
100
AcDbLine
 62
4
  6
CONTINUOUS
 10
11.5707471467
 20
9.5731051006
 11
11.5086306286
 21
9.5131051479
  0
LINE
  5
29B
100
AcDbEntity
  8
0
100
AcDbLine
 62
4
  6
CONTINUOUS
 10
11.9446901676
 20
9.8200206509
 11
11.9890591093
 21
9.8628777601
  0
LINE
  5
29C
100
AcDbEntity
  8
0
100
AcDbLine
 62
4
  6
CONTINUOUS
 10
11.6866582502
 20
9.5650666383
 11
11.624541732
 21
9.5050666856
  0
LINE
  5
29D
100
AcDbEntity
  8
0
100
AcDbLine
 62
4
  6
CONTINUOUS
 10
11.7440193737
 20
9.5519018093
 11
11.6907766443
 21
9.5004732788
  0
LINE
  5
29E
100
AcDbEntity
  8
0
100
AcDbLine
 62
4
  6
CONTINUOUS
 10
12.1138439876
 20
9.8634107209
 11
12.0517274694
 21
9.8034107682
  0
LINE
  5
29F
100
AcDbEntity
  8
0
100
AcDbLine
 62
4
  6
CONTINUOUS
 10
11.8066877477
 20
9.4924348165
 11
11.8599304772
 21
9.543863347
  0
LINE
  5
2A0
100
AcDbEntity
  8
0
100
AcDbLine
 62
4
  6
CONTINUOUS
 10
11.9261653895
 20
9.5392699402
 11
11.9172916008
 21
9.5306985181
  0
LINE
  5
2A1
100
AcDbEntity
  8
0
100
AcDbLine
 62
4
  6
CONTINUOUS
 10
12.006581339
 20
9.49694579
 11
11.9977075512
 21
9.4883743687
  0
LINE
  5
2A2
100
AcDbEntity
  8
0
100
AcDbLine
 62
4
  6
CONTINUOUS
 10
7.1398304031
 20
9.6488822751
 11
7.1160290025
 21
9.6558918855
  0
LINE
  5
2A3
100
AcDbEntity
  8
0
100
AcDbLine
 62
7
  6
CONTINUOUS
 10
13.8931329159
 20
8.4420718826
 11
6.1657258478
 21
8.9779693829
  0
LINE
  5
2A4
100
AcDbEntity
  8
0
100
AcDbLine
 62
4
  6
CONTINUOUS
 10
10.5638065562
 20
9.6061893816
 11
10.5714914344
 21
9.5964696129
  0
LINE
  5
2A5
100
AcDbEntity
  8
0
100
AcDbLine
 62
4
  6
CONTINUOUS
 10
11.1124099539
 20
9.5589567862
 11
11.1071026777
 21
9.6052589538
  0
LINE
  5
2A6
100
AcDbEntity
  8
0
100
AcDbLine
 62
4
  6
CONTINUOUS
 10
11.3382755076
 20
9.7114117845
 11
11.3341571066
 21
9.7760051444
  0
LINE
  5
2A7
100
AcDbEntity
  8
0
100
AcDbLine
 62
4
  6
CONTINUOUS
 10
14.3642874393
 20
9.2121722258
 11
14.2297264815
 21
9.157196312
  0
LINE
  5
2A8
100
AcDbEntity
  8
0
100
AcDbLine
 62
4
  6
CONTINUOUS
 10
9.8539465926
 20
9.6462315167
 11
9.8418248224
 21
9.6516655766
  0
LINE
  5
2A9
100
AcDbEntity
  8
0
100
AcDbLine
 62
4
  6
CONTINUOUS
 10
9.9766721914
 20
9.6790611635
 11
9.9645504198
 21
9.684495222
  0
LINE
  5
2AA
100
AcDbEntity
  8
0
100
AcDbLine
 62
4
  6
CONTINUOUS
 10
10.1135790762
 20
9.6741600496
 11
10.1257008477
 21
9.6687259911
  0
LINE
  5
2AB
100
AcDbEntity
  8
0
100
AcDbLine
 62
4
  6
CONTINUOUS
 10
10.7370787566
 20
9.5849860931
 11
10.7304765417
 21
9.5900373705
  0
LINE
  5
2AC
100
AcDbEntity
  8
0
100
AcDbLine
 62
4
  6
CONTINUOUS
 10
11.7757486682
 20
9.8225499631
 11
11.7716302464
 21
9.8871433245
  0
LINE
  5
2AD
100
AcDbEntity
  8
0
100
AcDbLine
 62
4
  6
CONTINUOUS
 10
11.9977075512
 20
9.4883743687
 11
11.9557163038
 21
9.482099651
  0
LINE
  5
2AE
100
AcDbEntity
  8
0
100
AcDbLine
 62
4
  6
CONTINUOUS
 10
11.9681566343
 20
9.5455446591
 11
11.9261653895
 21
9.5392699402
  0
LINE
  5
2AF
100
AcDbEntity
  8
0
100
AcDbLine
 62
4
  6
CONTINUOUS
 10
11.7860106048
 20
9.5581765291
 11
11.7440193737
 21
9.5519018093
  0
LINE
  5
2B0
100
AcDbEntity
  8
0
100
AcDbLine
 62
4
  6
CONTINUOUS
 10
10.9733378592
 20
9.5731948809
 11
10.9357835211
 21
9.5712058709
  0
LINE
  5
2B1
100
AcDbEntity
  8
0
100
AcDbLine
 62
4
  6
CONTINUOUS
 10
7.1688081789
 20
9.6468726595
 11
7.1398304031
 21
9.6488822751
  0
LINE
  5
2B2
100
AcDbEntity
  8
0
100
AcDbLine
 62
7
  6
CONTINUOUS
 10
14.6196465756
 20
9.1438302312
 11
14.5887369459
 21
9.1459738213
  0
LINE
  5
2B3
100
AcDbEntity
  8
0
100
AcDbLine
 62
7
  6
CONTINUOUS
 10
6.8922395074
 20
9.6797277315
 11
6.9231491372
 21
9.6775841414
  0
LINE
  5
2B4
100
AcDbEntity
  8
0
100
AcDbLine
 62
7
  6
CONTINUOUS
 10
14.6553451376
 20
9.1783123962
 11
14.6244355078
 21
9.1804559863
  0
LINE
  5
2B5
100
AcDbEntity
  8
0
100
AcDbLine
 62
7
  6
CONTINUOUS
 10
6.9279380694
 20
9.7142098966
 11
6.9588476991
 21
9.7120663065
  0
LINE
  5
2B6
100
AcDbEntity
  8
0
100
AcDbLine
 62
4
  6
CONTINUOUS
 10
7.2743913609
 20
9.7038581888
 11
7.1584802574
 21
9.7118966511
  0
LINE
  5
2B7
100
AcDbEntity
  8
0
100
AcDbLine
 62
4
  6
CONTINUOUS
 10
11.9557163038
 20
9.482099651
 11
11.8894813881
 21
9.4866930581
  0
LINE
  5
2B8
100
AcDbEntity
  8
0
100
AcDbLine
 62
4
  6
CONTINUOUS
 10
10.1563344403
 20
9.6068872071
 11
10.150814885
 21
9.6072699896
  0
LINE
  5
2B9
100
AcDbEntity
  8
0
100
AcDbLine
 62
4
  6
CONTINUOUS
 10
11.2779972761
 20
9.5474732664
 11
11.195203615
 21
9.5532150263
  0
LINE
  5
2BA
100
AcDbEntity
  8
0
100
AcDbLine
 62
4
  6
CONTINUOUS
 10
10.9357835211
 20
9.5712058709
 11
10.8695486364
 21
9.5757992758
  0
LINE
  5
2BB
100
AcDbEntity
  8
0
100
AcDbLine
 62
4
  6
CONTINUOUS
 10
10.8033136412
 20
9.5803926883
 11
10.7370787566
 21
9.5849860931
  0
LINE
  5
2BC
100
AcDbEntity
  8
0
100
AcDbLine
 62
4
  6
CONTINUOUS
 10
10.0692101335
 20
9.6313029395
 11
10.0029750278
 21
9.6358963597
  0
LINE
  5
2BD
100
AcDbEntity
  8
0
100
AcDbLine
 62
4
  6
CONTINUOUS
 10
9.9201814772
 20
9.6416381119
 11
9.8539465926
 21
9.6462315167
  0
LINE
  5
2BE
100
AcDbEntity
  8
0
100
AcDbLine
 62
4
  6
CONTINUOUS
 10
10.5714914344
 20
9.5964696129
 11
10.6542850955
 21
9.590727853
  0
LINE
  5
2BF
100
AcDbEntity
  8
0
100
AcDbLine
 62
4
  6
CONTINUOUS
 10
10.6433521244
 20
9.6144531105
 11
10.5771172398
 21
9.6190465154
  0
LINE
  5
2C0
100
AcDbEntity
  8
0
100
AcDbLine
 62
4
  6
CONTINUOUS
 10
12.0343915518
 20
9.5409512519
 11
11.9681566343
 21
9.5455446591
  0
LINE
  5
2C1
100
AcDbEntity
  8
0
100
AcDbLine
 62
4
  6
CONTINUOUS
 10
11.8356868097
 20
9.5547314726
 11
11.7860106048
 21
9.5581765291
  0
LINE
  5
2C2
100
AcDbEntity
  8
0
100
AcDbLine
 62
4
  6
CONTINUOUS
 10
10.51650805
 20
9.6462168303
 11
10.4337143889
 21
9.6519585902
  0
LINE
  5
2C3
100
AcDbEntity
  8
0
100
AcDbLine
 62
4
  6
CONTINUOUS
 10
9.9645504198
 20
9.684495222
 11
9.8983155352
 21
9.6890886268
  0
LINE
  5
2C4
100
AcDbEntity
  8
0
100
AcDbLine
 62
4
  6
CONTINUOUS
 10
10.0473439704
 20
9.6787534697
 11
10.1135790762
 21
9.6741600496
  0
LINE
  5
2C5
100
AcDbEntity
  8
0
100
AcDbLine
 62
4
  6
CONTINUOUS
 10
10.3178032854
 20
9.6599970525
 11
10.3509207278
 21
9.6577003501
  0
LINE
  5
2C6
100
AcDbEntity
  8
0
100
AcDbLine
 62
4
  6
CONTINUOUS
 10
10.5993017111
 20
9.6404750704
 11
10.6655365957
 21
9.6358816656
  0
LINE
  5
2C7
100
AcDbEntity
  8
0
100
AcDbLine
 62
4
  6
CONTINUOUS
 10
10.913917579
 20
9.6186563859
 11
10.9801524637
 21
9.614062981
  0
LINE
  5
2C8
100
AcDbEntity
  8
0
100
AcDbLine
 62
4
  6
CONTINUOUS
 10
9.8776100285
 20
9.669088642
 11
9.9408869839
 21
9.6616380967
  0
LINE
  5
2C9
100
AcDbEntity
  8
0
100
AcDbLine
 62
4
  6
CONTINUOUS
 10
10.6655365957
 20
9.6358816656
 11
10.6942171437
 21
9.629299252
  0
LINE
  5
2CA
100
AcDbEntity
  8
0
100
AcDbLine
 62
4
  6
CONTINUOUS
 10
10.9801524637
 20
9.614062981
 11
11.0088330117
 21
9.6074805675
  0
LINE
  5
2CB
100
AcDbEntity
  8
0
100
AcDbLine
 62
4
  6
CONTINUOUS
 10
9.8640092919
 20
9.6730941298
 11
9.8776100285
 21
9.669088642
  0
LINE
  5
2CC
100
AcDbEntity
  8
0
100
AcDbLine
 62
4
  6
CONTINUOUS
 10
9.9408869839
 20
9.6616380967
 11
9.9544877205
 21
9.6576326089
  0
LINE
  5
2CD
100
AcDbEntity
  8
0
100
AcDbLine
 62
4
  6
CONTINUOUS
 10
10.3509207278
 20
9.6577003501
 11
10.3630426099
 21
9.652266284
  0
LINE
  5
2CE
100
AcDbEntity
  8
0
100
AcDbLine
 62
4
  6
CONTINUOUS
 10
10.5286299321
 20
9.6407827642
 11
10.51650805
 21
9.6462168303
  0
LINE
  5
2CF
100
AcDbEntity
  8
0
100
AcDbLine
 62
4
  6
CONTINUOUS
 10
11.195203615
 20
9.5532150263
 11
11.1830817896
 21
9.55864909
  0
LINE
  5
2D0
100
AcDbEntity
  8
0
100
AcDbLine
 62
4
  6
CONTINUOUS
 10
10.8470332069
 20
9.7454795538
 11
10.8349113815
 21
9.7509136174
  0
LINE
  5
2D1
100
AcDbEntity
  8
0
100
AcDbLine
 62
4
  6
CONTINUOUS
 10
11.624541732
 20
9.5050666856
 11
11.5707471467
 21
9.5731051006
  0
LINE
  5
2D2
100
AcDbEntity
  8
0
100
AcDbLine
 62
4
  6
CONTINUOUS
 10
11.9890591093
 20
9.8628777601
 11
12.0310503541
 21
9.8691524789
  0
LINE
  5
2D3
100
AcDbEntity
  8
0
100
AcDbLine
 62
4
  6
CONTINUOUS
 10
10.9552593769
 20
9.747160864
 11
10.9132681192
 21
9.740886147
  0
LINE
  5
2D4
100
AcDbEntity
  8
0
100
AcDbLine
 62
4
  6
CONTINUOUS
 10
10.0902056952
 20
9.6344403045
 11
10.0692101335
 21
9.6313029395
  0
LINE
  5
2D5
100
AcDbEntity
  8
0
100
AcDbLine
 62
4
  6
CONTINUOUS
 10
9.9411770389
 20
9.6447754769
 11
9.9201814772
 21
9.6416381119
  0
LINE
  5
2D6
100
AcDbEntity
  8
0
100
AcDbLine
 62
4
  6
CONTINUOUS
 10
10.9257084462
 20
9.8043311553
 11
10.8837172152
 21
9.7980564355
  0
LINE
  5
2D7
100
AcDbEntity
  8
0
100
AcDbLine
 62
4
  6
CONTINUOUS
 10
9.8983155352
 20
9.6890886268
 11
9.8773199749
 21
9.6859512631
  0
LINE
  5
2D8
100
AcDbEntity
  8
0
100
AcDbLine
 62
4
  6
CONTINUOUS
 10
11.1057145013
 20
9.878203811
 11
11.0637232711
 21
9.8719290921
  0
LINE
  5
2D9
100
AcDbEntity
  8
0
100
AcDbLine
 62
4
  6
CONTINUOUS
 10
10.9125294026
 20
9.891601243
 11
10.8705381725
 21
9.8853265242
  0
LINE
  5
2DA
100
AcDbEntity
  8
0
100
AcDbLine
 62
4
  6
CONTINUOUS
 10
10.8409872408
 20
9.9424968146
 11
10.8829784719
 21
9.9487715343
  0
LINE
  5
2DB
100
AcDbEntity
  8
0
100
AcDbLine
 62
4
  6
CONTINUOUS
 10
7.2029623301
 20
9.6498630388
 11
7.1688081789
 21
9.6468726595
  0
LINE
  5
2DC
100
AcDbEntity
  8
0
100
AcDbLine
 62
4
  6
CONTINUOUS
 10
10.6809064607
 20
9.6164421187
 11
10.6433521244
 21
9.6144531105
  0
LINE
  5
2DD
100
AcDbEntity
  8
0
100
AcDbLine
 62
4
  6
CONTINUOUS
 10
12.1195475186
 20
9.82320562
 11
12.2196924608
 21
9.8285096407
  0
LINE
  5
2DE
100
AcDbEntity
  8
0
100
AcDbLine
 62
4
  6
CONTINUOUS
 10
11.1715685437
 20
9.6160995994
 11
11.1384511014
 21
9.6183963018
  0
LINE
  5
2DF
100
AcDbEntity
  8
0
100
AcDbLine
 62
4
  6
CONTINUOUS
 10
11.1450903399
 20
9.7248092214
 11
11.0126205015
 21
9.7339960359
  0
LINE
  5
2E0
100
AcDbEntity
  8
0
100
AcDbLine
 62
4
  6
CONTINUOUS
 10
10.9132681192
 20
9.740886147
 11
10.8470332069
 21
9.7454795538
  0
LINE
  5
2E1
100
AcDbEntity
  8
0
100
AcDbLine
 62
4
  6
CONTINUOUS
 10
10.9919433862
 20
9.7997377466
 11
10.9257084462
 21
9.8043311553
  0
LINE
  5
2E2
100
AcDbEntity
  8
0
100
AcDbLine
 62
4
  6
CONTINUOUS
 10
12.0517274694
 20
9.8034107682
 11
11.968933836
 21
9.8091525262
  0
LINE
  5
2E3
100
AcDbEntity
  8
0
100
AcDbLine
 62
4
  6
CONTINUOUS
 10
11.6432788436
 20
9.8317367766
 11
11.510809019
 21
9.8409235902
  0
LINE
  5
2E4
100
AcDbEntity
  8
0
100
AcDbLine
 62
4
  6
CONTINUOUS
 10
11.444574079
 20
9.8455169988
 11
11.3452216968
 21
9.85240711
  0
LINE
  5
2E5
100
AcDbEntity
  8
0
100
AcDbLine
 62
4
  6
CONTINUOUS
 10
11.0637232711
 20
9.8719290921
 11
10.9974883865
 21
9.8765224969
  0
LINE
  5
2E6
100
AcDbEntity
  8
0
100
AcDbLine
 62
4
  6
CONTINUOUS
 10
10.8705381725
 20
9.8853265242
 11
10.8208619537
 21
9.8887715816
  0
LINE
  5
2E7
100
AcDbEntity
  8
0
100
AcDbLine
 62
4
  6
CONTINUOUS
 10
10.7215096267
 20
9.8956616889
 11
10.6387159656
 21
9.9014034488
  0
LINE
  5
2E8
100
AcDbEntity
  8
0
100
AcDbLine
 62
4
  6
CONTINUOUS
 10
10.511765641
 20
9.9102074837
 11
10.412413314
 21
9.917097591
  0
LINE
  5
2E9
100
AcDbEntity
  8
0
100
AcDbLine
 62
4
  6
CONTINUOUS
 10
10.4721521197
 20
9.9405151525
 11
10.5383870044
 21
9.9359217476
  0
LINE
  5
2EA
100
AcDbEntity
  8
0
100
AcDbLine
 62
4
  6
CONTINUOUS
 10
11.4049605025
 20
9.8758246714
 11
11.4711954424
 21
9.8712312627
  0
LINE
  5
2EB
100
AcDbEntity
  8
0
100
AcDbLine
 62
4
  6
CONTINUOUS
 10
11.8642742171
 20
9.8623448002
 11
11.7759610007
 21
9.8684693426
  0
LINE
  5
2EC
100
AcDbEntity
  8
0
100
AcDbLine
 62
4
  6
CONTINUOUS
 10
11.5066905972
 20
9.9055169515
 11
11.407338215
 21
9.9124070626
  0
LINE
  5
2ED
100
AcDbEntity
  8
0
100
AcDbLine
 62
4
  6
CONTINUOUS
 10
10.5738821592
 20
9.9702074364
 11
10.4745298322
 21
9.9770975437
  0
LINE
  5
2EE
100
AcDbEntity
  8
0
100
AcDbLine
 62
4
  6
CONTINUOUS
 10
10.7008324838
 20
9.9614034015
 11
10.7836261449
 21
9.9556616416
  0
LINE
  5
2EF
100
AcDbEntity
  8
0
100
AcDbLine
 62
4
  6
CONTINUOUS
 10
10.8829784719
 20
9.9487715343
 11
10.9326546906
 21
9.9453264769
  0
LINE
  5
2F0
100
AcDbEntity
  8
0
100
AcDbLine
 62
4
  6
CONTINUOUS
 10
11.0596049047
 20
9.9365224496
 11
11.1258397893
 21
9.9319290448
  0
LINE
  5
2F1
100
AcDbEntity
  8
0
100
AcDbLine
 62
4
  6
CONTINUOUS
 10
12.0310503541
 20
9.8691524789
 11
12.1138439876
 21
9.8634107209
  0
LINE
  5
2F2
100
AcDbEntity
  8
0
100
AcDbLine
 62
4
  6
CONTINUOUS
 10
10.3698418634
 20
9.9445481193
 11
10.2933603659
 21
9.9621012252
  0
LINE
  5
2F3
100
AcDbEntity
  8
0
100
AcDbLine
 62
4
  6
CONTINUOUS
 10
10.8748434265
 20
9.7894850133
 11
10.9641331647
 21
9.7557322853
  0
LINE
  5
2F4
100
AcDbEntity
  8
0
100
AcDbLine
 62
4
  6
CONTINUOUS
 10
11.9172916008
 20
9.5306985181
 11
12.006581339
 21
9.49694579
  0
LINE
  5
2F5
100
AcDbEntity
  8
0
100
AcDbLine
 62
4
  6
CONTINUOUS
 10
10.6387159656
 20
9.9014034488
 11
10.614472311
 21
9.9122715726
  0
LINE
  5
2F6
100
AcDbEntity
  8
0
100
AcDbLine
 62
4
  6
CONTINUOUS
 10
11.004065213
 20
9.7943036843
 11
10.9919433862
 21
9.7997377466
  0
LINE
  5
2F7
100
AcDbEntity
  8
0
100
AcDbLine
 62
4
  6
CONTINUOUS
 10
10.8208619537
 20
9.8887715816
 11
10.7966182991
 21
9.8996397054
  0
LINE
  5
2F8
100
AcDbEntity
  8
0
100
AcDbLine
 62
4
  6
CONTINUOUS
 10
11.8894813881
 20
9.4866930581
 11
11.8773595558
 21
9.4921271222
  0
LINE
  5
2F9
100
AcDbEntity
  8
0
100
AcDbLine
 62
4
  6
CONTINUOUS
 10
10.9326546906
 20
9.9453264769
 11
10.9568983443
 21
9.9344583522
  0
LINE
  5
2FA
100
AcDbEntity
  8
0
100
AcDbLine
 62
4
  6
CONTINUOUS
 10
11.8599304772
 20
9.543863347
 11
11.8356868097
 21
9.5547314726
  0
LINE
  5
2FB
100
AcDbEntity
  8
0
100
AcDbLine
 62
4
  6
CONTINUOUS
 10
11.1258397893
 20
9.9319290448
 11
11.1500834429
 21
9.9210609201
  0
LINE
  5
2FC
100
AcDbEntity
  8
0
100
AcDbLine
 62
4
  6
CONTINUOUS
 10
12.0465133873
 20
9.535517189
 11
12.0343915518
 21
9.5409512519
  0
LINE
  5
2FD
100
AcDbEntity
  8
0
100
AcDbLine
 62
4
  6
CONTINUOUS
 10
14.0703487143
 20
9.1682491977
 11
14.1324652325
 21
9.2282491504
  0
LINE
  5
2FE
100
AcDbEntity
  8
0
100
AcDbLine
 62
4
  6
CONTINUOUS
 10
10.6588412527
 20
9.9551286817
 11
10.7008324838
 21
9.9614034015
  0
LINE
  5
2FF
100
AcDbEntity
  8
0
100
AcDbLine
 62
4
  6
CONTINUOUS
 10
7.136734511
 20
9.6758918721
 11
7.2050428151
 21
9.6818726325
  0
LINE
  5
300
100
AcDbEntity
  8
0
100
AcDbLine
 62
4
  6
CONTINUOUS
 10
10.2933603659
 20
9.9621012252
 11
10.3935053003
 21
9.9674052455
  0
LINE
  5
301
100
AcDbEntity
  8
0
100
AcDbLine
 62
4
  6
CONTINUOUS
 10
12.2196924608
 20
9.8285096407
 11
12.1432109555
 21
9.8460627462
  0
LINE
  5
302
100
AcDbEntity
  8
0
100
AcDbLine
 62
4
  6
CONTINUOUS
 10
11.968933836
 20
9.8091525262
 11
11.9446901676
 21
9.8200206509
  0
LINE
  5
303
100
AcDbEntity
  8
0
100
AcDbLine
 62
7
  6
CONTINUOUS
 10
14.5887369459
 20
9.1459738213
 11
14.6244355078
 21
9.1804559863
  0
LINE
  5
304
100
AcDbEntity
  8
0
100
AcDbLine
 62
7
  6
CONTINUOUS
 10
15.8342741522
 20
10.3170704463
 11
14.6553451376
 21
9.1783123962
  0
LINE
  5
305
100
AcDbEntity
  8
0
100
AcDbLine
 62
7
  6
CONTINUOUS
 10
14.6196465756
 20
9.1438302312
 11
13.8931329159
 21
8.4420718826
  0
LINE
  5
306
100
AcDbEntity
  8
0
100
AcDbLine
 62
4
  6
CONTINUOUS
 10
7.222627597
 20
9.6538582294
 11
7.2029623301
 21
9.6498630388
  0
LINE
  5
307
100
AcDbEntity
  8
0
100
AcDbLine
 62
4
  6
CONTINUOUS
 10
7.2050428151
 20
9.6818726325
 11
7.2443733434
 21
9.6898630084
  0
LINE
  5
308
100
AcDbEntity
  8
0
100
AcDbLine
 62
4
  6
CONTINUOUS
 10
7.1170692441
 20
9.6718966815
 11
7.136734511
 21
9.6758918721
  0
LINE
  5
309
100
AcDbEntity
  8
0
100
AcDbLine
 62
7
  6
CONTINUOUS
 10
15.8342741522
 20
10.3170704463
 11
8.1068670841
 21
10.8529679466
  0
LINE
  5
30A
100
AcDbEntity
  8
0
100
AcDbLine
 62
7
  6
CONTINUOUS
 10
13.8931329159
 20
6.1470320534
 11
13.8931329159
 21
8.4420718826
  0
LINE
  5
30B
100
AcDbEntity
  8
0
100
AcDbLine
 62
4
  6
CONTINUOUS
 10
14.3746153608
 20
9.1471482341
 11
14.3642874393
 21
9.2121722258
  0
LINE
  5
30C
100
AcDbEntity
  8
0
100
AcDbLine
 62
7
  6
CONTINUOUS
 10
14.5887369459
 20
6.8509339921
 11
14.6244355078
 21
6.8854161571
  0
LINE
  5
30D
100
AcDbEntity
  8
0
100
AcDbLine
 62
7
  6
CONTINUOUS
 10
15.8342741522
 20
8.0220306171
 11
14.6553451376
 21
6.883272567
  0
LINE
  5
30E
100
AcDbEntity
  8
0
100
AcDbLine
 62
7
  6
CONTINUOUS
 10
14.6196465756
 20
6.848790402
 11
13.8931329159
 21
6.1470320534
  0
LINE
  5
30F
100
AcDbEntity
  8
0
100
AcDbLine
 62
7
  6
CONTINUOUS
 10
15.8342741522
 20
8.0220306171
 11
15.8342741522
 21
10.3170704463
  0
SPLINE
  5
310
100
AcDbEntity
  8
0
100
AcDbSpline
 62
7
  6
CONTINUOUS
 70
0
 71
3
 72
17
 73
13
 74
0
 42
0.0000001
 43
0.0000001
 44
0.0000000001
 40
0.0
 40
0.0
 40
0.0
 40
0.0
 40
0.1480422875
 40
0.2876804317
 40
0.4195875179
 40
0.4829226981
 40
0.5446666594
 40
0.6639004228
 40
0.7785642458
 40
0.8900649301
 40
0.9451344636
 40
1.0
 40
1.0
 40
1.0
 40
1.0
 10
9.1762826266
 20
10.0419440995
 30
0.0
 10
9.177225496
 20
10.0428548414
 30
0.0
 10
9.1790024316
 20
10.0446834711
 30
0.0
 10
9.1813916528
 20
10.0475333025
 30
0.0
 10
9.1831054073
 20
10.0499584296
 30
0.0
 10
9.1842856129
 20
10.051904991
 30
0.0
 10
9.1853163245
 20
10.0538078156
 30
0.0
 10
9.1863874273
 20
10.0562024488
 30
0.0
 10
9.1873189398
 20
10.0591224876
 30
0.0
 10
9.1877878058
 20
10.0615752957
 30
0.0
 10
9.1879732655
 20
10.0635283251
 30
0.0
 10
9.1880041054
 20
10.0645020983
 30
0.0
 10
9.1880041024
 20
10.0649879265
 30
0.0
  0
SPLINE
  5
311
100
AcDbEntity
  8
0
100
AcDbSpline
 62
7
  6
CONTINUOUS
 70
0
 71
3
 72
17
 73
13
 74
0
 42
0.0000001
 43
0.0000001
 44
0.0000000001
 40
0.0
 40
0.0
 40
0.0
 40
0.0
 40
0.1480422875
 40
0.2876804317
 40
0.4195875179
 40
0.4829226981
 40
0.5446666594
 40
0.6639004228
 40
0.7785642458
 40
0.8900649301
 40
0.9451344636
 40
1.0
 40
1.0
 40
1.0
 40
1.0
 10
14.0059120442
 20
9.7070081617
 30
0.0
 10
14.0068549137
 20
9.7079189037
 30
0.0
 10
14.0086318493
 20
9.7097475334
 30
0.0
 10
14.0110210704
 20
9.7125973648
 30
0.0
 10
14.0127348249
 20
9.7150224919
 30
0.0
 10
14.0139150305
 20
9.7169690532
 30
0.0
 10
14.0149457421
 20
9.7188718779
 30
0.0
 10
14.0160168449
 20
9.7212665111
 30
0.0
 10
14.0169483575
 20
9.7241865499
 30
0.0
 10
14.0174172234
 20
9.726639358
 30
0.0
 10
14.0176026832
 20
9.7285923874
 30
0.0
 10
14.017633523
 20
9.7295661606
 30
0.0
 10
14.01763352
 20
9.7300519888
 30
0.0
  0
SPLINE
  5
312
100
AcDbEntity
  8
0
100
AcDbSpline
 62
7
  6
CONTINUOUS
 70
0
 71
3
 72
17
 73
13
 74
0
 42
0.0000001
 43
0.0000001
 44
0.0000000001
 40
0.0
 40
0.0
 40
0.0
 40
0.0
 40
0.1480422875
 40
0.2876804317
 40
0.4195875179
 40
0.4829226981
 40
0.5446666594
 40
0.6639004228
 40
0.7785642458
 40
0.8900649301
 40
0.9451344636
 40
1.0
 40
1.0
 40
1.0
 40
1.0
 10
14.5882544151
 20
10.2695077309
 30
0.0
 10
14.5891972845
 20
10.2704184728
 30
0.0
 10
14.5909742201
 20
10.2722471025
 30
0.0
 10
14.5933634413
 20
10.2750969339
 30
0.0
 10
14.5950771958
 20
10.2775220611
 30
0.0
 10
14.5962574014
 20
10.2794686224
 30
0.0
 10
14.597288113
 20
10.281371447
 30
0.0
 10
14.5983592158
 20
10.2837660802
 30
0.0
 10
14.5992907283
 20
10.286686119
 30
0.0
 10
14.5997595943
 20
10.2891389271
 30
0.0
 10
14.599945054
 20
10.2910919565
 30
0.0
 10
14.5999758939
 20
10.2920657297
 30
0.0
 10
14.5999758909
 20
10.2925515579
 30
0.0
  0
SPLINE
  5
313
100
AcDbEntity
  8
0
100
AcDbSpline
 62
7
  6
CONTINUOUS
 70
0
 71
3
 72
17
 73
13
 74
0
 42
0.0000001
 43
0.0000001
 44
0.0000000001
 40
0.0
 40
0.0
 40
0.0
 40
0.0
 40
0.1480422875
 40
0.2876804317
 40
0.4195875179
 40
0.4829226981
 40
0.5446666594
 40
0.6639004228
 40
0.7785642458
 40
0.8900649301
 40
0.9451344636
 40
1.0
 40
1.0
 40
1.0
 40
1.0
 10
9.7586249975
 20
10.6044436686
 30
0.0
 10
9.7595678669
 20
10.6053544105
 30
0.0
 10
9.7613448025
 20
10.6071830402
 30
0.0
 10
9.7637340237
 20
10.6100328716
 30
0.0
 10
9.7654477782
 20
10.6124579988
 30
0.0
 10
9.7666279838
 20
10.6144045601
 30
0.0
 10
9.7676586954
 20
10.6163073847
 30
0.0
 10
9.7687297982
 20
10.6187020179
 30
0.0
 10
9.7696613107
 20
10.6216220567
 30
0.0
 10
9.7701301767
 20
10.6240748648
 30
0.0
 10
9.7703156364
 20
10.6260278942
 30
0.0
 10
9.7703464763
 20
10.6270016674
 30
0.0
 10
9.7703464733
 20
10.6274874956
 30
0.0
  0
SPLINE
  5
314
100
AcDbEntity
  8
0
100
AcDbSpline
 62
7
  6
CONTINUOUS
 70
0
 71
3
 72
26
 73
22
 74
0
 42
0.0000001
 43
0.0000001
 44
0.0000000001
 40
0.0
 40
0.0
 40
0.0
 40
0.0
 40
0.0637763276
 40
0.127342886
 40
0.1906991341
 40
0.2538523424
 40
0.2853569136
 40
0.3168132539
 40
0.3795812247
 40
0.4421715801
 40
0.5045965951
 40
0.5668701916
 40
0.6290077778
 40
0.6910261223
 40
0.7219986725
 40
0.7529482429
 40
0.8147830252
 40
0.8765553491
 40
0.9074270146
 40
0.9382907765
 40
1.0
 40
1.0
 40
1.0
 40
1.0
 10
9.5508714086
 20
7.6152491126
 30
0.0
 10
9.5508714086
 20
7.6019649167
 30
0.0
 10
9.5502355902
 20
7.5754357389
 30
0.0
 10
9.5473657175
 20
7.5358031911
 30
0.0
 10
9.5425875164
 20
7.496485322
 30
0.0
 10
9.5370200472
 20
7.4640317562
 30
0.0
 10
9.5316235562
 20
7.4383209154
 30
0.0
 10
9.5256119387
 20
7.4128293757
 30
0.0
 10
9.5169348345
 20
7.3813243622
 30
0.0
 10
9.5046767127
 20
7.3441639614
 30
0.0
 10
9.4906082743
 20
7.3077602313
 30
0.0
 10
9.4747619338
 20
7.2721975574
 30
0.0
 10
9.457174458
 20
7.2375583525
 30
0.0
 10
9.4410929429
 20
7.2095146408
 30
0.0
 10
9.4274014931
 20
7.187625495
 30
0.0
 10
9.4131764747
 20
7.1661250609
 30
0.0
 10
9.3943873041
 20
7.1399653482
 30
0.0
 10
9.3742914242
 20
7.1148163041
 30
0.0
 10
9.3574677435
 20
7.0953505021
 30
0.0
 10
9.3401586321
 20
7.0763336173
 30
0.0
 10
9.3266310824
 20
7.0625769149
 30
0.0
 10
9.3173860553
 20
7.0536468916
 30
0.0
  0
SPLINE
  5
315
100
AcDbEntity
  8
0
100
AcDbSpline
 62
7
  6
CONTINUOUS
 70
0
 71
3
 72
56
 73
52
 74
0
 42
0.0000001
 43
0.0000001
 44
0.0000000001
 40
0.0
 40
0.0
 40
0.0
 40
0.0
 40
0.0310724618
 40
0.062302124
 40
0.0779772695
 40
0.0936895459
 40
0.125215778
 40
0.1568745879
 40
0.1886517936
 40
0.2205307885
 40
0.2524929001
 40
0.2845177811
 40
0.3165838269
 40
0.3486686139
 40
0.380749346
 40
0.4128033075
 40
0.4448083149
 40
0.4767431618
 40
0.5085880479
 40
0.5244735287
 40
0.5403299527
 40
0.5561554213
 40
0.5719481911
 40
0.587706694
 40
0.6034295369
 40
0.6191155137
 40
0.6347636175
 40
0.6503730371
 40
0.6659431732
 40
0.6814736387
 40
0.696964258
 40
0.7124150806
 40
0.7278263716
 40
0.7431986162
 40
0.7585325233
 40
0.7738290127
 40
0.7890892215
 40
0.8043144956
 40
0.8195063784
 40
0.8346666132
 40
0.8497971258
 40
0.8649000162
 40
0.8799775524
 40
0.8950321491
 40
0.9100663605
 40
0.9250828651
 40
0.9400844445
 40
0.9550739743
 40
0.9700544025
 40
0.9850287304
 40
1.0
 40
1.0
 40
1.0
 40
1.0
 10
9.5508714086
 20
7.6152491126
 30
0.0
 10
9.5508714086
 20
7.6358595213
 30
0.0
 10
9.5493341124
 20
7.6771994851
 30
0.0
 10
9.5436197205
 20
7.728653042
 30
0.0
 10
9.5367946375
 20
7.7696306393
 30
0.0
 10
9.5284531196
 20
7.8105271453
 30
0.0
 10
9.5152267453
 20
7.8612113577
 30
0.0
 10
9.4949997474
 20
7.9209186023
 30
0.0
 10
9.4705092767
 20
7.979262329
 30
0.0
 10
9.4418905971
 20
8.0359203013
 30
0.0
 10
9.4093010241
 20
8.0905821739
 30
0.0
 10
9.3729196787
 20
8.1429478369
 30
0.0
 10
9.3329464667
 20
8.1927300286
 30
0.0
 10
9.2896009084
 20
8.2396555643
 30
0.0
 10
9.2431208838
 20
8.2834669003
 30
0.0
 10
9.1937615826
 20
8.3239234159
 30
0.0
 10
9.1417933748
 20
8.3608032084
 30
0.0
 10
9.0875033328
 20
8.3939028234
 30
0.0
 10
9.0405289332
 20
8.4182073865
 30
0.0
 10
9.0020898517
 20
8.4355844293
 30
0.0
 10
8.9728917379
 20
8.4475595713
 30
0.0
 10
8.9433450064
 20
8.4584694133
 30
0.0
 10
8.9134897997
 20
8.4682990874
 30
0.0
 10
8.8833673316
 20
8.4770351705
 30
0.0
 10
8.8530189315
 20
8.4846655014
 30
0.0
 10
8.8224863449
 20
8.4911796071
 30
0.0
 10
8.7918115608
 20
8.4965686092
 30
0.0
 10
8.7610367211
 20
8.5008248912
 30
0.0
 10
8.7302041647
 20
8.5039427415
 30
0.0
 10
8.6993562755
 20
8.5059178106
 30
0.0
 10
8.6685354693
 20
8.5067472524
 30
0.0
 10
8.6377841339
 20
8.5064300876
 30
0.0
 10
8.6071445571
 20
8.5049665709
 30
0.0
 10
8.5766588829
 20
8.502358729
 30
0.0
 10
8.5463690278
 20
8.4986102282
 30
0.0
 10
8.5163166807
 20
8.493726008
 30
0.0
 10
8.48654316
 20
8.4877129254
 30
0.0
 10
8.4570894257
 20
8.4805791922
 30
0.0
 10
8.4279960324
 20
8.4723344891
 30
0.0
 10
8.3993029575
 20
8.4629903193
 30
0.0
 10
8.3710497267
 20
8.4525593673
 30
0.0
 10
8.3432752135
 20
8.4410559977
 30
0.0
 10
8.3160175919
 20
8.428496121
 30
0.0
 10
8.2893144578
 20
8.414896824
 30
0.0
 10
8.2632024912
 20
8.4002769521
 30
0.0
 10
8.2377176408
 20
8.3846565829
 30
0.0
 10
8.2128950419
 20
8.3680570925
 30
0.0
 10
8.188768783
 20
8.350501507
 30
0.0
 10
8.1653720371
 20
8.3320137378
 30
0.0
 10
8.1427374451
 20
8.312619672
 30
0.0
 10
8.128174918
 20
8.2991024322
 30
0.0
 10
8.1210323906
 20
8.2922032706
 30
0.0
  0
SPLINE
  5
316
100
AcDbEntity
  8
0
100
AcDbSpline
 62
7
  6
CONTINUOUS
 70
0
 71
3
 72
16
 73
12
 74
0
 42
0.0000001
 43
0.0000001
 44
0.0000000001
 40
0.0
 40
0.0
 40
0.0
 40
0.0
 40
0.1225279183
 40
0.1842051472
 40
0.2461240313
 40
0.3705972089
 40
0.4957805575
 40
0.6214908766
 40
0.7475465148
 40
0.8737716699
 40
1.0
 40
1.0
 40
1.0
 40
1.0
 10
8.5739270086
 20
8.2665932298
 30
0.0
 10
8.5739270086
 20
8.2766297952
 30
0.0
 10
8.5743485482
 20
8.2917226141
 30
0.0
 10
8.5757309314
 20
8.3118374754
 30
0.0
 10
8.5776676541
 20
8.3320671765
 30
0.0
 10
8.5811105283
 20
8.3573685438
 30
0.0
 10
8.5868185149
 20
8.3875943239
 30
0.0
 10
8.5940521078
 20
8.4176246038
 30
0.0
 10
8.602741177
 20
8.4473545851
 30
0.0
 10
8.6128063815
 20
8.4766906843
 30
0.0
 10
8.6203807456
 20
8.4959408811
 30
0.0
 10
8.6243704451
 20
8.5054798109
 30
0.0
  0
SPLINE
  5
317
100
AcDbEntity
  8
0
100
AcDbSpline
 62
7
  6
CONTINUOUS
 70
0
 71
3
 72
25
 73
21
 74
0
 42
0.0000001
 43
0.0000001
 44
0.0000000001
 40
0.0
 40
0.0
 40
0.0
 40
0.0
 40
0.0967022003
 40
0.1859529433
 40
0.268544797
 40
0.3453366156
 40
0.4844239473
 40
0.5479939558
 40
0.5784853349
 40
0.6081735543
 40
0.6652967472
 40
0.7196598401
 40
0.7715055088
 40
0.7965551654
 40
0.8210533404
 40
0.8450227998
 40
0.8684873469
 40
0.8914721967
 40
0.9140019145
 40
1.0
 40
1.0
 40
1.0
 40
1.0
 10
11.296723235
 20
7.8592443679
 30
0.0
 10
11.298716304
 20
7.8554354364
 30
0.0
 10
11.3028524197
 20
7.848264758
 30
0.0
 10
11.3096477839
 20
7.8384351705
 30
0.0
 10
11.316629015
 20
7.8298510578
 30
0.0
 10
11.3257511707
 20
7.8202040522
 30
0.0
 10
11.3352198777
 20
7.8120869277
 30
0.0
 10
11.3437695049
 20
7.8062156637
 30
0.0
 10
11.3484616907
 20
7.8033416873
 30
0.0
 10
11.3530007696
 20
7.80077304
 30
0.0
 10
11.358618584
 20
7.7979629305
 30
0.0
 10
11.3653309981
 20
7.7951792222
 30
0.0
 10
11.3708748651
 20
7.7933398404
 30
0.0
 10
11.3752289459
 20
7.7921704345
 30
0.0
 10
11.3784168752
 20
7.7914465917
 30
0.0
 10
11.3815622837
 20
7.7908653576
 30
0.0
 10
11.3846625953
 20
7.7904260808
 30
0.0
 10
11.3877159786
 20
7.7901279576
 30
0.0
 10
11.3935532865
 20
7.7898235952
 30
0.0
 10
11.3984168892
 20
7.7901285921
 30
0.0
 10
11.4021779139
 20
7.7908142934
 30
0.0
  0
SPLINE
  5
318
100
AcDbEntity
  8
0
100
AcDbSpline
 62
7
  6
CONTINUOUS
 70
0
 71
3
 72
26
 73
22
 74
0
 42
0.0000001
 43
0.0000001
 44
0.0000000001
 40
0.0
 40
0.0
 40
0.0
 40
0.0
 40
0.0637763276
 40
0.127342886
 40
0.1906991341
 40
0.2538523424
 40
0.2853569136
 40
0.3168132539
 40
0.3795812247
 40
0.4421715801
 40
0.5045965951
 40
0.5668701916
 40
0.6290077778
 40
0.6910261223
 40
0.7219986725
 40
0.7529482429
 40
0.8147830252
 40
0.8765553491
 40
0.9074270146
 40
0.9382907765
 40
1.0
 40
1.0
 40
1.0
 40
1.0
 10
12.2090993001
 20
7.4309003822
 30
0.0
 10
12.2090993001
 20
7.4176161863
 30
0.0
 10
12.2084634816
 20
7.3910870085
 30
0.0
 10
12.2055936089
 20
7.3514544607
 30
0.0
 10
12.2008154078
 20
7.3121365916
 30
0.0
 10
12.1952479386
 20
7.2796830258
 30
0.0
 10
12.1898514476
 20
7.253972185
 30
0.0
 10
12.1838398301
 20
7.2284806453
 30
0.0
 10
12.1751627259
 20
7.1969756318
 30
0.0
 10
12.1629046042
 20
7.159815231
 30
0.0
 10
12.1488361657
 20
7.1234115009
 30
0.0
 10
12.1329898252
 20
7.087848827
 30
0.0
 10
12.1154023494
 20
7.0532096221
 30
0.0
 10
12.0993208344
 20
7.0251659104
 30
0.0
 10
12.0856293845
 20
7.0032767646
 30
0.0
 10
12.0714043662
 20
6.9817763305
 30
0.0
 10
12.0526151955
 20
6.9556166178
 30
0.0
 10
12.0325193156
 20
6.9304675737
 30
0.0
 10
12.0156956349
 20
6.9110017717
 30
0.0
 10
11.9983865236
 20
6.8919848869
 30
0.0
 10
11.9848589738
 20
6.8782281845
 30
0.0
 10
11.9756139467
 20
6.8692981611
 30
0.0
  0
SPLINE
  5
319
100
AcDbEntity
  8
0
100
AcDbSpline
 62
7
  6
CONTINUOUS
 70
0
 71
3
 72
56
 73
52
 74
0
 42
0.0000001
 43
0.0000001
 44
0.0000000001
 40
0.0
 40
0.0
 40
0.0
 40
0.0
 40
0.0310724618
 40
0.062302124
 40
0.0779772695
 40
0.0936895459
 40
0.125215778
 40
0.1568745879
 40
0.1886517936
 40
0.2205307885
 40
0.2524929001
 40
0.2845177811
 40
0.3165838269
 40
0.3486686139
 40
0.380749346
 40
0.4128033075
 40
0.4448083149
 40
0.4767431618
 40
0.5085880479
 40
0.5244735287
 40
0.5403299527
 40
0.5561554213
 40
0.5719481911
 40
0.587706694
 40
0.6034295369
 40
0.6191155137
 40
0.6347636175
 40
0.6503730371
 40
0.6659431732
 40
0.6814736387
 40
0.696964258
 40
0.7124150806
 40
0.7278263716
 40
0.7431986162
 40
0.7585325233
 40
0.7738290127
 40
0.7890892215
 40
0.8043144956
 40
0.8195063784
 40
0.8346666132
 40
0.8497971258
 40
0.8649000162
 40
0.8799775524
 40
0.8950321491
 40
0.9100663605
 40
0.9250828651
 40
0.9400844445
 40
0.9550739743
 40
0.9700544025
 40
0.9850287304
 40
1.0
 40
1.0
 40
1.0
 40
1.0
 10
12.2090993001
 20
7.4309003822
 30
0.0
 10
12.2090993001
 20
7.4515107909
 30
0.0
 10
12.2075620039
 20
7.4928507547
 30
0.0
 10
12.201847612
 20
7.5443043116
 30
0.0
 10
12.1950225289
 20
7.5852819089
 30
0.0
 10
12.186681011
 20
7.6261784149
 30
0.0
 10
12.1734546367
 20
7.6768626273
 30
0.0
 10
12.1532276389
 20
7.7365698719
 30
0.0
 10
12.1287371682
 20
7.7949135986
 30
0.0
 10
12.1001184885
 20
7.8515715709
 30
0.0
 10
12.0675289155
 20
7.9062334435
 30
0.0
 10
12.0311475701
 20
7.9585991065
 30
0.0
 10
11.9911743581
 20
8.0083812982
 30
0.0
 10
11.9478287998
 20
8.0553068339
 30
0.0
 10
11.9013487752
 20
8.0991181699
 30
0.0
 10
11.851989474
 20
8.1395746855
 30
0.0
 10
11.8000212662
 20
8.176454478
 30
0.0
 10
11.7457312243
 20
8.209554093
 30
0.0
 10
11.6987568246
 20
8.2338586561
 30
0.0
 10
11.6603177431
 20
8.2512356989
 30
0.0
 10
11.6311196293
 20
8.2632108409
 30
0.0
 10
11.6015728978
 20
8.2741206829
 30
0.0
 10
11.5717176912
 20
8.283950357
 30
0.0
 10
11.541595223
 20
8.2926864401
 30
0.0
 10
11.5112468229
 20
8.300316771
 30
0.0
 10
11.4807142363
 20
8.3068308767
 30
0.0
 10
11.4500394523
 20
8.3122198788
 30
0.0
 10
11.4192646125
 20
8.3164761608
 30
0.0
 10
11.3884320561
 20
8.3195940111
 30
0.0
 10
11.3575841669
 20
8.3215690802
 30
0.0
 10
11.3267633607
 20
8.322398522
 30
0.0
 10
11.2960120253
 20
8.3220813572
 30
0.0
 10
11.2653724485
 20
8.3206178405
 30
0.0
 10
11.2348867743
 20
8.3180099986
 30
0.0
 10
11.2045969193
 20
8.3142614978
 30
0.0
 10
11.1745445722
 20
8.3093772776
 30
0.0
 10
11.1447710515
 20
8.303364195
 30
0.0
 10
11.1153173171
 20
8.2962304618
 30
0.0
 10
11.0862239239
 20
8.2879857587
 30
0.0
 10
11.057530849
 20
8.2786415889
 30
0.0
 10
11.0292776181
 20
8.2682106369
 30
0.0
 10
11.0015031049
 20
8.2567072673
 30
0.0
 10
10.9742454833
 20
8.2441473906
 30
0.0
 10
10.9475423492
 20
8.2305480936
 30
0.0
 10
10.9214303827
 20
8.2159282217
 30
0.0
 10
10.8959455323
 20
8.2003078525
 30
0.0
 10
10.8711229333
 20
8.1837083621
 30
0.0
 10
10.8469966744
 20
8.1661527766
 30
0.0
 10
10.8235999286
 20
8.1476650074
 30
0.0
 10
10.8009653366
 20
8.1282709416
 30
0.0
 10
10.7864028094
 20
8.1147537018
 30
0.0
 10
10.779260282
 20
8.1078545402
 30
0.0
  0
SPLINE
  5
31A
100
AcDbEntity
  8
0
100
AcDbSpline
 62
7
  6
CONTINUOUS
 70
0
 71
3
 72
46
 73
42
 74
0
 42
0.0000001
 43
0.0000001
 44
0.0000000001
 40
0.0
 40
0.0
 40
0.0
 40
0.0
 40
0.0446319935
 40
0.0920324517
 40
0.1419478613
 40
0.1939636617
 40
0.2474905929
 40
0.301783026
 40
0.3559986135
 40
0.4092921167
 40
0.4609137408
 40
0.5102780635
 40
0.5569899372
 40
0.6008301026
 40
0.641719911
 40
0.6796803259
 40
0.7147956052
 40
0.7471858285
 40
0.7769883703
 40
0.8043453196
 40
0.8293955481
 40
0.8522724266
 40
0.8730994884
 40
0.8919940295
 40
0.9090633489
 40
0.924412075
 40
0.9381390182
 40
0.9444277346
 40
0.9503500987
 40
0.9559198778
 40
0.9611523674
 40
0.9660646427
 40
0.9706751331
 40
0.975004424
 40
0.9790766053
 40
0.9829198344
 40
0.9865666238
 40
0.9900538606
 40
0.9934235578
 40
0.9967223438
 40
1.0
 40
1.0
 40
1.0
 40
1.0
 10
10.7856360936
 20
7.9823278389
 30
0.0
 10
10.7863087758
 20
7.9852114189
 30
0.0
 10
10.7878117654
 20
7.9911309099
 30
0.0
 10
10.7904571407
 20
8.0001708301
 30
0.0
 10
10.793566991
 20
8.0095791617
 30
0.0
 10
10.7971272942
 20
8.0192605749
 30
0.0
 10
10.8011022404
 20
8.0290930961
 30
0.0
 10
10.8054327712
 20
8.0389337842
 30
0.0
 10
10.8100395788
 20
8.0486308933
 30
0.0
 10
10.8148306319
 20
8.0580397079
 30
0.0
 10
10.8197115142
 20
8.0670375319
 30
0.0
 10
10.8245953868
 20
8.0755334156
 30
0.0
 10
10.8294097458
 20
8.0834706914
 30
0.0
 10
10.8340992213
 20
8.0908234458
 30
0.0
 10
10.8386249756
 20
8.0975896014
 30
0.0
 10
10.8429621747
 20
8.1037833495
 30
0.0
 10
10.8470968084
 20
8.1094285768
 30
0.0
 10
10.8510227041
 20
8.1145539601
 30
0.0
 10
10.8547389459
 20
8.1191897491
 30
0.0
 10
10.8582483121
 20
8.1233654153
 30
0.0
 10
10.8615557147
 20
8.1271086735
 30
0.0
 10
10.8646669557
 20
8.1304450527
 30
0.0
 10
10.867589134
 20
8.1333969226
 30
0.0
 10
10.8703285813
 20
8.1359847203
 30
0.0
 10
10.8728926743
 20
8.1382254615
 30
0.0
 10
10.8752873226
 20
8.1401345728
 30
0.0
 10
10.8771995655
 20
8.1414966789
 30
0.0
 10
10.8786503297
 20
8.1424227125
 30
0.0
 10
10.8796676807
 20
8.1430204033
 30
0.0
 10
10.8806470206
 20
8.1435426912
 30
0.0
 10
10.8815889948
 20
8.1439904053
 30
0.0
 10
10.882494164
 20
8.1443644123
 30
0.0
 10
10.8833631243
 20
8.1446652819
 30
0.0
 10
10.8841964571
 20
8.1448932754
 30
0.0
 10
10.8849946767
 20
8.1450486284
 30
0.0
 10
10.8857582646
 20
8.1451314985
 30
0.0
 10
10.88648763
 20
8.1451420099
 30
0.0
 10
10.8871830491
 20
8.1450797182
 30
0.0
 10
10.8878445988
 20
8.1449441179
 30
0.0
 10
10.88847204
 20
8.144734874
 30
0.0
 10
10.8888669694
 20
8.1445463778
 30
0.0
 10
10.889057098
 20
8.1444408561
 30
0.0
  0
SPLINE
  5
31B
100
AcDbEntity
  8
0
100
AcDbSpline
 62
7
  6
CONTINUOUS
 70
0
 71
3
 72
19
 73
15
 74
0
 42
0.0000001
 43
0.0000001
 44
0.0000000001
 40
0.0
 40
0.0
 40
0.0
 40
0.0
 40
0.1428591553
 40
0.2117649317
 40
0.2790787775
 40
0.409240549
 40
0.534124281
 40
0.6546031652
 40
0.7135113497
 40
0.7716948766
 40
0.8292912994
 40
0.8864431373
 40
0.9432965098
 40
1.0
 40
1.0
 40
1.0
 40
1.0
 10
14.6553451376
 20
9.1783123962
 30
0.0
 10
14.658002868
 20
9.1803037726
 30
0.0
 10
14.6620362147
 20
9.1831347801
 30
0.0
 10
14.667538252
 20
9.1865746211
 30
0.0
 10
14.67290731
 20
9.1896624508
 30
0.0
 10
14.6796141936
 20
9.1930248915
 30
0.0
 10
14.6877292656
 20
9.1962713514
 30
0.0
 10
14.6945195161
 20
9.1982933699
 30
0.0
 10
14.6999158187
 20
9.1994773293
 30
0.0
 10
14.7039226198
 20
9.2001490688
 30
0.0
 10
14.7079178905
 20
9.2006107586
 30
0.0
 10
14.7119009808
 20
9.2008623628
 30
0.0
 10
14.7158709441
 20
9.2009038186
 30
0.0
 10
14.7185098429
 20
9.2007912537
 30
0.0
 10
14.719824856
 20
9.2007000569
 30
0.0
  0
SPLINE
  5
31C
100
AcDbEntity
  8
0
100
AcDbSpline
 62
7
  6
CONTINUOUS
 70
0
 71
3
 72
38
 73
34
 74
0
 42
0.0000001
 43
0.0000001
 44
0.0000000001
 40
0.0
 40
0.0
 40
0.0
 40
0.0
 40
0.0145552473
 40
0.0293276483
 40
0.0444575384
 40
0.0600748016
 40
0.0762979024
 40
0.0932344051
 40
0.1109818825
 40
0.129630171
 40
0.1492625226
 40
0.1699585065
 40
0.1917953062
 40
0.214850217
 40
0.2392023061
 40
0.2649342265
 40
0.2921338895
 40
0.3208957672
 40
0.3513216657
 40
0.3835208868
 40
0.4176081932
 40
0.4537004569
 40
0.4919061026
 40
0.5323092972
 40
0.5749417407
 40
0.6197410451
 40
0.6664991235
 40
0.7148158469
 40
0.8135232753
 40
0.8624198523
 40
0.9100736402
 40
0.9560180191
 40
1.0
 40
1.0
 40
1.0
 40
1.0
 10
11.3218411796
 20
8.0303275241
 30
0.0
 10
11.3209304766
 20
8.0301626363
 30
0.0
 10
11.3191115211
 20
8.029734225
 30
0.0
 10
11.3164356156
 20
8.0288091031
 30
0.0
 10
11.3138011114
 20
8.0275997362
 30
0.0
 10
11.3112097299
 20
8.0261069538
 30
0.0
 10
11.3086626975
 20
8.0243308981
 30
0.0
 10
11.3061622935
 20
8.0222701189
 30
0.0
 10
11.3037104021
 20
8.0199232246
 30
0.0
 10
11.3013106339
 20
8.0172866081
 30
0.0
 10
11.2989662215
 20
8.0143566839
 30
0.0
 10
11.2966823474
 20
8.0111277882
 30
0.0
 10
11.2944643399
 20
8.0075937137
 30
0.0
 10
11.29231944
 20
8.0037464263
 30
0.0
 10
11.290255753
 20
7.9995767935
 30
0.0
 10
11.2882836242
 20
7.9950738491
 30
0.0
 10
11.2864147942
 20
7.9902252928
 30
0.0
 10
11.2846643985
 20
7.9850168211
 30
0.0
 10
11.2830494208
 20
7.9794330048
 30
0.0
 10
11.2815918119
 20
7.973456815
 30
0.0
 10
11.2803170319
 20
7.9670710174
 30
0.0
 10
11.2792562207
 20
7.9602592336
 30
0.0
 10
11.2784467612
 20
7.9530085615
 30
0.0
 10
11.2779324155
 20
7.9453138757
 30
0.0
 10
11.2777630923
 20
7.9371841453
 30
0.0
 10
11.2779924414
 20
7.9286513401
 30
0.0
 10
11.278672854
 20
7.9197792418
 30
0.0
 10
11.2802482207
 20
7.9075544167
 30
0.0
 10
11.2828343157
 20
7.8953373483
 30
0.0
 10
11.2864057041
 20
7.8834413622
 30
0.0
 10
11.2894886446
 20
7.8749160563
 30
0.0
 10
11.2929106683
 20
7.8668605856
 30
0.0
 10
11.2954266406
 20
7.8617222747
 30
0.0
 10
11.296723235
 20
7.8592443679
 30
0.0
  0
SPLINE
  5
31D
100
AcDbEntity
  8
0
100
AcDbSpline
 62
7
  6
CONTINUOUS
 70
0
 71
3
 72
24
 73
20
 74
0
 42
0.0000001
 43
0.0000001
 44
0.0000000001
 40
0.0
 40
0.0
 40
0.0
 40
0.0
 40
0.0149471879
 40
0.0302751404
 40
0.0624272794
 40
0.0971887101
 40
0.1351855952
 40
0.176966092
 40
0.2230139989
 40
0.2737633086
 40
0.3296115347
 40
0.3909305997
 40
0.4580724203
 40
0.5313723808
 40
0.6111469191
 40
0.6976863317
 40
0.7912356934
 40
0.891982285
 40
1.0
 40
1.0
 40
1.0
 40
1.0
 10
10.7926414045
 20
7.912028251
 30
0.0
 10
10.7923185601
 20
7.9122077414
 30
0.0
 10
10.7916800538
 20
7.9125997932
 30
0.0
 10
10.7904357595
 20
7.9135142477
 30
0.0
 10
10.7889499359
 20
7.9149138129
 30
0.0
 10
10.7873330895
 20
7.9169501555
 30
0.0
 10
10.7858629007
 20
7.9193767166
 30
0.0
 10
10.7845515866
 20
7.9222021338
 30
0.0
 10
10.7834117148
 20
7.9254363106
 30
0.0
 10
10.7824586476
 20
7.9290901852
 30
0.0
 10
10.7817090246
 20
7.9331749531
 30
0.0
 10
10.781181626
 20
7.9377020199
 30
0.0
 10
10.7808970582
 20
7.9426825508
 30
0.0
 10
10.7808775023
 20
7.9481270192
 30
0.0
 10
10.7811469314
 20
7.9540445862
 30
0.0
 10
10.7817306917
 20
7.9604419842
 30
0.0
 10
10.7826548704
 20
7.9673223717
 30
0.0
 10
10.7839456755
 20
7.9746828385
 30
0.0
 10
10.7850296564
 20
7.9797282301
 30
0.0
 10
10.7856360936
 20
7.9823278389
 30
0.0
  0
SPLINE
  5
31E
100
AcDbEntity
  8
0
100
AcDbSpline
 62
7
  6
CONTINUOUS
 70
0
 71
3
 72
42
 73
38
 74
0
 42
0.0000001
 43
0.0000001
 44
0.0000000001
 40
0.0
 40
0.0
 40
0.0
 40
0.0
 40
0.0114611273
 40
0.0232041314
 40
0.0352100961
 40
0.0474615906
 40
0.0599408841
 40
0.0726328444
 40
0.0855231319
 40
0.0985976114
 40
0.1252520287
 40
0.1525124287
 40
0.1803104824
 40
0.2085895397
 40
0.2373054957
 40
0.2664236009
 40
0.2959173572
 40
0.3257678147
 40
0.3864783622
 40
0.4173410779
 40
0.4485377096
 40
0.4800726111
 40
0.5119532043
 40
0.5441893604
 40
0.576792485
 40
0.6097752903
 40
0.643151001
 40
0.6769322973
 40
0.7111306641
 40
0.7457555095
 40
0.7808131648
 40
0.8163058633
 40
0.852230861
 40
0.8885801372
 40
0.9253390146
 40
0.9624883165
 40
1.0
 40
1.0
 40
1.0
 40
1.0
 10
8.9963136288
 20
7.7782675893
 30
0.0
 10
8.9936242306
 20
7.7784523832
 30
0.0
 10
8.9881852213
 20
7.7789178012
 30
0.0
 10
8.9799582068
 20
7.7798776217
 30
0.0
 10
8.9715784056
 20
7.7811014658
 30
0.0
 10
8.963064628
 20
7.7825832152
 30
0.0
 10
8.9544339875
 20
7.7843168939
 30
0.0
 10
8.945702573
 20
7.786297448
 30
0.0
 10
8.9368851898
 20
7.7885200877
 30
0.0
 10
8.9249562973
 20
7.7918215241
 30
0.0
 10
8.9099163039
 20
7.7965370661
 30
0.0
 10
8.8918346432
 20
7.8030679206
 30
0.0
 10
8.8736859215
 20
7.8104884341
 30
0.0
 10
8.8555432002
 20
7.8187841516
 30
0.0
 10
8.8374728429
 20
7.8279453179
 30
0.0
 10
8.8195364492
 20
7.8379656326
 30
0.0
 10
8.8017913584
 20
7.8488420481
 30
0.0
 10
8.778332282
 20
7.864570025
 30
0.0
 10
8.755613041
 20
7.8819420528
 30
0.0
 10
8.7338286721
 20
7.9009071648
 30
0.0
 10
8.7178622143
 20
7.9160735628
 30
0.0
 10
8.702416336
 20
7.9321037057
 30
0.0
 10
8.687547654
 20
7.9489984568
 30
0.0
 10
8.6733151892
 20
7.9667561695
 30
0.0
 10
8.6597792985
 20
7.9853724411
 30
0.0
 10
8.6470018626
 20
8.0048391553
 30
0.0
 10
8.6350459953
 20
8.0251437116
 30
0.0
 10
8.6239753663
 20
8.0462679502
 30
0.0
 10
8.6138535428
 20
8.0681873344
 30
0.0
 10
8.6047430574
 20
8.0908702002
 30
0.0
 10
8.5967042492
 20
8.1142770564
 30
0.0
 10
8.5897938278
 20
8.1383600431
 30
0.0
 10
8.5840632939
 20
8.1630628478
 30
0.0
 10
8.5795576533
 20
8.1883207303
 30
0.0
 10
8.5763134666
 20
8.2140618169
 30
0.0
 10
8.5743582392
 20
8.2402061603
 30
0.0
 10
8.5739270086
 20
8.2577702121
 30
0.0
 10
8.5739270086
 20
8.2665932298
 30
0.0
  0
SPLINE
  5
31F
100
AcDbEntity
  8
0
100
AcDbSpline
 62
7
  6
CONTINUOUS
 70
0
 71
3
 72
69
 73
65
 74
0
 42
0.0000001
 43
0.0000001
 44
0.0000000001
 40
0.0
 40
0.0
 40
0.0
 40
0.0
 40
0.0028080351
 40
0.0056357608
 40
0.0085024195
 40
0.0114263911
 40
0.0144249168
 40
0.0175138431
 40
0.0240151245
 40
0.0274549159
 40
0.0310331529
 40
0.0347582517
 40
0.0386374427
 40
0.0426767532
 40
0.0468812313
 40
0.0512551087
 40
0.0558017563
 40
0.0654223533
 40
0.0757587472
 40
0.0868172233
 40
0.0985976146
 40
0.1110945367
 40
0.1242980056
 40
0.1381943956
 40
0.152766769
 40
0.1679952759
 40
0.1838576633
 40
0.2003292767
 40
0.2173835005
 40
0.234991891
 40
0.2531242363
 40
0.2717489153
 40
0.2908328382
 40
0.3103416747
 40
0.3302400092
 40
0.3710573659
 40
0.4129837723
 40
0.4557059352
 40
0.4989026758
 40
0.54224818
 40
0.5854151847
 40
0.6280781574
 40
0.669916513
 40
0.710617844
 40
0.7304480143
 40
0.749882195
 40
0.7688850915
 40
0.7874226567
 40
0.8054620269
 40
0.8229718037
 40
0.8399221597
 40
0.8562848744
 40
0.8720337387
 40
0.8871445231
 40
0.901595315
 40
0.9153668771
 40
0.9284427493
 40
0.9408099438
 40
0.9524593352
 40
0.9633863249
 40
0.9735917958
 40
0.9830834311
 40
0.991877791
 40
1.0
 40
1.0
 40
1.0
 40
1.0
 10
8.500004143
 20
10.0649874574
 30
0.0
 10
8.5000041471
 20
10.0643191802
 30
0.0
 10
8.5000626602
 20
10.0629772165
 30
0.0
 10
8.5003256417
 20
10.0609685284
 30
0.0
 10
8.5007636155
 20
10.0589623011
 30
0.0
 10
8.5013760656
 20
10.0569599481
 30
0.0
 10
8.5021625603
 20
10.0549624604
 30
0.0
 10
8.5034643087
 20
10.0522616212
 30
0.0
 10
8.5051037874
 20
10.0496171965
 30
0.0
 10
8.507034579
 20
10.0470422408
 30
0.0
 10
8.5086804298
 20
10.0450839006
 30
0.0
 10
8.5104955554
 20
10.0431362576
 30
0.0
 10
8.5124792224
 20
10.0412000181
 30
0.0
 10
8.5146303321
 20
10.039276098
 30
0.0
 10
8.5169478078
 20
10.0373653754
 30
0.0
 10
8.5194305405
 20
10.0354687827
 30
0.0
 10
8.5230275935
 20
10.0329117795
 30
0.0
 10
8.5279419284
 20
10.0297652175
 30
0.0
 10
8.5343688689
 20
10.0261289619
 30
0.0
 10
8.5414200116
 20
10.0225710271
 30
0.0
 10
8.549081362
 20
10.0190984294
 30
0.0
 10
8.5573379578
 20
10.0157181134
 30
0.0
 10
8.5661733883
 20
10.012436789
 30
0.0
 10
8.5755700671
 20
10.0092611401
 30
0.0
 10
8.585509188
 20
10.00619761
 30
0.0
 10
8.5959707984
 20
10.0032523779
 30
0.0
 10
8.6069338697
 20
10.0004315109
 30
0.0
 10
8.6183763121
 20
9.9977406971
 30
0.0
 10
8.6302750531
 20
9.9951854321
 30
0.0
 10
8.6426060825
 20
9.9927709539
 30
0.0
 10
8.6553444931
 20
9.9905021216
 30
0.0
 10
8.6684645518
 20
9.9883836086
 30
0.0
 10
8.6819397338
 20
9.9864197108
 30
0.0
 10
8.6957428172
 20
9.9846143812
 30
0.0
 10
8.7147075194
 20
9.9824050786
 30
0.0
 10
8.7390268277
 20
9.9800754594
 30
0.0
 10
8.7688157863
 20
9.977984153
 30
0.0
 10
8.7992124031
 20
9.9765913254
 30
0.0
 10
8.8299709295
 20
9.9759083813
 30
0.0
 10
8.8608428713
 20
9.9759409502
 30
0.0
 10
8.891578725
 20
9.9766887685
 30
0.0
 10
8.9219301833
 20
9.9781456812
 30
0.0
 10
8.9516518691
 20
9.9802997397
 30
0.0
 10
8.9759011073
 20
9.9826809567
 30
0.0
 10
8.9947990175
 20
9.9849307629
 30
0.0
 10
9.0085445255
 20
9.9867651974
 30
0.0
 10
9.0219571237
 20
9.9887575435
 30
0.0
 10
9.0350097215
 20
9.9909037152
 30
0.0
 10
9.0476759299
 20
9.9931993844
 30
0.0
 10
9.0599301629
 20
9.9956398631
 30
0.0
 10
9.0717476769
 20
9.99822015
 30
0.0
 10
9.0831046188
 20
10.0009350513
 30
0.0
 10
9.0939780989
 20
10.0037789734
 30
0.0
 10
9.1043462182
 20
10.0067461543
 30
0.0
 10
9.1141881285
 20
10.009830575
 30
0.0
 10
9.1234841001
 20
10.0130259039
 30
0.0
 10
9.1322155247
 20
10.0163257394
 30
0.0
 10
9.140365034
 20
10.0197233635
 30
0.0
 10
9.1479165055
 20
10.0232119611
 30
0.0
 10
9.154855074
 20
10.0267847064
 30
0.0
 10
9.1611672741
 20
10.0304344726
 30
0.0
 10
9.166841248
 20
10.0341547039
 30
0.0
 10
9.1718655014
 20
10.037938226
 30
0.0
 10
9.1748923189
 20
10.0406011653
 30
0.0
 10
9.1762826266
 20
10.0419440995
 30
0.0
  0
SPLINE
  5
320
100
AcDbEntity
  8
0
100
AcDbSpline
 62
7
  6
CONTINUOUS
 70
0
 71
3
 72
69
 73
65
 74
0
 42
0.0000001
 43
0.0000001
 44
0.0000000001
 40
0.0
 40
0.0
 40
0.0
 40
0.0
 40
0.0028080351
 40
0.0056357608
 40
0.0085024195
 40
0.0114263911
 40
0.0144249168
 40
0.0175138431
 40
0.0240151245
 40
0.0274549159
 40
0.0310331529
 40
0.0347582517
 40
0.0386374427
 40
0.0426767532
 40
0.0468812313
 40
0.0512551087
 40
0.0558017563
 40
0.0654223533
 40
0.0757587472
 40
0.0868172233
 40
0.0985976146
 40
0.1110945367
 40
0.1242980056
 40
0.1381943956
 40
0.152766769
 40
0.1679952759
 40
0.1838576633
 40
0.2003292767
 40
0.2173835005
 40
0.234991891
 40
0.2531242363
 40
0.2717489153
 40
0.2908328382
 40
0.3103416747
 40
0.3302400092
 40
0.3710573659
 40
0.4129837723
 40
0.4557059352
 40
0.4989026758
 40
0.54224818
 40
0.5854151847
 40
0.6280781574
 40
0.669916513
 40
0.710617844
 40
0.7304480143
 40
0.749882195
 40
0.7688850915
 40
0.7874226567
 40
0.8054620269
 40
0.8229718037
 40
0.8399221597
 40
0.8562848744
 40
0.8720337387
 40
0.8871445231
 40
0.901595315
 40
0.9153668771
 40
0.9284427493
 40
0.9408099438
 40
0.9524593352
 40
0.9633863249
 40
0.9735917958
 40
0.9830834311
 40
0.991877791
 40
1.0
 40
1.0
 40
1.0
 40
1.0
 10
13.3296335606
 20
9.7300515197
 30
0.0
 10
13.3296335647
 20
9.7293832425
 30
0.0
 10
13.3296920779
 20
9.7280412788
 30
0.0
 10
13.3299550593
 20
9.7260325907
 30
0.0
 10
13.3303930331
 20
9.7240263633
 30
0.0
 10
13.3310054832
 20
9.7220240104
 30
0.0
 10
13.331791978
 20
9.7200265227
 30
0.0
 10
13.3330937263
 20
9.7173256834
 30
0.0
 10
13.334733205
 20
9.7146812588
 30
0.0
 10
13.3366639966
 20
9.7121063031
 30
0.0
 10
13.3383098474
 20
9.7101479629
 30
0.0
 10
13.340124973
 20
9.7082003199
 30
0.0
 10
13.34210864
 20
9.7062640804
 30
0.0
 10
13.3442597497
 20
9.7043401603
 30
0.0
 10
13.3465772254
 20
9.7024294377
 30
0.0
 10
13.3490599581
 20
9.700532845
 30
0.0
 10
13.3526570111
 20
9.6979758418
 30
0.0
 10
13.357571346
 20
9.6948292798
 30
0.0
 10
13.3639982865
 20
9.6911930242
 30
0.0
 10
13.3710494292
 20
9.6876350894
 30
0.0
 10
13.3787107796
 20
9.6841624917
 30
0.0
 10
13.3869673755
 20
9.6807821757
 30
0.0
 10
13.3958028059
 20
9.6775008513
 30
0.0
 10
13.4051994847
 20
9.6743252023
 30
0.0
 10
13.4151386056
 20
9.6712616723
 30
0.0
 10
13.425600216
 20
9.6683164402
 30
0.0
 10
13.4365632874
 20
9.6654955732
 30
0.0
 10
13.4480057297
 20
9.6628047594
 30
0.0
 10
13.4599044707
 20
9.6602494944
 30
0.0
 10
13.4722355001
 20
9.6578350162
 30
0.0
 10
13.4849739107
 20
9.6555661839
 30
0.0
 10
13.4980939695
 20
9.6534476709
 30
0.0
 10
13.5115691514
 20
9.6514837731
 30
0.0
 10
13.5253722348
 20
9.6496784434
 30
0.0
 10
13.544336937
 20
9.6474691409
 30
0.0
 10
13.5686562453
 20
9.6451395217
 30
0.0
 10
13.5984452039
 20
9.6430482153
 30
0.0
 10
13.6288418207
 20
9.6416553877
 30
0.0
 10
13.6596003472
 20
9.6409724436
 30
0.0
 10
13.690472289
 20
9.6410050125
 30
0.0
 10
13.7212081426
 20
9.6417528307
 30
0.0
 10
13.7515596009
 20
9.6432097435
 30
0.0
 10
13.7812812867
 20
9.645363802
 30
0.0
 10
13.8055305249
 20
9.647745019
 30
0.0
 10
13.8244284351
 20
9.6499948252
 30
0.0
 10
13.8381739431
 20
9.6518292596
 30
0.0
 10
13.8515865413
 20
9.6538216058
 30
0.0
 10
13.8646391391
 20
9.6559677775
 30
0.0
 10
13.8773053475
 20
9.6582634467
 30
0.0
 10
13.8895595806
 20
9.6607039254
 30
0.0
 10
13.9013770945
 20
9.6632842123
 30
0.0
 10
13.9127340364
 20
9.6659991136
 30
0.0
 10
13.9236075165
 20
9.6688430357
 30
0.0
 10
13.9339756358
 20
9.6718102166
 30
0.0
 10
13.9438175461
 20
9.6748946373
 30
0.0
 10
13.9531135177
 20
9.6780899662
 30
0.0
 10
13.9618449423
 20
9.6813898017
 30
0.0
 10
13.9699944516
 20
9.6847874257
 30
0.0
 10
13.9775459231
 20
9.6882760234
 30
0.0
 10
13.9844844916
 20
9.6918487687
 30
0.0
 10
13.9907966917
 20
9.6954985349
 30
0.0
 10
13.9964706656
 20
9.6992187662
 30
0.0
 10
14.001494919
 20
9.7030022883
 30
0.0
 10
14.0045217366
 20
9.7056652276
 30
0.0
 10
14.0059120442
 20
9.7070081617
 30
0.0
  0
SPLINE
  5
321
100
AcDbEntity
  8
0
100
AcDbSpline
 62
7
  6
CONTINUOUS
 70
0
 71
3
 72
69
 73
65
 74
0
 42
0.0000001
 43
0.0000001
 44
0.0000000001
 40
0.0
 40
0.0
 40
0.0
 40
0.0
 40
0.0028080351
 40
0.0056357608
 40
0.0085024195
 40
0.0114263911
 40
0.0144249168
 40
0.0175138431
 40
0.0240151245
 40
0.0274549159
 40
0.0310331529
 40
0.0347582517
 40
0.0386374427
 40
0.0426767532
 40
0.0468812313
 40
0.0512551087
 40
0.0558017563
 40
0.0654223533
 40
0.0757587472
 40
0.0868172233
 40
0.0985976146
 40
0.1110945367
 40
0.1242980056
 40
0.1381943956
 40
0.152766769
 40
0.1679952759
 40
0.1838576633
 40
0.2003292767
 40
0.2173835005
 40
0.234991891
 40
0.2531242363
 40
0.2717489153
 40
0.2908328382
 40
0.3103416747
 40
0.3302400092
 40
0.3710573659
 40
0.4129837723
 40
0.4557059352
 40
0.4989026758
 40
0.54224818
 40
0.5854151847
 40
0.6280781574
 40
0.669916513
 40
0.710617844
 40
0.7304480143
 40
0.749882195
 40
0.7688850915
 40
0.7874226567
 40
0.8054620269
 40
0.8229718037
 40
0.8399221597
 40
0.8562848744
 40
0.8720337387
 40
0.8871445231
 40
0.901595315
 40
0.9153668771
 40
0.9284427493
 40
0.9408099438
 40
0.9524593352
 40
0.9633863249
 40
0.9735917958
 40
0.9830834311
 40
0.991877791
 40
1.0
 40
1.0
 40
1.0
 40
1.0
 10
13.9119759315
 20
10.2925510888
 30
0.0
 10
13.9119759356
 20
10.2918828116
 30
0.0
 10
13.9120344487
 20
10.2905408479
 30
0.0
 10
13.9122974302
 20
10.2885321598
 30
0.0
 10
13.912735404
 20
10.2865259325
 30
0.0
 10
13.9133478541
 20
10.2845235795
 30
0.0
 10
13.9141343488
 20
10.2825260918
 30
0.0
 10
13.9154360972
 20
10.2798252526
 30
0.0
 10
13.9170755759
 20
10.2771808279
 30
0.0
 10
13.9190063675
 20
10.2746058722
 30
0.0
 10
13.9206522183
 20
10.272647532
 30
0.0
 10
13.9224673439
 20
10.270699889
 30
0.0
 10
13.9244510109
 20
10.2687636495
 30
0.0
 10
13.9266021206
 20
10.2668397294
 30
0.0
 10
13.9289195963
 20
10.2649290068
 30
0.0
 10
13.931402329
 20
10.2630324141
 30
0.0
 10
13.934999382
 20
10.2604754109
 30
0.0
 10
13.9399137169
 20
10.2573288489
 30
0.0
 10
13.9463406574
 20
10.2536925933
 30
0.0
 10
13.9533918001
 20
10.2501346585
 30
0.0
 10
13.9610531505
 20
10.2466620608
 30
0.0
 10
13.9693097463
 20
10.2432817448
 30
0.0
 10
13.9781451768
 20
10.2400004204
 30
0.0
 10
13.9875418556
 20
10.2368247715
 30
0.0
 10
13.9974809765
 20
10.2337612414
 30
0.0
 10
14.0079425869
 20
10.2308160093
 30
0.0
 10
14.0189056582
 20
10.2279951423
 30
0.0
 10
14.0303481006
 20
10.2253043285
 30
0.0
 10
14.0422468416
 20
10.2227490635
 30
0.0
 10
14.054577871
 20
10.2203345853
 30
0.0
 10
14.0673162816
 20
10.218065753
 30
0.0
 10
14.0804363403
 20
10.2159472401
 30
0.0
 10
14.0939115223
 20
10.2139833422
 30
0.0
 10
14.1077146057
 20
10.2121780126
 30
0.0
 10
14.1266793079
 20
10.20996871
 30
0.0
 10
14.1509986162
 20
10.2076390908
 30
0.0
 10
14.1807875748
 20
10.2055477844
 30
0.0
 10
14.2111841916
 20
10.2041549568
 30
0.0
 10
14.241942718
 20
10.2034720127
 30
0.0
 10
14.2728146598
 20
10.2035045817
 30
0.0
 10
14.3035505135
 20
10.2042523999
 30
0.0
 10
14.3339019718
 20
10.2057093126
 30
0.0
 10
14.3636236576
 20
10.2078633711
 30
0.0
 10
14.3878728958
 20
10.2102445881
 30
0.0
 10
14.406770806
 20
10.2124943944
 30
0.0
 10
14.420516314
 20
10.2143288288
 30
0.0
 10
14.4339289122
 20
10.2163211749
 30
0.0
 10
14.44698151
 20
10.2184673466
 30
0.0
 10
14.4596477184
 20
10.2207630158
 30
0.0
 10
14.4719019514
 20
10.2232034945
 30
0.0
 10
14.4837194654
 20
10.2257837814
 30
0.0
 10
14.4950764073
 20
10.2284986827
 30
0.0
 10
14.5059498874
 20
10.2313426048
 30
0.0
 10
14.5163180067
 20
10.2343097857
 30
0.0
 10
14.526159917
 20
10.2373942064
 30
0.0
 10
14.5354558886
 20
10.2405895353
 30
0.0
 10
14.5441873132
 20
10.2438893708
 30
0.0
 10
14.5523368225
 20
10.2472869949
 30
0.0
 10
14.559888294
 20
10.2507755925
 30
0.0
 10
14.5668268625
 20
10.2543483378
 30
0.0
 10
14.5731390626
 20
10.257998104
 30
0.0
 10
14.5788130365
 20
10.2617183353
 30
0.0
 10
14.5838372899
 20
10.2655018574
 30
0.0
 10
14.5868641074
 20
10.2681647967
 30
0.0
 10
14.5882544151
 20
10.2695077309
 30
0.0
  0
SPLINE
  5
322
100
AcDbEntity
  8
0
100
AcDbSpline
 62
7
  6
CONTINUOUS
 70
0
 71
3
 72
69
 73
65
 74
0
 42
0.0000001
 43
0.0000001
 44
0.0000000001
 40
0.0
 40
0.0
 40
0.0
 40
0.0
 40
0.0028080351
 40
0.0056357608
 40
0.0085024195
 40
0.0114263911
 40
0.0144249168
 40
0.0175138431
 40
0.0240151245
 40
0.0274549159
 40
0.0310331529
 40
0.0347582517
 40
0.0386374427
 40
0.0426767532
 40
0.0468812313
 40
0.0512551087
 40
0.0558017563
 40
0.0654223533
 40
0.0757587472
 40
0.0868172233
 40
0.0985976146
 40
0.1110945367
 40
0.1242980056
 40
0.1381943956
 40
0.152766769
 40
0.1679952759
 40
0.1838576633
 40
0.2003292767
 40
0.2173835005
 40
0.234991891
 40
0.2531242363
 40
0.2717489153
 40
0.2908328382
 40
0.3103416747
 40
0.3302400092
 40
0.3710573659
 40
0.4129837723
 40
0.4557059352
 40
0.4989026758
 40
0.54224818
 40
0.5854151847
 40
0.6280781574
 40
0.669916513
 40
0.710617844
 40
0.7304480143
 40
0.749882195
 40
0.7688850915
 40
0.7874226567
 40
0.8054620269
 40
0.8229718037
 40
0.8399221597
 40
0.8562848744
 40
0.8720337387
 40
0.8871445231
 40
0.901595315
 40
0.9153668771
 40
0.9284427493
 40
0.9408099438
 40
0.9524593352
 40
0.9633863249
 40
0.9735917958
 40
0.9830834311
 40
0.991877791
 40
1.0
 40
1.0
 40
1.0
 40
1.0
 10
9.0823465139
 20
10.6274870265
 30
0.0
 10
9.0823465179
 20
10.6268187493
 30
0.0
 10
9.0824050311
 20
10.6254767856
 30
0.0
 10
9.0826680125
 20
10.6234680975
 30
0.0
 10
9.0831059864
 20
10.6214618702
 30
0.0
 10
9.0837184365
 20
10.6194595173
 30
0.0
 10
9.0845049312
 20
10.6174620295
 30
0.0
 10
9.0858066796
 20
10.6147611903
 30
0.0
 10
9.0874461583
 20
10.6121167656
 30
0.0
 10
9.0893769499
 20
10.6095418099
 30
0.0
 10
9.0910228007
 20
10.6075834697
 30
0.0
 10
9.0928379262
 20
10.6056358267
 30
0.0
 10
9.0948215933
 20
10.6036995872
 30
0.0
 10
9.096972703
 20
10.6017756671
 30
0.0
 10
9.0992901787
 20
10.5998649446
 30
0.0
 10
9.1017729114
 20
10.5979683518
 30
0.0
 10
9.1053699644
 20
10.5954113486
 30
0.0
 10
9.1102842993
 20
10.5922647866
 30
0.0
 10
9.1167112398
 20
10.588628531
 30
0.0
 10
9.1237623825
 20
10.5850705962
 30
0.0
 10
9.1314237329
 20
10.5815979985
 30
0.0
 10
9.1396803287
 20
10.5782176825
 30
0.0
 10
9.1485157592
 20
10.5749363581
 30
0.0
 10
9.157912438
 20
10.5717607092
 30
0.0
 10
9.1678515589
 20
10.5686971791
 30
0.0
 10
9.1783131693
 20
10.565751947
 30
0.0
 10
9.1892762406
 20
10.56293108
 30
0.0
 10
9.2007186829
 20
10.5602402662
 30
0.0
 10
9.212617424
 20
10.5576850012
 30
0.0
 10
9.2249484534
 20
10.555270523
 30
0.0
 10
9.237686864
 20
10.5530016907
 30
0.0
 10
9.2508069227
 20
10.5508831778
 30
0.0
 10
9.2642821047
 20
10.5489192799
 30
0.0
 10
9.2780851881
 20
10.5471139503
 30
0.0
 10
9.2970498903
 20
10.5449046477
 30
0.0
 10
9.3213691986
 20
10.5425750285
 30
0.0
 10
9.3511581572
 20
10.5404837221
 30
0.0
 10
9.3815547739
 20
10.5390908945
 30
0.0
 10
9.4123133004
 20
10.5384079504
 30
0.0
 10
9.4431852422
 20
10.5384405194
 30
0.0
 10
9.4739210959
 20
10.5391883376
 30
0.0
 10
9.5042725542
 20
10.5406452503
 30
0.0
 10
9.53399424
 20
10.5427993088
 30
0.0
 10
9.5582434782
 20
10.5451805258
 30
0.0
 10
9.5771413884
 20
10.5474303321
 30
0.0
 10
9.5908868964
 20
10.5492647665
 30
0.0
 10
9.6042994946
 20
10.5512571126
 30
0.0
 10
9.6173520923
 20
10.5534032843
 30
0.0
 10
9.6300183008
 20
10.5556989535
 30
0.0
 10
9.6422725338
 20
10.5581394322
 30
0.0
 10
9.6540900478
 20
10.5607197191
 30
0.0
 10
9.6654469897
 20
10.5634346204
 30
0.0
 10
9.6763204698
 20
10.5662785425
 30
0.0
 10
9.6866885891
 20
10.5692457234
 30
0.0
 10
9.6965304994
 20
10.5723301441
 30
0.0
 10
9.705826471
 20
10.575525473
 30
0.0
 10
9.7145578956
 20
10.5788253085
 30
0.0
 10
9.7227074049
 20
10.5822229326
 30
0.0
 10
9.7302588763
 20
10.5857115302
 30
0.0
 10
9.7371974448
 20
10.5892842755
 30
0.0
 10
9.743509645
 20
10.5929340418
 30
0.0
 10
9.7491836189
 20
10.596654273
 30
0.0
 10
9.7542078723
 20
10.6004377951
 30
0.0
 10
9.7572346898
 20
10.6031007344
 30
0.0
 10
9.7586249975
 20
10.6044436686
 30
0.0
  0
SPLINE
  5
323
100
AcDbEntity
  8
0
100
AcDbSpline
 62
7
  6
CONTINUOUS
 70
0
 71
3
 72
11
 73
7
 74
0
 42
0.0000001
 43
0.0000001
 44
0.0000000001
 40
0.0
 40
0.0
 40
0.0
 40
0.0
 40
0.2475567361
 40
0.4960982093
 40
0.7465969315
 40
1.0
 40
1.0
 40
1.0
 40
1.0
 10
14.5812002041
 20
8.7692568722
 30
0.0
 10
14.5801827032
 20
8.7693274369
 30
0.0
 10
14.578138415
 20
8.7694022391
 30
0.0
 10
14.5750615841
 20
8.7693144394
 30
0.0
 10
14.5719728128
 20
8.7690268085
 30
0.0
 10
14.5699203471
 20
8.7687041628
 30
0.0
 10
14.5688943981
 20
8.768510691
 30
0.0
  0
SPLINE
  5
324
100
AcDbEntity
  8
0
100
AcDbSpline
 62
7
  6
CONTINUOUS
 70
0
 71
3
 72
49
 73
45
 74
0
 42
0.0000001
 43
0.0000001
 44
0.0000000001
 40
0.0
 40
0.0
 40
0.0
 40
0.0
 40
0.0070628478
 40
0.0144558389
 40
0.0221882
 40
0.0302671636
 40
0.0386983802
 40
0.0474858928
 40
0.0566325596
 40
0.0661400283
 40
0.076008935
 40
0.0862390754
 40
0.0968293237
 40
0.1077779531
 40
0.119082462
 40
0.1307398108
 40
0.1427464058
 40
0.1550980826
 40
0.1677903131
 40
0.1808180062
 40
0.1941757683
 40
0.2078577635
 40
0.236168908
 40
0.2656986092
 40
0.2963886497
 40
0.3281764789
 40
0.3609956379
 40
0.3947761306
 40
0.4294447854
 40
0.4649255803
 40
0.5011399449
 40
0.5380070482
 40
0.5754440756
 40
0.6133664978
 40
0.6516883476
 40
0.6903224871
 40
0.729180864
 40
0.768174777
 40
0.8072151285
 40
0.8462126505
 40
0.8850783864
 40
0.9237231156
 40
0.9620599679
 40
1.0
 40
1.0
 40
1.0
 40
1.0
 10
14.6086146232
 20
8.8193369919
 30
0.0
 10
14.6068054745
 20
8.8176532358
 30
0.0
 10
14.6031890462
 20
8.8141132159
 30
0.0
 10
14.5978888497
 20
8.8084365608
 30
0.0
 10
14.5925944116
 20
8.8022775748
 30
0.0
 10
14.58730888
 20
8.7956401591
 30
0.0
 10
14.5820353983
 20
8.7885281405
 30
0.0
 10
14.5767769613
 20
8.7809458516
 30
0.0
 10
14.5715367817
 20
8.7728977692
 30
0.0
 10
14.5663179533
 20
8.7643887437
 30
0.0
 10
14.5611235911
 20
8.7554238932
 30
0.0
 10
14.5559569049
 20
8.7460085882
 30
0.0
 10
14.5508209152
 20
8.7361485487
 30
0.0
 10
14.5457188463
 20
8.7258496953
 30
0.0
 10
14.5406537166
 20
8.7151182894
 30
0.0
 10
14.5356286425
 20
8.7039608206
 30
0.0
 10
14.5306467037
 20
8.6923840524
 30
0.0
 10
14.5257108713
 20
8.6803950259
 30
0.0
 10
14.5208242467
 20
8.6680010004
 30
0.0
 10
14.5159897226
 20
8.655209532
 30
0.0
 10
14.5112102946
 20
8.6420283712
 30
0.0
 10
14.5048425495
 20
8.6237360687
 30
0.0
 10
14.4970543556
 20
8.5999485884
 30
0.0
 10
14.4880766895
 20
8.5702966469
 30
0.0
 10
14.4793860736
 20
8.5392940343
 30
0.0
 10
14.4710038015
 20
8.507016219
 30
0.0
 10
14.4629504219
 20
8.4735416267
 30
0.0
 10
14.4552456573
 20
8.4389517084
 30
0.0
 10
14.4479083737
 20
8.4033306509
 30
0.0
 10
14.4409565319
 20
8.3667651807
 30
0.0
 10
14.4344071449
 20
8.3293443419
 30
0.0
 10
14.4282762372
 20
8.2911592788
 30
0.0
 10
14.4225788071
 20
8.2523030138
 30
0.0
 10
14.4173287781
 20
8.2128702197
 30
0.0
 10
14.4125389776
 20
8.172956982
 30
0.0
 10
14.4082211058
 20
8.1326605614
 30
0.0
 10
14.404385707
 20
8.0920791549
 30
0.0
 10
14.4010421447
 20
8.0513116573
 30
0.0
 10
14.3981985831
 20
8.010457432
 30
0.0
 10
14.395861934
 20
7.969616002
 30
0.0
 10
14.3940379174
 20
7.9288870388
 30
0.0
 10
14.3927308938
 20
7.888369473
 30
0.0
 10
14.3919441294
 20
7.8481625007
 30
0.0
 10
14.3917665967
 20
7.8214712099
 30
0.0
 10
14.3917665967
 20
7.8081951481
 30
0.0
  0
SPLINE
  5
325
100
AcDbEntity
  8
0
100
AcDbSpline
 62
7
  6
CONTINUOUS
 70
0
 71
3
 72
11
 73
7
 74
0
 42
0.0000001
 43
0.0000001
 44
0.0000000001
 40
0.0
 40
0.0
 40
0.0
 40
0.0
 40
0.2475501303
 40
0.4960876409
 40
0.7465877102
 40
1.0
 40
1.0
 40
1.0
 40
1.0
 10
14.4774241083
 20
7.2728510562
 30
0.0
 10
14.4764052019
 20
7.2729217184
 30
0.0
 10
14.4743673411
 20
7.2731302041
 30
0.0
 10
14.4713279099
 20
7.2736429952
 30
0.0
 10
14.4683042839
 20
7.2743559111
 30
0.0
 10
14.4663133414
 20
7.2749602514
 30
0.0
 10
14.4653226041
 20
7.2752943076
 30
0.0
  0
SPLINE
  5
326
100
AcDbEntity
  8
0
100
AcDbSpline
 62
7
  6
CONTINUOUS
 70
0
 71
3
 72
35
 73
31
 74
0
 42
0.0000001
 43
0.0000001
 44
0.0000000001
 40
0.0
 40
0.0
 40
0.0
 40
0.0
 40
0.0162143111
 40
0.0334273662
 40
0.0516716855
 40
0.0709707842
 40
0.0913402599
 40
0.1127893229
 40
0.1353215779
 40
0.1589358742
 40
0.1836270239
 40
0.209386099
 40
0.2362011871
 40
0.264057313
 40
0.2929371952
 40
0.3228210131
 40
0.3536870391
 40
0.3855114635
 40
0.4182687869
 40
0.45193183
 40
0.4864718499
 40
0.5218587619
 40
0.5580610152
 40
0.5950459771
 40
0.6327796835
 40
0.6712272462
 40
0.7501177592
 40
0.8314200507
 40
0.91482146
 40
1.0
 40
1.0
 40
1.0
 40
1.0
 10
14.4976628376
 20
7.2194666098
 30
0.0
 10
14.4955972847
 20
7.2220063125
 30
0.0
 10
14.4915127886
 20
7.2273851975
 30
0.0
 10
14.4856878989
 20
7.2360456034
 30
0.0
 10
14.479990986
 20
7.2455249685
 30
0.0
 10
14.4744280426
 20
7.2558133192
 30
0.0
 10
14.4690043425
 20
7.2669003234
 30
0.0
 10
14.4637254629
 20
7.2787746494
 30
0.0
 10
14.4585967891
 20
7.2914241049
 30
0.0
 10
14.4536236206
 20
7.3048356224
 30
0.0
 10
14.4488112132
 20
7.3189953044
 30
0.0
 10
14.4441645299
 20
7.3338884017
 30
0.0
 10
14.4396885796
 20
7.3494993881
 30
0.0
 10
14.435387969
 20
7.365811927
 30
0.0
 10
14.4312673674
 20
7.3828089418
 30
0.0
 10
14.4273310324
 20
7.4004726008
 30
0.0
 10
14.4235832204
 20
7.4187843633
 30
0.0
 10
14.4200278475
 20
7.4377249895
 30
0.0
 10
14.4166687114
 20
7.4572745671
 30
0.0
 10
14.4135093779
 20
7.4774125337
 30
0.0
 10
14.4105531662
 20
7.4981177009
 30
0.0
 10
14.4078032689
 20
7.5193682723
 30
0.0
 10
14.4052625259
 20
7.5411418803
 30
0.0
 10
14.402933725
 20
7.5634155854
 30
0.0
 10
14.4008192227
 20
7.5861659609
 30
0.0
 10
14.3982669637
 20
7.6173708262
 30
0.0
 10
14.3956422797
 20
7.6573929001
 30
0.0
 10
14.3934037001
 20
7.7065258908
 30
0.0
 10
14.3920596417
 20
7.756961235
 30
0.0
 10
14.3917665967
 20
7.790997852
 30
0.0
 10
14.3917665967
 20
7.8081951481
 30
0.0
  0
SPLINE
  5
327
100
AcDbEntity
  8
0
100
AcDbSpline
 62
7
  6
CONTINUOUS
 70
0
 71
3
 72
95
 73
91
 74
0
 42
0.0000001
 43
0.0000001
 44
0.0000000001
 40
0.0
 40
0.0
 40
0.0
 40
0.0
 40
0.0026901166
 40
0.005399609
 40
0.0081474077
 40
0.0109515934
 40
0.0138290767
 40
0.0167953922
 40
0.0198645394
 40
0.0230490019
 40
0.026359724
 40
0.0298062299
 40
0.0333967233
 40
0.0371381738
 40
0.0410365067
 40
0.0450966328
 40
0.0493226372
 40
0.053717828
 40
0.0582848257
 40
0.0630256862
 40
0.0679418823
 40
0.0730344598
 40
0.0783040035
 40
0.0837507254
 40
0.0893745085
 40
0.0951748817
 40
0.1011511385
 40
0.1073022623
 40
0.1136270255
 40
0.1201239731
 40
0.1267914223
 40
0.1336275388
 40
0.1406302592
 40
0.1477973942
 40
0.162615023
 40
0.1780600377
 40
0.1941096197
 40
0.2107390148
 40
0.2279217187
 40
0.2456296345
 40
0.2638332118
 40
0.2825015731
 40
0.3016026261
 40
0.3211031779
 40
0.3409690428
 40
0.361165142
 40
0.3816556006
 40
0.4024038409
 40
0.4233726741
 40
0.4445243957
 40
0.4658208771
 40
0.4872236554
 40
0.5086940223
 40
0.5301931132
 40
0.5516819973
 40
0.5731217683
 40
0.5944736332
 40
0.6156990007
 40
0.6367595704
 40
0.6576174239
 40
0.6782351178
 40
0.698575774
 40
0.7186031709
 40
0.7382818371
 40
0.7575771468
 40
0.7764554227
 40
0.7948840402
 40
0.8128315312
 40
0.8302676967
 40
0.8471637284
 40
0.8634923426
 40
0.8792279347
 40
0.8943467469
 40
0.9088270585
 40
0.9158217505
 40
0.9226497208
 40
0.9293089396
 40
0.9357975706
 40
0.942113934
 40
0.9482566054
 40
0.9542243363
 40
0.9600161584
 40
0.9656313616
 40
0.9710694941
 40
0.9763304396
 40
0.9814143881
 40
0.9863220443
 40
0.9910545408
 40
0.9956132881
 40
1.0
 40
1.0
 40
1.0
 40
1.0
 10
14.5551668572
 20
6.8264027413
 30
0.0
 10
14.5529908069
 20
6.8265536514
 30
0.0
 10
14.548634
 20
6.8270495092
 30
0.0
 10
14.5421527861
 20
6.8283690978
 30
0.0
 10
14.5357193314
 20
6.8302644873
 30
0.0
 10
14.5293380131
 20
6.8327338561
 30
0.0
 10
14.5230119896
 20
6.8357751038
 30
0.0
 10
14.5167444578
 20
6.8393860567
 30
0.0
 10
14.5105381233
 20
6.8435640974
 30
0.0
 10
14.504395765
 20
6.8483068191
 30
0.0
 10
14.4983198751
 20
6.8536114446
 30
0.0
 10
14.4923130049
 20
6.8594752087
 30
0.0
 10
14.4863777263
 20
6.8658951893
 30
0.0
 10
14.4805164677
 20
6.8728681702
 30
0.0
 10
14.4747319108
 20
6.8803908981
 30
0.0
 10
14.4690264939
 20
6.8884597132
 30
0.0
 10
14.4634028629
 20
6.8970708458
 30
0.0
 10
14.4578635747
 20
6.9062202119
 30
0.0
 10
14.4524111356
 20
6.9159034621
 30
0.0
 10
14.4470481957
 20
6.9261160496
 30
0.0
 10
14.4417771571
 20
6.9368530774
 30
0.0
 10
14.4366006206
 20
6.9481094743
 30
0.0
 10
14.4315209913
 20
6.9598798513
 30
0.0
 10
14.4265406964
 20
6.9721585892
 30
0.0
 10
14.4216621803
 20
6.9849398262
 30
0.0
 10
14.416887693
 20
6.9982174189
 30
0.0
 10
14.4122196376
 20
7.0119850204
 30
0.0
 10
14.4076601803
 20
7.0262360031
 30
0.0
 10
14.4032115632
 20
7.0409635271
 30
0.0
 10
14.3988759466
 20
7.0561605093
 30
0.0
 10
14.3946553674
 20
7.0718196331
 30
0.0
 10
14.3905519611
 20
7.0879333641
 30
0.0
 10
14.3865675948
 20
7.1044939496
 30
0.0
 10
14.3813587535
 20
7.1274145072
 30
0.0
 10
14.3751748294
 20
7.1571307735
 30
0.0
 10
14.3683384105
 20
7.1940581938
 30
0.0
 10
14.3620198246
 20
7.232567064
 30
0.0
 10
14.3562313842
 20
7.2725830923
 30
0.0
 10
14.3509844009
 20
7.3140292618
 30
0.0
 10
14.3462891222
 20
7.3568256889
 30
0.0
 10
14.3421547224
 20
7.4008898717
 30
0.0
 10
14.3385892849
 20
7.4461368258
 30
0.0
 10
14.3355997743
 20
7.4924792585
 30
0.0
 10
14.333192032
 20
7.5398277416
 30
0.0
 10
14.3313707699
 20
7.5880908932
 30
0.0
 10
14.3301395606
 20
7.6371755575
 30
0.0
 10
14.3295008318
 20
7.686986985
 30
0.0
 10
14.3294558629
 20
7.7374290132
 30
0.0
 10
14.3300047701
 20
7.788404254
 30
0.0
 10
14.3311465176
 20
7.8398142847
 30
0.0
 10
14.3328789217
 20
7.8915598418
 30
0.0
 10
14.3351986546
 20
7.9435410128
 30
0.0
 10
14.3381012515
 20
7.9956574276
 30
0.0
 10
14.3415811183
 20
8.0478084527
 30
0.0
 10
14.3456315314
 20
8.0998933878
 30
0.0
 10
14.3502446635
 20
8.151811662
 30
0.0
 10
14.3554115977
 20
8.2034630281
 30
0.0
 10
14.361122345
 20
8.2547477548
 30
0.0
 10
14.3673658637
 20
8.3055668198
 30
0.0
 10
14.3741300772
 20
8.3558221041
 30
0.0
 10
14.3814018897
 20
8.4054165851
 30
0.0
 10
14.3891672234
 20
8.4542545234
 30
0.0
 10
14.3974110432
 20
8.5022416463
 30
0.0
 10
14.4061173853
 20
8.5492853298
 30
0.0
 10
14.4152693894
 20
8.5952947799
 30
0.0
 10
14.4248493238
 20
8.6401812168
 30
0.0
 10
14.434838617
 20
8.6838580505
 30
0.0
 10
14.4452179035
 20
8.7262410484
 30
0.0
 10
14.4559670582
 20
8.767248496
 30
0.0
 10
14.4670652352
 20
8.8068013676
 30
0.0
 10
14.4784909126
 20
8.844823463
 30
0.0
 10
14.4902219251
 20
8.8812416685
 30
0.0
 10
14.502235511
 20
8.9159857753
 30
0.0
 10
14.5125785766
 20
8.9438001975
 30
0.0
 10
14.5209889535
 20
8.9651535897
 30
0.0
 10
14.5272800638
 20
8.9805241853
 30
0.0
 10
14.5336242622
 20
8.9954279917
 30
0.0
 10
14.5400184656
 20
9.0098578632
 30
0.0
 10
14.5464596637
 20
9.0238068293
 30
0.0
 10
14.5529446549
 20
9.03726821
 30
0.0
 10
14.5594703884
 20
9.0502355171
 30
0.0
 10
14.5660336907
 20
9.062702542
 30
0.0
 10
14.5726313968
 20
9.0746633171
 30
0.0
 10
14.5792603958
 20
9.0861120717
 30
0.0
 10
14.5859173826
 20
9.097043347
 30
0.0
 10
14.5925992892
 20
9.1074519038
 30
0.0
 10
14.5993029349
 20
9.1173328894
 30
0.0
 10
14.6060252567
 20
9.1266816455
 30
0.0
 10
14.6127627818
 20
9.1354933503
 30
0.0
 10
14.6173498428
 20
9.1411141731
 30
0.0
 10
14.6196465756
 20
9.1438302312
 30
0.0
  0
SPLINE
  5
328
100
AcDbEntity
  8
0
100
AcDbSpline
 62
7
  6
CONTINUOUS
 70
0
 71
3
 72
19
 73
15
 74
0
 42
0.0000001
 43
0.0000001
 44
0.0000000001
 40
0.0
 40
0.0
 40
0.0
 40
0.0
 40
0.1428591553
 40
0.2117649317
 40
0.2790787775
 40
0.409240549
 40
0.534124281
 40
0.6546031652
 40
0.7135113497
 40
0.7716948766
 40
0.8292912994
 40
0.8864431373
 40
0.9432965098
 40
1.0
 40
1.0
 40
1.0
 40
1.0
 10
14.6196465756
 20
6.848790402
 30
0.0
 10
14.6169888452
 20
6.8467990256
 30
0.0
 10
14.6129554985
 20
6.8439680181
 30
0.0
 10
14.6074534612
 20
6.8405281771
 30
0.0
 10
14.6020844032
 20
6.8374403474
 30
0.0
 10
14.5953775196
 20
6.8340779066
 30
0.0
 10
14.5872624476
 20
6.8308314468
 30
0.0
 10
14.5804721971
 20
6.8288094283
 30
0.0
 10
14.5750758945
 20
6.8276254689
 30
0.0
 10
14.5710690934
 20
6.8269537293
 30
0.0
 10
14.5670738226
 20
6.8264920395
 30
0.0
 10
14.5630907324
 20
6.8262404354
 30
0.0
 10
14.5591207691
 20
6.8261989796
 30
0.0
 10
14.5564818703
 20
6.8263115445
 30
0.0
 10
14.5551668572
 20
6.8264027413
 30
0.0
  0
SPLINE
  5
329
100
AcDbEntity
  8
0
100
AcDbSpline
 62
7
  6
CONTINUOUS
 70
0
 71
3
 72
66
 73
62
 74
0
 42
0.0000001
 43
0.0000001
 44
0.0000000001
 40
0.0
 40
0.0
 40
0.0
 40
0.0
 40
0.0452100958
 40
0.091000882
 40
0.1371884425
 40
0.1835858056
 40
0.2300054417
 40
0.2762595347
 40
0.322161166
 40
0.3675252211
 40
0.4121693755
 40
0.4559150727
 40
0.4985885253
 40
0.5400217374
 40
0.5602229025
 40
0.580054177
 40
0.5994967084
 40
0.6185321414
 40
0.6371428251
 40
0.6553116735
 40
0.67302239
 40
0.6902593674
 40
0.7070078472
 40
0.7232539396
 40
0.7389846648
 40
0.7541881316
 40
0.7688534651
 40
0.7829711258
 40
0.7965327978
 40
0.809531773
 40
0.82196293
 40
0.8338231007
 40
0.8451112681
 40
0.8558288934
 40
0.8659804206
 40
0.8755736355
 40
0.8846205219
 40
0.8931378177
 40
0.9011482117
 40
0.9086812776
 40
0.9157748844
 40
0.9224764009
 40
0.9288437812
 40
0.9319246359
 40
0.9349487804
 40
0.9379264614
 40
0.9408684794
 40
0.9437860667
 40
0.9466907584
 40
0.9495942622
 40
0.9525083005
 40
0.9554444551
 40
0.958414034
 40
0.9614279302
 40
0.9644965064
 40
0.9676295366
 40
0.9708361521
 40
0.9775010352
 40
0.9845526494
 40
0.9920393727
 40
1.0
 40
1.0
 40
1.0
 40
1.0
 10
14.821405857
 20
8.2231948302
 30
0.0
 10
14.821405857
 20
8.2054985963
 30
0.0
 10
14.8210902553
 20
8.1698781168
 30
0.0
 10
14.8196986133
 20
8.1161951468
 30
0.0
 10
14.8173910107
 20
8.0620784854
 30
0.0
 10
14.8141772946
 20
8.0077615699
 30
0.0
 10
14.8100713289
 20
7.9534786811
 30
0.0
 10
14.8050908203
 20
7.8994638747
 30
0.0
 10
14.7992573031
 20
7.8459500735
 30
0.0
 10
14.7925960216
 20
7.7931680076
 30
0.0
 10
14.7851358295
 20
7.7413452432
 30
0.0
 10
14.7769090759
 20
7.6907051028
 30
0.0
 10
14.7679514314
 20
7.6414659848
 30
0.0
 10
14.7598433654
 20
7.6014475076
 30
0.0
 10
14.7530090916
 20
7.5703004815
 30
0.0
 10
14.7477687799
 20
7.5476176044
 30
0.0
 10
14.7423764839
 20
7.5254396831
 30
0.0
 10
14.7368379252
 20
7.5037906108
 30
0.0
 10
14.7311591908
 20
7.4826937223
 30
0.0
 10
14.7253463349
 20
7.4621717583
 30
0.0
 10
14.7194057194
 20
7.4422468222
 30
0.0
 10
14.7133437196
 20
7.4229403787
 30
0.0
 10
14.7071669151
 20
7.40427321
 30
0.0
 10
14.7008819983
 20
7.3862654013
 30
0.0
 10
14.6944957215
 20
7.368936324
 30
0.0
 10
14.6880150645
 20
7.3523045852
 30
0.0
 10
14.6814469302
 20
7.3363880568
 30
0.0
 10
14.6747985227
 20
7.3212037768
 30
0.0
 10
14.6680768964
 20
7.3067680232
 30
0.0
 10
14.6612893841
 20
7.2930961867
 30
0.0
 10
14.6544431939
 20
7.2802028502
 30
0.0
 10
14.6475456763
 20
7.2681016902
 30
0.0
 10
14.6406041586
 20
7.2568054933
 30
0.0
 10
14.6336258908
 20
7.2463261657
 30
0.0
 10
14.6266182095
 20
7.2366746169
 30
0.0
 10
14.6195881257
 20
7.2278609549
 30
0.0
 10
14.6125427586
 20
7.2198942127
 30
0.0
 10
14.6054887053
 20
7.2127827664
 30
0.0
 10
14.5984325189
 20
7.2065340103
 30
0.0
 10
14.5913802677
 20
7.2011549543
 30
0.0
 10
14.5843375746
 20
7.1966520558
 30
0.0
 10
14.5773109456
 20
7.1930319958
 30
0.0
 10
14.5714080523
 20
7.1907313883
 30
0.0
 10
14.566720528
 20
7.1893586277
 30
0.0
 10
14.563253117
 20
7.1885635391
 30
0.0
 10
14.5597969186
 20
7.1879923283
 30
0.0
 10
14.5563528923
 20
7.1876451766
 30
0.0
 10
14.5529221305
 20
7.1875222375
 30
0.0
 10
14.5495057102
 20
7.1876236347
 30
0.0
 10
14.5461047406
 20
7.187949421
 30
0.0
 10
14.5427203105
 20
7.1884993931
 30
0.0
 10
14.5393534824
 20
7.1892733196
 30
0.0
 10
14.5360053121
 20
7.1902709531
 30
0.0
 10
14.5326767995
 20
7.1914918884
 30
0.0
 10
14.5293688987
 20
7.1929355803
 30
0.0
 10
14.5260824531
 20
7.1946015656
 30
0.0
 10
14.5216741585
 20
7.1971510561
 30
0.0
 10
14.5162124898
 20
7.2009207687
 30
0.0
 10
14.5098482892
 20
7.2062641895
 30
0.0
 10
14.5035945948
 20
7.2124774196
 30
0.0
 10
14.4996289148
 20
7.2170492177
 30
0.0
 10
14.4976628376
 20
7.2194666098
 30
0.0
  0
SPLINE
  5
32A
100
AcDbEntity
  8
0
100
AcDbSpline
 62
7
  6
CONTINUOUS
 70
0
 71
3
 72
57
 73
53
 74
0
 42
0.0000001
 43
0.0000001
 44
0.0000000001
 40
0.0
 40
0.0
 40
0.0
 40
0.0
 40
0.0417736534
 40
0.0840366016
 40
0.1266578211
 40
0.1695056346
 40
0.21244701
 40
0.2553487447
 40
0.2980777184
 40
0.3405015169
 40
0.3824889248
 40
0.4239104649
 40
0.4646389286
 40
0.5045499179
 40
0.5435223959
 40
0.5814392547
 40
0.6181879055
 40
0.6536609025
 40
0.670887291
 40
0.6877571705
 40
0.7042588558
 40
0.7203811606
 40
0.7361133347
 40
0.7514452242
 40
0.7663671439
 40
0.7808701133
 40
0.794945674
 40
0.8085861929
 40
0.8217846464
 40
0.8345349745
 40
0.8468318643
 40
0.858671133
 40
0.8700495541
 40
0.8809652503
 40
0.8914176071
 40
0.9014076696
 40
0.9109381913
 40
0.9200140439
 40
0.9286424511
 40
0.9368334399
 40
0.9446003045
 40
0.9519601344
 40
0.9589345191
 40
0.9655501451
 40
0.9718396237
 40
0.9778419676
 40
0.9836031197
 40
0.9891757627
 40
0.9919106391
 40
0.994620898
 40
0.9973146063
 40
1.0
 40
1.0
 40
1.0
 40
1.0
 10
14.7234262798
 20
8.2085538206
 30
0.0
 10
14.7234262798
 20
8.1945619598
 30
0.0
 10
14.723207986
 20
8.1664139121
 30
0.0
 10
14.722242983
 20
8.1240000595
 30
0.0
 10
14.7206412822
 20
8.0812453705
 30
0.0
 10
14.7184081797
 20
8.0382915156
 30
0.0
 10
14.7155510221
 20
7.9952804909
 30
0.0
 10
14.7120792718
 20
7.9523546401
 30
0.0
 10
14.708004421
 20
7.9096559616
 30
0.0
 10
14.7033399814
 20
7.867325719
 30
0.0
 10
14.6981014274
 20
7.8255039416
 30
0.0
 10
14.6923061505
 20
7.7843289662
 30
0.0
 10
14.6859734008
 20
7.7439369739
 30
0.0
 10
14.6791242259
 20
7.7044615298
 30
0.0
 10
14.6717813994
 20
7.6660331528
 30
0.0
 10
14.6639693571
 20
7.6287788072
 30
0.0
 10
14.6557140842
 20
7.5928217152
 30
0.0
 10
14.6484189619
 20
7.5637607727
 30
0.0
 10
14.6423720064
 20
7.5412567693
 30
0.0
 10
14.6377876483
 20
7.5249406654
 30
0.0
 10
14.6331136961
 20
7.5090350706
 30
0.0
 10
14.6283540443
 20
7.493553113
 30
0.0
 10
14.6235125894
 20
7.4785075963
 30
0.0
 10
14.6185934153
 20
7.4639109398
 30
0.0
 10
14.6136005178
 20
7.4497752085
 30
0.0
 10
14.6085381317
 20
7.436112056
 30
0.0
 10
14.6034103473
 20
7.422932771
 30
0.0
 10
14.5982215278
 20
7.4102481973
 30
0.0
 10
14.5929758494
 20
7.3980688072
 30
0.0
 10
14.5876777766
 20
7.3864045945
 30
0.0
 10
14.5823315638
 20
7.3752651747
 30
0.0
 10
14.5769417438
 20
7.3646596538
 30
0.0
 10
14.5715126379
 20
7.3545967504
 30
0.0
 10
14.5660488078
 20
7.345084649
 30
0.0
 10
14.5605546216
 20
7.3361311313
 30
0.0
 10
14.5550346204
 20
7.3277434327
 30
0.0
 10
14.5494931838
 20
7.319928363
 30
0.0
 10
14.5439347649
 20
7.3126921962
 30
0.0
 10
14.5383636943
 20
7.3060407517
 30
0.0
 10
14.5327842466
 20
7.2999793676
 30
0.0
 10
14.527200613
 20
7.2945129057
 30
0.0
 10
14.5216167867
 20
7.2896458825
 30
0.0
 10
14.516036736
 20
7.2853823557
 30
0.0
 10
14.5104641425
 20
7.2817263003
 30
0.0
 10
14.5049028704
 20
7.2786813088
 30
0.0
 10
14.4993565044
 20
7.2762512309
 30
0.0
 10
14.4938298402
 20
7.2744395096
 30
0.0
 10
14.4892142742
 20
7.2734418822
 30
0.0
 10
14.4855534414
 20
7.272963492
 30
0.0
 10
14.4828333059
 20
7.2727620257
 30
0.0
 10
14.4801228175
 20
7.2727159424
 30
0.0
 10
14.4783214112
 20
7.2727888273
 30
0.0
 10
14.4774241083
 20
7.2728510562
 30
0.0
  0
SPLINE
  5
32B
100
AcDbEntity
  8
0
100
AcDbSpline
 62
7
  6
CONTINUOUS
 70
0
 71
3
 72
60
 73
56
 74
0
 42
0.0000001
 43
0.0000001
 44
0.0000000001
 40
0.0
 40
0.0
 40
0.0
 40
0.0
 40
0.0532122143
 40
0.1056321538
 40
0.1571421459
 40
0.2076317293
 40
0.2569909326
 40
0.3051141858
 40
0.3518995392
 40
0.3972494003
 40
0.4410709497
 40
0.4832766305
 40
0.523784729
 40
0.5433787454
 40
0.5625207824
 40
0.581202509
 40
0.5994162291
 40
0.6171547456
 40
0.634411397
 40
0.6511802779
 40
0.6674559847
 40
0.6832340122
 40
0.6985105431
 40
0.7132826427
 40
0.7275484149
 40
0.7413068606
 40
0.7545583405
 40
0.767304371
 40
0.7795480187
 40
0.7912940336
 40
0.8025489416
 40
0.8133215884
 40
0.823623106
 40
0.8334675601
 40
0.8428721834
 40
0.8518578147
 40
0.8604495297
 40
0.868676859
 40
0.8765744793
 40
0.8841823291
 40
0.8915458047
 40
0.8987155894
 40
0.9057469747
 40
0.9126989443
 40
0.9196326688
 40
0.9266098549
 40
0.933690958
 40
0.9409336246
 40
0.9483913291
 40
0.9561126614
 40
0.9641407784
 40
0.9725134197
 40
0.9812631496
 40
0.9904175638
 40
1.0
 40
1.0
 40
1.0
 40
1.0
 10
14.821405857
 20
8.2231948302
 30
0.0
 10
14.821405857
 20
8.2361467187
 30
0.0
 10
14.8212390209
 20
8.2618579992
 30
0.0
 10
14.8204774492
 20
8.3001000516
 30
0.0
 10
14.8192080172
 20
8.3376656845
 30
0.0
 10
14.817433917
 20
8.3744650938
 30
0.0
 10
14.8151593659
 20
8.4104111147
 30
0.0
 10
14.8123898916
 20
8.4454181459
 30
0.0
 10
14.8091321664
 20
8.4794030334
 30
0.0
 10
14.8053940602
 20
8.512285022
 30
0.0
 10
14.801184607
 20
8.5439860832
 30
0.0
 10
14.7965139277
 20
8.5744308484
 30
0.0
 10
14.7922004499
 20
8.598958643
 30
0.0
 10
14.7885168577
 20
8.6178921391
 30
0.0
 10
14.7856766736
 20
8.6315764238
 30
0.0
 10
14.7827300475
 20
8.6448943104
 30
0.0
 10
14.7796787566
 20
8.6578379065
 30
0.0
 10
14.7765246346
 20
8.6703995282
 30
0.0
 10
14.7732695053
 20
8.6825717177
 30
0.0
 10
14.7699154011
 20
8.6943472679
 30
0.0
 10
14.7664642205
 20
8.70571919
 30
0.0
 10
14.7629180967
 20
8.7166807623
 30
0.0
 10
14.7592791076
 20
8.7272255002
 30
0.0
 10
14.7555493846
 20
8.7373471672
 30
0.0
 10
14.7517312198
 20
8.7470398132
 30
0.0
 10
14.747826753
 20
8.7562977021
 30
0.0
 10
14.7438383942
 20
8.765115425
 30
0.0
 10
14.7397684041
 20
8.7734877942
 30
0.0
 10
14.7356191614
 20
8.7814099152
 30
0.0
 10
14.7313931164
 20
8.7888771965
 30
0.0
 10
14.7270925653
 20
8.795885244
 30
0.0
 10
14.722720063
 20
8.8024300586
 30
0.0
 10
14.7182779078
 20
8.8085077857
 30
0.0
 10
14.7137685668
 20
8.8141149218
 30
0.0
 10
14.7091944322
 20
8.8192481949
 30
0.0
 10
14.7045577724
 20
8.8239044582
 30
0.0
 10
14.6998610465
 20
8.8280809454
 30
0.0
 10
14.6951064412
 20
8.8317747789
 30
0.0
 10
14.6902964251
 20
8.8349834284
 30
0.0
 10
14.6854334344
 20
8.8377042951
 30
0.0
 10
14.6805201476
 20
8.8399348359
 30
0.0
 10
14.675559656
 20
8.8416728775
 30
0.0
 10
14.6705553254
 20
8.8429161542
 30
0.0
 10
14.6655110831
 20
8.8436633122
 30
0.0
 10
14.6604310747
 20
8.843913297
 30
0.0
 10
14.6553196277
 20
8.8436660011
 30
0.0
 10
14.6501809172
 20
8.8429221473
 30
0.0
 10
14.6450188935
 20
8.841682805
 30
0.0
 10
14.639837034
 20
8.8399499109
 30
0.0
 10
14.6346385842
 20
8.8377252601
 30
0.0
 10
14.6294264245
 20
8.8350110937
 30
0.0
 10
14.6242033065
 20
8.8318096494
 30
0.0
 10
14.6189719508
 20
8.8281231361
 30
0.0
 10
14.6137350808
 20
8.8239542733
 30
0.0
 10
14.6103219653
 20
8.8209259976
 30
0.0
 10
14.6086146232
 20
8.8193369919
 30
0.0
  0
SPLINE
  5
32C
100
AcDbEntity
  8
0
100
AcDbSpline
 62
7
  6
CONTINUOUS
 70
0
 71
3
 72
50
 73
46
 74
0
 42
0.0000001
 43
0.0000001
 44
0.0000000001
 40
0.0
 40
0.0
 40
0.0
 40
0.0
 40
0.0484981071
 40
0.0964122279
 40
0.1436641743
 40
0.1901849511
 40
0.2359042066
 40
0.2807531579
 40
0.3246653514
 40
0.3675762377
 40
0.4094234714
 40
0.450147086
 40
0.4896898312
 40
0.5279973132
 40
0.5650181719
 40
0.6007045649
 40
0.6350123927
 40
0.6679015811
 40
0.6993367542
 40
0.7292876931
 40
0.7577298951
 40
0.7846456554
 40
0.7975283127
 40
0.8100263614
 40
0.8221399902
 40
0.8338701763
 40
0.8452185186
 40
0.85618749
 40
0.8667805838
 40
0.8770021922
 40
0.8868579035
 40
0.8963546744
 40
0.9055007717
 40
0.9143061207
 40
0.9227825097
 40
0.9309436026
 40
0.9388053189
 40
0.9463860399
 40
0.9607838117
 40
0.9676581522
 40
0.9743520108
 40
0.9808975346
 40
0.9873293599
 40
0.9936841335
 40
1.0
 40
1.0
 40
1.0
 40
1.0
 10
14.7234262798
 20
8.2085538206
 30
0.0
 10
14.7234262798
 20
8.2183111218
 30
0.0
 10
14.7233213045
 20
8.2377084098
 30
0.0
 10
14.72284333
 20
8.2666087387
 30
0.0
 10
14.7220464073
 20
8.2951041221
 30
0.0
 10
14.7209319336
 20
8.3231469476
 30
0.0
 10
14.7195017728
 20
8.3506913878
 30
0.0
 10
14.717758305
 20
8.3776919225
 30
0.0
 10
14.7157044196
 20
8.4041039848
 30
0.0
 10
14.7133435626
 20
8.4298840537
 30
0.0
 10
14.7106796787
 20
8.4549896219
 30
0.0
 10
14.7077171712
 20
8.4793793044
 30
0.0
 10
14.7044610022
 20
8.5030129222
 30
0.0
 10
14.7009166136
 20
8.525851556
 30
0.0
 10
14.6970898709
 20
8.5478576084
 30
0.0
 10
14.6929871736
 20
8.5689948929
 30
0.0
 10
14.6886153773
 20
8.5892286862
 30
0.0
 10
14.6839817145
 20
8.6085257866
 30
0.0
 10
14.679093911
 20
8.6268545794
 30
0.0
 10
14.673960103
 20
8.6441851993
 30
0.0
 10
14.6685887401
 20
8.6604891989
 30
0.0
 10
14.6638554387
 20
8.6733802258
 30
0.0
 10
14.659946547
 20
8.6831492975
 30
0.0
 10
14.657003897
 20
8.6900957305
 30
0.0
 10
14.6540085933
 20
8.6967662747
 30
0.0
 10
14.6509618915
 20
8.703158245
 30
0.0
 10
14.6478649968
 20
8.7092690138
 30
0.0
 10
14.6447191411
 20
8.7150960811
 30
0.0
 10
14.6415256561
 20
8.7206371127
 30
0.0
 10
14.6382857721
 20
8.7258898352
 30
0.0
 10
14.6350007572
 20
8.7308521049
 30
0.0
 10
14.631671969
 20
8.7355219546
 30
0.0
 10
14.6283006449
 20
8.7398974574
 30
0.0
 10
14.6248880736
 20
8.7439768099
 30
0.0
 10
14.6214355795
 20
8.7477584162
 30
0.0
 10
14.6179445019
 20
8.7512405831
 30
0.0
 10
14.614415728
 20
8.7544220724
 30
0.0
 10
14.6097439972
 20
8.758195612
 30
0.0
 10
14.6049164905
 20
8.7614518311
 30
0.0
 10
14.5999542845
 20
8.7641118845
 30
0.0
 10
14.5962586572
 20
8.7657694145
 30
0.0
 10
14.5925341248
 20
8.7671185928
 30
0.0
 10
14.5887821648
 20
8.7681587111
 30
0.0
 10
14.5850049445
 20
8.7688888528
 30
0.0
 10
14.5824678442
 20
8.7691689601
 30
0.0
 10
14.5812002041
 20
8.7692568722
 30
0.0
  0
SPLINE
  5
32D
100
AcDbEntity
  8
0
100
AcDbSpline
 62
7
  6
CONTINUOUS
 70
0
 71
3
 72
56
 73
52
 74
0
 42
0.0000001
 43
0.0000001
 44
0.0000000001
 40
0.0
 40
0.0
 40
0.0
 40
0.0
 40
0.0149712696
 40
0.0299455975
 40
0.0449260257
 40
0.0599155555
 40
0.0749171349
 40
0.0899336395
 40
0.1049678509
 40
0.1200224476
 40
0.1350999838
 40
0.1502028742
 40
0.1653333868
 40
0.1804936216
 40
0.1956855044
 40
0.2109107785
 40
0.2261709873
 40
0.2414674767
 40
0.2568013838
 40
0.2721736284
 40
0.2875849194
 40
0.303035742
 40
0.3185263613
 40
0.3340568268
 40
0.3496269629
 40
0.3652363825
 40
0.3808844863
 40
0.3965704631
 40
0.412293306
 40
0.4280518089
 40
0.4438445787
 40
0.4596700473
 40
0.4755264713
 40
0.4914119521
 40
0.5232568382
 40
0.5551916851
 40
0.5871966925
 40
0.619250654
 40
0.6513313861
 40
0.6834161731
 40
0.7154822189
 40
0.7475070999
 40
0.7794692115
 40
0.8113482064
 40
0.8431254121
 40
0.874784222
 40
0.9063104541
 40
0.9220227305
 40
0.937697876
 40
0.9689275382
 40
1.0
 40
1.0
 40
1.0
 40
1.0
 10
9.3173860553
 20
7.0536468916
 30
0.0
 10
9.3102435279
 20
7.0467477299
 30
0.0
 10
9.2956810008
 20
7.0332304901
 30
0.0
 10
9.2730464087
 20
7.0138364243
 30
0.0
 10
9.2496496629
 20
6.9953486551
 30
0.0
 10
9.225523404
 20
6.9777930696
 30
0.0
 10
9.200700805
 20
6.9611935792
 30
0.0
 10
9.1752159546
 20
6.94557321
 30
0.0
 10
9.1491039881
 20
6.9309533381
 30
0.0
 10
9.122400854
 20
6.9173540411
 30
0.0
 10
9.0951432324
 20
6.9047941644
 30
0.0
 10
9.0673687192
 20
6.8932907948
 30
0.0
 10
9.0391154883
 20
6.8828598428
 30
0.0
 10
9.0104224134
 20
6.873515673
 30
0.0
 10
8.9813290202
 20
6.8652709699
 30
0.0
 10
8.9518752858
 20
6.8581372367
 30
0.0
 10
8.9221017651
 20
6.8521241541
 30
0.0
 10
8.892049418
 20
6.8472399339
 30
0.0
 10
8.861759563
 20
6.8434914331
 30
0.0
 10
8.8312738888
 20
6.8408835912
 30
0.0
 10
8.800634312
 20
6.8394200745
 30
0.0
 10
8.7698829766
 20
6.8391029097
 30
0.0
 10
8.7390621704
 20
6.8399323515
 30
0.0
 10
8.7082142812
 20
6.8419074206
 30
0.0
 10
8.6773817248
 20
6.8450252709
 30
0.0
 10
8.646606885
 20
6.8492815529
 30
0.0
 10
8.615932101
 20
6.854670555
 30
0.0
 10
8.5853995144
 20
6.8611846607
 30
0.0
 10
8.5550511143
 20
6.8688149916
 30
0.0
 10
8.5249286461
 20
6.8775510747
 30
0.0
 10
8.4950734395
 20
6.8873807488
 30
0.0
 10
8.465526708
 20
6.8982905908
 30
0.0
 10
8.4363285942
 20
6.9102657328
 30
0.0
 10
8.3978895127
 20
6.9276427757
 30
0.0
 10
8.350915113
 20
6.9519473387
 30
0.0
 10
8.2966250711
 20
6.9850469537
 30
0.0
 10
8.2446568633
 20
7.0219267462
 30
0.0
 10
8.1952975621
 20
7.0623832618
 30
0.0
 10
8.1488175375
 20
7.1061945978
 30
0.0
 10
8.1054719792
 20
7.1531201335
 30
0.0
 10
8.0654987672
 20
7.2029023252
 30
0.0
 10
8.0291174218
 20
7.2552679882
 30
0.0
 10
7.9965278488
 20
7.3099298608
 30
0.0
 10
7.9679091692
 20
7.3665878331
 30
0.0
 10
7.9434186984
 20
7.4249315598
 30
0.0
 10
7.9231917006
 20
7.4846388044
 30
0.0
 10
7.9099653263
 20
7.5353230168
 30
0.0
 10
7.9016238084
 20
7.5762195228
 30
0.0
 10
7.8947987253
 20
7.6171971201
 30
0.0
 10
7.8890843334
 20
7.668650677
 30
0.0
 10
7.8875470372
 20
7.7099906408
 30
0.0
 10
7.8875470372
 20
7.7306010495
 30
0.0
  0
SPLINE
  5
32E
100
AcDbEntity
  8
0
100
AcDbSpline
 62
7
  6
CONTINUOUS
 70
0
 71
3
 72
45
 73
41
 74
0
 42
0.0000001
 43
0.0000001
 44
0.0000000001
 40
0.0
 40
0.0
 40
0.0
 40
0.0
 40
0.0149908123
 40
0.0300034059
 40
0.0450395337
 40
0.0601008349
 40
0.0903006455
 40
0.1206179546
 40
0.1358255772
 40
0.1510656408
 40
0.1663388791
 40
0.1816458868
 40
0.1969871059
 40
0.2123628401
 40
0.2277732371
 40
0.2432183069
 40
0.2742077609
 40
0.305332413
 40
0.3365872025
 40
0.3679649541
 40
0.399456518
 40
0.4310509374
 40
0.4627356385
 40
0.4944966407
 40
0.526318784
 40
0.5581859686
 40
0.5900814061
 40
0.6219878772
 40
0.6538879949
 40
0.6857644685
 40
0.7176003676
 40
0.7493793816
 40
0.7810860728
 40
0.8127061204
 40
0.8442265487
 40
0.8756359523
 40
0.9069246516
 40
0.938085012
 40
0.9691111451
 40
1.0
 40
1.0
 40
1.0
 40
1.0
 10
9.4599648134
 20
7.2434785679
 30
0.0
 10
9.452091601
 20
7.2396558924
 30
0.0
 10
9.4362008283
 20
7.2322753142
 30
0.0
 10
9.4119821928
 20
7.2220199457
 30
0.0
 10
9.3873884408
 20
7.2125828385
 30
0.0
 10
9.3541059146
 20
7.2010950953
 30
0.0
 10
9.311681808
 20
7.1888308005
 30
0.0
 10
9.2684454624
 20
7.1794325566
 30
0.0
 10
9.233439299
 20
7.1736399982
 30
0.0
 10
9.2069684809
 20
7.1701598774
 30
0.0
 10
9.1803395067
 20
7.167552582
 30
0.0
 10
9.1535800611
 20
7.1658210343
 30
0.0
 10
9.1267184244
 20
7.1649667785
 30
0.0
 10
9.0997829568
 20
7.1649909616
 30
0.0
 10
9.0728016877
 20
7.1658933613
 30
0.0
 10
9.0367674838
 20
7.1682686865
 30
0.0
 10
8.9917470903
 20
7.1734344339
 30
0.0
 10
8.9380627054
 20
7.1831019765
 30
0.0
 10
8.8848775136
 20
7.1962043671
 30
0.0
 10
8.8324168416
 20
7.2126860793
 30
0.0
 10
8.7809009961
 20
7.232477474
 30
0.0
 10
8.730546794
 20
7.2554950095
 30
0.0
 10
8.6815660008
 20
7.2816416208
 30
0.0
 10
8.6341646277
 20
7.3108071225
 30
0.0
 10
8.5885420258
 20
7.3428686727
 30
0.0
 10
8.5448900694
 20
7.377691288
 30
0.0
 10
8.5033923525
 20
7.4151284079
 30
0.0
 10
8.4642234251
 20
7.4550225076
 30
0.0
 10
8.4275480645
 20
7.4972057554
 30
0.0
 10
8.3935205885
 20
7.5415007143
 30
0.0
 10
8.3622842059
 20
7.5877210781
 30
0.0
 10
8.3339704178
 20
7.6356724501
 30
0.0
 10
8.3086984704
 20
7.6851531552
 30
0.0
 10
8.2865748591
 20
7.735955086
 30
0.0
 10
8.2676928681
 20
7.7878645453
 30
0.0
 10
8.252132216
 20
7.8406632209
 30
0.0
 10
8.2399586165
 20
7.8941287854
 30
0.0
 10
8.2312237312
 20
7.9480369778
 30
0.0
 10
8.2259645077
 20
8.0021579943
 30
0.0
 10
8.2247879747
 20
8.0383168052
 30
0.0
 10
8.2247879747
 20
8.0563508
 30
0.0
  0
SPLINE
  5
32F
100
AcDbEntity
  8
0
100
AcDbSpline
 62
7
  6
CONTINUOUS
 70
0
 71
3
 72
39
 73
35
 74
0
 42
0.0000001
 43
0.0000001
 44
0.0000000001
 40
0.0
 40
0.0
 40
0.0
 40
0.0
 40
0.02995711
 40
0.0599959082
 40
0.0901318525
 40
0.1203785127
 40
0.1507473302
 40
0.1812474247
 40
0.2118854528
 40
0.242665517
 40
0.2735891255
 40
0.3046552007
 40
0.3358601333
 40
0.3671978795
 40
0.3986600975
 40
0.430236317
 40
0.4619141402
 40
0.4936794681
 40
0.525516749
 40
0.5574092454
 40
0.5893393151
 40
0.6212887031
 40
0.6532388402
 40
0.6851711451
 40
0.7170673265
 40
0.7489096822
 40
0.7806813914
 40
0.8123667967
 40
0.8439516717
 40
0.8754234781
 40
0.9067715594
 40
0.9379874881
 40
0.9690647454
 40
1.0
 40
1.0
 40
1.0
 40
1.0
 10
9.4947890308
 20
7.3190576971
 30
0.0
 10
9.480031783
 20
7.3104754778
 30
0.0
 10
9.4498514384
 20
7.294338743
 30
0.0
 10
9.4029139312
 20
7.2733821704
 30
0.0
 10
9.3544571284
 20
7.2557336199
 30
0.0
 10
9.3047026688
 20
7.2414740122
 30
0.0
 10
9.2538741668
 20
7.2306667588
 30
0.0
 10
9.2022010082
 20
7.2233602508
 30
0.0
 10
9.1499160126
 20
7.2195869207
 30
0.0
 10
9.0972547329
 20
7.2193633181
 30
0.0
 10
9.0444543031
 20
7.2226900011
 30
0.0
 10
8.9917524032
 20
7.2295515695
 30
0.0
 10
8.9393861891
 20
7.2399167258
 30
0.0
 10
8.8875912349
 20
7.2537384395
 30
0.0
 10
8.8366004871
 20
7.2709541789
 30
0.0
 10
8.7866432287
 20
7.2914861967
 30
0.0
 10
8.7379440616
 20
7.3152418848
 30
0.0
 10
8.690721909
 20
7.3421141921
 30
0.0
 10
8.6451890436
 20
7.3719821062
 30
0.0
 10
8.6015501421
 20
7.404711193
 30
0.0
 10
8.5600013623
 20
7.4401541842
 30
0.0
 10
8.5207294816
 20
7.4781516547
 30
0.0
 10
8.4839110642
 20
7.5185327325
 30
0.0
 10
8.4497116754
 20
7.5611158608
 30
0.0
 10
8.4182851435
 20
7.6057096063
 30
0.0
 10
8.3897728729
 20
7.6521135119
 30
0.0
 10
8.3643032152
 20
7.7001189881
 30
0.0
 10
8.3419908818
 20
7.7495102402
 30
0.0
 10
8.3229364206
 20
7.8000652068
 30
0.0
 10
8.3072258091
 20
7.8515566447
 30
0.0
 10
8.2949299664
 20
7.903752812
 30
0.0
 10
8.2861046733
 20
7.9564196968
 30
0.0
 10
8.2807898284
 20
8.0093173449
 30
0.0
 10
8.2796005259
 20
8.044666911
 30
0.0
 10
8.2796005259
 20
8.062295662
 30
0.0
  0
SPLINE
  5
330
100
AcDbEntity
  8
0
100
AcDbSpline
 62
7
  6
CONTINUOUS
 70
0
 71
3
 72
45
 73
41
 74
0
 42
0.0000001
 43
0.0000001
 44
0.0000000001
 40
0.0
 40
0.0
 40
0.0
 40
0.0
 40
0.0149957412
 40
0.0300138649
 40
0.0450560552
 40
0.0601238848
 40
0.0752188135
 40
0.0903421818
 40
0.1054952018
 40
0.1206789607
 40
0.1358944049
 40
0.1511423517
 40
0.1664234699
 40
0.1817382952
 40
0.2124664326
 40
0.2433322348
 40
0.2743347936
 40
0.305470956
 40
0.3367354049
 40
0.3681207705
 40
0.3996177709
 40
0.4312153782
 40
0.4629010061
 40
0.4946607167
 40
0.526479443
 40
0.5583412241
 40
0.5902294495
 40
0.6221271112
 40
0.6540170596
 40
0.6858822607
 40
0.7177060525
 40
0.7494723973
 40
0.7811661273
 40
0.8127731811
 40
0.8442808253
 40
0.8756778732
 40
0.9069548341
 40
0.9381042244
 40
0.9691202803
 40
1.0
 40
1.0
 40
1.0
 40
1.0
 10
9.5089641881
 20
7.3580703571
 30
0.0
 10
9.5015140039
 20
7.3545893413
 30
0.0
 10
9.4864824653
 20
7.3478758188
 30
0.0
 10
9.4635891189
 20
7.3385706758
 30
0.0
 10
9.4403563703
 20
7.3300325634
 30
0.0
 10
9.4168086824
 20
7.3222706072
 30
0.0
 10
9.392970494
 20
7.3152926681
 30
0.0
 10
9.3688665548
 20
7.3091062115
 30
0.0
 10
9.3445219772
 20
7.3037174013
 30
0.0
 10
9.3199620178
 20
7.2991321059
 30
0.0
 10
9.2952122327
 20
7.2953548013
 30
0.0
 10
9.2702984003
 20
7.2923896568
 30
0.0
 10
9.245246103
 20
7.2902395385
 30
0.0
 10
9.2116596136
 20
7.2884606613
 30
0.0
 10
9.1694527349
 20
7.2882906925
 30
0.0
 10
9.1187339989
 20
7.2913636804
 30
0.0
 10
9.0680926885
 20
7.2976998329
 30
0.0
 10
9.0177405639
 20
7.3072726125
 30
0.0
 10
8.9678863041
 20
7.3200419151
 30
0.0
 10
8.9187369661
 20
7.335954437
 30
0.0
 10
8.8704965094
 20
7.3549438532
 30
0.0
 10
8.823365128
 20
7.3769311093
 30
0.0
 10
8.7775383824
 20
7.4018247481
 30
0.0
 10
8.7332064096
 20
7.4295212911
 30
0.0
 10
8.6905531387
 20
7.4599056663
 30
0.0
 10
8.649755536
 20
7.4928516843
 30
0.0
 10
8.610982877
 20
7.5282225589
 30
0.0
 10
8.5743960508
 20
7.5658714713
 30
0.0
 10
8.5401468978
 20
7.6056421751
 30
0.0
 10
8.5083775819
 20
7.6473696379
 30
0.0
 10
8.4792200029
 20
7.6908807197
 30
0.0
 10
8.4527952565
 20
7.7359948898
 30
0.0
 10
8.4292131329
 20
7.7825249664
 30
0.0
 10
8.4085716668
 20
7.8302778925
 30
0.0
 10
8.390956719
 20
7.8790555063
 30
0.0
 10
8.376441655
 20
7.9286554347
 30
0.0
 10
8.3650869452
 20
7.9788716372
 30
0.0
 10
8.3569401223
 20
8.0294963273
 30
0.0
 10
8.3520351836
 20
8.0803166076
 30
0.0
 10
8.3509379666
 20
8.1142686482
 30
0.0
 10
8.3509379666
 20
8.1312023424
 30
0.0
  0
SPLINE
  5
331
100
AcDbEntity
  8
0
100
AcDbSpline
 62
7
  6
CONTINUOUS
 70
0
 71
3
 72
45
 73
41
 74
0
 42
0.0000001
 43
0.0000001
 44
0.0000000001
 40
0.0
 40
0.0
 40
0.0
 40
0.0
 40
0.014973685
 40
0.0299662757
 40
0.044979811
 40
0.0600162285
 40
0.0750773522
 40
0.0901648926
 40
0.1052804265
 40
0.1204254059
 40
0.1356011346
 40
0.1508087806
 40
0.1660493545
 40
0.1813237207
 40
0.2119721004
 40
0.2427621107
 40
0.2736949358
 40
0.3047692161
 40
0.3359811073
 40
0.3673243794
 40
0.3987905542
 40
0.4303690747
 40
0.4620475045
 40
0.4938117521
 40
0.5256463166
 40
0.5575345501
 40
0.5894589342
 40
0.6214013669
 40
0.6533434548
 40
0.6852668105
 40
0.7171533482
 40
0.7489855771
 40
0.7807468872
 40
0.812421826
 40
0.8439963578
 40
0.87545812
 40
0.9067966025
 40
0.9380034987
 40
0.9690724182
 40
1.0
 40
1.0
 40
1.0
 40
1.0
 10
9.5383998066
 20
7.4720471173
 30
0.0
 10
9.5317368414
 20
7.4682714335
 30
0.0
 10
9.5182670912
 20
7.4609514427
 30
0.0
 10
9.4976733364
 20
7.450687575
 30
0.0
 10
9.4767005205
 20
7.4411439286
 30
0.0
 10
9.4553722652
 20
7.4323315767
 30
0.0
 10
9.4337123886
 20
7.4242600172
 30
0.0
 10
9.4117449751
 20
7.4169385453
 30
0.0
 10
9.3894946172
 20
7.410375031
 30
0.0
 10
9.3669860698
 20
7.4045770418
 30
0.0
 10
9.344244472
 20
7.3995508204
 30
0.0
 10
9.3212952482
 20
7.3953021158
 30
0.0
 10
9.2981636696
 20
7.3918355617
 30
0.0
 10
9.2670815477
 20
7.3882577581
 30
0.0
 10
9.2278927797
 20
7.3857642989
 30
0.0
 10
9.1806147409
 20
7.385946568
 30
0.0
 10
9.1332362514
 20
7.3892978479
 30
0.0
 10
9.0859699397
 20
7.3958030179
 30
0.0
 10
9.0390260247
 20
7.4054326706
 30
0.0
 10
8.9926137261
 20
7.4181435803
 30
0.0
 10
8.9469397112
 20
7.4338788157
 30
0.0
 10
8.9022073564
 20
7.4525680233
 30
0.0
 10
8.8586158057
 20
7.4741277379
 30
0.0
 10
8.8163591068
 20
7.4984617578
 30
0.0
 10
8.7756253537
 20
7.5254615727
 30
0.0
 10
8.7365958593
 20
7.5550068453
 30
0.0
 10
8.6994443559
 20
7.5869659446
 30
0.0
 10
8.6643362296
 20
7.6211965279
 30
0.0
 10
8.6314277905
 20
7.6575461706
 30
0.0
 10
8.6008655787
 20
7.6958530356
 30
0.0
 10
8.5727857191
 20
7.7359465911
 30
0.0
 10
8.5473133213
 20
7.777648365
 30
0.0
 10
8.5245619241
 20
7.8207727288
 30
0.0
 10
8.504632997
 20
7.8651277231
 30
0.0
 10
8.4876154762
 20
7.9105158797
 30
0.0
 10
8.4735854058
 20
7.9567351717
 30
0.0
 10
8.4626055
 20
8.003579613
 30
0.0
 10
8.4547250785
 20
8.0508412493
 30
0.0
 10
8.4499794362
 20
8.0983068328
 30
0.0
 10
8.4489175438
 20
8.1300252422
 30
0.0
 10
8.4489175438
 20
8.1458433521
 30
0.0
  0
SPLINE
  5
332
100
AcDbEntity
  8
0
100
AcDbSpline
 62
7
  6
CONTINUOUS
 70
0
 71
3
 72
31
 73
27
 74
0
 42
0.0000001
 43
0.0000001
 44
0.0000000001
 40
0.0
 40
0.0
 40
0.0
 40
0.0
 40
0.0308217083
 40
0.0617199432
 40
0.0926918516
 40
0.1237341323
 40
0.1548430783
 40
0.1860145817
 40
0.2172441666
 40
0.2485270272
 40
0.3112208857
 40
0.3740630517
 40
0.4370060031
 40
0.4999999259
 40
0.5629938505
 40
0.625936807
 40
0.6887789818
 40
0.7514728527
 40
0.7827557198
 40
0.813985313
 40
0.845156825
 40
0.8762657778
 40
0.9073080744
 40
0.9382799899
 40
0.9691782099
 40
1.0
 40
1.0
 40
1.0
 40
1.0
 10
9.5195949413
 20
7.841639769
 30
0.0
 10
9.5103055134
 20
7.8435382597
 30
0.0
 10
9.4917753339
 20
7.847701073
 30
0.0
 10
9.464209542
 20
7.8550195294
 30
0.0
 10
9.4368792837
 20
7.8634092443
 30
0.0
 10
9.4098279345
 20
7.872856743
 30
0.0
 10
9.3830977599
 20
7.8833473079
 30
0.0
 10
9.3567308705
 20
7.8948644495
 30
0.0
 10
9.3307681045
 20
7.9073902263
 30
0.0
 10
9.2967242479
 20
7.9254204126
 30
0.0
 10
9.2553861131
 20
7.9503819011
 30
0.0
 10
9.2080768276
 20
7.9839911604
 30
0.0
 10
9.1633145985
 20
8.0210718855
 30
0.0
 10
9.1213815097
 20
8.0613908596
 30
0.0
 10
9.0825396827
 20
8.104695782
 30
0.0
 10
9.0470321974
 20
8.1507159563
 30
0.0
 10
9.0150823462
 20
8.1991613753
 30
0.0
 10
8.991568146
 20
8.2413395756
 30
0.0
 10
8.9747283914
 20
8.2759877371
 30
0.0
 10
8.9631097044
 20
8.30236892
 30
0.0
 10
8.9525130591
 20
8.3291190407
 30
0.0
 10
8.9429549774
 20
8.3561966663
 30
0.0
 10
8.934450435
 20
8.3835591224
 30
0.0
 10
8.9270127283
 20
8.4111636692
 30
0.0
 10
8.9206537837
 20
8.438966507
 30
0.0
 10
8.9171355102
 20
8.4576298163
 30
0.0
 10
8.9155600322
 20
8.4669794732
 30
0.0
  0
SPLINE
  5
333
100
AcDbEntity
  8
0
100
AcDbSpline
 62
7
  6
CONTINUOUS
 70
0
 71
3
 72
45
 73
41
 74
0
 42
0.0000001
 43
0.0000001
 44
0.0000000001
 40
0.0
 40
0.0
 40
0.0
 40
0.0
 40
0.0149772493
 40
0.0299741479
 40
0.0449926665
 40
0.0600346697
 40
0.0751019106
 40
0.0901960254
 40
0.1053185184
 40
0.120470768
 40
0.1356540063
 40
0.1508693292
 40
0.1661176796
 40
0.1813998521
 40
0.2120637522
 40
0.2428686608
 40
0.2738153253
 40
0.3049020089
 40
0.3361245533
 40
0.3674764819
 40
0.3989491371
 40
0.4305318505
 40
0.4622121397
 40
0.4939759292
 40
0.5258077917
 40
0.5576912055
 40
0.5896088248
 40
0.621542759
 40
0.6534748585
 40
0.6853870024
 40
0.7172613873
 40
0.7490808112
 40
0.7808289519
 40
0.8124906348
 40
0.8440520864
 40
0.8755011789
 40
0.9068276098
 40
0.9380232409
 40
0.9690817794
 40
1.0
 40
1.0
 40
1.0
 40
1.0
 10
9.4793722029
 20
7.282572354
 30
0.0
 10
9.4717749599
 20
7.2784207779
 30
0.0
 10
9.456422719
 20
7.270379414
 30
0.0
 10
9.4329695097
 20
7.2591266542
 30
0.0
 10
9.4091018884
 20
7.248687339
 30
0.0
 10
9.3848464345
 20
7.2390732995
 30
0.0
 10
9.3602298235
 20
7.2302948391
 30
0.0
 10
9.3352790859
 20
7.2223618767
 30
0.0
 10
9.3100217543
 20
7.2152828595
 30
0.0
 10
9.2844855652
 20
7.2090658033
 30
0.0
 10
9.2586986356
 20
7.2037173575
 30
0.0
 10
9.2326894202
 20
7.1992434873
 30
0.0
 10
9.2064861567
 20
7.195649098
 30
0.0
 10
9.1712927912
 20
7.1920305485
 30
0.0
 10
9.1269501453
 20
7.1897304976
 30
0.0
 10
9.0734971148
 20
7.1905328509
 30
0.0
 10
9.0199699725
 20
7.1948897413
 30
0.0
 10
8.9666056771
 20
7.2027817853
 30
0.0
 10
8.9136383464
 20
7.2141738419
 30
0.0
 10
8.8613008433
 20
7.2290154927
 30
0.0
 10
8.8098230619
 20
7.247241188
 30
0.0
 10
8.7594311191
 20
7.2687705627
 30
0.0
 10
8.7103463217
 20
7.2935087869
 30
0.0
 10
8.6627842211
 20
7.3213469869
 30
0.0
 10
8.6169536643
 20
7.3521627087
 30
0.0
 10
8.573055891
 20
7.3858204649
 30
0.0
 10
8.531283661
 20
7.4221723313
 30
0.0
 10
8.4918204154
 20
7.4610585908
 30
0.0
 10
8.4548394785
 20
7.5023084301
 30
0.0
 10
8.420503304
 20
7.5457406834
 30
0.0
 10
8.388962766
 20
7.5911646211
 30
0.0
 10
8.3603565036
 20
7.6383807806
 30
0.0
 10
8.3348103065
 20
7.6871818274
 30
0.0
 10
8.3124365633
 20
7.7373534639
 30
0.0
 10
8.2933337698
 20
7.788675342
 30
0.0
 10
8.277586129
 20
7.8409221085
 30
0.0
 10
8.2652630797
 20
7.8938640641
 30
0.0
 10
8.256419231
 20
7.9472693482
 30
0.0
 10
8.251093638
 20
8.0009002719
 30
0.0
 10
8.2499020476
 20
8.0367368956
 30
0.0
 10
8.2499020476
 20
8.0546091331
 30
0.0
  0
SPLINE
  5
334
100
AcDbEntity
  8
0
100
AcDbSpline
 62
7
  6
CONTINUOUS
 70
0
 71
3
 72
23
 73
19
 74
0
 42
0.0000001
 43
0.0000001
 44
0.0000000001
 40
0.0
 40
0.0
 40
0.0
 40
0.0
 40
0.0618324412
 40
0.1239178038
 40
0.1862297794
 40
0.2487376536
 40
0.3114069401
 40
0.37420007
 40
0.4370771242
 40
0.4999965986
 40
0.5629161904
 40
0.6257935955
 40
0.6885873043
 40
0.7512573872
 40
0.8137662592
 40
0.8760794132
 40
0.9381661163
 40
1.0
 40
1.0
 40
1.0
 40
1.0
 10
9.5002273046
 20
7.9041452754
 30
0.0
 10
9.484469369
 20
7.9082734949
 30
0.0
 10
9.453168783
 20
7.9176589684
 30
0.0
 10
9.4072305288
 20
7.9349915211
 30
0.0
 10
9.3624311823
 20
7.9555211817
 30
0.0
 10
9.3190067588
 20
7.9791400663
 30
0.0
 10
9.2771822033
 20
8.0057253028
 30
0.0
 10
9.2371751872
 20
8.0351383873
 30
0.0
 10
9.1991936614
 20
8.0672262483
 30
0.0
 10
9.1634351317
 20
8.1018219261
 30
0.0
 10
9.1300855411
 20
8.1387454595
 30
0.0
 10
9.0993183538
 20
8.1778048326
 30
0.0
 10
9.071293658
 20
8.2187969334
 30
0.0
 10
9.0461573217
 20
8.2615086962
 30
0.0
 10
9.0240403208
 20
8.3057178333
 30
0.0
 10
9.0050577578
 20
8.3511953213
 30
0.0
 10
8.9893093822
 20
8.3977015723
 30
0.0
 10
8.9810017794
 20
8.4293060868
 30
0.0
 10
8.9774158613
 20
8.4451965966
 30
0.0
  0
SPLINE
  5
335
100
AcDbEntity
  8
0
100
AcDbSpline
 62
7
  6
CONTINUOUS
 70
0
 71
3
 72
26
 73
22
 74
0
 42
0.0000001
 43
0.0000001
 44
0.0000000001
 40
0.0
 40
0.0
 40
0.0
 40
0.0
 40
0.0617092235
 40
0.0925729854
 40
0.1234446509
 40
0.1852169748
 40
0.2470517571
 40
0.2780013275
 40
0.3089738777
 40
0.3709922222
 40
0.4331298084
 40
0.4954034049
 40
0.5578284199
 40
0.6204187753
 40
0.6831867461
 40
0.7146430864
 40
0.7461476576
 40
0.8093008659
 40
0.872657114
 40
0.9362236724
 40
1.0
 40
1.0
 40
1.0
 40
1.0
 10
8.1210323906
 20
8.2922032706
 30
0.0
 10
8.1117873635
 20
8.2832732472
 30
0.0
 10
8.0982598137
 20
8.2695165448
 30
0.0
 10
8.0809507024
 20
8.25049966
 30
0.0
 10
8.0641270217
 20
8.2310338581
 30
0.0
 10
8.0440311418
 20
8.2058848139
 30
0.0
 10
8.0252419711
 20
8.1797251012
 30
0.0
 10
8.0110169528
 20
8.1582246671
 30
0.0
 10
7.9973255029
 20
8.1363355213
 30
0.0
 10
7.9812439879
 20
8.1082918096
 30
0.0
 10
7.9636565121
 20
8.0736526047
 30
0.0
 10
7.9478101716
 20
8.0380899308
 30
0.0
 10
7.9337417331
 20
8.0016862007
 30
0.0
 10
7.9214836114
 20
7.9645257999
 30
0.0
 10
7.9128065072
 20
7.9330207864
 30
0.0
 10
7.9067948897
 20
7.9075292467
 30
0.0
 10
7.9013983987
 20
7.8818184059
 30
0.0
 10
7.8958309295
 20
7.8493648401
 30
0.0
 10
7.8910527284
 20
7.810046971
 30
0.0
 10
7.8881828557
 20
7.7704144232
 30
0.0
 10
7.8875470372
 20
7.7438852454
 30
0.0
 10
7.8875470372
 20
7.7306010495
 30
0.0
  0
SPLINE
  5
336
100
AcDbEntity
  8
0
100
AcDbSpline
 62
7
  6
CONTINUOUS
 70
0
 71
3
 72
15
 73
11
 74
0
 42
0.0000001
 43
0.0000001
 44
0.0000000001
 40
0.0
 40
0.0
 40
0.0
 40
0.0
 40
0.1235305695
 40
0.2474085335
 40
0.3716778469
 40
0.4963766326
 40
0.6215367004
 40
0.7471830865
 40
0.8733339339
 40
1.0
 40
1.0
 40
1.0
 40
1.0
 10
8.3156768826
 20
8.4280912031
 30
0.0
 10
8.3082355925
 20
8.4140260897
 30
0.0
 10
8.294208874
 20
8.3853824625
 30
0.0
 10
8.2758516397
 20
8.3411334165
 30
0.0
 10
8.2602099159
 20
8.2956922551
 30
0.0
 10
8.247339095
 20
8.2492193727
 30
0.0
 10
8.2372834346
 20
8.2018761687
 30
0.0
 10
8.2300777573
 20
8.1538270091
 30
0.0
 10
8.2257468726
 20
8.1052412937
 30
0.0
 10
8.2247879747
 20
8.0726669568
 30
0.0
 10
8.2247879747
 20
8.0563508
 30
0.0
  0
SPLINE
  5
337
100
AcDbEntity
  8
0
100
AcDbSpline
 62
7
  6
CONTINUOUS
 70
0
 71
3
 72
15
 73
11
 74
0
 42
0.0000001
 43
0.0000001
 44
0.0000000001
 40
0.0
 40
0.0
 40
0.0
 40
0.0
 40
0.1234308176
 40
0.2472023334
 40
0.3713793193
 40
0.4960185405
 40
0.6211675984
 40
0.7468646922
 40
0.8731359742
 40
1.0
 40
1.0
 40
1.0
 40
1.0
 10
8.3923239451
 20
8.4601309247
 30
0.0
 10
8.3831525326
 20
8.4455389264
 30
0.0
 10
8.3658331246
 20
8.4156404505
 30
0.0
 10
8.343105749
 20
8.3689829965
 30
0.0
 10
8.3236965263
 20
8.3206661442
 30
0.0
 10
8.3076961626
 20
8.2709150769
 30
0.0
 10
8.295177193
 20
8.2199579096
 30
0.0
 10
8.2861969243
 20
8.1680283012
 30
0.0
 10
8.2807958879
 20
8.1153677681
 30
0.0
 10
8.2796005259
 20
8.0800099313
 30
0.0
 10
8.2796005259
 20
8.062295662
 30
0.0
  0
SPLINE
  5
338
100
AcDbEntity
  8
0
100
AcDbSpline
 62
7
  6
CONTINUOUS
 70
0
 71
3
 72
15
 73
11
 74
0
 42
0.0000001
 43
0.0000001
 44
0.0000000001
 40
0.0
 40
0.0
 40
0.0
 40
0.0
 40
0.1235556576
 40
0.2474575722
 40
0.3717461076
 40
0.4964561677
 40
0.6216169606
 40
0.7472511213
 40
0.8733757963
 40
1.0
 40
1.0
 40
1.0
 40
1.0
 10
8.4319260613
 20
8.4731442778
 30
0.0
 10
8.4252878975
 20
8.460134232
 30
0.0
 10
8.412779142
 20
8.4336680147
 30
0.0
 10
8.3964163715
 20
8.3928562607
 30
0.0
 10
8.3824798209
 20
8.3510082621
 30
0.0
 10
8.3710159541
 20
8.308263066
 30
0.0
 10
8.3620619146
 20
8.2647604444
 30
0.0
 10
8.3556468479
 20
8.220642545
 30
0.0
 10
8.3517916268
 20
8.1760558498
 30
0.0
 10
8.3509379666
 20
8.1461707813
 30
0.0
 10
8.3509379666
 20
8.1312023424
 30
0.0
  0
SPLINE
  5
339
100
AcDbEntity
  8
0
100
AcDbSpline
 62
7
  6
CONTINUOUS
 70
0
 71
3
 72
20
 73
16
 74
0
 42
0.0000001
 43
0.0000001
 44
0.0000000001
 40
0.0
 40
0.0
 40
0.0
 40
0.0
 40
0.0616862533
 40
0.1234499753
 40
0.1852994917
 40
0.247242728
 40
0.309287135
 40
0.3714397139
 40
0.4337069318
 40
0.4960947288
 40
0.5586083965
 40
0.6212527949
 40
0.7469318598
 40
0.8731752112
 40
1.0
 40
1.0
 40
1.0
 40
1.0
 10
8.5469007468
 20
8.498683291
 30
0.0
 10
8.542912756
 20
8.4921843949
 30
0.0
 10
8.5351610365
 20
8.4790361471
 30
0.0
 10
8.5242294554
 20
8.4589034244
 30
0.0
 10
8.5139981929
 20
8.438370125
 30
0.0
 10
8.5044790322
 20
8.4174591436
 30
0.0
 10
8.4956821536
 20
8.3961936492
 30
0.0
 10
8.4876175638
 20
8.374597077
 30
0.0
 10
8.4802939175
 20
8.352693371
 30
0.0
 10
8.4737195219
 20
8.3305067886
 30
0.0
 10
8.4679014309
 20
8.308061553
 30
0.0
 10
8.4611544523
 20
8.2777939028
 30
0.0
 10
8.4546464069
 20
8.2394256173
 30
0.0
 10
8.4499558268
 20
8.1928117993
 30
0.0
 10
8.4489175438
 20
8.1615199646
 30
0.0
 10
8.4489175438
 20
8.1458433521
 30
0.0
  0
SPLINE
  5
33A
100
AcDbEntity
  8
0
100
AcDbSpline
 62
7
  6
CONTINUOUS
 70
0
 71
3
 72
26
 73
22
 74
0
 42
0.0000001
 43
0.0000001
 44
0.0000000001
 40
0.0
 40
0.0
 40
0.0
 40
0.0
 40
0.1039135731
 40
0.2012793347
 40
0.2920334666
 40
0.3762561847
 40
0.4541292732
 40
0.5259029963
 40
0.5918799987
 40
0.6524080662
 40
0.7078798474
 40
0.7587378665
 40
0.8054818843
 40
0.8486791472
 40
0.8889729135
 40
0.9082640018
 40
0.9271054451
 40
0.9455969238
 40
0.9638405686
 40
0.9819404337
 40
1.0
 40
1.0
 40
1.0
 40
1.0
 10
11.3973858907
 20
7.9564770326
 30
0.0
 10
11.3955979058
 20
7.9598940303
 30
0.0
 10
11.3920471416
 20
7.9664674887
 30
0.0
 10
11.3866266733
 20
7.9758545477
 30
0.0
 10
11.3813057761
 20
7.984450056
 30
0.0
 10
11.3760983442
 20
7.9922589541
 30
0.0
 10
11.3710102101
 20
7.9992936268
 30
0.0
 10
11.3660418361
 20
8.0055705315
 30
0.0
 10
11.3611902791
 20
8.0111080665
 30
0.0
 10
11.3564504917
 20
8.0159252461
 30
0.0
 10
11.351816131
 20
8.0200408001
 30
0.0
 10
11.3472802812
 20
8.0234724475
 30
0.0
 10
11.3428355391
 20
8.0262362433
 30
0.0
 10
11.3384758588
 20
8.0283457912
 30
0.0
 10
11.3348561561
 20
8.0295854691
 30
0.0
 10
11.3320186019
 20
8.0302426226
 30
0.0
 10
11.3299413158
 20
8.0305724698
 30
0.0
 10
11.3278842872
 20
8.0307473563
 30
0.0
 10
11.3258473694
 20
8.0307682463
 30
0.0
 10
11.3238307921
 20
8.0306362267
 30
0.0
 10
11.3225006977
 20
8.0304469335
 30
0.0
 10
11.3218411796
 20
8.0303275241
 30
0.0
  0
SPLINE
  5
33B
100
AcDbEntity
  8
0
100
AcDbSpline
 62
7
  6
CONTINUOUS
 70
0
 71
3
 72
74
 73
70
 74
0
 42
0.0000001
 43
0.0000001
 44
0.0000000001
 40
0.0
 40
0.0
 40
0.0
 40
0.0
 40
0.0155842017
 40
0.0233573096
 40
0.0311170165
 40
0.0465962826
 40
0.0620248586
 40
0.069721224
 40
0.0774055997
 40
0.0927383803
 40
0.1080271671
 40
0.1232751642
 40
0.1384859928
 40
0.15366366
 40
0.1688125201
 40
0.18393723
 40
0.1990427023
 40
0.2141340535
 40
0.2292165507
 40
0.2442955554
 40
0.2593764667
 40
0.2744646634
 40
0.2895654466
 40
0.304683983
 40
0.3198252504
 40
0.3349939861
 40
0.3501946373
 40
0.3654313172
 40
0.3807077645
 40
0.3960273075
 40
0.4113928333
 40
0.4268067624
 40
0.4422710285
 40
0.4577870638
 40
0.4733557903
 40
0.4889776157
 40
0.5046524353
 40
0.5203796378
 40
0.5361581156
 40
0.5519862808
 40
0.5678620833
 40
0.5837830346
 40
0.5997462349
 40
0.6157484019
 40
0.6317859034
 40
0.6478547919
 40
0.6639508414
 40
0.6800695859
 40
0.6962063601
 40
0.7123563411
 40
0.7285145913
 40
0.7446761006
 40
0.760835831
 40
0.7769887592
 40
0.7931299214
 40
0.8092544561
 40
0.8253576478
 40
0.8414349682
 40
0.8574821168
 40
0.8654936487
 40
0.8734961496
 40
0.8894711592
 40
0.9054048453
 40
0.9212941955
 40
0.9371365829
 40
0.9529298811
 40
0.968672202
 40
0.9843626764
 40
1.0
 40
1.0
 40
1.0
 40
1.0
 10
10.4563685072
 20
7.5328923892
 30
0.0
 10
10.4563685072
 20
7.5476274899
 30
0.0
 10
10.4569099032
 20
7.5697173207
 30
0.0
 10
10.4587212723
 20
7.5990852821
 30
0.0
 10
10.4612516542
 20
7.6283010462
 30
0.0
 10
10.4657640161
 20
7.6645984489
 30
0.0
 10
10.472078007
 20
7.7005656876
 30
0.0
 10
10.4781972804
 20
7.7290491975
 30
0.0
 10
10.4850135078
 20
7.7572807508
 30
0.0
 10
10.4948506194
 20
7.7921557663
 30
0.0
 10
10.5087447629
 20
7.8332598789
 30
0.0
 10
10.524686931
 20
7.8734905867
 30
0.0
 10
10.5426386298
 20
7.9127501926
 30
0.0
 10
10.5625566846
 20
7.9509441873
 30
0.0
 10
10.5843931219
 20
7.9879803922
 30
0.0
 10
10.6080953441
 20
8.0237694741
 30
0.0
 10
10.6336062375
 20
8.058225085
 30
0.0
 10
10.6608643145
 20
8.0912640947
 30
0.0
 10
10.6898038623
 20
8.1228067852
 30
0.0
 10
10.7203550831
 20
8.1527770674
 30
0.0
 10
10.7524442796
 20
8.1811026568
 30
0.0
 10
10.7859940407
 20
8.2077152441
 30
0.0
 10
10.8209234291
 20
8.2325506623
 30
0.0
 10
10.8571481788
 20
8.2555490417
 30
0.0
 10
10.8945809007
 20
8.2766549555
 30
0.0
 10
10.9331312971
 20
8.2958175489
 30
0.0
 10
10.9727063716
 20
8.3129906841
 30
0.0
 10
11.0132106644
 20
8.3281330417
 30
0.0
 10
11.0545464905
 20
8.3412082061
 30
0.0
 10
11.0966141752
 20
8.3521847542
 30
0.0
 10
11.1393122961
 20
8.3610363268
 30
0.0
 10
11.1825379274
 20
8.3677416911
 30
0.0
 10
11.2261868882
 20
8.3722847841
 30
0.0
 10
11.2701539911
 20
8.3746547704
 30
0.0
 10
11.3143332995
 20
8.374846062
 30
0.0
 10
11.3586183841
 20
8.3728583117
 30
0.0
 10
11.4029025774
 20
8.3686964156
 30
0.0
 10
11.4470792285
 20
8.3623704974
 30
0.0
 10
11.4910419581
 20
8.3538958845
 30
0.0
 10
11.534684911
 20
8.3432930649
 30
0.0
 10
11.5779030132
 20
8.3305876545
 30
0.0
 10
11.6205922268
 20
8.3158103363
 30
0.0
 10
11.6626497947
 20
8.2989967657
 30
0.0
 10
11.7039744861
 20
8.2801874883
 30
0.0
 10
11.7444668378
 20
8.2594278407
 30
0.0
 10
11.7840293916
 20
8.2367678433
 30
0.0
 10
11.8225669246
 20
8.2122620774
 30
0.0
 10
11.8599866839
 20
8.1859695654
 30
0.0
 10
11.8961986162
 20
8.1579536357
 30
0.0
 10
11.9311155714
 20
8.1282817511
 30
0.0
 10
11.9646535123
 20
8.09702535
 30
0.0
 10
11.9967317146
 20
8.0642596758
 30
0.0
 10
12.0272729606
 20
8.0300635959
 30
0.0
 10
12.05620372
 20
7.9945194174
 30
0.0
 10
12.0834543396
 20
7.9577126772
 30
0.0
 10
12.1089591962
 20
7.919732012
 30
0.0
 10
12.1326569434
 20
7.8806686831
 30
0.0
 10
12.1544902533
 20
7.8406172759
 30
0.0
 10
12.1710968262
 20
7.8064779897
 30
0.0
 10
12.1833980665
 20
7.7787690986
 30
0.0
 10
12.1950235664
 20
7.7508438632
 30
0.0
 10
12.2083026052
 20
7.7155047279
 30
0.0
 10
12.2221995761
 20
7.6724834564
 30
0.0
 10
12.2340166291
 20
7.6289743118
 30
0.0
 10
12.2437250592
 20
7.5850825432
 30
0.0
 10
12.251301349
 20
7.5409138697
 30
0.0
 10
12.2567273774
 20
7.4965740701
 30
0.0
 10
12.2599896602
 20
7.4521715912
 30
0.0
 10
12.2607181479
 20
7.4225456449
 30
0.0
 10
12.2607181479
 20
7.4077603167
 30
0.0
  0
SPLINE
  5
33C
100
AcDbEntity
  8
0
100
AcDbSpline
 62
7
  6
CONTINUOUS
 70
0
 71
3
 72
74
 73
70
 74
0
 42
0.0000001
 43
0.0000001
 44
0.0000000001
 40
0.0
 40
0.0
 40
0.0
 40
0.0
 40
0.0155842017
 40
0.0233573096
 40
0.0311170165
 40
0.0465962826
 40
0.0620248586
 40
0.069721224
 40
0.0774055997
 40
0.0927383803
 40
0.1080271671
 40
0.1232751642
 40
0.1384859928
 40
0.15366366
 40
0.1688125201
 40
0.18393723
 40
0.1990427023
 40
0.2141340535
 40
0.2292165507
 40
0.2442955554
 40
0.2593764667
 40
0.2744646634
 40
0.2895654466
 40
0.304683983
 40
0.3198252504
 40
0.3349939861
 40
0.3501946373
 40
0.3654313172
 40
0.3807077645
 40
0.3960273075
 40
0.4113928333
 40
0.4268067624
 40
0.4422710285
 40
0.4577870638
 40
0.4733557903
 40
0.4889776157
 40
0.5046524353
 40
0.5203796378
 40
0.5361581156
 40
0.5519862808
 40
0.5678620833
 40
0.5837830346
 40
0.5997462349
 40
0.6157484019
 40
0.6317859034
 40
0.6478547919
 40
0.6639508414
 40
0.6800695859
 40
0.6962063601
 40
0.7123563411
 40
0.7285145913
 40
0.7446761006
 40
0.760835831
 40
0.7769887592
 40
0.7931299214
 40
0.8092544561
 40
0.8253576478
 40
0.8414349682
 40
0.8574821168
 40
0.8654936487
 40
0.8734961496
 40
0.8894711592
 40
0.9054048453
 40
0.9212941955
 40
0.9371365829
 40
0.9529298811
 40
0.968672202
 40
0.9843626764
 40
1.0
 40
1.0
 40
1.0
 40
1.0
 10
9.6024902565
 20
7.5921090471
 30
0.0
 10
9.6024902565
 20
7.5773739463
 30
0.0
 10
9.6019488606
 20
7.5552841156
 30
0.0
 10
9.6001374914
 20
7.5259161542
 30
0.0
 10
9.5976071096
 20
7.4967003901
 30
0.0
 10
9.5930947476
 20
7.4604029874
 30
0.0
 10
9.5867807567
 20
7.4244357487
 30
0.0
 10
9.5806614833
 20
7.3959522388
 30
0.0
 10
9.5738452559
 20
7.3677206855
 30
0.0
 10
9.5640081443
 20
7.33284567
 30
0.0
 10
9.5501140008
 20
7.2917415574
 30
0.0
 10
9.5341718327
 20
7.2515108496
 30
0.0
 10
9.5162201339
 20
7.2122512437
 30
0.0
 10
9.4963020792
 20
7.174057249
 30
0.0
 10
9.4744656418
 20
7.1370210441
 30
0.0
 10
9.4507634197
 20
7.1012319622
 30
0.0
 10
9.4252525262
 20
7.0667763513
 30
0.0
 10
9.3979944492
 20
7.0337373416
 30
0.0
 10
9.3690549014
 20
7.0021946511
 30
0.0
 10
9.3385036806
 20
6.9722243689
 30
0.0
 10
9.3064144841
 20
6.9438987795
 30
0.0
 10
9.272864723
 20
6.9172861922
 30
0.0
 10
9.2379353346
 20
6.892450774
 30
0.0
 10
9.2017105849
 20
6.8694523946
 30
0.0
 10
9.1642778631
 20
6.8483464808
 30
0.0
 10
9.1257274666
 20
6.8291838874
 30
0.0
 10
9.0861523921
 20
6.8120107522
 30
0.0
 10
9.0456480993
 20
6.7968683946
 30
0.0
 10
9.0043122733
 20
6.7837932302
 30
0.0
 10
8.9622445885
 20
6.7728166821
 30
0.0
 10
8.9195464676
 20
6.7639651095
 30
0.0
 10
8.8763208363
 20
6.7572597452
 30
0.0
 10
8.8326718755
 20
6.7527166522
 30
0.0
 10
8.7887047726
 20
6.7503466659
 30
0.0
 10
8.7445254642
 20
6.7501553743
 30
0.0
 10
8.7002403796
 20
6.7521431246
 30
0.0
 10
8.6559561863
 20
6.7563050207
 30
0.0
 10
8.6117795352
 20
6.7626309389
 30
0.0
 10
8.5678168056
 20
6.7711055518
 30
0.0
 10
8.5241738527
 20
6.7817083714
 30
0.0
 10
8.4809557505
 20
6.7944137818
 30
0.0
 10
8.4382665369
 20
6.8091911
 30
0.0
 10
8.396208969
 20
6.8260046706
 30
0.0
 10
8.3548842776
 20
6.844813948
 30
0.0
 10
8.3143919259
 20
6.8655735956
 30
0.0
 10
8.2748293722
 20
6.888233593
 30
0.0
 10
8.2362918391
 20
6.9127393589
 30
0.0
 10
8.1988720799
 20
6.9390318709
 30
0.0
 10
8.1626601475
 20
6.9670478006
 30
0.0
 10
8.1277431923
 20
6.9967196852
 30
0.0
 10
8.0942052514
 20
7.0279760863
 30
0.0
 10
8.0621270491
 20
7.0607417605
 30
0.0
 10
8.0315858031
 20
7.0949378404
 30
0.0
 10
8.0026550437
 20
7.1304820189
 30
0.0
 10
7.9754044242
 20
7.1672887591
 30
0.0
 10
7.9498995676
 20
7.2052694243
 30
0.0
 10
7.9262018203
 20
7.2443327532
 30
0.0
 10
7.9043685104
 20
7.2843841604
 30
0.0
 10
7.8877619375
 20
7.3185234466
 30
0.0
 10
7.8754606972
 20
7.3462323377
 30
0.0
 10
7.8638351973
 20
7.3741575731
 30
0.0
 10
7.8505561585
 20
7.4094967084
 30
0.0
 10
7.8366591876
 20
7.4525179799
 30
0.0
 10
7.8248421347
 20
7.4960271245
 30
0.0
 10
7.8151337045
 20
7.539918893
 30
0.0
 10
7.8075574147
 20
7.5840875666
 30
0.0
 10
7.8021313863
 20
7.6284273662
 30
0.0
 10
7.7988691035
 20
7.6728298451
 30
0.0
 10
7.7981406158
 20
7.7024557914
 30
0.0
 10
7.7981406158
 20
7.7172411196
 30
0.0
  0
SPLINE
  5
33D
100
AcDbEntity
  8
0
100
AcDbSpline
 62
7
  6
CONTINUOUS
 70
0
 71
3
 72
39
 73
35
 74
0
 42
0.0000001
 43
0.0000001
 44
0.0000000001
 40
0.0
 40
0.0
 40
0.0
 40
0.0
 40
0.0172529812
 40
0.0342787936
 40
0.0511433095
 40
0.0679260077
 40
0.084720209
 40
0.1016357496
 40
0.1188003905
 40
0.1363612055
 40
0.1544843628
 40
0.1733559222
 40
0.1931793361
 40
0.2141751309
 40
0.236576488
 40
0.2606264709
 40
0.2865704102
 40
0.3146480695
 40
0.3450795896
 40
0.3780468079
 40
0.4136698404
 40
0.451978542
 40
0.4928853916
 40
0.5361677193
 40
0.5814672223
 40
0.6283133839
 40
0.6761679475
 40
0.7244775861
 40
0.7727227477
 40
0.8204510721
 40
0.8672930373
 40
0.9129610754
 40
0.9572480854
 40
1.0
 40
1.0
 40
1.0
 40
1.0
 10
11.4021779139
 20
7.7908142934
 30
0.0
 10
11.4032457276
 20
7.7910089747
 30
0.0
 10
11.405355081
 20
7.7914673574
 30
0.0
 10
11.4084448759
 20
7.7923749497
 30
0.0
 10
11.4114291301
 20
7.7935055407
 30
0.0
 10
11.4142997808
 20
7.7948665812
 30
0.0
 10
11.4170479432
 20
7.7964677237
 30
0.0
 10
11.4196630246
 20
7.7983205674
 30
0.0
 10
11.4221343913
 20
7.8004366422
 30
0.0
 10
11.4244483383
 20
7.8028310375
 30
0.0
 10
11.4265916594
 20
7.8055183657
 30
0.0
 10
11.428547547
 20
7.8085166691
 30
0.0
 10
11.4302994911
 20
7.811844219
 30
0.0
 10
11.4318275151
 20
7.8155219822
 30
0.0
 10
11.4331112414
 20
7.8195716528
 30
0.0
 10
11.4341274662
 20
7.8240162781
 30
0.0
 10
11.434851913
 20
7.8288787151
 30
0.0
 10
11.43525895
 20
7.8341803476
 30
0.0
 10
11.4353226817
 20
7.8399387015
 30
0.0
 10
11.4350186757
 20
7.8461642947
 30
0.0
 10
11.4343261074
 20
7.852856743
 30
0.0
 10
11.4332307627
 20
7.8600005555
 30
0.0
 10
11.4317282421
 20
7.8675614945
 30
0.0
 10
11.4298267523
 20
7.8754847597
 30
0.0
 10
11.4275485191
 20
7.8836961464
 30
0.0
 10
11.4249290852
 20
7.8921066194
 30
0.0
 10
11.4220144261
 20
7.9006195675
 30
0.0
 10
11.4188565061
 20
7.9091390347
 30
0.0
 10
11.4155084476
 20
7.9175768898
 30
0.0
 10
11.4120204415
 20
7.9258576462
 30
0.0
 10
11.4084370146
 20
7.9339203644
 30
0.0
 10
11.4047956738
 20
7.9417187431
 30
0.0
 10
11.4011268967
 20
7.9492187531
 30
0.0
 10
11.3986328593
 20
7.9540939652
 30
0.0
 10
11.3973858907
 20
7.9564770326
 30
0.0
  0
SPLINE
  5
33E
100
AcDbEntity
  8
0
100
AcDbSpline
 62
7
  6
CONTINUOUS
 70
0
 71
3
 72
56
 73
52
 74
0
 42
0.0000001
 43
0.0000001
 44
0.0000000001
 40
0.0
 40
0.0
 40
0.0
 40
0.0
 40
0.0149712696
 40
0.0299455975
 40
0.0449260257
 40
0.0599155555
 40
0.0749171349
 40
0.0899336395
 40
0.1049678509
 40
0.1200224476
 40
0.1350999838
 40
0.1502028742
 40
0.1653333868
 40
0.1804936216
 40
0.1956855044
 40
0.2109107785
 40
0.2261709873
 40
0.2414674767
 40
0.2568013838
 40
0.2721736284
 40
0.2875849194
 40
0.303035742
 40
0.3185263613
 40
0.3340568268
 40
0.3496269629
 40
0.3652363825
 40
0.3808844863
 40
0.3965704631
 40
0.412293306
 40
0.4280518089
 40
0.4438445787
 40
0.4596700473
 40
0.4755264713
 40
0.4914119521
 40
0.5232568382
 40
0.5551916851
 40
0.5871966925
 40
0.619250654
 40
0.6513313861
 40
0.6834161731
 40
0.7154822189
 40
0.7475070999
 40
0.7794692115
 40
0.8113482064
 40
0.8431254121
 40
0.874784222
 40
0.9063104541
 40
0.9220227305
 40
0.937697876
 40
0.9689275382
 40
1.0
 40
1.0
 40
1.0
 40
1.0
 10
11.9756139467
 20
6.8692981611
 30
0.0
 10
11.9684714193
 20
6.8623989995
 30
0.0
 10
11.9539088922
 20
6.8488817597
 30
0.0
 10
11.9312743002
 20
6.8294876939
 30
0.0
 10
11.9078775543
 20
6.8109999247
 30
0.0
 10
11.8837512954
 20
6.7934443392
 30
0.0
 10
11.8589286965
 20
6.7768448488
 30
0.0
 10
11.8334438461
 20
6.7612244796
 30
0.0
 10
11.8073318795
 20
6.7466046077
 30
0.0
 10
11.7806287454
 20
6.7330053107
 30
0.0
 10
11.7533711238
 20
6.720445434
 30
0.0
 10
11.7255966106
 20
6.7089420644
 30
0.0
 10
11.6973433798
 20
6.6985111124
 30
0.0
 10
11.6686503049
 20
6.6891669426
 30
0.0
 10
11.6395569116
 20
6.6809222395
 30
0.0
 10
11.6101031773
 20
6.6737885063
 30
0.0
 10
11.5803296566
 20
6.6677754237
 30
0.0
 10
11.5502773095
 20
6.6628912035
 30
0.0
 10
11.5199874544
 20
6.6591427027
 30
0.0
 10
11.4895017802
 20
6.6565348608
 30
0.0
 10
11.4588622034
 20
6.6550713441
 30
0.0
 10
11.428110868
 20
6.6547541793
 30
0.0
 10
11.3972900618
 20
6.6555836211
 30
0.0
 10
11.3664421726
 20
6.6575586902
 30
0.0
 10
11.3356096162
 20
6.6606765405
 30
0.0
 10
11.3048347765
 20
6.6649328225
 30
0.0
 10
11.2741599924
 20
6.6703218246
 30
0.0
 10
11.2436274058
 20
6.6768359303
 30
0.0
 10
11.2132790057
 20
6.6844662612
 30
0.0
 10
11.1831565376
 20
6.6932023443
 30
0.0
 10
11.1533013309
 20
6.7030320184
 30
0.0
 10
11.1237545994
 20
6.7139418604
 30
0.0
 10
11.0945564856
 20
6.7259170024
 30
0.0
 10
11.0561174041
 20
6.7432940452
 30
0.0
 10
11.0091430045
 20
6.7675986083
 30
0.0
 10
10.9548529625
 20
6.8006982233
 30
0.0
 10
10.9028847547
 20
6.8375780158
 30
0.0
 10
10.8535254535
 20
6.8780345314
 30
0.0
 10
10.8070454289
 20
6.9218458674
 30
0.0
 10
10.7636998706
 20
6.9687714031
 30
0.0
 10
10.7237266586
 20
7.0185535948
 30
0.0
 10
10.6873453132
 20
7.0709192578
 30
0.0
 10
10.6547557402
 20
7.1255811304
 30
0.0
 10
10.6261370606
 20
7.1822391027
 30
0.0
 10
10.6016465899
 20
7.2405828294
 30
0.0
 10
10.581419592
 20
7.300290074
 30
0.0
 10
10.5681932177
 20
7.3509742864
 30
0.0
 10
10.5598516998
 20
7.3918707924
 30
0.0
 10
10.5530266168
 20
7.4328483897
 30
0.0
 10
10.5473122249
 20
7.4843019466
 30
0.0
 10
10.5457749287
 20
7.5256419104
 30
0.0
 10
10.5457749287
 20
7.5462523191
 30
0.0
  0
SPLINE
  5
33F
100
AcDbEntity
  8
0
100
AcDbSpline
 62
7
  6
CONTINUOUS
 70
0
 71
3
 72
45
 73
41
 74
0
 42
0.0000001
 43
0.0000001
 44
0.0000000001
 40
0.0
 40
0.0
 40
0.0
 40
0.0
 40
0.0149908123
 40
0.0300034059
 40
0.0450395337
 40
0.0601008349
 40
0.0903006455
 40
0.1206179546
 40
0.1358255772
 40
0.1510656408
 40
0.1663388791
 40
0.1816458868
 40
0.1969871059
 40
0.2123628401
 40
0.2277732371
 40
0.2432183069
 40
0.2742077609
 40
0.305332413
 40
0.3365872025
 40
0.3679649541
 40
0.399456518
 40
0.4310509374
 40
0.4627356385
 40
0.4944966407
 40
0.526318784
 40
0.5581859686
 40
0.5900814061
 40
0.6219878772
 40
0.6538879949
 40
0.6857644685
 40
0.7176003676
 40
0.7493793816
 40
0.7810860728
 40
0.8127061204
 40
0.8442265487
 40
0.8756359523
 40
0.9069246516
 40
0.938085012
 40
0.9691111451
 40
1.0
 40
1.0
 40
1.0
 40
1.0
 10
12.1181927048
 20
7.0591298375
 30
0.0
 10
12.1103194924
 20
7.055307162
 30
0.0
 10
12.0944287198
 20
7.0479265838
 30
0.0
 10
12.0702100842
 20
7.0376712153
 30
0.0
 10
12.0456163322
 20
7.0282341081
 30
0.0
 10
12.0123338061
 20
7.0167463649
 30
0.0
 10
11.9699096995
 20
7.0044820701
 30
0.0
 10
11.9266733539
 20
6.9950838262
 30
0.0
 10
11.8916671904
 20
6.9892912678
 30
0.0
 10
11.8651963723
 20
6.985811147
 30
0.0
 10
11.8385673981
 20
6.9832038516
 30
0.0
 10
11.8118079525
 20
6.9814723039
 30
0.0
 10
11.7849463158
 20
6.9806180481
 30
0.0
 10
11.7580108482
 20
6.9806422312
 30
0.0
 10
11.7310295791
 20
6.9815446309
 30
0.0
 10
11.6949953752
 20
6.9839199561
 30
0.0
 10
11.6499749817
 20
6.9890857035
 30
0.0
 10
11.5962905969
 20
6.9987532461
 30
0.0
 10
11.543105405
 20
7.0118556367
 30
0.0
 10
11.490644733
 20
7.0283373489
 30
0.0
 10
11.4391288876
 20
7.0481287436
 30
0.0
 10
11.3887746854
 20
7.0711462791
 30
0.0
 10
11.3397938923
 20
7.0972928904
 30
0.0
 10
11.2923925191
 20
7.1264583921
 30
0.0
 10
11.2467699173
 20
7.1585199423
 30
0.0
 10
11.2031179608
 20
7.1933425576
 30
0.0
 10
11.1616202439
 20
7.2307796775
 30
0.0
 10
11.1224513166
 20
7.2706737772
 30
0.0
 10
11.0857759559
 20
7.312857025
 30
0.0
 10
11.0517484799
 20
7.3571519839
 30
0.0
 10
11.0205120973
 20
7.4033723477
 30
0.0
 10
10.9921983092
 20
7.4513237197
 30
0.0
 10
10.9669263618
 20
7.5008044248
 30
0.0
 10
10.9448027505
 20
7.5516063556
 30
0.0
 10
10.9259207596
 20
7.6035158149
 30
0.0
 10
10.9103601075
 20
7.6563144905
 30
0.0
 10
10.898186508
 20
7.709780055
 30
0.0
 10
10.8894516226
 20
7.7636882474
 30
0.0
 10
10.8841923991
 20
7.8178092639
 30
0.0
 10
10.8830158661
 20
7.8539680748
 30
0.0
 10
10.8830158661
 20
7.8720020696
 30
0.0
  0
SPLINE
  5
340
100
AcDbEntity
  8
0
100
AcDbSpline
 62
7
  6
CONTINUOUS
 70
0
 71
3
 72
39
 73
35
 74
0
 42
0.0000001
 43
0.0000001
 44
0.0000000001
 40
0.0
 40
0.0
 40
0.0
 40
0.0
 40
0.02995711
 40
0.0599959082
 40
0.0901318525
 40
0.1203785127
 40
0.1507473302
 40
0.1812474247
 40
0.2118854528
 40
0.242665517
 40
0.2735891255
 40
0.3046552007
 40
0.3358601333
 40
0.3671978795
 40
0.3986600975
 40
0.430236317
 40
0.4619141402
 40
0.4936794681
 40
0.525516749
 40
0.5574092454
 40
0.5893393151
 40
0.6212887031
 40
0.6532388402
 40
0.6851711451
 40
0.7170673265
 40
0.7489096822
 40
0.7806813914
 40
0.8123667967
 40
0.8439516717
 40
0.8754234781
 40
0.9067715594
 40
0.9379874881
 40
0.9690647454
 40
1.0
 40
1.0
 40
1.0
 40
1.0
 10
12.1530169223
 20
7.1347089667
 30
0.0
 10
12.1382596745
 20
7.1261267474
 30
0.0
 10
12.1080793299
 20
7.1099900126
 30
0.0
 10
12.0611418227
 20
7.08903344
 30
0.0
 10
12.0126850198
 20
7.0713848895
 30
0.0
 10
11.9629305602
 20
7.0571252818
 30
0.0
 10
11.9121020583
 20
7.0463180284
 30
0.0
 10
11.8604288996
 20
7.0390115204
 30
0.0
 10
11.808143904
 20
7.0352381903
 30
0.0
 10
11.7554826243
 20
7.0350145877
 30
0.0
 10
11.7026821945
 20
7.0383412707
 30
0.0
 10
11.6499802947
 20
7.0452028391
 30
0.0
 10
11.5976140805
 20
7.0555679954
 30
0.0
 10
11.5458191264
 20
7.0693897091
 30
0.0
 10
11.4948283785
 20
7.0866054485
 30
0.0
 10
11.4448711201
 20
7.1071374663
 30
0.0
 10
11.396171953
 20
7.1308931544
 30
0.0
 10
11.3489498005
 20
7.1577654617
 30
0.0
 10
11.303416935
 20
7.1876333758
 30
0.0
 10
11.2597780335
 20
7.2203624626
 30
0.0
 10
11.2182292538
 20
7.2558054538
 30
0.0
 10
11.178957373
 20
7.2938029243
 30
0.0
 10
11.1421389557
 20
7.3341840021
 30
0.0
 10
11.1079395669
 20
7.3767671304
 30
0.0
 10
11.0765130349
 20
7.4213608759
 30
0.0
 10
11.0480007643
 20
7.4677647815
 30
0.0
 10
11.0225311066
 20
7.5157702577
 30
0.0
 10
11.0002187732
 20
7.5651615097
 30
0.0
 10
10.981164312
 20
7.6157164764
 30
0.0
 10
10.9654537005
 20
7.6672079143
 30
0.0
 10
10.9531578578
 20
7.7194040816
 30
0.0
 10
10.9443325647
 20
7.7720709664
 30
0.0
 10
10.9390177198
 20
7.8249686145
 30
0.0
 10
10.9378284173
 20
7.8603181806
 30
0.0
 10
10.9378284173
 20
7.8779469315
 30
0.0
  0
SPLINE
  5
341
100
AcDbEntity
  8
0
100
AcDbSpline
 62
7
  6
CONTINUOUS
 70
0
 71
3
 72
45
 73
41
 74
0
 42
0.0000001
 43
0.0000001
 44
0.0000000001
 40
0.0
 40
0.0
 40
0.0
 40
0.0
 40
0.0149957412
 40
0.0300138649
 40
0.0450560552
 40
0.0601238848
 40
0.0752188135
 40
0.0903421818
 40
0.1054952018
 40
0.1206789607
 40
0.1358944049
 40
0.1511423517
 40
0.1664234699
 40
0.1817382952
 40
0.2124664326
 40
0.2433322348
 40
0.2743347936
 40
0.305470956
 40
0.3367354049
 40
0.3681207705
 40
0.3996177709
 40
0.4312153782
 40
0.4629010061
 40
0.4946607167
 40
0.526479443
 40
0.5583412241
 40
0.5902294495
 40
0.6221271112
 40
0.6540170596
 40
0.6858822607
 40
0.7177060525
 40
0.7494723973
 40
0.7811661273
 40
0.8127731811
 40
0.8442808253
 40
0.8756778732
 40
0.9069548341
 40
0.9381042244
 40
0.9691202803
 40
1.0
 40
1.0
 40
1.0
 40
1.0
 10
12.1671920795
 20
7.1737216266
 30
0.0
 10
12.1597418954
 20
7.1702406109
 30
0.0
 10
12.1447103567
 20
7.1635270884
 30
0.0
 10
12.1218170104
 20
7.1542219454
 30
0.0
 10
12.0985842617
 20
7.145683833
 30
0.0
 10
12.0750365738
 20
7.1379218768
 30
0.0
 10
12.0511983854
 20
7.1309439377
 30
0.0
 10
12.0270944462
 20
7.1247574811
 30
0.0
 10
12.0027498687
 20
7.1193686709
 30
0.0
 10
11.9781899092
 20
7.1147833755
 30
0.0
 10
11.9534401241
 20
7.1110060709
 30
0.0
 10
11.9285262917
 20
7.1080409264
 30
0.0
 10
11.9034739944
 20
7.1058908081
 30
0.0
 10
11.869887505
 20
7.1041119309
 30
0.0
 10
11.8276806263
 20
7.1039419621
 30
0.0
 10
11.7769618903
 20
7.10701495
 30
0.0
 10
11.7263205799
 20
7.1133511025
 30
0.0
 10
11.6759684553
 20
7.1229238821
 30
0.0
 10
11.6261141956
 20
7.1356931847
 30
0.0
 10
11.5769648575
 20
7.1516057066
 30
0.0
 10
11.5287244009
 20
7.1705951228
 30
0.0
 10
11.4815930194
 20
7.1925823789
 30
0.0
 10
11.4357662738
 20
7.2174760177
 30
0.0
 10
11.391434301
 20
7.2451725607
 30
0.0
 10
11.3487810302
 20
7.2755569359
 30
0.0
 10
11.3079834274
 20
7.3085029539
 30
0.0
 10
11.2692107685
 20
7.3438738285
 30
0.0
 10
11.2326239423
 20
7.3815227409
 30
0.0
 10
11.1983747892
 20
7.4212934447
 30
0.0
 10
11.1666054734
 20
7.4630209075
 30
0.0
 10
11.1374478944
 20
7.5065319893
 30
0.0
 10
11.111023148
 20
7.5516461594
 30
0.0
 10
11.0874410244
 20
7.598176236
 30
0.0
 10
11.0667995583
 20
7.6459291621
 30
0.0
 10
11.0491846104
 20
7.6947067759
 30
0.0
 10
11.0346695464
 20
7.7443067043
 30
0.0
 10
11.0233148366
 20
7.7945229068
 30
0.0
 10
11.0151680137
 20
7.8451475969
 30
0.0
 10
11.0102630751
 20
7.8959678772
 30
0.0
 10
11.0091658581
 20
7.9299199178
 30
0.0
 10
11.0091658581
 20
7.946853612
 30
0.0
  0
SPLINE
  5
342
100
AcDbEntity
  8
0
100
AcDbSpline
 62
7
  6
CONTINUOUS
 70
0
 71
3
 72
45
 73
41
 74
0
 42
0.0000001
 43
0.0000001
 44
0.0000000001
 40
0.0
 40
0.0
 40
0.0
 40
0.0
 40
0.014973685
 40
0.0299662757
 40
0.044979811
 40
0.0600162285
 40
0.0750773522
 40
0.0901648926
 40
0.1052804265
 40
0.1204254059
 40
0.1356011346
 40
0.1508087806
 40
0.1660493545
 40
0.1813237207
 40
0.2119721004
 40
0.2427621107
 40
0.2736949358
 40
0.3047692161
 40
0.3359811073
 40
0.3673243794
 40
0.3987905542
 40
0.4303690747
 40
0.4620475045
 40
0.4938117521
 40
0.5256463166
 40
0.5575345501
 40
0.5894589342
 40
0.6214013669
 40
0.6533434548
 40
0.6852668105
 40
0.7171533482
 40
0.7489855771
 40
0.7807468872
 40
0.812421826
 40
0.8439963578
 40
0.87545812
 40
0.9067966025
 40
0.9380034987
 40
0.9690724182
 40
1.0
 40
1.0
 40
1.0
 40
1.0
 10
12.196627698
 20
7.2876983869
 30
0.0
 10
12.1899647328
 20
7.2839227031
 30
0.0
 10
12.1764949826
 20
7.2766027123
 30
0.0
 10
12.1559012278
 20
7.2663388446
 30
0.0
 10
12.1349284119
 20
7.2567951982
 30
0.0
 10
12.1136001566
 20
7.2479828463
 30
0.0
 10
12.0919402801
 20
7.2399112868
 30
0.0
 10
12.0699728665
 20
7.2325898149
 30
0.0
 10
12.0477225086
 20
7.2260263006
 30
0.0
 10
12.0252139612
 20
7.2202283114
 30
0.0
 10
12.0024723634
 20
7.21520209
 30
0.0
 10
11.9795231396
 20
7.2109533854
 30
0.0
 10
11.956391561
 20
7.2074868313
 30
0.0
 10
11.9253094391
 20
7.2039090277
 30
0.0
 10
11.8861206711
 20
7.2014155685
 30
0.0
 10
11.8388426324
 20
7.2015978376
 30
0.0
 10
11.7914641428
 20
7.2049491175
 30
0.0
 10
11.7441978311
 20
7.2114542875
 30
0.0
 10
11.6972539162
 20
7.2210839402
 30
0.0
 10
11.6508416175
 20
7.2337948499
 30
0.0
 10
11.6051676026
 20
7.2495300853
 30
0.0
 10
11.5604352478
 20
7.2682192929
 30
0.0
 10
11.5168436971
 20
7.2897790075
 30
0.0
 10
11.4745869982
 20
7.3141130274
 30
0.0
 10
11.4338532451
 20
7.3411128423
 30
0.0
 10
11.3948237507
 20
7.3706581149
 30
0.0
 10
11.3576722474
 20
7.4026172142
 30
0.0
 10
11.322564121
 20
7.4368477975
 30
0.0
 10
11.289655682
 20
7.4731974402
 30
0.0
 10
11.2590934702
 20
7.5115043051
 30
0.0
 10
11.2310136106
 20
7.5515978607
 30
0.0
 10
11.2055412127
 20
7.5932996346
 30
0.0
 10
11.1827898155
 20
7.6364239984
 30
0.0
 10
11.1628608884
 20
7.6807789927
 30
0.0
 10
11.1458433677
 20
7.7261671493
 30
0.0
 10
11.1318132972
 20
7.7723864413
 30
0.0
 10
11.1208333915
 20
7.8192308826
 30
0.0
 10
11.1129529699
 20
7.8664925188
 30
0.0
 10
11.1082073276
 20
7.9139581024
 30
0.0
 10
11.1071454353
 20
7.9456765118
 30
0.0
 10
11.1071454353
 20
7.9614946217
 30
0.0
  0
SPLINE
  5
343
100
AcDbEntity
  8
0
100
AcDbSpline
 62
7
  6
CONTINUOUS
 70
0
 71
3
 72
31
 73
27
 74
0
 42
0.0000001
 43
0.0000001
 44
0.0000000001
 40
0.0
 40
0.0
 40
0.0
 40
0.0
 40
0.0308217083
 40
0.0617199432
 40
0.0926918516
 40
0.1237341323
 40
0.1548430783
 40
0.1860145817
 40
0.2172441666
 40
0.2485270272
 40
0.3112208857
 40
0.3740630517
 40
0.4370060031
 40
0.4999999259
 40
0.5629938505
 40
0.625936807
 40
0.6887789818
 40
0.7514728527
 40
0.7827557198
 40
0.813985313
 40
0.845156825
 40
0.8762657778
 40
0.9073080744
 40
0.9382799899
 40
0.9691782099
 40
1.0
 40
1.0
 40
1.0
 40
1.0
 10
12.1778228328
 20
7.6572910386
 30
0.0
 10
12.1685334048
 20
7.6591895293
 30
0.0
 10
12.1500032253
 20
7.6633523425
 30
0.0
 10
12.1224374334
 20
7.670670799
 30
0.0
 10
12.0951071752
 20
7.6790605139
 30
0.0
 10
12.068055826
 20
7.6885080126
 30
0.0
 10
12.0413256513
 20
7.6989985775
 30
0.0
 10
12.0149587619
 20
7.7105157191
 30
0.0
 10
11.9889959959
 20
7.7230414959
 30
0.0
 10
11.9549521393
 20
7.7410716822
 30
0.0
 10
11.9136140046
 20
7.7660331707
 30
0.0
 10
11.866304719
 20
7.79964243
 30
0.0
 10
11.8215424899
 20
7.8367231551
 30
0.0
 10
11.7796094011
 20
7.8770421292
 30
0.0
 10
11.7407675741
 20
7.9203470516
 30
0.0
 10
11.7052600889
 20
7.9663672259
 30
0.0
 10
11.6733102376
 20
8.0148126449
 30
0.0
 10
11.6497960375
 20
8.0569908452
 30
0.0
 10
11.6329562828
 20
8.0916390067
 30
0.0
 10
11.6213375958
 20
8.1180201896
 30
0.0
 10
11.6107409506
 20
8.1447703103
 30
0.0
 10
11.6011828689
 20
8.1718479359
 30
0.0
 10
11.5926783264
 20
8.199210392
 30
0.0
 10
11.5852406197
 20
8.2268149388
 30
0.0
 10
11.5788816751
 20
8.2546177766
 30
0.0
 10
11.5753634017
 20
8.2732810859
 30
0.0
 10
11.5737879236
 20
8.2826307428
 30
0.0
  0
SPLINE
  5
344
100
AcDbEntity
  8
0
100
AcDbSpline
 62
7
  6
CONTINUOUS
 70
0
 71
3
 72
23
 73
19
 74
0
 42
0.0000001
 43
0.0000001
 44
0.0000000001
 40
0.0
 40
0.0
 40
0.0
 40
0.0
 40
0.0618324412
 40
0.1239178038
 40
0.1862297794
 40
0.2487376536
 40
0.3114069401
 40
0.37420007
 40
0.4370771242
 40
0.4999965986
 40
0.5629161904
 40
0.6257935955
 40
0.6885873043
 40
0.7512573872
 40
0.8137662592
 40
0.8760794132
 40
0.9381661163
 40
1.0
 40
1.0
 40
1.0
 40
1.0
 10
12.158455196
 20
7.7197965449
 30
0.0
 10
12.1426972605
 20
7.7239247645
 30
0.0
 10
12.1113966744
 20
7.733310238
 30
0.0
 10
12.0654584203
 20
7.7506427907
 30
0.0
 10
12.0206590737
 20
7.7711724513
 30
0.0
 10
11.9772346502
 20
7.7947913359
 30
0.0
 10
11.9354100947
 20
7.8213765724
 30
0.0
 10
11.8954030786
 20
7.8507896569
 30
0.0
 10
11.8574215529
 20
7.8828775179
 30
0.0
 10
11.8216630231
 20
7.9174731957
 30
0.0
 10
11.7883134325
 20
7.9543967291
 30
0.0
 10
11.7575462453
 20
7.9934561022
 30
0.0
 10
11.7295215495
 20
8.034448203
 30
0.0
 10
11.7043852131
 20
8.0771599658
 30
0.0
 10
11.6822682123
 20
8.1213691028
 30
0.0
 10
11.6632856492
 20
8.1668465909
 30
0.0
 10
11.6475372736
 20
8.2133528419
 30
0.0
 10
11.6392296709
 20
8.2449573564
 30
0.0
 10
11.6356437527
 20
8.2608478662
 30
0.0
  0
SPLINE
  5
345
100
AcDbEntity
  8
0
100
AcDbSpline
 62
7
  6
CONTINUOUS
 70
0
 71
3
 72
26
 73
22
 74
0
 42
0.0000001
 43
0.0000001
 44
0.0000000001
 40
0.0
 40
0.0
 40
0.0
 40
0.0
 40
0.0617092235
 40
0.0925729854
 40
0.1234446509
 40
0.1852169748
 40
0.2470517571
 40
0.2780013275
 40
0.3089738777
 40
0.3709922222
 40
0.4331298084
 40
0.4954034049
 40
0.5578284199
 40
0.6204187753
 40
0.6831867461
 40
0.7146430864
 40
0.7461476576
 40
0.8093008659
 40
0.872657114
 40
0.9362236724
 40
1.0
 40
1.0
 40
1.0
 40
1.0
 10
10.779260282
 20
8.1078545402
 30
0.0
 10
10.7700152549
 20
8.0989245168
 30
0.0
 10
10.7564877052
 20
8.0851678144
 30
0.0
 10
10.7391785938
 20
8.0661509296
 30
0.0
 10
10.7223549131
 20
8.0466851276
 30
0.0
 10
10.7022590332
 20
8.0215360835
 30
0.0
 10
10.6834698626
 20
7.9953763708
 30
0.0
 10
10.6692448442
 20
7.9738759367
 30
0.0
 10
10.6555533944
 20
7.9519867909
 30
0.0
 10
10.6394718793
 20
7.9239430792
 30
0.0
 10
10.6218844035
 20
7.8893038743
 30
0.0
 10
10.606038063
 20
7.8537412004
 30
0.0
 10
10.5919696246
 20
7.8173374703
 30
0.0
 10
10.5797115028
 20
7.7801770695
 30
0.0
 10
10.5710343986
 20
7.748672056
 30
0.0
 10
10.5650227811
 20
7.7231805163
 30
0.0
 10
10.5596262901
 20
7.6974696755
 30
0.0
 10
10.554058821
 20
7.6650161097
 30
0.0
 10
10.5492806198
 20
7.6256982406
 30
0.0
 10
10.5464107471
 20
7.5860656928
 30
0.0
 10
10.5457749287
 20
7.559536515
 30
0.0
 10
10.5457749287
 20
7.5462523191
 30
0.0
  0
SPLINE
  5
346
100
AcDbEntity
  8
0
100
AcDbSpline
 62
7
  6
CONTINUOUS
 70
0
 71
3
 72
15
 73
11
 74
0
 42
0.0000001
 43
0.0000001
 44
0.0000000001
 40
0.0
 40
0.0
 40
0.0
 40
0.0
 40
0.1235305695
 40
0.2474085335
 40
0.3716778469
 40
0.4963766326
 40
0.6215367004
 40
0.7471830865
 40
0.8733339339
 40
1.0
 40
1.0
 40
1.0
 40
1.0
 10
10.973904774
 20
8.2437424727
 30
0.0
 10
10.9664634839
 20
8.2296773593
 30
0.0
 10
10.9524367654
 20
8.2010337321
 30
0.0
 10
10.9340795311
 20
8.1567846861
 30
0.0
 10
10.9184378073
 20
8.1113435247
 30
0.0
 10
10.9055669864
 20
8.0648706423
 30
0.0
 10
10.895511326
 20
8.0175274383
 30
0.0
 10
10.8883056487
 20
7.9694782787
 30
0.0
 10
10.883974764
 20
7.9208925633
 30
0.0
 10
10.8830158661
 20
7.8883182264
 30
0.0
 10
10.8830158661
 20
7.8720020696
 30
0.0
  0
SPLINE
  5
347
100
AcDbEntity
  8
0
100
AcDbSpline
 62
7
  6
CONTINUOUS
 70
0
 71
3
 72
15
 73
11
 74
0
 42
0.0000001
 43
0.0000001
 44
0.0000000001
 40
0.0
 40
0.0
 40
0.0
 40
0.0
 40
0.1234308176
 40
0.2472023334
 40
0.3713793193
 40
0.4960185405
 40
0.6211675984
 40
0.7468646922
 40
0.8731359742
 40
1.0
 40
1.0
 40
1.0
 40
1.0
 10
11.0505518365
 20
8.2757821943
 30
0.0
 10
11.041380424
 20
8.261190196
 30
0.0
 10
11.024061016
 20
8.2312917201
 30
0.0
 10
11.0013336405
 20
8.1846342661
 30
0.0
 10
10.9819244177
 20
8.1363174138
 30
0.0
 10
10.965924054
 20
8.0865663465
 30
0.0
 10
10.9534050844
 20
8.0356091792
 30
0.0
 10
10.9444248157
 20
7.9836795708
 30
0.0
 10
10.9390237793
 20
7.9310190377
 30
0.0
 10
10.9378284173
 20
7.8956612009
 30
0.0
 10
10.9378284173
 20
7.8779469315
 30
0.0
  0
SPLINE
  5
348
100
AcDbEntity
  8
0
100
AcDbSpline
 62
7
  6
CONTINUOUS
 70
0
 71
3
 72
15
 73
11
 74
0
 42
0.0000001
 43
0.0000001
 44
0.0000000001
 40
0.0
 40
0.0
 40
0.0
 40
0.0
 40
0.1235556576
 40
0.2474575722
 40
0.3717461076
 40
0.4964561677
 40
0.6216169606
 40
0.7472511213
 40
0.8733757963
 40
1.0
 40
1.0
 40
1.0
 40
1.0
 10
11.0901539528
 20
8.2887955474
 30
0.0
 10
11.083515789
 20
8.2757855016
 30
0.0
 10
11.0710070334
 20
8.2493192843
 30
0.0
 10
11.0546442629
 20
8.2085075303
 30
0.0
 10
11.0407077123
 20
8.1666595317
 30
0.0
 10
11.0292438456
 20
8.1239143356
 30
0.0
 10
11.0202898061
 20
8.080411714
 30
0.0
 10
11.0138747394
 20
8.0362938146
 30
0.0
 10
11.0100195182
 20
7.9917071194
 30
0.0
 10
11.0091658581
 20
7.9618220509
 30
0.0
 10
11.0091658581
 20
7.946853612
 30
0.0
  0
SPLINE
  5
349
100
AcDbEntity
  8
0
100
AcDbSpline
 62
7
  6
CONTINUOUS
 70
0
 71
3
 72
52
 73
48
 74
0
 42
0.0000001
 43
0.0000001
 44
0.0000000001
 40
0.0
 40
0.0
 40
0.0
 40
0.0
 40
0.0833811309
 40
0.1663235784
 40
0.2480249144
 40
0.3278453928
 40
0.3668931247
 40
0.4052959948
 40
0.443010445
 40
0.4799973727
 40
0.5162209862
 40
0.5516476457
 40
0.5862440452
 40
0.6199762442
 40
0.6528079443
 40
0.6846990921
 40
0.7002780794
 40
0.7156044719
 40
0.7454711522
 40
0.7742382853
 40
0.7881873873
 40
0.8018341009
 40
0.8151670771
 40
0.8281751259
 40
0.8408462712
 40
0.8531671112
 40
0.8651250008
 40
0.876706314
 40
0.8878977717
 40
0.898687612
 40
0.9090648329
 40
0.9190223565
 40
0.9285568065
 40
0.9376719214
 40
0.9463800506
 40
0.9505894362
 40
0.954707438
 40
0.96268954
 40
0.9703843677
 40
0.9741479597
 40
0.9778689432
 40
0.9815591415
 40
0.9852311017
 40
0.9888980421
 40
0.9925732956
 40
0.9962697167
 40
1.0
 40
1.0
 40
1.0
 40
1.0
 10
8.9028182697
 20
8.4710157291
 30
0.0
 10
8.9047192765
 20
8.4514408517
 30
0.0
 10
8.9094682192
 20
8.4124812722
 30
0.0
 10
8.9191895265
 20
8.3547753309
 30
0.0
 10
8.9311730291
 20
8.2983565376
 30
0.0
 10
8.9428108224
 20
8.2524900287
 30
0.0
 10
8.9529060635
 20
8.2167933154
 30
0.0
 10
8.9607438717
 20
8.1907834606
 30
0.0
 10
8.9688531906
 20
8.1653670008
 30
0.0
 10
8.9771838168
 20
8.140563999
 30
0.0
 10
8.9856850482
 20
8.1163904077
 30
0.0
 10
8.9943049487
 20
8.092858641
 30
0.0
 10
9.0029898925
 20
8.0699784574
 30
0.0
 10
9.0116841589
 20
8.0477579662
 30
0.0
 10
9.0203278038
 20
8.026203884
 30
0.0
 10
9.0274900537
 20
8.0086695177
 30
0.0
 10
9.0331314866
 20
7.994974223
 30
0.0
 10
9.0386074783
 20
7.9817272209
 30
0.0
 10
9.0452821143
 20
7.9656097693
 30
0.0
 10
9.0517893106
 20
7.9497745429
 30
0.0
 10
9.0567713776
 20
7.9374490858
 30
0.0
 10
9.0603426512
 20
7.9284800792
 30
0.0
 10
9.0637711846
 20
7.9196933517
 30
0.0
 10
9.0670411581
 20
7.911092082
 30
0.0
 10
9.0701355447
 20
7.9026799423
 30
0.0
 10
9.0730346235
 20
7.894460615
 30
0.0
 10
9.0757190285
 20
7.886439182
 30
0.0
 10
9.0781668267
 20
7.878620927
 30
0.0
 10
9.080354513
 20
7.871011964
 30
0.0
 10
9.0822581692
 20
7.8636196142
 30
0.0
 10
9.0838510034
 20
7.8564515393
 30
0.0
 10
9.0851061779
 20
7.8495168642
 30
0.0
 10
9.0859950743
 20
7.8428251609
 30
0.0
 10
9.086488365
 20
7.8363875148
 30
0.0
 10
9.0865460977
 20
7.831186172
 30
0.0
 10
9.0863573405
 20
7.8271714376
 30
0.0
 10
9.0860182622
 20
7.8233386128
 30
0.0
 10
9.0853017321
 20
7.8187177201
 30
0.0
 10
9.0841437153
 20
7.8142711038
 30
0.0
 10
9.0829516008
 20
7.8108932256
 30
0.0
 10
9.0819300981
 20
7.808461706
 30
0.0
 10
9.0807731542
 20
7.8061156887
 30
0.0
 10
9.079479609
 20
7.8038567183
 30
0.0
 10
9.0780482102
 20
7.8016866603
 30
0.0
 10
9.0764784146
 20
7.7996072398
 30
0.0
 10
9.074770867
 20
7.7976197896
 30
0.0
 10
9.0735476888
 20
7.7963640023
 30
0.0
 10
9.0729148486
 20
7.7957527255
 30
0.0
  0
SPLINE
  5
34A
100
AcDbEntity
  8
0
100
AcDbSpline
 62
7
  6
CONTINUOUS
 70
0
 71
3
 72
20
 73
16
 74
0
 42
0.0000001
 43
0.0000001
 44
0.0000000001
 40
0.0
 40
0.0
 40
0.0
 40
0.0
 40
0.0616862533
 40
0.1234499753
 40
0.1852994917
 40
0.247242728
 40
0.309287135
 40
0.3714397139
 40
0.4337069318
 40
0.4960947288
 40
0.5586083965
 40
0.6212527949
 40
0.7469318598
 40
0.8731752112
 40
1.0
 40
1.0
 40
1.0
 40
1.0
 10
11.2051286382
 20
8.3143345606
 30
0.0
 10
11.2011406475
 20
8.3078356645
 30
0.0
 10
11.193388928
 20
8.2946874167
 30
0.0
 10
11.1824573468
 20
8.274554694
 30
0.0
 10
11.1722260843
 20
8.2540213946
 30
0.0
 10
11.1627069236
 20
8.2331104132
 30
0.0
 10
11.1539100451
 20
8.2118449188
 30
0.0
 10
11.1458454552
 20
8.1902483466
 30
0.0
 10
11.1385218089
 20
8.1683446406
 30
0.0
 10
11.1319474133
 20
8.1461580582
 30
0.0
 10
11.1261293223
 20
8.1237128226
 30
0.0
 10
11.1193823438
 20
8.0934451724
 30
0.0
 10
11.1128742983
 20
8.0550768869
 30
0.0
 10
11.1081837182
 20
8.0084630689
 30
0.0
 10
11.1071454353
 20
7.9771712342
 30
0.0
 10
11.1071454353
 20
7.9614946217
 30
0.0
  0
SPLINE
  5
34B
100
AcDbEntity
  8
0
100
AcDbSpline
 62
7
  6
CONTINUOUS
 70
0
 71
3
 72
23
 73
19
 74
0
 42
0.0000001
 43
0.0000001
 44
0.0000000001
 40
0.0
 40
0.0
 40
0.0
 40
0.0
 40
0.0488011826
 40
0.0988125598
 40
0.150302691
 40
0.2034951519
 40
0.2585679723
 40
0.315650281
 40
0.3748214645
 40
0.4361255401
 40
0.4995707167
 40
0.565138812
 40
0.6327911105
 40
0.7024712519
 40
0.7741098082
 40
0.847632912
 40
0.9229583459
 40
1.0
 40
1.0
 40
1.0
 40
1.0
 10
9.0729148486
 20
7.7957527255
 30
0.0
 10
9.0719706672
 20
7.7948407163
 30
0.0
 10
9.0699738136
 20
7.7930802537
 30
0.0
 10
9.0667195337
 20
7.7906736478
 30
0.0
 10
9.0631810375
 20
7.7884758619
 30
0.0
 10
9.0593673359
 20
7.786487263
 30
0.0
 10
9.0552876785
 20
7.7847073916
 30
0.0
 10
9.0509525558
 20
7.7831352539
 30
0.0
 10
9.0463735299
 20
7.7817685998
 30
0.0
 10
9.0415626345
 20
7.780605725
 30
0.0
 10
9.0365326376
 20
7.7796434071
 30
0.0
 10
9.0312964222
 20
7.7788787881
 30
0.0
 10
9.0258670345
 20
7.7783084889
 30
0.0
 10
9.0202574877
 20
7.7779288331
 30
0.0
 10
9.0144805398
 20
7.777736251
 30
0.0
 10
9.0085486432
 20
7.7777269898
 30
0.0
 10
9.0024739267
 20
7.7778972647
 30
0.0
 10
8.9983811274
 20
7.7781255274
 30
0.0
 10
8.9963136288
 20
7.7782675893
 30
0.0
  0
SPLINE
  5
34C
100
AcDbEntity
  8
0
100
AcDbSpline
 62
7
  6
CONTINUOUS
 70
0
 71
3
 72
31
 73
27
 74
0
 42
0.0000001
 43
0.0000001
 44
0.0000000001
 40
0.0
 40
0.0
 40
0.0
 40
0.0
 40
0.0104177528
 40
0.0211143923
 40
0.0322598089
 40
0.0440085114
 40
0.0564975512
 40
0.0698507446
 40
0.0841774831
 40
0.0995730138
 40
0.1161213899
 40
0.1339038932
 40
0.1529973138
 40
0.1734722382
 40
0.1953964531
 40
0.2188432816
 40
0.2438854173
 40
0.2705933658
 40
0.32931614
 40
0.395675829
 40
0.4704086559
 40
0.5543331709
 40
0.6483510129
 40
0.7534098804
 40
0.8704032945
 40
1.0
 40
1.0
 40
1.0
 40
1.0
 10
10.889057098
 20
8.1444408561
 30
0.0
 10
10.8892602715
 20
8.1443280943
 30
0.0
 10
10.8896574733
 20
8.144072183
 30
0.0
 10
10.8902094217
 20
8.1436078463
 30
0.0
 10
10.8907224562
 20
8.1430595388
 30
0.0
 10
10.8911966321
 20
8.142426907
 30
0.0
 10
10.8916323864
 20
8.1417091849
 30
0.0
 10
10.8920296598
 20
8.1409050047
 30
0.0
 10
10.8923884447
 20
8.140012829
 30
0.0
 10
10.892708697
 20
8.1390310011
 30
0.0
 10
10.8929903997
 20
8.13795765
 30
0.0
 10
10.893233051
 20
8.1367905135
 30
0.0
 10
10.8934361226
 20
8.1355271311
 30
0.0
 10
10.8935991136
 20
8.1341649317
 30
0.0
 10
10.8937214966
 20
8.1327010689
 30
0.0
 10
10.8938022752
 20
8.1311323454
 30
0.0
 10
10.8938405138
 20
8.1294553086
 30
0.0
 10
10.8938332506
 20
8.1269909976
 30
0.0
 10
10.8937018348
 20
8.1236067194
 30
0.0
 10
10.8933586356
 20
8.1191622327
 30
0.0
 10
10.8928103483
 20
8.1141725049
 30
0.0
 10
10.8920393564
 20
8.1085889531
 30
0.0
 10
10.8910242731
 20
8.1023582175
 30
0.0
 10
10.8897404146
 20
8.0954256652
 30
0.0
 10
10.8881609571
 20
8.0877423673
 30
0.0
 10
10.8869554488
 20
8.0823755708
 30
0.0
 10
10.8862987494
 20
8.0795605036
 30
0.0
  0
SPLINE
  5
34D
100
AcDbEntity
  8
0
100
AcDbSpline
 62
7
  6
CONTINUOUS
 70
0
 71
3
 72
15
 73
11
 74
0
 42
0.0000001
 43
0.0000001
 44
0.0000000001
 40
0.0
 40
0.0
 40
0.0
 40
0.0
 40
0.1186104335
 40
0.2400726352
 40
0.36388666
 40
0.4895397273
 40
0.6165091395
 40
0.7442651601
 40
0.8722738676
 40
1.0
 40
1.0
 40
1.0
 40
1.0
 10
8.5959426999
 20
8.1175386841
 30
0.0
 10
8.598774711
 20
8.1327481403
 30
0.0
 10
8.6041956955
 20
8.1635914293
 30
0.0
 10
8.6115260752
 20
8.2104878396
 30
0.0
 10
8.6181301637
 20
8.25841953
 30
0.0
 10
8.6239783286
 20
8.3071727038
 30
0.0
 10
8.6290444009
 20
8.3565301725
 30
0.0
 10
8.6333057267
 20
8.4062720029
 30
0.0
 10
8.6367432602
 20
8.4561763194
 30
0.0
 10
8.6384799169
 20
8.4894895329
 30
0.0
 10
8.639206712
 20
8.5061335428
 30
0.0
  0
SPLINE
  5
34E
100
AcDbEntity
  8
0
100
AcDbSpline
 62
7
  6
CONTINUOUS
 70
0
 71
3
 72
23
 73
19
 74
0
 42
0.0000001
 43
0.0000001
 44
0.0000000001
 40
0.0
 40
0.0
 40
0.0
 40
0.0
 40
0.0548282121
 40
0.1112572343
 40
0.1691745209
 40
0.2284630085
 40
0.2890015838
 40
0.3506655718
 40
0.4133271305
 40
0.4768556045
 40
0.5411179257
 40
0.6059790429
 40
0.6713022867
 40
0.7369497212
 40
0.8027825327
 40
0.8686614253
 40
0.9344469762
 40
1.0
 40
1.0
 40
1.0
 40
1.0
 10
8.6175922221
 20
8.06019158
 30
0.0
 10
8.6196368875
 20
8.0681718865
 30
0.0
 10
8.6236407569
 20
8.084403005
 30
0.0
 10
8.629317768
 20
8.1091809212
 30
0.0
 10
8.6347434592
 20
8.1347006385
 30
0.0
 10
8.6399055147
 20
8.1609045192
 30
0.0
 10
8.6447922572
 20
8.187733498
 30
0.0
 10
8.6493926166
 20
8.2151270575
 30
0.0
 10
8.6536961663
 20
8.2430234136
 30
0.0
 10
8.6576931612
 20
8.2713596324
 30
0.0
 10
8.6613745702
 20
8.300071777
 30
0.0
 10
8.6647320657
 20
8.329095062
 30
0.0
 10
8.6677580464
 20
8.358364
 30
0.0
 10
8.670445665
 20
8.3878125448
 30
0.0
 10
8.6727888634
 20
8.4173742354
 30
0.0
 10
8.6747823512
 20
8.4469823761
 30
0.0
 10
8.6764216263
 20
8.4765700937
 30
0.0
 10
8.6772779752
 20
8.4962860225
 30
0.0
 10
8.6776459296
 20
8.5061286568
 30
0.0
  0
SPLINE
  5
34F
100
AcDbEntity
  8
0
100
AcDbSpline
 62
7
  6
CONTINUOUS
 70
0
 71
3
 72
21
 73
17
 74
0
 42
0.0000001
 43
0.0000001
 44
0.0000000001
 40
0.0
 40
0.0
 40
0.0
 40
0.0
 40
0.0616937022
 40
0.1234661087
 40
0.185324939
 40
0.2472775196
 40
0.3093307411
 40
0.3714910604
 40
0.4337644432
 40
0.496156366
 40
0.5586716995
 40
0.6213149026
 40
0.6840899911
 40
0.7469999235
 40
0.8732172687
 40
1.0
 40
1.0
 40
1.0
 40
1.0
 10
8.3553922711
 20
8.4460886313
 30
0.0
 10
8.3510929307
 20
8.4388287847
 30
0.0
 10
8.3427375697
 20
8.4241508279
 30
0.0
 10
8.3309584816
 20
8.4017033805
 30
0.0
 10
8.3199372666
 20
8.3788346554
 30
0.0
 10
8.3096858523
 20
8.3555687946
 30
0.0
 10
8.3002146398
 20
8.3319301368
 30
0.0
 10
8.2915338047
 20
8.3079433077
 30
0.0
 10
8.283652133
 20
8.2836334681
 30
0.0
 10
8.2765781066
 20
8.2590259584
 30
0.0
 10
8.2703188871
 20
8.2341465408
 30
0.0
 10
8.2648811562
 20
8.2090212291
 30
0.0
 10
8.2602705179
 20
8.1836760143
 30
0.0
 10
8.2552270711
 20
8.1495909271
 30
0.0
 10
8.2510184332
 20
8.1065592572
 30
0.0
 10
8.2499020476
 20
8.0719482852
 30
0.0
 10
8.2499020476
 20
8.0546091331
 30
0.0
  0
SPLINE
  5
350
100
AcDbEntity
  8
0
100
AcDbSpline
 62
7
  6
CONTINUOUS
 70
0
 71
3
 72
43
 73
39
 74
0
 42
0.0000001
 43
0.0000001
 44
0.0000000001
 40
0.0
 40
0.0
 40
0.0
 40
0.0
 40
0.044832888
 40
0.0932594622
 40
0.1446477701
 40
0.1979734493
 40
0.2519758124
 40
0.3054254154
 40
0.357350675
 40
0.4071218111
 40
0.4544097991
 40
0.4990973578
 40
0.5411955652
 40
0.5807832369
 40
0.6179692653
 40
0.652871919
 40
0.6856075646
 40
0.716284647
 40
0.7450036564
 40
0.7718546187
 40
0.7969200711
 40
0.8202757687
 40
0.8419923581
 40
0.8621393341
 40
0.8807858651
 40
0.8980073218
 40
0.913887187
 40
0.928526304
 40
0.9420478989
 40
0.9546094821
 40
0.9605948615
 40
0.9664189779
 40
0.972114717
 40
0.9777178234
 40
0.9832664767
 40
0.9888013565
 40
0.9943648817
 40
1.0
 40
1.0
 40
1.0
 40
1.0
 10
10.8862987494
 20
8.0795605036
 30
0.0
 10
10.8856089923
 20
8.0766037286
 30
0.0
 10
10.8841209649
 20
8.0704654883
 30
0.0
 10
10.8816603677
 20
8.0609833516
 30
0.0
 10
10.878896128
 20
8.0509871106
 30
0.0
 10
10.8758661943
 20
8.0406739711
 30
0.0
 10
10.8726278488
 20
8.0302780312
 30
0.0
 10
10.8692468741
 20
8.0200273928
 30
0.0
 10
10.8657853492
 20
8.0101066537
 30
0.0
 10
10.8622931013
 20
8.0006402391
 30
0.0
 10
10.8588052472
 20
7.9916963584
 30
0.0
 10
10.855344072
 20
7.9833015922
 30
0.0
 10
10.8519224741
 20
7.9754564331
 30
0.0
 10
10.8485472319
 20
7.9681472511
 30
0.0
 10
10.8452214357
 20
7.961354072
 30
0.0
 10
10.8419461914
 20
7.9550550606
 30
0.0
 10
10.8387216146
 20
7.9492289916
 30
0.0
 10
10.8355473171
 20
7.9438564561
 30
0.0
 10
10.8324231791
 20
7.9389202255
 30
0.0
 10
10.829349019
 20
7.934405596
 30
0.0
 10
10.8263252287
 20
7.9303001198
 30
0.0
 10
10.8233525461
 20
7.9265935783
 30
0.0
 10
10.8204321081
 20
7.9232778026
 30
0.0
 10
10.817565686
 20
7.9203463803
 30
0.0
 10
10.8147552517
 20
7.9177947333
 30
0.0
 10
10.8120034582
 20
7.9156196695
 30
0.0
 10
10.8093130589
 20
7.9138197645
 30
0.0
 10
10.8066871898
 20
7.912394914
 30
0.0
 10
10.8041297136
 20
7.9113471722
 30
0.0
 10
10.8020247485
 20
7.9107827371
 30
0.0
 10
10.8003914975
 20
7.9105353532
 30
0.0
 10
10.7992077968
 20
7.9104497598
 30
0.0
 10
10.798046887
 20
7.910461862
 30
0.0
 10
10.7969098238
 20
7.9105724098
 30
0.0
 10
10.7957978694
 20
7.9107823446
 30
0.0
 10
10.7947123347
 20
7.9110925473
 30
0.0
 10
10.7936546891
 20
7.9115037246
 30
0.0
 10
10.7929749425
 20
7.9118428153
 30
0.0
 10
10.7926414045
 20
7.912028251
 30
0.0
  0
SPLINE
  5
351
100
AcDbEntity
  8
0
100
AcDbSpline
 62
7
  6
CONTINUOUS
 70
0
 71
3
 72
17
 73
13
 74
0
 42
0.0000001
 43
0.0000001
 44
0.0000000001
 40
0.0
 40
0.0
 40
0.0
 40
0.0
 40
0.1480422875
 40
0.2876804317
 40
0.4195875179
 40
0.4829226981
 40
0.5446666594
 40
0.6639004228
 40
0.7785642458
 40
0.8900649301
 40
0.9451344636
 40
1.0
 40
1.0
 40
1.0
 40
1.0
 10
8.5117256188
 20
10.0880312845
 30
0.0
 10
8.5107827494
 20
10.0871205425
 30
0.0
 10
8.5090058138
 20
10.0852919128
 30
0.0
 10
8.5066165926
 20
10.0824420815
 30
0.0
 10
8.5049028381
 20
10.0800169543
 30
0.0
 10
8.5037226325
 20
10.078070393
 30
0.0
 10
8.5026919209
 20
10.0761675684
 30
0.0
 10
8.5016208181
 20
10.0737729351
 30
0.0
 10
8.5006893055
 20
10.0708528963
 30
0.0
 10
8.5002204396
 20
10.0684000883
 30
0.0
 10
8.5000349799
 20
10.0664470588
 30
0.0
 10
8.50000414
 20
10.0654732857
 30
0.0
 10
8.500004143
 20
10.0649874574
 30
0.0
  0
SPLINE
  5
352
100
AcDbEntity
  8
0
100
AcDbSpline
 62
7
  6
CONTINUOUS
 70
0
 71
3
 72
17
 73
13
 74
0
 42
0.0000001
 43
0.0000001
 44
0.0000000001
 40
0.0
 40
0.0
 40
0.0
 40
0.0
 40
0.1480422875
 40
0.2876804317
 40
0.4195875179
 40
0.4829226981
 40
0.5446666594
 40
0.6639004228
 40
0.7785642458
 40
0.8900649301
 40
0.9451344636
 40
1.0
 40
1.0
 40
1.0
 40
1.0
 10
13.9236974073
 20
10.3155949159
 30
0.0
 10
13.9227545378
 20
10.3146841739
 30
0.0
 10
13.9209776023
 20
10.3128555442
 30
0.0
 10
13.9185883811
 20
10.3100057129
 30
0.0
 10
13.9168746266
 20
10.3075805857
 30
0.0
 10
13.915694421
 20
10.3056340244
 30
0.0
 10
13.9146637094
 20
10.3037311998
 30
0.0
 10
13.9135926066
 20
10.3013365665
 30
0.0
 10
13.912661094
 20
10.2984165277
 30
0.0
 10
13.9121922281
 20
10.2959637197
 30
0.0
 10
13.9120067684
 20
10.2940106902
 30
0.0
 10
13.9119759285
 20
10.2930369171
 30
0.0
 10
13.9119759315
 20
10.2925510888
 30
0.0
  0
SPLINE
  5
353
100
AcDbEntity
  8
0
100
AcDbSpline
 62
7
  6
CONTINUOUS
 70
0
 71
3
 72
69
 73
65
 74
0
 42
0.0000001
 43
0.0000001
 44
0.0000000001
 40
0.0
 40
0.0
 40
0.0
 40
0.0
 40
0.0028080351
 40
0.0056357608
 40
0.0085024195
 40
0.0114263911
 40
0.0144249168
 40
0.0175138431
 40
0.0240151245
 40
0.0274549159
 40
0.0310331529
 40
0.0347582517
 40
0.0386374427
 40
0.0426767532
 40
0.0468812313
 40
0.0512551087
 40
0.0558017563
 40
0.0654223533
 40
0.0757587472
 40
0.0868172233
 40
0.0985976146
 40
0.1110945367
 40
0.1242980056
 40
0.1381943956
 40
0.152766769
 40
0.1679952759
 40
0.1838576633
 40
0.2003292767
 40
0.2173835005
 40
0.234991891
 40
0.2531242363
 40
0.2717489153
 40
0.2908328382
 40
0.3103416747
 40
0.3302400092
 40
0.3710573659
 40
0.4129837723
 40
0.4557059352
 40
0.4989026758
 40
0.54224818
 40
0.5854151847
 40
0.6280781574
 40
0.669916513
 40
0.710617844
 40
0.7304480143
 40
0.749882195
 40
0.7688850915
 40
0.7874226567
 40
0.8054620269
 40
0.8229718037
 40
0.8399221597
 40
0.8562848744
 40
0.8720337387
 40
0.8871445231
 40
0.901595315
 40
0.9153668771
 40
0.9284427493
 40
0.9408099438
 40
0.9524593352
 40
0.9633863249
 40
0.9735917958
 40
0.9830834311
 40
0.991877791
 40
1.0
 40
1.0
 40
1.0
 40
1.0
 10
9.1880041024
 20
10.0649879265
 30
0.0
 10
9.1880040983
 20
10.0656562037
 30
0.0
 10
9.1879455852
 20
10.0669981675
 30
0.0
 10
9.1876826037
 20
10.0690068555
 30
0.0
 10
9.1872446299
 20
10.0710130829
 30
0.0
 10
9.1866321798
 20
10.0730154358
 30
0.0
 10
9.1858456851
 20
10.0750129236
 30
0.0
 10
9.1845439367
 20
10.0777137628
 30
0.0
 10
9.182904458
 20
10.0803581874
 30
0.0
 10
9.1809736664
 20
10.0829331431
 30
0.0
 10
9.1793278156
 20
10.0848914834
 30
0.0
 10
9.17751269
 20
10.0868391264
 30
0.0
 10
9.175529023
 20
10.0887753659
 30
0.0
 10
9.1733779133
 20
10.0906992859
 30
0.0
 10
9.1710604376
 20
10.0926100085
 30
0.0
 10
9.1685777049
 20
10.0945066012
 30
0.0
 10
9.1649806519
 20
10.0970636044
 30
0.0
 10
9.160066317
 20
10.1002101665
 30
0.0
 10
9.1536393765
 20
10.1038464221
 30
0.0
 10
9.1465882338
 20
10.1074043568
 30
0.0
 10
9.1389268834
 20
10.1108769545
 30
0.0
 10
9.1306702876
 20
10.1142572705
 30
0.0
 10
9.1218348571
 20
10.1175385949
 30
0.0
 10
9.1124381783
 20
10.1207142439
 30
0.0
 10
9.1024990574
 20
10.1237777739
 30
0.0
 10
9.092037447
 20
10.126723006
 30
0.0
 10
9.0810743756
 20
10.129543873
 30
0.0
 10
9.0696319333
 20
10.1322346868
 30
0.0
 10
9.0577331923
 20
10.1347899518
 30
0.0
 10
9.0454021629
 20
10.13720443
 30
0.0
 10
9.0326637523
 20
10.1394732624
 30
0.0
 10
9.0195436936
 20
10.1415917753
 30
0.0
 10
9.0060685116
 20
10.1435556732
 30
0.0
 10
8.9922654282
 20
10.1453610028
 30
0.0
 10
8.973300726
 20
10.1475703053
 30
0.0
 10
8.9489814177
 20
10.1498999245
 30
0.0
 10
8.9191924591
 20
10.151991231
 30
0.0
 10
8.8887958423
 20
10.1533840586
 30
0.0
 10
8.8580373159
 20
10.1540670026
 30
0.0
 10
8.827165374
 20
10.1540344337
 30
0.0
 10
8.7964295204
 20
10.1532866155
 30
0.0
 10
8.7660780621
 20
10.1518297028
 30
0.0
 10
8.7363563763
 20
10.1496756443
 30
0.0
 10
8.7121071381
 20
10.1472944272
 30
0.0
 10
8.6932092279
 20
10.145044621
 30
0.0
 10
8.6794637199
 20
10.1432101866
 30
0.0
 10
8.6660511217
 20
10.1412178405
 30
0.0
 10
8.6529985239
 20
10.1390716687
 30
0.0
 10
8.6403323155
 20
10.1367759996
 30
0.0
 10
8.6280780825
 20
10.1343355208
 30
0.0
 10
8.6162605685
 20
10.131755234
 30
0.0
 10
8.6049036266
 20
10.1290403326
 30
0.0
 10
8.5940301465
 20
10.1261964105
 30
0.0
 10
8.5836620272
 20
10.1232292296
 30
0.0
 10
8.5738201169
 20
10.1201448089
 30
0.0
 10
8.5645241453
 20
10.11694948
 30
0.0
 10
8.5557927207
 20
10.1136496445
 30
0.0
 10
8.5476432114
 20
10.1102520205
 30
0.0
 10
8.5400917399
 20
10.1067634228
 30
0.0
 10
8.5331531714
 20
10.1031906775
 30
0.0
 10
8.5268409713
 20
10.0995409113
 30
0.0
 10
8.5211669974
 20
10.09582068
 30
0.0
 10
8.516142744
 20
10.0920371579
 30
0.0
 10
8.5131159265
 20
10.0893742187
 30
0.0
 10
8.5117256188
 20
10.0880312845
 30
0.0
  0
SPLINE
  5
354
100
AcDbEntity
  8
0
100
AcDbSpline
 62
7
  6
CONTINUOUS
 70
0
 71
3
 72
21
 73
17
 74
0
 42
0.0000001
 43
0.0000001
 44
0.0000000001
 40
0.0
 40
0.0
 40
0.0
 40
0.0
 40
0.0616937022
 40
0.1234661087
 40
0.185324939
 40
0.2472775196
 40
0.3093307411
 40
0.3714910604
 40
0.4337644432
 40
0.496156366
 40
0.5586716995
 40
0.6213149026
 40
0.6840899911
 40
0.7469999235
 40
0.8732172687
 40
1.0
 40
1.0
 40
1.0
 40
1.0
 10
11.0136201625
 20
8.2617399009
 30
0.0
 10
11.0093208222
 20
8.2544800543
 30
0.0
 10
11.0009654612
 20
8.2398020975
 30
0.0
 10
10.989186373
 20
8.2173546501
 30
0.0
 10
10.978165158
 20
8.194485925
 30
0.0
 10
10.9679137437
 20
8.1712200642
 30
0.0
 10
10.9584425312
 20
8.1475814064
 30
0.0
 10
10.9497616962
 20
8.1235945773
 30
0.0
 10
10.9418800245
 20
8.0992847377
 30
0.0
 10
10.9348059981
 20
8.074677228
 30
0.0
 10
10.9285467785
 20
8.0497978104
 30
0.0
 10
10.9231090476
 20
8.0246724987
 30
0.0
 10
10.9184984093
 20
7.9993272839
 30
0.0
 10
10.9134549626
 20
7.9652421967
 30
0.0
 10
10.9092463246
 20
7.9222105268
 30
0.0
 10
10.9081299391
 20
7.8875995548
 30
0.0
 10
10.9081299391
 20
7.8702604027
 30
0.0
  0
SPLINE
  5
355
100
AcDbEntity
  8
0
100
AcDbSpline
 62
7
  6
CONTINUOUS
 70
0
 71
3
 72
69
 73
65
 74
0
 42
0.0000001
 43
0.0000001
 44
0.0000000001
 40
0.0
 40
0.0
 40
0.0
 40
0.0
 40
0.0028080351
 40
0.0056357608
 40
0.0085024195
 40
0.0114263911
 40
0.0144249168
 40
0.0175138431
 40
0.0240151245
 40
0.0274549159
 40
0.0310331529
 40
0.0347582517
 40
0.0386374427
 40
0.0426767532
 40
0.0468812313
 40
0.0512551087
 40
0.0558017563
 40
0.0654223533
 40
0.0757587472
 40
0.0868172233
 40
0.0985976146
 40
0.1110945367
 40
0.1242980056
 40
0.1381943956
 40
0.152766769
 40
0.1679952759
 40
0.1838576633
 40
0.2003292767
 40
0.2173835005
 40
0.234991891
 40
0.2531242363
 40
0.2717489153
 40
0.2908328382
 40
0.3103416747
 40
0.3302400092
 40
0.3710573659
 40
0.4129837723
 40
0.4557059352
 40
0.4989026758
 40
0.54224818
 40
0.5854151847
 40
0.6280781574
 40
0.669916513
 40
0.710617844
 40
0.7304480143
 40
0.749882195
 40
0.7688850915
 40
0.7874226567
 40
0.8054620269
 40
0.8229718037
 40
0.8399221597
 40
0.8562848744
 40
0.8720337387
 40
0.8871445231
 40
0.901595315
 40
0.9153668771
 40
0.9284427493
 40
0.9408099438
 40
0.9524593352
 40
0.9633863249
 40
0.9735917958
 40
0.9830834311
 40
0.991877791
 40
1.0
 40
1.0
 40
1.0
 40
1.0
 10
14.01763352
 20
9.7300519888
 30
0.0
 10
14.017633516
 20
9.730720266
 30
0.0
 10
14.0175750028
 20
9.7320622298
 30
0.0
 10
14.0173120214
 20
9.7340709178
 30
0.0
 10
14.0168740475
 20
9.7360771452
 30
0.0
 10
14.0162615974
 20
9.7380794981
 30
0.0
 10
14.0154751027
 20
9.7400769859
 30
0.0
 10
14.0141733543
 20
9.7427778251
 30
0.0
 10
14.0125338756
 20
9.7454222497
 30
0.0
 10
14.010603084
 20
9.7479972054
 30
0.0
 10
14.0089572332
 20
9.7499555457
 30
0.0
 10
14.0071421077
 20
9.7519031887
 30
0.0
 10
14.0051584406
 20
9.7538394282
 30
0.0
 10
14.0030073309
 20
9.7557633482
 30
0.0
 10
14.0006898552
 20
9.7576740708
 30
0.0
 10
13.9982071225
 20
9.7595706635
 30
0.0
 10
13.9946100695
 20
9.7621276667
 30
0.0
 10
13.9896957346
 20
9.7652742288
 30
0.0
 10
13.9832687941
 20
9.7689104844
 30
0.0
 10
13.9762176514
 20
9.7724684191
 30
0.0
 10
13.968556301
 20
9.7759410168
 30
0.0
 10
13.9602997052
 20
9.7793213328
 30
0.0
 10
13.9514642747
 20
9.7826026572
 30
0.0
 10
13.9420675959
 20
9.7857783062
 30
0.0
 10
13.932128475
 20
9.7888418362
 30
0.0
 10
13.9216668646
 20
9.7917870683
 30
0.0
 10
13.9107037933
 20
9.7946079353
 30
0.0
 10
13.8992613509
 20
9.7972987491
 30
0.0
 10
13.8873626099
 20
9.7998540141
 30
0.0
 10
13.8750315805
 20
9.8022684923
 30
0.0
 10
13.8622931699
 20
9.8045373247
 30
0.0
 10
13.8491731112
 20
9.8066558376
 30
0.0
 10
13.8356979292
 20
9.8086197354
 30
0.0
 10
13.8218948458
 20
9.8104250651
 30
0.0
 10
13.8029301436
 20
9.8126343676
 30
0.0
 10
13.7786108353
 20
9.8149639868
 30
0.0
 10
13.7488218767
 20
9.8170552932
 30
0.0
 10
13.71842526
 20
9.8184481208
 30
0.0
 10
13.6876667335
 20
9.8191310649
 30
0.0
 10
13.6567947917
 20
9.819098496
 30
0.0
 10
13.626058938
 20
9.8183506778
 30
0.0
 10
13.5957074797
 20
9.816893765
 30
0.0
 10
13.5659857939
 20
9.8147397066
 30
0.0
 10
13.5417365557
 20
9.8123584895
 30
0.0
 10
13.5228386455
 20
9.8101086833
 30
0.0
 10
13.5090931375
 20
9.8082742489
 30
0.0
 10
13.4956805393
 20
9.8062819028
 30
0.0
 10
13.4826279416
 20
9.804135731
 30
0.0
 10
13.4699617331
 20
9.8018400619
 30
0.0
 10
13.4577075001
 20
9.7993995831
 30
0.0
 10
13.4458899861
 20
9.7968192963
 30
0.0
 10
13.4345330442
 20
9.7941043949
 30
0.0
 10
13.4236595641
 20
9.7912604728
 30
0.0
 10
13.4132914448
 20
9.7882932919
 30
0.0
 10
13.4034495345
 20
9.7852088712
 30
0.0
 10
13.3941535629
 20
9.7820135423
 30
0.0
 10
13.3854221383
 20
9.7787137068
 30
0.0
 10
13.377272629
 20
9.7753160828
 30
0.0
 10
13.3697211575
 20
9.7718274851
 30
0.0
 10
13.3627825891
 20
9.7682547398
 30
0.0
 10
13.3564703889
 20
9.7646049736
 30
0.0
 10
13.350796415
 20
9.7608847423
 30
0.0
 10
13.3457721616
 20
9.7571012202
 30
0.0
 10
13.3427453441
 20
9.754438281
 30
0.0
 10
13.3413550364
 20
9.7530953468
 30
0.0
  0
SPLINE
  5
356
100
AcDbEntity
  8
0
100
AcDbSpline
 62
7
  6
CONTINUOUS
 70
0
 71
3
 72
69
 73
65
 74
0
 42
0.0000001
 43
0.0000001
 44
0.0000000001
 40
0.0
 40
0.0
 40
0.0
 40
0.0
 40
0.0028080351
 40
0.0056357608
 40
0.0085024195
 40
0.0114263911
 40
0.0144249168
 40
0.0175138431
 40
0.0240151245
 40
0.0274549159
 40
0.0310331529
 40
0.0347582517
 40
0.0386374427
 40
0.0426767532
 40
0.0468812313
 40
0.0512551087
 40
0.0558017563
 40
0.0654223533
 40
0.0757587472
 40
0.0868172233
 40
0.0985976146
 40
0.1110945367
 40
0.1242980056
 40
0.1381943956
 40
0.152766769
 40
0.1679952759
 40
0.1838576633
 40
0.2003292767
 40
0.2173835005
 40
0.234991891
 40
0.2531242363
 40
0.2717489153
 40
0.2908328382
 40
0.3103416747
 40
0.3302400092
 40
0.3710573659
 40
0.4129837723
 40
0.4557059352
 40
0.4989026758
 40
0.54224818
 40
0.5854151847
 40
0.6280781574
 40
0.669916513
 40
0.710617844
 40
0.7304480143
 40
0.749882195
 40
0.7688850915
 40
0.7874226567
 40
0.8054620269
 40
0.8229718037
 40
0.8399221597
 40
0.8562848744
 40
0.8720337387
 40
0.8871445231
 40
0.901595315
 40
0.9153668771
 40
0.9284427493
 40
0.9408099438
 40
0.9524593352
 40
0.9633863249
 40
0.9735917958
 40
0.9830834311
 40
0.991877791
 40
1.0
 40
1.0
 40
1.0
 40
1.0
 10
14.5999758909
 20
10.2925515579
 30
0.0
 10
14.5999758868
 20
10.2932198351
 30
0.0
 10
14.5999173737
 20
10.2945617989
 30
0.0
 10
14.5996543922
 20
10.2965704869
 30
0.0
 10
14.5992164184
 20
10.2985767143
 30
0.0
 10
14.5986039683
 20
10.3005790672
 30
0.0
 10
14.5978174736
 20
10.302576555
 30
0.0
 10
14.5965157252
 20
10.3052773942
 30
0.0
 10
14.5948762465
 20
10.3079218188
 30
0.0
 10
14.5929454549
 20
10.3104967745
 30
0.0
 10
14.5912996041
 20
10.3124551148
 30
0.0
 10
14.5894844785
 20
10.3144027578
 30
0.0
 10
14.5875008115
 20
10.3163389973
 30
0.0
 10
14.5853497018
 20
10.3182629173
 30
0.0
 10
14.5830322261
 20
10.3201736399
 30
0.0
 10
14.5805494934
 20
10.3220702326
 30
0.0
 10
14.5769524404
 20
10.3246272358
 30
0.0
 10
14.5720381055
 20
10.3277737979
 30
0.0
 10
14.565611165
 20
10.3314100535
 30
0.0
 10
14.5585600223
 20
10.3349679882
 30
0.0
 10
14.5508986719
 20
10.3384405859
 30
0.0
 10
14.5426420761
 20
10.3418209019
 30
0.0
 10
14.5338066456
 20
10.3451022263
 30
0.0
 10
14.5244099668
 20
10.3482778753
 30
0.0
 10
14.5144708459
 20
10.3513414053
 30
0.0
 10
14.5040092355
 20
10.3542866375
 30
0.0
 10
14.4930461641
 20
10.3571075044
 30
0.0
 10
14.4816037218
 20
10.3597983182
 30
0.0
 10
14.4697049808
 20
10.3623535832
 30
0.0
 10
14.4573739514
 20
10.3647680614
 30
0.0
 10
14.4446355408
 20
10.3670368938
 30
0.0
 10
14.431515482
 20
10.3691554067
 30
0.0
 10
14.4180403001
 20
10.3711193046
 30
0.0
 10
14.4042372167
 20
10.3729246342
 30
0.0
 10
14.3852725145
 20
10.3751339367
 30
0.0
 10
14.3609532062
 20
10.3774635559
 30
0.0
 10
14.3311642476
 20
10.3795548624
 30
0.0
 10
14.3007676308
 20
10.38094769
 30
0.0
 10
14.2700091044
 20
10.381630634
 30
0.0
 10
14.2391371625
 20
10.3815980651
 30
0.0
 10
14.2084013089
 20
10.3808502469
 30
0.0
 10
14.1780498506
 20
10.3793933342
 30
0.0
 10
14.1483281648
 20
10.3772392757
 30
0.0
 10
14.1240789266
 20
10.3748580586
 30
0.0
 10
14.1051810164
 20
10.3726082524
 30
0.0
 10
14.0914355084
 20
10.370773818
 30
0.0
 10
14.0780229102
 20
10.3687814719
 30
0.0
 10
14.0649703124
 20
10.3666353001
 30
0.0
 10
14.052304104
 20
10.364339631
 30
0.0
 10
14.040049871
 20
10.3618991523
 30
0.0
 10
14.028232357
 20
10.3593188654
 30
0.0
 10
14.0168754151
 20
10.356603964
 30
0.0
 10
14.006001935
 20
10.3537600419
 30
0.0
 10
13.9956338157
 20
10.350792861
 30
0.0
 10
13.9857919054
 20
10.3477084403
 30
0.0
 10
13.9764959338
 20
10.3445131114
 30
0.0
 10
13.9677645092
 20
10.3412132759
 30
0.0
 10
13.9596149999
 20
10.3378156519
 30
0.0
 10
13.9520635284
 20
10.3343270542
 30
0.0
 10
13.9451249599
 20
10.3307543089
 30
0.0
 10
13.9388127598
 20
10.3271045427
 30
0.0
 10
13.9331387859
 20
10.3233843115
 30
0.0
 10
13.9281145325
 20
10.3196007893
 30
0.0
 10
13.925087715
 20
10.3169378501
 30
0.0
 10
13.9236974073
 20
10.3155949159
 30
0.0
  0
SPLINE
  5
357
100
AcDbEntity
  8
0
100
AcDbSpline
 62
7
  6
CONTINUOUS
 70
0
 71
3
 72
74
 73
70
 74
0
 42
0.0000001
 43
0.0000001
 44
0.0000000001
 40
0.0
 40
0.0
 40
0.0
 40
0.0
 40
0.0155842017
 40
0.0233573096
 40
0.0311170165
 40
0.0465962826
 40
0.0620248586
 40
0.069721224
 40
0.0774055997
 40
0.0927383803
 40
0.1080271671
 40
0.1232751642
 40
0.1384859928
 40
0.15366366
 40
0.1688125201
 40
0.18393723
 40
0.1990427023
 40
0.2141340535
 40
0.2292165507
 40
0.2442955554
 40
0.2593764667
 40
0.2744646634
 40
0.2895654466
 40
0.304683983
 40
0.3198252504
 40
0.3349939861
 40
0.3501946373
 40
0.3654313172
 40
0.3807077645
 40
0.3960273075
 40
0.4113928333
 40
0.4268067624
 40
0.4422710285
 40
0.4577870638
 40
0.4733557903
 40
0.4889776157
 40
0.5046524353
 40
0.5203796378
 40
0.5361581156
 40
0.5519862808
 40
0.5678620833
 40
0.5837830346
 40
0.5997462349
 40
0.6157484019
 40
0.6317859034
 40
0.6478547919
 40
0.6639508414
 40
0.6800695859
 40
0.6962063601
 40
0.7123563411
 40
0.7285145913
 40
0.7446761006
 40
0.760835831
 40
0.7769887592
 40
0.7931299214
 40
0.8092544561
 40
0.8253576478
 40
0.8414349682
 40
0.8574821168
 40
0.8654936487
 40
0.8734961496
 40
0.8894711592
 40
0.9054048453
 40
0.9212941955
 40
0.9371365829
 40
0.9529298811
 40
0.968672202
 40
0.9843626764
 40
1.0
 40
1.0
 40
1.0
 40
1.0
 10
7.7981406158
 20
7.7172411196
 30
0.0
 10
7.7981406158
 20
7.7319762204
 30
0.0
 10
7.7986820117
 20
7.7540660511
 30
0.0
 10
7.8004933809
 20
7.7834340125
 30
0.0
 10
7.8030237627
 20
7.8126497766
 30
0.0
 10
7.8075361247
 20
7.8489471793
 30
0.0
 10
7.8138501156
 20
7.884914418
 30
0.0
 10
7.819969389
 20
7.9133979279
 30
0.0
 10
7.8267856163
 20
7.9416294812
 30
0.0
 10
7.836622728
 20
7.9765044967
 30
0.0
 10
7.8505168715
 20
8.0176086093
 30
0.0
 10
7.8664590396
 20
8.0578393171
 30
0.0
 10
7.8844107384
 20
8.097098923
 30
0.0
 10
7.9043287931
 20
8.1352929177
 30
0.0
 10
7.9261652305
 20
8.1723291226
 30
0.0
 10
7.9498674526
 20
8.2081182045
 30
0.0
 10
7.9753783461
 20
8.2425738154
 30
0.0
 10
8.002636423
 20
8.2756128251
 30
0.0
 10
8.0315759709
 20
8.3071555156
 30
0.0
 10
8.0621271917
 20
8.3371257978
 30
0.0
 10
8.0942163882
 20
8.3654513872
 30
0.0
 10
8.1277661493
 20
8.3920639745
 30
0.0
 10
8.1626955377
 20
8.4168993927
 30
0.0
 10
8.1989202874
 20
8.4398977721
 30
0.0
 10
8.2363530092
 20
8.4610036859
 30
0.0
 10
8.2749034057
 20
8.4801662793
 30
0.0
 10
8.3144784802
 20
8.4973394145
 30
0.0
 10
8.354982773
 20
8.5124817721
 30
0.0
 10
8.396318599
 20
8.5255569365
 30
0.0
 10
8.4383862837
 20
8.5365334846
 30
0.0
 10
8.4810844047
 20
8.5453850572
 30
0.0
 10
8.524310036
 20
8.5520904215
 30
0.0
 10
8.5679589968
 20
8.5566335145
 30
0.0
 10
8.6119260997
 20
8.5590035008
 30
0.0
 10
8.6561054081
 20
8.5591947924
 30
0.0
 10
8.7003904927
 20
8.5572070421
 30
0.0
 10
8.744674686
 20
8.553045146
 30
0.0
 10
8.7888513371
 20
8.5467192278
 30
0.0
 10
8.8328140667
 20
8.5382446149
 30
0.0
 10
8.8764570196
 20
8.5276417953
 30
0.0
 10
8.9196751217
 20
8.5149363849
 30
0.0
 10
8.9623643354
 20
8.5001590667
 30
0.0
 10
9.0044219033
 20
8.4833454961
 30
0.0
 10
9.0457465947
 20
8.4645362187
 30
0.0
 10
9.0862389464
 20
8.4437765711
 30
0.0
 10
9.1258015001
 20
8.4211165737
 30
0.0
 10
9.1643390332
 20
8.3966108078
 30
0.0
 10
9.2017587924
 20
8.3703182958
 30
0.0
 10
9.2379707248
 20
8.3423023661
 30
0.0
 10
9.27288768
 20
8.3126304815
 30
0.0
 10
9.3064256209
 20
8.2813740804
 30
0.0
 10
9.3385038232
 20
8.2486084062
 30
0.0
 10
9.3690450692
 20
8.2144123263
 30
0.0
 10
9.3979758286
 20
8.1788681478
 30
0.0
 10
9.4252264481
 20
8.1420614076
 30
0.0
 10
9.4507313047
 20
8.1040807424
 30
0.0
 10
9.474429052
 20
8.0650174135
 30
0.0
 10
9.4962623619
 20
8.0249660063
 30
0.0
 10
9.5128689347
 20
7.9908267201
 30
0.0
 10
9.5251701751
 20
7.963117829
 30
0.0
 10
9.536795675
 20
7.9351925936
 30
0.0
 10
9.5500747137
 20
7.8998534583
 30
0.0
 10
9.5639716846
 20
7.8568321868
 30
0.0
 10
9.5757887376
 20
7.8133230423
 30
0.0
 10
9.5854971678
 20
7.7694312737
 30
0.0
 10
9.5930734576
 20
7.7252626001
 30
0.0
 10
9.598499486
 20
7.6809228005
 30
0.0
 10
9.6017617687
 20
7.6365203216
 30
0.0
 10
9.6024902565
 20
7.6068943753
 30
0.0
 10
9.6024902565
 20
7.5921090471
 30
0.0
  0
SPLINE
  5
358
100
AcDbEntity
  8
0
100
AcDbSpline
 62
7
  6
CONTINUOUS
 70
0
 71
3
 72
45
 73
41
 74
0
 42
0.0000001
 43
0.0000001
 44
0.0000000001
 40
0.0
 40
0.0
 40
0.0
 40
0.0
 40
0.0149772493
 40
0.0299741479
 40
0.0449926665
 40
0.0600346697
 40
0.0751019106
 40
0.0901960254
 40
0.1053185184
 40
0.120470768
 40
0.1356540063
 40
0.1508693292
 40
0.1661176796
 40
0.1813998521
 40
0.2120637522
 40
0.2428686608
 40
0.2738153253
 40
0.3049020089
 40
0.3361245533
 40
0.3674764819
 40
0.3989491371
 40
0.4305318505
 40
0.4622121397
 40
0.4939759292
 40
0.5258077917
 40
0.5576912055
 40
0.5896088248
 40
0.621542759
 40
0.6534748585
 40
0.6853870024
 40
0.7172613873
 40
0.7490808112
 40
0.7808289519
 40
0.8124906348
 40
0.8440520864
 40
0.8755011789
 40
0.9068276098
 40
0.9380232409
 40
0.9690817794
 40
1.0
 40
1.0
 40
1.0
 40
1.0
 10
12.1376000943
 20
7.0982236236
 30
0.0
 10
12.1300028513
 20
7.0940720475
 30
0.0
 10
12.1146506104
 20
7.0860306836
 30
0.0
 10
12.0911974011
 20
7.0747779238
 30
0.0
 10
12.0673297798
 20
7.0643386086
 30
0.0
 10
12.0430743259
 20
7.0547245691
 30
0.0
 10
12.018457715
 20
7.0459461087
 30
0.0
 10
11.9935069774
 20
7.0380131463
 30
0.0
 10
11.9682496458
 20
7.0309341291
 30
0.0
 10
11.9427134566
 20
7.0247170729
 30
0.0
 10
11.9169265271
 20
7.0193686271
 30
0.0
 10
11.8909173116
 20
7.0148947569
 30
0.0
 10
11.8647140481
 20
7.0113003676
 30
0.0
 10
11.8295206826
 20
7.0076818181
 30
0.0
 10
11.7851780367
 20
7.0053817672
 30
0.0
 10
11.7317250062
 20
7.0061841205
 30
0.0
 10
11.6781978639
 20
7.0105410109
 30
0.0
 10
11.6248335685
 20
7.0184330549
 30
0.0
 10
11.5718662378
 20
7.0298251114
 30
0.0
 10
11.5195287347
 20
7.0446667623
 30
0.0
 10
11.4680509534
 20
7.0628924576
 30
0.0
 10
11.4176590105
 20
7.0844218323
 30
0.0
 10
11.3685742131
 20
7.1091600565
 30
0.0
 10
11.3210121125
 20
7.1369982565
 30
0.0
 10
11.2751815557
 20
7.1678139783
 30
0.0
 10
11.2312837824
 20
7.2014717345
 30
0.0
 10
11.1895115524
 20
7.2378236009
 30
0.0
 10
11.1500483068
 20
7.2767098604
 30
0.0
 10
11.11306737
 20
7.3179596997
 30
0.0
 10
11.0787311955
 20
7.361391953
 30
0.0
 10
11.0471906575
 20
7.4068158906
 30
0.0
 10
11.018584395
 20
7.4540320502
 30
0.0
 10
10.9930381979
 20
7.502833097
 30
0.0
 10
10.9706644547
 20
7.5530047335
 30
0.0
 10
10.9515616612
 20
7.6043266116
 30
0.0
 10
10.9358140204
 20
7.6565733781
 30
0.0
 10
10.9234909711
 20
7.7095153337
 30
0.0
 10
10.9146471224
 20
7.7629206178
 30
0.0
 10
10.9093215294
 20
7.8165515415
 30
0.0
 10
10.9081299391
 20
7.8523881652
 30
0.0
 10
10.9081299391
 20
7.8702604027
 30
0.0
  0
SPLINE
  5
359
100
AcDbEntity
  8
0
100
AcDbSpline
 62
7
  6
CONTINUOUS
 70
0
 71
3
 72
69
 73
65
 74
0
 42
0.0000001
 43
0.0000001
 44
0.0000000001
 40
0.0
 40
0.0
 40
0.0
 40
0.0
 40
0.0028080351
 40
0.0056357608
 40
0.0085024195
 40
0.0114263911
 40
0.0144249168
 40
0.0175138431
 40
0.0240151245
 40
0.0274549159
 40
0.0310331529
 40
0.0347582517
 40
0.0386374427
 40
0.0426767532
 40
0.0468812313
 40
0.0512551087
 40
0.0558017563
 40
0.0654223533
 40
0.0757587472
 40
0.0868172233
 40
0.0985976146
 40
0.1110945367
 40
0.1242980056
 40
0.1381943956
 40
0.152766769
 40
0.1679952759
 40
0.1838576633
 40
0.2003292767
 40
0.2173835005
 40
0.234991891
 40
0.2531242363
 40
0.2717489153
 40
0.2908328382
 40
0.3103416747
 40
0.3302400092
 40
0.3710573659
 40
0.4129837723
 40
0.4557059352
 40
0.4989026758
 40
0.54224818
 40
0.5854151847
 40
0.6280781574
 40
0.669916513
 40
0.710617844
 40
0.7304480143
 40
0.749882195
 40
0.7688850915
 40
0.7874226567
 40
0.8054620269
 40
0.8229718037
 40
0.8399221597
 40
0.8562848744
 40
0.8720337387
 40
0.8871445231
 40
0.901595315
 40
0.9153668771
 40
0.9284427493
 40
0.9408099438
 40
0.9524593352
 40
0.9633863249
 40
0.9735917958
 40
0.9830834311
 40
0.991877791
 40
1.0
 40
1.0
 40
1.0
 40
1.0
 10
9.7703464733
 20
10.6274874956
 30
0.0
 10
9.7703464692
 20
10.6281557728
 30
0.0
 10
9.770287956
 20
10.6294977366
 30
0.0
 10
9.7700249746
 20
10.6315064246
 30
0.0
 10
9.7695870008
 20
10.633512652
 30
0.0
 10
9.7689745507
 20
10.6355150049
 30
0.0
 10
9.7681880559
 20
10.6375124927
 30
0.0
 10
9.7668863076
 20
10.6402133319
 30
0.0
 10
9.7652468289
 20
10.6428577565
 30
0.0
 10
9.7633160372
 20
10.6454327122
 30
0.0
 10
9.7616701865
 20
10.6473910525
 30
0.0
 10
9.7598550609
 20
10.6493386955
 30
0.0
 10
9.7578713939
 20
10.651274935
 30
0.0
 10
9.7557202842
 20
10.653198855
 30
0.0
 10
9.7534028085
 20
10.6551095776
 30
0.0
 10
9.7509200758
 20
10.6570061703
 30
0.0
 10
9.7473230228
 20
10.6595631736
 30
0.0
 10
9.7424086879
 20
10.6627097356
 30
0.0
 10
9.7359817474
 20
10.6663459912
 30
0.0
 10
9.7289306047
 20
10.6699039259
 30
0.0
 10
9.7212692543
 20
10.6733765236
 30
0.0
 10
9.7130126584
 20
10.6767568397
 30
0.0
 10
9.704177228
 20
10.680038164
 30
0.0
 10
9.6947805492
 20
10.683213813
 30
0.0
 10
9.6848414282
 20
10.6862773431
 30
0.0
 10
9.6743798179
 20
10.6892225752
 30
0.0
 10
9.6634167465
 20
10.6920434422
 30
0.0
 10
9.6519743042
 20
10.6947342559
 30
0.0
 10
9.6400755632
 20
10.6972895209
 30
0.0
 10
9.6277445338
 20
10.6997039991
 30
0.0
 10
9.6150061232
 20
10.7019728315
 30
0.0
 10
9.6018860644
 20
10.7040913444
 30
0.0
 10
9.5884108825
 20
10.7060552423
 30
0.0
 10
9.5746077991
 20
10.7078605719
 30
0.0
 10
9.5556430969
 20
10.7100698744
 30
0.0
 10
9.5313237885
 20
10.7123994936
 30
0.0
 10
9.50153483
 20
10.7144908001
 30
0.0
 10
9.4711382132
 20
10.7158836277
 30
0.0
 10
9.4403796867
 20
10.7165665717
 30
0.0
 10
9.4095077449
 20
10.7165340028
 30
0.0
 10
9.3787718912
 20
10.7157861846
 30
0.0
 10
9.348420433
 20
10.7143292719
 30
0.0
 10
9.3186987472
 20
10.7121752134
 30
0.0
 10
9.294449509
 20
10.7097939963
 30
0.0
 10
9.2755515988
 20
10.7075441901
 30
0.0
 10
9.2618060908
 20
10.7057097557
 30
0.0
 10
9.2483934925
 20
10.7037174096
 30
0.0
 10
9.2353408948
 20
10.7015712378
 30
0.0
 10
9.2226746864
 20
10.6992755687
 30
0.0
 10
9.2104204533
 20
10.69683509
 30
0.0
 10
9.1986029394
 20
10.6942548031
 30
0.0
 10
9.1872459975
 20
10.6915399017
 30
0.0
 10
9.1763725174
 20
10.6886959796
 30
0.0
 10
9.1660043981
 20
10.6857287987
 30
0.0
 10
9.1561624878
 20
10.682644378
 30
0.0
 10
9.1468665162
 20
10.6794490491
 30
0.0
 10
9.1381350916
 20
10.6761492137
 30
0.0
 10
9.1299855823
 20
10.6727515896
 30
0.0
 10
9.1224341108
 20
10.6692629919
 30
0.0
 10
9.1154955423
 20
10.6656902466
 30
0.0
 10
9.1091833422
 20
10.6620404804
 30
0.0
 10
9.1035093683
 20
10.6583202492
 30
0.0
 10
9.0984851149
 20
10.654536727
 30
0.0
 10
9.0954582973
 20
10.6518737878
 30
0.0
 10
9.0940679897
 20
10.6505308536
 30
0.0
  0
SPLINE
  5
35A
100
AcDbEntity
  8
0
100
AcDbSpline
 62
7
  6
CONTINUOUS
 70
0
 71
3
 72
17
 73
13
 74
0
 42
0.0000001
 43
0.0000001
 44
0.0000000001
 40
0.0
 40
0.0
 40
0.0
 40
0.0
 40
0.1480422875
 40
0.2876804317
 40
0.4195875179
 40
0.4829226981
 40
0.5446666594
 40
0.6639004228
 40
0.7785642458
 40
0.8900649301
 40
0.9451344636
 40
1.0
 40
1.0
 40
1.0
 40
1.0
 10
13.3413550364
 20
9.7530953468
 30
0.0
 10
13.340412167
 20
9.7521846048
 30
0.0
 10
13.3386352314
 20
9.7503559751
 30
0.0
 10
13.3362460102
 20
9.7475061437
 30
0.0
 10
13.3345322557
 20
9.7450810166
 30
0.0
 10
13.3333520501
 20
9.7431344553
 30
0.0
 10
13.3323213385
 20
9.7412316307
 30
0.0
 10
13.3312502357
 20
9.7388369974
 30
0.0
 10
13.3303187232
 20
9.7359169586
 30
0.0
 10
13.3298498572
 20
9.7334641506
 30
0.0
 10
13.3296643975
 20
9.7315111211
 30
0.0
 10
13.3296335576
 20
9.730537348
 30
0.0
 10
13.3296335606
 20
9.7300515197
 30
0.0
  0
SPLINE
  5
35B
100
AcDbEntity
  8
0
100
AcDbSpline
 62
7
  6
CONTINUOUS
 70
0
 71
3
 72
17
 73
13
 74
0
 42
0.0000001
 43
0.0000001
 44
0.0000000001
 40
0.0
 40
0.0
 40
0.0
 40
0.0
 40
0.1480422875
 40
0.2876804317
 40
0.4195875179
 40
0.4829226981
 40
0.5446666594
 40
0.6639004228
 40
0.7785642458
 40
0.8900649301
 40
0.9451344636
 40
1.0
 40
1.0
 40
1.0
 40
1.0
 10
9.0940679897
 20
10.6505308536
 30
0.0
 10
9.0931251202
 20
10.6496201116
 30
0.0
 10
9.0913481846
 20
10.6477914819
 30
0.0
 10
9.0889589635
 20
10.6449416506
 30
0.0
 10
9.0872452089
 20
10.6425165234
 30
0.0
 10
9.0860650034
 20
10.6405699621
 30
0.0
 10
9.0850342918
 20
10.6386671375
 30
0.0
 10
9.083963189
 20
10.6362725042
 30
0.0
 10
9.0830316764
 20
10.6333524654
 30
0.0
 10
9.0825628105
 20
10.6308996574
 30
0.0
 10
9.0823773507
 20
10.6289466279
 30
0.0
 10
9.0823465109
 20
10.6279728548
 30
0.0
 10
9.0823465139
 20
10.6274870265
 30
0.0
  0
SPLINE
  5
35C
100
AcDbEntity
  8
0
100
AcDbSpline
 62
7
  6
CONTINUOUS
 70
0
 71
3
 72
95
 73
91
 74
0
 42
0.0000001
 43
0.0000001
 44
0.0000000001
 40
0.0
 40
0.0
 40
0.0
 40
0.0
 40
0.0026901166
 40
0.005399609
 40
0.0081474077
 40
0.0109515934
 40
0.0138290767
 40
0.0167953922
 40
0.0198645394
 40
0.0230490019
 40
0.026359724
 40
0.0298062299
 40
0.0333967233
 40
0.0371381738
 40
0.0410365067
 40
0.0450966328
 40
0.0493226372
 40
0.053717828
 40
0.0582848257
 40
0.0630256862
 40
0.0679418823
 40
0.0730344598
 40
0.0783040035
 40
0.0837507254
 40
0.0893745085
 40
0.0951748817
 40
0.1011511385
 40
0.1073022623
 40
0.1136270255
 40
0.1201239731
 40
0.1267914223
 40
0.1336275388
 40
0.1406302592
 40
0.1477973942
 40
0.162615023
 40
0.1780600377
 40
0.1941096197
 40
0.2107390148
 40
0.2279217187
 40
0.2456296345
 40
0.2638332118
 40
0.2825015731
 40
0.3016026261
 40
0.3211031779
 40
0.3409690428
 40
0.361165142
 40
0.3816556006
 40
0.4024038409
 40
0.4233726741
 40
0.4445243957
 40
0.4658208771
 40
0.4872236554
 40
0.5086940223
 40
0.5301931132
 40
0.5516819973
 40
0.5731217683
 40
0.5944736332
 40
0.6156990007
 40
0.6367595704
 40
0.6576174239
 40
0.6782351178
 40
0.698575774
 40
0.7186031709
 40
0.7382818371
 40
0.7575771468
 40
0.7764554227
 40
0.7948840402
 40
0.8128315312
 40
0.8302676967
 40
0.8471637284
 40
0.8634923426
 40
0.8792279347
 40
0.8943467469
 40
0.9088270585
 40
0.9158217505
 40
0.9226497208
 40
0.9293089396
 40
0.9357975706
 40
0.942113934
 40
0.9482566054
 40
0.9542243363
 40
0.9600161584
 40
0.9656313616
 40
0.9710694941
 40
0.9763304396
 40
0.9814143881
 40
0.9863220443
 40
0.9910545408
 40
0.9956132881
 40
1.0
 40
1.0
 40
1.0
 40
1.0
 10
14.719824856
 20
9.2007000569
 30
0.0
 10
14.7220009063
 20
9.2005491468
 30
0.0
 10
14.7263577132
 20
9.200053289
 30
0.0
 10
14.7328389271
 20
9.1987337003
 30
0.0
 10
14.7392723818
 20
9.1968383109
 30
0.0
 10
14.7456537001
 20
9.1943689421
 30
0.0
 10
14.7519797236
 20
9.1913276944
 30
0.0
 10
14.7582472554
 20
9.1877167415
 30
0.0
 10
14.7644535899
 20
9.1835387008
 30
0.0
 10
14.7705959482
 20
9.1787959791
 30
0.0
 10
14.7766718381
 20
9.1734913536
 30
0.0
 10
14.7826787083
 20
9.1676275894
 30
0.0
 10
14.7886139869
 20
9.1612076089
 30
0.0
 10
14.7944752455
 20
9.154234628
 30
0.0
 10
14.8002598024
 20
9.1467119001
 30
0.0
 10
14.8059652193
 20
9.138643085
 30
0.0
 10
14.8115888503
 20
9.1300319524
 30
0.0
 10
14.8171281385
 20
9.1208825863
 30
0.0
 10
14.8225805776
 20
9.1111993361
 30
0.0
 10
14.8279435175
 20
9.1009867486
 30
0.0
 10
14.833214556
 20
9.0902497208
 30
0.0
 10
14.8383910926
 20
9.0789933239
 30
0.0
 10
14.8434707218
 20
9.0672229469
 30
0.0
 10
14.8484510168
 20
9.054944209
 30
0.0
 10
14.8533295328
 20
9.042162972
 30
0.0
 10
14.8581040202
 20
9.0288853793
 30
0.0
 10
14.8627720755
 20
9.0151177778
 30
0.0
 10
14.8673315329
 20
9.0008667951
 30
0.0
 10
14.87178015
 20
8.9861392711
 30
0.0
 10
14.8761157666
 20
8.9709422889
 30
0.0
 10
14.8803363458
 20
8.9552831651
 30
0.0
 10
14.8844397521
 20
8.9391694341
 30
0.0
 10
14.8884241184
 20
8.9226088486
 30
0.0
 10
14.8936329597
 20
8.899688291
 30
0.0
 10
14.8998168838
 20
8.8699720247
 30
0.0
 10
14.9066533027
 20
8.8330446044
 30
0.0
 10
14.9129718885
 20
8.7945357342
 30
0.0
 10
14.918760329
 20
8.7545197059
 30
0.0
 10
14.9240073123
 20
8.7130735364
 30
0.0
 10
14.928702591
 20
8.6702771092
 30
0.0
 10
14.9328369908
 20
8.6262129265
 30
0.0
 10
14.9364024283
 20
8.5809659723
 30
0.0
 10
14.9393919389
 20
8.5346235396
 30
0.0
 10
14.9417996812
 20
8.4872750566
 30
0.0
 10
14.9436209433
 20
8.439011905
 30
0.0
 10
14.9448521526
 20
8.3899272407
 30
0.0
 10
14.9454908814
 20
8.3401158132
 30
0.0
 10
14.9455358503
 20
8.289673785
 30
0.0
 10
14.9449869431
 20
8.2386985442
 30
0.0
 10
14.9438451956
 20
8.1872885135
 30
0.0
 10
14.9421127915
 20
8.1355429563
 30
0.0
 10
14.9397930586
 20
8.0835617853
 30
0.0
 10
14.9368904617
 20
8.0314453705
 30
0.0
 10
14.9334105949
 20
7.9792943455
 30
0.0
 10
14.9293601818
 20
7.9272094104
 30
0.0
 10
14.9247470497
 20
7.8752911361
 30
0.0
 10
14.9195801154
 20
7.8236397701
 30
0.0
 10
14.9138693682
 20
7.7723550434
 30
0.0
 10
14.9076258495
 20
7.7215359784
 30
0.0
 10
14.900861636
 20
7.6712806941
 30
0.0
 10
14.8935898235
 20
7.6216862131
 30
0.0
 10
14.8858244898
 20
7.5728482748
 30
0.0
 10
14.87758067
 20
7.5248611518
 30
0.0
 10
14.8688743279
 20
7.4778174684
 30
0.0
 10
14.8597223238
 20
7.4318080183
 30
0.0
 10
14.8501423894
 20
7.3869215814
 30
0.0
 10
14.8401530962
 20
7.3432447477
 30
0.0
 10
14.8297738097
 20
7.3008617498
 30
0.0
 10
14.819024655
 20
7.2598543021
 30
0.0
 10
14.8079264779
 20
7.2203014306
 30
0.0
 10
14.7965008006
 20
7.1822793352
 30
0.0
 10
14.7847697881
 20
7.1458611297
 30
0.0
 10
14.7727562022
 20
7.1111170229
 30
0.0
 10
14.7624131366
 20
7.0833026007
 30
0.0
 10
14.7540027597
 20
7.0619492084
 30
0.0
 10
14.7477116494
 20
7.0465786129
 30
0.0
 10
14.7413674509
 20
7.0316748065
 30
0.0
 10
14.7349732476
 20
7.017244935
 30
0.0
 10
14.7285320495
 20
7.0032959689
 30
0.0
 10
14.7220470583
 20
6.9898345882
 30
0.0
 10
14.7155213248
 20
6.9768672811
 30
0.0
 10
14.7089580225
 20
6.9644002562
 30
0.0
 10
14.7023603164
 20
6.9524394811
 30
0.0
 10
14.6957313174
 20
6.9409907264
 30
0.0
 10
14.6890743305
 20
6.9300594512
 30
0.0
 10
14.682392424
 20
6.9196508944
 30
0.0
 10
14.6756887783
 20
6.9097699088
 30
0.0
 10
14.6689664565
 20
6.9004211526
 30
0.0
 10
14.6622289314
 20
6.8916094479
 30
0.0
 10
14.6576418704
 20
6.8859886251
 30
0.0
 10
14.6553451376
 20
6.883272567
 30
0.0
  0
SPLINE
  5
35D
100
AcDbEntity
  8
0
100
AcDbSpline
 62
7
  6
CONTINUOUS
 70
0
 71
3
 72
15
 73
11
 74
0
 42
0.0000001
 43
0.0000001
 44
0.0000000001
 40
0.0
 40
0.0
 40
0.0
 40
0.0
 40
0.1133860601
 40
0.2290655221
 40
0.3476078391
 40
0.4695392293
 40
0.595339487
 40
0.7254406901
 40
0.8602190682
 40
1.0
 40
1.0
 40
1.0
 40
1.0
 10
14.5397394712
 20
6.8290736995
 30
0.0
 10
14.5417702347
 20
6.829350179
 30
0.0
 10
14.5458526074
 20
6.8300691418
 30
0.0
 10
14.5519470022
 20
6.8316192672
 30
0.0
 10
14.5580618033
 20
6.8336490613
 30
0.0
 10
14.5641939886
 20
6.8361572205
 30
0.0
 10
14.5703414114
 20
6.8391422203
 30
0.0
 10
14.5765016719
 20
6.842602647
 30
0.0
 10
14.5826721798
 20
6.8465364435
 30
0.0
 10
14.586714968
 20
6.8494189704
 30
0.0
 10
14.5887369459
 20
6.8509339921
 30
0.0
  0
SPLINE
  5
35E
100
AcDbEntity
  8
0
100
AcDbSpline
 62
7
  6
CONTINUOUS
 70
0
 71
3
 72
93
 73
89
 74
0
 42
0.0000001
 43
0.0000001
 44
0.0000000001
 40
0.0
 40
0.0
 40
0.0
 40
0.0
 40
0.0043314081
 40
0.0088295457
 40
0.0134960536
 40
0.0183322833
 40
0.0233393342
 40
0.0285179197
 40
0.0338682595
 40
0.0393902763
 40
0.0450835854
 40
0.0509475425
 40
0.0569812801
 40
0.0631836493
 40
0.069553336
 40
0.0760887969
 40
0.0827883148
 40
0.0896500206
 40
0.1038513512
 40
0.1186749442
 40
0.1341005033
 40
0.1501057878
 40
0.1666667955
 40
0.1837579297
 40
0.20135214
 40
0.2194210459
 40
0.2379350492
 40
0.2568634345
 40
0.2761744771
 40
0.295835539
 40
0.3158131602
 40
0.3360731461
 40
0.3565806506
 40
0.3773002648
 40
0.3981961038
 40
0.419231889
 40
0.4403710299
 40
0.4615767047
 40
0.4828119443
 40
0.5040397157
 40
0.5252230025
 40
0.5463248858
 40
0.567308626
 40
0.5881377474
 40
0.6087761209
 40
0.629188045
 40
0.6493383289
 40
0.6691923761
 40
0.6887162754
 40
0.7078768888
 40
0.7266419379
 40
0.7449800954
 40
0.7628610818
 40
0.7802557717
 40
0.7971363082
 40
0.8134762141
 40
0.8292505214
 40
0.8444359171
 40
0.8590109137
 40
0.8660634796
 40
0.8729563279
 40
0.8796873921
 40
0.8862547326
 40
0.8926566261
 40
0.8988914844
 40
0.9049579429
 40
0.9108548428
 40
0.9165812263
 40
0.9221364259
 40
0.9275199927
 40
0.9327318079
 40
0.9377720623
 40
0.9426412863
 40
0.947340445
 40
0.9518708944
 40
0.9562345253
 40
0.9604337589
 40
0.9644716304
 40
0.9683519045
 40
0.972079088
 40
0.9756586149
 40
0.9790968818
 40
0.982401389
 40
0.9886422845
 40
0.991603166
 40
0.9944733246
 40
0.997267054
 40
1.0
 40
1.0
 40
1.0
 40
1.0
 10
14.6244355078
 20
6.8854161571
 30
0.0
 10
14.6266886579
 20
6.8880806754
 30
0.0
 10
14.631188863
 20
6.8935913499
 30
0.0
 10
14.6378014208
 20
6.9022239716
 30
0.0
 10
14.6443994697
 20
6.9113740173
 30
0.0
 10
14.6509796998
 20
6.9210369342
 30
0.0
 10
14.6575392246
 20
6.9312083177
 30
0.0
 10
14.6640750277
 20
6.9418836128
 30
0.0
 10
14.6705842173
 20
6.9530578925
 30
0.0
 10
14.6770636816
 20
6.9647260203
 30
0.0
 10
14.6835104443
 20
6.9768825823
 30
0.0
 10
14.6899215498
 20
6.9895219583
 30
0.0
 10
14.6962939607
 20
7.0026383341
 30
0.0
 10
14.7026248097
 20
7.016225613
 30
0.0
 10
14.7089110745
 20
7.0302775273
 30
0.0
 10
14.7151498696
 20
7.0447875472
 30
0.0
 10
14.7213383284
 20
7.0597489604
 30
0.0
 10
14.7296133671
 20
7.0805284442
 30
0.0
 10
14.7397958724
 20
7.1075901899
 30
0.0
 10
14.7516332407
 20
7.1413902113
 30
0.0
 10
14.7632025515
 20
7.1768148943
 30
0.0
 10
14.7744821846
 20
7.2137984603
 30
0.0
 10
14.7854510795
 20
7.2522724131
 30
0.0
 10
14.796088747
 20
7.2921653692
 30
0.0
 10
14.8063753196
 20
7.333403296
 30
0.0
 10
14.8162915864
 20
7.3759096283
 30
0.0
 10
14.8258190283
 20
7.4196054162
 30
0.0
 10
14.8349398693
 20
7.4644094704
 30
0.0
 10
14.8436370927
 20
7.5102385241
 30
0.0
 10
14.8518944734
 20
7.5570073961
 30
0.0
 10
14.8596966086
 20
7.6046291509
 30
0.0
 10
14.8670289425
 20
7.6530152572
 30
0.0
 10
14.8738778077
 20
7.7020757507
 30
0.0
 10
14.8802304442
 20
7.751719405
 30
0.0
 10
14.886075015
 20
7.8018539075
 30
0.0
 10
14.8914006313
 20
7.8523860315
 30
0.0
 10
14.896197369
 20
7.9032218076
 30
0.0
 10
14.9004562948
 20
7.9542666977
 30
0.0
 10
14.9041694897
 20
8.0054257721
 30
0.0
 10
14.9073300489
 20
8.0566038897
 30
0.0
 10
14.9099320974
 20
8.1077058746
 30
0.0
 10
14.9119708004
 20
8.1586366916
 30
0.0
 10
14.913442372
 20
8.2093016243
 30
0.0
 10
14.9143440985
 20
8.2596064532
 30
0.0
 10
14.9146743284
 20
8.3094576334
 30
0.0
 10
14.9144324753
 20
8.3587624665
 30
0.0
 10
14.9136190198
 20
8.4074292711
 30
0.0
 10
14.9122355062
 20
8.455367557
 30
0.0
 10
14.910284555
 20
8.5024881982
 30
0.0
 10
14.9077698531
 20
8.5487036017
 30
0.0
 10
14.9046961385
 20
8.593927868
 30
0.0
 10
14.9010691955
 20
8.6380769492
 30
0.0
 10
14.8968958414
 20
8.6810688095
 30
0.0
 10
14.8921839214
 20
8.7228235875
 30
0.0
 10
14.8869423049
 20
8.7632637587
 30
0.0
 10
14.8811808491
 20
8.8023142586
 30
0.0
 10
14.8749103944
 20
8.8399027054
 30
0.0
 10
14.8681427052
 20
8.8759592535
 30
0.0
 10
14.8620342702
 20
8.9049834954
 30
0.0
 10
14.8568962273
 20
8.9273787171
 30
0.0
 10
14.8529686224
 20
8.9435668854
 30
0.0
 10
14.8489266167
 20
8.9593236327
 30
0.0
 10
14.8447719889
 20
8.9746416571
 30
0.0
 10
14.84050677
 20
8.9895138613
 30
0.0
 10
14.8361328739
 20
9.0039333459
 30
0.0
 10
14.8316523633
 20
9.017893434
 30
0.0
 10
14.8270673485
 20
9.0313876701
 30
0.0
 10
14.8223798827
 20
9.0444097965
 30
0.0
 10
14.8175922393
 20
9.0569538177
 30
0.0
 10
14.8127065445
 20
9.0690139244
 30
0.0
 10
14.8077251044
 20
9.0805845684
 30
0.0
 10
14.8026502236
 20
9.0916604305
 30
0.0
 10
14.7974841606
 20
9.102236396
 30
0.0
 10
14.7922293822
 20
9.1123076535
 30
0.0
 10
14.7868881637
 20
9.1218695513
 30
0.0
 10
14.7814629876
 20
9.1309177506
 30
0.0
 10
14.7759562658
 20
9.1394481229
 30
0.0
 10
14.7703703689
 20
9.1474567485
 30
0.0
 10
14.764707856
 20
9.1549400281
 30
0.0
 10
14.7589709781
 20
9.1618945002
 30
0.0
 10
14.7531624439
 20
9.1683168695
 30
0.0
 10
14.7472839645
 20
9.1742046433
 30
0.0
 10
14.7395063325
 20
9.1812032694
 30
0.0
 10
14.7314461681
 20
9.1873009724
 30
0.0
 10
14.7231259401
 20
9.1923494678
 30
0.0
 10
14.7169369393
 20
9.1955222816
 30
0.0
 10
14.7106943426
 20
9.1981447699
 30
0.0
 10
14.706459356
 20
9.19953795
 30
0.0
 10
14.7043409456
 20
9.2001378418
 30
0.0
  0
SPLINE
  5
35F
100
AcDbEntity
  8
0
100
AcDbSpline
 62
7
  6
CONTINUOUS
 70
0
 71
3
 72
74
 73
70
 74
0
 42
0.0000001
 43
0.0000001
 44
0.0000000001
 40
0.0
 40
0.0
 40
0.0
 40
0.0
 40
0.0155842017
 40
0.0233573096
 40
0.0311170165
 40
0.0465962826
 40
0.0620248586
 40
0.069721224
 40
0.0774055997
 40
0.0927383803
 40
0.1080271671
 40
0.1232751642
 40
0.1384859928
 40
0.15366366
 40
0.1688125201
 40
0.18393723
 40
0.1990427023
 40
0.2141340535
 40
0.2292165507
 40
0.2442955554
 40
0.2593764667
 40
0.2744646634
 40
0.2895654466
 40
0.304683983
 40
0.3198252504
 40
0.3349939861
 40
0.3501946373
 40
0.3654313172
 40
0.3807077645
 40
0.3960273075
 40
0.4113928333
 40
0.4268067624
 40
0.4422710285
 40
0.4577870638
 40
0.4733557903
 40
0.4889776157
 40
0.5046524353
 40
0.5203796378
 40
0.5361581156
 40
0.5519862808
 40
0.5678620833
 40
0.5837830346
 40
0.5997462349
 40
0.6157484019
 40
0.6317859034
 40
0.6478547919
 40
0.6639508414
 40
0.6800695859
 40
0.6962063601
 40
0.7123563411
 40
0.7285145913
 40
0.7446761006
 40
0.760835831
 40
0.7769887592
 40
0.7931299214
 40
0.8092544561
 40
0.8253576478
 40
0.8414349682
 40
0.8574821168
 40
0.8654936487
 40
0.8734961496
 40
0.8894711592
 40
0.9054048453
 40
0.9212941955
 40
0.9371365829
 40
0.9529298811
 40
0.968672202
 40
0.9843626764
 40
1.0
 40
1.0
 40
1.0
 40
1.0
 10
12.2607181479
 20
7.4077603167
 30
0.0
 10
12.2607181479
 20
7.3930252159
 30
0.0
 10
12.260176752
 20
7.3709353852
 30
0.0
 10
12.2583653828
 20
7.3415674238
 30
0.0
 10
12.255835001
 20
7.3123516597
 30
0.0
 10
12.251322639
 20
7.276054257
 30
0.0
 10
12.2450086482
 20
7.2400870183
 30
0.0
 10
12.2388893747
 20
7.2116035084
 30
0.0
 10
12.2320731474
 20
7.1833719551
 30
0.0
 10
12.2222360357
 20
7.1484969396
 30
0.0
 10
12.2083418922
 20
7.107392827
 30
0.0
 10
12.1923997241
 20
7.0671621192
 30
0.0
 10
12.1744480253
 20
7.0279025133
 30
0.0
 10
12.1545299706
 20
6.9897085186
 30
0.0
 10
12.1326935332
 20
6.9526723137
 30
0.0
 10
12.1089913111
 20
6.9168832318
 30
0.0
 10
12.0834804176
 20
6.8824276209
 30
0.0
 10
12.0562223407
 20
6.8493886112
 30
0.0
 10
12.0272827928
 20
6.8178459207
 30
0.0
 10
11.996731572
 20
6.7878756385
 30
0.0
 10
11.9646423756
 20
6.7595500491
 30
0.0
 10
11.9310926144
 20
6.7329374618
 30
0.0
 10
11.896163226
 20
6.7081020436
 30
0.0
 10
11.8599384763
 20
6.6851036642
 30
0.0
 10
11.8225057545
 20
6.6639977504
 30
0.0
 10
11.7839553581
 20
6.644835157
 30
0.0
 10
11.7443802835
 20
6.6276620218
 30
0.0
 10
11.7038759907
 20
6.6125196642
 30
0.0
 10
11.6625401647
 20
6.5994444998
 30
0.0
 10
11.62047248
 20
6.5884679517
 30
0.0
 10
11.5777743591
 20
6.5796163791
 30
0.0
 10
11.5345487277
 20
6.5729110148
 30
0.0
 10
11.4908997669
 20
6.5683679218
 30
0.0
 10
11.446932664
 20
6.5659979355
 30
0.0
 10
11.4027533556
 20
6.5658066439
 30
0.0
 10
11.358468271
 20
6.5677943942
 30
0.0
 10
11.3141840777
 20
6.5719562903
 30
0.0
 10
11.2700074266
 20
6.5782822085
 30
0.0
 10
11.226044697
 20
6.5867568214
 30
0.0
 10
11.1824017441
 20
6.597359641
 30
0.0
 10
11.139183642
 20
6.6100650514
 30
0.0
 10
11.0964944283
 20
6.6248423696
 30
0.0
 10
11.0544368604
 20
6.6416559402
 30
0.0
 10
11.013112169
 20
6.6604652176
 30
0.0
 10
10.9726198173
 20
6.6812248652
 30
0.0
 10
10.9330572636
 20
6.7038848626
 30
0.0
 10
10.8945197305
 20
6.7283906285
 30
0.0
 10
10.8570999713
 20
6.7546831405
 30
0.0
 10
10.8208880389
 20
6.7826990702
 30
0.0
 10
10.7859710837
 20
6.8123709548
 30
0.0
 10
10.7524331429
 20
6.8436273559
 30
0.0
 10
10.7203549405
 20
6.8763930301
 30
0.0
 10
10.6898136945
 20
6.91058911
 30
0.0
 10
10.6608829351
 20
6.9461332885
 30
0.0
 10
10.6336323156
 20
6.9829400287
 30
0.0
 10
10.608127459
 20
7.0209206939
 30
0.0
 10
10.5844297117
 20
7.0599840228
 30
0.0
 10
10.5625964018
 20
7.10003543
 30
0.0
 10
10.545989829
 20
7.1341747162
 30
0.0
 10
10.5336885886
 20
7.1618836073
 30
0.0
 10
10.5220630887
 20
7.1898088427
 30
0.0
 10
10.50878405
 20
7.225147978
 30
0.0
 10
10.4948870791
 20
7.2681692495
 30
0.0
 10
10.4830700261
 20
7.311678394
 30
0.0
 10
10.4733615959
 20
7.3555701626
 30
0.0
 10
10.4657853061
 20
7.3997388362
 30
0.0
 10
10.4603592777
 20
7.4440786358
 30
0.0
 10
10.457096995
 20
7.4884811147
 30
0.0
 10
10.4563685072
 20
7.518107061
 30
0.0
 10
10.4563685072
 20
7.5328923892
 30
0.0
  0
SPLINE
  5
360
100
AcDbEntity
  8
0
100
AcDbSpline
 62
4
  6
CONTINUOUS
 70
0
 71
3
 72
317
 73
313
 74
0
 42
0.0000001
 43
0.0000001
 44
0.0000000001
 40
0.0
 40
0.0
 40
0.0
 40
0.0
 40
0.015625
 40
0.0234375
 40
0.03125
 40
0.0390625
 40
0.04296875
 40
0.046875
 40
0.05078125
 40
0.0546875
 40
0.056640625
 40
0.05859375
 40
0.0595703125
 40
0.060546875
 40
0.0615234375
 40
0.0620117188
 40
0.0622558594
 40
0.0625
 40
0.0627441406
 40
0.0629882812
 40
0.0634765625
 40
0.064453125
 40
0.0654296875
 40
0.06640625
 40
0.068359375
 40
0.0703125
 40
0.07421875
 40
0.078125
 40
0.08203125
 40
0.0859375
 40
0.09375
 40
0.1015625
 40
0.10546875
 40
0.109375
 40
0.11328125
 40
0.1171875
 40
0.119140625
 40
0.12109375
 40
0.1220703125
 40
0.123046875
 40
0.1240234375
 40
0.1245117188
 40
0.1247558594
 40
0.125
 40
0.1252441406
 40
0.1254882812
 40
0.1259765625
 40
0.126953125
 40
0.1279296875
 40
0.12890625
 40
0.130859375
 40
0.1328125
 40
0.13671875
 40
0.140625
 40
0.14453125
 40
0.1484375
 40
0.15625
 40
0.1640625
 40
0.16796875
 40
0.171875
 40
0.17578125
 40
0.1796875
 40
0.181640625
 40
0.18359375
 40
0.1845703125
 40
0.185546875
 40
0.1865234375
 40
0.1870117188
 40
0.1872558594
 40
0.1875
 40
0.1877441406
 40
0.1879882812
 40
0.1884765625
 40
0.189453125
 40
0.1904296875
 40
0.19140625
 40
0.193359375
 40
0.1953125
 40
0.19921875
 40
0.203125
 40
0.20703125
 40
0.2109375
 40
0.21875
 40
0.2265625
 40
0.234375
 40
0.23828125
 40
0.2421875
 40
0.244140625
 40
0.24609375
 40
0.248046875
 40
0.2490234375
 40
0.2495117188
 40
0.25
 40
0.2504882812
 40
0.2509765625
 40
0.251953125
 40
0.25390625
 40
0.255859375
 40
0.2578125
 40
0.26171875
 40
0.265625
 40
0.2734375
 40
0.28125
 40
0.2890625
 40
0.296875
 40
0.30078125
 40
0.3046875
 40
0.306640625
 40
0.30859375
 40
0.310546875
 40
0.3115234375
 40
0.3120117188
 40
0.3125
 40
0.3129882812
 40
0.3134765625
 40
0.314453125
 40
0.31640625
 40
0.318359375
 40
0.3203125
 40
0.32421875
 40
0.328125
 40
0.3359375
 40
0.34375
 40
0.3515625
 40
0.359375
 40
0.36328125
 40
0.3671875
 40
0.369140625
 40
0.37109375
 40
0.373046875
 40
0.3740234375
 40
0.3745117188
 40
0.375
 40
0.3754882812
 40
0.3759765625
 40
0.376953125
 40
0.37890625
 40
0.380859375
 40
0.3828125
 40
0.38671875
 40
0.390625
 40
0.3984375
 40
0.40625
 40
0.4140625
 40
0.421875
 40
0.42578125
 40
0.4296875
 40
0.431640625
 40
0.43359375
 40
0.435546875
 40
0.4365234375
 40
0.4370117188
 40
0.4375
 40
0.4379882812
 40
0.4384765625
 40
0.439453125
 40
0.44140625
 40
0.443359375
 40
0.4453125
 40
0.44921875
 40
0.453125
 40
0.4609375
 40
0.46875
 40
0.4765625
 40
0.484375
 40
0.48828125
 40
0.4921875
 40
0.49609375
 40
0.498046875
 40
0.4990234375
 40
0.5
 40
0.5009765625
 40
0.501953125
 40
0.50390625
 40
0.5078125
 40
0.51171875
 40
0.515625
 40
0.5234375
 40
0.53125
 40
0.5390625
 40
0.546875
 40
0.55078125
 40
0.5546875
 40
0.55859375
 40
0.560546875
 40
0.5615234375
 40
0.5625
 40
0.5634765625
 40
0.564453125
 40
0.56640625
 40
0.5703125
 40
0.57421875
 40
0.578125
 40
0.5859375
 40
0.59375
 40
0.6015625
 40
0.609375
 40
0.61328125
 40
0.6171875
 40
0.62109375
 40
0.623046875
 40
0.6240234375
 40
0.625
 40
0.6259765625
 40
0.626953125
 40
0.62890625
 40
0.6328125
 40
0.63671875
 40
0.640625
 40
0.6484375
 40
0.65625
 40
0.6640625
 40
0.671875
 40
0.67578125
 40
0.6796875
 40
0.68359375
 40
0.685546875
 40
0.6865234375
 40
0.6875
 40
0.6884765625
 40
0.689453125
 40
0.69140625
 40
0.6953125
 40
0.69921875
 40
0.703125
 40
0.7109375
 40
0.71875
 40
0.7265625
 40
0.734375
 40
0.73828125
 40
0.7421875
 40
0.744140625
 40
0.74609375
 40
0.748046875
 40
0.7490234375
 40
0.7495117188
 40
0.75
 40
0.7504882812
 40
0.7509765625
 40
0.751953125
 40
0.75390625
 40
0.755859375
 40
0.7578125
 40
0.76171875
 40
0.765625
 40
0.7734375
 40
0.78125
 40
0.7890625
 40
0.796875
 40
0.80078125
 40
0.8046875
 40
0.806640625
 40
0.80859375
 40
0.810546875
 40
0.8115234375
 40
0.8120117188
 40
0.8125
 40
0.8129882812
 40
0.8134765625
 40
0.814453125
 40
0.81640625
 40
0.818359375
 40
0.8203125
 40
0.82421875
 40
0.828125
 40
0.8359375
 40
0.84375
 40
0.8515625
 40
0.859375
 40
0.86328125
 40
0.8671875
 40
0.869140625
 40
0.87109375
 40
0.873046875
 40
0.8740234375
 40
0.8745117188
 40
0.875
 40
0.8754882812
 40
0.8759765625
 40
0.876953125
 40
0.87890625
 40
0.880859375
 40
0.8828125
 40
0.88671875
 40
0.890625
 40
0.8984375
 40
0.90625
 40
0.9140625
 40
0.91796875
 40
0.921875
 40
0.92578125
 40
0.9296875
 40
0.931640625
 40
0.93359375
 40
0.935546875
 40
0.9365234375
 40
0.9370117188
 40
0.9375
 40
0.9379882812
 40
0.9384765625
 40
0.939453125
 40
0.94140625
 40
0.943359375
 40
0.9453125
 40
0.94921875
 40
0.953125
 40
0.95703125
 40
0.9609375
 40
0.96875
 40
0.9765625
 40
0.984375
 40
1.0
 40
1.0
 40
1.0
 40
1.0
 10
12.1732258768
 20
9.4991691849
 30
0.0
 10
12.1742905218
 20
9.5008336508
 30
0.0
 10
12.1758874893
 20
9.5033303498
 30
0.0
 10
12.1780167793
 20
9.5066592817
 30
0.0
 10
12.1796137467
 20
9.5091559806
 30
0.0
 10
12.1809445533
 20
9.511236563
 30
0.0
 10
12.1820091976
 20
9.512901029
 30
0.0
 10
12.1828076834
 20
9.5141493784
 30
0.0
 10
12.1836061594
 20
9.515397728
 30
0.0
 10
12.1842715866
 20
9.5164380189
 30
0.0
 10
12.1848038599
 20
9.5172702527
 30
0.0
 10
12.1851366867
 20
9.5177903961
 30
0.0
 10
12.1854025909
 20
9.518206517
 30
0.0
 10
12.1856029973
 20
9.5185185909
 30
0.0
 10
12.1857668905
 20
9.518778706
 30
0.0
 10
12.1858877232
 20
9.5189606815
 30
0.0
 10
12.1859472342
 20
9.5190648315
 30
0.0
 10
12.1860187311
 20
9.5191424821
 30
0.0
 10
12.1859875416
 20
9.519221898
 30
0.0
 10
12.1859817738
 20
9.5193271702
 30
0.0
 10
12.1859549918
 20
9.5195116833
 30
0.0
 10
12.1859254565
 20
9.5197751236
 30
0.0
 10
12.1858862798
 20
9.520091316
 30
0.0
 10
12.1858353484
 20
9.5205128835
 30
0.0
 10
12.1857712377
 20
9.5210398506
 30
0.0
 10
12.1856689101
 20
9.5218829937
 30
0.0
 10
12.1855409149
 20
9.5229369239
 30
0.0
 10
12.1853873574
 20
9.5242016396
 30
0.0
 10
12.1852337901
 20
9.5254663555
 30
0.0
 10
12.1850290371
 20
9.5271526432
 30
0.0
 10
12.1847730946
 20
9.529260503
 30
0.0
 10
12.184517153
 20
9.5313683627
 30
0.0
 10
12.1843123987
 20
9.5330546504
 30
0.0
 10
12.1841588355
 20
9.5343193663
 30
0.0
 10
12.1840052625
 20
9.5355840819
 30
0.0
 10
12.1838773155
 20
9.5366380126
 30
0.0
 10
12.1837748897
 20
9.5374811548
 30
0.0
 10
12.1837110287
 20
9.5380081239
 30
0.0
 10
12.1836595848
 20
9.5384296873
 30
0.0
 10
12.1836219741
 20
9.5387458925
 30
0.0
 10
12.1835875389
 20
9.5390092928
 30
0.0
 10
12.1835695042
 20
9.5391938771
 30
0.0
 10
12.183549721
 20
9.5392990353
 30
0.0
 10
12.1835615822
 20
9.5393788013
 30
0.0
 10
12.1834713878
 20
9.5394551369
 30
0.0
 10
12.1833867268
 20
9.5395581142
 30
0.0
 10
12.1832219843
 20
9.5397377669
 30
0.0
 10
12.182995309
 20
9.5399947052
 30
0.0
 10
12.1827195871
 20
9.5403029063
 30
0.0
 10
12.1823532543
 20
9.5407138847
 30
0.0
 10
12.1818948944
 20
9.5412275929
 30
0.0
 10
12.1811617667
 20
9.5420495342
 30
0.0
 10
12.1802452719
 20
9.543076958
 30
0.0
 10
12.1791455146
 20
9.5443098679
 30
0.0
 10
12.1780457476
 20
9.5455427773
 30
0.0
 10
12.176579395
 20
9.5471866568
 30
0.0
 10
12.1747464529
 20
9.549241506
 30
0.0
 10
12.1729135117
 20
9.5512963553
 30
0.0
 10
12.1714471577
 20
9.5529402347
 30
0.0
 10
12.1703473948
 20
9.5541731443
 30
0.0
 10
12.1692476221
 20
9.5554060534
 30
0.0
 10
12.1683311753
 20
9.5564334795
 30
0.0
 10
12.1675979497
 20
9.5572554162
 30
0.0
 10
12.167139839
 20
9.5577691363
 30
0.0
 10
12.1667729947
 20
9.5581800902
 30
0.0
 10
12.1664988355
 20
9.5584883664
 30
0.0
 10
12.166267271
 20
9.5587450698
 30
0.0
 10
12.1661112566
 20
9.5589251417
 30
0.0
 10
12.1660126108
 20
9.5590274475
 30
0.0
 10
12.1659653731
 20
9.5591058457
 30
0.0
 10
12.1658158966
 20
9.5591778644
 30
0.0
 10
12.1656522566
 20
9.5592761145
 30
0.0
 10
12.165349271
 20
9.5594470155
 30
0.0
 10
12.1649251214
 20
9.5596917017
 30
0.0
 10
12.1644124235
 20
9.5599850932
 30
0.0
 10
12.1637301251
 20
9.5603763629
 30
0.0
 10
12.1628768073
 20
9.5608654223
 30
0.0
 10
12.1615117475
 20
9.5616479328
 30
0.0
 10
12.1598053374
 20
9.5626260657
 30
0.0
 10
12.1577576818
 20
9.5637998273
 30
0.0
 10
12.1557100166
 20
9.5649735884
 30
0.0
 10
12.1529797992
 20
9.5665386033
 30
0.0
 10
12.1495670299
 20
9.5684948725
 30
0.0
 10
12.1454716904
 20
9.5708423925
 30
0.0
 10
12.1420589588
 20
9.5727986685
 30
0.0
 10
12.1393286585
 20
9.5743636685
 30
0.0
 10
12.1376224825
 20
9.5753418409
 30
0.0
 10
12.1362569425
 20
9.5761242701
 30
0.0
 10
12.1352344281
 20
9.5767113899
 30
0.0
 10
12.1343771139
 20
9.5771997089
 30
0.0
 10
12.1337872358
 20
9.5775433914
 30
0.0
 10
12.1334341707
 20
9.5777368784
 30
0.0
 10
12.1332144215
 20
9.5778901716
 30
0.0
 10
12.1328224698
 20
9.5780122047
 30
0.0
 10
12.1323599338
 20
9.5781858194
 30
0.0
 10
12.1315225098
 20
9.5784845648
 30
0.0
 10
12.1303408211
 20
9.578914
 30
0.0
 10
12.1289165321
 20
9.5794281853
 30
0.0
 10
12.1270196674
 20
9.5801141629
 30
0.0
 10
12.1246478376
 20
9.5809714988
 30
0.0
 10
12.1208533286
 20
9.5823433124
 30
0.0
 10
12.1161100479
 20
9.5840580531
 30
0.0
 10
12.1104181766
 20
9.586115754
 30
0.0
 10
12.104726274
 20
9.5881734486
 30
0.0
 10
12.0999830717
 20
9.5898882052
 30
0.0
 10
12.0961884057
 20
9.5912599869
 30
0.0
 10
12.0938169749
 20
9.5921174038
 30
0.0
 10
12.0919192913
 20
9.5928032152
 30
0.0
 10
12.0904975041
 20
9.5933179081
 30
0.0
 10
12.0893079879
 20
9.5937457554
 30
0.0
 10
12.0884845374
 20
9.5940473354
 30
0.0
 10
12.0879996123
 20
9.5942164082
 30
0.0
 10
12.0876764327
 20
9.5943523925
 30
0.0
 10
12.0871983871
 20
9.5944532875
 30
0.0
 10
12.086615012
 20
9.5946000536
 30
0.0
 10
12.085568937
 20
9.5948511917
 30
0.0
 10
12.0840877026
 20
9.5952129418
 30
0.0
 10
12.0823045891
 20
9.5956457657
 30
0.0
 10
12.0799290717
 20
9.5962233101
 30
0.0
 10
12.0769590013
 20
9.596945088
 30
0.0
 10
12.0722072652
 20
9.5981000178
 30
0.0
 10
12.0662674653
 20
9.5995436507
 30
0.0
 10
12.059139764
 20
9.6012760237
 30
0.0
 10
12.0520120358
 20
9.6030083894
 30
0.0
 10
12.0460723031
 20
9.6044520407
 30
0.0
 10
12.0413204325
 20
9.6056069335
 30
0.0
 10
12.0383507042
 20
9.6063288056
 30
0.0
 10
12.0359744846
 20
9.6069061565
 30
0.0
 10
12.0341935163
 20
9.6073395717
 30
0.0
 10
12.03270557
 20
9.6076994719
 30
0.0
 10
12.0316714769
 20
9.6079539124
 30
0.0
 10
12.0310689039
 20
9.6080953873
 30
0.0
 10
12.0306498279
 20
9.6082125351
 30
0.0
 10
12.0301051685
 20
9.6082874764
 30
0.0
 10
12.0294227609
 20
9.6084021202
 30
0.0
 10
12.0282081381
 20
9.6085958877
 30
0.0
 10
12.0264836329
 20
9.6088762844
 30
0.0
 10
12.0244096595
 20
9.6092112255
 30
0.0
 10
12.0216459569
 20
9.6096583498
 30
0.0
 10
12.0181907824
 20
9.6102170716
 30
0.0
 10
12.0126628085
 20
9.611111129
 30
0.0
 10
12.0057527358
 20
9.6122286654
 30
0.0
 10
11.9974606963
 20
9.6135697254
 30
0.0
 10
11.9891686343
 20
9.6149107768
 30
0.0
 10
11.982258618
 20
9.6160283345
 30
0.0
 10
11.9767305312
 20
9.6169223494
 30
0.0
 10
11.9732756437
 20
9.6174811793
 30
0.0
 10
11.9705113519
 20
9.6179280817
 30
0.0
 10
11.9684391785
 20
9.6182637009
 30
0.0
 10
11.9667090417
 20
9.618541976
 30
0.0
 10
11.9655044722
 20
9.6187395309
 30
0.0
 10
11.9648059567
 20
9.6188481063
 30
0.0
 10
11.9643107758
 20
9.618941688
 30
0.0
 10
11.9637058666
 20
9.6189888255
 30
0.0
 10
11.9629375956
 20
9.6190678759
 30
0.0
 10
11.9615752884
 20
9.619198666
 30
0.0
 10
11.9596384584
 20
9.6193894552
 30
0.0
 10
11.9573102719
 20
9.6196167132
 30
0.0
 10
11.954207417
 20
9.6199203137
 30
0.0
 10
11.950328371
 20
9.6202996124
 30
0.0
 10
11.9441221646
 20
9.6209066036
 30
0.0
 10
11.9363643129
 20
9.6216653006
 30
0.0
 10
11.92705494
 20
9.6225757684
 30
0.0
 10
11.9177455202
 20
9.6234861779
 30
0.0
 10
11.909987786
 20
9.6242450205
 30
0.0
 10
11.9037813445
 20
9.6248517205
 30
0.0
 10
11.8991272064
 20
9.6253077672
 30
0.0
 10
11.8952465539
 20
9.6256845561
 30
0.0
 10
11.8925344224
 20
9.6259546864
 30
0.0
 10
11.8909778794
 20
9.6260990877
 30
0.0
 10
11.8898294972
 20
9.6262354431
 30
0.0
 10
11.8886083918
 20
9.6262645599
 30
0.0
 10
11.887005618
 20
9.6263407884
 30
0.0
 10
11.8841889451
 20
9.62645676
 30
0.0
 10
11.8801713056
 20
9.6266315453
 30
0.0
 10
11.8753474933
 20
9.6268373876
 30
0.0
 10
11.8689166677
 20
9.6271132067
 30
0.0
 10
11.8608778177
 20
9.62745751
 30
0.0
 10
11.8512313375
 20
9.6278708889
 30
0.0
 10
11.8415848071
 20
9.6282841608
 30
0.0
 10
11.8335460825
 20
9.6286287318
 30
0.0
 10
11.827115006
 20
9.6289040154
 30
0.0
 10
11.8222919588
 20
9.6291114913
 30
0.0
 10
11.8182719259
 20
9.6292811659
 30
0.0
 10
11.8154595255
 20
9.6294062609
 30
0.0
 10
11.813849906
 20
9.6294678713
 30
0.0
 10
11.8126498285
 20
9.6295418902
 30
0.0
 10
11.8114224694
 20
9.6295096005
 30
0.0
 10
11.8097955066
 20
9.6295036292
 30
0.0
 10
11.8069438881
 20
9.6294759024
 30
0.0
 10
11.8028724654
 20
9.6294453254
 30
0.0
 10
11.797985766
 20
9.6294047665
 30
0.0
 10
11.7914705132
 20
9.6293520391
 30
0.0
 10
11.7833263297
 20
9.6292856631
 30
0.0
 10
11.7735533534
 20
9.6292062252
 30
0.0
 10
11.7637803899
 20
9.629126681
 30
0.0
 10
11.7556361742
 20
9.6290605709
 30
0.0
 10
11.7491209859
 20
9.6290073118
 30
0.0
 10
11.7442340896
 20
9.6289683745
 30
0.0
 10
11.7401632829
 20
9.6289327246
 30
0.0
 10
11.7373105648
 20
9.6289140536
 30
0.0
 10
11.7356853639
 20
9.6288935726
 30
0.0
 10
11.734452593
 20
9.6289058522
 30
0.0
 10
11.733272841
 20
9.6288124762
 30
0.0
 10
11.7316813448
 20
9.6287248288
 30
0.0
 10
11.7289048429
 20
9.6285542749
 30
0.0
 10
11.7249339068
 20
9.6283196036
 30
0.0
 10
11.7201707118
 20
9.6280341554
 30
0.0
 10
11.7138191111
 20
9.6276549006
 30
0.0
 10
11.7058798443
 20
9.6271803683
 30
0.0
 10
11.6963526116
 20
9.6266111415
 30
0.0
 10
11.6868254549
 20
9.6260418087
 30
0.0
 10
11.678885998
 20
9.6255675416
 30
0.0
 10
11.6725347776
 20
9.6251877562
 30
0.0
 10
11.6677704227
 20
9.6249039261
 30
0.0
 10
11.6638031151
 20
9.624664193
 30
0.0
 10
11.6610201357
 20
9.6245026752
 30
0.0
 10
11.6594390181
 20
9.6244005497
 30
0.0
 10
11.6582273863
 20
9.6243516456
 30
0.0
 10
11.6571143508
 20
9.6241968963
 30
0.0
 10
11.6555959119
 20
9.6240274838
 30
0.0
 10
11.6529546675
 20
9.6237138104
 30
0.0
 10
11.6491730839
 20
9.6232746987
 30
0.0
 10
11.6446387693
 20
9.6227439152
 30
0.0
 10
11.638591764
 20
9.6220375486
 30
0.0
 10
11.6310334378
 20
9.6211541287
 30
0.0
 10
11.6219632588
 20
9.6200942238
 30
0.0
 10
11.612893141
 20
9.6190342615
 30
0.0
 10
11.6053346621
 20
9.618150985
 30
0.0
 10
11.599287962
 20
9.6174443316
 30
0.0
 10
11.5955085907
 20
9.6170027411
 30
0.0
 10
11.5924855139
 20
9.6166493137
 30
0.0
 10
11.5902170557
 20
9.6163846677
 30
0.0
 10
11.5883303343
 20
9.6161627786
 30
0.0
 10
11.5870024458
 20
9.6160101071
 30
0.0
 10
11.5862548688
 20
9.6159187272
 30
0.0
 10
11.5856625891
 20
9.6158618519
 30
0.0
 10
11.5851910889
 20
9.6157604075
 30
0.0
 10
11.5845202927
 20
9.6156406944
 30
0.0
 10
11.5833660282
 20
9.6154239533
 30
0.0
 10
11.5817068167
 20
9.61511811
 30
0.0
 10
11.5797201554
 20
9.6147494772
 30
0.0
 10
11.5770697395
 20
9.6142585329
 30
0.0
 10
11.573757245
 20
9.6136446587
 30
0.0
 10
11.56845696
 20
9.6126625683
 30
0.0
 10
11.5618317053
 20
9.6114349179
 30
0.0
 10
11.5538813529
 20
9.6099617545
 30
0.0
 10
11.5459310251
 20
9.6084885829
 30
0.0
 10
11.5393057088
 20
9.6072609528
 30
0.0
 10
11.5340055469
 20
9.6062788218
 30
0.0
 10
11.5306927396
 20
9.6056650508
 30
0.0
 10
11.5280429656
 20
9.6051738946
 30
0.0
 10
11.5260543434
 20
9.6048059093
 30
0.0
 10
11.5244012671
 20
9.6044980401
 30
0.0
 10
11.5232360502
 20
9.6042849156
 30
0.0
 10
11.5225828025
 20
9.6041594078
 30
0.0
 10
11.5220573991
 20
9.6040757629
 30
0.0
 10
11.5216675707
 20
9.6039520357
 30
0.0
 10
11.5211005095
 20
9.6038010472
 30
0.0
 10
11.5201301856
 20
9.6035303033
 30
0.0
 10
11.5187324894
 20
9.603146932
 30
0.0
 10
11.5170601846
 20
9.6026854286
 30
0.0
 10
11.5148287227
 20
9.6020706
 30
0.0
 10
11.5120399849
 20
9.6013018898
 30
0.0
 10
11.5075776749
 20
9.600072051
 30
0.0
 10
11.5019999013
 20
9.5985347189
 30
0.0
 10
11.4953065203
 20
9.5966899356
 30
0.0
 10
11.488613168
 20
9.5948451453
 30
0.0
 10
11.4830353227
 20
9.5933078307
 30
0.0
 10
11.478573156
 20
9.5920779571
 30
0.0
 10
11.475784054
 20
9.5913093355
 30
0.0
 10
11.4735533398
 20
9.5906943251
 30
0.0
 10
11.4718787506
 20
9.590233377
 30
0.0
 10
11.4704882018
 20
9.5898482684
 30
0.0
 10
11.4695051186
 20
9.5895806257
 30
0.0
 10
11.468958501
 20
9.5894246684
 30
0.0
 10
11.4685058764
 20
9.5893162037
 30
0.0
 10
11.4682163251
 20
9.5891752356
 30
0.0
 10
11.467773375
 20
9.5889986156
 30
0.0
 10
11.4670247145
 20
9.5886842484
 30
0.0
 10
11.4659413438
 20
9.5882379139
 30
0.0
 10
11.4646472296
 20
9.5877011306
 30
0.0
 10
11.4629196726
 20
9.5869858323
 30
0.0
 10
11.4607609357
 20
9.5860915681
 30
0.0
 10
11.4573065601
 20
9.5846608243
 30
0.0
 10
11.4529887265
 20
9.5828723675
 30
0.0
 10
11.447807269
 20
9.5807262308
 30
0.0
 10
11.4434893972
 20
9.5789377816
 30
0.0
 10
11.4400351055
 20
9.5775070213
 30
0.0
 10
11.4374443637
 20
9.5764339548
 30
0.0
 10
11.4348537115
 20
9.5753608741
 30
0.0
 10
11.4326945552
 20
9.5744666844
 30
0.0
 10
11.430967856
 20
9.5737512336
 30
0.0
 10
11.4296711218
 20
9.5732149161
 30
0.0
 10
11.4285959484
 20
9.5727671241
 30
0.0
 10
11.4278326543
 20
9.5724553588
 30
0.0
 10
11.4274131509
 20
9.5722745698
 30
0.0
 10
11.4270515787
 20
9.5721464077
 30
0.0
 10
11.4268694528
 20
9.5719898458
 30
0.0
 10
11.4265640254
 20
9.5717910027
 30
0.0
 10
11.4260586906
 20
9.5714384117
 30
0.0
 10
11.4253215369
 20
9.5709371234
 30
0.0
 10
11.4244434786
 20
9.5703345446
 30
0.0
 10
11.4232704546
 20
9.569531467
 30
0.0
 10
11.4218049568
 20
9.5685274962
 30
0.0
 10
11.4200460241
 20
9.5673227843
 30
0.0
 10
11.4182871811
 20
9.5661180582
 30
0.0
 10
11.4159420258
 20
9.5645117617
 30
0.0
 10
11.4130105924
 20
9.5625038893
 30
0.0
 10
11.4094928677
 20
9.5600944432
 30
0.0
 10
11.4048025697
 20
9.5568818482
 30
0.0
 10
11.4012848459
 20
9.5544724019
 30
0.0
 10
11.3989396968
 20
9.5528661044
 30
0.0
  0
SPLINE
  5
361
100
AcDbEntity
  8
0
100
AcDbSpline
 62
4
  6
CONTINUOUS
 70
0
 71
3
 72
317
 73
313
 74
0
 42
0.0000001
 43
0.0000001
 44
0.0000000001
 40
0.0
 40
0.0
 40
0.0
 40
0.0
 40
0.015625
 40
0.0234375
 40
0.03125
 40
0.0390625
 40
0.04296875
 40
0.046875
 40
0.05078125
 40
0.0546875
 40
0.056640625
 40
0.05859375
 40
0.0595703125
 40
0.060546875
 40
0.0615234375
 40
0.0620117188
 40
0.0622558594
 40
0.0625
 40
0.0627441406
 40
0.0629882812
 40
0.0634765625
 40
0.064453125
 40
0.0654296875
 40
0.06640625
 40
0.068359375
 40
0.0703125
 40
0.07421875
 40
0.078125
 40
0.08203125
 40
0.0859375
 40
0.09375
 40
0.1015625
 40
0.10546875
 40
0.109375
 40
0.11328125
 40
0.1171875
 40
0.119140625
 40
0.12109375
 40
0.1220703125
 40
0.123046875
 40
0.1240234375
 40
0.1245117188
 40
0.1247558594
 40
0.125
 40
0.1252441406
 40
0.1254882812
 40
0.1259765625
 40
0.126953125
 40
0.1279296875
 40
0.12890625
 40
0.130859375
 40
0.1328125
 40
0.13671875
 40
0.140625
 40
0.14453125
 40
0.1484375
 40
0.15625
 40
0.1640625
 40
0.16796875
 40
0.171875
 40
0.17578125
 40
0.1796875
 40
0.181640625
 40
0.18359375
 40
0.1845703125
 40
0.185546875
 40
0.1865234375
 40
0.1870117188
 40
0.1872558594
 40
0.1875
 40
0.1877441406
 40
0.1879882812
 40
0.1884765625
 40
0.189453125
 40
0.1904296875
 40
0.19140625
 40
0.193359375
 40
0.1953125
 40
0.19921875
 40
0.203125
 40
0.20703125
 40
0.2109375
 40
0.21875
 40
0.2265625
 40
0.234375
 40
0.23828125
 40
0.2421875
 40
0.244140625
 40
0.24609375
 40
0.248046875
 40
0.2490234375
 40
0.2495117188
 40
0.25
 40
0.2504882812
 40
0.2509765625
 40
0.251953125
 40
0.25390625
 40
0.255859375
 40
0.2578125
 40
0.26171875
 40
0.265625
 40
0.2734375
 40
0.28125
 40
0.2890625
 40
0.296875
 40
0.30078125
 40
0.3046875
 40
0.306640625
 40
0.30859375
 40
0.310546875
 40
0.3115234375
 40
0.3120117188
 40
0.3125
 40
0.3129882812
 40
0.3134765625
 40
0.314453125
 40
0.31640625
 40
0.318359375
 40
0.3203125
 40
0.32421875
 40
0.328125
 40
0.3359375
 40
0.34375
 40
0.3515625
 40
0.359375
 40
0.36328125
 40
0.3671875
 40
0.369140625
 40
0.37109375
 40
0.373046875
 40
0.3740234375
 40
0.3745117188
 40
0.375
 40
0.3754882812
 40
0.3759765625
 40
0.376953125
 40
0.37890625
 40
0.380859375
 40
0.3828125
 40
0.38671875
 40
0.390625
 40
0.3984375
 40
0.40625
 40
0.4140625
 40
0.421875
 40
0.42578125
 40
0.4296875
 40
0.431640625
 40
0.43359375
 40
0.435546875
 40
0.4365234375
 40
0.4370117188
 40
0.4375
 40
0.4379882812
 40
0.4384765625
 40
0.439453125
 40
0.44140625
 40
0.443359375
 40
0.4453125
 40
0.44921875
 40
0.453125
 40
0.4609375
 40
0.46875
 40
0.4765625
 40
0.484375
 40
0.48828125
 40
0.4921875
 40
0.49609375
 40
0.498046875
 40
0.4990234375
 40
0.5
 40
0.5009765625
 40
0.501953125
 40
0.50390625
 40
0.5078125
 40
0.51171875
 40
0.515625
 40
0.5234375
 40
0.53125
 40
0.5390625
 40
0.546875
 40
0.55078125
 40
0.5546875
 40
0.55859375
 40
0.560546875
 40
0.5615234375
 40
0.5625
 40
0.5634765625
 40
0.564453125
 40
0.56640625
 40
0.5703125
 40
0.57421875
 40
0.578125
 40
0.5859375
 40
0.59375
 40
0.6015625
 40
0.609375
 40
0.61328125
 40
0.6171875
 40
0.62109375
 40
0.623046875
 40
0.6240234375
 40
0.625
 40
0.6259765625
 40
0.626953125
 40
0.62890625
 40
0.6328125
 40
0.63671875
 40
0.640625
 40
0.6484375
 40
0.65625
 40
0.6640625
 40
0.671875
 40
0.67578125
 40
0.6796875
 40
0.68359375
 40
0.685546875
 40
0.6865234375
 40
0.6875
 40
0.6884765625
 40
0.689453125
 40
0.69140625
 40
0.6953125
 40
0.69921875
 40
0.703125
 40
0.7109375
 40
0.71875
 40
0.7265625
 40
0.734375
 40
0.73828125
 40
0.7421875
 40
0.744140625
 40
0.74609375
 40
0.748046875
 40
0.7490234375
 40
0.7495117188
 40
0.75
 40
0.7504882812
 40
0.7509765625
 40
0.751953125
 40
0.75390625
 40
0.755859375
 40
0.7578125
 40
0.76171875
 40
0.765625
 40
0.7734375
 40
0.78125
 40
0.7890625
 40
0.796875
 40
0.80078125
 40
0.8046875
 40
0.806640625
 40
0.80859375
 40
0.810546875
 40
0.8115234375
 40
0.8120117188
 40
0.8125
 40
0.8129882812
 40
0.8134765625
 40
0.814453125
 40
0.81640625
 40
0.818359375
 40
0.8203125
 40
0.82421875
 40
0.828125
 40
0.8359375
 40
0.84375
 40
0.8515625
 40
0.859375
 40
0.86328125
 40
0.8671875
 40
0.869140625
 40
0.87109375
 40
0.873046875
 40
0.8740234375
 40
0.8745117188
 40
0.875
 40
0.8754882812
 40
0.8759765625
 40
0.876953125
 40
0.87890625
 40
0.880859375
 40
0.8828125
 40
0.88671875
 40
0.890625
 40
0.8984375
 40
0.90625
 40
0.9140625
 40
0.91796875
 40
0.921875
 40
0.92578125
 40
0.9296875
 40
0.931640625
 40
0.93359375
 40
0.935546875
 40
0.9365234375
 40
0.9370117188
 40
0.9375
 40
0.9379882812
 40
0.9384765625
 40
0.939453125
 40
0.94140625
 40
0.943359375
 40
0.9453125
 40
0.94921875
 40
0.953125
 40
0.95703125
 40
0.9609375
 40
0.96875
 40
0.9765625
 40
0.984375
 40
1.0
 40
1.0
 40
1.0
 40
1.0
 10
11.3989397059
 20
9.5528661132
 30
0.0
 10
11.3978750609
 20
9.5512016472
 30
0.0
 10
11.3962780934
 20
9.5487049483
 30
0.0
 10
11.3941488033
 20
9.5453760164
 30
0.0
 10
11.392551836
 20
9.5428793175
 30
0.0
 10
11.3912210294
 20
9.540798735
 30
0.0
 10
11.3901563851
 20
9.539134269
 30
0.0
 10
11.3893578992
 20
9.5378859196
 30
0.0
 10
11.3885594233
 20
9.53663757
 30
0.0
 10
11.387893996
 20
9.5355972792
 30
0.0
 10
11.3873617227
 20
9.5347650454
 30
0.0
 10
11.3870288959
 20
9.5342449019
 30
0.0
 10
11.3867629917
 20
9.533828781
 30
0.0
 10
11.3865625853
 20
9.5335167072
 30
0.0
 10
11.3863986921
 20
9.5332565921
 30
0.0
 10
11.3862778594
 20
9.5330746166
 30
0.0
 10
11.3862183484
 20
9.5329704666
 30
0.0
 10
11.3861468515
 20
9.5328928159
 30
0.0
 10
11.386178041
 20
9.5328134
 30
0.0
 10
11.3861838088
 20
9.5327081279
 30
0.0
 10
11.3862105909
 20
9.5325236147
 30
0.0
 10
11.3862401261
 20
9.5322601745
 30
0.0
 10
11.3862793029
 20
9.531943982
 30
0.0
 10
11.3863302342
 20
9.5315224145
 30
0.0
 10
11.386394345
 20
9.5309954474
 30
0.0
 10
11.3864966726
 20
9.5301523044
 30
0.0
 10
11.3866246677
 20
9.5290983741
 30
0.0
 10
11.3867782252
 20
9.5278336584
 30
0.0
 10
11.3869317925
 20
9.5265689426
 30
0.0
 10
11.3871365455
 20
9.5248826548
 30
0.0
 10
11.387392488
 20
9.5227747951
 30
0.0
 10
11.3876484296
 20
9.5206669354
 30
0.0
 10
11.387853184
 20
9.5189806476
 30
0.0
 10
11.3880067471
 20
9.5177159317
 30
0.0
 10
11.3881603201
 20
9.5164512162
 30
0.0
 10
11.3882882671
 20
9.5153972855
 30
0.0
 10
11.3883906929
 20
9.5145541433
 30
0.0
 10
11.3884545539
 20
9.5140271741
 30
0.0
 10
11.3885059978
 20
9.5136056108
 30
0.0
 10
11.3885436085
 20
9.5132894056
 30
0.0
 10
11.3885780437
 20
9.5130260052
 30
0.0
 10
11.3885960785
 20
9.5128414209
 30
0.0
 10
11.3886158617
 20
9.5127362628
 30
0.0
 10
11.3886040005
 20
9.5126564967
 30
0.0
 10
11.3886941948
 20
9.5125801612
 30
0.0
 10
11.3887788558
 20
9.5124771839
 30
0.0
 10
11.3889435984
 20
9.5122975312
 30
0.0
 10
11.3891702736
 20
9.5120405929
 30
0.0
 10
11.3894459955
 20
9.5117323918
 30
0.0
 10
11.3898123283
 20
9.5113214133
 30
0.0
 10
11.3902706882
 20
9.5108077052
 30
0.0
 10
11.3910038159
 20
9.5099857638
 30
0.0
 10
11.3919203107
 20
9.50895834
 30
0.0
 10
11.393020068
 20
9.5077254302
 30
0.0
 10
11.394119835
 20
9.5064925207
 30
0.0
 10
11.3955861877
 20
9.5048486413
 30
0.0
 10
11.3974191297
 20
9.502793792
 30
0.0
 10
11.3992520709
 20
9.5007389428
 30
0.0
 10
11.4007184249
 20
9.4990950634
 30
0.0
 10
11.4018181878
 20
9.4978621537
 30
0.0
 10
11.4029179605
 20
9.4966292446
 30
0.0
 10
11.4038344073
 20
9.4956018185
 30
0.0
 10
11.4045676329
 20
9.4947798819
 30
0.0
 10
11.4050257436
 20
9.4942661618
 30
0.0
 10
11.4053925879
 20
9.4938552079
 30
0.0
 10
11.4056667471
 20
9.4935469317
 30
0.0
 10
11.4058983117
 20
9.4932902282
 30
0.0
 10
11.4060543261
 20
9.4931101564
 30
0.0
 10
11.4061529718
 20
9.4930078506
 30
0.0
 10
11.4062002096
 20
9.4929294523
 30
0.0
 10
11.406349686
 20
9.4928574337
 30
0.0
 10
11.406513326
 20
9.4927591835
 30
0.0
 10
11.4068163116
 20
9.4925882826
 30
0.0
 10
11.4072404613
 20
9.4923435963
 30
0.0
 10
11.4077531591
 20
9.4920502048
 30
0.0
 10
11.4084354576
 20
9.4916589351
 30
0.0
 10
11.4092887753
 20
9.4911698757
 30
0.0
 10
11.4106538351
 20
9.4903873652
 30
0.0
 10
11.4123602452
 20
9.4894092324
 30
0.0
 10
11.4144079008
 20
9.4882354707
 30
0.0
 10
11.416455566
 20
9.4870617096
 30
0.0
 10
11.4191857834
 20
9.4854966947
 30
0.0
 10
11.4225985527
 20
9.4835404255
 30
0.0
 10
11.4266938922
 20
9.4811929055
 30
0.0
 10
11.4301066239
 20
9.4792366295
 30
0.0
 10
11.4328369241
 20
9.4776716296
 30
0.0
 10
11.4345431001
 20
9.4766934571
 30
0.0
 10
11.4359086401
 20
9.4759110279
 30
0.0
 10
11.4369311545
 20
9.4753239082
 30
0.0
 10
11.4377884688
 20
9.4748355892
 30
0.0
 10
11.4383783468
 20
9.4744919066
 30
0.0
 10
11.4387314119
 20
9.4742984196
 30
0.0
 10
11.4389511612
 20
9.4741451265
 30
0.0
 10
11.4393431128
 20
9.4740230934
 30
0.0
 10
11.4398056488
 20
9.4738494787
 30
0.0
 10
11.4406430728
 20
9.4735507333
 30
0.0
 10
11.4418247615
 20
9.4731212981
 30
0.0
 10
11.4432490505
 20
9.4726071127
 30
0.0
 10
11.4451459152
 20
9.4719211352
 30
0.0
 10
11.447517745
 20
9.4710637992
 30
0.0
 10
11.451312254
 20
9.4696919857
 30
0.0
 10
11.4560555348
 20
9.467977245
 30
0.0
 10
11.461747406
 20
9.4659195441
 30
0.0
 10
11.4674393087
 20
9.4638618495
 30
0.0
 10
11.4721825109
 20
9.4621470929
 30
0.0
 10
11.4759771769
 20
9.4607753112
 30
0.0
 10
11.4783486077
 20
9.4599178943
 30
0.0
 10
11.4802462913
 20
9.4592320828
 30
0.0
 10
11.4816680785
 20
9.45871739
 30
0.0
 10
11.4828575947
 20
9.4582895427
 30
0.0
 10
11.4836810452
 20
9.4579879626
 30
0.0
 10
11.4841659704
 20
9.4578188898
 30
0.0
 10
11.4844891499
 20
9.4576829055
 30
0.0
 10
11.4849671955
 20
9.4575820106
 30
0.0
 10
11.4855505707
 20
9.4574352445
 30
0.0
 10
11.4865966456
 20
9.4571841064
 30
0.0
 10
11.48807788
 20
9.4568223563
 30
0.0
 10
11.4898609935
 20
9.4563895323
 30
0.0
 10
11.4922365109
 20
9.4558119879
 30
0.0
 10
11.4952065813
 20
9.4550902101
 30
0.0
 10
11.4999583174
 20
9.4539352802
 30
0.0
 10
11.5058981174
 20
9.4524916474
 30
0.0
 10
11.5130258186
 20
9.4507592743
 30
0.0
 10
11.5201535468
 20
9.4490269087
 30
0.0
 10
11.5260932795
 20
9.4475832573
 30
0.0
 10
11.5308451502
 20
9.4464283645
 30
0.0
 10
11.5338148784
 20
9.4457064924
 30
0.0
 10
11.5361910981
 20
9.4451291416
 30
0.0
 10
11.5379720663
 20
9.4446957263
 30
0.0
 10
11.5394600126
 20
9.4443358261
 30
0.0
 10
11.5404941057
 20
9.4440813857
 30
0.0
 10
11.5410966787
 20
9.4439399108
 30
0.0
 10
11.5415157548
 20
9.443822763
 30
0.0
 10
11.5420604141
 20
9.4437478217
 30
0.0
 10
11.5427428217
 20
9.4436331778
 30
0.0
 10
11.5439574446
 20
9.4434394104
 30
0.0
 10
11.5456819497
 20
9.4431590137
 30
0.0
 10
11.5477559231
 20
9.4428240725
 30
0.0
 10
11.5505196257
 20
9.4423769483
 30
0.0
 10
11.5539748003
 20
9.4418182265
 30
0.0
 10
11.5595027741
 20
9.440924169
 30
0.0
 10
11.5664128469
 20
9.4398066326
 30
0.0
 10
11.5747048863
 20
9.4384655727
 30
0.0
 10
11.5829969484
 20
9.4371245212
 30
0.0
 10
11.5899069646
 20
9.4360069636
 30
0.0
 10
11.5954350514
 20
9.4351129486
 30
0.0
 10
11.5988899389
 20
9.4345541187
 30
0.0
 10
11.6016542307
 20
9.4341072164
 30
0.0
 10
11.6037264042
 20
9.4337715972
 30
0.0
 10
11.6054565409
 20
9.4334933221
 30
0.0
 10
11.6066611104
 20
9.4332957672
 30
0.0
 10
11.607359626
 20
9.4331871918
 30
0.0
 10
11.6078548068
 20
9.4330936101
 30
0.0
 10
11.608459716
 20
9.4330464725
 30
0.0
 10
11.6092279871
 20
9.4329674222
 30
0.0
 10
11.6105902943
 20
9.4328366321
 30
0.0
 10
11.6125271242
 20
9.4326458429
 30
0.0
 10
11.6148553108
 20
9.4324185849
 30
0.0
 10
11.6179581657
 20
9.4321149843
 30
0.0
 10
11.6218372116
 20
9.4317356857
 30
0.0
 10
11.628043418
 20
9.4311286945
 30
0.0
 10
11.6358012697
 20
9.4303699975
 30
0.0
 10
11.6451106426
 20
9.4294595297
 30
0.0
 10
11.6544200624
 20
9.4285491202
 30
0.0
 10
11.6621777966
 20
9.4277902775
 30
0.0
 10
11.6683842381
 20
9.4271835776
 30
0.0
 10
11.6730383763
 20
9.4267275309
 30
0.0
 10
11.6769190288
 20
9.426350742
 30
0.0
 10
11.6796311602
 20
9.4260806116
 30
0.0
 10
11.6811877032
 20
9.4259362104
 30
0.0
 10
11.6823360855
 20
9.4257998549
 30
0.0
 10
11.6835571908
 20
9.4257707381
 30
0.0
 10
11.6851599646
 20
9.4256945097
 30
0.0
 10
11.6879766375
 20
9.4255785381
 30
0.0
 10
11.691994277
 20
9.4254037527
 30
0.0
 10
11.6968180893
 20
9.4251979105
 30
0.0
 10
11.703248915
 20
9.4249220913
 30
0.0
 10
11.7112877649
 20
9.4245777881
 30
0.0
 10
11.7209342452
 20
9.4241644091
 30
0.0
 10
11.7305807756
 20
9.4237511373
 30
0.0
 10
11.7386195001
 20
9.4234065662
 30
0.0
 10
11.7450505766
 20
9.4231312827
 30
0.0
 10
11.7498736238
 20
9.4229238068
 30
0.0
 10
11.7538936567
 20
9.4227541322
 30
0.0
 10
11.7567060571
 20
9.4226290371
 30
0.0
 10
11.7583156766
 20
9.4225674268
 30
0.0
 10
11.7595157541
 20
9.4224934078
 30
0.0
 10
11.7607431133
 20
9.4225256975
 30
0.0
 10
11.762370076
 20
9.4225316688
 30
0.0
 10
11.7652216945
 20
9.4225593956
 30
0.0
 10
11.7692931172
 20
9.4225899727
 30
0.0
 10
11.7741798166
 20
9.4226305315
 30
0.0
 10
11.7806950695
 20
9.422683259
 30
0.0
 10
11.7888392529
 20
9.4227496349
 30
0.0
 10
11.7986122293
 20
9.4228290728
 30
0.0
 10
11.8083851927
 20
9.422908617
 30
0.0
 10
11.8165294084
 20
9.4229747272
 30
0.0
 10
11.8230445967
 20
9.4230279863
 30
0.0
 10
11.827931493
 20
9.4230669236
 30
0.0
 10
11.8320022998
 20
9.4231025735
 30
0.0
 10
11.8348550179
 20
9.4231212444
 30
0.0
 10
11.8364802188
 20
9.4231417255
 30
0.0
 10
11.8377129896
 20
9.4231294459
 30
0.0
 10
11.8388927416
 20
9.4232228219
 30
0.0
 10
11.8404842379
 20
9.4233104693
 30
0.0
 10
11.8432607397
 20
9.4234810232
 30
0.0
 10
11.8472316759
 20
9.4237156945
 30
0.0
 10
11.8519948709
 20
9.4240011426
 30
0.0
 10
11.8583464716
 20
9.4243803975
 30
0.0
 10
11.8662857383
 20
9.4248549298
 30
0.0
 10
11.8758129711
 20
9.4254241566
 30
0.0
 10
11.8853401278
 20
9.4259934894
 30
0.0
 10
11.8932795847
 20
9.4264677565
 30
0.0
 10
11.8996308051
 20
9.4268475418
 30
0.0
 10
11.90439516
 20
9.427131372
 30
0.0
 10
11.9083624675
 20
9.427371105
 30
0.0
 10
11.9111454469
 20
9.4275326229
 30
0.0
 10
11.9127265645
 20
9.4276347484
 30
0.0
 10
11.9139381963
 20
9.4276836525
 30
0.0
 10
11.9150512319
 20
9.4278384018
 30
0.0
 10
11.9165696707
 20
9.4280078142
 30
0.0
 10
11.9192109151
 20
9.4283214877
 30
0.0
 10
11.9229924988
 20
9.4287605994
 30
0.0
 10
11.9275268133
 20
9.4292913829
 30
0.0
 10
11.9335738187
 20
9.4299977494
 30
0.0
 10
11.9411321449
 20
9.4308811694
 30
0.0
 10
11.9502023238
 20
9.4319410743
 30
0.0
 10
11.9592724416
 20
9.4330010365
 30
0.0
 10
11.9668309205
 20
9.433884313
 30
0.0
 10
11.9728776206
 20
9.4345909665
 30
0.0
 10
11.9766569919
 20
9.4350325569
 30
0.0
 10
11.9796800687
 20
9.4353859844
 30
0.0
 10
11.9819485269
 20
9.4356506304
 30
0.0
 10
11.9838352484
 20
9.4358725194
 30
0.0
 10
11.9851631369
 20
9.436025191
 30
0.0
 10
11.9859107138
 20
9.4361165709
 30
0.0
 10
11.9865029935
 20
9.4361734461
 30
0.0
 10
11.9869744937
 20
9.4362748906
 30
0.0
 10
11.9876452899
 20
9.4363946036
 30
0.0
 10
11.9887995544
 20
9.4366113447
 30
0.0
 10
11.9904587659
 20
9.436917188
 30
0.0
 10
11.9924454272
 20
9.4372858208
 30
0.0
 10
11.9950958431
 20
9.4377767651
 30
0.0
 10
11.9984083376
 20
9.4383906394
 30
0.0
 10
12.0037086226
 20
9.4393727297
 30
0.0
 10
12.0103338773
 20
9.4406003801
 30
0.0
 10
12.0182842298
 20
9.4420735436
 30
0.0
 10
12.0262345576
 20
9.4435467152
 30
0.0
 10
12.0328598738
 20
9.4447743453
 30
0.0
 10
12.0381600357
 20
9.4457564763
 30
0.0
 10
12.041472843
 20
9.4463702472
 30
0.0
 10
12.0441226171
 20
9.4468614035
 30
0.0
 10
12.0461112392
 20
9.4472293888
 30
0.0
 10
12.0477643155
 20
9.447537258
 30
0.0
 10
12.0489295324
 20
9.4477503825
 30
0.0
 10
12.0495827802
 20
9.4478758902
 30
0.0
 10
12.0501081835
 20
9.4479595352
 30
0.0
 10
12.0504980119
 20
9.4480832624
 30
0.0
 10
12.0510650732
 20
9.4482342509
 30
0.0
 10
12.052035397
 20
9.4485049947
 30
0.0
 10
12.0534330932
 20
9.4488883661
 30
0.0
 10
12.055105398
 20
9.4493498695
 30
0.0
 10
12.05733686
 20
9.4499646981
 30
0.0
 10
12.0601255977
 20
9.4507334082
 30
0.0
 10
12.0645879077
 20
9.451963247
 30
0.0
 10
12.0701656813
 20
9.4535005791
 30
0.0
 10
12.0768590623
 20
9.4553453624
 30
0.0
 10
12.0835524147
 20
9.4571901527
 30
0.0
 10
12.0891302599
 20
9.4587274674
 30
0.0
 10
12.0935924266
 20
9.459957341
 30
0.0
 10
12.0963815286
 20
9.4607259626
 30
0.0
 10
12.0986122428
 20
9.461340973
 30
0.0
 10
12.1002868321
 20
9.4618019211
 30
0.0
 10
12.1016773809
 20
9.4621870296
 30
0.0
 10
12.102660464
 20
9.4624546724
 30
0.0
 10
12.1032070817
 20
9.4626106296
 30
0.0
 10
12.1036597062
 20
9.4627190944
 30
0.0
 10
12.1039492575
 20
9.4628600625
 30
0.0
 10
12.1043922077
 20
9.4630366824
 30
0.0
 10
12.1051408682
 20
9.4633510497
 30
0.0
 10
12.1062242388
 20
9.4637973841
 30
0.0
 10
12.107518353
 20
9.4643341675
 30
0.0
 10
12.10924591
 20
9.4650494658
 30
0.0
 10
12.111404647
 20
9.46594373
 30
0.0
 10
12.1148590225
 20
9.4673744738
 30
0.0
 10
12.1191768561
 20
9.4691629305
 30
0.0
 10
12.1243583137
 20
9.4713090672
 30
0.0
 10
12.1286761855
 20
9.4730975165
 30
0.0
 10
12.1321304771
 20
9.4745282767
 30
0.0
 10
12.1347212189
 20
9.4756013433
 30
0.0
 10
12.1373118712
 20
9.476674424
 30
0.0
 10
12.1394710274
 20
9.4775686137
 30
0.0
 10
12.1411977267
 20
9.4782840645
 30
0.0
 10
12.1424944608
 20
9.478820382
 30
0.0
 10
12.1435696342
 20
9.479268174
 30
0.0
 10
12.1443329283
 20
9.4795799392
 30
0.0
 10
12.1447524317
 20
9.4797607282
 30
0.0
 10
12.1451140039
 20
9.4798888903
 30
0.0
 10
12.1452961298
 20
9.4800454523
 30
0.0
 10
12.1456015572
 20
9.4802442954
 30
0.0
 10
12.146106892
 20
9.4805968863
 30
0.0
 10
12.1468440458
 20
9.4810981746
 30
0.0
 10
12.147722104
 20
9.4817007534
 30
0.0
 10
12.1488951281
 20
9.482503831
 30
0.0
 10
12.1503606259
 20
9.4835078018
 30
0.0
 10
12.1521195586
 20
9.4847125138
 30
0.0
 10
12.1538784015
 20
9.4859172399
 30
0.0
 10
12.1562235569
 20
9.4875235364
 30
0.0
 10
12.1591549903
 20
9.4895314087
 30
0.0
 10
12.1626727149
 20
9.4919408548
 30
0.0
 10
12.1673630129
 20
9.4951534499
 30
0.0
 10
12.1708807367
 20
9.4975628961
 30
0.0
 10
12.1732258858
 20
9.4991691936
 30
0.0
  0
ENDSEC
  0
SECTION
  2
OBJECTS
  0
DICTIONARY
  5
C
100
AcDbDictionary
280
0
281
1
  3
ACAD_GROUP
350
D
  3
ACAD_MLINESTYLE
350
17
  3
ACAD_LAYOUT
350
1A
  3
ACAD_PLOTSETTINGS
350
19
  3
ACAD_PLOTSTYLENAME
350
E
  3
ACAD_IMAGE_DICT
350
       363
  3
ACAD_IMAGE_VARS
350
       364
  3
ACAD_TABLESTYLE
350
       365
  0
IMAGEDEF_REACTOR
  5
362
100
AcDbRasterImageDefReactor
 90
2
330
266
  0
DICTIONARY
  5
D
102
{ACAD_REACTORS
330
C
102
}
100
AcDbDictionary
280
0
281
1
  0
ACDBDICTIONARYWDFLT
  5
E
102
{ACAD_REACTORS
330
C
102
}
100
AcDbDictionary
281
1
  3
Normal
350
F
100
AcDbDictionaryWithDefault
340
F
  0
DICTIONARY
  5
363
330
C
100
AcDbDictionary
281
1
  3
VTS_assy_2_img_1
350
       368
  0
RASTERVARIABLES
  5
364
330
C
100
AcDbRasterVariables
 90
0
 70
0
 71
1
 72
5
  0
DICTIONARY
  5
17
102
{ACAD_REACTORS
330
C
102
}
100
AcDbDictionary
280
0
281
1
  3
Standard
350
18
  0
DICTIONARY
  5
365
330
C
100
AcDbDictionary
281
1
  3
Standard
350
       369
  3
Standard1
350
       36A
  0
DICTIONARY
  5
19
102
{ACAD_REACTORS
330
C
102
}
100
AcDbDictionary
281
1
  0
DICTIONARY
  5
1A
102
{ACAD_REACTORS
330
C
102
}
100
AcDbDictionary
281
1
  3
Model
350
366
  3
Layout1
350
367
  0
ACDBPLACEHOLDER
  5
F
102
{ACAD_REACTORS
330
E
102
}
  0
MLINESTYLE
  5
18
102
{ACAD_REACTORS
330
17
102
}
100
AcDbMlineStyle
  2
STANDARD
 70
0
  3

 62
256
 51
90.0
 52
90.0
 71
2
 49
0.5
 62
256
  6
BYLAYER
 49
-0.5
 62
256
  6
BYLAYER
  0
LAYOUT
  5
366
102
{ACAD_REACTORS
330
1A
102
}
100
AcDbPlotSettings
  1

  2
none_device
  4
ANSI_C_(22.00_x_17.00_Inches)
  6

 40
0.0
 41
0.0
 42
0.0
 43
0.0
 44
558.8
 45
431.8
 46
0.0
 47
0.0
 48
0.0
 49
0.0
140
0.0
141
0.0
142
1.0
143
1.0
 70
1024
 72
0
 73
0
 74
0
  7

 75
0
147
1.0
148
0.0
149
0.0
100
AcDbLayout
  1
Model
 70
0
 71
0
 10
0.0
 20
0.0
 11
22.0
 21
17.0
 12
0.0
 22
0.0
 32
0.0
 14
0.0
 24
0.0
 34
0.0
 15
0.0
 25
0.0
 35
0.0
146
0.0
 13
0.0
 23
0.0
 33
0.0
 16
1.0
 26
0.0
 36
0.0
 17
0.0
 27
1.0
 37
0.0
 76
0
330
207
345
0
346
0
  0
LAYOUT
  5
367
102
{ACAD_REACTORS
330
1A
102
}
100
AcDbPlotSettings
  1

  2
none_device
  4
ANSI_C_(22.00_x_17.00_Inches)
  6

 40
0.0
 41
0.0
 42
0.0
 43
0.0
 44
558.8
 45
431.8
 46
0.0
 47
0.0
 48
0.0
 49
0.0
140
0.0
141
0.0
142
1.0
143
1.0
 70
0
 72
0
 73
0
 74
0
  7

 75
0
147
1.0
148
0.0
149
0.0
100
AcDbLayout
  1
Layout1
 70
0
 71
1
 10
0.0
 20
0.0
 11
22.0
 21
17.0
 12
0.0
 22
0.0
 32
0.0
 14
0.0
 24
0.0
 34
0.0
 15
0.0
 25
0.0
 35
0.0
146
0.0
 13
0.0
 23
0.0
 33
0.0
 16
1.0
 26
0.0
 36
0.0
 17
0.0
 27
1.0
 37
0.0
 76
0
330
208
345
0
346
0
  0
IMAGEDEF
  5
368
102
{ACAD_REACTORS
330
363
330
362
102
}
100
AcDbRasterImageDef
 90
0
  1
VTS_assy_2_img_1.png
 10
369.0
 20
92.0
 11
0.0066666667
 21
0.0066666667
280
1
281
0
  0
TABLESTYLE
  5
369
102
{ACAD_REACTORS
330
365
330
269
102
}
330
365
100
AcDbTableStyle
  3
Standard
 70
0
 71
0
 40
0.06
 41
0.06
280
1
281
1
  7
Standard
140
0.18
170
1
 62
0
 63
7
283
0
  7
Standard
140
0.18
170
1
 62
0
 63
7
283
0
  7
Standard
140
0.18
170
1
 62
0
 63
7
283
0
  0
TABLESTYLE
  5
36A
102
{ACAD_REACTORS
330
365
330
268
102
}
330
365
100
AcDbTableStyle
  3
Standard1
 70
1
 71
0
 40
0.06
 41
0.06
280
1
281
1
  7
Standard
140
0.18
170
1
 62
0
 63
7
283
0
  7
Standard
140
0.18
170
1
 62
0
 63
7
283
0
  7
Standard
140
0.18
170
1
 62
0
 63
7
283
0
  0
ENDSEC
  0
EOF
