999
DXF file: VRL_assy_2.dxf
999
Pro/ENGINEER 2014200 by Parametric Technology Corporation
  0
SECTION
  2
HEADER
  9
$ACADVER
  1
AC1021
  9
$DWGCODEPAGE
  3
ANSI_1252
  9
$EXTMAX
 10
22.0
 20
17.0
 30
0.0
  9
$EXTMIN
 10
0.0
 20
0.0
 30
0.0
  9
$LIMMIN
 10
0.0
 20
0.0
  9
$LIMMAX
 10
22.0
 20
17.0
  9
$VIEWCTR
 10
11.0
 20
8.5
  9
$VIEWSIZE
 40
17.0
  9
$CLAYER
  8
0
  9
$LTSCALE
 40
1.21
  9
$CELTYPE
  6
BYLAYER
  9
$DIMSCALE
 40
1.0
  9
$DIMASZ
 40
0.1875
  9
$DIMEXO
 40
0.0625
  9
$DIMDLI
 40
0.836
  9
$DIMEXE
 40
0.125
  9
$DIMCEN
 40
0.198
  9
$DIMLFAC
 40
1.0
  9
$DIMBLK
  1
_FILLED
  9
$DIMTXT
 40
0.1
  9
$DIMTOL
 70
0
  9
$DIMLIM
 70
0
  9
$DIMTFAC
 40
1.0
  9
$DIMGAP
 40
0.09
  9
$DIMDSEP
 70
46
  9
$AUNITS
 70
0
  9
$PDMODE
 70
3
  9
$PDSIZE
 40
0.3125
  9
$HANDSEED
  5
3AE
  9
$TILEMODE
 70
1
  9
$MEASUREMENT
 70
0
  9
$INSUNITS
 70
1
  0
ENDSEC
  0
SECTION
  2
CLASSES
  0
CLASS
  1
ACDBDICTIONARYWDFLT
  2
AcDbDictionaryWithDefault
  3
AutoCAD 2000
 90
0
 91
1
280
0
281
0
  0
CLASS
  1
ACDBPLACEHOLDER
  2
AcDbPlaceHolder
  3
AutoCAD 2000
 90
0
 91
1
280
0
281
0
  0
CLASS
  1
LAYOUT
  2
AcDbLayout
  3
AutoCAD 2000
 90
0
 91
0
280
0
281
0
  0
CLASS
  1
RASTERVARIABLES
  2
AcDbRasterVariables
  3
ISM
 90
0
 91
1
280
0
281
0
  0
CLASS
  1
IMAGEDEF
  2
AcDbRasterImageDef
  3
ISM
 90
0
 91
1
280
0
281
0
  0
CLASS
  1
IMAGEDEF_REACTOR
  2
AcDbRasterImageDefReactor
  3
ISM
 90
0
 91
1
280
0
281
0
  0
CLASS
  1
IMAGE
  2
AcDbRasterImage
  3
ISM
 90
127
 91
1
280
0
281
1
  0
CLASS
  1
TABLESTYLE
  2
AcDbTableStyle
  3
ObjectDBX Classes
 90
2047
 91
1
280
0
281
0
  0
CLASS
  1
ACAD_TABLE
  2
AcDbTable
  3
ObjectDBX Classes
 90
1025
 91
3
280
0
281
1
  0
ENDSEC
  0
SECTION
  2
TABLES
  0
TABLE
  2
VPORT
  5
8
100
AcDbSymbolTable
 70
2
  0
VPORT
  5
1F4
100
AcDbSymbolTableRecord
100
AcDbViewportTableRecord
  2
*ACTIVE
 70
0
 10
0.0
 20
0.0
 11
1.0
 21
1.0
 12
11.0
 22
8.5
 13
0.0
 23
0.0
 14
1.0
 24
1.0
 15
0.0
 25
0.0
 16
0.0
 26
0.0
 36
1.0
 17
0.0
 27
0.0
 37
0.0
 40
17.0
 41
1.2941176471
 42
50.0
 43
0.0
 44
0.0
 50
0.0
 51
0.0
 71
0
 72
100
 73
1
 74
1
 75
0
 76
0
 77
0
 78
0
  0
ENDTAB
  0
TABLE
  2
LTYPE
  5
5
100
AcDbSymbolTable
 70
6
  0
LTYPE
  5
14
100
AcDbSymbolTableRecord
100
AcDbLinetypeTableRecord
  2
BYBLOCK
 70
0
  3

 72
65
 73
0
 40
0.0
  0
LTYPE
  5
15
100
AcDbSymbolTableRecord
100
AcDbLinetypeTableRecord
  2
BYLAYER
 70
0
  3

 72
65
 73
0
 40
0.0
  0
LTYPE
  5
16
100
AcDbSymbolTableRecord
100
AcDbLinetypeTableRecord
  2
CONTINUOUS
 70
64
  3
Solid line
 72
65
 73
0
 40
0.0
  0
LTYPE
  5
1F5
100
AcDbSymbolTableRecord
100
AcDbLinetypeTableRecord
  2
CENTER
 70
64
  3
____ _ ____ _ ____ _ ____ _ ____ _ ____ _ ____
 72
65
 73
4
 40
0.6
 49
0.375
 74
0
 49
-0.075
 74
0
 49
0.075
 74
0
 49
-0.075
 74
0
  0
LTYPE
  5
1F6
100
AcDbSymbolTableRecord
100
AcDbLinetypeTableRecord
  2
HIDDEN
 70
64
  3
- - - - - - - - - - - - - - - - - - - -
 72
65
 73
2
 40
0.2
 49
0.1
 74
0
 49
-0.1
 74
0
  0
LTYPE
  5
1F7
100
AcDbSymbolTableRecord
100
AcDbLinetypeTableRecord
  2
PHANTOM
 70
64
  3
_____ _ _ _____ _ _ _____ _ _ _____
 72
65
 73
6
 40
0.8
 49
0.45
 74
0
 49
-0.05
 74
0
 49
0.1
 74
0
 49
-0.05
 74
0
 49
0.1
 74
0
 49
-0.05
 74
0
  0
LTYPE
  5
1F8
100
AcDbSymbolTableRecord
100
AcDbLinetypeTableRecord
  2
DOT
 70
64
  3
. . . . . . . . . . . . . . . . . . . .
 72
65
 73
2
 40
0.2
 49
0.1
 74
0
 49
-0.1
 74
0
  0
LTYPE
  5
1F9
100
AcDbSymbolTableRecord
100
AcDbLinetypeTableRecord
  2
DASHED
 70
64
  3
- - - - - - - - - - - - - - - - - - - -
 72
65
 73
2
 40
0.2
 49
0.1
 74
0
 49
-0.1
 74
0
  0
ENDTAB
  0
TABLE
  2
LAYER
  5
2
100
AcDbSymbolTable
 70
36
  0
LAYER
  5
10
100
AcDbSymbolTableRecord
100
AcDbLayerTableRecord
  2
0
 70
0
 62
7
  6
CONTINUOUS
370
-3
390
F
  0
LAYER
  5
1FA
100
AcDbSymbolTableRecord
100
AcDbLayerTableRecord
  2
DEFAULT_1
 70
0
 62
7
  6
CENTER
370
-3
390
F
  0
LAYER
  5
1FB
100
AcDbSymbolTableRecord
100
AcDbLayerTableRecord
  2
DEFAULT_2
 70
0
 62
8
  6
HIDDEN
370
-3
390
F
  0
LAYER
  5
1FC
100
AcDbSymbolTableRecord
100
AcDbLayerTableRecord
  2
DEFAULT_3
 70
0
 62
7
  6
PHANTOM
370
-3
390
F
  0
LAYER
  5
1FD
100
AcDbSymbolTableRecord
100
AcDbLayerTableRecord
  2
DATUM_PLANES
 70
0
 62
7
  6
CONTINUOUS
370
-3
390
F
  0
LAYER
  5
1FE
100
AcDbSymbolTableRecord
100
AcDbLayerTableRecord
  2
DIMENSIONS
 70
0
 62
7
  6
CONTINUOUS
370
-3
390
F
  0
LAYER
  5
1FF
100
AcDbSymbolTableRecord
100
AcDbLayerTableRecord
  2
PARAMETERDIMENSIONS
 70
0
 62
7
  6
CONTINUOUS
370
-3
390
F
  0
LAYER
  5
200
100
AcDbSymbolTableRecord
100
AcDbLayerTableRecord
  2
PORT_AREAS
 70
0
 62
7
  6
CONTINUOUS
370
-3
390
F
  0
LAYER
  5
201
100
AcDbSymbolTableRecord
100
AcDbLayerTableRecord
  2
SUNNBOMCOSMETIC
 70
0
 62
7
  6
CONTINUOUS
370
-3
390
F
  0
LAYER
  5
202
100
AcDbSymbolTableRecord
100
AcDbLayerTableRecord
  2
SUNNBOMSTAMPING
 70
0
 62
7
  6
CONTINUOUS
370
-3
390
F
  0
LAYER
  5
203
100
AcDbSymbolTableRecord
100
AcDbLayerTableRecord
  2
THREADS
 70
0
 62
7
  6
CONTINUOUS
370
-3
390
F
  0
ENDTAB
  0
TABLE
  2
STYLE
  5
3
100
AcDbSymbolTable
 70
1
  0
STYLE
  5
11
100
AcDbSymbolTableRecord
100
AcDbTextStyleTableRecord
  2
STANDARD
 70
0
 40
0.0
 41
0.8
 50
0.0
 71
0
 42
0.2
  3
txt
  4

  0
STYLE
  5
204
100
AcDbSymbolTableRecord
100
AcDbTextStyleTableRecord
  2
TEXTSTYLE_1
 70
0
 40
0.0
 41
0.8
 50
0.0
 71
0
 42
0.2
  3
gdt
  4

  0
ENDTAB
  0
TABLE
  2
VIEW
  5
6
100
AcDbSymbolTable
 70
0
  0
ENDTAB
  0
TABLE
  2
UCS
  5
7
100
AcDbSymbolTable
 70
0
  0
ENDTAB
  0
TABLE
  2
APPID
  5
9
100
AcDbSymbolTable
 70
1
  0
APPID
  5
205
100
AcDbSymbolTableRecord
100
AcDbRegAppTableRecord
  2
ACAD
 70
0
  0
ENDTAB
  0
TABLE
  2
BLOCK_RECORD
  5
1
100
AcDbSymbolTable
 70
0
  0
BLOCK_RECORD
  5
206
100
AcDbSymbolTableRecord
100
AcDbBlockTableRecord
  2
*Model_Space
  0
BLOCK_RECORD
  5
207
100
AcDbSymbolTableRecord
100
AcDbBlockTableRecord
  2
*Paper_Space
  0
BLOCK_RECORD
  5
208
100
AcDbSymbolTableRecord
100
AcDbBlockTableRecord
  2
SUN_FIRST_THIRD_ANGLE_BL0
  0
BLOCK_RECORD
  5
209
100
AcDbSymbolTableRecord
100
AcDbBlockTableRecord
  2
*T1
  0
BLOCK_RECORD
  5
20A
100
AcDbSymbolTableRecord
100
AcDbBlockTableRecord
  2
*T2
  0
BLOCK_RECORD
  5
20B
100
AcDbSymbolTableRecord
100
AcDbBlockTableRecord
  2
*T3
  0
ENDTAB
  0
TABLE
  2
DIMSTYLE
  5
A
100
AcDbSymbolTable
 70
1
100
AcDbDimStyleTable
 71
0
  0
DIMSTYLE
105
20C
100
AcDbSymbolTableRecord
100
AcDbDimStyleTableRecord
  2
STANDARD
 70
0
  3

  4

 40
1.0
 41
0.1875
 42
0.0625
 43
0.38
 44
0.125
 45
0.0
 46
0.0
 47
0.001
 48
0.001
140
0.1
141
0.09
142
0.0
143
25.4
144
1.0
145
0.0
146
1.0
147
0.09
 71
0.0
 72
0.0
 73
1
 74
1
 75
0
 76
0
 77
0
 78
4
170
0
171
2
172
0
173
0
174
0
175
0
176
0
177
0
178
0
270
2
271
3
272
3
273
2
274
2
275
0
280
0
281
0
282
0
283
1
284
4
285
0
286
0
287
3
288
0
340
11
278
46
  0
ENDTAB
  0
ENDSEC
  0
SECTION
  2
BLOCKS
  0
BLOCK
  5
20
100
AcDbEntity
  8
0
100
AcDbBlockBegin
  2
*Model_Space
 70
0
 10
0.0
 20
0.0
 30
0.0
  3
*Model_Space
  1

  0
ENDBLK
  5
21
100
AcDbEntity
  8
0
100
AcDbBlockEnd
  0
BLOCK
  5
1C
100
AcDbEntity
  8
0
100
AcDbBlockBegin
  2
*Paper_Space
 70
0
 10
0.0
 20
0.0
 30
0.0
  3
*Paper_Space
  1

  0
ENDBLK
  5
1D
100
AcDbEntity
  8
0
100
AcDbBlockEnd
  0
BLOCK
  5
20D
100
AcDbEntity
  8
0
100
AcDbBlockBegin
 62
2
  6
CONTINUOUS
  2
SUN_FIRST_THIRD_ANGLE_BL0
 70
64
 10
20.4816717061
 20
1.2289683772
  3
SUN_FIRST_THIRD_ANGLE_BL0
  1

  0
TEXT
  5
20E
100
AcDbEntity
  8
0
100
AcDbText
 62
2
  6
CONTINUOUS
 10
19.4750896608
 20
1.4136269581
  7
STANDARD
 40
0.08
  1
FIRST ANGLE
 41
0.8
 72
0
100
AcDbText
  0
TEXT
  5
20F
100
AcDbEntity
  8
0
100
AcDbText
 62
2
  6
CONTINUOUS
 10
20.7842537513
 20
1.4047600029
  7
STANDARD
 40
0.08
  1
THIRD ANGLE
 41
0.8
 72
0
100
AcDbText
  0
LINE
  5
210
100
AcDbEntity
  8
0
100
AcDbLine
 62
7
  6
CONTINUOUS
 10
19.4767170086
 20
1.1727031207
 11
19.6334271527
 21
1.1717972817
  0
LINE
  5
211
100
AcDbEntity
  8
0
100
AcDbLine
 62
7
  6
CONTINUOUS
 10
19.6596964832
 20
1.1717972817
 11
19.6950230232
 21
1.171593082
  0
LINE
  5
212
100
AcDbEntity
  8
0
100
AcDbLine
 62
7
  6
CONTINUOUS
 10
19.7194818561
 20
1.1708914427
 11
19.8852396156
 21
1.1699333054
  0
LINE
  5
213
100
AcDbEntity
  8
0
100
AcDbLine
 62
7
  6
CONTINUOUS
 10
19.4758111696
 20
1.2723454088
 11
19.88525039
 21
1.3511534004
  0
LINE
  5
214
100
AcDbEntity
  8
0
100
AcDbLine
 62
7
  6
CONTINUOUS
 10
19.88525039
 20
1.3511534004
 11
19.8831348489
 21
0.9851647912
  0
LINE
  5
215
100
AcDbEntity
  8
0
100
AcDbLine
 62
7
  6
CONTINUOUS
 10
19.8831348489
 20
0.9851647912
 11
19.4767170086
 21
1.0658141206
  0
LINE
  5
216
100
AcDbEntity
  8
0
100
AcDbLine
 62
7
  6
CONTINUOUS
 10
19.4767170086
 20
1.0658141206
 11
19.4779056764
 21
1.2714536432
  0
CIRCLE
  5
217
100
AcDbEntity
  8
0
100
AcDbCircle
 62
7
  6
CONTINUOUS
 10
20.2068232291
 20
1.1717972817
 40
0.175742101
  0
CIRCLE
  5
218
100
AcDbEntity
  8
0
100
AcDbCircle
 62
7
  6
CONTINUOUS
 10
20.2068232291
 20
1.1717972817
 40
0.1005522074
  0
LINE
  5
219
100
AcDbEntity
  8
0
100
AcDbLine
 62
7
  6
CONTINUOUS
 10
20.2077290681
 20
1.3756110529
 11
20.2071171714
 21
1.2379342989
  0
LINE
  5
21A
100
AcDbEntity
  8
0
100
AcDbLine
 62
7
  6
CONTINUOUS
 10
20.2077290681
 20
1.2016899681
 11
20.2074674401
 21
1.1428236749
  0
LINE
  5
21B
100
AcDbEntity
  8
0
100
AcDbLine
 62
7
  6
CONTINUOUS
 10
20.208634907
 20
1.101141841
 11
20.2080230104
 21
0.963465087
  0
LINE
  5
21C
100
AcDbEntity
  8
0
100
AcDbLine
 62
7
  6
CONTINUOUS
 10
20.0066328138
 20
1.1745147986
 11
20.1443095678
 21
1.1739029019
  0
LINE
  5
21D
100
AcDbEntity
  8
0
100
AcDbLine
 62
7
  6
CONTINUOUS
 10
20.1832714155
 20
1.1727031207
 11
20.238153505
 21
1.172335442
  0
LINE
  5
21E
100
AcDbEntity
  8
0
100
AcDbLine
 62
7
  6
CONTINUOUS
 10
20.2756669918
 20
1.1717972817
 11
20.407916871
 21
1.1712095044
  0
CIRCLE
  5
21F
100
AcDbEntity
  8
0
100
AcDbCircle
 62
7
  6
CONTINUOUS
 10
20.7509457401
 20
1.1693297793
 40
0.1722024983
  0
CIRCLE
  5
220
100
AcDbEntity
  8
0
100
AcDbCircle
 62
7
  6
CONTINUOUS
 10
20.7509457401
 20
1.1693297793
 40
0.0985164967
  0
LINE
  5
221
100
AcDbEntity
  8
0
100
AcDbLine
 62
7
  6
CONTINUOUS
 10
20.7169767782
 20
1.170462078
 11
20.7825395137
 21
1.1682766535
  0
LINE
  5
222
100
AcDbEntity
  8
0
100
AcDbLine
 62
7
  6
CONTINUOUS
 10
20.8177513651
 20
1.1693297793
 11
20.947965719
 21
1.1693297793
  0
LINE
  5
223
100
AcDbEntity
  8
0
100
AcDbLine
 62
7
  6
CONTINUOUS
 10
20.6875370113
 20
1.170462078
 11
20.5573226574
 21
1.170462078
  0
LINE
  5
224
100
AcDbEntity
  8
0
100
AcDbLine
 62
7
  6
CONTINUOUS
 10
20.7486811426
 20
1.1987695462
 11
20.7486811426
 21
1.1432869085
  0
LINE
  5
225
100
AcDbEntity
  8
0
100
AcDbLine
 62
7
  6
CONTINUOUS
 10
20.7498134414
 20
1.1059210505
 11
20.7498134414
 21
0.9757066966
  0
LINE
  5
226
100
AcDbEntity
  8
0
100
AcDbLine
 62
7
  6
CONTINUOUS
 10
20.7486811426
 20
1.2338708068
 11
20.7486811426
 21
1.3640851607
  0
LINE
  5
227
100
AcDbEntity
  8
0
100
AcDbLine
 62
7
  6
CONTINUOUS
 10
21.0702539817
 20
1.2701043662
 11
21.4790138229
 21
1.3448360823
  0
LINE
  5
228
100
AcDbEntity
  8
0
100
AcDbLine
 62
7
  6
CONTINUOUS
 10
21.4790138229
 20
1.3448360823
 11
21.4790138229
 21
0.9779712941
  0
LINE
  5
229
100
AcDbEntity
  8
0
100
AcDbLine
 62
7
  6
CONTINUOUS
 10
21.4790138229
 20
0.9779712941
 11
21.069121683
 21
1.0617614
  0
LINE
  5
22A
100
AcDbEntity
  8
0
100
AcDbLine
 62
7
  6
CONTINUOUS
 10
21.0702539817
 20
1.2701043662
 11
21.069121683
 21
1.0617614
  0
LINE
  5
22B
100
AcDbEntity
  8
0
100
AcDbLine
 62
7
  6
CONTINUOUS
 10
21.4790138229
 20
1.1693297793
 11
21.3159628059
 21
1.1693297793
  0
LINE
  5
22C
100
AcDbEntity
  8
0
100
AcDbLine
 62
7
  6
CONTINUOUS
 10
21.2876553377
 20
1.1693297793
 11
21.2502894796
 21
1.1693297793
  0
LINE
  5
22D
100
AcDbEntity
  8
0
100
AcDbLine
 62
7
  6
CONTINUOUS
 10
21.2208497126
 20
1.1659328831
 11
21.0713862804
 21
1.1659328831
  0
LINE
  5
22E
100
AcDbEntity
  8
0
100
AcDbLine
 62
7
  6
CONTINUOUS
 10
20.4796138713
 20
1.5284908897
 11
20.4766766948
 21
0.9294458646
  0
ENDBLK
  5
22F
100
AcDbEntity
  8
0
  6
BYBLOCK
 62
0
100
AcDbBlockEnd
  0
BLOCK
  5
230
100
AcDbEntity
  8
0
100
AcDbBlockBegin
  2
*T1
 70
1
 10
0.0
 20
0.0
  3
*T1
  1

  0
LINE
  5
231
100
AcDbEntity
  8
0
100
AcDbLine
 62
2
  6
CONTINUOUS
 10
9.275
 20
0.0
 11
-0.0
 21
0.0
  0
LINE
  5
232
100
AcDbEntity
  8
0
100
AcDbLine
 62
2
  6
CONTINUOUS
 10
9.275
 20
0.0
 11
9.275
 21
1.25
  0
LINE
  5
233
100
AcDbEntity
  8
0
100
AcDbLine
 62
2
  6
CONTINUOUS
 10
9.275
 20
0.625
 11
-0.0
 21
0.625
  0
LINE
  5
234
100
AcDbEntity
  8
0
100
AcDbLine
 62
2
  6
CONTINUOUS
 10
9.275
 20
1.25
 11
-0.0
 21
1.25
  0
LINE
  5
235
100
AcDbEntity
  8
0
100
AcDbLine
 62
2
  6
CONTINUOUS
 10
6.8
 20
0.0
 11
6.8
 21
1.25
  0
LINE
  5
236
100
AcDbEntity
  8
0
100
AcDbLine
 62
2
  6
CONTINUOUS
 10
6.4
 20
0.0
 11
6.4
 21
0.625
  0
LINE
  5
237
100
AcDbEntity
  8
0
100
AcDbLine
 62
2
  6
CONTINUOUS
 10
5.9
 20
0.0
 11
5.9
 21
0.625
  0
LINE
  5
238
100
AcDbEntity
  8
0
100
AcDbLine
 62
2
  6
CONTINUOUS
 10
5.2
 20
0.0
 11
5.2
 21
0.625
  0
LINE
  5
239
100
AcDbEntity
  8
0
100
AcDbLine
 62
2
  6
CONTINUOUS
 10
4.1
 20
0.0
 11
4.1
 21
1.25
  0
LINE
  5
23A
100
AcDbEntity
  8
0
100
AcDbLine
 62
2
  6
CONTINUOUS
 10
-0.0
 20
0.0
 11
-0.0
 21
1.25
  0
MTEXT
  5
23B
100
AcDbEntity
  8
0
100
AcDbMText
 62
2
  6
CONTINUOUS
  7
STANDARD
 71
2
 72
1
 10
6.6
 20
0.325
 30
0.0
 11
1.0
 21
0.0
 31
0.0
 44
0.9
  1
2
 40
0.125
 41
0.2
  0
MTEXT
  5
23C
100
AcDbEntity
  8
0
100
AcDbMText
 62
2
  6
CONTINUOUS
  7
STANDARD
 71
2
 72
1
 10
6.15
 20
0.325
 30
0.0
 11
1.0
 21
0.0
 31
0.0
 44
0.9
  1
C
 40
0.125
 41
0.2
  0
MTEXT
  5
23D
100
AcDbEntity
  8
0
100
AcDbMText
 62
2
  6
CONTINUOUS
  7
STANDARD
 71
2
 72
1
 10
5.55
 20
0.325
 30
0.0
 11
1.0
 21
0.0
 31
0.0
 44
0.9
  1
1.000
 40
0.125
 41
1.0
  0
MTEXT
  5
23E
100
AcDbEntity
  8
0
100
AcDbMText
 62
2
  6
CONTINUOUS
  7
STANDARD
 71
2
 72
1
 10
4.65
 20
0.325
 30
0.0
 11
1.0
 21
0.0
 31
0.0
 44
0.9
  1
Jun-18-20
 40
0.125
 41
1.8
  0
MTEXT
  5
23F
100
AcDbEntity
  8
0
100
AcDbMText
 62
2
  6
CONTINUOUS
  7
STANDARD
 71
2
 72
1
 10
2.05
 20
0.4625
 30
0.0
 11
1.0
 21
0.0
 31
0.0
 44
0.9
  1
T-3A Bar Manifold ISO 05 - X&Y (Euro)\P(See Technical Data for Body Features)
 40
0.125
 41
7.6
  0
MTEXT
  5
240
100
AcDbEntity
  8
0
100
AcDbMText
 62
2
  6
CONTINUOUS
  7
STANDARD
 71
1
 72
1
 10
6.45
 20
0.5625
 30
0.0
 11
1.0
 21
0.0
 31
0.0
 44
0.9
  1
SHEET
 40
0.06
 41
0.48
  0
MTEXT
  5
241
100
AcDbEntity
  8
0
100
AcDbMText
 62
2
  6
CONTINUOUS
  7
STANDARD
 71
1
 72
1
 10
5.95
 20
0.5625
 30
0.0
 11
1.0
 21
0.0
 31
0.0
 44
0.9
  1
DWG SIZE
 40
0.06
 41
0.768
  0
MTEXT
  5
242
100
AcDbEntity
  8
0
100
AcDbMText
 62
2
  6
CONTINUOUS
  7
STANDARD
 71
1
 72
1
 10
5.25
 20
0.5625
 30
0.0
 11
1.0
 21
0.0
 31
0.0
 44
0.9
  1
SCALE
 40
0.06
 41
0.48
  0
MTEXT
  5
243
100
AcDbEntity
  8
0
100
AcDbMText
 62
2
  6
CONTINUOUS
  7
STANDARD
 71
1
 72
1
 10
4.15
 20
0.5625
 30
0.0
 11
1.0
 21
0.0
 31
0.0
 44
0.9
  1
DATE
 40
0.06
 41
0.384
  0
MTEXT
  5
244
100
AcDbEntity
  8
0
100
AcDbMText
 62
2
  6
CONTINUOUS
  7
STANDARD
 71
1
 72
1
 10
0.05
 20
0.5625
 30
0.0
 11
1.0
 21
0.0
 31
0.0
 44
0.9
  1
DESCRIPTION
 40
0.06
 41
1.056
  0
MTEXT
  5
245
100
AcDbEntity
  8
0
100
AcDbMText
 62
2
  6
CONTINUOUS
  7
STANDARD
 71
2
 72
1
 10
5.45
 20
1.0375
 30
0.0
 11
1.0
 21
0.0
 31
0.0
 44
0.9
  1
ALL DIMENSIONS IN INCH\PVIEWS ARE THIRD ANGLE
 40
0.12
 41
4.224
  0
MTEXT
  5
246
100
AcDbEntity
  8
0
100
AcDbMText
 62
2
  6
CONTINUOUS
  7
STANDARD
 71
2
 72
1
 10
2.05
 20
0.95
 30
0.0
 11
1.0
 21
0.0
 31
0.0
 44
0.9
  1
VRL
 40
0.125
 41
0.6
  0
MTEXT
  5
247
100
AcDbEntity
  8
0
100
AcDbMText
 62
2
  6
CONTINUOUS
  7
STANDARD
 71
1
 72
1
 10
0.05
 20
1.1875
 30
0.0
 11
1.0
 21
0.0
 31
0.0
 44
0.9
  1
MODEL
 40
0.06
 41
0.48
  0
ENDBLK
  5
248
100
AcDbEntity
  8
0
  6
BYBLOCK
 62
0
100
AcDbBlockEnd
  0
BLOCK
  5
249
100
AcDbEntity
  8
0
100
AcDbBlockBegin
  2
*T2
 70
1
 10
0.0
 20
0.0
  3
*T2
  1

  0
LINE
  5
24A
100
AcDbEntity
  8
0
100
AcDbLine
 62
2
  6
CONTINUOUS
 10
0.0
 20
0.0
 11
9.055
 21
0.0
  0
LINE
  5
24B
100
AcDbEntity
  8
0
100
AcDbLine
 62
2
  6
CONTINUOUS
 10
0.0
 20
0.0
 11
0.0
 21
-2.594
  0
LINE
  5
24C
100
AcDbEntity
  8
0
100
AcDbLine
 62
2
  6
CONTINUOUS
 10
0.0
 20
-0.344
 11
9.055
 21
-0.344
  0
LINE
  5
24D
100
AcDbEntity
  8
0
100
AcDbLine
 62
2
  6
CONTINUOUS
 10
0.0
 20
-0.594
 11
9.055
 21
-0.594
  0
LINE
  5
24E
100
AcDbEntity
  8
0
100
AcDbLine
 62
2
  6
CONTINUOUS
 10
0.0
 20
-0.844
 11
9.055
 21
-0.844
  0
LINE
  5
24F
100
AcDbEntity
  8
0
100
AcDbLine
 62
2
  6
CONTINUOUS
 10
0.0
 20
-1.094
 11
9.055
 21
-1.094
  0
LINE
  5
250
100
AcDbEntity
  8
0
100
AcDbLine
 62
2
  6
CONTINUOUS
 10
0.0
 20
-1.344
 11
9.055
 21
-1.344
  0
LINE
  5
251
100
AcDbEntity
  8
0
100
AcDbLine
 62
2
  6
CONTINUOUS
 10
0.0
 20
-1.594
 11
9.055
 21
-1.594
  0
LINE
  5
252
100
AcDbEntity
  8
0
100
AcDbLine
 62
2
  6
CONTINUOUS
 10
0.0
 20
-1.844
 11
9.055
 21
-1.844
  0
LINE
  5
253
100
AcDbEntity
  8
0
100
AcDbLine
 62
2
  6
CONTINUOUS
 10
0.0
 20
-2.094
 11
9.055
 21
-2.094
  0
LINE
  5
254
100
AcDbEntity
  8
0
100
AcDbLine
 62
2
  6
CONTINUOUS
 10
0.0
 20
-2.344
 11
9.055
 21
-2.344
  0
LINE
  5
255
100
AcDbEntity
  8
0
100
AcDbLine
 62
2
  6
CONTINUOUS
 10
0.0
 20
-2.594
 11
9.055
 21
-2.594
  0
LINE
  5
256
100
AcDbEntity
  8
0
100
AcDbLine
 62
2
  6
CONTINUOUS
 10
3.055
 20
0.0
 11
3.055
 21
-2.594
  0
LINE
  5
257
100
AcDbEntity
  8
0
100
AcDbLine
 62
2
  6
CONTINUOUS
 10
9.055
 20
0.0
 11
9.055
 21
-2.594
  0
MTEXT
  5
258
100
AcDbEntity
  8
0
100
AcDbMText
 62
2
  6
CONTINUOUS
  7
STANDARD
 71
2
 72
1
 10
1.5275
 20
-0.0995
 30
0.0
 11
1.0
 21
0.0
 31
0.0
 44
0.9
  1
Technical Data
 40
0.145
 41
3.248
  0
MTEXT
  5
259
100
AcDbEntity
  8
0
100
AcDbMText
 62
2
  6
CONTINUOUS
  7
STANDARD
 71
2
 72
1
 10
4.555
 20
-0.0995
 30
0.0
 11
1.0
 21
0.0
 31
0.0
 44
0.9
  1
U.S. Units
 40
0.145
 41
2.32
  0
MTEXT
  5
25A
100
AcDbEntity
  8
0
100
AcDbMText
 62
2
  6
CONTINUOUS
  7
STANDARD
 71
2
 72
1
 10
7.555
 20
-0.0995
 30
0.0
 11
1.0
 21
0.0
 31
0.0
 44
0.9
  1
Metric Units
 40
0.145
 41
2.784
  0
MTEXT
  5
25B
100
AcDbEntity
  8
0
100
AcDbMText
 62
2
  6
CONTINUOUS
  7
STANDARD
 71
2
 72
1
 10
1.5275
 20
-0.4065
 30
0.0
 11
1.0
 21
0.0
 31
0.0
 44
0.9
  1
Cavity
 40
0.125
 41
1.2
  0
MTEXT
  5
25C
100
AcDbEntity
  8
0
100
AcDbMText
 62
2
  6
CONTINUOUS
  7
STANDARD
 71
2
 72
1
 10
6.055
 20
-0.4065
 30
0.0
 11
1.0
 21
0.0
 31
0.0
 44
0.9
  1
T-3A
 40
0.125
 41
0.8
  0
MTEXT
  5
25D
100
AcDbEntity
  8
0
100
AcDbMText
 62
2
  6
CONTINUOUS
  7
STANDARD
 71
2
 72
1
 10
1.5275
 20
-0.6565
 30
0.0
 11
1.0
 21
0.0
 31
0.0
 44
0.9
  1
Body Features
 40
0.125
 41
2.6
  0
MTEXT
  5
25E
100
AcDbEntity
  8
0
100
AcDbMText
 62
2
  6
CONTINUOUS
  7
STANDARD
 71
2
 72
1
 10
6.055
 20
-0.6565
 30
0.0
 11
1.0
 21
0.0
 31
0.0
 44
0.9
  1
1 Station, Parallel circuit with relief cavity
 40
0.125
 41
9.2
  0
MTEXT
  5
25F
100
AcDbEntity
  8
0
100
AcDbMText
 62
2
  6
CONTINUOUS
  7
STANDARD
 71
2
 72
1
 10
1.5275
 20
-0.9065
 30
0.0
 11
1.0
 21
0.0
 31
0.0
 44
0.9
  1
Body Type
 40
0.125
 41
1.8
  0
MTEXT
  5
260
100
AcDbEntity
  8
0
100
AcDbMText
 62
2
  6
CONTINUOUS
  7
STANDARD
 71
2
 72
1
 10
6.055
 20
-0.9065
 30
0.0
 11
1.0
 21
0.0
 31
0.0
 44
0.9
  1
Bar Manifold
 40
0.125
 41
2.4
  0
MTEXT
  5
261
100
AcDbEntity
  8
0
100
AcDbMText
 62
2
  6
CONTINUOUS
  7
STANDARD
 71
2
 72
1
 10
1.5275
 20
-1.1565
 30
0.0
 11
1.0
 21
0.0
 31
0.0
 44
0.9
  1
Interface
 40
0.125
 41
1.8
  0
MTEXT
  5
262
100
AcDbEntity
  8
0
100
AcDbMText
 62
2
  6
CONTINUOUS
  7
STANDARD
 71
2
 72
1
 10
6.055
 20
-1.1565
 30
0.0
 11
1.0
 21
0.0
 31
0.0
 44
0.9
  1
ISO 05 - X&Y (Euro)
 40
0.125
 41
3.8
  0
MTEXT
  5
263
100
AcDbEntity
  8
0
100
AcDbMText
 62
2
  6
CONTINUOUS
  7
STANDARD
 71
2
 72
1
 10
1.5275
 20
-1.4065
 30
0.0
 11
1.0
 21
0.0
 31
0.0
 44
0.9
  1
Open Cavity Quantity
 40
0.125
 41
4.0
  0
MTEXT
  5
264
100
AcDbEntity
  8
0
100
AcDbMText
 62
2
  6
CONTINUOUS
  7
STANDARD
 71
2
 72
1
 10
6.055
 20
-1.4065
 30
0.0
 11
1.0
 21
0.0
 31
0.0
 44
0.9
  1
1
 40
0.125
 41
0.2
  0
MTEXT
  5
265
100
AcDbEntity
  8
0
100
AcDbMText
 62
2
  6
CONTINUOUS
  7
STANDARD
 71
2
 72
1
 10
1.5275
 20
-1.6565
 30
0.0
 11
1.0
 21
0.0
 31
0.0
 44
0.9
  1
Weight
 40
0.125
 41
1.2
  0
MTEXT
  5
266
100
AcDbEntity
  8
0
100
AcDbMText
 62
2
  6
CONTINUOUS
  7
STANDARD
 71
2
 72
1
 10
4.555
 20
-1.6565
 30
0.0
 11
1.0
 21
0.0
 31
0.0
 44
0.9
  1
5.695 lb.
 40
0.125
 41
1.8
  0
MTEXT
  5
267
100
AcDbEntity
  8
0
100
AcDbMText
 62
2
  6
CONTINUOUS
  7
STANDARD
 71
2
 72
1
 10
7.555
 20
-1.6565
 30
0.0
 11
1.0
 21
0.0
 31
0.0
 44
0.9
  1
2,583 kg.
 40
0.125
 41
1.8
  0
MTEXT
  5
268
100
AcDbEntity
  8
0
100
AcDbMText
 62
2
  6
CONTINUOUS
  7
STANDARD
 71
2
 72
1
 10
1.5275
 20
-1.9065
 30
0.0
 11
1.0
 21
0.0
 31
0.0
 44
0.9
  1
Mounting Hole Thread
 40
0.125
 41
4.0
  0
MTEXT
  5
269
100
AcDbEntity
  8
0
100
AcDbMText
 62
2
  6
CONTINUOUS
  7
STANDARD
 71
2
 72
1
 10
4.555
 20
-1.9065
 30
0.0
 11
1.0
 21
0.0
 31
0.0
 44
0.9
  1
.375-16 UNC - 2B in.
 40
0.125
 41
4.0
  0
MTEXT
  5
26A
100
AcDbEntity
  8
0
100
AcDbMText
 62
2
  6
CONTINUOUS
  7
STANDARD
 71
2
 72
1
 10
1.5275
 20
-2.1565
 30
0.0
 11
1.0
 21
0.0
 31
0.0
 44
0.9
  1
Mounting Hole Depth
 40
0.125
 41
3.8
  0
MTEXT
  5
26B
100
AcDbEntity
  8
0
100
AcDbMText
 62
2
  6
CONTINUOUS
  7
STANDARD
 71
2
 72
1
 10
4.555
 20
-2.1565
 30
0.0
 11
1.0
 21
0.0
 31
0.0
 44
0.9
  1
.75 in.
 40
0.125
 41
1.4
  0
MTEXT
  5
26C
100
AcDbEntity
  8
0
100
AcDbMText
 62
2
  6
CONTINUOUS
  7
STANDARD
 71
2
 72
1
 10
7.555
 20
-2.1565
 30
0.0
 11
1.0
 21
0.0
 31
0.0
 44
0.9
  1
19 mm
 40
0.125
 41
1.0
  0
MTEXT
  5
26D
100
AcDbEntity
  8
0
100
AcDbMText
 62
2
  6
CONTINUOUS
  7
STANDARD
 71
2
 72
1
 10
1.5275
 20
-2.4065
 30
0.0
 11
1.0
 21
0.0
 31
0.0
 44
0.9
  1
Mounting Hole Quantity
 40
0.125
 41
4.4
  0
MTEXT
  5
26E
100
AcDbEntity
  8
0
100
AcDbMText
 62
2
  6
CONTINUOUS
  7
STANDARD
 71
2
 72
1
 10
6.055
 20
-2.4065
 30
0.0
 11
1.0
 21
0.0
 31
0.0
 44
0.9
  1
4
 40
0.125
 41
0.2
  0
ENDBLK
  5
26F
100
AcDbEntity
  8
0
  6
BYBLOCK
 62
0
100
AcDbBlockEnd
  0
BLOCK
  5
270
100
AcDbEntity
  8
0
100
AcDbBlockBegin
  2
*T3
 70
1
 10
0.0
 20
0.0
  3
*T3
  1

  0
LINE
  5
271
100
AcDbEntity
  8
0
100
AcDbLine
 62
2
  6
CONTINUOUS
 10
0.0
 20
0.0
 11
4.6
 21
0.0
  0
LINE
  5
272
100
AcDbEntity
  8
0
100
AcDbLine
 62
2
  6
CONTINUOUS
 10
0.0
 20
0.0
 11
0.0
 21
-1.68775
  0
LINE
  5
273
100
AcDbEntity
  8
0
100
AcDbLine
 62
2
  6
CONTINUOUS
 10
0.0
 20
-0.34375
 11
4.6
 21
-0.34375
  0
LINE
  5
274
100
AcDbEntity
  8
0
100
AcDbLine
 62
2
  6
CONTINUOUS
 10
0.0
 20
-0.68775
 11
4.6
 21
-0.68775
  0
LINE
  5
275
100
AcDbEntity
  8
0
100
AcDbLine
 62
2
  6
CONTINUOUS
 10
0.0
 20
-0.93775
 11
4.6
 21
-0.93775
  0
LINE
  5
276
100
AcDbEntity
  8
0
100
AcDbLine
 62
2
  6
CONTINUOUS
 10
0.0
 20
-1.18775
 11
4.6
 21
-1.18775
  0
LINE
  5
277
100
AcDbEntity
  8
0
100
AcDbLine
 62
2
  6
CONTINUOUS
 10
0.0
 20
-1.43775
 11
4.6
 21
-1.43775
  0
LINE
  5
278
100
AcDbEntity
  8
0
100
AcDbLine
 62
2
  6
CONTINUOUS
 10
0.0
 20
-1.68775
 11
4.6
 21
-1.68775
  0
LINE
  5
279
100
AcDbEntity
  8
0
100
AcDbLine
 62
2
  6
CONTINUOUS
 10
1.3
 20
-0.34375
 11
1.3
 21
-1.68775
  0
LINE
  5
27A
100
AcDbEntity
  8
0
100
AcDbLine
 62
2
  6
CONTINUOUS
 10
3.3
 20
-0.34375
 11
3.3
 21
-1.68775
  0
LINE
  5
27B
100
AcDbEntity
  8
0
100
AcDbLine
 62
2
  6
CONTINUOUS
 10
4.6
 20
0.0
 11
4.6
 21
-1.68775
  0
MTEXT
  5
27C
100
AcDbEntity
  8
0
100
AcDbMText
 62
2
  6
CONTINUOUS
  7
STANDARD
 71
2
 72
1
 10
2.3
 20
-0.099375
 30
0.0
 11
1.0
 21
0.0
 31
0.0
 44
0.9
  1
Port Headings
 40
0.145
 41
3.016
  0
MTEXT
  5
27D
100
AcDbEntity
  8
0
100
AcDbMText
 62
2
  6
CONTINUOUS
  7
STANDARD
 71
2
 72
1
 10
0.65
 20
-0.44325
 30
0.0
 11
1.0
 21
0.0
 31
0.0
 44
0.9
  1
Product
 40
0.145
 41
1.624
  0
MTEXT
  5
27E
100
AcDbEntity
  8
0
100
AcDbMText
 62
2
  6
CONTINUOUS
  7
STANDARD
 71
2
 72
1
 10
2.3
 20
-0.44325
 30
0.0
 11
1.0
 21
0.0
 31
0.0
 44
0.9
  1
Port
 40
0.145
 41
0.928
  0
MTEXT
  5
27F
100
AcDbEntity
  8
0
100
AcDbMText
 62
2
  6
CONTINUOUS
  7
STANDARD
 71
2
 72
1
 10
3.95
 20
-0.44325
 30
0.0
 11
1.0
 21
0.0
 31
0.0
 44
0.9
  1
Size
 40
0.145
 41
0.928
  0
MTEXT
  5
280
100
AcDbEntity
  8
0
100
AcDbMText
 62
2
  6
CONTINUOUS
  7
STANDARD
 71
2
 72
1
 10
0.65
 20
-0.75025
 30
0.0
 11
1.0
 21
0.0
 31
0.0
 44
0.9
  1
VRL
 40
0.125
 41
0.6
  0
MTEXT
  5
281
100
AcDbEntity
  8
0
100
AcDbMText
 62
2
  6
CONTINUOUS
  7
STANDARD
 71
2
 72
1
 10
2.3
 20
-0.75025
 30
0.0
 11
1.0
 21
0.0
 31
0.0
 44
0.9
  1
Ports A, B, P
 40
0.125
 41
2.6
  0
MTEXT
  5
282
100
AcDbEntity
  8
0
100
AcDbMText
 62
2
  6
CONTINUOUS
  7
STANDARD
 71
2
 72
1
 10
3.95
 20
-0.75025
 30
0.0
 11
1.0
 21
0.0
 31
0.0
 44
0.9
  1
SAE 12
 40
0.125
 41
1.2
  0
MTEXT
  5
283
100
AcDbEntity
  8
0
100
AcDbMText
 62
2
  6
CONTINUOUS
  7
STANDARD
 71
2
 72
1
 10
0.65
 20
-1.00025
 30
0.0
 11
1.0
 21
0.0
 31
0.0
 44
0.9
  1
VRL
 40
0.125
 41
0.6
  0
MTEXT
  5
284
100
AcDbEntity
  8
0
100
AcDbMText
 62
2
  6
CONTINUOUS
  7
STANDARD
 71
2
 72
1
 10
2.3
 20
-1.00025
 30
0.0
 11
1.0
 21
0.0
 31
0.0
 44
0.9
  1
Port T
 40
0.125
 41
1.2
  0
MTEXT
  5
285
100
AcDbEntity
  8
0
100
AcDbMText
 62
2
  6
CONTINUOUS
  7
STANDARD
 71
2
 72
1
 10
3.95
 20
-1.00025
 30
0.0
 11
1.0
 21
0.0
 31
0.0
 44
0.9
  1
SAE 16
 40
0.125
 41
1.2
  0
MTEXT
  5
286
100
AcDbEntity
  8
0
100
AcDbMText
 62
2
  6
CONTINUOUS
  7
STANDARD
 71
2
 72
1
 10
0.65
 20
-1.25025
 30
0.0
 11
1.0
 21
0.0
 31
0.0
 44
0.9
  1
VRL
 40
0.125
 41
0.6
  0
MTEXT
  5
287
100
AcDbEntity
  8
0
100
AcDbMText
 62
2
  6
CONTINUOUS
  7
STANDARD
 71
2
 72
1
 10
2.3
 20
-1.25025
 30
0.0
 11
1.0
 21
0.0
 31
0.0
 44
0.9
  1
Port Y
 40
0.125
 41
1.2
  0
MTEXT
  5
288
100
AcDbEntity
  8
0
100
AcDbMText
 62
2
  6
CONTINUOUS
  7
STANDARD
 71
2
 72
1
 10
3.95
 20
-1.25025
 30
0.0
 11
1.0
 21
0.0
 31
0.0
 44
0.9
  1
SAE 6
 40
0.125
 41
1.0
  0
MTEXT
  5
289
100
AcDbEntity
  8
0
100
AcDbMText
 62
2
  6
CONTINUOUS
  7
STANDARD
 71
2
 72
1
 10
0.65
 20
-1.50025
 30
0.0
 11
1.0
 21
0.0
 31
0.0
 44
0.9
  1
VRL
 40
0.125
 41
0.6
  0
MTEXT
  5
28A
100
AcDbEntity
  8
0
100
AcDbMText
 62
2
  6
CONTINUOUS
  7
STANDARD
 71
2
 72
1
 10
2.3
 20
-1.50025
 30
0.0
 11
1.0
 21
0.0
 31
0.0
 44
0.9
  1
Gage Port
 40
0.125
 41
1.8
  0
MTEXT
  5
28B
100
AcDbEntity
  8
0
100
AcDbMText
 62
2
  6
CONTINUOUS
  7
STANDARD
 71
2
 72
1
 10
3.95
 20
-1.50025
 30
0.0
 11
1.0
 21
0.0
 31
0.0
 44
0.9
  1
SAE 4
 40
0.125
 41
1.0
  0
ENDBLK
  5
28C
100
AcDbEntity
  8
0
  6
BYBLOCK
 62
0
100
AcDbBlockEnd
  0
ENDSEC
  0
SECTION
  2
ENTITIES
  0
IMAGE
  5
28D
100
AcDbEntity
  8
0
100
AcDbRasterImage
 62
7
  6
CONTINUOUS
 10
19.2297077316
 20
0.3094318264
 30
0.0
 11
0.0066666667
 21
0.0
 31
0.0
 12
0.0
 22
0.0066666667
 32
0.0
 13
369.0
 23
92.0
340
       3AB
 70
9
280
0
281
50
282
50
283
0
360
       3A5
 71
1
 91
2
 14
-0.5
 24
-0.5
 14
368.5
 24
91.5
  0
INSERT
  5
28E
100
AcDbEntity
  8
0
100
AcDbBlockReference
 62
2
  6
CONTINUOUS
  2
SUN_FIRST_THIRD_ANGLE_BL0
 10
20.4816717061
 20
1.2289683772
  0
ACAD_TABLE
  5
28F
100
AcDbEntity
  8
0
 62
2
  6
CONTINUOUS
100
AcDbBlockReference
  2
*T1
 10
12.42375
 20
0.30125
 30
0.0
100
AcDbTable
342
       3AD
343
209
 11
1.0
 21
0.0
 31
0.0
 90
6
 91
4
 92
6
 93
20
 94
0
 95
0
 96
0
 70
1
 41
0.0
141
0.525
141
0.1
141
0.525
141
0.1
142
4.1
142
1.1
142
0.7
142
0.5
142
0.4
142
2.475
171
1
172
0
173
0
174
0
175
1
176
1
 91
33
178
0
145
0.0
301
CELL_VALUE
 90
4
  1
T-3A Bar Manifold ISO 05 - X&Y (Euro)\P(See Technical Data for Body Features)
304
ACVALUE_END
170
2
140
0.125
171
1
172
0
173
0
174
0
175
1
176
1
 91
33
178
0
145
0.0
301
CELL_VALUE
 90
4
  1
Jun-18-20
304
ACVALUE_END
170
5
140
0.125
171
1
172
0
173
0
174
0
175
1
176
1
 91
33
178
0
145
0.0
301
CELL_VALUE
 90
4
  1
1.000
304
ACVALUE_END
170
5
140
0.125
171
1
172
0
173
0
174
0
175
1
176
1
 91
33
178
0
145
0.0
301
CELL_VALUE
 90
4
  1
C
304
ACVALUE_END
170
5
140
0.125
171
1
172
0
173
0
174
0
175
1
176
1
 91
33
178
0
145
0.0
301
CELL_VALUE
 90
4
  1
2
304
ACVALUE_END
170
5
140
0.125
171
1
172
0
173
0
174
0
175
1
176
1
 91
33
178
0
145
0.0
301
CELL_VALUE
 90
4
  1
 
304
ACVALUE_END
170
1
140
0.125
171
1
172
0
173
0
174
0
175
1
176
1
 91
33
178
0
145
0.0
301
CELL_VALUE
 90
4
  1
DESCRIPTION
304
ACVALUE_END
170
1
140
0.06
171
1
172
0
173
0
174
0
175
1
176
1
 91
33
178
0
145
0.0
301
CELL_VALUE
 90
4
  1
DATE
304
ACVALUE_END
170
1
140
0.06
171
1
172
0
173
0
174
0
175
1
176
1
 91
33
178
0
145
0.0
301
CELL_VALUE
 90
4
  1
SCALE
304
ACVALUE_END
170
1
140
0.06
171
1
172
0
173
0
174
0
175
1
176
1
 91
33
178
0
145
0.0
301
CELL_VALUE
 90
4
  1
DWG SIZE
304
ACVALUE_END
170
1
140
0.06
171
1
172
0
173
0
174
0
175
1
176
1
 91
33
178
0
145
0.0
301
CELL_VALUE
 90
4
  1
SHEET
304
ACVALUE_END
170
1
140
0.06
171
1
172
0
173
0
174
0
175
1
176
1
 91
33
178
0
145
0.0
301
CELL_VALUE
 90
4
  1
 
304
ACVALUE_END
170
1
140
0.125
171
1
172
0
173
0
174
0
175
1
176
1
 91
33
178
0
145
0.0
301
CELL_VALUE
 90
4
  1
VRL
304
ACVALUE_END
170
5
140
0.125
171
1
172
0
173
0
174
0
175
4
176
1
 91
33
178
0
145
0.0
301
CELL_VALUE
 90
4
  1
ALL DIMENSIONS IN INCH\PVIEWS ARE THIRD ANGLE
304
ACVALUE_END
170
5
140
0.12
171
1
172
0
173
1
174
0
175
1
176
1
 91
1
178
0
145
0.0
170
1
171
1
172
0
173
1
174
0
175
1
176
1
 91
1
178
0
145
0.0
170
1
171
1
172
0
173
1
174
0
175
1
176
1
 91
1
178
0
145
0.0
170
5
171
1
172
0
173
0
174
0
175
1
176
1
 91
33
178
0
145
0.0
301
CELL_VALUE
 90
4
  1
 
304
ACVALUE_END
170
1
140
0.125
171
1
172
0
173
0
174
0
175
1
176
1
 91
33
178
0
145
0.0
301
CELL_VALUE
 90
4
  1
MODEL
304
ACVALUE_END
170
1
140
0.06
171
1
172
0
173
0
174
0
175
1
176
1
 91
33
178
0
145
0.0
301
CELL_VALUE
 90
4
  1
 
304
ACVALUE_END
170
1
140
0.125
171
1
172
0
173
0
174
0
175
1
176
1
 91
33
178
0
145
0.0
301
CELL_VALUE
 90
4
  1
 
304
ACVALUE_END
170
1
140
0.125
171
1
172
0
173
0
174
0
175
1
176
1
 91
33
178
0
145
0.0
301
CELL_VALUE
 90
4
  1
 
304
ACVALUE_END
170
1
140
0.125
171
1
172
0
173
0
174
0
175
1
176
1
 91
33
178
0
145
0.0
301
CELL_VALUE
 90
4
  1
 
304
ACVALUE_END
170
1
140
0.125
171
1
172
0
173
0
174
0
175
1
176
1
 91
33
178
0
145
0.0
301
CELL_VALUE
 90
4
  1
 
304
ACVALUE_END
170
1
140
0.125
  0
ACAD_TABLE
  5
290
100
AcDbEntity
  8
0
 62
2
  6
CONTINUOUS
100
AcDbBlockReference
  2
*T2
 10
12.4237499994
 20
16.47875
 30
0.0
100
AcDbTable
342
       3AC
343
20A
 11
1.0
 21
0.0
 31
0.0
 90
22
 91
10
 92
3
 93
16
 94
0
 95
0
 96
0
 41
0.028
141
0.344
141
0.25
141
0.25
141
0.25
141
0.25
141
0.25
141
0.25
141
0.25
141
0.25
141
0.25
142
3.055
142
3.0
142
3.0
171
1
172
0
173
0
174
0
175
1
176
1
 91
33
178
0
145
0.0
301
CELL_VALUE
 90
4
  1
Technical Data
304
ACVALUE_END
170
5
140
0.145
171
1
172
0
173
0
174
0
175
1
176
1
 91
33
178
0
145
0.0
301
CELL_VALUE
 90
4
  1
U.S. Units
304
ACVALUE_END
170
5
140
0.145
171
1
172
0
173
0
174
0
175
1
176
1
 91
33
178
0
145
0.0
301
CELL_VALUE
 90
4
  1
Metric Units
304
ACVALUE_END
170
5
140
0.145
171
1
172
0
173
0
174
0
175
1
176
1
 91
33
178
0
145
0.0
301
CELL_VALUE
 90
4
  1
Cavity
304
ACVALUE_END
170
5
140
0.125
171
1
172
0
173
0
174
0
175
2
176
1
 91
33
178
0
145
0.0
301
CELL_VALUE
 90
4
  1
T-3A
304
ACVALUE_END
170
5
140
0.125
171
1
172
0
173
1
174
0
175
1
176
1
 91
1
178
0
145
0.0
170
1
171
1
172
0
173
0
174
0
175
1
176
1
 91
33
178
0
145
0.0
301
CELL_VALUE
 90
4
  1
Body Features
304
ACVALUE_END
170
5
140
0.125
171
1
172
0
173
0
174
0
175
2
176
1
 91
33
178
0
145
0.0
301
CELL_VALUE
 90
4
  1
1 Station, Parallel circuit with relief cavity
304
ACVALUE_END
170
5
140
0.125
171
1
172
0
173
1
174
0
175
1
176
1
 91
1
178
0
145
0.0
170
1
171
1
172
0
173
0
174
0
175
1
176
1
 91
33
178
0
145
0.0
301
CELL_VALUE
 90
4
  1
Body Type
304
ACVALUE_END
170
5
140
0.125
171
1
172
0
173
0
174
0
175
2
176
1
 91
33
178
0
145
0.0
301
CELL_VALUE
 90
4
  1
Bar Manifold
304
ACVALUE_END
170
5
140
0.125
171
1
172
0
173
1
174
0
175
1
176
1
 91
1
178
0
145
0.0
170
1
171
1
172
0
173
0
174
0
175
1
176
1
 91
33
178
0
145
0.0
301
CELL_VALUE
 90
4
  1
Interface
304
ACVALUE_END
170
5
140
0.125
171
1
172
0
173
0
174
0
175
2
176
1
 91
33
178
0
145
0.0
301
CELL_VALUE
 90
4
  1
ISO 05 - X&Y (Euro)
304
ACVALUE_END
170
5
140
0.125
171
1
172
0
173
1
174
0
175
1
176
1
 91
1
178
0
145
0.0
170
1
171
1
172
0
173
0
174
0
175
1
176
1
 91
33
178
0
145
0.0
301
CELL_VALUE
 90
4
  1
Open Cavity Quantity
304
ACVALUE_END
170
5
140
0.125
171
1
172
0
173
0
174
0
175
2
176
1
 91
33
178
0
145
0.0
301
CELL_VALUE
 90
4
  1
1
304
ACVALUE_END
170
5
140
0.125
171
1
172
0
173
1
174
0
175
1
176
1
 91
1
178
0
145
0.0
170
1
171
1
172
0
173
0
174
0
175
1
176
1
 91
33
178
0
145
0.0
301
CELL_VALUE
 90
4
  1
Weight
304
ACVALUE_END
170
5
140
0.125
171
1
172
0
173
0
174
0
175
1
176
1
 91
33
178
0
145
0.0
301
CELL_VALUE
 90
4
  1
5.695 lb.
304
ACVALUE_END
170
5
140
0.125
171
1
172
0
173
0
174
0
175
1
176
1
 91
33
178
0
145
0.0
301
CELL_VALUE
 90
4
  1
2,583 kg.
304
ACVALUE_END
170
5
140
0.125
171
1
172
0
173
0
174
0
175
1
176
1
 91
33
178
0
145
0.0
301
CELL_VALUE
 90
4
  1
Mounting Hole Thread
304
ACVALUE_END
170
5
140
0.125
171
1
172
0
173
0
174
0
175
1
176
1
 91
33
178
0
145
0.0
301
CELL_VALUE
 90
4
  1
.375-16 UNC - 2B in.
304
ACVALUE_END
170
5
140
0.125
171
1
172
0
173
0
174
0
175
1
176
1
 91
33
178
0
145
0.0
301
CELL_VALUE
 90
4
  1
 
304
ACVALUE_END
170
5
140
0.125
171
1
172
0
173
0
174
0
175
1
176
1
 91
33
178
0
145
0.0
301
CELL_VALUE
 90
4
  1
Mounting Hole Depth
304
ACVALUE_END
170
5
140
0.125
171
1
172
0
173
0
174
0
175
1
176
1
 91
33
178
0
145
0.0
301
CELL_VALUE
 90
4
  1
.75 in.
304
ACVALUE_END
170
5
140
0.125
171
1
172
0
173
0
174
0
175
1
176
1
 91
33
178
0
145
0.0
301
CELL_VALUE
 90
4
  1
19 mm
304
ACVALUE_END
170
5
140
0.125
171
1
172
0
173
0
174
0
175
1
176
1
 91
33
178
0
145
0.0
301
CELL_VALUE
 90
4
  1
Mounting Hole Quantity
304
ACVALUE_END
170
5
140
0.125
171
1
172
0
173
0
174
0
175
2
176
1
 91
33
178
0
145
0.0
301
CELL_VALUE
 90
4
  1
4
304
ACVALUE_END
170
5
140
0.125
171
1
172
0
173
1
174
0
175
1
176
1
 91
1
178
0
145
0.0
170
1
  0
ACAD_TABLE
  5
291
100
AcDbEntity
  8
0
 62
2
  6
CONTINUOUS
100
AcDbBlockReference
  2
*T3
 10
0.52125
 20
2.209
 30
0.0
100
AcDbTable
342
       3AC
343
20B
 11
1.0
 21
0.0
 31
0.0
 90
22
 91
6
 92
3
 93
16
 94
0
 95
0
 96
0
 41
0.05
141
0.34375
141
0.344
141
0.25
141
0.25
141
0.25
141
0.25
142
1.3
142
2.0
142
1.3
171
1
172
0
173
0
174
0
175
3
176
1
 91
33
178
0
145
0.0
301
CELL_VALUE
 90
4
  1
Port Headings
304
ACVALUE_END
170
5
140
0.145
171
1
172
0
173
1
174
0
175
1
176
1
 91
1
178
0
145
0.0
170
1
171
1
172
0
173
1
174
0
175
1
176
1
 91
1
178
0
145
0.0
170
1
171
1
172
0
173
0
174
0
175
1
176
1
 91
33
178
0
145
0.0
301
CELL_VALUE
 90
4
  1
Product
304
ACVALUE_END
170
5
140
0.145
171
1
172
0
173
0
174
0
175
1
176
1
 91
33
178
0
145
0.0
301
CELL_VALUE
 90
4
  1
Port
304
ACVALUE_END
170
5
140
0.145
171
1
172
0
173
0
174
0
175
1
176
1
 91
33
178
0
145
0.0
301
CELL_VALUE
 90
4
  1
Size
304
ACVALUE_END
170
5
140
0.145
171
1
172
0
173
0
174
0
175
1
176
1
 91
33
178
0
145
0.0
301
CELL_VALUE
 90
4
  1
VRL
304
ACVALUE_END
170
5
140
0.125
171
1
172
0
173
0
174
0
175
1
176
1
 91
33
178
0
145
0.0
301
CELL_VALUE
 90
4
  1
Ports A, B, P
304
ACVALUE_END
170
5
140
0.125
171
1
172
0
173
0
174
0
175
1
176
1
 91
33
178
0
145
0.0
301
CELL_VALUE
 90
4
  1
SAE 12
304
ACVALUE_END
170
5
140
0.125
171
1
172
0
173
0
174
0
175
1
176
1
 91
33
178
0
145
0.0
301
CELL_VALUE
 90
4
  1
VRL
304
ACVALUE_END
170
5
140
0.125
171
1
172
0
173
0
174
0
175
1
176
1
 91
33
178
0
145
0.0
301
CELL_VALUE
 90
4
  1
Port T
304
ACVALUE_END
170
5
140
0.125
171
1
172
0
173
0
174
0
175
1
176
1
 91
33
178
0
145
0.0
301
CELL_VALUE
 90
4
  1
SAE 16
304
ACVALUE_END
170
5
140
0.125
171
1
172
0
173
0
174
0
175
1
176
1
 91
33
178
0
145
0.0
301
CELL_VALUE
 90
4
  1
VRL
304
ACVALUE_END
170
5
140
0.125
171
1
172
0
173
0
174
0
175
1
176
1
 91
33
178
0
145
0.0
301
CELL_VALUE
 90
4
  1
Port Y
304
ACVALUE_END
170
5
140
0.125
171
1
172
0
173
0
174
0
175
1
176
1
 91
33
178
0
145
0.0
301
CELL_VALUE
 90
4
  1
SAE 6
304
ACVALUE_END
170
5
140
0.125
171
1
172
0
173
0
174
0
175
1
176
1
 91
33
178
0
145
0.0
301
CELL_VALUE
 90
4
  1
VRL
304
ACVALUE_END
170
5
140
0.125
171
1
172
0
173
0
174
0
175
1
176
1
 91
33
178
0
145
0.0
301
CELL_VALUE
 90
4
  1
Gage Port
304
ACVALUE_END
170
5
140
0.125
171
1
172
0
173
0
174
0
175
1
176
1
 91
33
178
0
145
0.0
301
CELL_VALUE
 90
4
  1
SAE 4
304
ACVALUE_END
170
5
140
0.125
  0
MTEXT
  5
292
100
AcDbEntity
  8
0
100
AcDbMText
 62
2
  6
CONTINUOUS
  7
STANDARD
 71
1
 72
1
 10
0.52125
 20
5.75995
 30
0.0
 11
1.0
 21
0.0
 31
0.0
 44
0.6
  3
Notes\P \P1. For mounting bracket information\P    see catalog or drawing 991-021-***\P2. Important: Carefully consider\P   the maximum system pressure. The\P   pressure rating of the manifold is\P   dependent on the manifold material,\P   with the p
  1
ort type/size a secondary\P   consideration. Manifolds\P   constructed of aluminum are not\P   rated for pressures higher than\P   3000 psi (210 bar), regardless of\P   the port type/size specified.
 40
0.1
 41
3.04
  0
LINE
  5
293
100
AcDbEntity
  8
0
100
AcDbLine
 62
7
  6
CONTINUOUS
 10
0.30125
 20
0.30125
 11
0.30125
 21
16.69875
  0
LINE
  5
294
100
AcDbEntity
  8
0
100
AcDbLine
 62
7
  6
CONTINUOUS
 10
0.30125
 20
0.30125
 11
21.69875
 21
0.30125
  0
LINE
  5
295
100
AcDbEntity
  8
0
100
AcDbLine
 62
7
  6
CONTINUOUS
 10
0.30125
 20
16.69875
 11
21.69875
 21
16.69875
  0
LINE
  5
296
100
AcDbEntity
  8
0
100
AcDbLine
 62
7
  6
CONTINUOUS
 10
21.69875
 20
0.30125
 11
21.69875
 21
16.69875
  0
LINE
  5
297
100
AcDbEntity
  8
0
100
AcDbLine
 62
7
  6
CONTINUOUS
 10
8.6792746939
 20
10.5182224623
 11
9.6985032429
 21
11.5027216991
  0
LINE
  5
298
100
AcDbEntity
  8
0
100
AcDbLine
 62
7
  6
CONTINUOUS
 10
12.3014967571
 20
5.4972783009
 11
8.6792746939
 21
5.7484802542
  0
LINE
  5
299
100
AcDbEntity
  8
0
100
AcDbLine
 62
4
  6
CONTINUOUS
 10
9.4486426388
 20
10.6228033484
 11
9.4419872973
 21
10.6163747818
  0
LINE
  5
29A
100
AcDbEntity
  8
0
100
AcDbLine
 62
4
  6
CONTINUOUS
 10
9.4872265116
 20
10.6086440213
 11
9.4805711708
 21
10.6022154554
  0
LINE
  5
29B
100
AcDbEntity
  8
0
100
AcDbLine
 62
4
  6
CONTINUOUS
 10
9.5728330752
 20
10.6141907124
 11
9.555085499
 21
10.5970478691
  0
LINE
  5
29C
100
AcDbEntity
  8
0
100
AcDbLine
 62
7
  6
CONTINUOUS
 10
8.6792746939
 20
10.5182224623
 11
8.6792746939
 21
5.7484802542
  0
LINE
  5
29D
100
AcDbEntity
  8
0
100
AcDbLine
 62
4
  6
CONTINUOUS
 10
9.6192081306
 20
10.6132712968
 11
9.5970236593
 21
10.5918427417
  0
LINE
  5
29E
100
AcDbEntity
  8
0
100
AcDbLine
 62
4
  6
CONTINUOUS
 10
9.5903683194
 20
10.5854141767
 11
9.5881498715
 21
10.5832713204
  0
LINE
  5
29F
100
AcDbEntity
  8
0
100
AcDbLine
 62
4
  6
CONTINUOUS
 10
9.796923731
 20
10.7649314351
 11
9.7658654719
 21
10.7349314588
  0
LINE
  5
2A0
100
AcDbEntity
  8
0
100
AcDbLine
 62
4
  6
CONTINUOUS
 10
9.8172188069
 20
10.7359635032
 11
9.8394032777
 21
10.7573920578
  0
LINE
  5
2A1
100
AcDbEntity
  8
0
100
AcDbLine
 62
4
  6
CONTINUOUS
 10
9.6915039563
 20
10.6059608589
 11
9.6626641444
 21
10.5781037381
  0
LINE
  5
2A2
100
AcDbEntity
  8
0
100
AcDbLine
 62
4
  6
CONTINUOUS
 10
9.7268398458
 20
10.605807012
 11
9.7046553745
 21
10.5843784569
  0
LINE
  5
2A3
100
AcDbEntity
  8
0
100
AcDbLine
 62
4
  6
CONTINUOUS
 10
9.9017957238
 20
10.7576585377
 11
9.8707374647
 21
10.7276585613
  0
LINE
  5
2A4
100
AcDbEntity
  8
0
100
AcDbLine
 62
4
  6
CONTINUOUS
 10
9.7543315933
 20
10.5809333995
 11
9.7742976174
 21
10.600219099
  0
LINE
  5
2A5
100
AcDbEntity
  8
0
100
AcDbLine
 62
4
  6
CONTINUOUS
 10
9.9082918009
 20
10.7296475696
 11
9.9304762718
 21
10.7510761242
  0
LINE
  5
2A6
100
AcDbEntity
  8
0
100
AcDbLine
 62
4
  6
CONTINUOUS
 10
9.8096335069
 20
10.6000652521
 11
9.7918859295
 21
10.5829224077
  0
LINE
  5
2A7
100
AcDbEntity
  8
0
100
AcDbLine
 62
4
  6
CONTINUOUS
 10
9.9884318235
 20
10.747056893
 11
9.9662473526
 21
10.7256283384
  0
LINE
  5
2A8
100
AcDbEntity
  8
0
100
AcDbLine
 62
4
  6
CONTINUOUS
 10
9.8570912232
 20
10.5944773429
 11
9.8504358817
 21
10.5880487763
  0
LINE
  5
2A9
100
AcDbEntity
  8
0
100
AcDbLine
 62
4
  6
CONTINUOUS
 10
9.8752209222
 20
10.5748464021
 11
9.8796578161
 21
10.5791321128
  0
LINE
  5
2AA
100
AcDbEntity
  8
0
100
AcDbLine
 62
4
  6
CONTINUOUS
 10
9.9790357055
 20
10.6494095302
 11
10.0100939646
 21
10.6794095065
  0
LINE
  5
2AB
100
AcDbEntity
  8
0
100
AcDbLine
 62
4
  6
CONTINUOUS
 10
10.0850243728
 20
10.740358177
 11
10.062839902
 21
10.7189296224
  0
LINE
  5
2AC
100
AcDbEntity
  8
0
100
AcDbLine
 62
4
  6
CONTINUOUS
 10
9.9338239433
 20
10.5914526161
 11
9.911639472
 21
10.570024061
  0
LINE
  5
2AD
100
AcDbEntity
  8
0
100
AcDbLine
 62
4
  6
CONTINUOUS
 10
10.1646421036
 20
10.6686915567
 11
10.100466385
 21
10.640988284
  0
LINE
  5
2AE
100
AcDbEntity
  8
0
100
AcDbLine
 62
4
  6
CONTINUOUS
 10
10.4620327007
 20
10.7188059714
 11
10.3978569855
 21
10.6911026984
  0
LINE
  5
2AF
100
AcDbEntity
  8
0
100
AcDbLine
 62
4
  6
CONTINUOUS
 10
10.0792082021
 20
10.5890258678
 11
10.0165114648
 21
10.5627511636
  0
LINE
  5
2B0
100
AcDbEntity
  8
0
100
AcDbLine
 62
4
  6
CONTINUOUS
 10
9.5853900938
 20
10.5834627117
 11
9.5903683194
 21
10.5854141767
  0
LINE
  5
2B1
100
AcDbEntity
  8
0
100
AcDbLine
 62
4
  6
CONTINUOUS
 10
10.0165900555
 20
10.6513985375
 11
10.0254638433
 21
10.6599699588
  0
LINE
  5
2B2
100
AcDbEntity
  8
0
100
AcDbLine
 62
4
  6
CONTINUOUS
 10
9.9358831818
 20
10.5591559335
 11
9.9669414409
 21
10.5891559098
  0
LINE
  5
2B3
100
AcDbEntity
  8
0
100
AcDbLine
 62
4
  6
CONTINUOUS
 10
10.1011669794
 20
10.6730935715
 11
10.0701087203
 21
10.6430935952
  0
LINE
  5
2B4
100
AcDbEntity
  8
0
100
AcDbLine
 62
4
  6
CONTINUOUS
 10
10.0143991572
 20
10.5835680006
 11
9.9966515809
 21
10.5664251574
  0
LINE
  5
2B5
100
AcDbEntity
  8
0
100
AcDbLine
 62
4
  6
CONTINUOUS
 10
10.26332795
 20
10.7325861927
 11
10.2322696909
 21
10.7025862163
  0
LINE
  5
2B6
100
AcDbEntity
  8
0
100
AcDbLine
 62
4
  6
CONTINUOUS
 10
10.1015235461
 20
10.5591522619
 11
10.1214895696
 21
10.5784379607
  0
LINE
  5
2B7
100
AcDbEntity
  8
0
100
AcDbLine
 62
4
  6
CONTINUOUS
 10
10.3295628623
 20
10.7279927859
 11
10.2985046032
 21
10.6979928095
  0
LINE
  5
2B8
100
AcDbEntity
  8
0
100
AcDbLine
 62
4
  6
CONTINUOUS
 10
10.1711657607
 20
10.5749929051
 11
10.1401075016
 21
10.5449929288
  0
LINE
  5
2B9
100
AcDbEntity
  8
0
100
AcDbLine
 62
4
  6
CONTINUOUS
 10
10.2953562247
 20
10.5663802672
 11
10.2642979656
 21
10.5363802909
  0
LINE
  5
2BA
100
AcDbEntity
  8
0
100
AcDbLine
 62
4
  6
CONTINUOUS
 10
10.4823277352
 20
10.6898380423
 11
10.504512206
 21
10.7112665969
  0
LINE
  5
2BB
100
AcDbEntity
  8
0
100
AcDbLine
 62
4
  6
CONTINUOUS
 10
10.3533117764
 20
10.562361036
 11
10.3222535174
 21
10.5323610597
  0
LINE
  5
2BC
100
AcDbEntity
  8
0
100
AcDbLine
 62
4
  6
CONTINUOUS
 10
10.3819923382
 20
10.5557786216
 11
10.3553709735
 21
10.5300643563
  0
LINE
  5
2BD
100
AcDbEntity
  8
0
100
AcDbLine
 62
4
  6
CONTINUOUS
 10
10.5669046452
 20
10.7115330773
 11
10.5358463861
 21
10.681533101
  0
LINE
  5
2BE
100
AcDbEntity
  8
0
100
AcDbLine
 62
4
  6
CONTINUOUS
 10
10.4133265252
 20
10.5260451251
 11
10.43994789
 21
10.5517593904
  0
LINE
  5
2BF
100
AcDbEntity
  8
0
100
AcDbLine
 62
4
  6
CONTINUOUS
 10
10.4730653461
 20
10.549462687
 11
10.4686284517
 21
10.5451769759
  0
LINE
  5
2C0
100
AcDbEntity
  8
0
100
AcDbLine
 62
4
  6
CONTINUOUS
 10
10.5132733209
 20
10.5283006119
 11
10.508836427
 21
10.5240149012
  0
LINE
  5
2C1
100
AcDbEntity
  8
0
100
AcDbLine
 62
4
  6
CONTINUOUS
 10
11.4021235621
 20
10.768292644
 11
11.3348430832
 21
10.7408046871
  0
LINE
  5
2C2
100
AcDbEntity
  8
0
100
AcDbLine
 62
4
  6
CONTINUOUS
 10
11.4352374726
 20
10.7552782282
 11
11.4378256612
 21
10.7577782265
  0
LINE
  5
2C3
100
AcDbEntity
  8
0
100
AcDbLine
 62
4
  6
CONTINUOUS
 10
11.4269527879
 20
10.739775837
 11
11.4295409756
 21
10.7422758345
  0
LINE
  5
2C4
100
AcDbEntity
  8
0
100
AcDbLine
 62
4
  6
CONTINUOUS
 10
11.6825763935
 20
10.7166893001
 11
11.7136346526
 21
10.7466892765
  0
LINE
  5
2C5
100
AcDbEntity
  8
0
100
AcDbLine
 62
4
  6
CONTINUOUS
 10
10.1667013042
 20
10.6363948767
 11
10.1646421036
 21
10.6686915567
  0
LINE
  5
2C6
100
AcDbEntity
  8
0
100
AcDbLine
 62
4
  6
CONTINUOUS
 10
10.0661876283
 20
10.55930611
 11
10.0635339902
 21
10.5824571938
  0
LINE
  5
2C7
100
AcDbEntity
  8
0
100
AcDbLine
 62
4
  6
CONTINUOUS
 10
10.3978569855
 20
10.6911026984
 11
10.3957977746
 21
10.7233993791
  0
LINE
  5
2C8
100
AcDbEntity
  8
0
100
AcDbLine
 62
7
  6
CONTINUOUS
 10
13.3207253061
 20
11.2515197458
 11
12.3014967571
 21
10.267020509
  0
LINE
  5
2C9
100
AcDbEntity
  8
0
100
AcDbLine
 62
4
  6
CONTINUOUS
 10
12.5649743312
 20
10.2896980927
 11
12.5960325903
 21
10.3196980691
  0
LINE
  5
2CA
100
AcDbEntity
  8
0
100
AcDbLine
 62
4
  6
CONTINUOUS
 10
9.7918859295
 20
10.5829224077
 11
9.7957283685
 21
10.5780625234
  0
LINE
  5
2CB
100
AcDbEntity
  8
0
100
AcDbLine
 62
4
  6
CONTINUOUS
 10
10.3222535174
 20
10.5323610597
 11
10.2953562247
 21
10.5663802672
  0
LINE
  5
2CC
100
AcDbEntity
  8
0
100
AcDbLine
 62
4
  6
CONTINUOUS
 10
11.3348430832
 20
10.7408046871
 11
11.3296791225
 21
10.7733166829
  0
LINE
  5
2CD
100
AcDbEntity
  8
0
100
AcDbLine
 62
4
  6
CONTINUOUS
 10
9.8785220296
 20
10.5723207635
 11
9.8752209222
 21
10.5748464021
  0
LINE
  5
2CE
100
AcDbEntity
  8
0
100
AcDbLine
 62
4
  6
CONTINUOUS
 10
9.4369559476
 20
10.6029434753
 11
9.4308950626
 21
10.6056605052
  0
LINE
  5
2CF
100
AcDbEntity
  8
0
100
AcDbLine
 62
4
  6
CONTINUOUS
 10
10.0630181943
 20
10.6619589669
 11
10.0432114207
 21
10.6771128032
  0
LINE
  5
2D0
100
AcDbEntity
  8
0
100
AcDbLine
 62
7
  6
CONTINUOUS
 10
12.3014967571
 20
10.267020509
 11
12.3014967571
 21
5.4972783009
  0
LINE
  5
2D1
100
AcDbEntity
  8
0
100
AcDbLine
 62
4
  6
CONTINUOUS
 10
12.6322672304
 20
8.2586388895
 11
12.6374436056
 21
8.2636388843
  0
LINE
  5
2D2
100
AcDbEntity
  8
0
100
AcDbLine
 62
4
  6
CONTINUOUS
 10
12.6581491123
 20
8.2256833174
 11
12.6270908532
 21
8.1956833411
  0
LINE
  5
2D3
100
AcDbEntity
  8
0
100
AcDbLine
 62
4
  6
CONTINUOUS
 10
9.4983187471
 20
10.6193582986
 11
9.4922578613
 21
10.6220753279
  0
LINE
  5
2D4
100
AcDbEntity
  8
0
100
AcDbLine
 62
4
  6
CONTINUOUS
 10
9.5667721894
 20
10.6169077417
 11
9.5728330752
 21
10.6141907124
  0
LINE
  5
2D5
100
AcDbEntity
  8
0
100
AcDbLine
 62
4
  6
CONTINUOUS
 10
9.6854430152
 20
10.6086778919
 11
9.6915039563
 21
10.6059608589
  0
LINE
  5
2D6
100
AcDbEntity
  8
0
100
AcDbLine
 62
4
  6
CONTINUOUS
 10
9.7742976174
 20
10.600219099
 11
9.7682366763
 21
10.602936132
  0
LINE
  5
2D7
100
AcDbEntity
  8
0
100
AcDbLine
 62
4
  6
CONTINUOUS
 10
10.1075844589
 20
10.55643523
 11
10.1015235461
 21
10.5591522619
  0
LINE
  5
2D8
100
AcDbEntity
  8
0
100
AcDbLine
 62
4
  6
CONTINUOUS
 10
12.6374436056
 20
8.2636388843
 11
12.6400317951
 21
8.2588944396
  0
LINE
  5
2D9
100
AcDbEntity
  8
0
100
AcDbLine
 62
4
  6
CONTINUOUS
 10
12.5649743312
 20
10.2534758729
 11
12.5649743312
 21
10.3259203126
  0
LINE
  5
2DA
100
AcDbEntity
  8
0
100
AcDbLine
 62
4
  6
CONTINUOUS
 10
12.6270908532
 20
8.1956833411
 11
12.6270908532
 21
8.2319055609
  0
LINE
  5
2DB
100
AcDbEntity
  8
0
100
AcDbLine
 62
4
  6
CONTINUOUS
 10
12.6426199828
 20
8.2469055491
 11
12.6426199828
 21
8.2106833293
  0
LINE
  5
2DC
100
AcDbEntity
  8
0
100
AcDbLine
 62
4
  6
CONTINUOUS
 10
12.6270908532
 20
8.2319055609
 11
12.6296790409
 21
8.2488944463
  0
LINE
  5
2DD
100
AcDbEntity
  8
0
100
AcDbLine
 62
4
  6
CONTINUOUS
 10
12.6296790409
 20
8.2488944463
 11
12.6322672304
 21
8.2586388895
  0
LINE
  5
2DE
100
AcDbEntity
  8
0
100
AcDbLine
 62
4
  6
CONTINUOUS
 10
9.8427509492
 20
10.5977685497
 11
9.8570912232
 21
10.5944773429
  0
LINE
  5
2DF
100
AcDbEntity
  8
0
100
AcDbLine
 62
4
  6
CONTINUOUS
 10
9.4419872973
 20
10.6163747818
 11
9.4487876656
 21
10.6143720379
  0
LINE
  5
2E0
100
AcDbEntity
  8
0
100
AcDbLine
 62
4
  6
CONTINUOUS
 10
9.4804261433
 20
10.6106467652
 11
9.4872265116
 21
10.6086440213
  0
LINE
  5
2E1
100
AcDbEntity
  8
0
100
AcDbLine
 62
4
  6
CONTINUOUS
 10
10.4686284517
 20
10.5451769759
 11
10.5132733209
 21
10.5283006119
  0
LINE
  5
2E2
100
AcDbEntity
  8
0
100
AcDbLine
 62
4
  6
CONTINUOUS
 10
9.8293406342
 20
10.7305294413
 11
9.8172188069
 21
10.7359635032
  0
LINE
  5
2E3
100
AcDbEntity
  8
0
100
AcDbLine
 62
4
  6
CONTINUOUS
 10
10.0287118966
 20
10.6459644746
 11
10.0165900555
 21
10.6513985375
  0
LINE
  5
2E4
100
AcDbEntity
  8
0
100
AcDbLine
 62
4
  6
CONTINUOUS
 10
9.9204136282
 20
10.7242135077
 11
9.9082918009
 21
10.7296475696
  0
LINE
  5
2E5
100
AcDbEntity
  8
0
100
AcDbLine
 62
4
  6
CONTINUOUS
 10
10.4547233454
 20
10.5231742459
 11
10.4486624292
 21
10.525891278
  0
LINE
  5
2E6
100
AcDbEntity
  8
0
100
AcDbLine
 62
4
  6
CONTINUOUS
 10
9.9763099967
 20
10.7524909553
 11
9.9884318235
 21
10.747056893
  0
LINE
  5
2E7
100
AcDbEntity
  8
0
100
AcDbLine
 62
4
  6
CONTINUOUS
 10
10.43994789
 20
10.5517593904
 11
10.4278260562
 21
10.5571934532
  0
LINE
  5
2E8
100
AcDbEntity
  8
0
100
AcDbLine
 62
4
  6
CONTINUOUS
 10
10.072902546
 20
10.7457922393
 11
10.0850243728
 21
10.740358177
  0
LINE
  5
2E9
100
AcDbEntity
  8
0
100
AcDbLine
 62
4
  6
CONTINUOUS
 10
10.533239345
 20
10.5475863114
 11
10.5271784273
 21
10.5503033428
  0
LINE
  5
2EA
100
AcDbEntity
  8
0
100
AcDbLine
 62
4
  6
CONTINUOUS
 10
10.4944495693
 20
10.68440398
 11
10.4823277352
 21
10.6898380423
  0
LINE
  5
2EB
100
AcDbEntity
  8
0
100
AcDbLine
 62
4
  6
CONTINUOUS
 10
12.6400317951
 20
8.2588944396
 11
12.6426199828
 21
8.2469055491
  0
LINE
  5
2EC
100
AcDbEntity
  8
0
100
AcDbLine
 62
7
  6
CONTINUOUS
 10
12.3014967571
 20
10.267020509
 11
8.6792746939
 21
10.5182224623
  0
LINE
  5
2ED
100
AcDbEntity
  8
0
100
AcDbLine
 62
4
  6
CONTINUOUS
 10
10.4878408033
 20
10.5208775424
 11
10.4547233454
 21
10.5231742459
  0
LINE
  5
2EE
100
AcDbEntity
  8
0
100
AcDbLine
 62
4
  6
CONTINUOUS
 10
9.5881498715
 20
10.5832713204
 11
9.5853900938
 21
10.5834627117
  0
LINE
  5
2EF
100
AcDbEntity
  8
0
100
AcDbLine
 62
4
  6
CONTINUOUS
 10
10.1489812894
 20
10.5535643501
 11
10.1075844589
 21
10.55643523
  0
LINE
  5
2F0
100
AcDbEntity
  8
0
100
AcDbLine
 62
4
  6
CONTINUOUS
 10
9.9778744119
 20
10.5654306523
 11
9.9447569696
 21
10.5677273548
  0
LINE
  5
2F1
100
AcDbEntity
  8
0
100
AcDbLine
 62
4
  6
CONTINUOUS
 10
9.911639472
 20
10.570024061
 11
9.8785220296
 21
10.5723207635
  0
LINE
  5
2F2
100
AcDbEntity
  8
0
100
AcDbLine
 62
4
  6
CONTINUOUS
 10
9.5445877181
 20
10.5954791866
 11
9.5114701653
 21
10.5977758967
  0
LINE
  5
2F3
100
AcDbEntity
  8
0
100
AcDbLine
 62
4
  6
CONTINUOUS
 10
9.47007339
 20
10.6006467728
 11
9.4369559476
 21
10.6029434753
  0
LINE
  5
2F4
100
AcDbEntity
  8
0
100
AcDbLine
 62
4
  6
CONTINUOUS
 10
9.7957283685
 20
10.5780625234
 11
9.8371251991
 21
10.5751916434
  0
LINE
  5
2F5
100
AcDbEntity
  8
0
100
AcDbLine
 62
4
  6
CONTINUOUS
 10
9.8316587136
 20
10.5870542721
 11
9.7985412712
 21
10.5893509746
  0
LINE
  5
2F6
100
AcDbEntity
  8
0
100
AcDbLine
 62
4
  6
CONTINUOUS
 10
10.5271784273
 20
10.5503033428
 11
10.4940609685
 21
10.5526000464
  0
LINE
  5
2F7
100
AcDbEntity
  8
0
100
AcDbLine
 62
4
  6
CONTINUOUS
 10
10.4278260562
 20
10.5571934532
 11
10.4029879538
 21
10.5589159814
  0
LINE
  5
2F8
100
AcDbEntity
  8
0
100
AcDbLine
 62
4
  6
CONTINUOUS
 10
9.7682366763
 20
10.602936132
 11
9.7268398458
 21
10.605807012
  0
LINE
  5
2F9
100
AcDbEntity
  8
0
100
AcDbLine
 62
4
  6
CONTINUOUS
 10
9.4922578613
 20
10.6220753279
 11
9.459140419
 21
10.6243720303
  0
LINE
  5
2FA
100
AcDbEntity
  8
0
100
AcDbLine
 62
4
  6
CONTINUOUS
 10
9.5336546366
 20
10.6192044518
 11
9.5667721894
 21
10.6169077417
  0
LINE
  5
2FB
100
AcDbEntity
  8
0
100
AcDbLine
 62
4
  6
CONTINUOUS
 10
9.6688842941
 20
10.6098262432
 11
9.6854430152
 21
10.6086778919
  0
LINE
  5
2FC
100
AcDbEntity
  8
0
100
AcDbLine
 62
4
  6
CONTINUOUS
 10
9.8096335069
 20
10.6000652521
 11
9.8427509492
 21
10.5977685497
  0
LINE
  5
2FD
100
AcDbEntity
  8
0
100
AcDbLine
 62
4
  6
CONTINUOUS
 10
9.9669414409
 20
10.5891559098
 11
10.0000588832
 21
10.5868592074
  0
LINE
  5
2FE
100
AcDbEntity
  8
0
100
AcDbLine
 62
4
  6
CONTINUOUS
 10
10.0957669232
 20
10.5878775166
 11
10.0792082021
 21
10.5890258678
  0
LINE
  5
2FF
100
AcDbEntity
  8
0
100
AcDbLine
 62
4
  6
CONTINUOUS
 10
9.4487876656
 20
10.6143720379
 11
9.4804261433
 21
10.6106467652
  0
LINE
  5
300
100
AcDbEntity
  8
0
100
AcDbLine
 62
4
  6
CONTINUOUS
 10
10.0000588832
 20
10.5868592074
 11
10.0143991572
 21
10.5835680006
  0
LINE
  5
301
100
AcDbEntity
  8
0
100
AcDbLine
 62
4
  6
CONTINUOUS
 10
9.6949035831
 20
10.7521017766
 11
9.6566628343
 21
10.7608783295
  0
LINE
  5
302
100
AcDbEntity
  8
0
100
AcDbLine
 62
4
  6
CONTINUOUS
 10
10.6198288818
 20
10.6940825372
 11
10.5815881291
 21
10.70285909
  0
LINE
  5
303
100
AcDbEntity
  8
0
100
AcDbLine
 62
4
  6
CONTINUOUS
 10
11.4295409756
 20
10.7422758345
 11
11.4393736072
 21
10.744273428
  0
LINE
  5
304
100
AcDbEntity
  8
0
100
AcDbLine
 62
4
  6
CONTINUOUS
 10
11.4378256612
 20
10.7577782265
 11
11.4574909255
 21
10.7617734147
  0
LINE
  5
305
100
AcDbEntity
  8
0
100
AcDbLine
 62
4
  6
CONTINUOUS
 10
10.508836427
 20
10.5240149012
 11
10.4878408033
 21
10.5208775424
  0
LINE
  5
306
100
AcDbEntity
  8
0
100
AcDbLine
 62
4
  6
CONTINUOUS
 10
10.4940609685
 20
10.5526000464
 11
10.4730653461
 21
10.549462687
  0
LINE
  5
307
100
AcDbEntity
  8
0
100
AcDbLine
 62
4
  6
CONTINUOUS
 10
10.4029879538
 20
10.5589159814
 11
10.3819923382
 21
10.5557786216
  0
LINE
  5
308
100
AcDbEntity
  8
0
100
AcDbLine
 62
4
  6
CONTINUOUS
 10
10.504512206
 20
10.7112665969
 11
10.5255078284
 21
10.7144039563
  0
LINE
  5
309
100
AcDbEntity
  8
0
100
AcDbLine
 62
4
  6
CONTINUOUS
 10
10.0254638433
 20
10.6599699588
 11
10.0464594731
 21
10.6631073181
  0
LINE
  5
30A
100
AcDbEntity
  8
0
100
AcDbLine
 62
4
  6
CONTINUOUS
 10
9.555085499
 20
10.5970478691
 11
9.5445877181
 21
10.5954791866
  0
LINE
  5
30B
100
AcDbEntity
  8
0
100
AcDbLine
 62
4
  6
CONTINUOUS
 10
9.4805711708
 20
10.6022154554
 11
9.47007339
 21
10.6006467728
  0
LINE
  5
30C
100
AcDbEntity
  8
0
100
AcDbLine
 62
4
  6
CONTINUOUS
 10
11.4750757062
 20
10.7337590105
 11
11.4579986306
 21
10.7322638209
  0
LINE
  5
30D
100
AcDbEntity
  8
0
100
AcDbLine
 62
4
  6
CONTINUOUS
 10
11.4393736072
 20
10.744273428
 11
11.4564506846
 21
10.7457686194
  0
LINE
  5
30E
100
AcDbEntity
  8
0
100
AcDbLine
 62
4
  6
CONTINUOUS
 10
11.4574909255
 20
10.7617734147
 11
11.4745680018
 21
10.763268605
  0
LINE
  5
30F
100
AcDbEntity
  8
0
100
AcDbLine
 62
4
  6
CONTINUOUS
 10
9.9966515809
 20
10.5664251574
 11
9.9778744119
 21
10.5654306523
  0
LINE
  5
310
100
AcDbEntity
  8
0
100
AcDbLine
 62
4
  6
CONTINUOUS
 10
9.8504358817
 20
10.5880487763
 11
9.8316587136
 21
10.5870542721
  0
LINE
  5
311
100
AcDbEntity
  8
0
100
AcDbLine
 62
4
  6
CONTINUOUS
 10
10.5697564107
 20
10.6914305269
 11
10.6198288818
 21
10.6940825372
  0
LINE
  5
312
100
AcDbEntity
  8
0
100
AcDbLine
 62
4
  6
CONTINUOUS
 10
10.0701087203
 20
10.6430935952
 11
10.0287118966
 21
10.6459644746
  0
LINE
  5
313
100
AcDbEntity
  8
0
100
AcDbLine
 62
4
  6
CONTINUOUS
 10
10.0464594731
 20
10.6631073181
 11
10.0878562968
 21
10.6602364387
  0
LINE
  5
314
100
AcDbEntity
  8
0
100
AcDbLine
 62
4
  6
CONTINUOUS
 10
10.0100939646
 20
10.6794095065
 11
9.9686971478
 21
10.6822803855
  0
LINE
  5
315
100
AcDbEntity
  8
0
100
AcDbLine
 62
4
  6
CONTINUOUS
 10
10.5358463861
 20
10.681533101
 11
10.4944495693
 21
10.68440398
  0
LINE
  5
316
100
AcDbEntity
  8
0
100
AcDbLine
 62
4
  6
CONTINUOUS
 10
10.3316220732
 20
10.6956961052
 11
10.2653871609
 21
10.700289512
  0
LINE
  5
317
100
AcDbEntity
  8
0
100
AcDbLine
 62
4
  6
CONTINUOUS
 10
10.2322696909
 20
10.7025862163
 11
10.1825934998
 21
10.7060312719
  0
LINE
  5
318
100
AcDbEntity
  8
0
100
AcDbLine
 62
4
  6
CONTINUOUS
 10
10.0418442869
 20
10.7157922629
 11
10.0087268446
 21
10.7180889653
  0
LINE
  5
319
100
AcDbEntity
  8
0
100
AcDbLine
 62
4
  6
CONTINUOUS
 10
9.9452517376
 20
10.722490979
 11
9.9204136282
 21
10.7242135077
  0
LINE
  5
31A
100
AcDbEntity
  8
0
100
AcDbLine
 62
4
  6
CONTINUOUS
 10
9.8707374647
 20
10.7276585613
 11
9.8293406342
 21
10.7305294413
  0
LINE
  5
31B
100
AcDbEntity
  8
0
100
AcDbLine
 62
4
  6
CONTINUOUS
 10
9.7658654719
 20
10.7349314588
 11
9.7161893084
 21
10.7383765124
  0
LINE
  5
31C
100
AcDbEntity
  8
0
100
AcDbLine
 62
4
  6
CONTINUOUS
 10
9.7460587112
 20
10.7500852931
 11
9.7791761535
 21
10.7477885907
  0
LINE
  5
31D
100
AcDbEntity
  8
0
100
AcDbLine
 62
4
  6
CONTINUOUS
 10
10.2124629026
 20
10.7177400526
 11
10.2455803726
 21
10.7154433483
  0
LINE
  5
31E
100
AcDbEntity
  8
0
100
AcDbLine
 62
4
  6
CONTINUOUS
 10
10.4421197599
 20
10.711000117
 11
10.3979631517
 21
10.7140623882
  0
LINE
  5
31F
100
AcDbEntity
  8
0
100
AcDbLine
 62
4
  6
CONTINUOUS
 10
10.26332795
 20
10.7325861927
 11
10.2136517588
 21
10.7360312482
  0
LINE
  5
320
100
AcDbEntity
  8
0
100
AcDbLine
 62
4
  6
CONTINUOUS
 10
9.796923731
 20
10.7649314351
 11
9.7472475675
 21
10.7683764887
  0
LINE
  5
321
100
AcDbEntity
  8
0
100
AcDbLine
 62
4
  6
CONTINUOUS
 10
9.8603988932
 20
10.7605294176
 11
9.9017957238
 21
10.7576585377
  0
LINE
  5
322
100
AcDbEntity
  8
0
100
AcDbLine
 62
4
  6
CONTINUOUS
 10
9.9514718873
 20
10.7542134841
 11
9.9763099967
 21
10.7524909553
  0
LINE
  5
323
100
AcDbEntity
  8
0
100
AcDbLine
 62
4
  6
CONTINUOUS
 10
10.0397851037
 20
10.7480889417
 11
10.072902546
 21
10.7457922393
  0
LINE
  5
324
100
AcDbEntity
  8
0
100
AcDbLine
 62
4
  6
CONTINUOUS
 10
10.5255078284
 20
10.7144039563
 11
10.5669046452
 21
10.7115330773
  0
LINE
  5
325
100
AcDbEntity
  8
0
100
AcDbLine
 62
4
  6
CONTINUOUS
 10
11.7187986133
 20
10.7141772807
 11
11.6463541737
 21
10.7192013196
  0
LINE
  5
326
100
AcDbEntity
  8
0
100
AcDbLine
 62
4
  6
CONTINUOUS
 10
11.4579986306
 20
10.7322638209
 11
11.4435097427
 21
10.7332686287
  0
LINE
  5
327
100
AcDbEntity
  8
0
100
AcDbLine
 62
4
  6
CONTINUOUS
 10
11.4709395725
 20
10.7447638116
 11
11.4564506846
 21
10.7457686194
  0
LINE
  5
328
100
AcDbEntity
  8
0
100
AcDbLine
 62
4
  6
CONTINUOUS
 10
11.6039277515
 20
10.738220539
 11
11.5604610877
 21
10.7412349623
  0
LINE
  5
329
100
AcDbEntity
  8
0
100
AcDbLine
 62
4
  6
CONTINUOUS
 10
11.3772819209
 20
10.7592974594
 11
11.3338152571
 21
10.7623118827
  0
LINE
  5
32A
100
AcDbEntity
  8
0
100
AcDbLine
 62
4
  6
CONTINUOUS
 10
11.4745680018
 20
10.763268605
 11
11.4890568897
 21
10.7622637972
  0
LINE
  5
32B
100
AcDbEntity
  8
0
100
AcDbLine
 62
4
  6
CONTINUOUS
 10
11.4435097427
 20
10.7332686287
 11
11.4316090424
 21
10.7367734339
  0
LINE
  5
32C
100
AcDbEntity
  8
0
100
AcDbLine
 62
4
  6
CONTINUOUS
 10
11.4564506846
 20
10.7457686194
 11
11.4445499843
 21
10.7492734246
  0
LINE
  5
32D
100
AcDbEntity
  8
0
100
AcDbLine
 62
4
  6
CONTINUOUS
 10
11.4890568897
 20
10.7622637972
 11
11.5009575893
 21
10.7587589913
  0
LINE
  5
32E
100
AcDbEntity
  8
0
100
AcDbLine
 62
4
  6
CONTINUOUS
 10
11.4316090424
 20
10.7367734339
 11
11.4269527879
 21
10.739775837
  0
LINE
  5
32F
100
AcDbEntity
  8
0
100
AcDbLine
 62
4
  6
CONTINUOUS
 10
11.4445499843
 20
10.7492734246
 11
11.4352374726
 21
10.7552782282
  0
LINE
  5
330
100
AcDbEntity
  8
0
100
AcDbLine
 62
4
  6
CONTINUOUS
 10
11.5009575893
 20
10.7587589913
 11
11.5056138449
 21
10.7557565893
  0
LINE
  5
331
100
AcDbEntity
  8
0
100
AcDbLine
 62
7
  6
CONTINUOUS
 10
13.3207253061
 20
11.2515197458
 11
13.3207253061
 21
6.4817775377
  0
LINE
  5
332
100
AcDbEntity
  8
0
100
AcDbLine
 62
4
  6
CONTINUOUS
 10
9.459140419
 20
10.6243720303
 11
9.4486426388
 21
10.6228033484
  0
LINE
  5
333
100
AcDbEntity
  8
0
100
AcDbLine
 62
4
  6
CONTINUOUS
 10
10.062839902
 20
10.7189296224
 11
10.0418442869
 21
10.7157922629
  0
LINE
  5
334
100
AcDbEntity
  8
0
100
AcDbLine
 62
4
  6
CONTINUOUS
 10
9.9662473526
 20
10.7256283384
 11
9.9452517376
 21
10.722490979
  0
LINE
  5
335
100
AcDbEntity
  8
0
100
AcDbLine
 62
4
  6
CONTINUOUS
 10
9.9304762718
 20
10.7510761242
 11
9.9514718873
 21
10.7542134841
  0
LINE
  5
336
100
AcDbEntity
  8
0
100
AcDbLine
 62
4
  6
CONTINUOUS
 10
9.8394032777
 20
10.7573920578
 11
9.8603988932
 21
10.7605294176
  0
LINE
  5
337
100
AcDbEntity
  8
0
100
AcDbLine
 62
4
  6
CONTINUOUS
 10
9.6566628343
 20
10.7608783295
 11
9.7067353015
 21
10.7635303396
  0
LINE
  5
338
100
AcDbEntity
  8
0
100
AcDbLine
 62
7
  6
CONTINUOUS
 10
13.3207253061
 20
6.4817775377
 11
12.3014967571
 21
5.4972783009
  0
LINE
  5
339
100
AcDbEntity
  8
0
100
AcDbLine
 62
7
  6
CONTINUOUS
 10
9.6985032429
 20
11.5027216991
 11
13.3207253061
 21
11.2515197458
  0
ARC
  5
33A
100
AcDbEntity
  8
0
100
AcDbCircle
 62
7
  6
CONTINUOUS
 10
11.7574418523
 20
8.8086406946
 40
2.0178937303
100
AcDbArc
 50
87.0764393209
 51
92.9220171346
  0
ARC
  5
33B
100
AcDbEntity
  8
0
100
AcDbCircle
 62
7
  6
CONTINUOUS
 10
13.2112889355
 20
6.9310499391
 40
0.0108711261
100
AcDbArc
 50
86.0326464375
 51
86.8085244832
  0
ARC
  5
33C
100
AcDbEntity
  8
0
100
AcDbCircle
 62
7
  6
CONTINUOUS
 10
13.2112889355
 20
10.9145282952
 40
0.0108711261
100
AcDbArc
 50
86.0326464376
 51
86.808524483
  0
SPLINE
  5
33D
100
AcDbEntity
  8
0
100
AcDbSpline
 62
7
  6
CONTINUOUS
 70
0
 71
3
 72
83
 73
79
 74
0
 42
0.0000001
 43
0.0000001
 44
0.0000000001
 40
0.0
 40
0.0
 40
0.0
 40
0.0
 40
0.003980149
 40
0.0081240919
 40
0.0124359835
 40
0.0169193603
 40
0.0215772246
 40
0.0264119606
 40
0.0314252324
 40
0.0366182158
 40
0.0419916195
 40
0.0475457334
 40
0.0532805161
 40
0.0591955185
 40
0.0715625327
 40
0.0846382143
 40
0.0984095328
 40
0.1128601134
 40
0.1279706583
 40
0.1437192718
 40
0.1600817502
 40
0.1770318183
 40
0.1945413264
 40
0.2125804203
 40
0.2311176863
 40
0.2501203005
 40
0.269554164
 40
0.2893840224
 40
0.3095735802
 40
0.3300856048
 40
0.3508820422
 40
0.3719241252
 40
0.4145864312
 40
0.4577527569
 40
0.5010975799
 40
0.5442936399
 40
0.5870151259
 40
0.6080976714
 40
0.6289416876
 40
0.6495082871
 40
0.6697592834
 40
0.6896572915
 40
0.7091658343
 40
0.7282494515
 40
0.7468738239
 40
0.7650058946
 40
0.78261399
 40
0.7996679565
 40
0.8161393115
 40
0.8320014232
 40
0.8472297058
 40
0.8618018332
 40
0.8756980061
 40
0.8889012771
 40
0.9013979681
 40
0.9131781873
 40
0.9187980573
 40
0.924237173
 40
0.9294957148
 40
0.9345742409
 40
0.9394737433
 40
0.9441957547
 40
0.948742307
 40
0.9531161074
 40
0.9573205402
 40
0.9613597705
 40
0.9652388909
 40
0.9689639409
 40
0.9725421207
 40
0.975981843
 40
0.9792928682
 40
0.9824864417
 40
0.9855753029
 40
0.9885737828
 40
0.9914977139
 40
0.9943643205
 40
0.9971920042
 40
1.0
 40
1.0
 40
1.0
 40
1.0
 10
12.391089438
 20
10.9475603985
 30
0.0
 10
12.389790201
 20
10.9463054319
 30
0.0
 10
12.3870792549
 20
10.9438043631
 30
0.0
 10
12.382775091
 20
10.9401513449
 30
0.0
 10
12.3781548461
 20
10.9365244979
 30
0.0
 10
12.3732210567
 20
10.9329258079
 30
0.0
 10
12.3679761661
 20
10.9293569221
 30
0.0
 10
12.3624227089
 20
10.9258196081
 30
0.0
 10
12.3565634682
 20
10.9223155248
 30
0.0
 10
12.3504013547
 20
10.9188464773
 30
0.0
 10
12.3439394614
 20
10.915414195
 30
0.0
 10
12.3371810384
 20
10.912020364
 30
0.0
 10
12.3301294379
 20
10.908666714
 30
0.0
 10
12.3201931971
 20
10.9041843216
 30
0.0
 10
12.3070543886
 20
10.898706761
 30
0.0
 10
12.2904038918
 20
10.8924140871
 30
0.0
 10
12.2726766598
 20
10.8863206221
 30
0.0
 10
12.2539083708
 20
10.8804387333
 30
0.0
 10
12.2341365995
 20
10.8747803798
 30
0.0
 10
12.2134011191
 20
10.8693570726
 30
0.0
 10
12.1917436846
 20
10.8641798537
 30
0.0
 10
12.169207962
 20
10.8592592695
 30
0.0
 10
12.1458394215
 20
10.8546053456
 30
0.0
 10
12.1216852476
 20
10.850227568
 30
0.0
 10
12.0967942413
 20
10.8461348472
 30
0.0
 10
12.0712167137
 20
10.8423355129
 30
0.0
 10
12.0450043741
 20
10.8388372988
 30
0.0
 10
12.0182102249
 20
10.8356473263
 30
0.0
 10
11.9908884516
 20
10.8327720899
 30
0.0
 10
11.9630943341
 20
10.830217444
 30
0.0
 10
11.9348840556
 20
10.8279885457
 30
0.0
 10
11.8966174566
 20
10.8254456485
 30
0.0
 10
11.8481654973
 20
10.823120027
 30
0.0
 10
11.7895530815
 20
10.8216939204
 30
0.0
 10
11.7306809207
 20
10.8216317982
 30
0.0
 10
11.672025272
 20
10.8229342058
 30
0.0
 10
11.623509739
 20
10.8251571549
 30
0.0
 10
11.585170864
 20
10.827618557
 30
0.0
 10
11.5568910171
 20
10.8297877013
 30
0.0
 10
11.5290170141
 20
10.8322834724
 30
0.0
 10
11.5016051959
 20
10.8351008244
 30
0.0
 10
11.4747110219
 20
10.8382340165
 30
0.0
 10
11.4483888855
 20
10.8416766771
 30
0.0
 10
11.42269202
 20
10.8454218052
 30
0.0
 10
11.3976723783
 20
10.8494617771
 30
0.0
 10
11.3733805261
 20
10.8537883622
 30
0.0
 10
11.3498655412
 20
10.8583927493
 30
0.0
 10
11.3271749141
 20
10.8632655604
 30
0.0
 10
11.3053544446
 20
10.8683968752
 30
0.0
 10
11.2844481335
 20
10.8737762404
 30
0.0
 10
11.2644980868
 20
10.8793926939
 30
0.0
 10
11.2455444153
 20
10.8852348034
 30
0.0
 10
11.2276251814
 20
10.891290688
 30
0.0
 10
11.2107761686
 20
10.8975480773
 30
0.0
 10
11.1950312294
 20
10.9039942921
 30
0.0
 10
11.1826693324
 20
10.9095972759
 30
0.0
 10
11.1733687932
 20
10.91417517
 30
0.0
 10
11.1667986577
 20
10.917593701
 30
0.0
 10
11.1605271473
 20
10.9210495679
 30
0.0
 10
11.1545573865
 20
10.9245410851
 30
0.0
 10
11.148892379
 20
10.928066549
 30
0.0
 10
11.1435349127
 20
10.9316241497
 30
0.0
 10
11.1384876925
 20
10.935212215
 30
0.0
 10
11.133753201
 20
10.9388289486
 30
0.0
 10
11.129333792
 20
10.9424726149
 30
0.0
 10
11.1252317016
 20
10.9461415212
 30
0.0
 10
11.1214489281
 20
10.9498338726
 30
0.0
 10
11.1179874556
 20
10.9535480404
 30
0.0
 10
11.114849029
 20
10.9572822762
 30
0.0
 10
11.1120353286
 20
10.9610349081
 30
0.0
 10
11.1095479842
 20
10.9648042853
 30
0.0
 10
11.1073883972
 20
10.9685886397
 30
0.0
 10
11.1055580887
 20
10.9723862798
 30
0.0
 10
11.1040583117
 20
10.9761953197
 30
0.0
 10
11.1028903012
 20
10.9800137716
 30
0.0
 10
11.1020551851
 20
10.9838396143
 30
0.0
 10
11.1015536822
 20
10.9876701349
 30
0.0
 10
11.1014420776
 20
10.9902292318
 30
0.0
 10
11.1014420725
 20
10.9915036234
 30
0.0
  0
SPLINE
  5
33E
100
AcDbEntity
  8
0
100
AcDbSpline
 62
7
  6
CONTINUOUS
 70
0
 71
3
 72
31
 73
27
 74
0
 42
0.0000001
 43
0.0000001
 44
0.0000000001
 40
0.0
 40
0.0
 40
0.0
 40
0.0
 40
0.076277662
 40
0.1537880851
 40
0.2318266316
 40
0.3096794495
 40
0.3866359079
 40
0.4619957237
 40
0.5350773586
 40
0.6052266956
 40
0.6390081512
 40
0.671828261
 40
0.7036169917
 40
0.7343079699
 40
0.7638385787
 40
0.7921505611
 40
0.8191906299
 40
0.844910735
 40
0.8692690202
 40
0.8922307876
 40
0.9137693187
 40
0.9338676935
 40
0.9525208479
 40
0.9697380628
 40
0.9855471934
 40
1.0
 40
1.0
 40
1.0
 40
1.0
 10
13.1722927063
 20
10.7005241415
 30
0.0
 10
13.1722927063
 20
10.7069073323
 30
0.0
 10
13.1724644276
 20
10.7197774318
 30
0.0
 10
13.1732136418
 20
10.7391649512
 30
0.0
 10
13.1744501526
 20
10.7586596853
 30
0.0
 10
13.1761619974
 20
10.7780718821
 30
0.0
 10
13.1783324206
 20
10.7972126526
 30
0.0
 10
13.180940102
 20
10.8158958749
 30
0.0
 10
13.183959447
 20
10.8339397634
 30
0.0
 10
13.1868285323
 20
10.8484749052
 30
0.0
 10
13.1893166088
 20
10.8596454308
 30
0.0
 10
13.191242627
 20
10.867651092
 30
0.0
 10
13.1932472876
 20
10.8753705322
 30
0.0
 10
13.1953256834
 20
10.8827850023
 30
0.0
 10
13.1974727287
 20
10.8898764839
 30
0.0
 10
13.1996831712
 20
10.8966277683
 30
0.0
 10
13.2019515659
 20
10.9030225074
 30
0.0
 10
13.204272378
 20
10.9090452376
 30
0.0
 10
13.2066399379
 20
10.9146814429
 30
0.0
 10
13.2090484461
 20
10.919917616
 30
0.0
 10
13.2114920877
 20
10.9247412648
 30
0.0
 10
13.2139650167
 20
10.9291410095
 30
0.0
 10
13.2164613436
 20
10.9331065812
 30
0.0
 10
13.2189755463
 20
10.9366290127
 30
0.0
 10
13.2215018096
 20
10.9396999942
 30
0.0
 10
13.2232675815
 20
10.9415210277
 30
0.0
 10
13.2241529257
 20
10.942345022
 30
0.0
  0
SPLINE
  5
33F
100
AcDbEntity
  8
0
100
AcDbSpline
 62
7
  6
CONTINUOUS
 70
0
 71
3
 72
31
 73
27
 74
0
 42
0.0000001
 43
0.0000001
 44
0.0000000001
 40
0.0
 40
0.0
 40
0.0
 40
0.0
 40
0.076277662
 40
0.1537880851
 40
0.2318266316
 40
0.3096794495
 40
0.3866359079
 40
0.4619957237
 40
0.5350773586
 40
0.6052266956
 40
0.6390081512
 40
0.671828261
 40
0.7036169917
 40
0.7343079699
 40
0.7638385787
 40
0.7921505611
 40
0.8191906299
 40
0.844910735
 40
0.8692690202
 40
0.8922307876
 40
0.9137693187
 40
0.9338676935
 40
0.9525208479
 40
0.9697380628
 40
0.9855471934
 40
1.0
 40
1.0
 40
1.0
 40
1.0
 10
13.1722927063
 20
6.7170457855
 30
0.0
 10
13.1722927063
 20
6.7234289762
 30
0.0
 10
13.1724644276
 20
6.7362990757
 30
0.0
 10
13.1732136418
 20
6.7556865951
 30
0.0
 10
13.1744501526
 20
6.7751813292
 30
0.0
 10
13.1761619974
 20
6.7945935261
 30
0.0
 10
13.1783324206
 20
6.8137342965
 30
0.0
 10
13.180940102
 20
6.8324175188
 30
0.0
 10
13.183959447
 20
6.8504614073
 30
0.0
 10
13.1868285323
 20
6.8649965491
 30
0.0
 10
13.1893166088
 20
6.8761670747
 30
0.0
 10
13.191242627
 20
6.8841727359
 30
0.0
 10
13.1932472876
 20
6.8918921761
 30
0.0
 10
13.1953256834
 20
6.8993066463
 30
0.0
 10
13.1974727287
 20
6.9063981278
 30
0.0
 10
13.1996831712
 20
6.9131494122
 30
0.0
 10
13.2019515659
 20
6.9195441514
 30
0.0
 10
13.204272378
 20
6.9255668815
 30
0.0
 10
13.2066399379
 20
6.9312030868
 30
0.0
 10
13.2090484461
 20
6.9364392599
 30
0.0
 10
13.2114920877
 20
6.9412629087
 30
0.0
 10
13.2139650167
 20
6.9456626534
 30
0.0
 10
13.2164613436
 20
6.9496282251
 30
0.0
 10
13.2189755463
 20
6.9531506566
 30
0.0
 10
13.2215018096
 20
6.9562216381
 30
0.0
 10
13.2232675815
 20
6.9580426716
 30
0.0
 10
13.2241529257
 20
6.9588666659
 30
0.0
  0
SPLINE
  5
340
100
AcDbEntity
  8
0
100
AcDbSpline
 62
7
  6
CONTINUOUS
 70
0
 71
3
 72
18
 73
14
 74
0
 42
0.0000001
 43
0.0000001
 44
0.0000000001
 40
0.0
 40
0.0
 40
0.0
 40
0.0
 40
0.1504678859
 40
0.2917100145
 40
0.4244359174
 40
0.549562529
 40
0.668213991
 40
0.7255497453
 40
0.7817912733
 40
0.8371402265
 40
0.8918093735
 40
0.9460201098
 40
1.0
 40
1.0
 40
1.0
 40
1.0
 10
12.8030876431
 20
10.4602934888
 30
0.0
 10
12.8058115549
 20
10.4629245856
 30
0.0
 10
12.8112554988
 20
10.467861194
 30
0.0
 10
12.8196854098
 20
10.4744400577
 30
0.0
 10
12.8281054136
 20
10.4799422841
 30
0.0
 10
12.836506798
 20
10.484358857
 30
0.0
 10
12.8435680784
 20
10.4871594404
 30
0.0
 10
12.8491744138
 20
10.4888233926
 30
0.0
 10
12.8533194513
 20
10.489782461
 30
0.0
 10
12.8574507371
 20
10.490466007
 30
0.0
 10
12.8615671119
 20
10.4908738096
 30
0.0
 10
12.8656669419
 20
10.4910056243
 30
0.0
 10
12.8683907497
 20
10.4909092727
 30
0.0
 10
12.8697461164
 20
10.490815282
 30
0.0
  0
SPLINE
  5
341
100
AcDbEntity
  8
0
100
AcDbSpline
 62
7
  6
CONTINUOUS
 70
0
 71
3
 72
19
 73
15
 74
0
 42
0.0000001
 43
0.0000001
 44
0.0000000001
 40
0.0
 40
0.0
 40
0.0
 40
0.0
 40
0.1504611406
 40
0.2916985742
 40
0.4244193292
 40
0.4878835935
 40
0.5495802133
 40
0.6682271463
 40
0.7255606136
 40
0.7817999183
 40
0.8371467056
 40
0.8918136429
 40
0.9460222308
 40
1.0
 40
1.0
 40
1.0
 40
1.0
 10
12.8030876431
 20
8.406252185
 30
0.0
 10
12.8053691014
 20
8.4084559045
 30
0.0
 10
12.8099288675
 20
8.4125907056
 30
0.0
 10
12.8169892322
 20
8.4181007955
 30
0.0
 10
12.8229528095
 20
8.4219978488
 30
0.0
 10
12.8277083917
 20
8.4246368218
 30
0.0
 10
12.8323236711
 20
8.4269024522
 30
0.0
 10
12.8369929941
 20
8.4287543911
 30
0.0
 10
12.8416885813
 20
8.4301480002
 30
0.0
 10
12.8451603702
 20
8.430951295
 30
0.0
 10
12.8486206057
 20
8.4315238371
 30
0.0
 10
12.8520683674
 20
8.4318653766
 30
0.0
 10
12.855502265
 20
8.4319757724
 30
0.0
 10
12.8577836496
 20
8.4318950983
 30
0.0
 10
12.8589188661
 20
8.4318163745
 30
0.0
  0
SPLINE
  5
342
100
AcDbEntity
  8
0
100
AcDbSpline
 62
7
  6
CONTINUOUS
 70
0
 71
3
 72
19
 73
15
 74
0
 42
0.0000001
 43
0.0000001
 44
0.0000000001
 40
0.0
 40
0.0
 40
0.0
 40
0.0
 40
0.12732766
 40
0.2538196711
 40
0.3795264658
 40
0.5045235362
 40
0.5668075958
 40
0.6289556124
 40
0.6909843715
 40
0.7529118454
 40
0.8147570127
 40
0.8765397119
 40
0.9382804145
 40
1.0
 40
1.0
 40
1.0
 40
1.0
 10
10.0982198167
 20
8.6541058176
 30
0.0
 10
10.0982198167
 20
8.6473610535
 30
0.0
 10
10.0975758403
 20
8.6339065131
 30
0.0
 10
10.0946633774
 20
8.6139832126
 30
0.0
 10
10.089834539
 20
8.5945614519
 30
0.0
 10
10.0842407228
 20
8.5789218924
 30
0.0
 10
10.0788610028
 20
8.5668489195
 30
0.0
 10
10.0743873919
 20
8.5580379901
 30
0.0
 10
10.0694812536
 20
8.5494823972
 30
0.0
 10
10.0641537545
 20
8.5412015914
 30
0.0
 10
10.0584171858
 20
8.5332147978
 30
0.0
 10
10.0522847679
 20
8.5255403073
 30
0.0
 10
10.0457708372
 20
8.518196104
 30
0.0
 10
10.0411830096
 20
8.5135306107
 30
0.0
 10
10.0388314839
 20
8.5112592121
 30
0.0
  0
SPLINE
  5
343
100
AcDbEntity
  8
0
100
AcDbSpline
 62
7
  6
CONTINUOUS
 70
0
 71
3
 72
19
 73
15
 74
0
 42
0.0000001
 43
0.0000001
 44
0.0000000001
 40
0.0
 40
0.0
 40
0.0
 40
0.0
 40
0.12732766
 40
0.2538196711
 40
0.3795264658
 40
0.5045235362
 40
0.5668075958
 40
0.6289556124
 40
0.6909843715
 40
0.7529118454
 40
0.8147570127
 40
0.8765397119
 40
0.9382804145
 40
1.0
 40
1.0
 40
1.0
 40
1.0
 10
10.5212953187
 20
8.1118587702
 30
0.0
 10
10.5212953187
 20
8.1051140061
 30
0.0
 10
10.5206513422
 20
8.0916594658
 30
0.0
 10
10.5177388794
 20
8.0717361652
 30
0.0
 10
10.512910041
 20
8.0523144046
 30
0.0
 10
10.5073162248
 20
8.036674845
 30
0.0
 10
10.5019365048
 20
8.0246018721
 30
0.0
 10
10.4974628939
 20
8.0157909427
 30
0.0
 10
10.4925567556
 20
8.0072353499
 30
0.0
 10
10.4872292565
 20
7.998954544
 30
0.0
 10
10.4814926878
 20
7.9909677504
 30
0.0
 10
10.4753602698
 20
7.98329326
 30
0.0
 10
10.4688463391
 20
7.9759490566
 30
0.0
 10
10.4642585116
 20
7.9712835633
 30
0.0
 10
10.4619069859
 20
7.9690121648
 30
0.0
  0
SPLINE
  5
344
100
AcDbEntity
  8
0
100
AcDbSpline
 62
7
  6
CONTINUOUS
 70
0
 71
3
 72
19
 73
15
 74
0
 42
0.0000001
 43
0.0000001
 44
0.0000000001
 40
0.0
 40
0.0
 40
0.0
 40
0.0
 40
0.12732766
 40
0.2538196711
 40
0.3795264658
 40
0.5045235362
 40
0.5668075958
 40
0.6289556124
 40
0.6909843715
 40
0.7529118454
 40
0.8147570127
 40
0.8765397119
 40
0.9382804145
 40
1.0
 40
1.0
 40
1.0
 40
1.0
 10
11.094089305
 20
7.6790034751
 30
0.0
 10
11.094089305
 20
7.672258711
 30
0.0
 10
11.0934453285
 20
7.6588041707
 30
0.0
 10
11.0905328657
 20
7.6388808701
 30
0.0
 10
11.0857040273
 20
7.6194591094
 30
0.0
 10
11.0801102111
 20
7.6038195499
 30
0.0
 10
11.0747304911
 20
7.591746577
 30
0.0
 10
11.0702568802
 20
7.5829356476
 30
0.0
 10
11.0653507419
 20
7.5743800548
 30
0.0
 10
11.0600232427
 20
7.5660992489
 30
0.0
 10
11.0542866741
 20
7.5581124553
 30
0.0
 10
11.0481542561
 20
7.5504379649
 30
0.0
 10
11.0416403254
 20
7.5430937615
 30
0.0
 10
11.0370524979
 20
7.5384282682
 30
0.0
 10
11.0347009722
 20
7.5361568697
 30
0.0
  0
SPLINE
  5
345
100
AcDbEntity
  8
0
100
AcDbSpline
 62
7
  6
CONTINUOUS
 70
0
 71
3
 72
19
 73
15
 74
0
 42
0.0000001
 43
0.0000001
 44
0.0000000001
 40
0.0
 40
0.0
 40
0.0
 40
0.0
 40
0.12732766
 40
0.2538196711
 40
0.3795264658
 40
0.5045235362
 40
0.5668075958
 40
0.6289556124
 40
0.6909843715
 40
0.7529118454
 40
0.8147570127
 40
0.8765397119
 40
0.9382804145
 40
1.0
 40
1.0
 40
1.0
 40
1.0
 10
10.5212953187
 20
7.3265610619
 30
0.0
 10
10.5212953187
 20
7.3198162978
 30
0.0
 10
10.5206513422
 20
7.3063617575
 30
0.0
 10
10.5177388794
 20
7.2864384569
 30
0.0
 10
10.512910041
 20
7.2670166963
 30
0.0
 10
10.5073162248
 20
7.2513771367
 30
0.0
 10
10.5019365048
 20
7.2393041638
 30
0.0
 10
10.4974628939
 20
7.2304932344
 30
0.0
 10
10.4925567556
 20
7.2219376416
 30
0.0
 10
10.4872292565
 20
7.2136568357
 30
0.0
 10
10.4814926878
 20
7.2056700421
 30
0.0
 10
10.4753602698
 20
7.1979955517
 30
0.0
 10
10.4688463391
 20
7.1906513483
 30
0.0
 10
10.4642585116
 20
7.185985855
 30
0.0
 10
10.4619069859
 20
7.1837144565
 30
0.0
  0
SPLINE
  5
346
100
AcDbEntity
  8
0
100
AcDbSpline
 62
7
  6
CONTINUOUS
 70
0
 71
3
 72
23
 73
19
 74
0
 42
0.0000001
 43
0.0000001
 44
0.0000000001
 40
0.0
 40
0.0
 40
0.0
 40
0.0
 40
0.0639332012
 40
0.1275592183
 40
0.1908823597
 40
0.2539226238
 40
0.3167005336
 40
0.379244034
 40
0.4415850901
 40
0.5037596353
 40
0.56580652
 40
0.6277665318
 40
0.6896814431
 40
0.7515930696
 40
0.8135424373
 40
0.8755690412
 40
0.937710109
 40
1.0
 40
1.0
 40
1.0
 40
1.0
 10
10.826923599
 20
6.3693836202
 30
0.0
 10
10.826923599
 20
6.3666475887
 30
0.0
 10
10.8267312987
 20
6.3611866519
 30
0.0
 10
10.8258628215
 20
6.3530574296
 30
0.0
 10
10.8244199044
 20
6.3450486165
 30
0.0
 10
10.8224112173
 20
6.3372001792
 30
0.0
 10
10.819848301
 20
6.3295499616
 30
0.0
 10
10.8167459777
 20
6.3221345632
 30
0.0
 10
10.8131218025
 20
6.3149886964
 30
0.0
 10
10.8089959898
 20
6.3081450732
 30
0.0
 10
10.8043910773
 20
6.3016342203
 30
0.0
 10
10.7993316544
 20
6.2954843782
 30
0.0
 10
10.7938440967
 20
6.2897214315
 30
0.0
 10
10.7879562832
 20
6.2843688758
 30
0.0
 10
10.7816974062
 20
6.2794478377
 30
0.0
 10
10.7750975613
 20
6.2749769946
 30
0.0
 10
10.768188228
 20
6.270973007
 30
0.0
 10
10.7634022114
 20
6.2686270699
 30
0.0
 10
10.7609697649
 20
6.2675365695
 30
0.0
  0
SPLINE
  5
347
100
AcDbEntity
  8
0
100
AcDbSpline
 62
7
  6
CONTINUOUS
 70
0
 71
3
 72
15
 73
11
 74
0
 42
0.0000001
 43
0.0000001
 44
0.0000000001
 40
0.0
 40
0.0
 40
0.0
 40
0.0
 40
0.1273481239
 40
0.2538605621
 40
0.3795879444
 40
0.5046050907
 40
0.6290174474
 40
0.7529533717
 40
0.8765605758
 40
1.0
 40
1.0
 40
1.0
 40
1.0
 10
11.2387819118
 20
8.7020451035
 30
0.0
 10
11.2387819118
 20
8.6985803329
 30
0.0
 10
11.2384510966
 20
8.6916687383
 30
0.0
 10
11.2369550159
 20
8.6814342754
 30
0.0
 10
11.2344742518
 20
8.6714569647
 30
0.0
 10
11.2310312118
 20
8.6618301241
 30
0.0
 10
11.2266575092
 20
8.6526425221
 30
0.0
 10
11.2213929926
 20
8.6439790021
 30
0.0
 10
11.2152871817
 20
8.635920725
 30
0.0
 10
11.2106897891
 20
8.6309982963
 30
0.0
 10
11.208274239
 20
8.6286650272
 30
0.0
  0
SPLINE
  5
348
100
AcDbEntity
  8
0
100
AcDbSpline
 62
7
  6
CONTINUOUS
 70
0
 71
3
 72
23
 73
19
 74
0
 42
0.0000001
 43
0.0000001
 44
0.0000000001
 40
0.0
 40
0.0
 40
0.0
 40
0.0
 40
0.0614488241
 40
0.1232974197
 40
0.1855193347
 40
0.2480712628
 40
0.3108995353
 40
0.3739401489
 40
0.4371217389
 40
0.5003679845
 40
0.5636003178
 40
0.6267406547
 40
0.6897141134
 40
0.7524516881
 40
0.8148925943
 40
0.8769871548
 40
0.9386967187
 40
1.0
 40
1.0
 40
1.0
 40
1.0
 10
11.1301152499
 20
8.818247824
 30
0.0
 10
11.1336819397
 20
8.8180004732
 30
0.0
 10
11.140818884
 20
8.8171526758
 30
0.0
 10
11.1513804773
 20
8.8148500456
 30
0.0
 10
11.161737353
 20
8.8115345307
 30
0.0
 10
11.1717887565
 20
8.8072382506
 30
0.0
 10
11.1814385696
 20
8.802002754
 30
0.0
 10
11.1905941235
 20
8.7958784604
 30
0.0
 10
11.199167616
 20
8.7889242904
 30
0.0
 10
11.207076781
 20
8.7812070572
 30
0.0
 10
11.2142457072
 20
8.7728008532
 30
0.0
 10
11.2206055481
 20
8.7637863496
 30
0.0
 10
11.2260951744
 20
8.7542500413
 30
0.0
 10
11.2306617314
 20
8.7442833897
 30
0.0
 10
11.2342612022
 20
8.7339821178
 30
0.0
 10
11.2368586795
 20
8.7234447673
 30
0.0
 10
11.2384290093
 20
8.7127738648
 30
0.0
 10
11.2387819118
 20
8.7056118918
 30
0.0
 10
11.2387819118
 20
8.7020451035
 30
0.0
  0
SPLINE
  5
349
100
AcDbEntity
  8
0
100
AcDbSpline
 62
7
  6
CONTINUOUS
 70
0
 71
3
 72
15
 73
11
 74
0
 42
0.0000001
 43
0.0000001
 44
0.0000000001
 40
0.0
 40
0.0
 40
0.0
 40
0.0
 40
0.1273481239
 40
0.2538605621
 40
0.3795879444
 40
0.5046050907
 40
0.6290174474
 40
0.7529533717
 40
0.8765605758
 40
1.0
 40
1.0
 40
1.0
 40
1.0
 10
9.488524291
 20
8.8234258818
 30
0.0
 10
9.488524291
 20
8.8199611112
 30
0.0
 10
9.4881934758
 20
8.8130495166
 30
0.0
 10
9.4866973951
 20
8.8028150537
 30
0.0
 10
9.484216631
 20
8.792837743
 30
0.0
 10
9.480773591
 20
8.7832109024
 30
0.0
 10
9.4763998884
 20
8.7740233003
 30
0.0
 10
9.4711353718
 20
8.7653597804
 30
0.0
 10
9.4650295609
 20
8.7573015033
 30
0.0
 10
9.4604321683
 20
8.7523790746
 30
0.0
 10
9.4580166182
 20
8.7500458055
 30
0.0
  0
SPLINE
  5
34A
100
AcDbEntity
  8
0
100
AcDbSpline
 62
7
  6
CONTINUOUS
 70
0
 71
3
 72
23
 73
19
 74
0
 42
0.0000001
 43
0.0000001
 44
0.0000000001
 40
0.0
 40
0.0
 40
0.0
 40
0.0
 40
0.0614488241
 40
0.1232974197
 40
0.1855193347
 40
0.2480712628
 40
0.3108995353
 40
0.3739401489
 40
0.4371217389
 40
0.5003679845
 40
0.5636003178
 40
0.6267406547
 40
0.6897141134
 40
0.7524516881
 40
0.8148925943
 40
0.8769871548
 40
0.9386967187
 40
1.0
 40
1.0
 40
1.0
 40
1.0
 10
9.3798576291
 20
8.9396286023
 30
0.0
 10
9.3834243189
 20
8.9393812515
 30
0.0
 10
9.3905612632
 20
8.9385334541
 30
0.0
 10
9.4011228565
 20
8.9362308239
 30
0.0
 10
9.4114797322
 20
8.932915309
 30
0.0
 10
9.4215311357
 20
8.9286190288
 30
0.0
 10
9.4311809488
 20
8.9233835323
 30
0.0
 10
9.4403365027
 20
8.9172592387
 30
0.0
 10
9.4489099952
 20
8.9103050687
 30
0.0
 10
9.4568191602
 20
8.9025878354
 30
0.0
 10
9.4639880864
 20
8.8941816315
 30
0.0
 10
9.4703479273
 20
8.8851671279
 30
0.0
 10
9.4758375536
 20
8.8756308195
 30
0.0
 10
9.4804041106
 20
8.865664168
 30
0.0
 10
9.4840035814
 20
8.8553628961
 30
0.0
 10
9.4866010587
 20
8.8448255456
 30
0.0
 10
9.4881713885
 20
8.8341546431
 30
0.0
 10
9.488524291
 20
8.8269926701
 30
0.0
 10
9.488524291
 20
8.8234258818
 30
0.0
  0
SPLINE
  5
34B
100
AcDbEntity
  8
0
100
AcDbSpline
 62
7
  6
CONTINUOUS
 70
0
 71
3
 72
15
 73
11
 74
0
 42
0.0000001
 43
0.0000001
 44
0.0000000001
 40
0.0
 40
0.0
 40
0.0
 40
0.0
 40
0.1273481239
 40
0.2538605621
 40
0.3795879444
 40
0.5046050907
 40
0.6290174474
 40
0.7529533717
 40
0.8765605758
 40
1.0
 40
1.0
 40
1.0
 40
1.0
 10
9.488524291
 20
6.7708332641
 30
0.0
 10
9.488524291
 20
6.7673684936
 30
0.0
 10
9.4881934758
 20
6.7604568989
 30
0.0
 10
9.4866973951
 20
6.7502224361
 30
0.0
 10
9.484216631
 20
6.7402451254
 30
0.0
 10
9.480773591
 20
6.7306182848
 30
0.0
 10
9.4763998884
 20
6.7214306827
 30
0.0
 10
9.4711353718
 20
6.7127671627
 30
0.0
 10
9.4650295609
 20
6.7047088856
 30
0.0
 10
9.4604321683
 20
6.6997864569
 30
0.0
 10
9.4580166182
 20
6.6974531879
 30
0.0
  0
SPLINE
  5
34C
100
AcDbEntity
  8
0
100
AcDbSpline
 62
7
  6
CONTINUOUS
 70
0
 71
3
 72
23
 73
19
 74
0
 42
0.0000001
 43
0.0000001
 44
0.0000000001
 40
0.0
 40
0.0
 40
0.0
 40
0.0
 40
0.0614488241
 40
0.1232974197
 40
0.1855193347
 40
0.2480712628
 40
0.3108995353
 40
0.3739401489
 40
0.4371217389
 40
0.5003679845
 40
0.5636003178
 40
0.6267406547
 40
0.6897141134
 40
0.7524516881
 40
0.8148925943
 40
0.8769871548
 40
0.9386967187
 40
1.0
 40
1.0
 40
1.0
 40
1.0
 10
9.3798576291
 20
6.8870359846
 30
0.0
 10
9.3834243189
 20
6.8867886339
 30
0.0
 10
9.3905612632
 20
6.8859408365
 30
0.0
 10
9.4011228565
 20
6.8836382062
 30
0.0
 10
9.4114797322
 20
6.8803226914
 30
0.0
 10
9.4215311357
 20
6.8760264112
 30
0.0
 10
9.4311809488
 20
6.8707909146
 30
0.0
 10
9.4403365027
 20
6.864666621
 30
0.0
 10
9.4489099952
 20
6.8577124511
 30
0.0
 10
9.4568191602
 20
6.8499952178
 30
0.0
 10
9.4639880864
 20
6.8415890138
 30
0.0
 10
9.4703479273
 20
6.8325745103
 30
0.0
 10
9.4758375536
 20
6.8230382019
 30
0.0
 10
9.4804041106
 20
6.8130715504
 30
0.0
 10
9.4840035814
 20
6.8027702784
 30
0.0
 10
9.4866010587
 20
6.792232928
 30
0.0
 10
9.4881713885
 20
6.7815620255
 30
0.0
 10
9.488524291
 20
6.7744000525
 30
0.0
 10
9.488524291
 20
6.7708332641
 30
0.0
  0
SPLINE
  5
34D
100
AcDbEntity
  8
0
100
AcDbSpline
 62
7
  6
CONTINUOUS
 70
0
 71
3
 72
15
 73
11
 74
0
 42
0.0000001
 43
0.0000001
 44
0.0000000001
 40
0.0
 40
0.0
 40
0.0
 40
0.0
 40
0.1273481239
 40
0.2538605621
 40
0.3795879444
 40
0.5046050907
 40
0.6290174474
 40
0.7529533717
 40
0.8765605758
 40
1.0
 40
1.0
 40
1.0
 40
1.0
 10
11.2387819118
 20
6.6494524859
 30
0.0
 10
11.2387819118
 20
6.6459877153
 30
0.0
 10
11.2384510966
 20
6.6390761207
 30
0.0
 10
11.2369550159
 20
6.6288416578
 30
0.0
 10
11.2344742518
 20
6.6188643471
 30
0.0
 10
11.2310312118
 20
6.6092375065
 30
0.0
 10
11.2266575092
 20
6.6000499044
 30
0.0
 10
11.2213929926
 20
6.5913863845
 30
0.0
 10
11.2152871817
 20
6.5833281074
 30
0.0
 10
11.2106897891
 20
6.5784056787
 30
0.0
 10
11.208274239
 20
6.5760724096
 30
0.0
  0
SPLINE
  5
34E
100
AcDbEntity
  8
0
100
AcDbSpline
 62
7
  6
CONTINUOUS
 70
0
 71
3
 72
23
 73
19
 74
0
 42
0.0000001
 43
0.0000001
 44
0.0000000001
 40
0.0
 40
0.0
 40
0.0
 40
0.0
 40
0.0614488241
 40
0.1232974197
 40
0.1855193347
 40
0.2480712628
 40
0.3108995353
 40
0.3739401489
 40
0.4371217389
 40
0.5003679845
 40
0.5636003178
 40
0.6267406547
 40
0.6897141134
 40
0.7524516881
 40
0.8148925943
 40
0.8769871548
 40
0.9386967187
 40
1.0
 40
1.0
 40
1.0
 40
1.0
 10
11.1301152499
 20
6.7656552064
 30
0.0
 10
11.1336819397
 20
6.7654078556
 30
0.0
 10
11.140818884
 20
6.7645600582
 30
0.0
 10
11.1513804773
 20
6.762257428
 30
0.0
 10
11.161737353
 20
6.7589419131
 30
0.0
 10
11.1717887565
 20
6.7546456329
 30
0.0
 10
11.1814385696
 20
6.7494101364
 30
0.0
 10
11.1905941235
 20
6.7432858428
 30
0.0
 10
11.199167616
 20
6.7363316728
 30
0.0
 10
11.207076781
 20
6.7286144395
 30
0.0
 10
11.2142457072
 20
6.7202082356
 30
0.0
 10
11.2206055481
 20
6.711193732
 30
0.0
 10
11.2260951744
 20
6.7016574236
 30
0.0
 10
11.2306617314
 20
6.6916907721
 30
0.0
 10
11.2342612022
 20
6.6813895002
 30
0.0
 10
11.2368586795
 20
6.6708521497
 30
0.0
 10
11.2384290093
 20
6.6601812472
 30
0.0
 10
11.2387819118
 20
6.6530192742
 30
0.0
 10
11.2387819118
 20
6.6494524859
 30
0.0
  0
SPLINE
  5
34F
100
AcDbEntity
  8
0
100
AcDbSpline
 62
7
  6
CONTINUOUS
 70
0
 71
3
 72
13
 73
9
 74
0
 42
0.0000001
 43
0.0000001
 44
0.0000000001
 40
0.0
 40
0.0
 40
0.0
 40
0.0
 40
0.2554055699
 40
0.507023091
 40
0.6314773801
 40
0.7550635177
 40
0.8778669792
 40
1.0
 40
1.0
 40
1.0
 40
1.0
 10
10.1938919304
 20
7.4483136548
 30
0.0
 10
10.1938919304
 20
7.4560299046
 30
0.0
 10
10.1946833525
 20
7.4713600787
 30
0.0
 10
10.1977078366
 20
7.4902372651
 30
0.0
 10
10.2013334166
 20
7.5048979944
 30
0.0
 10
10.2046347397
 20
7.5156110577
 30
0.0
 10
10.2085210818
 20
7.5260507057
 30
0.0
 10
10.2115047141
 20
7.5328280323
 30
0.0
 10
10.2130907951
 20
7.5361596024
 30
0.0
  0
SPLINE
  5
350
100
AcDbEntity
  8
0
100
AcDbSpline
 62
7
  6
CONTINUOUS
 70
0
 71
3
 72
21
 73
17
 74
0
 42
0.0000001
 43
0.0000001
 44
0.0000000001
 40
0.0
 40
0.0
 40
0.0
 40
0.0
 40
0.0628527252
 40
0.1257251775
 40
0.1886193994
 40
0.2515375004
 40
0.3144739313
 40
0.3774180255
 40
0.4403518985
 40
0.5032504284
 40
0.5660810563
 40
0.6288042015
 40
0.7536931713
 40
0.8158011618
 40
0.8775963401
 40
1.0
 40
1.0
 40
1.0
 40
1.0
 10
10.2812257289
 20
7.2666520999
 30
0.0
 10
10.2777691063
 20
7.2693232998
 30
0.0
 10
10.2710213403
 20
7.2748860278
 30
0.0
 10
10.261436827
 20
7.2838418492
 30
0.0
 10
10.2524131558
 20
7.2933691232
 30
0.0
 10
10.2439741306
 20
7.3034231841
 30
0.0
 10
10.2361398676
 20
7.313959348
 30
0.0
 10
10.2289281202
 20
7.3249319929
 30
0.0
 10
10.2223545101
 20
7.3362951824
 30
0.0
 10
10.2164330139
 20
7.3480022124
 30
0.0
 10
10.2111759305
 20
7.3600067143
 30
0.0
 10
10.2050777766
 20
7.3763171499
 30
0.0
 10
10.2003370235
 20
7.3930561492
 30
0.0
 10
10.1970006144
 20
7.4100304522
 30
0.0
 10
10.1946217154
 20
7.4269896247
 30
0.0
 10
10.1938919304
 20
7.439806196
 30
0.0
 10
10.1938919304
 20
7.4483136548
 30
0.0
  0
SPLINE
  5
351
100
AcDbEntity
  8
0
100
AcDbSpline
 62
7
  6
CONTINUOUS
 70
0
 71
3
 72
15
 73
11
 74
0
 42
0.0000001
 43
0.0000001
 44
0.0000000001
 40
0.0
 40
0.0
 40
0.0
 40
0.0
 40
0.1453428588
 40
0.2840021339
 40
0.4163086216
 40
0.5426779314
 40
0.6636083986
 40
0.7796801095
 40
0.89155907
 40
1.0
 40
1.0
 40
1.0
 40
1.0
 10
12.7721780141
 20
10.2079156085
 30
0.0
 10
12.7736625989
 20
10.2093496074
 30
0.0
 10
12.776630545
 20
10.2120835451
 30
0.0
 10
12.7811883828
 20
10.2158537406
 30
0.0
 10
12.7857423171
 20
10.2191916706
 30
0.0
 10
12.7902895687
 20
10.2220948153
 30
0.0
 10
12.794827723
 20
10.2245610129
 30
0.0
 10
12.7993544547
 20
10.2265882298
 30
0.0
 10
12.8038665546
 20
10.2281743384
 30
0.0
 10
12.8069039519
 20
10.228946644
 30
0.0
 10
12.8084128425
 20
10.2292546407
 30
0.0
  0
SPLINE
  5
352
100
AcDbEntity
  8
0
100
AcDbSpline
 62
7
  6
CONTINUOUS
 70
0
 71
3
 72
79
 73
75
 74
0
 42
0.0000001
 43
0.0000001
 44
0.0000000001
 40
0.0
 40
0.0
 40
0.0
 40
0.0
 40
0.0039235289
 40
0.008008881
 40
0.0122595125
 40
0.0166783378
 40
0.0212678239
 40
0.0260299204
 40
0.0309659417
 40
0.0360767538
 40
0.0413628365
 40
0.0468242784
 40
0.058271632
 40
0.070414206
 40
0.0832427188
 40
0.0967444573
 40
0.1109037281
 40
0.1257022076
 40
0.1411192529
 40
0.1571321497
 40
0.1737163128
 40
0.1908454473
 40
0.2084916965
 40
0.2266257944
 40
0.2452171881
 40
0.2642341478
 40
0.2836438625
 40
0.3034125527
 40
0.3235055734
 40
0.3438875065
 40
0.3645222478
 40
0.4064021747
 40
0.4488470036
 40
0.4915524687
 40
0.5342119265
 40
0.5765191486
 40
0.6181711357
 40
0.63865866
 40
0.6588716506
 40
0.678774405
 40
0.6983319568
 40
0.7175101675
 40
0.736275825
 40
0.7545967567
 40
0.7724419256
 40
0.7897815349
 40
0.8065871464
 40
0.8228318234
 40
0.8384902796
 40
0.8535390281
 40
0.8679565683
 40
0.8817236141
 40
0.894823384
 40
0.9072419216
 40
0.9189685077
 40
0.924570252
 40
0.9299967827
 40
0.9352479138
 40
0.9403238487
 40
0.945225141
 40
0.9499527418
 40
0.9545081129
 40
0.9588931783
 40
0.9631104837
 40
0.967163225
 40
0.9710553066
 40
0.9747915189
 40
0.978377544
 40
0.9818201389
 40
0.9883051781
 40
0.9913703039
 40
0.994331832
 40
0.9972033621
 40
1.0
 40
1.0
 40
1.0
 40
1.0
 10
12.7721780141
 20
10.2079156085
 30
0.0
 10
12.7708290409
 20
10.2066126003
 30
0.0
 10
12.768132488
 20
10.2038932715
 30
0.0
 10
12.764170173
 20
10.19957382
 30
0.0
 10
12.7602118259
 20
10.1949348302
 30
0.0
 10
12.7562595246
 20
10.1899787019
 30
0.0
 10
12.7523149971
 20
10.184707778
 30
0.0
 10
12.7483800971
 20
10.1791244591
 30
0.0
 10
12.7444565891
 20
10.17323139
 30
0.0
 10
12.7405463669
 20
10.1670313533
 30
0.0
 10
12.7366512818
 20
10.1605272752
 30
0.0
 10
12.7313979134
 20
10.1513088622
 30
0.0
 10
12.7248951632
 20
10.1390341244
 30
0.0
 10
12.7172989772
 20
10.123366689
 30
0.0
 10
12.7098067495
 20
10.1065682259
 30
0.0
 10
12.7024328312
 20
10.0886706762
 30
0.0
 10
12.6951913611
 20
10.0697078453
 30
0.0
 10
12.6880962447
 20
10.0497157762
 30
0.0
 10
12.6811611226
 20
10.0287325197
 30
0.0
 10
12.6743993384
 20
10.0067980754
 30
0.0
 10
12.6678239098
 20
9.9839542971
 30
0.0
 10
12.6614474923
 20
9.9602448184
 30
0.0
 10
12.6552823456
 20
9.9357149635
 30
0.0
 10
12.6493403289
 20
9.9104116443
 30
0.0
 10
12.6436328709
 20
9.8843832628
 30
0.0
 10
12.6381709534
 20
9.8576796227
 30
0.0
 10
12.6329650707
 20
9.8303518394
 30
0.0
 10
12.6280252205
 20
9.8024522303
 30
0.0
 10
12.6233609035
 20
9.7740342235
 30
0.0
 10
12.6189810465
 20
9.745152192
 30
0.0
 10
12.6135050706
 20
9.7059055791
 30
0.0
 10
12.6074397311
 20
9.6560962686
 30
0.0
 10
12.6014487474
 20
9.595665026
 30
0.0
 10
12.5967561728
 20
9.5347452947
 30
0.0
 10
12.5933978651
 20
9.4738033224
 30
0.0
 10
12.5913995441
 20
9.4133055232
 30
0.0
 10
12.5908769581
 20
9.3633760387
 30
0.0
 10
12.5911616601
 20
9.3240103419
 30
0.0
 10
12.5917202936
 20
9.2950455524
 30
0.0
 10
12.5926239731
 20
9.2665342391
 30
0.0
 10
12.5938709706
 20
9.238530952
 30
0.0
 10
12.5954588576
 20
9.2110893233
 30
0.0
 10
12.597384563
 20
9.1842618869
 30
0.0
 10
12.5996443445
 20
9.1580999905
 30
0.0
 10
12.6022338193
 20
9.1326536923
 30
0.0
 10
12.6051479699
 20
9.1079716723
 30
0.0
 10
12.6083811575
 20
9.084101133
 30
0.0
 10
12.6119271189
 20
9.0610876964
 30
0.0
 10
12.6157789754
 20
9.0389753073
 30
0.0
 10
12.6199292647
 20
9.0178061534
 30
0.0
 10
12.6243699519
 20
8.9976205711
 30
0.0
 10
12.6290924573
 20
8.9784569805
 30
0.0
 10
12.6340876488
 20
8.9603516646
 30
0.0
 10
12.639345911
 20
8.9433390943
 30
0.0
 10
12.6440069504
 20
8.9299015001
 30
0.0
 10
12.6478712237
 20
8.9197331542
 30
0.0
 10
12.6507845903
 20
8.9125166007
 30
0.0
 10
12.6537560465
 20
8.9055964545
 30
0.0
 10
12.6567841732
 20
8.8989759715
 30
0.0
 10
12.6598675296
 20
8.8926582837
 30
0.0
 10
12.6630047171
 20
8.8866463945
 30
0.0
 10
12.6661941946
 20
8.880943106
 30
0.0
 10
12.6694345497
 20
8.875551129
 30
0.0
 10
12.6727242679
 20
8.8704729822
 30
0.0
 10
12.6760618221
 20
8.865711038
 30
0.0
 10
12.6794458169
 20
8.8612675499
 30
0.0
 10
12.6828745809
 20
8.8571446562
 30
0.0
 10
12.6863470311
 20
8.8533440115
 30
0.0
 10
12.6909407672
 20
8.8488000886
 30
0.0
 10
12.6957066422
 20
8.8447901906
 30
0.0
 10
12.7006402922
 20
8.8414027498
 30
0.0
 10
12.7043075008
 20
8.8392403907
 30
0.0
 10
12.7080086594
 20
8.8374104189
 30
0.0
 10
12.7105268585
 20
8.8364011497
 30
0.0
 10
12.7117872465
 20
8.8359555392
 30
0.0
  0
SPLINE
  5
353
100
AcDbEntity
  8
0
100
AcDbSpline
 62
7
  6
CONTINUOUS
 70
0
 71
3
 72
15
 73
11
 74
0
 42
0.0000001
 43
0.0000001
 44
0.0000000001
 40
0.0
 40
0.0
 40
0.0
 40
0.0
 40
0.1453417447
 40
0.2840011415
 40
0.4163084708
 40
0.542677962
 40
0.6636082586
 40
0.7796797611
 40
0.891558967
 40
1.0
 40
1.0
 40
1.0
 40
1.0
 10
12.7721780141
 20
8.18430097
 30
0.0
 10
12.7733974752
 20
8.1854788791
 30
0.0
 10
12.7758354041
 20
8.187724586
 30
0.0
 10
12.7795793085
 20
8.1908215077
 30
0.0
 10
12.7833200104
 20
8.1935633787
 30
0.0
 10
12.7870552299
 20
8.1959480914
 30
0.0
 10
12.790782955
 20
8.197973902
 30
0.0
 10
12.7945013123
 20
8.1996390961
 30
0.0
 10
12.7982076371
 20
8.2009419996
 30
0.0
 10
12.8007026233
 20
8.2015764015
 30
0.0
 10
12.8019420593
 20
8.2018294017
 30
0.0
  0
SPLINE
  5
354
100
AcDbEntity
  8
0
100
AcDbSpline
 62
7
  6
CONTINUOUS
 70
0
 71
3
 72
76
 73
72
 74
0
 42
0.0000001
 43
0.0000001
 44
0.0000000001
 40
0.0
 40
0.0
 40
0.0
 40
0.0
 40
0.0039235108
 40
0.0080088695
 40
0.0122595267
 40
0.0166783749
 40
0.0212678659
 40
0.0260299562
 40
0.0309659847
 40
0.0360768
 40
0.0468237182
 40
0.0582710816
 40
0.0704136623
 40
0.0832421861
 40
0.0967439475
 40
0.1109032328
 40
0.1257017177
 40
0.1411187724
 40
0.1571316932
 40
0.1737158767
 40
0.1908450193
 40
0.2084912784
 40
0.2266253999
 40
0.2452168184
 40
0.2642337928
 40
0.2836435211
 40
0.3034122354
 40
0.3235052835
 40
0.3645212778
 40
0.4064012621
 40
0.4488461498
 40
0.4915516827
 40
0.5342112145
 40
0.5765185188
 40
0.6181705961
 40
0.6386581682
 40
0.6588712083
 40
0.6787740159
 40
0.6983316238
 40
0.717509888
 40
0.7362756019
 40
0.7545965976
 40
0.7724418336
 40
0.7897815029
 40
0.8065871746
 40
0.8228319247
 40
0.8384904595
 40
0.8535392763
 40
0.8679568785
 40
0.8817240019
 40
0.8948238599
 40
0.9072424744
 40
0.9189691249
 40
0.9299968938
 40
0.9352480744
 40
0.9403240509
 40
0.9452253683
 40
0.9499530251
 40
0.9545084219
 40
0.9588935266
 40
0.9631108799
 40
0.9671636416
 40
0.9710557713
 40
0.9747920155
 40
0.9783780685
 40
0.9818207067
 40
0.9851278284
 40
0.9883086611
 40
0.9943317903
 40
0.9972033469
 40
1.0
 40
1.0
 40
1.0
 40
1.0
 10
12.7721780141
 20
8.18430097
 30
0.0
 10
12.7710699376
 20
8.1832306503
 30
0.0
 10
12.7688549237
 20
8.1809969249
 30
0.0
 10
12.7656001731
 20
8.1774488101
 30
0.0
 10
12.7623486629
 20
8.1736382129
 30
0.0
 10
12.7591021286
 20
8.1695671031
 30
0.0
 10
12.755861984
 20
8.1652374232
 30
0.0
 10
12.7526297558
 20
8.1606511414
 30
0.0
 10
12.7494068688
 20
8.1558104129
 30
0.0
 10
12.7450510741
 20
8.1489037271
 30
0.0
 10
12.739651871
 20
8.1396366017
 30
0.0
 10
12.7333386117
 20
8.1277200028
 30
0.0
 10
12.7270988667
 20
8.1148501816
 30
0.0
 10
12.7209445497
 20
8.1010515289
 30
0.0
 10
12.7148874169
 20
8.0863499829
 30
0.0
 10
12.7089390745
 20
8.0707734125
 30
0.0
 10
12.7031109455
 20
8.0543514006
 30
0.0
 10
12.69741424
 20
8.037115199
 30
0.0
 10
12.6918599303
 20
8.0190976567
 30
0.0
 10
12.6864586943
 20
8.0003331657
 30
0.0
 10
12.6812209218
 20
7.980857574
 30
0.0
 10
12.676156692
 20
7.9607081026
 30
0.0
 10
12.6712757574
 20
7.939923278
 30
0.0
 10
12.6665874969
 20
7.9185428668
 30
0.0
 10
12.6621009179
 20
7.896607785
 30
0.0
 10
12.6578246557
 20
7.8741600227
 30
0.0
 10
12.6537669018
 20
7.8512425175
 30
0.0
 10
12.6486233251
 20
7.8199039915
 30
0.0
 10
12.6428071949
 20
7.7798809359
 30
0.0
 10
12.6368573726
 20
7.7310219348
 30
0.0
 10
12.6319362181
 20
7.6813819125
 30
0.0
 10
12.62808158
 20
7.6313408321
 30
0.0
 10
12.6253229481
 20
7.581281417
 30
0.0
 10
12.6236814437
 20
7.5315868628
 30
0.0
 10
12.6232521504
 20
7.4905734021
 30
0.0
 10
12.6234859912
 20
7.4582373239
 30
0.0
 10
12.6239448522
 20
7.434444835
 30
0.0
 10
12.6246871409
 20
7.4110248397
 30
0.0
 10
12.6257114387
 20
7.3880221484
 30
0.0
 10
12.6270157585
 20
7.3654808167
 30
0.0
 10
12.628597569
 20
7.3434439952
 30
0.0
 10
12.6304537942
 20
7.3219538594
 30
0.0
 10
12.6325808366
 20
7.3010515325
 30
0.0
 10
12.6349745851
 20
7.2807770056
 30
0.0
 10
12.6376304004
 20
7.2611690477
 30
0.0
 10
12.6405431275
 20
7.242265127
 30
0.0
 10
12.6437071223
 20
7.2241013461
 30
0.0
 10
12.6471162669
 20
7.206712367
 30
0.0
 10
12.65076396
 20
7.1901313259
 30
0.0
 10
12.6546431339
 20
7.1743897461
 30
0.0
 10
12.658746294
 20
7.1595175137
 30
0.0
 10
12.663065554
 20
7.1455426835
 30
0.0
 10
12.6675926307
 20
7.1324917991
 30
0.0
 10
12.6715938421
 20
7.1222452945
 30
0.0
 10
12.6749023784
 20
7.1145397836
 30
0.0
 10
12.6773897686
 20
7.1091014855
 30
0.0
 10
12.6799225367
 20
7.1039119329
 30
0.0
 10
12.6824994666
 20
7.0989735434
 30
0.0
 10
12.6851194068
 20
7.0942886712
 30
0.0
 10
12.687781115
 20
7.0898595079
 30
0.0
 10
12.6904833466
 20
7.0856881188
 30
0.0
 10
12.6932249376
 20
7.0817764987
 30
0.0
 10
12.6960045951
 20
7.0781264425
 30
0.0
 10
12.6988211187
 20
7.0747396933
 30
0.0
 10
12.7016733432
 20
7.0716178632
 30
0.0
 10
12.7045598783
 20
7.068762478
 30
0.0
 10
12.7074800001
 20
7.0661747742
 30
0.0
 10
12.7113447363
 20
7.0631392421
 30
0.0
 10
12.7153484599
 20
7.0605654106
 30
0.0
 10
12.7194667821
 20
7.0585291656
 30
0.0
 10
12.7215353763
 20
7.0577000394
 30
0.0
 10
12.7225706943
 20
7.0573339928
 30
0.0
  0
SPLINE
  5
355
100
AcDbEntity
  8
0
100
AcDbSpline
 62
7
  6
CONTINUOUS
 70
0
 71
3
 72
18
 73
14
 74
0
 42
0.0000001
 43
0.0000001
 44
0.0000000001
 40
0.0
 40
0.0
 40
0.0
 40
0.0
 40
0.0548627003
 40
0.1099292984
 40
0.1654013502
 40
0.22147558
 40
0.3361333207
 40
0.4553633897
 40
0.5171049197
 40
0.5804365965
 40
0.7123310206
 40
0.851957275
 40
1.0
 40
1.0
 40
1.0
 40
1.0
 10
12.4134420443
 20
10.9915043637
 30
0.0
 10
12.413442048
 20
10.9905779013
 30
0.0
 10
12.4133832587
 20
10.9887209981
 30
0.0
 10
12.4131189136
 20
10.985938677
 30
0.0
 10
12.412678355
 20
10.9831579028
 30
0.0
 10
12.4118504912
 20
10.9794267274
 30
0.0
 10
12.4103590801
 20
10.9747502692
 30
0.0
 10
12.4083164077
 20
10.9701842185
 30
0.0
 10
12.4063508837
 20
10.9665554485
 30
0.0
 10
12.4041002759
 20
10.9628435159
 30
0.0
 10
12.400832336
 20
10.9582189727
 30
0.0
 10
12.3962762286
 20
10.9527844007
 30
0.0
 10
12.3928875649
 20
10.9492972559
 30
0.0
 10
12.391089438
 20
10.9475603985
 30
0.0
  0
SPLINE
  5
356
100
AcDbEntity
  8
0
100
AcDbSpline
 62
7
  6
CONTINUOUS
 70
0
 71
3
 72
88
 73
84
 74
0
 42
0.0000001
 43
0.0000001
 44
0.0000000001
 40
0.0
 40
0.0
 40
0.0
 40
0.0
 40
0.0027164206
 40
0.0054532135
 40
0.00823027
 40
0.0110665466
 40
0.0139797362
 40
0.0169860264
 40
0.0200999638
 40
0.0233344621
 40
0.0267007864
 40
0.030208716
 40
0.033866602
 40
0.0376815365
 40
0.0416594862
 40
0.0458053757
 40
0.0501232805
 40
0.0546164357
 40
0.0592874172
 40
0.0641381604
 40
0.0691700473
 40
0.0743839976
 40
0.0797804461
 40
0.085359486
 40
0.0911208072
 40
0.097063806
 40
0.1031875785
 40
0.1094909314
 40
0.1226301057
 40
0.1364676988
 40
0.1509864378
 40
0.1661662591
 40
0.1819846247
 40
0.1984167804
 40
0.2154359739
 40
0.2330136371
 40
0.2511195505
 40
0.2697219952
 40
0.2887878869
 40
0.3082829001
 40
0.3281715858
 40
0.3484174815
 40
0.3689832185
 40
0.3898306305
 40
0.410920857
 40
0.4322144439
 40
0.4536714439
 40
0.4969133241
 40
0.5403214886
 40
0.5835686279
 40
0.6050302166
 40
0.6263296837
 40
0.6474270673
 40
0.6682828961
 40
0.6888582896
 40
0.7091150586
 40
0.7290158075
 40
0.7485240405
 40
0.7676042737
 40
0.7862221443
 40
0.8043445271
 40
0.8219396585
 40
0.8389772699
 40
0.8554287349
 40
0.8712672375
 40
0.8864679574
 40
0.9010082824
 40
0.9148680665
 40
0.9280299429
 40
0.9343448017
 40
0.9404801679
 40
0.9464348204
 40
0.9522078552
 40
0.9577986253
 40
0.9632068219
 40
0.9684325067
 40
0.9734760906
 40
0.9783384494
 40
0.9830208978
 40
0.9875254123
 40
0.9918545974
 40
0.9960115688
 40
1.0
 40
1.0
 40
1.0
 40
1.0
 10
12.7472564201
 20
6.8216836194
 30
0.0
 10
12.7457502533
 20
6.8217880674
 30
0.0
 10
12.7427343383
 20
6.8221340844
 30
0.0
 10
12.7382488453
 20
6.8230599387
 30
0.0
 10
12.7337972721
 20
6.8243926197
 30
0.0
 10
12.7293827521
 20
6.8261307043
 30
0.0
 10
12.7250075919
 20
6.828272726
 30
0.0
 10
12.7206740383
 20
6.8308169971
 30
0.0
 10
12.716384047
 20
6.8337616557
 30
0.0
 10
12.7121395989
 20
6.8371049268
 30
0.0
 10
12.7079424387
 20
6.8408447562
 30
0.0
 10
12.7037944566
 20
6.8449791846
 30
0.0
 10
12.6996974133
 20
6.8495060046
 30
0.0
 10
12.6956531325
 20
6.8544229315
 30
0.0
 10
12.6916634863
 20
6.8597275371
 30
0.0
 10
12.6877302406
 20
6.8654171565
 30
0.0
 10
12.6838553359
 20
6.8714890396
 30
0.0
 10
12.6800405314
 20
6.8779401528
 30
0.0
 10
12.6762877278
 20
6.8847673474
 30
0.0
 10
12.6725987323
 20
6.8919672418
 30
0.0
 10
12.6689753344
 20
6.8995362694
 30
0.0
 10
12.6654193816
 20
6.907470695
 30
0.0
 10
12.6619325613
 20
6.9157665547
 30
0.0
 10
12.6585166906
 20
6.9244197409
 30
0.0
 10
12.655173413
 20
6.9334259251
 30
0.0
 10
12.6519044422
 20
6.942780616
 30
0.0
 10
12.6487113911
 20
6.9524791513
 30
0.0
 10
12.6444990281
 20
6.9660507672
 30
0.0
 10
12.6394497936
 20
6.9838486768
 30
0.0
 10
12.6337988105
 20
7.006211683
 30
0.0
 10
12.6284866375
 20
7.0298213473
 30
0.0
 10
12.6235240455
 20
7.0546303348
 30
0.0
 10
12.6189211351
 20
7.0805891001
 30
0.0
 10
12.6146872728
 20
7.107645643
 30
0.0
 10
12.6108310799
 20
7.1357457288
 30
0.0
 10
12.6073604063
 20
7.1648329756
 30
0.0
 10
12.6042823137
 20
7.1948489857
 30
0.0
 10
12.6016030675
 20
7.2257334695
 30
0.0
 10
12.599328123
 20
7.2574243749
 30
0.0
 10
12.5974621154
 20
7.289858015
 30
0.0
 10
12.596008851
 20
7.322969197
 30
0.0
 10
12.5949712998
 20
7.3566913549
 30
0.0
 10
12.5943515842
 20
7.3909566826
 30
0.0
 10
12.5941509798
 20
7.4256962808
 30
0.0
 10
12.5943699253
 20
7.4608402731
 30
0.0
 10
12.5950079708
 20
7.496318042
 30
0.0
 10
12.5964195595
 20
7.544092593
 30
0.0
 10
12.5992223785
 20
7.6041186214
 30
0.0
 10
12.6042046964
 20
7.6761489428
 30
0.0
 10
12.6096933324
 20
7.7359946803
 30
0.0
 10
12.6148733145
 20
7.7835173455
 30
0.0
 10
12.6191265912
 20
7.8187548839
 30
0.0
 10
12.6237491716
 20
7.8536062556
 30
0.0
 10
12.6287317767
 20
7.88800143
 30
0.0
 10
12.6340643486
 20
7.9218712295
 30
0.0
 10
12.6397361353
 20
7.955147555
 30
0.0
 10
12.6457356951
 20
7.9877635018
 30
0.0
 10
12.6520509241
 20
8.019653503
 30
0.0
 10
12.6586690722
 20
8.0507534647
 30
0.0
 10
12.665576776
 20
8.0810008964
 30
0.0
 10
12.6727600849
 20
8.1103350372
 30
0.0
 10
12.6802044885
 20
8.13869698
 30
0.0
 10
12.6878949461
 20
8.1660297954
 30
0.0
 10
12.6958159192
 20
8.1922786524
 30
0.0
 10
12.7039513983
 20
8.2173909493
 30
0.0
 10
12.7122849405
 20
8.2413163997
 30
0.0
 10
12.7207997136
 20
8.2640072486
 30
0.0
 10
12.7294785283
 20
8.2854180197
 30
0.0
 10
12.7369322218
 20
8.3023845458
 30
0.0
 10
12.7429747293
 20
8.3152742667
 30
0.0
 10
12.7474740957
 20
8.3244616294
 30
0.0
 10
12.7520013608
 20
8.3332982406
 30
0.0
 10
12.7565542303
 20
8.3417797112
 30
0.0
 10
12.7611304469
 20
8.3499017968
 30
0.0
 10
12.7657277334
 20
8.3576604493
 30
0.0
 10
12.7703437651
 20
8.365051827
 30
0.0
 10
12.7749763126
 20
8.3720722177
 30
0.0
 10
12.7796229837
 20
8.3787181653
 30
0.0
 10
12.7842815672
 20
8.3849863593
 30
0.0
 10
12.7889497895
 20
8.3908737625
 30
0.0
 10
12.793625477
 20
8.39637751
 30
0.0
 10
12.7983061387
 20
8.4014946137
 30
0.0
 10
12.8014932237
 20
8.404712094
 30
0.0
 10
12.8030876431
 20
8.406252185
 30
0.0
  0
SPLINE
  5
357
100
AcDbEntity
  8
0
100
AcDbSpline
 62
7
  6
CONTINUOUS
 70
0
 71
3
 72
37
 73
33
 74
0
 42
0.0000001
 43
0.0000001
 44
0.0000000001
 40
0.0
 40
0.0
 40
0.0
 40
0.0
 40
0.0167144845
 40
0.0335900084
 40
0.0507826729
 40
0.0684394104
 40
0.0866947558
 40
0.1056691154
 40
0.1254679528
 40
0.1461822392
 40
0.1678891239
 40
0.1906533893
 40
0.214528538
 40
0.239558406
 40
0.2657781089
 40
0.2932154672
 40
0.3218916539
 40
0.3518223676
 40
0.3830181973
 40
0.4154855809
 40
0.4492269502
 40
0.4842415294
 40
0.5205253231
 40
0.558071802
 40
0.5968717819
 40
0.6369140313
 40
0.6781850765
 40
0.7206697536
 40
0.7643509657
 40
0.8092101934
 40
0.9023786309
 40
1.0
 40
1.0
 40
1.0
 40
1.0
 10
12.7364291699
 20
8.568432518
 30
0.0
 10
12.7343887887
 20
8.5685740125
 30
0.0
 10
12.7302998978
 20
8.5690683112
 30
0.0
 10
12.7242280949
 20
8.5704358307
 30
0.0
 10
12.7182102319
 20
8.5724287212
 30
0.0
 10
12.7122518923
 20
8.5750443173
 30
0.0
 10
12.7063568807
 20
8.5782793937
 30
0.0
 10
12.7005288857
 20
8.58213068
 30
0.0
 10
12.6947710661
 20
8.586594648
 30
0.0
 10
12.6890865534
 20
8.5916678467
 30
0.0
 10
12.6834782843
 20
8.5973465642
 30
0.0
 10
12.6779493488
 20
8.603627032
 30
0.0
 10
12.6725027342
 20
8.6105051196
 30
0.0
 10
12.6671416208
 20
8.6179764998
 30
0.0
 10
12.6618690769
 20
8.6260364187
 30
0.0
 10
12.6566883399
 20
8.6346798429
 30
0.0
 10
12.6516025036
 20
8.6439012952
 30
0.0
 10
12.6466147971
 20
8.6536949805
 30
0.0
 10
12.641728279
 20
8.6640546685
 30
0.0
 10
12.6369461151
 20
8.6749737965
 30
0.0
 10
12.632271284
 20
8.6864453852
 30
0.0
 10
12.6277068497
 20
8.6984621198
 30
0.0
 10
12.62325568
 20
8.7110162906
 30
0.0
 10
12.6189207124
 20
8.7240998546
 30
0.0
 10
12.6147046828
 20
8.7377043953
 30
0.0
 10
12.6106103852
 20
8.751821168
 30
0.0
 10
12.6066404072
 20
8.766441076
 30
0.0
 10
12.6027973948
 20
8.7815546975
 30
0.0
 10
12.5990837458
 20
8.7971522954
 30
0.0
 10
12.5942469805
 20
8.8188554817
 30
0.0
 10
12.5885608031
 20
8.8471282621
 30
0.0
 10
12.58452674
 20
8.8701257325
 30
0.0
 10
12.5825937758
 20
8.8819138218
 30
0.0
  0
SPLINE
  5
358
100
AcDbEntity
  8
0
100
AcDbSpline
 62
7
  6
CONTINUOUS
 70
0
 71
3
 72
39
 73
35
 74
0
 42
0.0000001
 43
0.0000001
 44
0.0000000001
 40
0.0
 40
0.0
 40
0.0
 40
0.0
 40
0.0260536706
 40
0.0530727646
 40
0.0810065858
 40
0.1098014685
 40
0.1394010559
 40
0.1697465545
 40
0.2007769715
 40
0.2324293381
 40
0.2646389243
 40
0.2973394461
 40
0.330463268
 40
0.3639416006
 40
0.3977046962
 40
0.4316820428
 40
0.4658025555
 40
0.4999947683
 40
0.5341870247
 40
0.568307668
 40
0.6022852315
 40
0.6360486297
 40
0.6695273494
 40
0.7026516417
 40
0.7353527157
 40
0.7675629344
 40
0.7992160126
 40
0.8302472186
 40
0.8605935821
 40
0.8901941076
 40
0.918989999
 40
0.9469248962
 40
0.97394513
 40
1.0
 40
1.0
 40
1.0
 40
1.0
 10
12.5825937758
 20
8.8819138218
 30
0.0
 10
12.580721892
 20
8.8933294157
 30
0.0
 10
12.5771591424
 20
8.9166252526
 30
0.0
 10
12.5724185608
 20
8.9522810999
 30
0.0
 10
12.5681917564
 20
8.9892267991
 30
0.0
 10
12.5644883321
 20
9.0273797217
 30
0.0
 10
12.5613166684
 20
9.0666547877
 30
0.0
 10
12.5586839544
 20
9.1069643022
 30
0.0
 10
12.5565961593
 20
9.1482182585
 30
0.0
 10
12.555058023
 20
9.190324515
 30
0.0
 10
12.5540730465
 20
9.2331890138
 30
0.0
 10
12.5536434849
 20
9.2767159909
 30
0.0
 10
12.5537703432
 20
9.3208081935
 30
0.0
 10
12.5544533748
 20
9.3653670991
 30
0.0
 10
12.5556910829
 20
9.4102931372
 30
0.0
 10
12.5574807237
 20
9.455485913
 30
0.0
 10
12.5598183137
 20
9.5008444333
 30
0.0
 10
12.5626986381
 20
9.5462673327
 30
0.0
 10
12.5661152633
 20
9.5916531014
 30
0.0
 10
12.5700605509
 20
9.6369003131
 30
0.0
 10
12.574525675
 20
9.6819078522
 30
0.0
 10
12.579500642
 20
9.7265751412
 30
0.0
 10
12.5849743127
 20
9.7708023663
 30
0.0
 10
12.5909344266
 20
9.8144907017
 30
0.0
 10
12.5973676293
 20
9.8575425325
 30
0.0
 10
12.6042595018
 20
9.8998616738
 30
0.0
 10
12.6115945926
 20
9.9413535881
 30
0.0
 10
12.6193564519
 20
9.9819255993
 30
0.0
 10
12.627527667
 20
10.0214871003
 30
0.0
 10
12.636089903
 20
10.0599497673
 30
0.0
 10
12.6450239362
 20
10.0972277338
 30
0.0
 10
12.6543097212
 20
10.1332378883
 30
0.0
 10
12.66392635
 20
10.1678997127
 30
0.0
 10
12.6706704017
 20
10.1904819162
 30
0.0
 10
12.674100018
 20
10.2015304359
 30
0.0
  0
SPLINE
  5
359
100
AcDbEntity
  8
0
100
AcDbSpline
 62
7
  6
CONTINUOUS
 70
0
 71
3
 72
23
 73
19
 74
0
 42
0.0000001
 43
0.0000001
 44
0.0000000001
 40
0.0
 40
0.0
 40
0.0
 40
0.0
 40
0.0826674546
 40
0.1628711199
 40
0.240540736
 40
0.3156111032
 40
0.3880226025
 40
0.457721963
 40
0.5246625966
 40
0.5888054035
 40
0.6501199459
 40
0.7085852233
 40
0.7641911017
 40
0.8169404033
 40
0.8668502916
 40
0.913955338
 40
0.9583127604
 40
1.0
 40
1.0
 40
1.0
 40
1.0
 10
12.674100018
 20
10.2015304359
 30
0.0
 10
12.6764823564
 20
10.2092051464
 30
0.0
 10
12.6812893417
 20
10.2242909891
 30
0.0
 10
12.6887466991
 20
10.2464535727
 30
0.0
 10
12.696335483
 20
10.2677894079
 30
0.0
 10
12.7040469054
 20
10.2882738961
 30
0.0
 10
12.7118720756
 20
10.3078835191
 30
0.0
 10
12.7198019224
 20
10.3265957898
 30
0.0
 10
12.7278272979
 20
10.3443892776
 30
0.0
 10
12.7359389824
 20
10.3612436336
 30
0.0
 10
12.7441276258
 20
10.3771396585
 30
0.0
 10
12.7523838589
 20
10.392059293
 30
0.0
 10
12.7606983158
 20
10.4059856469
 30
0.0
 10
12.7690616117
 20
10.4189030631
 30
0.0
 10
12.7774643602
 20
10.4307970388
 30
0.0
 10
12.7858976314
 20
10.4416546098
 30
0.0
 10
12.7943518455
 20
10.4514630394
 30
0.0
 10
12.8001729745
 20
10.4574781349
 30
0.0
 10
12.8030876431
 20
10.4602934888
 30
0.0
  0
SPLINE
  5
35A
100
AcDbEntity
  8
0
100
AcDbSpline
 62
7
  6
CONTINUOUS
 70
0
 71
3
 72
28
 73
24
 74
0
 42
0.0000001
 43
0.0000001
 44
0.0000000001
 40
0.0
 40
0.0
 40
0.0
 40
0.0
 40
0.0162145189
 40
0.0334275962
 40
0.0516721625
 40
0.070971352
 40
0.0913410552
 40
0.112790325
 40
0.1353227667
 40
0.1589373889
 40
0.1836287124
 40
0.209388193
 40
0.2640568884
 40
0.3228187597
 40
0.3855079255
 40
0.4519274553
 40
0.5218538976
 40
0.5950409226
 40
0.6712220742
 40
0.750114128
 40
0.8314167504
 40
0.9148213264
 40
1.0
 40
1.0
 40
1.0
 40
1.0
 10
13.1976187059
 20
6.5762471895
 30
0.0
 10
13.1971247115
 20
6.5768545748
 30
0.0
 10
13.1961478871
 20
6.5781409688
 30
0.0
 10
13.194754782
 20
6.5802121267
 30
0.0
 10
13.1933923485
 20
6.5824791784
 30
0.0
 10
13.1920618995
 20
6.5849396819
 30
0.0
 10
13.1907647888
 20
6.5875912059
 30
0.0
 10
13.1895022983
 20
6.5904310186
 30
0.0
 10
13.1882757215
 20
6.5934562103
 30
0.0
 10
13.1870863683
 20
6.5966636601
 30
0.0
 10
13.1859353979
 20
6.6000500375
 30
0.0
 10
13.1844236274
 20
6.6048957799
 30
0.0
 10
13.1826494306
 20
6.6113804932
 30
0.0
 10
13.1807313865
 20
6.6196670815
 30
0.0
 10
13.1789925357
 20
6.6285717496
 30
0.0
 10
13.1774403436
 20
6.6380572293
 30
0.0
 10
13.1760815206
 20
6.6480839201
 30
0.0
 10
13.1749219336
 20
6.658609771
 30
0.0
 10
13.1739665819
 20
6.6695906111
 30
0.0
 10
13.173219615
 20
6.6809802299
 30
0.0
 10
13.1726842269
 20
6.6927308462
 30
0.0
 10
13.1723627979
 20
6.7047928259
 30
0.0
 10
13.1722927063
 20
6.7129329779
 30
0.0
 10
13.1722927063
 20
6.7170457855
 30
0.0
  0
LINE
  5
35B
100
AcDbEntity
  8
0
100
AcDbLine
 62
7
  6
CONTINUOUS
 10
13.1879650327
 20
6.5947288531
 11
13.1878599377
 21
6.5947366539
  0
SPLINE
  5
35C
100
AcDbEntity
  8
0
100
AcDbSpline
 62
7
  6
CONTINUOUS
 70
0
 71
3
 72
28
 73
24
 74
0
 42
0.0000001
 43
0.0000001
 44
0.0000000001
 40
0.0
 40
0.0
 40
0.0
 40
0.0
 40
0.0162145189
 40
0.0334275962
 40
0.0516721625
 40
0.070971352
 40
0.0913410552
 40
0.112790325
 40
0.1353227667
 40
0.1589373889
 40
0.1836287124
 40
0.209388193
 40
0.2640568884
 40
0.3228187597
 40
0.3855079255
 40
0.4519274553
 40
0.5218538976
 40
0.5950409226
 40
0.6712220742
 40
0.750114128
 40
0.8314167504
 40
0.9148213264
 40
1.0
 40
1.0
 40
1.0
 40
1.0
 10
13.1976187059
 20
10.5597255456
 30
0.0
 10
13.1971247115
 20
10.5603329309
 30
0.0
 10
13.1961478871
 20
10.5616193249
 30
0.0
 10
13.194754782
 20
10.5636904827
 30
0.0
 10
13.1933923485
 20
10.5659575345
 30
0.0
 10
13.1920618995
 20
10.568418038
 30
0.0
 10
13.1907647888
 20
10.571069562
 30
0.0
 10
13.1895022983
 20
10.5739093747
 30
0.0
 10
13.1882757215
 20
10.5769345663
 30
0.0
 10
13.1870863683
 20
10.5801420162
 30
0.0
 10
13.1859353979
 20
10.5835283936
 30
0.0
 10
13.1844236274
 20
10.588374136
 30
0.0
 10
13.1826494306
 20
10.5948588493
 30
0.0
 10
13.1807313865
 20
10.6031454376
 30
0.0
 10
13.1789925357
 20
10.6120501057
 30
0.0
 10
13.1774403436
 20
10.6215355853
 30
0.0
 10
13.1760815206
 20
10.6315622762
 30
0.0
 10
13.1749219336
 20
10.6420881271
 30
0.0
 10
13.1739665819
 20
10.6530689672
 30
0.0
 10
13.173219615
 20
10.6644585859
 30
0.0
 10
13.1726842269
 20
10.6762092023
 30
0.0
 10
13.1723627979
 20
10.688271182
 30
0.0
 10
13.1722927063
 20
10.696411334
 30
0.0
 10
13.1722927063
 20
10.7005241415
 30
0.0
  0
LINE
  5
35D
100
AcDbEntity
  8
0
100
AcDbLine
 62
7
  6
CONTINUOUS
 10
13.1879650327
 20
10.5782072092
 11
13.1878599377
 21
10.57821501
  0
SPLINE
  5
35E
100
AcDbEntity
  8
0
100
AcDbSpline
 62
7
  6
CONTINUOUS
 70
0
 71
3
 72
34
 73
30
 74
0
 42
0.0000001
 43
0.0000001
 44
0.0000000001
 40
0.0
 40
0.0
 40
0.0
 40
0.0
 40
0.0300330785
 40
0.060161942
 40
0.0903971637
 40
0.120747493
 40
0.1512198009
 40
0.1818190632
 40
0.2125483529
 40
0.2434088354
 40
0.2743998006
 40
0.3055187011
 40
0.3680931595
 40
0.4311051157
 40
0.4944735811
 40
0.5580952805
 40
0.6218488896
 40
0.6537482347
 40
0.6856300129
 40
0.7174767648
 40
0.7492712234
 40
0.7809966613
 40
0.8126372294
 40
0.8441782469
 40
0.875606518
 40
0.9069109503
 40
0.9380815188
 40
0.9691136797
 40
1.0
 40
1.0
 40
1.0
 40
1.0
 10
10.6428774183
 20
6.4885682307
 30
0.0
 10
10.6452334027
 20
6.4896244521
 30
0.0
 10
10.6500246368
 20
6.4915841077
 30
0.0
 10
10.6573999742
 20
6.4940497955
 30
0.0
 10
10.6649462067
 20
6.4960393597
 30
0.0
 10
10.6726332085
 20
6.4975468956
 30
0.0
 10
10.6804312587
 20
6.4985683149
 30
0.0
 10
10.6883104132
 20
6.4991009972
 30
0.0
 10
10.6962407499
 20
6.4991438682
 30
0.0
 10
10.704192204
 20
6.4986973275
 30
0.0
 10
10.7121351455
 20
6.4977630615
 30
0.0
 10
10.7226908544
 20
6.4958686978
 30
0.0
 10
10.7357160751
 20
6.4922937432
 30
0.0
 10
10.7507941181
 20
6.4861508626
 30
0.0
 10
10.7651212308
 20
6.4782257456
 30
0.0
 10
10.7784621601
 20
6.4686263529
 30
0.0
 10
10.7885729079
 20
6.4593394925
 30
0.0
 10
10.7959488335
 20
6.4512199816
 30
0.0
 10
10.8011005327
 20
6.4448064827
 30
0.0
 10
10.8058445963
 20
6.438097155
 30
0.0
 10
10.8101581513
 20
6.4311188638
 30
0.0
 10
10.8140195426
 20
6.4239005732
 30
0.0
 10
10.8174090333
 20
6.4164728573
 30
0.0
 10
10.820308896
 20
6.4088678859
 30
0.0
 10
10.8227037108
 20
6.4011192079
 30
0.0
 10
10.8245804651
 20
6.393261685
 30
0.0
 10
10.8259290148
 20
6.3853308185
 30
0.0
 10
10.8267416285
 20
6.3773636753
 30
0.0
 10
10.826923599
 20
6.3720388838
 30
0.0
 10
10.826923599
 20
6.3693836202
 30
0.0
  0
SPLINE
  5
35F
100
AcDbEntity
  8
0
100
AcDbSpline
 62
7
  6
CONTINUOUS
 70
0
 71
3
 72
23
 73
19
 74
0
 42
0.0000001
 43
0.0000001
 44
0.0000000001
 40
0.0
 40
0.0
 40
0.0
 40
0.0
 40
0.0622334076
 40
0.1245431941
 40
0.186927338
 40
0.2493796334
 40
0.3118902128
 40
0.3744463016
 40
0.4370332009
 40
0.4996357356
 40
0.5622395332
 40
0.6248324842
 40
0.687406154
 40
0.749956457
 40
0.8124842472
 40
0.8749945201
 40
0.937496414
 40
1.0
 40
1.0
 40
1.0
 40
1.0
 10
10.5049565201
 20
7.2464703877
 30
0.0
 10
10.5005011514
 20
7.244419877
 30
0.0
 10
10.4914667623
 20
7.2405673948
 30
0.0
 10
10.4775955628
 20
7.2355823362
 30
0.0
 10
10.4634337482
 20
7.2314298665
 30
0.0
 10
10.449027187
 20
7.2281539456
 30
0.0
 10
10.4344276846
 20
7.2257970761
 30
0.0
 10
10.4196941311
 20
7.2243989978
 30
0.0
 10
10.4048920607
 20
7.2239946977
 30
0.0
 10
10.3900930377
 20
7.2246124936
 30
0.0
 10
10.3753734327
 20
7.2262722197
 30
0.0
 10
10.3608127493
 20
7.2289837327
 30
0.0
 10
10.3464916082
 20
7.2327459022
 30
0.0
 10
10.3324895293
 20
7.2375462551
 30
0.0
 10
10.3188829606
 20
7.2433612
 30
0.0
 10
10.3057430737
 20
7.2501571615
 30
0.0
 10
10.2931358136
 20
7.2578910157
 30
0.0
 10
10.2851234034
 20
7.2636400651
 30
0.0
 10
10.2812257289
 20
7.2666520999
 30
0.0
  0
SPLINE
  5
360
100
AcDbEntity
  8
0
100
AcDbSpline
 62
7
  6
CONTINUOUS
 70
0
 71
3
 72
42
 73
38
 74
0
 42
0.0000001
 43
0.0000001
 44
0.0000000001
 40
0.0
 40
0.0
 40
0.0
 40
0.0
 40
0.0299419644
 40
0.0449235317
 40
0.0599142035
 40
0.0899287023
 40
0.1200139727
 40
0.1350926544
 40
0.1501966973
 40
0.1804840373
 40
0.210897868
 40
0.2414513286
 40
0.2721543342
 40
0.3030133956
 40
0.3340315238
 40
0.3652082165
 40
0.3965395222
 40
0.4280181758
 40
0.459633799
 40
0.4913731572
 40
0.5232204671
 40
0.5551577446
 40
0.5871651885
 40
0.6192215901
 40
0.6513047644
 40
0.683391994
 40
0.715460481
 40
0.7474877999
 40
0.7794523452
 40
0.8113337678
 40
0.8431133918
 40
0.8747746145
 40
0.906303246
 40
0.9376878974
 40
0.9533257627
 40
0.9689252947
 40
1.0
 40
1.0
 40
1.0
 40
1.0
 10
10.1576081146
 20
7.4987480554
 30
0.0
 10
10.1612412517
 20
7.502257395
 30
0.0
 10
10.1669051051
 20
7.5073087656
 30
0.0
 10
10.1748371749
 20
7.5135764688
 30
0.0
 10
10.1830219111
 20
7.5195321976
 30
0.0
 10
10.1937015874
 20
7.5263713925
 30
0.0
 10
10.2049005631
 20
7.5323536506
 30
0.0
 10
10.2141367744
 20
7.5366095323
 30
0.0
 10
10.2235638389
 20
7.540513963
 30
0.0
 10
10.2356582904
 20
7.5447124395
 30
0.0
 10
10.2505628953
 20
7.548625288
 30
0.0
 10
10.2657927211
 20
7.5513972683
 30
0.0
 10
10.2812633732
 20
7.5530130706
 30
0.0
 10
10.2968898658
 20
7.5534640764
 30
0.0
 10
10.3125862177
 20
7.5527479888
 30
0.0
 10
10.3282661577
 20
7.5508689447
 30
0.0
 10
10.3438435311
 20
7.5478374532
 30
0.0
 10
10.3592327847
 20
7.5436703385
 30
0.0
 10
10.3743494256
 20
7.5383906405
 30
0.0
 10
10.3891104799
 20
7.5320274844
 30
0.0
 10
10.4034349415
 20
7.524615919
 30
0.0
 10
10.4172442101
 20
7.5161967231
 30
0.0
 10
10.4304625172
 20
7.506816182
 30
0.0
 10
10.4430173363
 20
7.4965258345
 30
0.0
 10
10.4548397762
 20
7.4853821924
 30
0.0
 10
10.4658649547
 20
7.473446432
 30
0.0
 10
10.4760323513
 20
7.4607840627
 30
0.0
 10
10.4852861354
 20
7.4474645695
 30
0.0
 10
10.4935754708
 20
7.4335610401
 30
0.0
 10
10.500854793
 20
7.4191497528
 30
0.0
 10
10.5070840538
 20
7.4043098224
 30
0.0
 10
10.5122289603
 20
7.3891225509
 30
0.0
 10
10.5162610821
 20
7.3736718062
 30
0.0
 10
10.518678435
 20
7.360629706
 30
0.0
 10
10.5200344938
 20
7.3501505264
 30
0.0
 10
10.5210022803
 20
7.3396813769
 30
0.0
 10
10.5212953187
 20
7.3318034091
 30
0.0
 10
10.5212953187
 20
7.3265610619
 30
0.0
  0
SPLINE
  5
361
100
AcDbEntity
  8
0
100
AcDbSpline
 62
7
  6
CONTINUOUS
 70
0
 71
3
 72
42
 73
38
 74
0
 42
0.0000001
 43
0.0000001
 44
0.0000000001
 40
0.0
 40
0.0
 40
0.0
 40
0.0
 40
0.0299419644
 40
0.0449235317
 40
0.0599142035
 40
0.0899287023
 40
0.1200139727
 40
0.1350926544
 40
0.1501966973
 40
0.1804840373
 40
0.210897868
 40
0.2414513286
 40
0.2721543342
 40
0.3030133956
 40
0.3340315238
 40
0.3652082165
 40
0.3965395222
 40
0.4280181758
 40
0.459633799
 40
0.4913731572
 40
0.5232204671
 40
0.5551577446
 40
0.5871651885
 40
0.6192215901
 40
0.6513047644
 40
0.683391994
 40
0.715460481
 40
0.7474877999
 40
0.7794523452
 40
0.8113337678
 40
0.8431133918
 40
0.8747746145
 40
0.906303246
 40
0.9376878974
 40
0.9533257627
 40
0.9689252947
 40
1.0
 40
1.0
 40
1.0
 40
1.0
 10
10.7304021009
 20
7.8511904686
 30
0.0
 10
10.7340352379
 20
7.8546998082
 30
0.0
 10
10.7396990913
 20
7.8597511788
 30
0.0
 10
10.7476311612
 20
7.866018882
 30
0.0
 10
10.7558158974
 20
7.8719746108
 30
0.0
 10
10.7664955737
 20
7.8788138057
 30
0.0
 10
10.7776945494
 20
7.8847960638
 30
0.0
 10
10.7869307607
 20
7.8890519454
 30
0.0
 10
10.7963578252
 20
7.8929563762
 30
0.0
 10
10.8084522766
 20
7.8971548527
 30
0.0
 10
10.8233568816
 20
7.9010677012
 30
0.0
 10
10.8385867074
 20
7.9038396815
 30
0.0
 10
10.8540573595
 20
7.9054554838
 30
0.0
 10
10.8696838521
 20
7.9059064896
 30
0.0
 10
10.885380204
 20
7.905190402
 30
0.0
 10
10.901060144
 20
7.9033113579
 30
0.0
 10
10.9166375174
 20
7.9002798664
 30
0.0
 10
10.932026771
 20
7.8961127517
 30
0.0
 10
10.9471434119
 20
7.8908330537
 30
0.0
 10
10.9619044662
 20
7.8844698976
 30
0.0
 10
10.9762289278
 20
7.8770583322
 30
0.0
 10
10.9900381964
 20
7.8686391363
 30
0.0
 10
11.0032565035
 20
7.8592585952
 30
0.0
 10
11.0158113226
 20
7.8489682477
 30
0.0
 10
11.0276337625
 20
7.8378246056
 30
0.0
 10
11.038658941
 20
7.8258888452
 30
0.0
 10
11.0488263376
 20
7.8132264759
 30
0.0
 10
11.0580801217
 20
7.7999069827
 30
0.0
 10
11.0663694571
 20
7.7860034533
 30
0.0
 10
11.0736487793
 20
7.771592166
 30
0.0
 10
11.0798780401
 20
7.7567522356
 30
0.0
 10
11.0850229466
 20
7.7415649641
 30
0.0
 10
11.0890550684
 20
7.7261142194
 30
0.0
 10
11.0914724213
 20
7.7130721192
 30
0.0
 10
11.0928284801
 20
7.7025929396
 30
0.0
 10
11.0937962666
 20
7.6921237901
 30
0.0
 10
11.094089305
 20
7.6842458223
 30
0.0
 10
11.094089305
 20
7.6790034751
 30
0.0
  0
SPLINE
  5
362
100
AcDbEntity
  8
0
100
AcDbSpline
 62
7
  6
CONTINUOUS
 70
0
 71
3
 72
42
 73
38
 74
0
 42
0.0000001
 43
0.0000001
 44
0.0000000001
 40
0.0
 40
0.0
 40
0.0
 40
0.0
 40
0.0299419644
 40
0.0449235317
 40
0.0599142035
 40
0.0899287023
 40
0.1200139727
 40
0.1350926544
 40
0.1501966973
 40
0.1804840373
 40
0.210897868
 40
0.2414513286
 40
0.2721543342
 40
0.3030133956
 40
0.3340315238
 40
0.3652082165
 40
0.3965395222
 40
0.4280181758
 40
0.459633799
 40
0.4913731572
 40
0.5232204671
 40
0.5551577446
 40
0.5871651885
 40
0.6192215901
 40
0.6513047644
 40
0.683391994
 40
0.715460481
 40
0.7474877999
 40
0.7794523452
 40
0.8113337678
 40
0.8431133918
 40
0.8747746145
 40
0.906303246
 40
0.9376878974
 40
0.9533257627
 40
0.9689252947
 40
1.0
 40
1.0
 40
1.0
 40
1.0
 10
10.1576081146
 20
8.2840457637
 30
0.0
 10
10.1612412517
 20
8.2875551033
 30
0.0
 10
10.1669051051
 20
8.2926064739
 30
0.0
 10
10.1748371749
 20
8.2988741771
 30
0.0
 10
10.1830219111
 20
8.3048299059
 30
0.0
 10
10.1937015874
 20
8.3116691008
 30
0.0
 10
10.2049005631
 20
8.3176513589
 30
0.0
 10
10.2141367744
 20
8.3219072406
 30
0.0
 10
10.2235638389
 20
8.3258116713
 30
0.0
 10
10.2356582904
 20
8.3300101478
 30
0.0
 10
10.2505628953
 20
8.3339229963
 30
0.0
 10
10.2657927211
 20
8.3366949766
 30
0.0
 10
10.2812633732
 20
8.3383107789
 30
0.0
 10
10.2968898658
 20
8.3387617847
 30
0.0
 10
10.3125862177
 20
8.3380456971
 30
0.0
 10
10.3282661577
 20
8.336166653
 30
0.0
 10
10.3438435311
 20
8.3331351615
 30
0.0
 10
10.3592327847
 20
8.3289680468
 30
0.0
 10
10.3743494256
 20
8.3236883488
 30
0.0
 10
10.3891104799
 20
8.3173251927
 30
0.0
 10
10.4034349415
 20
8.3099136273
 30
0.0
 10
10.4172442101
 20
8.3014944314
 30
0.0
 10
10.4304625172
 20
8.2921138903
 30
0.0
 10
10.4430173363
 20
8.2818235428
 30
0.0
 10
10.4548397762
 20
8.2706799007
 30
0.0
 10
10.4658649547
 20
8.2587441403
 30
0.0
 10
10.4760323513
 20
8.246081771
 30
0.0
 10
10.4852861354
 20
8.2327622778
 30
0.0
 10
10.4935754708
 20
8.2188587484
 30
0.0
 10
10.500854793
 20
8.2044474611
 30
0.0
 10
10.5070840538
 20
8.1896075307
 30
0.0
 10
10.5122289603
 20
8.1744202592
 30
0.0
 10
10.5162610821
 20
8.1589695145
 30
0.0
 10
10.518678435
 20
8.1459274143
 30
0.0
 10
10.5200344938
 20
8.1354482347
 30
0.0
 10
10.5210022803
 20
8.1249790852
 30
0.0
 10
10.5212953187
 20
8.1171011174
 30
0.0
 10
10.5212953187
 20
8.1118587702
 30
0.0
  0
SPLINE
  5
363
100
AcDbEntity
  8
0
100
AcDbSpline
 62
7
  6
CONTINUOUS
 70
0
 71
3
 72
42
 73
38
 74
0
 42
0.0000001
 43
0.0000001
 44
0.0000000001
 40
0.0
 40
0.0
 40
0.0
 40
0.0
 40
0.0299419644
 40
0.0449235317
 40
0.0599142035
 40
0.0899287023
 40
0.1200139727
 40
0.1350926544
 40
0.1501966973
 40
0.1804840373
 40
0.210897868
 40
0.2414513286
 40
0.2721543342
 40
0.3030133956
 40
0.3340315238
 40
0.3652082165
 40
0.3965395222
 40
0.4280181758
 40
0.459633799
 40
0.4913731572
 40
0.5232204671
 40
0.5551577446
 40
0.5871651885
 40
0.6192215901
 40
0.6513047644
 40
0.683391994
 40
0.715460481
 40
0.7474877999
 40
0.7794523452
 40
0.8113337678
 40
0.8431133918
 40
0.8747746145
 40
0.906303246
 40
0.9376878974
 40
0.9533257627
 40
0.9689252947
 40
1.0
 40
1.0
 40
1.0
 40
1.0
 10
9.7345326126
 20
8.8262928111
 30
0.0
 10
9.7381657497
 20
8.8298021507
 30
0.0
 10
9.7438296031
 20
8.8348535213
 30
0.0
 10
9.7517616729
 20
8.8411212245
 30
0.0
 10
9.7599464091
 20
8.8470769533
 30
0.0
 10
9.7706260855
 20
8.8539161482
 30
0.0
 10
9.7818250611
 20
8.8598984063
 30
0.0
 10
9.7910612725
 20
8.8641542879
 30
0.0
 10
9.8004883369
 20
8.8680587187
 30
0.0
 10
9.8125827884
 20
8.8722571951
 30
0.0
 10
9.8274873933
 20
8.8761700437
 30
0.0
 10
9.8427172191
 20
8.8789420239
 30
0.0
 10
9.8581878712
 20
8.8805578263
 30
0.0
 10
9.8738143639
 20
8.881008832
 30
0.0
 10
9.8895107157
 20
8.8802927445
 30
0.0
 10
9.9051906557
 20
8.8784137004
 30
0.0
 10
9.9207680291
 20
8.8753822088
 30
0.0
 10
9.9361572827
 20
8.8712150942
 30
0.0
 10
9.9512739236
 20
8.8659353961
 30
0.0
 10
9.966034978
 20
8.85957224
 30
0.0
 10
9.9803594395
 20
8.8521606746
 30
0.0
 10
9.9941687081
 20
8.8437414787
 30
0.0
 10
10.0073870152
 20
8.8343609376
 30
0.0
 10
10.0199418343
 20
8.8240705902
 30
0.0
 10
10.0317642742
 20
8.812926948
 30
0.0
 10
10.0427894528
 20
8.8009911877
 30
0.0
 10
10.0529568493
 20
8.7883288184
 30
0.0
 10
10.0622106335
 20
8.7750093251
 30
0.0
 10
10.0704999689
 20
8.7611057958
 30
0.0
 10
10.077779291
 20
8.7466945084
 30
0.0
 10
10.0840085518
 20
8.731854578
 30
0.0
 10
10.0891534583
 20
8.7166673066
 30
0.0
 10
10.0931855801
 20
8.7012165618
 30
0.0
 10
10.095602933
 20
8.6881744617
 30
0.0
 10
10.0969589918
 20
8.6776952821
 30
0.0
 10
10.0979267783
 20
8.6672261326
 30
0.0
 10
10.0982198167
 20
8.6593481648
 30
0.0
 10
10.0982198167
 20
8.6541058176
 30
0.0
  0
SPLINE
  5
364
100
AcDbEntity
  8
0
100
AcDbSpline
 62
7
  6
CONTINUOUS
 70
0
 71
3
 72
15
 73
11
 74
0
 42
0.0000001
 43
0.0000001
 44
0.0000000001
 40
0.0
 40
0.0
 40
0.0
 40
0.0
 40
0.1233171282
 40
0.2468171947
 40
0.3706750037
 40
0.4950496087
 40
0.6200772873
 40
0.745867181
 40
0.8724927949
 40
1.0
 40
1.0
 40
1.0
 40
1.0
 10
11.0519562609
 20
6.7379046793
 30
0.0
 10
11.05448077
 20
6.7403431959
 30
0.0
 10
11.0598007658
 20
6.7449555972
 30
0.0
 10
11.0684834752
 20
6.7509827941
 30
0.0
 10
11.0777873133
 20
6.7560636153
 30
0.0
 10
11.087617013
 20
6.7601458812
 30
0.0
 10
11.097873432
 20
6.7631890653
 30
0.0
 10
11.1084532572
 20
6.7651627108
 30
0.0
 10
11.119248489
 20
6.766047631
 30
0.0
 10
11.1264947698
 20
6.7659062875
 30
0.0
 10
11.1301152499
 20
6.7656552064
 30
0.0
  0
SPLINE
  5
365
100
AcDbEntity
  8
0
100
AcDbSpline
 62
7
  6
CONTINUOUS
 70
0
 71
3
 72
15
 73
11
 74
0
 42
0.0000001
 43
0.0000001
 44
0.0000000001
 40
0.0
 40
0.0
 40
0.0
 40
0.0
 40
0.1233171282
 40
0.2468171947
 40
0.3706750037
 40
0.4950496087
 40
0.6200772873
 40
0.745867181
 40
0.8724927949
 40
1.0
 40
1.0
 40
1.0
 40
1.0
 10
9.3016986401
 20
6.8592854576
 30
0.0
 10
9.3042231492
 20
6.8617239741
 30
0.0
 10
9.309543145
 20
6.8663363755
 30
0.0
 10
9.3182258544
 20
6.8723635724
 30
0.0
 10
9.3275296925
 20
6.8774443935
 30
0.0
 10
9.3373593922
 20
6.8815266595
 30
0.0
 10
9.3476158112
 20
6.8845698436
 30
0.0
 10
9.3581956364
 20
6.8865434891
 30
0.0
 10
9.3689908682
 20
6.8874284093
 30
0.0
 10
9.376237149
 20
6.8872870658
 30
0.0
 10
9.3798576291
 20
6.8870359846
 30
0.0
  0
SPLINE
  5
366
100
AcDbEntity
  8
0
100
AcDbSpline
 62
7
  6
CONTINUOUS
 70
0
 71
3
 72
15
 73
11
 74
0
 42
0.0000001
 43
0.0000001
 44
0.0000000001
 40
0.0
 40
0.0
 40
0.0
 40
0.0
 40
0.1233171282
 40
0.2468171947
 40
0.3706750037
 40
0.4950496087
 40
0.6200772873
 40
0.745867181
 40
0.8724927949
 40
1.0
 40
1.0
 40
1.0
 40
1.0
 10
11.0519562609
 20
8.7904972969
 30
0.0
 10
11.05448077
 20
8.7929358135
 30
0.0
 10
11.0598007658
 20
8.7975482149
 30
0.0
 10
11.0684834752
 20
8.8035754117
 30
0.0
 10
11.0777873133
 20
8.8086562329
 30
0.0
 10
11.087617013
 20
8.8127384988
 30
0.0
 10
11.097873432
 20
8.8157816829
 30
0.0
 10
11.1084532572
 20
8.8177553284
 30
0.0
 10
11.119248489
 20
8.8186402487
 30
0.0
 10
11.1264947698
 20
8.8184989051
 30
0.0
 10
11.1301152499
 20
8.818247824
 30
0.0
  0
SPLINE
  5
367
100
AcDbEntity
  8
0
100
AcDbSpline
 62
7
  6
CONTINUOUS
 70
0
 71
3
 72
15
 73
11
 74
0
 42
0.0000001
 43
0.0000001
 44
0.0000000001
 40
0.0
 40
0.0
 40
0.0
 40
0.0
 40
0.1233171282
 40
0.2468171947
 40
0.3706750037
 40
0.4950496087
 40
0.6200772873
 40
0.745867181
 40
0.8724927949
 40
1.0
 40
1.0
 40
1.0
 40
1.0
 10
9.3016986401
 20
8.9118780752
 30
0.0
 10
9.3042231492
 20
8.9143165918
 30
0.0
 10
9.309543145
 20
8.9189289931
 30
0.0
 10
9.3182258544
 20
8.92495619
 30
0.0
 10
9.3275296925
 20
8.9300370112
 30
0.0
 10
9.3373593922
 20
8.9341192771
 30
0.0
 10
9.3476158112
 20
8.9371624612
 30
0.0
 10
9.3581956364
 20
8.9391361067
 30
0.0
 10
9.3689908682
 20
8.9400210269
 30
0.0
 10
9.376237149
 20
8.9398796834
 30
0.0
 10
9.3798576291
 20
8.9396286023
 30
0.0
  0
SPLINE
  5
368
100
AcDbEntity
  8
0
100
AcDbSpline
 62
7
  6
CONTINUOUS
 70
0
 71
3
 72
19
 73
15
 74
0
 42
0.0000001
 43
0.0000001
 44
0.0000000001
 40
0.0
 40
0.0
 40
0.0
 40
0.0
 40
0.12732766
 40
0.2538196711
 40
0.3795264658
 40
0.5045235362
 40
0.5668075958
 40
0.6289556124
 40
0.6909843715
 40
0.7529118454
 40
0.8147570127
 40
0.8765397119
 40
0.9382804145
 40
1.0
 40
1.0
 40
1.0
 40
1.0
 10
10.0982197817
 20
7.35590145
 30
0.0
 10
10.0982197817
 20
7.3626462141
 30
0.0
 10
10.0988637582
 20
7.3761007544
 30
0.0
 10
10.1017762211
 20
7.396024055
 30
0.0
 10
10.1066050595
 20
7.4154458157
 30
0.0
 10
10.1121988757
 20
7.4310853752
 30
0.0
 10
10.1175785957
 20
7.4431583481
 30
0.0
 10
10.1220522066
 20
7.4519692775
 30
0.0
 10
10.1269583449
 20
7.4605248704
 30
0.0
 10
10.132285844
 20
7.4688056762
 30
0.0
 10
10.1380224127
 20
7.4767924698
 30
0.0
 10
10.1441548306
 20
7.4844669602
 30
0.0
 10
10.1506687613
 20
7.4918111636
 30
0.0
 10
10.1552565889
 20
7.4964766569
 30
0.0
 10
10.1576081146
 20
7.4987480554
 30
0.0
  0
SPLINE
  5
369
100
AcDbEntity
  8
0
100
AcDbSpline
 62
7
  6
CONTINUOUS
 70
0
 71
3
 72
23
 73
19
 74
0
 42
0.0000001
 43
0.0000001
 44
0.0000000001
 40
0.0
 40
0.0
 40
0.0
 40
0.0
 40
0.0639332009
 40
0.1275592179
 40
0.1908823591
 40
0.2539226232
 40
0.3167005329
 40
0.3792440332
 40
0.4415850893
 40
0.5037596346
 40
0.5658065193
 40
0.6277665312
 40
0.6896814426
 40
0.7515930692
 40
0.8135424369
 40
0.875569041
 40
0.9377101089
 40
1.0
 40
1.0
 40
1.0
 40
1.0
 10
10.5769235839
 20
6.3867211875
 30
0.0
 10
10.5769235839
 20
6.3894572187
 30
0.0
 10
10.5771158851
 20
6.3949181552
 30
0.0
 10
10.5779843626
 20
6.403047377
 30
0.0
 10
10.57942728
 20
6.4110561895
 30
0.0
 10
10.5814359674
 20
6.4189046262
 30
0.0
 10
10.583998884
 20
6.4265548433
 30
0.0
 10
10.5871012074
 20
6.4339702411
 30
0.0
 10
10.5907253826
 20
6.4411161074
 30
0.0
 10
10.5948511953
 20
6.4479597301
 30
0.0
 10
10.5994561078
 20
6.4544705825
 30
0.0
 10
10.6045155305
 20
6.460620424
 30
0.0
 10
10.6100030881
 20
6.4663833704
 30
0.0
 10
10.6158909014
 20
6.4717359256
 30
0.0
 10
10.6221497781
 20
6.4766569633
 30
0.0
 10
10.6287496227
 20
6.4811278061
 30
0.0
 10
10.6356589556
 20
6.4851317935
 30
0.0
 10
10.6404449719
 20
6.4874777304
 30
0.0
 10
10.6428774183
 20
6.4885682307
 30
0.0
  0
SPLINE
  5
36A
100
AcDbEntity
  8
0
100
AcDbSpline
 62
7
  6
CONTINUOUS
 70
0
 71
3
 72
19
 73
15
 74
0
 42
0.0000001
 43
0.0000001
 44
0.0000000001
 40
0.0
 40
0.0
 40
0.0
 40
0.0
 40
0.12732766
 40
0.2538196711
 40
0.3795264658
 40
0.5045235362
 40
0.5668075958
 40
0.6289556124
 40
0.6909843715
 40
0.7529118454
 40
0.8147570127
 40
0.8765397119
 40
0.9382804145
 40
1.0
 40
1.0
 40
1.0
 40
1.0
 10
9.6751442798
 20
8.6834462057
 30
0.0
 10
9.6751442798
 20
8.6901909698
 30
0.0
 10
9.6757882563
 20
8.7036455101
 30
0.0
 10
9.6787007191
 20
8.7235688106
 30
0.0
 10
9.6835295575
 20
8.7429905713
 30
0.0
 10
9.6891233737
 20
8.7586301308
 30
0.0
 10
9.6945030937
 20
8.7707031037
 30
0.0
 10
9.6989767046
 20
8.7795140332
 30
0.0
 10
9.7038828429
 20
8.788069626
 30
0.0
 10
9.709210342
 20
8.7963504318
 30
0.0
 10
9.7149469107
 20
8.8043372254
 30
0.0
 10
9.7210793287
 20
8.8120117159
 30
0.0
 10
9.7275932593
 20
8.8193559193
 30
0.0
 10
9.7321810869
 20
8.8240214126
 30
0.0
 10
9.7345326126
 20
8.8262928111
 30
0.0
  0
SPLINE
  5
36B
100
AcDbEntity
  8
0
100
AcDbSpline
 62
7
  6
CONTINUOUS
 70
0
 71
3
 72
83
 73
79
 74
0
 42
0.0000001
 43
0.0000001
 44
0.0000000001
 40
0.0
 40
0.0
 40
0.0
 40
0.0
 40
0.003980149
 40
0.0081240919
 40
0.0124359835
 40
0.0169193603
 40
0.0215772246
 40
0.0264119606
 40
0.0314252324
 40
0.0366182158
 40
0.0419916195
 40
0.0475457334
 40
0.0532805161
 40
0.0591955185
 40
0.0715625327
 40
0.0846382143
 40
0.0984095328
 40
0.1128601134
 40
0.1279706583
 40
0.1437192718
 40
0.1600817502
 40
0.1770318183
 40
0.1945413264
 40
0.2125804203
 40
0.2311176863
 40
0.2501203005
 40
0.269554164
 40
0.2893840224
 40
0.3095735802
 40
0.3300856048
 40
0.3508820422
 40
0.3719241252
 40
0.4145864312
 40
0.4577527569
 40
0.5010975799
 40
0.5442936399
 40
0.5870151259
 40
0.6080976714
 40
0.6289416876
 40
0.6495082871
 40
0.6697592834
 40
0.6896572915
 40
0.7091658343
 40
0.7282494515
 40
0.7468738239
 40
0.7650058946
 40
0.78261399
 40
0.7996679565
 40
0.8161393115
 40
0.8320014232
 40
0.8472297058
 40
0.8618018332
 40
0.8756980061
 40
0.8889012771
 40
0.9013979681
 40
0.9131781873
 40
0.9187980573
 40
0.924237173
 40
0.9294957148
 40
0.9345742409
 40
0.9394737433
 40
0.9441957547
 40
0.948742307
 40
0.9531161074
 40
0.9573205402
 40
0.9613597705
 40
0.9652388909
 40
0.9689639409
 40
0.9725421207
 40
0.975981843
 40
0.9792928682
 40
0.9824864417
 40
0.9855753029
 40
0.9885737828
 40
0.9914977139
 40
0.9943643205
 40
0.9971920042
 40
1.0
 40
1.0
 40
1.0
 40
1.0
 10
11.1237946788
 20
11.0354475886
 30
0.0
 10
11.1250939159
 20
11.0367025553
 30
0.0
 10
11.127804862
 20
11.039203624
 30
0.0
 10
11.1321090258
 20
11.0428566422
 30
0.0
 10
11.1367292707
 20
11.0464834893
 30
0.0
 10
11.1416630602
 20
11.0500821792
 30
0.0
 10
11.1469079508
 20
11.0536510651
 30
0.0
 10
11.152461408
 20
11.057188379
 30
0.0
 10
11.1583206486
 20
11.0606924623
 30
0.0
 10
11.1644827622
 20
11.0641615099
 30
0.0
 10
11.1709446554
 20
11.0675937922
 30
0.0
 10
11.1777030785
 20
11.0709876231
 30
0.0
 10
11.1847546789
 20
11.0743412731
 30
0.0
 10
11.1946909197
 20
11.0788236655
 30
0.0
 10
11.2078297282
 20
11.0843012261
 30
0.0
 10
11.224480225
 20
11.0905939
 30
0.0
 10
11.2422074571
 20
11.096687365
 30
0.0
 10
11.2609757461
 20
11.1025692539
 30
0.0
 10
11.2807475173
 20
11.1082276073
 30
0.0
 10
11.3014829978
 20
11.1136509145
 30
0.0
 10
11.3231404323
 20
11.1188281335
 30
0.0
 10
11.3456761548
 20
11.1237487176
 30
0.0
 10
11.3690446953
 20
11.1284026415
 30
0.0
 10
11.3931988693
 20
11.1327804191
 30
0.0
 10
11.4180898755
 20
11.1368731399
 30
0.0
 10
11.4436674031
 20
11.1406724742
 30
0.0
 10
11.4698797427
 20
11.1441706884
 30
0.0
 10
11.496673892
 20
11.1473606608
 30
0.0
 10
11.5239956652
 20
11.1502358973
 30
0.0
 10
11.5517897828
 20
11.1527905431
 30
0.0
 10
11.5800000612
 20
11.1550194415
 30
0.0
 10
11.6182666603
 20
11.1575623387
 30
0.0
 10
11.6667186196
 20
11.1598879601
 30
0.0
 10
11.7253310353
 20
11.1613140667
 30
0.0
 10
11.7842031962
 20
11.1613761889
 30
0.0
 10
11.8428588448
 20
11.1600737813
 30
0.0
 10
11.8913743779
 20
11.1578508322
 30
0.0
 10
11.9297132529
 20
11.1553894301
 30
0.0
 10
11.9579930998
 20
11.1532202858
 30
0.0
 10
11.9858671027
 20
11.1507245147
 30
0.0
 10
12.0132789209
 20
11.1479071627
 30
0.0
 10
12.0401730949
 20
11.1447739706
 30
0.0
 10
12.0664952313
 20
11.14133131
 30
0.0
 10
12.0921920969
 20
11.1375861819
 30
0.0
 10
12.1172117386
 20
11.13354621
 30
0.0
 10
12.1415035907
 20
11.1292196249
 30
0.0
 10
12.1650185757
 20
11.1246152379
 30
0.0
 10
12.1877092028
 20
11.1197424267
 30
0.0
 10
12.2095296723
 20
11.114611112
 30
0.0
 10
12.2304359833
 20
11.1092317467
 30
0.0
 10
12.25038603
 20
11.1036152932
 30
0.0
 10
12.2693397016
 20
11.0977731837
 30
0.0
 10
12.2872589354
 20
11.0917172991
 30
0.0
 10
12.3041079482
 20
11.0854599099
 30
0.0
 10
12.3198528875
 20
11.079013695
 30
0.0
 10
12.3322147845
 20
11.0734107113
 30
0.0
 10
12.3415153236
 20
11.0688328171
 30
0.0
 10
12.3480854591
 20
11.0654142862
 30
0.0
 10
12.3543569695
 20
11.0619584192
 30
0.0
 10
12.3603267304
 20
11.058466902
 30
0.0
 10
12.3659917378
 20
11.0549414382
 30
0.0
 10
12.3713492041
 20
11.0513838374
 30
0.0
 10
12.3763964244
 20
11.0477957721
 30
0.0
 10
12.3811309158
 20
11.0441790385
 30
0.0
 10
12.3855503249
 20
11.0405353723
 30
0.0
 10
12.3896524153
 20
11.0368664659
 30
0.0
 10
12.3934351888
 20
11.0331741145
 30
0.0
 10
12.3968966612
 20
11.0294599467
 30
0.0
 10
12.4000350878
 20
11.0257257109
 30
0.0
 10
12.4028487883
 20
11.021973079
 30
0.0
 10
12.4053361326
 20
11.0182037018
 30
0.0
 10
12.4074957196
 20
11.0144193474
 30
0.0
 10
12.4093260282
 20
11.0106217074
 30
0.0
 10
12.4108258052
 20
11.0068126675
 30
0.0
 10
12.4119938156
 20
11.0029942155
 30
0.0
 10
12.4128289318
 20
10.9991683728
 30
0.0
 10
12.4133304346
 20
10.9953378522
 30
0.0
 10
12.4134420392
 20
10.9927787553
 30
0.0
 10
12.4134420443
 20
10.9915043637
 30
0.0
  0
SPLINE
  5
36C
100
AcDbEntity
  8
0
100
AcDbSpline
 62
7
  6
CONTINUOUS
 70
0
 71
3
 72
19
 73
15
 74
0
 42
0.0000001
 43
0.0000001
 44
0.0000000001
 40
0.0
 40
0.0
 40
0.0
 40
0.0
 40
0.12732766
 40
0.2538196711
 40
0.3795264658
 40
0.5045235362
 40
0.5668075958
 40
0.6289556124
 40
0.6909843715
 40
0.7529118454
 40
0.8147570127
 40
0.8765397119
 40
0.9382804145
 40
1.0
 40
1.0
 40
1.0
 40
1.0
 10
10.0982197817
 20
8.1411991583
 30
0.0
 10
10.0982197817
 20
8.1479439224
 30
0.0
 10
10.0988637582
 20
8.1613984627
 30
0.0
 10
10.1017762211
 20
8.1813217633
 30
0.0
 10
10.1066050595
 20
8.200743524
 30
0.0
 10
10.1121988757
 20
8.2163830835
 30
0.0
 10
10.1175785957
 20
8.2284560564
 30
0.0
 10
10.1220522066
 20
8.2372669858
 30
0.0
 10
10.1269583449
 20
8.2458225787
 30
0.0
 10
10.132285844
 20
8.2541033845
 30
0.0
 10
10.1380224127
 20
8.2620901781
 30
0.0
 10
10.1441548306
 20
8.2697646685
 30
0.0
 10
10.1506687613
 20
8.2771088719
 30
0.0
 10
10.1552565889
 20
8.2817743652
 30
0.0
 10
10.1576081146
 20
8.2840457637
 30
0.0
  0
SPLINE
  5
36D
100
AcDbEntity
  8
0
100
AcDbSpline
 62
7
  6
CONTINUOUS
 70
0
 71
3
 72
52
 73
48
 74
0
 42
0.0000001
 43
0.0000001
 44
0.0000000001
 40
0.0
 40
0.0
 40
0.0
 40
0.0
 40
0.0452106793
 40
0.0910035741
 40
0.1371918869
 40
0.1835906187
 40
0.230011408
 40
0.2762667211
 40
0.3221695517
 40
0.367534801
 40
0.4121801311
 40
0.4559269821
 40
0.498601566
 40
0.5400358865
 40
0.5800687993
 40
0.618547133
 40
0.6553269024
 40
0.6902746615
 40
0.7232690715
 40
0.7542028117
 40
0.7829849871
 40
0.7965470957
 40
0.8095464186
 40
0.8219779976
 40
0.8338384889
 40
0.845127035
 40
0.8558449785
 40
0.8659968239
 40
0.8755903645
 40
0.8846375113
 40
0.8931551272
 40
0.9011657414
 40
0.9086990941
 40
0.9157929042
 40
0.9224946525
 40
0.9288622307
 40
0.9349647151
 40
0.9408816352
 40
0.9467009595
 40
0.9525155267
 40
0.9584184295
 40
0.9644982871
 40
0.9708356665
 40
0.9775006651
 40
0.9845524004
 40
0.992039274
 40
1.0
 40
1.0
 40
1.0
 40
1.0
 10
13.2750437824
 20
10.7997740655
 30
0.0
 10
13.2750437824
 20
10.7955419591
 30
0.0
 10
13.2749682976
 20
10.7870230746
 30
0.0
 10
13.2746354935
 20
10.7741844771
 30
0.0
 10
13.2740836006
 20
10.7612420902
 30
0.0
 10
13.2733150325
 20
10.7482519011
 30
0.0
 10
13.2723330635
 20
10.7352698067
 30
0.0
 10
13.2711419502
 20
10.7223518399
 30
0.0
 10
13.2697468324
 20
10.7095536851
 30
0.0
 10
13.2681537506
 20
10.69693053
 30
0.0
 10
13.2663696032
 20
10.6845367942
 30
0.0
 10
13.2644021266
 20
10.672425899
 30
0.0
 10
13.2622598585
 20
10.6606500306
 30
0.0
 10
13.2599521018
 20
10.6492599118
 30
0.0
 10
13.2574888859
 20
10.6383045759
 30
0.0
 10
13.2548809238
 20
10.6278311491
 30
0.0
 10
13.2521395674
 20
10.6178846267
 30
0.0
 10
13.2492767552
 20
10.6085076887
 30
0.0
 10
13.2463049607
 20
10.599740391
 30
0.0
 10
13.2432371078
 20
10.5916202798
 30
0.0
 10
13.2405611813
 20
10.5853017656
 30
0.0
 10
13.2383743132
 20
10.5806048227
 30
0.0
 10
13.2367510004
 20
10.5773351089
 30
0.0
 10
13.2351137202
 20
10.5742515642
 30
0.0
 10
13.2334641169
 20
10.5713574878
 30
0.0
 10
13.2318040267
 20
10.5686559093
 30
0.0
 10
13.2301351253
 20
10.566149698
 30
0.0
 10
13.2284591939
 20
10.5638414538
 30
0.0
 10
13.2267779191
 20
10.5617335835
 30
0.0
 10
13.2250929569
 20
10.5598282826
 30
0.0
 10
13.2234059628
 20
10.5581274917
 30
0.0
 10
13.2217184076
 20
10.5566330686
 30
0.0
 10
13.2200318348
 20
10.5553465799
 30
0.0
 10
13.2183475454
 20
10.5542696932
 30
0.0
 10
13.2166669799
 20
10.5534038686
 30
0.0
 10
13.2149915461
 20
10.5527507886
 30
0.0
 10
13.2133230058
 20
10.5523120512
 30
0.0
 10
13.2116635489
 20
10.5520891587
 30
0.0
 10
13.2100159103
 20
10.5520832524
 30
0.0
 10
13.2083831694
 20
10.5522945107
 30
0.0
 10
13.2067683974
 20
10.5527224546
 30
0.0
 10
13.2051741667
 20
10.5533655417
 30
0.0
 10
13.203602558
 20
10.5542221325
 30
0.0
 10
13.202055054
 20
10.5552902514
 30
0.0
 10
13.2005329129
 20
10.5565681815
 30
0.0
 10
13.1990373454
 20
10.5580540816
 30
0.0
 10
13.1980889015
 20
10.5591474217
 30
0.0
 10
13.1976187059
 20
10.5597255456
 30
0.0
  0
SPLINE
  5
36E
100
AcDbEntity
  8
0
100
AcDbSpline
 62
7
  6
CONTINUOUS
 70
0
 71
3
 72
18
 73
14
 74
0
 42
0.0000001
 43
0.0000001
 44
0.0000000001
 40
0.0
 40
0.0
 40
0.0
 40
0.0
 40
0.1504678859
 40
0.2917100145
 40
0.4244359174
 40
0.549562529
 40
0.668213991
 40
0.7255497453
 40
0.7817912733
 40
0.8371402265
 40
0.8918093735
 40
0.9460201098
 40
1.0
 40
1.0
 40
1.0
 40
1.0
 10
12.8030876431
 20
8.5989543112
 30
0.0
 10
12.8003637314
 20
8.5963232143
 30
0.0
 10
12.7949197874
 20
8.591386606
 30
0.0
 10
12.7864898764
 20
8.5848077423
 30
0.0
 10
12.7780698727
 20
8.5793055159
 30
0.0
 10
12.7696684883
 20
8.574888943
 30
0.0
 10
12.7626072079
 20
8.5720883596
 30
0.0
 10
12.7570008725
 20
8.5704244073
 30
0.0
 10
12.752855835
 20
8.569465339
 30
0.0
 10
12.7487245492
 20
8.568781793
 30
0.0
 10
12.7446081744
 20
8.5683739904
 30
0.0
 10
12.7405083443
 20
8.5682421757
 30
0.0
 10
12.7377845366
 20
8.5683385272
 30
0.0
 10
12.7364291699
 20
8.568432518
 30
0.0
  0
SPLINE
  5
36F
100
AcDbEntity
  8
0
100
AcDbSpline
 62
7
  6
CONTINUOUS
 70
0
 71
3
 72
19
 73
15
 74
0
 42
0.0000001
 43
0.0000001
 44
0.0000000001
 40
0.0
 40
0.0
 40
0.0
 40
0.0
 40
0.1504611406
 40
0.2916985742
 40
0.4244193292
 40
0.4878835935
 40
0.5495802133
 40
0.6682271463
 40
0.7255606136
 40
0.7817999183
 40
0.8371467056
 40
0.8918136429
 40
0.9460222308
 40
1.0
 40
1.0
 40
1.0
 40
1.0
 10
12.8030876431
 20
6.847247809
 30
0.0
 10
12.8008061849
 20
6.8450440894
 30
0.0
 10
12.7962464188
 20
6.8409092883
 30
0.0
 10
12.7891860541
 20
6.8353991985
 30
0.0
 10
12.7832224768
 20
6.8315021451
 30
0.0
 10
12.7784668946
 20
6.8288631722
 30
0.0
 10
12.7738516152
 20
6.8265975417
 30
0.0
 10
12.7691822922
 20
6.8247456028
 30
0.0
 10
12.764486705
 20
6.8233519937
 30
0.0
 10
12.761014916
 20
6.822548699
 30
0.0
 10
12.7575546806
 20
6.8219761569
 30
0.0
 10
12.7541069189
 20
6.8216346173
 30
0.0
 10
12.7506730213
 20
6.8215242215
 30
0.0
 10
12.7483916367
 20
6.8216048956
 30
0.0
 10
12.7472564201
 20
6.8216836194
 30
0.0
  0
SPLINE
  5
370
100
AcDbEntity
  8
0
100
AcDbSpline
 62
7
  6
CONTINUOUS
 70
0
 71
3
 72
15
 73
11
 74
0
 42
0.0000001
 43
0.0000001
 44
0.0000000001
 40
0.0
 40
0.0
 40
0.0
 40
0.0
 40
0.1273481239
 40
0.2538605621
 40
0.3795879444
 40
0.5046050907
 40
0.6290174474
 40
0.7529533717
 40
0.8765605758
 40
1.0
 40
1.0
 40
1.0
 40
1.0
 10
11.021448588
 20
8.7171172207
 30
0.0
 10
11.021448588
 20
8.7205819913
 30
0.0
 10
11.0217794033
 20
8.7274935859
 30
0.0
 10
11.023275484
 20
8.7377280488
 30
0.0
 10
11.0257562481
 20
8.7477053595
 30
0.0
 10
11.0291992881
 20
8.7573322001
 30
0.0
 10
11.0335729906
 20
8.7665198021
 30
0.0
 10
11.0388375073
 20
8.7751833221
 30
0.0
 10
11.0449433181
 20
8.7832415992
 30
0.0
 10
11.0495407107
 20
8.7881640279
 30
0.0
 10
11.0519562609
 20
8.7904972969
 30
0.0
  0
SPLINE
  5
371
100
AcDbEntity
  8
0
100
AcDbSpline
 62
7
  6
CONTINUOUS
 70
0
 71
3
 72
23
 73
19
 74
0
 42
0.0000001
 43
0.0000001
 44
0.0000000001
 40
0.0
 40
0.0
 40
0.0
 40
0.0
 40
0.0614488241
 40
0.1232974197
 40
0.1855193347
 40
0.2480712628
 40
0.3108995353
 40
0.3739401489
 40
0.4371217389
 40
0.5003679845
 40
0.5636003178
 40
0.6267406547
 40
0.6897141134
 40
0.7524516881
 40
0.8148925943
 40
0.8769871548
 40
0.9386967187
 40
1.0
 40
1.0
 40
1.0
 40
1.0
 10
11.1301152499
 20
8.6009145002
 30
0.0
 10
11.1265485602
 20
8.601161851
 30
0.0
 10
11.1194116159
 20
8.6020096484
 30
0.0
 10
11.1088500225
 20
8.6043122786
 30
0.0
 10
11.0984931469
 20
8.6076277935
 30
0.0
 10
11.0884417434
 20
8.6119240736
 30
0.0
 10
11.0787919303
 20
8.6171595702
 30
0.0
 10
11.0696363764
 20
8.6232838638
 30
0.0
 10
11.0610628839
 20
8.6302380337
 30
0.0
 10
11.0531537188
 20
8.637955267
 30
0.0
 10
11.0459847926
 20
8.646361471
 30
0.0
 10
11.0396249518
 20
8.6553759746
 30
0.0
 10
11.0341353255
 20
8.6649122829
 30
0.0
 10
11.0295687685
 20
8.6748789345
 30
0.0
 10
11.0259692977
 20
8.6851802064
 30
0.0
 10
11.0233718204
 20
8.6957175568
 30
0.0
 10
11.0218014906
 20
8.7063884594
 30
0.0
 10
11.021448588
 20
8.7135504324
 30
0.0
 10
11.021448588
 20
8.7171172207
 30
0.0
  0
SPLINE
  5
372
100
AcDbEntity
  8
0
100
AcDbSpline
 62
7
  6
CONTINUOUS
 70
0
 71
3
 72
18
 73
14
 74
0
 42
0.0000001
 43
0.0000001
 44
0.0000000001
 40
0.0
 40
0.0
 40
0.0
 40
0.0
 40
0.0548627003
 40
0.1099292984
 40
0.1654013502
 40
0.22147558
 40
0.3361333207
 40
0.4553633897
 40
0.5171049197
 40
0.5804365965
 40
0.7123310206
 40
0.851957275
 40
1.0
 40
1.0
 40
1.0
 40
1.0
 10
11.1014420725
 20
10.9915036234
 30
0.0
 10
11.1014420688
 20
10.9924300858
 30
0.0
 10
11.1015008581
 20
10.994286989
 30
0.0
 10
11.1017652033
 20
10.9970693101
 30
0.0
 10
11.1022057619
 20
10.9998500843
 30
0.0
 10
11.1030336256
 20
11.0035812597
 30
0.0
 10
11.1045250368
 20
11.0082577179
 30
0.0
 10
11.1065677091
 20
11.0128237687
 30
0.0
 10
11.1085332331
 20
11.0164525386
 30
0.0
 10
11.1107838409
 20
11.0201644712
 30
0.0
 10
11.1140517809
 20
11.0247890144
 30
0.0
 10
11.1186078882
 20
11.0302235864
 30
0.0
 10
11.1219965519
 20
11.0337107313
 30
0.0
 10
11.1237946788
 20
11.0354475886
 30
0.0
  0
SPLINE
  5
373
100
AcDbEntity
  8
0
100
AcDbSpline
 62
7
  6
CONTINUOUS
 70
0
 71
3
 72
52
 73
48
 74
0
 42
0.0000001
 43
0.0000001
 44
0.0000000001
 40
0.0
 40
0.0
 40
0.0
 40
0.0
 40
0.0452106793
 40
0.0910035741
 40
0.1371918869
 40
0.1835906187
 40
0.230011408
 40
0.2762667211
 40
0.3221695517
 40
0.367534801
 40
0.4121801311
 40
0.4559269821
 40
0.498601566
 40
0.5400358865
 40
0.5800687993
 40
0.618547133
 40
0.6553269024
 40
0.6902746615
 40
0.7232690715
 40
0.7542028117
 40
0.7829849871
 40
0.7965470957
 40
0.8095464186
 40
0.8219779976
 40
0.8338384889
 40
0.845127035
 40
0.8558449785
 40
0.8659968239
 40
0.8755903645
 40
0.8846375113
 40
0.8931551272
 40
0.9011657414
 40
0.9086990941
 40
0.9157929042
 40
0.9224946525
 40
0.9288622307
 40
0.9349647151
 40
0.9408816352
 40
0.9467009595
 40
0.9525155267
 40
0.9584184295
 40
0.9644982871
 40
0.9708356665
 40
0.9775006651
 40
0.9845524004
 40
0.992039274
 40
1.0
 40
1.0
 40
1.0
 40
1.0
 10
13.2750437824
 20
6.8162957094
 30
0.0
 10
13.2750437824
 20
6.812063603
 30
0.0
 10
13.2749682976
 20
6.8035447185
 30
0.0
 10
13.2746354935
 20
6.7907061211
 30
0.0
 10
13.2740836006
 20
6.7777637341
 30
0.0
 10
13.2733150325
 20
6.764773545
 30
0.0
 10
13.2723330635
 20
6.7517914506
 30
0.0
 10
13.2711419502
 20
6.7388734839
 30
0.0
 10
13.2697468324
 20
6.726075329
 30
0.0
 10
13.2681537506
 20
6.713452174
 30
0.0
 10
13.2663696032
 20
6.7010584382
 30
0.0
 10
13.2644021266
 20
6.6889475429
 30
0.0
 10
13.2622598585
 20
6.6771716746
 30
0.0
 10
13.2599521018
 20
6.6657815557
 30
0.0
 10
13.2574888859
 20
6.6548262198
 30
0.0
 10
13.2548809238
 20
6.644352793
 30
0.0
 10
13.2521395674
 20
6.6344062707
 30
0.0
 10
13.2492767552
 20
6.6250293326
 30
0.0
 10
13.2463049607
 20
6.6162620349
 30
0.0
 10
13.2432371078
 20
6.6081419237
 30
0.0
 10
13.2405611813
 20
6.6018234096
 30
0.0
 10
13.2383743132
 20
6.5971264667
 30
0.0
 10
13.2367510004
 20
6.5938567529
 30
0.0
 10
13.2351137202
 20
6.5907732081
 30
0.0
 10
13.2334641169
 20
6.5878791317
 30
0.0
 10
13.2318040267
 20
6.5851775532
 30
0.0
 10
13.2301351253
 20
6.5826713419
 30
0.0
 10
13.2284591939
 20
6.5803630977
 30
0.0
 10
13.2267779191
 20
6.5782552274
 30
0.0
 10
13.2250929569
 20
6.5763499265
 30
0.0
 10
13.2234059628
 20
6.5746491357
 30
0.0
 10
13.2217184076
 20
6.5731547125
 30
0.0
 10
13.2200318348
 20
6.5718682238
 30
0.0
 10
13.2183475454
 20
6.5707913371
 30
0.0
 10
13.2166669799
 20
6.5699255125
 30
0.0
 10
13.2149915461
 20
6.5692724325
 30
0.0
 10
13.2133230058
 20
6.5688336951
 30
0.0
 10
13.2116635489
 20
6.5686108026
 30
0.0
 10
13.2100159103
 20
6.5686048963
 30
0.0
 10
13.2083831694
 20
6.5688161546
 30
0.0
 10
13.2067683974
 20
6.5692440985
 30
0.0
 10
13.2051741667
 20
6.5698871856
 30
0.0
 10
13.203602558
 20
6.5707437764
 30
0.0
 10
13.202055054
 20
6.5718118953
 30
0.0
 10
13.2005329129
 20
6.5730898254
 30
0.0
 10
13.1990373454
 20
6.5745757255
 30
0.0
 10
13.1980889015
 20
6.5756690656
 30
0.0
 10
13.1976187059
 20
6.5762471895
 30
0.0
  0
SPLINE
  5
374
100
AcDbEntity
  8
0
100
AcDbSpline
 62
7
  6
CONTINUOUS
 70
0
 71
3
 72
15
 73
11
 74
0
 42
0.0000001
 43
0.0000001
 44
0.0000000001
 40
0.0
 40
0.0
 40
0.0
 40
0.0
 40
0.1273481239
 40
0.2538605621
 40
0.3795879444
 40
0.5046050907
 40
0.6290174474
 40
0.7529533717
 40
0.8765605758
 40
1.0
 40
1.0
 40
1.0
 40
1.0
 10
9.2711909672
 20
8.838497999
 30
0.0
 10
9.2711909672
 20
8.8419627695
 30
0.0
 10
9.2715217825
 20
8.8488743642
 30
0.0
 10
9.2730178632
 20
8.859108827
 30
0.0
 10
9.2754986273
 20
8.8690861377
 30
0.0
 10
9.2789416673
 20
8.8787129783
 30
0.0
 10
9.2833153698
 20
8.8879005804
 30
0.0
 10
9.2885798865
 20
8.8965641004
 30
0.0
 10
9.2946856973
 20
8.9046223775
 30
0.0
 10
9.2992830899
 20
8.9095448062
 30
0.0
 10
9.3016986401
 20
8.9118780752
 30
0.0
  0
SPLINE
  5
375
100
AcDbEntity
  8
0
100
AcDbSpline
 62
7
  6
CONTINUOUS
 70
0
 71
3
 72
23
 73
19
 74
0
 42
0.0000001
 43
0.0000001
 44
0.0000000001
 40
0.0
 40
0.0
 40
0.0
 40
0.0
 40
0.0614488241
 40
0.1232974197
 40
0.1855193347
 40
0.2480712628
 40
0.3108995353
 40
0.3739401489
 40
0.4371217389
 40
0.5003679845
 40
0.5636003178
 40
0.6267406547
 40
0.6897141134
 40
0.7524516881
 40
0.8148925943
 40
0.8769871548
 40
0.9386967187
 40
1.0
 40
1.0
 40
1.0
 40
1.0
 10
9.3798576291
 20
8.7222952785
 30
0.0
 10
9.3762909394
 20
8.7225426292
 30
0.0
 10
9.3691539951
 20
8.7233904266
 30
0.0
 10
9.3585924017
 20
8.7256930569
 30
0.0
 10
9.3482355261
 20
8.7290085717
 30
0.0
 10
9.3381841226
 20
8.7333048519
 30
0.0
 10
9.3285343095
 20
8.7385403485
 30
0.0
 10
9.3193787556
 20
8.744664642
 30
0.0
 10
9.3108052631
 20
8.751618812
 30
0.0
 10
9.302896098
 20
8.7593360453
 30
0.0
 10
9.2957271718
 20
8.7677422492
 30
0.0
 10
9.289367331
 20
8.7767567528
 30
0.0
 10
9.2838777047
 20
8.7862930612
 30
0.0
 10
9.2793111477
 20
8.7962597127
 30
0.0
 10
9.2757116769
 20
8.8065609847
 30
0.0
 10
9.2731141996
 20
8.8170983351
 30
0.0
 10
9.2715438698
 20
8.8277692376
 30
0.0
 10
9.2711909672
 20
8.8349312106
 30
0.0
 10
9.2711909672
 20
8.838497999
 30
0.0
  0
SPLINE
  5
376
100
AcDbEntity
  8
0
100
AcDbSpline
 62
7
  6
CONTINUOUS
 70
0
 71
3
 72
19
 73
15
 74
0
 42
0.0000001
 43
0.0000001
 44
0.0000000001
 40
0.0
 40
0.0
 40
0.0
 40
0.0
 40
0.12732766
 40
0.2538196711
 40
0.3795264658
 40
0.5045235362
 40
0.5668075958
 40
0.6289556124
 40
0.6909843715
 40
0.7529118454
 40
0.8147570127
 40
0.8765397119
 40
0.9382804145
 40
1.0
 40
1.0
 40
1.0
 40
1.0
 10
10.671013768
 20
7.7083438632
 30
0.0
 10
10.671013768
 20
7.7150886273
 30
0.0
 10
10.6716577445
 20
7.7285431676
 30
0.0
 10
10.6745702074
 20
7.7484664682
 30
0.0
 10
10.6793990457
 20
7.7678882289
 30
0.0
 10
10.684992862
 20
7.7835277884
 30
0.0
 10
10.690372582
 20
7.7956007613
 30
0.0
 10
10.6948461929
 20
7.8044116907
 30
0.0
 10
10.6997523311
 20
7.8129672836
 30
0.0
 10
10.7050798303
 20
7.8212480894
 30
0.0
 10
10.710816399
 20
7.829234883
 30
0.0
 10
10.7169488169
 20
7.8369093734
 30
0.0
 10
10.7234627476
 20
7.8442535768
 30
0.0
 10
10.7280505752
 20
7.8489190701
 30
0.0
 10
10.7304021009
 20
7.8511904686
 30
0.0
  0
SPLINE
  5
377
100
AcDbEntity
  8
0
100
AcDbSpline
 62
7
  6
CONTINUOUS
 70
0
 71
3
 72
15
 73
11
 74
0
 42
0.0000001
 43
0.0000001
 44
0.0000000001
 40
0.0
 40
0.0
 40
0.0
 40
0.0
 40
0.1273481239
 40
0.2538605621
 40
0.3795879444
 40
0.5046050907
 40
0.6290174474
 40
0.7529533717
 40
0.8765605758
 40
1.0
 40
1.0
 40
1.0
 40
1.0
 10
9.2711909672
 20
6.7859053813
 30
0.0
 10
9.2711909672
 20
6.7893701519
 30
0.0
 10
9.2715217825
 20
6.7962817465
 30
0.0
 10
9.2730178632
 20
6.8065162094
 30
0.0
 10
9.2754986273
 20
6.8164935201
 30
0.0
 10
9.2789416673
 20
6.8261203607
 30
0.0
 10
9.2833153698
 20
6.8353079628
 30
0.0
 10
9.2885798865
 20
6.8439714827
 30
0.0
 10
9.2946856973
 20
6.8520297598
 30
0.0
 10
9.2992830899
 20
6.8569521885
 30
0.0
 10
9.3016986401
 20
6.8592854576
 30
0.0
  0
SPLINE
  5
378
100
AcDbEntity
  8
0
100
AcDbSpline
 62
7
  6
CONTINUOUS
 70
0
 71
3
 72
23
 73
19
 74
0
 42
0.0000001
 43
0.0000001
 44
0.0000000001
 40
0.0
 40
0.0
 40
0.0
 40
0.0
 40
0.0614488241
 40
0.1232974197
 40
0.1855193347
 40
0.2480712628
 40
0.3108995353
 40
0.3739401489
 40
0.4371217389
 40
0.5003679845
 40
0.5636003178
 40
0.6267406547
 40
0.6897141134
 40
0.7524516881
 40
0.8148925943
 40
0.8769871548
 40
0.9386967187
 40
1.0
 40
1.0
 40
1.0
 40
1.0
 10
9.3798576291
 20
6.6697026608
 30
0.0
 10
9.3762909394
 20
6.6699500116
 30
0.0
 10
9.3691539951
 20
6.670797809
 30
0.0
 10
9.3585924017
 20
6.6731004392
 30
0.0
 10
9.3482355261
 20
6.6764159541
 30
0.0
 10
9.3381841226
 20
6.6807122343
 30
0.0
 10
9.3285343095
 20
6.6859477308
 30
0.0
 10
9.3193787556
 20
6.6920720244
 30
0.0
 10
9.3108052631
 20
6.6990261944
 30
0.0
 10
9.302896098
 20
6.7067434276
 30
0.0
 10
9.2957271718
 20
6.7151496316
 30
0.0
 10
9.289367331
 20
6.7241641352
 30
0.0
 10
9.2838777047
 20
6.7337004436
 30
0.0
 10
9.2793111477
 20
6.7436670951
 30
0.0
 10
9.2757116769
 20
6.753968367
 30
0.0
 10
9.2731141996
 20
6.7645057175
 30
0.0
 10
9.2715438698
 20
6.77517662
 30
0.0
 10
9.2711909672
 20
6.782338593
 30
0.0
 10
9.2711909672
 20
6.7859053813
 30
0.0
  0
SPLINE
  5
379
100
AcDbEntity
  8
0
100
AcDbSpline
 62
7
  6
CONTINUOUS
 70
0
 71
3
 72
51
 73
47
 74
0
 42
0.0000001
 43
0.0000001
 44
0.0000000001
 40
0.0
 40
0.0
 40
0.0
 40
0.0
 40
0.0102472745
 40
0.0209499152
 40
0.0321034225
 40
0.0437020225
 40
0.0557386566
 40
0.0682052271
 40
0.0810926297
 40
0.0943908363
 40
0.1080890381
 40
0.1221755925
 40
0.1366382127
 40
0.1514639045
 40
0.1821489713
 40
0.214116137
 40
0.2472420692
 40
0.281396537
 40
0.3164433829
 40
0.352241432
 40
0.3886453705
 40
0.4255065981
 40
0.4626740601
 40
0.4999950695
 40
0.5373161229
 40
0.5744837161
 40
0.6113451607
 40
0.647749401
 40
0.6835478365
 40
0.718595153
 40
0.7527501721
 40
0.7858767283
 40
0.8178445877
 40
0.8485304155
 40
0.863356521
 40
0.8778195534
 40
0.8919065511
 40
0.9056051978
 40
0.9189038672
 40
0.9317917494
 40
0.944258796
 40
0.9562959346
 40
0.9678950284
 40
0.9790490532
 40
0.9897522098
 40
1.0
 40
1.0
 40
1.0
 40
1.0
 10
11.184326225
 20
10.9089397869
 30
0.0
 10
11.1879398018
 20
10.9106191404
 30
0.0
 10
11.1953801621
 20
10.9139401267
 30
0.0
 10
11.2069154379
 20
10.9187164242
 30
0.0
 10
11.2190569719
 20
10.9233913425
 30
0.0
 10
11.2317913799
 20
10.9279595957
 30
0.0
 10
11.2451047545
 20
10.9324162262
 30
0.0
 10
11.2589824997
 20
10.9367562746
 30
0.0
 10
11.2734093916
 20
10.940974945
 30
0.0
 10
11.2883695817
 20
10.9450676046
 30
0.0
 10
11.3038466355
 20
10.9490296736
 30
0.0
 10
11.3198235226
 20
10.9528568214
 30
0.0
 10
11.3362826894
 20
10.9565447969
 30
0.0
 10
11.3591091602
 20
10.9613258541
 30
0.0
 10
11.3887192099
 20
10.9669076628
 30
0.0
 10
11.4254788178
 20
10.9729161491
 30
0.0
 10
11.4637003092
 20
10.978282411
 30
0.0
 10
11.5032153693
 20
10.9829825603
 30
0.0
 10
11.5438501806
 20
10.9869956243
 30
0.0
 10
11.5854258372
 20
10.990303728
 30
0.0
 10
11.627759259
 20
10.9928921411
 30
0.0
 10
11.6706639861
 20
10.9947493421
 30
0.0
 10
11.7139510194
 20
10.9958670658
 30
0.0
 10
11.7574296593
 20
10.9962403376
 30
0.0
 10
11.800908354
 20
10.9958674936
 30
0.0
 10
11.8441955508
 20
10.9947501925
 30
0.0
 10
11.8871005489
 20
10.992893409
 30
0.0
 10
11.9294343485
 20
10.9903054077
 30
0.0
 10
11.9710104893
 20
10.9869977093
 30
0.0
 10
12.0116458901
 20
10.9829850442
 30
0.0
 10
12.051161641
 20
10.9782852844
 30
0.0
 10
12.0893839182
 20
10.9729193945
 30
0.0
 10
12.126144404
 20
10.966911268
 30
0.0
 10
12.1557552458
 20
10.961329742
 30
0.0
 10
12.1785823979
 20
10.9565489272
 30
0.0
 10
12.195042103
 20
10.9528610975
 30
0.0
 10
12.2110195507
 20
10.9490341195
 30
0.0
 10
12.2264971835
 20
10.9450721936
 30
0.0
 10
12.2414579727
 20
10.9409796807
 30
0.0
 10
12.2558854831
 20
10.9367611601
 30
0.0
 10
12.2697638606
 20
10.9324212318
 30
0.0
 10
12.2830778894
 20
10.9279647498
 30
0.0
 10
12.2958129619
 20
10.9233966035
 30
0.0
 10
12.3079551822
 20
10.9187218156
 30
0.0
 10
12.3194911548
 20
10.9139456267
 30
0.0
 10
12.3269319902
 20
10.9106247209
 30
0.0
 10
12.3305458043
 20
10.9089454023
 30
0.0
  0
SPLINE
  5
37A
100
AcDbEntity
  8
0
100
AcDbSpline
 62
7
  6
CONTINUOUS
 70
0
 71
3
 72
39
 73
35
 74
0
 42
0.0000001
 43
0.0000001
 44
0.0000000001
 40
0.0
 40
0.0
 40
0.0
 40
0.0
 40
0.0314026137
 40
0.0630094723
 40
0.094807121
 40
0.126773443
 40
0.1588809721
 40
0.1910970223
 40
0.2233851135
 40
0.2557062447
 40
0.2880202663
 40
0.320287276
 40
0.3524690077
 40
0.3845301837
 40
0.4164397922
 40
0.4481722491
 40
0.4797084087
 40
0.5110363814
 40
0.5421521213
 40
0.5730597421
 40
0.6037715187
 40
0.6343075558
 40
0.6646951126
 40
0.6949675911
 40
0.7251632193
 40
0.7553234784
 40
0.7854913547
 40
0.8157095097
 40
0.8460184685
 40
0.8764549271
 40
0.9070502251
 40
0.9378293516
 40
0.9688091131
 40
1.0
 40
1.0
 40
1.0
 40
1.0
 10
11.1240330074
 20
8.8350720868
 30
0.0
 10
11.1283447431
 20
8.8347730669
 30
0.0
 10
11.1369725165
 20
8.8337481728
 30
0.0
 10
11.1497403076
 20
8.8309645458
 30
0.0
 10
11.1622606166
 20
8.8269564602
 30
0.0
 10
11.1744116511
 20
8.8217627474
 30
0.0
 10
11.1860772074
 20
8.8154336179
 30
0.0
 10
11.1971452505
 20
8.8080300201
 30
0.0
 10
11.2075096387
 20
8.7996231862
 30
0.0
 10
11.2170709337
 20
8.7902939028
 30
0.0
 10
11.2257373753
 20
8.7801317421
 30
0.0
 10
11.2334257324
 20
8.769234221
 30
0.0
 10
11.2400620869
 20
8.7577058821
 30
0.0
 10
11.2455825478
 20
8.7456573227
 30
0.0
 10
11.2499338784
 20
8.733204159
 30
0.0
 10
11.2530739751
 20
8.720465925
 30
0.0
 10
11.254972284
 20
8.7075649595
 30
0.0
 10
11.2556101089
 20
8.6946252613
 30
0.0
 10
11.2549808166
 20
8.6817713276
 30
0.0
 10
11.2530899786
 20
8.6691269732
 30
0.0
 10
11.2499553217
 20
8.6568141452
 30
0.0
 10
11.2456066066
 20
8.6449517491
 30
0.0
 10
11.240085394
 20
8.6336544841
 30
0.0
 10
11.2334446813
 20
8.6230317046
 30
0.0
 10
11.225748453
 20
8.6131862917
 30
0.0
 10
11.2170710501
 20
8.6042135997
 30
0.0
 10
11.20749642
 20
8.5962004892
 30
0.0
 10
11.1971172692
 20
8.5892244375
 30
0.0
 10
11.1860341245
 20
8.5833527636
 30
0.0
 10
11.1743542663
 20
8.5786419699
 30
0.0
 10
11.1621907992
 20
8.5751371359
 30
0.0
 10
11.1496608962
 20
8.572871738
 30
0.0
 10
11.1368870037
 20
8.5718668857
 30
0.0
 10
11.1283156719
 20
8.5720432426
 30
0.0
 10
11.1240330074
 20
8.5723402464
 30
0.0
  0
SPLINE
  5
37B
100
AcDbEntity
  8
0
100
AcDbSpline
 62
7
  6
CONTINUOUS
 70
0
 71
3
 72
15
 73
11
 74
0
 42
0.0000001
 43
0.0000001
 44
0.0000000001
 40
0.0
 40
0.0
 40
0.0
 40
0.0
 40
0.1273481239
 40
0.2538605621
 40
0.3795879444
 40
0.5046050907
 40
0.6290174474
 40
0.7529533717
 40
0.8765605758
 40
1.0
 40
1.0
 40
1.0
 40
1.0
 10
11.021448588
 20
6.6645246031
 30
0.0
 10
11.021448588
 20
6.6679893736
 30
0.0
 10
11.0217794033
 20
6.6749009683
 30
0.0
 10
11.023275484
 20
6.6851354311
 30
0.0
 10
11.0257562481
 20
6.6951127418
 30
0.0
 10
11.0291992881
 20
6.7047395824
 30
0.0
 10
11.0335729906
 20
6.7139271845
 30
0.0
 10
11.0388375073
 20
6.7225907045
 30
0.0
 10
11.0449433181
 20
6.7306489816
 30
0.0
 10
11.0495407107
 20
6.7355714103
 30
0.0
 10
11.0519562609
 20
6.7379046793
 30
0.0
  0
SPLINE
  5
37C
100
AcDbEntity
  8
0
100
AcDbSpline
 62
7
  6
CONTINUOUS
 70
0
 71
3
 72
23
 73
19
 74
0
 42
0.0000001
 43
0.0000001
 44
0.0000000001
 40
0.0
 40
0.0
 40
0.0
 40
0.0
 40
0.0614488241
 40
0.1232974197
 40
0.1855193347
 40
0.2480712628
 40
0.3108995353
 40
0.3739401489
 40
0.4371217389
 40
0.5003679845
 40
0.5636003178
 40
0.6267406547
 40
0.6897141134
 40
0.7524516881
 40
0.8148925943
 40
0.8769871548
 40
0.9386967187
 40
1.0
 40
1.0
 40
1.0
 40
1.0
 10
11.1301152499
 20
6.5483218826
 30
0.0
 10
11.1265485602
 20
6.5485692333
 30
0.0
 10
11.1194116159
 20
6.5494170307
 30
0.0
 10
11.1088500225
 20
6.551719661
 30
0.0
 10
11.0984931469
 20
6.5550351758
 30
0.0
 10
11.0884417434
 20
6.559331456
 30
0.0
 10
11.0787919303
 20
6.5645669526
 30
0.0
 10
11.0696363764
 20
6.5706912461
 30
0.0
 10
11.0610628839
 20
6.5776454161
 30
0.0
 10
11.0531537188
 20
6.5853626494
 30
0.0
 10
11.0459847926
 20
6.5937688533
 30
0.0
 10
11.0396249518
 20
6.6027833569
 30
0.0
 10
11.0341353255
 20
6.6123196653
 30
0.0
 10
11.0295687685
 20
6.6222863168
 30
0.0
 10
11.0259692977
 20
6.6325875888
 30
0.0
 10
11.0233718204
 20
6.6431249392
 30
0.0
 10
11.0218014906
 20
6.6537958417
 30
0.0
 10
11.021448588
 20
6.6609578147
 30
0.0
 10
11.021448588
 20
6.6645246031
 30
0.0
  0
SPLINE
  5
37D
100
AcDbEntity
  8
0
100
AcDbSpline
 62
7
  6
CONTINUOUS
 70
0
 71
3
 72
39
 73
35
 74
0
 42
0.0000001
 43
0.0000001
 44
0.0000000001
 40
0.0
 40
0.0
 40
0.0
 40
0.0
 40
0.0314026137
 40
0.0630094723
 40
0.094807121
 40
0.126773443
 40
0.1588809721
 40
0.1910970223
 40
0.2233851135
 40
0.2557062447
 40
0.2880202663
 40
0.320287276
 40
0.3524690077
 40
0.3845301837
 40
0.4164397922
 40
0.4481722491
 40
0.4797084087
 40
0.5110363814
 40
0.5421521213
 40
0.5730597421
 40
0.6037715187
 40
0.6343075558
 40
0.6646951126
 40
0.6949675911
 40
0.7251632193
 40
0.7553234784
 40
0.7854913547
 40
0.8157095097
 40
0.8460184685
 40
0.8764549271
 40
0.9070502251
 40
0.9378293516
 40
0.9688091131
 40
1.0
 40
1.0
 40
1.0
 40
1.0
 10
11.1240330074
 20
6.5197476288
 30
0.0
 10
11.1197212717
 20
6.5200466487
 30
0.0
 10
11.1110934983
 20
6.5210715427
 30
0.0
 10
11.0983257072
 20
6.5238551698
 30
0.0
 10
11.0858053982
 20
6.5278632554
 30
0.0
 10
11.0736543637
 20
6.5330569682
 30
0.0
 10
11.0619888074
 20
6.5393860977
 30
0.0
 10
11.0509207643
 20
6.5467896954
 30
0.0
 10
11.0405563761
 20
6.5551965294
 30
0.0
 10
11.0309950811
 20
6.5645258127
 30
0.0
 10
11.0223286395
 20
6.5746879734
 30
0.0
 10
11.0146402824
 20
6.5855854945
 30
0.0
 10
11.0080039279
 20
6.5971138335
 30
0.0
 10
11.002483467
 20
6.6091623929
 30
0.0
 10
10.9981321364
 20
6.6216155566
 30
0.0
 10
10.9949920397
 20
6.6343537906
 30
0.0
 10
10.9930937308
 20
6.6472547561
 30
0.0
 10
10.9924559059
 20
6.6601944543
 30
0.0
 10
10.9930851982
 20
6.673048388
 30
0.0
 10
10.9949760362
 20
6.6856927423
 30
0.0
 10
10.9981106931
 20
6.6980055704
 30
0.0
 10
11.0024594082
 20
6.7098679665
 30
0.0
 10
11.0079806208
 20
6.7211652315
 30
0.0
 10
11.0146213335
 20
6.731788011
 30
0.0
 10
11.0223175618
 20
6.7416334239
 30
0.0
 10
11.0309949647
 20
6.7506061159
 30
0.0
 10
11.0405695948
 20
6.7586192264
 30
0.0
 10
11.0509487456
 20
6.765595278
 30
0.0
 10
11.0620318903
 20
6.771466952
 30
0.0
 10
11.0737117485
 20
6.7761777457
 30
0.0
 10
11.0858752157
 20
6.7796825796
 30
0.0
 10
11.0984051186
 20
6.7819479775
 30
0.0
 10
11.1111790111
 20
6.7829528298
 30
0.0
 10
11.1197503429
 20
6.7827764729
 30
0.0
 10
11.1240330074
 20
6.7824794691
 30
0.0
  0
SPLINE
  5
37E
100
AcDbEntity
  8
0
100
AcDbSpline
 62
7
  6
CONTINUOUS
 70
0
 71
3
 72
39
 73
35
 74
0
 42
0.0000001
 43
0.0000001
 44
0.0000000001
 40
0.0
 40
0.0
 40
0.0
 40
0.0
 40
0.0250746545
 40
0.051284679
 40
0.0785747893
 40
0.1068851604
 40
0.1361519063
 40
0.1663074985
 40
0.1972811447
 40
0.2289991362
 40
0.2613851756
 40
0.2943606863
 40
0.3278451124
 40
0.3617562157
 40
0.3960103624
 40
0.4305228066
 40
0.465207969
 40
0.4999797151
 40
0.5347516322
 40
0.569437306
 40
0.6039505994
 40
0.6382059301
 40
0.6721185484
 40
0.7056048168
 40
0.7385824925
 40
0.7709710138
 40
0.8026917925
 40
0.8336685189
 40
0.8638274739
 40
0.8930978537
 40
0.9214121179
 40
0.9487063672
 40
0.9749207624
 40
1.0
 40
1.0
 40
1.0
 40
1.0
 10
11.3604187034
 20
10.856373572
 30
0.0
 10
11.3668668044
 20
10.8581838058
 30
0.0
 10
11.3801063873
 20
10.8617049817
 30
0.0
 10
11.4005162213
 20
10.8666013462
 30
0.0
 10
11.4218757731
 20
10.8712197261
 30
0.0
 10
11.444128166
 20
10.8755476643
 30
0.0
 10
11.4672143639
 20
10.8795735543
 30
0.0
 10
11.4910729998
 20
10.8832865842
 30
0.0
 10
11.5156406437
 20
10.8866767904
 30
0.0
 10
11.54085195
 20
10.8897350768
 30
0.0
 10
11.5666398437
 20
10.8924532403
 30
0.0
 10
11.5929356988
 20
10.8948239916
 30
0.0
 10
11.6196695254
 20
10.8968409779
 30
0.0
 10
11.6467701592
 20
10.8984987948
 30
0.0
 10
11.6741654537
 20
10.8997930012
 30
0.0
 10
11.7017824739
 20
10.90072013
 30
0.0
 10
11.7295476914
 20
10.9012776972
 30
0.0
 10
11.7573871803
 20
10.9014642087
 30
0.0
 10
11.7852268157
 20
10.9012791632
 30
0.0
 10
11.8129924715
 20
10.900723056
 30
0.0
 10
11.8406102204
 20
10.8997973784
 30
0.0
 10
11.8680065315
 20
10.8985046109
 30
0.0
 10
11.8951084674
 20
10.8968482174
 30
0.0
 10
11.921843879
 20
10.8948326358
 30
0.0
 10
11.9481415989
 20
10.8924632671
 30
0.0
 10
11.973931632
 20
10.8897464616
 30
0.0
 10
11.9991453453
 20
10.8866895016
 30
0.0
 10
12.0237156556
 20
10.8833005858
 30
0.0
 10
12.0475772097
 20
10.879588808
 30
0.0
 10
12.0706665708
 20
10.8755641289
 30
0.0
 10
12.0929223643
 20
10.8712373572
 30
0.0
 10
12.114285547
 20
10.8666200986
 30
0.0
 10
12.134699232
 20
10.8617248009
 30
0.0
 10
12.1479414838
 20
10.858204359
 30
0.0
 10
12.1543909539
 20
10.8563944732
 30
0.0
  0
SPLINE
  5
37F
100
AcDbEntity
  8
0
100
AcDbSpline
 62
7
  6
CONTINUOUS
 70
0
 71
3
 72
39
 73
35
 74
0
 42
0.0000001
 43
0.0000001
 44
0.0000000001
 40
0.0
 40
0.0
 40
0.0
 40
0.0
 40
0.0314026137
 40
0.0630094723
 40
0.094807121
 40
0.126773443
 40
0.1588809721
 40
0.1910970223
 40
0.2233851135
 40
0.2557062447
 40
0.2880202663
 40
0.320287276
 40
0.3524690077
 40
0.3845301837
 40
0.4164397922
 40
0.4481722491
 40
0.4797084087
 40
0.5110363814
 40
0.5421521213
 40
0.5730597421
 40
0.6037715187
 40
0.6343075558
 40
0.6646951126
 40
0.6949675911
 40
0.7251632193
 40
0.7553234784
 40
0.7854913547
 40
0.8157095097
 40
0.8460184685
 40
0.8764549271
 40
0.9070502251
 40
0.9378293516
 40
0.9688091131
 40
1.0
 40
1.0
 40
1.0
 40
1.0
 10
11.1240330074
 20
8.5723402464
 30
0.0
 10
11.1197212717
 20
8.5726392663
 30
0.0
 10
11.1110934983
 20
8.5736641604
 30
0.0
 10
11.0983257072
 20
8.5764477874
 30
0.0
 10
11.0858053982
 20
8.580455873
 30
0.0
 10
11.0736543637
 20
8.5856495858
 30
0.0
 10
11.0619888074
 20
8.5919787153
 30
0.0
 10
11.0509207643
 20
8.5993823131
 30
0.0
 10
11.0405563761
 20
8.607789147
 30
0.0
 10
11.0309950811
 20
8.6171184304
 30
0.0
 10
11.0223286395
 20
8.6272805911
 30
0.0
 10
11.0146402824
 20
8.6381781122
 30
0.0
 10
11.0080039279
 20
8.6497064511
 30
0.0
 10
11.002483467
 20
8.6617550105
 30
0.0
 10
10.9981321364
 20
8.6742081742
 30
0.0
 10
10.9949920397
 20
8.6869464082
 30
0.0
 10
10.9930937308
 20
8.6998473737
 30
0.0
 10
10.9924559059
 20
8.7127870719
 30
0.0
 10
10.9930851982
 20
8.7256410056
 30
0.0
 10
10.9949760362
 20
8.73828536
 30
0.0
 10
10.9981106931
 20
8.750598188
 30
0.0
 10
11.0024594082
 20
8.7624605841
 30
0.0
 10
11.0079806208
 20
8.7737578491
 30
0.0
 10
11.0146213335
 20
8.7843806286
 30
0.0
 10
11.0223175618
 20
8.7942260415
 30
0.0
 10
11.0309949647
 20
8.8031987335
 30
0.0
 10
11.0405695948
 20
8.811211844
 30
0.0
 10
11.0509487456
 20
8.8181878957
 30
0.0
 10
11.0620318903
 20
8.8240595696
 30
0.0
 10
11.0737117485
 20
8.8287703633
 30
0.0
 10
11.0858752157
 20
8.8322751973
 30
0.0
 10
11.0984051186
 20
8.8345405952
 30
0.0
 10
11.1111790111
 20
8.8355454475
 30
0.0
 10
11.1197503429
 20
8.8353690905
 30
0.0
 10
11.1240330074
 20
8.8350720868
 30
0.0
  0
SPLINE
  5
380
100
AcDbEntity
  8
0
100
AcDbSpline
 62
7
  6
CONTINUOUS
 70
0
 71
3
 72
15
 73
11
 74
0
 42
0.0000001
 43
0.0000001
 44
0.0000000001
 40
0.0
 40
0.0
 40
0.0
 40
0.0
 40
0.123345499
 40
0.2480989744
 40
0.373796227
 40
0.4999684933
 40
0.6261447213
 40
0.7518538406
 40
0.8766270315
 40
1.0
 40
1.0
 40
1.0
 40
1.0
 10
11.6219466648
 20
10.8254260778
 30
0.0
 10
11.633048632
 20
10.8261708961
 30
0.0
 10
11.6553928478
 20
10.82747365
 30
0.0
 10
11.6890854827
 20
10.8288667872
 30
0.0
 10
11.7230515944
 20
10.8297068074
 30
0.0
 10
11.7571552149
 20
10.8299903185
 30
0.0
 10
11.7912599824
 20
10.8297161775
 30
0.0
 10
11.8252295306
 20
10.8288854898
 30
0.0
 10
11.8589278779
 20
10.827501611
 30
0.0
 10
11.8812767159
 20
10.8262050365
 30
0.0
 10
11.8923813729
 20
10.8254633006
 30
0.0
  0
SPLINE
  5
381
100
AcDbEntity
  8
0
100
AcDbSpline
 62
7
  6
CONTINUOUS
 70
0
 71
3
 72
39
 73
35
 74
0
 42
0.0000001
 43
0.0000001
 44
0.0000000001
 40
0.0
 40
0.0
 40
0.0
 40
0.0
 40
0.0314026137
 40
0.0630094723
 40
0.094807121
 40
0.126773443
 40
0.1588809721
 40
0.1910970223
 40
0.2233851135
 40
0.2557062447
 40
0.2880202663
 40
0.320287276
 40
0.3524690077
 40
0.3845301837
 40
0.4164397922
 40
0.4481722491
 40
0.4797084087
 40
0.5110363814
 40
0.5421521213
 40
0.5730597421
 40
0.6037715187
 40
0.6343075558
 40
0.6646951126
 40
0.6949675911
 40
0.7251632193
 40
0.7553234784
 40
0.7854913547
 40
0.8157095097
 40
0.8460184685
 40
0.8764549271
 40
0.9070502251
 40
0.9378293516
 40
0.9688091131
 40
1.0
 40
1.0
 40
1.0
 40
1.0
 10
9.3737753866
 20
8.956452865
 30
0.0
 10
9.3780871223
 20
8.9561538451
 30
0.0
 10
9.3867148957
 20
8.9551289511
 30
0.0
 10
9.3994826868
 20
8.952345324
 30
0.0
 10
9.4120029958
 20
8.9483372384
 30
0.0
 10
9.4241540303
 20
8.9431435257
 30
0.0
 10
9.4358195866
 20
8.9368143962
 30
0.0
 10
9.4468876297
 20
8.9294107984
 30
0.0
 10
9.4572520179
 20
8.9210039645
 30
0.0
 10
9.4668133129
 20
8.9116746811
 30
0.0
 10
9.4754797545
 20
8.9015125204
 30
0.0
 10
9.4831681116
 20
8.8906149993
 30
0.0
 10
9.4898044661
 20
8.8790866603
 30
0.0
 10
9.495324927
 20
8.8670381009
 30
0.0
 10
9.4996762576
 20
8.8545849373
 30
0.0
 10
9.5028163543
 20
8.8418467033
 30
0.0
 10
9.5047146632
 20
8.8289457378
 30
0.0
 10
9.5053524881
 20
8.8160060395
 30
0.0
 10
9.5047231958
 20
8.8031521058
 30
0.0
 10
9.5028323578
 20
8.7905077515
 30
0.0
 10
9.4996977009
 20
8.7781949234
 30
0.0
 10
9.4953489858
 20
8.7663325273
 30
0.0
 10
9.4898277732
 20
8.7550352623
 30
0.0
 10
9.4831870605
 20
8.7444124828
 30
0.0
 10
9.4754908322
 20
8.7345670699
 30
0.0
 10
9.4668134293
 20
8.725594378
 30
0.0
 10
9.4572387992
 20
8.7175812674
 30
0.0
 10
9.4468596484
 20
8.7106052158
 30
0.0
 10
9.4357765037
 20
8.7047335419
 30
0.0
 10
9.4240966455
 20
8.7000227482
 30
0.0
 10
9.4119331784
 20
8.6965179142
 30
0.0
 10
9.3994032754
 20
8.6942525163
 30
0.0
 10
9.3866293829
 20
8.693247664
 30
0.0
 10
9.3780580511
 20
8.6934240209
 30
0.0
 10
9.3737753866
 20
8.6937210247
 30
0.0
  0
SPLINE
  5
382
100
AcDbEntity
  8
0
100
AcDbSpline
 62
7
  6
CONTINUOUS
 70
0
 71
3
 72
39
 73
35
 74
0
 42
0.0000001
 43
0.0000001
 44
0.0000000001
 40
0.0
 40
0.0
 40
0.0
 40
0.0
 40
0.0314026137
 40
0.0630094723
 40
0.094807121
 40
0.126773443
 40
0.1588809721
 40
0.1910970223
 40
0.2233851135
 40
0.2557062447
 40
0.2880202663
 40
0.320287276
 40
0.3524690077
 40
0.3845301837
 40
0.4164397922
 40
0.4481722491
 40
0.4797084087
 40
0.5110363814
 40
0.5421521213
 40
0.5730597421
 40
0.6037715187
 40
0.6343075558
 40
0.6646951126
 40
0.6949675911
 40
0.7251632193
 40
0.7553234784
 40
0.7854913547
 40
0.8157095097
 40
0.8460184685
 40
0.8764549271
 40
0.9070502251
 40
0.9378293516
 40
0.9688091131
 40
1.0
 40
1.0
 40
1.0
 40
1.0
 10
9.3737753866
 20
8.6937210247
 30
0.0
 10
9.3694636509
 20
8.6940200446
 30
0.0
 10
9.3608358775
 20
8.6950449386
 30
0.0
 10
9.3480680864
 20
8.6978285657
 30
0.0
 10
9.3355477774
 20
8.7018366513
 30
0.0
 10
9.3233967429
 20
8.7070303641
 30
0.0
 10
9.3117311866
 20
8.7133594936
 30
0.0
 10
9.3006631435
 20
8.7207630913
 30
0.0
 10
9.2902987553
 20
8.7291699253
 30
0.0
 10
9.2807374603
 20
8.7384992086
 30
0.0
 10
9.2720710187
 20
8.7486613693
 30
0.0
 10
9.2643826616
 20
8.7595588904
 30
0.0
 10
9.2577463071
 20
8.7710872294
 30
0.0
 10
9.2522258462
 20
8.7831357888
 30
0.0
 10
9.2478745156
 20
8.7955889525
 30
0.0
 10
9.2447344189
 20
8.8083271865
 30
0.0
 10
9.24283611
 20
8.821228152
 30
0.0
 10
9.2421982851
 20
8.8341678502
 30
0.0
 10
9.2428275774
 20
8.8470217839
 30
0.0
 10
9.2447184154
 20
8.8596661382
 30
0.0
 10
9.2478530723
 20
8.8719789663
 30
0.0
 10
9.2522017874
 20
8.8838413624
 30
0.0
 10
9.257723
 20
8.8951386274
 30
0.0
 10
9.2643637127
 20
8.9057614069
 30
0.0
 10
9.272059941
 20
8.9156068198
 30
0.0
 10
9.2807373439
 20
8.9245795118
 30
0.0
 10
9.290311974
 20
8.9325926223
 30
0.0
 10
9.3006911248
 20
8.9395686739
 30
0.0
 10
9.3117742695
 20
8.9454403479
 30
0.0
 10
9.3234541277
 20
8.9501511416
 30
0.0
 10
9.3356175949
 20
8.9536559755
 30
0.0
 10
9.3481474978
 20
8.9559213734
 30
0.0
 10
9.3609213903
 20
8.9569262257
 30
0.0
 10
9.3694927221
 20
8.9567498688
 30
0.0
 10
9.3737753866
 20
8.956452865
 30
0.0
  0
SPLINE
  5
383
100
AcDbEntity
  8
0
100
AcDbSpline
 62
7
  6
CONTINUOUS
 70
0
 71
3
 72
42
 73
38
 74
0
 42
0.0000001
 43
0.0000001
 44
0.0000000001
 40
0.0
 40
0.0
 40
0.0
 40
0.0
 40
0.084036824
 40
0.1695051652
 40
0.2553481512
 40
0.340500755
 40
0.4239093117
 40
0.4646387802
 40
0.5045507648
 40
0.5435241865
 40
0.5814419577
 40
0.6181915188
 40
0.6536654072
 40
0.6877619363
 40
0.7203860683
 40
0.7514501714
 40
0.7808749456
 40
0.8085906484
 40
0.8345387813
 40
0.8586739841
 40
0.8809666959
 40
0.8914192741
 40
0.9014095957
 40
0.9109403673
 40
0.9200164037
 40
0.928645065
 40
0.9368362317
 40
0.9446032749
 40
0.9519633261
 40
0.9589378364
 40
0.965553651
 40
0.9718432802
 40
0.97784576
 40
0.9836070658
 40
0.989179842
 40
0.9946229736
 40
1.0
 40
1.0
 40
1.0
 40
1.0
 10
13.2450375369
 20
10.7952902563
 30
0.0
 10
13.2450375369
 20
10.7887601542
 30
0.0
 10
13.2448326167
 20
10.7755879575
 30
0.0
 10
13.2439433532
 20
10.7557634071
 30
0.0
 10
13.2424798446
 20
10.735885823
 30
0.0
 10
13.2404614325
 20
10.7162178993
 30
0.0
 10
13.2383229403
 20
10.700093334
 30
0.0
 10
13.2363484821
 20
10.6874991586
 30
0.0
 10
13.2347594594
 20
10.6783408421
 30
0.0
 10
13.2330559251
 20
10.6694254621
 30
0.0
 10
13.2312435267
 20
10.6607824614
 30
0.0
 10
13.2293283082
 20
10.652440394
 30
0.0
 10
13.2273166452
 20
10.644426804
 30
0.0
 10
13.2252152315
 20
10.6367681334
 30
0.0
 10
13.2230310813
 20
10.6294896133
 30
0.0
 10
13.2207714814
 20
10.6226151818
 30
0.0
 10
13.218443963
 20
10.6161673943
 30
0.0
 10
13.2160562646
 20
10.6101673558
 30
0.0
 10
13.213616315
 20
10.6046345062
 30
0.0
 10
13.2111321794
 20
10.5995868747
 30
0.0
 10
13.2089883229
 20
10.5957190097
 30
0.0
 10
13.2072513217
 20
10.592888198
 30
0.0
 10
13.2059706673
 20
10.590942252
 30
0.0
 10
13.2046850657
 20
10.5891291508
 30
0.0
 10
13.2033954961
 20
10.5874503702
 30
0.0
 10
13.2021030239
 20
10.585907224
 30
0.0
 10
13.2008085847
 20
10.5845009879
 30
0.0
 10
13.1995131749
 20
10.5832327764
 30
0.0
 10
13.198217746
 20
10.5821036065
 30
0.0
 10
13.1969231528
 20
10.5811144932
 30
0.0
 10
13.1956303265
 20
10.5802662716
 30
0.0
 10
13.194340103
 20
10.5795598358
 30
0.0
 10
13.1930533598
 20
10.5789960689
 30
0.0
 10
13.191771117
 20
10.5785757347
 30
0.0
 10
13.1904943995
 20
10.5782997385
 30
0.0
 10
13.1892247779
 20
10.5781686966
 30
0.0
 10
13.1883818546
 20
10.5781783007
 30
0.0
 10
13.1879650327
 20
10.5782072092
 30
0.0
  0
SPLINE
  5
384
100
AcDbEntity
  8
0
100
AcDbSpline
 62
7
  6
CONTINUOUS
 70
0
 71
3
 72
22
 73
18
 74
0
 42
0.0000001
 43
0.0000001
 44
0.0000000001
 40
0.0
 40
0.0
 40
0.0
 40
0.0
 40
0.0567886359
 40
0.1127466395
 40
0.1682355623
 40
0.2236271701
 40
0.2792952325
 40
0.3356076821
 40
0.3929187709
 40
0.4515630769
 40
0.5739896271
 40
0.6383814293
 40
0.7051781484
 40
0.7745789125
 40
0.8467574506
 40
0.9218578566
 40
1.0
 40
1.0
 40
1.0
 40
1.0
 10
12.7225706943
 20
7.0573339928
 30
0.0
 10
12.7235546083
 20
7.0569861205
 30
0.0
 10
12.7255362123
 20
7.0563719629
 30
0.0
 10
12.7285578854
 20
7.0557018695
 30
0.0
 10
12.7316000929
 20
7.0552919386
 30
0.0
 10
12.7346607852
 20
7.0551425269
 30
0.0
 10
12.7377382196
 20
7.0552536358
 30
0.0
 10
12.740830528
 20
7.05562516
 30
0.0
 10
12.7439361737
 20
7.0562566611
 30
0.0
 10
12.7481517709
 20
7.0574612084
 30
0.0
 10
12.7523386696
 20
7.059186205
 30
0.0
 10
12.7564592744
 20
7.0613678075
 30
0.0
 10
12.7596087613
 20
7.0632877772
 30
0.0
 10
12.7627627635
 20
7.0654625325
 30
0.0
 10
12.7659203711
 20
7.0678912272
 30
0.0
 10
12.7690800419
 20
7.0705724223
 30
0.0
 10
12.7711451557
 20
7.0724885393
 30
0.0
 10
12.7721780141
 20
7.073486204
 30
0.0
  0
SPLINE
  5
385
100
AcDbEntity
  8
0
100
AcDbSpline
 62
7
  6
CONTINUOUS
 70
0
 71
3
 72
15
 73
11
 74
0
 42
0.0000001
 43
0.0000001
 44
0.0000000001
 40
0.0
 40
0.0
 40
0.0
 40
0.0
 40
0.1087314091
 40
0.2209523273
 40
0.3373377146
 40
0.4584836182
 40
0.584910516
 40
0.7170673461
 40
0.8553301567
 40
1.0
 40
1.0
 40
1.0
 40
1.0
 10
12.7319655239
 20
6.8251323017
 30
0.0
 10
12.7336426178
 20
6.8255242515
 30
0.0
 10
12.7370162422
 20
6.8264751227
 30
0.0
 10
12.7420243081
 20
6.828354011
 30
0.0
 10
12.747047542
 20
6.8307031238
 30
0.0
 10
12.752082679
 20
6.8335203076
 30
0.0
 10
12.7571273181
 20
6.8368034999
 30
0.0
 10
12.7621789471
 20
6.8405504977
 30
0.0
 10
12.7672346793
 20
6.8447587091
 30
0.0
 10
12.7705298105
 20
6.8477993564
 30
0.0
 10
12.7721780141
 20
6.849391399
 30
0.0
  0
SPLINE
  5
386
100
AcDbEntity
  8
0
100
AcDbSpline
 62
7
  6
CONTINUOUS
 70
0
 71
3
 72
39
 73
35
 74
0
 42
0.0000001
 43
0.0000001
 44
0.0000000001
 40
0.0
 40
0.0
 40
0.0
 40
0.0
 40
0.0234891441
 40
0.048384864
 40
0.0746266613
 40
0.1021463587
 40
0.1308690456
 40
0.1607138641
 40
0.1915946831
 40
0.223420698
 40
0.2560969771
 40
0.2895249723
 40
0.3236030044
 40
0.3582267318
 40
0.3932896062
 40
0.4286833219
 40
0.4642982585
 40
0.5000239212
 40
0.5357493788
 40
0.5713637014
 40
0.6067563971
 40
0.6418178499
 40
0.6764397599
 40
0.7105155866
 40
0.7439409972
 40
0.7766143231
 40
0.8084370283
 40
0.8393141953
 40
0.869155035
 40
0.8978734342
 40
0.925388555
 40
0.9516255095
 40
0.9765161467
 40
1.0
 40
1.0
 40
1.0
 40
1.0
 10
12.6940164257
 20
8.0257626432
 30
0.0
 10
12.6955378294
 20
8.0197679582
 30
0.0
 10
12.6984471421
 20
8.007361877
 30
0.0
 10
12.7023344632
 20
7.9880982244
 30
0.0
 10
12.7058621981
 20
7.9676877699
 30
0.0
 10
12.7090183825
 20
7.9461979822
 30
0.0
 10
12.7117923779
 20
7.9236995738
 30
0.0
 10
12.7141748134
 20
7.9002668159
 30
0.0
 10
12.7161576454
 20
7.8759771012
 30
0.0
 10
12.7177341739
 20
7.8509107179
 30
0.0
 10
12.7188990658
 20
7.8251505589
 30
0.0
 10
12.7196483688
 20
7.7987818419
 30
0.0
 10
12.7199795238
 20
7.7718918193
 30
0.0
 10
12.7198913704
 20
7.744569485
 30
0.0
 10
12.7193841503
 20
7.7169052756
 30
0.0
 10
12.7184595049
 20
7.6889907677
 30
0.0
 10
12.7171204689
 20
7.6609183725
 30
0.0
 10
12.71537146
 20
7.6327810273
 30
0.0
 10
12.7132182637
 20
7.6046718853
 30
0.0
 10
12.7106680139
 20
7.5766840058
 30
0.0
 10
12.7077291688
 20
7.5489100437
 30
0.0
 10
12.7044114835
 20
7.5214419409
 30
0.0
 10
12.7007259776
 20
7.4943706195
 30
0.0
 10
12.6966848998
 20
7.467785678
 30
0.0
 10
12.6923016878
 20
7.4417750917
 30
0.0
 10
12.6875909244
 20
7.4164249171
 30
0.0
 10
12.682568291
 20
7.391819002
 30
0.0
 10
12.6772505156
 20
7.3680387
 30
0.0
 10
12.6716553203
 20
7.3451625959
 30
0.0
 10
12.6658013579
 20
7.3232662197
 30
0.0
 10
12.6597081656
 20
7.3024218257
 30
0.0
 10
12.6533960406
 20
7.2826979689
 30
0.0
 10
12.6468861593
 20
7.2641598017
 30
0.0
 10
12.6422917215
 20
7.2522771869
 30
0.0
 10
12.6399571827
 20
7.246551489
 30
0.0
  0
SPLINE
  5
387
100
AcDbEntity
  8
0
100
AcDbSpline
 62
7
  6
CONTINUOUS
 70
0
 71
3
 72
53
 73
49
 74
0
 42
0.0000001
 43
0.0000001
 44
0.0000000001
 40
0.0
 40
0.0
 40
0.0
 40
0.0
 40
0.0094775918
 40
0.0194628614
 40
0.0299539455
 40
0.0409468432
 40
0.0524357275
 40
0.064413217
 40
0.0768704236
 40
0.0897972546
 40
0.1031824074
 40
0.1170135287
 40
0.1312773339
 40
0.1459595793
 40
0.1610452659
 40
0.1765185811
 40
0.2085607912
 40
0.2419472502
 40
0.2765291604
 40
0.3121499289
 40
0.3486463743
 40
0.3858498836
 40
0.4235875361
 40
0.4616831937
 40
0.4999585769
 40
0.5382343345
 40
0.5763311137
 40
0.6140706288
 40
0.6512767296
 40
0.6877764777
 40
0.7234012403
 40
0.7579878159
 40
0.7913795809
 40
0.8234276995
 40
0.8389041747
 40
0.8539931673
 40
0.8686788414
 40
0.8829461942
 40
0.8967809902
 40
0.9101699095
 40
0.9231006199
 40
0.9355617867
 40
0.9475433138
 40
0.9590363159
 40
0.970033372
 40
0.98052867
 40
0.9905181625
 40
1.0
 40
1.0
 40
1.0
 40
1.0
 10
12.7296180517
 20
8.1199945311
 30
0.0
 10
12.730897269
 20
8.1171290666
 30
0.0
 10
12.7334095586
 20
8.1111929643
 30
0.0
 10
12.7369618207
 20
8.1019314512
 30
0.0
 10
12.7403919716
 20
8.0920911353
 30
0.0
 10
12.7436956926
 20
8.0816843129
 30
0.0
 10
12.7468689004
 20
8.0707237774
 30
0.0
 10
12.7499075622
 20
8.0592231057
 30
0.0
 10
12.7528079258
 20
8.047196568
 30
0.0
 10
12.7555662958
 20
8.034659106
 30
0.0
 10
12.7581792231
 20
8.0216263207
 30
0.0
 10
12.7606434302
 20
8.0081144438
 30
0.0
 10
12.762955777
 20
7.9941403139
 30
0.0
 10
12.7651133944
 20
7.9797213637
 30
0.0
 10
12.767113553
 20
7.9648755638
 30
0.0
 10
12.7695959403
 20
7.9442968835
 30
0.0
 10
12.7722717792
 20
7.9176409823
 30
0.0
 10
12.7747844969
 20
7.8846200184
 30
0.0
 10
12.7766219654
 20
7.8503681212
 30
0.0
 10
12.7777747526
 20
7.815056333
 30
0.0
 10
12.7782368277
 20
7.7788608265
 30
0.0
 10
12.7780056968
 20
7.7419623219
 30
0.0
 10
12.7770823682
 20
7.7045450716
 30
0.0
 10
12.7754713533
 20
7.6667959505
 30
0.0
 10
12.7731806364
 20
7.6289035065
 30
0.0
 10
12.7702216384
 20
7.5910570112
 30
0.0
 10
12.7666091633
 20
7.5534455029
 30
0.0
 10
12.7623613137
 20
7.5162568338
 30
0.0
 10
12.7574994028
 20
7.4796767245
 30
0.0
 10
12.7520478506
 20
7.4438878187
 30
0.0
 10
12.7460340614
 20
7.4090687798
 30
0.0
 10
12.7394883212
 20
7.3753932813
 30
0.0
 10
12.7324435655
 20
7.3430294527
 30
0.0
 10
12.7261154636
 20
7.3169928007
 30
0.0
 10
12.7208174342
 20
7.2969492215
 30
0.0
 10
12.7167879966
 20
7.2825179986
 30
0.0
 10
12.7126614784
 20
7.2685311276
 30
0.0
 10
12.7084430655
 20
7.2550060344
 30
0.0
 10
12.704138025
 20
7.2419595903
 30
0.0
 10
12.6997517534
 20
7.2294080506
 30
0.0
 10
12.6952897777
 20
7.2173670379
 30
0.0
 10
12.6907576354
 20
7.2058515395
 30
0.0
 10
12.6861610574
 20
7.1948758477
 30
0.0
 10
12.6815057484
 20
7.1844535773
 30
0.0
 10
12.6767975341
 20
7.1745976383
 30
0.0
 10
12.6720422761
 20
7.1653201295
 30
0.0
 10
12.667245905
 20
7.1566326499
 30
0.0
 10
12.6639384897
 20
7.1510967633
 30
0.0
 10
12.662276076
 20
7.1484335906
 30
0.0
  0
SPLINE
  5
388
100
AcDbEntity
  8
0
100
AcDbSpline
 62
7
  6
CONTINUOUS
 70
0
 71
3
 72
83
 73
79
 74
0
 42
0.0000001
 43
0.0000001
 44
0.0000000001
 40
0.0
 40
0.0
 40
0.0
 40
0.0
 40
0.0028240071
 40
0.0056048684
 40
0.0083637285
 40
0.0111222771
 40
0.0139022164
 40
0.0167247034
 40
0.0196098839
 40
0.0225764926
 40
0.0288165089
 40
0.0321227062
 40
0.035567938
 40
0.0391623089
 40
0.0429144051
 40
0.0468315095
 40
0.0509196409
 40
0.0551837959
 40
0.0596280214
 40
0.0642555042
 40
0.0690687598
 40
0.0740695924
 40
0.0792592737
 40
0.0846385666
 40
0.0902077358
 40
0.0959667016
 40
0.1019149511
 40
0.1143752377
 40
0.1275790717
 40
0.141512175
 40
0.1561567091
 40
0.1714917157
 40
0.1874934854
 40
0.2041358697
 40
0.2213905264
 40
0.2392271271
 40
0.2576135256
 40
0.2765159358
 40
0.295899089
 40
0.3157263703
 40
0.3359599444
 40
0.3565608725
 40
0.3774892462
 40
0.3987043054
 40
0.4418270716
 40
0.4855910795
 40
0.5296509213
 40
0.5736582105
 40
0.6172650936
 40
0.6388110707
 40
0.6601285292
 40
0.6811757062
 40
0.7019115332
 40
0.7222957475
 40
0.7422890102
 40
0.7618530369
 40
0.7809507128
 40
0.7995462164
 40
0.8176051525
 40
0.8350947055
 40
0.8519838094
 40
0.868243308
 40
0.8838461513
 40
0.8987676252
 40
0.9129856434
 40
0.9264810831
 40
0.9392381885
 40
0.9512450938
 40
0.9569650575
 40
0.9624952091
 40
0.9678354917
 40
0.9729862869
 40
0.9779484323
 40
0.9827232681
 40
0.9873128739
 40
0.9917199401
 40
0.9959476931
 40
1.0
 40
1.0
 40
1.0
 40
1.0
 10
12.8019420593
 20
8.2018294017
 30
0.0
 10
12.8030470906
 20
8.2020549666
 30
0.0
 10
12.8052606273
 20
8.2024096645
 30
0.0
 10
12.8085971034
 20
8.202642222
 30
0.0
 10
12.8119151005
 20
8.2025697776
 30
0.0
 10
12.8152119152
 20
8.2021922792
 30
0.0
 10
12.8184852434
 20
8.2015099735
 30
0.0
 10
12.8217327969
 20
8.2005237484
 30
0.0
 10
12.8249526654
 20
8.1992343929
 30
0.0
 10
12.8292780554
 20
8.197077209
 30
0.0
 10
12.8334754507
 20
8.1943275903
 30
0.0
 10
12.8375188259
 20
8.1910732299
 30
0.0
 10
12.8405750894
 20
8.1882887701
 30
0.0
 10
12.8435939279
 20
8.1852100224
 30
0.0
 10
12.8465744867
 20
8.1818384057
 30
0.0
 10
12.8495151651
 20
8.1781757269
 30
0.0
 10
12.8524146828
 20
8.1742239274
 30
0.0
 10
12.8552715807
 20
8.1699850263
 30
0.0
 10
12.858084444
 20
8.1654612072
 30
0.0
 10
12.8608519173
 20
8.1606548276
 30
0.0
 10
12.8635725214
 20
8.1555683352
 30
0.0
 10
12.8662449304
 20
8.1502043929
 30
0.0
 10
12.8688677369
 20
8.144565771
 30
0.0
 10
12.8714395633
 20
8.1386553973
 30
0.0
 10
12.8739591163
 20
8.13247637
 30
0.0
 10
12.8764250395
 20
8.1260318859
 30
0.0
 10
12.8796903664
 20
8.1169487025
 30
0.0
 10
12.8836158682
 20
8.1049463288
 30
0.0
 10
12.8880228347
 20
8.0897562806
 30
0.0
 10
12.8921868407
 20
8.07359562
 30
0.0
 10
12.8960990366
 20
8.0564982432
 30
0.0
 10
12.8997510812
 20
8.038499844
 30
0.0
 10
12.9031351884
 20
8.019638174
 30
0.0
 10
12.906244131
 20
7.9999528319
 30
0.0
 10
12.9090712667
 20
7.9794851953
 30
0.0
 10
12.9116105486
 20
7.9582783229
 30
0.0
 10
12.9138565574
 20
7.9363768644
 30
0.0
 10
12.9158044991
 20
7.9138269564
 30
0.0
 10
12.9174502115
 20
7.8906761135
 30
0.0
 10
12.9187901722
 20
7.8669731269
 30
0.0
 10
12.91982151
 20
7.8427679614
 30
0.0
 10
12.9205420126
 20
7.8181116662
 30
0.0
 10
12.9209501644
 20
7.7930561951
 30
0.0
 10
12.9210772419
 20
7.7590031033
 30
0.0
 10
12.9204424077
 20
7.7158308014
 30
0.0
 10
12.9184440334
 20
7.6635685516
 30
0.0
 10
12.9152212876
 20
7.6110134419
 30
0.0
 10
12.9108012659
 20
7.5586086375
 30
0.0
 10
12.9061331017
 20
7.5152598061
 30
0.0
 10
12.9018214691
 20
7.4809958441
 30
0.0
 10
12.8983275189
 20
7.4557115886
 30
0.0
 10
12.8945680416
 20
7.4307926201
 30
0.0
 10
12.890550956
 20
7.4062914497
 30
0.0
 10
12.8862847682
 20
7.3822597551
 30
0.0
 10
12.8817784989
 20
7.3587482047
 30
0.0
 10
12.8770416951
 20
7.3358063601
 30
0.0
 10
12.8720843897
 20
7.3134825688
 30
0.0
 10
12.8669170838
 20
7.2918238678
 30
0.0
 10
12.8615507217
 20
7.270875881
 30
0.0
 10
12.8559966729
 20
7.2506827121
 30
0.0
 10
12.8502667183
 20
7.2312868421
 30
0.0
 10
12.8443730066
 20
7.2127290398
 30
0.0
 10
12.8383280331
 20
7.1950482778
 30
0.0
 10
12.8321446014
 20
7.178281627
 30
0.0
 10
12.8258358064
 20
7.162464188
 30
0.0
 10
12.8194149838
 20
7.1476288752
 30
0.0
 10
12.8128956879
 20
7.1338067505
 30
0.0
 10
12.8073054961
 20
7.1229879377
 30
0.0
 10
12.8027849721
 20
7.1148734123
 30
0.0
 10
12.7994334408
 20
7.1091572443
 30
0.0
 10
12.7960675597
 20
7.1037149991
 30
0.0
 10
12.7926890695
 20
7.0985495118
 30
0.0
 10
12.789299779
 20
7.0936634609
 30
0.0
 10
12.7859013566
 20
7.0890593965
 30
0.0
 10
12.7824955617
 20
7.0847396284
 30
0.0
 10
12.7790840299
 20
7.0807063951
 30
0.0
 10
12.7756687191
 20
7.0769619899
 30
0.0
 10
12.7733420283
 20
7.0746105554
 30
0.0
 10
12.7721780141
 20
7.073486204
 30
0.0
  0
SPLINE
  5
389
100
AcDbEntity
  8
0
100
AcDbSpline
 62
7
  6
CONTINUOUS
 70
0
 71
3
 72
83
 73
79
 74
0
 42
0.0000001
 43
0.0000001
 44
0.0000000001
 40
0.0
 40
0.0
 40
0.0
 40
0.0
 40
0.0028154665
 40
0.0057107619
 40
0.0087003814
 40
0.0117973176
 40
0.0150130932
 40
0.018357755
 40
0.0218400346
 40
0.0254674068
 40
0.0292462188
 40
0.0331818442
 40
0.0372787133
 40
0.0415405065
 40
0.0459701719
 40
0.0505700301
 40
0.0553418772
 40
0.060286963
 40
0.065406145
 40
0.0706998498
 40
0.0761681493
 40
0.0818108186
 40
0.0936163034
 40
0.1061094104
 40
0.119279022
 40
0.1331108633
 40
0.1475879075
 40
0.1626907063
 40
0.1783976498
 40
0.1946851817
 40
0.2115279755
 40
0.2288990926
 40
0.2467701334
 40
0.2651113639
 40
0.2838918314
 40
0.3030794684
 40
0.322641194
 40
0.3425430199
 40
0.362750146
 40
0.3832270515
 40
0.403937583
 40
0.4248450424
 40
0.4671011289
 40
0.5096949292
 40
0.5523223003
 40
0.5946788006
 40
0.6156612641
 40
0.6364631163
 40
0.6570474526
 40
0.6773778706
 40
0.6974185575
 40
0.717134379
 40
0.7364909779
 40
0.7554548676
 40
0.7739935248
 40
0.7920754892
 40
0.8096704686
 40
0.8267494593
 40
0.8432848711
 40
0.8592506538
 40
0.8746224462
 40
0.8893777472
 40
0.9034961238
 40
0.9169594568
 40
0.9297522213
 40
0.94186185
 40
0.9476577198
 40
0.9532797077
 40
0.9587272772
 40
0.9640002489
 40
0.9690987349
 40
0.9740232065
 40
0.978774544
 40
0.9833540464
 40
0.9877636435
 40
0.9920058021
 40
0.9960834408
 40
1.0
 40
1.0
 40
1.0
 40
1.0
 10
12.8432706825
 20
8.430522251
 30
0.0
 10
12.8447172597
 20
8.4299652711
 30
0.0
 10
12.8476066248
 20
8.4287157198
 30
0.0
 10
12.8518490094
 20
8.4264825158
 30
0.0
 10
12.8560516964
 20
8.4238688051
 30
0.0
 10
12.8602125134
 20
8.4208764368
 30
0.0
 10
12.8643297525
 20
8.4175070111
 30
0.0
 10
12.8684017729
 20
8.4137624479
 30
0.0
 10
12.8724268364
 20
8.4096445777
 30
0.0
 10
12.8764032774
 20
8.4051554423
 30
0.0
 10
12.8803294402
 20
8.4002972064
 30
0.0
 10
12.884203547
 20
8.3950721103
 30
0.0
 10
12.8880239821
 20
8.3894826574
 30
0.0
 10
12.8917889638
 20
8.383531414
 30
0.0
 10
12.895496814
 20
8.3772211768
 30
0.0
 10
12.8991458561
 20
8.3705549012
 30
0.0
 10
12.9027343371
 20
8.3635356817
 30
0.0
 10
12.9062606674
 20
8.3561668426
 30
0.0
 10
12.9097231282
 20
8.348451821
 30
0.0
 10
12.9131201139
 20
8.3403942664
 30
0.0
 10
12.9164500704
 20
8.3319979665
 30
0.0
 10
12.9208650381
 20
8.3201778444
 30
0.0
 10
12.926188854
 20
8.3045724329
 30
0.0
 10
12.932193093
 20
8.284833408
 30
0.0
 10
12.9378940941
 20
8.2638465989
 30
0.0
 10
12.9432809318
 20
8.2416517689
 30
0.0
 10
12.9483432612
 20
8.2182907501
 30
0.0
 10
12.9530713395
 20
8.1938077778
 30
0.0
 10
12.9574560596
 20
8.1682492548
 30
0.0
 10
12.9614889674
 20
8.14166369
 30
0.0
 10
12.9651622903
 20
8.1141015915
 30
0.0
 10
12.9684689558
 20
8.0856153642
 30
0.0
 10
12.9714025924
 20
8.0562591959
 30
0.0
 10
12.9739575456
 20
8.0260889457
 30
0.0
 10
12.9761288856
 20
7.9951620375
 30
0.0
 10
12.9779124218
 20
7.9635373526
 30
0.0
 10
12.979304718
 20
7.9312751148
 30
0.0
 10
12.9803030838
 20
7.898436771
 30
0.0
 10
12.9809055857
 20
7.8650848642
 30
0.0
 10
12.9811110356
 20
7.8312829368
 30
0.0
 10
12.9809190449
 20
7.7970953297
 30
0.0
 10
12.9801306852
 20
7.750922998
 30
0.0
 10
12.9781511325
 20
7.6927249897
 30
0.0
 10
12.9742257336
 20
7.6226447116
 30
0.0
 10
12.9687715199
 20
7.5526113748
 30
0.0
 10
12.9629693289
 20
7.4945539023
 30
0.0
 10
12.9575880865
 20
7.4485416002
 30
0.0
 10
12.9532118774
 20
7.414482741
 30
0.0
 10
12.9484913849
 20
7.380832379
 30
0.0
 10
12.9434355869
 20
7.3476545681
 30
0.0
 10
12.9380541494
 20
7.3150125202
 30
0.0
 10
12.9323573462
 20
7.2829684074
 30
0.0
 10
12.9263560664
 20
7.2515832569
 30
0.0
 10
12.9200617858
 20
7.2209168275
 30
0.0
 10
12.9134865393
 20
7.1910275007
 30
0.0
 10
12.9066429012
 20
7.1619721696
 30
0.0
 10
12.8995439577
 20
7.1338061269
 30
0.0
 10
12.8922032908
 20
7.1065829485
 30
0.0
 10
12.8846349538
 20
7.0803543854
 30
0.0
 10
12.8768534326
 20
7.0551702656
 30
0.0
 10
12.8688736213
 20
7.0310783992
 30
0.0
 10
12.8607107862
 20
7.0081244669
 30
0.0
 10
12.8523805391
 20
6.9863519462
 30
0.0
 10
12.8438987971
 20
6.9658018881
 30
0.0
 10
12.8352817571
 20
6.9465132423
 30
0.0
 10
12.8278978639
 20
6.9313060692
 30
0.0
 10
12.8219246255
 20
6.9198113347
 30
0.0
 10
12.8174866736
 20
6.9116543085
 30
0.0
 10
12.8130271807
 20
6.9038387971
 30
0.0
 10
12.8085482766
 20
6.8963684543
 30
0.0
 10
12.8040520503
 20
6.8892468165
 30
0.0
 10
12.799540611
 20
6.8824772545
 30
0.0
 10
12.7950161478
 20
6.8760629327
 30
0.0
 10
12.7904806806
 20
6.8700068822
 30
0.0
 10
12.7859363253
 20
6.8643118595
 30
0.0
 10
12.7813850688
 20
6.8589805201
 30
0.0
 10
12.7768292543
 20
6.854015609
 30
0.0
 10
12.7737289608
 20
6.8508894986
 30
0.0
 10
12.7721780141
 20
6.849391399
 30
0.0
  0
SPLINE
  5
38A
100
AcDbEntity
  8
0
100
AcDbSpline
 62
7
  6
CONTINUOUS
 70
0
 71
3
 72
88
 73
84
 74
0
 42
0.0000001
 43
0.0000001
 44
0.0000000001
 40
0.0
 40
0.0
 40
0.0
 40
0.0
 40
0.0027164206
 40
0.0054532135
 40
0.00823027
 40
0.0110665466
 40
0.0139797362
 40
0.0169860264
 40
0.0200999638
 40
0.0233344621
 40
0.0267007864
 40
0.030208716
 40
0.033866602
 40
0.0376815365
 40
0.0416594862
 40
0.0458053757
 40
0.0501232805
 40
0.0546164357
 40
0.0592874172
 40
0.0641381604
 40
0.0691700473
 40
0.0743839976
 40
0.0797804461
 40
0.085359486
 40
0.0911208072
 40
0.097063806
 40
0.1031875785
 40
0.1094909314
 40
0.1226301057
 40
0.1364676988
 40
0.1509864378
 40
0.1661662591
 40
0.1819846247
 40
0.1984167804
 40
0.2154359739
 40
0.2330136371
 40
0.2511195505
 40
0.2697219952
 40
0.2887878869
 40
0.3082829001
 40
0.3281715858
 40
0.3484174815
 40
0.3689832185
 40
0.3898306305
 40
0.410920857
 40
0.4322144439
 40
0.4536714439
 40
0.4969133241
 40
0.5403214886
 40
0.5835686279
 40
0.6050302166
 40
0.6263296837
 40
0.6474270673
 40
0.6682828961
 40
0.6888582896
 40
0.7091150586
 40
0.7290158075
 40
0.7485240405
 40
0.7676042737
 40
0.7862221443
 40
0.8043445271
 40
0.8219396585
 40
0.8389772699
 40
0.8554287349
 40
0.8712672375
 40
0.8864679574
 40
0.9010082824
 40
0.9148680665
 40
0.9280299429
 40
0.9343448017
 40
0.9404801679
 40
0.9464348204
 40
0.9522078552
 40
0.9577986253
 40
0.9632068219
 40
0.9684325067
 40
0.9734760906
 40
0.9783384494
 40
0.9830208978
 40
0.9875254123
 40
0.9918545974
 40
0.9960115688
 40
1.0
 40
1.0
 40
1.0
 40
1.0
 10
12.8589188661
 20
8.4318163745
 30
0.0
 10
12.860425033
 20
8.4317119265
 30
0.0
 10
12.863440948
 20
8.4313659095
 30
0.0
 10
12.8679264409
 20
8.4304400552
 30
0.0
 10
12.8723780141
 20
8.4291073743
 30
0.0
 10
12.8767925342
 20
8.4273692897
 30
0.0
 10
12.8811676944
 20
8.425227268
 30
0.0
 10
12.885501248
 20
8.4226829969
 30
0.0
 10
12.8897912393
 20
8.4197383382
 30
0.0
 10
12.8940356874
 20
8.4163950671
 30
0.0
 10
12.8982328476
 20
8.4126552377
 30
0.0
 10
12.9023808297
 20
8.4085208093
 30
0.0
 10
12.906477873
 20
8.4039939894
 30
0.0
 10
12.9105221538
 20
8.3990770625
 30
0.0
 10
12.9145118
 20
8.3937724568
 30
0.0
 10
12.9184450456
 20
8.3880828374
 30
0.0
 10
12.9223199504
 20
8.3820109543
 30
0.0
 10
12.9261347548
 20
8.3755598412
 30
0.0
 10
12.9298875584
 20
8.3687326465
 30
0.0
 10
12.933576554
 20
8.3615327521
 30
0.0
 10
12.9371999519
 20
8.3539637245
 30
0.0
 10
12.9407559047
 20
8.3460292989
 30
0.0
 10
12.944242725
 20
8.3377334392
 30
0.0
 10
12.9476585957
 20
8.329080253
 30
0.0
 10
12.9510018733
 20
8.3200740688
 30
0.0
 10
12.9542708441
 20
8.3107193779
 30
0.0
 10
12.9574638952
 20
8.3010208426
 30
0.0
 10
12.9616762582
 20
8.2874492267
 30
0.0
 10
12.9667254926
 20
8.2696513171
 30
0.0
 10
12.9723764758
 20
8.2472883109
 30
0.0
 10
12.9776886488
 20
8.2236786466
 30
0.0
 10
12.9826512408
 20
8.1988696591
 30
0.0
 10
12.9872541511
 20
8.1729108938
 30
0.0
 10
12.9914880135
 20
8.1458543509
 30
0.0
 10
12.9953442064
 20
8.1177542651
 30
0.0
 10
12.99881488
 20
8.0886670183
 30
0.0
 10
13.0018929726
 20
8.0586510083
 30
0.0
 10
13.0045722188
 20
8.0277665245
 30
0.0
 10
13.0068471632
 20
7.996075619
 30
0.0
 10
13.0087131709
 20
7.963641979
 30
0.0
 10
13.0101664352
 20
7.9305307969
 30
0.0
 10
13.0112039865
 20
7.896808639
 30
0.0
 10
13.011823702
 20
7.8625433113
 30
0.0
 10
13.0120243065
 20
7.8278037132
 30
0.0
 10
13.011805361
 20
7.7926597209
 30
0.0
 10
13.0111673155
 20
7.7571819519
 30
0.0
 10
13.0097557268
 20
7.709407401
 30
0.0
 10
13.0069529078
 20
7.6493813725
 30
0.0
 10
13.0019705899
 20
7.5773510511
 30
0.0
 10
12.9964819539
 20
7.5175053136
 30
0.0
 10
12.9913019718
 20
7.4699826484
 30
0.0
 10
12.9870486951
 20
7.43474511
 30
0.0
 10
12.9824261146
 20
7.3998937383
 30
0.0
 10
12.9774435095
 20
7.3654985639
 30
0.0
 10
12.9721109377
 20
7.3316287645
 30
0.0
 10
12.966439151
 20
7.2983524389
 30
0.0
 10
12.9604395912
 20
7.2657364921
 30
0.0
 10
12.9541243622
 20
7.233846491
 30
0.0
 10
12.9475062141
 20
7.2027465292
 30
0.0
 10
12.9405985103
 20
7.1724990975
 30
0.0
 10
12.9334152014
 20
7.1431649567
 30
0.0
 10
12.9259707977
 20
7.114803014
 30
0.0
 10
12.9182803402
 20
7.0874701985
 30
0.0
 10
12.9103593671
 20
7.0612213415
 30
0.0
 10
12.902223888
 20
7.0361090446
 30
0.0
 10
12.8938903458
 20
7.0121835942
 30
0.0
 10
12.8853755727
 20
6.9894927453
 30
0.0
 10
12.876696758
 20
6.9680819742
 30
0.0
 10
12.8692430645
 20
6.9511154482
 30
0.0
 10
12.863200557
 20
6.9382257272
 30
0.0
 10
12.8587011906
 20
6.9290383646
 30
0.0
 10
12.8541739255
 20
6.9202017533
 30
0.0
 10
12.849621056
 20
6.9117202827
 30
0.0
 10
12.8450448394
 20
6.9035981971
 30
0.0
 10
12.8404475529
 20
6.8958395446
 30
0.0
 10
12.8358315212
 20
6.8884481669
 30
0.0
 10
12.8311989737
 20
6.8814277762
 30
0.0
 10
12.8265523025
 20
6.8747818286
 30
0.0
 10
12.8218937191
 20
6.8685136346
 30
0.0
 10
12.8172254968
 20
6.8626262314
 30
0.0
 10
12.8125498093
 20
6.857122484
 30
0.0
 10
12.8078691476
 20
6.8520053802
 30
0.0
 10
12.8046820626
 20
6.8487878999
 30
0.0
 10
12.8030876431
 20
6.847247809
 30
0.0
  0
SPLINE
  5
38B
100
AcDbEntity
  8
0
100
AcDbSpline
 62
7
  6
CONTINUOUS
 70
0
 71
3
 72
23
 73
19
 74
0
 42
0.0000001
 43
0.0000001
 44
0.0000000001
 40
0.0
 40
0.0
 40
0.0
 40
0.0
 40
0.0567841754
 40
0.112737821
 40
0.1682225433
 40
0.2236100128
 40
0.2792739923
 40
0.3355823033
 40
0.3928892562
 40
0.4515292417
 40
0.5118125145
 40
0.5740210358
 40
0.6384083109
 40
0.7052001574
 40
0.774595548
 40
0.8467682812
 40
0.9218631473
 40
1.0
 40
1.0
 40
1.0
 40
1.0
 10
12.7117872465
 20
8.8359555392
 30
0.0
 10
12.7129850387
 20
8.8355320593
 30
0.0
 10
12.7153974019
 20
8.8347844434
 30
0.0
 10
12.7190759229
 20
8.8339687817
 30
0.0
 10
12.7227794284
 20
8.8334697527
 30
0.0
 10
12.7265054497
 20
8.8332879381
 30
0.0
 10
12.7302518346
 20
8.8334232541
 30
0.0
 10
12.7340163758
 20
8.8338755696
 30
0.0
 10
12.7377969776
 20
8.8346443408
 30
0.0
 10
12.7415917008
 20
8.8357287668
 30
0.0
 10
12.7453986721
 20
8.8371280629
 30
0.0
 10
12.7492162031
 20
8.8388410899
 30
0.0
 10
12.7530426554
 20
8.8408667703
 30
0.0
 10
12.7568764476
 20
8.8432040049
 30
0.0
 10
12.7607161263
 20
8.8458515344
 30
0.0
 10
12.7645600896
 20
8.8488081498
 30
0.0
 10
12.768406602
 20
8.8520721845
 30
0.0
 10
12.7709206283
 20
8.8544048301
 30
0.0
 10
12.7721780141
 20
8.8556193716
 30
0.0
  0
SPLINE
  5
38C
100
AcDbEntity
  8
0
100
AcDbSpline
 62
7
  6
CONTINUOUS
 70
0
 71
3
 72
15
 73
11
 74
0
 42
0.0000001
 43
0.0000001
 44
0.0000000001
 40
0.0
 40
0.0
 40
0.0
 40
0.0
 40
0.1083462386
 40
0.2201054573
 40
0.3360642799
 40
0.4569151511
 40
0.5832598837
 40
0.715614819
 40
0.8544134803
 40
1.0
 40
1.0
 40
1.0
 40
1.0
 10
12.7216232938
 20
8.571591095
 30
0.0
 10
12.7237272259
 20
8.5719977652
 30
0.0
 10
12.7279635491
 20
8.5730321958
 30
0.0
 10
12.7342585681
 20
8.5751904784
 30
0.0
 10
12.740574463
 20
8.5779732442
 30
0.0
 10
12.7469066892
 20
8.5813771967
 30
0.0
 10
12.7532518285
 20
8.5853994838
 30
0.0
 10
12.759606484
 20
8.5900369337
 30
0.0
 10
12.7659667173
 20
8.5952860293
 30
0.0
 10
12.7701069827
 20
8.5990974384
 30
0.0
 10
12.7721780141
 20
8.6010979013
 30
0.0
  0
SPLINE
  5
38D
100
AcDbEntity
  8
0
100
AcDbSpline
 62
7
  6
CONTINUOUS
 70
0
 71
3
 72
53
 73
49
 74
0
 42
0.0000001
 43
0.0000001
 44
0.0000000001
 40
0.0
 40
0.0
 40
0.0
 40
0.0
 40
0.0098686345
 40
0.0202203048
 40
0.0310513766
 40
0.042356498
 40
0.0541289408
 40
0.0663606535
 40
0.0790424161
 40
0.0921640032
 40
0.1057141566
 40
0.119680808
 40
0.1340510214
 40
0.1488111274
 40
0.1639467736
 40
0.1794429102
 40
0.211453083
 40
0.2447107146
 40
0.2790764032
 40
0.3144040336
 40
0.3505418139
 40
0.3873332642
 40
0.4246181748
 40
0.4622335546
 40
0.5000145653
 40
0.5377954463
 40
0.5754104367
 40
0.612694698
 40
0.6494852448
 40
0.6856218767
 40
0.7209481195
 40
0.755312186
 40
0.7885679657
 40
0.8205760677
 40
0.836071108
 40
0.8512055851
 40
0.865964504
 40
0.8803334629
 40
0.8942988276
 40
0.907847662
 40
0.9209678715
 40
0.9336482556
 40
0.9458785262
 40
0.957649522
 40
0.9689531666
 40
0.979782731
 40
0.9901329085
 40
1.0
 40
1.0
 40
1.0
 40
1.0
 10
12.7011612465
 20
10.08509679
 30
0.0
 10
12.7025284057
 20
10.0816968256
 30
0.0
 10
12.7052123195
 20
10.0746828648
 30
0.0
 10
12.7090107566
 20
10.0637945713
 30
0.0
 10
12.7126738706
 20
10.0522989095
 30
0.0
 10
12.7161973961
 20
10.0402093549
 30
0.0
 10
12.7195771687
 20
10.0275398715
 30
0.0
 10
12.7228092257
 20
10.0143051961
 30
0.0
 10
12.7258897892
 20
10.0005207273
 30
0.0
 10
12.7288151808
 20
9.9862025235
 30
0.0
 10
12.7315820161
 20
9.9713672844
 30
0.0
 10
12.7341869812
 20
9.9560323229
 30
0.0
 10
12.7366270386
 20
9.9402155441
 30
0.0
 10
12.7388993046
 20
9.923935431
 30
0.0
 10
12.741001104
 20
9.907210988
 30
0.0
 10
12.7436009582
 20
9.8840951975
 30
0.0
 10
12.7463916543
 20
9.8542318846
 30
0.0
 10
12.7489919076
 20
9.8173233442
 30
0.0
 10
12.7508659819
 20
9.779137533
 30
0.0
 10
12.7520048848
 20
9.7398530295
 30
0.0
 10
12.7524030332
 20
9.6996533791
 30
0.0
 10
12.7520583828
 20
9.6587265309
 30
0.0
 10
12.7509724103
 20
9.6172638552
 30
0.0
 10
12.7491501048
 20
9.5754592591
 30
0.0
 10
12.7465999353
 20
9.5335082607
 30
0.0
 10
12.7433338109
 20
9.4916070684
 30
0.0
 10
12.7393670229
 20
9.4499516565
 30
0.0
 10
12.7347181743
 20
9.4087368388
 30
0.0
 10
12.7294091021
 20
9.3681553486
 30
0.0
 10
12.7234647687
 20
9.3283969201
 30
0.0
 10
12.7169131438
 20
9.2896474144
 30
0.0
 10
12.7097850937
 20
9.2520878454
 30
0.0
 10
12.7021141822
 20
9.2158938337
 30
0.0
 10
12.6952272941
 20
9.1867036909
 30
0.0
 10
12.6894610235
 20
9.1641698443
 30
0.0
 10
12.6850703914
 20
9.1478970545
 30
0.0
 10
12.6805723195
 20
9.1320879258
 30
0.0
 10
12.6759719993
 20
9.1167609195
 30
0.0
 10
12.6712748917
 20
9.1019339347
 30
0.0
 10
12.6664864713
 20
9.0876242842
 30
0.0
 10
12.6616123651
 20
9.0738486629
 30
0.0
 10
12.6566583163
 20
9.0606231259
 30
0.0
 10
12.6516300827
 20
9.0479630894
 30
0.0
 10
12.6465336193
 20
9.0358832622
 30
0.0
 10
12.6413748409
 20
9.0243976995
 30
0.0
 10
12.636159783
 20
9.0135196617
 30
0.0
 10
12.630894611
 20
9.0032618774
 30
0.0
 10
12.62726808
 20
8.9966868951
 30
0.0
 10
12.6254446493
 20
8.9935088794
 30
0.0
  0
SPLINE
  5
38E
100
AcDbEntity
  8
0
100
AcDbSpline
 62
7
  6
CONTINUOUS
 70
0
 71
3
 72
59
 73
55
 74
0
 42
0.0000001
 43
0.0000001
 44
0.0000000001
 40
0.0
 40
0.0
 40
0.0
 40
0.0
 40
0.0083834404
 40
0.0173312818
 40
0.0268506013
 40
0.036944177
 40
0.0476111762
 40
0.0588477797
 40
0.0706476007
 40
0.0830019751
 40
0.0959002974
 40
0.1093302399
 40
0.1232778751
 40
0.1377278739
 40
0.1526636477
 40
0.1680674036
 40
0.1839202675
 40
0.2002023972
 40
0.2168930152
 40
0.2339704861
 40
0.2514124166
 40
0.2691956875
 40
0.3056898796
 40
0.343256523
 40
0.3816904318
 40
0.4207801275
 40
0.460309433
 40
0.5000590418
 40
0.539808097
 40
0.5793357445
 40
0.6184226967
 40
0.6568527846
 40
0.6944145625
 40
0.7309028916
 40
0.7486828555
 40
0.76612125
 40
0.783194967
 40
0.7998815962
 40
0.8161595252
 40
0.8320080007
 40
0.8474071614
 40
0.8623381494
 40
0.8767832101
 40
0.890725739
 40
0.9041504133
 40
0.917043358
 40
0.9293922375
 40
0.9411864448
 40
0.952417381
 40
0.9630786639
 40
0.9731664725
 40
0.9826800693
 40
0.9916222056
 40
1.0
 40
1.0
 40
1.0
 40
1.0
 10
12.7370952639
 20
10.1610445417
 30
0.0
 10
12.7389633069
 20
10.1579830214
 30
0.0
 10
12.7426367749
 20
10.1515376899
 30
0.0
 10
12.7478154116
 20
10.1412802058
 30
0.0
 10
12.7528330635
 20
10.1301357668
 30
0.0
 10
12.7576823056
 20
10.1181207599
 30
0.0
 10
12.7623562225
 20
10.1052523618
 30
0.0
 10
12.766847925
 20
10.0915492733
 30
0.0
 10
12.7711507578
 20
10.0770314568
 30
0.0
 10
12.7752583587
 20
10.0617201828
 30
0.0
 10
12.7791646089
 20
10.0456379337
 30
0.0
 10
12.7828636534
 20
10.0288083712
 30
0.0
 10
12.7863499884
 20
10.011256311
 30
0.0
 10
12.7896184095
 20
9.9930076625
 30
0.0
 10
12.7926640062
 20
9.9740893804
 30
0.0
 10
12.7954822355
 20
9.9545294372
 30
0.0
 10
12.7980688962
 20
9.9343567708
 30
0.0
 10
12.8004201004
 20
9.9136012314
 30
0.0
 10
12.802532335
 20
9.8922935439
 30
0.0
 10
12.8044024504
 20
9.8704652714
 30
0.0
 10
12.806027668
 20
9.8481487117
 30
0.0
 10
12.8078806447
 20
9.8175225586
 30
0.0
 10
12.8095532388
 20
9.7782635268
 30
0.0
 10
12.8105383927
 20
9.7301448312
 30
0.0
 10
12.8105120023
 20
9.680905782
 30
0.0
 10
12.8094739884
 20
9.6308380741
 30
0.0
 10
12.8074302528
 20
9.580238103
 30
0.0
 10
12.8043928141
 20
9.5294055256
 30
0.0
 10
12.8003795968
 20
9.4786413764
 30
0.0
 10
12.7954144102
 20
9.4282462755
 30
0.0
 10
12.7895267922
 20
9.3785186518
 30
0.0
 10
12.7827517896
 20
9.3297528581
 30
0.0
 10
12.7751297861
 20
9.2822377503
 30
0.0
 10
12.7680507138
 20
9.2435921271
 30
0.0
 10
12.7619853843
 20
9.2135209938
 30
0.0
 10
12.7572934332
 20
9.1916474271
 30
0.0
 10
12.7524264142
 20
9.170291595
 30
0.0
 10
12.7473915076
 20
9.1494851045
 30
0.0
 10
12.7421962138
 20
9.1292587664
 30
0.0
 10
12.7368482721
 20
9.1096425119
 30
0.0
 10
12.7313556222
 20
9.0906653719
 30
0.0
 10
12.7257264287
 20
9.0723554143
 30
0.0
 10
12.7199690859
 20
9.0547396943
 30
0.0
 10
12.7140921473
 20
9.0378442338
 30
0.0
 10
12.708104336
 20
9.0216939681
 30
0.0
 10
12.7020145752
 20
9.0063126844
 30
0.0
 10
12.6958319037
 20
8.9917230104
 30
0.0
 10
12.6895654605
 20
8.9779463692
 30
0.0
 10
12.6832245352
 20
8.9650029108
 30
0.0
 10
12.6768184598
 20
8.9529114827
 30
0.0
 10
12.6703566005
 20
8.9416896571
 30
0.0
 10
12.6638482133
 20
8.9313534764
 30
0.0
 10
12.6573029615
 20
8.9219181005
 30
0.0
 10
12.6527747365
 20
8.916047841
 30
0.0
 10
12.6505019025
 20
8.9132766684
 30
0.0
  0
SPLINE
  5
38F
100
AcDbEntity
  8
0
100
AcDbSpline
 62
7
  6
CONTINUOUS
 70
0
 71
3
 72
87
 73
83
 74
0
 42
0.0000001
 43
0.0000001
 44
0.0000000001
 40
0.0
 40
0.0
 40
0.0
 40
0.0
 40
0.0028239942
 40
0.0056048445
 40
0.0083636962
 40
0.0111222378
 40
0.01390217
 40
0.0167246525
 40
0.0196098328
 40
0.0225764343
 40
0.0288164522
 40
0.0321226495
 40
0.0355678882
 40
0.0391622485
 40
0.0429143591
 40
0.0468314546
 40
0.050919587
 40
0.0551837504
 40
0.0596279604
 40
0.0642554598
 40
0.0690687021
 40
0.0740695346
 40
0.0792592221
 40
0.0846384952
 40
0.0902076793
 40
0.0959666272
 40
0.1019148744
 40
0.1080515935
 40
0.1143756437
 40
0.1275794666
 40
0.1415125616
 40
0.1561570746
 40
0.1714920476
 40
0.1874937827
 40
0.2041361374
 40
0.221390767
 40
0.23922733
 40
0.2576136833
 40
0.2765160472
 40
0.295899155
 40
0.3157263905
 40
0.3359599127
 40
0.3565607859
 40
0.3774891036
 40
0.3987041054
 40
0.4201642902
 40
0.4418275268
 40
0.4855914085
 40
0.5296511184
 40
0.5736582741
 40
0.5955336938
 40
0.6172657697
 40
0.6388116803
 40
0.6601290746
 40
0.6811761839
 40
0.7019119398
 40
0.7222960846
 40
0.7422892861
 40
0.7618532552
 40
0.7809508685
 40
0.7995463034
 40
0.8176051751
 40
0.8350946756
 40
0.8519837311
 40
0.868243177
 40
0.8838459601
 40
0.8987673803
 40
0.9129853566
 40
0.9264807582
 40
0.9392378224
 40
0.9453358596
 40
0.9512452468
 40
0.9569651966
 40
0.9624953221
 40
0.9678355908
 40
0.9729863682
 40
0.9779485065
 40
0.9827233343
 40
0.9873129112
 40
0.9917199427
 40
0.9959476808
 40
1.0
 40
1.0
 40
1.0
 40
1.0
 10
12.8084128425
 20
10.2292546407
 30
0.0
 10
12.8097580961
 20
10.2295292356
 30
0.0
 10
12.8124528355
 20
10.2299610226
 30
0.0
 10
12.8165146286
 20
10.2302440807
 30
0.0
 10
12.8205539272
 20
10.2301559003
 30
0.0
 10
12.824567431
 20
10.2296962594
 30
0.0
 10
12.8285523511
 20
10.228865628
 30
0.0
 10
12.8325058922
 20
10.2276649777
 30
0.0
 10
12.8364257136
 20
10.2260952733
 30
0.0
 10
12.8416914232
 20
10.2234691469
 30
0.0
 10
12.8468012677
 20
10.2201217175
 30
0.0
 10
12.8517236431
 20
10.2161598643
 30
0.0
 10
12.8554442802
 20
10.2127700384
 30
0.0
 10
12.8591194237
 20
10.2090220082
 30
0.0
 10
12.8627478786
 20
10.2049173711
 30
0.0
 10
12.8663278607
 20
10.2004584585
 30
0.0
 10
12.8698576975
 20
10.195647545
 30
0.0
 10
12.8733356309
 20
10.1904871108
 30
0.0
 10
12.8767600232
 20
10.184979852
 30
0.0
 10
12.8801290672
 20
10.1791285644
 30
0.0
 10
12.8834411346
 20
10.1729363078
 30
0.0
 10
12.886694488
 20
10.166406268
 30
0.0
 10
12.8898874441
 20
10.1595418347
 30
0.0
 10
12.8930183949
 20
10.1523465909
 30
0.0
 10
12.8960856317
 20
10.1448242653
 30
0.0
 10
12.8990876295
 20
10.136978806
 30
0.0
 10
12.9020227497
 20
10.1288143048
 30
0.0
 10
12.9048894993
 20
10.1203350313
 30
0.0
 10
12.908673099
 20
10.1084440909
 30
0.0
 10
12.9132066495
 20
10.0928169879
 30
0.0
 10
12.9182758678
 20
10.0731432808
 30
0.0
 10
12.9230385234
 20
10.0523290092
 30
0.0
 10
12.927484486
 20
10.0304179184
 30
0.0
 10
12.9316042603
 20
10.007455872
 30
0.0
 10
12.9353890467
 20
9.9834910937
 30
0.0
 10
12.938830757
 20
9.9585739541
 30
0.0
 10
12.9419220452
 20
9.9327568829
 30
0.0
 10
12.9446563093
 20
9.9060942367
 30
0.0
 10
12.9470277081
 20
9.8786421756
 30
0.0
 10
12.9490311726
 20
9.8504585402
 30
0.0
 10
12.9506624146
 20
9.8216027304
 30
0.0
 10
12.9519179455
 20
9.7921355787
 30
0.0
 10
12.9527950773
 20
9.7621192196
 30
0.0
 10
12.953291926
 20
9.7316169466
 30
0.0
 10
12.9534074032
 20
9.7006930998
 30
0.0
 10
12.953141269
 20
9.6694128444
 30
0.0
 10
12.9522752561
 20
9.6271773067
 30
0.0
 10
12.9502409134
 20
9.5739796664
 30
0.0
 10
12.9463175927
 20
9.5099999722
 30
0.0
 10
12.9418248585
 20
9.4567312395
 30
0.0
 10
12.937506584
 20
9.4143526713
 30
0.0
 10
12.9339259358
 20
9.3828780944
 30
0.0
 10
12.9300047484
 20
9.351717578
 30
0.0
 10
12.9257512716
 20
9.3209367954
 30
0.0
 10
12.9211745067
 20
9.2906006798
 30
0.0
 10
12.9162841369
 20
9.2607732013
 30
0.0
 10
12.9110905122
 20
9.231517254
 30
0.0
 10
12.9056046246
 20
9.2028945193
 30
0.0
 10
12.8998380873
 20
9.1749653371
 30
0.0
 10
12.8938031074
 20
9.1477885744
 30
0.0
 10
12.8875124689
 20
9.1214214934
 30
0.0
 10
12.8809795048
 20
9.0959196258
 30
0.0
 10
12.8742180615
 20
9.0713366567
 30
0.0
 10
12.8672424718
 20
9.0477243079
 30
0.0
 10
12.8600675231
 20
9.0251322242
 30
0.0
 10
12.852708421
 20
9.0036078436
 30
0.0
 10
12.8451807676
 20
8.983196311
 30
0.0
 10
12.8375005
 20
8.9639402546
 30
0.0
 10
12.8296838665
 20
8.9458800839
 30
0.0
 10
12.8229730293
 20
8.9316513585
 30
0.0
 10
12.8175378935
 20
8.9209070144
 30
0.0
 10
12.8134991238
 20
8.9132923648
 30
0.0
 10
12.8094386191
 20
8.9060037505
 30
0.0
 10
12.8053585105
 20
8.899044955
 30
0.0
 10
12.8012609287
 20
8.8924196116
 30
0.0
 10
12.7971479777
 20
8.886131199
 30
0.0
 10
12.7930218805
 20
8.8801829647
 30
0.0
 10
12.788884677
 20
8.8745780182
 30
0.0
 10
12.7847384988
 20
8.8693191887
 30
0.0
 10
12.7805853527
 20
8.8644091764
 30
0.0
 10
12.7764275834
 20
8.8598507743
 30
0.0
 10
12.7735950825
 20
8.8569881546
 30
0.0
 10
12.7721780141
 20
8.8556193716
 30
0.0
  0
SPLINE
  5
390
100
AcDbEntity
  8
0
100
AcDbSpline
 62
7
  6
CONTINUOUS
 70
0
 71
3
 72
89
 73
85
 74
0
 42
0.0000001
 43
0.0000001
 44
0.0000000001
 40
0.0
 40
0.0
 40
0.0
 40
0.0
 40
0.0027802337
 40
0.0056304379
 40
0.0085662747
 40
0.01160193
 40
0.0147500626
 40
0.0180218051
 40
0.021426881
 40
0.0249736417
 40
0.0286692545
 40
0.0325197619
 40
0.036530235
 40
0.0407048807
 40
0.045047105
 40
0.0495596685
 40
0.0542446772
 40
0.0591037367
 40
0.0641379438
 40
0.0693479703
 40
0.0747341147
 40
0.0802962921
 40
0.086034145
 40
0.0919469793
 40
0.0980338751
 40
0.1042936471
 40
0.117325641
 40
0.1310297265
 40
0.1453893499
 40
0.1603854069
 40
0.1759965227
 40
0.1921992818
 40
0.2089684229
 40
0.2262770116
 40
0.2440965889
 40
0.2623973039
 40
0.2811480362
 40
0.3003165084
 40
0.3198693903
 40
0.3397724029
 40
0.3599904185
 40
0.3804875556
 40
0.4012272721
 40
0.422172457
 40
0.4432855204
 40
0.4645284825
 40
0.5072501327
 40
0.5500298438
 40
0.5713452538
 40
0.5925595108
 40
0.6136344028
 40
0.6345320398
 40
0.6552149427
 40
0.6756461327
 40
0.6957892225
 40
0.7156085076
 40
0.7350690619
 40
0.7541368353
 40
0.7727787511
 40
0.7909628083
 40
0.8086581898
 40
0.8258353771
 40
0.8424662751
 40
0.8585243518
 40
0.8739847917
 40
0.8888246675
 40
0.9030231438
 40
0.9165617195
 40
0.9230786459
 40
0.9294248943
 40
0.9355989331
 40
0.9415994923
 40
0.9474254902
 40
0.9530761332
 40
0.9585508845
 40
0.963849511
 40
0.9689721404
 40
0.9739192238
 40
0.9786916487
 40
0.9832907156
 40
0.9877183347
 40
0.9919770137
 40
0.9960697374
 40
1.0
 40
1.0
 40
1.0
 40
1.0
 10
12.8536096863
 20
10.4900755967
 30
0.0
 10
12.8553517684
 20
10.4895121227
 30
0.0
 10
12.8588333573
 20
10.4882222921
 30
0.0
 10
12.8639557224
 20
10.485846023
 30
0.0
 10
12.8690317514
 20
10.4830094511
 30
0.0
 10
12.8740586288
 20
10.4797146553
 30
0.0
 10
12.8790342959
 20
10.4759636132
 30
0.0
 10
12.8839566964
 20
10.4717585447
 30
0.0
 10
12.8888237023
 20
10.4671015871
 30
0.0
 10
12.8936333762
 20
10.4619951917
 30
0.0
 10
12.8983835926
 20
10.4564417859
 30
0.0
 10
12.9030723502
 20
10.4504440786
 30
0.0
 10
12.9076975782
 20
10.4440049073
 30
0.0
 10
12.9122571678
 20
10.4371272952
 30
0.0
 10
12.916749122
 20
10.4298145214
 30
0.0
 10
12.9211712792
 20
10.422069991
 30
0.0
 10
12.9255216784
 20
10.4138974041
 30
0.0
 10
12.9297982076
 20
10.405300599
 30
0.0
 10
12.9339988876
 20
10.3962836693
 30
0.0
 10
12.9381217289
 20
10.3868508985
 30
0.0
 10
12.9421647272
 20
10.3770067681
 30
0.0
 10
12.9461260197
 20
10.3667559892
 30
0.0
 10
12.950003629
 20
10.3561034378
 30
0.0
 10
12.9537957629
 20
10.3450542279
 30
0.0
 10
12.9575005762
 20
10.3336136218
 30
0.0
 10
12.9623871274
 20
10.3176299677
 30
0.0
 10
12.9682477993
 20
10.2967018994
 30
0.0
 10
12.9748140451
 20
10.2704434968
 30
0.0
 10
12.980991981
 20
10.242764424
 30
0.0
 10
12.9867696137
 20
10.2137178137
 30
0.0
 10
12.99213569
 20
10.1833592139
 30
0.0
 10
12.9970797623
 20
10.1517468548
 30
0.0
 10
13.0015922046
 20
10.1189414104
 30
0.0
 10
13.0056642296
 20
10.0850058987
 30
0.0
 10
13.0092879068
 20
10.0500055405
 30
0.0
 10
13.0124561778
 20
10.0140076307
 30
0.0
 10
13.0151628692
 20
9.9770814032
 30
0.0
 10
13.0174027033
 20
9.9392978961
 30
0.0
 10
13.0191713122
 20
9.9007298129
 30
0.0
 10
13.0204652446
 20
9.8614513794
 30
0.0
 10
13.021281968
 20
9.821538196
 30
0.0
 10
13.0216198736
 20
9.7810670918
 30
0.0
 10
13.021478282
 20
9.7401159691
 30
0.0
 10
13.0208574305
 20
9.6987636785
 30
0.0
 10
13.0197585239
 20
9.6570897728
 30
0.0
 10
13.0176546681
 20
9.6010997869
 30
0.0
 10
13.0138472481
 20
9.5308996633
 30
0.0
 10
13.0085013241
 20
9.4607521049
 30
0.0
 10
13.0033070015
 20
9.404810667
 30
0.0
 10
12.9989713483
 20
9.3631475011
 30
0.0
 10
12.9941997732
 20
9.3218089784
 30
0.0
 10
12.9890014415
 20
9.280874628
 30
0.0
 10
12.9833863934
 20
9.2404232667
 30
0.0
 10
12.9773654617
 20
9.2005327597
 30
0.0
 10
12.9709502683
 20
9.1612798933
 30
0.0
 10
12.964153197
 20
9.1227402196
 30
0.0
 10
12.956987373
 20
9.0849879093
 30
0.0
 10
12.9494666406
 20
9.0480956049
 30
0.0
 10
12.9416055316
 20
9.0121342806
 30
0.0
 10
12.9334192385
 20
8.9771731046
 30
0.0
 10
12.9249235857
 20
8.9432793035
 30
0.0
 10
12.9161349988
 20
8.9105180287
 30
0.0
 10
12.9070704719
 20
8.8789522259
 30
0.0
 10
12.8977475373
 20
8.8486424959
 30
0.0
 10
12.8881842305
 20
8.819646996
 30
0.0
 10
12.8783990458
 20
8.7920212211
 30
0.0
 10
12.868410901
 20
8.7658182286
 30
0.0
 10
12.8598289597
 20
8.74495283
 30
0.0
 10
12.852865334
 20
8.7290205571
 30
0.0
 10
12.8476703198
 20
8.7176098741
 30
0.0
 10
12.8424390431
 20
8.7065910343
 30
0.0
 10
12.8371740597
 20
8.6959692852
 30
0.0
 10
12.8318778412
 20
8.6857497349
 30
0.0
 10
12.8265529707
 20
8.6759372588
 30
0.0
 10
12.8212019908
 20
8.666536547
 30
0.0
 10
12.815827431
 20
8.6575520945
 30
0.0
 10
12.8104319065
 20
8.6489881539
 30
0.0
 10
12.8050179053
 20
8.6408488446
 30
0.0
 10
12.7995880987
 20
8.6331380056
 30
0.0
 10
12.794144974
 20
8.6258593122
 30
0.0
 10
12.7886910665
 20
8.6190161508
 30
0.0
 10
12.7832288179
 20
8.6126117035
 30
0.0
 10
12.7777610048
 20
8.6066493006
 30
0.0
 10
12.774039663
 20
8.6028961161
 30
0.0
 10
12.7721780141
 20
8.6010979013
 30
0.0
  0
SPLINE
  5
391
100
AcDbEntity
  8
0
100
AcDbSpline
 62
7
  6
CONTINUOUS
 70
0
 71
3
 72
93
 73
89
 74
0
 42
0.0000001
 43
0.0000001
 44
0.0000000001
 40
0.0
 40
0.0
 40
0.0
 40
0.0
 40
0.0027164122
 40
0.0054531986
 40
0.0082302464
 40
0.0110665143
 40
0.0139796987
 40
0.0169859749
 40
0.0200999116
 40
0.0233343924
 40
0.0267007144
 40
0.0302086301
 40
0.0338665055
 40
0.0376814345
 40
0.0416593638
 40
0.0458052537
 40
0.0501231341
 40
0.0546162866
 40
0.0592872492
 40
0.0641379798
 40
0.0691698571
 40
0.0743837847
 40
0.0797802281
 40
0.0853592419
 40
0.0911205549
 40
0.097063532
 40
0.1031872889
 40
0.1094906267
 40
0.1159721353
 40
0.1226301497
 40
0.136467702
 40
0.1509863985
 40
0.166166177
 40
0.1819844989
 40
0.1984166092
 40
0.2154357535
 40
0.2330133648
 40
0.2511192265
 40
0.2697216198
 40
0.2887874599
 40
0.3082824199
 40
0.3281710492
 40
0.3484168852
 40
0.3689825618
 40
0.3898299142
 40
0.4109200821
 40
0.4322136103
 40
0.45367055
 40
0.4752505584
 40
0.496912997
 40
0.5186170297
 40
0.5403217213
 40
0.5619861345
 40
0.5835694282
 40
0.6050309555
 40
0.6263303623
 40
0.6474276864
 40
0.6682834561
 40
0.6888587905
 40
0.7091155008
 40
0.729016193
 40
0.7485243728
 40
0.7676045542
 40
0.7862223725
 40
0.8043447018
 40
0.8219397795
 40
0.8389773394
 40
0.8554287585
 40
0.8712672205
 40
0.8864679016
 40
0.901008187
 40
0.914867929
 40
0.921537231
 40
0.9280301459
 40
0.9343449921
 40
0.9404803324
 40
0.9464349771
 40
0.9522079882
 40
0.9577987496
 40
0.9632069274
 40
0.9684325931
 40
0.9734761642
 40
0.9783385117
 40
0.9830209603
 40
0.9875254509
 40
0.9918545996
 40
0.9960115539
 40
1.0
 40
1.0
 40
1.0
 40
1.0
 10
12.8697461164
 20
10.490815282
 30
0.0
 10
12.871544371
 20
10.4906905783
 30
0.0
 10
12.8751451625
 20
10.4902775009
 30
0.0
 10
12.8805005094
 20
10.4891720471
 30
0.0
 10
12.8858153727
 20
10.4875809466
 30
0.0
 10
12.8910859988
 20
10.4855058054
 30
0.0
 10
12.8963096037
 20
10.4829483498
 30
0.0
 10
12.9014835925
 20
10.4799107271
 30
0.0
 10
12.9066054853
 20
10.4763949522
 30
0.0
 10
12.9116731011
 20
10.472403384
 30
0.0
 10
12.9166841677
 20
10.4679382534
 30
0.0
 10
12.9216365833
 20
10.4630020655
 30
0.0
 10
12.9265281584
 20
10.457597365
 30
0.0
 10
12.9313567154
 20
10.4517268929
 30
0.0
 10
12.9361201086
 20
10.4453935994
 30
0.0
 10
12.9408160677
 20
10.4386005733
 30
0.0
 10
12.9454424792
 20
10.4313512082
 30
0.0
 10
12.949997038
 20
10.4236490224
 30
0.0
 10
12.9544776419
 20
10.4154978536
 30
0.0
 10
12.9588820313
 20
10.4069016932
 30
0.0
 10
12.9632080941
 20
10.3978648138
 30
0.0
 10
12.9674536742
 20
10.3883916872
 30
0.0
 10
12.9716166511
 20
10.3784870178
 30
0.0
 10
12.9756949918
 20
10.3681557439
 30
0.0
 10
12.9796865939
 20
10.3574030018
 30
0.0
 10
12.9835895349
 20
10.346234174
 30
0.0
 10
12.9874017776
 20
10.334654827
 30
0.0
 10
12.9911214711
 20
10.322670769
 30
0.0
 10
12.9947467198
 20
10.3102879762
 30
0.0
 10
12.9995133066
 20
10.2930320152
 30
0.0
 10
13.0052063292
 20
10.2705018978
 30
0.0
 10
13.0115487035
 20
10.2423138338
 30
0.0
 10
13.0174736757
 20
10.2126936354
 30
0.0
 10
13.0229692202
 20
10.1817007479
 30
0.0
 10
13.0280241453
 20
10.1493971751
 30
0.0
 10
13.0326281635
 20
10.115847695
 30
0.0
 10
13.036771901
 20
10.0811196153
 30
0.0
 10
13.0404469229
 20
10.0452826577
 30
0.0
 10
13.0436457491
 20
10.0084088015
 30
0.0
 10
13.0463618663
 20
9.9705721342
 30
0.0
 10
13.048589742
 20
9.931848696
 30
0.0
 10
13.050324834
 20
9.8923163246
 30
0.0
 10
13.0515635991
 20
9.8520544953
 30
0.0
 10
13.0523034995
 20
9.8111441594
 30
0.0
 10
13.0525430072
 20
9.7696675802
 30
0.0
 10
13.0522816066
 20
9.7277081663
 30
0.0
 10
13.0515197976
 20
9.6853503023
 30
0.0
 10
13.0502590917
 20
9.642679178
 30
0.0
 10
13.0485020089
 20
9.5997806155
 30
0.0
 10
13.0462520718
 20
9.5567408953
 30
0.0
 10
13.043513799
 20
9.513646583
 30
0.0
 10
13.0402926954
 20
9.4705843543
 30
0.0
 10
13.0365952411
 20
9.4276408203
 30
0.0
 10
13.0324288788
 20
9.3849023533
 30
0.0
 10
13.0278019984
 20
9.3424549112
 30
0.0
 10
13.0227239229
 20
9.3003838637
 30
0.0
 10
13.017204887
 20
9.2587738199
 30
0.0
 10
13.0112560167
 20
9.217708457
 30
0.0
 10
13.0048893075
 20
9.1772703517
 30
0.0
 10
12.9981176005
 20
9.1375408127
 30
0.0
 10
12.9909545567
 20
9.0985997163
 30
0.0
 10
12.9834146303
 20
9.0605253437
 30
0.0
 10
12.9755130396
 20
9.023394221
 30
0.0
 10
12.9672657376
 20
8.9872809611
 30
0.0
 10
12.9586893812
 20
8.9522581098
 30
0.0
 10
12.9498012956
 20
8.9183959954
 30
0.0
 10
12.9406194394
 20
8.8857625846
 30
0.0
 10
12.9311623679
 20
8.8544233304
 30
0.0
 10
12.921449194
 20
8.8244410598
 30
0.0
 10
12.9114995454
 20
8.795875733
 30
0.0
 10
12.9013335218
 20
8.7687846645
 30
0.0
 10
12.8925902995
 20
8.7472145078
 30
0.0
 10
12.8854913046
 20
8.7307475716
 30
0.0
 10
12.8801940488
 20
8.7189576954
 30
0.0
 10
12.8748581332
 20
8.7075753963
 30
0.0
 10
12.8694862117
 20
8.6966063602
 30
0.0
 10
12.8640810062
 20
8.6860560697
 30
0.0
 10
12.8586451816
 20
8.6759298117
 30
0.0
 10
12.8531815255
 20
8.6662326179
 30
0.0
 10
12.8476926878
 20
8.6569693495
 30
0.0
 10
12.8421814796
 20
8.6481445799
 30
0.0
 10
12.8366505613
 20
8.6397627311
 30
0.0
 10
12.8311027473
 20
8.6318279491
 30
0.0
 10
12.8255407417
 20
8.624344166
 30
0.0
 10
12.8199672213
 20
8.6173150471
 30
0.0
 10
12.8143848142
 20
8.6107439802
 30
0.0
 10
12.8087964412
 20
8.6046345281
 30
0.0
 10
12.8049912778
 20
8.6007930812
 30
0.0
 10
12.8030876431
 20
8.5989543112
 30
0.0
  0
SPLINE
  5
392
100
AcDbEntity
  8
0
100
AcDbSpline
 62
7
  6
CONTINUOUS
 70
0
 71
3
 72
41
 73
37
 74
0
 42
0.0000001
 43
0.0000001
 44
0.0000000001
 40
0.0
 40
0.0
 40
0.0
 40
0.0
 40
0.0187319668
 40
0.035847177
 40
0.0515868562
 40
0.0590452286
 40
0.0662885459
 40
0.0733702853
 40
0.0803480554
 40
0.0872823544
 40
0.0942348749
 40
0.101266826
 40
0.1084371444
 40
0.1158011528
 40
0.1234095854
 40
0.1395251574
 40
0.1570956931
 40
0.1763399564
 40
0.1974108929
 40
0.220409949
 40
0.2453986527
 40
0.2724083546
 40
0.301446689
 40
0.3325021144
 40
0.3655480286
 40
0.4005449666
 40
0.4374424127
 40
0.476180788
 40
0.516692145
 40
0.5589011524
 40
0.6027262466
 40
0.6480798251
 40
0.6948689152
 40
0.7923565207
 40
0.8943610393
 40
1.0
 40
1.0
 40
1.0
 40
1.0
 10
13.2241529257
 20
6.9588666659
 30
0.0
 10
13.2249510558
 20
6.9596094896
 30
0.0
 10
13.2265459829
 20
6.9609619709
 30
0.0
 10
13.2290523881
 20
6.9626289361
 30
0.0
 10
13.2311770472
 20
6.9636485222
 30
0.0
 10
13.2328592753
 20
6.9642110768
 30
0.0
 10
13.2340938471
 20
6.9645075221
 30
0.0
 10
13.2353228005
 20
6.9646854814
 30
0.0
 10
13.2365452504
 20
6.9647446267
 30
0.0
 10
13.2377601736
 20
6.9646848795
 30
0.0
 10
13.2389665527
 20
6.9645062531
 30
0.0
 10
13.2401633727
 20
6.9642089045
 30
0.0
 10
13.2413497143
 20
6.9637932937
 30
0.0
 10
13.2425248003
 20
6.9632598649
 30
0.0
 10
13.2441055466
 20
6.9623754526
 30
0.0
 10
13.2460560107
 20
6.9609547657
 30
0.0
 10
13.2482899965
 20
6.9588229255
 30
0.0
 10
13.250460567
 20
6.9562384156
 30
0.0
 10
13.2525644593
 20
6.9532075112
 30
0.0
 10
13.2545984427
 20
6.9497366136
 30
0.0
 10
13.2565586008
 20
6.9458332392
 30
0.0
 10
13.2584407645
 20
6.9415059468
 30
0.0
 10
13.2602406783
 20
6.9367644622
 30
0.0
 10
13.2619542074
 20
6.9316196401
 30
0.0
 10
13.2635772734
 20
6.9260833791
 30
0.0
 10
13.2651059956
 20
6.9201685991
 30
0.0
 10
13.266536736
 20
6.9138891892
 30
0.0
 10
13.267866021
 20
6.9072599406
 30
0.0
 10
13.2690906487
 20
6.9002965182
 30
0.0
 10
13.2702076897
 20
6.8930154081
 30
0.0
 10
13.2712144121
 20
6.8854338705
 30
0.0
 10
13.2721084272
 20
6.8775698811
 30
0.0
 10
13.2731616142
 20
6.8665820714
 30
0.0
 10
13.2741696412
 20
6.8522797381
 30
0.0
 10
13.2748884906
 20
6.8345314816
 30
0.0
 10
13.2750437824
 20
6.8224445737
 30
0.0
 10
13.2750437824
 20
6.8162957094
 30
0.0
  0
SPLINE
  5
393
100
AcDbEntity
  8
0
100
AcDbSpline
 62
7
  6
CONTINUOUS
 70
0
 71
3
 72
33
 73
29
 74
0
 42
0.0000001
 43
0.0000001
 44
0.0000000001
 40
0.0
 40
0.0
 40
0.0
 40
0.0
 40
0.0126611459
 40
0.0256297051
 40
0.039190396
 40
0.053589075
 40
0.0690268423
 40
0.0856607993
 40
0.1036098057
 40
0.1229606461
 40
0.1437743225
 40
0.166091235
 40
0.1899349992
 40
0.2153160868
 40
0.2422335274
 40
0.2706776426
 40
0.3006304033
 40
0.3320676928
 40
0.3649589323
 40
0.3992690139
 40
0.4349576527
 40
0.4719809607
 40
0.5498333233
 40
0.6324071104
 40
0.7192336595
 40
0.8098059996
 40
0.9035832244
 40
1.0
 40
1.0
 40
1.0
 40
1.0
 10
13.2120410877
 20
6.941895014
 30
0.0
 10
13.2126306042
 20
6.9418541283
 30
0.0
 10
13.2138192964
 20
6.9416728777
 30
0.0
 10
13.2155670577
 20
6.9411102385
 30
0.0
 10
13.217284335
 20
6.9402590079
 30
0.0
 10
13.2189677656
 20
6.939123331
 30
0.0
 10
13.220615722
 20
6.9377067202
 30
0.0
 10
13.2222267444
 20
6.9360124031
 30
0.0
 10
13.2237992506
 20
6.9340433423
 30
0.0
 10
13.2253314618
 20
6.9318026763
 30
0.0
 10
13.2268213934
 20
6.9292938437
 30
0.0
 10
13.228266906
 20
6.9265206966
 30
0.0
 10
13.2296658562
 20
6.9234875658
 30
0.0
 10
13.2310160006
 20
6.9201992227
 30
0.0
 10
13.2323152346
 20
6.9166609292
 30
0.0
 10
13.2335613718
 20
6.9128783674
 30
0.0
 10
13.234752438
 20
6.908857676
 30
0.0
 10
13.2358863872
 20
6.9046053916
 30
0.0
 10
13.236961414
 20
6.9001284652
 30
0.0
 10
13.2379756542
 20
6.8954342269
 30
0.0
 10
13.2389275082
 20
6.890530371
 30
0.0
 10
13.2401314162
 20
6.8836066114
 30
0.0
 10
13.2414585894
 20
6.874485114
 30
0.0
 10
13.2427551995
 20
6.8630165076
 30
0.0
 10
13.2437723112
 20
6.8509239945
 30
0.0
 10
13.2445029907
 20
6.8382871838
 30
0.0
 10
13.2449422117
 20
6.8251892091
 30
0.0
 10
13.2450375369
 20
6.8163119525
 30
0.0
 10
13.2450375369
 20
6.8118119002
 30
0.0
  0
SPLINE
  5
394
100
AcDbEntity
  8
0
100
AcDbSpline
 62
7
  6
CONTINUOUS
 70
0
 71
3
 72
41
 73
37
 74
0
 42
0.0000001
 43
0.0000001
 44
0.0000000001
 40
0.0
 40
0.0
 40
0.0
 40
0.0
 40
0.0187319668
 40
0.035847177
 40
0.0515868562
 40
0.0590452286
 40
0.0662885459
 40
0.0733702853
 40
0.0803480554
 40
0.0872823544
 40
0.0942348749
 40
0.101266826
 40
0.1084371444
 40
0.1158011528
 40
0.1234095854
 40
0.1395251574
 40
0.1570956931
 40
0.1763399564
 40
0.1974108929
 40
0.220409949
 40
0.2453986527
 40
0.2724083546
 40
0.301446689
 40
0.3325021144
 40
0.3655480286
 40
0.4005449666
 40
0.4374424127
 40
0.476180788
 40
0.516692145
 40
0.5589011524
 40
0.6027262466
 40
0.6480798251
 40
0.6948689152
 40
0.7923565207
 40
0.8943610393
 40
1.0
 40
1.0
 40
1.0
 40
1.0
 10
13.2241529257
 20
10.942345022
 30
0.0
 10
13.2249510558
 20
10.9430878457
 30
0.0
 10
13.2265459829
 20
10.944440327
 30
0.0
 10
13.2290523881
 20
10.9461072922
 30
0.0
 10
13.2311770472
 20
10.9471268782
 30
0.0
 10
13.2328592753
 20
10.9476894329
 30
0.0
 10
13.2340938471
 20
10.9479858782
 30
0.0
 10
13.2353228005
 20
10.9481638374
 30
0.0
 10
13.2365452504
 20
10.9482229828
 30
0.0
 10
13.2377601736
 20
10.9481632356
 30
0.0
 10
13.2389665527
 20
10.9479846092
 30
0.0
 10
13.2401633727
 20
10.9476872606
 30
0.0
 10
13.2413497143
 20
10.9472716498
 30
0.0
 10
13.2425248003
 20
10.946738221
 30
0.0
 10
13.2441055466
 20
10.9458538087
 30
0.0
 10
13.2460560107
 20
10.9444331218
 30
0.0
 10
13.2482899965
 20
10.9423012816
 30
0.0
 10
13.250460567
 20
10.9397167717
 30
0.0
 10
13.2525644593
 20
10.9366858673
 30
0.0
 10
13.2545984427
 20
10.9332149697
 30
0.0
 10
13.2565586008
 20
10.9293115953
 30
0.0
 10
13.2584407645
 20
10.9249843029
 30
0.0
 10
13.2602406783
 20
10.9202428183
 30
0.0
 10
13.2619542074
 20
10.9150979962
 30
0.0
 10
13.2635772734
 20
10.9095617351
 30
0.0
 10
13.2651059956
 20
10.9036469552
 30
0.0
 10
13.266536736
 20
10.8973675453
 30
0.0
 10
13.267866021
 20
10.8907382967
 30
0.0
 10
13.2690906487
 20
10.8837748743
 30
0.0
 10
13.2702076897
 20
10.8764937642
 30
0.0
 10
13.2712144121
 20
10.8689122266
 30
0.0
 10
13.2721084272
 20
10.8610482372
 30
0.0
 10
13.2731616142
 20
10.8500604275
 30
0.0
 10
13.2741696412
 20
10.8357580942
 30
0.0
 10
13.2748884906
 20
10.8180098377
 30
0.0
 10
13.2750437824
 20
10.8059229298
 30
0.0
 10
13.2750437824
 20
10.7997740655
 30
0.0
  0
SPLINE
  5
395
100
AcDbEntity
  8
0
100
AcDbSpline
 62
7
  6
CONTINUOUS
 70
0
 71
3
 72
33
 73
29
 74
0
 42
0.0000001
 43
0.0000001
 44
0.0000000001
 40
0.0
 40
0.0
 40
0.0
 40
0.0
 40
0.0126611459
 40
0.0256297051
 40
0.039190396
 40
0.053589075
 40
0.0690268423
 40
0.0856607993
 40
0.1036098057
 40
0.1229606461
 40
0.1437743225
 40
0.166091235
 40
0.1899349992
 40
0.2153160868
 40
0.2422335274
 40
0.2706776426
 40
0.3006304033
 40
0.3320676928
 40
0.3649589323
 40
0.3992690139
 40
0.4349576527
 40
0.4719809607
 40
0.5498333233
 40
0.6324071104
 40
0.7192336595
 40
0.8098059996
 40
0.9035832244
 40
1.0
 40
1.0
 40
1.0
 40
1.0
 10
13.2120410877
 20
10.9253733701
 30
0.0
 10
13.2126306042
 20
10.9253324844
 30
0.0
 10
13.2138192964
 20
10.9251512338
 30
0.0
 10
13.2155670577
 20
10.9245885946
 30
0.0
 10
13.217284335
 20
10.9237373639
 30
0.0
 10
13.2189677656
 20
10.922601687
 30
0.0
 10
13.220615722
 20
10.9211850763
 30
0.0
 10
13.2222267444
 20
10.9194907592
 30
0.0
 10
13.2237992506
 20
10.9175216984
 30
0.0
 10
13.2253314618
 20
10.9152810324
 30
0.0
 10
13.2268213934
 20
10.9127721997
 30
0.0
 10
13.228266906
 20
10.9099990527
 30
0.0
 10
13.2296658562
 20
10.9069659218
 30
0.0
 10
13.2310160006
 20
10.9036775788
 30
0.0
 10
13.2323152346
 20
10.9001392853
 30
0.0
 10
13.2335613718
 20
10.8963567235
 30
0.0
 10
13.234752438
 20
10.8923360321
 30
0.0
 10
13.2358863872
 20
10.8880837477
 30
0.0
 10
13.236961414
 20
10.8836068213
 30
0.0
 10
13.2379756542
 20
10.8789125829
 30
0.0
 10
13.2389275082
 20
10.8740087271
 30
0.0
 10
13.2401314162
 20
10.8670849675
 30
0.0
 10
13.2414585894
 20
10.8579634701
 30
0.0
 10
13.2427551995
 20
10.8464948637
 30
0.0
 10
13.2437723112
 20
10.8344023505
 30
0.0
 10
13.2445029907
 20
10.8217655399
 30
0.0
 10
13.2449422117
 20
10.8086675652
 30
0.0
 10
13.2450375369
 20
10.7997903086
 30
0.0
 10
13.2450375369
 20
10.7952902563
 30
0.0
  0
SPLINE
  5
396
100
AcDbEntity
  8
0
100
AcDbSpline
 62
7
  6
CONTINUOUS
 70
0
 71
3
 72
34
 73
30
 74
0
 42
0.0000001
 43
0.0000001
 44
0.0000000001
 40
0.0
 40
0.0
 40
0.0
 40
0.0
 40
0.0300330785
 40
0.060161942
 40
0.0903971638
 40
0.1207474931
 40
0.1512198009
 40
0.1818190634
 40
0.2125483531
 40
0.2434088355
 40
0.2743998009
 40
0.3055187014
 40
0.3680931599
 40
0.4311051161
 40
0.4944735816
 40
0.5580952812
 40
0.6218488903
 40
0.6537482353
 40
0.6856300135
 40
0.7174767654
 40
0.749271224
 40
0.7809966618
 40
0.8126372299
 40
0.8441782473
 40
0.8756065183
 40
0.9069109505
 40
0.9380815189
 40
0.9691136797
 40
1.0
 40
1.0
 40
1.0
 40
1.0
 10
10.7609697649
 20
6.2675365695
 30
0.0
 10
10.7586137804
 20
6.2664803481
 30
0.0
 10
10.7538225462
 20
6.2645206925
 30
0.0
 10
10.7464472085
 20
6.2620550047
 30
0.0
 10
10.7389009758
 20
6.2600654404
 30
0.0
 10
10.7312139738
 20
6.2585579045
 30
0.0
 10
10.7234159233
 20
6.2575364852
 30
0.0
 10
10.7155367687
 20
6.2570038031
 30
0.0
 10
10.7076064317
 20
6.2569609321
 30
0.0
 10
10.6996549774
 20
6.2574074729
 30
0.0
 10
10.6917120356
 20
6.2583417391
 30
0.0
 10
10.6811563265
 20
6.260236103
 30
0.0
 10
10.6681311054
 20
6.263811058
 30
0.0
 10
10.6530530621
 20
6.269953939
 30
0.0
 10
10.6387259492
 20
6.2778790567
 30
0.0
 10
10.6253850198
 20
6.2874784501
 30
0.0
 10
10.6152742719
 20
6.296765311
 30
0.0
 10
10.6078983464
 20
6.3048848225
 30
0.0
 10
10.6027466473
 20
6.3112983218
 30
0.0
 10
10.5980025839
 20
6.3180076499
 30
0.0
 10
10.593689029
 20
6.3249859414
 30
0.0
 10
10.589827638
 20
6.3322042324
 30
0.0
 10
10.5864381475
 20
6.3396319486
 30
0.0
 10
10.5835382851
 20
6.3472369204
 30
0.0
 10
10.5811434707
 20
6.3549855987
 30
0.0
 10
10.5792667167
 20
6.3628431219
 30
0.0
 10
10.5779181674
 20
6.3707739886
 30
0.0
 10
10.5771055542
 20
6.3787411321
 30
0.0
 10
10.5769235839
 20
6.3840659238
 30
0.0
 10
10.5769235839
 20
6.3867211875
 30
0.0
  0
SPLINE
  5
397
100
AcDbEntity
  8
0
100
AcDbSpline
 62
7
  6
CONTINUOUS
 70
0
 71
3
 72
42
 73
38
 74
0
 42
0.0000001
 43
0.0000001
 44
0.0000000001
 40
0.0
 40
0.0
 40
0.0
 40
0.0
 40
0.084036824
 40
0.1695051652
 40
0.2553481512
 40
0.340500755
 40
0.4239093117
 40
0.4646387802
 40
0.5045507648
 40
0.5435241865
 40
0.5814419577
 40
0.6181915188
 40
0.6536654072
 40
0.6877619363
 40
0.7203860683
 40
0.7514501714
 40
0.7808749456
 40
0.8085906484
 40
0.8345387813
 40
0.8586739841
 40
0.8809666959
 40
0.8914192741
 40
0.9014095957
 40
0.9109403673
 40
0.9200164037
 40
0.928645065
 40
0.9368362317
 40
0.9446032749
 40
0.9519633261
 40
0.9589378364
 40
0.965553651
 40
0.9718432802
 40
0.97784576
 40
0.9836070658
 40
0.989179842
 40
0.9946229736
 40
1.0
 40
1.0
 40
1.0
 40
1.0
 10
13.2450375369
 20
6.8118119002
 30
0.0
 10
13.2450375369
 20
6.8052817982
 30
0.0
 10
13.2448326167
 20
6.7921096014
 30
0.0
 10
13.2439433532
 20
6.772285051
 30
0.0
 10
13.2424798446
 20
6.7524074669
 30
0.0
 10
13.2404614325
 20
6.7327395432
 30
0.0
 10
13.2383229403
 20
6.716614978
 30
0.0
 10
13.2363484821
 20
6.7040208025
 30
0.0
 10
13.2347594594
 20
6.694862486
 30
0.0
 10
13.2330559251
 20
6.685947106
 30
0.0
 10
13.2312435267
 20
6.6773041053
 30
0.0
 10
13.2293283082
 20
6.6689620379
 30
0.0
 10
13.2273166452
 20
6.6609484479
 30
0.0
 10
13.2252152315
 20
6.6532897774
 30
0.0
 10
13.2230310813
 20
6.6460112572
 30
0.0
 10
13.2207714814
 20
6.6391368257
 30
0.0
 10
13.218443963
 20
6.6326890382
 30
0.0
 10
13.2160562646
 20
6.6266889997
 30
0.0
 10
13.213616315
 20
6.6211561502
 30
0.0
 10
13.2111321794
 20
6.6161085186
 30
0.0
 10
13.2089883229
 20
6.6122406536
 30
0.0
 10
13.2072513217
 20
6.609409842
 30
0.0
 10
13.2059706673
 20
6.6074638959
 30
0.0
 10
13.2046850657
 20
6.6056507947
 30
0.0
 10
13.2033954961
 20
6.6039720142
 30
0.0
 10
13.2021030239
 20
6.6024288679
 30
0.0
 10
13.2008085847
 20
6.6010226319
 30
0.0
 10
13.1995131749
 20
6.5997544204
 30
0.0
 10
13.198217746
 20
6.5986252504
 30
0.0
 10
13.1969231528
 20
6.5976361371
 30
0.0
 10
13.1956303265
 20
6.5967879155
 30
0.0
 10
13.194340103
 20
6.5960814797
 30
0.0
 10
13.1930533598
 20
6.5955177128
 30
0.0
 10
13.191771117
 20
6.5950973786
 30
0.0
 10
13.1904943995
 20
6.5948213824
 30
0.0
 10
13.1892247779
 20
6.5946903405
 30
0.0
 10
13.1883818546
 20
6.5946999446
 30
0.0
 10
13.1879650327
 20
6.5947288531
 30
0.0
  0
SPLINE
  5
398
100
AcDbEntity
  8
0
100
AcDbSpline
 62
7
  6
CONTINUOUS
 70
0
 71
3
 72
42
 73
38
 74
0
 42
0.0000001
 43
0.0000001
 44
0.0000000001
 40
0.0
 40
0.0
 40
0.0
 40
0.0
 40
0.0299419644
 40
0.0449235317
 40
0.0599142035
 40
0.0899287023
 40
0.1200139727
 40
0.1350926544
 40
0.1501966973
 40
0.1804840373
 40
0.210897868
 40
0.2414513286
 40
0.2721543342
 40
0.3030133956
 40
0.3340315238
 40
0.3652082165
 40
0.3965395222
 40
0.4280181758
 40
0.459633799
 40
0.4913731572
 40
0.5232204671
 40
0.5551577446
 40
0.5871651885
 40
0.6192215901
 40
0.6513047644
 40
0.683391994
 40
0.715460481
 40
0.7474877999
 40
0.7794523452
 40
0.8113337678
 40
0.8431133918
 40
0.8747746145
 40
0.906303246
 40
0.9376878974
 40
0.9533257627
 40
0.9689252947
 40
1.0
 40
1.0
 40
1.0
 40
1.0
 10
10.4619069859
 20
7.1837144565
 30
0.0
 10
10.4582738488
 20
7.1802051169
 30
0.0
 10
10.4526099954
 20
7.1751537463
 30
0.0
 10
10.4446779256
 20
7.1688860431
 30
0.0
 10
10.4364931893
 20
7.1629303143
 30
0.0
 10
10.425813513
 20
7.1560911194
 30
0.0
 10
10.4146145374
 20
7.1501088613
 30
0.0
 10
10.405378326
 20
7.1458529797
 30
0.0
 10
10.3959512616
 20
7.1419485489
 30
0.0
 10
10.3838568101
 20
7.1377500724
 30
0.0
 10
10.3689522052
 20
7.1338372239
 30
0.0
 10
10.3537223794
 20
7.1310652436
 30
0.0
 10
10.3382517273
 20
7.1294494413
 30
0.0
 10
10.3226252346
 20
7.1289984355
 30
0.0
 10
10.3069288827
 20
7.1297145231
 30
0.0
 10
10.2912489428
 20
7.1315935672
 30
0.0
 10
10.2756715693
 20
7.1346250587
 30
0.0
 10
10.2602823158
 20
7.1387921734
 30
0.0
 10
10.2451656749
 20
7.1440718715
 30
0.0
 10
10.2304046205
 20
7.1504350275
 30
0.0
 10
10.216080159
 20
7.1578465929
 30
0.0
 10
10.2022708904
 20
7.1662657888
 30
0.0
 10
10.1890525833
 20
7.17564633
 30
0.0
 10
10.1764977642
 20
7.1859366774
 30
0.0
 10
10.1646753243
 20
7.1970803195
 30
0.0
 10
10.1536501457
 20
7.2090160799
 30
0.0
 10
10.1434827492
 20
7.2216784492
 30
0.0
 10
10.134228965
 20
7.2349979424
 30
0.0
 10
10.1259396296
 20
7.2489014718
 30
0.0
 10
10.1186603075
 20
7.2633127592
 30
0.0
 10
10.1124310467
 20
7.2781526895
 30
0.0
 10
10.1072861402
 20
7.293339961
 30
0.0
 10
10.1032540184
 20
7.3087907058
 30
0.0
 10
10.1008366655
 20
7.3218328059
 30
0.0
 10
10.0994806067
 20
7.3323119855
 30
0.0
 10
10.0985128202
 20
7.342781135
 30
0.0
 10
10.0982197817
 20
7.3506591028
 30
0.0
 10
10.0982197817
 20
7.35590145
 30
0.0
  0
SPLINE
  5
399
100
AcDbEntity
  8
0
100
AcDbSpline
 62
7
  6
CONTINUOUS
 70
0
 71
3
 72
39
 73
35
 74
0
 42
0.0000001
 43
0.0000001
 44
0.0000000001
 40
0.0
 40
0.0
 40
0.0
 40
0.0
 40
0.0314026137
 40
0.0630094723
 40
0.094807121
 40
0.126773443
 40
0.1588809721
 40
0.1910970223
 40
0.2233851135
 40
0.2557062447
 40
0.2880202663
 40
0.320287276
 40
0.3524690077
 40
0.3845301837
 40
0.4164397922
 40
0.4481722491
 40
0.4797084087
 40
0.5110363814
 40
0.5421521213
 40
0.5730597421
 40
0.6037715187
 40
0.6343075558
 40
0.6646951126
 40
0.6949675911
 40
0.7251632193
 40
0.7553234784
 40
0.7854913547
 40
0.8157095097
 40
0.8460184685
 40
0.8764549271
 40
0.9070502251
 40
0.9378293516
 40
0.9688091131
 40
1.0
 40
1.0
 40
1.0
 40
1.0
 10
9.3737753866
 20
6.9038602474
 30
0.0
 10
9.3780871223
 20
6.9035612275
 30
0.0
 10
9.3867148957
 20
6.9025363335
 30
0.0
 10
9.3994826868
 20
6.8997527064
 30
0.0
 10
9.4120029958
 20
6.8957446208
 30
0.0
 10
9.4241540303
 20
6.890550908
 30
0.0
 10
9.4358195866
 20
6.8842217785
 30
0.0
 10
9.4468876297
 20
6.8768181808
 30
0.0
 10
9.4572520179
 20
6.8684113468
 30
0.0
 10
9.4668133129
 20
6.8590820635
 30
0.0
 10
9.4754797545
 20
6.8489199028
 30
0.0
 10
9.4831681116
 20
6.8380223817
 30
0.0
 10
9.4898044661
 20
6.8264940427
 30
0.0
 10
9.495324927
 20
6.8144454833
 30
0.0
 10
9.4996762576
 20
6.8019923196
 30
0.0
 10
9.5028163543
 20
6.7892540856
 30
0.0
 10
9.5047146632
 20
6.7763531201
 30
0.0
 10
9.5053524881
 20
6.7634134219
 30
0.0
 10
9.5047231958
 20
6.7505594882
 30
0.0
 10
9.5028323578
 20
6.7379151339
 30
0.0
 10
9.4996977009
 20
6.7256023058
 30
0.0
 10
9.4953489858
 20
6.7137399097
 30
0.0
 10
9.4898277732
 20
6.7024426447
 30
0.0
 10
9.4831870605
 20
6.6918198652
 30
0.0
 10
9.4754908322
 20
6.6819744523
 30
0.0
 10
9.4668134293
 20
6.6730017603
 30
0.0
 10
9.4572387992
 20
6.6649886498
 30
0.0
 10
9.4468596484
 20
6.6580125982
 30
0.0
 10
9.4357765037
 20
6.6521409242
 30
0.0
 10
9.4240966455
 20
6.6474301305
 30
0.0
 10
9.4119331784
 20
6.6439252966
 30
0.0
 10
9.3994032754
 20
6.6416598987
 30
0.0
 10
9.3866293829
 20
6.6406550464
 30
0.0
 10
9.3780580511
 20
6.6408314033
 30
0.0
 10
9.3737753866
 20
6.6411284071
 30
0.0
  0
SPLINE
  5
39A
100
AcDbEntity
  8
0
100
AcDbSpline
 62
7
  6
CONTINUOUS
 70
0
 71
3
 72
42
 73
38
 74
0
 42
0.0000001
 43
0.0000001
 44
0.0000000001
 40
0.0
 40
0.0
 40
0.0
 40
0.0
 40
0.0299419644
 40
0.0449235317
 40
0.0599142035
 40
0.0899287023
 40
0.1200139727
 40
0.1350926544
 40
0.1501966973
 40
0.1804840373
 40
0.210897868
 40
0.2414513286
 40
0.2721543342
 40
0.3030133956
 40
0.3340315238
 40
0.3652082165
 40
0.3965395222
 40
0.4280181758
 40
0.459633799
 40
0.4913731572
 40
0.5232204671
 40
0.5551577446
 40
0.5871651885
 40
0.6192215901
 40
0.6513047644
 40
0.683391994
 40
0.715460481
 40
0.7474877999
 40
0.7794523452
 40
0.8113337678
 40
0.8431133918
 40
0.8747746145
 40
0.906303246
 40
0.9376878974
 40
0.9533257627
 40
0.9689252947
 40
1.0
 40
1.0
 40
1.0
 40
1.0
 10
11.0347009722
 20
7.5361568697
 30
0.0
 10
11.0310678351
 20
7.5326475301
 30
0.0
 10
11.0254039817
 20
7.5275961595
 30
0.0
 10
11.0174719118
 20
7.5213284563
 30
0.0
 10
11.0092871756
 20
7.5153727275
 30
0.0
 10
10.9986074993
 20
7.5085335326
 30
0.0
 10
10.9874085237
 20
7.5025512745
 30
0.0
 10
10.9781723123
 20
7.4982953929
 30
0.0
 10
10.9687452478
 20
7.4943909621
 30
0.0
 10
10.9566507964
 20
7.4901924856
 30
0.0
 10
10.9417461915
 20
7.4862796371
 30
0.0
 10
10.9265163656
 20
7.4835076568
 30
0.0
 10
10.9110457135
 20
7.4818918545
 30
0.0
 10
10.8954192209
 20
7.4814408487
 30
0.0
 10
10.879722869
 20
7.4821569363
 30
0.0
 10
10.864042929
 20
7.4840359804
 30
0.0
 10
10.8484655556
 20
7.4870674719
 30
0.0
 10
10.833076302
 20
7.4912345866
 30
0.0
 10
10.8179596612
 20
7.4965142847
 30
0.0
 10
10.8031986068
 20
7.5028774407
 30
0.0
 10
10.7888741453
 20
7.5102890061
 30
0.0
 10
10.7750648766
 20
7.518708202
 30
0.0
 10
10.7618465696
 20
7.5280887432
 30
0.0
 10
10.7492917505
 20
7.5383790906
 30
0.0
 10
10.7374693106
 20
7.5495227327
 30
0.0
 10
10.726444132
 20
7.5614584931
 30
0.0
 10
10.7162767355
 20
7.5741208624
 30
0.0
 10
10.7070229513
 20
7.5874403556
 30
0.0
 10
10.6987336159
 20
7.601343885
 30
0.0
 10
10.6914542938
 20
7.6157551724
 30
0.0
 10
10.685225033
 20
7.6305951027
 30
0.0
 10
10.6800801265
 20
7.6457823742
 30
0.0
 10
10.6760480047
 20
7.661233119
 30
0.0
 10
10.6736306517
 20
7.6742752191
 30
0.0
 10
10.6722745929
 20
7.6847543987
 30
0.0
 10
10.6713068065
 20
7.6952235482
 30
0.0
 10
10.671013768
 20
7.703101516
 30
0.0
 10
10.671013768
 20
7.7083438632
 30
0.0
  0
SPLINE
  5
39B
100
AcDbEntity
  8
0
100
AcDbSpline
 62
7
  6
CONTINUOUS
 70
0
 71
3
 72
42
 73
38
 74
0
 42
0.0000001
 43
0.0000001
 44
0.0000000001
 40
0.0
 40
0.0
 40
0.0
 40
0.0
 40
0.0299419644
 40
0.0449235317
 40
0.0599142035
 40
0.0899287023
 40
0.1200139727
 40
0.1350926544
 40
0.1501966973
 40
0.1804840373
 40
0.210897868
 40
0.2414513286
 40
0.2721543342
 40
0.3030133956
 40
0.3340315238
 40
0.3652082165
 40
0.3965395222
 40
0.4280181758
 40
0.459633799
 40
0.4913731572
 40
0.5232204671
 40
0.5551577446
 40
0.5871651885
 40
0.6192215901
 40
0.6513047644
 40
0.683391994
 40
0.715460481
 40
0.7474877999
 40
0.7794523452
 40
0.8113337678
 40
0.8431133918
 40
0.8747746145
 40
0.906303246
 40
0.9376878974
 40
0.9533257627
 40
0.9689252947
 40
1.0
 40
1.0
 40
1.0
 40
1.0
 10
10.4619069859
 20
7.9690121648
 30
0.0
 10
10.4582738488
 20
7.9655028252
 30
0.0
 10
10.4526099954
 20
7.9604514546
 30
0.0
 10
10.4446779256
 20
7.9541837514
 30
0.0
 10
10.4364931893
 20
7.9482280226
 30
0.0
 10
10.425813513
 20
7.9413888277
 30
0.0
 10
10.4146145374
 20
7.9354065696
 30
0.0
 10
10.405378326
 20
7.931150688
 30
0.0
 10
10.3959512616
 20
7.9272462572
 30
0.0
 10
10.3838568101
 20
7.9230477807
 30
0.0
 10
10.3689522052
 20
7.9191349322
 30
0.0
 10
10.3537223794
 20
7.9163629519
 30
0.0
 10
10.3382517273
 20
7.9147471496
 30
0.0
 10
10.3226252346
 20
7.9142961438
 30
0.0
 10
10.3069288827
 20
7.9150122314
 30
0.0
 10
10.2912489428
 20
7.9168912755
 30
0.0
 10
10.2756715693
 20
7.919922767
 30
0.0
 10
10.2602823158
 20
7.9240898817
 30
0.0
 10
10.2451656749
 20
7.9293695798
 30
0.0
 10
10.2304046205
 20
7.9357327358
 30
0.0
 10
10.216080159
 20
7.9431443012
 30
0.0
 10
10.2022708904
 20
7.9515634971
 30
0.0
 10
10.1890525833
 20
7.9609440383
 30
0.0
 10
10.1764977642
 20
7.9712343857
 30
0.0
 10
10.1646753243
 20
7.9823780278
 30
0.0
 10
10.1536501457
 20
7.9943137882
 30
0.0
 10
10.1434827492
 20
8.0069761575
 30
0.0
 10
10.134228965
 20
8.0202956507
 30
0.0
 10
10.1259396296
 20
8.0341991801
 30
0.0
 10
10.1186603075
 20
8.0486104675
 30
0.0
 10
10.1124310467
 20
8.0634503978
 30
0.0
 10
10.1072861402
 20
8.0786376693
 30
0.0
 10
10.1032540184
 20
8.0940884141
 30
0.0
 10
10.1008366655
 20
8.1071305142
 30
0.0
 10
10.0994806067
 20
8.1176096938
 30
0.0
 10
10.0985128202
 20
8.1280788433
 30
0.0
 10
10.0982197817
 20
8.1359568111
 30
0.0
 10
10.0982197817
 20
8.1411991583
 30
0.0
  0
SPLINE
  5
39C
100
AcDbEntity
  8
0
100
AcDbSpline
 62
7
  6
CONTINUOUS
 70
0
 71
3
 72
39
 73
35
 74
0
 42
0.0000001
 43
0.0000001
 44
0.0000000001
 40
0.0
 40
0.0
 40
0.0
 40
0.0
 40
0.0314026137
 40
0.0630094723
 40
0.094807121
 40
0.126773443
 40
0.1588809721
 40
0.1910970223
 40
0.2233851135
 40
0.2557062447
 40
0.2880202663
 40
0.320287276
 40
0.3524690077
 40
0.3845301837
 40
0.4164397922
 40
0.4481722491
 40
0.4797084087
 40
0.5110363814
 40
0.5421521213
 40
0.5730597421
 40
0.6037715187
 40
0.6343075558
 40
0.6646951126
 40
0.6949675911
 40
0.7251632193
 40
0.7553234784
 40
0.7854913547
 40
0.8157095097
 40
0.8460184685
 40
0.8764549271
 40
0.9070502251
 40
0.9378293516
 40
0.9688091131
 40
1.0
 40
1.0
 40
1.0
 40
1.0
 10
9.3737753866
 20
6.6411284071
 30
0.0
 10
9.3694636509
 20
6.641427427
 30
0.0
 10
9.3608358775
 20
6.642452321
 30
0.0
 10
9.3480680864
 20
6.6452359481
 30
0.0
 10
9.3355477774
 20
6.6492440337
 30
0.0
 10
9.3233967429
 20
6.6544377464
 30
0.0
 10
9.3117311866
 20
6.6607668759
 30
0.0
 10
9.3006631435
 20
6.6681704737
 30
0.0
 10
9.2902987553
 20
6.6765773076
 30
0.0
 10
9.2807374603
 20
6.685906591
 30
0.0
 10
9.2720710187
 20
6.6960687517
 30
0.0
 10
9.2643826616
 20
6.7069662728
 30
0.0
 10
9.2577463071
 20
6.7184946118
 30
0.0
 10
9.2522258462
 20
6.7305431712
 30
0.0
 10
9.2478745156
 20
6.7429963348
 30
0.0
 10
9.2447344189
 20
6.7557345688
 30
0.0
 10
9.24283611
 20
6.7686355343
 30
0.0
 10
9.2421982851
 20
6.7815752326
 30
0.0
 10
9.2428275774
 20
6.7944291663
 30
0.0
 10
9.2447184154
 20
6.8070735206
 30
0.0
 10
9.2478530723
 20
6.8193863487
 30
0.0
 10
9.2522017874
 20
6.8312487448
 30
0.0
 10
9.257723
 20
6.8425460098
 30
0.0
 10
9.2643637127
 20
6.8531687892
 30
0.0
 10
9.272059941
 20
6.8630142022
 30
0.0
 10
9.2807373439
 20
6.8719868941
 30
0.0
 10
9.290311974
 20
6.8800000047
 30
0.0
 10
9.3006911248
 20
6.8869760563
 30
0.0
 10
9.3117742695
 20
6.8928477302
 30
0.0
 10
9.3234541277
 20
6.8975585239
 30
0.0
 10
9.3356175949
 20
6.9010633579
 30
0.0
 10
9.3481474978
 20
6.9033287558
 30
0.0
 10
9.3609213903
 20
6.9043336081
 30
0.0
 10
9.3694927221
 20
6.9041572512
 30
0.0
 10
9.3737753866
 20
6.9038602474
 30
0.0
  0
SPLINE
  5
39D
100
AcDbEntity
  8
0
100
AcDbSpline
 62
7
  6
CONTINUOUS
 70
0
 71
3
 72
42
 73
38
 74
0
 42
0.0000001
 43
0.0000001
 44
0.0000000001
 40
0.0
 40
0.0
 40
0.0
 40
0.0
 40
0.0299419644
 40
0.0449235317
 40
0.0599142035
 40
0.0899287023
 40
0.1200139727
 40
0.1350926544
 40
0.1501966973
 40
0.1804840373
 40
0.210897868
 40
0.2414513286
 40
0.2721543342
 40
0.3030133956
 40
0.3340315238
 40
0.3652082165
 40
0.3965395222
 40
0.4280181758
 40
0.459633799
 40
0.4913731572
 40
0.5232204671
 40
0.5551577446
 40
0.5871651885
 40
0.6192215901
 40
0.6513047644
 40
0.683391994
 40
0.715460481
 40
0.7474877999
 40
0.7794523452
 40
0.8113337678
 40
0.8431133918
 40
0.8747746145
 40
0.906303246
 40
0.9376878974
 40
0.9533257627
 40
0.9689252947
 40
1.0
 40
1.0
 40
1.0
 40
1.0
 10
10.0388314839
 20
8.5112592121
 30
0.0
 10
10.0351983468
 20
8.5077498726
 30
0.0
 10
10.0295344934
 20
8.502698502
 30
0.0
 10
10.0216024236
 20
8.4964307988
 30
0.0
 10
10.0134176874
 20
8.49047507
 30
0.0
 10
10.0027380111
 20
8.4836358751
 30
0.0
 10
9.9915390354
 20
8.477653617
 30
0.0
 10
9.982302824
 20
8.4733977353
 30
0.0
 10
9.9728757596
 20
8.4694933046
 30
0.0
 10
9.9607813081
 20
8.4652948281
 30
0.0
 10
9.9458767032
 20
8.4613819796
 30
0.0
 10
9.9306468774
 20
8.4586099993
 30
0.0
 10
9.9151762253
 20
8.456994197
 30
0.0
 10
9.8995497327
 20
8.4565431912
 30
0.0
 10
9.8838533808
 20
8.4572592788
 30
0.0
 10
9.8681734408
 20
8.4591383228
 30
0.0
 10
9.8525960674
 20
8.4621698144
 30
0.0
 10
9.8372068138
 20
8.4663369291
 30
0.0
 10
9.8220901729
 20
8.4716166271
 30
0.0
 10
9.8073291185
 20
8.4779797832
 30
0.0
 10
9.793004657
 20
8.4853913486
 30
0.0
 10
9.7791953884
 20
8.4938105445
 30
0.0
 10
9.7659770813
 20
8.5031910856
 30
0.0
 10
9.7534222622
 20
8.513481433
 30
0.0
 10
9.7415998223
 20
8.5246250752
 30
0.0
 10
9.7305746437
 20
8.5365608356
 30
0.0
 10
9.7204072472
 20
8.5492232048
 30
0.0
 10
9.7111534631
 20
8.5625426981
 30
0.0
 10
9.7028641276
 20
8.5764462275
 30
0.0
 10
9.6955848055
 20
8.5908575148
 30
0.0
 10
9.6893555447
 20
8.6056974452
 30
0.0
 10
9.6842106382
 20
8.6208847167
 30
0.0
 10
9.6801785164
 20
8.6363354614
 30
0.0
 10
9.6777611635
 20
8.6493775616
 30
0.0
 10
9.6764051047
 20
8.6598567411
 30
0.0
 10
9.6754373182
 20
8.6703258906
 30
0.0
 10
9.6751442798
 20
8.6782038585
 30
0.0
 10
9.6751442798
 20
8.6834462057
 30
0.0
  0
SPLINE
  5
39E
100
AcDbEntity
  8
0
100
AcDbSpline
 62
7
  6
CONTINUOUS
 70
0
 71
3
 72
15
 73
11
 74
0
 42
0.0000001
 43
0.0000001
 44
0.0000000001
 40
0.0
 40
0.0
 40
0.0
 40
0.0
 40
0.1233171282
 40
0.2468171947
 40
0.3706750037
 40
0.4950496087
 40
0.6200772873
 40
0.745867181
 40
0.8724927949
 40
1.0
 40
1.0
 40
1.0
 40
1.0
 10
11.208274239
 20
6.5760724096
 30
0.0
 10
11.2057497299
 20
6.573633893
 30
0.0
 10
11.2004297341
 20
6.5690214917
 30
0.0
 10
11.1917470247
 20
6.5629942948
 30
0.0
 10
11.1824431866
 20
6.5579134737
 30
0.0
 10
11.1726134869
 20
6.5538312077
 30
0.0
 10
11.1623570679
 20
6.5507880236
 30
0.0
 10
11.1517772427
 20
6.5488143781
 30
0.0
 10
11.1409820109
 20
6.5479294579
 30
0.0
 10
11.1337357301
 20
6.5480708014
 30
0.0
 10
11.1301152499
 20
6.5483218826
 30
0.0
  0
SPLINE
  5
39F
100
AcDbEntity
  8
0
100
AcDbSpline
 62
7
  6
CONTINUOUS
 70
0
 71
3
 72
15
 73
11
 74
0
 42
0.0000001
 43
0.0000001
 44
0.0000000001
 40
0.0
 40
0.0
 40
0.0
 40
0.0
 40
0.1233171282
 40
0.2468171947
 40
0.3706750037
 40
0.4950496087
 40
0.6200772873
 40
0.745867181
 40
0.8724927949
 40
1.0
 40
1.0
 40
1.0
 40
1.0
 10
9.4580166182
 20
6.6974531879
 30
0.0
 10
9.4554921091
 20
6.6950146713
 30
0.0
 10
9.4501721133
 20
6.69040227
 30
0.0
 10
9.4414894039
 20
6.6843750731
 30
0.0
 10
9.4321855658
 20
6.6792942519
 30
0.0
 10
9.4223558661
 20
6.675211986
 30
0.0
 10
9.4120994471
 20
6.6721688019
 30
0.0
 10
9.4015196219
 20
6.6701951564
 30
0.0
 10
9.3907243901
 20
6.6693102361
 30
0.0
 10
9.3834781093
 20
6.6694515797
 30
0.0
 10
9.3798576291
 20
6.6697026608
 30
0.0
  0
SPLINE
  5
3A0
100
AcDbEntity
  8
0
100
AcDbSpline
 62
7
  6
CONTINUOUS
 70
0
 71
3
 72
15
 73
11
 74
0
 42
0.0000001
 43
0.0000001
 44
0.0000000001
 40
0.0
 40
0.0
 40
0.0
 40
0.0
 40
0.1233171282
 40
0.2468171947
 40
0.3706750037
 40
0.4950496087
 40
0.6200772873
 40
0.745867181
 40
0.8724927949
 40
1.0
 40
1.0
 40
1.0
 40
1.0
 10
11.208274239
 20
8.6286650272
 30
0.0
 10
11.2057497299
 20
8.6262265107
 30
0.0
 10
11.2004297341
 20
8.6216141093
 30
0.0
 10
11.1917470247
 20
8.6155869125
 30
0.0
 10
11.1824431866
 20
8.6105060913
 30
0.0
 10
11.1726134869
 20
8.6064238253
 30
0.0
 10
11.1623570679
 20
8.6033806412
 30
0.0
 10
11.1517772427
 20
8.6014069958
 30
0.0
 10
11.1409820109
 20
8.6005220755
 30
0.0
 10
11.1337357301
 20
8.600663419
 30
0.0
 10
11.1301152499
 20
8.6009145002
 30
0.0
  0
SPLINE
  5
3A1
100
AcDbEntity
  8
0
100
AcDbSpline
 62
7
  6
CONTINUOUS
 70
0
 71
3
 72
39
 73
35
 74
0
 42
0.0000001
 43
0.0000001
 44
0.0000000001
 40
0.0
 40
0.0
 40
0.0
 40
0.0
 40
0.0314026137
 40
0.0630094723
 40
0.094807121
 40
0.126773443
 40
0.1588809721
 40
0.1910970223
 40
0.2233851135
 40
0.2557062447
 40
0.2880202663
 40
0.320287276
 40
0.3524690077
 40
0.3845301837
 40
0.4164397922
 40
0.4481722491
 40
0.4797084087
 40
0.5110363814
 40
0.5421521213
 40
0.5730597421
 40
0.6037715187
 40
0.6343075558
 40
0.6646951126
 40
0.6949675911
 40
0.7251632193
 40
0.7553234784
 40
0.7854913547
 40
0.8157095097
 40
0.8460184685
 40
0.8764549271
 40
0.9070502251
 40
0.9378293516
 40
0.9688091131
 40
1.0
 40
1.0
 40
1.0
 40
1.0
 10
11.1240330074
 20
6.7824794691
 30
0.0
 10
11.1283447431
 20
6.7821804492
 30
0.0
 10
11.1369725165
 20
6.7811555552
 30
0.0
 10
11.1497403076
 20
6.7783719281
 30
0.0
 10
11.1622606166
 20
6.7743638425
 30
0.0
 10
11.1744116511
 20
6.7691701298
 30
0.0
 10
11.1860772074
 20
6.7628410003
 30
0.0
 10
11.1971452505
 20
6.7554374025
 30
0.0
 10
11.2075096387
 20
6.7470305686
 30
0.0
 10
11.2170709337
 20
6.7377012852
 30
0.0
 10
11.2257373753
 20
6.7275391245
 30
0.0
 10
11.2334257324
 20
6.7166416034
 30
0.0
 10
11.2400620869
 20
6.7051132644
 30
0.0
 10
11.2455825478
 20
6.693064705
 30
0.0
 10
11.2499338784
 20
6.6806115414
 30
0.0
 10
11.2530739751
 20
6.6678733074
 30
0.0
 10
11.254972284
 20
6.6549723419
 30
0.0
 10
11.2556101089
 20
6.6420326436
 30
0.0
 10
11.2549808166
 20
6.6291787099
 30
0.0
 10
11.2530899786
 20
6.6165343556
 30
0.0
 10
11.2499553217
 20
6.6042215275
 30
0.0
 10
11.2456066066
 20
6.5923591314
 30
0.0
 10
11.240085394
 20
6.5810618664
 30
0.0
 10
11.2334446813
 20
6.5704390869
 30
0.0
 10
11.225748453
 20
6.560593674
 30
0.0
 10
11.2170710501
 20
6.5516209821
 30
0.0
 10
11.20749642
 20
6.5436078715
 30
0.0
 10
11.1971172692
 20
6.5366318199
 30
0.0
 10
11.1860341245
 20
6.530760146
 30
0.0
 10
11.1743542663
 20
6.5260493523
 30
0.0
 10
11.1621907992
 20
6.5225445183
 30
0.0
 10
11.1496608962
 20
6.5202791204
 30
0.0
 10
11.1368870037
 20
6.5192742681
 30
0.0
 10
11.1283156719
 20
6.519450625
 30
0.0
 10
11.1240330074
 20
6.5197476288
 30
0.0
  0
SPLINE
  5
3A2
100
AcDbEntity
  8
0
100
AcDbSpline
 62
7
  6
CONTINUOUS
 70
0
 71
3
 72
15
 73
11
 74
0
 42
0.0000001
 43
0.0000001
 44
0.0000000001
 40
0.0
 40
0.0
 40
0.0
 40
0.0
 40
0.1233171282
 40
0.2468171947
 40
0.3706750037
 40
0.4950496087
 40
0.6200772873
 40
0.745867181
 40
0.8724927949
 40
1.0
 40
1.0
 40
1.0
 40
1.0
 10
9.4580166182
 20
8.7500458055
 30
0.0
 10
9.4554921091
 20
8.7476072889
 30
0.0
 10
9.4501721133
 20
8.7429948876
 30
0.0
 10
9.4414894039
 20
8.7369676907
 30
0.0
 10
9.4321855658
 20
8.7318868696
 30
0.0
 10
9.4223558661
 20
8.7278046036
 30
0.0
 10
9.4120994471
 20
8.7247614195
 30
0.0
 10
9.4015196219
 20
8.722787774
 30
0.0
 10
9.3907243901
 20
8.7219028538
 30
0.0
 10
9.3834781093
 20
8.7220441973
 30
0.0
 10
9.3798576291
 20
8.7222952785
 30
0.0
  0
SPLINE
  5
3A3
100
AcDbEntity
  8
0
100
AcDbSpline
 62
4
  6
CONTINUOUS
 70
0
 71
3
 72
284
 73
280
 74
0
 42
0.0000001
 43
0.0000001
 44
0.0000000001
 40
0.0
 40
0.0
 40
0.0
 40
0.0
 40
0.015625
 40
0.03125
 40
0.0390625
 40
0.046875
 40
0.0546875
 40
0.05859375
 40
0.060546875
 40
0.0625
 40
0.064453125
 40
0.06640625
 40
0.0703125
 40
0.078125
 40
0.0859375
 40
0.09375
 40
0.1015625
 40
0.109375
 40
0.1171875
 40
0.12109375
 40
0.123046875
 40
0.125
 40
0.126953125
 40
0.12890625
 40
0.1328125
 40
0.140625
 40
0.1484375
 40
0.15625
 40
0.1640625
 40
0.171875
 40
0.17578125
 40
0.1796875
 40
0.18359375
 40
0.185546875
 40
0.1865234375
 40
0.1875
 40
0.1884765625
 40
0.189453125
 40
0.19140625
 40
0.1953125
 40
0.19921875
 40
0.203125
 40
0.2109375
 40
0.21875
 40
0.2265625
 40
0.234375
 40
0.23828125
 40
0.2421875
 40
0.244140625
 40
0.24609375
 40
0.248046875
 40
0.2490234375
 40
0.25
 40
0.2509765625
 40
0.251953125
 40
0.25390625
 40
0.255859375
 40
0.2578125
 40
0.26171875
 40
0.265625
 40
0.2734375
 40
0.28125
 40
0.2890625
 40
0.296875
 40
0.30078125
 40
0.3046875
 40
0.306640625
 40
0.30859375
 40
0.310546875
 40
0.3115234375
 40
0.3120117188
 40
0.3125
 40
0.3129882812
 40
0.3134765625
 40
0.314453125
 40
0.31640625
 40
0.318359375
 40
0.3203125
 40
0.32421875
 40
0.328125
 40
0.3359375
 40
0.34375
 40
0.3515625
 40
0.359375
 40
0.36328125
 40
0.3671875
 40
0.369140625
 40
0.37109375
 40
0.373046875
 40
0.3740234375
 40
0.3745117188
 40
0.375
 40
0.3754882812
 40
0.3759765625
 40
0.376953125
 40
0.37890625
 40
0.380859375
 40
0.3828125
 40
0.38671875
 40
0.390625
 40
0.3984375
 40
0.40625
 40
0.4140625
 40
0.421875
 40
0.42578125
 40
0.4296875
 40
0.431640625
 40
0.43359375
 40
0.435546875
 40
0.4365234375
 40
0.4370117188
 40
0.4375
 40
0.4379882812
 40
0.4384765625
 40
0.439453125
 40
0.44140625
 40
0.443359375
 40
0.4453125
 40
0.44921875
 40
0.453125
 40
0.4609375
 40
0.46875
 40
0.4765625
 40
0.484375
 40
0.48828125
 40
0.4921875
 40
0.494140625
 40
0.49609375
 40
0.498046875
 40
0.4990234375
 40
0.4995117188
 40
0.5
 40
0.5004882812
 40
0.5009765625
 40
0.501953125
 40
0.50390625
 40
0.505859375
 40
0.5078125
 40
0.51171875
 40
0.515625
 40
0.5234375
 40
0.53125
 40
0.5390625
 40
0.546875
 40
0.55078125
 40
0.5546875
 40
0.556640625
 40
0.55859375
 40
0.560546875
 40
0.5615234375
 40
0.5620117188
 40
0.5625
 40
0.5629882812
 40
0.5634765625
 40
0.564453125
 40
0.56640625
 40
0.568359375
 40
0.5703125
 40
0.57421875
 40
0.578125
 40
0.5859375
 40
0.59375
 40
0.6015625
 40
0.609375
 40
0.61328125
 40
0.6171875
 40
0.619140625
 40
0.62109375
 40
0.623046875
 40
0.6240234375
 40
0.6245117188
 40
0.625
 40
0.6254882812
 40
0.6259765625
 40
0.626953125
 40
0.62890625
 40
0.630859375
 40
0.6328125
 40
0.63671875
 40
0.640625
 40
0.6484375
 40
0.65625
 40
0.6640625
 40
0.671875
 40
0.67578125
 40
0.6796875
 40
0.681640625
 40
0.68359375
 40
0.685546875
 40
0.6865234375
 40
0.6870117188
 40
0.6875
 40
0.6879882812
 40
0.6884765625
 40
0.689453125
 40
0.69140625
 40
0.693359375
 40
0.6953125
 40
0.69921875
 40
0.703125
 40
0.7109375
 40
0.71875
 40
0.7265625
 40
0.734375
 40
0.73828125
 40
0.7421875
 40
0.744140625
 40
0.74609375
 40
0.748046875
 40
0.7490234375
 40
0.7495117188
 40
0.75
 40
0.7504882812
 40
0.7509765625
 40
0.751953125
 40
0.75390625
 40
0.755859375
 40
0.7578125
 40
0.76171875
 40
0.765625
 40
0.7734375
 40
0.78125
 40
0.7890625
 40
0.796875
 40
0.80078125
 40
0.8046875
 40
0.806640625
 40
0.80859375
 40
0.810546875
 40
0.8115234375
 40
0.8120117188
 40
0.8125
 40
0.8129882812
 40
0.8134765625
 40
0.814453125
 40
0.81640625
 40
0.818359375
 40
0.8203125
 40
0.82421875
 40
0.828125
 40
0.8359375
 40
0.84375
 40
0.8515625
 40
0.859375
 40
0.86328125
 40
0.8671875
 40
0.869140625
 40
0.87109375
 40
0.873046875
 40
0.8740234375
 40
0.875
 40
0.8759765625
 40
0.876953125
 40
0.87890625
 40
0.880859375
 40
0.8828125
 40
0.88671875
 40
0.890625
 40
0.8984375
 40
0.90625
 40
0.9140625
 40
0.921875
 40
0.92578125
 40
0.9296875
 40
0.93359375
 40
0.935546875
 40
0.9365234375
 40
0.9375
 40
0.9384765625
 40
0.939453125
 40
0.94140625
 40
0.9453125
 40
0.94921875
 40
0.953125
 40
0.9609375
 40
0.96875
 40
0.9765625
 40
0.984375
 40
1.0
 40
1.0
 40
1.0
 40
1.0
 10
10.4548913397
 20
10.5929365019
 30
0.0
 10
10.4516758357
 20
10.593074277
 30
0.0
 10
10.4452448187
 20
10.5933497916
 30
0.0
 10
10.437206093
 20
10.5936943626
 30
0.0
 10
10.4307750166
 20
10.5939696462
 30
0.0
 10
10.4259519694
 20
10.5941771221
 30
0.0
 10
10.4219319365
 20
10.5943467967
 30
0.0
 10
10.4191195361
 20
10.5944718918
 30
0.0
 10
10.4175099166
 20
10.5945335021
 30
0.0
 10
10.4163098391
 20
10.5946075211
 30
0.0
 10
10.4150824799
 20
10.5945752313
 30
0.0
 10
10.4134555172
 20
10.5945692601
 30
0.0
 10
10.4106038989
 20
10.5945415327
 30
0.0
 10
10.4065324746
 20
10.5945109607
 30
0.0
 10
10.4016457817
 20
10.5944703809
 30
0.0
 10
10.3967593179
 20
10.5944309131
 30
0.0
 10
10.3918729214
 20
10.5943908907
 30
0.0
 10
10.3869860265
 20
10.5943519745
 30
0.0
 10
10.3829152194
 20
10.5943163194
 30
0.0
 10
10.3800625014
 20
10.5942976491
 30
0.0
 10
10.3784373005
 20
10.594277168
 30
0.0
 10
10.3772045296
 20
10.5942894476
 30
0.0
 10
10.3760247776
 20
10.5941960716
 30
0.0
 10
10.3744332814
 20
10.5941084242
 30
0.0
 10
10.3716567796
 20
10.5939378701
 30
0.0
 10
10.3676858425
 20
10.5937032004
 30
0.0
 10
10.3629226515
 20
10.5934177456
 30
0.0
 10
10.3581589362
 20
10.5931333294
 30
0.0
 10
10.3533953845
 20
10.5928486098
 30
0.0
 10
10.3494256496
 20
10.5926114891
 30
0.0
 10
10.3462500403
 20
10.5924215947
 30
0.0
 10
10.3438678627
 20
10.59227968
 30
0.0
 10
10.3418842089
 20
10.5921598134
 30
0.0
 10
10.3404927192
 20
10.5920790545
 30
0.0
 10
10.3397021604
 20
10.5920279917
 30
0.0
 10
10.3390963445
 20
10.5920035397
 30
0.0
 10
10.3385398267
 20
10.591926165
 30
0.0
 10
10.3377806073
 20
10.5918414588
 30
0.0
 10
10.3364599851
 20
10.5916846221
 30
0.0
 10
10.3345691933
 20
10.5914650662
 30
0.0
 10
10.332302036
 20
10.5911996745
 30
0.0
 10
10.3292785335
 20
10.5908464911
 30
0.0
 10
10.3254993692
 20
10.5904047816
 30
0.0
 10
10.3209642845
 20
10.5898748274
 30
0.0
 10
10.3164292081
 20
10.5893448527
 30
0.0
 10
10.3126500229
 20
10.5889031945
 30
0.0
 10
10.3096265623
 20
10.5885499085
 30
0.0
 10
10.3077371581
 20
10.5883290095
 30
0.0
 10
10.3062250419
 20
10.5881525089
 30
0.0
 10
10.3050925781
 20
10.5880195345
 30
0.0
 10
10.304143694
 20
10.5879106282
 30
0.0
 10
10.3033961693
 20
10.587819229
 30
0.0
 10
10.3028038766
 20
10.5877623586
 30
0.0
 10
10.3023323895
 20
10.5876609093
 30
0.0
 10
10.301661541
 20
10.5875412155
 30
0.0
 10
10.3008374586
 20
10.5873862557
 30
0.0
 10
10.2998423626
 20
10.5872025907
 30
0.0
 10
10.2985177325
 20
10.5869569053
 30
0.0
 10
10.2968612037
 20
10.5866500721
 30
0.0
 10
10.2942111718
 20
10.5861589861
 30
0.0
 10
10.2908984902
 20
10.5855451809
 30
0.0
 10
10.2869233315
 20
10.5848085928
 30
0.0
 10
10.2829481629
 20
10.5840720087
 30
0.0
 10
10.2796355059
 20
10.5834581932
 30
0.0
 10
10.2769854248
 20
10.5829671278
 30
0.0
 10
10.2753290212
 20
10.5826602423
 30
0.0
 10
10.2740041341
 20
10.5824146642
 30
0.0
 10
10.2730098231
 20
10.5822306715
 30
0.0
 10
10.2721832849
 20
10.5820767369
 30
0.0
 10
10.2716006765
 20
10.5819701747
 30
0.0
 10
10.2712740526
 20
10.5819074208
 30
0.0
 10
10.2710113509
 20
10.5818655983
 30
0.0
 10
10.2708164367
 20
10.5818037347
 30
0.0
 10
10.2705329061
 20
10.5817282405
 30
0.0
 10
10.2700477442
 20
10.5815928685
 30
0.0
 10
10.2693488961
 20
10.5814011829
 30
0.0
 10
10.2685127437
 20
10.5811704312
 30
0.0
 10
10.2673970127
 20
10.5808630169
 30
0.0
 10
10.2660026438
 20
10.5804786618
 30
0.0
 10
10.2637714888
 20
10.5798637424
 30
0.0
 10
10.260982602
 20
10.5790950764
 30
0.0
 10
10.2576359115
 20
10.5781726847
 30
0.0
 10
10.2542892353
 20
10.5772502896
 30
0.0
 10
10.2515003127
 20
10.5764816322
 30
0.0
 10
10.2492692294
 20
10.5758666954
 30
0.0
 10
10.2478746784
 20
10.5754823846
 30
0.0
 10
10.2467593213
 20
10.5751748794
 30
0.0
 10
10.2459220266
 20
10.5749444054
 30
0.0
 10
10.2452267522
 20
10.5747518511
 30
0.0
 10
10.2447352107
 20
10.5746180297
 30
0.0
 10
10.2444619018
 20
10.5745400511
 30
0.0
 10
10.2442355896
 20
10.5744858187
 30
0.0
 10
10.2440908139
 20
10.5744153347
 30
0.0
 10
10.2438693388
 20
10.5743270247
 30
0.0
 10
10.2434950086
 20
10.5741698411
 30
0.0
 10
10.2429533233
 20
10.5739466739
 30
0.0
 10
10.2423062662
 20
10.5736782822
 30
0.0
 10
10.2414424877
 20
10.573320633
 30
0.0
 10
10.2403631192
 20
10.5728735009
 30
0.0
 10
10.2386359314
 20
10.572158129
 30
0.0
 10
10.2364770151
 20
10.5712639006
 30
0.0
 10
10.233886284
 20
10.5701908326
 30
0.0
 10
10.2312955694
 20
10.5691177617
 30
0.0
 10
10.2291366121
 20
10.5682235405
 30
0.0
 10
10.2274095064
 20
10.567508154
 30
0.0
 10
10.226329929
 20
10.5670610591
 30
0.0
 10
10.2254665793
 20
10.5667033337
 30
0.0
 10
10.2248182123
 20
10.5664351749
 30
0.0
 10
10.2242806256
 20
10.5662112789
 30
0.0
 10
10.2238989785
 20
10.5660553963
 30
0.0
 10
10.2236892268
 20
10.5659650018
 30
0.0
 10
10.2235084407
 20
10.5659009207
 30
0.0
 10
10.2234173778
 20
10.5658226398
 30
0.0
 10
10.2232646641
 20
10.5657232183
 30
0.0
 10
10.2230119968
 20
10.5655469229
 30
0.0
 10
10.2226434201
 20
10.5652962789
 30
0.0
 10
10.2222043911
 20
10.5649949896
 30
0.0
 10
10.2216178793
 20
10.564593451
 30
0.0
 10
10.2208851299
 20
10.5640914659
 30
0.0
 10
10.2197125127
 20
10.5632883243
 30
0.0
 10
10.2182468165
 20
10.5622843855
 30
0.0
 10
10.2164879463
 20
10.5610796641
 30
0.0
 10
10.2147290947
 20
10.5598749409
 30
0.0
 10
10.2132633522
 20
10.5588710066
 30
0.0
 10
10.2120908277
 20
10.5580678559
 30
0.0
 10
10.2113578425
 20
10.5575658939
 30
0.0
 10
10.2107718147
 20
10.5571643079
 30
0.0
 10
10.2103313071
 20
10.5568631633
 30
0.0
 10
10.2099673567
 20
10.5566120668
 30
0.0
 10
10.2097064306
 20
10.5564365791
 30
0.0
 10
10.2095669496
 20
10.5563358635
 30
0.0
 10
10.2094352402
 20
10.5562615577
 30
0.0
 10
10.2094071155
 20
10.5561825465
 30
0.0
 10
10.2093334844
 20
10.5560788395
 30
0.0
 10
10.2092214644
 20
10.5558965875
 30
0.0
 10
10.2090526346
 20
10.5556366273
 30
0.0
 10
10.208853806
 20
10.5553245039
 30
0.0
 10
10.2085873854
 20
10.5549083992
 30
0.0
 10
10.2082548102
 20
10.5543882479
 30
0.0
 10
10.2077224379
 20
10.5535560171
 30
0.0
 10
10.2070570597
 20
10.5525157248
 30
0.0
 10
10.206258566
 20
10.5512673757
 30
0.0
 10
10.2054600921
 20
10.550019026
 30
0.0
 10
10.2047946644
 20
10.5489787352
 30
0.0
 10
10.2042623911
 20
10.5481465014
 30
0.0
 10
10.2039295643
 20
10.5476263579
 30
0.0
 10
10.2036636602
 20
10.547210237
 30
0.0
 10
10.2034632538
 20
10.5468981632
 30
0.0
 10
10.2032993605
 20
10.5466380481
 30
0.0
 10
10.2031785279
 20
10.5464560726
 30
0.0
 10
10.2031190168
 20
10.5463519226
 30
0.0
 10
10.2030475199
 20
10.546274272
 30
0.0
 10
10.2030787094
 20
10.546194856
 30
0.0
 10
10.2030844772
 20
10.5460895839
 30
0.0
 10
10.2031112593
 20
10.5459050707
 30
0.0
 10
10.2031407945
 20
10.5456416305
 30
0.0
 10
10.2031799713
 20
10.5453254381
 30
0.0
 10
10.2032309026
 20
10.5449038705
 30
0.0
 10
10.2032950134
 20
10.5443769035
 30
0.0
 10
10.2033973409
 20
10.5435337604
 30
0.0
 10
10.2035253366
 20
10.5424798302
 30
0.0
 10
10.203678892
 20
10.5412151144
 30
0.0
 10
10.203832467
 20
10.5399503988
 30
0.0
 10
10.2039604136
 20
10.5388964681
 30
0.0
 10
10.2040628394
 20
10.5380533259
 30
0.0
 10
10.2041267004
 20
10.5375263568
 30
0.0
 10
10.2041781443
 20
10.5371047934
 30
0.0
 10
10.204215755
 20
10.5367885882
 30
0.0
 10
10.2042501902
 20
10.5365251879
 30
0.0
 10
10.204268225
 20
10.5363406036
 30
0.0
 10
10.2042880082
 20
10.5362354454
 30
0.0
 10
10.204276147
 20
10.5361556794
 30
0.0
 10
10.2043663413
 20
10.5360793439
 30
0.0
 10
10.2044510023
 20
10.5359763666
 30
0.0
 10
10.2046157449
 20
10.5357967138
 30
0.0
 10
10.2048424201
 20
10.5355397755
 30
0.0
 10
10.205118142
 20
10.5352315744
 30
0.0
 10
10.2054844748
 20
10.534820596
 30
0.0
 10
10.2059428347
 20
10.5343068878
 30
0.0
 10
10.2066759624
 20
10.5334849465
 30
0.0
 10
10.2075924577
 20
10.5324575227
 30
0.0
 10
10.2086922129
 20
10.5312246127
 30
0.0
 10
10.2097919876
 20
10.5299917037
 30
0.0
 10
10.2107084339
 20
10.5289642776
 30
0.0
 10
10.2114416596
 20
10.528142341
 30
0.0
 10
10.2118997703
 20
10.5276286209
 30
0.0
 10
10.2122666146
 20
10.527217667
 30
0.0
 10
10.2125407738
 20
10.5269093908
 30
0.0
 10
10.2127723384
 20
10.5266526873
 30
0.0
 10
10.2129283528
 20
10.5264726154
 30
0.0
 10
10.2130269985
 20
10.5263703097
 30
0.0
 10
10.2130742362
 20
10.5262919114
 30
0.0
 10
10.2132237127
 20
10.5262198928
 30
0.0
 10
10.2133873527
 20
10.5261216426
 30
0.0
 10
10.2136903383
 20
10.5259507417
 30
0.0
 10
10.214114488
 20
10.5257060554
 30
0.0
 10
10.2146271858
 20
10.5254126639
 30
0.0
 10
10.2153094843
 20
10.5250213942
 30
0.0
 10
10.216162802
 20
10.5245323348
 30
0.0
 10
10.2175278618
 20
10.5237498243
 30
0.0
 10
10.2192342723
 20
10.5227716915
 30
0.0
 10
10.2212819261
 20
10.5215979296
 30
0.0
 10
10.2233295979
 20
10.5204241697
 30
0.0
 10
10.2250359632
 20
10.5194460316
 30
0.0
 10
10.2264011134
 20
10.5186635317
 30
0.0
 10
10.2272542014
 20
10.5181744454
 30
0.0
 10
10.2279369714
 20
10.5177832308
 30
0.0
 10
10.2284482286
 20
10.517489671
 30
0.0
 10
10.2288768857
 20
10.5172455115
 30
0.0
 10
10.2291718248
 20
10.5170736702
 30
0.0
 10
10.2293483573
 20
10.5169769267
 30
0.0
 10
10.2294582319
 20
10.5169002801
 30
0.0
 10
10.2296542078
 20
10.5168392636
 30
0.0
 10
10.2298854758
 20
10.5167524562
 30
0.0
 10
10.2303041878
 20
10.5166030835
 30
0.0
 10
10.2308950321
 20
10.5163883659
 30
0.0
 10
10.2316071766
 20
10.5161312733
 30
0.0
 10
10.232555609
 20
10.5157882845
 30
0.0
 10
10.2337415239
 20
10.5153596165
 30
0.0
 10
10.2356387784
 20
10.5146737097
 30
0.0
 10
10.2380104187
 20
10.5138163394
 30
0.0
 10
10.2408563544
 20
10.5127874889
 30
0.0
 10
10.2437023057
 20
10.5117586416
 30
0.0
 10
10.2460739068
 20
10.5109012633
 30
0.0
 10
10.2479712398
 20
10.5102153725
 30
0.0
 10
10.2491569552
 20
10.509786664
 30
0.0
 10
10.250105797
 20
10.5094437583
 30
0.0
 10
10.2508166906
 20
10.5091864119
 30
0.0
 10
10.2514114487
 20
10.5089724882
 30
0.0
 10
10.251823174
 20
10.5088216982
 30
0.0
 10
10.2520656365
 20
10.5087371618
 30
0.0
 10
10.2522272263
 20
10.5086691696
 30
0.0
 10
10.2524662491
 20
10.5086187222
 30
0.0
 10
10.2527579367
 20
10.5085453391
 30
0.0
 10
10.2532809742
 20
10.5084197701
 30
0.0
 10
10.2540215914
 20
10.508238895
 30
0.0
 10
10.2549131481
 20
10.508022483
 30
0.0
 10
10.2561009068
 20
10.5077337109
 30
0.0
 10
10.257585942
 20
10.5073728219
 30
0.0
 10
10.2599618102
 20
10.506795357
 30
0.0
 10
10.262931709
 20
10.5060735402
 30
0.0
 10
10.2664955645
 20
10.5052073553
 30
0.0
 10
10.2700594105
 20
10.5043411664
 30
0.0
 10
10.2730293332
 20
10.5036193597
 30
0.0
 10
10.2754051535
 20
10.5030418747
 30
0.0
 10
10.2768903104
 20
10.502681037
 30
0.0
 10
10.2780778194
 20
10.5023921596
 30
0.0
 10
10.2789701391
 20
10.5021760689
 30
0.0
 10
10.2797083691
 20
10.5019941886
 30
0.0
 10
10.2803109965
 20
10.501852732
 30
0.0
 10
10.2807300589
 20
10.5017355797
 30
0.0
 10
10.2812747319
 20
10.5016606429
 30
0.0
 10
10.2819570851
 20
10.5015459808
 30
0.0
 10
10.2828250808
 20
10.5014077126
 30
0.0
 10
10.2838602319
 20
10.5012396251
 30
0.0
 10
10.285242684
 20
10.5010162649
 30
0.0
 10
10.2869699786
 20
10.5007368056
 30
0.0
 10
10.2897340802
 20
10.5002898154
 30
0.0
 10
10.2931890628
 20
10.4997310294
 30
0.0
 10
10.2973350901
 20
10.499060501
 30
0.0
 10
10.3014811554
 20
10.4983899902
 30
0.0
 10
10.3049360428
 20
10.4978311602
 30
0.0
 10
10.3077003346
 20
10.4973842579
 30
0.0
 10
10.3097725081
 20
10.4970486387
 30
0.0
 10
10.3115026448
 20
10.4967703636
 30
0.0
 10
10.3127072143
 20
10.4965728087
 30
0.0
 10
10.3134057299
 20
10.4964642333
 30
0.0
 10
10.3139009107
 20
10.4963706516
 30
0.0
 10
10.3145058202
 20
10.496323514
 30
0.0
 10
10.3152740916
 20
10.4962444636
 30
0.0
 10
10.3166363994
 20
10.4961136735
 30
0.0
 10
10.3185732302
 20
10.4959228842
 30
0.0
 10
10.3209014179
 20
10.4956956262
 30
0.0
 10
10.3240042741
 20
10.4953920255
 30
0.0
 10
10.3278833226
 20
10.495012727
 30
0.0
 10
10.3325379759
 20
10.4945574821
 30
0.0
 10
10.337192684
 20
10.4941022604
 30
0.0
 10
10.3433989422
 20
10.4934952901
 30
0.0
 10
10.3480536402
 20
10.4930400641
 30
0.0
 10
10.3511567713
 20
10.4927365797
 30
0.0
  0
SPLINE
  5
3A4
100
AcDbEntity
  8
0
100
AcDbSpline
 62
4
  6
CONTINUOUS
 70
0
 71
3
 72
284
 73
280
 74
0
 42
0.0000001
 43
0.0000001
 44
0.0000000001
 40
0.0
 40
0.0
 40
0.0
 40
0.0
 40
0.015625
 40
0.03125
 40
0.0390625
 40
0.046875
 40
0.0546875
 40
0.05859375
 40
0.060546875
 40
0.0625
 40
0.064453125
 40
0.06640625
 40
0.0703125
 40
0.078125
 40
0.0859375
 40
0.09375
 40
0.1015625
 40
0.109375
 40
0.1171875
 40
0.12109375
 40
0.123046875
 40
0.125
 40
0.126953125
 40
0.12890625
 40
0.1328125
 40
0.140625
 40
0.1484375
 40
0.15625
 40
0.1640625
 40
0.171875
 40
0.17578125
 40
0.1796875
 40
0.18359375
 40
0.185546875
 40
0.1865234375
 40
0.1875
 40
0.1884765625
 40
0.189453125
 40
0.19140625
 40
0.1953125
 40
0.19921875
 40
0.203125
 40
0.2109375
 40
0.21875
 40
0.2265625
 40
0.234375
 40
0.23828125
 40
0.2421875
 40
0.244140625
 40
0.24609375
 40
0.248046875
 40
0.2490234375
 40
0.25
 40
0.2509765625
 40
0.251953125
 40
0.25390625
 40
0.255859375
 40
0.2578125
 40
0.26171875
 40
0.265625
 40
0.2734375
 40
0.28125
 40
0.2890625
 40
0.296875
 40
0.30078125
 40
0.3046875
 40
0.306640625
 40
0.30859375
 40
0.310546875
 40
0.3115234375
 40
0.3120117188
 40
0.3125
 40
0.3129882812
 40
0.3134765625
 40
0.314453125
 40
0.31640625
 40
0.318359375
 40
0.3203125
 40
0.32421875
 40
0.328125
 40
0.3359375
 40
0.34375
 40
0.3515625
 40
0.359375
 40
0.36328125
 40
0.3671875
 40
0.369140625
 40
0.37109375
 40
0.373046875
 40
0.3740234375
 40
0.3745117188
 40
0.375
 40
0.3754882812
 40
0.3759765625
 40
0.376953125
 40
0.37890625
 40
0.380859375
 40
0.3828125
 40
0.38671875
 40
0.390625
 40
0.3984375
 40
0.40625
 40
0.4140625
 40
0.421875
 40
0.42578125
 40
0.4296875
 40
0.431640625
 40
0.43359375
 40
0.435546875
 40
0.4365234375
 40
0.4370117188
 40
0.4375
 40
0.4379882812
 40
0.4384765625
 40
0.439453125
 40
0.44140625
 40
0.443359375
 40
0.4453125
 40
0.44921875
 40
0.453125
 40
0.4609375
 40
0.46875
 40
0.4765625
 40
0.484375
 40
0.48828125
 40
0.4921875
 40
0.494140625
 40
0.49609375
 40
0.498046875
 40
0.4990234375
 40
0.4995117188
 40
0.5
 40
0.5004882812
 40
0.5009765625
 40
0.501953125
 40
0.50390625
 40
0.505859375
 40
0.5078125
 40
0.51171875
 40
0.515625
 40
0.5234375
 40
0.53125
 40
0.5390625
 40
0.546875
 40
0.55078125
 40
0.5546875
 40
0.556640625
 40
0.55859375
 40
0.560546875
 40
0.5615234375
 40
0.5620117188
 40
0.5625
 40
0.5629882812
 40
0.5634765625
 40
0.564453125
 40
0.56640625
 40
0.568359375
 40
0.5703125
 40
0.57421875
 40
0.578125
 40
0.5859375
 40
0.59375
 40
0.6015625
 40
0.609375
 40
0.61328125
 40
0.6171875
 40
0.619140625
 40
0.62109375
 40
0.623046875
 40
0.6240234375
 40
0.6245117188
 40
0.625
 40
0.6254882812
 40
0.6259765625
 40
0.626953125
 40
0.62890625
 40
0.630859375
 40
0.6328125
 40
0.63671875
 40
0.640625
 40
0.6484375
 40
0.65625
 40
0.6640625
 40
0.671875
 40
0.67578125
 40
0.6796875
 40
0.681640625
 40
0.68359375
 40
0.685546875
 40
0.6865234375
 40
0.6870117188
 40
0.6875
 40
0.6879882812
 40
0.6884765625
 40
0.689453125
 40
0.69140625
 40
0.693359375
 40
0.6953125
 40
0.69921875
 40
0.703125
 40
0.7109375
 40
0.71875
 40
0.7265625
 40
0.734375
 40
0.73828125
 40
0.7421875
 40
0.744140625
 40
0.74609375
 40
0.748046875
 40
0.7490234375
 40
0.7495117188
 40
0.75
 40
0.7504882812
 40
0.7509765625
 40
0.751953125
 40
0.75390625
 40
0.755859375
 40
0.7578125
 40
0.76171875
 40
0.765625
 40
0.7734375
 40
0.78125
 40
0.7890625
 40
0.796875
 40
0.80078125
 40
0.8046875
 40
0.806640625
 40
0.80859375
 40
0.810546875
 40
0.8115234375
 40
0.8120117188
 40
0.8125
 40
0.8129882812
 40
0.8134765625
 40
0.814453125
 40
0.81640625
 40
0.818359375
 40
0.8203125
 40
0.82421875
 40
0.828125
 40
0.8359375
 40
0.84375
 40
0.8515625
 40
0.859375
 40
0.86328125
 40
0.8671875
 40
0.869140625
 40
0.87109375
 40
0.873046875
 40
0.8740234375
 40
0.875
 40
0.8759765625
 40
0.876953125
 40
0.87890625
 40
0.880859375
 40
0.8828125
 40
0.88671875
 40
0.890625
 40
0.8984375
 40
0.90625
 40
0.9140625
 40
0.921875
 40
0.92578125
 40
0.9296875
 40
0.93359375
 40
0.935546875
 40
0.9365234375
 40
0.9375
 40
0.9384765625
 40
0.939453125
 40
0.94140625
 40
0.9453125
 40
0.94921875
 40
0.953125
 40
0.9609375
 40
0.96875
 40
0.9765625
 40
0.984375
 40
1.0
 40
1.0
 40
1.0
 40
1.0
 10
10.3511567543
 20
10.4927365809
 30
0.0
 10
10.3543722583
 20
10.4925988058
 30
0.0
 10
10.3608032754
 20
10.4923232912
 30
0.0
 10
10.368842001
 20
10.4919787201
 30
0.0
 10
10.3752730774
 20
10.4917034366
 30
0.0
 10
10.3800961246
 20
10.4914959607
 30
0.0
 10
10.3841161575
 20
10.4913262861
 30
0.0
 10
10.3869285579
 20
10.491201191
 30
0.0
 10
10.3885381774
 20
10.4911395807
 30
0.0
 10
10.389738255
 20
10.4910655617
 30
0.0
 10
10.3909656141
 20
10.4910978515
 30
0.0
 10
10.3925925768
 20
10.4911038227
 30
0.0
 10
10.3954441951
 20
10.4911315501
 30
0.0
 10
10.3995156195
 20
10.4911621221
 30
0.0
 10
10.4044023123
 20
10.4912027019
 30
0.0
 10
10.4092887761
 20
10.4912421697
 30
0.0
 10
10.4141751726
 20
10.4912821921
 30
0.0
 10
10.4190620675
 20
10.4913211083
 30
0.0
 10
10.4231328746
 20
10.4913567634
 30
0.0
 10
10.4259855926
 20
10.4913754337
 30
0.0
 10
10.4276107936
 20
10.4913959148
 30
0.0
 10
10.4288435644
 20
10.4913836352
 30
0.0
 10
10.4300233164
 20
10.4914770112
 30
0.0
 10
10.4316148126
 20
10.4915646586
 30
0.0
 10
10.4343913144
 20
10.4917352127
 30
0.0
 10
10.4383622515
 20
10.4919698823
 30
0.0
 10
10.4431254425
 20
10.4922553372
 30
0.0
 10
10.4478891578
 20
10.4925397534
 30
0.0
 10
10.4526527095
 20
10.492824473
 30
0.0
 10
10.4566224444
 20
10.4930615937
 30
0.0
 10
10.4597980538
 20
10.4932514881
 30
0.0
 10
10.4621802314
 20
10.4933934028
 30
0.0
 10
10.4641638851
 20
10.4935132694
 30
0.0
 10
10.4655553748
 20
10.4935940283
 30
0.0
 10
10.4663459336
 20
10.4936450911
 30
0.0
 10
10.4669517495
 20
10.4936695431
 30
0.0
 10
10.4675082673
 20
10.4937469178
 30
0.0
 10
10.4682674867
 20
10.493831624
 30
0.0
 10
10.4695881089
 20
10.4939884607
 30
0.0
 10
10.4714789007
 20
10.4942080166
 30
0.0
 10
10.473746058
 20
10.4944734083
 30
0.0
 10
10.4767695606
 20
10.4948265917
 30
0.0
 10
10.4805487248
 20
10.4952683012
 30
0.0
 10
10.4850838096
 20
10.4957982554
 30
0.0
 10
10.4896188859
 20
10.4963282301
 30
0.0
 10
10.4933980711
 20
10.4967698883
 30
0.0
 10
10.4964215318
 20
10.4971231743
 30
0.0
 10
10.498310936
 20
10.4973440733
 30
0.0
 10
10.4998230522
 20
10.4975205738
 30
0.0
 10
10.5009555159
 20
10.4976535483
 30
0.0
 10
10.5019044
 20
10.4977624546
 30
0.0
 10
10.5026519247
 20
10.4978538538
 30
0.0
 10
10.5032442174
 20
10.4979107242
 30
0.0
 10
10.5037157046
 20
10.4980121735
 30
0.0
 10
10.5043865531
 20
10.4981318673
 30
0.0
 10
10.5052106354
 20
10.4982868271
 30
0.0
 10
10.5062057314
 20
10.4984704921
 30
0.0
 10
10.5075303615
 20
10.4987161775
 30
0.0
 10
10.5091868903
 20
10.4990230107
 30
0.0
 10
10.5118369222
 20
10.4995140967
 30
0.0
 10
10.5151496038
 20
10.5001279019
 30
0.0
 10
10.5191247625
 20
10.50086449
 30
0.0
 10
10.5230999312
 20
10.5016010741
 30
0.0
 10
10.5264125881
 20
10.5022148896
 30
0.0
 10
10.5290626693
 20
10.502705955
 30
0.0
 10
10.5307190729
 20
10.5030128405
 30
0.0
 10
10.5320439599
 20
10.5032584186
 30
0.0
 10
10.533038271
 20
10.5034424113
 30
0.0
 10
10.5338648091
 20
10.5035963459
 30
0.0
 10
10.5344474176
 20
10.5037029081
 30
0.0
 10
10.5347740414
 20
10.503765662
 30
0.0
 10
10.5350367431
 20
10.5038074845
 30
0.0
 10
10.5352316573
 20
10.5038693481
 30
0.0
 10
10.5355151879
 20
10.5039448423
 30
0.0
 10
10.5360003499
 20
10.5040802143
 30
0.0
 10
10.536699198
 20
10.5042718999
 30
0.0
 10
10.5375353504
 20
10.5045026516
 30
0.0
 10
10.5386510813
 20
10.5048100659
 30
0.0
 10
10.5400454502
 20
10.505194421
 30
0.0
 10
10.5422766052
 20
10.5058093404
 30
0.0
 10
10.545065492
 20
10.5065780064
 30
0.0
 10
10.5484121825
 20
10.5075003981
 30
0.0
 10
10.5517588587
 20
10.5084227932
 30
0.0
 10
10.5545477813
 20
10.5091914506
 30
0.0
 10
10.5567788647
 20
10.5098063874
 30
0.0
 10
10.5581734157
 20
10.5101906982
 30
0.0
 10
10.5592887728
 20
10.5104982034
 30
0.0
 10
10.5601260674
 20
10.5107286774
 30
0.0
 10
10.5608213418
 20
10.5109212317
 30
0.0
 10
10.5613128834
 20
10.5110550531
 30
0.0
 10
10.5615861922
 20
10.5111330317
 30
0.0
 10
10.5618125045
 20
10.5111872641
 30
0.0
 10
10.5619572801
 20
10.5112577481
 30
0.0
 10
10.5621787552
 20
10.5113460581
 30
0.0
 10
10.5625530854
 20
10.5115032417
 30
0.0
 10
10.5630947708
 20
10.5117264089
 30
0.0
 10
10.5637418279
 20
10.5119948006
 30
0.0
 10
10.5646056064
 20
10.5123524498
 30
0.0
 10
10.5656849748
 20
10.5127995819
 30
0.0
 10
10.5674121627
 20
10.5135149538
 30
0.0
 10
10.5695710789
 20
10.5144091822
 30
0.0
 10
10.57216181
 20
10.5154822502
 30
0.0
 10
10.5747525246
 20
10.5165553211
 30
0.0
 10
10.576911482
 20
10.5174495423
 30
0.0
 10
10.5786385876
 20
10.5181649288
 30
0.0
 10
10.579718165
 20
10.5186120237
 30
0.0
 10
10.5805815147
 20
10.5189697491
 30
0.0
 10
10.5812298818
 20
10.5192379079
 30
0.0
 10
10.5817674685
 20
10.5194618039
 30
0.0
 10
10.5821491155
 20
10.5196176865
 30
0.0
 10
10.5823588672
 20
10.519708081
 30
0.0
 10
10.5825396533
 20
10.5197721621
 30
0.0
 10
10.5826307162
 20
10.519850443
 30
0.0
 10
10.5827834299
 20
10.5199498645
 30
0.0
 10
10.5830360972
 20
10.5201261599
 30
0.0
 10
10.583404674
 20
10.5203768039
 30
0.0
 10
10.583843703
 20
10.5206780932
 30
0.0
 10
10.5844302147
 20
10.5210796318
 30
0.0
 10
10.5851629641
 20
10.5215816169
 30
0.0
 10
10.5863355814
 20
10.5223847585
 30
0.0
 10
10.5878012775
 20
10.5233886973
 30
0.0
 10
10.5895601477
 20
10.5245934187
 30
0.0
 10
10.5913189993
 20
10.5257981419
 30
0.0
 10
10.5927847419
 20
10.5268020762
 30
0.0
 10
10.5939572663
 20
10.5276052269
 30
0.0
 10
10.5946902516
 20
10.5281071889
 30
0.0
 10
10.5952762793
 20
10.5285087749
 30
0.0
 10
10.595716787
 20
10.5288099195
 30
0.0
 10
10.5960807374
 20
10.529061016
 30
0.0
 10
10.5963416635
 20
10.5292365037
 30
0.0
 10
10.5964811445
 20
10.5293372193
 30
0.0
 10
10.5966128539
 20
10.5294115251
 30
0.0
 10
10.5966409785
 20
10.5294905363
 30
0.0
 10
10.5967146096
 20
10.5295942433
 30
0.0
 10
10.5968266297
 20
10.5297764953
 30
0.0
 10
10.5969954595
 20
10.5300364555
 30
0.0
 10
10.5971942881
 20
10.5303485789
 30
0.0
 10
10.5974607087
 20
10.5307646836
 30
0.0
 10
10.5977932839
 20
10.5312848349
 30
0.0
 10
10.5983256561
 20
10.5321170657
 30
0.0
 10
10.5989910344
 20
10.533157358
 30
0.0
 10
10.599789528
 20
10.5344057071
 30
0.0
 10
10.6005880019
 20
10.5356540568
 30
0.0
 10
10.6012534297
 20
10.5366943476
 30
0.0
 10
10.6017857029
 20
10.5375265814
 30
0.0
 10
10.6021185297
 20
10.5380467248
 30
0.0
 10
10.6023844339
 20
10.5384628458
 30
0.0
 10
10.6025848403
 20
10.5387749196
 30
0.0
 10
10.6027487335
 20
10.5390350347
 30
0.0
 10
10.6028695662
 20
10.5392170102
 30
0.0
 10
10.6029290772
 20
10.5393211602
 30
0.0
 10
10.6030005741
 20
10.5393988108
 30
0.0
 10
10.6029693846
 20
10.5394782268
 30
0.0
 10
10.6029636168
 20
10.5395834989
 30
0.0
 10
10.6029368348
 20
10.5397680121
 30
0.0
 10
10.6029072995
 20
10.5400314523
 30
0.0
 10
10.6028681228
 20
10.5403476447
 30
0.0
 10
10.6028171914
 20
10.5407692123
 30
0.0
 10
10.6027530807
 20
10.5412961793
 30
0.0
 10
10.6026507531
 20
10.5421393224
 30
0.0
 10
10.6025227574
 20
10.5431932526
 30
0.0
 10
10.602369202
 20
10.5444579684
 30
0.0
 10
10.602215627
 20
10.545722684
 30
0.0
 10
10.6020876805
 20
10.5467766146
 30
0.0
 10
10.6019852547
 20
10.5476197569
 30
0.0
 10
10.6019213936
 20
10.548146726
 30
0.0
 10
10.6018699497
 20
10.5485682894
 30
0.0
 10
10.601832339
 20
10.5488844946
 30
0.0
 10
10.6017979038
 20
10.5491478949
 30
0.0
 10
10.6017798691
 20
10.5493324792
 30
0.0
 10
10.6017600859
 20
10.5494376374
 30
0.0
 10
10.6017719471
 20
10.5495174034
 30
0.0
 10
10.6016817527
 20
10.5495937389
 30
0.0
 10
10.6015970917
 20
10.5496967162
 30
0.0
 10
10.6014323492
 20
10.549876369
 30
0.0
 10
10.6012056739
 20
10.5501333072
 30
0.0
 10
10.600929952
 20
10.5504415084
 30
0.0
 10
10.6005636192
 20
10.5508524868
 30
0.0
 10
10.6001052593
 20
10.551366195
 30
0.0
 10
10.5993721317
 20
10.5521881363
 30
0.0
 10
10.5984556364
 20
10.5532155601
 30
0.0
 10
10.5973558812
 20
10.5544484701
 30
0.0
 10
10.5962561064
 20
10.5556813791
 30
0.0
 10
10.5953396601
 20
10.5567088052
 30
0.0
 10
10.5946064344
 20
10.5575307418
 30
0.0
 10
10.5941483237
 20
10.5580444619
 30
0.0
 10
10.5937814794
 20
10.5584554158
 30
0.0
 10
10.5935073202
 20
10.558763692
 30
0.0
 10
10.5932757557
 20
10.5590203955
 30
0.0
 10
10.5931197413
 20
10.5592004674
 30
0.0
 10
10.5930210956
 20
10.5593027731
 30
0.0
 10
10.5929738578
 20
10.5593811714
 30
0.0
 10
10.5928243813
 20
10.55945319
 30
0.0
 10
10.5926607413
 20
10.5595514402
 30
0.0
 10
10.5923577558
 20
10.5597223411
 30
0.0
 10
10.5919336061
 20
10.5599670274
 30
0.0
 10
10.5914209082
 20
10.5602604189
 30
0.0
 10
10.5907386098
 20
10.5606516886
 30
0.0
 10
10.589885292
 20
10.561140748
 30
0.0
 10
10.5885202323
 20
10.5619232585
 30
0.0
 10
10.5868138217
 20
10.5629013912
 30
0.0
 10
10.584766168
 20
10.5640751532
 30
0.0
 10
10.5827184961
 20
10.5652489131
 30
0.0
 10
10.5810121308
 20
10.5662270512
 30
0.0
 10
10.5796469806
 20
10.5670095511
 30
0.0
 10
10.5787938926
 20
10.5674986374
 30
0.0
 10
10.5781111226
 20
10.567889852
 30
0.0
 10
10.5775998654
 20
10.5681834118
 30
0.0
 10
10.5771712083
 20
10.5684275713
 30
0.0
 10
10.5768762693
 20
10.5685994126
 30
0.0
 10
10.5766997367
 20
10.5686961561
 30
0.0
 10
10.5765898621
 20
10.5687728027
 30
0.0
 10
10.5763938863
 20
10.5688338192
 30
0.0
 10
10.5761626183
 20
10.5689206266
 30
0.0
 10
10.5757439063
 20
10.5690699993
 30
0.0
 10
10.5751530619
 20
10.5692847169
 30
0.0
 10
10.5744409174
 20
10.5695418095
 30
0.0
 10
10.5734924851
 20
10.5698847983
 30
0.0
 10
10.5723065702
 20
10.5703134663
 30
0.0
 10
10.5704093157
 20
10.5709993731
 30
0.0
 10
10.5680376753
 20
10.5718567434
 30
0.0
 10
10.5651917397
 20
10.5728855939
 30
0.0
 10
10.5623457883
 20
10.5739144412
 30
0.0
 10
10.5599741872
 20
10.5747718195
 30
0.0
 10
10.5580768542
 20
10.5754577103
 30
0.0
 10
10.5568911388
 20
10.5758864188
 30
0.0
 10
10.555942297
 20
10.5762293245
 30
0.0
 10
10.5552314034
 20
10.5764866709
 30
0.0
 10
10.5546366453
 20
10.5767005946
 30
0.0
 10
10.5542249201
 20
10.5768513846
 30
0.0
 10
10.5539824575
 20
10.576935921
 30
0.0
 10
10.5538208677
 20
10.5770039132
 30
0.0
 10
10.5535818449
 20
10.5770543606
 30
0.0
 10
10.5532901573
 20
10.5771277437
 30
0.0
 10
10.5527671199
 20
10.5772533127
 30
0.0
 10
10.5520265027
 20
10.5774341878
 30
0.0
 10
10.5511349459
 20
10.5776505998
 30
0.0
 10
10.5499471872
 20
10.5779393719
 30
0.0
 10
10.548462152
 20
10.5783002609
 30
0.0
 10
10.5460862839
 20
10.5788777258
 30
0.0
 10
10.543116385
 20
10.5795995426
 30
0.0
 10
10.5395525295
 20
10.5804657275
 30
0.0
 10
10.5359886836
 20
10.5813319164
 30
0.0
 10
10.5330187608
 20
10.5820537231
 30
0.0
 10
10.5306429405
 20
10.5826312081
 30
0.0
 10
10.5291577837
 20
10.5829920458
 30
0.0
 10
10.5279702747
 20
10.5832809232
 30
0.0
 10
10.527077955
 20
10.5834970139
 30
0.0
 10
10.5263397249
 20
10.5836788941
 30
0.0
 10
10.5257370976
 20
10.5838203508
 30
0.0
 10
10.5253180351
 20
10.5839375031
 30
0.0
 10
10.5247733622
 20
10.5840124399
 30
0.0
 10
10.5240910089
 20
10.584127102
 30
0.0
 10
10.5232230133
 20
10.5842653702
 30
0.0
 10
10.5221878622
 20
10.5844334577
 30
0.0
 10
10.52080541
 20
10.5846568179
 30
0.0
 10
10.5190781154
 20
10.5849362771
 30
0.0
 10
10.5163140138
 20
10.5853832674
 30
0.0
 10
10.5128590313
 20
10.5859420534
 30
0.0
 10
10.508713004
 20
10.5866125818
 30
0.0
 10
10.5045669386
 20
10.5872830926
 30
0.0
 10
10.5011120512
 20
10.5878419226
 30
0.0
 10
10.4983477594
 20
10.5882888249
 30
0.0
 10
10.4962755859
 20
10.5886244441
 30
0.0
 10
10.4945454492
 20
10.5889027192
 30
0.0
 10
10.4933408797
 20
10.5891002741
 30
0.0
 10
10.4926423641
 20
10.5892088495
 30
0.0
 10
10.4921471834
 20
10.5893024312
 30
0.0
 10
10.4915422738
 20
10.5893495688
 30
0.0
 10
10.4907740024
 20
10.5894286192
 30
0.0
 10
10.4894116946
 20
10.5895594093
 30
0.0
 10
10.4874748638
 20
10.5897501986
 30
0.0
 10
10.4851466762
 20
10.5899774566
 30
0.0
 10
10.48204382
 20
10.5902810573
 30
0.0
 10
10.4781647714
 20
10.5906603558
 30
0.0
 10
10.4735101182
 20
10.5911156007
 30
0.0
 10
10.46885541
 20
10.5915708223
 30
0.0
 10
10.4626491518
 20
10.5921777927
 30
0.0
 10
10.4579944538
 20
10.5926330187
 30
0.0
 10
10.4548913228
 20
10.5929365031
 30
0.0
  0
ENDSEC
  0
SECTION
  2
OBJECTS
  0
DICTIONARY
  5
C
100
AcDbDictionary
280
0
281
1
  3
ACAD_GROUP
350
D
  3
ACAD_MLINESTYLE
350
17
  3
ACAD_LAYOUT
350
1A
  3
ACAD_PLOTSETTINGS
350
19
  3
ACAD_PLOTSTYLENAME
350
E
  3
ACAD_IMAGE_DICT
350
       3A6
  3
ACAD_IMAGE_VARS
350
       3A7
  3
ACAD_TABLESTYLE
350
       3A8
  0
IMAGEDEF_REACTOR
  5
3A5
100
AcDbRasterImageDefReactor
 90
2
330
28D
  0
DICTIONARY
  5
D
102
{ACAD_REACTORS
330
C
102
}
100
AcDbDictionary
280
0
281
1
  0
ACDBDICTIONARYWDFLT
  5
E
102
{ACAD_REACTORS
330
C
102
}
100
AcDbDictionary
281
1
  3
Normal
350
F
100
AcDbDictionaryWithDefault
340
F
  0
DICTIONARY
  5
3A6
330
C
100
AcDbDictionary
281
1
  3
VRL_assy_2_img_1
350
       3AB
  0
RASTERVARIABLES
  5
3A7
330
C
100
AcDbRasterVariables
 90
0
 70
0
 71
1
 72
5
  0
DICTIONARY
  5
17
102
{ACAD_REACTORS
330
C
102
}
100
AcDbDictionary
280
0
281
1
  3
Standard
350
18
  0
DICTIONARY
  5
3A8
330
C
100
AcDbDictionary
281
1
  3
Standard
350
       3AC
  3
Standard1
350
       3AD
  0
DICTIONARY
  5
19
102
{ACAD_REACTORS
330
C
102
}
100
AcDbDictionary
281
1
  0
DICTIONARY
  5
1A
102
{ACAD_REACTORS
330
C
102
}
100
AcDbDictionary
281
1
  3
Model
350
3A9
  3
Layout1
350
3AA
  0
ACDBPLACEHOLDER
  5
F
102
{ACAD_REACTORS
330
E
102
}
  0
MLINESTYLE
  5
18
102
{ACAD_REACTORS
330
17
102
}
100
AcDbMlineStyle
  2
STANDARD
 70
0
  3

 62
256
 51
90.0
 52
90.0
 71
2
 49
0.5
 62
256
  6
BYLAYER
 49
-0.5
 62
256
  6
BYLAYER
  0
LAYOUT
  5
3A9
102
{ACAD_REACTORS
330
1A
102
}
100
AcDbPlotSettings
  1

  2
none_device
  4
ANSI_C_(22.00_x_17.00_Inches)
  6

 40
0.0
 41
0.0
 42
0.0
 43
0.0
 44
558.8
 45
431.8
 46
0.0
 47
0.0
 48
0.0
 49
0.0
140
0.0
141
0.0
142
1.0
143
1.0
 70
1024
 72
0
 73
0
 74
0
  7

 75
0
147
1.0
148
0.0
149
0.0
100
AcDbLayout
  1
Model
 70
0
 71
0
 10
0.0
 20
0.0
 11
22.0
 21
17.0
 12
0.0
 22
0.0
 32
0.0
 14
0.0
 24
0.0
 34
0.0
 15
0.0
 25
0.0
 35
0.0
146
0.0
 13
0.0
 23
0.0
 33
0.0
 16
1.0
 26
0.0
 36
0.0
 17
0.0
 27
1.0
 37
0.0
 76
0
330
206
345
0
346
0
  0
LAYOUT
  5
3AA
102
{ACAD_REACTORS
330
1A
102
}
100
AcDbPlotSettings
  1

  2
none_device
  4
ANSI_C_(22.00_x_17.00_Inches)
  6

 40
0.0
 41
0.0
 42
0.0
 43
0.0
 44
558.8
 45
431.8
 46
0.0
 47
0.0
 48
0.0
 49
0.0
140
0.0
141
0.0
142
1.0
143
1.0
 70
0
 72
0
 73
0
 74
0
  7

 75
0
147
1.0
148
0.0
149
0.0
100
AcDbLayout
  1
Layout1
 70
0
 71
1
 10
0.0
 20
0.0
 11
22.0
 21
17.0
 12
0.0
 22
0.0
 32
0.0
 14
0.0
 24
0.0
 34
0.0
 15
0.0
 25
0.0
 35
0.0
146
0.0
 13
0.0
 23
0.0
 33
0.0
 16
1.0
 26
0.0
 36
0.0
 17
0.0
 27
1.0
 37
0.0
 76
0
330
207
345
0
346
0
  0
IMAGEDEF
  5
3AB
102
{ACAD_REACTORS
330
3A6
330
3A5
102
}
100
AcDbRasterImageDef
 90
0
  1
VRL_assy_2_img_1.png
 10
369.0
 20
92.0
 11
0.0066666667
 21
0.0066666667
280
1
281
0
  0
TABLESTYLE
  5
3AC
102
{ACAD_REACTORS
330
3A8
330
290
330
291
102
}
330
3A8
100
AcDbTableStyle
  3
Standard
 70
0
 71
0
 40
0.06
 41
0.06
280
1
281
1
  7
Standard
140
0.18
170
1
 62
0
 63
7
283
0
  7
Standard
140
0.18
170
1
 62
0
 63
7
283
0
  7
Standard
140
0.18
170
1
 62
0
 63
7
283
0
  0
TABLESTYLE
  5
3AD
102
{ACAD_REACTORS
330
3A8
330
28F
102
}
330
3A8
100
AcDbTableStyle
  3
Standard1
 70
1
 71
0
 40
0.06
 41
0.06
280
1
281
1
  7
Standard
140
0.18
170
1
 62
0
 63
7
283
0
  7
Standard
140
0.18
170
1
 62
0
 63
7
283
0
  7
Standard
140
0.18
170
1
 62
0
 63
7
283
0
  0
ENDSEC
  0
EOF
