999
DXF file: VMR_assy_2.dxf
999
Pro/ENGINEER 2014200 by Parametric Technology Corporation
  0
SECTION
  2
HEADER
  9
$ACADVER
  1
AC1021
  9
$DWGCODEPAGE
  3
ANSI_1252
  9
$EXTMAX
 10
22.0
 20
17.0
 30
0.0
  9
$EXTMIN
 10
0.0
 20
0.0
 30
0.0
  9
$LIMMIN
 10
0.0
 20
0.0
  9
$LIMMAX
 10
22.0
 20
17.0
  9
$VIEWCTR
 10
11.0
 20
8.5
  9
$VIEWSIZE
 40
17.0
  9
$CLAYER
  8
0
  9
$LTSCALE
 40
1.21
  9
$CELTYPE
  6
BYLAYER
  9
$DIMSCALE
 40
1.0
  9
$DIMASZ
 40
0.1875
  9
$DIMEXO
 40
0.0625
  9
$DIMDLI
 40
0.836
  9
$DIMEXE
 40
0.125
  9
$DIMCEN
 40
0.198
  9
$DIMLFAC
 40
1.0
  9
$DIMBLK
  1
_FILLED
  9
$DIMTXT
 40
0.1
  9
$DIMTOL
 70
0
  9
$DIMLIM
 70
0
  9
$DIMTFAC
 40
1.0
  9
$DIMGAP
 40
0.09
  9
$DIMDSEP
 70
46
  9
$AUNITS
 70
0
  9
$PDMODE
 70
3
  9
$PDSIZE
 40
0.3125
  9
$HANDSEED
  5
3BB
  9
$TILEMODE
 70
1
  9
$MEASUREMENT
 70
0
  9
$INSUNITS
 70
1
  0
ENDSEC
  0
SECTION
  2
CLASSES
  0
CLASS
  1
ACDBDICTIONARYWDFLT
  2
AcDbDictionaryWithDefault
  3
AutoCAD 2000
 90
0
 91
1
280
0
281
0
  0
CLASS
  1
ACDBPLACEHOLDER
  2
AcDbPlaceHolder
  3
AutoCAD 2000
 90
0
 91
1
280
0
281
0
  0
CLASS
  1
LAYOUT
  2
AcDbLayout
  3
AutoCAD 2000
 90
0
 91
0
280
0
281
0
  0
CLASS
  1
RASTERVARIABLES
  2
AcDbRasterVariables
  3
ISM
 90
0
 91
1
280
0
281
0
  0
CLASS
  1
IMAGEDEF
  2
AcDbRasterImageDef
  3
ISM
 90
0
 91
1
280
0
281
0
  0
CLASS
  1
IMAGEDEF_REACTOR
  2
AcDbRasterImageDefReactor
  3
ISM
 90
0
 91
1
280
0
281
0
  0
CLASS
  1
IMAGE
  2
AcDbRasterImage
  3
ISM
 90
127
 91
1
280
0
281
1
  0
CLASS
  1
TABLESTYLE
  2
AcDbTableStyle
  3
ObjectDBX Classes
 90
2047
 91
1
280
0
281
0
  0
CLASS
  1
ACAD_TABLE
  2
AcDbTable
  3
ObjectDBX Classes
 90
1025
 91
3
280
0
281
1
  0
ENDSEC
  0
SECTION
  2
TABLES
  0
TABLE
  2
VPORT
  5
8
100
AcDbSymbolTable
 70
2
  0
VPORT
  5
1F4
100
AcDbSymbolTableRecord
100
AcDbViewportTableRecord
  2
*ACTIVE
 70
0
 10
0.0
 20
0.0
 11
1.0
 21
1.0
 12
11.0
 22
8.5
 13
0.0
 23
0.0
 14
1.0
 24
1.0
 15
0.0
 25
0.0
 16
0.0
 26
0.0
 36
1.0
 17
0.0
 27
0.0
 37
0.0
 40
17.0
 41
1.2941176471
 42
50.0
 43
0.0
 44
0.0
 50
0.0
 51
0.0
 71
0
 72
100
 73
1
 74
1
 75
0
 76
0
 77
0
 78
0
  0
ENDTAB
  0
TABLE
  2
LTYPE
  5
5
100
AcDbSymbolTable
 70
6
  0
LTYPE
  5
14
100
AcDbSymbolTableRecord
100
AcDbLinetypeTableRecord
  2
BYBLOCK
 70
0
  3

 72
65
 73
0
 40
0.0
  0
LTYPE
  5
15
100
AcDbSymbolTableRecord
100
AcDbLinetypeTableRecord
  2
BYLAYER
 70
0
  3

 72
65
 73
0
 40
0.0
  0
LTYPE
  5
16
100
AcDbSymbolTableRecord
100
AcDbLinetypeTableRecord
  2
CONTINUOUS
 70
64
  3
Solid line
 72
65
 73
0
 40
0.0
  0
LTYPE
  5
1F5
100
AcDbSymbolTableRecord
100
AcDbLinetypeTableRecord
  2
CENTER
 70
64
  3
____ _ ____ _ ____ _ ____ _ ____ _ ____ _ ____
 72
65
 73
4
 40
0.6
 49
0.375
 74
0
 49
-0.075
 74
0
 49
0.075
 74
0
 49
-0.075
 74
0
  0
LTYPE
  5
1F6
100
AcDbSymbolTableRecord
100
AcDbLinetypeTableRecord
  2
HIDDEN
 70
64
  3
- - - - - - - - - - - - - - - - - - - -
 72
65
 73
2
 40
0.2
 49
0.1
 74
0
 49
-0.1
 74
0
  0
LTYPE
  5
1F7
100
AcDbSymbolTableRecord
100
AcDbLinetypeTableRecord
  2
PHANTOM
 70
64
  3
_____ _ _ _____ _ _ _____ _ _ _____
 72
65
 73
6
 40
0.8
 49
0.45
 74
0
 49
-0.05
 74
0
 49
0.1
 74
0
 49
-0.05
 74
0
 49
0.1
 74
0
 49
-0.05
 74
0
  0
LTYPE
  5
1F8
100
AcDbSymbolTableRecord
100
AcDbLinetypeTableRecord
  2
DOT
 70
64
  3
. . . . . . . . . . . . . . . . . . . .
 72
65
 73
2
 40
0.2
 49
0.1
 74
0
 49
-0.1
 74
0
  0
LTYPE
  5
1F9
100
AcDbSymbolTableRecord
100
AcDbLinetypeTableRecord
  2
DASHED
 70
64
  3
- - - - - - - - - - - - - - - - - - - -
 72
65
 73
2
 40
0.2
 49
0.1
 74
0
 49
-0.1
 74
0
  0
ENDTAB
  0
TABLE
  2
LAYER
  5
2
100
AcDbSymbolTable
 70
36
  0
LAYER
  5
10
100
AcDbSymbolTableRecord
100
AcDbLayerTableRecord
  2
0
 70
0
 62
7
  6
CONTINUOUS
370
-3
390
F
  0
LAYER
  5
1FA
100
AcDbSymbolTableRecord
100
AcDbLayerTableRecord
  2
DEFAULT_1
 70
0
 62
7
  6
CENTER
370
-3
390
F
  0
LAYER
  5
1FB
100
AcDbSymbolTableRecord
100
AcDbLayerTableRecord
  2
DEFAULT_2
 70
0
 62
8
  6
HIDDEN
370
-3
390
F
  0
LAYER
  5
1FC
100
AcDbSymbolTableRecord
100
AcDbLayerTableRecord
  2
DEFAULT_3
 70
0
 62
7
  6
PHANTOM
370
-3
390
F
  0
LAYER
  5
1FD
100
AcDbSymbolTableRecord
100
AcDbLayerTableRecord
  2
DATUM_PLANES
 70
0
 62
7
  6
CONTINUOUS
370
-3
390
F
  0
LAYER
  5
1FE
100
AcDbSymbolTableRecord
100
AcDbLayerTableRecord
  2
PORT_AREAS
 70
0
 62
7
  6
CONTINUOUS
370
-3
390
F
  0
LAYER
  5
1FF
100
AcDbSymbolTableRecord
100
AcDbLayerTableRecord
  2
SUNNBOMCOSMETIC
 70
0
 62
7
  6
CONTINUOUS
370
-3
390
F
  0
LAYER
  5
200
100
AcDbSymbolTableRecord
100
AcDbLayerTableRecord
  2
SUNNBOMSTAMPING
 70
0
 62
7
  6
CONTINUOUS
370
-3
390
F
  0
LAYER
  5
201
100
AcDbSymbolTableRecord
100
AcDbLayerTableRecord
  2
THREADS
 70
0
 62
7
  6
CONTINUOUS
370
-3
390
F
  0
ENDTAB
  0
TABLE
  2
STYLE
  5
3
100
AcDbSymbolTable
 70
1
  0
STYLE
  5
11
100
AcDbSymbolTableRecord
100
AcDbTextStyleTableRecord
  2
STANDARD
 70
0
 40
0.0
 41
0.8
 50
0.0
 71
0
 42
0.2
  3
txt
  4

  0
STYLE
  5
202
100
AcDbSymbolTableRecord
100
AcDbTextStyleTableRecord
  2
TEXTSTYLE_1
 70
0
 40
0.0
 41
0.8
 50
0.0
 71
0
 42
0.2
  3
gdt
  4

  0
ENDTAB
  0
TABLE
  2
VIEW
  5
6
100
AcDbSymbolTable
 70
0
  0
ENDTAB
  0
TABLE
  2
UCS
  5
7
100
AcDbSymbolTable
 70
0
  0
ENDTAB
  0
TABLE
  2
APPID
  5
9
100
AcDbSymbolTable
 70
1
  0
APPID
  5
203
100
AcDbSymbolTableRecord
100
AcDbRegAppTableRecord
  2
ACAD
 70
0
  0
ENDTAB
  0
TABLE
  2
BLOCK_RECORD
  5
1
100
AcDbSymbolTable
 70
0
  0
BLOCK_RECORD
  5
204
100
AcDbSymbolTableRecord
100
AcDbBlockTableRecord
  2
*Model_Space
  0
BLOCK_RECORD
  5
205
100
AcDbSymbolTableRecord
100
AcDbBlockTableRecord
  2
*Paper_Space
  0
BLOCK_RECORD
  5
206
100
AcDbSymbolTableRecord
100
AcDbBlockTableRecord
  2
SUN_FIRST_THIRD_ANGLE_BL0
  0
BLOCK_RECORD
  5
207
100
AcDbSymbolTableRecord
100
AcDbBlockTableRecord
  2
*T1
  0
BLOCK_RECORD
  5
208
100
AcDbSymbolTableRecord
100
AcDbBlockTableRecord
  2
*T2
  0
BLOCK_RECORD
  5
209
100
AcDbSymbolTableRecord
100
AcDbBlockTableRecord
  2
*T3
  0
ENDTAB
  0
TABLE
  2
DIMSTYLE
  5
A
100
AcDbSymbolTable
 70
1
100
AcDbDimStyleTable
 71
0
  0
DIMSTYLE
105
20A
100
AcDbSymbolTableRecord
100
AcDbDimStyleTableRecord
  2
STANDARD
 70
0
  3

  4

 40
1.0
 41
0.1875
 42
0.0625
 43
0.38
 44
0.125
 45
0.0
 46
0.0
 47
0.001
 48
0.001
140
0.1
141
0.09
142
0.0
143
25.4
144
1.0
145
0.0
146
1.0
147
0.09
 71
0.0
 72
0.0
 73
1
 74
1
 75
0
 76
0
 77
0
 78
4
170
0
171
2
172
0
173
0
174
0
175
0
176
0
177
0
178
0
270
2
271
3
272
3
273
2
274
2
275
0
280
0
281
0
282
0
283
1
284
4
285
0
286
0
287
3
288
0
340
11
278
46
  0
ENDTAB
  0
ENDSEC
  0
SECTION
  2
BLOCKS
  0
BLOCK
  5
20
100
AcDbEntity
  8
0
100
AcDbBlockBegin
  2
*Model_Space
 70
0
 10
0.0
 20
0.0
 30
0.0
  3
*Model_Space
  1

  0
ENDBLK
  5
21
100
AcDbEntity
  8
0
100
AcDbBlockEnd
  0
BLOCK
  5
1C
100
AcDbEntity
  8
0
100
AcDbBlockBegin
  2
*Paper_Space
 70
0
 10
0.0
 20
0.0
 30
0.0
  3
*Paper_Space
  1

  0
ENDBLK
  5
1D
100
AcDbEntity
  8
0
100
AcDbBlockEnd
  0
BLOCK
  5
20B
100
AcDbEntity
  8
0
100
AcDbBlockBegin
 62
2
  6
CONTINUOUS
  2
SUN_FIRST_THIRD_ANGLE_BL0
 70
64
 10
20.4816717061
 20
1.2289683772
  3
SUN_FIRST_THIRD_ANGLE_BL0
  1

  0
TEXT
  5
20C
100
AcDbEntity
  8
0
100
AcDbText
 62
2
  6
CONTINUOUS
 10
19.4750896608
 20
1.4136269581
  7
STANDARD
 40
0.08
  1
FIRST ANGLE
 41
0.8
 72
0
100
AcDbText
  0
TEXT
  5
20D
100
AcDbEntity
  8
0
100
AcDbText
 62
2
  6
CONTINUOUS
 10
20.7842537513
 20
1.4047600029
  7
STANDARD
 40
0.08
  1
THIRD ANGLE
 41
0.8
 72
0
100
AcDbText
  0
LINE
  5
20E
100
AcDbEntity
  8
0
100
AcDbLine
 62
7
  6
CONTINUOUS
 10
19.4767170086
 20
1.1727031207
 11
19.6334271527
 21
1.1717972817
  0
LINE
  5
20F
100
AcDbEntity
  8
0
100
AcDbLine
 62
7
  6
CONTINUOUS
 10
19.6596964832
 20
1.1717972817
 11
19.6950230232
 21
1.171593082
  0
LINE
  5
210
100
AcDbEntity
  8
0
100
AcDbLine
 62
7
  6
CONTINUOUS
 10
19.7194818561
 20
1.1708914427
 11
19.8852396156
 21
1.1699333054
  0
LINE
  5
211
100
AcDbEntity
  8
0
100
AcDbLine
 62
7
  6
CONTINUOUS
 10
19.4758111696
 20
1.2723454088
 11
19.88525039
 21
1.3511534004
  0
LINE
  5
212
100
AcDbEntity
  8
0
100
AcDbLine
 62
7
  6
CONTINUOUS
 10
19.88525039
 20
1.3511534004
 11
19.8831348489
 21
0.9851647912
  0
LINE
  5
213
100
AcDbEntity
  8
0
100
AcDbLine
 62
7
  6
CONTINUOUS
 10
19.8831348489
 20
0.9851647912
 11
19.4767170086
 21
1.0658141206
  0
LINE
  5
214
100
AcDbEntity
  8
0
100
AcDbLine
 62
7
  6
CONTINUOUS
 10
19.4767170086
 20
1.0658141206
 11
19.4779056764
 21
1.2714536432
  0
CIRCLE
  5
215
100
AcDbEntity
  8
0
100
AcDbCircle
 62
7
  6
CONTINUOUS
 10
20.2068232291
 20
1.1717972817
 40
0.175742101
  0
CIRCLE
  5
216
100
AcDbEntity
  8
0
100
AcDbCircle
 62
7
  6
CONTINUOUS
 10
20.2068232291
 20
1.1717972817
 40
0.1005522074
  0
LINE
  5
217
100
AcDbEntity
  8
0
100
AcDbLine
 62
7
  6
CONTINUOUS
 10
20.2077290681
 20
1.3756110529
 11
20.2071171714
 21
1.2379342989
  0
LINE
  5
218
100
AcDbEntity
  8
0
100
AcDbLine
 62
7
  6
CONTINUOUS
 10
20.2077290681
 20
1.2016899681
 11
20.2074674401
 21
1.1428236749
  0
LINE
  5
219
100
AcDbEntity
  8
0
100
AcDbLine
 62
7
  6
CONTINUOUS
 10
20.208634907
 20
1.101141841
 11
20.2080230104
 21
0.963465087
  0
LINE
  5
21A
100
AcDbEntity
  8
0
100
AcDbLine
 62
7
  6
CONTINUOUS
 10
20.0066328138
 20
1.1745147986
 11
20.1443095678
 21
1.1739029019
  0
LINE
  5
21B
100
AcDbEntity
  8
0
100
AcDbLine
 62
7
  6
CONTINUOUS
 10
20.1832714155
 20
1.1727031207
 11
20.238153505
 21
1.172335442
  0
LINE
  5
21C
100
AcDbEntity
  8
0
100
AcDbLine
 62
7
  6
CONTINUOUS
 10
20.2756669918
 20
1.1717972817
 11
20.407916871
 21
1.1712095044
  0
CIRCLE
  5
21D
100
AcDbEntity
  8
0
100
AcDbCircle
 62
7
  6
CONTINUOUS
 10
20.7509457401
 20
1.1693297793
 40
0.1722024983
  0
CIRCLE
  5
21E
100
AcDbEntity
  8
0
100
AcDbCircle
 62
7
  6
CONTINUOUS
 10
20.7509457401
 20
1.1693297793
 40
0.0985164967
  0
LINE
  5
21F
100
AcDbEntity
  8
0
100
AcDbLine
 62
7
  6
CONTINUOUS
 10
20.7169767782
 20
1.170462078
 11
20.7825395137
 21
1.1682766535
  0
LINE
  5
220
100
AcDbEntity
  8
0
100
AcDbLine
 62
7
  6
CONTINUOUS
 10
20.8177513651
 20
1.1693297793
 11
20.947965719
 21
1.1693297793
  0
LINE
  5
221
100
AcDbEntity
  8
0
100
AcDbLine
 62
7
  6
CONTINUOUS
 10
20.6875370113
 20
1.170462078
 11
20.5573226574
 21
1.170462078
  0
LINE
  5
222
100
AcDbEntity
  8
0
100
AcDbLine
 62
7
  6
CONTINUOUS
 10
20.7486811426
 20
1.1987695462
 11
20.7486811426
 21
1.1432869085
  0
LINE
  5
223
100
AcDbEntity
  8
0
100
AcDbLine
 62
7
  6
CONTINUOUS
 10
20.7498134414
 20
1.1059210505
 11
20.7498134414
 21
0.9757066966
  0
LINE
  5
224
100
AcDbEntity
  8
0
100
AcDbLine
 62
7
  6
CONTINUOUS
 10
20.7486811426
 20
1.2338708068
 11
20.7486811426
 21
1.3640851607
  0
LINE
  5
225
100
AcDbEntity
  8
0
100
AcDbLine
 62
7
  6
CONTINUOUS
 10
21.0702539817
 20
1.2701043662
 11
21.4790138229
 21
1.3448360823
  0
LINE
  5
226
100
AcDbEntity
  8
0
100
AcDbLine
 62
7
  6
CONTINUOUS
 10
21.4790138229
 20
1.3448360823
 11
21.4790138229
 21
0.9779712941
  0
LINE
  5
227
100
AcDbEntity
  8
0
100
AcDbLine
 62
7
  6
CONTINUOUS
 10
21.4790138229
 20
0.9779712941
 11
21.069121683
 21
1.0617614
  0
LINE
  5
228
100
AcDbEntity
  8
0
100
AcDbLine
 62
7
  6
CONTINUOUS
 10
21.0702539817
 20
1.2701043662
 11
21.069121683
 21
1.0617614
  0
LINE
  5
229
100
AcDbEntity
  8
0
100
AcDbLine
 62
7
  6
CONTINUOUS
 10
21.4790138229
 20
1.1693297793
 11
21.3159628059
 21
1.1693297793
  0
LINE
  5
22A
100
AcDbEntity
  8
0
100
AcDbLine
 62
7
  6
CONTINUOUS
 10
21.2876553377
 20
1.1693297793
 11
21.2502894796
 21
1.1693297793
  0
LINE
  5
22B
100
AcDbEntity
  8
0
100
AcDbLine
 62
7
  6
CONTINUOUS
 10
21.2208497126
 20
1.1659328831
 11
21.0713862804
 21
1.1659328831
  0
LINE
  5
22C
100
AcDbEntity
  8
0
100
AcDbLine
 62
7
  6
CONTINUOUS
 10
20.4796138713
 20
1.5284908897
 11
20.4766766948
 21
0.9294458646
  0
ENDBLK
  5
22D
100
AcDbEntity
  8
0
  6
BYBLOCK
 62
0
100
AcDbBlockEnd
  0
BLOCK
  5
22E
100
AcDbEntity
  8
0
100
AcDbBlockBegin
  2
*T1
 70
1
 10
0.0
 20
0.0
  3
*T1
  1

  0
LINE
  5
22F
100
AcDbEntity
  8
0
100
AcDbLine
 62
2
  6
CONTINUOUS
 10
9.275
 20
0.0
 11
-0.0
 21
0.0
  0
LINE
  5
230
100
AcDbEntity
  8
0
100
AcDbLine
 62
2
  6
CONTINUOUS
 10
9.275
 20
0.0
 11
9.275
 21
1.25
  0
LINE
  5
231
100
AcDbEntity
  8
0
100
AcDbLine
 62
2
  6
CONTINUOUS
 10
9.275
 20
0.625
 11
-0.0
 21
0.625
  0
LINE
  5
232
100
AcDbEntity
  8
0
100
AcDbLine
 62
2
  6
CONTINUOUS
 10
9.275
 20
1.25
 11
-0.0
 21
1.25
  0
LINE
  5
233
100
AcDbEntity
  8
0
100
AcDbLine
 62
2
  6
CONTINUOUS
 10
6.8
 20
0.0
 11
6.8
 21
1.25
  0
LINE
  5
234
100
AcDbEntity
  8
0
100
AcDbLine
 62
2
  6
CONTINUOUS
 10
6.4
 20
0.0
 11
6.4
 21
0.625
  0
LINE
  5
235
100
AcDbEntity
  8
0
100
AcDbLine
 62
2
  6
CONTINUOUS
 10
5.9
 20
0.0
 11
5.9
 21
0.625
  0
LINE
  5
236
100
AcDbEntity
  8
0
100
AcDbLine
 62
2
  6
CONTINUOUS
 10
5.2
 20
0.0
 11
5.2
 21
0.625
  0
LINE
  5
237
100
AcDbEntity
  8
0
100
AcDbLine
 62
2
  6
CONTINUOUS
 10
4.1
 20
0.0
 11
4.1
 21
1.25
  0
LINE
  5
238
100
AcDbEntity
  8
0
100
AcDbLine
 62
2
  6
CONTINUOUS
 10
-0.0
 20
0.0
 11
-0.0
 21
1.25
  0
MTEXT
  5
239
100
AcDbEntity
  8
0
100
AcDbMText
 62
2
  6
CONTINUOUS
  7
STANDARD
 71
2
 72
1
 10
6.6
 20
0.325
 30
0.0
 11
1.0
 21
0.0
 31
0.0
 44
0.9
  1
2
 40
0.125
 41
0.2
  0
MTEXT
  5
23A
100
AcDbEntity
  8
0
100
AcDbMText
 62
2
  6
CONTINUOUS
  7
STANDARD
 71
2
 72
1
 10
6.15
 20
0.325
 30
0.0
 11
1.0
 21
0.0
 31
0.0
 44
0.9
  1
C
 40
0.125
 41
0.2
  0
MTEXT
  5
23B
100
AcDbEntity
  8
0
100
AcDbMText
 62
2
  6
CONTINUOUS
  7
STANDARD
 71
2
 72
1
 10
5.55
 20
0.325
 30
0.0
 11
1.0
 21
0.0
 31
0.0
 44
0.9
  1
1.000
 40
0.125
 41
1.0
  0
MTEXT
  5
23C
100
AcDbEntity
  8
0
100
AcDbMText
 62
2
  6
CONTINUOUS
  7
STANDARD
 71
2
 72
1
 10
4.65
 20
0.325
 30
0.0
 11
1.0
 21
0.0
 31
0.0
 44
0.9
  1
May-30-21
 40
0.125
 41
1.8
  0
MTEXT
  5
23D
100
AcDbEntity
  8
0
100
AcDbMText
 62
2
  6
CONTINUOUS
  7
STANDARD
 71
2
 72
1
 10
2.05
 20
0.4625
 30
0.0
 11
1.0
 21
0.0
 31
0.0
 44
0.9
  1
T-3A Bar Manifold ISO 05\P(See Technical Data for Body Features)
 40
0.125
 41
7.6
  0
MTEXT
  5
23E
100
AcDbEntity
  8
0
100
AcDbMText
 62
2
  6
CONTINUOUS
  7
STANDARD
 71
1
 72
1
 10
6.45
 20
0.5625
 30
0.0
 11
1.0
 21
0.0
 31
0.0
 44
0.9
  1
SHEET
 40
0.06
 41
0.48
  0
MTEXT
  5
23F
100
AcDbEntity
  8
0
100
AcDbMText
 62
2
  6
CONTINUOUS
  7
STANDARD
 71
1
 72
1
 10
5.95
 20
0.5625
 30
0.0
 11
1.0
 21
0.0
 31
0.0
 44
0.9
  1
DWG SIZE
 40
0.06
 41
0.768
  0
MTEXT
  5
240
100
AcDbEntity
  8
0
100
AcDbMText
 62
2
  6
CONTINUOUS
  7
STANDARD
 71
1
 72
1
 10
5.25
 20
0.5625
 30
0.0
 11
1.0
 21
0.0
 31
0.0
 44
0.9
  1
SCALE
 40
0.06
 41
0.48
  0
MTEXT
  5
241
100
AcDbEntity
  8
0
100
AcDbMText
 62
2
  6
CONTINUOUS
  7
STANDARD
 71
1
 72
1
 10
4.15
 20
0.5625
 30
0.0
 11
1.0
 21
0.0
 31
0.0
 44
0.9
  1
DATE
 40
0.06
 41
0.384
  0
MTEXT
  5
242
100
AcDbEntity
  8
0
100
AcDbMText
 62
2
  6
CONTINUOUS
  7
STANDARD
 71
1
 72
1
 10
0.05
 20
0.5625
 30
0.0
 11
1.0
 21
0.0
 31
0.0
 44
0.9
  1
DESCRIPTION
 40
0.06
 41
1.056
  0
MTEXT
  5
243
100
AcDbEntity
  8
0
100
AcDbMText
 62
2
  6
CONTINUOUS
  7
STANDARD
 71
2
 72
1
 10
5.45
 20
1.0375
 30
0.0
 11
1.0
 21
0.0
 31
0.0
 44
0.9
  1
ALL DIMENSIONS IN INCH\PVIEWS ARE THIRD ANGLE
 40
0.12
 41
4.224
  0
MTEXT
  5
244
100
AcDbEntity
  8
0
100
AcDbMText
 62
2
  6
CONTINUOUS
  7
STANDARD
 71
2
 72
1
 10
2.05
 20
0.95
 30
0.0
 11
1.0
 21
0.0
 31
0.0
 44
0.9
  1
VMR
 40
0.125
 41
0.6
  0
MTEXT
  5
245
100
AcDbEntity
  8
0
100
AcDbMText
 62
2
  6
CONTINUOUS
  7
STANDARD
 71
1
 72
1
 10
0.05
 20
1.1875
 30
0.0
 11
1.0
 21
0.0
 31
0.0
 44
0.9
  1
MODEL
 40
0.06
 41
0.48
  0
ENDBLK
  5
246
100
AcDbEntity
  8
0
  6
BYBLOCK
 62
0
100
AcDbBlockEnd
  0
BLOCK
  5
247
100
AcDbEntity
  8
0
100
AcDbBlockBegin
  2
*T2
 70
1
 10
0.0
 20
0.0
  3
*T2
  1

  0
LINE
  5
248
100
AcDbEntity
  8
0
100
AcDbLine
 62
2
  6
CONTINUOUS
 10
0.0
 20
0.0
 11
9.055
 21
0.0
  0
LINE
  5
249
100
AcDbEntity
  8
0
100
AcDbLine
 62
2
  6
CONTINUOUS
 10
0.0
 20
0.0
 11
0.0
 21
-2.594
  0
LINE
  5
24A
100
AcDbEntity
  8
0
100
AcDbLine
 62
2
  6
CONTINUOUS
 10
0.0
 20
-0.344
 11
9.055
 21
-0.344
  0
LINE
  5
24B
100
AcDbEntity
  8
0
100
AcDbLine
 62
2
  6
CONTINUOUS
 10
0.0
 20
-0.594
 11
9.055
 21
-0.594
  0
LINE
  5
24C
100
AcDbEntity
  8
0
100
AcDbLine
 62
2
  6
CONTINUOUS
 10
0.0
 20
-0.844
 11
9.055
 21
-0.844
  0
LINE
  5
24D
100
AcDbEntity
  8
0
100
AcDbLine
 62
2
  6
CONTINUOUS
 10
0.0
 20
-1.094
 11
9.055
 21
-1.094
  0
LINE
  5
24E
100
AcDbEntity
  8
0
100
AcDbLine
 62
2
  6
CONTINUOUS
 10
0.0
 20
-1.344
 11
9.055
 21
-1.344
  0
LINE
  5
24F
100
AcDbEntity
  8
0
100
AcDbLine
 62
2
  6
CONTINUOUS
 10
0.0
 20
-1.594
 11
9.055
 21
-1.594
  0
LINE
  5
250
100
AcDbEntity
  8
0
100
AcDbLine
 62
2
  6
CONTINUOUS
 10
0.0
 20
-1.844
 11
9.055
 21
-1.844
  0
LINE
  5
251
100
AcDbEntity
  8
0
100
AcDbLine
 62
2
  6
CONTINUOUS
 10
0.0
 20
-2.094
 11
9.055
 21
-2.094
  0
LINE
  5
252
100
AcDbEntity
  8
0
100
AcDbLine
 62
2
  6
CONTINUOUS
 10
0.0
 20
-2.344
 11
9.055
 21
-2.344
  0
LINE
  5
253
100
AcDbEntity
  8
0
100
AcDbLine
 62
2
  6
CONTINUOUS
 10
0.0
 20
-2.594
 11
9.055
 21
-2.594
  0
LINE
  5
254
100
AcDbEntity
  8
0
100
AcDbLine
 62
2
  6
CONTINUOUS
 10
3.055
 20
0.0
 11
3.055
 21
-2.594
  0
LINE
  5
255
100
AcDbEntity
  8
0
100
AcDbLine
 62
2
  6
CONTINUOUS
 10
9.055
 20
0.0
 11
9.055
 21
-2.594
  0
MTEXT
  5
256
100
AcDbEntity
  8
0
100
AcDbMText
 62
2
  6
CONTINUOUS
  7
STANDARD
 71
2
 72
1
 10
1.5275
 20
-0.0995
 30
0.0
 11
1.0
 21
0.0
 31
0.0
 44
0.9
  1
Technical Data
 40
0.145
 41
3.248
  0
MTEXT
  5
257
100
AcDbEntity
  8
0
100
AcDbMText
 62
2
  6
CONTINUOUS
  7
STANDARD
 71
2
 72
1
 10
4.555
 20
-0.0995
 30
0.0
 11
1.0
 21
0.0
 31
0.0
 44
0.9
  1
U.S. Units
 40
0.145
 41
2.32
  0
MTEXT
  5
258
100
AcDbEntity
  8
0
100
AcDbMText
 62
2
  6
CONTINUOUS
  7
STANDARD
 71
2
 72
1
 10
7.555
 20
-0.0995
 30
0.0
 11
1.0
 21
0.0
 31
0.0
 44
0.9
  1
Metric Units
 40
0.145
 41
2.784
  0
MTEXT
  5
259
100
AcDbEntity
  8
0
100
AcDbMText
 62
2
  6
CONTINUOUS
  7
STANDARD
 71
2
 72
1
 10
1.5275
 20
-0.4065
 30
0.0
 11
1.0
 21
0.0
 31
0.0
 44
0.9
  1
Cavity
 40
0.125
 41
1.2
  0
MTEXT
  5
25A
100
AcDbEntity
  8
0
100
AcDbMText
 62
2
  6
CONTINUOUS
  7
STANDARD
 71
2
 72
1
 10
6.055
 20
-0.4065
 30
0.0
 11
1.0
 21
0.0
 31
0.0
 44
0.9
  1
T-3A
 40
0.125
 41
0.8
  0
MTEXT
  5
25B
100
AcDbEntity
  8
0
100
AcDbMText
 62
2
  6
CONTINUOUS
  7
STANDARD
 71
2
 72
1
 10
1.5275
 20
-0.6565
 30
0.0
 11
1.0
 21
0.0
 31
0.0
 44
0.9
  1
Body Features
 40
0.125
 41
2.6
  0
MTEXT
  5
25C
100
AcDbEntity
  8
0
100
AcDbMText
 62
2
  6
CONTINUOUS
  7
STANDARD
 71
2
 72
1
 10
6.055
 20
-0.6565
 30
0.0
 11
1.0
 21
0.0
 31
0.0
 44
0.9
  1
1 Station, Parallel circuit with relief cavity
 40
0.125
 41
9.2
  0
MTEXT
  5
25D
100
AcDbEntity
  8
0
100
AcDbMText
 62
2
  6
CONTINUOUS
  7
STANDARD
 71
2
 72
1
 10
1.5275
 20
-0.9065
 30
0.0
 11
1.0
 21
0.0
 31
0.0
 44
0.9
  1
Body Type
 40
0.125
 41
1.8
  0
MTEXT
  5
25E
100
AcDbEntity
  8
0
100
AcDbMText
 62
2
  6
CONTINUOUS
  7
STANDARD
 71
2
 72
1
 10
6.055
 20
-0.9065
 30
0.0
 11
1.0
 21
0.0
 31
0.0
 44
0.9
  1
Bar Manifold
 40
0.125
 41
2.4
  0
MTEXT
  5
25F
100
AcDbEntity
  8
0
100
AcDbMText
 62
2
  6
CONTINUOUS
  7
STANDARD
 71
2
 72
1
 10
1.5275
 20
-1.1565
 30
0.0
 11
1.0
 21
0.0
 31
0.0
 44
0.9
  1
Interface
 40
0.125
 41
1.8
  0
MTEXT
  5
260
100
AcDbEntity
  8
0
100
AcDbMText
 62
2
  6
CONTINUOUS
  7
STANDARD
 71
2
 72
1
 10
6.055
 20
-1.1565
 30
0.0
 11
1.0
 21
0.0
 31
0.0
 44
0.9
  1
ISO 05
 40
0.125
 41
1.2
  0
MTEXT
  5
261
100
AcDbEntity
  8
0
100
AcDbMText
 62
2
  6
CONTINUOUS
  7
STANDARD
 71
2
 72
1
 10
1.5275
 20
-1.4065
 30
0.0
 11
1.0
 21
0.0
 31
0.0
 44
0.9
  1
Open Cavity Quantity
 40
0.125
 41
4.0
  0
MTEXT
  5
262
100
AcDbEntity
  8
0
100
AcDbMText
 62
2
  6
CONTINUOUS
  7
STANDARD
 71
2
 72
1
 10
6.055
 20
-1.4065
 30
0.0
 11
1.0
 21
0.0
 31
0.0
 44
0.9
  1
1
 40
0.125
 41
0.2
  0
MTEXT
  5
263
100
AcDbEntity
  8
0
100
AcDbMText
 62
2
  6
CONTINUOUS
  7
STANDARD
 71
2
 72
1
 10
1.5275
 20
-1.6565
 30
0.0
 11
1.0
 21
0.0
 31
0.0
 44
0.9
  1
Weight
 40
0.125
 41
1.2
  0
MTEXT
  5
264
100
AcDbEntity
  8
0
100
AcDbMText
 62
2
  6
CONTINUOUS
  7
STANDARD
 71
2
 72
1
 10
4.555
 20
-1.6565
 30
0.0
 11
1.0
 21
0.0
 31
0.0
 44
0.9
  1
5.746 lb.
 40
0.125
 41
1.8
  0
MTEXT
  5
265
100
AcDbEntity
  8
0
100
AcDbMText
 62
2
  6
CONTINUOUS
  7
STANDARD
 71
2
 72
1
 10
7.555
 20
-1.6565
 30
0.0
 11
1.0
 21
0.0
 31
0.0
 44
0.9
  1
2,606 kg.
 40
0.125
 41
1.8
  0
MTEXT
  5
266
100
AcDbEntity
  8
0
100
AcDbMText
 62
2
  6
CONTINUOUS
  7
STANDARD
 71
2
 72
1
 10
1.5275
 20
-1.9065
 30
0.0
 11
1.0
 21
0.0
 31
0.0
 44
0.9
  1
Mounting Hole Thread
 40
0.125
 41
4.0
  0
MTEXT
  5
267
100
AcDbEntity
  8
0
100
AcDbMText
 62
2
  6
CONTINUOUS
  7
STANDARD
 71
2
 72
1
 10
4.555
 20
-1.9065
 30
0.0
 11
1.0
 21
0.0
 31
0.0
 44
0.9
  1
.375-16 UNC - 2B in.
 40
0.125
 41
4.0
  0
MTEXT
  5
268
100
AcDbEntity
  8
0
100
AcDbMText
 62
2
  6
CONTINUOUS
  7
STANDARD
 71
2
 72
1
 10
1.5275
 20
-2.1565
 30
0.0
 11
1.0
 21
0.0
 31
0.0
 44
0.9
  1
Mounting Hole Depth
 40
0.125
 41
3.8
  0
MTEXT
  5
269
100
AcDbEntity
  8
0
100
AcDbMText
 62
2
  6
CONTINUOUS
  7
STANDARD
 71
2
 72
1
 10
4.555
 20
-2.1565
 30
0.0
 11
1.0
 21
0.0
 31
0.0
 44
0.9
  1
.75 in.
 40
0.125
 41
1.4
  0
MTEXT
  5
26A
100
AcDbEntity
  8
0
100
AcDbMText
 62
2
  6
CONTINUOUS
  7
STANDARD
 71
2
 72
1
 10
7.555
 20
-2.1565
 30
0.0
 11
1.0
 21
0.0
 31
0.0
 44
0.9
  1
19 mm
 40
0.125
 41
1.0
  0
MTEXT
  5
26B
100
AcDbEntity
  8
0
100
AcDbMText
 62
2
  6
CONTINUOUS
  7
STANDARD
 71
2
 72
1
 10
1.5275
 20
-2.4065
 30
0.0
 11
1.0
 21
0.0
 31
0.0
 44
0.9
  1
Mounting Hole Quantity
 40
0.125
 41
4.4
  0
MTEXT
  5
26C
100
AcDbEntity
  8
0
100
AcDbMText
 62
2
  6
CONTINUOUS
  7
STANDARD
 71
2
 72
1
 10
6.055
 20
-2.4065
 30
0.0
 11
1.0
 21
0.0
 31
0.0
 44
0.9
  1
4
 40
0.125
 41
0.2
  0
ENDBLK
  5
26D
100
AcDbEntity
  8
0
  6
BYBLOCK
 62
0
100
AcDbBlockEnd
  0
BLOCK
  5
26E
100
AcDbEntity
  8
0
100
AcDbBlockBegin
  2
*T3
 70
1
 10
0.0
 20
0.0
  3
*T3
  1

  0
LINE
  5
26F
100
AcDbEntity
  8
0
100
AcDbLine
 62
2
  6
CONTINUOUS
 10
0.0
 20
0.0
 11
4.6
 21
0.0
  0
LINE
  5
270
100
AcDbEntity
  8
0
100
AcDbLine
 62
2
  6
CONTINUOUS
 10
0.0
 20
0.0
 11
0.0
 21
-1.43775
  0
LINE
  5
271
100
AcDbEntity
  8
0
100
AcDbLine
 62
2
  6
CONTINUOUS
 10
0.0
 20
-0.34375
 11
4.6
 21
-0.34375
  0
LINE
  5
272
100
AcDbEntity
  8
0
100
AcDbLine
 62
2
  6
CONTINUOUS
 10
0.0
 20
-0.68775
 11
4.6
 21
-0.68775
  0
LINE
  5
273
100
AcDbEntity
  8
0
100
AcDbLine
 62
2
  6
CONTINUOUS
 10
0.0
 20
-0.93775
 11
4.6
 21
-0.93775
  0
LINE
  5
274
100
AcDbEntity
  8
0
100
AcDbLine
 62
2
  6
CONTINUOUS
 10
0.0
 20
-1.18775
 11
4.6
 21
-1.18775
  0
LINE
  5
275
100
AcDbEntity
  8
0
100
AcDbLine
 62
2
  6
CONTINUOUS
 10
0.0
 20
-1.43775
 11
4.6
 21
-1.43775
  0
LINE
  5
276
100
AcDbEntity
  8
0
100
AcDbLine
 62
2
  6
CONTINUOUS
 10
1.3
 20
-0.34375
 11
1.3
 21
-1.43775
  0
LINE
  5
277
100
AcDbEntity
  8
0
100
AcDbLine
 62
2
  6
CONTINUOUS
 10
3.3
 20
-0.34375
 11
3.3
 21
-1.43775
  0
LINE
  5
278
100
AcDbEntity
  8
0
100
AcDbLine
 62
2
  6
CONTINUOUS
 10
4.6
 20
0.0
 11
4.6
 21
-1.43775
  0
MTEXT
  5
279
100
AcDbEntity
  8
0
100
AcDbMText
 62
2
  6
CONTINUOUS
  7
STANDARD
 71
2
 72
1
 10
2.3
 20
-0.099375
 30
0.0
 11
1.0
 21
0.0
 31
0.0
 44
0.9
  1
Port Headings
 40
0.145
 41
3.016
  0
MTEXT
  5
27A
100
AcDbEntity
  8
0
100
AcDbMText
 62
2
  6
CONTINUOUS
  7
STANDARD
 71
2
 72
1
 10
0.65
 20
-0.44325
 30
0.0
 11
1.0
 21
0.0
 31
0.0
 44
0.9
  1
Product
 40
0.145
 41
1.624
  0
MTEXT
  5
27B
100
AcDbEntity
  8
0
100
AcDbMText
 62
2
  6
CONTINUOUS
  7
STANDARD
 71
2
 72
1
 10
2.3
 20
-0.44325
 30
0.0
 11
1.0
 21
0.0
 31
0.0
 44
0.9
  1
Port
 40
0.145
 41
0.928
  0
MTEXT
  5
27C
100
AcDbEntity
  8
0
100
AcDbMText
 62
2
  6
CONTINUOUS
  7
STANDARD
 71
2
 72
1
 10
3.95
 20
-0.44325
 30
0.0
 11
1.0
 21
0.0
 31
0.0
 44
0.9
  1
Size
 40
0.145
 41
0.928
  0
MTEXT
  5
27D
100
AcDbEntity
  8
0
100
AcDbMText
 62
2
  6
CONTINUOUS
  7
STANDARD
 71
2
 72
1
 10
0.65
 20
-0.75025
 30
0.0
 11
1.0
 21
0.0
 31
0.0
 44
0.9
  1
VMR
 40
0.125
 41
0.6
  0
MTEXT
  5
27E
100
AcDbEntity
  8
0
100
AcDbMText
 62
2
  6
CONTINUOUS
  7
STANDARD
 71
2
 72
1
 10
2.3
 20
-0.75025
 30
0.0
 11
1.0
 21
0.0
 31
0.0
 44
0.9
  1
Ports A, B, P
 40
0.125
 41
2.6
  0
MTEXT
  5
27F
100
AcDbEntity
  8
0
100
AcDbMText
 62
2
  6
CONTINUOUS
  7
STANDARD
 71
2
 72
1
 10
3.95
 20
-0.75025
 30
0.0
 11
1.0
 21
0.0
 31
0.0
 44
0.9
  1
3/4" BSPP
 40
0.125
 41
1.8
  0
MTEXT
  5
280
100
AcDbEntity
  8
0
100
AcDbMText
 62
2
  6
CONTINUOUS
  7
STANDARD
 71
2
 72
1
 10
0.65
 20
-1.00025
 30
0.0
 11
1.0
 21
0.0
 31
0.0
 44
0.9
  1
VMR
 40
0.125
 41
0.6
  0
MTEXT
  5
281
100
AcDbEntity
  8
0
100
AcDbMText
 62
2
  6
CONTINUOUS
  7
STANDARD
 71
2
 72
1
 10
2.3
 20
-1.00025
 30
0.0
 11
1.0
 21
0.0
 31
0.0
 44
0.9
  1
Port T
 40
0.125
 41
1.2
  0
MTEXT
  5
282
100
AcDbEntity
  8
0
100
AcDbMText
 62
2
  6
CONTINUOUS
  7
STANDARD
 71
2
 72
1
 10
3.95
 20
-1.00025
 30
0.0
 11
1.0
 21
0.0
 31
0.0
 44
0.9
  1
1" BSPP
 40
0.125
 41
1.4
  0
MTEXT
  5
283
100
AcDbEntity
  8
0
100
AcDbMText
 62
2
  6
CONTINUOUS
  7
STANDARD
 71
2
 72
1
 10
0.65
 20
-1.25025
 30
0.0
 11
1.0
 21
0.0
 31
0.0
 44
0.9
  1
VMR
 40
0.125
 41
0.6
  0
MTEXT
  5
284
100
AcDbEntity
  8
0
100
AcDbMText
 62
2
  6
CONTINUOUS
  7
STANDARD
 71
2
 72
1
 10
2.3
 20
-1.25025
 30
0.0
 11
1.0
 21
0.0
 31
0.0
 44
0.9
  1
Gage & Y Port
 40
0.125
 41
2.6
  0
MTEXT
  5
285
100
AcDbEntity
  8
0
100
AcDbMText
 62
2
  6
CONTINUOUS
  7
STANDARD
 71
2
 72
1
 10
3.95
 20
-1.25025
 30
0.0
 11
1.0
 21
0.0
 31
0.0
 44
0.9
  1
1/4" BSPP
 40
0.125
 41
1.8
  0
ENDBLK
  5
286
100
AcDbEntity
  8
0
  6
BYBLOCK
 62
0
100
AcDbBlockEnd
  0
ENDSEC
  0
SECTION
  2
ENTITIES
  0
IMAGE
  5
287
100
AcDbEntity
  8
0
100
AcDbRasterImage
 62
7
  6
CONTINUOUS
 10
19.2297077316
 20
0.3094318264
 30
0.0
 11
0.0066666667
 21
0.0
 31
0.0
 12
0.0
 22
0.0066666667
 32
0.0
 13
369.0
 23
92.0
340
       3B8
 70
9
280
0
281
50
282
50
283
0
360
       3B2
 71
1
 91
2
 14
-0.5
 24
-0.5
 14
368.5
 24
91.5
  0
INSERT
  5
288
100
AcDbEntity
  8
0
100
AcDbBlockReference
 62
2
  6
CONTINUOUS
  2
SUN_FIRST_THIRD_ANGLE_BL0
 10
20.4816717061
 20
1.2289683772
  0
ACAD_TABLE
  5
289
100
AcDbEntity
  8
0
 62
2
  6
CONTINUOUS
100
AcDbBlockReference
  2
*T1
 10
12.42375
 20
0.30125
 30
0.0
100
AcDbTable
342
       3BA
343
207
 11
1.0
 21
0.0
 31
0.0
 90
6
 91
4
 92
6
 93
20
 94
0
 95
0
 96
0
 70
1
 41
0.0
141
0.525
141
0.1
141
0.525
141
0.1
142
4.1
142
1.1
142
0.7
142
0.5
142
0.4
142
2.475
171
1
172
0
173
0
174
0
175
1
176
1
 91
33
178
0
145
0.0
301
CELL_VALUE
 90
4
  1
T-3A Bar Manifold ISO 05\P(See Technical Data for Body Features)
304
ACVALUE_END
170
2
140
0.125
171
1
172
0
173
0
174
0
175
1
176
1
 91
33
178
0
145
0.0
301
CELL_VALUE
 90
4
  1
May-30-21
304
ACVALUE_END
170
5
140
0.125
171
1
172
0
173
0
174
0
175
1
176
1
 91
33
178
0
145
0.0
301
CELL_VALUE
 90
4
  1
1.000
304
ACVALUE_END
170
5
140
0.125
171
1
172
0
173
0
174
0
175
1
176
1
 91
33
178
0
145
0.0
301
CELL_VALUE
 90
4
  1
C
304
ACVALUE_END
170
5
140
0.125
171
1
172
0
173
0
174
0
175
1
176
1
 91
33
178
0
145
0.0
301
CELL_VALUE
 90
4
  1
2
304
ACVALUE_END
170
5
140
0.125
171
1
172
0
173
0
174
0
175
1
176
1
 91
33
178
0
145
0.0
301
CELL_VALUE
 90
4
  1
 
304
ACVALUE_END
170
1
140
0.125
171
1
172
0
173
0
174
0
175
1
176
1
 91
33
178
0
145
0.0
301
CELL_VALUE
 90
4
  1
DESCRIPTION
304
ACVALUE_END
170
1
140
0.06
171
1
172
0
173
0
174
0
175
1
176
1
 91
33
178
0
145
0.0
301
CELL_VALUE
 90
4
  1
DATE
304
ACVALUE_END
170
1
140
0.06
171
1
172
0
173
0
174
0
175
1
176
1
 91
33
178
0
145
0.0
301
CELL_VALUE
 90
4
  1
SCALE
304
ACVALUE_END
170
1
140
0.06
171
1
172
0
173
0
174
0
175
1
176
1
 91
33
178
0
145
0.0
301
CELL_VALUE
 90
4
  1
DWG SIZE
304
ACVALUE_END
170
1
140
0.06
171
1
172
0
173
0
174
0
175
1
176
1
 91
33
178
0
145
0.0
301
CELL_VALUE
 90
4
  1
SHEET
304
ACVALUE_END
170
1
140
0.06
171
1
172
0
173
0
174
0
175
1
176
1
 91
33
178
0
145
0.0
301
CELL_VALUE
 90
4
  1
 
304
ACVALUE_END
170
1
140
0.125
171
1
172
0
173
0
174
0
175
1
176
1
 91
33
178
0
145
0.0
301
CELL_VALUE
 90
4
  1
VMR
304
ACVALUE_END
170
5
140
0.125
171
1
172
0
173
0
174
0
175
4
176
1
 91
33
178
0
145
0.0
301
CELL_VALUE
 90
4
  1
ALL DIMENSIONS IN INCH\PVIEWS ARE THIRD ANGLE
304
ACVALUE_END
170
5
140
0.12
171
1
172
0
173
1
174
0
175
1
176
1
 91
1
178
0
145
0.0
170
1
171
1
172
0
173
1
174
0
175
1
176
1
 91
1
178
0
145
0.0
170
1
171
1
172
0
173
1
174
0
175
1
176
1
 91
1
178
0
145
0.0
170
5
171
1
172
0
173
0
174
0
175
1
176
1
 91
33
178
0
145
0.0
301
CELL_VALUE
 90
4
  1
 
304
ACVALUE_END
170
1
140
0.125
171
1
172
0
173
0
174
0
175
1
176
1
 91
33
178
0
145
0.0
301
CELL_VALUE
 90
4
  1
MODEL
304
ACVALUE_END
170
1
140
0.06
171
1
172
0
173
0
174
0
175
1
176
1
 91
33
178
0
145
0.0
301
CELL_VALUE
 90
4
  1
 
304
ACVALUE_END
170
1
140
0.125
171
1
172
0
173
0
174
0
175
1
176
1
 91
33
178
0
145
0.0
301
CELL_VALUE
 90
4
  1
 
304
ACVALUE_END
170
1
140
0.125
171
1
172
0
173
0
174
0
175
1
176
1
 91
33
178
0
145
0.0
301
CELL_VALUE
 90
4
  1
 
304
ACVALUE_END
170
1
140
0.125
171
1
172
0
173
0
174
0
175
1
176
1
 91
33
178
0
145
0.0
301
CELL_VALUE
 90
4
  1
 
304
ACVALUE_END
170
1
140
0.125
171
1
172
0
173
0
174
0
175
1
176
1
 91
33
178
0
145
0.0
301
CELL_VALUE
 90
4
  1
 
304
ACVALUE_END
170
1
140
0.125
  0
ACAD_TABLE
  5
28A
100
AcDbEntity
  8
0
 62
2
  6
CONTINUOUS
100
AcDbBlockReference
  2
*T2
 10
12.4237499994
 20
16.47875
 30
0.0
100
AcDbTable
342
       3B9
343
208
 11
1.0
 21
0.0
 31
0.0
 90
22
 91
10
 92
3
 93
16
 94
0
 95
0
 96
0
 41
0.028
141
0.344
141
0.25
141
0.25
141
0.25
141
0.25
141
0.25
141
0.25
141
0.25
141
0.25
141
0.25
142
3.055
142
3.0
142
3.0
171
1
172
0
173
0
174
0
175
1
176
1
 91
33
178
0
145
0.0
301
CELL_VALUE
 90
4
  1
Technical Data
304
ACVALUE_END
170
5
140
0.145
171
1
172
0
173
0
174
0
175
1
176
1
 91
33
178
0
145
0.0
301
CELL_VALUE
 90
4
  1
U.S. Units
304
ACVALUE_END
170
5
140
0.145
171
1
172
0
173
0
174
0
175
1
176
1
 91
33
178
0
145
0.0
301
CELL_VALUE
 90
4
  1
Metric Units
304
ACVALUE_END
170
5
140
0.145
171
1
172
0
173
0
174
0
175
1
176
1
 91
33
178
0
145
0.0
301
CELL_VALUE
 90
4
  1
Cavity
304
ACVALUE_END
170
5
140
0.125
171
1
172
0
173
0
174
0
175
2
176
1
 91
33
178
0
145
0.0
301
CELL_VALUE
 90
4
  1
T-3A
304
ACVALUE_END
170
5
140
0.125
171
1
172
0
173
1
174
0
175
1
176
1
 91
1
178
0
145
0.0
170
1
171
1
172
0
173
0
174
0
175
1
176
1
 91
33
178
0
145
0.0
301
CELL_VALUE
 90
4
  1
Body Features
304
ACVALUE_END
170
5
140
0.125
171
1
172
0
173
0
174
0
175
2
176
1
 91
33
178
0
145
0.0
301
CELL_VALUE
 90
4
  1
1 Station, Parallel circuit with relief cavity
304
ACVALUE_END
170
5
140
0.125
171
1
172
0
173
1
174
0
175
1
176
1
 91
1
178
0
145
0.0
170
1
171
1
172
0
173
0
174
0
175
1
176
1
 91
33
178
0
145
0.0
301
CELL_VALUE
 90
4
  1
Body Type
304
ACVALUE_END
170
5
140
0.125
171
1
172
0
173
0
174
0
175
2
176
1
 91
33
178
0
145
0.0
301
CELL_VALUE
 90
4
  1
Bar Manifold
304
ACVALUE_END
170
5
140
0.125
171
1
172
0
173
1
174
0
175
1
176
1
 91
1
178
0
145
0.0
170
1
171
1
172
0
173
0
174
0
175
1
176
1
 91
33
178
0
145
0.0
301
CELL_VALUE
 90
4
  1
Interface
304
ACVALUE_END
170
5
140
0.125
171
1
172
0
173
0
174
0
175
2
176
1
 91
33
178
0
145
0.0
301
CELL_VALUE
 90
4
  1
ISO 05
304
ACVALUE_END
170
5
140
0.125
171
1
172
0
173
1
174
0
175
1
176
1
 91
1
178
0
145
0.0
170
1
171
1
172
0
173
0
174
0
175
1
176
1
 91
33
178
0
145
0.0
301
CELL_VALUE
 90
4
  1
Open Cavity Quantity
304
ACVALUE_END
170
5
140
0.125
171
1
172
0
173
0
174
0
175
2
176
1
 91
33
178
0
145
0.0
301
CELL_VALUE
 90
4
  1
1
304
ACVALUE_END
170
5
140
0.125
171
1
172
0
173
1
174
0
175
1
176
1
 91
1
178
0
145
0.0
170
1
171
1
172
0
173
0
174
0
175
1
176
1
 91
33
178
0
145
0.0
301
CELL_VALUE
 90
4
  1
Weight
304
ACVALUE_END
170
5
140
0.125
171
1
172
0
173
0
174
0
175
1
176
1
 91
33
178
0
145
0.0
301
CELL_VALUE
 90
4
  1
5.746 lb.
304
ACVALUE_END
170
5
140
0.125
171
1
172
0
173
0
174
0
175
1
176
1
 91
33
178
0
145
0.0
301
CELL_VALUE
 90
4
  1
2,606 kg.
304
ACVALUE_END
170
5
140
0.125
171
1
172
0
173
0
174
0
175
1
176
1
 91
33
178
0
145
0.0
301
CELL_VALUE
 90
4
  1
Mounting Hole Thread
304
ACVALUE_END
170
5
140
0.125
171
1
172
0
173
0
174
0
175
1
176
1
 91
33
178
0
145
0.0
301
CELL_VALUE
 90
4
  1
.375-16 UNC - 2B in.
304
ACVALUE_END
170
5
140
0.125
171
1
172
0
173
0
174
0
175
1
176
1
 91
33
178
0
145
0.0
301
CELL_VALUE
 90
4
  1
 
304
ACVALUE_END
170
5
140
0.125
171
1
172
0
173
0
174
0
175
1
176
1
 91
33
178
0
145
0.0
301
CELL_VALUE
 90
4
  1
Mounting Hole Depth
304
ACVALUE_END
170
5
140
0.125
171
1
172
0
173
0
174
0
175
1
176
1
 91
33
178
0
145
0.0
301
CELL_VALUE
 90
4
  1
.75 in.
304
ACVALUE_END
170
5
140
0.125
171
1
172
0
173
0
174
0
175
1
176
1
 91
33
178
0
145
0.0
301
CELL_VALUE
 90
4
  1
19 mm
304
ACVALUE_END
170
5
140
0.125
171
1
172
0
173
0
174
0
175
1
176
1
 91
33
178
0
145
0.0
301
CELL_VALUE
 90
4
  1
Mounting Hole Quantity
304
ACVALUE_END
170
5
140
0.125
171
1
172
0
173
0
174
0
175
2
176
1
 91
33
178
0
145
0.0
301
CELL_VALUE
 90
4
  1
4
304
ACVALUE_END
170
5
140
0.125
171
1
172
0
173
1
174
0
175
1
176
1
 91
1
178
0
145
0.0
170
1
  0
ACAD_TABLE
  5
28B
100
AcDbEntity
  8
0
 62
2
  6
CONTINUOUS
100
AcDbBlockReference
  2
*T3
 10
0.52125
 20
1.959
 30
0.0
100
AcDbTable
342
       3B9
343
209
 11
1.0
 21
0.0
 31
0.0
 90
22
 91
5
 92
3
 93
16
 94
0
 95
0
 96
0
 41
0.05
141
0.34375
141
0.344
141
0.25
141
0.25
141
0.25
142
1.3
142
2.0
142
1.3
171
1
172
0
173
0
174
0
175
3
176
1
 91
33
178
0
145
0.0
301
CELL_VALUE
 90
4
  1
Port Headings
304
ACVALUE_END
170
5
140
0.145
171
1
172
0
173
1
174
0
175
1
176
1
 91
1
178
0
145
0.0
170
1
171
1
172
0
173
1
174
0
175
1
176
1
 91
1
178
0
145
0.0
170
1
171
1
172
0
173
0
174
0
175
1
176
1
 91
33
178
0
145
0.0
301
CELL_VALUE
 90
4
  1
Product
304
ACVALUE_END
170
5
140
0.145
171
1
172
0
173
0
174
0
175
1
176
1
 91
33
178
0
145
0.0
301
CELL_VALUE
 90
4
  1
Port
304
ACVALUE_END
170
5
140
0.145
171
1
172
0
173
0
174
0
175
1
176
1
 91
33
178
0
145
0.0
301
CELL_VALUE
 90
4
  1
Size
304
ACVALUE_END
170
5
140
0.145
171
1
172
0
173
0
174
0
175
1
176
1
 91
33
178
0
145
0.0
301
CELL_VALUE
 90
4
  1
VMR
304
ACVALUE_END
170
5
140
0.125
171
1
172
0
173
0
174
0
175
1
176
1
 91
33
178
0
145
0.0
301
CELL_VALUE
 90
4
  1
Ports A, B, P
304
ACVALUE_END
170
5
140
0.125
171
1
172
0
173
0
174
0
175
1
176
1
 91
33
178
0
145
0.0
301
CELL_VALUE
 90
4
  1
3/4" BSPP
304
ACVALUE_END
170
5
140
0.125
171
1
172
0
173
0
174
0
175
1
176
1
 91
33
178
0
145
0.0
301
CELL_VALUE
 90
4
  1
VMR
304
ACVALUE_END
170
5
140
0.125
171
1
172
0
173
0
174
0
175
1
176
1
 91
33
178
0
145
0.0
301
CELL_VALUE
 90
4
  1
Port T
304
ACVALUE_END
170
5
140
0.125
171
1
172
0
173
0
174
0
175
1
176
1
 91
33
178
0
145
0.0
301
CELL_VALUE
 90
4
  1
1" BSPP
304
ACVALUE_END
170
5
140
0.125
171
1
172
0
173
0
174
0
175
1
176
1
 91
33
178
0
145
0.0
301
CELL_VALUE
 90
4
  1
VMR
304
ACVALUE_END
170
5
140
0.125
171
1
172
0
173
0
174
0
175
1
176
1
 91
33
178
0
145
0.0
301
CELL_VALUE
 90
4
  1
Gage & Y Port
304
ACVALUE_END
170
5
140
0.125
171
1
172
0
173
0
174
0
175
1
176
1
 91
33
178
0
145
0.0
301
CELL_VALUE
 90
4
  1
1/4" BSPP
304
ACVALUE_END
170
5
140
0.125
  0
MTEXT
  5
28C
100
AcDbEntity
  8
0
100
AcDbMText
 62
2
  6
CONTINUOUS
  7
STANDARD
 71
1
 72
1
 10
0.52125
 20
5.75995
 30
0.0
 11
1.0
 21
0.0
 31
0.0
 44
0.6
  3
Notes\P \P1. For mounting bracket information\P    see catalog or drawing 991-021-***\P2. Important: Carefully consider\P   the maximum system pressure. The\P   pressure rating of the manifold is\P   dependent on the manifold material,\P   with the p
  1
ort type/size a secondary\P   consideration. Manifolds\P   constructed of aluminum are not\P   rated for pressures higher than\P   3000 psi (210 bar), regardless of\P   the port type/size specified.
 40
0.1
 41
3.04
  0
LINE
  5
28D
100
AcDbEntity
  8
0
100
AcDbLine
 62
7
  6
CONTINUOUS
 10
0.30125
 20
0.30125
 11
0.30125
 21
16.69875
  0
LINE
  5
28E
100
AcDbEntity
  8
0
100
AcDbLine
 62
7
  6
CONTINUOUS
 10
0.30125
 20
0.30125
 11
21.69875
 21
0.30125
  0
LINE
  5
28F
100
AcDbEntity
  8
0
100
AcDbLine
 62
7
  6
CONTINUOUS
 10
0.30125
 20
16.69875
 11
21.69875
 21
16.69875
  0
LINE
  5
290
100
AcDbEntity
  8
0
100
AcDbLine
 62
7
  6
CONTINUOUS
 10
21.69875
 20
0.30125
 11
21.69875
 21
16.69875
  0
LINE
  5
291
100
AcDbEntity
  8
0
100
AcDbLine
 62
7
  6
CONTINUOUS
 10
8.6792746939
 20
10.5182224623
 11
9.6985032429
 21
11.5027216991
  0
LINE
  5
292
100
AcDbEntity
  8
0
100
AcDbLine
 62
7
  6
CONTINUOUS
 10
12.3014967571
 20
5.4972783009
 11
8.6792746939
 21
5.7484802542
  0
LINE
  5
293
100
AcDbEntity
  8
0
100
AcDbLine
 62
7
  6
CONTINUOUS
 10
8.6792746939
 20
10.5182224623
 11
8.6792746939
 21
5.7484802542
  0
LINE
  5
294
100
AcDbEntity
  8
0
100
AcDbLine
 62
4
  6
CONTINUOUS
 10
10.1033367688
 20
10.4537608789
 11
10.1188658984
 21
10.4687608671
  0
LINE
  5
295
100
AcDbEntity
  8
0
100
AcDbLine
 62
7
  6
CONTINUOUS
 10
10.0785766202
 20
10.5894016582
 11
10.0792382832
 21
10.5900287144
  0
LINE
  5
296
100
AcDbEntity
  8
0
100
AcDbLine
 62
4
  6
CONTINUOUS
 10
10.1033367688
 20
10.4537608789
 11
10.0588298634
 21
10.4407705063
  0
LINE
  5
297
100
AcDbEntity
  8
0
100
AcDbLine
 62
4
  6
CONTINUOUS
 10
11.46682827
 20
10.8307925961
 11
11.3995477911
 21
10.8033046392
  0
LINE
  5
298
100
AcDbEntity
  8
0
100
AcDbLine
 62
4
  6
CONTINUOUS
 10
11.0731017685
 20
10.5204819255
 11
11.0780799941
 21
10.5224333905
  0
LINE
  5
299
100
AcDbEntity
  8
0
100
AcDbLine
 62
4
  6
CONTINUOUS
 10
11.5548696094
 20
10.5986910887
 11
11.5040045768
 21
10.5838449486
  0
LINE
  5
29A
100
AcDbEntity
  8
0
100
AcDbLine
 62
4
  6
CONTINUOUS
 10
10.9363543135
 20
10.5598225622
 11
10.929698972
 21
10.5533939956
  0
LINE
  5
29B
100
AcDbEntity
  8
0
100
AcDbLine
 62
4
  6
CONTINUOUS
 10
10.9749381863
 20
10.5456632351
 11
10.9682828455
 21
10.5392346692
  0
LINE
  5
29C
100
AcDbEntity
  8
0
100
AcDbLine
 62
4
  6
CONTINUOUS
 10
11.6647728794
 20
10.6048495029
 11
11.6005971607
 21
10.5771462302
  0
LINE
  5
29D
100
AcDbEntity
  8
0
100
AcDbLine
 62
4
  6
CONTINUOUS
 10
11.9497443754
 20
10.6558251852
 11
11.8855686601
 21
10.6281219122
  0
LINE
  5
29E
100
AcDbEntity
  8
0
100
AcDbLine
 62
4
  6
CONTINUOUS
 10
11.5669198768
 20
10.5260450816
 11
11.5042231395
 21
10.4997703774
  0
LINE
  5
29F
100
AcDbEntity
  8
0
100
AcDbLine
 62
4
  6
CONTINUOUS
 10
11.0605447499
 20
10.5512099262
 11
11.0427971736
 21
10.5340670829
  0
LINE
  5
2A0
100
AcDbEntity
  8
0
100
AcDbLine
 62
4
  6
CONTINUOUS
 10
11.1069198053
 20
10.5502905106
 11
11.084735334
 21
10.5288619556
  0
LINE
  5
2A1
100
AcDbEntity
  8
0
100
AcDbLine
 62
4
  6
CONTINUOUS
 10
11.0780799941
 20
10.5224333905
 11
11.0758615462
 21
10.5202905342
  0
LINE
  5
2A2
100
AcDbEntity
  8
0
100
AcDbLine
 62
4
  6
CONTINUOUS
 10
11.2846354057
 20
10.7019506489
 11
11.2535771466
 21
10.6719506726
  0
LINE
  5
2A3
100
AcDbEntity
  8
0
100
AcDbLine
 62
4
  6
CONTINUOUS
 10
11.3049304816
 20
10.672982717
 11
11.3271149524
 21
10.6944112716
  0
LINE
  5
2A4
100
AcDbEntity
  8
0
100
AcDbLine
 62
4
  6
CONTINUOUS
 10
11.179215631
 20
10.5429800727
 11
11.1503758191
 21
10.5151229519
  0
LINE
  5
2A5
100
AcDbEntity
  8
0
100
AcDbLine
 62
4
  6
CONTINUOUS
 10
11.2145515205
 20
10.5428262258
 11
11.1923670492
 21
10.5213976707
  0
LINE
  5
2A6
100
AcDbEntity
  8
0
100
AcDbLine
 62
4
  6
CONTINUOUS
 10
11.4999421805
 20
10.8177781803
 11
11.502530369
 21
10.8202781787
  0
LINE
  5
2A7
100
AcDbEntity
  8
0
100
AcDbLine
 62
4
  6
CONTINUOUS
 10
11.4916574958
 20
10.8022757891
 11
11.4942456834
 21
10.8047757866
  0
LINE
  5
2A8
100
AcDbEntity
  8
0
100
AcDbLine
 62
4
  6
CONTINUOUS
 10
11.3895073985
 20
10.6946777515
 11
11.3584491394
 21
10.6646777751
  0
LINE
  5
2A9
100
AcDbEntity
  8
0
100
AcDbLine
 62
4
  6
CONTINUOUS
 10
11.242043268
 20
10.5179526133
 11
11.2620092921
 21
10.5372383128
  0
LINE
  5
2AA
100
AcDbEntity
  8
0
100
AcDbLine
 62
4
  6
CONTINUOUS
 10
11.3960034756
 20
10.6666667834
 11
11.4181879465
 21
10.688095338
  0
LINE
  5
2AB
100
AcDbEntity
  8
0
100
AcDbLine
 62
4
  6
CONTINUOUS
 10
11.2973451816
 20
10.5370844659
 11
11.2795976042
 21
10.5199416215
  0
LINE
  5
2AC
100
AcDbEntity
  8
0
100
AcDbLine
 62
4
  6
CONTINUOUS
 10
11.4761434982
 20
10.6840761068
 11
11.4539590273
 21
10.6626475522
  0
LINE
  5
2AD
100
AcDbEntity
  8
0
100
AcDbLine
 62
4
  6
CONTINUOUS
 10
11.3448028979
 20
10.5314965567
 11
11.3381475564
 21
10.5250679901
  0
LINE
  5
2AE
100
AcDbEntity
  8
0
100
AcDbLine
 62
4
  6
CONTINUOUS
 10
11.4173684628
 20
10.5944465938
 11
11.4262422506
 21
10.6030180151
  0
LINE
  5
2AF
100
AcDbEntity
  8
0
100
AcDbLine
 62
4
  6
CONTINUOUS
 10
11.3629325969
 20
10.5118656159
 11
11.3673694908
 21
10.5161513266
  0
LINE
  5
2B0
100
AcDbEntity
  8
0
100
AcDbLine
 62
4
  6
CONTINUOUS
 10
11.5019453797
 20
10.6161416284
 11
11.4708871206
 21
10.586141652
  0
LINE
  5
2B1
100
AcDbEntity
  8
0
100
AcDbLine
 62
4
  6
CONTINUOUS
 10
11.5727360475
 20
10.6773773908
 11
11.5505515767
 21
10.6559488362
  0
LINE
  5
2B2
100
AcDbEntity
  8
0
100
AcDbLine
 62
4
  6
CONTINUOUS
 10
11.421535618
 20
10.5284718299
 11
11.3993511467
 21
10.5070432748
  0
LINE
  5
2B3
100
AcDbEntity
  8
0
100
AcDbLine
 62
4
  6
CONTINUOUS
 10
11.5040045768
 20
10.5838449486
 11
11.5350628359
 21
10.613844925
  0
LINE
  5
2B4
100
AcDbEntity
  8
0
100
AcDbLine
 62
4
  6
CONTINUOUS
 10
11.4235948565
 20
10.4961751473
 11
11.4546531156
 21
10.5261751236
  0
LINE
  5
2B5
100
AcDbEntity
  8
0
100
AcDbLine
 62
4
  6
CONTINUOUS
 10
11.7472811014
 20
10.7791892523
 11
11.7783393605
 21
10.8091892286
  0
LINE
  5
2B6
100
AcDbEntity
  8
0
100
AcDbLine
 62
4
  6
CONTINUOUS
 10
11.5021108319
 20
10.5205872144
 11
11.4843632556
 21
10.5034443712
  0
LINE
  5
2B7
100
AcDbEntity
  8
0
100
AcDbLine
 62
4
  6
CONTINUOUS
 10
11.6012977551
 20
10.6092515177
 11
11.570239496
 21
10.5792515414
  0
LINE
  5
2B8
100
AcDbEntity
  8
0
100
AcDbLine
 62
4
  6
CONTINUOUS
 10
11.7510396247
 20
10.6696054065
 11
11.7199813656
 21
10.6396054301
  0
LINE
  5
2B9
100
AcDbEntity
  8
0
100
AcDbLine
 62
4
  6
CONTINUOUS
 10
11.5892352208
 20
10.4961714757
 11
11.6092012443
 21
10.5154571745
  0
LINE
  5
2BA
100
AcDbEntity
  8
0
100
AcDbLine
 62
4
  6
CONTINUOUS
 10
11.817274537
 20
10.6650119997
 11
11.7862162779
 21
10.6350120233
  0
LINE
  5
2BB
100
AcDbEntity
  8
0
100
AcDbLine
 62
4
  6
CONTINUOUS
 10
11.6588774354
 20
10.5120121189
 11
11.6278191763
 21
10.4820121426
  0
LINE
  5
2BC
100
AcDbEntity
  8
0
100
AcDbLine
 62
4
  6
CONTINUOUS
 10
11.7830678994
 20
10.503399481
 11
11.7520096403
 21
10.4733995047
  0
LINE
  5
2BD
100
AcDbEntity
  8
0
100
AcDbLine
 62
4
  6
CONTINUOUS
 10
11.9700394098
 20
10.6268572561
 11
11.9922238807
 21
10.6482858107
  0
LINE
  5
2BE
100
AcDbEntity
  8
0
100
AcDbLine
 62
4
  6
CONTINUOUS
 10
11.8410234511
 20
10.4993802498
 11
11.809965192
 21
10.4693802735
  0
LINE
  5
2BF
100
AcDbEntity
  8
0
100
AcDbLine
 62
4
  6
CONTINUOUS
 10
11.8697040129
 20
10.4927978354
 11
11.8430826482
 21
10.4670835701
  0
LINE
  5
2C0
100
AcDbEntity
  8
0
100
AcDbLine
 62
4
  6
CONTINUOUS
 10
12.0546163199
 20
10.6485522911
 11
12.0235580608
 21
10.6185523148
  0
LINE
  5
2C1
100
AcDbEntity
  8
0
100
AcDbLine
 62
4
  6
CONTINUOUS
 10
11.9010381999
 20
10.4630643389
 11
11.9276595646
 21
10.4887786042
  0
LINE
  5
2C2
100
AcDbEntity
  8
0
100
AcDbLine
 62
4
  6
CONTINUOUS
 10
11.9607770208
 20
10.4864819008
 11
11.9563401264
 21
10.4821961897
  0
LINE
  5
2C3
100
AcDbEntity
  8
0
100
AcDbLine
 62
4
  6
CONTINUOUS
 10
12.0009849956
 20
10.4653198257
 11
11.9965481017
 21
10.461034115
  0
LINE
  5
2C4
100
AcDbEntity
  8
0
100
AcDbLine
 62
7
  6
CONTINUOUS
 10
13.3207253061
 20
11.2515197458
 11
12.3014967571
 21
10.267020509
  0
LINE
  5
2C5
100
AcDbEntity
  8
0
100
AcDbLine
 62
4
  6
CONTINUOUS
 10
12.5779152604
 20
10.1862869894
 11
12.6089735195
 21
10.2162869658
  0
LINE
  5
2C6
100
AcDbEntity
  8
0
100
AcDbLine
 62
7
  6
CONTINUOUS
 10
12.7876328283
 20
10.1682067782
 11
12.7892466328
 21
10.169736975
  0
LINE
  5
2C7
100
AcDbEntity
  8
0
100
AcDbLine
 62
4
  6
CONTINUOUS
 10
10.1167854151
 20
10.4367512752
 11
10.1033367688
 21
10.4537608789
  0
LINE
  5
2C8
100
AcDbEntity
  8
0
100
AcDbLine
 62
4
  6
CONTINUOUS
 10
11.3995477911
 20
10.8033046392
 11
11.3943838304
 21
10.8358166351
  0
LINE
  5
2C9
100
AcDbEntity
  8
0
100
AcDbLine
 62
4
  6
CONTINUOUS
 10
11.553899303
 20
10.4963253238
 11
11.5512456649
 21
10.5194764076
  0
LINE
  5
2CA
100
AcDbEntity
  8
0
100
AcDbLine
 62
4
  6
CONTINUOUS
 10
11.6668320799
 20
10.5725528229
 11
11.6647728794
 21
10.6048495029
  0
LINE
  5
2CB
100
AcDbEntity
  8
0
100
AcDbLine
 62
4
  6
CONTINUOUS
 10
11.8855686601
 20
10.6281219122
 11
11.8835094493
 21
10.6604185929
  0
LINE
  5
2CC
100
AcDbEntity
  8
0
100
AcDbLine
 62
4
  6
CONTINUOUS
 10
12.6348554162
 20
8.3664247751
 11
12.6400317915
 21
8.37142477
  0
LINE
  5
2CD
100
AcDbEntity
  8
0
100
AcDbLine
 62
4
  6
CONTINUOUS
 10
12.6607372982
 20
8.3334692031
 11
12.6296790391
 21
8.3034692268
  0
LINE
  5
2CE
100
AcDbEntity
  8
0
100
AcDbLine
 62
7
  6
CONTINUOUS
 10
12.3014967571
 20
10.267020509
 11
12.3014967571
 21
5.4972783009
  0
LINE
  5
2CF
100
AcDbEntity
  8
0
100
AcDbLine
 62
7
  6
CONTINUOUS
 10
12.7876328283
 20
8.1349328809
 11
12.7889167248
 21
8.1361502189
  0
LINE
  5
2D0
100
AcDbEntity
  8
0
100
AcDbLine
 62
4
  6
CONTINUOUS
 10
11.2795976042
 20
10.5199416215
 11
11.2834400432
 21
10.5150817372
  0
LINE
  5
2D1
100
AcDbEntity
  8
0
100
AcDbLine
 62
4
  6
CONTINUOUS
 10
12.6400317915
 20
8.37142477
 11
12.642619981
 21
8.3666803253
  0
LINE
  5
2D2
100
AcDbEntity
  8
0
100
AcDbLine
 62
4
  6
CONTINUOUS
 10
12.5779152604
 20
10.1500647696
 11
12.5779152604
 21
10.2225092092
  0
LINE
  5
2D3
100
AcDbEntity
  8
0
100
AcDbLine
 62
4
  6
CONTINUOUS
 10
12.6296790391
 20
8.3034692268
 11
12.6296790391
 21
8.3396914466
  0
LINE
  5
2D4
100
AcDbEntity
  8
0
100
AcDbLine
 62
4
  6
CONTINUOUS
 10
12.6452081686
 20
8.3546914348
 11
12.6452081686
 21
8.3184692149
  0
LINE
  5
2D5
100
AcDbEntity
  8
0
100
AcDbLine
 62
4
  6
CONTINUOUS
 10
12.6296790391
 20
8.3396914466
 11
12.6322672267
 21
8.3566803319
  0
LINE
  5
2D6
100
AcDbEntity
  8
0
100
AcDbLine
 62
4
  6
CONTINUOUS
 10
12.6322672267
 20
8.3566803319
 11
12.6348554162
 21
8.3664247751
  0
LINE
  5
2D7
100
AcDbEntity
  8
0
100
AcDbLine
 62
4
  6
CONTINUOUS
 10
11.9965481017
 20
10.461034115
 11
11.975552478
 21
10.4578967562
  0
LINE
  5
2D8
100
AcDbEntity
  8
0
100
AcDbLine
 62
4
  6
CONTINUOUS
 10
11.570239496
 20
10.5792515414
 11
11.5548696094
 21
10.5986910887
  0
LINE
  5
2D9
100
AcDbEntity
  8
0
100
AcDbLine
 62
4
  6
CONTINUOUS
 10
12.642619981
 20
8.3666803253
 11
12.6452081686
 21
8.3546914348
  0
LINE
  5
2DA
100
AcDbEntity
  8
0
100
AcDbLine
 62
4
  6
CONTINUOUS
 10
11.9817726432
 20
10.4896192602
 11
11.9607770208
 21
10.4864819008
  0
LINE
  5
2DB
100
AcDbEntity
  8
0
100
AcDbLine
 62
4
  6
CONTINUOUS
 10
11.8906996284
 20
10.4959351952
 11
11.8697040129
 21
10.4927978354
  0
LINE
  5
2DC
100
AcDbEntity
  8
0
100
AcDbLine
 62
4
  6
CONTINUOUS
 10
11.9922238807
 20
10.6482858107
 11
12.0132195031
 21
10.6514231701
  0
LINE
  5
2DD
100
AcDbEntity
  8
0
100
AcDbLine
 62
4
  6
CONTINUOUS
 10
11.0427971736
 20
10.5340670829
 11
11.0322993928
 21
10.5324984004
  0
LINE
  5
2DE
100
AcDbEntity
  8
0
100
AcDbLine
 62
4
  6
CONTINUOUS
 10
11.4262422506
 20
10.6030180151
 11
11.4472378666
 21
10.6061553755
  0
LINE
  5
2DF
100
AcDbEntity
  8
0
100
AcDbLine
 62
4
  6
CONTINUOUS
 10
10.9682828455
 20
10.5392346692
 11
10.9577850647
 21
10.5376659866
  0
LINE
  5
2E0
100
AcDbEntity
  8
0
100
AcDbLine
 62
4
  6
CONTINUOUS
 10
10.9468520936
 20
10.5613912441
 11
10.9363543135
 21
10.5598225622
  0
LINE
  5
2E1
100
AcDbEntity
  8
0
100
AcDbLine
 62
4
  6
CONTINUOUS
 10
11.5505515767
 20
10.6559488362
 11
11.5295559616
 21
10.6528114767
  0
LINE
  5
2E2
100
AcDbEntity
  8
0
100
AcDbLine
 62
4
  6
CONTINUOUS
 10
11.4843632556
 20
10.5034443712
 11
11.4655860866
 21
10.5024498661
  0
LINE
  5
2E3
100
AcDbEntity
  8
0
100
AcDbLine
 62
4
  6
CONTINUOUS
 10
11.3381475564
 20
10.5250679901
 11
11.3193703883
 21
10.5240734859
  0
LINE
  5
2E4
100
AcDbEntity
  8
0
100
AcDbLine
 62
7
  6
CONTINUOUS
 10
12.3014967571
 20
10.267020509
 11
8.6792746939
 21
10.5182224623
  0
LINE
  5
2E5
100
AcDbEntity
  8
0
100
AcDbLine
 62
4
  6
CONTINUOUS
 10
11.975552478
 20
10.4578967562
 11
11.9424350201
 21
10.4601934597
  0
LINE
  5
2E6
100
AcDbEntity
  8
0
100
AcDbLine
 62
4
  6
CONTINUOUS
 10
11.0758615462
 20
10.5202905342
 11
11.0731017685
 21
10.5204819255
  0
LINE
  5
2E7
100
AcDbEntity
  8
0
100
AcDbLine
 62
4
  6
CONTINUOUS
 10
11.6366929641
 20
10.4905835639
 11
11.5952961335
 21
10.4934544438
  0
LINE
  5
2E8
100
AcDbEntity
  8
0
100
AcDbLine
 62
4
  6
CONTINUOUS
 10
11.4655860866
 20
10.5024498661
 11
11.4324686443
 21
10.5047465686
  0
LINE
  5
2E9
100
AcDbEntity
  8
0
100
AcDbLine
 62
4
  6
CONTINUOUS
 10
11.3993511467
 20
10.5070432748
 11
11.3662337043
 21
10.5093399773
  0
LINE
  5
2EA
100
AcDbEntity
  8
0
100
AcDbLine
 62
4
  6
CONTINUOUS
 10
11.0322993928
 20
10.5324984004
 11
10.99918184
 21
10.5347951105
  0
LINE
  5
2EB
100
AcDbEntity
  8
0
100
AcDbLine
 62
4
  6
CONTINUOUS
 10
10.9577850647
 20
10.5376659866
 11
10.9246676223
 21
10.5399626891
  0
LINE
  5
2EC
100
AcDbEntity
  8
0
100
AcDbLine
 62
4
  6
CONTINUOUS
 10
11.2834400432
 20
10.5150817372
 11
11.3248368738
 21
10.5122108572
  0
LINE
  5
2ED
100
AcDbEntity
  8
0
100
AcDbLine
 62
4
  6
CONTINUOUS
 10
11.3193703883
 20
10.5240734859
 11
11.2862529459
 21
10.5263701884
  0
LINE
  5
2EE
100
AcDbEntity
  8
0
100
AcDbLine
 62
4
  6
CONTINUOUS
 10
12.014890102
 20
10.4873225567
 11
11.9817726432
 21
10.4896192602
  0
LINE
  5
2EF
100
AcDbEntity
  8
0
100
AcDbLine
 62
4
  6
CONTINUOUS
 10
11.9155377309
 20
10.494212667
 11
11.8906996284
 21
10.4959351952
  0
LINE
  5
2F0
100
AcDbEntity
  8
0
100
AcDbLine
 62
4
  6
CONTINUOUS
 10
11.255948351
 20
10.5399553458
 11
11.2145515205
 21
10.5428262258
  0
LINE
  5
2F1
100
AcDbEntity
  8
0
100
AcDbLine
 62
4
  6
CONTINUOUS
 10
10.979969536
 20
10.5590945417
 11
10.9468520936
 21
10.5613912441
  0
LINE
  5
2F2
100
AcDbEntity
  8
0
100
AcDbLine
 62
4
  6
CONTINUOUS
 10
11.0213663113
 20
10.5562236656
 11
11.0544838641
 21
10.5539269555
  0
LINE
  5
2F3
100
AcDbEntity
  8
0
100
AcDbLine
 62
4
  6
CONTINUOUS
 10
11.1565959688
 20
10.546845457
 11
11.1731546899
 21
10.5456971057
  0
LINE
  5
2F4
100
AcDbEntity
  8
0
100
AcDbLine
 62
4
  6
CONTINUOUS
 10
11.2973451816
 20
10.5370844659
 11
11.3304626239
 21
10.5347877635
  0
LINE
  5
2F5
100
AcDbEntity
  8
0
100
AcDbLine
 62
4
  6
CONTINUOUS
 10
11.4546531156
 20
10.5261751236
 11
11.4877705579
 21
10.5238784212
  0
LINE
  5
2F6
100
AcDbEntity
  8
0
100
AcDbLine
 62
4
  6
CONTINUOUS
 10
10.9364993403
 20
10.5513912517
 11
10.968137818
 21
10.547665979
  0
LINE
  5
2F7
100
AcDbEntity
  8
0
100
AcDbLine
 62
4
  6
CONTINUOUS
 10
11.3304626239
 20
10.5347877635
 11
11.3448028979
 21
10.5314965567
  0
LINE
  5
2F8
100
AcDbEntity
  8
0
100
AcDbLine
 62
4
  6
CONTINUOUS
 10
10.929698972
 20
10.5533939956
 11
10.9364993403
 21
10.5513912517
  0
LINE
  5
2F9
100
AcDbEntity
  8
0
100
AcDbLine
 62
4
  6
CONTINUOUS
 10
10.968137818
 20
10.547665979
 11
10.9749381863
 21
10.5456632351
  0
LINE
  5
2FA
100
AcDbEntity
  8
0
100
AcDbLine
 62
4
  6
CONTINUOUS
 10
10.9246676223
 20
10.5399626891
 11
10.9186067373
 21
10.542679719
  0
LINE
  5
2FB
100
AcDbEntity
  8
0
100
AcDbLine
 62
4
  6
CONTINUOUS
 10
10.9860304217
 20
10.5563775124
 11
10.979969536
 21
10.5590945417
  0
LINE
  5
2FC
100
AcDbEntity
  8
0
100
AcDbLine
 62
4
  6
CONTINUOUS
 10
11.0544838641
 20
10.5539269555
 11
11.0605447499
 21
10.5512099262
  0
LINE
  5
2FD
100
AcDbEntity
  8
0
100
AcDbLine
 62
4
  6
CONTINUOUS
 10
11.1731546899
 20
10.5456971057
 11
11.179215631
 21
10.5429800727
  0
LINE
  5
2FE
100
AcDbEntity
  8
0
100
AcDbLine
 62
4
  6
CONTINUOUS
 10
11.2620092921
 20
10.5372383128
 11
11.255948351
 21
10.5399553458
  0
LINE
  5
2FF
100
AcDbEntity
  8
0
100
AcDbLine
 62
4
  6
CONTINUOUS
 10
11.3662337043
 20
10.5093399773
 11
11.3629325969
 21
10.5118656159
  0
LINE
  5
300
100
AcDbEntity
  8
0
100
AcDbLine
 62
4
  6
CONTINUOUS
 10
11.4637966016
 20
10.6050070233
 11
11.443989828
 21
10.6201608595
  0
LINE
  5
301
100
AcDbEntity
  8
0
100
AcDbLine
 62
4
  6
CONTINUOUS
 10
11.809965192
 20
10.4693802735
 11
11.7830678994
 21
10.503399481
  0
LINE
  5
302
100
AcDbEntity
  8
0
100
AcDbLine
 62
4
  6
CONTINUOUS
 10
11.4942456834
 20
10.8047757866
 11
11.5040783151
 21
10.8067733801
  0
LINE
  5
303
100
AcDbEntity
  8
0
100
AcDbLine
 62
4
  6
CONTINUOUS
 10
11.502530369
 20
10.8202781787
 11
11.5221956334
 21
10.8242733668
  0
LINE
  5
304
100
AcDbEntity
  8
0
100
AcDbLine
 62
4
  6
CONTINUOUS
 10
11.4539590273
 20
10.6626475522
 11
11.4329634123
 21
10.6595101928
  0
LINE
  5
305
100
AcDbEntity
  8
0
100
AcDbLine
 62
4
  6
CONTINUOUS
 10
11.4181879465
 20
10.688095338
 11
11.439183562
 21
10.6912326979
  0
LINE
  5
306
100
AcDbEntity
  8
0
100
AcDbLine
 62
4
  6
CONTINUOUS
 10
11.3271149524
 20
10.6944112716
 11
11.3481105679
 21
10.6975486314
  0
LINE
  5
307
100
AcDbEntity
  8
0
100
AcDbLine
 62
4
  6
CONTINUOUS
 10
11.5397804141
 20
10.7962589627
 11
11.5227033385
 21
10.794763773
  0
LINE
  5
308
100
AcDbEntity
  8
0
100
AcDbLine
 62
4
  6
CONTINUOUS
 10
11.5040783151
 20
10.8067733801
 11
11.5211553925
 21
10.8082685715
  0
LINE
  5
309
100
AcDbEntity
  8
0
100
AcDbLine
 62
4
  6
CONTINUOUS
 10
11.5221956334
 20
10.8242733668
 11
11.5392727097
 21
10.8257685572
  0
LINE
  5
30A
100
AcDbEntity
  8
0
100
AcDbLine
 62
4
  6
CONTINUOUS
 10
12.0574680854
 20
10.6284497407
 11
12.1075405565
 21
10.631101751
  0
LINE
  5
30B
100
AcDbEntity
  8
0
100
AcDbLine
 62
4
  6
CONTINUOUS
 10
11.144374509
 20
10.6978975433
 11
11.1944469762
 21
10.7005495534
  0
LINE
  5
30C
100
AcDbEntity
  8
0
100
AcDbLine
 62
4
  6
CONTINUOUS
 10
11.5834785979
 20
10.5248967304
 11
11.5669198768
 21
10.5260450816
  0
LINE
  5
30D
100
AcDbEntity
  8
0
100
AcDbLine
 62
4
  6
CONTINUOUS
 10
11.4708871206
 20
10.586141652
 11
11.4294902901
 21
10.589012532
  0
LINE
  5
30E
100
AcDbEntity
  8
0
100
AcDbLine
 62
4
  6
CONTINUOUS
 10
11.4472378666
 20
10.6061553755
 11
11.4886346971
 21
10.6032844955
  0
LINE
  5
30F
100
AcDbEntity
  8
0
100
AcDbLine
 62
4
  6
CONTINUOUS
 10
12.0235580608
 20
10.6185523148
 11
11.982161244
 21
10.6214231938
  0
LINE
  5
310
100
AcDbEntity
  8
0
100
AcDbLine
 62
4
  6
CONTINUOUS
 10
11.8193337478
 20
10.632715319
 11
11.7530988355
 21
10.6373087258
  0
LINE
  5
311
100
AcDbEntity
  8
0
100
AcDbLine
 62
4
  6
CONTINUOUS
 10
11.7199813656
 20
10.6396054301
 11
11.6703051744
 21
10.6430504857
  0
LINE
  5
312
100
AcDbEntity
  8
0
100
AcDbLine
 62
4
  6
CONTINUOUS
 10
11.5295559616
 20
10.6528114767
 11
11.4964385193
 21
10.6551081792
  0
LINE
  5
313
100
AcDbEntity
  8
0
100
AcDbLine
 62
4
  6
CONTINUOUS
 10
11.4329634123
 20
10.6595101928
 11
11.4081253029
 21
10.6612327215
  0
LINE
  5
314
100
AcDbEntity
  8
0
100
AcDbLine
 62
4
  6
CONTINUOUS
 10
11.3584491394
 20
10.6646777751
 11
11.3170523089
 21
10.6675486551
  0
LINE
  5
315
100
AcDbEntity
  8
0
100
AcDbLine
 62
4
  6
CONTINUOUS
 10
11.2535771466
 20
10.6719506726
 11
11.2039009831
 21
10.6753957262
  0
LINE
  5
316
100
AcDbEntity
  8
0
100
AcDbLine
 62
4
  6
CONTINUOUS
 10
11.2337703859
 20
10.6871045069
 11
11.2668878282
 21
10.6848078045
  0
LINE
  5
317
100
AcDbEntity
  8
0
100
AcDbLine
 62
4
  6
CONTINUOUS
 10
11.7001745773
 20
10.6547592664
 11
11.7332920473
 21
10.6524625621
  0
LINE
  5
318
100
AcDbEntity
  8
0
100
AcDbLine
 62
4
  6
CONTINUOUS
 10
11.9298314346
 20
10.6480193308
 11
11.8856748264
 21
10.651081602
  0
LINE
  5
319
100
AcDbEntity
  8
0
100
AcDbLine
 62
4
  6
CONTINUOUS
 10
11.7510396247
 20
10.6696054065
 11
11.7013634335
 21
10.673050462
  0
LINE
  5
31A
100
AcDbEntity
  8
0
100
AcDbLine
 62
4
  6
CONTINUOUS
 10
11.2846354057
 20
10.7019506489
 11
11.2349592422
 21
10.7053957025
  0
LINE
  5
31B
100
AcDbEntity
  8
0
100
AcDbLine
 62
4
  6
CONTINUOUS
 10
11.3481105679
 20
10.6975486314
 11
11.3895073985
 21
10.6946777515
  0
LINE
  5
31C
100
AcDbEntity
  8
0
100
AcDbLine
 62
4
  6
CONTINUOUS
 10
11.439183562
 20
10.6912326979
 11
11.4640216714
 21
10.6895101691
  0
LINE
  5
31D
100
AcDbEntity
  8
0
100
AcDbLine
 62
4
  6
CONTINUOUS
 10
11.5274967784
 20
10.6851081555
 11
11.5606142207
 21
10.6828114531
  0
LINE
  5
31E
100
AcDbEntity
  8
0
100
AcDbLine
 62
4
  6
CONTINUOUS
 10
12.0132195031
 20
10.6514231701
 11
12.0546163199
 21
10.6485522911
  0
LINE
  5
31F
100
AcDbEntity
  8
0
100
AcDbLine
 62
4
  6
CONTINUOUS
 10
11.4877705579
 20
10.5238784212
 11
11.5021108319
 21
10.5205872144
  0
LINE
  5
320
100
AcDbEntity
  8
0
100
AcDbLine
 62
4
  6
CONTINUOUS
 10
11.1826152578
 20
10.6891209904
 11
11.144374509
 21
10.6978975433
  0
LINE
  5
321
100
AcDbEntity
  8
0
100
AcDbLine
 62
4
  6
CONTINUOUS
 10
11.9563401264
 20
10.4821961897
 11
12.0009849956
 21
10.4653198257
  0
LINE
  5
322
100
AcDbEntity
  8
0
100
AcDbLine
 62
4
  6
CONTINUOUS
 10
11.5952961335
 20
10.4934544438
 11
11.5892352208
 21
10.4961714757
  0
LINE
  5
323
100
AcDbEntity
  8
0
100
AcDbLine
 62
4
  6
CONTINUOUS
 10
11.4294902901
 20
10.589012532
 11
11.4173684628
 21
10.5944465938
  0
LINE
  5
324
100
AcDbEntity
  8
0
100
AcDbLine
 62
4
  6
CONTINUOUS
 10
11.3170523089
 20
10.6675486551
 11
11.3049304816
 21
10.672982717
  0
LINE
  5
325
100
AcDbEntity
  8
0
100
AcDbLine
 62
4
  6
CONTINUOUS
 10
11.4081253029
 20
10.6612327215
 11
11.3960034756
 21
10.6666667834
  0
LINE
  5
326
100
AcDbEntity
  8
0
100
AcDbLine
 62
4
  6
CONTINUOUS
 10
11.9424350201
 20
10.4601934597
 11
11.9363741039
 21
10.4629104918
  0
LINE
  5
327
100
AcDbEntity
  8
0
100
AcDbLine
 62
4
  6
CONTINUOUS
 10
11.4640216714
 20
10.6895101691
 11
11.4761434982
 21
10.6840761068
  0
LINE
  5
328
100
AcDbEntity
  8
0
100
AcDbLine
 62
4
  6
CONTINUOUS
 10
11.9276595646
 20
10.4887786042
 11
11.9155377309
 21
10.494212667
  0
LINE
  5
329
100
AcDbEntity
  8
0
100
AcDbLine
 62
4
  6
CONTINUOUS
 10
11.5606142207
 20
10.6828114531
 11
11.5727360475
 21
10.6773773908
  0
LINE
  5
32A
100
AcDbEntity
  8
0
100
AcDbLine
 62
4
  6
CONTINUOUS
 10
12.0209510197
 20
10.4846055252
 11
12.014890102
 21
10.4873225567
  0
LINE
  5
32B
100
AcDbEntity
  8
0
100
AcDbLine
 62
4
  6
CONTINUOUS
 10
11.4963137503
 20
10.799273386
 11
11.4916574958
 21
10.8022757891
  0
LINE
  5
32C
100
AcDbEntity
  8
0
100
AcDbLine
 62
4
  6
CONTINUOUS
 10
11.5092546922
 20
10.8117733768
 11
11.4999421805
 21
10.8177781803
  0
LINE
  5
32D
100
AcDbEntity
  8
0
100
AcDbLine
 62
4
  6
CONTINUOUS
 10
11.5656622972
 20
10.8212589435
 11
11.5703185528
 21
10.8182565415
  0
LINE
  5
32E
100
AcDbEntity
  8
0
100
AcDbLine
 62
7
  6
CONTINUOUS
 10
13.3207253061
 20
11.2515197458
 11
13.3207253061
 21
6.4817775377
  0
LINE
  5
32F
100
AcDbEntity
  8
0
100
AcDbLine
 62
4
  6
CONTINUOUS
 10
11.7835033212
 20
10.7766772328
 11
11.7110588816
 21
10.7817012717
  0
LINE
  5
330
100
AcDbEntity
  8
0
100
AcDbLine
 62
4
  6
CONTINUOUS
 10
11.5227033385
 20
10.794763773
 11
11.5082144506
 21
10.7957685808
  0
LINE
  5
331
100
AcDbEntity
  8
0
100
AcDbLine
 62
4
  6
CONTINUOUS
 10
11.5356442804
 20
10.8072637638
 11
11.5211553925
 21
10.8082685715
  0
LINE
  5
332
100
AcDbEntity
  8
0
100
AcDbLine
 62
4
  6
CONTINUOUS
 10
11.6686324594
 20
10.8007204911
 11
11.6251657956
 21
10.8037349144
  0
LINE
  5
333
100
AcDbEntity
  8
0
100
AcDbLine
 62
4
  6
CONTINUOUS
 10
11.4419866287
 20
10.8217974115
 11
11.398519965
 21
10.8248118349
  0
LINE
  5
334
100
AcDbEntity
  8
0
100
AcDbLine
 62
4
  6
CONTINUOUS
 10
11.5392727097
 20
10.8257685572
 11
11.5537615976
 21
10.8247637494
  0
LINE
  5
335
100
AcDbEntity
  8
0
100
AcDbLine
 62
4
  6
CONTINUOUS
 10
12.1075405565
 20
10.631101751
 11
12.0692998038
 21
10.6398783038
  0
LINE
  5
336
100
AcDbEntity
  8
0
100
AcDbLine
 62
4
  6
CONTINUOUS
 10
11.5082144506
 20
10.7957685808
 11
11.4963137503
 21
10.799273386
  0
LINE
  5
337
100
AcDbEntity
  8
0
100
AcDbLine
 62
4
  6
CONTINUOUS
 10
11.5211553925
 20
10.8082685715
 11
11.5092546922
 21
10.8117733768
  0
LINE
  5
338
100
AcDbEntity
  8
0
100
AcDbLine
 62
4
  6
CONTINUOUS
 10
11.5537615976
 20
10.8247637494
 11
11.5656622972
 21
10.8212589435
  0
LINE
  5
339
100
AcDbEntity
  8
0
100
AcDbLine
 62
4
  6
CONTINUOUS
 10
11.982161244
 20
10.6214231938
 11
11.9700394098
 21
10.6268572561
  0
LINE
  5
33A
100
AcDbEntity
  8
0
100
AcDbLine
 62
7
  6
CONTINUOUS
 10
13.3207253061
 20
6.4817775377
 11
12.3014967571
 21
5.4972783009
  0
LINE
  5
33B
100
AcDbEntity
  8
0
100
AcDbLine
 62
7
  6
CONTINUOUS
 10
9.6985032429
 20
11.5027216991
 11
13.3207253061
 21
11.2515197458
  0
ARC
  5
33C
100
AcDbEntity
  8
0
100
AcDbCircle
 62
7
  6
CONTINUOUS
 10
11.7574418523
 20
8.8086406946
 40
2.0178937303
100
AcDbArc
 50
87.0764393209
 51
92.9220171346
  0
ARC
  5
33D
100
AcDbEntity
  8
0
100
AcDbCircle
 62
7
  6
CONTINUOUS
 10
11.2203495588
 20
8.3520784601
 40
0.1093750405
100
AcDbArc
 50
175.3708007183
 51
180.0026442869
  0
ARC
  5
33E
100
AcDbEntity
  8
0
100
AcDbCircle
 62
7
  6
CONTINUOUS
 10
10.042317734
 20
10.5788105064
 40
0.0159501782
100
AcDbArc
 50
349.7403897871
 51
359.9713926926
  0
ARC
  5
33F
100
AcDbEntity
  8
0
100
AcDbCircle
 62
7
  6
CONTINUOUS
 10
9.6042118167
 20
10.578810105
 40
0.0159438806
100
AcDbArc
 50
180.0271763138
 51
190.1667088083
  0
SPLINE
  5
340
100
AcDbEntity
  8
0
100
AcDbSpline
 62
7
  6
CONTINUOUS
 70
0
 71
3
 72
83
 73
79
 74
0
 42
0.0000001
 43
0.0000001
 44
0.0000000001
 40
0.0
 40
0.0
 40
0.0
 40
0.0
 40
0.003980149
 40
0.0081240919
 40
0.0124359835
 40
0.0169193603
 40
0.0215772246
 40
0.0264119606
 40
0.0314252324
 40
0.0366182158
 40
0.0419916195
 40
0.0475457334
 40
0.0532805161
 40
0.0591955185
 40
0.0715625327
 40
0.0846382143
 40
0.0984095328
 40
0.1128601134
 40
0.1279706583
 40
0.1437192718
 40
0.1600817502
 40
0.1770318183
 40
0.1945413264
 40
0.2125804203
 40
0.2311176863
 40
0.2501203005
 40
0.269554164
 40
0.2893840224
 40
0.3095735802
 40
0.3300856048
 40
0.3508820422
 40
0.3719241252
 40
0.4145864312
 40
0.4577527569
 40
0.5010975799
 40
0.5442936399
 40
0.5870151259
 40
0.6080976714
 40
0.6289416876
 40
0.6495082871
 40
0.6697592834
 40
0.6896572915
 40
0.7091658343
 40
0.7282494515
 40
0.7468738239
 40
0.7650058946
 40
0.78261399
 40
0.7996679565
 40
0.8161393115
 40
0.8320014232
 40
0.8472297058
 40
0.8618018332
 40
0.8756980061
 40
0.8889012771
 40
0.9013979681
 40
0.9131781873
 40
0.9187980573
 40
0.924237173
 40
0.9294957148
 40
0.9345742409
 40
0.9394737433
 40
0.9441957547
 40
0.948742307
 40
0.9531161074
 40
0.9573205402
 40
0.9613597705
 40
0.9652388909
 40
0.9689639409
 40
0.9725421207
 40
0.975981843
 40
0.9792928682
 40
0.9824864417
 40
0.9855753029
 40
0.9885737828
 40
0.9914977139
 40
0.9943643205
 40
0.9971920042
 40
1.0
 40
1.0
 40
1.0
 40
1.0
 10
12.391089438
 20
10.9475603985
 30
0.0
 10
12.389790201
 20
10.9463054319
 30
0.0
 10
12.3870792549
 20
10.9438043631
 30
0.0
 10
12.382775091
 20
10.9401513449
 30
0.0
 10
12.3781548461
 20
10.9365244979
 30
0.0
 10
12.3732210567
 20
10.9329258079
 30
0.0
 10
12.3679761661
 20
10.9293569221
 30
0.0
 10
12.3624227089
 20
10.9258196081
 30
0.0
 10
12.3565634682
 20
10.9223155248
 30
0.0
 10
12.3504013547
 20
10.9188464773
 30
0.0
 10
12.3439394614
 20
10.915414195
 30
0.0
 10
12.3371810384
 20
10.912020364
 30
0.0
 10
12.3301294379
 20
10.908666714
 30
0.0
 10
12.3201931971
 20
10.9041843216
 30
0.0
 10
12.3070543886
 20
10.898706761
 30
0.0
 10
12.2904038918
 20
10.8924140871
 30
0.0
 10
12.2726766598
 20
10.8863206221
 30
0.0
 10
12.2539083708
 20
10.8804387333
 30
0.0
 10
12.2341365995
 20
10.8747803798
 30
0.0
 10
12.2134011191
 20
10.8693570726
 30
0.0
 10
12.1917436846
 20
10.8641798537
 30
0.0
 10
12.169207962
 20
10.8592592695
 30
0.0
 10
12.1458394215
 20
10.8546053456
 30
0.0
 10
12.1216852476
 20
10.850227568
 30
0.0
 10
12.0967942413
 20
10.8461348472
 30
0.0
 10
12.0712167137
 20
10.8423355129
 30
0.0
 10
12.0450043741
 20
10.8388372988
 30
0.0
 10
12.0182102249
 20
10.8356473263
 30
0.0
 10
11.9908884516
 20
10.8327720899
 30
0.0
 10
11.9630943341
 20
10.830217444
 30
0.0
 10
11.9348840556
 20
10.8279885457
 30
0.0
 10
11.8966174566
 20
10.8254456485
 30
0.0
 10
11.8481654973
 20
10.823120027
 30
0.0
 10
11.7895530815
 20
10.8216939204
 30
0.0
 10
11.7306809207
 20
10.8216317982
 30
0.0
 10
11.672025272
 20
10.8229342058
 30
0.0
 10
11.623509739
 20
10.8251571549
 30
0.0
 10
11.585170864
 20
10.827618557
 30
0.0
 10
11.5568910171
 20
10.8297877013
 30
0.0
 10
11.5290170141
 20
10.8322834724
 30
0.0
 10
11.5016051959
 20
10.8351008244
 30
0.0
 10
11.4747110219
 20
10.8382340165
 30
0.0
 10
11.4483888855
 20
10.8416766771
 30
0.0
 10
11.42269202
 20
10.8454218052
 30
0.0
 10
11.3976723783
 20
10.8494617771
 30
0.0
 10
11.3733805261
 20
10.8537883622
 30
0.0
 10
11.3498655412
 20
10.8583927493
 30
0.0
 10
11.3271749141
 20
10.8632655604
 30
0.0
 10
11.3053544446
 20
10.8683968752
 30
0.0
 10
11.2844481335
 20
10.8737762404
 30
0.0
 10
11.2644980868
 20
10.8793926939
 30
0.0
 10
11.2455444153
 20
10.8852348034
 30
0.0
 10
11.2276251814
 20
10.891290688
 30
0.0
 10
11.2107761686
 20
10.8975480773
 30
0.0
 10
11.1950312294
 20
10.9039942921
 30
0.0
 10
11.1826693324
 20
10.9095972759
 30
0.0
 10
11.1733687932
 20
10.91417517
 30
0.0
 10
11.1667986577
 20
10.917593701
 30
0.0
 10
11.1605271473
 20
10.9210495679
 30
0.0
 10
11.1545573865
 20
10.9245410851
 30
0.0
 10
11.148892379
 20
10.928066549
 30
0.0
 10
11.1435349127
 20
10.9316241497
 30
0.0
 10
11.1384876925
 20
10.935212215
 30
0.0
 10
11.133753201
 20
10.9388289486
 30
0.0
 10
11.129333792
 20
10.9424726149
 30
0.0
 10
11.1252317016
 20
10.9461415212
 30
0.0
 10
11.1214489281
 20
10.9498338726
 30
0.0
 10
11.1179874556
 20
10.9535480404
 30
0.0
 10
11.114849029
 20
10.9572822762
 30
0.0
 10
11.1120353286
 20
10.9610349081
 30
0.0
 10
11.1095479842
 20
10.9648042853
 30
0.0
 10
11.1073883972
 20
10.9685886397
 30
0.0
 10
11.1055580887
 20
10.9723862798
 30
0.0
 10
11.1040583117
 20
10.9761953197
 30
0.0
 10
11.1028903012
 20
10.9800137716
 30
0.0
 10
11.1020551851
 20
10.9838396143
 30
0.0
 10
11.1015536822
 20
10.9876701349
 30
0.0
 10
11.1014420776
 20
10.9902292318
 30
0.0
 10
11.1014420725
 20
10.9915036234
 30
0.0
  0
SPLINE
  5
341
100
AcDbEntity
  8
0
100
AcDbSpline
 62
7
  6
CONTINUOUS
 70
0
 71
3
 72
71
 73
67
 74
0
 42
0.0000001
 43
0.0000001
 44
0.0000000001
 40
0.0
 40
0.0
 40
0.0
 40
0.0
 40
0.0081224021
 40
0.0169165279
 40
0.0264081434
 40
0.0366136729
 40
0.0475406687
 40
0.0591900386
 40
0.0715572362
 40
0.0846331289
 40
0.0984046806
 40
0.1128554936
 40
0.1279662701
 40
0.143715139
 40
0.1600778855
 40
0.177028224
 40
0.1945380126
 40
0.212577401
 40
0.231114962
 40
0.2501178742
 40
0.2695520505
 40
0.2893822318
 40
0.309572107
 40
0.3300844497
 40
0.3719228157
 40
0.4145857826
 40
0.4577527732
 40
0.5010982541
 40
0.5442949581
 40
0.5870170731
 40
0.6289434202
 40
0.6697607121
 40
0.6896589881
 40
0.7091677946
 40
0.728251669
 40
0.7468762811
 40
0.7650085828
 40
0.7826169028
 40
0.7996710734
 40
0.816142615
 40
0.8320049142
 40
0.8472333772
 40
0.8618056538
 40
0.8757019563
 40
0.8889053604
 40
0.9014021796
 40
0.9131824955
 40
0.9242408713
 40
0.9345771718
 40
0.9394767076
 40
0.9441987541
 40
0.9487453348
 40
0.9531191585
 40
0.9573236229
 40
0.9613628726
 40
0.9652420105
 40
0.9689670917
 40
0.9725452814
 40
0.9759850272
 40
0.9824862539
 40
0.9855751478
 40
0.9885736479
 40
0.9914976047
 40
0.9943642476
 40
0.9971919638
 40
1.0
 40
1.0
 40
1.0
 40
1.0
 10
10.2482753128
 20
10.5937607714
 30
0.0
 10
10.2464969651
 20
10.5920430194
 30
0.0
 10
10.2426254839
 20
10.5886368969
 30
0.0
 10
10.2361990618
 20
10.5837975676
 30
0.0
 10
10.2289416855
 20
10.579039154
 30
0.0
 10
10.2208679368
 20
10.5743707746
 30
0.0
 10
10.211992954
 20
10.5698010296
 30
0.0
 10
10.2023340825
 20
10.56533884
 30
0.0
 10
10.1919102639
 20
10.5609930238
 30
0.0
 10
10.1807421176
 20
10.55677232
 30
0.0
 10
10.1688518849
 20
10.5526852426
 30
0.0
 10
10.1562633514
 20
10.5487400679
 30
0.0
 10
10.1430017642
 20
10.5449448184
 30
0.0
 10
10.1290937771
 20
10.5413072338
 30
0.0
 10
10.1145674026
 20
10.5378347092
 30
0.0
 10
10.0994519328
 20
10.5345343134
 30
0.0
 10
10.0837778641
 20
10.5314127765
 30
0.0
 10
10.0675768437
 20
10.5284764667
 30
0.0
 10
10.0508816082
 20
10.525731349
 30
0.0
 10
10.033725902
 20
10.523183012
 30
0.0
 10
10.0161444014
 20
10.5208366517
 30
0.0
 10
9.9981726667
 20
10.5186970518
 30
0.0
 10
9.9798470193
 20
10.5167685254
 30
0.0
 10
9.9548262387
 20
10.5144688694
 30
0.0
 10
9.9229396693
 20
10.5121581236
 30
0.0
 10
9.8841180919
 20
10.5102945981
 30
0.0
 10
9.844804652
 20
10.5093381286
 30
0.0
 10
9.8053172107
 20
10.5092964801
 30
0.0
 10
9.7659748323
 20
10.5101700597
 30
0.0
 10
9.7270953785
 20
10.5119516186
 30
0.0
 10
9.6889931732
 20
10.5146265914
 30
0.0
 10
9.6578870518
 20
10.5176063486
 30
0.0
 10
9.6336298613
 20
10.5204322603
 30
0.0
 10
9.6159747478
 20
10.5227414039
 30
0.0
 10
9.59873905
 20
10.5252533919
 30
0.0
 10
9.5819575877
 20
10.5279631557
 30
0.0
 10
9.5656642827
 20
10.5308651558
 30
0.0
 10
9.5498920508
 20
10.5339534822
 30
0.0
 10
9.5346727506
 20
10.5372218555
 30
0.0
 10
9.5200370987
 20
10.5406636193
 30
0.0
 10
9.5060146005
 20
10.5442717498
 30
0.0
 10
9.4926335014
 20
10.5480388981
 30
0.0
 10
9.47992072
 20
10.5519574124
 30
0.0
 10
9.4679017673
 20
10.5560193166
 30
0.0
 10
9.4566006773
 20
10.5602163623
 30
0.0
 10
9.446040001
 20
10.5645400653
 30
0.0
 10
9.4362405929
 20
10.568981779
 30
0.0
 10
9.4272219976
 20
10.5735326005
 30
0.0
 10
9.4202521868
 20
10.5774758612
 30
0.0
 10
9.4150935349
 20
10.5806861458
 30
0.0
 10
9.411500146
 20
10.5830723706
 30
0.0
 10
9.4081148568
 20
10.5854790031
 30
0.0
 10
9.4049393297
 20
10.5879048779
 30
0.0
 10
9.4019751272
 20
10.5903488009
 30
0.0
 10
9.399223775
 20
10.5928096607
 30
0.0
 10
9.3966865941
 20
10.5952862708
 30
0.0
 10
9.3943649346
 20
10.5977774177
 30
0.0
 10
9.392259843
 20
10.6002822965
 30
0.0
 10
9.3897903143
 20
10.6035758673
 30
0.0
 10
9.387693348
 20
10.6069582627
 30
0.0
 10
9.3860284147
 20
10.6104128443
 30
0.0
 10
9.3850224988
 20
10.6129677796
 30
0.0
 10
9.3842391604
 20
10.6155289268
 30
0.0
 10
9.383679024
 20
10.6180950424
 30
0.0
 10
9.3833427649
 20
10.6206643077
 30
0.0
 10
9.3832679284
 20
10.6223807741
 30
0.0
 10
9.3832679342
 20
10.62323555
 30
0.0
  0
SPLINE
  5
342
100
AcDbEntity
  8
0
100
AcDbSpline
 62
7
  6
CONTINUOUS
 70
0
 71
3
 72
31
 73
27
 74
0
 42
0.0000001
 43
0.0000001
 44
0.0000000001
 40
0.0
 40
0.0
 40
0.0
 40
0.0
 40
0.076277662
 40
0.1537880851
 40
0.2318266316
 40
0.3096794495
 40
0.3866359079
 40
0.4619957237
 40
0.5350773586
 40
0.6052266956
 40
0.6390081512
 40
0.671828261
 40
0.7036169917
 40
0.7343079699
 40
0.7638385787
 40
0.7921505611
 40
0.8191906299
 40
0.844910735
 40
0.8692690202
 40
0.8922307876
 40
0.9137693187
 40
0.9338676935
 40
0.9525208479
 40
0.9697380628
 40
0.9855471934
 40
1.0
 40
1.0
 40
1.0
 40
1.0
 10
13.1698339274
 20
10.6981491434
 30
0.0
 10
13.1698339274
 20
10.7048378268
 30
0.0
 10
13.1700138671
 20
10.7183238757
 30
0.0
 10
13.1707989379
 20
10.7386392612
 30
0.0
 10
13.1720946268
 20
10.7590669927
 30
0.0
 10
13.1738883986
 20
10.7794082368
 30
0.0
 10
13.176162696
 20
10.7994650642
 30
0.0
 10
13.1788951783
 20
10.8190424459
 30
0.0
 10
13.182059026
 20
10.8379498957
 30
0.0
 10
13.1850654227
 20
10.8531806741
 30
0.0
 10
13.1876725759
 20
10.8648858091
 30
0.0
 10
13.1896907713
 20
10.8732746128
 30
0.0
 10
13.1917913728
 20
10.8813634973
 30
0.0
 10
13.1939692384
 20
10.8891328161
 30
0.0
 10
13.1962190391
 20
10.8965636885
 30
0.0
 10
13.1985352709
 20
10.9036380822
 30
0.0
 10
13.2009122287
 20
10.9103388668
 30
0.0
 10
13.2033441123
 20
10.9166498385
 30
0.0
 10
13.2058249812
 20
10.9225557866
 30
0.0
 10
13.2083487581
 20
10.9280425574
 30
0.0
 10
13.2109093498
 20
10.9330970609
 30
0.0
 10
13.2135006305
 20
10.9377073727
 30
0.0
 10
13.2161164289
 20
10.9418627325
 30
0.0
 10
13.2187509588
 20
10.9455537438
 30
0.0
 10
13.2213981263
 20
10.9487716993
 30
0.0
 10
13.2232484062
 20
10.9506798855
 30
0.0
 10
13.224176122
 20
10.9515433153
 30
0.0
  0
SPLINE
  5
343
100
AcDbEntity
  8
0
100
AcDbSpline
 62
7
  6
CONTINUOUS
 70
0
 71
3
 72
31
 73
27
 74
0
 42
0.0000001
 43
0.0000001
 44
0.0000000001
 40
0.0
 40
0.0
 40
0.0
 40
0.0
 40
0.076277662
 40
0.1537880851
 40
0.2318266316
 40
0.3096794495
 40
0.3866359079
 40
0.4619957237
 40
0.5350773586
 40
0.6052266956
 40
0.6390081512
 40
0.671828261
 40
0.7036169917
 40
0.7343079699
 40
0.7638385787
 40
0.7921505611
 40
0.8191906299
 40
0.844910735
 40
0.8692690202
 40
0.8922307876
 40
0.9137693187
 40
0.9338676935
 40
0.9525208479
 40
0.9697380628
 40
0.9855471934
 40
1.0
 40
1.0
 40
1.0
 40
1.0
 10
13.1698339274
 20
6.7146707873
 30
0.0
 10
13.1698339274
 20
6.7213594708
 30
0.0
 10
13.1700138671
 20
6.7348455197
 30
0.0
 10
13.1707989379
 20
6.7551609052
 30
0.0
 10
13.1720946268
 20
6.7755886366
 30
0.0
 10
13.1738883986
 20
6.7959298807
 30
0.0
 10
13.176162696
 20
6.8159867082
 30
0.0
 10
13.1788951783
 20
6.8355640898
 30
0.0
 10
13.182059026
 20
6.8544715397
 30
0.0
 10
13.1850654227
 20
6.869702318
 30
0.0
 10
13.1876725759
 20
6.8814074531
 30
0.0
 10
13.1896907713
 20
6.8897962568
 30
0.0
 10
13.1917913728
 20
6.8978851412
 30
0.0
 10
13.1939692384
 20
6.9056544601
 30
0.0
 10
13.1962190391
 20
6.9130853324
 30
0.0
 10
13.1985352709
 20
6.9201597261
 30
0.0
 10
13.2009122287
 20
6.9268605107
 30
0.0
 10
13.2033441123
 20
6.9331714824
 30
0.0
 10
13.2058249812
 20
6.9390774305
 30
0.0
 10
13.2083487581
 20
6.9445642013
 30
0.0
 10
13.2109093498
 20
6.9496187049
 30
0.0
 10
13.2135006305
 20
6.9542290166
 30
0.0
 10
13.2161164289
 20
6.9583843764
 30
0.0
 10
13.2187509588
 20
6.9620753877
 30
0.0
 10
13.2213981263
 20
6.9652933432
 30
0.0
 10
13.2232484062
 20
6.9672015294
 30
0.0
 10
13.224176122
 20
6.9680649593
 30
0.0
  0
SPLINE
  5
344
100
AcDbEntity
  8
0
100
AcDbSpline
 62
7
  6
CONTINUOUS
 70
0
 71
3
 72
18
 73
14
 74
0
 42
0.0000001
 43
0.0000001
 44
0.0000000001
 40
0.0
 40
0.0
 40
0.0
 40
0.0
 40
0.150467608
 40
0.291710008
 40
0.4244359371
 40
0.549562455
 40
0.6682139939
 40
0.7255497488
 40
0.7817912909
 40
0.8371402503
 40
0.8918093826
 40
0.9460201179
 40
1.0
 40
1.0
 40
1.0
 40
1.0
 10
12.8030876431
 20
10.3748090481
 30
0.0
 10
12.8055613474
 20
10.3771984631
 30
0.0
 10
12.8105052436
 20
10.3816816206
 30
0.0
 10
12.818160827
 20
10.3876561934
 30
0.0
 10
12.8258074184
 20
10.3926530248
 30
0.0
 10
12.8334371011
 20
10.3966639131
 30
0.0
 10
12.8398497654
 20
10.399207269
 30
0.0
 10
12.8449411376
 20
10.4007183788
 30
0.0
 10
12.848705434
 20
10.4015893611
 30
0.0
 10
12.8524572419
 20
10.4022101325
 30
0.0
 10
12.8561955103
 20
10.4025804734
 30
0.0
 10
12.8599187522
 20
10.4027001909
 30
0.0
 10
12.8623923669
 20
10.4026127019
 30
0.0
 10
12.8636232374
 20
10.4025273461
 30
0.0
  0
SPLINE
  5
345
100
AcDbEntity
  8
0
100
AcDbSpline
 62
7
  6
CONTINUOUS
 70
0
 71
3
 72
19
 73
15
 74
0
 42
0.0000001
 43
0.0000001
 44
0.0000000001
 40
0.0
 40
0.0
 40
0.0
 40
0.0
 40
0.1504607152
 40
0.2916988954
 40
0.4244197706
 40
0.4878838785
 40
0.549580297
 40
0.6682271827
 40
0.7255606102
 40
0.7817998481
 40
0.8371466355
 40
0.8918135538
 40
0.9460221503
 40
1.0
 40
1.0
 40
1.0
 40
1.0
 10
12.8030876431
 20
8.298068486
 30
0.0
 10
12.8050524839
 20
8.2999663765
 30
0.0
 10
12.8089794741
 20
8.3035273623
 30
0.0
 10
12.8150600331
 20
8.3082727913
 30
0.0
 10
12.8201960334
 20
8.3116290119
 30
0.0
 10
12.8242916553
 20
8.3139017482
 30
0.0
 10
12.8282664539
 20
8.3158529263
 30
0.0
 10
12.8322877862
 20
8.3174478458
 30
0.0
 10
12.8363317463
 20
8.3186480198
 30
0.0
 10
12.839321741
 20
8.3193397955
 30
0.0
 10
12.8423017788
 20
8.3198328688
 30
0.0
 10
12.8452710775
 20
8.3201269758
 30
0.0
 10
12.848228435
 20
8.3202219971
 30
0.0
 10
12.8501932182
 20
8.3201524967
 30
0.0
 10
12.8511708948
 20
8.3200846911
 30
0.0
  0
SPLINE
  5
346
100
AcDbEntity
  8
0
100
AcDbSpline
 62
7
  6
CONTINUOUS
 70
0
 71
3
 72
19
 73
15
 74
0
 42
0.0000001
 43
0.0000001
 44
0.0000000001
 40
0.0
 40
0.0
 40
0.0
 40
0.0
 40
0.12732766
 40
0.2538196711
 40
0.3795264658
 40
0.5045235362
 40
0.5668075958
 40
0.6289556124
 40
0.6909843715
 40
0.7529118454
 40
0.8147570127
 40
0.8765397119
 40
0.9382804145
 40
1.0
 40
1.0
 40
1.0
 40
1.0
 10
10.0982198167
 20
8.6541058176
 30
0.0
 10
10.0982198167
 20
8.6473610535
 30
0.0
 10
10.0975758403
 20
8.6339065131
 30
0.0
 10
10.0946633774
 20
8.6139832126
 30
0.0
 10
10.089834539
 20
8.5945614519
 30
0.0
 10
10.0842407228
 20
8.5789218924
 30
0.0
 10
10.0788610028
 20
8.5668489195
 30
0.0
 10
10.0743873919
 20
8.5580379901
 30
0.0
 10
10.0694812536
 20
8.5494823972
 30
0.0
 10
10.0641537545
 20
8.5412015914
 30
0.0
 10
10.0584171858
 20
8.5332147978
 30
0.0
 10
10.0522847679
 20
8.5255403073
 30
0.0
 10
10.0457708372
 20
8.518196104
 30
0.0
 10
10.0411830096
 20
8.5135306107
 30
0.0
 10
10.0388314839
 20
8.5112592121
 30
0.0
  0
SPLINE
  5
347
100
AcDbEntity
  8
0
100
AcDbSpline
 62
7
  6
CONTINUOUS
 70
0
 71
3
 72
19
 73
15
 74
0
 42
0.0000001
 43
0.0000001
 44
0.0000000001
 40
0.0
 40
0.0
 40
0.0
 40
0.0
 40
0.12732766
 40
0.2538196711
 40
0.3795264658
 40
0.5045235362
 40
0.5668075958
 40
0.6289556124
 40
0.6909843715
 40
0.7529118454
 40
0.8147570127
 40
0.8765397119
 40
0.9382804145
 40
1.0
 40
1.0
 40
1.0
 40
1.0
 10
10.5212953187
 20
8.1118587702
 30
0.0
 10
10.5212953187
 20
8.1051140061
 30
0.0
 10
10.5206513422
 20
8.0916594658
 30
0.0
 10
10.5177388794
 20
8.0717361652
 30
0.0
 10
10.512910041
 20
8.0523144046
 30
0.0
 10
10.5073162248
 20
8.036674845
 30
0.0
 10
10.5019365048
 20
8.0246018721
 30
0.0
 10
10.4974628939
 20
8.0157909427
 30
0.0
 10
10.4925567556
 20
8.0072353499
 30
0.0
 10
10.4872292565
 20
7.998954544
 30
0.0
 10
10.4814926878
 20
7.9909677504
 30
0.0
 10
10.4753602698
 20
7.98329326
 30
0.0
 10
10.4688463391
 20
7.9759490566
 30
0.0
 10
10.4642585116
 20
7.9712835633
 30
0.0
 10
10.4619069859
 20
7.9690121648
 30
0.0
  0
SPLINE
  5
348
100
AcDbEntity
  8
0
100
AcDbSpline
 62
7
  6
CONTINUOUS
 70
0
 71
3
 72
19
 73
15
 74
0
 42
0.0000001
 43
0.0000001
 44
0.0000000001
 40
0.0
 40
0.0
 40
0.0
 40
0.0
 40
0.12732766
 40
0.2538196711
 40
0.3795264658
 40
0.5045235362
 40
0.5668075958
 40
0.6289556124
 40
0.6909843715
 40
0.7529118454
 40
0.8147570127
 40
0.8765397119
 40
0.9382804145
 40
1.0
 40
1.0
 40
1.0
 40
1.0
 10
11.094089305
 20
7.6790034751
 30
0.0
 10
11.094089305
 20
7.672258711
 30
0.0
 10
11.0934453285
 20
7.6588041707
 30
0.0
 10
11.0905328657
 20
7.6388808701
 30
0.0
 10
11.0857040273
 20
7.6194591094
 30
0.0
 10
11.0801102111
 20
7.6038195499
 30
0.0
 10
11.0747304911
 20
7.591746577
 30
0.0
 10
11.0702568802
 20
7.5829356476
 30
0.0
 10
11.0653507419
 20
7.5743800548
 30
0.0
 10
11.0600232427
 20
7.5660992489
 30
0.0
 10
11.0542866741
 20
7.5581124553
 30
0.0
 10
11.0481542561
 20
7.5504379649
 30
0.0
 10
11.0416403254
 20
7.5430937615
 30
0.0
 10
11.0370524979
 20
7.5384282682
 30
0.0
 10
11.0347009722
 20
7.5361568697
 30
0.0
  0
SPLINE
  5
349
100
AcDbEntity
  8
0
100
AcDbSpline
 62
7
  6
CONTINUOUS
 70
0
 71
3
 72
19
 73
15
 74
0
 42
0.0000001
 43
0.0000001
 44
0.0000000001
 40
0.0
 40
0.0
 40
0.0
 40
0.0
 40
0.12732766
 40
0.2538196711
 40
0.3795264658
 40
0.5045235362
 40
0.5668075958
 40
0.6289556124
 40
0.6909843715
 40
0.7529118454
 40
0.8147570127
 40
0.8765397119
 40
0.9382804145
 40
1.0
 40
1.0
 40
1.0
 40
1.0
 10
10.5212953187
 20
7.3265610619
 30
0.0
 10
10.5212953187
 20
7.3198162978
 30
0.0
 10
10.5206513422
 20
7.3063617575
 30
0.0
 10
10.5177388794
 20
7.2864384569
 30
0.0
 10
10.512910041
 20
7.2670166963
 30
0.0
 10
10.5073162248
 20
7.2513771367
 30
0.0
 10
10.5019365048
 20
7.2393041638
 30
0.0
 10
10.4974628939
 20
7.2304932344
 30
0.0
 10
10.4925567556
 20
7.2219376416
 30
0.0
 10
10.4872292565
 20
7.2136568357
 30
0.0
 10
10.4814926878
 20
7.2056700421
 30
0.0
 10
10.4753602698
 20
7.1979955517
 30
0.0
 10
10.4688463391
 20
7.1906513483
 30
0.0
 10
10.4642585116
 20
7.185985855
 30
0.0
 10
10.4619069859
 20
7.1837144565
 30
0.0
  0
SPLINE
  5
34A
100
AcDbEntity
  8
0
100
AcDbSpline
 62
7
  6
CONTINUOUS
 70
0
 71
3
 72
15
 73
11
 74
0
 42
0.0000001
 43
0.0000001
 44
0.0000000001
 40
0.0
 40
0.0
 40
0.0
 40
0.0
 40
0.1273482228
 40
0.253860527
 40
0.3795879206
 40
0.5046050801
 40
0.6290174363
 40
0.7529533709
 40
0.8765605784
 40
1.0
 40
1.0
 40
1.0
 40
1.0
 10
11.2341485581
 20
8.2430504053
 30
0.0
 10
11.2341485581
 20
8.2395394533
 30
0.0
 10
11.2338133361
 20
8.2325357412
 30
0.0
 10
11.2322973192
 20
8.2221648729
 30
0.0
 10
11.2297835063
 20
8.2120545836
 30
0.0
 10
11.2262945979
 20
8.2022994276
 30
0.0
 10
11.221862627
 20
8.1929893606
 30
0.0
 10
11.2165279773
 20
8.1842103512
 30
0.0
 10
11.2103408082
 20
8.1760446596
 30
0.0
 10
11.2056821842
 20
8.1710565815
 30
0.0
 10
11.2032344311
 20
8.1686922231
 30
0.0
  0
SPLINE
  5
34B
100
AcDbEntity
  8
0
100
AcDbSpline
 62
7
  6
CONTINUOUS
 70
0
 71
3
 72
15
 73
11
 74
0
 42
0.0000001
 43
0.0000001
 44
0.0000000001
 40
0.0
 40
0.0
 40
0.0
 40
0.0
 40
0.1273481239
 40
0.2538605621
 40
0.3795879444
 40
0.5046050907
 40
0.6290174474
 40
0.7529533717
 40
0.8765605758
 40
1.0
 40
1.0
 40
1.0
 40
1.0
 10
11.2337881983
 20
8.7017215463
 30
0.0
 10
11.2337881983
 20
8.6983953666
 30
0.0
 10
11.2334706156
 20
8.6917602357
 30
0.0
 10
11.2320343781
 20
8.6819351514
 30
0.0
 10
11.2296528446
 20
8.6723569331
 30
0.0
 10
11.2263475263
 20
8.6631151661
 30
0.0
 10
11.2221487718
 20
8.6542950681
 30
0.0
 10
11.2170948358
 20
8.645978089
 30
0.0
 10
11.2112332574
 20
8.638242143
 30
0.0
 10
11.2068197605
 20
8.6335166114
 30
0.0
 10
11.2045008323
 20
8.6312766731
 30
0.0
  0
SPLINE
  5
34C
100
AcDbEntity
  8
0
100
AcDbSpline
 62
7
  6
CONTINUOUS
 70
0
 71
3
 72
23
 73
19
 74
0
 42
0.0000001
 43
0.0000001
 44
0.0000000001
 40
0.0
 40
0.0
 40
0.0
 40
0.0
 40
0.0614488241
 40
0.1232974197
 40
0.1855193347
 40
0.2480712628
 40
0.3108995353
 40
0.3739401489
 40
0.4371217389
 40
0.5003679845
 40
0.5636003178
 40
0.6267406547
 40
0.6897141134
 40
0.7524516881
 40
0.8148925943
 40
0.8769871548
 40
0.9386967187
 40
1.0
 40
1.0
 40
1.0
 40
1.0
 10
11.1294682029
 20
8.813276158
 30
0.0
 10
11.1328922251
 20
8.8130387012
 30
0.0
 10
11.1397436916
 20
8.8122248158
 30
0.0
 10
11.1498828212
 20
8.8100142907
 30
0.0
 10
11.1598254218
 20
8.8068313965
 30
0.0
 10
11.1694747691
 20
8.8027069675
 30
0.0
 10
11.1787385897
 20
8.7976808908
 30
0.0
 10
11.1875279215
 20
8.791801569
 30
0.0
 10
11.1957584742
 20
8.7851255658
 30
0.0
 10
11.2033512727
 20
8.7777170219
 30
0.0
 10
11.2102334419
 20
8.769647066
 30
0.0
 10
11.2163388891
 20
8.7609931426
 30
0.0
 10
11.2216089303
 20
8.7518382866
 30
0.0
 10
11.2259928251
 20
8.7422703011
 30
0.0
 10
11.229448317
 20
8.73238108
 30
0.0
 10
11.2319418952
 20
8.7222652236
 30
0.0
 10
11.2334494118
 20
8.7120211572
 30
0.0
 10
11.2337881983
 20
8.7051456631
 30
0.0
 10
11.2337881983
 20
8.7017215463
 30
0.0
  0
SPLINE
  5
34D
100
AcDbEntity
  8
0
100
AcDbSpline
 62
7
  6
CONTINUOUS
 70
0
 71
3
 72
15
 73
11
 74
0
 42
0.0000001
 43
0.0000001
 44
0.0000000001
 40
0.0
 40
0.0
 40
0.0
 40
0.0
 40
0.1273481239
 40
0.2538605621
 40
0.3795879444
 40
0.5046050907
 40
0.6290174474
 40
0.7529533717
 40
0.8765605758
 40
1.0
 40
1.0
 40
1.0
 40
1.0
 10
9.4835305775
 20
8.8231023246
 30
0.0
 10
9.4835305775
 20
8.8197761448
 30
0.0
 10
9.4832129948
 20
8.813141014
 30
0.0
 10
9.4817767573
 20
8.8033159296
 30
0.0
 10
9.4793952238
 20
8.7937377114
 30
0.0
 10
9.4760899055
 20
8.7844959444
 30
0.0
 10
9.471891151
 20
8.7756758464
 30
0.0
 10
9.466837215
 20
8.7673588672
 30
0.0
 10
9.4609756366
 20
8.7596229212
 30
0.0
 10
9.4565621397
 20
8.7548973897
 30
0.0
 10
9.4542432115
 20
8.7526574514
 30
0.0
  0
SPLINE
  5
34E
100
AcDbEntity
  8
0
100
AcDbSpline
 62
7
  6
CONTINUOUS
 70
0
 71
3
 72
23
 73
19
 74
0
 42
0.0000001
 43
0.0000001
 44
0.0000000001
 40
0.0
 40
0.0
 40
0.0
 40
0.0
 40
0.0614488241
 40
0.1232974197
 40
0.1855193347
 40
0.2480712628
 40
0.3108995353
 40
0.3739401489
 40
0.4371217389
 40
0.5003679845
 40
0.5636003178
 40
0.6267406547
 40
0.6897141134
 40
0.7524516881
 40
0.8148925943
 40
0.8769871548
 40
0.9386967187
 40
1.0
 40
1.0
 40
1.0
 40
1.0
 10
9.3792105821
 20
8.9346569363
 30
0.0
 10
9.3826346043
 20
8.9344194795
 30
0.0
 10
9.3894860708
 20
8.933605594
 30
0.0
 10
9.3996252004
 20
8.931395069
 30
0.0
 10
9.409567801
 20
8.9282121747
 30
0.0
 10
9.4192171483
 20
8.9240877458
 30
0.0
 10
9.4284809689
 20
8.9190616691
 30
0.0
 10
9.4372703007
 20
8.9131823472
 30
0.0
 10
9.4455008534
 20
8.9065063441
 30
0.0
 10
9.4530936519
 20
8.8990978001
 30
0.0
 10
9.4599758211
 20
8.8910278443
 30
0.0
 10
9.4660812683
 20
8.8823739209
 30
0.0
 10
9.4713513095
 20
8.8732190648
 30
0.0
 10
9.4757352043
 20
8.8636510794
 30
0.0
 10
9.4791906962
 20
8.8537618583
 30
0.0
 10
9.4816842744
 20
8.8436460019
 30
0.0
 10
9.483191791
 20
8.8334019355
 30
0.0
 10
9.4835305775
 20
8.8265264414
 30
0.0
 10
9.4835305775
 20
8.8231023246
 30
0.0
  0
SPLINE
  5
34F
100
AcDbEntity
  8
0
100
AcDbSpline
 62
7
  6
CONTINUOUS
 70
0
 71
3
 72
15
 73
11
 74
0
 42
0.0000001
 43
0.0000001
 44
0.0000000001
 40
0.0
 40
0.0
 40
0.0
 40
0.0
 40
0.1273481239
 40
0.2538605621
 40
0.3795879444
 40
0.5046050907
 40
0.6290174474
 40
0.7529533717
 40
0.8765605758
 40
1.0
 40
1.0
 40
1.0
 40
1.0
 10
9.4835305775
 20
6.770509707
 30
0.0
 10
9.4835305775
 20
6.7671835272
 30
0.0
 10
9.4832129948
 20
6.7605483964
 30
0.0
 10
9.4817767573
 20
6.750723312
 30
0.0
 10
9.4793952238
 20
6.7411450937
 30
0.0
 10
9.4760899055
 20
6.7319033268
 30
0.0
 10
9.471891151
 20
6.7230832288
 30
0.0
 10
9.466837215
 20
6.7147662496
 30
0.0
 10
9.4609756366
 20
6.7070303036
 30
0.0
 10
9.4565621397
 20
6.702304772
 30
0.0
 10
9.4542432115
 20
6.7000648338
 30
0.0
  0
SPLINE
  5
350
100
AcDbEntity
  8
0
100
AcDbSpline
 62
7
  6
CONTINUOUS
 70
0
 71
3
 72
23
 73
19
 74
0
 42
0.0000001
 43
0.0000001
 44
0.0000000001
 40
0.0
 40
0.0
 40
0.0
 40
0.0
 40
0.0614488241
 40
0.1232974197
 40
0.1855193347
 40
0.2480712628
 40
0.3108995353
 40
0.3739401489
 40
0.4371217389
 40
0.5003679845
 40
0.5636003178
 40
0.6267406547
 40
0.6897141134
 40
0.7524516881
 40
0.8148925943
 40
0.8769871548
 40
0.9386967187
 40
1.0
 40
1.0
 40
1.0
 40
1.0
 10
9.3792105821
 20
6.8820643186
 30
0.0
 10
9.3826346043
 20
6.8818268619
 30
0.0
 10
9.3894860708
 20
6.8810129764
 30
0.0
 10
9.3996252004
 20
6.8788024514
 30
0.0
 10
9.409567801
 20
6.8756195571
 30
0.0
 10
9.4192171483
 20
6.8714951281
 30
0.0
 10
9.4284809689
 20
6.8664690514
 30
0.0
 10
9.4372703007
 20
6.8605897296
 30
0.0
 10
9.4455008534
 20
6.8539137264
 30
0.0
 10
9.4530936519
 20
6.8465051825
 30
0.0
 10
9.4599758211
 20
6.8384352267
 30
0.0
 10
9.4660812683
 20
6.8297813033
 30
0.0
 10
9.4713513095
 20
6.8206264472
 30
0.0
 10
9.4757352043
 20
6.8110584617
 30
0.0
 10
9.4791906962
 20
6.8011692407
 30
0.0
 10
9.4816842744
 20
6.7910533843
 30
0.0
 10
9.483191791
 20
6.7808093178
 30
0.0
 10
9.4835305775
 20
6.7739338238
 30
0.0
 10
9.4835305775
 20
6.770509707
 30
0.0
  0
SPLINE
  5
351
100
AcDbEntity
  8
0
100
AcDbSpline
 62
7
  6
CONTINUOUS
 70
0
 71
3
 72
15
 73
11
 74
0
 42
0.0000001
 43
0.0000001
 44
0.0000000001
 40
0.0
 40
0.0
 40
0.0
 40
0.0
 40
0.1273481239
 40
0.2538605621
 40
0.3795879444
 40
0.5046050907
 40
0.6290174474
 40
0.7529533717
 40
0.8765605758
 40
1.0
 40
1.0
 40
1.0
 40
1.0
 10
11.2337881983
 20
6.6491289287
 30
0.0
 10
11.2337881983
 20
6.6458027489
 30
0.0
 10
11.2334706156
 20
6.6391676181
 30
0.0
 10
11.2320343781
 20
6.6293425337
 30
0.0
 10
11.2296528446
 20
6.6197643155
 30
0.0
 10
11.2263475263
 20
6.6105225485
 30
0.0
 10
11.2221487718
 20
6.6017024505
 30
0.0
 10
11.2170948358
 20
6.5933854713
 30
0.0
 10
11.2112332574
 20
6.5856495253
 30
0.0
 10
11.2068197605
 20
6.5809239938
 30
0.0
 10
11.2045008323
 20
6.5786840555
 30
0.0
  0
SPLINE
  5
352
100
AcDbEntity
  8
0
100
AcDbSpline
 62
7
  6
CONTINUOUS
 70
0
 71
3
 72
23
 73
19
 74
0
 42
0.0000001
 43
0.0000001
 44
0.0000000001
 40
0.0
 40
0.0
 40
0.0
 40
0.0
 40
0.0614488241
 40
0.1232974197
 40
0.1855193347
 40
0.2480712628
 40
0.3108995353
 40
0.3739401489
 40
0.4371217389
 40
0.5003679845
 40
0.5636003178
 40
0.6267406547
 40
0.6897141134
 40
0.7524516881
 40
0.8148925943
 40
0.8769871548
 40
0.9386967187
 40
1.0
 40
1.0
 40
1.0
 40
1.0
 10
11.1294682029
 20
6.7606835404
 30
0.0
 10
11.1328922251
 20
6.7604460836
 30
0.0
 10
11.1397436916
 20
6.7596321981
 30
0.0
 10
11.1498828212
 20
6.7574216731
 30
0.0
 10
11.1598254218
 20
6.7542387788
 30
0.0
 10
11.1694747691
 20
6.7501143499
 30
0.0
 10
11.1787385897
 20
6.7450882732
 30
0.0
 10
11.1875279215
 20
6.7392089513
 30
0.0
 10
11.1957584742
 20
6.7325329482
 30
0.0
 10
11.2033512727
 20
6.7251244042
 30
0.0
 10
11.2102334419
 20
6.7170544484
 30
0.0
 10
11.2163388891
 20
6.708400525
 30
0.0
 10
11.2216089303
 20
6.6992456689
 30
0.0
 10
11.2259928251
 20
6.6896776835
 30
0.0
 10
11.229448317
 20
6.6797884624
 30
0.0
 10
11.2319418952
 20
6.669672606
 30
0.0
 10
11.2334494118
 20
6.6594285396
 30
0.0
 10
11.2337881983
 20
6.6525530455
 30
0.0
 10
11.2337881983
 20
6.6491289287
 30
0.0
  0
SPLINE
  5
353
100
AcDbEntity
  8
0
100
AcDbSpline
 62
7
  6
CONTINUOUS
 70
0
 71
3
 72
13
 73
9
 74
0
 42
0.0000001
 43
0.0000001
 44
0.0000000001
 40
0.0
 40
0.0
 40
0.0
 40
0.0
 40
0.2554055699
 40
0.507023091
 40
0.6314773801
 40
0.7550635177
 40
0.8778669792
 40
1.0
 40
1.0
 40
1.0
 40
1.0
 10
10.1938919304
 20
7.4483136548
 30
0.0
 10
10.1938919304
 20
7.4560299046
 30
0.0
 10
10.1946833525
 20
7.4713600786
 30
0.0
 10
10.1977078366
 20
7.4902372651
 30
0.0
 10
10.2013334166
 20
7.5048979943
 30
0.0
 10
10.2046347397
 20
7.5156110576
 30
0.0
 10
10.2085210818
 20
7.5260507057
 30
0.0
 10
10.2115047141
 20
7.5328280323
 30
0.0
 10
10.2130907951
 20
7.5361596023
 30
0.0
  0
SPLINE
  5
354
100
AcDbEntity
  8
0
100
AcDbSpline
 62
7
  6
CONTINUOUS
 70
0
 71
3
 72
21
 73
17
 74
0
 42
0.0000001
 43
0.0000001
 44
0.0000000001
 40
0.0
 40
0.0
 40
0.0
 40
0.0
 40
0.0628527252
 40
0.1257251775
 40
0.1886193994
 40
0.2515375004
 40
0.3144739313
 40
0.3774180255
 40
0.4403518985
 40
0.5032504284
 40
0.5660810563
 40
0.6288042015
 40
0.7536931713
 40
0.8158011618
 40
0.8775963401
 40
1.0
 40
1.0
 40
1.0
 40
1.0
 10
10.2812257289
 20
7.2666520999
 30
0.0
 10
10.2777691063
 20
7.2693232998
 30
0.0
 10
10.2710213403
 20
7.2748860279
 30
0.0
 10
10.261436827
 20
7.2838418492
 30
0.0
 10
10.2524131557
 20
7.2933691232
 30
0.0
 10
10.2439741306
 20
7.3034231841
 30
0.0
 10
10.2361398676
 20
7.313959348
 30
0.0
 10
10.2289281202
 20
7.3249319929
 30
0.0
 10
10.2223545101
 20
7.3362951824
 30
0.0
 10
10.2164330139
 20
7.3480022124
 30
0.0
 10
10.2111759305
 20
7.3600067143
 30
0.0
 10
10.2050777766
 20
7.3763171499
 30
0.0
 10
10.2003370235
 20
7.3930561492
 30
0.0
 10
10.1970006144
 20
7.4100304522
 30
0.0
 10
10.1946217154
 20
7.4269896247
 30
0.0
 10
10.1938919304
 20
7.439806196
 30
0.0
 10
10.1938919304
 20
7.4483136548
 30
0.0
  0
SPLINE
  5
355
100
AcDbEntity
  8
0
100
AcDbSpline
 62
7
  6
CONTINUOUS
 70
0
 71
3
 72
64
 73
60
 74
0
 42
0.0000001
 43
0.0000001
 44
0.0000000001
 40
0.0
 40
0.0
 40
0.0
 40
0.0
 40
0.0076531383
 40
0.0158947542
 40
0.0247433862
 40
0.0342111634
 40
0.0443038914
 40
0.0550226117
 40
0.0663644114
 40
0.078323009
 40
0.0908892325
 40
0.1040514103
 40
0.1177956986
 40
0.1321063115
 40
0.1469656884
 40
0.162354698
 40
0.1782527876
 40
0.194638081
 40
0.2114874814
 40
0.2287768005
 40
0.2464808428
 40
0.2645734631
 40
0.2830276605
 40
0.3018156677
 40
0.3402779183
 40
0.3797257922
 40
0.4199161229
 40
0.4605997499
 40
0.5015235902
 40
0.5424326576
 40
0.5830720811
 40
0.6231891256
 40
0.6625352281
 40
0.7008680267
 40
0.7195812699
 40
0.7379542099
 40
0.7559592387
 40
0.7735695621
 40
0.7907592546
 40
0.8075033276
 40
0.8237778347
 40
0.8395599745
 40
0.8548281625
 40
0.8695621407
 40
0.8837431406
 40
0.8973540163
 40
0.9103793937
 40
0.922805892
 40
0.9346224142
 40
0.9458204284
 40
0.9563943593
 40
0.9663421364
 40
0.9756658747
 40
0.9800961431
 40
0.9843735811
 40
0.9885000459
 40
0.99247792
 40
0.9963100762
 40
1.0
 40
1.0
 40
1.0
 40
1.0
 10
12.7876328283
 20
10.1682067782
 30
0.0
 10
12.7852215516
 20
10.1658776636
 30
0.0
 10
12.7804091667
 20
10.1608354531
 30
0.0
 10
12.7734663078
 20
10.1525037156
 30
0.0
 10
12.7665481769
 20
10.1431431259
 30
0.0
 10
12.7596658781
 20
10.1327692204
 30
0.0
 10
12.7528299787
 20
10.1213980914
 30
0.0
 10
12.7460514987
 20
10.1090480607
 30
0.0
 10
12.7393414597
 20
10.0957390664
 30
0.0
 10
12.7327109275
 20
10.0814927529
 30
0.0
 10
12.7261708642
 20
10.0663324362
 30
0.0
 10
12.7197321241
 20
10.0502830268
 30
0.0
 10
12.7134054319
 20
10.0333709563
 30
0.0
 10
12.7072013478
 20
10.0156241366
 30
0.0
 10
12.7011302047
 20
9.9970719212
 30
0.0
 10
12.6952021307
 20
9.9777450266
 30
0.0
 10
12.6894270287
 20
9.9576754698
 30
0.0
 10
12.6838145403
 20
9.9368965273
 30
0.0
 10
12.6783740166
 20
9.9154426793
 30
0.0
 10
12.6731145359
 20
9.8933495326
 30
0.0
 10
12.6680448818
 20
9.8706537585
 30
0.0
 10
12.6631735123
 20
9.847393057
 30
0.0
 10
12.6585085036
 20
9.8236060389
 30
0.0
 10
12.6525275665
 20
9.7909867067
 30
0.0
 10
12.6456371805
 20
9.7491879404
 30
0.0
 10
12.6383681782
 20
9.697963079
 30
0.0
 10
12.6320843772
 20
9.6456278996
 30
0.0
 10
12.6268276898
 20
9.5925300375
 30
0.0
 10
12.6226332159
 20
9.5390219627
 30
0.0
 10
12.6195288405
 20
9.4854589832
 30
0.0
 10
12.6175351189
 20
9.4321967769
 30
0.0
 10
12.6166651079
 20
9.3795889238
 30
0.0
 10
12.6169243393
 20
9.3279848958
 30
0.0
 10
12.618088504
 20
9.2857720513
 30
0.0
 10
12.6195969577
 20
9.2527684299
 30
0.0
 10
12.6209981816
 20
9.2286757061
 30
0.0
 10
12.6226758719
 20
9.205084974
 30
0.0
 10
12.6246272311
 20
9.1820353828
 30
0.0
 10
12.6268489695
 20
9.1595652193
 30
0.0
 10
12.6293373697
 20
9.137711795
 30
0.0
 10
12.632088258
 20
9.1165113854
 30
0.0
 10
12.6350970022
 20
9.0959991603
 30
0.0
 10
12.638358551
 20
9.0762091362
 30
0.0
 10
12.641867446
 20
9.0571741155
 30
0.0
 10
12.6456177904
 20
9.0389256117
 30
0.0
 10
12.6496032829
 20
9.021493795
 30
0.0
 10
12.6538172486
 20
9.0049074485
 30
0.0
 10
12.6582526528
 20
8.9891939043
 30
0.0
 10
12.6629020781
 20
8.9743789524
 30
0.0
 10
12.6677577907
 20
8.9604868449
 30
0.0
 10
12.6728118188
 20
8.9475400859
 30
0.0
 10
12.678055875
 20
8.935559904
 30
0.0
 10
12.6826524142
 20
8.9262450046
 30
0.0
 10
12.6864284701
 20
8.9193063741
 30
0.0
 10
12.6892542886
 20
8.9144451923
 30
0.0
 10
12.6921210743
 20
8.9098398455
 30
0.0
 10
12.695027682
 20
8.905492144
 30
0.0
 10
12.6979729183
 20
8.9014039739
 30
0.0
 10
12.6999991381
 20
8.8988042649
 30
0.0
 10
12.7010190203
 20
8.8975502673
 30
0.0
  0
SPLINE
  5
356
100
AcDbEntity
  8
0
100
AcDbSpline
 62
7
  6
CONTINUOUS
 70
0
 71
3
 72
59
 73
55
 74
0
 42
0.0000001
 43
0.0000001
 44
0.0000000001
 40
0.0
 40
0.0
 40
0.0
 40
0.0
 40
0.0076531107
 40
0.0158948315
 40
0.0247434848
 40
0.0342112886
 40
0.044304058
 40
0.0550228032
 40
0.0663646549
 40
0.0783232942
 40
0.0908895428
 40
0.1040517738
 40
0.1177961166
 40
0.1321067605
 40
0.1469661877
 40
0.1623552574
 40
0.1782533914
 40
0.1946387353
 40
0.2114881963
 40
0.2287775701
 40
0.2464816698
 40
0.2645743516
 40
0.3018159739
 40
0.3402783527
 40
0.3797263704
 40
0.4199168419
 40
0.4606006211
 40
0.5015246197
 40
0.5424338509
 40
0.5830734418
 40
0.6231906618
 40
0.662536945
 40
0.7008699266
 40
0.7379555773
 40
0.7559607032
 40
0.7735711323
 40
0.7907609123
 40
0.8075050781
 40
0.8237796972
 40
0.8395619305
 40
0.8548302063
 40
0.8695642951
 40
0.8837453954
 40
0.89735636
 40
0.91038184
 40
0.9228084401
 40
0.9346250547
 40
0.9458231683
 40
0.9563971923
 40
0.9663450614
 40
0.9756688993
 40
0.9843758234
 40
0.9924791689
 40
1.0
 40
1.0
 40
1.0
 40
1.0
 10
12.7876328283
 20
8.1349328809
 30
0.0
 10
12.7857147845
 20
8.1330801928
 30
0.0
 10
12.7818867627
 20
8.1290693367
 30
0.0
 10
12.7763640256
 20
8.1224418416
 30
0.0
 10
12.7708609596
 20
8.1149959183
 30
0.0
 10
12.7653864339
 20
8.1067439548
 30
0.0
 10
12.7599487848
 20
8.0976987688
 30
0.0
 10
12.7545568088
 20
8.0878749039
 30
0.0
 10
12.7492193009
 20
8.0772882174
 30
0.0
 10
12.7439450205
 20
8.0659559484
 30
0.0
 10
12.7387426894
 20
8.0538966404
 30
0.0
 10
12.73362098
 20
8.0411300883
 30
0.0
 10
12.7285883983
 20
8.0276773307
 30
0.0
 10
12.7236533223
 20
8.0135605808
 30
0.0
 10
12.7188240122
 20
7.9988031699
 30
0.0
 10
12.7141085123
 20
7.9834295339
 30
0.0
 10
12.7095146778
 20
7.9674651515
 30
0.0
 10
12.7050502004
 20
7.9509364864
 30
0.0
 10
12.7007225186
 20
7.9338709605
 30
0.0
 10
12.6965388458
 20
7.9162969083
 30
0.0
 10
12.6925061453
 20
7.8982434783
 30
0.0
 10
12.6872893987
 20
7.8733331609
 30
0.0
 10
12.6812089112
 20
7.8412167735
 30
0.0
 10
12.674681823
 20
7.8016232716
 30
0.0
 10
12.6688997037
 20
7.7608761476
 30
0.0
 10
12.6639011926
 20
7.7192460103
 30
0.0
 10
12.6597197365
 20
7.6770091351
 30
0.0
 10
12.656383209
 20
7.6344459621
 30
0.0
 10
12.6539137939
 20
7.5918391097
 30
0.0
 10
12.652327864
 20
7.5494714868
 30
0.0
 10
12.6516357974
 20
7.5076244156
 30
0.0
 10
12.6518419222
 20
7.4665756407
 30
0.0
 10
12.6529446343
 20
7.4265977994
 30
0.0
 10
12.6546200119
 20
7.3940839127
 30
0.0
 10
12.6564169593
 20
7.3688145056
 30
0.0
 10
12.6579691699
 20
7.3504795829
 30
0.0
 10
12.6597364494
 20
7.3326055897
 30
0.0
 10
12.6617158471
 20
7.3152221739
 30
0.0
 10
12.6639040211
 20
7.2983581954
 30
0.0
 10
12.6662973274
 20
7.2820416371
 30
0.0
 10
12.668891733
 20
7.2662995552
 30
0.0
 10
12.6716828683
 20
7.2511580342
 30
0.0
 10
12.6746660778
 20
7.2366421497
 30
0.0
 10
12.677836346
 20
7.2227759038
 30
0.0
 10
12.6811883395
 20
7.2095821835
 30
0.0
 10
12.6847164796
 20
7.1970827308
 30
0.0
 10
12.6884148724
 20
7.1852980727
 30
0.0
 10
12.6922773498
 20
7.1742474714
 30
0.0
 10
12.6962975711
 20
7.1639489132
 30
0.0
 10
12.7004690028
 20
7.1544190018
 30
0.0
 10
12.7047849054
 20
7.1456730006
 30
0.0
 10
12.7092387807
 20
7.1377245247
 30
0.0
 10
12.7138235683
 20
7.1305866047
 30
0.0
 10
12.7170815108
 20
7.1262170342
 30
0.0
 10
12.7187350306
 20
7.1241839305
 30
0.0
  0
SPLINE
  5
357
100
AcDbEntity
  8
0
100
AcDbSpline
 62
7
  6
CONTINUOUS
 70
0
 71
3
 72
18
 73
14
 74
0
 42
0.0000001
 43
0.0000001
 44
0.0000000001
 40
0.0
 40
0.0
 40
0.0
 40
0.0
 40
0.0548627003
 40
0.1099292984
 40
0.1654013502
 40
0.22147558
 40
0.3361333207
 40
0.4553633897
 40
0.5171049197
 40
0.5804365965
 40
0.7123310206
 40
0.851957275
 40
1.0
 40
1.0
 40
1.0
 40
1.0
 10
12.4134420443
 20
10.9915043637
 30
0.0
 10
12.413442048
 20
10.9905779013
 30
0.0
 10
12.4133832587
 20
10.9887209981
 30
0.0
 10
12.4131189136
 20
10.985938677
 30
0.0
 10
12.412678355
 20
10.9831579028
 30
0.0
 10
12.4118504912
 20
10.9794267274
 30
0.0
 10
12.4103590801
 20
10.9747502692
 30
0.0
 10
12.4083164077
 20
10.9701842185
 30
0.0
 10
12.4063508837
 20
10.9665554485
 30
0.0
 10
12.4041002759
 20
10.9628435159
 30
0.0
 10
12.400832336
 20
10.9582189727
 30
0.0
 10
12.3962762286
 20
10.9527844007
 30
0.0
 10
12.3928875649
 20
10.9492972559
 30
0.0
 10
12.391089438
 20
10.9475603985
 30
0.0
  0
SPLINE
  5
358
100
AcDbEntity
  8
0
100
AcDbSpline
 62
7
  6
CONTINUOUS
 70
0
 71
3
 72
17
 73
13
 74
0
 42
0.0000001
 43
0.0000001
 44
0.0000000001
 40
0.0
 40
0.0
 40
0.0
 40
0.0
 40
0.0548653995
 40
0.1099348206
 40
0.2214348222
 40
0.3360991408
 40
0.4553350478
 40
0.5170794787
 40
0.5804143716
 40
0.712316841
 40
0.8519520933
 40
1.0
 40
1.0
 40
1.0
 40
1.0
 10
10.2632679139
 20
10.6232347179
 30
0.0
 10
10.2632679097
 20
10.6226133242
 30
0.0
 10
10.2632284446
 20
10.6213678286
 30
0.0
 10
10.2629911151
 20
10.6188698426
 30
0.0
 10
10.2623914456
 20
10.6157325961
 30
0.0
 10
10.2611998905
 20
10.6119977464
 30
0.0
 10
10.2598298301
 20
10.6089349059
 30
0.0
 10
10.2585114932
 20
10.6065010873
 30
0.0
 10
10.2570019439
 20
10.6040114194
 30
0.0
 10
10.2548100497
 20
10.6009096374
 30
0.0
 10
10.2517541521
 20
10.5972645888
 30
0.0
 10
10.2494813293
 20
10.5949256939
 30
0.0
 10
10.2482753128
 20
10.5937607714
 30
0.0
  0
SPLINE
  5
359
100
AcDbEntity
  8
0
100
AcDbSpline
 62
7
  6
CONTINUOUS
 70
0
 71
3
 72
55
 73
51
 74
0
 42
0.0000001
 43
0.0000001
 44
0.0000000001
 40
0.0
 40
0.0
 40
0.0
 40
0.0
 40
0.0077402703
 40
0.0160536534
 40
0.0249597463
 40
0.0344710726
 40
0.0445942056
 40
0.0553309191
 40
0.0666790395
 40
0.0786328866
 40
0.0911840512
 40
0.1043214331
 40
0.1180318776
 40
0.1323001658
 40
0.1471093581
 40
0.1624409564
 40
0.17827493
 40
0.1945900583
 40
0.2285715409
 40
0.2641937516
 40
0.3012489314
 40
0.3395168345
 40
0.3787669873
 40
0.4187608358
 40
0.4592538135
 40
0.4999973641
 40
0.5407409399
 40
0.5812339918
 40
0.6212279584
 40
0.6604782706
 40
0.6987463782
 40
0.7358018134
 40
0.7714243279
 40
0.8054061563
 40
0.8217214397
 40
0.8375556362
 40
0.8528873981
 40
0.8676968248
 40
0.8819653055
 40
0.8956759697
 40
0.9088135868
 40
0.9213649523
 40
0.9333190699
 40
0.9446673755
 40
0.9554043712
 40
0.9655277451
 40
0.9750392443
 40
0.983945499
 40
0.9922594743
 40
1.0
 40
1.0
 40
1.0
 40
1.0
 10
9.5679580939
 20
10.589402576
 30
0.0
 10
9.5689548156
 20
10.5884750199
 30
0.0
 10
9.571100452
 20
10.5866344443
 30
0.0
 10
9.5746203798
 20
10.5840057265
 30
0.0
 10
9.5785482865
 20
10.5814165763
 30
0.0
 10
9.582877796
 20
10.5788711807
 30
0.0
 10
9.5876021591
 20
10.5763733684
 30
0.0
 10
9.5927138371
 20
10.5739271188
 30
0.0
 10
9.5982046493
 20
10.5715364155
 30
0.0
 10
9.6040657099
 20
10.5692050904
 30
0.0
 10
9.6102875242
 20
10.566937048
 30
0.0
 10
9.6168599403
 20
10.5647359522
 30
0.0
 10
9.623772229
 20
10.5626054961
 30
0.0
 10
9.6310130677
 20
10.5605491757
 30
0.0
 10
9.6385705834
 20
10.5585703956
 30
0.0
 10
9.6464323663
 20
10.5566724691
 30
0.0
 10
9.6545855067
 20
10.5548584653
 30
0.0
 10
9.6659820269
 20
10.552524152
 30
0.0
 10
9.6808596221
 20
10.5498496646
 30
0.0
 10
9.6994151535
 20
10.5470602353
 30
0.0
 10
9.7187858427
 20
10.5446676008
 30
0.0
 10
9.738844212
 20
10.542687754
 30
0.0
 10
9.7594583771
 20
10.5411339642
 30
0.0
 10
9.7804926645
 20
10.5400166216
 30
0.0
 10
9.8018086089
 20
10.5393431972
 30
0.0
 10
9.8232658597
 20
10.5391181913
 30
0.0
 10
9.8447231245
 20
10.5393431078
 30
0.0
 10
9.86603911
 20
10.5400164447
 30
0.0
 10
9.8870734637
 20
10.5411337044
 30
0.0
 10
9.9076877198
 20
10.5426874152
 30
0.0
 10
9.9277462061
 20
10.5446671846
 30
0.0
 10
9.9471170406
 20
10.5470597391
 30
0.0
 10
9.9656727435
 20
10.5498490959
 30
0.0
 10
9.9805504968
 20
10.552523506
 30
0.0
 10
9.9919471514
 20
10.5548577966
 30
0.0
 10
10.0001004027
 20
10.556671741
 30
0.0
 10
10.0079622989
 20
10.5585696637
 30
0.0
 10
10.0155199362
 20
10.5605483889
 30
0.0
 10
10.0227608971
 20
10.5626046958
 30
0.0
 10
10.0296733141
 20
10.5647351212
 30
0.0
 10
10.0362458648
 20
10.5669361793
 30
0.0
 10
10.042467811
 20
10.5692042217
 30
0.0
 10
10.048329019
 20
10.5715354894
 30
0.0
 10
10.053819967
 20
10.5739262054
 30
0.0
 10
10.0589318081
 20
10.5763724026
 30
0.0
 10
10.0636563041
 20
10.5788702261
 30
0.0
 10
10.0679859562
 20
10.5814155761
 30
0.0
 10
10.0719140713
 20
10.5840047092
 30
0.0
 10
10.0754341602
 20
10.5866335075
 30
0.0
 10
10.0775799786
 20
10.5884740972
 30
0.0
 10
10.078576767
 20
10.5894016476
 30
0.0
  0
SPLINE
  5
35A
100
AcDbEntity
  8
0
100
AcDbSpline
 62
7
  6
CONTINUOUS
 70
0
 71
3
 72
11
 73
7
 74
0
 42
0.0000001
 43
0.0000001
 44
0.0000000001
 40
0.0
 40
0.0
 40
0.0
 40
0.0
 40
0.2560846906
 40
0.50699399
 40
0.7543863998
 40
1.0
 40
1.0
 40
1.0
 40
1.0
 10
12.7005475846
 20
7.1545765316
 30
0.0
 10
12.7013916074
 20
7.1542106533
 30
0.0
 10
12.7030917607
 20
7.1535512026
 30
0.0
 10
12.7056937698
 20
7.1527829272
 30
0.0
 10
12.7083153337
 20
7.1522481627
 30
0.0
 10
12.7100776279
 20
7.1520473998
 30
0.0
 10
12.7109578129
 20
7.1519863552
 30
0.0
  0
SPLINE
  5
35B
100
AcDbEntity
  8
0
100
AcDbSpline
 62
7
  6
CONTINUOUS
 70
0
 71
3
 72
15
 73
11
 74
0
 42
0.0000001
 43
0.0000001
 44
0.0000000001
 40
0.0
 40
0.0
 40
0.0
 40
0.0
 40
0.1233171282
 40
0.2468171947
 40
0.3706750037
 40
0.4950496087
 40
0.6200772873
 40
0.745867181
 40
0.8724927949
 40
1.0
 40
1.0
 40
1.0
 40
1.0
 10
11.0544355734
 20
8.786635652
 30
0.0
 10
11.0568591022
 20
8.7889766279
 30
0.0
 10
11.0619662981
 20
8.7934045332
 30
0.0
 10
11.0703016991
 20
8.7991906422
 30
0.0
 10
11.0792333836
 20
8.8040682305
 30
0.0
 10
11.0886698954
 20
8.8079872059
 30
0.0
 10
11.0985160577
 20
8.8109086626
 30
0.0
 10
11.1086726898
 20
8.8128033623
 30
0.0
 10
11.1190361124
 20
8.8136528857
 30
0.0
 10
11.1259925419
 20
8.8135171959
 30
0.0
 10
11.1294682029
 20
8.813276158
 30
0.0
  0
SPLINE
  5
35C
100
AcDbEntity
  8
0
100
AcDbSpline
 62
7
  6
CONTINUOUS
 70
0
 71
3
 72
84
 73
80
 74
0
 42
0.0000001
 43
0.0000001
 44
0.0000000001
 40
0.0
 40
0.0
 40
0.0
 40
0.0
 40
0.0027164264
 40
0.0054532293
 40
0.008230295
 40
0.0110665896
 40
0.0139797932
 40
0.0169861044
 40
0.0201000661
 40
0.0233345812
 40
0.0267009392
 40
0.0302088856
 40
0.0338668056
 40
0.037681768
 40
0.0416597414
 40
0.0458056718
 40
0.050123593
 40
0.0546167913
 40
0.0592877975
 40
0.0641385717
 40
0.0691704988
 40
0.074384467
 40
0.0797809628
 40
0.0853600226
 40
0.0911213815
 40
0.0970644148
 40
0.1094911534
 40
0.122630387
 40
0.136468035
 40
0.1509868331
 40
0.1661667198
 40
0.1819851503
 40
0.1984173662
 40
0.2154366132
 40
0.2330143274
 40
0.2511202956
 40
0.2697227959
 40
0.2887887406
 40
0.3082838034
 40
0.3281725359
 40
0.3484184777
 40
0.3689842604
 40
0.3898317162
 40
0.4109219843
 40
0.4536719359
 40
0.4969138893
 40
0.5403221212
 40
0.5835693222
 40
0.6263297187
 40
0.6474271304
 40
0.6682829869
 40
0.6888584043
 40
0.7091151927
 40
0.7290159604
 40
0.748524216
 40
0.7676044742
 40
0.7862223676
 40
0.8043447661
 40
0.8219399096
 40
0.838977535
 40
0.8554290199
 40
0.8712675451
 40
0.8864682815
 40
0.9010086172
 40
0.9148684112
 40
0.9280303001
 40
0.9404800906
 40
0.946434749
 40
0.9522077946
 40
0.957798564
 40
0.9632067735
 40
0.9684324641
 40
0.9734760551
 40
0.9783384155
 40
0.983020862
 40
0.9875253935
 40
0.9918546029
 40
0.9960115831
 40
1.0
 40
1.0
 40
1.0
 40
1.0
 10
12.7550043915
 20
6.9334153028
 30
0.0
 10
12.7537072603
 20
6.9335052637
 30
0.0
 10
12.7511099136
 20
6.9338032972
 30
0.0
 10
12.7472469594
 20
6.9346007345
 30
0.0
 10
12.7434131959
 20
6.9357484684
 30
0.0
 10
12.7396113744
 20
6.9372454237
 30
0.0
 10
12.7358434189
 20
6.9390901824
 30
0.0
 10
12.7321113146
 20
6.9412814053
 30
0.0
 10
12.7284167338
 20
6.943817447
 30
0.0
 10
12.7247613382
 20
6.9466967383
 30
0.0
 10
12.7211467286
 20
6.9499176119
 30
0.0
 10
12.7175744027
 20
6.9534782535
 30
0.0
 10
12.714046004
 20
6.9573768791
 30
0.0
 10
12.7105630183
 20
6.9616114452
 30
0.0
 10
12.7071270713
 20
6.9661798798
 30
0.0
 10
12.7037397483
 20
6.9710799194
 30
0.0
 10
12.7004025944
 20
6.9763091296
 30
0.0
 10
12.697117277
 20
6.9818649754
 30
0.0
 10
12.6938852993
 20
6.9877446806
 30
0.0
 10
12.6907082946
 20
6.9939453695
 30
0.0
 10
12.6875878038
 20
7.0004639648
 30
0.0
 10
12.6845253434
 20
7.0072972286
 30
0.0
 10
12.6815224918
 20
7.0144417845
 30
0.0
 10
12.6785806806
 20
7.0218940535
 30
0.0
 10
12.6757014097
 20
7.029650349
 30
0.0
 10
12.6718909347
 20
7.0405549849
 30
0.0
 10
12.6673086556
 20
7.0549276109
 30
0.0
 10
12.6621600657
 20
7.0730751524
 30
0.0
 10
12.6572933887
 20
7.0923346819
 30
0.0
 10
12.6527184859
 20
7.1126676538
 30
0.0
 10
12.6484446579
 20
7.1340335597
 30
0.0
 10
12.6444805909
 20
7.1563896515
 30
0.0
 10
12.6408343515
 20
7.1796911606
 30
0.0
 10
12.6375133618
 20
7.2038913723
 30
0.0
 10
12.6345243843
 20
7.2289417362
 30
0.0
 10
12.6318735082
 20
7.2547919633
 30
0.0
 10
12.6295661253
 20
7.2813901313
 30
0.0
 10
12.6276069316
 20
7.3086827964
 30
0.0
 10
12.6259999177
 20
7.336615109
 30
0.0
 10
12.6247483622
 20
7.3651309247
 30
0.0
 10
12.6238548231
 20
7.3941729204
 30
0.0
 10
12.6233211378
 20
7.4236826896
 30
0.0
 10
12.6231483713
 20
7.4536009394
 30
0.0
 10
12.6234010312
 20
7.4941376267
 30
0.0
 10
12.6246269078
 20
7.545384023
 30
0.0
 10
12.627515975
 20
7.6072604716
 30
0.0
 10
12.6318068567
 20
7.6692943107
 30
0.0
 10
12.6374650699
 20
7.7309867467
 30
0.0
 10
12.6433072359
 20
7.7819248007
 30
0.0
 10
12.64863887
 20
7.822122676
 30
0.0
 10
12.652929984
 20
7.8517442749
 30
0.0
 10
12.6575224685
 20
7.880913378
 30
0.0
 10
12.6624071002
 20
7.9095713776
 30
0.0
 10
12.66757401
 20
7.9376606482
 30
0.0
 10
12.6730127734
 20
7.96512473
 30
0.0
 10
12.678712412
 20
7.9919084225
 30
0.0
 10
12.6846614209
 20
8.0179579023
 30
0.0
 10
12.6908477896
 20
8.0432208372
 30
0.0
 10
12.6972590166
 20
8.0676464989
 30
0.0
 10
12.7038821465
 20
8.0911858658
 30
0.0
 10
12.7107037949
 20
8.1137917222
 30
0.0
 10
12.7177101756
 20
8.1354187569
 30
0.0
 10
12.724887136
 20
8.1560236753
 30
0.0
 10
12.7322201748
 20
8.1755652754
 30
0.0
 10
12.739694495
 20
8.1940046535
 30
0.0
 10
12.7472950246
 20
8.2113049149
 30
0.0
 10
12.7538143698
 20
8.2249392822
 30
0.0
 10
12.7590914418
 20
8.235239594
 30
0.0
 10
12.7630124437
 20
8.2425439538
 30
0.0
 10
12.766953551
 20
8.2495387917
 30
0.0
 10
12.7709127852
 20
8.2562206498
 30
0.0
 10
12.7748881839
 20
8.2625861969
 30
0.0
 10
12.7788777922
 20
8.2686322479
 30
0.0
 10
12.7828795586
 20
8.2743558236
 30
0.0
 10
12.786891597
 20
8.2797540697
 30
0.0
 10
12.7909119345
 20
8.2848243895
 30
0.0
 10
12.794938715
 20
8.2895642953
 30
0.0
 10
12.7989697624
 20
8.2939712136
 30
0.0
 10
12.8017145149
 20
8.2967421459
 30
0.0
 10
12.8030876431
 20
8.298068486
 30
0.0
  0
SPLINE
  5
35D
100
AcDbEntity
  8
0
100
AcDbSpline
 62
7
  6
CONTINUOUS
 70
0
 71
3
 72
15
 73
11
 74
0
 42
0.0000001
 43
0.0000001
 44
0.0000000001
 40
0.0
 40
0.0
 40
0.0
 40
0.0
 40
0.1233171282
 40
0.2468171947
 40
0.3706750037
 40
0.4950496087
 40
0.6200772873
 40
0.745867181
 40
0.8724927949
 40
1.0
 40
1.0
 40
1.0
 40
1.0
 10
9.3041779526
 20
8.9080164303
 30
0.0
 10
9.3066014814
 20
8.9103574062
 30
0.0
 10
9.3117086773
 20
8.9147853115
 30
0.0
 10
9.3200440783
 20
8.9205714205
 30
0.0
 10
9.3289757628
 20
8.9254490088
 30
0.0
 10
9.3384122746
 20
8.9293679841
 30
0.0
 10
9.3482584369
 20
8.9322894409
 30
0.0
 10
9.358415069
 20
8.9341841405
 30
0.0
 10
9.3687784916
 20
8.935033664
 30
0.0
 10
9.3757349211
 20
8.9348979742
 30
0.0
 10
9.3792105821
 20
8.9346569363
 30
0.0
  0
SPLINE
  5
35E
100
AcDbEntity
  8
0
100
AcDbSpline
 62
7
  6
CONTINUOUS
 70
0
 71
3
 72
15
 73
11
 74
0
 42
0.0000001
 43
0.0000001
 44
0.0000000001
 40
0.0
 40
0.0
 40
0.0
 40
0.0
 40
0.1233171282
 40
0.2468171947
 40
0.3706750037
 40
0.4950496087
 40
0.6200772873
 40
0.745867181
 40
0.8724927949
 40
1.0
 40
1.0
 40
1.0
 40
1.0
 10
9.3041779526
 20
6.8554238127
 30
0.0
 10
9.3066014814
 20
6.8577647886
 30
0.0
 10
9.3117086773
 20
6.8621926939
 30
0.0
 10
9.3200440783
 20
6.8679788029
 30
0.0
 10
9.3289757628
 20
6.8728563912
 30
0.0
 10
9.3384122746
 20
6.8767753665
 30
0.0
 10
9.3482584369
 20
6.8796968232
 30
0.0
 10
9.358415069
 20
6.8815915229
 30
0.0
 10
9.3687784916
 20
6.8824410463
 30
0.0
 10
9.3757349211
 20
6.8823053565
 30
0.0
 10
9.3792105821
 20
6.8820643186
 30
0.0
  0
SPLINE
  5
35F
100
AcDbEntity
  8
0
100
AcDbSpline
 62
7
  6
CONTINUOUS
 70
0
 71
3
 72
11
 73
7
 74
0
 42
0.0000001
 43
0.0000001
 44
0.0000000001
 40
0.0
 40
0.0
 40
0.0
 40
0.0
 40
0.2560031576
 40
0.5068993049
 40
0.7543268357
 40
1.0
 40
1.0
 40
1.0
 40
1.0
 10
12.7667826523
 20
8.1085787501
 30
0.0
 10
12.7676628598
 20
8.1088207785
 30
0.0
 10
12.7694252327
 20
8.1092325086
 30
0.0
 10
12.7720890553
 20
8.1096272258
 30
0.0
 10
12.7747401536
 20
8.1097913561
 30
0.0
 10
12.7765005727
 20
8.1097466873
 30
0.0
 10
12.7773745141
 20
8.1096860757
 30
0.0
  0
SPLINE
  5
360
100
AcDbEntity
  8
0
100
AcDbSpline
 62
7
  6
CONTINUOUS
 70
0
 71
3
 72
15
 73
11
 74
0
 42
0.0000001
 43
0.0000001
 44
0.0000000001
 40
0.0
 40
0.0
 40
0.0
 40
0.0
 40
0.1233171282
 40
0.2468171947
 40
0.3706750037
 40
0.4950496087
 40
0.6200772873
 40
0.745867181
 40
0.8724927949
 40
1.0
 40
1.0
 40
1.0
 40
1.0
 10
11.0544355734
 20
6.7340430344
 30
0.0
 10
11.0568591022
 20
6.7363840103
 30
0.0
 10
11.0619662981
 20
6.7408119156
 30
0.0
 10
11.0703016991
 20
6.7465980246
 30
0.0
 10
11.0792333836
 20
6.7514756129
 30
0.0
 10
11.0886698954
 20
6.7553945882
 30
0.0
 10
11.0985160577
 20
6.758316045
 30
0.0
 10
11.1086726898
 20
6.7602107446
 30
0.0
 10
11.1190361124
 20
6.7610602681
 30
0.0
 10
11.1259925419
 20
6.7609245783
 30
0.0
 10
11.1294682029
 20
6.7606835404
 30
0.0
  0
SPLINE
  5
361
100
AcDbEntity
  8
0
100
AcDbSpline
 62
7
  6
CONTINUOUS
 70
0
 71
3
 72
42
 73
38
 74
0
 42
0.0000001
 43
0.0000001
 44
0.0000000001
 40
0.0
 40
0.0
 40
0.0
 40
0.0
 40
0.0299419644
 40
0.0449235317
 40
0.0599142035
 40
0.0899287023
 40
0.1200139727
 40
0.1350926544
 40
0.1501966973
 40
0.1804840373
 40
0.210897868
 40
0.2414513286
 40
0.2721543342
 40
0.3030133956
 40
0.3340315238
 40
0.3652082165
 40
0.3965395222
 40
0.4280181758
 40
0.459633799
 40
0.4913731572
 40
0.5232204671
 40
0.5551577446
 40
0.5871651885
 40
0.6192215901
 40
0.6513047644
 40
0.683391994
 40
0.715460481
 40
0.7474877999
 40
0.7794523452
 40
0.8113337678
 40
0.8431133918
 40
0.8747746145
 40
0.906303246
 40
0.9376878974
 40
0.9533257627
 40
0.9689252947
 40
1.0
 40
1.0
 40
1.0
 40
1.0
 10
9.7345326126
 20
8.8262928111
 30
0.0
 10
9.7381657497
 20
8.8298021507
 30
0.0
 10
9.7438296031
 20
8.8348535213
 30
0.0
 10
9.7517616729
 20
8.8411212245
 30
0.0
 10
9.7599464091
 20
8.8470769533
 30
0.0
 10
9.7706260855
 20
8.8539161482
 30
0.0
 10
9.7818250611
 20
8.8598984063
 30
0.0
 10
9.7910612725
 20
8.8641542879
 30
0.0
 10
9.8004883369
 20
8.8680587187
 30
0.0
 10
9.8125827884
 20
8.8722571951
 30
0.0
 10
9.8274873933
 20
8.8761700437
 30
0.0
 10
9.8427172191
 20
8.8789420239
 30
0.0
 10
9.8581878712
 20
8.8805578263
 30
0.0
 10
9.8738143639
 20
8.881008832
 30
0.0
 10
9.8895107157
 20
8.8802927445
 30
0.0
 10
9.9051906557
 20
8.8784137004
 30
0.0
 10
9.9207680291
 20
8.8753822088
 30
0.0
 10
9.9361572827
 20
8.8712150942
 30
0.0
 10
9.9512739236
 20
8.8659353961
 30
0.0
 10
9.966034978
 20
8.85957224
 30
0.0
 10
9.9803594395
 20
8.8521606746
 30
0.0
 10
9.9941687081
 20
8.8437414787
 30
0.0
 10
10.0073870152
 20
8.8343609376
 30
0.0
 10
10.0199418343
 20
8.8240705902
 30
0.0
 10
10.0317642742
 20
8.812926948
 30
0.0
 10
10.0427894528
 20
8.8009911877
 30
0.0
 10
10.0529568493
 20
8.7883288184
 30
0.0
 10
10.0622106335
 20
8.7750093251
 30
0.0
 10
10.0704999689
 20
8.7611057958
 30
0.0
 10
10.077779291
 20
8.7466945084
 30
0.0
 10
10.0840085518
 20
8.731854578
 30
0.0
 10
10.0891534583
 20
8.7166673066
 30
0.0
 10
10.0931855801
 20
8.7012165618
 30
0.0
 10
10.095602933
 20
8.6881744617
 30
0.0
 10
10.0969589918
 20
8.6776952821
 30
0.0
 10
10.0979267783
 20
8.6672261326
 30
0.0
 10
10.0982198167
 20
8.6593481648
 30
0.0
 10
10.0982198167
 20
8.6541058176
 30
0.0
  0
SPLINE
  5
362
100
AcDbEntity
  8
0
100
AcDbSpline
 62
7
  6
CONTINUOUS
 70
0
 71
3
 72
42
 73
38
 74
0
 42
0.0000001
 43
0.0000001
 44
0.0000000001
 40
0.0
 40
0.0
 40
0.0
 40
0.0
 40
0.0299419644
 40
0.0449235317
 40
0.0599142035
 40
0.0899287023
 40
0.1200139727
 40
0.1350926544
 40
0.1501966973
 40
0.1804840373
 40
0.210897868
 40
0.2414513286
 40
0.2721543342
 40
0.3030133956
 40
0.3340315238
 40
0.3652082165
 40
0.3965395222
 40
0.4280181758
 40
0.459633799
 40
0.4913731572
 40
0.5232204671
 40
0.5551577446
 40
0.5871651885
 40
0.6192215901
 40
0.6513047644
 40
0.683391994
 40
0.715460481
 40
0.7474877999
 40
0.7794523452
 40
0.8113337678
 40
0.8431133918
 40
0.8747746145
 40
0.906303246
 40
0.9376878974
 40
0.9533257627
 40
0.9689252947
 40
1.0
 40
1.0
 40
1.0
 40
1.0
 10
10.1576081146
 20
8.2840457637
 30
0.0
 10
10.1612412517
 20
8.2875551033
 30
0.0
 10
10.1669051051
 20
8.2926064739
 30
0.0
 10
10.1748371749
 20
8.2988741771
 30
0.0
 10
10.1830219111
 20
8.3048299059
 30
0.0
 10
10.1937015874
 20
8.3116691008
 30
0.0
 10
10.2049005631
 20
8.3176513589
 30
0.0
 10
10.2141367744
 20
8.3219072406
 30
0.0
 10
10.2235638389
 20
8.3258116713
 30
0.0
 10
10.2356582904
 20
8.3300101478
 30
0.0
 10
10.2505628953
 20
8.3339229963
 30
0.0
 10
10.2657927211
 20
8.3366949766
 30
0.0
 10
10.2812633732
 20
8.3383107789
 30
0.0
 10
10.2968898658
 20
8.3387617847
 30
0.0
 10
10.3125862177
 20
8.3380456971
 30
0.0
 10
10.3282661577
 20
8.336166653
 30
0.0
 10
10.3438435311
 20
8.3331351615
 30
0.0
 10
10.3592327847
 20
8.3289680468
 30
0.0
 10
10.3743494256
 20
8.3236883488
 30
0.0
 10
10.3891104799
 20
8.3173251927
 30
0.0
 10
10.4034349415
 20
8.3099136273
 30
0.0
 10
10.4172442101
 20
8.3014944314
 30
0.0
 10
10.4304625172
 20
8.2921138903
 30
0.0
 10
10.4430173363
 20
8.2818235428
 30
0.0
 10
10.4548397762
 20
8.2706799007
 30
0.0
 10
10.4658649547
 20
8.2587441403
 30
0.0
 10
10.4760323513
 20
8.246081771
 30
0.0
 10
10.4852861354
 20
8.2327622778
 30
0.0
 10
10.4935754708
 20
8.2188587484
 30
0.0
 10
10.500854793
 20
8.2044474611
 30
0.0
 10
10.5070840538
 20
8.1896075307
 30
0.0
 10
10.5122289603
 20
8.1744202592
 30
0.0
 10
10.5162610821
 20
8.1589695145
 30
0.0
 10
10.518678435
 20
8.1459274143
 30
0.0
 10
10.5200344938
 20
8.1354482347
 30
0.0
 10
10.5210022803
 20
8.1249790852
 30
0.0
 10
10.5212953187
 20
8.1171011174
 30
0.0
 10
10.5212953187
 20
8.1118587702
 30
0.0
  0
SPLINE
  5
363
100
AcDbEntity
  8
0
100
AcDbSpline
 62
7
  6
CONTINUOUS
 70
0
 71
3
 72
11
 73
7
 74
0
 42
0.0000001
 43
0.0000001
 44
0.0000000001
 40
0.0
 40
0.0
 40
0.0
 40
0.0
 40
0.2568514827
 40
0.507880409
 40
0.7549446794
 40
1.0
 40
1.0
 40
1.0
 40
1.0
 10
12.6786994717
 20
8.9344641095
 30
0.0
 10
12.6798275938
 20
8.9339477925
 30
0.0
 10
12.6821013773
 20
8.9330176398
 30
0.0
 10
12.6855888182
 20
8.9319360386
 30
0.0
 10
12.689104595
 20
8.9311878045
 30
0.0
 10
12.691469698
 20
8.9309115258
 30
0.0
 10
12.6926505457
 20
8.9308296394
 30
0.0
  0
SPLINE
  5
364
100
AcDbEntity
  8
0
100
AcDbSpline
 62
7
  6
CONTINUOUS
 70
0
 71
3
 72
42
 73
38
 74
0
 42
0.0000001
 43
0.0000001
 44
0.0000000001
 40
0.0
 40
0.0
 40
0.0
 40
0.0
 40
0.0299419644
 40
0.0449235317
 40
0.0599142035
 40
0.0899287023
 40
0.1200139727
 40
0.1350926544
 40
0.1501966973
 40
0.1804840373
 40
0.210897868
 40
0.2414513286
 40
0.2721543342
 40
0.3030133956
 40
0.3340315238
 40
0.3652082165
 40
0.3965395222
 40
0.4280181758
 40
0.459633799
 40
0.4913731572
 40
0.5232204671
 40
0.5551577446
 40
0.5871651885
 40
0.6192215901
 40
0.6513047644
 40
0.683391994
 40
0.715460481
 40
0.7474877999
 40
0.7794523452
 40
0.8113337678
 40
0.8431133918
 40
0.8747746145
 40
0.906303246
 40
0.9376878974
 40
0.9533257627
 40
0.9689252947
 40
1.0
 40
1.0
 40
1.0
 40
1.0
 10
10.7304021009
 20
7.8511904686
 30
0.0
 10
10.7340352379
 20
7.8546998082
 30
0.0
 10
10.7396990913
 20
7.8597511788
 30
0.0
 10
10.7476311612
 20
7.866018882
 30
0.0
 10
10.7558158974
 20
7.8719746108
 30
0.0
 10
10.7664955737
 20
7.8788138057
 30
0.0
 10
10.7776945494
 20
7.8847960638
 30
0.0
 10
10.7869307607
 20
7.8890519454
 30
0.0
 10
10.7963578252
 20
7.8929563762
 30
0.0
 10
10.8084522766
 20
7.8971548527
 30
0.0
 10
10.8233568816
 20
7.9010677012
 30
0.0
 10
10.8385867074
 20
7.9038396815
 30
0.0
 10
10.8540573595
 20
7.9054554838
 30
0.0
 10
10.8696838521
 20
7.9059064896
 30
0.0
 10
10.885380204
 20
7.905190402
 30
0.0
 10
10.901060144
 20
7.9033113579
 30
0.0
 10
10.9166375174
 20
7.9002798664
 30
0.0
 10
10.932026771
 20
7.8961127517
 30
0.0
 10
10.9471434119
 20
7.8908330537
 30
0.0
 10
10.9619044662
 20
7.8844698976
 30
0.0
 10
10.9762289278
 20
7.8770583322
 30
0.0
 10
10.9900381964
 20
7.8686391363
 30
0.0
 10
11.0032565035
 20
7.8592585952
 30
0.0
 10
11.0158113226
 20
7.8489682477
 30
0.0
 10
11.0276337625
 20
7.8378246056
 30
0.0
 10
11.038658941
 20
7.8258888452
 30
0.0
 10
11.0488263376
 20
7.8132264759
 30
0.0
 10
11.0580801217
 20
7.7999069827
 30
0.0
 10
11.0663694571
 20
7.7860034533
 30
0.0
 10
11.0736487793
 20
7.771592166
 30
0.0
 10
11.0798780401
 20
7.7567522356
 30
0.0
 10
11.0850229466
 20
7.7415649641
 30
0.0
 10
11.0890550684
 20
7.7261142194
 30
0.0
 10
11.0914724213
 20
7.7130721192
 30
0.0
 10
11.0928284801
 20
7.7025929396
 30
0.0
 10
11.0937962666
 20
7.6921237901
 30
0.0
 10
11.094089305
 20
7.6842458223
 30
0.0
 10
11.094089305
 20
7.6790034751
 30
0.0
  0
SPLINE
  5
365
100
AcDbEntity
  8
0
100
AcDbSpline
 62
7
  6
CONTINUOUS
 70
0
 71
3
 72
91
 73
87
 74
0
 42
0.0000001
 43
0.0000001
 44
0.0000000001
 40
0.0
 40
0.0
 40
0.0
 40
0.0
 40
0.0027164146
 40
0.005453202
 40
0.008230252
 40
0.0110665198
 40
0.0139797053
 40
0.0169859824
 40
0.0200999174
 40
0.023334401
 40
0.0267007187
 40
0.0302086385
 40
0.0338665091
 40
0.0376814414
 40
0.0416593691
 40
0.0458052582
 40
0.0501231421
 40
0.0546162891
 40
0.0592872586
 40
0.064137982
 40
0.0691698666
 40
0.0743837897
 40
0.079780237
 40
0.0853592528
 40
0.0911205635
 40
0.0970635488
 40
0.1031872988
 40
0.1094906474
 40
0.1226297881
 40
0.1364673429
 40
0.1509860432
 40
0.166165828
 40
0.1819841602
 40
0.1984162836
 40
0.2154354412
 40
0.2330130641
 40
0.2511189358
 40
0.2697213391
 40
0.2887871904
 40
0.3082821639
 40
0.3281708096
 40
0.3484166635
 40
0.368982358
 40
0.3898297276
 40
0.4109199118
 40
0.4322134566
 40
0.4536704139
 40
0.4752504412
 40
0.4969128994
 40
0.5186169519
 40
0.5403216628
 40
0.5619860952
 40
0.5835694083
 40
0.6050309559
 40
0.6263303839
 40
0.6474277291
 40
0.6682835187
 40
0.688858872
 40
0.7091156002
 40
0.7290163102
 40
0.7485245085
 40
0.7676047097
 40
0.7862225487
 40
0.8043448976
 40
0.8219399925
 40
0.8389775679
 40
0.8554290014
 40
0.8712674776
 40
0.8864681732
 40
0.9010084737
 40
0.9148682315
 40
0.9280300795
 40
0.9343449284
 40
0.9404802779
 40
0.9464349254
 40
0.952207944
 40
0.9577987094
 40
0.9632068925
 40
0.9684325652
 40
0.9734761403
 40
0.9783384919
 40
0.9830209404
 40
0.9875254382
 40
0.9918545985
 40
0.9960115586
 40
1.0
 40
1.0
 40
1.0
 40
1.0
 10
12.7425520489
 20
8.6567204539
 30
0.0
 10
12.7409189683
 20
8.6568337014
 30
0.0
 10
12.7376489203
 20
8.6572088419
 30
0.0
 10
12.7327854691
 20
8.658212723
 30
0.0
 10
12.7279587942
 20
8.6596576869
 30
0.0
 10
12.7231722814
 20
8.6615421954
 30
0.0
 10
12.7184284786
 20
8.6638647388
 30
0.0
 10
12.7137297358
 20
8.6666233419
 30
0.0
 10
12.7090782901
 20
8.6698161621
 30
0.0
 10
12.7044761622
 20
8.673441102
 30
0.0
 10
12.6999253523
 20
8.6774960689
 30
0.0
 10
12.6954278492
 20
8.6819788649
 30
0.0
 10
12.6909855549
 20
8.6868871039
 30
0.0
 10
12.6866005271
 20
8.6922183608
 30
0.0
 10
12.6822746546
 20
8.6979699114
 30
0.0
 10
12.6780100268
 20
8.7041389719
 30
0.0
 10
12.673808574
 20
8.7107224618
 30
0.0
 10
12.6696723401
 20
8.7177171649
 30
0.0
 10
12.6656033148
 20
8.7251196296
 30
0.0
 10
12.6616034504
 20
8.7329261926
 30
0.0
 10
12.6576747701
 20
8.7411330119
 30
0.0
 10
12.6538191366
 20
8.7497359945
 30
0.0
 10
12.6500385476
 20
8.7587308911
 30
0.0
 10
12.6463348121
 20
8.7681132042
 30
0.0
 10
12.6427098344
 20
8.7778782719
 30
0.0
 10
12.6391654112
 20
8.7880212086
 30
0.0
 10
12.6357032855
 20
8.7985369617
 30
0.0
 10
12.631136002
 20
8.8132521625
 30
0.0
 10
12.6256612857
 20
8.8325497627
 30
0.0
 10
12.6195341318
 20
8.8567971217
 30
0.0
 10
12.6137743317
 20
8.8823961852
 30
0.0
 10
12.6083935728
 20
8.9092956368
 30
0.0
 10
12.6034028064
 20
8.9374417567
 30
0.0
 10
12.5988121876
 20
8.9667781591
 30
0.0
 10
12.594631059
 20
8.9972460336
 30
0.0
 10
12.5908679311
 20
9.0287842463
 30
0.0
 10
12.5875304637
 20
9.0613294811
 30
0.0
 10
12.5846254514
 20
9.0948163717
 30
0.0
 10
12.5821588099
 20
9.1291776383
 30
0.0
 10
12.5801355649
 20
9.1643442269
 30
0.0
 10
12.5785598432
 20
9.2002454499
 30
0.0
 10
12.5774348614
 20
9.2368091305
 30
0.0
 10
12.5767629224
 20
9.2739617508
 30
0.0
 10
12.5765454125
 20
9.3116286021
 30
0.0
 10
12.5767827986
 20
9.3497339376
 30
0.0
 10
12.5774746278
 20
9.3882011244
 30
0.0
 10
12.5786195288
 20
9.426952799
 30
0.0
 10
12.5802152147
 20
9.4659110229
 30
0.0
 10
12.5822584879
 20
9.5049974398
 30
0.0
 10
12.5847452436
 20
9.5441334345
 30
0.0
 10
12.5876704812
 20
9.5832402923
 30
0.0
 10
12.5910283146
 20
9.6222393576
 30
0.0
 10
12.5948119841
 20
9.6610521928
 30
0.0
 10
12.5990138697
 20
9.6996007362
 30
0.0
 10
12.6036255067
 20
9.7378074591
 30
0.0
 10
12.6086376022
 20
9.7755955226
 30
0.0
 10
12.6140400534
 20
9.8128889341
 30
0.0
 10
12.619821965
 20
9.8496127015
 30
0.0
 10
12.6259716746
 20
9.8856929853
 30
0.0
 10
12.6324767752
 20
9.9210572474
 30
0.0
 10
12.63932414
 20
9.9556343983
 30
0.0
 10
12.646499948
 20
9.989354942
 30
0.0
 10
12.6539897117
 20
10.0221511178
 30
0.0
 10
12.6617783068
 20
10.0539570407
 30
0.0
 10
12.6698499999
 20
10.08470884
 30
0.0
 10
12.6781884805
 20
10.1143447941
 30
0.0
 10
12.6867768972
 20
10.1428054574
 30
0.0
 10
12.6955978927
 20
10.1700337966
 30
0.0
 10
12.7046336407
 20
10.1959752844
 30
0.0
 10
12.7138658925
 20
10.2205781366
 30
0.0
 10
12.7232760069
 20
10.2437930436
 30
0.0
 10
12.7313577796
 20
10.2621892142
 30
0.0
 10
12.7379094353
 20
10.2761650622
 30
0.0
 10
12.7427879454
 20
10.2861265745
 30
0.0
 10
12.7476966725
 20
10.2957077918
 30
0.0
 10
12.7526331984
 20
10.3049039312
 30
0.0
 10
12.7575950066
 20
10.3137104137
 30
0.0
 10
12.7625796814
 20
10.3221228293
 30
0.0
 10
12.7675846697
 20
10.3301370251
 30
0.0
 10
12.7726075645
 20
10.3377489784
 30
0.0
 10
12.7776457912
 20
10.3449549325
 30
0.0
 10
12.7826969153
 20
10.3517513092
 30
0.0
 10
12.7877584945
 20
10.3581347914
 30
0.0
 10
12.7928281515
 20
10.3641022934
 30
0.0
 10
12.7979032193
 20
10.3696505782
 30
0.0
 10
12.8013588655
 20
10.373139177
 30
0.0
 10
12.8030876431
 20
10.3748090481
 30
0.0
  0
SPLINE
  5
366
100
AcDbEntity
  8
0
100
AcDbSpline
 62
7
  6
CONTINUOUS
 70
0
 71
3
 72
42
 73
38
 74
0
 42
0.0000001
 43
0.0000001
 44
0.0000000001
 40
0.0
 40
0.0
 40
0.0
 40
0.0
 40
0.0299419644
 40
0.0449235317
 40
0.0599142035
 40
0.0899287023
 40
0.1200139727
 40
0.1350926544
 40
0.1501966973
 40
0.1804840373
 40
0.210897868
 40
0.2414513286
 40
0.2721543342
 40
0.3030133956
 40
0.3340315238
 40
0.3652082165
 40
0.3965395222
 40
0.4280181758
 40
0.459633799
 40
0.4913731572
 40
0.5232204671
 40
0.5551577446
 40
0.5871651885
 40
0.6192215901
 40
0.6513047644
 40
0.683391994
 40
0.715460481
 40
0.7474877999
 40
0.7794523452
 40
0.8113337678
 40
0.8431133918
 40
0.8747746145
 40
0.906303246
 40
0.9376878974
 40
0.9533257627
 40
0.9689252947
 40
1.0
 40
1.0
 40
1.0
 40
1.0
 10
10.1576081146
 20
7.4987480554
 30
0.0
 10
10.1612412517
 20
7.502257395
 30
0.0
 10
10.1669051051
 20
7.5073087656
 30
0.0
 10
10.1748371749
 20
7.5135764688
 30
0.0
 10
10.1830219111
 20
7.5195321976
 30
0.0
 10
10.1937015874
 20
7.5263713925
 30
0.0
 10
10.2049005631
 20
7.5323536506
 30
0.0
 10
10.2141367744
 20
7.5366095323
 30
0.0
 10
10.2235638389
 20
7.540513963
 30
0.0
 10
10.2356582904
 20
7.5447124395
 30
0.0
 10
10.2505628953
 20
7.548625288
 30
0.0
 10
10.2657927211
 20
7.5513972683
 30
0.0
 10
10.2812633732
 20
7.5530130706
 30
0.0
 10
10.2968898658
 20
7.5534640764
 30
0.0
 10
10.3125862177
 20
7.5527479888
 30
0.0
 10
10.3282661577
 20
7.5508689447
 30
0.0
 10
10.3438435311
 20
7.5478374532
 30
0.0
 10
10.3592327847
 20
7.5436703385
 30
0.0
 10
10.3743494256
 20
7.5383906405
 30
0.0
 10
10.3891104799
 20
7.5320274844
 30
0.0
 10
10.4034349415
 20
7.524615919
 30
0.0
 10
10.4172442101
 20
7.5161967231
 30
0.0
 10
10.4304625172
 20
7.506816182
 30
0.0
 10
10.4430173363
 20
7.4965258345
 30
0.0
 10
10.4548397762
 20
7.4853821924
 30
0.0
 10
10.4658649547
 20
7.473446432
 30
0.0
 10
10.4760323513
 20
7.4607840627
 30
0.0
 10
10.4852861354
 20
7.4474645695
 30
0.0
 10
10.4935754708
 20
7.4335610401
 30
0.0
 10
10.500854793
 20
7.4191497528
 30
0.0
 10
10.5070840538
 20
7.4043098224
 30
0.0
 10
10.5122289603
 20
7.3891225509
 30
0.0
 10
10.5162610821
 20
7.3736718062
 30
0.0
 10
10.518678435
 20
7.360629706
 30
0.0
 10
10.5200344938
 20
7.3501505264
 30
0.0
 10
10.5210022803
 20
7.3396813769
 30
0.0
 10
10.5212953187
 20
7.3318034091
 30
0.0
 10
10.5212953187
 20
7.3265610619
 30
0.0
  0
SPLINE
  5
367
100
AcDbEntity
  8
0
100
AcDbSpline
 62
7
  6
CONTINUOUS
 70
0
 71
3
 72
11
 73
7
 74
0
 42
0.0000001
 43
0.0000001
 44
0.0000000001
 40
0.0
 40
0.0
 40
0.0
 40
0.0
 40
0.256750674
 40
0.5077640197
 40
0.7548711457
 40
1.0
 40
1.0
 40
1.0
 40
1.0
 10
12.7621563504
 20
10.136289877
 30
0.0
 10
12.763335786
 20
10.136639471
 30
0.0
 10
12.7656977934
 20
10.1372362408
 30
0.0
 10
12.7692726361
 20
10.1378150589
 30
0.0
 10
12.7728297637
 20
10.1380648692
 30
0.0
 10
12.7751916042
 20
10.1380115906
 30
0.0
 10
12.7763632637
 20
10.1379303414
 30
0.0
  0
SPLINE
  5
368
100
AcDbEntity
  8
0
100
AcDbSpline
 62
7
  6
CONTINUOUS
 70
0
 71
3
 72
23
 73
19
 74
0
 42
0.0000001
 43
0.0000001
 44
0.0000000001
 40
0.0
 40
0.0
 40
0.0
 40
0.0
 40
0.0622334076
 40
0.1245431941
 40
0.1869273381
 40
0.2493796334
 40
0.3118902129
 40
0.3744463017
 40
0.4370332009
 40
0.4996357356
 40
0.5622395333
 40
0.6248324842
 40
0.687406154
 40
0.749956457
 40
0.8124842472
 40
0.8749945201
 40
0.937496414
 40
1.0
 40
1.0
 40
1.0
 40
1.0
 10
10.5049565162
 20
7.2464703858
 30
0.0
 10
10.5005011475
 20
7.2444198753
 30
0.0
 10
10.4914667585
 20
7.2405673933
 30
0.0
 10
10.4775955592
 20
7.2355823351
 30
0.0
 10
10.4634337448
 20
7.2314298656
 30
0.0
 10
10.4490271837
 20
7.228153945
 30
0.0
 10
10.4344276816
 20
7.2257970757
 30
0.0
 10
10.4196941284
 20
7.2243989976
 30
0.0
 10
10.4048920583
 20
7.2239946977
 30
0.0
 10
10.3900930355
 20
7.2246124938
 30
0.0
 10
10.3753734308
 20
7.22627222
 30
0.0
 10
10.3608127477
 20
7.2289837331
 30
0.0
 10
10.3464916069
 20
7.2327459026
 30
0.0
 10
10.3324895283
 20
7.2375462555
 30
0.0
 10
10.3188829598
 20
7.2433612004
 30
0.0
 10
10.3057430733
 20
7.2501571618
 30
0.0
 10
10.2931358134
 20
7.2578910159
 30
0.0
 10
10.2851234033
 20
7.2636400651
 30
0.0
 10
10.2812257289
 20
7.2666520999
 30
0.0
  0
SPLINE
  5
369
100
AcDbEntity
  8
0
100
AcDbSpline
 62
7
  6
CONTINUOUS
 70
0
 71
3
 72
39
 73
35
 74
0
 42
0.0000001
 43
0.0000001
 44
0.0000000001
 40
0.0
 40
0.0
 40
0.0
 40
0.0
 40
0.0299424756
 40
0.0599093253
 40
0.0899243308
 40
0.1200101061
 40
0.1501875593
 40
0.1804754054
 40
0.2108897454
 40
0.2414437198
 40
0.2721472437
 40
0.3030068255
 40
0.3340254745
 40
0.3652026886
 40
0.3965345175
 40
0.4280136976
 40
0.4596298523
 40
0.4913697474
 40
0.5232175981
 40
0.5551554173
 40
0.5871634018
 40
0.6192203434
 40
0.6513040581
 40
0.68339183
 40
0.7154608619
 40
0.7474887274
 40
0.7794538181
 40
0.8113357796
 40
0.8431159521
 40
0.8747776664
 40
0.9063069638
 40
0.937691791
 40
0.9689252156
 40
1.0
 40
1.0
 40
1.0
 40
1.0
 10
11.0448315837
 20
8.3326816663
 30
0.0
 10
11.046722805
 20
8.3345084539
 30
0.0
 10
11.0506539461
 20
8.3380146148
 30
0.0
 10
11.056952266
 20
8.3427911254
 30
0.0
 10
11.0636199819
 20
8.3470610204
 30
0.0
 10
11.0706198406
 20
8.3508003446
 30
0.0
 10
11.0779133561
 20
8.353988672
 30
0.0
 10
11.0854602774
 20
8.3566084759
 30
0.0
 10
11.0932190177
 20
8.3586454207
 30
0.0
 10
11.1011468327
 20
8.3600883825
 30
0.0
 10
11.1092000733
 20
8.3609295173
 30
0.0
 10
11.1173344221
 20
8.3611643056
 30
0.0
 10
11.1255051413
 20
8.3607915661
 30
0.0
 10
11.1336673172
 20
8.3598134519
 30
0.0
 10
11.1417761043
 20
8.3582354351
 30
0.0
 10
11.1497869682
 20
8.3560662727
 30
0.0
 10
11.1576559264
 20
8.3533179559
 30
0.0
 10
11.1653397857
 20
8.3500056429
 30
0.0
 10
11.1727963753
 20
8.3461475733
 30
0.0
 10
11.1799847799
 20
8.3417649784
 30
0.0
 10
11.1868655602
 20
8.3368819558
 30
0.0
 10
11.1934009638
 20
8.3315253358
 30
0.0
 10
11.1995551308
 20
8.3257245357
 30
0.0
 10
11.2052942868
 20
8.3195113998
 30
0.0
 10
11.2105869267
 20
8.3129200272
 30
0.0
 10
11.2154039854
 20
8.3059865866
 30
0.0
 10
11.219718994
 20
8.2987491206
 30
0.0
 10
11.22350824
 20
8.2912473437
 30
0.0
 10
11.2267508702
 20
8.2835224257
 30
0.0
 10
11.2294290588
 20
8.2756167421
 30
0.0
 10
11.2315279676
 20
8.267573754
 30
0.0
 10
11.2330361169
 20
8.2594373896
 30
0.0
 10
11.2339449624
 20
8.2512530107
 30
0.0
 10
11.2341485581
 20
8.2457792641
 30
0.0
 10
11.2341485581
 20
8.2430504053
 30
0.0
  0
SPLINE
  5
36A
100
AcDbEntity
  8
0
100
AcDbSpline
 62
7
  6
CONTINUOUS
 70
0
 71
3
 72
28
 73
24
 74
0
 42
0.0000001
 43
0.0000001
 44
0.0000000001
 40
0.0
 40
0.0
 40
0.0
 40
0.0
 40
0.0162145189
 40
0.0334275962
 40
0.0516721625
 40
0.070971352
 40
0.0913410552
 40
0.112790325
 40
0.1353227667
 40
0.1589373889
 40
0.1836287124
 40
0.209388193
 40
0.2640568884
 40
0.3228187597
 40
0.3855079255
 40
0.4519274553
 40
0.5218538976
 40
0.5950409226
 40
0.6712220742
 40
0.750114128
 40
0.8314167504
 40
0.9148213264
 40
1.0
 40
1.0
 40
1.0
 40
1.0
 10
13.1963720025
 20
6.5671337195
 30
0.0
 10
13.1958543661
 20
6.5677701736
 30
0.0
 10
13.1948307919
 20
6.5691181331
 30
0.0
 10
13.1933710142
 20
6.5712884143
 30
0.0
 10
13.1919433761
 20
6.5736639648
 30
0.0
 10
13.1905492533
 20
6.5762422254
 30
0.0
 10
13.1891900642
 20
6.5790206485
 30
0.0
 10
13.1878671523
 20
6.5819963716
 30
0.0
 10
13.1865818728
 20
6.5851663458
 30
0.0
 10
13.1853355984
 20
6.5885273008
 30
0.0
 10
13.1841295438
 20
6.5920757466
 30
0.0
 10
13.1825454215
 20
6.5971534011
 30
0.0
 10
13.1806863136
 20
6.603948466
 30
0.0
 10
13.1786764739
 20
6.6126316415
 30
0.0
 10
13.1768544035
 20
6.6219624777
 30
0.0
 10
13.1752279252
 20
6.6319019223
 30
0.0
 10
13.1738040704
 20
6.64240848
 30
0.0
 10
13.1725889868
 20
6.653438087
 30
0.0
 10
13.1715879129
 20
6.6649444585
 30
0.0
 10
13.170805197
 20
6.6768791723
 30
0.0
 10
13.1702441858
 20
6.6891921608
 30
0.0
 10
13.1699073735
 20
6.7018314141
 30
0.0
 10
13.1698339274
 20
6.7103611451
 30
0.0
 10
13.1698339274
 20
6.7146707873
 30
0.0
  0
SPLINE
  5
36B
100
AcDbEntity
  8
0
100
AcDbSpline
 62
7
  6
CONTINUOUS
 70
0
 71
3
 72
28
 73
24
 74
0
 42
0.0000001
 43
0.0000001
 44
0.0000000001
 40
0.0
 40
0.0
 40
0.0
 40
0.0
 40
0.0162145189
 40
0.0334275962
 40
0.0516721625
 40
0.070971352
 40
0.0913410552
 40
0.112790325
 40
0.1353227667
 40
0.1589373889
 40
0.1836287124
 40
0.209388193
 40
0.2640568884
 40
0.3228187597
 40
0.3855079255
 40
0.4519274553
 40
0.5218538976
 40
0.5950409226
 40
0.6712220742
 40
0.750114128
 40
0.8314167504
 40
0.9148213264
 40
1.0
 40
1.0
 40
1.0
 40
1.0
 10
13.1963720025
 20
10.5506120755
 30
0.0
 10
13.1958543661
 20
10.5512485297
 30
0.0
 10
13.1948307919
 20
10.5525964892
 30
0.0
 10
13.1933710142
 20
10.5547667704
 30
0.0
 10
13.1919433761
 20
10.5571423209
 30
0.0
 10
13.1905492533
 20
10.5597205815
 30
0.0
 10
13.1891900642
 20
10.5624990046
 30
0.0
 10
13.1878671523
 20
10.5654747277
 30
0.0
 10
13.1865818728
 20
10.5686447018
 30
0.0
 10
13.1853355984
 20
10.5720056569
 30
0.0
 10
13.1841295438
 20
10.5755541027
 30
0.0
 10
13.1825454215
 20
10.5806317572
 30
0.0
 10
13.1806863136
 20
10.587426822
 30
0.0
 10
13.1786764739
 20
10.5961099976
 30
0.0
 10
13.1768544035
 20
10.6054408338
 30
0.0
 10
13.1752279252
 20
10.6153802784
 30
0.0
 10
13.1738040704
 20
10.6258868361
 30
0.0
 10
13.1725889868
 20
10.6369164431
 30
0.0
 10
13.1715879129
 20
10.6484228145
 30
0.0
 10
13.170805197
 20
10.6603575284
 30
0.0
 10
13.1702441858
 20
10.6726705169
 30
0.0
 10
13.1699073735
 20
10.6853097702
 30
0.0
 10
13.1698339274
 20
10.6938395012
 30
0.0
 10
13.1698339274
 20
10.6981491434
 30
0.0
  0
SPLINE
  5
36C
100
AcDbEntity
  8
0
100
AcDbSpline
 62
7
  6
CONTINUOUS
 70
0
 71
3
 72
19
 73
15
 74
0
 42
0.0000001
 43
0.0000001
 44
0.0000000001
 40
0.0
 40
0.0
 40
0.0
 40
0.0
 40
0.12732766
 40
0.2538196711
 40
0.3795264658
 40
0.5045235362
 40
0.5668075958
 40
0.6289556124
 40
0.6909843715
 40
0.7529118454
 40
0.8147570127
 40
0.8765397119
 40
0.9382804145
 40
1.0
 40
1.0
 40
1.0
 40
1.0
 10
9.6751442798
 20
8.6834462057
 30
0.0
 10
9.6751442798
 20
8.6901909698
 30
0.0
 10
9.6757882563
 20
8.7036455101
 30
0.0
 10
9.6787007191
 20
8.7235688106
 30
0.0
 10
9.6835295575
 20
8.7429905713
 30
0.0
 10
9.6891233737
 20
8.7586301308
 30
0.0
 10
9.6945030937
 20
8.7707031037
 30
0.0
 10
9.6989767046
 20
8.7795140332
 30
0.0
 10
9.7038828429
 20
8.788069626
 30
0.0
 10
9.709210342
 20
8.7963504318
 30
0.0
 10
9.7149469107
 20
8.8043372254
 30
0.0
 10
9.7210793287
 20
8.8120117159
 30
0.0
 10
9.7275932593
 20
8.8193559193
 30
0.0
 10
9.7321810869
 20
8.8240214126
 30
0.0
 10
9.7345326126
 20
8.8262928111
 30
0.0
  0
SPLINE
  5
36D
100
AcDbEntity
  8
0
100
AcDbSpline
 62
7
  6
CONTINUOUS
 70
0
 71
3
 72
71
 73
67
 74
0
 42
0.0000001
 43
0.0000001
 44
0.0000000001
 40
0.0
 40
0.0
 40
0.0
 40
0.0
 40
0.0081224021
 40
0.0169165279
 40
0.0264081434
 40
0.0366136729
 40
0.0475406687
 40
0.0591900386
 40
0.0715572362
 40
0.0846331289
 40
0.0984046806
 40
0.1128554936
 40
0.1279662701
 40
0.143715139
 40
0.1600778855
 40
0.177028224
 40
0.1945380126
 40
0.212577401
 40
0.231114962
 40
0.2501178742
 40
0.2695520505
 40
0.2893822318
 40
0.309572107
 40
0.3300844497
 40
0.3719228157
 40
0.4145857826
 40
0.4577527732
 40
0.5010982541
 40
0.5442949581
 40
0.5870170731
 40
0.6289434202
 40
0.6697607121
 40
0.6896589881
 40
0.7091677946
 40
0.728251669
 40
0.7468762811
 40
0.7650085828
 40
0.7826169028
 40
0.7996710734
 40
0.816142615
 40
0.8320049142
 40
0.8472333772
 40
0.8618056538
 40
0.8757019563
 40
0.8889053604
 40
0.9014021796
 40
0.9131824955
 40
0.9242408713
 40
0.9345771718
 40
0.9394767076
 40
0.9441987541
 40
0.9487453348
 40
0.9531191585
 40
0.9573236229
 40
0.9613628726
 40
0.9652420105
 40
0.9689670917
 40
0.9725452814
 40
0.9759850272
 40
0.9824862539
 40
0.9855751478
 40
0.9885736479
 40
0.9914976047
 40
0.9943642476
 40
0.9971919638
 40
1.0
 40
1.0
 40
1.0
 40
1.0
 10
9.3982605353
 20
10.6527094965
 30
0.0
 10
9.400038883
 20
10.6544272485
 30
0.0
 10
9.4039103643
 20
10.657833371
 30
0.0
 10
9.4103367863
 20
10.6626727003
 30
0.0
 10
9.4175941627
 20
10.6674311139
 30
0.0
 10
9.4256679113
 20
10.6720994933
 30
0.0
 10
9.4345428941
 20
10.6766692383
 30
0.0
 10
9.4442017657
 20
10.6811314279
 30
0.0
 10
9.4546255843
 20
10.6854772441
 30
0.0
 10
9.4657937305
 20
10.6896979479
 30
0.0
 10
9.4776839632
 20
10.6937850253
 30
0.0
 10
9.4902724967
 20
10.6977302
 30
0.0
 10
9.503534084
 20
10.7015254495
 30
0.0
 10
9.517442071
 20
10.7051630341
 30
0.0
 10
9.5319684455
 20
10.7086355587
 30
0.0
 10
9.5470839154
 20
10.7119359545
 30
0.0
 10
9.5627579841
 20
10.7150574914
 30
0.0
 10
9.5789590044
 20
10.7179938012
 30
0.0
 10
9.5956542399
 20
10.7207389189
 30
0.0
 10
9.6128099462
 20
10.7232872559
 30
0.0
 10
9.6303914467
 20
10.7256336162
 30
0.0
 10
9.6483631815
 20
10.7277732161
 30
0.0
 10
9.6666888289
 20
10.7297017425
 30
0.0
 10
9.6917096094
 20
10.7320013985
 30
0.0
 10
9.7235961789
 20
10.7343121443
 30
0.0
 10
9.7624177562
 20
10.7361756698
 30
0.0
 10
9.8017311961
 20
10.7371321393
 30
0.0
 10
9.8412186374
 20
10.7371737878
 30
0.0
 10
9.8805610158
 20
10.7363002082
 30
0.0
 10
9.9194404697
 20
10.7345186493
 30
0.0
 10
9.957542675
 20
10.7318436765
 30
0.0
 10
9.9886487963
 20
10.7288639193
 30
0.0
 10
10.0129059868
 20
10.7260380076
 30
0.0
 10
10.0305611003
 20
10.723728864
 30
0.0
 10
10.0477967981
 20
10.721216876
 30
0.0
 10
10.0645782604
 20
10.7185071122
 30
0.0
 10
10.0808715655
 20
10.7156051121
 30
0.0
 10
10.0966437974
 20
10.7125167857
 30
0.0
 10
10.1118630975
 20
10.7092484124
 30
0.0
 10
10.1264987495
 20
10.7058066486
 30
0.0
 10
10.1405212476
 20
10.7021985181
 30
0.0
 10
10.1539023468
 20
10.6984313698
 30
0.0
 10
10.1666151282
 20
10.6945128555
 30
0.0
 10
10.1786340809
 20
10.6904509513
 30
0.0
 10
10.1899351708
 20
10.6862539056
 30
0.0
 10
10.2004958472
 20
10.6819302026
 30
0.0
 10
10.2102952552
 20
10.6774884889
 30
0.0
 10
10.2193138505
 20
10.6729376674
 30
0.0
 10
10.2262836613
 20
10.6689944067
 30
0.0
 10
10.2314423133
 20
10.6657841221
 30
0.0
 10
10.2350357022
 20
10.6633978973
 30
0.0
 10
10.2384209913
 20
10.6609912648
 30
0.0
 10
10.2415965185
 20
10.65856539
 30
0.0
 10
10.244560721
 20
10.656121467
 30
0.0
 10
10.2473120731
 20
10.6536606072
 30
0.0
 10
10.249849254
 20
10.6511839971
 30
0.0
 10
10.2521709135
 20
10.6486928502
 30
0.0
 10
10.2542760051
 20
10.6461879714
 30
0.0
 10
10.2567455338
 20
10.6428944006
 30
0.0
 10
10.2588425001
 20
10.6395120052
 30
0.0
 10
10.2605074335
 20
10.6360574236
 30
0.0
 10
10.2615133494
 20
10.6335024883
 30
0.0
 10
10.2622966877
 20
10.6309413411
 30
0.0
 10
10.2628568241
 20
10.6283752255
 30
0.0
 10
10.2631930832
 20
10.6258059602
 30
0.0
 10
10.2632679197
 20
10.6240894938
 30
0.0
 10
10.2632679139
 20
10.6232347179
 30
0.0
  0
SPLINE
  5
36E
100
AcDbEntity
  8
0
100
AcDbSpline
 62
7
  6
CONTINUOUS
 70
0
 71
3
 72
19
 73
15
 74
0
 42
0.0000001
 43
0.0000001
 44
0.0000000001
 40
0.0
 40
0.0
 40
0.0
 40
0.0
 40
0.12732766
 40
0.2538196711
 40
0.3795264658
 40
0.5045235362
 40
0.5668075958
 40
0.6289556124
 40
0.6909843715
 40
0.7529118454
 40
0.8147570127
 40
0.8765397119
 40
0.9382804145
 40
1.0
 40
1.0
 40
1.0
 40
1.0
 10
10.0982197817
 20
8.1411991583
 30
0.0
 10
10.0982197817
 20
8.1479439224
 30
0.0
 10
10.0988637582
 20
8.1613984627
 30
0.0
 10
10.1017762211
 20
8.1813217633
 30
0.0
 10
10.1066050595
 20
8.200743524
 30
0.0
 10
10.1121988757
 20
8.2163830835
 30
0.0
 10
10.1175785957
 20
8.2284560564
 30
0.0
 10
10.1220522066
 20
8.2372669858
 30
0.0
 10
10.1269583449
 20
8.2458225787
 30
0.0
 10
10.132285844
 20
8.2541033845
 30
0.0
 10
10.1380224127
 20
8.2620901781
 30
0.0
 10
10.1441548306
 20
8.2697646685
 30
0.0
 10
10.1506687613
 20
8.2771088719
 30
0.0
 10
10.1552565889
 20
8.2817743652
 30
0.0
 10
10.1576081146
 20
8.2840457637
 30
0.0
  0
SPLINE
  5
36F
100
AcDbEntity
  8
0
100
AcDbSpline
 62
7
  6
CONTINUOUS
 70
0
 71
3
 72
19
 73
15
 74
0
 42
0.0000001
 43
0.0000001
 44
0.0000000001
 40
0.0
 40
0.0
 40
0.0
 40
0.0
 40
0.12732766
 40
0.2538196711
 40
0.3795264658
 40
0.5045235362
 40
0.5668075958
 40
0.6289556124
 40
0.6909843715
 40
0.7529118454
 40
0.8147570127
 40
0.8765397119
 40
0.9382804145
 40
1.0
 40
1.0
 40
1.0
 40
1.0
 10
10.671013768
 20
7.7083438632
 30
0.0
 10
10.671013768
 20
7.7150886273
 30
0.0
 10
10.6716577445
 20
7.7285431676
 30
0.0
 10
10.6745702074
 20
7.7484664682
 30
0.0
 10
10.6793990457
 20
7.7678882289
 30
0.0
 10
10.684992862
 20
7.7835277884
 30
0.0
 10
10.690372582
 20
7.7956007613
 30
0.0
 10
10.6948461929
 20
7.8044116907
 30
0.0
 10
10.6997523311
 20
7.8129672836
 30
0.0
 10
10.7050798303
 20
7.8212480894
 30
0.0
 10
10.710816399
 20
7.829234883
 30
0.0
 10
10.7169488169
 20
7.8369093734
 30
0.0
 10
10.7234627476
 20
7.8442535768
 30
0.0
 10
10.7280505752
 20
7.8489190701
 30
0.0
 10
10.7304021009
 20
7.8511904686
 30
0.0
  0
SPLINE
  5
370
100
AcDbEntity
  8
0
100
AcDbSpline
 62
7
  6
CONTINUOUS
 70
0
 71
3
 72
18
 73
14
 74
0
 42
0.0000001
 43
0.0000001
 44
0.0000000001
 40
0.0
 40
0.0
 40
0.0
 40
0.0
 40
0.0548627003
 40
0.1099292984
 40
0.1654013502
 40
0.22147558
 40
0.3361333207
 40
0.4553633897
 40
0.5171049197
 40
0.5804365965
 40
0.7123310206
 40
0.851957275
 40
1.0
 40
1.0
 40
1.0
 40
1.0
 10
11.1014420725
 20
10.9915036234
 30
0.0
 10
11.1014420688
 20
10.9924300858
 30
0.0
 10
11.1015008581
 20
10.994286989
 30
0.0
 10
11.1017652033
 20
10.9970693101
 30
0.0
 10
11.1022057619
 20
10.9998500843
 30
0.0
 10
11.1030336256
 20
11.0035812597
 30
0.0
 10
11.1045250368
 20
11.0082577179
 30
0.0
 10
11.1065677091
 20
11.0128237687
 30
0.0
 10
11.1085332331
 20
11.0164525386
 30
0.0
 10
11.1107838409
 20
11.0201644712
 30
0.0
 10
11.1140517809
 20
11.0247890144
 30
0.0
 10
11.1186078882
 20
11.0302235864
 30
0.0
 10
11.1219965519
 20
11.0337107313
 30
0.0
 10
11.1237946788
 20
11.0354475886
 30
0.0
  0
SPLINE
  5
371
100
AcDbEntity
  8
0
100
AcDbSpline
 62
7
  6
CONTINUOUS
 70
0
 71
3
 72
19
 73
15
 74
0
 42
0.0000001
 43
0.0000001
 44
0.0000000001
 40
0.0
 40
0.0
 40
0.0
 40
0.0
 40
0.12732766
 40
0.2538196711
 40
0.3795264658
 40
0.5045235362
 40
0.5668075958
 40
0.6289556124
 40
0.6909843715
 40
0.7529118454
 40
0.8147570127
 40
0.8765397119
 40
0.9382804145
 40
1.0
 40
1.0
 40
1.0
 40
1.0
 10
10.0982197817
 20
7.35590145
 30
0.0
 10
10.0982197817
 20
7.3626462141
 30
0.0
 10
10.0988637582
 20
7.3761007544
 30
0.0
 10
10.1017762211
 20
7.396024055
 30
0.0
 10
10.1066050595
 20
7.4154458157
 30
0.0
 10
10.1121988757
 20
7.4310853752
 30
0.0
 10
10.1175785957
 20
7.4431583481
 30
0.0
 10
10.1220522066
 20
7.4519692775
 30
0.0
 10
10.1269583449
 20
7.4605248704
 30
0.0
 10
10.132285844
 20
7.4688056762
 30
0.0
 10
10.1380224127
 20
7.4767924698
 30
0.0
 10
10.1441548306
 20
7.4844669602
 30
0.0
 10
10.1506687613
 20
7.4918111636
 30
0.0
 10
10.1552565889
 20
7.4964766569
 30
0.0
 10
10.1576081146
 20
7.4987480554
 30
0.0
  0
SPLINE
  5
372
100
AcDbEntity
  8
0
100
AcDbSpline
 62
7
  6
CONTINUOUS
 70
0
 71
3
 72
15
 73
11
 74
0
 42
0.0000001
 43
0.0000001
 44
0.0000000001
 40
0.0
 40
0.0
 40
0.0
 40
0.0
 40
0.1273481239
 40
0.2538605621
 40
0.3795879444
 40
0.5046050907
 40
0.6290174474
 40
0.7529533717
 40
0.8765605758
 40
1.0
 40
1.0
 40
1.0
 40
1.0
 10
11.0251482074
 20
8.7161907788
 30
0.0
 10
11.0251482074
 20
8.7195169586
 30
0.0
 10
11.0254657901
 20
8.7261520894
 30
0.0
 10
11.0269020276
 20
8.7359771738
 30
0.0
 10
11.0292835611
 20
8.745555392
 30
0.0
 10
11.0325888795
 20
8.754797159
 30
0.0
 10
11.0367876339
 20
8.763617257
 30
0.0
 10
11.0418415699
 20
8.7719342362
 30
0.0
 10
11.0477031483
 20
8.7796701822
 30
0.0
 10
11.0521166452
 20
8.7843957137
 30
0.0
 10
11.0544355734
 20
8.786635652
 30
0.0
  0
SPLINE
  5
373
100
AcDbEntity
  8
0
100
AcDbSpline
 62
7
  6
CONTINUOUS
 70
0
 71
3
 72
23
 73
19
 74
0
 42
0.0000001
 43
0.0000001
 44
0.0000000001
 40
0.0
 40
0.0
 40
0.0
 40
0.0
 40
0.0614488241
 40
0.1232974197
 40
0.1855193347
 40
0.2480712628
 40
0.3108995353
 40
0.3739401489
 40
0.4371217389
 40
0.5003679845
 40
0.5636003178
 40
0.6267406547
 40
0.6897141134
 40
0.7524516881
 40
0.8148925943
 40
0.8769871548
 40
0.9386967187
 40
1.0
 40
1.0
 40
1.0
 40
1.0
 10
11.1294682029
 20
8.6046361672
 30
0.0
 10
11.1260441807
 20
8.6048736239
 30
0.0
 10
11.1191927142
 20
8.6056875094
 30
0.0
 10
11.1090535846
 20
8.6078980344
 30
0.0
 10
11.0991109839
 20
8.6110809287
 30
0.0
 10
11.0894616366
 20
8.6152053577
 30
0.0
 10
11.080197816
 20
8.6202314343
 30
0.0
 10
11.0714084843
 20
8.6261107562
 30
0.0
 10
11.0631779315
 20
8.6327867594
 30
0.0
 10
11.055585133
 20
8.6401953033
 30
0.0
 10
11.0487029639
 20
8.6482652591
 30
0.0
 10
11.0425975167
 20
8.6569191825
 30
0.0
 10
11.0373274754
 20
8.6660740386
 30
0.0
 10
11.0329435807
 20
8.675642024
 30
0.0
 10
11.0294880887
 20
8.6855312451
 30
0.0
 10
11.0269945105
 20
8.6956471015
 30
0.0
 10
11.0254869939
 20
8.705891168
 30
0.0
 10
11.0251482074
 20
8.712766662
 30
0.0
 10
11.0251482074
 20
8.7161907788
 30
0.0
  0
SPLINE
  5
374
100
AcDbEntity
  8
0
100
AcDbSpline
 62
7
  6
CONTINUOUS
 70
0
 71
3
 72
18
 73
14
 74
0
 42
0.0000001
 43
0.0000001
 44
0.0000000001
 40
0.0
 40
0.0
 40
0.0
 40
0.0
 40
0.150467608
 40
0.291710008
 40
0.4244359371
 40
0.549562455
 40
0.6682139939
 40
0.7255497488
 40
0.7817912909
 40
0.8371402503
 40
0.8918093826
 40
0.9460201179
 40
1.0
 40
1.0
 40
1.0
 40
1.0
 10
12.8030876431
 20
8.6844387519
 30
0.0
 10
12.8006139389
 20
8.6820493369
 30
0.0
 10
12.7956700426
 20
8.6775661794
 30
0.0
 10
12.7880144593
 20
8.6715916066
 30
0.0
 10
12.7803678679
 20
8.6665947752
 30
0.0
 10
12.7727381852
 20
8.6625838869
 30
0.0
 10
12.7663255208
 20
8.660040531
 30
0.0
 10
12.7612341487
 20
8.6585294211
 30
0.0
 10
12.7574698523
 20
8.6576584389
 30
0.0
 10
12.7537180444
 20
8.6570376675
 30
0.0
 10
12.749979776
 20
8.6566673266
 30
0.0
 10
12.7462565341
 20
8.6565476091
 30
0.0
 10
12.7437829193
 20
8.6566350981
 30
0.0
 10
12.7425520489
 20
8.6567204539
 30
0.0
  0
SPLINE
  5
375
100
AcDbEntity
  8
0
100
AcDbSpline
 62
7
  6
CONTINUOUS
 70
0
 71
3
 72
19
 73
15
 74
0
 42
0.0000001
 43
0.0000001
 44
0.0000000001
 40
0.0
 40
0.0
 40
0.0
 40
0.0
 40
0.1504607152
 40
0.2916988954
 40
0.4244197706
 40
0.4878838785
 40
0.549580297
 40
0.6682271827
 40
0.7255606102
 40
0.7817998481
 40
0.8371466355
 40
0.8918135538
 40
0.9460221503
 40
1.0
 40
1.0
 40
1.0
 40
1.0
 10
12.8030876431
 20
6.9554315079
 30
0.0
 10
12.8011228024
 20
6.9535336174
 30
0.0
 10
12.7971958122
 20
6.9499726316
 30
0.0
 10
12.7911152531
 20
6.9452272027
 30
0.0
 10
12.7859792528
 20
6.941870982
 30
0.0
 10
12.781883631
 20
6.9395982457
 30
0.0
 10
12.7779088323
 20
6.9376470676
 30
0.0
 10
12.7738875001
 20
6.9360521481
 30
0.0
 10
12.76984354
 20
6.9348519741
 30
0.0
 10
12.7668535453
 20
6.9341601984
 30
0.0
 10
12.7638735074
 20
6.9336671251
 30
0.0
 10
12.7609042088
 20
6.9333730181
 30
0.0
 10
12.7579468512
 20
6.9332779968
 30
0.0
 10
12.7559820681
 20
6.9333474972
 30
0.0
 10
12.7550043915
 20
6.9334153028
 30
0.0
  0
SPLINE
  5
376
100
AcDbEntity
  8
0
100
AcDbSpline
 62
7
  6
CONTINUOUS
 70
0
 71
3
 72
15
 73
11
 74
0
 42
0.0000001
 43
0.0000001
 44
0.0000000001
 40
0.0
 40
0.0
 40
0.0
 40
0.0
 40
0.1273482228
 40
0.253860527
 40
0.3795879206
 40
0.5046050801
 40
0.6290174363
 40
0.7529533709
 40
0.8765605784
 40
1.0
 40
1.0
 40
1.0
 40
1.0
 10
11.0139174567
 20
8.2583234841
 30
0.0
 10
11.0139174567
 20
8.2618344362
 30
0.0
 10
11.0142526787
 20
8.2688381482
 30
0.0
 10
11.0157686956
 20
8.2792090166
 30
0.0
 10
11.0182825085
 20
8.2893193059
 30
0.0
 10
11.0217714169
 20
8.2990744619
 30
0.0
 10
11.0262033878
 20
8.3083845289
 30
0.0
 10
11.0315380375
 20
8.3171635383
 30
0.0
 10
11.0377252066
 20
8.3253292299
 30
0.0
 10
11.0423838306
 20
8.330317308
 30
0.0
 10
11.0448315837
 20
8.3326816663
 30
0.0
  0
SPLINE
  5
377
100
AcDbEntity
  8
0
100
AcDbSpline
 62
7
  6
CONTINUOUS
 70
0
 71
3
 72
15
 73
11
 74
0
 42
0.0000001
 43
0.0000001
 44
0.0000000001
 40
0.0
 40
0.0
 40
0.0
 40
0.0
 40
0.1273481239
 40
0.2538605621
 40
0.3795879444
 40
0.5046050907
 40
0.6290174474
 40
0.7529533717
 40
0.8765605758
 40
1.0
 40
1.0
 40
1.0
 40
1.0
 10
9.2748905866
 20
8.8375715571
 30
0.0
 10
9.2748905866
 20
8.8408977368
 30
0.0
 10
9.2752081693
 20
8.8475328677
 30
0.0
 10
9.2766444068
 20
8.857357952
 30
0.0
 10
9.2790259403
 20
8.8669361703
 30
0.0
 10
9.2823312587
 20
8.8761779373
 30
0.0
 10
9.2865300131
 20
8.8849980353
 30
0.0
 10
9.2915839491
 20
8.8933150145
 30
0.0
 10
9.2974455275
 20
8.9010509604
 30
0.0
 10
9.3018590244
 20
8.905776492
 30
0.0
 10
9.3041779526
 20
8.9080164303
 30
0.0
  0
SPLINE
  5
378
100
AcDbEntity
  8
0
100
AcDbSpline
 62
7
  6
CONTINUOUS
 70
0
 71
3
 72
23
 73
19
 74
0
 42
0.0000001
 43
0.0000001
 44
0.0000000001
 40
0.0
 40
0.0
 40
0.0
 40
0.0
 40
0.0614488241
 40
0.1232974197
 40
0.1855193347
 40
0.2480712628
 40
0.3108995353
 40
0.3739401489
 40
0.4371217389
 40
0.5003679845
 40
0.5636003178
 40
0.6267406547
 40
0.6897141134
 40
0.7524516881
 40
0.8148925943
 40
0.8769871548
 40
0.9386967187
 40
1.0
 40
1.0
 40
1.0
 40
1.0
 10
9.3792105821
 20
8.7260169454
 30
0.0
 10
9.3757865599
 20
8.7262544022
 30
0.0
 10
9.3689350934
 20
8.7270682877
 30
0.0
 10
9.3587959638
 20
8.7292788127
 30
0.0
 10
9.3488533631
 20
8.732461707
 30
0.0
 10
9.3392040158
 20
8.7365861359
 30
0.0
 10
9.3299401952
 20
8.7416122126
 30
0.0
 10
9.3211508635
 20
8.7474915345
 30
0.0
 10
9.3129203107
 20
8.7541675376
 30
0.0
 10
9.3053275122
 20
8.7615760816
 30
0.0
 10
9.2984453431
 20
8.7696460374
 30
0.0
 10
9.2923398959
 20
8.7782999608
 30
0.0
 10
9.2870698546
 20
8.7874548168
 30
0.0
 10
9.2826859599
 20
8.7970228023
 30
0.0
 10
9.2792304679
 20
8.8069120234
 30
0.0
 10
9.2767368897
 20
8.8170278798
 30
0.0
 10
9.2752293731
 20
8.8272719462
 30
0.0
 10
9.2748905866
 20
8.8341474403
 30
0.0
 10
9.2748905866
 20
8.8375715571
 30
0.0
  0
SPLINE
  5
379
100
AcDbEntity
  8
0
100
AcDbSpline
 62
7
  6
CONTINUOUS
 70
0
 71
3
 72
41
 73
37
 74
0
 42
0.0000001
 43
0.0000001
 44
0.0000000001
 40
0.0
 40
0.0
 40
0.0
 40
0.0
 40
0.0314020784
 40
0.0630083982
 40
0.0948055049
 40
0.126771282
 40
0.1588782638
 40
0.1749789448
 40
0.1911023253
 40
0.2233898662
 40
0.2557104464
 40
0.2718748258
 40
0.2880324029
 40
0.3202988625
 40
0.3524800457
 40
0.3845406751
 40
0.4164497397
 40
0.4481816557
 40
0.4797172777
 40
0.5110447164
 40
0.5421599259
 40
0.5730670198
 40
0.6037782729
 40
0.6343137895
 40
0.6647008283
 40
0.6949727907
 40
0.7251679042
 40
0.7553276492
 40
0.7854950112
 40
0.8157126511
 40
0.8460210933
 40
0.8764570331
 40
0.9070518096
 40
0.9378304114
 40
0.9688096448
 40
1.0
 40
1.0
 40
1.0
 40
1.0
 10
9.3737753866
 20
6.6478898883
 30
0.0
 10
9.3696855785
 20
6.6481735174
 30
0.0
 10
9.3615018761
 20
6.6491456631
 30
0.0
 10
9.3493912759
 20
6.6517859993
 30
0.0
 10
9.3375153015
 20
6.6555878454
 30
0.0
 10
9.3259900375
 20
6.6605140129
 30
0.0
 10
9.3167756817
 20
6.6655133477
 30
0.0
 10
9.3096865117
 20
6.6700214412
 30
0.0
 10
9.3027931383
 20
6.6748648569
 30
0.0
 10
9.2945952864
 20
6.6815141543
 30
0.0
 10
9.2870366942
 20
6.6888895821
 30
0.0
 10
9.2814133802
 20
6.6951858835
 30
0.0
 10
9.2760888001
 20
6.7017275624
 30
0.0
 10
9.2700129578
 20
6.7103392878
 30
0.0
 10
9.2637184486
 20
6.7212739429
 30
0.0
 10
9.2584820575
 20
6.7327024394
 30
0.0
 10
9.2543547115
 20
6.7445146092
 30
0.0
 10
9.2513762324
 20
6.7565972047
 30
0.0
 10
9.2495756319
 20
6.7688341483
 30
0.0
 10
9.2489706359
 20
6.7811078331
 30
0.0
 10
9.2495675382
 20
6.7933001672
 30
0.0
 10
9.2513610536
 20
6.8052937092
 30
0.0
 10
9.2543343679
 20
6.8169727887
 30
0.0
 10
9.258459252
 20
6.8282246203
 30
0.0
 10
9.2636962846
 20
6.8389404085
 30
0.0
 10
9.2699951959
 20
6.8490164272
 30
0.0
 10
9.2772952948
 20
6.858355091
 30
0.0
 10
9.2855260667
 20
6.8668659532
 30
0.0
 10
9.2946078849
 20
6.8744666242
 30
0.0
 10
9.3044528147
 20
6.8810836144
 30
0.0
 10
9.3149655035
 20
6.8866530698
 30
0.0
 10
9.3260441925
 20
6.8911213962
 30
0.0
 10
9.3375815988
 20
6.8944458342
 30
0.0
 10
9.3494665803
 20
6.8965946308
 30
0.0
 10
9.3615829931
 20
6.8975477628
 30
0.0
 10
9.3697131533
 20
6.897380483
 30
0.0
 10
9.3737753866
 20
6.8970987662
 30
0.0
  0
SPLINE
  5
37A
100
AcDbEntity
  8
0
100
AcDbSpline
 62
7
  6
CONTINUOUS
 70
0
 71
3
 72
15
 73
11
 74
0
 42
0.0000001
 43
0.0000001
 44
0.0000000001
 40
0.0
 40
0.0
 40
0.0
 40
0.0
 40
0.1273481239
 40
0.2538605621
 40
0.3795879444
 40
0.5046050907
 40
0.6290174474
 40
0.7529533717
 40
0.8765605758
 40
1.0
 40
1.0
 40
1.0
 40
1.0
 10
9.2748905866
 20
6.7849789395
 30
0.0
 10
9.2748905866
 20
6.7883051192
 30
0.0
 10
9.2752081693
 20
6.7949402501
 30
0.0
 10
9.2766444068
 20
6.8047653344
 30
0.0
 10
9.2790259403
 20
6.8143435527
 30
0.0
 10
9.2823312587
 20
6.8235853196
 30
0.0
 10
9.2865300131
 20
6.8324054176
 30
0.0
 10
9.2915839491
 20
6.8407223968
 30
0.0
 10
9.2974455275
 20
6.8484583428
 30
0.0
 10
9.3018590244
 20
6.8531838744
 30
0.0
 10
9.3041779526
 20
6.8554238127
 30
0.0
  0
SPLINE
  5
37B
100
AcDbEntity
  8
0
100
AcDbSpline
 62
7
  6
CONTINUOUS
 70
0
 71
3
 72
23
 73
19
 74
0
 42
0.0000001
 43
0.0000001
 44
0.0000000001
 40
0.0
 40
0.0
 40
0.0
 40
0.0
 40
0.0614488241
 40
0.1232974197
 40
0.1855193347
 40
0.2480712628
 40
0.3108995353
 40
0.3739401489
 40
0.4371217389
 40
0.5003679845
 40
0.5636003178
 40
0.6267406547
 40
0.6897141134
 40
0.7524516881
 40
0.8148925943
 40
0.8769871548
 40
0.9386967187
 40
1.0
 40
1.0
 40
1.0
 40
1.0
 10
9.3792105821
 20
6.6734243278
 30
0.0
 10
9.3757865599
 20
6.6736617845
 30
0.0
 10
9.3689350934
 20
6.67447567
 30
0.0
 10
9.3587959638
 20
6.676686195
 30
0.0
 10
9.3488533631
 20
6.6798690893
 30
0.0
 10
9.3392040158
 20
6.6839935183
 30
0.0
 10
9.3299401952
 20
6.689019595
 30
0.0
 10
9.3211508635
 20
6.6948989168
 30
0.0
 10
9.3129203107
 20
6.70157492
 30
0.0
 10
9.3053275122
 20
6.7089834639
 30
0.0
 10
9.2984453431
 20
6.7170534197
 30
0.0
 10
9.2923398959
 20
6.7257073432
 30
0.0
 10
9.2870698546
 20
6.7348621992
 30
0.0
 10
9.2826859599
 20
6.7444301847
 30
0.0
 10
9.2792304679
 20
6.7543194057
 30
0.0
 10
9.2767368897
 20
6.7644352622
 30
0.0
 10
9.2752293731
 20
6.7746793286
 30
0.0
 10
9.2748905866
 20
6.7815548227
 30
0.0
 10
9.2748905866
 20
6.7849789395
 30
0.0
  0
SPLINE
  5
37C
100
AcDbEntity
  8
0
100
AcDbSpline
 62
7
  6
CONTINUOUS
 70
0
 71
3
 72
17
 73
13
 74
0
 42
0.0000001
 43
0.0000001
 44
0.0000000001
 40
0.0
 40
0.0
 40
0.0
 40
0.0
 40
0.0548653995
 40
0.1099348206
 40
0.2214348222
 40
0.3360991408
 40
0.4553350478
 40
0.5170794787
 40
0.5804143716
 40
0.712316841
 40
0.8519520933
 40
1.0
 40
1.0
 40
1.0
 40
1.0
 10
9.3832679342
 20
10.62323555
 30
0.0
 10
9.3832679385
 20
10.6238569437
 30
0.0
 10
9.3833074035
 20
10.6251024393
 30
0.0
 10
9.3835447331
 20
10.6276004253
 30
0.0
 10
9.3841444025
 20
10.6307376718
 30
0.0
 10
9.3853359576
 20
10.6344725215
 30
0.0
 10
9.3867060181
 20
10.637535362
 30
0.0
 10
9.388024355
 20
10.6399691806
 30
0.0
 10
9.3895339042
 20
10.6424588485
 30
0.0
 10
9.3917257984
 20
10.6455606305
 30
0.0
 10
9.394781696
 20
10.6492056791
 30
0.0
 10
9.3970545189
 20
10.651544574
 30
0.0
 10
9.3982605353
 20
10.6527094965
 30
0.0
  0
SPLINE
  5
37D
100
AcDbEntity
  8
0
100
AcDbSpline
 62
7
  6
CONTINUOUS
 70
0
 71
3
 72
52
 73
48
 74
0
 42
0.0000001
 43
0.0000001
 44
0.0000000001
 40
0.0
 40
0.0
 40
0.0
 40
0.0
 40
0.0452106793
 40
0.0910035741
 40
0.1371918869
 40
0.1835906187
 40
0.230011408
 40
0.2762667211
 40
0.3221695517
 40
0.367534801
 40
0.4121801311
 40
0.4559269821
 40
0.498601566
 40
0.5400358865
 40
0.5800687993
 40
0.618547133
 40
0.6553269024
 40
0.6902746615
 40
0.7232690715
 40
0.7542028117
 40
0.7829849871
 40
0.7965470957
 40
0.8095464186
 40
0.8219779976
 40
0.8338384889
 40
0.845127035
 40
0.8558449785
 40
0.8659968239
 40
0.8755903645
 40
0.8846375113
 40
0.8931551272
 40
0.9011657414
 40
0.9086990941
 40
0.9157929042
 40
0.9224946525
 40
0.9288622307
 40
0.9349647151
 40
0.9408816352
 40
0.9467009595
 40
0.9525155267
 40
0.9584184295
 40
0.9644982871
 40
0.9708356665
 40
0.9775006651
 40
0.9845524004
 40
0.992039274
 40
1.0
 40
1.0
 40
1.0
 40
1.0
 10
13.2775025613
 20
10.8021490637
 30
0.0
 10
13.2775025613
 20
10.7977144131
 30
0.0
 10
13.2774234639
 20
10.7887878238
 30
0.0
 10
13.2770747321
 20
10.7753347847
 30
0.0
 10
13.2764964262
 20
10.7617729888
 30
0.0
 10
13.2756910752
 20
10.748161103
 30
0.0
 10
13.2746621102
 20
10.7345576993
 30
0.0
 10
13.2734139915
 20
10.7210214923
 30
0.0
 10
13.2719521049
 20
10.7076108313
 30
0.0
 10
13.2702827798
 20
10.6943835454
 30
0.0
 10
13.2684132451
 20
10.6813966585
 30
0.0
 10
13.2663516071
 20
10.6687061486
 30
0.0
 10
13.2641068124
 20
10.6563666997
 30
0.0
 10
13.2616886089
 20
10.6444314618
 30
0.0
 10
13.259107506
 20
10.6329518151
 30
0.0
 10
13.2563747296
 20
10.6219771412
 30
0.0
 10
13.2535021748
 20
10.6115545888
 30
0.0
 10
13.2505023514
 20
10.6017288804
 30
0.0
 10
13.2473883299
 20
10.5925419891
 30
0.0
 10
13.2441736529
 20
10.584033258
 30
0.0
 10
13.2413696594
 20
10.5774123464
 30
0.0
 10
13.2390781301
 20
10.5724906128
 30
0.0
 10
13.2373771273
 20
10.569064414
 30
0.0
 10
13.2356614886
 20
10.5658332941
 30
0.0
 10
13.233932937
 20
10.5628007102
 30
0.0
 10
13.2321933966
 20
10.559969837
 30
0.0
 10
13.2304446234
 20
10.5573436811
 30
0.0
 10
13.2286884837
 20
10.5549249668
 30
0.0
 10
13.2269267449
 20
10.5527162161
 30
0.0
 10
13.2251611421
 20
10.5507197295
 30
0.0
 10
13.2233934102
 20
10.5489375405
 30
0.0
 10
13.2216250905
 20
10.5473715959
 30
0.0
 10
13.2198578
 20
10.5460235372
 30
0.0
 10
13.2180929024
 20
10.5448951119
 30
0.0
 10
13.2163319068
 20
10.5439878498
 30
0.0
 10
13.2145762885
 20
10.5433035141
 30
0.0
 10
13.2128278936
 20
10.5428437791
 30
0.0
 10
13.2110890168
 20
10.5426102193
 30
0.0
 10
13.209362524
 20
10.5426040303
 30
0.0
 10
13.2076516419
 20
10.5428253992
 30
0.0
 10
13.2059595886
 20
10.543273824
 30
0.0
 10
13.2042890598
 20
10.5439476886
 30
0.0
 10
13.2026422355
 20
10.544845275
 30
0.0
 10
13.2010206696
 20
10.5459645129
 30
0.0
 10
13.1994256804
 20
10.5473036034
 30
0.0
 10
13.1978585366
 20
10.5488606171
 30
0.0
 10
13.1968647013
 20
10.5500062832
 30
0.0
 10
13.1963720025
 20
10.5506120755
 30
0.0
  0
SPLINE
  5
37E
100
AcDbEntity
  8
0
100
AcDbSpline
 62
7
  6
CONTINUOUS
 70
0
 71
3
 72
15
 73
11
 74
0
 42
0.0000001
 43
0.0000001
 44
0.0000000001
 40
0.0
 40
0.0
 40
0.0
 40
0.0
 40
0.1273481239
 40
0.2538605621
 40
0.3795879444
 40
0.5046050907
 40
0.6290174474
 40
0.7529533717
 40
0.8765605758
 40
1.0
 40
1.0
 40
1.0
 40
1.0
 10
11.0251482074
 20
6.6635981612
 30
0.0
 10
11.0251482074
 20
6.6669243409
 30
0.0
 10
11.0254657901
 20
6.6735594718
 30
0.0
 10
11.0269020276
 20
6.6833845561
 30
0.0
 10
11.0292835611
 20
6.6929627744
 30
0.0
 10
11.0325888795
 20
6.7022045414
 30
0.0
 10
11.0367876339
 20
6.7110246394
 30
0.0
 10
11.0418415699
 20
6.7193416186
 30
0.0
 10
11.0477031483
 20
6.7270775645
 30
0.0
 10
11.0521166452
 20
6.7318030961
 30
0.0
 10
11.0544355734
 20
6.7340430344
 30
0.0
  0
SPLINE
  5
37F
100
AcDbEntity
  8
0
100
AcDbSpline
 62
7
  6
CONTINUOUS
 70
0
 71
3
 72
23
 73
19
 74
0
 42
0.0000001
 43
0.0000001
 44
0.0000000001
 40
0.0
 40
0.0
 40
0.0
 40
0.0
 40
0.0614488241
 40
0.1232974197
 40
0.1855193347
 40
0.2480712628
 40
0.3108995353
 40
0.3739401489
 40
0.4371217389
 40
0.5003679845
 40
0.5636003178
 40
0.6267406547
 40
0.6897141134
 40
0.7524516881
 40
0.8148925943
 40
0.8769871548
 40
0.9386967187
 40
1.0
 40
1.0
 40
1.0
 40
1.0
 10
11.1294682029
 20
6.5520435495
 30
0.0
 10
11.1260441807
 20
6.5522810063
 30
0.0
 10
11.1191927142
 20
6.5530948918
 30
0.0
 10
11.1090535846
 20
6.5553054168
 30
0.0
 10
11.0991109839
 20
6.5584883111
 30
0.0
 10
11.0894616366
 20
6.56261274
 30
0.0
 10
11.080197816
 20
6.5676388167
 30
0.0
 10
11.0714084843
 20
6.5735181386
 30
0.0
 10
11.0631779315
 20
6.5801941417
 30
0.0
 10
11.055585133
 20
6.5876026857
 30
0.0
 10
11.0487029639
 20
6.5956726415
 30
0.0
 10
11.0425975167
 20
6.6043265649
 30
0.0
 10
11.0373274754
 20
6.6134814209
 30
0.0
 10
11.0329435807
 20
6.6230494064
 30
0.0
 10
11.0294880887
 20
6.6329386275
 30
0.0
 10
11.0269945105
 20
6.6430544839
 30
0.0
 10
11.0254869939
 20
6.6532985503
 30
0.0
 10
11.0251482074
 20
6.6601740444
 30
0.0
 10
11.0251482074
 20
6.6635981612
 30
0.0
  0
SPLINE
  5
380
100
AcDbEntity
  8
0
100
AcDbSpline
 62
7
  6
CONTINUOUS
 70
0
 71
3
 72
41
 73
37
 74
0
 42
0.0000001
 43
0.0000001
 44
0.0000000001
 40
0.0
 40
0.0
 40
0.0
 40
0.0
 40
0.0314020784
 40
0.0630083982
 40
0.0948055049
 40
0.126771282
 40
0.1588782638
 40
0.1749789448
 40
0.1911023253
 40
0.2233898662
 40
0.2557104464
 40
0.2718748258
 40
0.2880324029
 40
0.3202988625
 40
0.3524800457
 40
0.3845406751
 40
0.4164497397
 40
0.4481816557
 40
0.4797172777
 40
0.5110447164
 40
0.5421599259
 40
0.5730670198
 40
0.6037782729
 40
0.6343137895
 40
0.6647008283
 40
0.6949727907
 40
0.7251679042
 40
0.7553276492
 40
0.7854950112
 40
0.8157126511
 40
0.8460210933
 40
0.8764570331
 40
0.9070518096
 40
0.9378304114
 40
0.9688096448
 40
1.0
 40
1.0
 40
1.0
 40
1.0
 10
11.1240330074
 20
6.7757179879
 30
0.0
 10
11.1281228155
 20
6.7754343588
 30
0.0
 10
11.1363065179
 20
6.7744622131
 30
0.0
 10
11.1484171181
 20
6.7718218769
 30
0.0
 10
11.1602930925
 20
6.7680200308
 30
0.0
 10
11.1718183565
 20
6.7630938633
 30
0.0
 10
11.1810327123
 20
6.7580945284
 30
0.0
 10
11.1881218823
 20
6.753586435
 30
0.0
 10
11.1950152558
 20
6.7487430193
 30
0.0
 10
11.2032131076
 20
6.7420937219
 30
0.0
 10
11.2107716998
 20
6.7347182941
 30
0.0
 10
11.2163950138
 20
6.7284219927
 30
0.0
 10
11.2217195939
 20
6.7218803138
 30
0.0
 10
11.2277954363
 20
6.7132685884
 30
0.0
 10
11.2340899454
 20
6.7023339333
 30
0.0
 10
11.2393263365
 20
6.6909054368
 30
0.0
 10
11.2434536825
 20
6.679093267
 30
0.0
 10
11.2464321616
 20
6.6670106715
 30
0.0
 10
11.2482327621
 20
6.6547737279
 30
0.0
 10
11.2488377581
 20
6.6425000431
 30
0.0
 10
11.2482408558
 20
6.630307709
 30
0.0
 10
11.2464473404
 20
6.618314167
 30
0.0
 10
11.2434740261
 20
6.6066350874
 30
0.0
 10
11.239349142
 20
6.5953832559
 30
0.0
 10
11.2341121094
 20
6.5846674677
 30
0.0
 10
11.2278131981
 20
6.574591449
 30
0.0
 10
11.2205130992
 20
6.5652527852
 30
0.0
 10
11.2122823273
 20
6.556741923
 30
0.0
 10
11.2032005091
 20
6.549141252
 30
0.0
 10
11.1933555793
 20
6.5425242618
 30
0.0
 10
11.1828428905
 20
6.5369548064
 30
0.0
 10
11.1717642015
 20
6.53248648
 30
0.0
 10
11.1602267952
 20
6.5291620419
 30
0.0
 10
11.1483418137
 20
6.5270132454
 30
0.0
 10
11.136225401
 20
6.5260601134
 30
0.0
 10
11.1280952407
 20
6.5262273932
 30
0.0
 10
11.1240330074
 20
6.52650911
 30
0.0
  0
SPLINE
  5
381
100
AcDbEntity
  8
0
100
AcDbSpline
 62
7
  6
CONTINUOUS
 70
0
 71
3
 72
83
 73
79
 74
0
 42
0.0000001
 43
0.0000001
 44
0.0000000001
 40
0.0
 40
0.0
 40
0.0
 40
0.0
 40
0.003980149
 40
0.0081240919
 40
0.0124359835
 40
0.0169193603
 40
0.0215772246
 40
0.0264119606
 40
0.0314252324
 40
0.0366182158
 40
0.0419916195
 40
0.0475457334
 40
0.0532805161
 40
0.0591955185
 40
0.0715625327
 40
0.0846382143
 40
0.0984095328
 40
0.1128601134
 40
0.1279706583
 40
0.1437192718
 40
0.1600817502
 40
0.1770318183
 40
0.1945413264
 40
0.2125804203
 40
0.2311176863
 40
0.2501203005
 40
0.269554164
 40
0.2893840224
 40
0.3095735802
 40
0.3300856048
 40
0.3508820422
 40
0.3719241252
 40
0.4145864312
 40
0.4577527569
 40
0.5010975799
 40
0.5442936399
 40
0.5870151259
 40
0.6080976714
 40
0.6289416876
 40
0.6495082871
 40
0.6697592834
 40
0.6896572915
 40
0.7091658343
 40
0.7282494515
 40
0.7468738239
 40
0.7650058946
 40
0.78261399
 40
0.7996679565
 40
0.8161393115
 40
0.8320014232
 40
0.8472297058
 40
0.8618018332
 40
0.8756980061
 40
0.8889012771
 40
0.9013979681
 40
0.9131781873
 40
0.9187980573
 40
0.924237173
 40
0.9294957148
 40
0.9345742409
 40
0.9394737433
 40
0.9441957547
 40
0.948742307
 40
0.9531161074
 40
0.9573205402
 40
0.9613597705
 40
0.9652388909
 40
0.9689639409
 40
0.9725421207
 40
0.975981843
 40
0.9792928682
 40
0.9824864417
 40
0.9855753029
 40
0.9885737828
 40
0.9914977139
 40
0.9943643205
 40
0.9971920042
 40
1.0
 40
1.0
 40
1.0
 40
1.0
 10
11.1237946788
 20
11.0354475886
 30
0.0
 10
11.1250939159
 20
11.0367025553
 30
0.0
 10
11.127804862
 20
11.039203624
 30
0.0
 10
11.1321090258
 20
11.0428566422
 30
0.0
 10
11.1367292707
 20
11.0464834893
 30
0.0
 10
11.1416630602
 20
11.0500821792
 30
0.0
 10
11.1469079508
 20
11.0536510651
 30
0.0
 10
11.152461408
 20
11.057188379
 30
0.0
 10
11.1583206486
 20
11.0606924623
 30
0.0
 10
11.1644827622
 20
11.0641615099
 30
0.0
 10
11.1709446554
 20
11.0675937922
 30
0.0
 10
11.1777030785
 20
11.0709876231
 30
0.0
 10
11.1847546789
 20
11.0743412731
 30
0.0
 10
11.1946909197
 20
11.0788236655
 30
0.0
 10
11.2078297282
 20
11.0843012261
 30
0.0
 10
11.224480225
 20
11.0905939
 30
0.0
 10
11.2422074571
 20
11.096687365
 30
0.0
 10
11.2609757461
 20
11.1025692539
 30
0.0
 10
11.2807475173
 20
11.1082276073
 30
0.0
 10
11.3014829978
 20
11.1136509145
 30
0.0
 10
11.3231404323
 20
11.1188281335
 30
0.0
 10
11.3456761548
 20
11.1237487176
 30
0.0
 10
11.3690446953
 20
11.1284026415
 30
0.0
 10
11.3931988693
 20
11.1327804191
 30
0.0
 10
11.4180898755
 20
11.1368731399
 30
0.0
 10
11.4436674031
 20
11.1406724742
 30
0.0
 10
11.4698797427
 20
11.1441706884
 30
0.0
 10
11.496673892
 20
11.1473606608
 30
0.0
 10
11.5239956652
 20
11.1502358973
 30
0.0
 10
11.5517897828
 20
11.1527905431
 30
0.0
 10
11.5800000612
 20
11.1550194415
 30
0.0
 10
11.6182666603
 20
11.1575623387
 30
0.0
 10
11.6667186196
 20
11.1598879601
 30
0.0
 10
11.7253310353
 20
11.1613140667
 30
0.0
 10
11.7842031962
 20
11.1613761889
 30
0.0
 10
11.8428588448
 20
11.1600737813
 30
0.0
 10
11.8913743779
 20
11.1578508322
 30
0.0
 10
11.9297132529
 20
11.1553894301
 30
0.0
 10
11.9579930998
 20
11.1532202858
 30
0.0
 10
11.9858671027
 20
11.1507245147
 30
0.0
 10
12.0132789209
 20
11.1479071627
 30
0.0
 10
12.0401730949
 20
11.1447739706
 30
0.0
 10
12.0664952313
 20
11.14133131
 30
0.0
 10
12.0921920969
 20
11.1375861819
 30
0.0
 10
12.1172117386
 20
11.13354621
 30
0.0
 10
12.1415035907
 20
11.1292196249
 30
0.0
 10
12.1650185757
 20
11.1246152379
 30
0.0
 10
12.1877092028
 20
11.1197424267
 30
0.0
 10
12.2095296723
 20
11.114611112
 30
0.0
 10
12.2304359833
 20
11.1092317467
 30
0.0
 10
12.25038603
 20
11.1036152932
 30
0.0
 10
12.2693397016
 20
11.0977731837
 30
0.0
 10
12.2872589354
 20
11.0917172991
 30
0.0
 10
12.3041079482
 20
11.0854599099
 30
0.0
 10
12.3198528875
 20
11.079013695
 30
0.0
 10
12.3322147845
 20
11.0734107113
 30
0.0
 10
12.3415153236
 20
11.0688328171
 30
0.0
 10
12.3480854591
 20
11.0654142862
 30
0.0
 10
12.3543569695
 20
11.0619584192
 30
0.0
 10
12.3603267304
 20
11.058466902
 30
0.0
 10
12.3659917378
 20
11.0549414382
 30
0.0
 10
12.3713492041
 20
11.0513838374
 30
0.0
 10
12.3763964244
 20
11.0477957721
 30
0.0
 10
12.3811309158
 20
11.0441790385
 30
0.0
 10
12.3855503249
 20
11.0405353723
 30
0.0
 10
12.3896524153
 20
11.0368664659
 30
0.0
 10
12.3934351888
 20
11.0331741145
 30
0.0
 10
12.3968966612
 20
11.0294599467
 30
0.0
 10
12.4000350878
 20
11.0257257109
 30
0.0
 10
12.4028487883
 20
11.021973079
 30
0.0
 10
12.4053361326
 20
11.0182037018
 30
0.0
 10
12.4074957196
 20
11.0144193474
 30
0.0
 10
12.4093260282
 20
11.0106217074
 30
0.0
 10
12.4108258052
 20
11.0068126675
 30
0.0
 10
12.4119938156
 20
11.0029942155
 30
0.0
 10
12.4128289318
 20
10.9991683728
 30
0.0
 10
12.4133304346
 20
10.9953378522
 30
0.0
 10
12.4134420392
 20
10.9927787553
 30
0.0
 10
12.4134420443
 20
10.9915043637
 30
0.0
  0
SPLINE
  5
382
100
AcDbEntity
  8
0
100
AcDbSpline
 62
7
  6
CONTINUOUS
 70
0
 71
3
 72
52
 73
48
 74
0
 42
0.0000001
 43
0.0000001
 44
0.0000000001
 40
0.0
 40
0.0
 40
0.0
 40
0.0
 40
0.0452106793
 40
0.0910035741
 40
0.1371918869
 40
0.1835906187
 40
0.230011408
 40
0.2762667211
 40
0.3221695517
 40
0.367534801
 40
0.4121801311
 40
0.4559269821
 40
0.498601566
 40
0.5400358865
 40
0.5800687993
 40
0.618547133
 40
0.6553269024
 40
0.6902746615
 40
0.7232690715
 40
0.7542028117
 40
0.7829849871
 40
0.7965470957
 40
0.8095464186
 40
0.8219779976
 40
0.8338384889
 40
0.845127035
 40
0.8558449785
 40
0.8659968239
 40
0.8755903645
 40
0.8846375113
 40
0.8931551272
 40
0.9011657414
 40
0.9086990941
 40
0.9157929042
 40
0.9224946525
 40
0.9288622307
 40
0.9349647151
 40
0.9408816352
 40
0.9467009595
 40
0.9525155267
 40
0.9584184295
 40
0.9644982871
 40
0.9708356665
 40
0.9775006651
 40
0.9845524004
 40
0.992039274
 40
1.0
 40
1.0
 40
1.0
 40
1.0
 10
13.2775025613
 20
6.8186707076
 30
0.0
 10
13.2775025613
 20
6.814236057
 30
0.0
 10
13.2774234639
 20
6.8053094677
 30
0.0
 10
13.2770747321
 20
6.7918564286
 30
0.0
 10
13.2764964262
 20
6.7782946327
 30
0.0
 10
13.2756910752
 20
6.7646827469
 30
0.0
 10
13.2746621102
 20
6.7510793432
 30
0.0
 10
13.2734139915
 20
6.7375431362
 30
0.0
 10
13.2719521049
 20
6.7241324753
 30
0.0
 10
13.2702827798
 20
6.7109051893
 30
0.0
 10
13.2684132451
 20
6.6979183024
 30
0.0
 10
13.2663516071
 20
6.6852277926
 30
0.0
 10
13.2641068124
 20
6.6728883436
 30
0.0
 10
13.2616886089
 20
6.6609531058
 30
0.0
 10
13.259107506
 20
6.649473459
 30
0.0
 10
13.2563747296
 20
6.6384987851
 30
0.0
 10
13.2535021748
 20
6.6280762327
 30
0.0
 10
13.2505023514
 20
6.6182505243
 30
0.0
 10
13.2473883299
 20
6.609063633
 30
0.0
 10
13.2441736529
 20
6.600554902
 30
0.0
 10
13.2413696594
 20
6.5939339904
 30
0.0
 10
13.2390781301
 20
6.5890122568
 30
0.0
 10
13.2373771273
 20
6.5855860579
 30
0.0
 10
13.2356614886
 20
6.582354938
 30
0.0
 10
13.233932937
 20
6.5793223541
 30
0.0
 10
13.2321933966
 20
6.5764914809
 30
0.0
 10
13.2304446234
 20
6.573865325
 30
0.0
 10
13.2286884837
 20
6.5714466107
 30
0.0
 10
13.2269267449
 20
6.56923786
 30
0.0
 10
13.2251611421
 20
6.5672413734
 30
0.0
 10
13.2233934102
 20
6.5654591845
 30
0.0
 10
13.2216250905
 20
6.5638932398
 30
0.0
 10
13.2198578
 20
6.5625451811
 30
0.0
 10
13.2180929024
 20
6.5614167558
 30
0.0
 10
13.2163319068
 20
6.5605094937
 30
0.0
 10
13.2145762885
 20
6.559825158
 30
0.0
 10
13.2128278936
 20
6.559365423
 30
0.0
 10
13.2110890168
 20
6.5591318632
 30
0.0
 10
13.209362524
 20
6.5591256743
 30
0.0
 10
13.2076516419
 20
6.5593470431
 30
0.0
 10
13.2059595886
 20
6.5597954679
 30
0.0
 10
13.2042890598
 20
6.5604693325
 30
0.0
 10
13.2026422355
 20
6.5613669189
 30
0.0
 10
13.2010206696
 20
6.5624861568
 30
0.0
 10
13.1994256804
 20
6.5638252473
 30
0.0
 10
13.1978585366
 20
6.565382261
 30
0.0
 10
13.1968647013
 20
6.5665279271
 30
0.0
 10
13.1963720025
 20
6.5671337195
 30
0.0
  0
SPLINE
  5
383
100
AcDbEntity
  8
0
100
AcDbSpline
 62
7
  6
CONTINUOUS
 70
0
 71
3
 72
51
 73
47
 74
0
 42
0.0000001
 43
0.0000001
 44
0.0000000001
 40
0.0
 40
0.0
 40
0.0
 40
0.0
 40
0.0102472745
 40
0.0209499152
 40
0.0321034225
 40
0.0437020225
 40
0.0557386566
 40
0.0682052271
 40
0.0810926297
 40
0.0943908363
 40
0.1080890381
 40
0.1221755925
 40
0.1366382127
 40
0.1514639045
 40
0.1821489713
 40
0.214116137
 40
0.2472420692
 40
0.281396537
 40
0.3164433829
 40
0.352241432
 40
0.3886453705
 40
0.4255065981
 40
0.4626740601
 40
0.4999950695
 40
0.5373161229
 40
0.5744837161
 40
0.6113451607
 40
0.647749401
 40
0.6835478365
 40
0.718595153
 40
0.7527501721
 40
0.7858767283
 40
0.8178445877
 40
0.8485304155
 40
0.863356521
 40
0.8778195534
 40
0.8919065511
 40
0.9056051978
 40
0.9189038672
 40
0.9317917494
 40
0.944258796
 40
0.9562959346
 40
0.9678950284
 40
0.9790490532
 40
0.9897522098
 40
1.0
 40
1.0
 40
1.0
 40
1.0
 10
11.184326225
 20
10.9089397869
 30
0.0
 10
11.1879398018
 20
10.9106191404
 30
0.0
 10
11.1953801621
 20
10.9139401267
 30
0.0
 10
11.2069154379
 20
10.9187164242
 30
0.0
 10
11.2190569719
 20
10.9233913425
 30
0.0
 10
11.2317913799
 20
10.9279595957
 30
0.0
 10
11.2451047545
 20
10.9324162262
 30
0.0
 10
11.2589824997
 20
10.9367562746
 30
0.0
 10
11.2734093916
 20
10.940974945
 30
0.0
 10
11.2883695817
 20
10.9450676046
 30
0.0
 10
11.3038466355
 20
10.9490296736
 30
0.0
 10
11.3198235226
 20
10.9528568214
 30
0.0
 10
11.3362826894
 20
10.9565447969
 30
0.0
 10
11.3591091602
 20
10.9613258541
 30
0.0
 10
11.3887192099
 20
10.9669076628
 30
0.0
 10
11.4254788178
 20
10.9729161491
 30
0.0
 10
11.4637003092
 20
10.978282411
 30
0.0
 10
11.5032153693
 20
10.9829825603
 30
0.0
 10
11.5438501806
 20
10.9869956243
 30
0.0
 10
11.5854258372
 20
10.990303728
 30
0.0
 10
11.627759259
 20
10.9928921411
 30
0.0
 10
11.6706639861
 20
10.9947493421
 30
0.0
 10
11.7139510194
 20
10.9958670658
 30
0.0
 10
11.7574296593
 20
10.9962403376
 30
0.0
 10
11.800908354
 20
10.9958674936
 30
0.0
 10
11.8441955508
 20
10.9947501925
 30
0.0
 10
11.8871005489
 20
10.992893409
 30
0.0
 10
11.9294343485
 20
10.9903054077
 30
0.0
 10
11.9710104893
 20
10.9869977093
 30
0.0
 10
12.0116458901
 20
10.9829850442
 30
0.0
 10
12.051161641
 20
10.9782852844
 30
0.0
 10
12.0893839182
 20
10.9729193945
 30
0.0
 10
12.126144404
 20
10.966911268
 30
0.0
 10
12.1557552458
 20
10.961329742
 30
0.0
 10
12.1785823979
 20
10.9565489272
 30
0.0
 10
12.195042103
 20
10.9528610975
 30
0.0
 10
12.2110195507
 20
10.9490341195
 30
0.0
 10
12.2264971835
 20
10.9450721936
 30
0.0
 10
12.2414579727
 20
10.9409796807
 30
0.0
 10
12.2558854831
 20
10.9367611601
 30
0.0
 10
12.2697638606
 20
10.9324212318
 30
0.0
 10
12.2830778894
 20
10.9279647498
 30
0.0
 10
12.2958129619
 20
10.9233966035
 30
0.0
 10
12.3079551822
 20
10.9187218156
 30
0.0
 10
12.3194911548
 20
10.9139456267
 30
0.0
 10
12.3269319902
 20
10.9106247209
 30
0.0
 10
12.3305458043
 20
10.9089454023
 30
0.0
  0
SPLINE
  5
384
100
AcDbEntity
  8
0
100
AcDbSpline
 62
7
  6
CONTINUOUS
 70
0
 71
3
 72
39
 73
35
 74
0
 42
0.0000001
 43
0.0000001
 44
0.0000000001
 40
0.0
 40
0.0
 40
0.0
 40
0.0
 40
0.0250746545
 40
0.051284679
 40
0.0785747893
 40
0.1068851604
 40
0.1361519063
 40
0.1663074985
 40
0.1972811447
 40
0.2289991362
 40
0.2613851756
 40
0.2943606863
 40
0.3278451124
 40
0.3617562157
 40
0.3960103624
 40
0.4305228066
 40
0.465207969
 40
0.4999797151
 40
0.5347516322
 40
0.569437306
 40
0.6039505994
 40
0.6382059301
 40
0.6721185484
 40
0.7056048168
 40
0.7385824925
 40
0.7709710138
 40
0.8026917925
 40
0.8336685189
 40
0.8638274739
 40
0.8930978537
 40
0.9214121179
 40
0.9487063672
 40
0.9749207624
 40
1.0
 40
1.0
 40
1.0
 40
1.0
 10
11.3604187034
 20
10.856373572
 30
0.0
 10
11.3668668044
 20
10.8581838058
 30
0.0
 10
11.3801063873
 20
10.8617049817
 30
0.0
 10
11.4005162213
 20
10.8666013462
 30
0.0
 10
11.4218757731
 20
10.8712197261
 30
0.0
 10
11.444128166
 20
10.8755476643
 30
0.0
 10
11.4672143639
 20
10.8795735543
 30
0.0
 10
11.4910729998
 20
10.8832865842
 30
0.0
 10
11.5156406437
 20
10.8866767904
 30
0.0
 10
11.54085195
 20
10.8897350768
 30
0.0
 10
11.5666398437
 20
10.8924532403
 30
0.0
 10
11.5929356988
 20
10.8948239916
 30
0.0
 10
11.6196695254
 20
10.8968409779
 30
0.0
 10
11.6467701592
 20
10.8984987948
 30
0.0
 10
11.6741654537
 20
10.8997930012
 30
0.0
 10
11.7017824739
 20
10.90072013
 30
0.0
 10
11.7295476914
 20
10.9012776972
 30
0.0
 10
11.7573871803
 20
10.9014642087
 30
0.0
 10
11.7852268157
 20
10.9012791632
 30
0.0
 10
11.8129924715
 20
10.900723056
 30
0.0
 10
11.8406102204
 20
10.8997973784
 30
0.0
 10
11.8680065315
 20
10.8985046109
 30
0.0
 10
11.8951084674
 20
10.8968482174
 30
0.0
 10
11.921843879
 20
10.8948326358
 30
0.0
 10
11.9481415989
 20
10.8924632671
 30
0.0
 10
11.973931632
 20
10.8897464616
 30
0.0
 10
11.9991453453
 20
10.8866895016
 30
0.0
 10
12.0237156556
 20
10.8833005858
 30
0.0
 10
12.0475772097
 20
10.879588808
 30
0.0
 10
12.0706665708
 20
10.8755641289
 30
0.0
 10
12.0929223643
 20
10.8712373572
 30
0.0
 10
12.114285547
 20
10.8666200986
 30
0.0
 10
12.134699232
 20
10.8617248009
 30
0.0
 10
12.1479414838
 20
10.858204359
 30
0.0
 10
12.1543909539
 20
10.8563944732
 30
0.0
  0
SPLINE
  5
385
100
AcDbEntity
  8
0
100
AcDbSpline
 62
7
  6
CONTINUOUS
 70
0
 71
3
 72
41
 73
37
 74
0
 42
0.0000001
 43
0.0000001
 44
0.0000000001
 40
0.0
 40
0.0
 40
0.0
 40
0.0
 40
0.0314020784
 40
0.0630083982
 40
0.0948055049
 40
0.126771282
 40
0.1588782638
 40
0.1749789448
 40
0.1911023253
 40
0.2233898662
 40
0.2557104464
 40
0.2718748258
 40
0.2880324029
 40
0.3202988625
 40
0.3524800457
 40
0.3845406751
 40
0.4164497397
 40
0.4481816557
 40
0.4797172777
 40
0.5110447164
 40
0.5421599259
 40
0.5730670198
 40
0.6037782729
 40
0.6343137895
 40
0.6647008283
 40
0.6949727907
 40
0.7251679042
 40
0.7553276492
 40
0.7854950112
 40
0.8157126511
 40
0.8460210933
 40
0.8764570331
 40
0.9070518096
 40
0.9378304114
 40
0.9688096448
 40
1.0
 40
1.0
 40
1.0
 40
1.0
 10
11.1240330074
 20
6.52650911
 30
0.0
 10
11.1199431993
 20
6.5267927391
 30
0.0
 10
11.1117594969
 20
6.5277648848
 30
0.0
 10
11.0996488967
 20
6.530405221
 30
0.0
 10
11.0877729223
 20
6.5342070671
 30
0.0
 10
11.0762476583
 20
6.5391332346
 30
0.0
 10
11.0670333025
 20
6.5441325695
 30
0.0
 10
11.0599441325
 20
6.5486406629
 30
0.0
 10
11.0530507591
 20
6.5534840786
 30
0.0
 10
11.0448529072
 20
6.560133376
 30
0.0
 10
11.037294315
 20
6.5675088038
 30
0.0
 10
11.031671001
 20
6.5738051052
 30
0.0
 10
11.0263464209
 20
6.5803467841
 30
0.0
 10
11.0202705786
 20
6.5889585096
 30
0.0
 10
11.0139760694
 20
6.5998931646
 30
0.0
 10
11.0087396783
 20
6.6113216611
 30
0.0
 10
11.0046123323
 20
6.6231338309
 30
0.0
 10
11.0016338532
 20
6.6352164264
 30
0.0
 10
10.9998332527
 20
6.6474533701
 30
0.0
 10
10.9992282567
 20
6.6597270548
 30
0.0
 10
10.999825159
 20
6.6719193889
 30
0.0
 10
11.0016186744
 20
6.6839129309
 30
0.0
 10
11.0045919887
 20
6.6955920105
 30
0.0
 10
11.0087168728
 20
6.7068438421
 30
0.0
 10
11.0139539054
 20
6.7175596302
 30
0.0
 10
11.0202528167
 20
6.727635649
 30
0.0
 10
11.0275529156
 20
6.7369743127
 30
0.0
 10
11.0357836875
 20
6.7454851749
 30
0.0
 10
11.0448655057
 20
6.7530858459
 30
0.0
 10
11.0547104355
 20
6.7597028361
 30
0.0
 10
11.0652231243
 20
6.7652722915
 30
0.0
 10
11.0763018133
 20
6.7697406179
 30
0.0
 10
11.0878392196
 20
6.773065056
 30
0.0
 10
11.0997242011
 20
6.7752138525
 30
0.0
 10
11.1118406139
 20
6.7761669845
 30
0.0
 10
11.1199707741
 20
6.7759997048
 30
0.0
 10
11.1240330074
 20
6.7757179879
 30
0.0
  0
SPLINE
  5
386
100
AcDbEntity
  8
0
100
AcDbSpline
 62
7
  6
CONTINUOUS
 70
0
 71
3
 72
15
 73
11
 74
0
 42
0.0000001
 43
0.0000001
 44
0.0000000001
 40
0.0
 40
0.0
 40
0.0
 40
0.0
 40
0.123345499
 40
0.2480989744
 40
0.373796227
 40
0.4999684933
 40
0.6261447213
 40
0.7518538406
 40
0.8766270315
 40
1.0
 40
1.0
 40
1.0
 40
1.0
 10
11.6219466648
 20
10.8254260778
 30
0.0
 10
11.633048632
 20
10.8261708961
 30
0.0
 10
11.6553928478
 20
10.82747365
 30
0.0
 10
11.6890854827
 20
10.8288667872
 30
0.0
 10
11.7230515944
 20
10.8297068074
 30
0.0
 10
11.7571552149
 20
10.8299903185
 30
0.0
 10
11.7912599824
 20
10.8297161775
 30
0.0
 10
11.8252295306
 20
10.8288854898
 30
0.0
 10
11.8589278779
 20
10.827501611
 30
0.0
 10
11.8812767159
 20
10.8262050365
 30
0.0
 10
11.8923813729
 20
10.8254633006
 30
0.0
  0
SPLINE
  5
387
100
AcDbEntity
  8
0
100
AcDbSpline
 62
7
  6
CONTINUOUS
 70
0
 71
3
 72
23
 73
19
 74
0
 42
0.0000001
 43
0.0000001
 44
0.0000000001
 40
0.0
 40
0.0
 40
0.0
 40
0.0
 40
0.0614195188
 40
0.1232743241
 40
0.1855380895
 40
0.2481634823
 40
0.3110896626
 40
0.3742430664
 40
0.4375409515
 40
0.5008947616
 40
0.5642136994
 40
0.6274083612
 40
0.6903943383
 40
0.75309568
 40
0.8154480975
 40
0.8774018037
 40
0.9389238716
 40
1.0
 40
1.0
 40
1.0
 40
1.0
 10
11.1109745185
 20
8.3520734123
 30
0.0
 10
11.1109745185
 20
8.3481924705
 30
0.0
 10
11.1113870143
 20
8.3403971353
 30
0.0
 10
11.1132204942
 20
8.3287977235
 30
0.0
 10
11.1162499117
 20
8.3173719738
 30
0.0
 10
11.1204414477
 20
8.3062479277
 30
0.0
 10
11.1257483126
 20
8.2955481396
 30
0.0
 10
11.1321115914
 20
8.2853909698
 30
0.0
 10
11.1394607218
 20
8.2758885998
 30
0.0
 10
11.1477143602
 20
8.267146041
 30
0.0
 10
11.1567812438
 20
8.2592599463
 30
0.0
 10
11.1665611879
 20
8.2523175876
 30
0.0
 10
11.1769461318
 20
8.2463958831
 30
0.0
 10
11.1878213583
 20
8.2415605398
 30
0.0
 10
11.1990665482
 20
8.2378653661
 30
0.0
 10
11.210557825
 20
8.2353516966
 30
0.0
 10
11.2221662647
 20
8.2340478137
 30
0.0
 10
11.2299298922
 20
8.2339950787
 30
0.0
 10
11.233784932
 20
8.2341751658
 30
0.0
  0
SPLINE
  5
388
100
AcDbEntity
  8
0
100
AcDbSpline
 62
7
  6
CONTINUOUS
 70
0
 71
3
 72
41
 73
37
 74
0
 42
0.0000001
 43
0.0000001
 44
0.0000000001
 40
0.0
 40
0.0
 40
0.0
 40
0.0
 40
0.0314020784
 40
0.0630083982
 40
0.0948055049
 40
0.126771282
 40
0.1588782638
 40
0.1749789448
 40
0.1911023253
 40
0.2233898662
 40
0.2557104464
 40
0.2718748258
 40
0.2880324029
 40
0.3202988625
 40
0.3524800457
 40
0.3845406751
 40
0.4164497397
 40
0.4481816557
 40
0.4797172777
 40
0.5110447164
 40
0.5421599259
 40
0.5730670198
 40
0.6037782729
 40
0.6343137895
 40
0.6647008283
 40
0.6949727907
 40
0.7251679042
 40
0.7553276492
 40
0.7854950112
 40
0.8157126511
 40
0.8460210933
 40
0.8764570331
 40
0.9070518096
 40
0.9378304114
 40
0.9688096448
 40
1.0
 40
1.0
 40
1.0
 40
1.0
 10
11.1240330074
 20
8.8283106056
 30
0.0
 10
11.1281228155
 20
8.8280269764
 30
0.0
 10
11.1363065179
 20
8.8270548308
 30
0.0
 10
11.1484171181
 20
8.8244144946
 30
0.0
 10
11.1602930925
 20
8.8206126485
 30
0.0
 10
11.1718183565
 20
8.8156864809
 30
0.0
 10
11.1810327123
 20
8.8106871461
 30
0.0
 10
11.1881218823
 20
8.8061790526
 30
0.0
 10
11.1950152558
 20
8.8013356369
 30
0.0
 10
11.2032131076
 20
8.7946863395
 30
0.0
 10
11.2107716998
 20
8.7873109117
 30
0.0
 10
11.2163950138
 20
8.7810146104
 30
0.0
 10
11.2217195939
 20
8.7744729315
 30
0.0
 10
11.2277954363
 20
8.765861206
 30
0.0
 10
11.2340899454
 20
8.7549265509
 30
0.0
 10
11.2393263365
 20
8.7434980544
 30
0.0
 10
11.2434536825
 20
8.7316858846
 30
0.0
 10
11.2464321616
 20
8.7196032891
 30
0.0
 10
11.2482327621
 20
8.7073663455
 30
0.0
 10
11.2488377581
 20
8.6950926607
 30
0.0
 10
11.2482408558
 20
8.6829003267
 30
0.0
 10
11.2464473404
 20
8.6709067847
 30
0.0
 10
11.2434740261
 20
8.6592277051
 30
0.0
 10
11.239349142
 20
8.6479758735
 30
0.0
 10
11.2341121094
 20
8.6372600854
 30
0.0
 10
11.2278131981
 20
8.6271840666
 30
0.0
 10
11.2205130992
 20
8.6178454029
 30
0.0
 10
11.2122823273
 20
8.6093345406
 30
0.0
 10
11.2032005091
 20
8.6017338696
 30
0.0
 10
11.1933555793
 20
8.5951168795
 30
0.0
 10
11.1828428905
 20
8.589547424
 30
0.0
 10
11.1717642015
 20
8.5850790977
 30
0.0
 10
11.1602267952
 20
8.5817546596
 30
0.0
 10
11.1483418137
 20
8.579605863
 30
0.0
 10
11.136225401
 20
8.5786527311
 30
0.0
 10
11.1280952407
 20
8.5788200108
 30
0.0
 10
11.1240330074
 20
8.5791017276
 30
0.0
  0
SPLINE
  5
389
100
AcDbEntity
  8
0
100
AcDbSpline
 62
7
  6
CONTINUOUS
 70
0
 71
3
 72
41
 73
37
 74
0
 42
0.0000001
 43
0.0000001
 44
0.0000000001
 40
0.0
 40
0.0
 40
0.0
 40
0.0
 40
0.0836615477
 40
0.1687457247
 40
0.2542145043
 40
0.3390215701
 40
0.4221313981
 40
0.4627344102
 40
0.5025378963
 40
0.5414226476
 40
0.5792733112
 40
0.6159788806
 40
0.651433253
 40
0.6855359293
 40
0.7181928187
 40
0.7493169208
 40
0.7788292263
 40
0.8066599481
 40
0.8327500398
 40
0.8570529122
 40
0.8795369316
 40
0.9001890675
 40
0.9098319474
 40
0.9190231926
 40
0.9277692152
 40
0.9360787781
 40
0.9439636908
 40
0.9514394407
 40
0.9585253817
 40
0.965245831
 40
0.9716305298
 40
0.977715194
 40
0.9835423143
 40
0.9891609745
 40
0.9946266199
 40
1.0
 40
1.0
 40
1.0
 40
1.0
 10
13.244434454
 20
10.7972077229
 30
0.0
 10
13.244434454
 20
10.7904607835
 30
0.0
 10
13.2442241521
 20
10.7768514042
 30
0.0
 10
13.2433113029
 20
10.7563677958
 30
0.0
 10
13.2418087638
 20
10.7358261522
 30
0.0
 10
13.2397361252
 20
10.7154943355
 30
0.0
 10
13.2375399603
 20
10.6988192926
 30
0.0
 10
13.2355120028
 20
10.6857888065
 30
0.0
 10
13.2338793777
 20
10.6763075754
 30
0.0
 10
13.232128765
 20
10.6670732319
 30
0.0
 10
13.2302658927
 20
10.6581158665
 30
0.0
 10
13.2282968881
 20
10.6494646812
 30
0.0
 10
13.2262282137
 20
10.6411478651
 30
0.0
 10
13.2240666641
 20
10.6331924967
 30
0.0
 10
13.2218193597
 20
10.6256244394
 30
0.0
 10
13.2194936954
 20
10.6184682605
 30
0.0
 10
13.2170973142
 20
10.6117471488
 30
0.0
 10
13.2146380817
 20
10.6054827976
 30
0.0
 10
13.2121240727
 20
10.5996953373
 30
0.0
 10
13.2095634612
 20
10.5944031273
 30
0.0
 10
13.2069645344
 20
10.5896230888
 30
0.0
 10
13.2047251177
 20
10.5859999052
 30
0.0
 10
13.2029144758
 20
10.583379646
 30
0.0
 10
13.2015832398
 20
10.5815971052
 30
0.0
 10
13.2002486846
 20
10.5799533176
 30
0.0
 10
13.1989117728
 20
10.5784496008
 30
0.0
 10
13.19757349
 20
10.5770871677
 30
0.0
 10
13.1962348551
 20
10.575867062
 30
0.0
 10
13.1948967504
 20
10.5747903394
 30
0.0
 10
13.1935601069
 20
10.573857915
 30
0.0
 10
13.1922258287
 20
10.5730706439
 30
0.0
 10
13.1908947573
 20
10.5724294772
 30
0.0
 10
13.1895679076
 20
10.5719351948
 30
0.0
 10
13.1882462658
 20
10.571588667
 30
0.0
 10
13.1869313178
 20
10.5713906907
 30
0.0
 10
13.1860555916
 20
10.5713579168
 30
0.0
 10
13.1856223389
 20
10.5713666018
 30
0.0
  0
SPLINE
  5
38A
100
AcDbEntity
  8
0
100
AcDbSpline
 62
7
  6
CONTINUOUS
 70
0
 71
3
 72
41
 73
37
 74
0
 42
0.0000001
 43
0.0000001
 44
0.0000000001
 40
0.0
 40
0.0
 40
0.0
 40
0.0
 40
0.0836615477
 40
0.1687457247
 40
0.2542145043
 40
0.3390215701
 40
0.4221313981
 40
0.4627344102
 40
0.5025378963
 40
0.5414226476
 40
0.5792733112
 40
0.6159788806
 40
0.651433253
 40
0.6855359293
 40
0.7181928187
 40
0.7493169208
 40
0.7788292263
 40
0.8066599481
 40
0.8327500398
 40
0.8570529122
 40
0.8795369316
 40
0.9001890675
 40
0.9098319474
 40
0.9190231926
 40
0.9277692152
 40
0.9360787781
 40
0.9439636908
 40
0.9514394407
 40
0.9585253817
 40
0.965245831
 40
0.9716305298
 40
0.977715194
 40
0.9835423143
 40
0.9891609745
 40
0.9946266199
 40
1.0
 40
1.0
 40
1.0
 40
1.0
 10
13.244434454
 20
6.8137293669
 30
0.0
 10
13.244434454
 20
6.8069824275
 30
0.0
 10
13.2442241521
 20
6.7933730481
 30
0.0
 10
13.2433113029
 20
6.7728894398
 30
0.0
 10
13.2418087638
 20
6.7523477961
 30
0.0
 10
13.2397361252
 20
6.7320159794
 30
0.0
 10
13.2375399603
 20
6.7153409365
 30
0.0
 10
13.2355120028
 20
6.7023104505
 30
0.0
 10
13.2338793777
 20
6.6928292193
 30
0.0
 10
13.232128765
 20
6.6835948758
 30
0.0
 10
13.2302658927
 20
6.6746375104
 30
0.0
 10
13.2282968881
 20
6.6659863251
 30
0.0
 10
13.2262282137
 20
6.657669509
 30
0.0
 10
13.2240666641
 20
6.6497141407
 30
0.0
 10
13.2218193597
 20
6.6421460834
 30
0.0
 10
13.2194936954
 20
6.6349899044
 30
0.0
 10
13.2170973142
 20
6.6282687927
 30
0.0
 10
13.2146380817
 20
6.6220044415
 30
0.0
 10
13.2121240727
 20
6.6162169812
 30
0.0
 10
13.2095634612
 20
6.6109247712
 30
0.0
 10
13.2069645344
 20
6.6061447327
 30
0.0
 10
13.2047251177
 20
6.6025215491
 30
0.0
 10
13.2029144758
 20
6.59990129
 30
0.0
 10
13.2015832398
 20
6.5981187491
 30
0.0
 10
13.2002486846
 20
6.5964749615
 30
0.0
 10
13.1989117728
 20
6.5949712448
 30
0.0
 10
13.19757349
 20
6.5936088116
 30
0.0
 10
13.1962348551
 20
6.5923887059
 30
0.0
 10
13.1948967504
 20
6.5913119833
 30
0.0
 10
13.1935601069
 20
6.590379559
 30
0.0
 10
13.1922258287
 20
6.5895922878
 30
0.0
 10
13.1908947573
 20
6.5889511212
 30
0.0
 10
13.1895679076
 20
6.5884568387
 30
0.0
 10
13.1882462658
 20
6.5881103109
 30
0.0
 10
13.1869313178
 20
6.5879123346
 30
0.0
 10
13.1860555916
 20
6.5878795607
 30
0.0
 10
13.1856223389
 20
6.5878882457
 30
0.0
  0
SPLINE
  5
38B
100
AcDbEntity
  8
0
100
AcDbSpline
 62
7
  6
CONTINUOUS
 70
0
 71
3
 72
41
 73
37
 74
0
 42
0.0000001
 43
0.0000001
 44
0.0000000001
 40
0.0
 40
0.0
 40
0.0
 40
0.0
 40
0.0314020784
 40
0.0630083982
 40
0.0948055049
 40
0.126771282
 40
0.1588782638
 40
0.1749789448
 40
0.1911023253
 40
0.2233898662
 40
0.2557104464
 40
0.2718748258
 40
0.2880324029
 40
0.3202988625
 40
0.3524800457
 40
0.3845406751
 40
0.4164497397
 40
0.4481816557
 40
0.4797172777
 40
0.5110447164
 40
0.5421599259
 40
0.5730670198
 40
0.6037782729
 40
0.6343137895
 40
0.6647008283
 40
0.6949727907
 40
0.7251679042
 40
0.7553276492
 40
0.7854950112
 40
0.8157126511
 40
0.8460210933
 40
0.8764570331
 40
0.9070518096
 40
0.9378304114
 40
0.9688096448
 40
1.0
 40
1.0
 40
1.0
 40
1.0
 10
11.1240330074
 20
8.5791017276
 30
0.0
 10
11.1199431993
 20
8.5793853568
 30
0.0
 10
11.1117594969
 20
8.5803575024
 30
0.0
 10
11.0996488967
 20
8.5829978386
 30
0.0
 10
11.0877729223
 20
8.5867996847
 30
0.0
 10
11.0762476583
 20
8.5917258523
 30
0.0
 10
11.0670333025
 20
8.5967251871
 30
0.0
 10
11.0599441325
 20
8.6012332806
 30
0.0
 10
11.0530507591
 20
8.6060766963
 30
0.0
 10
11.0448529072
 20
8.6127259937
 30
0.0
 10
11.037294315
 20
8.6201014215
 30
0.0
 10
11.031671001
 20
8.6263977228
 30
0.0
 10
11.0263464209
 20
8.6329394017
 30
0.0
 10
11.0202705786
 20
8.6415511272
 30
0.0
 10
11.0139760694
 20
8.6524857823
 30
0.0
 10
11.0087396783
 20
8.6639142788
 30
0.0
 10
11.0046123323
 20
8.6757264486
 30
0.0
 10
11.0016338532
 20
8.6878090441
 30
0.0
 10
10.9998332527
 20
8.7000459877
 30
0.0
 10
10.9992282567
 20
8.7123196725
 30
0.0
 10
10.999825159
 20
8.7245120065
 30
0.0
 10
11.0016186744
 20
8.7365055485
 30
0.0
 10
11.0045919887
 20
8.7481846281
 30
0.0
 10
11.0087168728
 20
8.7594364597
 30
0.0
 10
11.0139539054
 20
8.7701522478
 30
0.0
 10
11.0202528167
 20
8.7802282666
 30
0.0
 10
11.0275529156
 20
8.7895669303
 30
0.0
 10
11.0357836875
 20
8.7980777926
 30
0.0
 10
11.0448655057
 20
8.8056784636
 30
0.0
 10
11.0547104355
 20
8.8122954537
 30
0.0
 10
11.0652231243
 20
8.8178649091
 30
0.0
 10
11.0763018133
 20
8.8223332355
 30
0.0
 10
11.0878392196
 20
8.8256576736
 30
0.0
 10
11.0997242011
 20
8.8278064702
 30
0.0
 10
11.1118406139
 20
8.8287596021
 30
0.0
 10
11.1199707741
 20
8.8285923224
 30
0.0
 10
11.1240330074
 20
8.8283106056
 30
0.0
  0
SPLINE
  5
38C
100
AcDbEntity
  8
0
100
AcDbSpline
 62
7
  6
CONTINUOUS
 70
0
 71
3
 72
41
 73
37
 74
0
 42
0.0000001
 43
0.0000001
 44
0.0000000001
 40
0.0
 40
0.0
 40
0.0
 40
0.0
 40
0.0314020784
 40
0.0630083982
 40
0.0948055049
 40
0.126771282
 40
0.1588782638
 40
0.1749789448
 40
0.1911023253
 40
0.2233898662
 40
0.2557104464
 40
0.2718748258
 40
0.2880324029
 40
0.3202988625
 40
0.3524800457
 40
0.3845406751
 40
0.4164497397
 40
0.4481816557
 40
0.4797172777
 40
0.5110447164
 40
0.5421599259
 40
0.5730670198
 40
0.6037782729
 40
0.6343137895
 40
0.6647008283
 40
0.6949727907
 40
0.7251679042
 40
0.7553276492
 40
0.7854950112
 40
0.8157126511
 40
0.8460210933
 40
0.8764570331
 40
0.9070518096
 40
0.9378304114
 40
0.9688096448
 40
1.0
 40
1.0
 40
1.0
 40
1.0
 10
9.3737753866
 20
8.9496913838
 30
0.0
 10
9.3778651947
 20
8.9494077547
 30
0.0
 10
9.3860488971
 20
8.948435609
 30
0.0
 10
9.3981594973
 20
8.9457952728
 30
0.0
 10
9.4100354717
 20
8.9419934267
 30
0.0
 10
9.4215607357
 20
8.9370672592
 30
0.0
 10
9.4307750915
 20
8.9320679243
 30
0.0
 10
9.4378642615
 20
8.9275598309
 30
0.0
 10
9.444757635
 20
8.9227164152
 30
0.0
 10
9.4529554868
 20
8.9160671178
 30
0.0
 10
9.460514079
 20
8.90869169
 30
0.0
 10
9.466137393
 20
8.9023953886
 30
0.0
 10
9.4714619731
 20
8.8958537097
 30
0.0
 10
9.4775378155
 20
8.8872419842
 30
0.0
 10
9.4838323246
 20
8.8763073292
 30
0.0
 10
9.4890687157
 20
8.8648788327
 30
0.0
 10
9.4931960617
 20
8.8530666629
 30
0.0
 10
9.4961745408
 20
8.8409840674
 30
0.0
 10
9.4979751413
 20
8.8287471238
 30
0.0
 10
9.4985801373
 20
8.816473439
 30
0.0
 10
9.497983235
 20
8.8042811049
 30
0.0
 10
9.4961897196
 20
8.7922875629
 30
0.0
 10
9.4932164053
 20
8.7806084833
 30
0.0
 10
9.4890915212
 20
8.7693566518
 30
0.0
 10
9.4838544886
 20
8.7586408636
 30
0.0
 10
9.4775555773
 20
8.7485648449
 30
0.0
 10
9.4702554784
 20
8.7392261811
 30
0.0
 10
9.4620247065
 20
8.7307153189
 30
0.0
 10
9.4529428883
 20
8.7231146479
 30
0.0
 10
9.4430979585
 20
8.7164976577
 30
0.0
 10
9.4325852697
 20
8.7109282023
 30
0.0
 10
9.4215065807
 20
8.7064598759
 30
0.0
 10
9.4099691744
 20
8.7031354378
 30
0.0
 10
9.3980841929
 20
8.7009866413
 30
0.0
 10
9.3859677802
 20
8.7000335093
 30
0.0
 10
9.3778376199
 20
8.7002007891
 30
0.0
 10
9.3737753866
 20
8.7004825059
 30
0.0
  0
SPLINE
  5
38D
100
AcDbEntity
  8
0
100
AcDbSpline
 62
7
  6
CONTINUOUS
 70
0
 71
3
 72
41
 73
37
 74
0
 42
0.0000001
 43
0.0000001
 44
0.0000000001
 40
0.0
 40
0.0
 40
0.0
 40
0.0
 40
0.0314020784
 40
0.0630083982
 40
0.0948055049
 40
0.126771282
 40
0.1588782638
 40
0.1749789448
 40
0.1911023253
 40
0.2233898662
 40
0.2557104464
 40
0.2718748258
 40
0.2880324029
 40
0.3202988625
 40
0.3524800457
 40
0.3845406751
 40
0.4164497397
 40
0.4481816557
 40
0.4797172777
 40
0.5110447164
 40
0.5421599259
 40
0.5730670198
 40
0.6037782729
 40
0.6343137895
 40
0.6647008283
 40
0.6949727907
 40
0.7251679042
 40
0.7553276492
 40
0.7854950112
 40
0.8157126511
 40
0.8460210933
 40
0.8764570331
 40
0.9070518096
 40
0.9378304114
 40
0.9688096448
 40
1.0
 40
1.0
 40
1.0
 40
1.0
 10
9.3737753866
 20
8.7004825059
 30
0.0
 10
9.3696855785
 20
8.700766135
 30
0.0
 10
9.3615018761
 20
8.7017382807
 30
0.0
 10
9.3493912759
 20
8.7043786169
 30
0.0
 10
9.3375153015
 20
8.708180463
 30
0.0
 10
9.3259900375
 20
8.7131066305
 30
0.0
 10
9.3167756817
 20
8.7181059654
 30
0.0
 10
9.3096865117
 20
8.7226140588
 30
0.0
 10
9.3027931383
 20
8.7274574745
 30
0.0
 10
9.2945952864
 20
8.7341067719
 30
0.0
 10
9.2870366942
 20
8.7414821997
 30
0.0
 10
9.2814133802
 20
8.7477785011
 30
0.0
 10
9.2760888001
 20
8.75432018
 30
0.0
 10
9.2700129578
 20
8.7629319055
 30
0.0
 10
9.2637184486
 20
8.7738665605
 30
0.0
 10
9.2584820575
 20
8.785295057
 30
0.0
 10
9.2543547115
 20
8.7971072268
 30
0.0
 10
9.2513762324
 20
8.8091898223
 30
0.0
 10
9.2495756319
 20
8.821426766
 30
0.0
 10
9.2489706359
 20
8.8337004507
 30
0.0
 10
9.2495675382
 20
8.8458927848
 30
0.0
 10
9.2513610536
 20
8.8578863268
 30
0.0
 10
9.2543343679
 20
8.8695654064
 30
0.0
 10
9.258459252
 20
8.880817238
 30
0.0
 10
9.2636962846
 20
8.8915330261
 30
0.0
 10
9.2699951959
 20
8.9016090449
 30
0.0
 10
9.2772952948
 20
8.9109477086
 30
0.0
 10
9.2855260667
 20
8.9194585708
 30
0.0
 10
9.2946078849
 20
8.9270592418
 30
0.0
 10
9.3044528147
 20
8.933676232
 30
0.0
 10
9.3149655035
 20
8.9392456874
 30
0.0
 10
9.3260441925
 20
8.9437140138
 30
0.0
 10
9.3375815988
 20
8.9470384519
 30
0.0
 10
9.3494665803
 20
8.9491872484
 30
0.0
 10
9.3615829931
 20
8.9501403804
 30
0.0
 10
9.3697131533
 20
8.9499731007
 30
0.0
 10
9.3737753866
 20
8.9496913838
 30
0.0
  0
SPLINE
  5
38E
100
AcDbEntity
  8
0
100
AcDbSpline
 62
7
  6
CONTINUOUS
 70
0
 71
3
 72
14
 73
10
 74
0
 42
0.0000001
 43
0.0000001
 44
0.0000000001
 40
0.0
 40
0.0
 40
0.0
 40
0.0
 40
0.1432908455
 40
0.280561597
 40
0.4121253125
 40
0.5383617687
 40
0.7765862861
 40
0.8898432205
 40
1.0
 40
1.0
 40
1.0
 40
1.0
 10
9.3982605353
 20
10.6372546816
 30
0.0
 10
9.3973711874
 20
10.6363956374
 30
0.0
 10
9.3956688264
 20
10.6346725304
 30
0.0
 10
9.3933033974
 20
10.6320148063
 30
0.0
 10
9.3911836183
 20
10.6293419003
 30
0.0
 10
9.3887349472
 20
10.6258292078
 30
0.0
 10
9.3867134508
 20
10.6222166155
 30
0.0
 10
9.3851908866
 20
10.6185317601
 30
0.0
 10
9.3846030601
 20
10.6166927128
 30
0.0
 10
9.3843536332
 20
10.6157754559
 30
0.0
  0
SPLINE
  5
38F
100
AcDbEntity
  8
0
100
AcDbSpline
 62
7
  6
CONTINUOUS
 70
0
 71
3
 72
63
 73
59
 74
0
 42
0.0000001
 43
0.0000001
 44
0.0000000001
 40
0.0
 40
0.0
 40
0.0
 40
0.0
 40
0.0079936579
 40
0.0166330057
 40
0.0259424861
 40
0.0359381098
 40
0.0466275429
 40
0.0580122083
 40
0.070088472
 40
0.082848341
 40
0.0962801315
 40
0.1103690464
 40
0.1250975427
 40
0.1404455865
 40
0.1563909878
 40
0.1729096236
 40
0.1899755563
 40
0.2075612314
 40
0.2256376557
 40
0.244174481
 40
0.2631401147
 40
0.282501883
 40
0.3222773494
 40
0.3632220787
 40
0.4050450243
 40
0.4474467939
 40
0.4901225636
 40
0.5327649661
 40
0.5750669448
 40
0.6167246084
 40
0.6574401208
 40
0.6773542998
 40
0.6969255113
 40
0.7161195323
 40
0.7349031154
 40
0.7532440517
 40
0.7711112628
 40
0.7884749712
 40
0.8053068034
 40
0.8215798831
 40
0.837269027
 40
0.8523509387
 40
0.8668043402
 40
0.8806102237
 40
0.893752203
 40
0.9062167894
 40
0.9179938164
 40
0.9290770841
 40
0.9394650469
 40
0.9491617248
 40
0.9581780349
 40
0.9665334837
 40
0.9742582829
 40
0.9813961441
 40
0.9880075863
 40
0.9941731642
 40
0.9971220582
 40
1.0
 40
1.0
 40
1.0
 40
1.0
 10
9.3982605353
 20
10.6372546816
 30
0.0
 10
9.3999959243
 20
10.6389309387
 30
0.0
 10
9.4037664856
 20
10.6422556978
 30
0.0
 10
9.4100139509
 20
10.6469856128
 30
0.0
 10
9.4170550228
 20
10.6516387707
 30
0.0
 10
9.424876152
 20
10.6562066267
 30
0.0
 10
9.4334633199
 20
10.6606811875
 30
0.0
 10
9.4428005148
 20
10.6650541104
 30
0.0
 10
9.4528702665
 20
10.6693171441
 30
0.0
 10
9.4636535659
 20
10.6734621248
 30
0.0
 10
9.4751299163
 20
10.6774811013
 30
0.0
 10
9.4872774308
 20
10.6813662959
 30
0.0
 10
9.5000728744
 20
10.6851101576
 30
0.0
 10
9.5134916985
 20
10.688705444
 30
0.0
 10
9.5275081247
 20
10.6921451742
 30
0.0
 10
9.5420952033
 20
10.6954226438
 30
0.0
 10
9.5572248502
 20
10.6985314954
 30
0.0
 10
9.5728679146
 20
10.7014657005
 30
0.0
 10
9.5889942537
 20
10.7042195469
 30
0.0
 10
9.605572768
 20
10.7067876715
 30
0.0
 10
9.6225715044
 20
10.709165142
 30
0.0
 10
9.645962771
 20
10.7121008909
 30
0.0
 10
9.6760103708
 20
10.7152483275
 30
0.0
 10
9.7128861744
 20
10.7181697028
 30
0.0
 10
9.7506131082
 20
10.7202453922
 30
0.0
 10
9.7889001647
 20
10.7214591666
 30
0.0
 10
9.8274522285
 20
10.7218015113
 30
0.0
 10
9.865972014
 20
10.7212697035
 30
0.0
 10
9.9041625768
 20
10.7198679646
 30
0.0
 10
9.9417292978
 20
10.7176072187
 30
0.0
 10
9.9724967129
 20
10.71500356
 30
0.0
 10
9.996574327
 20
10.7124946705
 30
0.0
 10
10.0141650124
 20
10.7104250147
 30
0.0
 10
10.0313871711
 20
10.7081576159
 30
0.0
 10
10.0482076069
 20
10.7056968651
 30
0.0
 10
10.0645938668
 20
10.7030475507
 30
0.0
 10
10.0805143469
 20
10.7002147956
 30
0.0
 10
10.095938357
 20
10.6972041123
 30
0.0
 10
10.1108361804
 20
10.694021362
 30
0.0
 10
10.1251791204
 20
10.6906727135
 30
0.0
 10
10.138939574
 20
10.6871646674
 30
0.0
 10
10.1520910968
 20
10.6835040591
 30
0.0
 10
10.1646084388
 20
10.6796979915
 30
0.0
 10
10.1764676071
 20
10.6757538258
 30
0.0
 10
10.1876459471
 20
10.6716792226
 30
0.0
 10
10.1981221751
 20
10.6674820515
 30
0.0
 10
10.2078764237
 20
10.6631703428
 30
0.0
 10
10.2168903374
 20
10.658752313
 30
0.0
 10
10.2251471138
 20
10.6542362643
 30
0.0
 10
10.2326315124
 20
10.6496304406
 30
0.0
 10
10.2393298987
 20
10.6449429566
 30
0.0
 10
10.245230234
 20
10.6401815811
 30
0.0
 10
10.2503217823
 20
10.6353535924
 30
0.0
 10
10.2545948263
 20
10.6304650254
 30
0.0
 10
10.2580394616
 20
10.6255226422
 30
0.0
 10
10.260243427
 20
10.6212999863
 30
0.0
 10
10.2615548947
 20
10.6179231471
 30
0.0
 10
10.2620649331
 20
10.6162376984
 30
0.0
 10
10.2622827279
 20
10.6153967831
 30
0.0
  0
SPLINE
  5
390
100
AcDbEntity
  8
0
100
AcDbSpline
 62
7
  6
CONTINUOUS
 70
0
 71
3
 72
68
 73
64
 74
0
 42
0.0000001
 43
0.0000001
 44
0.0000000001
 40
0.0
 40
0.0
 40
0.0
 40
0.0
 40
0.0085742167
 40
0.0179225926
 40
0.0280751762
 40
0.0390501152
 40
0.0508540231
 40
0.0634850342
 40
0.0769345507
 40
0.0911881468
 40
0.1062265599
 40
0.1220264669
 40
0.1385608984
 40
0.1557996509
 40
0.1737097516
 40
0.1922556818
 40
0.2113995706
 40
0.2311015357
 40
0.2513198524
 40
0.2720110641
 40
0.3146300776
 40
0.3585855398
 40
0.4034870509
 40
0.4489330285
 40
0.4945155654
 40
0.5398251641
 40
0.5844555004
 40
0.6280081681
 40
0.6700975902
 40
0.6904784309
 40
0.7103572578
 40
0.72969171
 40
0.7484412548
 40
0.7665673828
 40
0.784033735
 40
0.8008064213
 40
0.816854343
 40
0.8321494011
 40
0.8466669399
 40
0.8603863382
 40
0.8732914944
 40
0.88537165
 40
0.8966226111
 40
0.9070480738
 40
0.9166615885
 40
0.9254894273
 40
0.9335741502
 40
0.9373582709
 40
0.9409826174
 40
0.9477981688
 40
0.9510240878
 40
0.954151088
 40
0.9571995732
 40
0.9601917527
 40
0.963151216
 40
0.9661024411
 40
0.9690701228
 40
0.9720785239
 40
0.9751508149
 40
0.9783085864
 40
0.9849528739
 40
0.9921503672
 40
1.0
 40
1.0
 40
1.0
 40
1.0
 10
9.5672975649
 20
10.6255319238
 30
0.0
 10
9.5684702312
 20
10.6266646324
 30
0.0
 10
9.5710428554
 20
10.6289082101
 30
0.0
 10
9.5753429136
 20
10.632079556
 30
0.0
 10
9.580236146
 20
10.6351916244
 30
0.0
 10
9.5857109394
 20
10.6382373436
 30
0.0
 10
9.5917551349
 20
10.6412100916
 30
0.0
 10
9.5983547252
 20
10.6441029201
 30
0.0
 10
9.6054943232
 20
10.6469089798
 30
0.0
 10
9.6131571077
 20
10.6496215533
 30
0.0
 10
9.621324904
 20
10.6522341219
 30
0.0
 10
9.6299782716
 20
10.654740344
 30
0.0
 10
9.6390965429
 20
10.6571341403
 30
0.0
 10
9.648657882
 20
10.6594097261
 30
0.0
 10
9.6586393699
 20
10.6615615658
 30
0.0
 10
9.6690170517
 20
10.663584422
 30
0.0
 10
9.6797659927
 20
10.665473412
 30
0.0
 10
9.6908603512
 20
10.66722394
 30
0.0
 10
9.7022734736
 20
10.6688317711
 30
0.0
 10
9.7180346668
 20
10.670799356
 30
0.0
 10
9.7383296764
 20
10.6728643286
 30
0.0
 10
9.7632654976
 20
10.6746985246
 30
0.0
 10
9.7887781773
 20
10.6758944553
 30
0.0
 10
9.8146223516
 20
10.6764404648
 30
0.0
 10
9.8405496505
 20
10.6763311439
 30
0.0
 10
9.8663108059
 20
10.6755675783
 30
0.0
 10
9.8916582646
 20
10.6741573
 30
0.0
 10
9.9163482728
 20
10.6721140651
 30
0.0
 10
9.9363874668
 20
10.669877579
 30
0.0
 10
9.9519050852
 20
10.667775962
 30
0.0
 10
9.9631087192
 20
10.6660725377
 30
0.0
 10
9.9739757135
 20
10.6642292169
 30
0.0
 10
9.9844799655
 20
10.6622504416
 30
0.0
 10
9.994596235
 20
10.6601410394
 30
0.0
 10
10.0043002292
 20
10.6579061115
 30
0.0
 10
10.01356867
 20
10.6555510754
 30
0.0
 10
10.0223793659
 20
10.6530816694
 30
0.0
 10
10.030711251
 20
10.6505038724
 30
0.0
 10
10.0385444551
 20
10.6478239059
 30
0.0
 10
10.0458603886
 20
10.6450482677
 30
0.0
 10
10.0526417779
 20
10.6421836203
 30
0.0
 10
10.058872719
 20
10.6392367469
 30
0.0
 10
10.0645388048
 20
10.6362145547
 30
0.0
 10
10.0696270809
 20
10.6331239435
 30
0.0
 10
10.074126252
 20
10.629971443
 30
0.0
 10
10.0780259734
 20
10.6267636471
 30
0.0
 10
10.0808285912
 20
10.6239902127
 30
0.0
 10
10.0827419021
 20
10.6217477865
 30
0.0
 10
10.0843712142
 20
10.6195876465
 30
0.0
 10
10.0857348515
 20
10.6173632681
 30
0.0
 10
10.086786248
 20
10.6150881775
 30
0.0
 10
10.0874013846
 20
10.6134073266
 30
0.0
 10
10.0878566461
 20
10.6117222193
 30
0.0
 10
10.0881515962
 20
10.6100339684
 30
0.0
 10
10.08828573
 20
10.6083438728
 30
0.0
 10
10.0882588831
 20
10.6066533148
 30
0.0
 10
10.0880711472
 20
10.6049636744
 30
0.0
 10
10.0877227009
 20
10.6032763354
 30
0.0
 10
10.0872140248
 20
10.6015924974
 30
0.0
 10
10.0863079838
 20
10.5993155381
 30
0.0
 10
10.0847479612
 20
10.5964688717
 30
0.0
 10
10.0822793902
 20
10.5931518373
 30
0.0
 10
10.0803118506
 20
10.5910657009
 30
0.0
 10
10.0792382832
 20
10.5900287144
 30
0.0
  0
SPLINE
  5
391
100
AcDbEntity
  8
0
100
AcDbSpline
 62
7
  6
CONTINUOUS
 70
0
 71
3
 72
60
 73
56
 74
0
 42
0.0000001
 43
0.0000001
 44
0.0000000001
 40
0.0
 40
0.0
 40
0.0
 40
0.0
 40
0.0081223457
 40
0.0169168543
 40
0.0264086507
 40
0.0366142953
 40
0.0475414715
 40
0.0591910623
 40
0.0715584687
 40
0.0846345653
 40
0.0984063641
 40
0.1128574046
 40
0.127968449
 40
0.1437175845
 40
0.1600805809
 40
0.1770312288
 40
0.1945413069
 40
0.2125809874
 40
0.2501209624
 40
0.2893849975
 40
0.3300870246
 40
0.3719260933
 40
0.4145897902
 40
0.4577575242
 40
0.5011037567
 40
0.5443012185
 40
0.5870240894
 40
0.6289511848
 40
0.6697692057
 40
0.7091760323
 40
0.7468841163
 40
0.7650167465
 40
0.7826254112
 40
0.7996798984
 40
0.8161517637
 40
0.8320143911
 40
0.8472431257
 40
0.8618157143
 40
0.8757123067
 40
0.8889159651
 40
0.9014130636
 40
0.9131936181
 40
0.9242522447
 40
0.9345887762
 40
0.9442094988
 40
0.953128818
 40
0.9613710383
 40
0.9689732906
 40
0.9759886953
 40
0.9824900599
 40
0.9885734346
 40
0.9914974478
 40
0.9943641491
 40
0.9971919189
 40
1.0
 40
1.0
 40
1.0
 40
1.0
 10
9.5962753414
 20
10.5945445316
 30
0.0
 10
9.5972251165
 20
10.595461944
 30
0.0
 10
9.5992928574
 20
10.5972811047
 30
0.0
 10
9.6027251273
 20
10.5998657806
 30
0.0
 10
9.6066012477
 20
10.6024072198
 30
0.0
 10
9.6109133665
 20
10.6049005216
 30
0.0
 10
9.6156533831
 20
10.6073412071
 30
0.0
 10
9.6208120986
 20
10.609724408
 30
0.0
 10
9.626379358
 20
10.612045461
 30
0.0
 10
9.6323441475
 20
10.6142997107
 30
0.0
 10
9.638694602
 20
10.6164825676
 30
0.0
 10
9.6454180094
 20
10.6185896585
 30
0.0
 10
9.6525008915
 20
10.6206166582
 30
0.0
 10
9.6599290058
 20
10.6225594544
 30
0.0
 10
9.6676873932
 20
10.6244141128
 30
0.0
 10
9.675760413
 20
10.626176804
 30
0.0
 10
9.6841317845
 20
10.6278440125
 30
0.0
 10
9.6958244416
 20
10.6299631276
 30
0.0
 10
9.7110627237
 20
10.6323369354
 30
0.0
 10
9.7300195395
 20
10.6347206878
 30
0.0
 10
9.7497296427
 20
10.6366562643
 30
0.0
 10
9.7700337914
 20
10.6381277627
 30
0.0
 10
9.790768077
 20
10.6391230384
 30
0.0
 10
9.8117649804
 20
10.6396338956
 30
0.0
 10
9.832854841
 20
10.6396561383
 30
0.0
 10
9.8538672285
 20
10.6391895861
 30
0.0
 10
9.874632355
 20
10.6382380777
 30
0.0
 10
9.8949824458
 20
10.6368094316
 30
0.0
 10
9.9147532109
 20
10.6349154397
 30
0.0
 10
9.9337849144
 20
10.6325716624
 30
0.0
 10
9.9490946272
 20
10.6302304766
 30
0.0
 10
9.9608512171
 20
10.6281366044
 30
0.0
 10
9.9692750362
 20
10.6264871536
 30
0.0
 10
9.9774035293
 20
10.6247415507
 30
0.0
 10
9.9852203085
 20
10.6229033427
 30
0.0
 10
9.9927096084
 20
10.6209762918
 30
0.0
 10
9.9998563394
 20
10.6189642818
 30
0.0
 10
10.006646136
 20
10.6168714579
 30
0.0
 10
10.0130653673
 20
10.6147020412
 30
0.0
 10
10.0191011875
 20
10.6124604333
 30
0.0
 10
10.024741578
 20
10.6101512016
 30
0.0
 10
10.029975344
 20
10.6077789244
 30
0.0
 10
10.0347922095
 20
10.6053483648
 30
0.0
 10
10.0391827992
 20
10.6028642521
 30
0.0
 10
10.0431386602
 20
10.6003312584
 30
0.0
 10
10.046652334
 20
10.5977540285
 30
0.0
 10
10.0497171756
 20
10.5951367906
 30
0.0
 10
10.0523273043
 20
10.5924835352
 30
0.0
 10
10.0544772647
 20
10.5897974709
 30
0.0
 10
10.0561611433
 20
10.5870822093
 30
0.0
 10
10.0571840303
 20
10.5847664057
 30
0.0
 10
10.0577491041
 20
10.5829185947
 30
0.0
 10
10.058048315
 20
10.5815480272
 30
0.0
 10
10.0582279471
 20
10.5801758203
 30
0.0
 10
10.0582679121
 20
10.5792590694
 30
0.0
 10
10.0582679102
 20
10.5788025426
 30
0.0
  0
SPLINE
  5
392
100
AcDbEntity
  8
0
100
AcDbSpline
 62
7
  6
CONTINUOUS
 70
0
 71
3
 72
23
 73
19
 74
0
 42
0.0000001
 43
0.0000001
 44
0.0000000001
 40
0.0
 40
0.0
 40
0.0
 40
0.0
 40
0.0736887614
 40
0.1431214575
 40
0.2086483756
 40
0.2707218975
 40
0.3298930871
 40
0.3868084508
 40
0.442201826
 40
0.496876433
 40
0.5516706575
 40
0.6074169185
 40
0.6649018936
 40
0.7248370394
 40
0.7878399895
 40
0.8544316414
 40
0.9250374533
 40
1.0
 40
1.0
 40
1.0
 40
1.0
 10
9.5672975649
 20
10.6255319238
 30
0.0
 10
9.5665584949
 20
10.6248180369
 30
0.0
 10
9.5651671022
 20
10.6233846
 30
0.0
 10
9.5633005151
 20
10.6211489471
 30
0.0
 10
9.5617214664
 20
10.6188960246
 30
0.0
 10
9.5604324095
 20
10.6166280312
 30
0.0
 10
9.5594357125
 20
10.6143469326
 30
0.0
 10
9.5587336183
 20
10.6120552352
 30
0.0
 10
9.5583283607
 20
10.6097560383
 30
0.0
 10
9.5582214097
 20
10.6074532015
 30
0.0
 10
9.5584131843
 20
10.605150978
 30
0.0
 10
9.5589029554
 20
10.6028535574
 30
0.0
 10
9.5596889332
 20
10.6005645613
 30
0.0
 10
9.5607689805
 20
10.5982869672
 30
0.0
 10
9.5621405881
 20
10.5960230602
 30
0.0
 10
9.5638015533
 20
10.5937748998
 30
0.0
 10
9.565749319
 20
10.5915443714
 30
0.0
 10
9.5671928729
 20
10.5901146958
 30
0.0
 10
9.5679580939
 20
10.589402576
 30
0.0
  0
SPLINE
  5
393
100
AcDbEntity
  8
0
100
AcDbSpline
 62
7
  6
CONTINUOUS
 70
0
 71
3
 72
18
 73
14
 74
0
 42
0.0000001
 43
0.0000001
 44
0.0000000001
 40
0.0
 40
0.0
 40
0.0
 40
0.0
 40
0.0539806327
 40
0.1081920438
 40
0.1628619114
 40
0.218211617
 40
0.331737762
 40
0.4503906319
 40
0.5120898203
 40
0.5755570533
 40
0.7082860104
 40
0.8495339721
 40
1.0
 40
1.0
 40
1.0
 40
1.0
 10
12.7109578129
 20
7.1519863552
 30
0.0
 10
12.7116330377
 20
7.1519395255
 30
0.0
 10
12.7129900022
 20
7.1518915113
 30
0.0
 10
12.7150324703
 20
7.1519571502
 30
0.0
 10
12.7170832308
 20
7.1521603417
 30
0.0
 10
12.7198502876
 20
7.1526180733
 30
0.0
 10
12.7233438891
 20
7.1535473644
 30
0.0
 10
12.7267764487
 20
7.1549090358
 30
0.0
 10
12.7295217857
 20
7.1562566303
 30
0.0
 10
12.7323503436
 20
7.157826295
 30
0.0
 10
12.7358975524
 20
7.1601442607
 30
0.0
 10
12.7400970219
 20
7.1634216969
 30
0.0
 10
12.7428091834
 20
7.1658810492
 30
0.0
 10
12.7441661635
 20
7.1671917914
 30
0.0
  0
SPLINE
  5
394
100
AcDbEntity
  8
0
100
AcDbSpline
 62
7
  6
CONTINUOUS
 70
0
 71
3
 72
16
 73
12
 74
0
 42
0.0000001
 43
0.0000001
 44
0.0000000001
 40
0.0
 40
0.0
 40
0.0
 40
0.0
 40
0.1480502106
 40
0.2876959091
 40
0.4196102003
 40
0.4829488597
 40
0.5446962223
 40
0.663936568
 40
0.7786067092
 40
0.8901134857
 40
1.0
 40
1.0
 40
1.0
 40
1.0
 10
9.5962753414
 20
10.5945445316
 30
0.0
 10
9.5956312364
 20
10.5939223739
 30
0.0
 10
9.5944173526
 20
10.5926731768
 30
0.0
 10
9.592785194
 20
10.5907263645
 30
0.0
 10
9.5916144674
 20
10.5890696804
 30
0.0
 10
9.590808225
 20
10.5877399232
 30
0.0
 10
9.5901041063
 20
10.5864400341
 30
0.0
 10
9.5893723901
 20
10.5848042381
 30
0.0
 10
9.5887360359
 20
10.5828092453
 30
0.0
 10
9.588353275
 20
10.5808078706
 30
0.0
 10
9.5882679406
 20
10.5794672178
 30
0.0
 10
9.5882679379
 20
10.5788025426
 30
0.0
  0
SPLINE
  5
395
100
AcDbEntity
  8
0
100
AcDbSpline
 62
7
  6
CONTINUOUS
 70
0
 71
3
 72
23
 73
19
 74
0
 42
0.0000001
 43
0.0000001
 44
0.0000000001
 40
0.0
 40
0.0
 40
0.0
 40
0.0
 40
0.0742741061
 40
0.144077578
 40
0.2097822117
 40
0.271852994
 40
0.3308588004
 40
0.387474869
 40
0.4424761996
 40
0.4967140035
 40
0.5510788932
 40
0.6064548756
 40
0.6636749244
 40
0.7234869556
 40
0.7865355553
 40
0.8533610596
 40
0.9244036507
 40
1.0
 40
1.0
 40
1.0
 40
1.0
 10
12.7187350306
 20
7.1241839305
 30
0.0
 10
12.7199926622
 20
7.1226375956
 30
0.0
 10
12.722529617
 20
7.1197149636
 30
0.0
 10
12.7265325191
 20
7.1157483169
 30
0.0
 10
12.7306073407
 20
7.1123446209
 30
0.0
 10
12.7347508409
 20
7.1095089665
 30
0.0
 10
12.738959603
 20
7.1072461676
 30
0.0
 10
12.7432294507
 20
7.1055615529
 30
0.0
 10
12.7475546455
 20
7.1044598574
 30
0.0
 10
12.7519278991
 20
7.1039449881
 30
0.0
 10
12.756340702
 20
7.1040182985
 30
0.0
 10
12.7607845833
 20
7.104678857
 30
0.0
 10
12.7652521489
 20
7.1059234119
 30
0.0
 10
12.7697375144
 20
7.1077476811
 30
0.0
 10
12.7742360839
 20
7.1101470951
 30
0.0
 10
12.7787440857
 20
7.1131173608
 30
0.0
 10
12.7832573806
 20
7.116653988
 30
0.0
 10
12.786173699
 20
7.1193012925
 30
0.0
 10
12.7876328283
 20
7.1207107032
 30
0.0
  0
SPLINE
  5
396
100
AcDbEntity
  8
0
100
AcDbSpline
 62
7
  6
CONTINUOUS
 70
0
 71
3
 72
15
 73
11
 74
0
 42
0.0000001
 43
0.0000001
 44
0.0000000001
 40
0.0
 40
0.0
 40
0.0
 40
0.0
 40
0.1233171282
 40
0.2468171947
 40
0.3706750037
 40
0.4950496087
 40
0.6200772873
 40
0.745867181
 40
0.8724927949
 40
1.0
 40
1.0
 40
1.0
 40
1.0
 10
11.2045008323
 20
8.6312766731
 30
0.0
 10
11.2020773036
 20
8.6289356972
 30
0.0
 10
11.1969701077
 20
8.6245077919
 30
0.0
 10
11.1886347066
 20
8.6187216829
 30
0.0
 10
11.1797030221
 20
8.6138440946
 30
0.0
 10
11.1702665103
 20
8.6099251193
 30
0.0
 10
11.1604203481
 20
8.6070036626
 30
0.0
 10
11.1502637159
 20
8.6051089629
 30
0.0
 10
11.1399002934
 20
8.6042594395
 30
0.0
 10
11.1329438638
 20
8.6043951292
 30
0.0
 10
11.1294682029
 20
8.6046361672
 30
0.0
  0
SPLINE
  5
397
100
AcDbEntity
  8
0
100
AcDbSpline
 62
7
  6
CONTINUOUS
 70
0
 71
3
 72
15
 73
11
 74
0
 42
0.0000001
 43
0.0000001
 44
0.0000000001
 40
0.0
 40
0.0
 40
0.0
 40
0.0
 40
0.1078871177
 40
0.2189497066
 40
0.3341920781
 40
0.4544995372
 40
0.5806382582
 40
0.7132599679
 40
0.8529058583
 40
1.0
 40
1.0
 40
1.0
 40
1.0
 10
12.7479847163
 20
6.9347165005
 30
0.0
 10
12.7496273296
 20
6.9349178588
 30
0.0
 10
12.7529410092
 20
6.9355084303
 30
0.0
 10
12.7578767622
 20
6.9369221035
 30
0.0
 10
12.7628315865
 20
6.9388712568
 30
0.0
 10
12.7678010801
 20
6.9413526948
 30
0.0
 10
12.7727820817
 20
6.944363635
 30
0.0
 10
12.7777715206
 20
6.947901041
 30
0.0
 10
12.7827658392
 20
6.9519616252
 30
0.0
 10
12.7860099628
 20
6.9549357352
 30
0.0
 10
12.7876328283
 20
6.956503303
 30
0.0
  0
SPLINE
  5
398
100
AcDbEntity
  8
0
100
AcDbSpline
 62
7
  6
CONTINUOUS
 70
0
 71
3
 72
41
 73
37
 74
0
 42
0.0000001
 43
0.0000001
 44
0.0000000001
 40
0.0
 40
0.0
 40
0.0
 40
0.0
 40
0.0314020784
 40
0.0630083982
 40
0.0948055049
 40
0.126771282
 40
0.1588782638
 40
0.1749789448
 40
0.1911023253
 40
0.2233898662
 40
0.2557104464
 40
0.2718748258
 40
0.2880324029
 40
0.3202988625
 40
0.3524800457
 40
0.3845406751
 40
0.4164497397
 40
0.4481816557
 40
0.4797172777
 40
0.5110447164
 40
0.5421599259
 40
0.5730670198
 40
0.6037782729
 40
0.6343137895
 40
0.6647008283
 40
0.6949727907
 40
0.7251679042
 40
0.7553276492
 40
0.7854950112
 40
0.8157126511
 40
0.8460210933
 40
0.8764570331
 40
0.9070518096
 40
0.9378304114
 40
0.9688096448
 40
1.0
 40
1.0
 40
1.0
 40
1.0
 10
9.3737753866
 20
6.8970987662
 30
0.0
 10
9.3778651947
 20
6.896815137
 30
0.0
 10
9.3860488971
 20
6.8958429914
 30
0.0
 10
9.3981594973
 20
6.8932026552
 30
0.0
 10
9.4100354717
 20
6.8894008091
 30
0.0
 10
9.4215607357
 20
6.8844746416
 30
0.0
 10
9.4307750915
 20
6.8794753067
 30
0.0
 10
9.4378642615
 20
6.8749672133
 30
0.0
 10
9.444757635
 20
6.8701237976
 30
0.0
 10
9.4529554868
 20
6.8634745001
 30
0.0
 10
9.460514079
 20
6.8560990724
 30
0.0
 10
9.466137393
 20
6.849802771
 30
0.0
 10
9.4714619731
 20
6.8432610921
 30
0.0
 10
9.4775378155
 20
6.8346493666
 30
0.0
 10
9.4838323246
 20
6.8237147116
 30
0.0
 10
9.4890687157
 20
6.812286215
 30
0.0
 10
9.4931960617
 20
6.8004740453
 30
0.0
 10
9.4961745408
 20
6.7883914498
 30
0.0
 10
9.4979751413
 20
6.7761545061
 30
0.0
 10
9.4985801373
 20
6.7638808214
 30
0.0
 10
9.497983235
 20
6.7516884873
 30
0.0
 10
9.4961897196
 20
6.7396949453
 30
0.0
 10
9.4932164053
 20
6.7280158657
 30
0.0
 10
9.4890915212
 20
6.7167640341
 30
0.0
 10
9.4838544886
 20
6.706048246
 30
0.0
 10
9.4775555773
 20
6.6959722272
 30
0.0
 10
9.4702554784
 20
6.6866335635
 30
0.0
 10
9.4620247065
 20
6.6781227013
 30
0.0
 10
9.4529428883
 20
6.6705220303
 30
0.0
 10
9.4430979585
 20
6.6639050401
 30
0.0
 10
9.4325852697
 20
6.6583355847
 30
0.0
 10
9.4215065807
 20
6.6538672583
 30
0.0
 10
9.4099691744
 20
6.6505428202
 30
0.0
 10
9.3980841929
 20
6.6483940237
 30
0.0
 10
9.3859677802
 20
6.6474408917
 30
0.0
 10
9.3778376199
 20
6.6476081714
 30
0.0
 10
9.3737753866
 20
6.6478898883
 30
0.0
  0
SPLINE
  5
399
100
AcDbEntity
  8
0
100
AcDbSpline
 62
7
  6
CONTINUOUS
 70
0
 71
3
 72
15
 73
11
 74
0
 42
0.0000001
 43
0.0000001
 44
0.0000000001
 40
0.0
 40
0.0
 40
0.0
 40
0.0
 40
0.1233171282
 40
0.2468171947
 40
0.3706750037
 40
0.4950496087
 40
0.6200772873
 40
0.745867181
 40
0.8724927949
 40
1.0
 40
1.0
 40
1.0
 40
1.0
 10
9.4542432115
 20
8.7526574514
 30
0.0
 10
9.4518196828
 20
8.7503164755
 30
0.0
 10
9.4467124869
 20
8.7458885702
 30
0.0
 10
9.4383770858
 20
8.7401024612
 30
0.0
 10
9.4294454013
 20
8.7352248729
 30
0.0
 10
9.4200088895
 20
8.7313058976
 30
0.0
 10
9.4101627273
 20
8.7283844408
 30
0.0
 10
9.4000060951
 20
8.7264897412
 30
0.0
 10
9.3896426726
 20
8.7256402177
 30
0.0
 10
9.382686243
 20
8.7257759075
 30
0.0
 10
9.3792105821
 20
8.7260169454
 30
0.0
  0
SPLINE
  5
39A
100
AcDbEntity
  8
0
100
AcDbSpline
 62
7
  6
CONTINUOUS
 70
0
 71
3
 72
15
 73
11
 74
0
 42
0.0000001
 43
0.0000001
 44
0.0000000001
 40
0.0
 40
0.0
 40
0.0
 40
0.0
 40
0.1233171282
 40
0.2468171947
 40
0.3706750037
 40
0.4950496087
 40
0.6200772873
 40
0.745867181
 40
0.8724927949
 40
1.0
 40
1.0
 40
1.0
 40
1.0
 10
9.4542432115
 20
6.7000648338
 30
0.0
 10
9.4518196828
 20
6.6977238578
 30
0.0
 10
9.4467124869
 20
6.6932959526
 30
0.0
 10
9.4383770858
 20
6.6875098436
 30
0.0
 10
9.4294454013
 20
6.6826322552
 30
0.0
 10
9.4200088895
 20
6.6787132799
 30
0.0
 10
9.4101627273
 20
6.6757918232
 30
0.0
 10
9.4000060951
 20
6.6738971235
 30
0.0
 10
9.3896426726
 20
6.6730476001
 30
0.0
 10
9.382686243
 20
6.6731832899
 30
0.0
 10
9.3792105821
 20
6.6734243278
 30
0.0
  0
SPLINE
  5
39B
100
AcDbEntity
  8
0
100
AcDbSpline
 62
7
  6
CONTINUOUS
 70
0
 71
3
 72
78
 73
74
 74
0
 42
0.0000001
 43
0.0000001
 44
0.0000000001
 40
0.0
 40
0.0
 40
0.0
 40
0.0
 40
0.0027164371
 40
0.0054532491
 40
0.0082303272
 40
0.0110666222
 40
0.0139798363
 40
0.0169861527
 40
0.0201001127
 40
0.0233346396
 40
0.026700998
 40
0.0302089466
 40
0.0338668744
 40
0.0376818402
 40
0.0416598144
 40
0.0458057562
 40
0.0501236813
 40
0.0546168808
 40
0.059287906
 40
0.0641386746
 40
0.0691706168
 40
0.0743846026
 40
0.0853595197
 40
0.0970633786
 40
0.109490146
 40
0.1226294252
 40
0.1364671124
 40
0.150985944
 40
0.1661658785
 40
0.1819843614
 40
0.1984166258
 40
0.215435929
 40
0.2330137137
 40
0.2511197451
 40
0.2697223038
 40
0.2887883197
 40
0.3082834641
 40
0.3281722738
 40
0.34841829
 40
0.3689841558
 40
0.4109212935
 40
0.4536714257
 40
0.4969135612
 40
0.5403219823
 40
0.5835693742
 40
0.6263299606
 40
0.6682826638
 40
0.688858171
 40
0.7091150513
 40
0.7290159164
 40
0.7485242629
 40
0.7676046002
 40
0.7862225773
 40
0.8043450692
 40
0.8219402949
 40
0.8389779932
 40
0.8554295553
 40
0.8712681575
 40
0.8864689579
 40
0.9010093608
 40
0.9148692287
 40
0.9280311794
 40
0.9404810135
 40
0.952208223
 40
0.9632066207
 40
0.9684323271
 40
0.9734759432
 40
0.9783382867
 40
0.9830207488
 40
0.9875253533
 40
0.9918546447
 40
0.9960116446
 40
1.0
 40
1.0
 40
1.0
 40
1.0
 10
12.7773745141
 20
8.1096860757
 30
0.0
 10
12.7782703747
 20
8.109623944
 30
0.0
 10
12.7800642289
 20
8.1094181479
 30
0.0
 10
12.7827321776
 20
8.108867428
 30
0.0
 10
12.7853799457
 20
8.1080747269
 30
0.0
 10
12.788005687
 20
8.1070409247
 30
0.0
 10
12.7906080053
 20
8.1057668337
 30
0.0
 10
12.7931855776
 20
8.1042534935
 30
0.0
 10
12.7957372482
 20
8.1025020182
 30
0.0
 10
12.798261824
 20
8.1005134384
 30
0.0
 10
12.800758259
 20
8.0982889782
 30
0.0
 10
12.8032254814
 20
8.0958298472
 30
0.0
 10
12.8056623598
 20
8.0931372822
 30
0.0
 10
12.8080678801
 20
8.0902127071
 30
0.0
 10
12.810440919
 20
8.087057549
 30
0.0
 10
12.8127803597
 20
8.0836733572
 30
0.0
 10
12.8150851634
 20
8.0800618332
 30
0.0
 10
12.8173541734
 20
8.0762247203
 30
0.0
 10
12.8195863154
 20
8.0721639213
 30
0.0
 10
12.8217805269
 20
8.0678814555
 30
0.0
 10
12.8239357001
 20
8.0633794062
 30
0.0
 10
12.8268049517
 20
8.0569770381
 30
0.0
 10
12.8302747098
 20
8.0484302722
 30
0.0
 10
12.8341980885
 20
8.0375053436
 30
0.0
 10
12.8379414666
 20
8.0257643763
 30
0.0
 10
12.8414973221
 20
8.0132307507
 30
0.0
 10
12.8448584902
 20
7.9999292432
 30
0.0
 10
12.8480181501
 20
7.9858863376
 30
0.0
 10
12.8509698644
 20
7.9711300431
 30
0.0
 10
12.853707643
 20
7.955689874
 30
0.0
 10
12.8562259211
 20
7.9395967558
 30
0.0
 10
12.8585195648
 20
7.9228829464
 30
0.0
 10
12.8605838941
 20
7.9055819771
 30
0.0
 10
12.8624147233
 20
7.8877285866
 30
0.0
 10
12.8640083265
 20
7.8693586345
 30
0.0
 10
12.8653614462
 20
7.8505090249
 30
0.0
 10
12.8664713273
 20
7.8312176376
 30
0.0
 10
12.8673357124
 20
7.8115232623
 30
0.0
 10
12.8679528624
 20
7.791465459
 30
0.0
 10
12.8684474411
 20
7.7641137668
 30
0.0
 10
12.8684309615
 20
7.7293150113
 30
0.0
 10
12.8674196684
 20
7.6870319742
 30
0.0
 10
12.8654243153
 20
7.6442969879
 30
0.0
 10
12.862460829
 20
7.6014535216
 30
0.0
 10
12.8585530401
 20
7.5588456119
 30
0.0
 10
12.8537323948
 20
7.516815696
 30
0.0
 10
12.8489568554
 20
7.4823342779
 30
0.0
 10
12.8447004413
 20
7.4552992059
 30
0.0
 10
12.8413268643
 20
7.4355065957
 30
0.0
 10
12.8377583619
 20
7.4161067948
 30
0.0
 10
12.8340020932
 20
7.3971387772
 30
0.0
 10
12.8300656446
 20
7.3786406751
 30
0.0
 10
12.8259569745
 20
7.3606496509
 30
0.0
 10
12.8216843813
 20
7.343201847
 30
0.0
 10
12.817256481
 20
7.3263323076
 30
0.0
 10
12.8126822268
 20
7.3100748899
 30
0.0
 10
12.8079708719
 20
7.294462197
 30
0.0
 10
12.8031319344
 20
7.2795255239
 30
0.0
 10
12.7981751772
 20
7.2652947796
 30
0.0
 10
12.7931106284
 20
7.2517984016
 30
0.0
 10
12.7879485126
 20
7.2390632968
 30
0.0
 10
12.7826992212
 20
7.2271148196
 30
0.0
 10
12.7773732723
 20
7.2159765715
 30
0.0
 10
12.7719813626
 20
7.2056707047
 30
0.0
 10
12.7673665771
 20
7.1976615058
 30
0.0
 10
12.7636420587
 20
7.1916975721
 30
0.0
 10
12.760886654
 20
7.1875218735
 30
0.0
 10
12.7581228501
 20
7.1835689123
 30
0.0
 10
12.7553519402
 20
7.1798406224
 30
0.0
 10
12.7525752857
 20
7.1763387827
 30
0.0
 10
12.749794155
 20
7.1730651616
 30
0.0
 10
12.7470101286
 20
7.170021532
 30
0.0
 10
12.7451144929
 20
7.1681078073
 30
0.0
 10
12.7441661635
 20
7.1671917914
 30
0.0
  0
SPLINE
  5
39C
100
AcDbEntity
  8
0
100
AcDbSpline
 62
7
  6
CONTINUOUS
 70
0
 71
3
 72
15
 73
11
 74
0
 42
0.0000001
 43
0.0000001
 44
0.0000000001
 40
0.0
 40
0.0
 40
0.0
 40
0.0
 40
0.1233171282
 40
0.2468171947
 40
0.3706750037
 40
0.4950496087
 40
0.6200772873
 40
0.745867181
 40
0.8724927949
 40
1.0
 40
1.0
 40
1.0
 40
1.0
 10
11.2045008323
 20
6.5786840555
 30
0.0
 10
11.2020773036
 20
6.5763430796
 30
0.0
 10
11.1969701077
 20
6.5719151743
 30
0.0
 10
11.1886347066
 20
6.5661290653
 30
0.0
 10
11.1797030221
 20
6.561251477
 30
0.0
 10
11.1702665103
 20
6.5573325017
 30
0.0
 10
11.1604203481
 20
6.5544110449
 30
0.0
 10
11.1502637159
 20
6.5525163453
 30
0.0
 10
11.1399002934
 20
6.5516668218
 30
0.0
 10
11.1329438638
 20
6.5518025116
 30
0.0
 10
11.1294682029
 20
6.5520435495
 30
0.0
  0
SPLINE
  5
39D
100
AcDbEntity
  8
0
100
AcDbSpline
 62
7
  6
CONTINUOUS
 70
0
 71
3
 72
90
 73
86
 74
0
 42
0.0000001
 43
0.0000001
 44
0.0000000001
 40
0.0
 40
0.0
 40
0.0
 40
0.0
 40
0.0039487693
 40
0.0077209211
 40
0.0113256977
 40
0.014774616
 40
0.021256748
 40
0.0243283022
 40
0.0273113941
 40
0.0302282709
 40
0.0331028615
 40
0.0359602643
 40
0.0388260636
 40
0.0417256082
 40
0.0446832888
 40
0.0477219785
 40
0.0508625867
 40
0.054123823
 40
0.0575221653
 40
0.0610718262
 40
0.0647849912
 40
0.0686719116
 40
0.0727411366
 40
0.0769997472
 40
0.0814534341
 40
0.0861068024
 40
0.0909633925
 40
0.0960258731
 40
0.1012961678
 40
0.106775448
 40
0.1124643577
 40
0.1183629372
 40
0.1244707702
 40
0.1307870268
 40
0.1373104235
 40
0.150971484
 40
0.1654379102
 40
0.1806885897
 40
0.1966985509
 40
0.2134394394
 40
0.2308798944
 40
0.2489858575
 40
0.2677208591
 40
0.287046256
 40
0.3069214413
 40
0.3273040334
 40
0.3481500462
 40
0.3694140695
 40
0.3910494352
 40
0.4130083728
 40
0.4352421609
 40
0.4577012735
 40
0.5030933923
 40
0.5487790781
 40
0.5943484092
 40
0.6169620185
 40
0.6393936889
 40
0.6615933235
 40
0.6835114939
 40
0.7050995969
 40
0.7263100023
 40
0.7470962039
 40
0.7674129752
 40
0.7872165338
 40
0.8064647234
 40
0.8251171915
 40
0.8431355773
 40
0.8604837241
 40
0.8771279182
 40
0.8930371789
 40
0.9081835848
 40
0.9225426564
 40
0.9360938483
 40
0.9425615783
 40
0.9488217934
 40
0.9548733071
 40
0.9607154208
 40
0.9663478347
 40
0.971770736
 40
0.9769848854
 40
0.9819916176
 40
0.9867931553
 40
0.9913924894
 40
0.9957932861
 40
1.0
 40
1.0
 40
1.0
 40
1.0
 10
12.7889167252
 20
8.1361503824
 30
0.0
 10
12.7899998499
 20
8.1371583902
 30
0.0
 10
12.7921652106
 20
8.1390792093
 30
0.0
 10
12.7954876004
 20
8.1417227605
 30
0.0
 10
12.7988070168
 20
8.1440594575
 30
0.0
 10
12.8031348024
 20
8.1467081184
 30
0.0
 10
12.807550277
 20
8.1488203836
 30
0.0
 10
12.8120124618
 20
8.1503042907
 30
0.0
 10
12.8152873654
 20
8.1510834047
 30
0.0
 10
12.8185471946
 20
8.1515472222
 30
0.0
 10
12.8217896651
 20
8.1516949662
 30
0.0
 10
12.8250120275
 20
8.1515262269
 30
0.0
 10
12.8282115584
 20
8.1510411967
 30
0.0
 10
12.8313855546
 20
8.1502403262
 30
0.0
 10
12.834531594
 20
8.1491247887
 30
0.0
 10
12.8376474584
 20
8.1476957962
 30
0.0
 10
12.8407312295
 20
8.1459548822
 30
0.0
 10
12.8437812299
 20
8.1439036743
 30
0.0
 10
12.8467958106
 20
8.141543723
 30
0.0
 10
12.8497735546
 20
8.1388768205
 30
0.0
 10
12.8527129075
 20
8.1359046422
 30
0.0
 10
12.8556124165
 20
8.1326290749
 30
0.0
 10
12.8584706015
 20
8.129052095
 30
0.0
 10
12.8612858743
 20
8.1251757701
 30
0.0
 10
12.8640567924
 20
8.1210024216
 30
0.0
 10
12.8667817316
 20
8.1165344368
 30
0.0
 10
12.8694591954
 20
8.1117744502
 30
0.0
 10
12.8720876508
 20
8.1067252432
 30
0.0
 10
12.8746655208
 20
8.10138976
 30
0.0
 10
12.8771913745
 20
8.0957711649
 30
0.0
 10
12.879663646
 20
8.0898727469
 30
0.0
 10
12.8820809243
 20
8.0836980088
 30
0.0
 10
12.8844417565
 20
8.0772506067
 30
0.0
 10
12.8867447317
 20
8.0705343506
 30
0.0
 10
12.8897832297
 20
8.061080272
 30
0.0
 10
12.8934139657
 20
8.0486115806
 30
0.0
 10
12.8974549946
 20
8.0328656331
 30
0.0
 10
12.9012347064
 20
8.0161515314
 30
0.0
 10
12.9047439712
 20
7.9985091045
 30
0.0
 10
12.9079742648
 20
7.9799802287
 30
0.0
 10
12.9109177436
 20
7.9606090506
 30
0.0
 10
12.9135672675
 20
7.9404417689
 30
0.0
 10
12.9159164055
 20
7.9195265334
 30
0.0
 10
12.9179594534
 20
7.8979133076
 30
0.0
 10
12.9196914477
 20
7.8756537457
 30
0.0
 10
12.9211081745
 20
7.8528010693
 30
0.0
 10
12.9222061934
 20
7.8294099373
 30
0.0
 10
12.9229828327
 20
7.8055363109
 30
0.0
 10
12.9234361965
 20
7.7812373075
 30
0.0
 10
12.9235651571
 20
7.7565710833
 30
0.0
 10
12.9233694046
 20
7.7315966179
 30
0.0
 10
12.922673451
 20
7.6978481023
 30
0.0
 10
12.9209940386
 20
7.6553340648
 30
0.0
 10
12.9177206524
 20
7.6042321885
 30
0.0
 10
12.913955015
 20
7.5617272466
 30
0.0
 10
12.9103292415
 20
7.5279672816
 30
0.0
 10
12.907323547
 20
7.5029497511
 30
0.0
 10
12.9040320019
 20
7.4782310984
 30
0.0
 10
12.9004624655
 20
7.4538704359
 30
0.0
 10
12.8966235227
 20
7.4299260685
 30
0.0
 10
12.8925243931
 20
7.4064552815
 30
0.0
 10
12.8881749256
 20
7.3835142249
 30
0.0
 10
12.8835855719
 20
7.3611577735
 30
0.0
 10
12.8787673596
 20
7.3394393917
 30
0.0
 10
12.8737318796
 20
7.3184109962
 30
0.0
 10
12.8684912494
 20
7.2981228289
 30
0.0
 10
12.8630580807
 20
7.2786233365
 30
0.0
 10
12.8574454511
 20
7.2599590529
 30
0.0
 10
12.8516668669
 20
7.2421744678
 30
0.0
 10
12.8457362375
 20
7.2253119282
 30
0.0
 10
12.8396678332
 20
7.2094114176
 30
0.0
 10
12.8334762353
 20
7.1945107974
 30
0.0
 10
12.8281466788
 20
7.1827803752
 30
0.0
 10
12.8238232081
 20
7.1739328952
 30
0.0
 10
12.8206095645
 20
7.1676723532
 30
0.0
 10
12.8173762395
 20
7.1616870673
 30
0.0
 10
12.814125177
 20
7.1559805574
 30
0.0
 10
12.8108582876
 20
7.1505562101
 30
0.0
 10
12.8075774883
 20
7.1454172498
 30
0.0
 10
12.8042847886
 20
7.1405666868
 30
0.0
 10
12.8009820269
 20
7.1360073948
 30
0.0
 10
12.7976711385
 20
7.1317419753
 30
0.0
 10
12.7943539285
 20
7.127772915
 30
0.0
 10
12.7910325247
 20
7.1241027682
 30
0.0
 10
12.7887665603
 20
7.1218058043
 30
0.0
 10
12.7876328283
 20
7.1207107032
 30
0.0
  0
SPLINE
  5
39E
100
AcDbEntity
  8
0
100
AcDbSpline
 62
7
  6
CONTINUOUS
 70
0
 71
3
 72
82
 73
78
 74
0
 42
0.0000001
 43
0.0000001
 44
0.0000000001
 40
0.0
 40
0.0
 40
0.0
 40
0.0
 40
0.0027420848
 40
0.0055383911
 40
0.0084062214
 40
0.0113614971
 40
0.0144186179
 40
0.0175903833
 40
0.020888082
 40
0.0243214966
 40
0.0278990596
 40
0.0316279771
 40
0.035514295
 40
0.0395631126
 40
0.0437786049
 40
0.0481641706
 40
0.0527225418
 40
0.0574557816
 40
0.0623654608
 40
0.0674526282
 40
0.0727178949
 40
0.0781615178
 40
0.0895823921
 40
0.101711218
 40
0.1145389968
 40
0.1280530672
 40
0.1422376245
 40
0.1570741205
 40
0.1725415773
 40
0.1886168347
 40
0.2052747575
 40
0.2224884369
 40
0.2402293505
 40
0.2584675039
 40
0.2771715484
 40
0.2963089049
 40
0.3158458863
 40
0.3357478031
 40
0.3559790628
 40
0.3765032619
 40
0.3972832913
 40
0.4182814347
 40
0.4607780315
 40
0.5036833552
 40
0.5466831809
 40
0.5894624003
 40
0.6317079665
 40
0.652534446
 40
0.6731125543
 40
0.6934050588
 40
0.7133754133
 40
0.7329878514
 40
0.7522074872
 40
0.7710004278
 40
0.7893338745
 40
0.8071762277
 40
0.824497203
 40
0.8412679655
 40
0.857461281
 40
0.8730516596
 40
0.8880155298
 40
0.9023314454
 40
0.9159803474
 40
0.9289458691
 40
0.9412146995
 40
0.9470848923
 40
0.9527775819
 40
0.9582921797
 40
0.9636284665
 40
0.9687865071
 40
0.9737667599
 40
0.9785700906
 40
0.9831978163
 40
0.9876519117
 40
0.9919348927
 40
0.996049742
 40
1.0
 40
1.0
 40
1.0
 40
1.0
 10
12.842724162
 20
8.3200942702
 30
0.0
 10
12.8439956331
 20
8.3197957489
 30
0.0
 10
12.8465386888
 20
8.3190805916
 30
0.0
 10
12.8502928341
 20
8.3176766032
 30
0.0
 10
12.8540148009
 20
8.3159342491
 30
0.0
 10
12.8577023481
 20
8.3138549396
 30
0.0
 10
12.8613538514
 20
8.3114400632
 30
0.0
 10
12.8649677573
 20
8.3086912365
 30
0.0
 10
12.8685424651
 20
8.3056099463
 30
0.0
 10
12.8720765213
 20
8.3021979164
 30
0.0
 10
12.8755684248
 20
8.2984568821
 30
0.0
 10
12.879016622
 20
8.2943886651
 30
0.0
 10
12.8824196814
 20
8.2899953033
 30
0.0
 10
12.8857760023
 20
8.2852788578
 30
0.0
 10
12.8890841026
 20
8.28024162
 30
0.0
 10
12.8923424643
 20
8.2748860008
 30
0.0
 10
12.8955495068
 20
8.2692145386
 30
0.0
 10
12.8987037944
 20
8.2632299888
 30
0.0
 10
12.9018037608
 20
8.2569351982
 30
0.0
 10
12.9048479389
 20
8.2503332148
 30
0.0
 10
12.9078349209
 20
8.2434272165
 30
0.0
 10
12.9118028386
 20
8.2336614871
 30
0.0
 10
12.9165941675
 20
8.2207057062
 30
0.0
 10
12.9220048456
 20
8.2042422707
 30
0.0
 10
12.9271543633
 20
8.1866542145
 30
0.0
 10
12.9320326234
 20
8.1679756676
 30
0.0
 10
12.9366300281
 20
8.1482426514
 30
0.0
 10
12.9409375045
 20
8.1274934383
 30
0.0
 10
12.9449465365
 20
8.105768323
 30
0.0
 10
12.9486491939
 20
8.0831095769
 30
0.0
 10
12.9520381638
 20
8.0595613432
 30
0.0
 10
12.955106745
 20
8.0351695365
 30
0.0
 10
12.9578488681
 20
8.0099817382
 30
0.0
 10
12.9602591024
 20
7.9840471052
 30
0.0
 10
12.9623326808
 20
7.9574162754
 30
0.0
 10
12.9640655072
 20
7.9301412641
 30
0.0
 10
12.9654541514
 20
7.902275353
 30
0.0
 10
12.9664958583
 20
7.8738729831
 30
0.0
 10
12.9671885531
 20
7.8449896485
 30
0.0
 10
12.9675308506
 20
7.815681807
 30
0.0
 10
12.9675220916
 20
7.7860066934
 30
0.0
 10
12.9670402807
 20
7.745869067
 30
0.0
 10
12.9655566317
 20
7.695208076
 30
0.0
 10
12.9624025809
 20
7.6341273229
 30
0.0
 10
12.9578920872
 20
7.5729965518
 30
0.0
 10
12.9520603978
 20
7.5122934881
 30
0.0
 10
12.9461101834
 20
7.4622243955
 30
0.0
 10
12.9407149228
 20
7.4227483405
 30
0.0
 10
12.9363887805
 20
7.3936816752
 30
0.0
 10
12.9317724774
 20
7.3650726542
 30
0.0
 10
12.9268750248
 20
7.3369771401
 30
0.0
 10
12.9217060331
 20
7.3094500426
 30
0.0
 10
12.9162756296
 20
7.2825451406
 30
0.0
 10
12.9105944731
 20
7.2563149861
 30
0.0
 10
12.9046737141
 20
7.2308107978
 30
0.0
 10
12.898524973
 20
7.2060823668
 30
0.0
 10
12.8921603169
 20
7.1821779576
 30
0.0
 10
12.8855922372
 20
7.1591442019
 30
0.0
 10
12.8788336402
 20
7.137025995
 30
0.0
 10
12.8718978008
 20
7.1158664119
 30
0.0
 10
12.8647983383
 20
7.0957066138
 30
0.0
 10
12.8575491824
 20
7.0765857847
 30
0.0
 10
12.8501645397
 20
7.0585409235
 30
0.0
 10
12.8426588896
 20
7.041607114
 30
0.0
 10
12.8362243373
 20
7.0282589148
 30
0.0
 10
12.831017604
 20
7.0181719291
 30
0.0
 10
12.8271490152
 20
7.0110162451
 30
0.0
 10
12.8232611515
 20
7.0041618767
 30
0.0
 10
12.8193559299
 20
6.9976121051
 30
0.0
 10
12.8154351942
 20
6.991370125
 30
0.0
 10
12.8115008624
 20
6.9854389542
 30
0.0
 10
12.8075548741
 20
6.9798214443
 30
0.0
 10
12.8035990347
 20
6.9745203139
 30
0.0
 10
12.7996352412
 20
6.9695380291
 30
0.0
 10
12.7956652627
 20
6.9648769863
 30
0.0
 10
12.7916912156
 20
6.9605396456
 30
0.0
 10
12.7889861011
 20
6.9578104642
 30
0.0
 10
12.7876328283
 20
6.956503303
 30
0.0
  0
SPLINE
  5
39F
100
AcDbEntity
  8
0
100
AcDbSpline
 62
7
  6
CONTINUOUS
 70
0
 71
3
 72
84
 73
80
 74
0
 42
0.0000001
 43
0.0000001
 44
0.0000000001
 40
0.0
 40
0.0
 40
0.0
 40
0.0
 40
0.0027164264
 40
0.0054532293
 40
0.008230295
 40
0.0110665896
 40
0.0139797932
 40
0.0169861044
 40
0.0201000661
 40
0.0233345812
 40
0.0267009392
 40
0.0302088856
 40
0.0338668056
 40
0.037681768
 40
0.0416597414
 40
0.0458056718
 40
0.050123593
 40
0.0546167913
 40
0.0592877975
 40
0.0641385717
 40
0.0691704988
 40
0.074384467
 40
0.0797809628
 40
0.0853600226
 40
0.0911213815
 40
0.0970644148
 40
0.1094911534
 40
0.122630387
 40
0.136468035
 40
0.1509868331
 40
0.1661667198
 40
0.1819851503
 40
0.1984173662
 40
0.2154366132
 40
0.2330143274
 40
0.2511202956
 40
0.2697227959
 40
0.2887887406
 40
0.3082838034
 40
0.3281725359
 40
0.3484184777
 40
0.3689842604
 40
0.3898317162
 40
0.4109219843
 40
0.4536719359
 40
0.4969138893
 40
0.5403221212
 40
0.5835693222
 40
0.6263297187
 40
0.6474271304
 40
0.6682829869
 40
0.6888584043
 40
0.7091151927
 40
0.7290159604
 40
0.748524216
 40
0.7676044742
 40
0.7862223676
 40
0.8043447661
 40
0.8219399096
 40
0.838977535
 40
0.8554290199
 40
0.8712675451
 40
0.8864682815
 40
0.9010086172
 40
0.9148684112
 40
0.9280303001
 40
0.9404800906
 40
0.946434749
 40
0.9522077946
 40
0.957798564
 40
0.9632067735
 40
0.9684324641
 40
0.9734760551
 40
0.9783384155
 40
0.983020862
 40
0.9875253935
 40
0.9918546029
 40
0.9960115831
 40
1.0
 40
1.0
 40
1.0
 40
1.0
 10
12.8511708948
 20
8.3200846911
 30
0.0
 10
12.852468026
 20
8.3199947302
 30
0.0
 10
12.8550653727
 20
8.3196966968
 30
0.0
 10
12.8589283269
 20
8.3188992594
 30
0.0
 10
12.8627620904
 20
8.3177515255
 30
0.0
 10
12.8665639119
 20
8.3162545702
 30
0.0
 10
12.8703318674
 20
8.3144098115
 30
0.0
 10
12.8740639717
 20
8.3122185886
 30
0.0
 10
12.8777585524
 20
8.3096825469
 30
0.0
 10
12.881413948
 20
8.3068032556
 30
0.0
 10
12.8850285576
 20
8.303582382
 30
0.0
 10
12.8886008836
 20
8.3000217404
 30
0.0
 10
12.8921292823
 20
8.2961231148
 30
0.0
 10
12.895612268
 20
8.2918885487
 30
0.0
 10
12.8990482149
 20
8.2873201141
 30
0.0
 10
12.902435538
 20
8.2824200746
 30
0.0
 10
12.9057726919
 20
8.2771908643
 30
0.0
 10
12.9090580093
 20
8.2716350185
 30
0.0
 10
12.9122899869
 20
8.2657553133
 30
0.0
 10
12.9154669917
 20
8.2595546244
 30
0.0
 10
12.9185874824
 20
8.2530360291
 30
0.0
 10
12.9216499429
 20
8.2462027654
 30
0.0
 10
12.9246527945
 20
8.2390582094
 30
0.0
 10
12.9275946056
 20
8.2316059404
 30
0.0
 10
12.9304738766
 20
8.2238496449
 30
0.0
 10
12.9342843516
 20
8.212945009
 30
0.0
 10
12.9388666307
 20
8.198572383
 30
0.0
 10
12.9440152206
 20
8.1804248416
 30
0.0
 10
12.9488818976
 20
8.161165312
 30
0.0
 10
12.9534568004
 20
8.1408323401
 30
0.0
 10
12.9577306284
 20
8.1194664343
 30
0.0
 10
12.9616946954
 20
8.0971103424
 30
0.0
 10
12.9653409348
 20
8.0738088333
 30
0.0
 10
12.9686619245
 20
8.0496086217
 30
0.0
 10
12.971650902
 20
8.0245582577
 30
0.0
 10
12.974301778
 20
7.9987080306
 30
0.0
 10
12.976609161
 20
7.9721098626
 30
0.0
 10
12.9785683547
 20
7.9448171975
 30
0.0
 10
12.9801753685
 20
7.9168848849
 30
0.0
 10
12.9814269241
 20
7.8883690693
 30
0.0
 10
12.9823204632
 20
7.8593270736
 30
0.0
 10
12.9828541484
 20
7.8298173043
 30
0.0
 10
12.983026915
 20
7.7998990546
 30
0.0
 10
12.9827742551
 20
7.7593623673
 30
0.0
 10
12.9815483785
 20
7.7081159709
 30
0.0
 10
12.9786593113
 20
7.6462395223
 30
0.0
 10
12.9743684296
 20
7.5842056832
 30
0.0
 10
12.9687102164
 20
7.5225132472
 30
0.0
 10
12.9628680504
 20
7.4715751932
 30
0.0
 10
12.9575364163
 20
7.4313773179
 30
0.0
 10
12.9532453023
 20
7.401755719
 30
0.0
 10
12.9486528177
 20
7.3725866159
 30
0.0
 10
12.9437681861
 20
7.3439286163
 30
0.0
 10
12.9386012763
 20
7.3158393457
 30
0.0
 10
12.9331625129
 20
7.2883752639
 30
0.0
 10
12.9274628742
 20
7.2615915714
 30
0.0
 10
12.9215138654
 20
7.2355420916
 30
0.0
 10
12.9153274967
 20
7.2102791568
 30
0.0
 10
12.9089162697
 20
7.1858534951
 30
0.0
 10
12.9022931398
 20
7.1623141282
 30
0.0
 10
12.8954714914
 20
7.1397082717
 30
0.0
 10
12.8884651106
 20
7.1180812371
 30
0.0
 10
12.8812881503
 20
7.0974763187
 30
0.0
 10
12.8739551114
 20
7.0779347186
 30
0.0
 10
12.8664807912
 20
7.0594953404
 30
0.0
 10
12.8588802616
 20
7.0421950791
 30
0.0
 10
12.8523609165
 20
7.0285607117
 30
0.0
 10
12.8470838445
 20
7.0182603999
 30
0.0
 10
12.8431628426
 20
7.0109560401
 30
0.0
 10
12.8392217353
 20
7.0039612022
 30
0.0
 10
12.835262501
 20
6.9972793441
 30
0.0
 10
12.8312871024
 20
6.9909137971
 30
0.0
 10
12.8272974941
 20
6.984867746
 30
0.0
 10
12.8232957277
 20
6.9791441703
 30
0.0
 10
12.8192836892
 20
6.9737459242
 30
0.0
 10
12.8152633518
 20
6.9686756044
 30
0.0
 10
12.8112365712
 20
6.9639356987
 30
0.0
 10
12.8072055238
 20
6.9595287804
 30
0.0
 10
12.8044607714
 20
6.956757848
 30
0.0
 10
12.8030876431
 20
6.9554315079
 30
0.0
  0
SPLINE
  5
3A0
100
AcDbEntity
  8
0
100
AcDbSpline
 62
7
  6
CONTINUOUS
 70
0
 71
3
 72
42
 73
38
 74
0
 42
0.0000001
 43
0.0000001
 44
0.0000000001
 40
0.0
 40
0.0
 40
0.0
 40
0.0
 40
0.0299419644
 40
0.0449235317
 40
0.0599142035
 40
0.0899287023
 40
0.1200139727
 40
0.1350926544
 40
0.1501966973
 40
0.1804840373
 40
0.210897868
 40
0.2414513286
 40
0.2721543342
 40
0.3030133956
 40
0.3340315238
 40
0.3652082165
 40
0.3965395222
 40
0.4280181758
 40
0.459633799
 40
0.4913731572
 40
0.5232204671
 40
0.5551577446
 40
0.5871651885
 40
0.6192215901
 40
0.6513047644
 40
0.683391994
 40
0.715460481
 40
0.7474877999
 40
0.7794523452
 40
0.8113337678
 40
0.8431133918
 40
0.8747746145
 40
0.906303246
 40
0.9376878974
 40
0.9533257627
 40
0.9689252947
 40
1.0
 40
1.0
 40
1.0
 40
1.0
 10
10.0388314839
 20
8.5112592121
 30
0.0
 10
10.0351983468
 20
8.5077498726
 30
0.0
 10
10.0295344934
 20
8.502698502
 30
0.0
 10
10.0216024236
 20
8.4964307988
 30
0.0
 10
10.0134176874
 20
8.49047507
 30
0.0
 10
10.0027380111
 20
8.4836358751
 30
0.0
 10
9.9915390354
 20
8.477653617
 30
0.0
 10
9.982302824
 20
8.4733977353
 30
0.0
 10
9.9728757596
 20
8.4694933046
 30
0.0
 10
9.9607813081
 20
8.4652948281
 30
0.0
 10
9.9458767032
 20
8.4613819796
 30
0.0
 10
9.9306468774
 20
8.4586099993
 30
0.0
 10
9.9151762253
 20
8.456994197
 30
0.0
 10
9.8995497327
 20
8.4565431912
 30
0.0
 10
9.8838533808
 20
8.4572592788
 30
0.0
 10
9.8681734408
 20
8.4591383228
 30
0.0
 10
9.8525960674
 20
8.4621698144
 30
0.0
 10
9.8372068138
 20
8.4663369291
 30
0.0
 10
9.8220901729
 20
8.4716166271
 30
0.0
 10
9.8073291185
 20
8.4779797832
 30
0.0
 10
9.793004657
 20
8.4853913486
 30
0.0
 10
9.7791953884
 20
8.4938105445
 30
0.0
 10
9.7659770813
 20
8.5031910856
 30
0.0
 10
9.7534222622
 20
8.513481433
 30
0.0
 10
9.7415998223
 20
8.5246250752
 30
0.0
 10
9.7305746437
 20
8.5365608356
 30
0.0
 10
9.7204072472
 20
8.5492232048
 30
0.0
 10
9.7111534631
 20
8.5625426981
 30
0.0
 10
9.7028641276
 20
8.5764462275
 30
0.0
 10
9.6955848055
 20
8.5908575148
 30
0.0
 10
9.6893555447
 20
8.6056974452
 30
0.0
 10
9.6842106382
 20
8.6208847167
 30
0.0
 10
9.6801785164
 20
8.6363354614
 30
0.0
 10
9.6777611635
 20
8.6493775616
 30
0.0
 10
9.6764051047
 20
8.6598567411
 30
0.0
 10
9.6754373182
 20
8.6703258906
 30
0.0
 10
9.6751442798
 20
8.6782038585
 30
0.0
 10
9.6751442798
 20
8.6834462057
 30
0.0
  0
SPLINE
  5
3A1
100
AcDbEntity
  8
0
100
AcDbSpline
 62
7
  6
CONTINUOUS
 70
0
 71
3
 72
18
 73
14
 74
0
 42
0.0000001
 43
0.0000001
 44
0.0000000001
 40
0.0
 40
0.0
 40
0.0
 40
0.0
 40
0.0539806622
 40
0.1081920731
 40
0.1628619191
 40
0.2182116546
 40
0.3317375181
 40
0.4503907162
 40
0.5120901745
 40
0.575557518
 40
0.7082858204
 40
0.8495325552
 40
1.0
 40
1.0
 40
1.0
 40
1.0
 10
12.6926505457
 20
8.9308296394
 30
0.0
 10
12.6935016113
 20
8.9307706218
 30
0.0
 10
12.6952119526
 20
8.9307101243
 30
0.0
 10
12.6977863138
 20
8.9307928291
 30
0.0
 10
12.700371129
 20
8.9310489242
 30
0.0
 10
12.7038587629
 20
8.9316258912
 30
0.0
 10
12.7082621706
 20
8.9327971351
 30
0.0
 10
12.7125886171
 20
8.9345134504
 30
0.0
 10
12.7160488973
 20
8.9362119811
 30
0.0
 10
12.7196140587
 20
8.9381904051
 30
0.0
 10
12.7240849906
 20
8.9411120009
 30
0.0
 10
12.7293780818
 20
8.9452429119
 30
0.0
 10
12.7327965282
 20
8.9483427339
 30
0.0
 10
12.7345069047
 20
8.9499948308
 30
0.0
  0
SPLINE
  5
3A2
100
AcDbEntity
  8
0
100
AcDbSpline
 62
7
  6
CONTINUOUS
 70
0
 71
3
 72
28
 73
24
 74
0
 42
0.0000001
 43
0.0000001
 44
0.0000000001
 40
0.0
 40
0.0
 40
0.0
 40
0.0
 40
0.0742632465
 40
0.1440564157
 40
0.2097513662
 40
0.271813226
 40
0.3308103696
 40
0.3593795323
 40
0.3874446424
 40
0.4151054486
 40
0.4424666796
 40
0.4696367681
 40
0.4967266596
 40
0.523848402
 40
0.5511135718
 40
0.5786318955
 40
0.6065098421
 40
0.6637217707
 40
0.7235256585
 40
0.7865657279
 40
0.8533815233
 40
0.9244134037
 40
1.0
 40
1.0
 40
1.0
 40
1.0
 10
12.7010190203
 20
8.8975502673
 30
0.0
 10
12.7026000302
 20
8.8956063342
 30
0.0
 10
12.705789336
 20
8.8919322367
 30
0.0
 10
12.7108214967
 20
8.886945715
 30
0.0
 10
12.7159442332
 20
8.882666871
 30
0.0
 10
12.7211527471
 20
8.879102212
 30
0.0
 10
12.7256099053
 20
8.8767062549
 30
0.0
 10
12.7291986878
 20
8.8751706576
 30
0.0
 10
12.7318785632
 20
8.8742124143
 30
0.0
 10
12.7345742832
 20
8.8734360091
 30
0.0
 10
12.737285072
 20
8.8728416507
 30
0.0
 10
12.7400100547
 20
8.8724296073
 30
0.0
 10
12.7427483511
 20
8.8722001073
 30
0.0
 10
12.7454990522
 20
8.8721531881
 30
0.0
 10
12.74826123
 20
8.8722888034
 30
0.0
 10
12.7510340809
 20
8.8726069643
 30
0.0
 10
12.7547757029
 20
8.8732798141
 30
0.0
 10
12.7594976569
 20
8.8745949289
 30
0.0
 10
12.7651359253
 20
8.8768883317
 30
0.0
 10
12.7707913645
 20
8.8799047188
 30
0.0
 10
12.7764584559
 20
8.8836387487
 30
0.0
 10
12.7821322949
 20
8.8880847384
 30
0.0
 10
12.7857984861
 20
8.8914127734
 30
0.0
 10
12.7876328283
 20
8.8931846119
 30
0.0
  0
SPLINE
  5
3A3
100
AcDbEntity
  8
0
100
AcDbSpline
 62
7
  6
CONTINUOUS
 70
0
 71
3
 72
42
 73
38
 74
0
 42
0.0000001
 43
0.0000001
 44
0.0000000001
 40
0.0
 40
0.0
 40
0.0
 40
0.0
 40
0.0299419644
 40
0.0449235317
 40
0.0599142035
 40
0.0899287023
 40
0.1200139727
 40
0.1350926544
 40
0.1501966973
 40
0.1804840373
 40
0.210897868
 40
0.2414513286
 40
0.2721543342
 40
0.3030133956
 40
0.3340315238
 40
0.3652082165
 40
0.3965395222
 40
0.4280181758
 40
0.459633799
 40
0.4913731572
 40
0.5232204671
 40
0.5551577446
 40
0.5871651885
 40
0.6192215901
 40
0.6513047644
 40
0.683391994
 40
0.715460481
 40
0.7474877999
 40
0.7794523452
 40
0.8113337678
 40
0.8431133918
 40
0.8747746145
 40
0.906303246
 40
0.9376878974
 40
0.9533257627
 40
0.9689252947
 40
1.0
 40
1.0
 40
1.0
 40
1.0
 10
10.4619069859
 20
7.9690121648
 30
0.0
 10
10.4582738488
 20
7.9655028252
 30
0.0
 10
10.4526099954
 20
7.9604514546
 30
0.0
 10
10.4446779256
 20
7.9541837514
 30
0.0
 10
10.4364931893
 20
7.9482280226
 30
0.0
 10
10.425813513
 20
7.9413888277
 30
0.0
 10
10.4146145374
 20
7.9354065696
 30
0.0
 10
10.405378326
 20
7.931150688
 30
0.0
 10
10.3959512616
 20
7.9272462572
 30
0.0
 10
10.3838568101
 20
7.9230477807
 30
0.0
 10
10.3689522052
 20
7.9191349322
 30
0.0
 10
10.3537223794
 20
7.9163629519
 30
0.0
 10
10.3382517273
 20
7.9147471496
 30
0.0
 10
10.3226252346
 20
7.9142961438
 30
0.0
 10
10.3069288827
 20
7.9150122314
 30
0.0
 10
10.2912489428
 20
7.9168912755
 30
0.0
 10
10.2756715693
 20
7.919922767
 30
0.0
 10
10.2602823158
 20
7.9240898817
 30
0.0
 10
10.2451656749
 20
7.9293695798
 30
0.0
 10
10.2304046205
 20
7.9357327358
 30
0.0
 10
10.216080159
 20
7.9431443012
 30
0.0
 10
10.2022708904
 20
7.9515634971
 30
0.0
 10
10.1890525833
 20
7.9609440383
 30
0.0
 10
10.1764977642
 20
7.9712343857
 30
0.0
 10
10.1646753243
 20
7.9823780278
 30
0.0
 10
10.1536501457
 20
7.9943137882
 30
0.0
 10
10.1434827492
 20
8.0069761575
 30
0.0
 10
10.134228965
 20
8.0202956507
 30
0.0
 10
10.1259396296
 20
8.0341991801
 30
0.0
 10
10.1186603075
 20
8.0486104675
 30
0.0
 10
10.1124310467
 20
8.0634503978
 30
0.0
 10
10.1072861402
 20
8.0786376693
 30
0.0
 10
10.1032540184
 20
8.0940884141
 30
0.0
 10
10.1008366655
 20
8.1071305142
 30
0.0
 10
10.0994806067
 20
8.1176096938
 30
0.0
 10
10.0985128202
 20
8.1280788433
 30
0.0
 10
10.0982197817
 20
8.1359568111
 30
0.0
 10
10.0982197817
 20
8.1411991583
 30
0.0
  0
SPLINE
  5
3A4
100
AcDbEntity
  8
0
100
AcDbSpline
 62
7
  6
CONTINUOUS
 70
0
 71
3
 72
16
 73
12
 74
0
 42
0.0000001
 43
0.0000001
 44
0.0000000001
 40
0.0
 40
0.0
 40
0.0
 40
0.0
 40
0.0536105022
 40
0.1077602693
 40
0.2182934558
 40
0.3328853196
 40
0.4526366262
 40
0.5784939858
 40
0.7112569597
 40
0.8515869014
 40
1.0
 40
1.0
 40
1.0
 40
1.0
 10
12.7339223057
 20
8.6577443807
 30
0.0
 10
12.7350240211
 20
8.6578047656
 30
0.0
 10
12.7372355166
 20
8.6579918585
 30
0.0
 10
12.7416847361
 20
8.6586299643
 30
0.0
 10
12.7472960378
 20
8.6599336953
 30
0.0
 10
12.7540104468
 20
8.662272319
 30
0.0
 10
12.7607479706
 20
8.6653911046
 30
0.0
 10
12.7675026403
 20
8.6692849392
 30
0.0
 10
12.7742699046
 20
8.673949072
 30
0.0
 10
12.7810444305
 20
8.6793782021
 30
0.0
 10
12.7854358499
 20
8.6833884287
 30
0.0
 10
12.7876328283
 20
8.685510547
 30
0.0
  0
SPLINE
  5
3A5
100
AcDbEntity
  8
0
100
AcDbSpline
 62
7
  6
CONTINUOUS
 70
0
 71
3
 72
42
 73
38
 74
0
 42
0.0000001
 43
0.0000001
 44
0.0000000001
 40
0.0
 40
0.0
 40
0.0
 40
0.0
 40
0.0299419644
 40
0.0449235317
 40
0.0599142035
 40
0.0899287023
 40
0.1200139727
 40
0.1350926544
 40
0.1501966973
 40
0.1804840373
 40
0.210897868
 40
0.2414513286
 40
0.2721543342
 40
0.3030133956
 40
0.3340315238
 40
0.3652082165
 40
0.3965395222
 40
0.4280181758
 40
0.459633799
 40
0.4913731572
 40
0.5232204671
 40
0.5551577446
 40
0.5871651885
 40
0.6192215901
 40
0.6513047644
 40
0.683391994
 40
0.715460481
 40
0.7474877999
 40
0.7794523452
 40
0.8113337678
 40
0.8431133918
 40
0.8747746145
 40
0.906303246
 40
0.9376878974
 40
0.9533257627
 40
0.9689252947
 40
1.0
 40
1.0
 40
1.0
 40
1.0
 10
11.0347009722
 20
7.5361568697
 30
0.0
 10
11.0310678351
 20
7.5326475301
 30
0.0
 10
11.0254039817
 20
7.5275961595
 30
0.0
 10
11.0174719118
 20
7.5213284563
 30
0.0
 10
11.0092871756
 20
7.5153727275
 30
0.0
 10
10.9986074993
 20
7.5085335326
 30
0.0
 10
10.9874085237
 20
7.5025512745
 30
0.0
 10
10.9781723123
 20
7.4982953929
 30
0.0
 10
10.9687452478
 20
7.4943909621
 30
0.0
 10
10.9566507964
 20
7.4901924856
 30
0.0
 10
10.9417461915
 20
7.4862796371
 30
0.0
 10
10.9265163656
 20
7.4835076568
 30
0.0
 10
10.9110457135
 20
7.4818918545
 30
0.0
 10
10.8954192209
 20
7.4814408487
 30
0.0
 10
10.879722869
 20
7.4821569363
 30
0.0
 10
10.864042929
 20
7.4840359804
 30
0.0
 10
10.8484655556
 20
7.4870674719
 30
0.0
 10
10.833076302
 20
7.4912345866
 30
0.0
 10
10.8179596612
 20
7.4965142847
 30
0.0
 10
10.8031986068
 20
7.5028774407
 30
0.0
 10
10.7888741453
 20
7.5102890061
 30
0.0
 10
10.7750648766
 20
7.518708202
 30
0.0
 10
10.7618465696
 20
7.5280887432
 30
0.0
 10
10.7492917505
 20
7.5383790906
 30
0.0
 10
10.7374693106
 20
7.5495227327
 30
0.0
 10
10.726444132
 20
7.5614584931
 30
0.0
 10
10.7162767355
 20
7.5741208624
 30
0.0
 10
10.7070229513
 20
7.5874403556
 30
0.0
 10
10.6987336159
 20
7.601343885
 30
0.0
 10
10.6914542938
 20
7.6157551724
 30
0.0
 10
10.685225033
 20
7.6305951027
 30
0.0
 10
10.6800801265
 20
7.6457823742
 30
0.0
 10
10.6760480047
 20
7.661233119
 30
0.0
 10
10.6736306517
 20
7.6742752191
 30
0.0
 10
10.6722745929
 20
7.6847543987
 30
0.0
 10
10.6713068065
 20
7.6952235482
 30
0.0
 10
10.671013768
 20
7.703101516
 30
0.0
 10
10.671013768
 20
7.7083438632
 30
0.0
  0
SPLINE
  5
3A6
100
AcDbEntity
  8
0
100
AcDbSpline
 62
7
  6
CONTINUOUS
 70
0
 71
3
 72
82
 73
78
 74
0
 42
0.0000001
 43
0.0000001
 44
0.0000000001
 40
0.0
 40
0.0
 40
0.0
 40
0.0
 40
0.0027164292
 40
0.0054532357
 40
0.008230301
 40
0.0110665916
 40
0.0139797994
 40
0.0169860978
 40
0.0201000621
 40
0.0233345721
 40
0.0267009166
 40
0.0302088707
 40
0.0338667702
 40
0.0376817343
 40
0.0416597032
 40
0.0458056151
 40
0.0501235472
 40
0.0546167249
 40
0.059287731
 40
0.0641385036
 40
0.0691704123
 40
0.0743843916
 40
0.0797808716
 40
0.0853599296
 40
0.0970637644
 40
0.1094905029
 40
0.1226297375
 40
0.136467383
 40
0.150986178
 40
0.1661660688
 40
0.1819845054
 40
0.1984167264
 40
0.2154359807
 40
0.2330137103
 40
0.2511196937
 40
0.2697222057
 40
0.2887881631
 40
0.3082832462
 40
0.328172005
 40
0.3484179693
 40
0.3689837715
 40
0.3898312504
 40
0.4109215483
 40
0.4536715587
 40
0.4969135729
 40
0.5403218704
 40
0.5835691403
 40
0.6263296061
 40
0.6474270532
 40
0.6682829459
 40
0.6888583971
 40
0.7091152195
 40
0.7290160241
 40
0.7485243176
 40
0.7676046077
 40
0.7862225278
 40
0.8043449595
 40
0.8219401421
 40
0.8389778028
 40
0.8554293097
 40
0.8712678555
 40
0.8864686233
 40
0.9010089959
 40
0.9148688145
 40
0.928030718
 40
0.9404805265
 40
0.9522077129
 40
0.9577984903
 40
0.9632067199
 40
0.9684324145
 40
0.973476016
 40
0.9783383699
 40
0.9830208167
 40
0.9875253777
 40
0.9918546238
 40
0.9960116126
 40
1.0
 40
1.0
 40
1.0
 40
1.0
 10
12.7763632637
 20
10.1379303414
 30
0.0
 10
12.7774924219
 20
10.1378520394
 30
0.0
 10
12.7797534294
 20
10.1375926579
 30
0.0
 10
12.783116142
 20
10.136898466
 30
0.0
 10
12.7864534516
 20
10.1358993952
 30
0.0
 10
12.7897629684
 20
10.1345963372
 30
0.0
 10
12.7930429646
 20
10.1329904432
 30
0.0
 10
12.7962918124
 20
10.1310830523
 30
0.0
 10
12.7995079397
 20
10.1288754058
 30
0.0
 10
12.8026899804
 20
10.1263689993
 30
0.0
 10
12.8058365402
 20
10.12356526
 30
0.0
 10
12.8089462267
 20
10.1204656938
 30
0.0
 10
12.8120177566
 20
10.1170719803
 30
0.0
 10
12.8150496893
 20
10.1133857761
 30
0.0
 10
12.8180406954
 20
10.1094089567
 30
0.0
 10
12.8209894059
 20
10.1051434886
 30
0.0
 10
12.8238943747
 20
10.100591439
 30
0.0
 10
12.8267542958
 20
10.0957550901
 30
0.0
 10
12.829567733
 20
10.090636795
 30
0.0
 10
12.8323333249
 20
10.0852390881
 30
0.0
 10
12.8350497562
 20
10.0795646519
 30
0.0
 10
12.8377156062
 20
10.0736162771
 30
0.0
 10
12.8403296506
 20
10.0673969317
 30
0.0
 10
12.8437996286
 20
10.0586064473
 30
0.0
 10
12.8479846446
 20
10.046952385
 30
0.0
 10
12.8527028529
 20
10.0321540707
 30
0.0
 10
12.8571847215
 20
10.0163564254
 30
0.0
 10
12.8614211946
 20
9.9995910031
 30
0.0
 10
12.8654036778
 20
9.9818910842
 30
0.0
 10
12.8691240692
 20
9.9632920055
 30
0.0
 10
12.8725748133
 20
9.9438309585
 30
0.0
 10
12.8757488895
 20
9.9235469233
 30
0.0
 10
12.8786398358
 20
9.9024805604
 30
0.0
 10
12.8812417573
 20
9.8806741323
 30
0.0
 10
12.8835493621
 20
9.8581714193
 30
0.0
 10
12.8855579592
 20
9.8350176229
 30
0.0
 10
12.8872634581
 20
9.8112592627
 30
0.0
 10
12.8886623781
 20
9.7869440808
 30
0.0
 10
12.8897518629
 20
9.7621209533
 30
0.0
 10
12.8905296992
 20
9.7368397851
 30
0.0
 10
12.8909942872
 20
9.7111514201
 30
0.0
 10
12.8911446937
 20
9.6851074684
 30
0.0
 10
12.8909247553
 20
9.64982012
 30
0.0
 10
12.8898576299
 20
9.6052099239
 30
0.0
 10
12.8873427114
 20
9.5513462208
 30
0.0
 10
12.8836074787
 20
9.4973455061
 30
0.0
 10
12.8786820012
 20
9.4436419785
 30
0.0
 10
12.8735963739
 20
9.3993001852
 30
0.0
 10
12.868955171
 20
9.3643077611
 30
0.0
 10
12.865219744
 20
9.3385220305
 30
0.0
 10
12.861221968
 20
9.3131302001
 30
0.0
 10
12.8569698784
 20
9.2881832863
 30
0.0
 10
12.8524720667
 20
9.2637314504
 30
0.0
 10
12.847737607
 20
9.2398238438
 30
0.0
 10
12.8427760486
 20
9.2165085235
 30
0.0
 10
12.837597408
 20
9.1938323406
 30
0.0
 10
12.8322121516
 20
9.1718408426
 30
0.0
 10
12.8266311584
 20
9.1505781887
 30
0.0
 10
12.8208657015
 20
9.1300870619
 30
0.0
 10
12.8149274238
 20
9.1104085698
 30
0.0
 10
12.8088283364
 20
9.0915821452
 30
0.0
 10
12.8025807662
 20
9.073645472
 30
0.0
 10
12.7961973325
 20
9.056634399
 30
0.0
 10
12.7896909087
 20
9.0405828851
 30
0.0
 10
12.7830745991
 20
9.0255227752
 30
0.0
 10
12.77636172
 20
9.0114841329
 30
0.0
 10
12.7706103657
 20
9.0004907942
 30
0.0
 10
12.765961795
 20
8.9922401461
 30
0.0
 10
12.7625152555
 20
8.9864235468
 30
0.0
 10
12.7590546398
 20
8.9808823196
 30
0.0
 10
12.7555816839
 20
8.9756192038
 30
0.0
 10
12.7520981353
 20
8.9706368123
 30
0.0
 10
12.7486056359
 20
8.9659376182
 30
0.0
 10
12.7451059086
 20
8.9615238645
 30
0.0
 10
12.7416005544
 20
8.9573977477
 30
0.0
 10
12.7380915142
 20
8.9535615059
 30
0.0
 10
12.7357022079
 20
8.9511494051
 30
0.0
 10
12.7345069047
 20
8.9499948308
 30
0.0
  0
SPLINE
  5
3A7
100
AcDbEntity
  8
0
100
AcDbSpline
 62
7
  6
CONTINUOUS
 70
0
 71
3
 72
42
 73
38
 74
0
 42
0.0000001
 43
0.0000001
 44
0.0000000001
 40
0.0
 40
0.0
 40
0.0
 40
0.0
 40
0.0299419644
 40
0.0449235317
 40
0.0599142035
 40
0.0899287023
 40
0.1200139727
 40
0.1350926544
 40
0.1501966973
 40
0.1804840373
 40
0.210897868
 40
0.2414513286
 40
0.2721543342
 40
0.3030133956
 40
0.3340315238
 40
0.3652082165
 40
0.3965395222
 40
0.4280181758
 40
0.459633799
 40
0.4913731572
 40
0.5232204671
 40
0.5551577446
 40
0.5871651885
 40
0.6192215901
 40
0.6513047644
 40
0.683391994
 40
0.715460481
 40
0.7474877999
 40
0.7794523452
 40
0.8113337678
 40
0.8431133918
 40
0.8747746145
 40
0.906303246
 40
0.9376878974
 40
0.9533257627
 40
0.9689252947
 40
1.0
 40
1.0
 40
1.0
 40
1.0
 10
10.4619069859
 20
7.1837144565
 30
0.0
 10
10.4582738488
 20
7.1802051169
 30
0.0
 10
10.4526099954
 20
7.1751537463
 30
0.0
 10
10.4446779256
 20
7.1688860431
 30
0.0
 10
10.4364931893
 20
7.1629303143
 30
0.0
 10
10.425813513
 20
7.1560911194
 30
0.0
 10
10.4146145374
 20
7.1501088613
 30
0.0
 10
10.405378326
 20
7.1458529797
 30
0.0
 10
10.3959512616
 20
7.1419485489
 30
0.0
 10
10.3838568101
 20
7.1377500724
 30
0.0
 10
10.3689522052
 20
7.1338372239
 30
0.0
 10
10.3537223794
 20
7.1310652436
 30
0.0
 10
10.3382517273
 20
7.1294494413
 30
0.0
 10
10.3226252346
 20
7.1289984355
 30
0.0
 10
10.3069288827
 20
7.1297145231
 30
0.0
 10
10.2912489428
 20
7.1315935672
 30
0.0
 10
10.2756715693
 20
7.1346250587
 30
0.0
 10
10.2602823158
 20
7.1387921734
 30
0.0
 10
10.2451656749
 20
7.1440718715
 30
0.0
 10
10.2304046205
 20
7.1504350275
 30
0.0
 10
10.216080159
 20
7.1578465929
 30
0.0
 10
10.2022708904
 20
7.1662657888
 30
0.0
 10
10.1890525833
 20
7.17564633
 30
0.0
 10
10.1764977642
 20
7.1859366774
 30
0.0
 10
10.1646753243
 20
7.1970803195
 30
0.0
 10
10.1536501457
 20
7.2090160799
 30
0.0
 10
10.1434827492
 20
7.2216784492
 30
0.0
 10
10.134228965
 20
7.2349979424
 30
0.0
 10
10.1259396296
 20
7.2489014718
 30
0.0
 10
10.1186603075
 20
7.2633127592
 30
0.0
 10
10.1124310467
 20
7.2781526895
 30
0.0
 10
10.1072861402
 20
7.293339961
 30
0.0
 10
10.1032540184
 20
7.3087907058
 30
0.0
 10
10.1008366655
 20
7.3218328059
 30
0.0
 10
10.0994806067
 20
7.3323119855
 30
0.0
 10
10.0985128202
 20
7.342781135
 30
0.0
 10
10.0982197817
 20
7.3506591028
 30
0.0
 10
10.0982197817
 20
7.35590145
 30
0.0
  0
SPLINE
  5
3A8
100
AcDbEntity
  8
0
100
AcDbSpline
 62
7
  6
CONTINUOUS
 70
0
 71
3
 72
95
 73
91
 74
0
 42
0.0000001
 43
0.0000001
 44
0.0000000001
 40
0.0
 40
0.0
 40
0.0
 40
0.0
 40
0.0039488007
 40
0.007720916
 40
0.0113256488
 40
0.0147745616
 40
0.0212567186
 40
0.0243282582
 40
0.0273113428
 40
0.0302282128
 40
0.0331027965
 40
0.0359601909
 40
0.0388259809
 40
0.0417255092
 40
0.0446831794
 40
0.0477218533
 40
0.0508624402
 40
0.0541236687
 40
0.0575219779
 40
0.0610716314
 40
0.0647847658
 40
0.0686716662
 40
0.0727408738
 40
0.0769994487
 40
0.0814531235
 40
0.0861064537
 40
0.0909630241
 40
0.0960254766
 40
0.10129574
 40
0.1067749975
 40
0.1124638726
 40
0.1183624242
 40
0.1244702282
 40
0.1307864508
 40
0.1373098184
 40
0.1440387597
 40
0.1509713108
 40
0.1654376699
 40
0.1806882858
 40
0.1966981838
 40
0.2134390026
 40
0.230879378
 40
0.2489852609
 40
0.2677201879
 40
0.2870455154
 40
0.3069206299
 40
0.3273031439
 40
0.3481490759
 40
0.36941302
 40
0.3910483086
 40
0.4130071692
 40
0.4352408786
 40
0.4576999123
 40
0.4803340952
 40
0.5030927501
 40
0.5259248447
 40
0.5487791377
 40
0.5716043246
 40
0.5943491832
 40
0.6169627197
 40
0.6393943156
 40
0.661593876
 40
0.6835119767
 40
0.7051000135
 40
0.7263103535
 40
0.7470964888
 40
0.7674131945
 40
0.7872166923
 40
0.8064648244
 40
0.8251172341
 40
0.8431355594
 40
0.8604836468
 40
0.877127791
 40
0.8930370111
 40
0.9081833759
 40
0.9225423999
 40
0.9294203094
 40
0.9360940517
 40
0.9425617706
 40
0.9488219521
 40
0.9548734657
 40
0.9607155463
 40
0.9663479408
 40
0.9717708247
 40
0.9769849663
 40
0.9819917063
 40
0.9867932016
 40
0.9913924736
 40
0.9957932476
 40
1.0
 40
1.0
 40
1.0
 40
1.0
 10
12.7892466332
 20
10.169737133
 30
0.0
 10
12.7906082866
 20
10.1710043632
 30
0.0
 10
12.7933304489
 20
10.1734191311
 30
0.0
 10
12.7975071632
 20
10.1767424542
 30
0.0
 10
12.8016801198
 20
10.1796800139
 30
0.0
 10
12.8071207606
 20
10.1830097874
 30
0.0
 10
12.812671637
 20
10.1856652875
 30
0.0
 10
12.8182812727
 20
10.1875307513
 30
0.0
 10
12.8223982843
 20
10.1885102555
 30
0.0
 10
12.8264963601
 20
10.1890933679
 30
0.0
 10
12.8305726116
 20
10.1892790893
 30
0.0
 10
12.8346235928
 20
10.1890670579
 30
0.0
 10
12.8386458488
 20
10.188457235
 30
0.0
 10
12.8426360387
 20
10.1874505305
 30
0.0
 10
12.8465910483
 20
10.186048111
 30
0.0
 10
12.8505081401
 20
10.1842516965
 30
0.0
 10
12.8543849065
 20
10.1820631669
 30
0.0
 10
12.8582191542
 20
10.1794844712
 30
0.0
 10
12.8620089718
 20
10.176517758
 30
0.0
 10
12.8657523743
 20
10.1731650471
 30
0.0
 10
12.8694476006
 20
10.1694286463
 30
0.0
 10
12.8730926917
 20
10.1653107974
 30
0.0
 10
12.8766858275
 20
10.1608140312
 30
0.0
 10
12.8802250658
 20
10.1559409736
 30
0.0
 10
12.8837084704
 20
10.1506944743
 30
0.0
 10
12.8871341489
 20
10.1450776134
 30
0.0
 10
12.8905000857
 20
10.1390936357
 30
0.0
 10
12.8938044408
 20
10.1327460787
 30
0.0
 10
12.8970452024
 20
10.1260386301
 30
0.0
 10
12.9002205537
 20
10.1189752633
 30
0.0
 10
12.9033285693
 20
10.1115601263
 30
0.0
 10
12.9063674311
 20
10.1037976104
 30
0.0
 10
12.9093353442
 20
10.0956923148
 30
0.0
 10
12.9122304995
 20
10.0872490416
 30
0.0
 10
12.915051224
 20
10.0784728215
 30
0.0
 10
12.9177957861
 20
10.069368853
 30
0.0
 10
12.9214027627
 20
10.0566189562
 30
0.0
 10
12.925694854
 20
10.039893999
 30
0.0
 10
12.9304465251
 20
10.0188821653
 30
0.0
 10
12.9348581697
 20
9.9967030723
 30
0.0
 10
12.9389191196
 20
9.9734096532
 30
0.0
 10
12.9426195078
 20
9.9490573272
 30
0.0
 10
12.9459503524
 20
9.9237041884
 30
0.0
 10
12.9489035641
 20
9.8974107543
 30
0.0
 10
12.9514719711
 20
9.8702398387
 30
0.0
 10
12.9536493379
 20
9.8422563848
 30
0.0
 10
12.9554303754
 20
9.8135273042
 30
0.0
 10
12.9568107534
 20
9.7841213096
 30
0.0
 10
12.9577871096
 20
9.7541087466
 30
0.0
 10
12.9583570573
 20
9.7235614235
 30
0.0
 10
12.9585191899
 20
9.6925524364
 30
0.0
 10
12.9582730836
 20
9.6611559942
 30
0.0
 10
12.9576192992
 20
9.6294472391
 30
0.0
 10
12.9565593818
 20
9.5975020649
 30
0.0
 10
12.9550958537
 20
9.5653969339
 30
0.0
 10
12.9532322084
 20
9.5332086922
 30
0.0
 10
12.9509729018
 20
9.5010143854
 30
0.0
 10
12.9483233418
 20
9.4688910737
 30
0.0
 10
12.9452898751
 20
9.4369156472
 30
0.0
 10
12.9418797716
 20
9.405164641
 30
0.0
 10
12.9381012099
 20
9.37371405
 30
0.0
 10
12.9339632573
 20
9.3426391457
 30
0.0
 10
12.9294758458
 20
9.3120142947
 30
0.0
 10
12.9246497498
 20
9.2819127805
 30
0.0
 10
12.9194965601
 20
9.252406626
 30
0.0
 10
12.9140286569
 20
9.2235664207
 30
0.0
 10
12.9082591807
 20
9.1954611483
 30
0.0
 10
12.9022020002
 20
9.1681580183
 30
0.0
 10
12.8958716834
 20
9.1417222993
 30
0.0
 10
12.8892834608
 20
9.1162171562
 30
0.0
 10
12.8824531872
 20
9.0917034967
 30
0.0
 10
12.8753973039
 20
9.068239809
 30
0.0
 10
12.8681327963
 20
9.0458820394
 30
0.0
 10
12.8606771502
 20
9.024683341
 30
0.0
 10
12.8530482993
 20
9.0046942804
 30
0.0
 10
12.8464709524
 20
8.9888648137
 30
0.0
 10
12.8411255342
 20
8.9768524691
 30
0.0
 10
12.8371421858
 20
8.9683042749
 30
0.0
 10
12.8331293244
 20
8.960092544
 30
0.0
 10
12.8290893022
 20
8.9522221575
 30
0.0
 10
12.8250245774
 20
8.9446977777
 30
0.0
 10
12.8209375011
 20
8.9375238876
 30
0.0
 10
12.8168305722
 20
8.9307047002
 30
0.0
 10
12.8127061363
 20
8.9242442841
 30
0.0
 10
12.8085667132
 20
8.9181464294
 30
0.0
 10
12.8044146802
 20
8.9124147316
 30
0.0
 10
12.8002524213
 20
8.907052514
 30
0.0
 10
12.7960822542
 20
8.9020628508
 30
0.0
 10
12.7919067717
 20
8.8974489518
 30
0.0
 10
12.7890581099
 20
8.8945613283
 30
0.0
 10
12.7876328283
 20
8.8931846119
 30
0.0
  0
SPLINE
  5
3A9
100
AcDbEntity
  8
0
100
AcDbSpline
 62
7
  6
CONTINUOUS
 70
0
 71
3
 72
90
 73
86
 74
0
 42
0.0000001
 43
0.0000001
 44
0.0000000001
 40
0.0
 40
0.0
 40
0.0
 40
0.0
 40
0.0027390055
 40
0.0055304744
 40
0.0083918834
 40
0.0113393368
 40
0.0143874019
 40
0.0175490927
 40
0.0208358329
 40
0.0242575931
 40
0.0278229417
 40
0.0315391955
 40
0.0354125511
 40
0.0394481626
 40
0.0436503293
 40
0.0480225085
 40
0.0525674898
 40
0.0572874197
 40
0.0621838865
 40
0.0672580103
 40
0.0725104262
 40
0.0779414221
 40
0.0835508829
 40
0.089338398
 40
0.0953032546
 40
0.101444453
 40
0.1142503601
 40
0.1277440395
 40
0.1419097745
 40
0.1567290776
 40
0.1721810088
 40
0.1882424357
 40
0.2048882508
 40
0.2220915535
 40
0.2398238109
 40
0.258055006
 40
0.2767537691
 40
0.295887498
 40
0.3154224709
 40
0.3353239532
 40
0.3555562984
 40
0.3760830509
 40
0.3968670451
 40
0.4178705006
 40
0.4390551169
 40
0.4603821658
 40
0.4818125846
 40
0.5033070684
 40
0.524826164
 40
0.5463303614
 40
0.5677801851
 40
0.5891362858
 40
0.610359532
 40
0.6314111043
 40
0.6522525884
 40
0.6728460675
 40
0.6931542163
 40
0.7131403965
 40
0.732768753
 40
0.7520043159
 40
0.7708131047
 40
0.7891622322
 40
0.8070200152
 40
0.8243560934
 40
0.8411415565
 40
0.8573490861
 40
0.8729531168
 40
0.8879300125
 40
0.9022582726
 40
0.9159187805
 40
0.9288951055
 40
0.9351225954
 40
0.9411743242
 40
0.9470491569
 40
0.9527462608
 40
0.9582650559
 40
0.9636052833
 40
0.968767045
 40
0.9737507775
 40
0.9785573643
 40
0.9831881112
 40
0.9876449564
 40
0.9919304434
 40
0.9960476043
 40
1.0
 40
1.0
 40
1.0
 40
1.0
 10
12.8565061189
 20
10.4023737042
 30
0.0
 10
12.8581087932
 20
10.4020122976
 30
0.0
 10
12.8613145124
 20
10.4011406712
 30
0.0
 10
12.8660487438
 20
10.3994147366
 30
0.0
 10
12.8707426295
 20
10.3972619065
 30
0.0
 10
12.8753933015
 20
10.3946839638
 30
0.0
 10
12.8799987949
 20
10.3916827841
 30
0.0
 10
12.8845569704
 20
10.3882601784
 30
0.0
 10
12.8890659905
 20
10.3844182462
 30
0.0
 10
12.8935238768
 20
10.3801589867
 30
0.0
 10
12.8979287821
 20
10.3754846411
 30
0.0
 10
12.9022788118
 20
10.3703975325
 30
0.0
 10
12.9065720113
 20
10.3649001157
 30
0.0
 10
12.9108065424
 20
10.3589950929
 30
0.0
 10
12.9149803831
 20
10.3526852431
 30
0.0
 10
12.9190916948
 20
10.3459736395
 30
0.0
 10
12.9231384943
 20
10.3388634691
 30
0.0
 10
12.9271188896
 20
10.3313581587
 30
0.0
 10
12.9310310066
 20
10.3234613259
 30
0.0
 10
12.9348729096
 20
10.3151767602
 30
0.0
 10
12.9386428258
 20
10.3065084893
 30
0.0
 10
12.9423388468
 20
10.2974606867
 30
0.0
 10
12.9459592444
 20
10.2880377572
 30
0.0
 10
12.9495022115
 20
10.2782442712
 30
0.0
 10
12.9529660531
 20
10.268084978
 30
0.0
 10
12.9575406559
 20
10.25385901
 30
0.0
 10
12.9630329291
 20
10.2351877982
 30
0.0
 10
12.9691934906
 20
10.2117074659
 30
0.0
 10
12.9750003454
 20
10.1868954177
 30
0.0
 10
12.9804420383
 20
10.1608000635
 30
0.0
 10
12.9855077952
 20
10.1334721044
 30
0.0
 10
12.9901875861
 20
10.1049648115
 30
0.0
 10
12.9944721391
 20
10.0753337932
 30
0.0
 10
12.9983529655
 20
10.0446369103
 30
0.0
 10
13.0018223812
 20
10.0129341445
 30
0.0
 10
13.0048735146
 20
9.9802874734
 30
0.0
 10
13.0075003211
 20
9.9467607407
 30
0.0
 10
13.0096975941
 20
9.9124195276
 30
0.0
 10
13.0114609749
 20
9.8773310221
 30
0.0
 10
13.0127869596
 20
9.8415638871
 30
0.0
 10
13.0136729121
 20
9.8051881247
 30
0.0
 10
13.0141170642
 20
9.7682749363
 30
0.0
 10
13.0141185165
 20
9.7308965794
 30
0.0
 10
13.0136772409
 20
9.6931262256
 30
0.0
 10
13.0127940796
 20
9.6550378165
 30
0.0
 10
13.0114707431
 20
9.6167059199
 30
0.0
 10
13.0097098092
 20
9.5782055831
 30
0.0
 10
13.0075147204
 20
9.5396121845
 30
0.0
 10
13.0048897714
 20
9.5010012848
 30
0.0
 10
13.0018401013
 20
9.4624484784
 30
0.0
 10
12.9983716836
 20
9.4240292455
 30
0.0
 10
12.9944913148
 20
9.385818805
 30
0.0
 10
12.9902065999
 20
9.3478919657
 30
0.0
 10
12.9855259447
 20
9.3103229781
 30
0.0
 10
12.9804585336
 20
9.2731853878
 30
0.0
 10
12.9750143113
 20
9.2365518919
 30
0.0
 10
12.9692039638
 20
9.2004941966
 30
0.0
 10
12.963038898
 20
9.1650828765
 30
0.0
 10
12.9565312184
 20
9.1303872349
 30
0.0
 10
12.9496937074
 20
9.0964751635
 30
0.0
 10
12.9425398018
 20
9.0634130065
 30
0.0
 10
12.935083562
 20
9.0312654298
 30
0.0
 10
12.9273396452
 20
9.0000952938
 30
0.0
 10
12.9193232775
 20
8.9699635271
 30
0.0
 10
12.9110502233
 20
8.9409290016
 30
0.0
 10
12.9025367526
 20
8.9130484103
 30
0.0
 10
12.8937996143
 20
8.8863761355
 30
0.0
 10
12.8848559945
 20
8.8609641642
 30
0.0
 10
12.8757234734
 20
8.8368618662
 30
0.0
 10
12.8664199948
 20
8.8141162632
 30
0.0
 10
12.8584341879
 20
8.7960897871
 30
0.0
 10
12.851962572
 20
8.7823921845
 30
0.0
 10
12.8471441295
 20
8.7726264281
 30
0.0
 10
12.8422966269
 20
8.7632316372
 30
0.0
 10
12.8374224491
 20
8.7542123557
 30
0.0
 10
12.8325239552
 20
8.745572975
 30
0.0
 10
12.8276035117
 20
8.7373176896
 30
0.0
 10
12.8226635445
 20
8.7294504767
 30
0.0
 10
12.8177063743
 20
8.7219751837
 30
0.0
 10
12.8127344913
 20
8.714895394
 30
0.0
 10
12.8077502029
 20
8.7082145407
 30
0.0
 10
12.8027558751
 20
8.7019357783
 30
0.0
 10
12.7977537755
 20
8.69606208
 30
0.0
 10
12.7927464966
 20
8.6905965514
 30
0.0
 10
12.7893379919
 20
8.6871576086
 30
0.0
 10
12.7876328283
 20
8.685510547
 30
0.0
  0
SPLINE
  5
3AA
100
AcDbEntity
  8
0
100
AcDbSpline
 62
7
  6
CONTINUOUS
 70
0
 71
3
 72
91
 73
87
 74
0
 42
0.0000001
 43
0.0000001
 44
0.0000000001
 40
0.0
 40
0.0
 40
0.0
 40
0.0
 40
0.0027164146
 40
0.005453202
 40
0.008230252
 40
0.0110665198
 40
0.0139797053
 40
0.0169859824
 40
0.0200999174
 40
0.023334401
 40
0.0267007187
 40
0.0302086385
 40
0.0338665091
 40
0.0376814414
 40
0.0416593691
 40
0.0458052582
 40
0.0501231421
 40
0.0546162891
 40
0.0592872586
 40
0.064137982
 40
0.0691698666
 40
0.0743837897
 40
0.079780237
 40
0.0853592528
 40
0.0911205635
 40
0.0970635488
 40
0.1031872988
 40
0.1094906474
 40
0.1226297881
 40
0.1364673429
 40
0.1509860432
 40
0.166165828
 40
0.1819841602
 40
0.1984162836
 40
0.2154354412
 40
0.2330130641
 40
0.2511189358
 40
0.2697213391
 40
0.2887871904
 40
0.3082821639
 40
0.3281708096
 40
0.3484166635
 40
0.368982358
 40
0.3898297276
 40
0.4109199118
 40
0.4322134566
 40
0.4536704139
 40
0.4752504412
 40
0.4969128994
 40
0.5186169519
 40
0.5403216628
 40
0.5619860952
 40
0.5835694083
 40
0.6050309559
 40
0.6263303839
 40
0.6474277291
 40
0.6682835187
 40
0.688858872
 40
0.7091156002
 40
0.7290163102
 40
0.7485245085
 40
0.7676047097
 40
0.7862225487
 40
0.8043448976
 40
0.8219399925
 40
0.8389775679
 40
0.8554290014
 40
0.8712674776
 40
0.8864681732
 40
0.9010084737
 40
0.9148682315
 40
0.9280300795
 40
0.9343449284
 40
0.9404802779
 40
0.9464349254
 40
0.952207944
 40
0.9577987094
 40
0.9632068925
 40
0.9684325652
 40
0.9734761403
 40
0.9783384919
 40
0.9830209404
 40
0.9875254382
 40
0.9918545985
 40
0.9960115586
 40
1.0
 40
1.0
 40
1.0
 40
1.0
 10
12.8636232374
 20
10.4025273461
 30
0.0
 10
12.865256318
 20
10.4024140986
 30
0.0
 10
12.868526366
 20
10.4020389581
 30
0.0
 10
12.8733898172
 20
10.401035077
 30
0.0
 10
12.878216492
 20
10.3995901131
 30
0.0
 10
12.8830030049
 20
10.3977056046
 30
0.0
 10
12.8877468077
 20
10.3953830612
 30
0.0
 10
12.8924455505
 20
10.3926244581
 30
0.0
 10
12.8970969962
 20
10.3894316379
 30
0.0
 10
12.9016991241
 20
10.3858066979
 30
0.0
 10
12.906249934
 20
10.3817517311
 30
0.0
 10
12.9107474371
 20
10.3772689351
 30
0.0
 10
12.9151897314
 20
10.3723606961
 30
0.0
 10
12.9195747592
 20
10.3670294392
 30
0.0
 10
12.9239006317
 20
10.3612778886
 30
0.0
 10
12.9281652595
 20
10.3551088281
 30
0.0
 10
12.9323667123
 20
10.3485253382
 30
0.0
 10
12.9365029462
 20
10.3415306351
 30
0.0
 10
12.9405719714
 20
10.3341281704
 30
0.0
 10
12.9445718359
 20
10.3263216074
 30
0.0
 10
12.9485005161
 20
10.3181147881
 30
0.0
 10
12.9523561497
 20
10.3095118055
 30
0.0
 10
12.9561367387
 20
10.3005169089
 30
0.0
 10
12.9598404741
 20
10.2911345957
 30
0.0
 10
12.9634654519
 20
10.2813695281
 30
0.0
 10
12.9670098751
 20
10.2712265914
 30
0.0
 10
12.9704720008
 20
10.2607108383
 30
0.0
 10
12.9750392843
 20
10.2459956375
 30
0.0
 10
12.9805140005
 20
10.2266980373
 30
0.0
 10
12.9866411545
 20
10.2024506783
 30
0.0
 10
12.9924009545
 20
10.1768516148
 30
0.0
 10
12.9977817135
 20
10.1499521631
 30
0.0
 10
13.0027724798
 20
10.1218060432
 30
0.0
 10
13.0073630987
 20
10.0924696409
 30
0.0
 10
13.0115442272
 20
10.0620017663
 30
0.0
 10
13.0153073552
 20
10.0304635536
 30
0.0
 10
13.0186448225
 20
9.9979183188
 30
0.0
 10
13.0215498348
 20
9.9644314283
 30
0.0
 10
13.0240164764
 20
9.9300701617
 30
0.0
 10
13.0260397214
 20
9.8949035731
 30
0.0
 10
13.0276154431
 20
9.8590023501
 30
0.0
 10
13.0287404249
 20
9.8224386695
 30
0.0
 10
13.0294123638
 20
9.7852860492
 30
0.0
 10
13.0296298738
 20
9.7476191978
 30
0.0
 10
13.0293924877
 20
9.7095138624
 30
0.0
 10
13.0287006585
 20
9.6710466756
 30
0.0
 10
13.0275557575
 20
9.632295001
 30
0.0
 10
13.0259600716
 20
9.5933367771
 30
0.0
 10
13.0239167983
 20
9.5542503602
 30
0.0
 10
13.0214300426
 20
9.5151143654
 30
0.0
 10
13.018504805
 20
9.4760075077
 30
0.0
 10
13.0151469716
 20
9.4370084424
 30
0.0
 10
13.0113633022
 20
9.3981956071
 30
0.0
 10
13.0071614166
 20
9.3596470638
 30
0.0
 10
13.0025497796
 20
9.3214403409
 30
0.0
 10
12.9975376841
 20
9.2836522773
 30
0.0
 10
12.9921352329
 20
9.2463588659
 30
0.0
 10
12.9863533213
 20
9.2096350985
 30
0.0
 10
12.9802036117
 20
9.1735548147
 30
0.0
 10
12.973698511
 20
9.1381905526
 30
0.0
 10
12.9668511463
 20
9.1036134017
 30
0.0
 10
12.9596753383
 20
9.069892858
 30
0.0
 10
12.9521855746
 20
9.0370966822
 30
0.0
 10
12.9443969795
 20
9.0052907593
 30
0.0
 10
12.9363252864
 20
8.97453896
 30
0.0
 10
12.9279868057
 20
8.9449030059
 30
0.0
 10
12.919398389
 20
8.9164423426
 30
0.0
 10
12.9105773936
 20
8.8892140034
 30
0.0
 10
12.9015416456
 20
8.8632725155
 30
0.0
 10
12.8923093937
 20
8.8386696634
 30
0.0
 10
12.8828992794
 20
8.8154547563
 30
0.0
 10
12.8748175067
 20
8.7970585858
 30
0.0
 10
12.868265851
 20
8.7830827378
 30
0.0
 10
12.8633873408
 20
8.7731212255
 30
0.0
 10
12.8584786138
 20
8.7635400082
 30
0.0
 10
12.8535420879
 20
8.7543438688
 30
0.0
 10
12.8485802797
 20
8.7455373863
 30
0.0
 10
12.8435956049
 20
8.7371249707
 30
0.0
 10
12.8385906166
 20
8.7291107749
 30
0.0
 10
12.8335677217
 20
8.7214988216
 30
0.0
 10
12.828529495
 20
8.7142928674
 30
0.0
 10
12.823478371
 20
8.7074964907
 30
0.0
 10
12.8184167918
 20
8.7011130086
 30
0.0
 10
12.8133471348
 20
8.6951455066
 30
0.0
 10
12.808272067
 20
8.6895972218
 30
0.0
 10
12.8048164208
 20
8.686108623
 30
0.0
 10
12.8030876431
 20
8.6844387519
 30
0.0
  0
SPLINE
  5
3AB
100
AcDbEntity
  8
0
100
AcDbSpline
 62
7
  6
CONTINUOUS
 70
0
 71
3
 72
39
 73
35
 74
0
 42
0.0000001
 43
0.0000001
 44
0.0000000001
 40
0.0
 40
0.0
 40
0.0
 40
0.0
 40
0.0299424756
 40
0.0599093253
 40
0.0899243308
 40
0.1200101061
 40
0.1501875593
 40
0.1804754054
 40
0.2108897454
 40
0.2414437198
 40
0.2721472437
 40
0.3030068255
 40
0.3340254745
 40
0.3652026886
 40
0.3965345175
 40
0.4280136976
 40
0.4596298523
 40
0.4913697474
 40
0.5232175981
 40
0.5551554173
 40
0.5871634018
 40
0.6192203434
 40
0.6513040581
 40
0.68339183
 40
0.7154608619
 40
0.7474887274
 40
0.7794538181
 40
0.8113357796
 40
0.8431159521
 40
0.8747776664
 40
0.9063069638
 40
0.937691791
 40
0.9689252156
 40
1.0
 40
1.0
 40
1.0
 40
1.0
 10
11.2032344311
 20
8.1686922231
 30
0.0
 10
11.2013432098
 20
8.1668654355
 30
0.0
 10
11.1974120687
 20
8.1633592747
 30
0.0
 10
11.1911137488
 20
8.1585827641
 30
0.0
 10
11.1844460329
 20
8.1543128691
 30
0.0
 10
11.1774461742
 20
8.1505735448
 30
0.0
 10
11.1701526588
 20
8.1473852175
 30
0.0
 10
11.1626057374
 20
8.1447654136
 30
0.0
 10
11.1548469971
 20
8.1427284688
 30
0.0
 10
11.1469191821
 20
8.1412855069
 30
0.0
 10
11.1388659415
 20
8.1404443721
 30
0.0
 10
11.1307315927
 20
8.1402095838
 30
0.0
 10
11.1225608735
 20
8.1405823233
 30
0.0
 10
11.1143986976
 20
8.1415604376
 30
0.0
 10
11.1062899105
 20
8.1431384544
 30
0.0
 10
11.0982790466
 20
8.1453076168
 30
0.0
 10
11.0904100884
 20
8.1480559335
 30
0.0
 10
11.0827262291
 20
8.1513682466
 30
0.0
 10
11.0752696395
 20
8.1552263161
 30
0.0
 10
11.0680812349
 20
8.159608911
 30
0.0
 10
11.0612004546
 20
8.1644919336
 30
0.0
 10
11.054665051
 20
8.1698485536
 30
0.0
 10
11.048510884
 20
8.1756493538
 30
0.0
 10
11.042771728
 20
8.1818624897
 30
0.0
 10
11.0374790881
 20
8.1884538623
 30
0.0
 10
11.0326620294
 20
8.1953873028
 30
0.0
 10
11.0283470208
 20
8.2026247688
 30
0.0
 10
11.0245577748
 20
8.2101265457
 30
0.0
 10
11.0213151446
 20
8.2178514638
 30
0.0
 10
11.018636956
 20
8.2257571474
 30
0.0
 10
11.0165380472
 20
8.2338001355
 30
0.0
 10
11.0150298979
 20
8.2419364999
 30
0.0
 10
11.0141210524
 20
8.2501208787
 30
0.0
 10
11.0139174567
 20
8.2555946253
 30
0.0
 10
11.0139174567
 20
8.2583234841
 30
0.0
  0
SPLINE
  5
3AC
100
AcDbEntity
  8
0
100
AcDbSpline
 62
7
  6
CONTINUOUS
 70
0
 71
3
 72
42
 73
38
 74
0
 42
0.0000001
 43
0.0000001
 44
0.0000000001
 40
0.0
 40
0.0
 40
0.0
 40
0.0
 40
0.0187319099
 40
0.0358470681
 40
0.0515866996
 40
0.0590450493
 40
0.0662883446
 40
0.0733700625
 40
0.0803478113
 40
0.0872820893
 40
0.0942345888
 40
0.1012665185
 40
0.1084368151
 40
0.1158008011
 40
0.1234092106
 40
0.1395247337
 40
0.157095216
 40
0.1763394208
 40
0.1974102934
 40
0.2204092797
 40
0.2453979074
 40
0.2724075274
 40
0.3014457736
 40
0.3325011046
 40
0.3655469185
 40
0.4005437502
 40
0.4374410842
 40
0.4761793419
 40
0.5166905759
 40
0.5588994551
 40
0.6027244163
 40
0.6480778569
 40
0.694866805
 40
0.7429937988
 40
0.7923571513
 40
0.8943613601
 40
1.0
 40
1.0
 40
1.0
 40
1.0
 10
13.224176122
 20
6.9680649593
 30
0.0
 10
13.2250124498
 20
6.9688433337
 30
0.0
 10
13.2266837084
 20
6.9702605433
 30
0.0
 10
13.2293100675
 20
6.9720072877
 30
0.0
 10
13.2315364106
 20
6.9730756701
 30
0.0
 10
13.2332991484
 20
6.973665148
 30
0.0
 10
13.2345928054
 20
6.9739757809
 30
0.0
 10
13.2358805752
 20
6.974162257
 30
0.0
 10
13.2371615303
 20
6.974224233
 30
0.0
 10
13.2384345984
 20
6.9741616264
 30
0.0
 10
13.2396987136
 20
6.9739744511
 30
0.0
 10
13.2409528121
 20
6.9736628718
 30
0.0
 10
13.2421959307
 20
6.9732273702
 30
0.0
 10
13.2434272552
 20
6.9726684121
 30
0.0
 10
13.2450836543
 20
6.9717416728
 30
0.0
 10
13.2471274655
 20
6.9702529933
 30
0.0
 10
13.2494683675
 20
6.9680191254
 30
0.0
 10
13.2517428193
 20
6.9653109236
 30
0.0
 10
13.2539474016
 20
6.9621349633
 30
0.0
 10
13.2560787292
 20
6.9584979523
 30
0.0
 10
13.2581326984
 20
6.9544077665
 30
0.0
 10
13.2601049405
 20
6.9498733745
 30
0.0
 10
13.2619909963
 20
6.9449049674
 30
0.0
 10
13.263786533
 20
6.9395139196
 30
0.0
 10
13.2654872773
 20
6.933712699
 30
0.0
 10
13.2670891626
 20
6.9275148439
 30
0.0
 10
13.2685883766
 20
6.9209349081
 30
0.0
 10
13.2699812798
 20
6.9139883907
 30
0.0
 10
13.2712645172
 20
6.9066917061
 30
0.0
 10
13.2724350173
 20
6.8990621304
 30
0.0
 10
13.2734899254
 20
6.8911177458
 30
0.0
 10
13.2744267072
 20
6.8828774048
 30
0.0
 10
13.2752431136
 20
6.8743606805
 30
0.0
 10
13.2759371714
 20
6.8655877748
 30
0.0
 10
13.2767055074
 20
6.8534439992
 30
0.0
 10
13.2773397908
 20
6.8377791263
 30
0.0
 10
13.2775025613
 20
6.82511385
 30
0.0
 10
13.2775025613
 20
6.8186707076
 30
0.0
  0
SPLINE
  5
3AD
100
AcDbEntity
  8
0
100
AcDbSpline
 62
7
  6
CONTINUOUS
 70
0
 71
3
 72
33
 73
29
 74
0
 42
0.0000001
 43
0.0000001
 44
0.0000000001
 40
0.0
 40
0.0
 40
0.0
 40
0.0
 40
0.0126491658
 40
0.0256848064
 40
0.0393753285
 40
0.0539491057
 40
0.0695906843
 40
0.0864434789
 40
0.1046150673
 40
0.1241839176
 40
0.1452043887
 40
0.1677122782
 40
0.1917275081
 40
0.2172581274
 40
0.2443012537
 40
0.2728460451
 40
0.3028736796
 40
0.3343596409
 40
0.3672733001
 40
0.401579662
 40
0.4372389022
 40
0.4742076276
 40
0.5518786448
 40
0.6341811747
 40
0.7206560163
 40
0.8108071211
 40
0.9041059031
 40
1.0
 40
1.0
 40
1.0
 40
1.0
 10
13.2106524066
 20
6.9489950118
 30
0.0
 10
13.2112600343
 20
6.9489234001
 30
0.0
 10
13.2124840633
 20
6.9486769747
 30
0.0
 10
13.2142763959
 20
6.948013054
 30
0.0
 10
13.2160367839
 20
6.9470556887
 30
0.0
 10
13.2177621239
 20
6.9458088713
 30
0.0
 10
13.2194509659
 20
6.9442760902
 30
0.0
 10
13.221101724
 20
6.942460438
 30
0.0
 10
13.2227128096
 20
6.9403649868
 30
0.0
 10
13.2242822762
 20
6.937992922
 30
0.0
 10
13.2258081443
 20
6.9353478574
 30
0.0
 10
13.2272881609
 20
6.9324337651
 30
0.0
 10
13.2287202006
 20
6.9292551485
 30
0.0
 10
13.2301019534
 20
6.92581692
 30
0.0
 10
13.2314313267
 20
6.9221244999
 30
0.0
 10
13.2327061006
 20
6.9181837156
 30
0.0
 10
13.2339242994
 20
6.9140008539
 30
0.0
 10
13.2350838671
 20
6.909582596
 30
0.0
 10
13.2361829845
 20
6.9049360349
 30
0.0
 10
13.2372197924
 20
6.9000686427
 30
0.0
 10
13.2381926704
 20
6.8949882525
 30
0.0
 10
13.2394226496
 20
6.8878228023
 30
0.0
 10
13.2407785175
 20
6.8783917774
 30
0.0
 10
13.2421032255
 20
6.8665433573
 30
0.0
 10
13.2431422011
 20
6.8540607562
 30
0.0
 10
13.2438884977
 20
6.8410246437
 30
0.0
 10
13.244337077
 20
6.8275192152
 30
0.0
 10
13.244434454
 20
6.8183677105
 30
0.0
 10
13.244434454
 20
6.8137293669
 30
0.0
  0
SPLINE
  5
3AE
100
AcDbEntity
  8
0
100
AcDbSpline
 62
7
  6
CONTINUOUS
 70
0
 71
3
 72
33
 73
29
 74
0
 42
0.0000001
 43
0.0000001
 44
0.0000000001
 40
0.0
 40
0.0
 40
0.0
 40
0.0
 40
0.0126491658
 40
0.0256848064
 40
0.0393753285
 40
0.0539491057
 40
0.0695906843
 40
0.0864434789
 40
0.1046150673
 40
0.1241839176
 40
0.1452043887
 40
0.1677122782
 40
0.1917275081
 40
0.2172581274
 40
0.2443012537
 40
0.2728460451
 40
0.3028736796
 40
0.3343596409
 40
0.3672733001
 40
0.401579662
 40
0.4372389022
 40
0.4742076276
 40
0.5518786448
 40
0.6341811747
 40
0.7206560163
 40
0.8108071211
 40
0.9041059031
 40
1.0
 40
1.0
 40
1.0
 40
1.0
 10
13.2106524066
 20
10.9324733679
 30
0.0
 10
13.2112600343
 20
10.9324017562
 30
0.0
 10
13.2124840633
 20
10.9321553307
 30
0.0
 10
13.2142763959
 20
10.9314914101
 30
0.0
 10
13.2160367839
 20
10.9305340448
 30
0.0
 10
13.2177621239
 20
10.9292872274
 30
0.0
 10
13.2194509659
 20
10.9277544463
 30
0.0
 10
13.221101724
 20
10.9259387941
 30
0.0
 10
13.2227128096
 20
10.9238433429
 30
0.0
 10
13.2242822762
 20
10.9214712781
 30
0.0
 10
13.2258081443
 20
10.9188262135
 30
0.0
 10
13.2272881609
 20
10.9159121212
 30
0.0
 10
13.2287202006
 20
10.9127335046
 30
0.0
 10
13.2301019534
 20
10.9092952761
 30
0.0
 10
13.2314313267
 20
10.905602856
 30
0.0
 10
13.2327061006
 20
10.9016620717
 30
0.0
 10
13.2339242994
 20
10.8974792099
 30
0.0
 10
13.2350838671
 20
10.8930609521
 30
0.0
 10
13.2361829845
 20
10.888414391
 30
0.0
 10
13.2372197924
 20
10.8835469988
 30
0.0
 10
13.2381926704
 20
10.8784666086
 30
0.0
 10
13.2394226496
 20
10.8713011584
 30
0.0
 10
13.2407785175
 20
10.8618701334
 30
0.0
 10
13.2421032255
 20
10.8500217134
 30
0.0
 10
13.2431422011
 20
10.8375391122
 30
0.0
 10
13.2438884977
 20
10.8245029998
 30
0.0
 10
13.244337077
 20
10.8109975713
 30
0.0
 10
13.244434454
 20
10.8018460666
 30
0.0
 10
13.244434454
 20
10.7972077229
 30
0.0
  0
SPLINE
  5
3AF
100
AcDbEntity
  8
0
100
AcDbSpline
 62
7
  6
CONTINUOUS
 70
0
 71
3
 72
42
 73
38
 74
0
 42
0.0000001
 43
0.0000001
 44
0.0000000001
 40
0.0
 40
0.0
 40
0.0
 40
0.0
 40
0.0187319099
 40
0.0358470681
 40
0.0515866996
 40
0.0590450493
 40
0.0662883446
 40
0.0733700625
 40
0.0803478113
 40
0.0872820893
 40
0.0942345888
 40
0.1012665185
 40
0.1084368151
 40
0.1158008011
 40
0.1234092106
 40
0.1395247337
 40
0.157095216
 40
0.1763394208
 40
0.1974102934
 40
0.2204092797
 40
0.2453979074
 40
0.2724075274
 40
0.3014457736
 40
0.3325011046
 40
0.3655469185
 40
0.4005437502
 40
0.4374410842
 40
0.4761793419
 40
0.5166905759
 40
0.5588994551
 40
0.6027244163
 40
0.6480778569
 40
0.694866805
 40
0.7429937988
 40
0.7923571513
 40
0.8943613601
 40
1.0
 40
1.0
 40
1.0
 40
1.0
 10
13.224176122
 20
10.9515433153
 30
0.0
 10
13.2250124498
 20
10.9523216898
 30
0.0
 10
13.2266837084
 20
10.9537388994
 30
0.0
 10
13.2293100675
 20
10.9554856438
 30
0.0
 10
13.2315364106
 20
10.9565540262
 30
0.0
 10
13.2332991484
 20
10.9571435041
 30
0.0
 10
13.2345928054
 20
10.9574541369
 30
0.0
 10
13.2358805752
 20
10.9576406131
 30
0.0
 10
13.2371615303
 20
10.9577025891
 30
0.0
 10
13.2384345984
 20
10.9576399825
 30
0.0
 10
13.2396987136
 20
10.9574528072
 30
0.0
 10
13.2409528121
 20
10.9571412278
 30
0.0
 10
13.2421959307
 20
10.9567057263
 30
0.0
 10
13.2434272552
 20
10.9561467681
 30
0.0
 10
13.2450836543
 20
10.9552200288
 30
0.0
 10
13.2471274655
 20
10.9537313493
 30
0.0
 10
13.2494683675
 20
10.9514974815
 30
0.0
 10
13.2517428193
 20
10.9487892797
 30
0.0
 10
13.2539474016
 20
10.9456133194
 30
0.0
 10
13.2560787292
 20
10.9419763084
 30
0.0
 10
13.2581326984
 20
10.9378861226
 30
0.0
 10
13.2601049405
 20
10.9333517306
 30
0.0
 10
13.2619909963
 20
10.9283833235
 30
0.0
 10
13.263786533
 20
10.9229922757
 30
0.0
 10
13.2654872773
 20
10.917191055
 30
0.0
 10
13.2670891626
 20
10.9109931999
 30
0.0
 10
13.2685883766
 20
10.9044132641
 30
0.0
 10
13.2699812798
 20
10.8974667468
 30
0.0
 10
13.2712645172
 20
10.8901700622
 30
0.0
 10
13.2724350173
 20
10.8825404865
 30
0.0
 10
13.2734899254
 20
10.8745961018
 30
0.0
 10
13.2744267072
 20
10.8663557608
 30
0.0
 10
13.2752431136
 20
10.8578390365
 30
0.0
 10
13.2759371714
 20
10.8490661308
 30
0.0
 10
13.2767055074
 20
10.8369223553
 30
0.0
 10
13.2773397908
 20
10.8212574824
 30
0.0
 10
13.2775025613
 20
10.8085922061
 30
0.0
 10
13.2775025613
 20
10.8021490637
 30
0.0
  0
SPLINE
  5
3B0
100
AcDbEntity
  8
0
100
AcDbSpline
 62
4
  6
CONTINUOUS
 70
0
 71
3
 72
284
 73
280
 74
0
 42
0.0000001
 43
0.0000001
 44
0.0000000001
 40
0.0
 40
0.0
 40
0.0
 40
0.0
 40
0.015625
 40
0.03125
 40
0.0390625
 40
0.046875
 40
0.0546875
 40
0.05859375
 40
0.060546875
 40
0.0625
 40
0.064453125
 40
0.06640625
 40
0.0703125
 40
0.078125
 40
0.0859375
 40
0.09375
 40
0.1015625
 40
0.109375
 40
0.1171875
 40
0.12109375
 40
0.123046875
 40
0.125
 40
0.126953125
 40
0.12890625
 40
0.1328125
 40
0.140625
 40
0.1484375
 40
0.15625
 40
0.1640625
 40
0.171875
 40
0.17578125
 40
0.1796875
 40
0.18359375
 40
0.185546875
 40
0.1865234375
 40
0.1875
 40
0.1884765625
 40
0.189453125
 40
0.19140625
 40
0.1953125
 40
0.19921875
 40
0.203125
 40
0.2109375
 40
0.21875
 40
0.2265625
 40
0.234375
 40
0.23828125
 40
0.2421875
 40
0.244140625
 40
0.24609375
 40
0.248046875
 40
0.2490234375
 40
0.25
 40
0.2509765625
 40
0.251953125
 40
0.25390625
 40
0.255859375
 40
0.2578125
 40
0.26171875
 40
0.265625
 40
0.2734375
 40
0.28125
 40
0.2890625
 40
0.296875
 40
0.30078125
 40
0.3046875
 40
0.306640625
 40
0.30859375
 40
0.310546875
 40
0.3115234375
 40
0.3120117188
 40
0.3125
 40
0.3129882812
 40
0.3134765625
 40
0.314453125
 40
0.31640625
 40
0.318359375
 40
0.3203125
 40
0.32421875
 40
0.328125
 40
0.3359375
 40
0.34375
 40
0.3515625
 40
0.359375
 40
0.36328125
 40
0.3671875
 40
0.369140625
 40
0.37109375
 40
0.373046875
 40
0.3740234375
 40
0.3745117188
 40
0.375
 40
0.3754882812
 40
0.3759765625
 40
0.376953125
 40
0.37890625
 40
0.380859375
 40
0.3828125
 40
0.38671875
 40
0.390625
 40
0.3984375
 40
0.40625
 40
0.4140625
 40
0.421875
 40
0.42578125
 40
0.4296875
 40
0.431640625
 40
0.43359375
 40
0.435546875
 40
0.4365234375
 40
0.4370117188
 40
0.4375
 40
0.4379882812
 40
0.4384765625
 40
0.439453125
 40
0.44140625
 40
0.443359375
 40
0.4453125
 40
0.44921875
 40
0.453125
 40
0.4609375
 40
0.46875
 40
0.4765625
 40
0.484375
 40
0.48828125
 40
0.4921875
 40
0.494140625
 40
0.49609375
 40
0.498046875
 40
0.4990234375
 40
0.4995117188
 40
0.5
 40
0.5004882812
 40
0.5009765625
 40
0.501953125
 40
0.50390625
 40
0.505859375
 40
0.5078125
 40
0.51171875
 40
0.515625
 40
0.5234375
 40
0.53125
 40
0.5390625
 40
0.546875
 40
0.55078125
 40
0.5546875
 40
0.556640625
 40
0.55859375
 40
0.560546875
 40
0.5615234375
 40
0.5620117188
 40
0.5625
 40
0.5629882812
 40
0.5634765625
 40
0.564453125
 40
0.56640625
 40
0.568359375
 40
0.5703125
 40
0.57421875
 40
0.578125
 40
0.5859375
 40
0.59375
 40
0.6015625
 40
0.609375
 40
0.61328125
 40
0.6171875
 40
0.619140625
 40
0.62109375
 40
0.623046875
 40
0.6240234375
 40
0.6245117188
 40
0.625
 40
0.6254882812
 40
0.6259765625
 40
0.626953125
 40
0.62890625
 40
0.630859375
 40
0.6328125
 40
0.63671875
 40
0.640625
 40
0.6484375
 40
0.65625
 40
0.6640625
 40
0.671875
 40
0.67578125
 40
0.6796875
 40
0.681640625
 40
0.68359375
 40
0.685546875
 40
0.6865234375
 40
0.6870117188
 40
0.6875
 40
0.6879882812
 40
0.6884765625
 40
0.689453125
 40
0.69140625
 40
0.693359375
 40
0.6953125
 40
0.69921875
 40
0.703125
 40
0.7109375
 40
0.71875
 40
0.7265625
 40
0.734375
 40
0.73828125
 40
0.7421875
 40
0.744140625
 40
0.74609375
 40
0.748046875
 40
0.7490234375
 40
0.7495117188
 40
0.75
 40
0.7504882812
 40
0.7509765625
 40
0.751953125
 40
0.75390625
 40
0.755859375
 40
0.7578125
 40
0.76171875
 40
0.765625
 40
0.7734375
 40
0.78125
 40
0.7890625
 40
0.796875
 40
0.80078125
 40
0.8046875
 40
0.806640625
 40
0.80859375
 40
0.810546875
 40
0.8115234375
 40
0.8120117188
 40
0.8125
 40
0.8129882812
 40
0.8134765625
 40
0.814453125
 40
0.81640625
 40
0.818359375
 40
0.8203125
 40
0.82421875
 40
0.828125
 40
0.8359375
 40
0.84375
 40
0.8515625
 40
0.859375
 40
0.86328125
 40
0.8671875
 40
0.869140625
 40
0.87109375
 40
0.873046875
 40
0.8740234375
 40
0.875
 40
0.8759765625
 40
0.876953125
 40
0.87890625
 40
0.880859375
 40
0.8828125
 40
0.88671875
 40
0.890625
 40
0.8984375
 40
0.90625
 40
0.9140625
 40
0.921875
 40
0.92578125
 40
0.9296875
 40
0.93359375
 40
0.935546875
 40
0.9365234375
 40
0.9375
 40
0.9384765625
 40
0.939453125
 40
0.94140625
 40
0.9453125
 40
0.94921875
 40
0.953125
 40
0.9609375
 40
0.96875
 40
0.9765625
 40
0.984375
 40
1.0
 40
1.0
 40
1.0
 40
1.0
 10
11.9426030144
 20
10.5299557157
 30
0.0
 10
11.9393875104
 20
10.5300934908
 30
0.0
 10
11.9329564934
 20
10.5303690054
 30
0.0
 10
11.9249177677
 20
10.5307135765
 30
0.0
 10
11.9184866913
 20
10.53098886
 30
0.0
 10
11.9136636441
 20
10.5311963359
 30
0.0
 10
11.9096436112
 20
10.5313660105
 30
0.0
 10
11.9068312108
 20
10.5314911056
 30
0.0
 10
11.9052215913
 20
10.5315527159
 30
0.0
 10
11.9040215138
 20
10.5316267349
 30
0.0
 10
11.9027941546
 20
10.5315944451
 30
0.0
 10
11.9011671919
 20
10.5315884739
 30
0.0
 10
11.8983155736
 20
10.5315607465
 30
0.0
 10
11.8942441493
 20
10.5315301745
 30
0.0
 10
11.8893574564
 20
10.5314895947
 30
0.0
 10
11.8844709926
 20
10.5314501269
 30
0.0
 10
11.8795845961
 20
10.5314101045
 30
0.0
 10
11.8746977012
 20
10.5313711883
 30
0.0
 10
11.8706268941
 20
10.5313355332
 30
0.0
 10
11.8677741761
 20
10.5313168629
 30
0.0
 10
11.8661489752
 20
10.5312963818
 30
0.0
 10
11.8649162043
 20
10.5313086614
 30
0.0
 10
11.8637364523
 20
10.5312152854
 30
0.0
 10
11.8621449561
 20
10.531127638
 30
0.0
 10
11.8593684543
 20
10.5309570839
 30
0.0
 10
11.8553975172
 20
10.5307224143
 30
0.0
 10
11.8506343262
 20
10.5304369594
 30
0.0
 10
11.8458706109
 20
10.5301525432
 30
0.0
 10
11.8411070592
 20
10.5298678236
 30
0.0
 10
11.8371373243
 20
10.5296307029
 30
0.0
 10
11.833961715
 20
10.5294408085
 30
0.0
 10
11.8315795374
 20
10.5292988938
 30
0.0
 10
11.8295958836
 20
10.5291790272
 30
0.0
 10
11.8282043939
 20
10.5290982683
 30
0.0
 10
11.8274138351
 20
10.5290472055
 30
0.0
 10
11.8268080192
 20
10.5290227535
 30
0.0
 10
11.8262515014
 20
10.5289453788
 30
0.0
 10
11.825492282
 20
10.5288606726
 30
0.0
 10
11.8241716598
 20
10.5287038359
 30
0.0
 10
11.822280868
 20
10.52848428
 30
0.0
 10
11.8200137107
 20
10.5282188883
 30
0.0
 10
11.8169902082
 20
10.5278657049
 30
0.0
 10
11.8132110439
 20
10.5274239954
 30
0.0
 10
11.8086759592
 20
10.5268940412
 30
0.0
 10
11.8041408828
 20
10.5263640665
 30
0.0
 10
11.8003616976
 20
10.5259224083
 30
0.0
 10
11.7973382369
 20
10.5255691223
 30
0.0
 10
11.7954488328
 20
10.5253482233
 30
0.0
 10
11.7939367166
 20
10.5251717227
 30
0.0
 10
11.7928042528
 20
10.5250387483
 30
0.0
 10
11.7918553687
 20
10.524929842
 30
0.0
 10
11.791107844
 20
10.5248384428
 30
0.0
 10
11.7905155513
 20
10.5247815724
 30
0.0
 10
11.7900440642
 20
10.5246801231
 30
0.0
 10
11.7893732157
 20
10.5245604293
 30
0.0
 10
11.7885491333
 20
10.5244054695
 30
0.0
 10
11.7875540373
 20
10.5242218045
 30
0.0
 10
11.7862294072
 20
10.5239761191
 30
0.0
 10
11.7845728784
 20
10.5236692859
 30
0.0
 10
11.7819228465
 20
10.5231781999
 30
0.0
 10
11.7786101649
 20
10.5225643947
 30
0.0
 10
11.7746350062
 20
10.5218278066
 30
0.0
 10
11.7706598376
 20
10.5210912225
 30
0.0
 10
11.7673471806
 20
10.520477407
 30
0.0
 10
11.7646970995
 20
10.5199863416
 30
0.0
 10
11.7630406959
 20
10.5196794561
 30
0.0
 10
11.7617158088
 20
10.519433878
 30
0.0
 10
11.7607214978
 20
10.5192498853
 30
0.0
 10
11.7598949596
 20
10.5190959507
 30
0.0
 10
11.7593123512
 20
10.5189893885
 30
0.0
 10
11.7589857273
 20
10.5189266346
 30
0.0
 10
11.7587230256
 20
10.5188848121
 30
0.0
 10
11.7585281114
 20
10.5188229485
 30
0.0
 10
11.7582445808
 20
10.5187474543
 30
0.0
 10
11.7577594189
 20
10.5186120823
 30
0.0
 10
11.7570605708
 20
10.5184203967
 30
0.0
 10
11.7562244184
 20
10.518189645
 30
0.0
 10
11.7551086874
 20
10.5178822307
 30
0.0
 10
11.7537143185
 20
10.5174978756
 30
0.0
 10
11.7514831635
 20
10.5168829562
 30
0.0
 10
11.7486942767
 20
10.5161142902
 30
0.0
 10
11.7453475862
 20
10.5151918985
 30
0.0
 10
11.74200091
 20
10.5142695034
 30
0.0
 10
11.7392119874
 20
10.513500846
 30
0.0
 10
11.7369809041
 20
10.5128859092
 30
0.0
 10
11.7355863531
 20
10.5125015984
 30
0.0
 10
11.734470996
 20
10.5121940932
 30
0.0
 10
11.7336337013
 20
10.5119636192
 30
0.0
 10
11.7329384269
 20
10.5117710649
 30
0.0
 10
11.7324468854
 20
10.5116372435
 30
0.0
 10
11.7321735765
 20
10.5115592649
 30
0.0
 10
11.7319472643
 20
10.5115050325
 30
0.0
 10
11.7318024886
 20
10.5114345485
 30
0.0
 10
11.7315810135
 20
10.5113462385
 30
0.0
 10
11.7312066833
 20
10.5111890549
 30
0.0
 10
11.7306649979
 20
10.5109658877
 30
0.0
 10
11.7300179409
 20
10.510697496
 30
0.0
 10
11.7291541624
 20
10.5103398468
 30
0.0
 10
11.7280747939
 20
10.5098927147
 30
0.0
 10
11.7263476061
 20
10.5091773428
 30
0.0
 10
11.7241886898
 20
10.5082831144
 30
0.0
 10
11.7215979587
 20
10.5072100464
 30
0.0
 10
11.7190072441
 20
10.5061369755
 30
0.0
 10
11.7168482868
 20
10.5052427543
 30
0.0
 10
11.7151211811
 20
10.5045273678
 30
0.0
 10
11.7140416037
 20
10.5040802729
 30
0.0
 10
11.713178254
 20
10.5037225475
 30
0.0
 10
11.712529887
 20
10.5034543887
 30
0.0
 10
11.7119923003
 20
10.5032304927
 30
0.0
 10
11.7116106532
 20
10.5030746101
 30
0.0
 10
11.7114009015
 20
10.5029842156
 30
0.0
 10
11.7112201154
 20
10.5029201345
 30
0.0
 10
11.7111290525
 20
10.5028418536
 30
0.0
 10
11.7109763388
 20
10.5027424321
 30
0.0
 10
11.7107236715
 20
10.5025661367
 30
0.0
 10
11.7103550948
 20
10.5023154927
 30
0.0
 10
11.7099160658
 20
10.5020142034
 30
0.0
 10
11.709329554
 20
10.5016126648
 30
0.0
 10
11.7085968046
 20
10.5011106797
 30
0.0
 10
11.7074241874
 20
10.5003075381
 30
0.0
 10
11.7059584912
 20
10.4993035993
 30
0.0
 10
11.704199621
 20
10.4980988779
 30
0.0
 10
11.7024407694
 20
10.4968941547
 30
0.0
 10
11.7009750269
 20
10.4958902204
 30
0.0
 10
11.6998025024
 20
10.4950870697
 30
0.0
 10
11.6990695172
 20
10.4945851077
 30
0.0
 10
11.6984834894
 20
10.4941835217
 30
0.0
 10
11.6980429818
 20
10.4938823771
 30
0.0
 10
11.6976790314
 20
10.4936312806
 30
0.0
 10
11.6974181053
 20
10.4934557929
 30
0.0
 10
11.6972786242
 20
10.4933550773
 30
0.0
 10
11.6971469149
 20
10.4932807715
 30
0.0
 10
11.6971187902
 20
10.4932017603
 30
0.0
 10
11.6970451591
 20
10.4930980533
 30
0.0
 10
11.6969331391
 20
10.4929158013
 30
0.0
 10
11.6967643092
 20
10.4926558411
 30
0.0
 10
11.6965654806
 20
10.4923437177
 30
0.0
 10
11.69629906
 20
10.491927613
 30
0.0
 10
11.6959664848
 20
10.4914074617
 30
0.0
 10
11.6954341126
 20
10.4905752309
 30
0.0
 10
11.6947687344
 20
10.4895349386
 30
0.0
 10
11.6939702407
 20
10.4882865895
 30
0.0
 10
11.6931717668
 20
10.4870382398
 30
0.0
 10
11.692506339
 20
10.485997949
 30
0.0
 10
11.6919740658
 20
10.4851657152
 30
0.0
 10
11.691641239
 20
10.4846455718
 30
0.0
 10
11.6913753349
 20
10.4842294508
 30
0.0
 10
11.6911749285
 20
10.483917377
 30
0.0
 10
11.6910110352
 20
10.4836572619
 30
0.0
 10
11.6908902025
 20
10.4834752864
 30
0.0
 10
11.6908306915
 20
10.4833711364
 30
0.0
 10
11.6907591946
 20
10.4832934858
 30
0.0
 10
11.6907903841
 20
10.4832140698
 30
0.0
 10
11.6907961519
 20
10.4831087977
 30
0.0
 10
11.690822934
 20
10.4829242845
 30
0.0
 10
11.6908524692
 20
10.4826608443
 30
0.0
 10
11.690891646
 20
10.4823446519
 30
0.0
 10
11.6909425773
 20
10.4819230843
 30
0.0
 10
11.6910066881
 20
10.4813961173
 30
0.0
 10
11.6911090156
 20
10.4805529742
 30
0.0
 10
11.6912370113
 20
10.479499044
 30
0.0
 10
11.6913905667
 20
10.4782343282
 30
0.0
 10
11.6915441417
 20
10.4769696126
 30
0.0
 10
11.6916720883
 20
10.475915682
 30
0.0
 10
11.6917745141
 20
10.4750725397
 30
0.0
 10
11.6918383751
 20
10.4745455706
 30
0.0
 10
11.691889819
 20
10.4741240072
 30
0.0
 10
11.6919274297
 20
10.473807802
 30
0.0
 10
11.6919618649
 20
10.4735444017
 30
0.0
 10
11.6919798997
 20
10.4733598174
 30
0.0
 10
11.6919996829
 20
10.4732546592
 30
0.0
 10
11.6919878217
 20
10.4731748932
 30
0.0
 10
11.692078016
 20
10.4730985577
 30
0.0
 10
11.692162677
 20
10.4729955804
 30
0.0
 10
11.6923274196
 20
10.4728159276
 30
0.0
 10
11.6925540948
 20
10.4725589894
 30
0.0
 10
11.6928298167
 20
10.4722507882
 30
0.0
 10
11.6931961495
 20
10.4718398098
 30
0.0
 10
11.6936545094
 20
10.4713261016
 30
0.0
 10
11.6943876371
 20
10.4705041603
 30
0.0
 10
11.6953041324
 20
10.4694767365
 30
0.0
 10
11.6964038876
 20
10.4682438265
 30
0.0
 10
11.6975036623
 20
10.4670109175
 30
0.0
 10
11.6984201086
 20
10.4659834914
 30
0.0
 10
11.6991533343
 20
10.4651615548
 30
0.0
 10
11.699611445
 20
10.4646478347
 30
0.0
 10
11.6999782893
 20
10.4642368808
 30
0.0
 10
11.7002524485
 20
10.4639286046
 30
0.0
 10
11.7004840131
 20
10.4636719011
 30
0.0
 10
11.7006400275
 20
10.4634918292
 30
0.0
 10
11.7007386732
 20
10.4633895235
 30
0.0
 10
11.7007859109
 20
10.4633111252
 30
0.0
 10
11.7009353874
 20
10.4632391066
 30
0.0
 10
11.7010990274
 20
10.4631408564
 30
0.0
 10
11.701402013
 20
10.4629699555
 30
0.0
 10
11.7018261627
 20
10.4627252692
 30
0.0
 10
11.7023388605
 20
10.4624318777
 30
0.0
 10
11.703021159
 20
10.462040608
 30
0.0
 10
11.7038744767
 20
10.4615515486
 30
0.0
 10
11.7052395365
 20
10.4607690381
 30
0.0
 10
11.706945947
 20
10.4597909054
 30
0.0
 10
11.7089936008
 20
10.4586171434
 30
0.0
 10
11.7110412726
 20
10.4574433835
 30
0.0
 10
11.7127476379
 20
10.4564652454
 30
0.0
 10
11.7141127881
 20
10.4556827455
 30
0.0
 10
11.7149658761
 20
10.4551936592
 30
0.0
 10
11.7156486461
 20
10.4548024446
 30
0.0
 10
11.7161599033
 20
10.4545088848
 30
0.0
 10
11.7165885604
 20
10.4542647253
 30
0.0
 10
11.7168834995
 20
10.454092884
 30
0.0
 10
11.717060032
 20
10.4539961405
 30
0.0
 10
11.7171699066
 20
10.4539194939
 30
0.0
 10
11.7173658824
 20
10.4538584774
 30
0.0
 10
11.7175971505
 20
10.45377167
 30
0.0
 10
11.7180158625
 20
10.4536222973
 30
0.0
 10
11.7186067068
 20
10.4534075797
 30
0.0
 10
11.7193188513
 20
10.4531504871
 30
0.0
 10
11.7202672837
 20
10.4528074983
 30
0.0
 10
11.7214531986
 20
10.4523788303
 30
0.0
 10
11.7233504531
 20
10.4516929235
 30
0.0
 10
11.7257220934
 20
10.4508355532
 30
0.0
 10
11.7285680291
 20
10.4498067027
 30
0.0
 10
11.7314139804
 20
10.4487778554
 30
0.0
 10
11.7337855815
 20
10.4479204771
 30
0.0
 10
11.7356829145
 20
10.4472345863
 30
0.0
 10
11.7368686299
 20
10.4468058778
 30
0.0
 10
11.7378174717
 20
10.4464629721
 30
0.0
 10
11.7385283653
 20
10.4462056257
 30
0.0
 10
11.7391231234
 20
10.445991702
 30
0.0
 10
11.7395348487
 20
10.445840912
 30
0.0
 10
11.7397773112
 20
10.4457563756
 30
0.0
 10
11.739938901
 20
10.4456883834
 30
0.0
 10
11.7401779238
 20
10.445637936
 30
0.0
 10
11.7404696114
 20
10.4455645529
 30
0.0
 10
11.7409926489
 20
10.4454389839
 30
0.0
 10
11.7417332661
 20
10.4452581088
 30
0.0
 10
11.7426248228
 20
10.4450416968
 30
0.0
 10
11.7438125815
 20
10.4447529247
 30
0.0
 10
11.7452976167
 20
10.4443920357
 30
0.0
 10
11.7476734849
 20
10.4438145708
 30
0.0
 10
11.7506433837
 20
10.443092754
 30
0.0
 10
11.7542072392
 20
10.4422265691
 30
0.0
 10
11.7577710852
 20
10.4413603802
 30
0.0
 10
11.7607410079
 20
10.4406385735
 30
0.0
 10
11.7631168282
 20
10.4400610885
 30
0.0
 10
11.7646019851
 20
10.4397002508
 30
0.0
 10
11.7657894941
 20
10.4394113734
 30
0.0
 10
11.7666818138
 20
10.4391952827
 30
0.0
 10
11.7674200438
 20
10.4390134025
 30
0.0
 10
11.7680226712
 20
10.4388719458
 30
0.0
 10
11.7684417336
 20
10.4387547935
 30
0.0
 10
11.7689864066
 20
10.4386798567
 30
0.0
 10
11.7696687598
 20
10.4385651946
 30
0.0
 10
11.7705367554
 20
10.4384269264
 30
0.0
 10
11.7715719066
 20
10.4382588389
 30
0.0
 10
11.7729543587
 20
10.4380354787
 30
0.0
 10
11.7746816533
 20
10.4377560194
 30
0.0
 10
11.7774457549
 20
10.4373090292
 30
0.0
 10
11.7809007375
 20
10.4367502432
 30
0.0
 10
11.7850467648
 20
10.4360797148
 30
0.0
 10
11.7891928301
 20
10.435409204
 30
0.0
 10
11.7926477175
 20
10.434850374
 30
0.0
 10
11.7954120093
 20
10.4344034717
 30
0.0
 10
11.7974841828
 20
10.4340678525
 30
0.0
 10
11.7992143195
 20
10.4337895774
 30
0.0
 10
11.800418889
 20
10.4335920225
 30
0.0
 10
11.8011174046
 20
10.4334834471
 30
0.0
 10
11.8016125854
 20
10.4333898654
 30
0.0
 10
11.8022174949
 20
10.4333427278
 30
0.0
 10
11.8029857663
 20
10.4332636774
 30
0.0
 10
11.8043480741
 20
10.4331328873
 30
0.0
 10
11.8062849049
 20
10.432942098
 30
0.0
 10
11.8086130926
 20
10.43271484
 30
0.0
 10
11.8117159488
 20
10.4324112393
 30
0.0
 10
11.8155949973
 20
10.4320319408
 30
0.0
 10
11.8202496506
 20
10.4315766959
 30
0.0
 10
11.8249043587
 20
10.4311214743
 30
0.0
 10
11.8311106169
 20
10.4305145039
 30
0.0
 10
11.8357653149
 20
10.4300592779
 30
0.0
 10
11.838868446
 20
10.4297557935
 30
0.0
  0
SPLINE
  5
3B1
100
AcDbEntity
  8
0
100
AcDbSpline
 62
4
  6
CONTINUOUS
 70
0
 71
3
 72
284
 73
280
 74
0
 42
0.0000001
 43
0.0000001
 44
0.0000000001
 40
0.0
 40
0.0
 40
0.0
 40
0.0
 40
0.015625
 40
0.03125
 40
0.0390625
 40
0.046875
 40
0.0546875
 40
0.05859375
 40
0.060546875
 40
0.0625
 40
0.064453125
 40
0.06640625
 40
0.0703125
 40
0.078125
 40
0.0859375
 40
0.09375
 40
0.1015625
 40
0.109375
 40
0.1171875
 40
0.12109375
 40
0.123046875
 40
0.125
 40
0.126953125
 40
0.12890625
 40
0.1328125
 40
0.140625
 40
0.1484375
 40
0.15625
 40
0.1640625
 40
0.171875
 40
0.17578125
 40
0.1796875
 40
0.18359375
 40
0.185546875
 40
0.1865234375
 40
0.1875
 40
0.1884765625
 40
0.189453125
 40
0.19140625
 40
0.1953125
 40
0.19921875
 40
0.203125
 40
0.2109375
 40
0.21875
 40
0.2265625
 40
0.234375
 40
0.23828125
 40
0.2421875
 40
0.244140625
 40
0.24609375
 40
0.248046875
 40
0.2490234375
 40
0.25
 40
0.2509765625
 40
0.251953125
 40
0.25390625
 40
0.255859375
 40
0.2578125
 40
0.26171875
 40
0.265625
 40
0.2734375
 40
0.28125
 40
0.2890625
 40
0.296875
 40
0.30078125
 40
0.3046875
 40
0.306640625
 40
0.30859375
 40
0.310546875
 40
0.3115234375
 40
0.3120117188
 40
0.3125
 40
0.3129882812
 40
0.3134765625
 40
0.314453125
 40
0.31640625
 40
0.318359375
 40
0.3203125
 40
0.32421875
 40
0.328125
 40
0.3359375
 40
0.34375
 40
0.3515625
 40
0.359375
 40
0.36328125
 40
0.3671875
 40
0.369140625
 40
0.37109375
 40
0.373046875
 40
0.3740234375
 40
0.3745117188
 40
0.375
 40
0.3754882812
 40
0.3759765625
 40
0.376953125
 40
0.37890625
 40
0.380859375
 40
0.3828125
 40
0.38671875
 40
0.390625
 40
0.3984375
 40
0.40625
 40
0.4140625
 40
0.421875
 40
0.42578125
 40
0.4296875
 40
0.431640625
 40
0.43359375
 40
0.435546875
 40
0.4365234375
 40
0.4370117188
 40
0.4375
 40
0.4379882812
 40
0.4384765625
 40
0.439453125
 40
0.44140625
 40
0.443359375
 40
0.4453125
 40
0.44921875
 40
0.453125
 40
0.4609375
 40
0.46875
 40
0.4765625
 40
0.484375
 40
0.48828125
 40
0.4921875
 40
0.494140625
 40
0.49609375
 40
0.498046875
 40
0.4990234375
 40
0.4995117188
 40
0.5
 40
0.5004882812
 40
0.5009765625
 40
0.501953125
 40
0.50390625
 40
0.505859375
 40
0.5078125
 40
0.51171875
 40
0.515625
 40
0.5234375
 40
0.53125
 40
0.5390625
 40
0.546875
 40
0.55078125
 40
0.5546875
 40
0.556640625
 40
0.55859375
 40
0.560546875
 40
0.5615234375
 40
0.5620117188
 40
0.5625
 40
0.5629882812
 40
0.5634765625
 40
0.564453125
 40
0.56640625
 40
0.568359375
 40
0.5703125
 40
0.57421875
 40
0.578125
 40
0.5859375
 40
0.59375
 40
0.6015625
 40
0.609375
 40
0.61328125
 40
0.6171875
 40
0.619140625
 40
0.62109375
 40
0.623046875
 40
0.6240234375
 40
0.6245117188
 40
0.625
 40
0.6254882812
 40
0.6259765625
 40
0.626953125
 40
0.62890625
 40
0.630859375
 40
0.6328125
 40
0.63671875
 40
0.640625
 40
0.6484375
 40
0.65625
 40
0.6640625
 40
0.671875
 40
0.67578125
 40
0.6796875
 40
0.681640625
 40
0.68359375
 40
0.685546875
 40
0.6865234375
 40
0.6870117188
 40
0.6875
 40
0.6879882812
 40
0.6884765625
 40
0.689453125
 40
0.69140625
 40
0.693359375
 40
0.6953125
 40
0.69921875
 40
0.703125
 40
0.7109375
 40
0.71875
 40
0.7265625
 40
0.734375
 40
0.73828125
 40
0.7421875
 40
0.744140625
 40
0.74609375
 40
0.748046875
 40
0.7490234375
 40
0.7495117188
 40
0.75
 40
0.7504882812
 40
0.7509765625
 40
0.751953125
 40
0.75390625
 40
0.755859375
 40
0.7578125
 40
0.76171875
 40
0.765625
 40
0.7734375
 40
0.78125
 40
0.7890625
 40
0.796875
 40
0.80078125
 40
0.8046875
 40
0.806640625
 40
0.80859375
 40
0.810546875
 40
0.8115234375
 40
0.8120117188
 40
0.8125
 40
0.8129882812
 40
0.8134765625
 40
0.814453125
 40
0.81640625
 40
0.818359375
 40
0.8203125
 40
0.82421875
 40
0.828125
 40
0.8359375
 40
0.84375
 40
0.8515625
 40
0.859375
 40
0.86328125
 40
0.8671875
 40
0.869140625
 40
0.87109375
 40
0.873046875
 40
0.8740234375
 40
0.875
 40
0.8759765625
 40
0.876953125
 40
0.87890625
 40
0.880859375
 40
0.8828125
 40
0.88671875
 40
0.890625
 40
0.8984375
 40
0.90625
 40
0.9140625
 40
0.921875
 40
0.92578125
 40
0.9296875
 40
0.93359375
 40
0.935546875
 40
0.9365234375
 40
0.9375
 40
0.9384765625
 40
0.939453125
 40
0.94140625
 40
0.9453125
 40
0.94921875
 40
0.953125
 40
0.9609375
 40
0.96875
 40
0.9765625
 40
0.984375
 40
1.0
 40
1.0
 40
1.0
 40
1.0
 10
11.838868429
 20
10.4297557947
 30
0.0
 10
11.842083933
 20
10.4296180196
 30
0.0
 10
11.84851495
 20
10.429342505
 30
0.0
 10
11.8565536757
 20
10.4289979339
 30
0.0
 10
11.8629847521
 20
10.4287226504
 30
0.0
 10
11.8678077993
 20
10.4285151745
 30
0.0
 10
11.8718278322
 20
10.4283454999
 30
0.0
 10
11.8746402326
 20
10.4282204048
 30
0.0
 10
11.8762498521
 20
10.4281587945
 30
0.0
 10
11.8774499297
 20
10.4280847755
 30
0.0
 10
11.8786772888
 20
10.4281170653
 30
0.0
 10
11.8803042515
 20
10.4281230365
 30
0.0
 10
11.8831558698
 20
10.4281507639
 30
0.0
 10
11.8872272941
 20
10.4281813359
 30
0.0
 10
11.892113987
 20
10.4282219157
 30
0.0
 10
11.8970004508
 20
10.4282613835
 30
0.0
 10
11.9018868473
 20
10.4283014059
 30
0.0
 10
11.9067737422
 20
10.4283403221
 30
0.0
 10
11.9108445493
 20
10.4283759772
 30
0.0
 10
11.9136972673
 20
10.4283946475
 30
0.0
 10
11.9153224682
 20
10.4284151286
 30
0.0
 10
11.9165552391
 20
10.428402849
 30
0.0
 10
11.9177349911
 20
10.428496225
 30
0.0
 10
11.9193264873
 20
10.4285838724
 30
0.0
 10
11.9221029891
 20
10.4287544265
 30
0.0
 10
11.9260739262
 20
10.4289890962
 30
0.0
 10
11.9308371172
 20
10.429274551
 30
0.0
 10
11.9356008325
 20
10.4295589672
 30
0.0
 10
11.9403643842
 20
10.4298436868
 30
0.0
 10
11.9443341191
 20
10.4300808075
 30
0.0
 10
11.9475097285
 20
10.4302707019
 30
0.0
 10
11.9498919061
 20
10.4304126166
 30
0.0
 10
11.9518755598
 20
10.4305324832
 30
0.0
 10
11.9532670495
 20
10.4306132421
 30
0.0
 10
11.9540576083
 20
10.4306643049
 30
0.0
 10
11.9546634242
 20
10.4306887569
 30
0.0
 10
11.955219942
 20
10.4307661316
 30
0.0
 10
11.9559791614
 20
10.4308508378
 30
0.0
 10
11.9572997836
 20
10.4310076745
 30
0.0
 10
11.9591905754
 20
10.4312272304
 30
0.0
 10
11.9614577327
 20
10.4314926221
 30
0.0
 10
11.9644812353
 20
10.4318458055
 30
0.0
 10
11.9682603995
 20
10.432287515
 30
0.0
 10
11.9727954843
 20
10.4328174692
 30
0.0
 10
11.9773305606
 20
10.4333474439
 30
0.0
 10
11.9811097458
 20
10.4337891021
 30
0.0
 10
11.9841332065
 20
10.4341423881
 30
0.0
 10
11.9860226106
 20
10.4343632871
 30
0.0
 10
11.9875347269
 20
10.4345397877
 30
0.0
 10
11.9886671906
 20
10.4346727621
 30
0.0
 10
11.9896160747
 20
10.4347816684
 30
0.0
 10
11.9903635994
 20
10.4348730676
 30
0.0
 10
11.9909558921
 20
10.434929938
 30
0.0
 10
11.9914273793
 20
10.4350313873
 30
0.0
 10
11.9920982278
 20
10.4351510811
 30
0.0
 10
11.9929223101
 20
10.4353060409
 30
0.0
 10
11.9939174061
 20
10.4354897059
 30
0.0
 10
11.9952420362
 20
10.4357353913
 30
0.0
 10
11.996898565
 20
10.4360422245
 30
0.0
 10
11.9995485969
 20
10.4365333105
 30
0.0
 10
12.0028612785
 20
10.4371471157
 30
0.0
 10
12.0068364372
 20
10.4378837038
 30
0.0
 10
12.0108116058
 20
10.4386202879
 30
0.0
 10
12.0141242628
 20
10.4392341034
 30
0.0
 10
12.0167743439
 20
10.4397251688
 30
0.0
 10
12.0184307476
 20
10.4400320543
 30
0.0
 10
12.0197556346
 20
10.4402776324
 30
0.0
 10
12.0207499457
 20
10.4404616251
 30
0.0
 10
12.0215764838
 20
10.4406155597
 30
0.0
 10
12.0221590923
 20
10.4407221219
 30
0.0
 10
12.0224857161
 20
10.4407848758
 30
0.0
 10
12.0227484178
 20
10.4408266983
 30
0.0
 10
12.022943332
 20
10.4408885619
 30
0.0
 10
12.0232268626
 20
10.4409640561
 30
0.0
 10
12.0237120246
 20
10.4410994281
 30
0.0
 10
12.0244108727
 20
10.4412911137
 30
0.0
 10
12.0252470251
 20
10.4415218654
 30
0.0
 10
12.026362756
 20
10.4418292797
 30
0.0
 10
12.0277571249
 20
10.4422136348
 30
0.0
 10
12.0299882799
 20
10.4428285542
 30
0.0
 10
12.0327771667
 20
10.4435972202
 30
0.0
 10
12.0361238572
 20
10.4445196119
 30
0.0
 10
12.0394705334
 20
10.445442007
 30
0.0
 10
12.042259456
 20
10.4462106644
 30
0.0
 10
12.0444905394
 20
10.4468256012
 30
0.0
 10
12.0458850904
 20
10.447209912
 30
0.0
 10
12.0470004475
 20
10.4475174172
 30
0.0
 10
12.0478377421
 20
10.4477478912
 30
0.0
 10
12.0485330165
 20
10.4479404455
 30
0.0
 10
12.0490245581
 20
10.4480742669
 30
0.0
 10
12.0492978669
 20
10.4481522455
 30
0.0
 10
12.0495241792
 20
10.4482064779
 30
0.0
 10
12.0496689548
 20
10.4482769619
 30
0.0
 10
12.0498904299
 20
10.4483652719
 30
0.0
 10
12.0502647601
 20
10.4485224555
 30
0.0
 10
12.0508064455
 20
10.4487456227
 30
0.0
 10
12.0514535026
 20
10.4490140144
 30
0.0
 10
12.0523172811
 20
10.4493716636
 30
0.0
 10
12.0533966495
 20
10.4498187957
 30
0.0
 10
12.0551238374
 20
10.4505341676
 30
0.0
 10
12.0572827536
 20
10.451428396
 30
0.0
 10
12.0598734847
 20
10.452501464
 30
0.0
 10
12.0624641993
 20
10.4535745349
 30
0.0
 10
12.0646231567
 20
10.4544687561
 30
0.0
 10
12.0663502623
 20
10.4551841426
 30
0.0
 10
12.0674298397
 20
10.4556312375
 30
0.0
 10
12.0682931894
 20
10.4559889629
 30
0.0
 10
12.0689415565
 20
10.4562571217
 30
0.0
 10
12.0694791431
 20
10.4564810177
 30
0.0
 10
12.0698607902
 20
10.4566369003
 30
0.0
 10
12.0700705419
 20
10.4567272948
 30
0.0
 10
12.070251328
 20
10.4567913759
 30
0.0
 10
12.0703423909
 20
10.4568696568
 30
0.0
 10
12.0704951046
 20
10.4569690783
 30
0.0
 10
12.0707477719
 20
10.4571453737
 30
0.0
 10
12.0711163486
 20
10.4573960177
 30
0.0
 10
12.0715553777
 20
10.457697307
 30
0.0
 10
12.0721418894
 20
10.4580988456
 30
0.0
 10
12.0728746388
 20
10.4586008307
 30
0.0
 10
12.0740472561
 20
10.4594039723
 30
0.0
 10
12.0755129522
 20
10.4604079111
 30
0.0
 10
12.0772718224
 20
10.4616126325
 30
0.0
 10
12.079030674
 20
10.4628173557
 30
0.0
 10
12.0804964165
 20
10.46382129
 30
0.0
 10
12.081668941
 20
10.4646244407
 30
0.0
 10
12.0824019263
 20
10.4651264027
 30
0.0
 10
12.082987954
 20
10.4655279887
 30
0.0
 10
12.0834284617
 20
10.4658291333
 30
0.0
 10
12.0837924121
 20
10.4660802298
 30
0.0
 10
12.0840533382
 20
10.4662557175
 30
0.0
 10
12.0841928192
 20
10.4663564331
 30
0.0
 10
12.0843245286
 20
10.4664307389
 30
0.0
 10
12.0843526532
 20
10.4665097501
 30
0.0
 10
12.0844262843
 20
10.4666134571
 30
0.0
 10
12.0845383044
 20
10.4667957091
 30
0.0
 10
12.0847071342
 20
10.4670556693
 30
0.0
 10
12.0849059628
 20
10.4673677927
 30
0.0
 10
12.0851723834
 20
10.4677838974
 30
0.0
 10
12.0855049586
 20
10.4683040487
 30
0.0
 10
12.0860373308
 20
10.4691362795
 30
0.0
 10
12.0867027091
 20
10.4701765718
 30
0.0
 10
12.0875012027
 20
10.4714249209
 30
0.0
 10
12.0882996766
 20
10.4726732706
 30
0.0
 10
12.0889651044
 20
10.4737135614
 30
0.0
 10
12.0894973776
 20
10.4745457952
 30
0.0
 10
12.0898302044
 20
10.4750659387
 30
0.0
 10
12.0900961086
 20
10.4754820596
 30
0.0
 10
12.090296515
 20
10.4757941334
 30
0.0
 10
12.0904604082
 20
10.4760542485
 30
0.0
 10
12.0905812409
 20
10.476236224
 30
0.0
 10
12.0906407519
 20
10.476340374
 30
0.0
 10
12.0907122488
 20
10.4764180246
 30
0.0
 10
12.0906810593
 20
10.4764974406
 30
0.0
 10
12.0906752915
 20
10.4766027127
 30
0.0
 10
12.0906485094
 20
10.4767872259
 30
0.0
 10
12.0906189742
 20
10.4770506661
 30
0.0
 10
12.0905797974
 20
10.4773668585
 30
0.0
 10
12.0905288661
 20
10.4777884261
 30
0.0
 10
12.0904647554
 20
10.4783153931
 30
0.0
 10
12.0903624278
 20
10.4791585362
 30
0.0
 10
12.0902344321
 20
10.4802124664
 30
0.0
 10
12.0900808767
 20
10.4814771822
 30
0.0
 10
12.0899273017
 20
10.4827418978
 30
0.0
 10
12.0897993552
 20
10.4837958285
 30
0.0
 10
12.0896969293
 20
10.4846389707
 30
0.0
 10
12.0896330683
 20
10.4851659398
 30
0.0
 10
12.0895816244
 20
10.4855875032
 30
0.0
 10
12.0895440137
 20
10.4859037084
 30
0.0
 10
12.0895095785
 20
10.4861671087
 30
0.0
 10
12.0894915438
 20
10.486351693
 30
0.0
 10
12.0894717606
 20
10.4864568512
 30
0.0
 10
12.0894836218
 20
10.4865366172
 30
0.0
 10
12.0893934274
 20
10.4866129527
 30
0.0
 10
12.0893087664
 20
10.48671593
 30
0.0
 10
12.0891440239
 20
10.4868955828
 30
0.0
 10
12.0889173486
 20
10.487152521
 30
0.0
 10
12.0886416267
 20
10.4874607222
 30
0.0
 10
12.0882752939
 20
10.4878717006
 30
0.0
 10
12.087816934
 20
10.4883854088
 30
0.0
 10
12.0870838064
 20
10.4892073501
 30
0.0
 10
12.086167311
 20
10.4902347739
 30
0.0
 10
12.0850675559
 20
10.4914676839
 30
0.0
 10
12.0839677811
 20
10.4927005929
 30
0.0
 10
12.0830513348
 20
10.493728019
 30
0.0
 10
12.0823181091
 20
10.4945499556
 30
0.0
 10
12.0818599984
 20
10.4950636757
 30
0.0
 10
12.0814931541
 20
10.4954746296
 30
0.0
 10
12.0812189949
 20
10.4957829058
 30
0.0
 10
12.0809874304
 20
10.4960396093
 30
0.0
 10
12.080831416
 20
10.4962196812
 30
0.0
 10
12.0807327703
 20
10.4963219869
 30
0.0
 10
12.0806855325
 20
10.4964003852
 30
0.0
 10
12.080536056
 20
10.4964724038
 30
0.0
 10
12.080372416
 20
10.496570654
 30
0.0
 10
12.0800694305
 20
10.4967415549
 30
0.0
 10
12.0796452808
 20
10.4969862412
 30
0.0
 10
12.0791325829
 20
10.4972796327
 30
0.0
 10
12.0784502845
 20
10.4976709024
 30
0.0
 10
12.0775969667
 20
10.4981599618
 30
0.0
 10
12.0762319069
 20
10.4989424723
 30
0.0
 10
12.0745254964
 20
10.4999206051
 30
0.0
 10
12.0724778427
 20
10.501094367
 30
0.0
 10
12.0704301708
 20
10.5022681269
 30
0.0
 10
12.0687238055
 20
10.503246265
 30
0.0
 10
12.0673586553
 20
10.5040287649
 30
0.0
 10
12.0665055673
 20
10.5045178512
 30
0.0
 10
12.0658227973
 20
10.5049090658
 30
0.0
 10
12.0653115401
 20
10.5052026256
 30
0.0
 10
12.064882883
 20
10.5054467851
 30
0.0
 10
12.064587944
 20
10.5056186264
 30
0.0
 10
12.0644114114
 20
10.5057153699
 30
0.0
 10
12.0643015368
 20
10.5057920165
 30
0.0
 10
12.064105561
 20
10.505853033
 30
0.0
 10
12.063874293
 20
10.5059398404
 30
0.0
 10
12.063455581
 20
10.5060892131
 30
0.0
 10
12.0628647366
 20
10.5063039307
 30
0.0
 10
12.0621525921
 20
10.5065610233
 30
0.0
 10
12.0612041598
 20
10.5069040121
 30
0.0
 10
12.0600182449
 20
10.5073326801
 30
0.0
 10
12.0581209904
 20
10.5080185869
 30
0.0
 10
12.05574935
 20
10.5088759572
 30
0.0
 10
12.0529034144
 20
10.5099048077
 30
0.0
 10
12.050057463
 20
10.510933655
 30
0.0
 10
12.0476858619
 20
10.5117910333
 30
0.0
 10
12.0457885289
 20
10.5124769241
 30
0.0
 10
12.0446028135
 20
10.5129056326
 30
0.0
 10
12.0436539717
 20
10.5132485383
 30
0.0
 10
12.0429430781
 20
10.5135058847
 30
0.0
 10
12.04234832
 20
10.5137198084
 30
0.0
 10
12.0419365947
 20
10.5138705984
 30
0.0
 10
12.0416941322
 20
10.5139551348
 30
0.0
 10
12.0415325424
 20
10.514023127
 30
0.0
 10
12.0412935196
 20
10.5140735744
 30
0.0
 10
12.041001832
 20
10.5141469575
 30
0.0
 10
12.0404787946
 20
10.5142725265
 30
0.0
 10
12.0397381774
 20
10.5144534016
 30
0.0
 10
12.0388466206
 20
10.5146698136
 30
0.0
 10
12.0376588619
 20
10.5149585857
 30
0.0
 10
12.0361738267
 20
10.5153194747
 30
0.0
 10
12.0337979585
 20
10.5158969396
 30
0.0
 10
12.0308280597
 20
10.5166187564
 30
0.0
 10
12.0272642042
 20
10.5174849413
 30
0.0
 10
12.0237003583
 20
10.5183511302
 30
0.0
 10
12.0207304355
 20
10.5190729369
 30
0.0
 10
12.0183546152
 20
10.5196504219
 30
0.0
 10
12.0168694584
 20
10.5200112596
 30
0.0
 10
12.0156819494
 20
10.520300137
 30
0.0
 10
12.0147896297
 20
10.5205162277
 30
0.0
 10
12.0140513996
 20
10.520698108
 30
0.0
 10
12.0134487723
 20
10.5208395646
 30
0.0
 10
12.0130297098
 20
10.5209567169
 30
0.0
 10
12.0124850368
 20
10.5210316537
 30
0.0
 10
12.0118026836
 20
10.5211463158
 30
0.0
 10
12.010934688
 20
10.521284584
 30
0.0
 10
12.0098995368
 20
10.5214526715
 30
0.0
 10
12.0085170847
 20
10.5216760317
 30
0.0
 10
12.0067897901
 20
10.521955491
 30
0.0
 10
12.0040256885
 20
10.5224024812
 30
0.0
 10
12.000570706
 20
10.5229612672
 30
0.0
 10
11.9964246787
 20
10.5236317956
 30
0.0
 10
11.9922786133
 20
10.5243023064
 30
0.0
 10
11.9888237259
 20
10.5248611364
 30
0.0
 10
11.9860594341
 20
10.5253080387
 30
0.0
 10
11.9839872606
 20
10.5256436579
 30
0.0
 10
11.9822571239
 20
10.525921933
 30
0.0
 10
11.9810525544
 20
10.5261194879
 30
0.0
 10
11.9803540388
 20
10.5262280633
 30
0.0
 10
11.9798588581
 20
10.526321645
 30
0.0
 10
11.9792539485
 20
10.5263687826
 30
0.0
 10
11.9784856771
 20
10.526447833
 30
0.0
 10
11.9771233693
 20
10.5265786231
 30
0.0
 10
11.9751865385
 20
10.5267694124
 30
0.0
 10
11.9728583508
 20
10.5269966704
 30
0.0
 10
11.9697554947
 20
10.5273002711
 30
0.0
 10
11.9658764461
 20
10.5276795696
 30
0.0
 10
11.9612217928
 20
10.5281348145
 30
0.0
 10
11.9565670847
 20
10.5285900362
 30
0.0
 10
11.9503608265
 20
10.5291970065
 30
0.0
 10
11.9457061285
 20
10.5296522325
 30
0.0
 10
11.9426029975
 20
10.5299557169
 30
0.0
  0
ENDSEC
  0
SECTION
  2
OBJECTS
  0
DICTIONARY
  5
C
100
AcDbDictionary
280
0
281
1
  3
ACAD_GROUP
350
D
  3
ACAD_MLINESTYLE
350
17
  3
ACAD_LAYOUT
350
1A
  3
ACAD_PLOTSETTINGS
350
19
  3
ACAD_PLOTSTYLENAME
350
E
  3
ACAD_IMAGE_DICT
350
       3B3
  3
ACAD_IMAGE_VARS
350
       3B4
  3
ACAD_TABLESTYLE
350
       3B5
  0
IMAGEDEF_REACTOR
  5
3B2
100
AcDbRasterImageDefReactor
 90
2
330
287
  0
DICTIONARY
  5
D
102
{ACAD_REACTORS
330
C
102
}
100
AcDbDictionary
280
0
281
1
  0
ACDBDICTIONARYWDFLT
  5
E
102
{ACAD_REACTORS
330
C
102
}
100
AcDbDictionary
281
1
  3
Normal
350
F
100
AcDbDictionaryWithDefault
340
F
  0
DICTIONARY
  5
3B3
330
C
100
AcDbDictionary
281
1
  3
VMR_assy_2_img_1
350
       3B8
  0
RASTERVARIABLES
  5
3B4
330
C
100
AcDbRasterVariables
 90
0
 70
0
 71
1
 72
5
  0
DICTIONARY
  5
17
102
{ACAD_REACTORS
330
C
102
}
100
AcDbDictionary
280
0
281
1
  3
Standard
350
18
  0
DICTIONARY
  5
3B5
330
C
100
AcDbDictionary
281
1
  3
Standard
350
       3B9
  3
Standard1
350
       3BA
  0
DICTIONARY
  5
19
102
{ACAD_REACTORS
330
C
102
}
100
AcDbDictionary
281
1
  0
DICTIONARY
  5
1A
102
{ACAD_REACTORS
330
C
102
}
100
AcDbDictionary
281
1
  3
Model
350
3B6
  3
Layout1
350
3B7
  0
ACDBPLACEHOLDER
  5
F
102
{ACAD_REACTORS
330
E
102
}
  0
MLINESTYLE
  5
18
102
{ACAD_REACTORS
330
17
102
}
100
AcDbMlineStyle
  2
STANDARD
 70
0
  3

 62
256
 51
90.0
 52
90.0
 71
2
 49
0.5
 62
256
  6
BYLAYER
 49
-0.5
 62
256
  6
BYLAYER
  0
LAYOUT
  5
3B6
102
{ACAD_REACTORS
330
1A
102
}
100
AcDbPlotSettings
  1

  2
none_device
  4
ANSI_C_(22.00_x_17.00_Inches)
  6

 40
0.0
 41
0.0
 42
0.0
 43
0.0
 44
558.8
 45
431.8
 46
0.0
 47
0.0
 48
0.0
 49
0.0
140
0.0
141
0.0
142
1.0
143
1.0
 70
1024
 72
0
 73
0
 74
0
  7

 75
0
147
1.0
148
0.0
149
0.0
100
AcDbLayout
  1
Model
 70
0
 71
0
 10
0.0
 20
0.0
 11
22.0
 21
17.0
 12
0.0
 22
0.0
 32
0.0
 14
0.0
 24
0.0
 34
0.0
 15
0.0
 25
0.0
 35
0.0
146
0.0
 13
0.0
 23
0.0
 33
0.0
 16
1.0
 26
0.0
 36
0.0
 17
0.0
 27
1.0
 37
0.0
 76
0
330
204
345
0
346
0
  0
LAYOUT
  5
3B7
102
{ACAD_REACTORS
330
1A
102
}
100
AcDbPlotSettings
  1

  2
none_device
  4
ANSI_C_(22.00_x_17.00_Inches)
  6

 40
0.0
 41
0.0
 42
0.0
 43
0.0
 44
558.8
 45
431.8
 46
0.0
 47
0.0
 48
0.0
 49
0.0
140
0.0
141
0.0
142
1.0
143
1.0
 70
0
 72
0
 73
0
 74
0
  7

 75
0
147
1.0
148
0.0
149
0.0
100
AcDbLayout
  1
Layout1
 70
0
 71
1
 10
0.0
 20
0.0
 11
22.0
 21
17.0
 12
0.0
 22
0.0
 32
0.0
 14
0.0
 24
0.0
 34
0.0
 15
0.0
 25
0.0
 35
0.0
146
0.0
 13
0.0
 23
0.0
 33
0.0
 16
1.0
 26
0.0
 36
0.0
 17
0.0
 27
1.0
 37
0.0
 76
0
330
205
345
0
346
0
  0
IMAGEDEF
  5
3B8
102
{ACAD_REACTORS
330
3B3
330
3B2
102
}
100
AcDbRasterImageDef
 90
0
  1
VMR_assy_2_img_1.png
 10
369.0
 20
92.0
 11
0.0066666667
 21
0.0066666667
280
1
281
0
  0
TABLESTYLE
  5
3B9
102
{ACAD_REACTORS
330
3B5
330
28A
330
28B
102
}
330
3B5
100
AcDbTableStyle
  3
Standard
 70
0
 71
0
 40
0.06
 41
0.06
280
1
281
1
  7
Standard
140
0.18
170
1
 62
0
 63
7
283
0
  7
Standard
140
0.18
170
1
 62
0
 63
7
283
0
  7
Standard
140
0.18
170
1
 62
0
 63
7
283
0
  0
TABLESTYLE
  5
3BA
102
{ACAD_REACTORS
330
3B5
330
289
102
}
330
3B5
100
AcDbTableStyle
  3
Standard1
 70
1
 71
0
 40
0.06
 41
0.06
280
1
281
1
  7
Standard
140
0.18
170
1
 62
0
 63
7
283
0
  7
Standard
140
0.18
170
1
 62
0
 63
7
283
0
  7
Standard
140
0.18
170
1
 62
0
 63
7
283
0
  0
ENDSEC
  0
EOF
