999
DXF file: VLN_assy_2.dxf
999
Pro/ENGINEER 2014200 by Parametric Technology Corporation
  0
SECTION
  2
HEADER
  9
$ACADVER
  1
AC1021
  9
$DWGCODEPAGE
  3
ANSI_1252
  9
$EXTMAX
 10
22.0
 20
17.0
 30
0.0
  9
$EXTMIN
 10
0.0
 20
0.0
 30
0.0
  9
$LIMMIN
 10
0.0
 20
0.0
  9
$LIMMAX
 10
22.0
 20
17.0
  9
$VIEWCTR
 10
11.0
 20
8.5
  9
$VIEWSIZE
 40
17.0
  9
$CLAYER
  8
0
  9
$LTSCALE
 40
1.21
  9
$CELTYPE
  6
BYLAYER
  9
$DIMSCALE
 40
1.0
  9
$DIMASZ
 40
0.1875
  9
$DIMEXO
 40
0.0625
  9
$DIMDLI
 40
0.836
  9
$DIMEXE
 40
0.125
  9
$DIMCEN
 40
0.198
  9
$DIMLFAC
 40
1.0
  9
$DIMBLK
  1
_FILLED
  9
$DIMTXT
 40
0.1
  9
$DIMTOL
 70
0
  9
$DIMLIM
 70
0
  9
$DIMTFAC
 40
1.0
  9
$DIMGAP
 40
0.09
  9
$DIMDSEP
 70
46
  9
$AUNITS
 70
0
  9
$PDMODE
 70
3
  9
$PDSIZE
 40
0.3125
  9
$HANDSEED
  5
3DC
  9
$TILEMODE
 70
1
  9
$MEASUREMENT
 70
0
  9
$INSUNITS
 70
1
  0
ENDSEC
  0
SECTION
  2
CLASSES
  0
CLASS
  1
ACDBDICTIONARYWDFLT
  2
AcDbDictionaryWithDefault
  3
AutoCAD 2000
 90
0
 91
1
280
0
281
0
  0
CLASS
  1
ACDBPLACEHOLDER
  2
AcDbPlaceHolder
  3
AutoCAD 2000
 90
0
 91
1
280
0
281
0
  0
CLASS
  1
LAYOUT
  2
AcDbLayout
  3
AutoCAD 2000
 90
0
 91
0
280
0
281
0
  0
CLASS
  1
RASTERVARIABLES
  2
AcDbRasterVariables
  3
ISM
 90
0
 91
1
280
0
281
0
  0
CLASS
  1
IMAGEDEF
  2
AcDbRasterImageDef
  3
ISM
 90
0
 91
1
280
0
281
0
  0
CLASS
  1
IMAGEDEF_REACTOR
  2
AcDbRasterImageDefReactor
  3
ISM
 90
0
 91
1
280
0
281
0
  0
CLASS
  1
IMAGE
  2
AcDbRasterImage
  3
ISM
 90
127
 91
1
280
0
281
1
  0
CLASS
  1
TABLESTYLE
  2
AcDbTableStyle
  3
ObjectDBX Classes
 90
2047
 91
1
280
0
281
0
  0
CLASS
  1
ACAD_TABLE
  2
AcDbTable
  3
ObjectDBX Classes
 90
1025
 91
3
280
0
281
1
  0
ENDSEC
  0
SECTION
  2
TABLES
  0
TABLE
  2
VPORT
  5
8
100
AcDbSymbolTable
 70
2
  0
VPORT
  5
1F4
100
AcDbSymbolTableRecord
100
AcDbViewportTableRecord
  2
*ACTIVE
 70
0
 10
0.0
 20
0.0
 11
1.0
 21
1.0
 12
11.0
 22
8.5
 13
0.0
 23
0.0
 14
1.0
 24
1.0
 15
0.0
 25
0.0
 16
0.0
 26
0.0
 36
1.0
 17
0.0
 27
0.0
 37
0.0
 40
17.0
 41
1.2941176471
 42
50.0
 43
0.0
 44
0.0
 50
0.0
 51
0.0
 71
0
 72
100
 73
1
 74
1
 75
0
 76
0
 77
0
 78
0
  0
ENDTAB
  0
TABLE
  2
LTYPE
  5
5
100
AcDbSymbolTable
 70
6
  0
LTYPE
  5
14
100
AcDbSymbolTableRecord
100
AcDbLinetypeTableRecord
  2
BYBLOCK
 70
0
  3

 72
65
 73
0
 40
0.0
  0
LTYPE
  5
15
100
AcDbSymbolTableRecord
100
AcDbLinetypeTableRecord
  2
BYLAYER
 70
0
  3

 72
65
 73
0
 40
0.0
  0
LTYPE
  5
16
100
AcDbSymbolTableRecord
100
AcDbLinetypeTableRecord
  2
CONTINUOUS
 70
64
  3
Solid line
 72
65
 73
0
 40
0.0
  0
LTYPE
  5
1F5
100
AcDbSymbolTableRecord
100
AcDbLinetypeTableRecord
  2
CENTER
 70
64
  3
____ _ ____ _ ____ _ ____ _ ____ _ ____ _ ____
 72
65
 73
4
 40
0.6
 49
0.375
 74
0
 49
-0.075
 74
0
 49
0.075
 74
0
 49
-0.075
 74
0
  0
LTYPE
  5
1F6
100
AcDbSymbolTableRecord
100
AcDbLinetypeTableRecord
  2
HIDDEN
 70
64
  3
- - - - - - - - - - - - - - - - - - - -
 72
65
 73
2
 40
0.2
 49
0.1
 74
0
 49
-0.1
 74
0
  0
LTYPE
  5
1F7
100
AcDbSymbolTableRecord
100
AcDbLinetypeTableRecord
  2
PHANTOM
 70
64
  3
_____ _ _ _____ _ _ _____ _ _ _____
 72
65
 73
6
 40
0.8
 49
0.45
 74
0
 49
-0.05
 74
0
 49
0.1
 74
0
 49
-0.05
 74
0
 49
0.1
 74
0
 49
-0.05
 74
0
  0
LTYPE
  5
1F8
100
AcDbSymbolTableRecord
100
AcDbLinetypeTableRecord
  2
DOT
 70
64
  3
. . . . . . . . . . . . . . . . . . . .
 72
65
 73
2
 40
0.2
 49
0.1
 74
0
 49
-0.1
 74
0
  0
LTYPE
  5
1F9
100
AcDbSymbolTableRecord
100
AcDbLinetypeTableRecord
  2
DASHED
 70
64
  3
- - - - - - - - - - - - - - - - - - - -
 72
65
 73
2
 40
0.2
 49
0.1
 74
0
 49
-0.1
 74
0
  0
ENDTAB
  0
TABLE
  2
LAYER
  5
2
100
AcDbSymbolTable
 70
36
  0
LAYER
  5
10
100
AcDbSymbolTableRecord
100
AcDbLayerTableRecord
  2
0
 70
0
 62
7
  6
CONTINUOUS
370
-3
390
F
  0
LAYER
  5
1FA
100
AcDbSymbolTableRecord
100
AcDbLayerTableRecord
  2
DEFAULT_1
 70
0
 62
7
  6
CENTER
370
-3
390
F
  0
LAYER
  5
1FB
100
AcDbSymbolTableRecord
100
AcDbLayerTableRecord
  2
DEFAULT_2
 70
0
 62
8
  6
HIDDEN
370
-3
390
F
  0
LAYER
  5
1FC
100
AcDbSymbolTableRecord
100
AcDbLayerTableRecord
  2
DEFAULT_3
 70
0
 62
7
  6
PHANTOM
370
-3
390
F
  0
LAYER
  5
1FD
100
AcDbSymbolTableRecord
100
AcDbLayerTableRecord
  2
DATUM_PLANES
 70
0
 62
7
  6
CONTINUOUS
370
-3
390
F
  0
LAYER
  5
1FE
100
AcDbSymbolTableRecord
100
AcDbLayerTableRecord
  2
DIMENSIONS
 70
0
 62
7
  6
CONTINUOUS
370
-3
390
F
  0
LAYER
  5
1FF
100
AcDbSymbolTableRecord
100
AcDbLayerTableRecord
  2
PARAMETERDIMENSIONS
 70
0
 62
7
  6
CONTINUOUS
370
-3
390
F
  0
LAYER
  5
200
100
AcDbSymbolTableRecord
100
AcDbLayerTableRecord
  2
PORT_AREAS
 70
0
 62
7
  6
CONTINUOUS
370
-3
390
F
  0
LAYER
  5
201
100
AcDbSymbolTableRecord
100
AcDbLayerTableRecord
  2
SUNNBOMCOSMETIC
 70
0
 62
7
  6
CONTINUOUS
370
-3
390
F
  0
LAYER
  5
202
100
AcDbSymbolTableRecord
100
AcDbLayerTableRecord
  2
SUNNBOMSTAMPING
 70
0
 62
7
  6
CONTINUOUS
370
-3
390
F
  0
LAYER
  5
203
100
AcDbSymbolTableRecord
100
AcDbLayerTableRecord
  2
THREADS
 70
0
 62
7
  6
CONTINUOUS
370
-3
390
F
  0
ENDTAB
  0
TABLE
  2
STYLE
  5
3
100
AcDbSymbolTable
 70
1
  0
STYLE
  5
11
100
AcDbSymbolTableRecord
100
AcDbTextStyleTableRecord
  2
STANDARD
 70
0
 40
0.0
 41
0.8
 50
0.0
 71
0
 42
0.2
  3
txt
  4

  0
STYLE
  5
204
100
AcDbSymbolTableRecord
100
AcDbTextStyleTableRecord
  2
TEXTSTYLE_1
 70
0
 40
0.0
 41
0.8
 50
0.0
 71
0
 42
0.2
  3
gdt
  4

  0
ENDTAB
  0
TABLE
  2
VIEW
  5
6
100
AcDbSymbolTable
 70
0
  0
ENDTAB
  0
TABLE
  2
UCS
  5
7
100
AcDbSymbolTable
 70
0
  0
ENDTAB
  0
TABLE
  2
APPID
  5
9
100
AcDbSymbolTable
 70
1
  0
APPID
  5
205
100
AcDbSymbolTableRecord
100
AcDbRegAppTableRecord
  2
ACAD
 70
0
  0
ENDTAB
  0
TABLE
  2
BLOCK_RECORD
  5
1
100
AcDbSymbolTable
 70
0
  0
BLOCK_RECORD
  5
206
100
AcDbSymbolTableRecord
100
AcDbBlockTableRecord
  2
*Model_Space
  0
BLOCK_RECORD
  5
207
100
AcDbSymbolTableRecord
100
AcDbBlockTableRecord
  2
*Paper_Space
  0
BLOCK_RECORD
  5
208
100
AcDbSymbolTableRecord
100
AcDbBlockTableRecord
  2
SUN_FIRST_THIRD_ANGLE_BL0
  0
BLOCK_RECORD
  5
209
100
AcDbSymbolTableRecord
100
AcDbBlockTableRecord
  2
*T1
  0
BLOCK_RECORD
  5
20A
100
AcDbSymbolTableRecord
100
AcDbBlockTableRecord
  2
*T2
  0
BLOCK_RECORD
  5
20B
100
AcDbSymbolTableRecord
100
AcDbBlockTableRecord
  2
*T3
  0
ENDTAB
  0
TABLE
  2
DIMSTYLE
  5
A
100
AcDbSymbolTable
 70
1
100
AcDbDimStyleTable
 71
0
  0
DIMSTYLE
105
20C
100
AcDbSymbolTableRecord
100
AcDbDimStyleTableRecord
  2
STANDARD
 70
0
  3

  4

 40
1.0
 41
0.1875
 42
0.0625
 43
0.38
 44
0.125
 45
0.0
 46
0.0
 47
0.001
 48
0.001
140
0.1
141
0.09
142
0.0
143
25.4
144
1.0
145
0.0
146
1.0
147
0.09
 71
0.0
 72
0.0
 73
1
 74
1
 75
0
 76
0
 77
0
 78
4
170
0
171
2
172
0
173
0
174
0
175
0
176
0
177
0
178
0
270
2
271
3
272
3
273
2
274
2
275
0
280
0
281
0
282
0
283
1
284
4
285
0
286
0
287
3
288
0
340
11
278
46
  0
ENDTAB
  0
ENDSEC
  0
SECTION
  2
BLOCKS
  0
BLOCK
  5
20
100
AcDbEntity
  8
0
100
AcDbBlockBegin
  2
*Model_Space
 70
0
 10
0.0
 20
0.0
 30
0.0
  3
*Model_Space
  1

  0
ENDBLK
  5
21
100
AcDbEntity
  8
0
100
AcDbBlockEnd
  0
BLOCK
  5
1C
100
AcDbEntity
  8
0
100
AcDbBlockBegin
  2
*Paper_Space
 70
0
 10
0.0
 20
0.0
 30
0.0
  3
*Paper_Space
  1

  0
ENDBLK
  5
1D
100
AcDbEntity
  8
0
100
AcDbBlockEnd
  0
BLOCK
  5
20D
100
AcDbEntity
  8
0
100
AcDbBlockBegin
 62
2
  6
CONTINUOUS
  2
SUN_FIRST_THIRD_ANGLE_BL0
 70
64
 10
20.4816717061
 20
1.2289683772
  3
SUN_FIRST_THIRD_ANGLE_BL0
  1

  0
TEXT
  5
20E
100
AcDbEntity
  8
0
100
AcDbText
 62
2
  6
CONTINUOUS
 10
19.4750896608
 20
1.4136269581
  7
STANDARD
 40
0.08
  1
FIRST ANGLE
 41
0.8
 72
0
100
AcDbText
  0
TEXT
  5
20F
100
AcDbEntity
  8
0
100
AcDbText
 62
2
  6
CONTINUOUS
 10
20.7842537513
 20
1.4047600029
  7
STANDARD
 40
0.08
  1
THIRD ANGLE
 41
0.8
 72
0
100
AcDbText
  0
LINE
  5
210
100
AcDbEntity
  8
0
100
AcDbLine
 62
7
  6
CONTINUOUS
 10
19.4767170086
 20
1.1727031207
 11
19.6334271527
 21
1.1717972817
  0
LINE
  5
211
100
AcDbEntity
  8
0
100
AcDbLine
 62
7
  6
CONTINUOUS
 10
19.6596964832
 20
1.1717972817
 11
19.6950230232
 21
1.171593082
  0
LINE
  5
212
100
AcDbEntity
  8
0
100
AcDbLine
 62
7
  6
CONTINUOUS
 10
19.7194818561
 20
1.1708914427
 11
19.8852396156
 21
1.1699333054
  0
LINE
  5
213
100
AcDbEntity
  8
0
100
AcDbLine
 62
7
  6
CONTINUOUS
 10
19.4758111696
 20
1.2723454088
 11
19.88525039
 21
1.3511534004
  0
LINE
  5
214
100
AcDbEntity
  8
0
100
AcDbLine
 62
7
  6
CONTINUOUS
 10
19.88525039
 20
1.3511534004
 11
19.8831348489
 21
0.9851647912
  0
LINE
  5
215
100
AcDbEntity
  8
0
100
AcDbLine
 62
7
  6
CONTINUOUS
 10
19.8831348489
 20
0.9851647912
 11
19.4767170086
 21
1.0658141206
  0
LINE
  5
216
100
AcDbEntity
  8
0
100
AcDbLine
 62
7
  6
CONTINUOUS
 10
19.4767170086
 20
1.0658141206
 11
19.4779056764
 21
1.2714536432
  0
CIRCLE
  5
217
100
AcDbEntity
  8
0
100
AcDbCircle
 62
7
  6
CONTINUOUS
 10
20.2068232291
 20
1.1717972817
 40
0.175742101
  0
CIRCLE
  5
218
100
AcDbEntity
  8
0
100
AcDbCircle
 62
7
  6
CONTINUOUS
 10
20.2068232291
 20
1.1717972817
 40
0.1005522074
  0
LINE
  5
219
100
AcDbEntity
  8
0
100
AcDbLine
 62
7
  6
CONTINUOUS
 10
20.2077290681
 20
1.3756110529
 11
20.2071171714
 21
1.2379342989
  0
LINE
  5
21A
100
AcDbEntity
  8
0
100
AcDbLine
 62
7
  6
CONTINUOUS
 10
20.2077290681
 20
1.2016899681
 11
20.2074674401
 21
1.1428236749
  0
LINE
  5
21B
100
AcDbEntity
  8
0
100
AcDbLine
 62
7
  6
CONTINUOUS
 10
20.208634907
 20
1.101141841
 11
20.2080230104
 21
0.963465087
  0
LINE
  5
21C
100
AcDbEntity
  8
0
100
AcDbLine
 62
7
  6
CONTINUOUS
 10
20.0066328138
 20
1.1745147986
 11
20.1443095678
 21
1.1739029019
  0
LINE
  5
21D
100
AcDbEntity
  8
0
100
AcDbLine
 62
7
  6
CONTINUOUS
 10
20.1832714155
 20
1.1727031207
 11
20.238153505
 21
1.172335442
  0
LINE
  5
21E
100
AcDbEntity
  8
0
100
AcDbLine
 62
7
  6
CONTINUOUS
 10
20.2756669918
 20
1.1717972817
 11
20.407916871
 21
1.1712095044
  0
CIRCLE
  5
21F
100
AcDbEntity
  8
0
100
AcDbCircle
 62
7
  6
CONTINUOUS
 10
20.7509457401
 20
1.1693297793
 40
0.1722024983
  0
CIRCLE
  5
220
100
AcDbEntity
  8
0
100
AcDbCircle
 62
7
  6
CONTINUOUS
 10
20.7509457401
 20
1.1693297793
 40
0.0985164967
  0
LINE
  5
221
100
AcDbEntity
  8
0
100
AcDbLine
 62
7
  6
CONTINUOUS
 10
20.7169767782
 20
1.170462078
 11
20.7825395137
 21
1.1682766535
  0
LINE
  5
222
100
AcDbEntity
  8
0
100
AcDbLine
 62
7
  6
CONTINUOUS
 10
20.8177513651
 20
1.1693297793
 11
20.947965719
 21
1.1693297793
  0
LINE
  5
223
100
AcDbEntity
  8
0
100
AcDbLine
 62
7
  6
CONTINUOUS
 10
20.6875370113
 20
1.170462078
 11
20.5573226574
 21
1.170462078
  0
LINE
  5
224
100
AcDbEntity
  8
0
100
AcDbLine
 62
7
  6
CONTINUOUS
 10
20.7486811426
 20
1.1987695462
 11
20.7486811426
 21
1.1432869085
  0
LINE
  5
225
100
AcDbEntity
  8
0
100
AcDbLine
 62
7
  6
CONTINUOUS
 10
20.7498134414
 20
1.1059210505
 11
20.7498134414
 21
0.9757066966
  0
LINE
  5
226
100
AcDbEntity
  8
0
100
AcDbLine
 62
7
  6
CONTINUOUS
 10
20.7486811426
 20
1.2338708068
 11
20.7486811426
 21
1.3640851607
  0
LINE
  5
227
100
AcDbEntity
  8
0
100
AcDbLine
 62
7
  6
CONTINUOUS
 10
21.0702539817
 20
1.2701043662
 11
21.4790138229
 21
1.3448360823
  0
LINE
  5
228
100
AcDbEntity
  8
0
100
AcDbLine
 62
7
  6
CONTINUOUS
 10
21.4790138229
 20
1.3448360823
 11
21.4790138229
 21
0.9779712941
  0
LINE
  5
229
100
AcDbEntity
  8
0
100
AcDbLine
 62
7
  6
CONTINUOUS
 10
21.4790138229
 20
0.9779712941
 11
21.069121683
 21
1.0617614
  0
LINE
  5
22A
100
AcDbEntity
  8
0
100
AcDbLine
 62
7
  6
CONTINUOUS
 10
21.0702539817
 20
1.2701043662
 11
21.069121683
 21
1.0617614
  0
LINE
  5
22B
100
AcDbEntity
  8
0
100
AcDbLine
 62
7
  6
CONTINUOUS
 10
21.4790138229
 20
1.1693297793
 11
21.3159628059
 21
1.1693297793
  0
LINE
  5
22C
100
AcDbEntity
  8
0
100
AcDbLine
 62
7
  6
CONTINUOUS
 10
21.2876553377
 20
1.1693297793
 11
21.2502894796
 21
1.1693297793
  0
LINE
  5
22D
100
AcDbEntity
  8
0
100
AcDbLine
 62
7
  6
CONTINUOUS
 10
21.2208497126
 20
1.1659328831
 11
21.0713862804
 21
1.1659328831
  0
LINE
  5
22E
100
AcDbEntity
  8
0
100
AcDbLine
 62
7
  6
CONTINUOUS
 10
20.4796138713
 20
1.5284908897
 11
20.4766766948
 21
0.9294458646
  0
ENDBLK
  5
22F
100
AcDbEntity
  8
0
  6
BYBLOCK
 62
0
100
AcDbBlockEnd
  0
BLOCK
  5
230
100
AcDbEntity
  8
0
100
AcDbBlockBegin
  2
*T1
 70
1
 10
0.0
 20
0.0
  3
*T1
  1

  0
LINE
  5
231
100
AcDbEntity
  8
0
100
AcDbLine
 62
2
  6
CONTINUOUS
 10
9.275
 20
0.0
 11
-0.0
 21
0.0
  0
LINE
  5
232
100
AcDbEntity
  8
0
100
AcDbLine
 62
2
  6
CONTINUOUS
 10
9.275
 20
0.0
 11
9.275
 21
1.25
  0
LINE
  5
233
100
AcDbEntity
  8
0
100
AcDbLine
 62
2
  6
CONTINUOUS
 10
9.275
 20
0.625
 11
-0.0
 21
0.625
  0
LINE
  5
234
100
AcDbEntity
  8
0
100
AcDbLine
 62
2
  6
CONTINUOUS
 10
9.275
 20
1.25
 11
-0.0
 21
1.25
  0
LINE
  5
235
100
AcDbEntity
  8
0
100
AcDbLine
 62
2
  6
CONTINUOUS
 10
6.8
 20
0.0
 11
6.8
 21
1.25
  0
LINE
  5
236
100
AcDbEntity
  8
0
100
AcDbLine
 62
2
  6
CONTINUOUS
 10
6.4
 20
0.0
 11
6.4
 21
0.625
  0
LINE
  5
237
100
AcDbEntity
  8
0
100
AcDbLine
 62
2
  6
CONTINUOUS
 10
5.9
 20
0.0
 11
5.9
 21
0.625
  0
LINE
  5
238
100
AcDbEntity
  8
0
100
AcDbLine
 62
2
  6
CONTINUOUS
 10
5.2
 20
0.0
 11
5.2
 21
0.625
  0
LINE
  5
239
100
AcDbEntity
  8
0
100
AcDbLine
 62
2
  6
CONTINUOUS
 10
4.1
 20
0.0
 11
4.1
 21
1.25
  0
LINE
  5
23A
100
AcDbEntity
  8
0
100
AcDbLine
 62
2
  6
CONTINUOUS
 10
-0.0
 20
0.0
 11
-0.0
 21
1.25
  0
MTEXT
  5
23B
100
AcDbEntity
  8
0
100
AcDbMText
 62
2
  6
CONTINUOUS
  7
STANDARD
 71
2
 72
1
 10
6.6
 20
0.325
 30
0.0
 11
1.0
 21
0.0
 31
0.0
 44
0.9
  1
2
 40
0.125
 41
0.2
  0
MTEXT
  5
23C
100
AcDbEntity
  8
0
100
AcDbMText
 62
2
  6
CONTINUOUS
  7
STANDARD
 71
2
 72
1
 10
6.15
 20
0.325
 30
0.0
 11
1.0
 21
0.0
 31
0.0
 44
0.9
  1
C
 40
0.125
 41
0.2
  0
MTEXT
  5
23D
100
AcDbEntity
  8
0
100
AcDbMText
 62
2
  6
CONTINUOUS
  7
STANDARD
 71
2
 72
1
 10
5.55
 20
0.325
 30
0.0
 11
1.0
 21
0.0
 31
0.0
 44
0.9
  1
1.000
 40
0.125
 41
1.0
  0
MTEXT
  5
23E
100
AcDbEntity
  8
0
100
AcDbMText
 62
2
  6
CONTINUOUS
  7
STANDARD
 71
2
 72
1
 10
4.65
 20
0.325
 30
0.0
 11
1.0
 21
0.0
 31
0.0
 44
0.9
  1
May-30-21
 40
0.125
 41
1.8
  0
MTEXT
  5
23F
100
AcDbEntity
  8
0
100
AcDbMText
 62
2
  6
CONTINUOUS
  7
STANDARD
 71
2
 72
1
 10
2.05
 20
0.4625
 30
0.0
 11
1.0
 21
0.0
 31
0.0
 44
0.9
  1
T-3A Bar Manifold ISO 08\P(See Technical Data for Body Features)
 40
0.125
 41
7.6
  0
MTEXT
  5
240
100
AcDbEntity
  8
0
100
AcDbMText
 62
2
  6
CONTINUOUS
  7
STANDARD
 71
1
 72
1
 10
6.45
 20
0.5625
 30
0.0
 11
1.0
 21
0.0
 31
0.0
 44
0.9
  1
SHEET
 40
0.06
 41
0.48
  0
MTEXT
  5
241
100
AcDbEntity
  8
0
100
AcDbMText
 62
2
  6
CONTINUOUS
  7
STANDARD
 71
1
 72
1
 10
5.95
 20
0.5625
 30
0.0
 11
1.0
 21
0.0
 31
0.0
 44
0.9
  1
DWG SIZE
 40
0.06
 41
0.768
  0
MTEXT
  5
242
100
AcDbEntity
  8
0
100
AcDbMText
 62
2
  6
CONTINUOUS
  7
STANDARD
 71
1
 72
1
 10
5.25
 20
0.5625
 30
0.0
 11
1.0
 21
0.0
 31
0.0
 44
0.9
  1
SCALE
 40
0.06
 41
0.48
  0
MTEXT
  5
243
100
AcDbEntity
  8
0
100
AcDbMText
 62
2
  6
CONTINUOUS
  7
STANDARD
 71
1
 72
1
 10
4.15
 20
0.5625
 30
0.0
 11
1.0
 21
0.0
 31
0.0
 44
0.9
  1
DATE
 40
0.06
 41
0.384
  0
MTEXT
  5
244
100
AcDbEntity
  8
0
100
AcDbMText
 62
2
  6
CONTINUOUS
  7
STANDARD
 71
1
 72
1
 10
0.05
 20
0.5625
 30
0.0
 11
1.0
 21
0.0
 31
0.0
 44
0.9
  1
DESCRIPTION
 40
0.06
 41
1.056
  0
MTEXT
  5
245
100
AcDbEntity
  8
0
100
AcDbMText
 62
2
  6
CONTINUOUS
  7
STANDARD
 71
2
 72
1
 10
5.45
 20
1.0375
 30
0.0
 11
1.0
 21
0.0
 31
0.0
 44
0.9
  1
ALL DIMENSIONS IN INCH\PVIEWS ARE THIRD ANGLE
 40
0.12
 41
4.224
  0
MTEXT
  5
246
100
AcDbEntity
  8
0
100
AcDbMText
 62
2
  6
CONTINUOUS
  7
STANDARD
 71
2
 72
1
 10
2.05
 20
0.95
 30
0.0
 11
1.0
 21
0.0
 31
0.0
 44
0.9
  1
VLN
 40
0.125
 41
0.6
  0
MTEXT
  5
247
100
AcDbEntity
  8
0
100
AcDbMText
 62
2
  6
CONTINUOUS
  7
STANDARD
 71
1
 72
1
 10
0.05
 20
1.1875
 30
0.0
 11
1.0
 21
0.0
 31
0.0
 44
0.9
  1
MODEL
 40
0.06
 41
0.48
  0
ENDBLK
  5
248
100
AcDbEntity
  8
0
  6
BYBLOCK
 62
0
100
AcDbBlockEnd
  0
BLOCK
  5
249
100
AcDbEntity
  8
0
100
AcDbBlockBegin
  2
*T2
 70
1
 10
0.0
 20
0.0
  3
*T2
  1

  0
LINE
  5
24A
100
AcDbEntity
  8
0
100
AcDbLine
 62
2
  6
CONTINUOUS
 10
0.0
 20
0.0
 11
9.055
 21
0.0
  0
LINE
  5
24B
100
AcDbEntity
  8
0
100
AcDbLine
 62
2
  6
CONTINUOUS
 10
0.0
 20
0.0
 11
0.0
 21
-2.594
  0
LINE
  5
24C
100
AcDbEntity
  8
0
100
AcDbLine
 62
2
  6
CONTINUOUS
 10
0.0
 20
-0.344
 11
9.055
 21
-0.344
  0
LINE
  5
24D
100
AcDbEntity
  8
0
100
AcDbLine
 62
2
  6
CONTINUOUS
 10
0.0
 20
-0.594
 11
9.055
 21
-0.594
  0
LINE
  5
24E
100
AcDbEntity
  8
0
100
AcDbLine
 62
2
  6
CONTINUOUS
 10
0.0
 20
-0.844
 11
9.055
 21
-0.844
  0
LINE
  5
24F
100
AcDbEntity
  8
0
100
AcDbLine
 62
2
  6
CONTINUOUS
 10
0.0
 20
-1.094
 11
9.055
 21
-1.094
  0
LINE
  5
250
100
AcDbEntity
  8
0
100
AcDbLine
 62
2
  6
CONTINUOUS
 10
0.0
 20
-1.344
 11
9.055
 21
-1.344
  0
LINE
  5
251
100
AcDbEntity
  8
0
100
AcDbLine
 62
2
  6
CONTINUOUS
 10
0.0
 20
-1.594
 11
9.055
 21
-1.594
  0
LINE
  5
252
100
AcDbEntity
  8
0
100
AcDbLine
 62
2
  6
CONTINUOUS
 10
0.0
 20
-1.844
 11
9.055
 21
-1.844
  0
LINE
  5
253
100
AcDbEntity
  8
0
100
AcDbLine
 62
2
  6
CONTINUOUS
 10
0.0
 20
-2.094
 11
9.055
 21
-2.094
  0
LINE
  5
254
100
AcDbEntity
  8
0
100
AcDbLine
 62
2
  6
CONTINUOUS
 10
0.0
 20
-2.344
 11
9.055
 21
-2.344
  0
LINE
  5
255
100
AcDbEntity
  8
0
100
AcDbLine
 62
2
  6
CONTINUOUS
 10
0.0
 20
-2.594
 11
9.055
 21
-2.594
  0
LINE
  5
256
100
AcDbEntity
  8
0
100
AcDbLine
 62
2
  6
CONTINUOUS
 10
3.055
 20
0.0
 11
3.055
 21
-2.594
  0
LINE
  5
257
100
AcDbEntity
  8
0
100
AcDbLine
 62
2
  6
CONTINUOUS
 10
9.055
 20
0.0
 11
9.055
 21
-2.594
  0
MTEXT
  5
258
100
AcDbEntity
  8
0
100
AcDbMText
 62
2
  6
CONTINUOUS
  7
STANDARD
 71
2
 72
1
 10
1.5275
 20
-0.0995
 30
0.0
 11
1.0
 21
0.0
 31
0.0
 44
0.9
  1
Technical Data
 40
0.145
 41
3.248
  0
MTEXT
  5
259
100
AcDbEntity
  8
0
100
AcDbMText
 62
2
  6
CONTINUOUS
  7
STANDARD
 71
2
 72
1
 10
4.555
 20
-0.0995
 30
0.0
 11
1.0
 21
0.0
 31
0.0
 44
0.9
  1
U.S. Units
 40
0.145
 41
2.32
  0
MTEXT
  5
25A
100
AcDbEntity
  8
0
100
AcDbMText
 62
2
  6
CONTINUOUS
  7
STANDARD
 71
2
 72
1
 10
7.555
 20
-0.0995
 30
0.0
 11
1.0
 21
0.0
 31
0.0
 44
0.9
  1
Metric Units
 40
0.145
 41
2.784
  0
MTEXT
  5
25B
100
AcDbEntity
  8
0
100
AcDbMText
 62
2
  6
CONTINUOUS
  7
STANDARD
 71
2
 72
1
 10
1.5275
 20
-0.4065
 30
0.0
 11
1.0
 21
0.0
 31
0.0
 44
0.9
  1
Cavity
 40
0.125
 41
1.2
  0
MTEXT
  5
25C
100
AcDbEntity
  8
0
100
AcDbMText
 62
2
  6
CONTINUOUS
  7
STANDARD
 71
2
 72
1
 10
6.055
 20
-0.4065
 30
0.0
 11
1.0
 21
0.0
 31
0.0
 44
0.9
  1
T-3A
 40
0.125
 41
0.8
  0
MTEXT
  5
25D
100
AcDbEntity
  8
0
100
AcDbMText
 62
2
  6
CONTINUOUS
  7
STANDARD
 71
2
 72
1
 10
1.5275
 20
-0.6565
 30
0.0
 11
1.0
 21
0.0
 31
0.0
 44
0.9
  1
Body Features
 40
0.125
 41
2.6
  0
MTEXT
  5
25E
100
AcDbEntity
  8
0
100
AcDbMText
 62
2
  6
CONTINUOUS
  7
STANDARD
 71
2
 72
1
 10
6.055
 20
-0.6565
 30
0.0
 11
1.0
 21
0.0
 31
0.0
 44
0.9
  1
1 Station, Parallel circuit with relief cavity
 40
0.125
 41
9.2
  0
MTEXT
  5
25F
100
AcDbEntity
  8
0
100
AcDbMText
 62
2
  6
CONTINUOUS
  7
STANDARD
 71
2
 72
1
 10
1.5275
 20
-0.9065
 30
0.0
 11
1.0
 21
0.0
 31
0.0
 44
0.9
  1
Body Type
 40
0.125
 41
1.8
  0
MTEXT
  5
260
100
AcDbEntity
  8
0
100
AcDbMText
 62
2
  6
CONTINUOUS
  7
STANDARD
 71
2
 72
1
 10
6.055
 20
-0.9065
 30
0.0
 11
1.0
 21
0.0
 31
0.0
 44
0.9
  1
Bar Manifold
 40
0.125
 41
2.4
  0
MTEXT
  5
261
100
AcDbEntity
  8
0
100
AcDbMText
 62
2
  6
CONTINUOUS
  7
STANDARD
 71
2
 72
1
 10
1.5275
 20
-1.1565
 30
0.0
 11
1.0
 21
0.0
 31
0.0
 44
0.9
  1
Interface
 40
0.125
 41
1.8
  0
MTEXT
  5
262
100
AcDbEntity
  8
0
100
AcDbMText
 62
2
  6
CONTINUOUS
  7
STANDARD
 71
2
 72
1
 10
6.055
 20
-1.1565
 30
0.0
 11
1.0
 21
0.0
 31
0.0
 44
0.9
  1
ISO 08
 40
0.125
 41
1.2
  0
MTEXT
  5
263
100
AcDbEntity
  8
0
100
AcDbMText
 62
2
  6
CONTINUOUS
  7
STANDARD
 71
2
 72
1
 10
1.5275
 20
-1.4065
 30
0.0
 11
1.0
 21
0.0
 31
0.0
 44
0.9
  1
Open Cavity Quantity
 40
0.125
 41
4.0
  0
MTEXT
  5
264
100
AcDbEntity
  8
0
100
AcDbMText
 62
2
  6
CONTINUOUS
  7
STANDARD
 71
2
 72
1
 10
6.055
 20
-1.4065
 30
0.0
 11
1.0
 21
0.0
 31
0.0
 44
0.9
  1
1
 40
0.125
 41
0.2
  0
MTEXT
  5
265
100
AcDbEntity
  8
0
100
AcDbMText
 62
2
  6
CONTINUOUS
  7
STANDARD
 71
2
 72
1
 10
1.5275
 20
-1.6565
 30
0.0
 11
1.0
 21
0.0
 31
0.0
 44
0.9
  1
Weight
 40
0.125
 41
1.2
  0
MTEXT
  5
266
100
AcDbEntity
  8
0
100
AcDbMText
 62
2
  6
CONTINUOUS
  7
STANDARD
 71
2
 72
1
 10
4.555
 20
-1.6565
 30
0.0
 11
1.0
 21
0.0
 31
0.0
 44
0.9
  1
11.927 lb.
 40
0.125
 41
2.0
  0
MTEXT
  5
267
100
AcDbEntity
  8
0
100
AcDbMText
 62
2
  6
CONTINUOUS
  7
STANDARD
 71
2
 72
1
 10
7.555
 20
-1.6565
 30
0.0
 11
1.0
 21
0.0
 31
0.0
 44
0.9
  1
5,410 kg.
 40
0.125
 41
1.8
  0
MTEXT
  5
268
100
AcDbEntity
  8
0
100
AcDbMText
 62
2
  6
CONTINUOUS
  7
STANDARD
 71
2
 72
1
 10
1.5275
 20
-1.9065
 30
0.0
 11
1.0
 21
0.0
 31
0.0
 44
0.9
  1
Mounting Hole Thread
 40
0.125
 41
4.0
  0
MTEXT
  5
269
100
AcDbEntity
  8
0
100
AcDbMText
 62
2
  6
CONTINUOUS
  7
STANDARD
 71
2
 72
1
 10
6.055
 20
-1.9065
 30
0.0
 11
1.0
 21
0.0
 31
0.0
 44
0.9
  1
M12x1.75 - 6H
 40
0.125
 41
2.6
  0
MTEXT
  5
26A
100
AcDbEntity
  8
0
100
AcDbMText
 62
2
  6
CONTINUOUS
  7
STANDARD
 71
2
 72
1
 10
1.5275
 20
-2.1565
 30
0.0
 11
1.0
 21
0.0
 31
0.0
 44
0.9
  1
Mounting Hole Depth
 40
0.125
 41
3.8
  0
MTEXT
  5
26B
100
AcDbEntity
  8
0
100
AcDbMText
 62
2
  6
CONTINUOUS
  7
STANDARD
 71
2
 72
1
 10
4.555
 20
-2.1565
 30
0.0
 11
1.0
 21
0.0
 31
0.0
 44
0.9
  1
.88 in.
 40
0.125
 41
1.4
  0
MTEXT
  5
26C
100
AcDbEntity
  8
0
100
AcDbMText
 62
2
  6
CONTINUOUS
  7
STANDARD
 71
2
 72
1
 10
7.555
 20
-2.1565
 30
0.0
 11
1.0
 21
0.0
 31
0.0
 44
0.9
  1
22,4 mm
 40
0.125
 41
1.4
  0
MTEXT
  5
26D
100
AcDbEntity
  8
0
100
AcDbMText
 62
2
  6
CONTINUOUS
  7
STANDARD
 71
2
 72
1
 10
1.5275
 20
-2.4065
 30
0.0
 11
1.0
 21
0.0
 31
0.0
 44
0.9
  1
Mounting Hole Quantity
 40
0.125
 41
4.4
  0
MTEXT
  5
26E
100
AcDbEntity
  8
0
100
AcDbMText
 62
2
  6
CONTINUOUS
  7
STANDARD
 71
2
 72
1
 10
6.055
 20
-2.4065
 30
0.0
 11
1.0
 21
0.0
 31
0.0
 44
0.9
  1
4
 40
0.125
 41
0.2
  0
ENDBLK
  5
26F
100
AcDbEntity
  8
0
  6
BYBLOCK
 62
0
100
AcDbBlockEnd
  0
BLOCK
  5
270
100
AcDbEntity
  8
0
100
AcDbBlockBegin
  2
*T3
 70
1
 10
0.0
 20
0.0
  3
*T3
  1

  0
LINE
  5
271
100
AcDbEntity
  8
0
100
AcDbLine
 62
2
  6
CONTINUOUS
 10
0.0
 20
0.0
 11
4.6
 21
0.0
  0
LINE
  5
272
100
AcDbEntity
  8
0
100
AcDbLine
 62
2
  6
CONTINUOUS
 10
0.0
 20
0.0
 11
0.0
 21
-1.68775
  0
LINE
  5
273
100
AcDbEntity
  8
0
100
AcDbLine
 62
2
  6
CONTINUOUS
 10
0.0
 20
-0.34375
 11
4.6
 21
-0.34375
  0
LINE
  5
274
100
AcDbEntity
  8
0
100
AcDbLine
 62
2
  6
CONTINUOUS
 10
0.0
 20
-0.68775
 11
4.6
 21
-0.68775
  0
LINE
  5
275
100
AcDbEntity
  8
0
100
AcDbLine
 62
2
  6
CONTINUOUS
 10
0.0
 20
-0.93775
 11
4.6
 21
-0.93775
  0
LINE
  5
276
100
AcDbEntity
  8
0
100
AcDbLine
 62
2
  6
CONTINUOUS
 10
0.0
 20
-1.18775
 11
4.6
 21
-1.18775
  0
LINE
  5
277
100
AcDbEntity
  8
0
100
AcDbLine
 62
2
  6
CONTINUOUS
 10
0.0
 20
-1.43775
 11
4.6
 21
-1.43775
  0
LINE
  5
278
100
AcDbEntity
  8
0
100
AcDbLine
 62
2
  6
CONTINUOUS
 10
0.0
 20
-1.68775
 11
4.6
 21
-1.68775
  0
LINE
  5
279
100
AcDbEntity
  8
0
100
AcDbLine
 62
2
  6
CONTINUOUS
 10
1.3
 20
-0.34375
 11
1.3
 21
-1.68775
  0
LINE
  5
27A
100
AcDbEntity
  8
0
100
AcDbLine
 62
2
  6
CONTINUOUS
 10
3.3
 20
-0.34375
 11
3.3
 21
-1.68775
  0
LINE
  5
27B
100
AcDbEntity
  8
0
100
AcDbLine
 62
2
  6
CONTINUOUS
 10
4.6
 20
0.0
 11
4.6
 21
-1.68775
  0
MTEXT
  5
27C
100
AcDbEntity
  8
0
100
AcDbMText
 62
2
  6
CONTINUOUS
  7
STANDARD
 71
2
 72
1
 10
2.3
 20
-0.099375
 30
0.0
 11
1.0
 21
0.0
 31
0.0
 44
0.9
  1
Port Headings
 40
0.145
 41
3.016
  0
MTEXT
  5
27D
100
AcDbEntity
  8
0
100
AcDbMText
 62
2
  6
CONTINUOUS
  7
STANDARD
 71
2
 72
1
 10
0.65
 20
-0.44325
 30
0.0
 11
1.0
 21
0.0
 31
0.0
 44
0.9
  1
Product
 40
0.145
 41
1.624
  0
MTEXT
  5
27E
100
AcDbEntity
  8
0
100
AcDbMText
 62
2
  6
CONTINUOUS
  7
STANDARD
 71
2
 72
1
 10
2.3
 20
-0.44325
 30
0.0
 11
1.0
 21
0.0
 31
0.0
 44
0.9
  1
Port
 40
0.145
 41
0.928
  0
MTEXT
  5
27F
100
AcDbEntity
  8
0
100
AcDbMText
 62
2
  6
CONTINUOUS
  7
STANDARD
 71
2
 72
1
 10
3.95
 20
-0.44325
 30
0.0
 11
1.0
 21
0.0
 31
0.0
 44
0.9
  1
Size
 40
0.145
 41
0.928
  0
MTEXT
  5
280
100
AcDbEntity
  8
0
100
AcDbMText
 62
2
  6
CONTINUOUS
  7
STANDARD
 71
2
 72
1
 10
0.65
 20
-0.75025
 30
0.0
 11
1.0
 21
0.0
 31
0.0
 44
0.9
  1
VLN
 40
0.125
 41
0.6
  0
MTEXT
  5
281
100
AcDbEntity
  8
0
100
AcDbMText
 62
2
  6
CONTINUOUS
  7
STANDARD
 71
2
 72
1
 10
2.3
 20
-0.75025
 30
0.0
 11
1.0
 21
0.0
 31
0.0
 44
0.9
  1
Ports A, B, P
 40
0.125
 41
2.6
  0
MTEXT
  5
282
100
AcDbEntity
  8
0
100
AcDbMText
 62
2
  6
CONTINUOUS
  7
STANDARD
 71
2
 72
1
 10
3.95
 20
-0.75025
 30
0.0
 11
1.0
 21
0.0
 31
0.0
 44
0.9
  1
1"  NPTF
 40
0.125
 41
1.6
  0
MTEXT
  5
283
100
AcDbEntity
  8
0
100
AcDbMText
 62
2
  6
CONTINUOUS
  7
STANDARD
 71
2
 72
1
 10
0.65
 20
-1.00025
 30
0.0
 11
1.0
 21
0.0
 31
0.0
 44
0.9
  1
VLN
 40
0.125
 41
0.6
  0
MTEXT
  5
284
100
AcDbEntity
  8
0
100
AcDbMText
 62
2
  6
CONTINUOUS
  7
STANDARD
 71
2
 72
1
 10
2.3
 20
-1.00025
 30
0.0
 11
1.0
 21
0.0
 31
0.0
 44
0.9
  1
Port T
 40
0.125
 41
1.2
  0
MTEXT
  5
285
100
AcDbEntity
  8
0
100
AcDbMText
 62
2
  6
CONTINUOUS
  7
STANDARD
 71
2
 72
1
 10
3.95
 20
-1.00025
 30
0.0
 11
1.0
 21
0.0
 31
0.0
 44
0.9
  1
1 1/4" NPTF
 40
0.125
 41
2.2
  0
MTEXT
  5
286
100
AcDbEntity
  8
0
100
AcDbMText
 62
2
  6
CONTINUOUS
  7
STANDARD
 71
2
 72
1
 10
0.65
 20
-1.25025
 30
0.0
 11
1.0
 21
0.0
 31
0.0
 44
0.9
  1
VLN
 40
0.125
 41
0.6
  0
MTEXT
  5
287
100
AcDbEntity
  8
0
100
AcDbMText
 62
2
  6
CONTINUOUS
  7
STANDARD
 71
2
 72
1
 10
2.3
 20
-1.25025
 30
0.0
 11
1.0
 21
0.0
 31
0.0
 44
0.9
  1
Gage Port
 40
0.125
 41
1.8
  0
MTEXT
  5
288
100
AcDbEntity
  8
0
100
AcDbMText
 62
2
  6
CONTINUOUS
  7
STANDARD
 71
2
 72
1
 10
3.95
 20
-1.25025
 30
0.0
 11
1.0
 21
0.0
 31
0.0
 44
0.9
  1
1/4" NPTF
 40
0.125
 41
1.8
  0
MTEXT
  5
289
100
AcDbEntity
  8
0
100
AcDbMText
 62
2
  6
CONTINUOUS
  7
STANDARD
 71
2
 72
1
 10
0.65
 20
-1.50025
 30
0.0
 11
1.0
 21
0.0
 31
0.0
 44
0.9
  1
VLN
 40
0.125
 41
0.6
  0
MTEXT
  5
28A
100
AcDbEntity
  8
0
100
AcDbMText
 62
2
  6
CONTINUOUS
  7
STANDARD
 71
2
 72
1
 10
2.3
 20
-1.50025
 30
0.0
 11
1.0
 21
0.0
 31
0.0
 44
0.9
  1
Port Y
 40
0.125
 41
1.2
  0
MTEXT
  5
28B
100
AcDbEntity
  8
0
100
AcDbMText
 62
2
  6
CONTINUOUS
  7
STANDARD
 71
2
 72
1
 10
3.95
 20
-1.50025
 30
0.0
 11
1.0
 21
0.0
 31
0.0
 44
0.9
  1
3/8" NPTF
 40
0.125
 41
1.8
  0
ENDBLK
  5
28C
100
AcDbEntity
  8
0
  6
BYBLOCK
 62
0
100
AcDbBlockEnd
  0
ENDSEC
  0
SECTION
  2
ENTITIES
  0
IMAGE
  5
28D
100
AcDbEntity
  8
0
100
AcDbRasterImage
 62
7
  6
CONTINUOUS
 10
19.2297077316
 20
0.3094318264
 30
0.0
 11
0.0066666667
 21
0.0
 31
0.0
 12
0.0
 22
0.0066666667
 32
0.0
 13
369.0
 23
92.0
340
       3D9
 70
9
280
0
281
50
282
50
283
0
360
       3D3
 71
1
 91
2
 14
-0.5
 24
-0.5
 14
368.5
 24
91.5
  0
INSERT
  5
28E
100
AcDbEntity
  8
0
100
AcDbBlockReference
 62
2
  6
CONTINUOUS
  2
SUN_FIRST_THIRD_ANGLE_BL0
 10
20.4816717061
 20
1.2289683772
  0
ACAD_TABLE
  5
28F
100
AcDbEntity
  8
0
 62
2
  6
CONTINUOUS
100
AcDbBlockReference
  2
*T1
 10
12.42375
 20
0.30125
 30
0.0
100
AcDbTable
342
       3DB
343
209
 11
1.0
 21
0.0
 31
0.0
 90
6
 91
4
 92
6
 93
20
 94
0
 95
0
 96
0
 70
1
 41
0.0
141
0.525
141
0.1
141
0.525
141
0.1
142
4.1
142
1.1
142
0.7
142
0.5
142
0.4
142
2.475
171
1
172
0
173
0
174
0
175
1
176
1
 91
33
178
0
145
0.0
301
CELL_VALUE
 90
4
  1
T-3A Bar Manifold ISO 08\P(See Technical Data for Body Features)
304
ACVALUE_END
170
2
140
0.125
171
1
172
0
173
0
174
0
175
1
176
1
 91
33
178
0
145
0.0
301
CELL_VALUE
 90
4
  1
May-30-21
304
ACVALUE_END
170
5
140
0.125
171
1
172
0
173
0
174
0
175
1
176
1
 91
33
178
0
145
0.0
301
CELL_VALUE
 90
4
  1
1.000
304
ACVALUE_END
170
5
140
0.125
171
1
172
0
173
0
174
0
175
1
176
1
 91
33
178
0
145
0.0
301
CELL_VALUE
 90
4
  1
C
304
ACVALUE_END
170
5
140
0.125
171
1
172
0
173
0
174
0
175
1
176
1
 91
33
178
0
145
0.0
301
CELL_VALUE
 90
4
  1
2
304
ACVALUE_END
170
5
140
0.125
171
1
172
0
173
0
174
0
175
1
176
1
 91
33
178
0
145
0.0
301
CELL_VALUE
 90
4
  1
 
304
ACVALUE_END
170
1
140
0.125
171
1
172
0
173
0
174
0
175
1
176
1
 91
33
178
0
145
0.0
301
CELL_VALUE
 90
4
  1
DESCRIPTION
304
ACVALUE_END
170
1
140
0.06
171
1
172
0
173
0
174
0
175
1
176
1
 91
33
178
0
145
0.0
301
CELL_VALUE
 90
4
  1
DATE
304
ACVALUE_END
170
1
140
0.06
171
1
172
0
173
0
174
0
175
1
176
1
 91
33
178
0
145
0.0
301
CELL_VALUE
 90
4
  1
SCALE
304
ACVALUE_END
170
1
140
0.06
171
1
172
0
173
0
174
0
175
1
176
1
 91
33
178
0
145
0.0
301
CELL_VALUE
 90
4
  1
DWG SIZE
304
ACVALUE_END
170
1
140
0.06
171
1
172
0
173
0
174
0
175
1
176
1
 91
33
178
0
145
0.0
301
CELL_VALUE
 90
4
  1
SHEET
304
ACVALUE_END
170
1
140
0.06
171
1
172
0
173
0
174
0
175
1
176
1
 91
33
178
0
145
0.0
301
CELL_VALUE
 90
4
  1
 
304
ACVALUE_END
170
1
140
0.125
171
1
172
0
173
0
174
0
175
1
176
1
 91
33
178
0
145
0.0
301
CELL_VALUE
 90
4
  1
VLN
304
ACVALUE_END
170
5
140
0.125
171
1
172
0
173
0
174
0
175
4
176
1
 91
33
178
0
145
0.0
301
CELL_VALUE
 90
4
  1
ALL DIMENSIONS IN INCH\PVIEWS ARE THIRD ANGLE
304
ACVALUE_END
170
5
140
0.12
171
1
172
0
173
1
174
0
175
1
176
1
 91
1
178
0
145
0.0
170
1
171
1
172
0
173
1
174
0
175
1
176
1
 91
1
178
0
145
0.0
170
1
171
1
172
0
173
1
174
0
175
1
176
1
 91
1
178
0
145
0.0
170
5
171
1
172
0
173
0
174
0
175
1
176
1
 91
33
178
0
145
0.0
301
CELL_VALUE
 90
4
  1
 
304
ACVALUE_END
170
1
140
0.125
171
1
172
0
173
0
174
0
175
1
176
1
 91
33
178
0
145
0.0
301
CELL_VALUE
 90
4
  1
MODEL
304
ACVALUE_END
170
1
140
0.06
171
1
172
0
173
0
174
0
175
1
176
1
 91
33
178
0
145
0.0
301
CELL_VALUE
 90
4
  1
 
304
ACVALUE_END
170
1
140
0.125
171
1
172
0
173
0
174
0
175
1
176
1
 91
33
178
0
145
0.0
301
CELL_VALUE
 90
4
  1
 
304
ACVALUE_END
170
1
140
0.125
171
1
172
0
173
0
174
0
175
1
176
1
 91
33
178
0
145
0.0
301
CELL_VALUE
 90
4
  1
 
304
ACVALUE_END
170
1
140
0.125
171
1
172
0
173
0
174
0
175
1
176
1
 91
33
178
0
145
0.0
301
CELL_VALUE
 90
4
  1
 
304
ACVALUE_END
170
1
140
0.125
171
1
172
0
173
0
174
0
175
1
176
1
 91
33
178
0
145
0.0
301
CELL_VALUE
 90
4
  1
 
304
ACVALUE_END
170
1
140
0.125
  0
ACAD_TABLE
  5
290
100
AcDbEntity
  8
0
 62
2
  6
CONTINUOUS
100
AcDbBlockReference
  2
*T2
 10
12.4237499994
 20
16.47875
 30
0.0
100
AcDbTable
342
       3DA
343
20A
 11
1.0
 21
0.0
 31
0.0
 90
22
 91
10
 92
3
 93
16
 94
0
 95
0
 96
0
 41
0.028
141
0.344
141
0.25
141
0.25
141
0.25
141
0.25
141
0.25
141
0.25
141
0.25
141
0.25
141
0.25
142
3.055
142
3.0
142
3.0
171
1
172
0
173
0
174
0
175
1
176
1
 91
33
178
0
145
0.0
301
CELL_VALUE
 90
4
  1
Technical Data
304
ACVALUE_END
170
5
140
0.145
171
1
172
0
173
0
174
0
175
1
176
1
 91
33
178
0
145
0.0
301
CELL_VALUE
 90
4
  1
U.S. Units
304
ACVALUE_END
170
5
140
0.145
171
1
172
0
173
0
174
0
175
1
176
1
 91
33
178
0
145
0.0
301
CELL_VALUE
 90
4
  1
Metric Units
304
ACVALUE_END
170
5
140
0.145
171
1
172
0
173
0
174
0
175
1
176
1
 91
33
178
0
145
0.0
301
CELL_VALUE
 90
4
  1
Cavity
304
ACVALUE_END
170
5
140
0.125
171
1
172
0
173
0
174
0
175
2
176
1
 91
33
178
0
145
0.0
301
CELL_VALUE
 90
4
  1
T-3A
304
ACVALUE_END
170
5
140
0.125
171
1
172
0
173
1
174
0
175
1
176
1
 91
1
178
0
145
0.0
170
1
171
1
172
0
173
0
174
0
175
1
176
1
 91
33
178
0
145
0.0
301
CELL_VALUE
 90
4
  1
Body Features
304
ACVALUE_END
170
5
140
0.125
171
1
172
0
173
0
174
0
175
2
176
1
 91
33
178
0
145
0.0
301
CELL_VALUE
 90
4
  1
1 Station, Parallel circuit with relief cavity
304
ACVALUE_END
170
5
140
0.125
171
1
172
0
173
1
174
0
175
1
176
1
 91
1
178
0
145
0.0
170
1
171
1
172
0
173
0
174
0
175
1
176
1
 91
33
178
0
145
0.0
301
CELL_VALUE
 90
4
  1
Body Type
304
ACVALUE_END
170
5
140
0.125
171
1
172
0
173
0
174
0
175
2
176
1
 91
33
178
0
145
0.0
301
CELL_VALUE
 90
4
  1
Bar Manifold
304
ACVALUE_END
170
5
140
0.125
171
1
172
0
173
1
174
0
175
1
176
1
 91
1
178
0
145
0.0
170
1
171
1
172
0
173
0
174
0
175
1
176
1
 91
33
178
0
145
0.0
301
CELL_VALUE
 90
4
  1
Interface
304
ACVALUE_END
170
5
140
0.125
171
1
172
0
173
0
174
0
175
2
176
1
 91
33
178
0
145
0.0
301
CELL_VALUE
 90
4
  1
ISO 08
304
ACVALUE_END
170
5
140
0.125
171
1
172
0
173
1
174
0
175
1
176
1
 91
1
178
0
145
0.0
170
1
171
1
172
0
173
0
174
0
175
1
176
1
 91
33
178
0
145
0.0
301
CELL_VALUE
 90
4
  1
Open Cavity Quantity
304
ACVALUE_END
170
5
140
0.125
171
1
172
0
173
0
174
0
175
2
176
1
 91
33
178
0
145
0.0
301
CELL_VALUE
 90
4
  1
1
304
ACVALUE_END
170
5
140
0.125
171
1
172
0
173
1
174
0
175
1
176
1
 91
1
178
0
145
0.0
170
1
171
1
172
0
173
0
174
0
175
1
176
1
 91
33
178
0
145
0.0
301
CELL_VALUE
 90
4
  1
Weight
304
ACVALUE_END
170
5
140
0.125
171
1
172
0
173
0
174
0
175
1
176
1
 91
33
178
0
145
0.0
301
CELL_VALUE
 90
4
  1
11.927 lb.
304
ACVALUE_END
170
5
140
0.125
171
1
172
0
173
0
174
0
175
1
176
1
 91
33
178
0
145
0.0
301
CELL_VALUE
 90
4
  1
5,410 kg.
304
ACVALUE_END
170
5
140
0.125
171
1
172
0
173
0
174
0
175
1
176
1
 91
33
178
0
145
0.0
301
CELL_VALUE
 90
4
  1
Mounting Hole Thread
304
ACVALUE_END
170
5
140
0.125
171
1
172
0
173
0
174
0
175
2
176
1
 91
33
178
0
145
0.0
301
CELL_VALUE
 90
4
  1
M12x1.75 - 6H
304
ACVALUE_END
170
5
140
0.125
171
1
172
0
173
1
174
0
175
1
176
1
 91
1
178
0
145
0.0
170
1
171
1
172
0
173
0
174
0
175
1
176
1
 91
33
178
0
145
0.0
301
CELL_VALUE
 90
4
  1
Mounting Hole Depth
304
ACVALUE_END
170
5
140
0.125
171
1
172
0
173
0
174
0
175
1
176
1
 91
33
178
0
145
0.0
301
CELL_VALUE
 90
4
  1
.88 in.
304
ACVALUE_END
170
5
140
0.125
171
1
172
0
173
0
174
0
175
1
176
1
 91
33
178
0
145
0.0
301
CELL_VALUE
 90
4
  1
22,4 mm
304
ACVALUE_END
170
5
140
0.125
171
1
172
0
173
0
174
0
175
1
176
1
 91
33
178
0
145
0.0
301
CELL_VALUE
 90
4
  1
Mounting Hole Quantity
304
ACVALUE_END
170
5
140
0.125
171
1
172
0
173
0
174
0
175
2
176
1
 91
33
178
0
145
0.0
301
CELL_VALUE
 90
4
  1
4
304
ACVALUE_END
170
5
140
0.125
171
1
172
0
173
1
174
0
175
1
176
1
 91
1
178
0
145
0.0
170
1
  0
ACAD_TABLE
  5
291
100
AcDbEntity
  8
0
 62
2
  6
CONTINUOUS
100
AcDbBlockReference
  2
*T3
 10
0.52125
 20
2.209
 30
0.0
100
AcDbTable
342
       3DA
343
20B
 11
1.0
 21
0.0
 31
0.0
 90
22
 91
6
 92
3
 93
16
 94
0
 95
0
 96
0
 41
0.05
141
0.34375
141
0.344
141
0.25
141
0.25
141
0.25
141
0.25
142
1.3
142
2.0
142
1.3
171
1
172
0
173
0
174
0
175
3
176
1
 91
33
178
0
145
0.0
301
CELL_VALUE
 90
4
  1
Port Headings
304
ACVALUE_END
170
5
140
0.145
171
1
172
0
173
1
174
0
175
1
176
1
 91
1
178
0
145
0.0
170
1
171
1
172
0
173
1
174
0
175
1
176
1
 91
1
178
0
145
0.0
170
1
171
1
172
0
173
0
174
0
175
1
176
1
 91
33
178
0
145
0.0
301
CELL_VALUE
 90
4
  1
Product
304
ACVALUE_END
170
5
140
0.145
171
1
172
0
173
0
174
0
175
1
176
1
 91
33
178
0
145
0.0
301
CELL_VALUE
 90
4
  1
Port
304
ACVALUE_END
170
5
140
0.145
171
1
172
0
173
0
174
0
175
1
176
1
 91
33
178
0
145
0.0
301
CELL_VALUE
 90
4
  1
Size
304
ACVALUE_END
170
5
140
0.145
171
1
172
0
173
0
174
0
175
1
176
1
 91
33
178
0
145
0.0
301
CELL_VALUE
 90
4
  1
VLN
304
ACVALUE_END
170
5
140
0.125
171
1
172
0
173
0
174
0
175
1
176
1
 91
33
178
0
145
0.0
301
CELL_VALUE
 90
4
  1
Ports A, B, P
304
ACVALUE_END
170
5
140
0.125
171
1
172
0
173
0
174
0
175
1
176
1
 91
33
178
0
145
0.0
301
CELL_VALUE
 90
4
  1
1"  NPTF
304
ACVALUE_END
170
5
140
0.125
171
1
172
0
173
0
174
0
175
1
176
1
 91
33
178
0
145
0.0
301
CELL_VALUE
 90
4
  1
VLN
304
ACVALUE_END
170
5
140
0.125
171
1
172
0
173
0
174
0
175
1
176
1
 91
33
178
0
145
0.0
301
CELL_VALUE
 90
4
  1
Port T
304
ACVALUE_END
170
5
140
0.125
171
1
172
0
173
0
174
0
175
1
176
1
 91
33
178
0
145
0.0
301
CELL_VALUE
 90
4
  1
1 1/4" NPTF
304
ACVALUE_END
170
5
140
0.125
171
1
172
0
173
0
174
0
175
1
176
1
 91
33
178
0
145
0.0
301
CELL_VALUE
 90
4
  1
VLN
304
ACVALUE_END
170
5
140
0.125
171
1
172
0
173
0
174
0
175
1
176
1
 91
33
178
0
145
0.0
301
CELL_VALUE
 90
4
  1
Gage Port
304
ACVALUE_END
170
5
140
0.125
171
1
172
0
173
0
174
0
175
1
176
1
 91
33
178
0
145
0.0
301
CELL_VALUE
 90
4
  1
1/4" NPTF
304
ACVALUE_END
170
5
140
0.125
171
1
172
0
173
0
174
0
175
1
176
1
 91
33
178
0
145
0.0
301
CELL_VALUE
 90
4
  1
VLN
304
ACVALUE_END
170
5
140
0.125
171
1
172
0
173
0
174
0
175
1
176
1
 91
33
178
0
145
0.0
301
CELL_VALUE
 90
4
  1
Port Y
304
ACVALUE_END
170
5
140
0.125
171
1
172
0
173
0
174
0
175
1
176
1
 91
33
178
0
145
0.0
301
CELL_VALUE
 90
4
  1
3/8" NPTF
304
ACVALUE_END
170
5
140
0.125
  0
MTEXT
  5
292
100
AcDbEntity
  8
0
100
AcDbMText
 62
2
  6
CONTINUOUS
  7
STANDARD
 71
1
 72
1
 10
0.52125
 20
5.75995
 30
0.0
 11
1.0
 21
0.0
 31
0.0
 44
0.6
  3
Notes\P \P1. For mounting bracket information\P    see catalog or drawing 991-021-***\P2. Important: Carefully consider\P   the maximum system pressure. The\P   pressure rating of the manifold is\P   dependent on the manifold material,\P   with the p
  1
ort type/size a secondary\P   consideration. Manifolds\P   constructed of aluminum are not\P   rated for pressures higher than\P   3000 psi (210 bar), regardless of\P   the port type/size specified.
 40
0.1
 41
3.04
  0
LINE
  5
293
100
AcDbEntity
  8
0
100
AcDbLine
 62
7
  6
CONTINUOUS
 10
0.30125
 20
0.30125
 11
0.30125
 21
16.69875
  0
LINE
  5
294
100
AcDbEntity
  8
0
100
AcDbLine
 62
7
  6
CONTINUOUS
 10
0.30125
 20
0.30125
 11
21.69875
 21
0.30125
  0
LINE
  5
295
100
AcDbEntity
  8
0
100
AcDbLine
 62
7
  6
CONTINUOUS
 10
0.30125
 20
16.69875
 11
21.69875
 21
16.69875
  0
LINE
  5
296
100
AcDbEntity
  8
0
100
AcDbLine
 62
7
  6
CONTINUOUS
 10
21.69875
 20
0.30125
 11
21.69875
 21
16.69875
  0
LINE
  5
297
100
AcDbEntity
  8
0
100
AcDbLine
 62
7
  6
CONTINUOUS
 10
7.8537615406
 20
11.0895133048
 11
9.0751275709
 21
12.2692623668
  0
LINE
  5
298
100
AcDbEntity
  8
0
100
AcDbLine
 62
7
  6
CONTINUOUS
 10
12.9248724291
 20
4.7307376332
 11
7.8537615406
 21
5.0824203678
  0
LINE
  5
299
100
AcDbEntity
  8
0
100
AcDbLine
 62
7
  6
CONTINUOUS
 10
7.8537615406
 20
11.0895133048
 11
7.8537615406
 21
5.0824203678
  0
LINE
  5
29A
100
AcDbEntity
  8
0
100
AcDbLine
 62
4
  6
CONTINUOUS
 10
11.8924295159
 20
11.7812815515
 11
11.8282537972
 21
11.7535782788
  0
LINE
  5
29B
100
AcDbEntity
  8
0
100
AcDbLine
 62
4
  6
CONTINUOUS
 10
12.1898201417
 20
11.8313959642
 11
12.1256444265
 21
11.8036926912
  0
LINE
  5
29C
100
AcDbEntity
  8
0
100
AcDbLine
 62
4
  6
CONTINUOUS
 10
11.8069956143
 20
11.7016158626
 11
11.7442988771
 21
11.6753411584
  0
LINE
  5
29D
100
AcDbEntity
  8
0
100
AcDbLine
 62
4
  6
CONTINUOUS
 10
11.2918649393
 20
11.4054663507
 11
11.2245844604
 21
11.3779783938
  0
LINE
  5
29E
100
AcDbEntity
  8
0
100
AcDbLine
 62
4
  6
CONTINUOUS
 10
11.3131775061
 20
11.6960527065
 11
11.3181557316
 21
11.6980041715
  0
LINE
  5
29F
100
AcDbEntity
  8
0
100
AcDbLine
 62
4
  6
CONTINUOUS
 10
11.1764300511
 20
11.7353933433
 11
11.1697747095
 21
11.7289647766
  0
LINE
  5
2A0
100
AcDbEntity
  8
0
100
AcDbLine
 62
4
  6
CONTINUOUS
 10
11.2150139239
 20
11.7212340162
 11
11.208358583
 21
11.7148054502
  0
LINE
  5
2A1
100
AcDbEntity
  8
0
100
AcDbLine
 62
4
  6
CONTINUOUS
 10
11.3006204875
 20
11.7267807072
 11
11.2828729112
 21
11.709637864
  0
LINE
  5
2A2
100
AcDbEntity
  8
0
100
AcDbLine
 62
4
  6
CONTINUOUS
 10
11.3469955428
 20
11.7258612916
 11
11.3248110715
 21
11.7044327366
  0
LINE
  5
2A3
100
AcDbEntity
  8
0
100
AcDbLine
 62
4
  6
CONTINUOUS
 10
11.3181557316
 20
11.6980041715
 11
11.3159372837
 21
11.6958613153
  0
LINE
  5
2A4
100
AcDbEntity
  8
0
100
AcDbLine
 62
4
  6
CONTINUOUS
 10
11.524711172
 20
11.8775214279
 11
11.4936529129
 21
11.8475214516
  0
LINE
  5
2A5
100
AcDbEntity
  8
0
100
AcDbLine
 62
4
  6
CONTINUOUS
 10
11.5450062479
 20
11.848553496
 11
11.5671907188
 21
11.8699820506
  0
LINE
  5
2A6
100
AcDbEntity
  8
0
100
AcDbLine
 62
4
  6
CONTINUOUS
 10
11.4192913685
 20
11.7185508537
 11
11.3904515566
 21
11.6906937329
  0
LINE
  5
2A7
100
AcDbEntity
  8
0
100
AcDbLine
 62
4
  6
CONTINUOUS
 10
11.454627258
 20
11.7183970068
 11
11.4324427867
 21
11.6969684518
  0
LINE
  5
2A8
100
AcDbEntity
  8
0
100
AcDbLine
 62
4
  6
CONTINUOUS
 10
11.6295831648
 20
11.8702485305
 11
11.5985249057
 21
11.8402485542
  0
LINE
  5
2A9
100
AcDbEntity
  8
0
100
AcDbLine
 62
4
  6
CONTINUOUS
 10
11.4821190055
 20
11.6935233943
 11
11.5020850296
 21
11.7128090938
  0
LINE
  5
2AA
100
AcDbEntity
  8
0
100
AcDbLine
 62
4
  6
CONTINUOUS
 10
11.636079242
 20
11.8422375624
 11
11.6582637128
 21
11.863666117
  0
LINE
  5
2AB
100
AcDbEntity
  8
0
100
AcDbLine
 62
4
  6
CONTINUOUS
 10
11.5374209191
 20
11.7126552469
 11
11.5196733417
 21
11.6955124025
  0
LINE
  5
2AC
100
AcDbEntity
  8
0
100
AcDbLine
 62
4
  6
CONTINUOUS
 10
11.7162192645
 20
11.8596468858
 11
11.6940347937
 21
11.8382183312
  0
LINE
  5
2AD
100
AcDbEntity
  8
0
100
AcDbLine
 62
4
  6
CONTINUOUS
 10
11.5848786355
 20
11.7070673377
 11
11.5782232939
 21
11.7006387711
  0
LINE
  5
2AE
100
AcDbEntity
  8
0
100
AcDbLine
 62
4
  6
CONTINUOUS
 10
11.6964845601
 20
11.7948703803
 11
11.665426301
 21
11.764870404
  0
LINE
  5
2AF
100
AcDbEntity
  8
0
100
AcDbLine
 62
4
  6
CONTINUOUS
 10
11.6030083345
 20
11.687436397
 11
11.6074452283
 21
11.6917221076
  0
LINE
  5
2B0
100
AcDbEntity
  8
0
100
AcDbLine
 62
4
  6
CONTINUOUS
 10
11.3249788497
 20
11.3924519349
 11
11.3275670383
 21
11.3949519332
  0
LINE
  5
2B1
100
AcDbEntity
  8
0
100
AcDbLine
 62
4
  6
CONTINUOUS
 10
11.3166941651
 20
11.3769495437
 11
11.3192823527
 21
11.3794495412
  0
LINE
  5
2B2
100
AcDbEntity
  8
0
100
AcDbLine
 62
4
  6
CONTINUOUS
 10
11.8128118139
 20
11.8529481698
 11
11.790627343
 21
11.8315196152
  0
LINE
  5
2B3
100
AcDbEntity
  8
0
100
AcDbLine
 62
4
  6
CONTINUOUS
 10
11.6616113555
 20
11.7040426109
 11
11.6394268842
 21
11.6826140558
  0
LINE
  5
2B4
100
AcDbEntity
  8
0
100
AcDbLine
 62
4
  6
CONTINUOUS
 10
11.7544401118
 20
11.7908511492
 11
11.7233818527
 21
11.7608511728
  0
LINE
  5
2B5
100
AcDbEntity
  8
0
100
AcDbLine
 62
4
  6
CONTINUOUS
 10
11.663670594
 20
11.6717459283
 11
11.6947288531
 21
11.7017459046
  0
LINE
  5
2B6
100
AcDbEntity
  8
0
100
AcDbLine
 62
4
  6
CONTINUOUS
 10
11.7978961325
 20
11.75568359
 11
11.8289543916
 21
11.7856835663
  0
LINE
  5
2B7
100
AcDbEntity
  8
0
100
AcDbLine
 62
4
  6
CONTINUOUS
 10
11.7421865694
 20
11.6961579954
 11
11.7244389932
 21
11.6790151522
  0
LINE
  5
2B8
100
AcDbEntity
  8
0
100
AcDbLine
 62
4
  6
CONTINUOUS
 10
11.991115391
 20
11.8451761855
 11
11.9600571319
 21
11.8151762091
  0
LINE
  5
2B9
100
AcDbEntity
  8
0
100
AcDbLine
 62
4
  6
CONTINUOUS
 10
11.8293109584
 20
11.6717422567
 11
11.8492769818
 21
11.6910279555
  0
LINE
  5
2BA
100
AcDbEntity
  8
0
100
AcDbLine
 62
4
  6
CONTINUOUS
 10
12.0573503033
 20
11.8405827787
 11
12.0262920442
 21
11.8105828024
  0
LINE
  5
2BB
100
AcDbEntity
  8
0
100
AcDbLine
 62
4
  6
CONTINUOUS
 10
11.898953173
 20
11.6875829
 11
11.8678949139
 21
11.6575829236
  0
LINE
  5
2BC
100
AcDbEntity
  8
0
100
AcDbLine
 62
4
  6
CONTINUOUS
 10
11.5723177707
 20
11.3538630069
 11
11.6033760297
 21
11.3838629832
  0
LINE
  5
2BD
100
AcDbEntity
  8
0
100
AcDbLine
 62
4
  6
CONTINUOUS
 10
12.023143637
 20
11.678970262
 11
11.9920853779
 21
11.6489702857
  0
LINE
  5
2BE
100
AcDbEntity
  8
0
100
AcDbLine
 62
4
  6
CONTINUOUS
 10
12.2101151762
 20
11.8024280351
 11
12.232299647
 21
11.8238565897
  0
LINE
  5
2BF
100
AcDbEntity
  8
0
100
AcDbLine
 62
4
  6
CONTINUOUS
 10
12.0810991887
 20
11.6749510309
 11
12.0500409296
 21
11.6449510545
  0
LINE
  5
2C0
100
AcDbEntity
  8
0
100
AcDbLine
 62
4
  6
CONTINUOUS
 10
12.1097797505
 20
11.6683686164
 11
12.0831583857
 21
11.6426543511
  0
LINE
  5
2C1
100
AcDbEntity
  8
0
100
AcDbLine
 62
4
  6
CONTINUOUS
 10
12.2946920862
 20
11.8241230702
 11
12.2636338271
 21
11.7941230938
  0
LINE
  5
2C2
100
AcDbEntity
  8
0
100
AcDbLine
 62
4
  6
CONTINUOUS
 10
12.1411139375
 20
11.63863512
 11
12.1677353022
 21
11.6643493852
  0
LINE
  5
2C3
100
AcDbEntity
  8
0
100
AcDbLine
 62
4
  6
CONTINUOUS
 10
12.2008527583
 20
11.6620526818
 11
12.196415864
 21
11.6577669707
  0
LINE
  5
2C4
100
AcDbEntity
  8
0
100
AcDbLine
 62
4
  6
CONTINUOUS
 10
12.2410607331
 20
11.6408906067
 11
12.2366238392
 21
11.6366048961
  0
LINE
  5
2C5
100
AcDbEntity
  8
0
100
AcDbLine
 62
7
  6
CONTINUOUS
 10
14.1462384594
 20
11.9175796322
 11
12.9248724291
 21
10.7378305702
  0
LINE
  5
2C6
100
AcDbEntity
  8
0
100
AcDbLine
 62
7
  6
CONTINUOUS
 10
13.5315437346
 20
10.8751574791
 11
13.5336159405
 21
10.8771223427
  0
LINE
  5
2C7
100
AcDbEntity
  8
0
100
AcDbLine
 62
7
  6
CONTINUOUS
 10
11.5300068365
 20
8.8436085767
 11
11.5366705579
 21
8.8467334275
  0
LINE
  5
2C8
100
AcDbEntity
  8
0
100
AcDbLine
 62
4
  6
CONTINUOUS
 10
11.2245844604
 20
11.3779783938
 11
11.2194204996
 21
11.4104903897
  0
LINE
  5
2C9
100
AcDbEntity
  8
0
100
AcDbLine
 62
4
  6
CONTINUOUS
 10
11.8944887164
 20
11.7489848715
 11
11.8924295159
 21
11.7812815515
  0
LINE
  5
2CA
100
AcDbEntity
  8
0
100
AcDbLine
 62
4
  6
CONTINUOUS
 10
12.1256444265
 20
11.8036926912
 11
12.1235852156
 21
11.8359893719
  0
LINE
  5
2CB
100
AcDbEntity
  8
0
100
AcDbLine
 62
4
  6
CONTINUOUS
 10
13.3024890943
 20
9.0354988611
 11
13.3439001064
 21
9.0754988296
  0
LINE
  5
2CC
100
AcDbEntity
  8
0
100
AcDbLine
 62
4
  6
CONTINUOUS
 10
11.7939750405
 20
11.6718961048
 11
11.7913214025
 21
11.6950471886
  0
LINE
  5
2CD
100
AcDbEntity
  8
0
100
AcDbLine
 62
7
  6
CONTINUOUS
 10
12.9248724291
 20
10.7378305702
 11
12.9248724291
 21
4.7307376332
  0
LINE
  5
2CE
100
AcDbEntity
  8
0
100
AcDbLine
 62
4
  6
CONTINUOUS
 10
13.3999774968
 20
8.1057840872
 11
13.4068793305
 21
8.112450747
  0
LINE
  5
2CF
100
AcDbEntity
  8
0
100
AcDbLine
 62
4
  6
CONTINUOUS
 10
13.4344866728
 20
8.0618433245
 11
13.3930756607
 21
8.021843356
  0
LINE
  5
2D0
100
AcDbEntity
  8
0
100
AcDbLine
 62
4
  6
CONTINUOUS
 10
13.4068793305
 20
8.112450747
 11
13.4103302499
 21
8.1061248207
  0
LINE
  5
2D1
100
AcDbEntity
  8
0
100
AcDbLine
 62
4
  6
CONTINUOUS
 10
13.3024890943
 20
8.987202568
 11
13.3024890943
 21
9.0837951542
  0
LINE
  5
2D2
100
AcDbEntity
  8
0
100
AcDbLine
 62
7
  6
CONTINUOUS
 10
13.5315437346
 20
8.0546541295
 11
13.5332004439
 21
8.056224983
  0
LINE
  5
2D3
100
AcDbEntity
  8
0
100
AcDbLine
 62
4
  6
CONTINUOUS
 10
13.4103302499
 20
8.1061248207
 11
13.4137811667
 21
8.0901396333
  0
LINE
  5
2D4
100
AcDbEntity
  8
0
100
AcDbLine
 62
4
  6
CONTINUOUS
 10
13.3930756607
 20
8.021843356
 11
13.3930756607
 21
8.0701396491
  0
LINE
  5
2D5
100
AcDbEntity
  8
0
100
AcDbLine
 62
4
  6
CONTINUOUS
 10
13.4137811667
 20
8.0901396333
 11
13.4137811667
 21
8.0418433402
  0
LINE
  5
2D6
100
AcDbEntity
  8
0
100
AcDbLine
 62
4
  6
CONTINUOUS
 10
13.3930756607
 20
8.0701396491
 11
13.3965265775
 21
8.0927914963
  0
LINE
  5
2D7
100
AcDbEntity
  8
0
100
AcDbLine
 62
4
  6
CONTINUOUS
 10
13.3965265775
 20
8.0927914963
 11
13.3999774968
 21
8.1057840872
  0
LINE
  5
2D8
100
AcDbEntity
  8
0
100
AcDbLine
 62
7
  6
CONTINUOUS
 10
12.9248724291
 20
10.7378305702
 11
7.8537615406
 21
11.0895133048
  0
LINE
  5
2D9
100
AcDbEntity
  8
0
100
AcDbLine
 62
4
  6
CONTINUOUS
 10
11.3213504195
 20
11.3739471406
 11
11.3166941651
 21
11.3769495437
  0
LINE
  5
2DA
100
AcDbEntity
  8
0
100
AcDbLine
 62
4
  6
CONTINUOUS
 10
11.3342913614
 20
11.3864471314
 11
11.3249788497
 21
11.3924519349
  0
LINE
  5
2DB
100
AcDbEntity
  8
0
100
AcDbLine
 62
4
  6
CONTINUOUS
 10
11.3906989664
 20
11.3959326981
 11
11.3953552221
 21
11.3929302961
  0
LINE
  5
2DC
100
AcDbEntity
  8
0
100
AcDbLine
 62
4
  6
CONTINUOUS
 10
11.5196733417
 20
11.6955124025
 11
11.5235157808
 21
11.6906525182
  0
LINE
  5
2DD
100
AcDbEntity
  8
0
100
AcDbLine
 62
4
  6
CONTINUOUS
 10
11.7233818527
 20
11.7608511728
 11
11.6964845601
 21
11.7948703803
  0
LINE
  5
2DE
100
AcDbEntity
  8
0
100
AcDbLine
 62
4
  6
CONTINUOUS
 10
11.3192823527
 20
11.3794495412
 11
11.3291149843
 21
11.3814471347
  0
LINE
  5
2DF
100
AcDbEntity
  8
0
100
AcDbLine
 62
4
  6
CONTINUOUS
 10
11.3275670383
 20
11.3949519332
 11
11.3472323026
 21
11.3989471214
  0
LINE
  5
2E0
100
AcDbEntity
  8
0
100
AcDbLine
 62
4
  6
CONTINUOUS
 10
12.2366238392
 20
11.6366048961
 11
12.2156282155
 21
11.6334675372
  0
LINE
  5
2E1
100
AcDbEntity
  8
0
100
AcDbLine
 62
4
  6
CONTINUOUS
 10
12.2218483808
 20
11.6651900412
 11
12.2008527583
 21
11.6620526818
  0
LINE
  5
2E2
100
AcDbEntity
  8
0
100
AcDbLine
 62
4
  6
CONTINUOUS
 10
12.130775366
 20
11.6715059763
 11
12.1097797505
 21
11.6683686164
  0
LINE
  5
2E3
100
AcDbEntity
  8
0
100
AcDbLine
 62
4
  6
CONTINUOUS
 10
11.3648170833
 20
11.3709327172
 11
11.3477400078
 21
11.3694375276
  0
LINE
  5
2E4
100
AcDbEntity
  8
0
100
AcDbLine
 62
4
  6
CONTINUOUS
 10
11.3291149843
 20
11.3814471347
 11
11.3461920617
 21
11.3829423261
  0
LINE
  5
2E5
100
AcDbEntity
  8
0
100
AcDbLine
 62
4
  6
CONTINUOUS
 10
11.3472323026
 20
11.3989471214
 11
11.3643093789
 21
11.4004423117
  0
LINE
  5
2E6
100
AcDbEntity
  8
0
100
AcDbLine
 62
4
  6
CONTINUOUS
 10
11.6085399905
 20
11.3513509874
 11
11.5360955508
 21
11.3563750263
  0
LINE
  5
2E7
100
AcDbEntity
  8
0
100
AcDbLine
 62
4
  6
CONTINUOUS
 10
11.3477400078
 20
11.3694375276
 11
11.3332511198
 21
11.3704423354
  0
LINE
  5
2E8
100
AcDbEntity
  8
0
100
AcDbLine
 62
4
  6
CONTINUOUS
 10
11.3606809497
 20
11.3819375183
 11
11.3461920617
 21
11.3829423261
  0
LINE
  5
2E9
100
AcDbEntity
  8
0
100
AcDbLine
 62
4
  6
CONTINUOUS
 10
11.4936691287
 20
11.3753942457
 11
11.4502024649
 21
11.378408669
  0
LINE
  5
2EA
100
AcDbEntity
  8
0
100
AcDbLine
 62
4
  6
CONTINUOUS
 10
11.267023298
 20
11.3964711661
 11
11.2235566342
 21
11.3994855894
  0
LINE
  5
2EB
100
AcDbEntity
  8
0
100
AcDbLine
 62
4
  6
CONTINUOUS
 10
11.3643093789
 20
11.4004423117
 11
11.3787982668
 21
11.399437504
  0
LINE
  5
2EC
100
AcDbEntity
  8
0
100
AcDbLine
 62
4
  6
CONTINUOUS
 10
11.3332511198
 20
11.3704423354
 11
11.3213504195
 21
11.3739471406
  0
LINE
  5
2ED
100
AcDbEntity
  8
0
100
AcDbLine
 62
4
  6
CONTINUOUS
 10
11.3461920617
 20
11.3829423261
 11
11.3342913614
 21
11.3864471314
  0
LINE
  5
2EE
100
AcDbEntity
  8
0
100
AcDbLine
 62
4
  6
CONTINUOUS
 10
11.3787982668
 20
11.399437504
 11
11.3906989664
 21
11.3959326981
  0
LINE
  5
2EF
100
AcDbEntity
  8
0
100
AcDbLine
 62
4
  6
CONTINUOUS
 10
11.6063094419
 20
11.6849107583
 11
11.6030083345
 21
11.687436397
  0
LINE
  5
2F0
100
AcDbEntity
  8
0
100
AcDbLine
 62
4
  6
CONTINUOUS
 10
12.0500409296
 20
11.6449510545
 11
12.023143637
 21
11.678970262
  0
LINE
  5
2F1
100
AcDbEntity
  8
0
100
AcDbLine
 62
7
  6
CONTINUOUS
 10
14.1462384594
 20
11.9175796322
 11
14.1462384594
 21
5.9104866952
  0
LINE
  5
2F2
100
AcDbEntity
  8
0
100
AcDbLine
 62
4
  6
CONTINUOUS
 10
12.232299647
 20
11.8238565897
 11
12.2532952695
 21
11.8269939491
  0
LINE
  5
2F3
100
AcDbEntity
  8
0
100
AcDbLine
 62
4
  6
CONTINUOUS
 10
11.2828729112
 20
11.709637864
 11
11.2723751304
 21
11.7080691814
  0
LINE
  5
2F4
100
AcDbEntity
  8
0
100
AcDbLine
 62
4
  6
CONTINUOUS
 10
11.208358583
 20
11.7148054502
 11
11.1978608022
 21
11.7132367676
  0
LINE
  5
2F5
100
AcDbEntity
  8
0
100
AcDbLine
 62
4
  6
CONTINUOUS
 10
11.1869278312
 20
11.7369620251
 11
11.1764300511
 21
11.7353933433
  0
LINE
  5
2F6
100
AcDbEntity
  8
0
100
AcDbLine
 62
4
  6
CONTINUOUS
 10
11.790627343
 20
11.8315196152
 11
11.769631728
 21
11.8283822557
  0
LINE
  5
2F7
100
AcDbEntity
  8
0
100
AcDbLine
 62
4
  6
CONTINUOUS
 10
11.6940347937
 20
11.8382183312
 11
11.6730391786
 21
11.8350809718
  0
LINE
  5
2F8
100
AcDbEntity
  8
0
100
AcDbLine
 62
4
  6
CONTINUOUS
 10
11.6582637128
 20
11.863666117
 11
11.6792593283
 21
11.8668034769
  0
LINE
  5
2F9
100
AcDbEntity
  8
0
100
AcDbLine
 62
4
  6
CONTINUOUS
 10
11.5671907188
 20
11.8699820506
 11
11.5881863343
 21
11.8731194105
  0
LINE
  5
2FA
100
AcDbEntity
  8
0
100
AcDbLine
 62
4
  6
CONTINUOUS
 10
11.7244389932
 20
11.6790151522
 11
11.7056618242
 21
11.6780206472
  0
LINE
  5
2FB
100
AcDbEntity
  8
0
100
AcDbLine
 62
4
  6
CONTINUOUS
 10
11.5782232939
 20
11.7006387711
 11
11.5594461258
 21
11.699644267
  0
LINE
  5
2FC
100
AcDbEntity
  8
0
100
AcDbLine
 62
4
  6
CONTINUOUS
 10
12.2975438517
 20
11.8040205197
 11
12.3476163228
 21
11.8066725301
  0
LINE
  5
2FD
100
AcDbEntity
  8
0
100
AcDbLine
 62
4
  6
CONTINUOUS
 10
12.2156282155
 20
11.6334675372
 11
12.1825107577
 21
11.6357642407
  0
LINE
  5
2FE
100
AcDbEntity
  8
0
100
AcDbLine
 62
4
  6
CONTINUOUS
 10
11.3159372837
 20
11.6958613153
 11
11.3131775061
 21
11.6960527065
  0
LINE
  5
2FF
100
AcDbEntity
  8
0
100
AcDbLine
 62
4
  6
CONTINUOUS
 10
11.8767687016
 20
11.6661543449
 11
11.8353718711
 21
11.6690252249
  0
LINE
  5
300
100
AcDbEntity
  8
0
100
AcDbLine
 62
4
  6
CONTINUOUS
 10
11.7056618242
 20
11.6780206472
 11
11.6725443818
 21
11.6803173496
  0
LINE
  5
301
100
AcDbEntity
  8
0
100
AcDbLine
 62
4
  6
CONTINUOUS
 10
11.6394268842
 20
11.6826140558
 11
11.6063094419
 21
11.6849107583
  0
LINE
  5
302
100
AcDbEntity
  8
0
100
AcDbLine
 62
4
  6
CONTINUOUS
 10
11.2723751304
 20
11.7080691814
 11
11.2392575775
 21
11.7103658915
  0
LINE
  5
303
100
AcDbEntity
  8
0
100
AcDbLine
 62
4
  6
CONTINUOUS
 10
11.1978608022
 20
11.7132367676
 11
11.1647433599
 21
11.7155334701
  0
LINE
  5
304
100
AcDbEntity
  8
0
100
AcDbLine
 62
4
  6
CONTINUOUS
 10
11.5235157808
 20
11.6906525182
 11
11.5649126113
 21
11.6877816382
  0
LINE
  5
305
100
AcDbEntity
  8
0
100
AcDbLine
 62
4
  6
CONTINUOUS
 10
11.5594461258
 20
11.699644267
 11
11.5263286835
 21
11.7019409694
  0
LINE
  5
306
100
AcDbEntity
  8
0
100
AcDbLine
 62
4
  6
CONTINUOUS
 10
12.2549658395
 20
11.6628933377
 11
12.2218483808
 21
11.6651900412
  0
LINE
  5
307
100
AcDbEntity
  8
0
100
AcDbLine
 62
4
  6
CONTINUOUS
 10
12.1556134685
 20
11.669783448
 11
12.130775366
 21
11.6715059763
  0
LINE
  5
308
100
AcDbEntity
  8
0
100
AcDbLine
 62
4
  6
CONTINUOUS
 10
11.4960240886
 20
11.7155261269
 11
11.454627258
 21
11.7183970068
  0
LINE
  5
309
100
AcDbEntity
  8
0
100
AcDbLine
 62
4
  6
CONTINUOUS
 10
11.2200452735
 20
11.7346653227
 11
11.1869278312
 21
11.7369620251
  0
LINE
  5
30A
100
AcDbEntity
  8
0
100
AcDbLine
 62
4
  6
CONTINUOUS
 10
11.2614420488
 20
11.7317944466
 11
11.2945596017
 21
11.7294977365
  0
LINE
  5
30B
100
AcDbEntity
  8
0
100
AcDbLine
 62
4
  6
CONTINUOUS
 10
11.3966717063
 20
11.722416238
 11
11.4132304275
 21
11.7212678868
  0
LINE
  5
30C
100
AcDbEntity
  8
0
100
AcDbLine
 62
4
  6
CONTINUOUS
 10
11.5374209191
 20
11.7126552469
 11
11.5705383615
 21
11.7103585445
  0
LINE
  5
30D
100
AcDbEntity
  8
0
100
AcDbLine
 62
4
  6
CONTINUOUS
 10
11.6947288531
 20
11.7017459046
 11
11.7278462955
 21
11.6994492022
  0
LINE
  5
30E
100
AcDbEntity
  8
0
100
AcDbLine
 62
4
  6
CONTINUOUS
 10
11.8235543355
 20
11.7004675114
 11
11.8069956143
 21
11.7016158626
  0
LINE
  5
30F
100
AcDbEntity
  8
0
100
AcDbLine
 62
4
  6
CONTINUOUS
 10
11.1765750779
 20
11.7269620327
 11
11.2082135556
 21
11.7232367601
  0
LINE
  5
310
100
AcDbEntity
  8
0
100
AcDbLine
 62
4
  6
CONTINUOUS
 10
11.5705383615
 20
11.7103585445
 11
11.5848786355
 21
11.7070673377
  0
LINE
  5
311
100
AcDbEntity
  8
0
100
AcDbLine
 62
4
  6
CONTINUOUS
 10
11.7278462955
 20
11.6994492022
 11
11.7421865694
 21
11.6961579954
  0
LINE
  5
312
100
AcDbEntity
  8
0
100
AcDbLine
 62
4
  6
CONTINUOUS
 10
11.1697747095
 20
11.7289647766
 11
11.1765750779
 21
11.7269620327
  0
LINE
  5
313
100
AcDbEntity
  8
0
100
AcDbLine
 62
4
  6
CONTINUOUS
 10
11.2082135556
 20
11.7232367601
 11
11.2150139239
 21
11.7212340162
  0
LINE
  5
314
100
AcDbEntity
  8
0
100
AcDbLine
 62
4
  6
CONTINUOUS
 10
11.1647433599
 20
11.7155334701
 11
11.1586824748
 21
11.7182505
  0
LINE
  5
315
100
AcDbEntity
  8
0
100
AcDbLine
 62
4
  6
CONTINUOUS
 10
11.2261061593
 20
11.7319482935
 11
11.2200452735
 21
11.7346653227
  0
LINE
  5
316
100
AcDbEntity
  8
0
100
AcDbLine
 62
4
  6
CONTINUOUS
 10
11.2945596017
 20
11.7294977365
 11
11.3006204875
 21
11.7267807072
  0
LINE
  5
317
100
AcDbEntity
  8
0
100
AcDbLine
 62
4
  6
CONTINUOUS
 10
11.4132304275
 20
11.7212678868
 11
11.4192913685
 21
11.7185508537
  0
LINE
  5
318
100
AcDbEntity
  8
0
100
AcDbLine
 62
4
  6
CONTINUOUS
 10
11.5020850296
 20
11.7128090938
 11
11.4960240886
 21
11.7155261269
  0
LINE
  5
319
100
AcDbEntity
  8
0
100
AcDbLine
 62
4
  6
CONTINUOUS
 10
11.8353718711
 20
11.6690252249
 11
11.8293109584
 21
11.6717422567
  0
LINE
  5
31A
100
AcDbEntity
  8
0
100
AcDbLine
 62
4
  6
CONTINUOUS
 10
11.5571280752
 20
11.8431194341
 11
11.5450062479
 21
11.848553496
  0
LINE
  5
31B
100
AcDbEntity
  8
0
100
AcDbLine
 62
4
  6
CONTINUOUS
 10
11.6482010692
 20
11.8368035005
 11
11.636079242
 21
11.8422375624
  0
LINE
  5
31C
100
AcDbEntity
  8
0
100
AcDbLine
 62
4
  6
CONTINUOUS
 10
11.3844502754
 20
11.8734683223
 11
11.4345227425
 21
11.8761203325
  0
LINE
  5
31D
100
AcDbEntity
  8
0
100
AcDbLine
 62
4
  6
CONTINUOUS
 10
11.8289543916
 20
11.7856835663
 11
11.787557568
 21
11.7885544458
  0
LINE
  5
31E
100
AcDbEntity
  8
0
100
AcDbLine
 62
4
  6
CONTINUOUS
 10
12.2636338271
 20
11.7941230938
 11
12.2222370104
 21
11.7969939728
  0
LINE
  5
31F
100
AcDbEntity
  8
0
100
AcDbLine
 62
4
  6
CONTINUOUS
 10
12.0594095142
 20
11.808286098
 11
11.9931746019
 21
11.8128795048
  0
LINE
  5
320
100
AcDbEntity
  8
0
100
AcDbLine
 62
4
  6
CONTINUOUS
 10
11.9600571319
 20
11.8151762091
 11
11.9103809408
 21
11.8186212647
  0
LINE
  5
321
100
AcDbEntity
  8
0
100
AcDbLine
 62
4
  6
CONTINUOUS
 10
11.769631728
 20
11.8283822557
 11
11.7365142856
 21
11.8306789582
  0
LINE
  5
322
100
AcDbEntity
  8
0
100
AcDbLine
 62
4
  6
CONTINUOUS
 10
11.6730391786
 20
11.8350809718
 11
11.6482010692
 21
11.8368035005
  0
LINE
  5
323
100
AcDbEntity
  8
0
100
AcDbLine
 62
4
  6
CONTINUOUS
 10
11.5985249057
 20
11.8402485542
 11
11.5571280752
 21
11.8431194341
  0
LINE
  5
324
100
AcDbEntity
  8
0
100
AcDbLine
 62
4
  6
CONTINUOUS
 10
11.4936529129
 20
11.8475214516
 11
11.4439767494
 21
11.8509665052
  0
LINE
  5
325
100
AcDbEntity
  8
0
100
AcDbLine
 62
4
  6
CONTINUOUS
 10
11.4738461522
 20
11.862675286
 11
11.5069635946
 21
11.8603785835
  0
LINE
  5
326
100
AcDbEntity
  8
0
100
AcDbLine
 62
4
  6
CONTINUOUS
 10
11.9402503436
 20
11.8303300454
 11
11.9733678136
 21
11.8280333411
  0
LINE
  5
327
100
AcDbEntity
  8
0
100
AcDbLine
 62
4
  6
CONTINUOUS
 10
12.169907201
 20
11.8235901098
 11
12.1257505928
 21
11.826652381
  0
LINE
  5
328
100
AcDbEntity
  8
0
100
AcDbLine
 62
4
  6
CONTINUOUS
 10
11.991115391
 20
11.8451761855
 11
11.9414391999
 21
11.848621241
  0
LINE
  5
329
100
AcDbEntity
  8
0
100
AcDbLine
 62
4
  6
CONTINUOUS
 10
11.524711172
 20
11.8775214279
 11
11.4750350085
 21
11.8809664816
  0
LINE
  5
32A
100
AcDbEntity
  8
0
100
AcDbLine
 62
4
  6
CONTINUOUS
 10
11.5881863343
 20
11.8731194105
 11
11.6295831648
 21
11.8702485305
  0
LINE
  5
32B
100
AcDbEntity
  8
0
100
AcDbLine
 62
4
  6
CONTINUOUS
 10
11.6792593283
 20
11.8668034769
 11
11.7040974377
 21
11.8650809481
  0
LINE
  5
32C
100
AcDbEntity
  8
0
100
AcDbLine
 62
4
  6
CONTINUOUS
 10
11.7675725447
 20
11.8606789345
 11
11.8006899871
 21
11.8583822321
  0
LINE
  5
32D
100
AcDbEntity
  8
0
100
AcDbLine
 62
4
  6
CONTINUOUS
 10
12.2532952695
 20
11.8269939491
 11
12.2946920862
 21
11.8241230702
  0
LINE
  5
32E
100
AcDbEntity
  8
0
100
AcDbLine
 62
7
  6
CONTINUOUS
 10
9.0751275709
 20
12.2692623668
 11
14.1462384594
 21
11.9175796322
  0
LINE
  5
32F
100
AcDbEntity
  8
0
100
AcDbLine
 62
4
  6
CONTINUOUS
 10
11.4226910241
 20
11.8646917694
 11
11.3844502754
 21
11.8734683223
  0
LINE
  5
330
100
AcDbEntity
  8
0
100
AcDbLine
 62
4
  6
CONTINUOUS
 10
12.3476163228
 20
11.8066725301
 11
12.3093755701
 21
11.8154490828
  0
LINE
  5
331
100
AcDbEntity
  8
0
100
AcDbLine
 62
4
  6
CONTINUOUS
 10
12.196415864
 20
11.6577669707
 11
12.2410607331
 21
11.6408906067
  0
LINE
  5
332
100
AcDbEntity
  8
0
100
AcDbLine
 62
4
  6
CONTINUOUS
 10
12.1825107577
 20
11.6357642407
 11
12.1764498415
 21
11.6384812728
  0
LINE
  5
333
100
AcDbEntity
  8
0
100
AcDbLine
 62
4
  6
CONTINUOUS
 10
11.7040974377
 20
11.8650809481
 11
11.7162192645
 21
11.8596468858
  0
LINE
  5
334
100
AcDbEntity
  8
0
100
AcDbLine
 62
4
  6
CONTINUOUS
 10
12.1677353022
 20
11.6643493852
 11
12.1556134685
 21
11.669783448
  0
LINE
  5
335
100
AcDbEntity
  8
0
100
AcDbLine
 62
4
  6
CONTINUOUS
 10
11.8006899871
 20
11.8583822321
 11
11.8128118139
 21
11.8529481698
  0
LINE
  5
336
100
AcDbEntity
  8
0
100
AcDbLine
 62
4
  6
CONTINUOUS
 10
12.2610267572
 20
11.6601763062
 11
12.2549658395
 21
11.6628933377
  0
LINE
  5
337
100
AcDbEntity
  8
0
100
AcDbLine
 62
4
  6
CONTINUOUS
 10
12.2222370104
 20
11.7969939728
 11
12.2101151762
 21
11.8024280351
  0
LINE
  5
338
100
AcDbEntity
  8
0
100
AcDbLine
 62
7
  6
CONTINUOUS
 10
14.1462384594
 20
5.9104866952
 11
12.9248724291
 21
4.7307376332
  0
ARC
  5
339
100
AcDbEntity
  8
0
100
AcDbCircle
 62
7
  6
CONTINUOUS
 10
11.8669600491
 20
9.4440597733
 40
0.4924968397
100
AcDbArc
 50
170.9182646504
 51
180.0554565493
  0
ARC
  5
33A
100
AcDbEntity
  8
0
100
AcDbCircle
 62
7
  6
CONTINUOUS
 10
11.4331698651
 20
9.0287219409
 40
0.2090002308
100
AcDbArc
 50
298.0538552244
 51
298.6314238826
  0
ARC
  5
33B
100
AcDbEntity
  8
0
100
AcDbCircle
 62
7
  6
CONTINUOUS
 10
11.438798725
 20
9.0184153661
 40
0.1972567414
100
AcDbArc
 50
298.630863584
 51
299.7351830246
  0
ARC
  5
33C
100
AcDbEntity
  8
0
100
AcDbCircle
 62
7
  6
CONTINUOUS
 10
11.4478462137
 20
8.9997634581
 40
0.1765311646
100
AcDbArc
 50
297.8050530577
 51
299.5911096024
  0
ARC
  5
33D
100
AcDbEntity
  8
0
100
AcDbCircle
 62
7
  6
CONTINUOUS
 10
11.4558118399
 20
8.9856897649
 40
0.1603596013
100
AcDbArc
 50
299.5993293187
 51
300.2275695848
  0
ARC
  5
33E
100
AcDbEntity
  8
0
100
AcDbCircle
 62
7
  6
CONTINUOUS
 10
8.7319941741
 20
9.3572336528
 40
0.1325564175
100
AcDbArc
 50
166.7865155218
 51
180.0517069547
  0
ARC
  5
33F
100
AcDbEntity
  8
0
100
AcDbCircle
 62
7
  6
CONTINUOUS
 10
12.4150695906
 20
6.6271092414
 40
0.1325564175
100
AcDbArc
 50
166.7865155218
 51
180.0517069547
  0
ARC
  5
340
100
AcDbEntity
  8
0
100
AcDbCircle
 62
7
  6
CONTINUOUS
 10
11.5892533745
 20
9.5720650798
 40
0.0698150795
100
AcDbArc
 50
266.0104736569
 51
271.5791671003
  0
ARC
  5
341
100
AcDbEntity
  8
0
100
AcDbCircle
 62
7
  6
CONTINUOUS
 10
11.5336455134
 20
8.9039189352
 40
0.0579298122
100
AcDbArc
 50
359.1635019526
 51
359.7802761399
  0
ARC
  5
342
100
AcDbEntity
  8
0
100
AcDbCircle
 62
7
  6
CONTINUOUS
 10
13.9755987576
 20
6.2032977825
 40
0.0148646256
100
AcDbArc
 50
254.7008674364
 51
265.9927340066
  0
ARC
  5
343
100
AcDbEntity
  8
0
100
AcDbCircle
 62
7
  6
CONTINUOUS
 10
13.9755987576
 20
10.911220321
 40
0.0148646256
100
AcDbArc
 50
254.7008674365
 51
265.9927340065
  0
ARC
  5
344
100
AcDbEntity
  8
0
100
AcDbCircle
 62
7
  6
CONTINUOUS
 10
14.0059201148
 20
6.6405227279
 40
0.0148603103
100
AcDbArc
 50
86.0718916638
 51
97.2865747044
  0
ARC
  5
345
100
AcDbEntity
  8
0
100
AcDbCircle
 62
7
  6
CONTINUOUS
 10
14.0059201148
 20
11.3484452663
 40
0.0148603103
100
AcDbArc
 50
86.0718916639
 51
97.2865747043
  0
SPLINE
  5
346
100
AcDbEntity
  8
0
100
AcDbSpline
 62
7
  6
CONTINUOUS
 70
0
 71
3
 72
81
 73
77
 74
0
 42
0.0000001
 43
0.0000001
 44
0.0000000001
 40
0.0
 40
0.0
 40
0.0
 40
0.0
 40
0.0039801431
 40
0.0081240931
 40
0.0124360013
 40
0.0169193922
 40
0.021577261
 40
0.0264119999
 40
0.0314252802
 40
0.0366182702
 40
0.0419916862
 40
0.047545808
 40
0.0591950211
 40
0.0715620541
 40
0.0846377536
 40
0.0984090933
 40
0.1128597022
 40
0.1279702741
 40
0.1437189104
 40
0.1600814114
 40
0.1770315069
 40
0.1945410496
 40
0.2125801745
 40
0.2311174668
 40
0.2501201081
 40
0.269554004
 40
0.2893838995
 40
0.3095734898
 40
0.3300855437
 40
0.3508820118
 40
0.3719241296
 40
0.4145865037
 40
0.4577528935
 40
0.5010977816
 40
0.5442939046
 40
0.5870154516
 40
0.6080980225
 40
0.6289420667
 40
0.6495086979
 40
0.669759723
 40
0.6896577522
 40
0.7091663134
 40
0.7282499547
 40
0.7468743561
 40
0.7650064487
 40
0.7826145565
 40
0.7996685343
 40
0.8161399084
 40
0.8320020436
 40
0.8472303388
 40
0.8618024703
 40
0.8756986479
 40
0.888901932
 40
0.9013986383
 40
0.913178861
 40
0.9242371516
 40
0.9294957034
 40
0.9345742191
 40
0.9394737314
 40
0.9441957399
 40
0.9487422908
 40
0.9531160988
 40
0.9573205224
 40
0.9613597593
 40
0.9652388776
 40
0.9689639254
 40
0.9725421104
 40
0.9759818267
 40
0.9792928558
 40
0.982486429
 40
0.9855752896
 40
0.9885737732
 40
0.9914977037
 40
0.9943643137
 40
0.9971920004
 40
1.0
 40
1.0
 40
1.0
 40
1.0
 10
11.8475197514
 20
11.0721877332
 30
0.0
 10
11.8460343472
 20
11.0707529428
 30
0.0
 10
11.8429349445
 20
11.0678934932
 30
0.0
 10
11.8380140234
 20
11.0637170243
 30
0.0
 10
11.8327317254
 20
11.0595704649
 30
0.0
 10
11.82709095
 20
11.0554561054
 30
0.0
 10
11.8210945037
 20
11.0513758215
 30
0.0
 10
11.8147452765
 20
11.047331638
 30
0.0
 10
11.8080464458
 20
11.0433254489
 30
0.0
 10
11.8010013482
 20
11.039359309
 30
0.0
 10
11.7936134998
 20
11.0354351825
 30
0.0
 10
11.7831439647
 20
11.030177898
 30
0.0
 10
11.7692108654
 20
11.0237413161
 30
0.0
 10
11.7514432222
 20
11.0163337202
 30
0.0
 10
11.7324066052
 20
11.0091393371
 30
0.0
 10
11.7121392453
 20
11.0021727224
 30
0.0
 10
11.6906815643
 20
10.9954480046
 30
0.0
 10
11.6680766344
 20
10.9889788514
 30
0.0
 10
11.6443699015
 20
10.9827784205
 30
0.0
 10
11.6196091083
 20
10.97685934
 30
0.0
 10
11.5938441685
 20
10.9712336697
 30
0.0
 10
11.5671270692
 20
10.9659128795
 30
0.0
 10
11.5395117635
 20
10.9609077996
 30
0.0
 10
11.5110540487
 20
10.9562286185
 30
0.0
 10
11.4818114391
 20
10.9518848635
 30
0.0
 10
11.4518430481
 20
10.9478853814
 30
0.0
 10
11.4212094752
 20
10.9442383186
 30
0.0
 10
11.389972677
 20
10.9409510837
 30
0.0
 10
11.3581958554
 20
10.9380303727
 30
0.0
 10
11.3259432394
 20
10.9354820859
 30
0.0
 10
11.2821932981
 20
10.9325748167
 30
0.0
 10
11.2267985052
 20
10.9299159671
 30
0.0
 10
11.1597873355
 20
10.9282854934
 30
0.0
 10
11.0924792038
 20
10.9282144997
 30
0.0
 10
11.0254186103
 20
10.9297035265
 30
0.0
 10
10.9699511438
 20
10.932245015
 30
0.0
 10
10.9261185817
 20
10.9350591354
 30
0.0
 10
10.8937864338
 20
10.9375391056
 30
0.0
 10
10.8619182814
 20
10.9403924996
 30
0.0
 10
10.8305785449
 20
10.9436135599
 30
0.0
 10
10.7998306347
 20
10.9471957275
 30
0.0
 10
10.7697367329
 20
10.951131708
 30
0.0
 10
10.7403576928
 20
10.9554134893
 30
0.0
 10
10.711752914
 20
10.9600323566
 30
0.0
 10
10.6839802183
 20
10.9649789149
 30
0.0
 10
10.657095719
 20
10.9702430893
 30
0.0
 10
10.6311537026
 20
10.97581415
 30
0.0
 10
10.6062065222
 20
10.9816807479
 30
0.0
 10
10.5823044897
 20
10.9878309336
 30
0.0
 10
10.5594957547
 20
10.9942521919
 30
0.0
 10
10.5378261866
 20
11.0009314436
 30
0.0
 10
10.5173392546
 20
11.0078551055
 30
0.0
 10
10.498075984
 20
11.0150091248
 30
0.0
 10
10.4800746605
 20
11.0223790677
 30
0.0
 10
10.4633713484
 20
11.029950073
 30
0.0
 10
10.450350658
 20
11.0365200184
 30
0.0
 10
10.4406266439
 20
11.0418781942
 30
0.0
 10
10.4338014774
 20
11.0458700829
 30
0.0
 10
10.4273247167
 20
11.0499006904
 30
0.0
 10
10.4211995789
 20
11.0539680838
 30
0.0
 10
10.415429145
 20
11.0580703022
 30
0.0
 10
10.4100162317
 20
11.0622052674
 30
0.0
 10
10.4049635854
 20
11.0663710747
 30
0.0
 10
10.4002736924
 20
11.0705656897
 30
0.0
 10
10.3959488912
 20
11.0747871372
 30
0.0
 10
10.3919914366
 20
11.0790335285
 30
0.0
 10
10.3884032881
 20
11.0833028361
 30
0.0
 10
10.3851864444
 20
11.0875932164
 30
0.0
 10
10.3823426768
 20
11.091902705
 30
0.0
 10
10.3798736534
 20
11.0962293356
 30
0.0
 10
10.3777811022
 20
11.100571157
 30
0.0
 10
10.3760664072
 20
11.1049259962
 30
0.0
 10
10.3747310724
 20
11.1092916157
 30
0.0
 10
10.373776287
 20
11.1136656698
 30
0.0
 10
10.3732029384
 20
11.1180450794
 30
0.0
 10
10.3730753628
 20
11.1209708768
 30
0.0
 10
10.3730753595
 20
11.1224278795
 30
0.0
  0
SPLINE
  5
347
100
AcDbEntity
  8
0
100
AcDbSpline
 62
7
  6
CONTINUOUS
 70
0
 71
3
 72
31
 73
27
 74
0
 42
0.0000001
 43
0.0000001
 44
0.0000000001
 40
0.0
 40
0.0
 40
0.0
 40
0.0
 40
0.076277662
 40
0.1537880851
 40
0.2318266316
 40
0.3096794495
 40
0.3866359079
 40
0.4619957237
 40
0.5350773586
 40
0.6052266956
 40
0.6390081512
 40
0.671828261
 40
0.7036169917
 40
0.7343079699
 40
0.7638385787
 40
0.7921505611
 40
0.8191906299
 40
0.844910735
 40
0.8692690202
 40
0.8922307876
 40
0.9137693187
 40
0.9338676935
 40
0.9525208479
 40
0.9697380628
 40
0.9855471934
 40
1.0
 40
1.0
 40
1.0
 40
1.0
 10
13.9492773286
 20
11.0627727475
 30
0.0
 10
13.9492773286
 20
11.0711657589
 30
0.0
 10
13.9495031184
 20
11.0880881568
 30
0.0
 10
13.9504882313
 20
11.1135800588
 30
0.0
 10
13.9521140717
 20
11.1392129334
 30
0.0
 10
13.9543649104
 20
11.164737283
 30
0.0
 10
13.9572187162
 20
11.1899047443
 30
0.0
 10
13.960647456
 20
11.2144705934
 30
0.0
 10
13.9646174764
 20
11.2381958069
 30
0.0
 10
13.9683899261
 20
11.2573075047
 30
0.0
 10
13.971661402
 20
11.2719951983
 30
0.0
 10
13.9741938491
 20
11.2825215337
 30
0.0
 10
13.9768297
 20
11.2926715281
 30
0.0
 10
13.9795625026
 20
11.3024205292
 30
0.0
 10
13.9823855697
 20
11.311744845
 30
0.0
 10
13.9852919953
 20
11.3206218486
 30
0.0
 10
13.9882746202
 20
11.3290300447
 30
0.0
 10
13.9913261665
 20
11.3369491005
 30
0.0
 10
13.9944391798
 20
11.3443599296
 30
0.0
 10
13.9976060344
 20
11.3512447718
 30
0.0
 10
14.0008190846
 20
11.3575872017
 30
0.0
 10
14.0040706436
 20
11.3633722564
 30
0.0
 10
14.0073529676
 20
11.3685864338
 30
0.0
 10
14.0106587959
 20
11.3732179432
 30
0.0
 10
14.0139804821
 20
11.3772558585
 30
0.0
 10
14.0163022275
 20
11.3796502652
 30
0.0
 10
14.0174663325
 20
11.3807337036
 30
0.0
  0
SPLINE
  5
348
100
AcDbEntity
  8
0
100
AcDbSpline
 62
7
  6
CONTINUOUS
 70
0
 71
3
 72
31
 73
27
 74
0
 42
0.0000001
 43
0.0000001
 44
0.0000000001
 40
0.0
 40
0.0
 40
0.0
 40
0.0
 40
0.076277662
 40
0.1537880851
 40
0.2318266316
 40
0.3096794495
 40
0.3866359079
 40
0.4619957237
 40
0.5350773586
 40
0.6052266956
 40
0.6390081512
 40
0.671828261
 40
0.7036169917
 40
0.7343079699
 40
0.7638385787
 40
0.7921505611
 40
0.8191906299
 40
0.844910735
 40
0.8692690202
 40
0.8922307876
 40
0.9137693187
 40
0.9338676935
 40
0.9525208479
 40
0.9697380628
 40
0.9855471934
 40
1.0
 40
1.0
 40
1.0
 40
1.0
 10
13.9492773286
 20
6.354850209
 30
0.0
 10
13.9492773286
 20
6.3632432205
 30
0.0
 10
13.9495031184
 20
6.3801656184
 30
0.0
 10
13.9504882313
 20
6.4056575204
 30
0.0
 10
13.9521140717
 20
6.431290395
 30
0.0
 10
13.9543649104
 20
6.4568147445
 30
0.0
 10
13.9572187162
 20
6.4819822059
 30
0.0
 10
13.960647456
 20
6.5065480549
 30
0.0
 10
13.9646174764
 20
6.5302732685
 30
0.0
 10
13.9683899261
 20
6.5493849663
 30
0.0
 10
13.971661402
 20
6.5640726599
 30
0.0
 10
13.9741938491
 20
6.5745989952
 30
0.0
 10
13.9768297
 20
6.5847489897
 30
0.0
 10
13.9795625026
 20
6.5944979907
 30
0.0
 10
13.9823855697
 20
6.6038223065
 30
0.0
 10
13.9852919953
 20
6.6126993102
 30
0.0
 10
13.9882746202
 20
6.6211075063
 30
0.0
 10
13.9913261665
 20
6.629026562
 30
0.0
 10
13.9944391798
 20
6.6364373912
 30
0.0
 10
13.9976060344
 20
6.6433222334
 30
0.0
 10
14.0008190846
 20
6.6496646633
 30
0.0
 10
14.0040706436
 20
6.655449718
 30
0.0
 10
14.0073529676
 20
6.6606638954
 30
0.0
 10
14.0106587959
 20
6.6652954048
 30
0.0
 10
14.0139804821
 20
6.66933332
 30
0.0
 10
14.0163022275
 20
6.6717277268
 30
0.0
 10
14.0174663325
 20
6.6728111652
 30
0.0
  0
SPLINE
  5
349
100
AcDbEntity
  8
0
100
AcDbSpline
 62
7
  6
CONTINUOUS
 70
0
 71
3
 72
15
 73
11
 74
0
 42
0.0000001
 43
0.0000001
 44
0.0000000001
 40
0.0
 40
0.0
 40
0.0
 40
0.0
 40
0.1273481407
 40
0.2538605842
 40
0.3795879627
 40
0.5046050991
 40
0.6290174438
 40
0.7529533592
 40
0.8765605627
 40
1.0
 40
1.0
 40
1.0
 40
1.0
 10
8.7738059221
 20
9.2445406985
 30
0.0
 10
8.7738059221
 20
9.2402135254
 30
0.0
 10
8.7733927592
 20
9.2315815929
 30
0.0
 10
8.771524269
 20
9.2187997141
 30
0.0
 10
8.7684259853
 20
9.2063390018
 30
0.0
 10
8.764125894
 20
9.1943160045
 30
0.0
 10
8.7586634787
 20
9.1828415885
 30
0.0
 10
8.7520885086
 20
9.1720217181
 30
0.0
 10
8.7444628318
 20
9.1619577578
 30
0.0
 10
8.7387210546
 20
9.155810168
 30
0.0
 10
8.7357042261
 20
9.1528961685
 30
0.0
  0
SPLINE
  5
34A
100
AcDbEntity
  8
0
100
AcDbSpline
 62
7
  6
CONTINUOUS
 70
0
 71
3
 72
15
 73
11
 74
0
 42
0.0000001
 43
0.0000001
 44
0.0000000001
 40
0.0
 40
0.0
 40
0.0
 40
0.0
 40
0.1273481407
 40
0.2538605842
 40
0.3795879627
 40
0.5046050991
 40
0.6290174438
 40
0.7529533592
 40
0.8765605627
 40
1.0
 40
1.0
 40
1.0
 40
1.0
 10
12.4568813385
 20
6.5144162871
 30
0.0
 10
12.4568813385
 20
6.510089114
 30
0.0
 10
12.4564681756
 20
6.5014571815
 30
0.0
 10
12.4545996855
 20
6.4886753027
 30
0.0
 10
12.4515014017
 20
6.4762145904
 30
0.0
 10
12.4472013104
 20
6.4641915931
 30
0.0
 10
12.4417388952
 20
6.4527171771
 30
0.0
 10
12.435163925
 20
6.4418973067
 30
0.0
 10
12.4275382483
 20
6.4318333464
 30
0.0
 10
12.421796471
 20
6.4256857566
 30
0.0
 10
12.4187796426
 20
6.4227717571
 30
0.0
  0
SPLINE
  5
34B
100
AcDbEntity
  8
0
100
AcDbSpline
 62
7
  6
CONTINUOUS
 70
0
 71
3
 72
23
 73
19
 74
0
 42
0.0000001
 43
0.0000001
 44
0.0000000001
 40
0.0
 40
0.0
 40
0.0
 40
0.0
 40
0.0637767638
 40
0.1273450118
 40
0.1907019674
 40
0.2538561101
 40
0.3168132145
 40
0.3795820843
 40
0.4421733868
 40
0.5045993403
 40
0.5668738673
 40
0.6290123789
 40
0.6910316481
 40
0.752949645
 40
0.8147853545
 40
0.8765586015
 40
0.9382898522
 40
1.0
 40
1.0
 40
1.0
 40
1.0
 10
11.9439746944
 20
9.0246887475
 30
0.0
 10
11.9439746944
 20
9.017213547
 30
0.0
 10
11.9436168794
 20
9.0022850538
 30
0.0
 10
11.9420019971
 20
8.9799831476
 30
0.0
 10
11.9393131521
 20
8.9578579972
 30
0.0
 10
11.9355568218
 20
8.9359616102
 30
0.0
 10
11.9307413715
 20
8.9143440068
 30
0.0
 10
11.9248779529
 20
8.8930551607
 30
0.0
 10
11.9179800556
 20
8.8721441181
 30
0.0
 10
11.9100635021
 20
8.8516591041
 30
0.0
 10
11.9011464702
 20
8.831647385
 30
0.0
 10
11.8912495259
 20
8.8121550994
 30
0.0
 10
11.8803954724
 20
8.7932272059
 30
0.0
 10
11.8686092846
 20
8.7749073683
 30
0.0
 10
11.8559181249
 20
8.7572379177
 30
0.0
 10
11.842351144
 20
8.7402594531
 30
0.0
 10
11.8279401763
 20
8.7240116567
 30
0.0
 10
11.817790417
 20
8.7136900169
 30
0.0
 10
11.8125880646
 20
8.7086649345
 30
0.0
  0
SPLINE
  5
34C
100
AcDbEntity
  8
0
100
AcDbSpline
 62
7
  6
CONTINUOUS
 70
0
 71
3
 72
23
 73
19
 74
0
 42
0.0000001
 43
0.0000001
 44
0.0000000001
 40
0.0
 40
0.0
 40
0.0
 40
0.0
 40
0.0637767638
 40
0.1273450118
 40
0.1907019674
 40
0.2538561101
 40
0.3168132145
 40
0.3795820843
 40
0.4421733868
 40
0.5045993403
 40
0.5668738673
 40
0.6290123789
 40
0.6910316481
 40
0.752949645
 40
0.8147853545
 40
0.8765586015
 40
0.9382898522
 40
1.0
 40
1.0
 40
1.0
 40
1.0
 10
9.7706414564
 20
8.2703374467
 30
0.0
 10
9.7706414564
 20
8.2628622463
 30
0.0
 10
9.7702836415
 20
8.247933753
 30
0.0
 10
9.7686687592
 20
8.2256318468
 30
0.0
 10
9.7659799141
 20
8.2035066964
 30
0.0
 10
9.7622235839
 20
8.1816103094
 30
0.0
 10
9.7574081335
 20
8.1599927061
 30
0.0
 10
9.751544715
 20
8.1387038599
 30
0.0
 10
9.7446468177
 20
8.1177928173
 30
0.0
 10
9.7367302641
 20
8.0973078034
 30
0.0
 10
9.7278132322
 20
8.0772960842
 30
0.0
 10
9.717916288
 20
8.0578037987
 30
0.0
 10
9.7070622345
 20
8.0388759051
 30
0.0
 10
9.6952760466
 20
8.0205560676
 30
0.0
 10
9.682584887
 20
8.002886617
 30
0.0
 10
9.6690179061
 20
7.9859081523
 30
0.0
 10
9.6546069384
 20
7.9696603559
 30
0.0
 10
9.6444571791
 20
7.9593387161
 30
0.0
 10
9.6392548267
 20
7.9543136338
 30
0.0
  0
SPLINE
  5
34D
100
AcDbEntity
  8
0
100
AcDbSpline
 62
7
  6
CONTINUOUS
 70
0
 71
3
 72
23
 73
19
 74
0
 42
0.0000001
 43
0.0000001
 44
0.0000000001
 40
0.0
 40
0.0
 40
0.0
 40
0.0
 40
0.0637767638
 40
0.1273450118
 40
0.1907019674
 40
0.2538561101
 40
0.3168132145
 40
0.3795820843
 40
0.4421733868
 40
0.5045993403
 40
0.5668738673
 40
0.6290123789
 40
0.6910316481
 40
0.752949645
 40
0.8147853545
 40
0.8765586015
 40
0.9382898522
 40
1.0
 40
1.0
 40
1.0
 40
1.0
 10
11.9439746944
 20
7.2135776007
 30
0.0
 10
11.9439746944
 20
7.2061024003
 30
0.0
 10
11.9436168794
 20
7.191173907
 30
0.0
 10
11.9420019971
 20
7.1688720008
 30
0.0
 10
11.9393131521
 20
7.1467468504
 30
0.0
 10
11.9355568218
 20
7.1248504634
 30
0.0
 10
11.9307413715
 20
7.1032328601
 30
0.0
 10
11.9248779529
 20
7.0819440139
 30
0.0
 10
11.9179800556
 20
7.0610329713
 30
0.0
 10
11.9100635021
 20
7.0405479574
 30
0.0
 10
11.9011464702
 20
7.0205362382
 30
0.0
 10
11.8912495259
 20
7.0010439526
 30
0.0
 10
11.8803954724
 20
6.9821160591
 30
0.0
 10
11.8686092846
 20
6.9637962216
 30
0.0
 10
11.8559181249
 20
6.946126771
 30
0.0
 10
11.842351144
 20
6.9291483063
 30
0.0
 10
11.8279401763
 20
6.9129005099
 30
0.0
 10
11.817790417
 20
6.9025788701
 30
0.0
 10
11.8125880646
 20
6.8975537878
 30
0.0
  0
SPLINE
  5
34E
100
AcDbEntity
  8
0
100
AcDbSpline
 62
7
  6
CONTINUOUS
 70
0
 71
3
 72
23
 73
19
 74
0
 42
0.0000001
 43
0.0000001
 44
0.0000000001
 40
0.0
 40
0.0
 40
0.0
 40
0.0
 40
0.0637767638
 40
0.1273450118
 40
0.1907019674
 40
0.2538561101
 40
0.3168132145
 40
0.3795820843
 40
0.4421733868
 40
0.5045993403
 40
0.5668738673
 40
0.6290123789
 40
0.6910316481
 40
0.752949645
 40
0.8147853545
 40
0.8765586015
 40
0.9382898522
 40
1.0
 40
1.0
 40
1.0
 40
1.0
 10
9.7706414564
 20
6.4592261848
 30
0.0
 10
9.7706414564
 20
6.4517509844
 30
0.0
 10
9.7702836415
 20
6.4368224911
 30
0.0
 10
9.7686687592
 20
6.4145205849
 30
0.0
 10
9.7659799141
 20
6.3923954345
 30
0.0
 10
9.7622235839
 20
6.3704990475
 30
0.0
 10
9.7574081335
 20
6.3488814442
 30
0.0
 10
9.751544715
 20
6.327592598
 30
0.0
 10
9.7446468177
 20
6.3066815554
 30
0.0
 10
9.7367302641
 20
6.2861965415
 30
0.0
 10
9.7278132322
 20
6.2661848223
 30
0.0
 10
9.717916288
 20
6.2466925368
 30
0.0
 10
9.7070622345
 20
6.2277646432
 30
0.0
 10
9.6952760466
 20
6.2094448057
 30
0.0
 10
9.682584887
 20
6.1917753551
 30
0.0
 10
9.6690179061
 20
6.1747968904
 30
0.0
 10
9.6546069384
 20
6.158549094
 30
0.0
 10
9.6444571791
 20
6.1482274542
 30
0.0
 10
9.6392548267
 20
6.1432023719
 30
0.0
  0
SPLINE
  5
34F
100
AcDbEntity
  8
0
100
AcDbSpline
 62
7
  6
CONTINUOUS
 70
0
 71
3
 72
15
 73
11
 74
0
 42
0.0000001
 43
0.0000001
 44
0.0000000001
 40
0.0
 40
0.0
 40
0.0
 40
0.0
 40
0.1273483438
 40
0.2538606048
 40
0.3795878922
 40
0.5046051199
 40
0.6290174392
 40
0.7529533668
 40
0.8765605676
 40
1.0
 40
1.0
 40
1.0
 40
1.0
 10
11.6276339325
 20
5.8774242125
 30
0.0
 10
11.6276339325
 20
5.8706793799
 30
0.0
 10
11.6269899293
 20
5.8572246718
 30
0.0
 10
11.6240774922
 20
5.8373013924
 30
0.0
 10
11.6192481838
 20
5.8178787205
 30
0.0
 10
11.6125456347
 20
5.799138296
 30
0.0
 10
11.6040313199
 20
5.7812529556
 30
0.0
 10
11.5937828484
 20
5.7643878688
 30
0.0
 10
11.5818966296
 20
5.7487010249
 30
0.0
 10
11.5729468875
 20
5.7391186566
 30
0.0
 10
11.5682445244
 20
5.7345765601
 30
0.0
  0
LINE
  5
350
100
AcDbEntity
  8
0
100
AcDbLine
 62
7
  6
CONTINUOUS
 10
11.5915748997
 20
8.9036967805
 11
11.5915753337
 21
8.903928304
  0
SPLINE
  5
351
100
AcDbEntity
  8
0
100
AcDbSpline
 62
7
  6
CONTINUOUS
 70
0
 71
3
 72
38
 73
34
 74
0
 42
0.0000001
 43
0.0000001
 44
0.0000000001
 40
0.0
 40
0.0
 40
0.0
 40
0.0
 40
0.035648327
 40
0.0712819234
 40
0.1068995696
 40
0.1425006025
 40
0.1780789498
 40
0.2136258348
 40
0.2491288406
 40
0.2845718747
 40
0.3199349192
 40
0.3551936537
 40
0.3903190319
 40
0.4252767805
 40
0.4600269161
 40
0.4945234428
 40
0.528714158
 40
0.562540814
 40
0.5959395982
 40
0.6288419678
 40
0.6611759582
 40
0.6928678063
 40
0.7238435928
 40
0.7540309034
 40
0.8117428848
 40
0.8391675285
 40
0.8655563113
 40
0.8908620552
 40
0.9150443251
 40
0.9380700018
 40
0.9599135114
 40
0.9805590854
 40
1.0
 40
1.0
 40
1.0
 40
1.0
 10
11.1431124108
 20
9.2201151386
 30
0.0
 10
11.1431124108
 20
9.2127973826
 30
0.0
 10
11.1434846945
 20
9.1981621528
 30
0.0
 10
11.1451600607
 20
9.176273168
 30
0.0
 10
11.1479503991
 20
9.1545073476
 30
0.0
 10
11.151851809
 20
9.1329245853
 30
0.0
 10
11.1568590363
 20
9.1115860061
 30
0.0
 10
11.162964287
 20
9.0905560706
 30
0.0
 10
11.1701569266
 20
9.0699019845
 30
0.0
 10
11.1784225763
 20
9.0496939411
 30
0.0
 10
11.1877421711
 20
9.0300049808
 30
0.0
 10
11.1980908437
 20
9.0109107361
 30
0.0
 10
11.2094366528
 20
8.992488928
 30
0.0
 10
11.2217392379
 20
8.9748185615
 30
0.0
 10
11.2349484633
 20
8.9579787167
 30
0.0
 10
11.2490032806
 20
8.9420469825
 30
0.0
 10
11.2638308744
 20
8.927097462
 30
0.0
 10
11.2793462979
 20
8.9131984698
 30
0.0
 10
11.2954527523
 20
8.9004100228
 30
0.0
 10
11.3120425735
 20
8.8887813681
 30
0.0
 10
11.3289992202
 20
8.8783487272
 30
0.0
 10
11.3461991926
 20
8.869133786
 30
0.0
 10
11.3635171078
 20
8.8611421565
 30
0.0
 10
11.3862486964
 20
8.8522402276
 30
0.0
 10
11.4090176676
 20
8.8455285562
 30
0.0
 10
11.4314708159
 20
8.8410102335
 30
0.0
 10
11.4475602042
 20
8.8387255367
 30
0.0
 10
11.4630901108
 20
8.8374257169
 30
0.0
 10
11.4779790688
 20
8.8370449406
 30
0.0
 10
11.4921541613
 20
8.8375168759
 30
0.0
 10
11.5055523802
 20
8.8387762428
 30
0.0
 10
11.5181176838
 20
8.8407605491
 30
0.0
 10
11.5261501361
 20
8.8425828982
 30
0.0
 10
11.5300068365
 20
8.8436085767
 30
0.0
  0
SPLINE
  5
352
100
AcDbEntity
  8
0
100
AcDbSpline
 62
7
  6
CONTINUOUS
 70
0
 71
3
 72
16
 73
12
 74
0
 42
0.0000001
 43
0.0000001
 44
0.0000000001
 40
0.0
 40
0.0
 40
0.0
 40
0.0
 40
0.1284797102
 40
0.256481169
 40
0.3839159298
 40
0.5105813081
 40
0.6361392754
 40
0.7600806448
 40
0.8212494113
 40
0.8817227228
 40
1.0
 40
1.0
 40
1.0
 40
1.0
 10
11.1772354505
 20
7.4419643191
 30
0.0
 10
11.1772354505
 20
7.4295874028
 30
0.0
 10
11.1783337357
 20
7.4048651768
 30
0.0
 10
11.1832899781
 20
7.3681662449
 30
0.0
 10
11.1915295832
 20
7.332237066
 30
0.0
 10
11.2030074523
 20
7.2974531798
 30
0.0
 10
11.2176347952
 20
7.2642376952
 30
0.0
 10
11.2323901055
 20
7.2381353188
 30
0.0
 10
11.2456135619
 20
7.2185055856
 30
0.0
 10
11.2595306833
 20
7.2000440949
 30
0.0
 10
11.2710047032
 20
7.187141574
 30
0.0
 10
11.2790562315
 20
7.1790794448
 30
0.0
  0
SPLINE
  5
353
100
AcDbEntity
  8
0
100
AcDbSpline
 62
7
  6
CONTINUOUS
 70
0
 71
3
 72
16
 73
12
 74
0
 42
0.0000001
 43
0.0000001
 44
0.0000000001
 40
0.0
 40
0.0
 40
0.0
 40
0.0
 40
0.1371381833
 40
0.2716028618
 40
0.4028436989
 40
0.5303777826
 40
0.6538511027
 40
0.773114676
 40
0.8883101341
 40
0.9445503872
 40
1.0
 40
1.0
 40
1.0
 40
1.0
 10
11.2790562315
 20
7.1790794448
 30
0.0
 10
11.2829064545
 20
7.1783584756
 30
0.0
 10
11.2905663286
 20
7.1771061918
 30
0.0
 10
11.3020090689
 20
7.1758429317
 30
0.0
 10
11.3132341157
 20
7.1752690553
 30
0.0
 10
11.3241603163
 20
7.1754431861
 30
0.0
 10
11.3347031742
 20
7.1764226058
 30
0.0
 10
11.3447749542
 20
7.1782609622
 30
0.0
 10
11.3527695579
 20
7.1805693149
 30
0.0
 10
11.3588217399
 20
7.1828951136
 30
0.0
 10
11.3617280611
 20
7.1842167043
 30
0.0
 10
11.3631484622
 20
7.1849174114
 30
0.0
  0
SPLINE
  5
354
100
AcDbEntity
  8
0
100
AcDbSpline
 62
7
  6
CONTINUOUS
 70
0
 71
3
 72
15
 73
11
 74
0
 42
0.0000001
 43
0.0000001
 44
0.0000000001
 40
0.0
 40
0.0
 40
0.0
 40
0.0
 40
0.1273482888
 40
0.2538606703
 40
0.3795878487
 40
0.5046051206
 40
0.6290174369
 40
0.7529533749
 40
0.8765605786
 40
1.0
 40
1.0
 40
1.0
 40
1.0
 10
8.8711081006
 20
10.3616376726
 30
0.0
 10
8.8711081006
 20
10.35443094
 30
0.0
 10
8.8704199955
 20
10.3400548166
 30
0.0
 10
8.8673081529
 20
10.3187671377
 30
0.0
 10
8.8621481781
 20
10.2980143353
 30
0.0
 10
8.8549866828
 20
10.2779905011
 30
0.0
 10
8.8458893492
 20
10.2588802968
 30
0.0
 10
8.8349391684
 20
10.2408601662
 30
0.0
 10
8.8222390686
 20
10.2240989624
 30
0.0
 10
8.8126765316
 20
10.2138602662
 30
0.0
 10
8.8076521429
 20
10.2090071122
 30
0.0
  0
SPLINE
  5
355
100
AcDbEntity
  8
0
100
AcDbSpline
 62
7
  6
CONTINUOUS
 70
0
 71
3
 72
23
 73
19
 74
0
 42
0.0000001
 43
0.0000001
 44
0.0000000001
 40
0.0
 40
0.0
 40
0.0
 40
0.0
 40
0.0614488463
 40
0.1232975066
 40
0.1855192794
 40
0.248071275
 40
0.3108995332
 40
0.3739401515
 40
0.4371217402
 40
0.5003679843
 40
0.5636003164
 40
0.6267406523
 40
0.6897141155
 40
0.7524516761
 40
0.8148926497
 40
0.8769870681
 40
0.9386966966
 40
1.0
 40
1.0
 40
1.0
 40
1.0
 10
8.6450814439
 20
10.6033393312
 30
0.0
 10
8.6525001616
 20
10.6028248414
 30
0.0
 10
8.6673450146
 20
10.6010614075
 30
0.0
 10
8.6893131273
 20
10.5962719608
 30
0.0
 10
8.710855432
 20
10.5893757011
 30
0.0
 10
8.7317623463
 20
10.5804394493
 30
0.0
 10
8.7518339508
 20
10.5695495885
 30
0.0
 10
8.7708775124
 20
10.5568110737
 30
0.0
 10
8.7887103655
 20
10.5423463823
 30
0.0
 10
8.8051614087
 20
10.5262945177
 30
0.0
 10
8.820072796
 20
10.5088096322
 30
0.0
 10
8.8333012835
 20
10.4900594748
 30
0.0
 10
8.8447196897
 20
10.4702239449
 30
0.0
 10
8.8542181567
 20
10.4494933146
 30
0.0
 10
8.8617050454
 20
10.4280666747
 30
0.0
 10
8.8671077867
 20
10.4061489832
 30
0.0
 10
8.8703740486
 20
10.3839535091
 30
0.0
 10
8.8711081006
 20
10.3690565953
 30
0.0
 10
8.8711081006
 20
10.3616376726
 30
0.0
  0
SPLINE
  5
356
100
AcDbEntity
  8
0
100
AcDbSpline
 62
7
  6
CONTINUOUS
 70
0
 71
3
 72
15
 73
11
 74
0
 42
0.0000001
 43
0.0000001
 44
0.0000000001
 40
0.0
 40
0.0
 40
0.0
 40
0.0
 40
0.1273482888
 40
0.2538606703
 40
0.3795878487
 40
0.5046051206
 40
0.6290174369
 40
0.7529533749
 40
0.8765605786
 40
1.0
 40
1.0
 40
1.0
 40
1.0
 10
12.3735555721
 20
10.1187421155
 30
0.0
 10
12.3735555721
 20
10.1115353829
 30
0.0
 10
12.372867467
 20
10.0971592595
 30
0.0
 10
12.3697556244
 20
10.0758715805
 30
0.0
 10
12.3645956496
 20
10.0551187781
 30
0.0
 10
12.3574341543
 20
10.0350949439
 30
0.0
 10
12.3483368207
 20
10.0159847396
 30
0.0
 10
12.3373866399
 20
9.9979646091
 30
0.0
 10
12.3246865401
 20
9.9812034053
 30
0.0
 10
12.3151240031
 20
9.9709647091
 30
0.0
 10
12.3100996144
 20
9.966111555
 30
0.0
  0
SPLINE
  5
357
100
AcDbEntity
  8
0
100
AcDbSpline
 62
7
  6
CONTINUOUS
 70
0
 71
3
 72
23
 73
19
 74
0
 42
0.0000001
 43
0.0000001
 44
0.0000000001
 40
0.0
 40
0.0
 40
0.0
 40
0.0
 40
0.0614488463
 40
0.1232975066
 40
0.1855192794
 40
0.248071275
 40
0.3108995332
 40
0.3739401515
 40
0.4371217402
 40
0.5003679843
 40
0.5636003164
 40
0.6267406523
 40
0.6897141155
 40
0.7524516761
 40
0.8148926497
 40
0.8769870681
 40
0.9386966966
 40
1.0
 40
1.0
 40
1.0
 40
1.0
 10
12.1475289154
 20
10.3604437741
 30
0.0
 10
12.1549476331
 20
10.3599292843
 30
0.0
 10
12.1697924861
 20
10.3581658504
 30
0.0
 10
12.1917605988
 20
10.3533764037
 30
0.0
 10
12.2133029036
 20
10.346480144
 30
0.0
 10
12.2342098178
 20
10.3375438921
 30
0.0
 10
12.2542814223
 20
10.3266540314
 30
0.0
 10
12.2733249839
 20
10.3139155166
 30
0.0
 10
12.291157837
 20
10.2994508252
 30
0.0
 10
12.3076088803
 20
10.2833989606
 30
0.0
 10
12.3225202675
 20
10.2659140751
 30
0.0
 10
12.335748755
 20
10.2471639177
 30
0.0
 10
12.3471671612
 20
10.2273283878
 30
0.0
 10
12.3566656282
 20
10.2065977575
 30
0.0
 10
12.3641525169
 20
10.1851711176
 30
0.0
 10
12.3695552582
 20
10.1632534261
 30
0.0
 10
12.3728215201
 20
10.1410579519
 30
0.0
 10
12.3735555721
 20
10.1261610382
 30
0.0
 10
12.3735555721
 20
10.1187421155
 30
0.0
  0
SPLINE
  5
358
100
AcDbEntity
  8
0
100
AcDbSpline
 62
7
  6
CONTINUOUS
 70
0
 71
3
 72
15
 73
11
 74
0
 42
0.0000001
 43
0.0000001
 44
0.0000000001
 40
0.0
 40
0.0
 40
0.0
 40
0.0
 40
0.1273482888
 40
0.2538606703
 40
0.3795878487
 40
0.5046051206
 40
0.6290174369
 40
0.7529533749
 40
0.8765605786
 40
1.0
 40
1.0
 40
1.0
 40
1.0
 10
12.3735555721
 20
8.0970593615
 30
0.0
 10
12.3735555721
 20
8.0898526289
 30
0.0
 10
12.372867467
 20
8.0754765055
 30
0.0
 10
12.3697556244
 20
8.0541888265
 30
0.0
 10
12.3645956496
 20
8.0334360241
 30
0.0
 10
12.3574341543
 20
8.0134121899
 30
0.0
 10
12.3483368207
 20
7.9943019856
 30
0.0
 10
12.3373866399
 20
7.9762818551
 30
0.0
 10
12.3246865401
 20
7.9595206513
 30
0.0
 10
12.3151240031
 20
7.9492819551
 30
0.0
 10
12.3100996144
 20
7.944428801
 30
0.0
  0
SPLINE
  5
359
100
AcDbEntity
  8
0
100
AcDbSpline
 62
7
  6
CONTINUOUS
 70
0
 71
3
 72
23
 73
19
 74
0
 42
0.0000001
 43
0.0000001
 44
0.0000000001
 40
0.0
 40
0.0
 40
0.0
 40
0.0
 40
0.0614488463
 40
0.1232975066
 40
0.1855192794
 40
0.248071275
 40
0.3108995332
 40
0.3739401515
 40
0.4371217402
 40
0.5003679843
 40
0.5636003164
 40
0.6267406523
 40
0.6897141155
 40
0.7524516761
 40
0.8148926497
 40
0.8769870681
 40
0.9386966966
 40
1.0
 40
1.0
 40
1.0
 40
1.0
 10
12.1475289154
 20
8.3387610201
 30
0.0
 10
12.1549476331
 20
8.3382465303
 30
0.0
 10
12.1697924861
 20
8.3364830964
 30
0.0
 10
12.1917605988
 20
8.3316936497
 30
0.0
 10
12.2133029036
 20
8.32479739
 30
0.0
 10
12.2342098178
 20
8.3158611381
 30
0.0
 10
12.2542814223
 20
8.3049712774
 30
0.0
 10
12.2733249839
 20
8.2922327626
 30
0.0
 10
12.291157837
 20
8.2777680712
 30
0.0
 10
12.3076088803
 20
8.2617162066
 30
0.0
 10
12.3225202675
 20
8.2442313211
 30
0.0
 10
12.335748755
 20
8.2254811637
 30
0.0
 10
12.3471671612
 20
8.2056456338
 30
0.0
 10
12.3566656282
 20
8.1849150035
 30
0.0
 10
12.3641525169
 20
8.1634883636
 30
0.0
 10
12.3695552582
 20
8.1415706721
 30
0.0
 10
12.3728215201
 20
8.1193751979
 30
0.0
 10
12.3735555721
 20
8.1044782842
 30
0.0
 10
12.3735555721
 20
8.0970593615
 30
0.0
  0
SPLINE
  5
35A
100
AcDbEntity
  8
0
100
AcDbSpline
 62
7
  6
CONTINUOUS
 70
0
 71
3
 72
15
 73
11
 74
0
 42
0.0000001
 43
0.0000001
 44
0.0000000001
 40
0.0
 40
0.0
 40
0.0
 40
0.0
 40
0.1273482888
 40
0.2538606703
 40
0.3795878487
 40
0.5046051206
 40
0.6290174369
 40
0.7529533749
 40
0.8765605786
 40
1.0
 40
1.0
 40
1.0
 40
1.0
 10
12.3735555721
 20
5.1693381062
 30
0.0
 10
12.3735555721
 20
5.1621313736
 30
0.0
 10
12.372867467
 20
5.1477552502
 30
0.0
 10
12.3697556244
 20
5.1264675712
 30
0.0
 10
12.3645956496
 20
5.1057147688
 30
0.0
 10
12.3574341543
 20
5.0856909346
 30
0.0
 10
12.3483368207
 20
5.0665807303
 30
0.0
 10
12.3373866399
 20
5.0485605998
 30
0.0
 10
12.3246865401
 20
5.0317993959
 30
0.0
 10
12.3151240031
 20
5.0215606998
 30
0.0
 10
12.3100996144
 20
5.0167075457
 30
0.0
  0
SPLINE
  5
35B
100
AcDbEntity
  8
0
100
AcDbSpline
 62
7
  6
CONTINUOUS
 70
0
 71
3
 72
23
 73
19
 74
0
 42
0.0000001
 43
0.0000001
 44
0.0000000001
 40
0.0
 40
0.0
 40
0.0
 40
0.0
 40
0.0614488463
 40
0.1232975066
 40
0.1855192794
 40
0.248071275
 40
0.3108995332
 40
0.3739401515
 40
0.4371217402
 40
0.5003679843
 40
0.5636003164
 40
0.6267406523
 40
0.6897141155
 40
0.7524516761
 40
0.8148926497
 40
0.8769870681
 40
0.9386966966
 40
1.0
 40
1.0
 40
1.0
 40
1.0
 10
12.1475289154
 20
5.4110397648
 30
0.0
 10
12.1549476331
 20
5.410525275
 30
0.0
 10
12.1697924861
 20
5.4087618411
 30
0.0
 10
12.1917605988
 20
5.4039723943
 30
0.0
 10
12.2133029036
 20
5.3970761347
 30
0.0
 10
12.2342098178
 20
5.3881398828
 30
0.0
 10
12.2542814223
 20
5.3772500221
 30
0.0
 10
12.2733249839
 20
5.3645115072
 30
0.0
 10
12.291157837
 20
5.3500468159
 30
0.0
 10
12.3076088803
 20
5.3339949513
 30
0.0
 10
12.3225202675
 20
5.3165100658
 30
0.0
 10
12.335748755
 20
5.2977599084
 30
0.0
 10
12.3471671612
 20
5.2779243785
 30
0.0
 10
12.3566656282
 20
5.2571937481
 30
0.0
 10
12.3641525169
 20
5.2357671083
 30
0.0
 10
12.3695552582
 20
5.2138494168
 30
0.0
 10
12.3728215201
 20
5.1916539426
 30
0.0
 10
12.3735555721
 20
5.1767570289
 30
0.0
 10
12.3735555721
 20
5.1693381062
 30
0.0
  0
SPLINE
  5
35C
100
AcDbEntity
  8
0
100
AcDbSpline
 62
7
  6
CONTINUOUS
 70
0
 71
3
 72
15
 73
11
 74
0
 42
0.0000001
 43
0.0000001
 44
0.0000000001
 40
0.0
 40
0.0
 40
0.0
 40
0.0
 40
0.1273482888
 40
0.2538606703
 40
0.3795878487
 40
0.5046051206
 40
0.6290174369
 40
0.7529533749
 40
0.8765605786
 40
1.0
 40
1.0
 40
1.0
 40
1.0
 10
8.8711081006
 20
5.4122336633
 30
0.0
 10
8.8711081006
 20
5.4050269307
 30
0.0
 10
8.8704199955
 20
5.3906508073
 30
0.0
 10
8.8673081529
 20
5.3693631284
 30
0.0
 10
8.8621481781
 20
5.348610326
 30
0.0
 10
8.8549866828
 20
5.3285864917
 30
0.0
 10
8.8458893492
 20
5.3094762875
 30
0.0
 10
8.8349391684
 20
5.2914561569
 30
0.0
 10
8.8222390686
 20
5.2746949531
 30
0.0
 10
8.8126765316
 20
5.2644562569
 30
0.0
 10
8.8076521429
 20
5.2596031028
 30
0.0
  0
SPLINE
  5
35D
100
AcDbEntity
  8
0
100
AcDbSpline
 62
7
  6
CONTINUOUS
 70
0
 71
3
 72
23
 73
19
 74
0
 42
0.0000001
 43
0.0000001
 44
0.0000000001
 40
0.0
 40
0.0
 40
0.0
 40
0.0
 40
0.0614488463
 40
0.1232975066
 40
0.1855192794
 40
0.248071275
 40
0.3108995332
 40
0.3739401515
 40
0.4371217402
 40
0.5003679843
 40
0.5636003164
 40
0.6267406523
 40
0.6897141155
 40
0.7524516761
 40
0.8148926497
 40
0.8769870681
 40
0.9386966966
 40
1.0
 40
1.0
 40
1.0
 40
1.0
 10
8.6450814439
 20
5.6539353219
 30
0.0
 10
8.6525001616
 20
5.6534208321
 30
0.0
 10
8.6673450146
 20
5.6516573982
 30
0.0
 10
8.6893131273
 20
5.6468679515
 30
0.0
 10
8.710855432
 20
5.6399716918
 30
0.0
 10
8.7317623463
 20
5.63103544
 30
0.0
 10
8.7518339508
 20
5.6201455792
 30
0.0
 10
8.7708775124
 20
5.6074070644
 30
0.0
 10
8.7887103655
 20
5.592942373
 30
0.0
 10
8.8051614087
 20
5.5768905084
 30
0.0
 10
8.820072796
 20
5.5594056229
 30
0.0
 10
8.8333012835
 20
5.5406554655
 30
0.0
 10
8.8447196897
 20
5.5208199356
 30
0.0
 10
8.8542181567
 20
5.5000893053
 30
0.0
 10
8.8617050454
 20
5.4786626654
 30
0.0
 10
8.8671077867
 20
5.4567449739
 30
0.0
 10
8.8703740486
 20
5.4345494998
 30
0.0
 10
8.8711081006
 20
5.419652586
 30
0.0
 10
8.8711081006
 20
5.4122336633
 30
0.0
  0
SPLINE
  5
35E
100
AcDbEntity
  8
0
100
AcDbSpline
 62
7
  6
CONTINUOUS
 70
0
 71
3
 72
15
 73
11
 74
0
 42
0.0000001
 43
0.0000001
 44
0.0000000001
 40
0.0
 40
0.0
 40
0.0
 40
0.0
 40
0.1273482888
 40
0.2538606703
 40
0.3795878487
 40
0.5046051206
 40
0.6290174369
 40
0.7529533749
 40
0.8765605786
 40
1.0
 40
1.0
 40
1.0
 40
1.0
 10
8.8711081006
 20
7.4339162446
 30
0.0
 10
8.8711081006
 20
7.426709512
 30
0.0
 10
8.8704199955
 20
7.4123333886
 30
0.0
 10
8.8673081529
 20
7.3910457096
 30
0.0
 10
8.8621481781
 20
7.3702929072
 30
0.0
 10
8.8549866828
 20
7.350269073
 30
0.0
 10
8.8458893492
 20
7.3311588687
 30
0.0
 10
8.8349391684
 20
7.3131387382
 30
0.0
 10
8.8222390686
 20
7.2963775344
 30
0.0
 10
8.8126765316
 20
7.2861388382
 30
0.0
 10
8.8076521429
 20
7.2812856841
 30
0.0
  0
SPLINE
  5
35F
100
AcDbEntity
  8
0
100
AcDbSpline
 62
7
  6
CONTINUOUS
 70
0
 71
3
 72
23
 73
19
 74
0
 42
0.0000001
 43
0.0000001
 44
0.0000000001
 40
0.0
 40
0.0
 40
0.0
 40
0.0
 40
0.0614488463
 40
0.1232975066
 40
0.1855192794
 40
0.248071275
 40
0.3108995332
 40
0.3739401515
 40
0.4371217402
 40
0.5003679843
 40
0.5636003164
 40
0.6267406523
 40
0.6897141155
 40
0.7524516761
 40
0.8148926497
 40
0.8769870681
 40
0.9386966966
 40
1.0
 40
1.0
 40
1.0
 40
1.0
 10
8.6450814439
 20
7.6756179032
 30
0.0
 10
8.6525001616
 20
7.6751034134
 30
0.0
 10
8.6673450146
 20
7.6733399795
 30
0.0
 10
8.6893131273
 20
7.6685505328
 30
0.0
 10
8.710855432
 20
7.6616542731
 30
0.0
 10
8.7317623463
 20
7.6527180212
 30
0.0
 10
8.7518339508
 20
7.6418281605
 30
0.0
 10
8.7708775124
 20
7.6290896457
 30
0.0
 10
8.7887103655
 20
7.6146249543
 30
0.0
 10
8.8051614087
 20
7.5985730897
 30
0.0
 10
8.820072796
 20
7.5810882042
 30
0.0
 10
8.8333012835
 20
7.5623380468
 30
0.0
 10
8.8447196897
 20
7.5425025169
 30
0.0
 10
8.8542181567
 20
7.5217718866
 30
0.0
 10
8.8617050454
 20
7.5003452467
 30
0.0
 10
8.8671077867
 20
7.4784275552
 30
0.0
 10
8.8703740486
 20
7.456232081
 30
0.0
 10
8.8711081006
 20
7.4413351673
 30
0.0
 10
8.8711081006
 20
7.4339162446
 30
0.0
  0
SPLINE
  5
360
100
AcDbEntity
  8
0
100
AcDbSpline
 62
7
  6
CONTINUOUS
 70
0
 71
3
 72
12
 73
8
 74
0
 42
0.0000001
 43
0.0000001
 44
0.0000000001
 40
0.0
 40
0.0
 40
0.0
 40
0.0
 40
0.0961240851
 40
0.2005774954
 40
0.43475838
 40
0.7017936664
 40
1.0
 40
1.0
 40
1.0
 40
1.0
 10
11.5550403961
 20
8.860524445
 30
0.0
 10
11.5545129784
 20
8.8600149986
 30
0.0
 10
11.5533905668
 20
8.8589744345
 30
0.0
 10
11.550877823
 20
8.8568088918
 30
0.0
 10
11.5472213719
 20
8.8539786048
 30
0.0
 10
11.5421880754
 20
8.8505304403
 30
0.0
 10
11.5385081344
 20
8.8482791281
 30
0.0
 10
11.5365425977
 20
8.8471338322
 30
0.0
  0
SPLINE
  5
361
100
AcDbEntity
  8
0
100
AcDbSpline
 62
7
  6
CONTINUOUS
 70
0
 71
3
 72
31
 73
27
 74
0
 42
0.0000001
 43
0.0000001
 44
0.0000000001
 40
0.0
 40
0.0
 40
0.0
 40
0.0
 40
0.000246725
 40
0.000273553
 40
0.0005498985
 40
0.0010994812
 40
0.0019319072
 40
0.0030567165
 40
0.0044835825
 40
0.0062223363
 40
0.0106754799
 40
0.0164979211
 40
0.0237734448
 40
0.0325877105
 40
0.0430280218
 40
0.0551831251
 40
0.0849976231
 40
0.1228328452
 40
0.1697470664
 40
0.2268968818
 40
0.2954825385
 40
0.3767378018
 40
0.4718545601
 40
0.5814280157
 40
0.7057542682
 40
1.0
 40
1.0
 40
1.0
 40
1.0
 10
11.5615753388
 20
8.8696780377
 30
0.0
 10
11.5615753388
 20
8.8696783467
 30
0.0
 10
11.5615750865
 20
8.8696790853
 30
0.0
 10
11.5615757997
 20
8.8696788029
 30
0.0
 10
11.5615753855
 20
8.8696773947
 30
0.0
 10
11.5615758451
 20
8.8696755657
 30
0.0
 10
11.5615757205
 20
8.8696723043
 30
0.0
 10
11.5615757767
 20
8.8696681166
 30
0.0
 10
11.5615756203
 20
8.8696627248
 30
0.0
 10
11.5615752399
 20
8.8696531994
 30
0.0
 10
11.5615742206
 20
8.8696381769
 30
0.0
 10
11.56157213
 20
8.8696162948
 30
0.0
 10
11.5615688023
 20
8.8695890486
 30
0.0
 10
11.561563982
 20
8.8695561693
 30
0.0
 10
11.5615574034
 20
8.8695173801
 30
0.0
 10
11.5615450665
 20
8.8694529034
 30
0.0
 10
11.5615232559
 20
8.8693553329
 30
0.0
 10
11.5614870118
 20
8.8692164635
 30
0.0
 10
11.5614350862
 20
8.8690464378
 30
0.0
 10
11.5613635792
 20
8.8688423043
 30
0.0
 10
11.5612684678
 20
8.8686010655
 30
0.0
 10
11.5611457715
 20
8.8683198001
 30
0.0
 10
11.5609919602
 20
8.867996306
 30
0.0
 10
11.5608032906
 20
8.8676298666
 30
0.0
 10
11.5604820497
 20
8.8670515223
 30
0.0
 10
11.5602050829
 20
8.8666058776
 30
0.0
 10
11.5600021951
 20
8.8662982172
 30
0.0
  0
SPLINE
  5
362
100
AcDbEntity
  8
0
100
AcDbSpline
 62
7
  6
CONTINUOUS
 70
0
 71
3
 72
11
 73
7
 74
0
 42
0.0000001
 43
0.0000001
 44
0.0000000001
 40
0.0
 40
0.0
 40
0.0
 40
0.0
 40
0.1938288467
 40
0.424750556
 40
0.6929699711
 40
1.0
 40
1.0
 40
1.0
 40
1.0
 10
11.5600021951
 20
8.8662982172
 30
0.0
 10
11.559730924
 20
8.8658868599
 30
0.0
 10
11.5591042432
 20
8.8650065229
 30
0.0
 10
11.5580007278
 20
8.863632208
 30
0.0
 10
11.5566318121
 20
8.8621057444
 30
0.0
 10
11.5556017956
 20
8.8610667153
 30
0.0
 10
11.5550403961
 20
8.860524445
 30
0.0
  0
SPLINE
  5
363
100
AcDbEntity
  8
0
100
AcDbSpline
 62
7
  6
CONTINUOUS
 70
0
 71
3
 72
18
 73
14
 74
0
 42
0.0000001
 43
0.0000001
 44
0.0000000001
 40
0.0
 40
0.0
 40
0.0
 40
0.0
 40
0.0548626755
 40
0.1099292576
 40
0.1654013202
 40
0.2214755501
 40
0.3361333804
 40
0.4553634196
 40
0.5171048815
 40
0.5804365284
 40
0.7123311193
 40
0.8519577055
 40
1.0
 40
1.0
 40
1.0
 40
1.0
 10
11.873075318
 20
11.1224283681
 30
0.0
 10
11.8730753204
 20
11.1213691542
 30
0.0
 10
11.8730081069
 20
11.1192461778
 30
0.0
 10
11.8727058736
 20
11.1160651814
 30
0.0
 10
11.872202167
 20
11.1128859561
 30
0.0
 10
11.8712556795
 20
11.1086201418
 30
0.0
 10
11.8695505406
 20
11.1032736043
 30
0.0
 10
11.8672151754
 20
11.0980532892
 30
0.0
 10
11.8649680103
 20
11.09390456
 30
0.0
 10
11.8623949059
 20
11.0896607517
 30
0.0
 10
11.8586587005
 20
11.0843735542
 30
0.0
 10
11.8534497422
 20
11.0781602739
 30
0.0
 10
11.8495755244
 20
11.0741734575
 30
0.0
 10
11.8475197514
 20
11.0721877332
 30
0.0
  0
SPLINE
  5
364
100
AcDbEntity
  8
0
100
AcDbSpline
 62
7
  6
CONTINUOUS
 70
0
 71
3
 72
11
 73
7
 74
0
 42
0.0000001
 43
0.0000001
 44
0.0000000001
 40
0.0
 40
0.0
 40
0.0
 40
0.0
 40
0.2390653332
 40
0.4844594879
 40
0.7376992209
 40
1.0
 40
1.0
 40
1.0
 40
1.0
 10
11.584396052
 20
9.5024191773
 30
0.0
 10
11.5813146459
 20
9.5026326587
 30
0.0
 10
11.5750920474
 20
9.5034720633
 30
0.0
 10
11.5658533055
 20
9.505902863
 30
0.0
 10
11.5566835345
 20
9.5095062103
 30
0.0
 10
11.5507804386
 20
9.5126250958
 30
0.0
 10
11.5478707853
 20
9.5143626932
 30
0.0
  0
SPLINE
  5
365
100
AcDbEntity
  8
0
100
AcDbSpline
 62
7
  6
CONTINUOUS
 70
0
 71
3
 72
15
 73
11
 74
0
 42
0.0000001
 43
0.0000001
 44
0.0000000001
 40
0.0
 40
0.0
 40
0.0
 40
0.0
 40
0.1502572395
 40
0.2930251544
 40
0.4283712497
 40
0.5564117074
 40
0.677316567
 40
0.7913239099
 40
0.8987484862
 40
1.0
 40
1.0
 40
1.0
 40
1.0
 10
9.5768523763
 20
6.2562282115
 30
0.0
 10
9.574315197
 20
6.2549056439
 30
0.0
 10
9.5694094225
 20
6.2522442921
 30
0.0
 10
9.5623884021
 20
6.2480878632
 30
0.0
 10
9.5559006337
 20
6.2438733518
 30
0.0
 10
9.5499529912
 20
6.2396052324
 30
0.0
 10
9.5445517941
 20
6.2352876655
 30
0.0
 10
9.539702542
 20
6.2309247963
 30
0.0
 10
9.5354108979
 20
6.22652097
 30
0.0
 10
9.5328523726
 20
6.2234742302
 30
0.0
 10
9.5316768164
 20
6.2219460365
 30
0.0
  0
SPLINE
  5
366
100
AcDbEntity
  8
0
100
AcDbSpline
 62
7
  6
CONTINUOUS
 70
0
 71
3
 72
61
 73
57
 74
0
 42
0.0000001
 43
0.0000001
 44
0.0000000001
 40
0.0
 40
0.0
 40
0.0
 40
0.0
 40
0.007520736
 40
0.0156240064
 40
0.0243308314
 40
0.0336545627
 40
0.0436023576
 40
0.0541762911
 40
0.065374298
 40
0.0771908404
 40
0.0896173637
 40
0.1026427459
 40
0.1162536401
 40
0.1304346776
 40
0.1451686827
 40
0.1604368921
 40
0.1762190747
 40
0.1924936262
 40
0.2092377338
 40
0.2264274719
 40
0.2440378492
 40
0.2620429285
 40
0.2804159201
 40
0.2991292233
 40
0.337462144
 40
0.3768083795
 40
0.4169255651
 40
0.4575651352
 40
0.4984743559
 40
0.5393983541
 40
0.5800821394
 40
0.6202726307
 40
0.6597206676
 40
0.6981830696
 40
0.7169711587
 40
0.73542544
 40
0.7535181279
 40
0.7712222409
 40
0.788511644
 40
0.8053611137
 40
0.821746466
 40
0.8376446296
 40
0.8530337122
 40
0.8678931419
 40
0.8822038118
 40
0.8959481707
 40
0.9091104
 40
0.921676668
 40
0.9336353219
 40
0.9449771721
 40
0.9556959291
 40
0.9657887028
 40
0.9752565161
 40
0.9841051753
 40
0.9923468585
 40
1.0
 40
1.0
 40
1.0
 40
1.0
 10
13.4426337297
 20
6.7503054856
 30
0.0
 10
13.4404999065
 20
6.7529291174
 30
0.0
 10
13.4362955371
 20
6.7585678164
 30
0.0
 10
13.4303789826
 20
6.7677790276
 30
0.0
 10
13.424631307
 20
6.778036203
 30
0.0
 10
13.4190616766
 20
6.7893225762
 30
0.0
 10
13.4136785303
 20
6.8016205989
 30
0.0
 10
13.4084904883
 20
6.8149105343
 30
0.0
 10
13.4035059865
 20
6.8291709618
 30
0.0
 10
13.3987332776
 20
6.8443786985
 30
0.0
 10
13.3941802629
 20
6.8605088639
 30
0.0
 10
13.389854531
 20
6.8775349623
 30
0.0
 10
13.3857633437
 20
6.8954289572
 30
0.0
 10
13.3819135558
 20
6.9141613052
 30
0.0
 10
13.378311604
 20
6.9337010211
 30
0.0
 10
13.3749635458
 20
6.9540157585
 30
0.0
 10
13.3718750178
 20
6.975071856
 30
0.0
 10
13.3690511801
 20
6.996834389
 30
0.0
 10
13.3664967744
 20
7.0192672494
 30
0.0
 10
13.3642161122
 20
7.0423332061
 30
0.0
 10
13.3622130043
 20
7.0659939604
 30
0.0
 10
13.3604908146
 20
7.0902102047
 30
0.0
 10
13.3590524182
 20
7.1149417525
 30
0.0
 10
13.3575039564
 20
7.1488204786
 30
0.0
 10
13.3563088987
 20
7.1921526215
 30
0.0
 10
13.3560427735
 20
7.2451249665
 30
0.0
 10
13.3569358354
 20
7.2991277616
 30
0.0
 10
13.3589823965
 20
7.3538022679
 30
0.0
 10
13.3621690793
 20
7.4087855285
 30
0.0
 10
13.3664747483
 20
7.4637124352
 30
0.0
 10
13.3718708127
 20
7.5182182556
 30
0.0
 10
13.3783212261
 20
7.5719411748
 30
0.0
 10
13.3857829491
 20
7.6245243379
 30
0.0
 10
13.3928560494
 20
7.6674314584
 30
0.0
 10
13.3989955648
 20
7.7009157455
 30
0.0
 10
13.4037842576
 20
7.7253335171
 30
0.0
 10
13.4087848046
 20
7.7492110087
 30
0.0
 10
13.4139888869
 20
7.7725085966
 30
0.0
 10
13.4193878116
 20
7.7951875851
 30
0.0
 10
13.4249725973
 20
7.817210316
 30
0.0
 10
13.4307339162
 20
7.8385402408
 30
0.0
 10
13.4366621415
 20
7.8591419793
 30
0.0
 10
13.4427473953
 20
7.8789813634
 30
0.0
 10
13.4489795306
 20
7.8980255157
 30
0.0
 10
13.4553481258
 20
7.9162429198
 30
0.0
 10
13.4618425617
 20
7.93360345
 30
0.0
 10
13.4684520371
 20
7.9500784343
 30
0.0
 10
13.4751655247
 20
7.9656407457
 30
0.0
 10
13.4819718655
 20
7.9802648274
 30
0.0
 10
13.4888598244
 20
7.9939267346
 30
0.0
 10
13.4958180498
 20
8.0066042428
 30
0.0
 10
13.5028352141
 20
8.0182768898
 30
0.0
 10
13.5098999927
 20
8.0289258801
 30
0.0
 10
13.5170015747
 20
8.0385346871
 30
0.0
 10
13.5241285405
 20
8.0470873445
 30
0.0
 10
13.5290685285
 20
8.0522632639
 30
0.0
 10
13.5315437346
 20
8.0546541295
 30
0.0
  0
SPLINE
  5
367
100
AcDbEntity
  8
0
100
AcDbSpline
 62
7
  6
CONTINUOUS
 70
0
 71
3
 72
19
 73
15
 74
0
 42
0.0000001
 43
0.0000001
 44
0.0000000001
 40
0.0
 40
0.0
 40
0.0
 40
0.0
 40
0.0616584539
 40
0.1233399361
 40
0.1850672157
 40
0.24686257
 40
0.3087474986
 40
0.3707425057
 40
0.4328669055
 40
0.4951385767
 40
0.6201443509
 40
0.745911736
 40
0.8725153439
 40
1.0
 40
1.0
 40
1.0
 40
1.0
 10
8.4825107449
 20
10.5456182368
 30
0.0
 10
8.4851367158
 20
10.5481547128
 30
0.0
 10
8.4905271783
 20
10.553088413
 30
0.0
 10
8.4990006273
 20
10.5600450451
 30
0.0
 10
8.5078419927
 20
10.566541892
 30
0.0
 10
8.5170287184
 20
10.5725622703
 30
0.0
 10
8.5265377889
 20
10.5780910497
 30
0.0
 10
8.5363450693
 20
10.5831143537
 30
0.0
 10
8.5464262404
 20
10.587619615
 30
0.0
 10
8.560213504
 20
10.5929265581
 30
0.0
 10
8.5780191781
 20
10.5982101077
 30
0.0
 10
8.6000242919
 20
10.6023148775
 30
0.0
 10
8.6224786286
 20
10.6041555805
 30
0.0
 10
8.6375508493
 20
10.6038615797
 30
0.0
 10
8.6450814439
 20
10.6033393312
 30
0.0
  0
SPLINE
  5
368
100
AcDbEntity
  8
0
100
AcDbSpline
 62
7
  6
CONTINUOUS
 70
0
 71
3
 72
19
 73
15
 74
0
 42
0.0000001
 43
0.0000001
 44
0.0000000001
 40
0.0
 40
0.0
 40
0.0
 40
0.0
 40
0.0616584539
 40
0.1233399361
 40
0.1850672157
 40
0.24686257
 40
0.3087474986
 40
0.3707425057
 40
0.4328669055
 40
0.4951385767
 40
0.6201443509
 40
0.745911736
 40
0.8725153439
 40
1.0
 40
1.0
 40
1.0
 40
1.0
 10
11.9849582164
 20
10.3027226797
 30
0.0
 10
11.9875841873
 20
10.3052591556
 30
0.0
 10
11.9929746499
 20
10.3101928559
 30
0.0
 10
12.0014480988
 20
10.317149488
 30
0.0
 10
12.0102894642
 20
10.3236463349
 30
0.0
 10
12.0194761899
 20
10.3296667132
 30
0.0
 10
12.0289852604
 20
10.3351954925
 30
0.0
 10
12.0387925408
 20
10.3402187966
 30
0.0
 10
12.0488737119
 20
10.3447240578
 30
0.0
 10
12.0626609756
 20
10.350031001
 30
0.0
 10
12.0804666497
 20
10.3553145506
 30
0.0
 10
12.1024717634
 20
10.3594193204
 30
0.0
 10
12.1249261001
 20
10.3612600233
 30
0.0
 10
12.1399983208
 20
10.3609660226
 30
0.0
 10
12.1475289154
 20
10.3604437741
 30
0.0
  0
LINE
  5
369
100
AcDbEntity
  8
0
100
AcDbLine
 62
7
  6
CONTINUOUS
 10
13.378111138
 20
9.3233941342
 11
13.378303978
 21
9.3233803577
  0
SPLINE
  5
36A
100
AcDbEntity
  8
0
100
AcDbSpline
 62
7
  6
CONTINUOUS
 70
0
 71
3
 72
19
 73
15
 74
0
 42
0.0000001
 43
0.0000001
 44
0.0000000001
 40
0.0
 40
0.0
 40
0.0
 40
0.0
 40
0.0616584539
 40
0.1233399361
 40
0.1850672157
 40
0.24686257
 40
0.3087474986
 40
0.3707425057
 40
0.4328669055
 40
0.4951385767
 40
0.6201443509
 40
0.745911736
 40
0.8725153439
 40
1.0
 40
1.0
 40
1.0
 40
1.0
 10
11.9849582164
 20
8.2810399257
 30
0.0
 10
11.9875841873
 20
8.2835764016
 30
0.0
 10
11.9929746499
 20
8.2885101019
 30
0.0
 10
12.0014480988
 20
8.295466734
 30
0.0
 10
12.0102894642
 20
8.3019635809
 30
0.0
 10
12.0194761899
 20
8.3079839592
 30
0.0
 10
12.0289852604
 20
8.3135127385
 30
0.0
 10
12.0387925408
 20
8.3185360426
 30
0.0
 10
12.0488737119
 20
8.3230413038
 30
0.0
 10
12.0626609756
 20
8.328348247
 30
0.0
 10
12.0804666497
 20
8.3336317966
 30
0.0
 10
12.1024717634
 20
8.3377365664
 30
0.0
 10
12.1249261001
 20
8.3395772693
 30
0.0
 10
12.1399983208
 20
8.3392832686
 30
0.0
 10
12.1475289154
 20
8.3387610201
 30
0.0
  0
SPLINE
  5
36B
100
AcDbEntity
  8
0
100
AcDbSpline
 62
7
  6
CONTINUOUS
 70
0
 71
3
 72
66
 73
62
 74
0
 42
0.0000001
 43
0.0000001
 44
0.0000000001
 40
0.0
 40
0.0
 40
0.0
 40
0.0
 40
0.0036899316
 40
0.0075221025
 40
0.011499977
 40
0.0156264553
 40
0.0199039026
 40
0.0243341706
 40
0.0289187301
 40
0.0336586343
 40
0.0436064309
 40
0.0541803656
 40
0.0653783855
 40
0.0771949241
 40
0.089621432
 40
0.1026468019
 40
0.1162576792
 40
0.1304386878
 40
0.1451726622
 40
0.1604408343
 40
0.1762229709
 40
0.1924974764
 40
0.2092415324
 40
0.2264312038
 40
0.2440415174
 40
0.2620465329
 40
0.2804194459
 40
0.2991326643
 40
0.3181578667
 40
0.3374660691
 40
0.3768121103
 40
0.416929095
 40
0.4575684501
 40
0.4984774452
 40
0.539401211
 40
0.5800847596
 40
0.6202750099
 40
0.6597228056
 40
0.6981849718
 40
0.71697294
 40
0.7354271032
 40
0.7535196837
 40
0.7712236817
 40
0.7885129665
 40
0.805362335
 40
0.8217475885
 40
0.8376456394
 40
0.85303462
 40
0.8678939674
 40
0.8822045432
 40
0.8959488011
 40
0.9091109547
 40
0.9216771519
 40
0.9336357191
 40
0.9449774963
 40
0.9556961977
 40
0.9657889018
 40
0.9752566607
 40
0.9841052801
 40
0.9923468642
 40
1.0
 40
1.0
 40
1.0
 40
1.0
 10
13.4203233152
 20
9.243519511
 30
0.0
 10
13.4190136933
 20
9.2451297657
 30
0.0
 10
13.4164118468
 20
9.248468053
 30
0.0
 10
13.4126299221
 20
9.2537176778
 30
0.0
 10
13.4088975591
 20
9.2593005373
 30
0.0
 10
13.4052163627
 20
9.2652142626
 30
0.0
 10
13.4015877969
 20
9.2714564822
 30
0.0
 10
13.3980132729
 20
9.2780246001
 30
0.0
 10
13.3944942623
 20
9.2849159765
 30
0.0
 10
13.389802482
 20
9.2946897056
 30
0.0
 10
13.3841027706
 20
9.3077114956
 30
0.0
 10
13.3776129844
 20
9.3243360665
 30
0.0
 10
13.3713778092
 20
9.3421749173
 30
0.0
 10
13.3654075562
 20
9.3611986862
 30
0.0
 10
13.3597121173
 20
9.3813763509
 30
0.0
 10
13.3543010041
 20
9.4026747501
 30
0.0
 10
13.3491832886
 20
9.4250588169
 30
0.0
 10
13.3443675341
 20
9.4484915878
 30
0.0
 10
13.3398618118
 20
9.4729343062
 30
0.0
 10
13.3356736886
 20
9.4983465087
 30
0.0
 10
13.3318102106
 20
9.5246860882
 30
0.0
 10
13.3282778476
 20
9.5519093593
 30
0.0
 10
13.3250825255
 20
9.5799711487
 30
0.0
 10
13.3222296158
 20
9.6088248834
 30
0.0
 10
13.3197239198
 20
9.6384226582
 30
0.0
 10
13.3175696299
 20
9.6687153123
 30
0.0
 10
13.3157703606
 20
9.6996525274
 30
0.0
 10
13.3143291546
 20
9.7311828991
 30
0.0
 10
13.3132484087
 20
9.7632540835
 30
0.0
 10
13.3122845855
 20
9.8069388028
 30
0.0
 10
13.3120056916
 20
9.8625016967
 30
0.0
 10
13.3131228334
 20
9.9300547122
 30
0.0
 10
13.3156829775
 20
9.9984482371
 30
0.0
 10
13.3196692973
 20
10.0672279007
 30
0.0
 10
13.3250553956
 20
10.135937076
 30
0.0
 10
13.3318054671
 20
10.2041194908
 30
0.0
 10
13.3398744559
 20
10.2713225488
 30
0.0
 10
13.3492085078
 20
10.3370998555
 30
0.0
 10
13.3580564039
 20
10.3907732073
 30
0.0
 10
13.3657364697
 20
10.4326593471
 30
0.0
 10
13.3717267568
 20
10.4632040082
 30
0.0
 10
13.3779820388
 20
10.4930728256
 30
0.0
 10
13.3844919432
 20
10.5222162222
 30
0.0
 10
13.3912455868
 20
10.5505857979
 30
0.0
 10
13.3982317053
 20
10.5781344582
 30
0.0
 10
13.4054386529
 20
10.604816472
 30
0.0
 10
13.4128544095
 20
10.6305875713
 30
0.0
 10
13.4204665856
 20
10.6554050328
 30
0.0
 10
13.4282624766
 20
10.6792277359
 30
0.0
 10
13.4362290875
 20
10.7020162315
 30
0.0
 10
13.4443531293
 20
10.7237328386
 30
0.0
 10
13.4526210468
 20
10.7443417173
 30
0.0
 10
13.4610190753
 20
10.7638089183
 30
0.0
 10
13.4695332817
 20
10.7821024522
 30
0.0
 10
13.4781495718
 20
10.7991923912
 30
0.0
 10
13.4868537477
 20
10.8150509362
 30
0.0
 10
13.4956316566
 20
10.829652483
 30
0.0
 10
13.5044691514
 20
10.842973504
 30
0.0
 10
13.5133526486
 20
10.8549933347
 30
0.0
 10
13.5222678984
 20
10.8656920365
 30
0.0
 10
13.5284474342
 20
10.8721666824
 30
0.0
 10
13.5315437346
 20
10.8751574791
 30
0.0
  0
SPLINE
  5
36C
100
AcDbEntity
  8
0
100
AcDbSpline
 62
7
  6
CONTINUOUS
 70
0
 71
3
 72
19
 73
15
 74
0
 42
0.0000001
 43
0.0000001
 44
0.0000000001
 40
0.0
 40
0.0
 40
0.0
 40
0.0
 40
0.0616584539
 40
0.1233399361
 40
0.1850672157
 40
0.24686257
 40
0.3087474986
 40
0.3707425057
 40
0.4328669055
 40
0.4951385767
 40
0.6201443509
 40
0.745911736
 40
0.8725153439
 40
1.0
 40
1.0
 40
1.0
 40
1.0
 10
11.9849582164
 20
5.3533186704
 30
0.0
 10
11.9875841873
 20
5.3558551463
 30
0.0
 10
11.9929746499
 20
5.3607888466
 30
0.0
 10
12.0014480988
 20
5.3677454787
 30
0.0
 10
12.0102894642
 20
5.3742423256
 30
0.0
 10
12.0194761899
 20
5.3802627039
 30
0.0
 10
12.0289852604
 20
5.3857914832
 30
0.0
 10
12.0387925408
 20
5.3908147873
 30
0.0
 10
12.0488737119
 20
5.3953200485
 30
0.0
 10
12.0626609756
 20
5.4006269916
 30
0.0
 10
12.0804666497
 20
5.4059105413
 30
0.0
 10
12.1024717634
 20
5.410015311
 30
0.0
 10
12.1249261001
 20
5.411856014
 30
0.0
 10
12.1399983208
 20
5.4115620133
 30
0.0
 10
12.1475289154
 20
5.4110397648
 30
0.0
  0
SPLINE
  5
36D
100
AcDbEntity
  8
0
100
AcDbSpline
 62
7
  6
CONTINUOUS
 70
0
 71
3
 72
19
 73
15
 74
0
 42
0.0000001
 43
0.0000001
 44
0.0000000001
 40
0.0
 40
0.0
 40
0.0
 40
0.0
 40
0.0616584539
 40
0.1233399361
 40
0.1850672157
 40
0.24686257
 40
0.3087474986
 40
0.3707425057
 40
0.4328669055
 40
0.4951385767
 40
0.6201443509
 40
0.745911736
 40
0.8725153439
 40
1.0
 40
1.0
 40
1.0
 40
1.0
 10
8.4825107449
 20
5.5962142275
 30
0.0
 10
8.4851367158
 20
5.5987507035
 30
0.0
 10
8.4905271783
 20
5.6036844037
 30
0.0
 10
8.4990006273
 20
5.6106410358
 30
0.0
 10
8.5078419927
 20
5.6171378827
 30
0.0
 10
8.5170287184
 20
5.623158261
 30
0.0
 10
8.5265377889
 20
5.6286870404
 30
0.0
 10
8.5363450693
 20
5.6337103444
 30
0.0
 10
8.5464262404
 20
5.6382156057
 30
0.0
 10
8.560213504
 20
5.6435225488
 30
0.0
 10
8.5780191781
 20
5.6488060984
 30
0.0
 10
8.6000242919
 20
5.6529108682
 30
0.0
 10
8.6224786286
 20
5.6547515711
 30
0.0
 10
8.6375508493
 20
5.6544575704
 30
0.0
 10
8.6450814439
 20
5.6539353219
 30
0.0
  0
LINE
  5
36E
100
AcDbEntity
  8
0
100
AcDbLine
 62
7
  6
CONTINUOUS
 10
13.480862559
 20
10.8038320593
 11
13.4809731297
 21
10.8038245245
  0
SPLINE
  5
36F
100
AcDbEntity
  8
0
100
AcDbSpline
 62
7
  6
CONTINUOUS
 70
0
 71
3
 72
19
 73
15
 74
0
 42
0.0000001
 43
0.0000001
 44
0.0000000001
 40
0.0
 40
0.0
 40
0.0
 40
0.0
 40
0.0616584539
 40
0.1233399361
 40
0.1850672157
 40
0.24686257
 40
0.3087474986
 40
0.3707425057
 40
0.4328669055
 40
0.4951385767
 40
0.6201443509
 40
0.745911736
 40
0.8725153439
 40
1.0
 40
1.0
 40
1.0
 40
1.0
 10
8.4825107449
 20
7.6178968088
 30
0.0
 10
8.4851367158
 20
7.6204332847
 30
0.0
 10
8.4905271783
 20
7.625366985
 30
0.0
 10
8.4990006273
 20
7.6323236171
 30
0.0
 10
8.5078419927
 20
7.638820464
 30
0.0
 10
8.5170287184
 20
7.6448408423
 30
0.0
 10
8.5265377889
 20
7.6503696216
 30
0.0
 10
8.5363450693
 20
7.6553929257
 30
0.0
 10
8.5464262404
 20
7.6598981869
 30
0.0
 10
8.560213504
 20
7.6652051301
 30
0.0
 10
8.5780191781
 20
7.6704886797
 30
0.0
 10
8.6000242919
 20
7.6745934495
 30
0.0
 10
8.6224786286
 20
7.6764341524
 30
0.0
 10
8.6375508493
 20
7.6761401517
 30
0.0
 10
8.6450814439
 20
7.6756179032
 30
0.0
  0
SPLINE
  5
370
100
AcDbEntity
  8
0
100
AcDbSpline
 62
7
  6
CONTINUOUS
 70
0
 71
3
 72
39
 73
35
 74
0
 42
0.0000001
 43
0.0000001
 44
0.0000000001
 40
0.0
 40
0.0
 40
0.0
 40
0.0
 40
0.0299424668
 40
0.0599093107
 40
0.0899243161
 40
0.1200100985
 40
0.1501875656
 40
0.18047543
 40
0.2108897874
 40
0.2414437743
 40
0.272147306
 40
0.3030068952
 40
0.3340255553
 40
0.3652027855
 40
0.3965346322
 40
0.4280138256
 40
0.4596299855
 40
0.4913698787
 40
0.5232177245
 40
0.5551555411
 40
0.5871635267
 40
0.6192204686
 40
0.6513041787
 40
0.6833919402
 40
0.7154609579
 40
0.7474888094
 40
0.7794538884
 40
0.8113358426
 40
0.8431160045
 40
0.8747777028
 40
0.9063070166
 40
0.9376917362
 40
0.9689253561
 40
1.0
 40
1.0
 40
1.0
 40
1.0
 10
8.5404824447
 20
9.3550086282
 30
0.0
 10
8.5428132953
 20
9.3572600315
 30
0.0
 10
8.547658325
 20
9.3615810834
 30
0.0
 10
8.5554207542
 20
9.3674677863
 30
0.0
 10
8.5636384459
 20
9.3727301008
 30
0.0
 10
8.5722654719
 20
9.3773385209
 30
0.0
 10
8.5812544094
 20
9.3812678615
 30
0.0
 10
8.5905556528
 20
9.3844965115
 30
0.0
 10
8.6001179434
 20
9.3870068087
 30
0.0
 10
8.6098885964
 20
9.3887850587
 30
0.0
 10
8.619813817
 20
9.3898216065
 30
0.0
 10
8.6298389907
 20
9.3901108805
 30
0.0
 10
8.6399089839
 20
9.3896514162
 30
0.0
 10
8.6499684432
 20
9.3884458569
 30
0.0
 10
8.6599620949
 20
9.3865009351
 30
0.0
 10
8.6698350523
 20
9.383827456
 30
0.0
 10
8.6795331113
 20
9.3804402081
 30
0.0
 10
8.689003043
 20
9.3763578797
 30
0.0
 10
8.6981928797
 20
9.3716029549
 30
0.0
 10
8.7070521954
 20
9.366201591
 30
0.0
 10
8.7155323753
 20
9.3601834738
 30
0.0
 10
8.7235868862
 20
9.3535816656
 30
0.0
 10
8.7311715381
 20
9.3464324322
 30
0.0
 10
8.7382447105
 20
9.3387750243
 30
0.0
 10
8.7447675797
 20
9.3306514696
 30
0.0
 10
8.7507043273
 20
9.3221063433
 30
0.0
 10
8.7560223355
 20
9.3131865298
 30
0.0
 10
8.760692364
 20
9.3039409653
 30
0.0
 10
8.7646887115
 20
9.2944203913
 30
0.0
 10
8.7679894196
 20
9.2846770344
 30
0.0
 10
8.7705761881
 20
9.274764468
 30
0.0
 10
8.7724349098
 20
9.2647368048
 30
0.0
 10
8.7735549936
 20
9.25464998
 30
0.0
 10
8.7738059221
 20
9.2479038621
 30
0.0
 10
8.7738059221
 20
9.2445406985
 30
0.0
  0
SPLINE
  5
371
100
AcDbEntity
  8
0
100
AcDbSpline
 62
7
  6
CONTINUOUS
 70
0
 71
3
 72
28
 73
24
 74
0
 42
0.0000001
 43
0.0000001
 44
0.0000000001
 40
0.0
 40
0.0
 40
0.0
 40
0.0
 40
0.0162145189
 40
0.0334275962
 40
0.0516721625
 40
0.070971352
 40
0.0913410552
 40
0.112790325
 40
0.1353227667
 40
0.1589373889
 40
0.1836287124
 40
0.209388193
 40
0.2640568884
 40
0.3228187597
 40
0.3855079255
 40
0.4519274553
 40
0.5218538976
 40
0.5950409226
 40
0.6712220742
 40
0.750114128
 40
0.8314167504
 40
0.9148213264
 40
1.0
 40
1.0
 40
1.0
 40
1.0
 10
13.9825775094
 20
6.1697195614
 30
0.0
 10
13.9819279753
 20
6.170518189
 30
0.0
 10
13.9806435866
 20
6.1722096189
 30
0.0
 10
13.9788118463
 20
6.1749329045
 30
0.0
 10
13.977020435
 20
6.1779137635
 30
0.0
 10
13.975271079
 20
6.1811489847
 30
0.0
 10
13.973565558
 20
6.1846353714
 30
0.0
 10
13.9719055579
 20
6.1883693317
 30
0.0
 10
13.9702927793
 20
6.1923470396
 30
0.0
 10
13.9687289446
 20
6.1965643919
 30
0.0
 10
13.967215578
 20
6.2010170089
 30
0.0
 10
13.9652278093
 20
6.2073884889
 30
0.0
 10
13.9628949863
 20
6.2159149885
 30
0.0
 10
13.960373024
 20
6.226810704
 30
0.0
 10
13.9580866761
 20
6.238519109
 30
0.0
 10
13.9560457586
 20
6.2509912006
 30
0.0
 10
13.9542590946
 20
6.26417491
 30
0.0
 10
13.9527343984
 20
6.2780149457
 30
0.0
 10
13.9514782431
 20
6.2924532291
 30
0.0
 10
13.9504960852
 20
6.3074289999
 30
0.0
 10
13.9497921241
 20
6.3228794325
 30
0.0
 10
13.9493694894
 20
6.3387392648
 30
0.0
 10
13.9492773286
 20
6.3494424369
 30
0.0
 10
13.9492773286
 20
6.354850209
 30
0.0
  0
SPLINE
  5
372
100
AcDbEntity
  8
0
100
AcDbSpline
 62
7
  6
CONTINUOUS
 70
0
 71
3
 72
39
 73
35
 74
0
 42
0.0000001
 43
0.0000001
 44
0.0000000001
 40
0.0
 40
0.0
 40
0.0
 40
0.0
 40
0.0299424668
 40
0.0599093107
 40
0.0899243161
 40
0.1200100985
 40
0.1501875656
 40
0.18047543
 40
0.2108897874
 40
0.2414437743
 40
0.272147306
 40
0.3030068952
 40
0.3340255553
 40
0.3652027855
 40
0.3965346322
 40
0.4280138256
 40
0.4596299855
 40
0.4913698787
 40
0.5232177245
 40
0.5551555411
 40
0.5871635267
 40
0.6192204686
 40
0.6513041787
 40
0.6833919402
 40
0.7154609579
 40
0.7474888094
 40
0.7794538884
 40
0.8113358426
 40
0.8431160045
 40
0.8747777028
 40
0.9063070166
 40
0.9376917362
 40
0.9689253561
 40
1.0
 40
1.0
 40
1.0
 40
1.0
 10
12.2235578612
 20
6.6248842169
 30
0.0
 10
12.2258887117
 20
6.6271356201
 30
0.0
 10
12.2307337414
 20
6.631456672
 30
0.0
 10
12.2384961706
 20
6.6373433749
 30
0.0
 10
12.2467138623
 20
6.6426056894
 30
0.0
 10
12.2553408883
 20
6.6472141095
 30
0.0
 10
12.2643298258
 20
6.6511434501
 30
0.0
 10
12.2736310693
 20
6.6543721001
 30
0.0
 10
12.2831933599
 20
6.6568823973
 30
0.0
 10
12.2929640129
 20
6.6586606473
 30
0.0
 10
12.3028892335
 20
6.6596971951
 30
0.0
 10
12.3129144072
 20
6.6599864691
 30
0.0
 10
12.3229844004
 20
6.6595270048
 30
0.0
 10
12.3330438596
 20
6.6583214455
 30
0.0
 10
12.3430375113
 20
6.6563765237
 30
0.0
 10
12.3529104687
 20
6.6537030446
 30
0.0
 10
12.3626085278
 20
6.6503157967
 30
0.0
 10
12.3720784595
 20
6.6462334683
 30
0.0
 10
12.3812682962
 20
6.6414785435
 30
0.0
 10
12.3901276118
 20
6.6360771796
 30
0.0
 10
12.3986077918
 20
6.6300590624
 30
0.0
 10
12.4066623027
 20
6.6234572543
 30
0.0
 10
12.4142469546
 20
6.6163080208
 30
0.0
 10
12.421320127
 20
6.6086506129
 30
0.0
 10
12.4278429962
 20
6.6005270582
 30
0.0
 10
12.4337797438
 20
6.5919819319
 30
0.0
 10
12.439097752
 20
6.5830621184
 30
0.0
 10
12.4437677804
 20
6.5738165539
 30
0.0
 10
12.4477641279
 20
6.5642959799
 30
0.0
 10
12.4510648361
 20
6.554552623
 30
0.0
 10
12.4536516046
 20
6.5446400566
 30
0.0
 10
12.4555103263
 20
6.5346123934
 30
0.0
 10
12.4566304101
 20
6.5245255686
 30
0.0
 10
12.4568813385
 20
6.5177794507
 30
0.0
 10
12.4568813385
 20
6.5144162871
 30
0.0
  0
SPLINE
  5
373
100
AcDbEntity
  8
0
100
AcDbSpline
 62
7
  6
CONTINUOUS
 70
0
 71
3
 72
28
 73
24
 74
0
 42
0.0000001
 43
0.0000001
 44
0.0000000001
 40
0.0
 40
0.0
 40
0.0
 40
0.0
 40
0.0162145189
 40
0.0334275962
 40
0.0516721625
 40
0.070971352
 40
0.0913410552
 40
0.112790325
 40
0.1353227667
 40
0.1589373889
 40
0.1836287124
 40
0.209388193
 40
0.2640568884
 40
0.3228187597
 40
0.3855079255
 40
0.4519274553
 40
0.5218538976
 40
0.5950409226
 40
0.6712220742
 40
0.750114128
 40
0.8314167504
 40
0.9148213264
 40
1.0
 40
1.0
 40
1.0
 40
1.0
 10
13.9825775094
 20
10.8776420999
 30
0.0
 10
13.9819279753
 20
10.8784407274
 30
0.0
 10
13.9806435866
 20
10.8801321574
 30
0.0
 10
13.9788118463
 20
10.8828554429
 30
0.0
 10
13.977020435
 20
10.8858363019
 30
0.0
 10
13.975271079
 20
10.8890715232
 30
0.0
 10
13.973565558
 20
10.8925579098
 30
0.0
 10
13.9719055579
 20
10.8962918701
 30
0.0
 10
13.9702927793
 20
10.9002695781
 30
0.0
 10
13.9687289446
 20
10.9044869303
 30
0.0
 10
13.967215578
 20
10.9089395474
 30
0.0
 10
13.9652278093
 20
10.9153110273
 30
0.0
 10
13.9628949863
 20
10.923837527
 30
0.0
 10
13.960373024
 20
10.9347332425
 30
0.0
 10
13.9580866761
 20
10.9464416474
 30
0.0
 10
13.9560457586
 20
10.9589137391
 30
0.0
 10
13.9542590946
 20
10.9720974484
 30
0.0
 10
13.9527343984
 20
10.9859374842
 30
0.0
 10
13.9514782431
 20
11.0003757675
 30
0.0
 10
13.9504960852
 20
11.0153515383
 30
0.0
 10
13.9497921241
 20
11.0308019709
 30
0.0
 10
13.9493694894
 20
11.0466618032
 30
0.0
 10
13.9492773286
 20
11.0573649753
 30
0.0
 10
13.9492773286
 20
11.0627727475
 30
0.0
  0
SPLINE
  5
374
100
AcDbEntity
  8
0
100
AcDbSpline
 62
7
  6
CONTINUOUS
 70
0
 71
3
 72
39
 73
35
 74
0
 42
0.0000001
 43
0.0000001
 44
0.0000000001
 40
0.0
 40
0.0
 40
0.0
 40
0.0
 40
0.029942471
 40
0.0599093185
 40
0.089924325
 40
0.1200101043
 40
0.1501875632
 40
0.1804754155
 40
0.2108897611
 40
0.2414437393
 40
0.2721472649
 40
0.3030068482
 40
0.3340255005
 40
0.3652027199
 40
0.3965345553
 40
0.4280137416
 40
0.4596298994
 40
0.4913697937
 40
0.523217641
 40
0.5551554573
 40
0.5871634413
 40
0.619220384
 40
0.6513040994
 40
0.6833918697
 40
0.715460897
 40
0.7474887556
 40
0.7794538398
 40
0.8113357995
 40
0.8431159588
 40
0.874777715
 40
0.9063068673
 40
0.9376920959
 40
0.968924654
 40
1.0
 40
1.0
 40
1.0
 40
1.0
 10
11.139379143
 20
9.4056231451
 30
0.0
 10
11.1474168374
 20
9.4133869552
 30
0.0
 10
11.1641242624
 20
9.4282879874
 30
0.0
 10
11.1908921477
 20
9.4485880085
 30
0.0
 10
11.2192299674
 20
9.4667349035
 30
0.0
 10
11.2489793782
 20
9.4826268799
 30
0.0
 10
11.2799768228
 20
9.496177115
 30
0.0
 10
11.3120512329
 20
9.5073111191
 30
0.0
 10
11.3450258635
 20
9.5159679599
 30
0.0
 10
11.3787190454
 20
9.5221003741
 30
0.0
 10
11.4129452666
 20
9.5256750641
 30
0.0
 10
11.447516187
 20
9.526672817
 30
0.0
 10
11.4822416766
 20
9.5250885936
 30
0.0
 10
11.5169308531
 20
9.5209315308
 30
0.0
 10
11.5513931197
 20
9.5142248717
 30
0.0
 10
11.585439199
 20
9.505005827
 30
0.0
 10
11.6188821677
 20
9.4933253822
 30
0.0
 10
11.6515384625
 20
9.4792479786
 30
0.0
 10
11.6832288735
 20
9.4628511578
 30
0.0
 10
11.7137795114
 20
9.4442251331
 30
0.0
 10
11.7430227491
 20
9.4234722973
 30
0.0
 10
11.7707981251
 20
9.4007066606
 30
0.0
 10
11.7969532325
 20
9.3760532519
 30
0.0
 10
11.8213445379
 20
9.3496474219
 30
0.0
 10
11.8438381534
 20
9.3216341001
 30
0.0
 10
11.8643105646
 20
9.2921670101
 30
0.0
 10
11.8826493023
 20
9.2614078379
 30
0.0
 10
11.89875355
 20
9.2295253488
 30
0.0
 10
11.912534714
 20
9.1966945021
 30
0.0
 10
11.9239168979
 20
9.1630954283
 30
0.0
 10
11.9328373684
 20
9.1289127084
 30
0.0
 10
11.9392467115
 20
9.0943334081
 30
0.0
 10
11.9431095246
 20
9.0595498579
 30
0.0
 10
11.9439746944
 20
9.0362865846
 30
0.0
 10
11.9439746944
 20
9.0246887475
 30
0.0
  0
SPLINE
  5
375
100
AcDbEntity
  8
0
100
AcDbSpline
 62
7
  6
CONTINUOUS
 70
0
 71
3
 72
15
 73
11
 74
0
 42
0.0000001
 43
0.0000001
 44
0.0000000001
 40
0.0
 40
0.0
 40
0.0
 40
0.0
 40
0.1269873303
 40
0.2532774502
 40
0.3788770789
 40
0.5038631003
 40
0.6283497105
 40
0.7524620085
 40
0.8763139347
 40
1.0
 40
1.0
 40
1.0
 40
1.0
 10
11.2186901359
 20
9.4657606095
 30
0.0
 10
11.2125744232
 20
9.4565738872
 30
0.0
 10
11.2010008316
 20
9.4378254574
 30
0.0
 10
11.1857249832
 20
9.40862521
 30
0.0
 10
11.172678348
 20
9.3785499606
 30
0.0
 10
11.1619347093
 20
9.3477430682
 30
0.0
 10
11.1535417773
 20
9.3163481176
 30
0.0
 10
11.147529934
 20
9.2845113976
 30
0.0
 10
11.1439166774
 20
9.2523860693
 30
0.0
 10
11.1431124108
 20
9.230864437
 30
0.0
 10
11.1431124108
 20
9.2201151386
 30
0.0
  0
SPLINE
  5
376
100
AcDbEntity
  8
0
100
AcDbSpline
 62
7
  6
CONTINUOUS
 70
0
 71
3
 72
41
 73
37
 74
0
 42
0.0000001
 43
0.0000001
 44
0.0000000001
 40
0.0
 40
0.0
 40
0.0
 40
0.0
 40
0.0299421187
 40
0.0449237623
 40
0.0599145134
 40
0.0899291701
 40
0.1200146003
 40
0.1350933624
 40
0.1501974867
 40
0.1804849896
 40
0.2108989845
 40
0.2414526108
 40
0.2721557833
 40
0.3030150127
 40
0.3340333098
 40
0.3652101722
 40
0.3965416482
 40
0.4280204722
 40
0.4596362655
 40
0.4913757931
 40
0.5232232712
 40
0.5551607155
 40
0.5871683244
 40
0.6192248896
 40
0.6513082259
 40
0.6833956162
 40
0.715464263
 40
0.7474917407
 40
0.779456445
 40
0.8113380241
 40
0.8431178121
 40
0.8747791755
 40
0.9063080162
 40
0.9376926983
 40
0.9689252995
 40
1.0
 40
1.0
 40
1.0
 40
1.0
 10
11.2639478036
 20
6.0496122529
 30
0.0
 10
11.2675809435
 20
6.0531215676
 30
0.0
 10
11.2732448325
 20
6.0581728657
 30
0.0
 10
11.2811769377
 20
6.0644404738
 30
0.0
 10
11.2893616824
 20
6.0703961398
 30
0.0
 10
11.3000413834
 20
6.0772352294
 30
0.0
 10
11.3112403708
 20
6.0832173851
 30
0.0
 10
11.3204765772
 20
6.0874732087
 30
0.0
 10
11.3299036482
 20
6.0913775486
 30
0.0
 10
11.3419980888
 20
6.0955759449
 30
0.0
 10
11.3569026767
 20
6.0994886903
 30
0.0
 10
11.3721324755
 20
6.1022605775
 30
0.0
 10
11.3876030936
 20
6.1038762928
 30
0.0
 10
11.4032295454
 20
6.1043272191
 30
0.0
 10
11.4189258507
 20
6.1036110593
 30
0.0
 10
11.4346057391
 20
6.1017319502
 30
0.0
 10
11.4501830565
 20
6.0987004007
 30
0.0
 10
11.4655722502
 20
6.0945332347
 30
0.0
 10
11.4806888276
 20
6.0892534916
 30
0.0
 10
11.4954498156
 20
6.0828902977
 30
0.0
 10
11.5097742086
 20
6.0754787022
 30
0.0
 10
11.5235834075
 20
6.0670594845
 30
0.0
 10
11.5368016449
 20
6.0576789301
 30
0.0
 10
11.5493563952
 20
6.0473885779
 30
0.0
 10
11.5611787684
 20
6.0362449395
 30
0.0
 10
11.5722038835
 20
6.0243091909
 30
0.0
 10
11.5823712206
 20
6.0116468407
 30
0.0
 10
11.5916249508
 20
5.998327374
 30
0.0
 10
11.599914237
 20
5.9844238751
 30
0.0
 10
11.6071935185
 20
5.9700126302
 30
0.0
 10
11.6134227411
 20
5.9551727222
 30
0.0
 10
11.6185676211
 20
5.9399855634
 30
0.0
 10
11.6225997356
 20
5.9245346111
 30
0.0
 10
11.6254968731
 20
5.9089043421
 30
0.0
 10
11.6272428468
 20
5.893181793
 30
0.0
 10
11.6276339325
 20
5.882666516
 30
0.0
 10
11.6276339325
 20
5.8774242125
 30
0.0
  0
SPLINE
  5
377
100
AcDbEntity
  8
0
100
AcDbSpline
 62
7
  6
CONTINUOUS
 70
0
 71
3
 72
29
 73
25
 74
0
 42
0.0000001
 43
0.0000001
 44
0.0000000001
 40
0.0
 40
0.0
 40
0.0
 40
0.0
 40
0.0983475404
 40
0.191822953
 40
0.2801856754
 40
0.3632786971
 40
0.4410315907
 40
0.5134579312
 40
0.5806483243
 40
0.6427619581
 40
0.700020504
 40
0.7269287206
 40
0.7527346206
 40
0.8012009216
 40
0.8240001907
 40
0.8459164689
 40
0.8670217115
 40
0.8873962368
 40
0.907129481
 40
0.9263214637
 40
0.9450810585
 40
0.9635282463
 40
0.9817895819
 40
1.0
 40
1.0
 40
1.0
 40
1.0
 10
9.7023462864
 20
6.2209191398
 30
0.0
 10
9.6962158494
 20
6.217691732
 30
0.0
 10
9.6840141806
 20
6.2118464603
 30
0.0
 10
9.6655661996
 20
6.2047693658
 30
0.0
 10
9.6476212989
 20
6.1995588672
 30
0.0
 10
9.6303765181
 20
6.1961484453
 30
0.0
 10
9.6140083953
 20
6.1944416922
 30
0.0
 10
9.5986716787
 20
6.1943184455
 30
0.0
 10
9.5844964702
 20
6.1956409408
 30
0.0
 10
9.5715911578
 20
6.198259446
 30
0.0
 10
9.5617670521
 20
6.2014574849
 30
0.0
 10
9.5546553736
 20
6.2045427972
 30
0.0
 10
9.5483100385
 20
6.2077966694
 30
0.0
 10
9.5425399595
 20
6.2115170524
 30
0.0
 10
9.5374558135
 20
6.2156775613
 30
0.0
 10
9.534102625
 20
6.2188873445
 30
0.0
 10
9.531135889
 20
6.2222323766
 30
0.0
 10
9.5285582785
 20
6.2256962644
 30
0.0
 10
9.5263724711
 20
6.2292630307
 30
0.0
 10
9.5245807258
 20
6.2329172236
 30
0.0
 10
9.5231850613
 20
6.2366439473
 30
0.0
 10
9.5221871025
 20
6.2404288675
 30
0.0
 10
9.5215881791
 20
6.2442576198
 30
0.0
 10
9.5214555418
 20
6.2468288695
 30
0.0
 10
9.5214555015
 20
6.2481117018
 30
0.0
  0
SPLINE
  5
378
100
AcDbEntity
  8
0
100
AcDbSpline
 62
7
  6
CONTINUOUS
 70
0
 71
3
 72
39
 73
35
 74
0
 42
0.0000001
 43
0.0000001
 44
0.0000000001
 40
0.0
 40
0.0
 40
0.0
 40
0.0
 40
0.029942471
 40
0.0599093185
 40
0.089924325
 40
0.1200101043
 40
0.1501875632
 40
0.1804754155
 40
0.2108897611
 40
0.2414437393
 40
0.2721472649
 40
0.3030068482
 40
0.3340255005
 40
0.3652027199
 40
0.3965345553
 40
0.4280137416
 40
0.4596298994
 40
0.4913697937
 40
0.523217641
 40
0.5551554573
 40
0.5871634413
 40
0.619220384
 40
0.6513040994
 40
0.6833918697
 40
0.715460897
 40
0.7474887556
 40
0.7794538398
 40
0.8113357995
 40
0.8431159588
 40
0.874777715
 40
0.9063068673
 40
0.9376920959
 40
0.968924654
 40
1.0
 40
1.0
 40
1.0
 40
1.0
 10
8.9660459051
 20
8.6512718444
 30
0.0
 10
8.9740835995
 20
8.6590356545
 30
0.0
 10
8.9907910245
 20
8.6739366867
 30
0.0
 10
9.0175589098
 20
8.6942367078
 30
0.0
 10
9.0458967295
 20
8.7123836027
 30
0.0
 10
9.0756461403
 20
8.7282755792
 30
0.0
 10
9.1066435849
 20
8.7418258143
 30
0.0
 10
9.138717995
 20
8.7529598183
 30
0.0
 10
9.1716926255
 20
8.7616166591
 30
0.0
 10
9.2053858074
 20
8.7677490733
 30
0.0
 10
9.2396120286
 20
8.7713237634
 30
0.0
 10
9.2741829491
 20
8.7723215163
 30
0.0
 10
9.3089084387
 20
8.7707372928
 30
0.0
 10
9.3435976151
 20
8.76658023
 30
0.0
 10
9.3780598818
 20
8.759873571
 30
0.0
 10
9.4121059611
 20
8.7506545262
 30
0.0
 10
9.4455489297
 20
8.7389740814
 30
0.0
 10
9.4782052246
 20
8.7248966779
 30
0.0
 10
9.5098956356
 20
8.708499857
 30
0.0
 10
9.5404462735
 20
8.6898738323
 30
0.0
 10
9.5696895112
 20
8.6691209966
 30
0.0
 10
9.5974648872
 20
8.6463553598
 30
0.0
 10
9.6236199946
 20
8.6217019512
 30
0.0
 10
9.6480113
 20
8.5952961212
 30
0.0
 10
9.6705049155
 20
8.5672827994
 30
0.0
 10
9.6909773267
 20
8.5378157093
 30
0.0
 10
9.7093160644
 20
8.5070565371
 30
0.0
 10
9.725420312
 20
8.475174048
 30
0.0
 10
9.7392014761
 20
8.4423432013
 30
0.0
 10
9.75058366
 20
8.4087441275
 30
0.0
 10
9.7595041305
 20
8.3745614077
 30
0.0
 10
9.7659134736
 20
8.3399821073
 30
0.0
 10
9.7697762867
 20
8.3051985571
 30
0.0
 10
9.7706414564
 20
8.2819352838
 30
0.0
 10
9.7706414564
 20
8.2703374467
 30
0.0
  0
SPLINE
  5
379
100
AcDbEntity
  8
0
100
AcDbSpline
 62
7
  6
CONTINUOUS
 70
0
 71
3
 72
39
 73
35
 74
0
 42
0.0000001
 43
0.0000001
 44
0.0000000001
 40
0.0
 40
0.0
 40
0.0
 40
0.0
 40
0.029942471
 40
0.0599093185
 40
0.089924325
 40
0.1200101043
 40
0.1501875632
 40
0.1804754155
 40
0.2108897611
 40
0.2414437393
 40
0.2721472649
 40
0.3030068482
 40
0.3340255005
 40
0.3652027199
 40
0.3965345553
 40
0.4280137416
 40
0.4596298994
 40
0.4913697937
 40
0.523217641
 40
0.5551554573
 40
0.5871634413
 40
0.619220384
 40
0.6513040994
 40
0.6833918697
 40
0.715460897
 40
0.7474887556
 40
0.7794538398
 40
0.8113357995
 40
0.8431159588
 40
0.874777715
 40
0.9063068673
 40
0.9376920959
 40
0.968924654
 40
1.0
 40
1.0
 40
1.0
 40
1.0
 10
8.9660459051
 20
6.8401605825
 30
0.0
 10
8.9740835995
 20
6.8479243926
 30
0.0
 10
8.9907910245
 20
6.8628254248
 30
0.0
 10
9.0175589098
 20
6.8831254459
 30
0.0
 10
9.0458967295
 20
6.9012723408
 30
0.0
 10
9.0756461403
 20
6.9171643173
 30
0.0
 10
9.1066435849
 20
6.9307145524
 30
0.0
 10
9.138717995
 20
6.9418485564
 30
0.0
 10
9.1716926255
 20
6.9505053972
 30
0.0
 10
9.2053858074
 20
6.9566378114
 30
0.0
 10
9.2396120286
 20
6.9602125015
 30
0.0
 10
9.2741829491
 20
6.9612102544
 30
0.0
 10
9.3089084387
 20
6.9596260309
 30
0.0
 10
9.3435976151
 20
6.9554689681
 30
0.0
 10
9.3780598818
 20
6.9487623091
 30
0.0
 10
9.4121059611
 20
6.9395432643
 30
0.0
 10
9.4455489297
 20
6.9278628195
 30
0.0
 10
9.4782052246
 20
6.913785416
 30
0.0
 10
9.5098956356
 20
6.8973885951
 30
0.0
 10
9.5404462735
 20
6.8787625704
 30
0.0
 10
9.5696895112
 20
6.8580097347
 30
0.0
 10
9.5974648872
 20
6.8352440979
 30
0.0
 10
9.6236199946
 20
6.8105906893
 30
0.0
 10
9.6480113
 20
6.7841848593
 30
0.0
 10
9.6705049155
 20
6.7561715375
 30
0.0
 10
9.6909773267
 20
6.7267044474
 30
0.0
 10
9.7093160644
 20
6.6959452752
 30
0.0
 10
9.725420312
 20
6.6640627861
 30
0.0
 10
9.7392014761
 20
6.6312319394
 30
0.0
 10
9.75058366
 20
6.5976328656
 30
0.0
 10
9.7595041305
 20
6.5634501458
 30
0.0
 10
9.7659134736
 20
6.5288708454
 30
0.0
 10
9.7697762867
 20
6.4940872952
 30
0.0
 10
9.7706414564
 20
6.4708240219
 30
0.0
 10
9.7706414564
 20
6.4592261848
 30
0.0
  0
SPLINE
  5
37A
100
AcDbEntity
  8
0
100
AcDbSpline
 62
7
  6
CONTINUOUS
 70
0
 71
3
 72
35
 73
31
 74
0
 42
0.0000001
 43
0.0000001
 44
0.0000000001
 40
0.0
 40
0.0
 40
0.0
 40
0.0
 40
0.0615667161
 40
0.1237435085
 40
0.1550123456
 40
0.1863679229
 40
0.2177903911
 40
0.249262137
 40
0.3122811441
 40
0.3753531621
 40
0.4069026731
 40
0.4384522413
 40
0.4700012125
 40
0.5015498843
 40
0.5330988407
 40
0.5646481819
 40
0.5961967232
 40
0.6277412192
 40
0.6592756662
 40
0.6907906759
 40
0.7222729189
 40
0.7537047558
 40
0.7850642512
 40
0.8163253811
 40
0.8474584443
 40
0.8784307837
 40
0.9092076186
 40
0.9397527103
 40
0.9700291975
 40
1.0
 40
1.0
 40
1.0
 40
1.0
 10
11.9432422554
 20
7.2366210889
 30
0.0
 10
11.9285106215
 20
7.2378444133
 30
0.0
 10
11.8989938855
 20
7.2415823063
 30
0.0
 10
11.8625496524
 20
7.2493560684
 30
0.0
 10
11.8336860151
 20
7.2574336867
 30
0.0
 10
11.8122091272
 20
7.2644302303
 30
0.0
 10
11.791001643
 20
7.272346241
 30
0.0
 10
11.7631486385
 20
7.2841214369
 30
0.0
 10
11.7292859753
 20
7.3011040874
 30
0.0
 10
11.6970549053
 20
7.3210555012
 30
0.0
 10
11.6724647421
 20
7.3387651368
 30
0.0
 10
11.6546704441
 20
7.352914888
 30
0.0
 10
11.6375870272
 20
7.3679148819
 30
0.0
 10
11.6212723171
 20
7.383748102
 30
0.0
 10
11.6057854188
 20
7.4003925818
 30
0.0
 10
11.5911855152
 20
7.4178208158
 30
0.0
 10
11.5775311813
 20
7.4359985066
 30
0.0
 10
11.5648792179
 20
7.4548836851
 30
0.0
 10
11.5532832787
 20
7.4744260208
 30
0.0
 10
11.5427922101
 20
7.4945664232
 30
0.0
 10
11.5334482226
 20
7.5152370322
 30
0.0
 10
11.5252850716
 20
7.5363617484
 30
0.0
 10
11.5183263321
 20
7.5578572946
 30
0.0
 10
11.5125839865
 20
7.5796348048
 30
0.0
 10
11.5080575189
 20
7.6016018316
 30
0.0
 10
11.5047335687
 20
7.6236646362
 30
0.0
 10
11.5025862094
 20
7.6457304202
 30
0.0
 10
11.5015777525
 20
7.6677097547
 30
0.0
 10
11.5016600577
 20
7.6895173812
 30
0.0
 10
11.5024083741
 20
7.7039698464
 30
0.0
 10
11.502947212
 20
7.711145717
 30
0.0
  0
SPLINE
  5
37B
100
AcDbEntity
  8
0
100
AcDbSpline
 62
7
  6
CONTINUOUS
 70
0
 71
3
 72
39
 73
35
 74
0
 42
0.0000001
 43
0.0000001
 44
0.0000000001
 40
0.0
 40
0.0
 40
0.0
 40
0.0
 40
0.029942471
 40
0.0599093185
 40
0.089924325
 40
0.1200101043
 40
0.1501875632
 40
0.1804754155
 40
0.2108897611
 40
0.2414437393
 40
0.2721472649
 40
0.3030068482
 40
0.3340255005
 40
0.3652027199
 40
0.3965345553
 40
0.4280137416
 40
0.4596298994
 40
0.4913697937
 40
0.523217641
 40
0.5551554573
 40
0.5871634413
 40
0.619220384
 40
0.6513040994
 40
0.6833918697
 40
0.715460897
 40
0.7474887556
 40
0.7794538398
 40
0.8113357995
 40
0.8431159588
 40
0.874777715
 40
0.9063068673
 40
0.9376920959
 40
0.968924654
 40
1.0
 40
1.0
 40
1.0
 40
1.0
 10
11.139379143
 20
7.5945119984
 30
0.0
 10
11.1474168374
 20
7.6022758085
 30
0.0
 10
11.1641242624
 20
7.6171768407
 30
0.0
 10
11.1908921477
 20
7.6374768618
 30
0.0
 10
11.2192299674
 20
7.6556237567
 30
0.0
 10
11.2489793782
 20
7.6715157332
 30
0.0
 10
11.2799768228
 20
7.6850659683
 30
0.0
 10
11.3120512329
 20
7.6961999723
 30
0.0
 10
11.3450258635
 20
7.7048568131
 30
0.0
 10
11.3787190454
 20
7.7109892273
 30
0.0
 10
11.4129452666
 20
7.7145639174
 30
0.0
 10
11.447516187
 20
7.7155616703
 30
0.0
 10
11.4822416766
 20
7.7139774468
 30
0.0
 10
11.5169308531
 20
7.709820384
 30
0.0
 10
11.5513931197
 20
7.703113725
 30
0.0
 10
11.585439199
 20
7.6938946802
 30
0.0
 10
11.6188821677
 20
7.6822142354
 30
0.0
 10
11.6515384625
 20
7.6681368319
 30
0.0
 10
11.6832288735
 20
7.651740011
 30
0.0
 10
11.7137795114
 20
7.6331139863
 30
0.0
 10
11.7430227491
 20
7.6123611506
 30
0.0
 10
11.7707981251
 20
7.5895955138
 30
0.0
 10
11.7969532325
 20
7.5649421052
 30
0.0
 10
11.8213445379
 20
7.5385362752
 30
0.0
 10
11.8438381534
 20
7.5105229534
 30
0.0
 10
11.8643105646
 20
7.4810558633
 30
0.0
 10
11.8826493023
 20
7.4502966911
 30
0.0
 10
11.89875355
 20
7.418414202
 30
0.0
 10
11.912534714
 20
7.3855833553
 30
0.0
 10
11.9239168979
 20
7.3519842815
 30
0.0
 10
11.9328373684
 20
7.3178015617
 30
0.0
 10
11.9392467115
 20
7.2832222613
 30
0.0
 10
11.9431095246
 20
7.2484387111
 30
0.0
 10
11.9439746944
 20
7.2251754378
 30
0.0
 10
11.9439746944
 20
7.2135776007
 30
0.0
  0
SPLINE
  5
37C
100
AcDbEntity
  8
0
100
AcDbSpline
 62
7
  6
CONTINUOUS
 70
0
 71
3
 72
15
 73
11
 74
0
 42
0.0000001
 43
0.0000001
 44
0.0000000001
 40
0.0
 40
0.0
 40
0.0
 40
0.0
 40
0.1270599092
 40
0.2535876972
 40
0.3794596773
 40
0.5046596646
 40
0.6292357032
 40
0.7532657819
 40
0.8768310115
 40
1.0
 40
1.0
 40
1.0
 40
1.0
 10
11.2408912218
 20
7.6668649164
 30
0.0
 10
11.2357421767
 20
7.6582691442
 30
0.0
 10
11.2259946433
 20
7.640789553
 30
0.0
 10
11.213128375
 20
7.6137497532
 30
0.0
 10
11.2021361796
 20
7.5860509941
 30
0.0
 10
11.1930854921
 20
7.5578198211
 30
0.0
 10
11.1860173241
 20
7.5291775653
 30
0.0
 10
11.1809558687
 20
7.5002438639
 30
0.0
 10
11.1779140121
 20
7.4711416705
 30
0.0
 10
11.1772354505
 20
7.4516774584
 30
0.0
 10
11.1772354505
 20
7.4419643191
 30
0.0
  0
SPLINE
  5
37D
100
AcDbEntity
  8
0
100
AcDbSpline
 62
7
  6
CONTINUOUS
 70
0
 71
3
 72
28
 73
24
 74
0
 42
0.0000001
 43
0.0000001
 44
0.0000000001
 40
0.0
 40
0.0
 40
0.0
 40
0.0
 40
0.0755866975
 40
0.1466183099
 40
0.2134339436
 40
0.2764739714
 40
0.3362777568
 40
0.3934895668
 40
0.4213674672
 40
0.4488857431
 40
0.4761508838
 40
0.5032725981
 40
0.5303624663
 40
0.5575325387
 40
0.5848937538
 40
0.61255457
 40
0.6406197077
 40
0.6691888702
 40
0.7281861232
 40
0.7902480401
 40
0.8559432066
 40
0.9257365323
 40
1.0
 40
1.0
 40
1.0
 40
1.0
 10
13.5315437346
 20
9.2379131065
 30
0.0
 10
13.5291882575
 20
9.2356378902
 30
0.0
 10
13.5244805189
 20
9.2313643708
 30
0.0
 10
13.5171947603
 20
9.2256553059
 30
0.0
 10
13.5099176776
 20
9.2208604628
 30
0.0
 10
13.5026555488
 20
9.2169871449
 30
0.0
 10
13.4954154682
 20
9.2140422091
 30
0.0
 10
13.4893520257
 20
9.2123534949
 30
0.0
 10
13.4845474256
 20
9.2114895015
 30
0.0
 10
13.4809868172
 20
9.2110809799
 30
0.0
 10
13.4774399168
 20
9.2109068415
 30
0.0
 10
13.4739077517
 20
9.2109670952
 30
0.0
 10
13.470391518
 20
9.2112618292
 30
0.0
 10
13.4668923799
 20
9.2117909468
 30
0.0
 10
13.4634114647
 20
9.2125541644
 30
0.0
 10
13.4599499034
 20
9.2135511698
 30
0.0
 10
13.4565086923
 20
9.2147816781
 30
0.0
 10
13.4519003407
 20
9.2167535378
 30
0.0
 10
13.4461769421
 20
9.2198302455
 30
0.0
 10
13.439488691
 20
9.2244076251
 30
0.0
 10
13.4329106328
 20
9.2299021493
 30
0.0
 10
13.4264488454
 20
9.2363053612
 30
0.0
 10
13.4223534865
 20
9.2410232997
 30
0.0
 10
13.4203233152
 20
9.243519511
 30
0.0
  0
SPLINE
  5
37E
100
AcDbEntity
  8
0
100
AcDbSpline
 62
7
  6
CONTINUOUS
 70
0
 71
3
 72
39
 73
35
 74
0
 42
0.0000001
 43
0.0000001
 44
0.0000000001
 40
0.0
 40
0.0
 40
0.0
 40
0.0
 40
0.0314025961
 40
0.0630095117
 40
0.0948071013
 40
0.1267734468
 40
0.1588809726
 40
0.1910970221
 40
0.2233851126
 40
0.2557062443
 40
0.2880202666
 40
0.3202872754
 40
0.3524690059
 40
0.3845301832
 40
0.4164397932
 40
0.4481722491
 40
0.4797084079
 40
0.5110363805
 40
0.5421521194
 40
0.5730597416
 40
0.6037715202
 40
0.6343075557
 40
0.6646951111
 40
0.6949675901
 40
0.7251632182
 40
0.7553234778
 40
0.7854913545
 40
0.8157095094
 40
0.8460184692
 40
0.8764549219
 40
0.9070502403
 40
0.9378293108
 40
0.9688091314
 40
1.0
 40
1.0
 40
1.0
 40
1.0
 10
8.6380933354
 20
5.6732653259
 30
0.0
 10
8.646368059
 20
5.6726914719
 30
0.0
 10
8.6629257797
 20
5.6707245649
 30
0.0
 10
8.6874286747
 20
5.6653824897
 30
0.0
 10
8.7114566299
 20
5.6576905078
 30
0.0
 10
8.7347758804
 20
5.6477231499
 30
0.0
 10
8.7571634393
 20
5.6355767667
 30
0.0
 10
8.7784043349
 20
5.6213684233
 30
0.0
 10
8.798294825
 20
5.6052347291
 30
0.0
 10
8.8166440655
 20
5.5873307264
 30
0.0
 10
8.8332759974
 20
5.5678283534
 30
0.0
 10
8.8480308488
 20
5.5469147191
 30
0.0
 10
8.8607667634
 20
5.5247904636
 30
0.0
 10
8.8713612091
 20
5.5016678759
 30
0.0
 10
8.8797119568
 20
5.4777687982
 30
0.0
 10
8.8857381391
 20
5.4533226189
 30
0.0
 10
8.8893812038
 20
5.4285641478
 30
0.0
 10
8.8906052768
 20
5.4037313449
 30
0.0
 10
8.8893975789
 20
5.3790631335
 30
0.0
 10
8.8857688514
 20
5.3547971284
 30
0.0
 10
8.8797531098
 20
5.331167352
 30
0.0
 10
8.8714073809
 20
5.3084020279
 30
0.0
 10
8.8608114916
 20
5.2867212657
 30
0.0
 10
8.8480672143
 20
5.2663348835
 30
0.0
 10
8.8332972569
 20
5.2474403667
 30
0.0
 10
8.8166442888
 20
5.2302207255
 30
0.0
 10
8.7982694566
 20
5.2148426119
 30
0.0
 10
8.7783506348
 20
5.2014547585
 30
0.0
 10
8.75708076
 20
5.1901863609
 30
0.0
 10
8.734665752
 20
5.1811457509
 30
0.0
 10
8.7113226407
 20
5.1744195483
 30
0.0
 10
8.6872762737
 20
5.1700719908
 30
0.0
 10
8.6627616728
 20
5.1681435939
 30
0.0
 10
8.6463122679
 20
5.1684820298
 30
0.0
 10
8.6380933354
 20
5.1690520148
 30
0.0
  0
SPLINE
  5
37F
100
AcDbEntity
  8
0
100
AcDbSpline
 62
7
  6
CONTINUOUS
 70
0
 71
3
 72
11
 73
7
 74
0
 42
0.0000001
 43
0.0000001
 44
0.0000000001
 40
0.0
 40
0.0
 40
0.0
 40
0.0
 40
0.2515783484
 40
0.50208652
 40
0.7515457964
 40
1.0
 40
1.0
 40
1.0
 40
1.0
 10
9.1581828147
 20
6.8366365301
 30
0.0
 10
9.1581828147
 20
6.8462592293
 30
0.0
 10
9.1587754971
 20
6.8654690795
 30
0.0
 10
9.1614527484
 20
6.8941084882
 30
0.0
 10
9.1659059698
 20
6.9224051549
 30
0.0
 10
9.1700565211
 20
6.9410077854
 30
0.0
 10
9.1724217716
 20
6.9502119395
 30
0.0
  0
SPLINE
  5
380
100
AcDbEntity
  8
0
100
AcDbSpline
 62
7
  6
CONTINUOUS
 70
0
 71
3
 72
18
 73
14
 74
0
 42
0.0000001
 43
0.0000001
 44
0.0000000001
 40
0.0
 40
0.0
 40
0.0
 40
0.0
 40
0.1242282906
 40
0.248653721
 40
0.3732883691
 40
0.4981480114
 40
0.6232451998
 40
0.6858860909
 40
0.7485890217
 40
0.8113537064
 40
0.8741789328
 40
0.9370623326
 40
1.0
 40
1.0
 40
1.0
 40
1.0
 10
9.6418842849
 20
6.3353644004
 30
0.0
 10
9.6458241256
 20
6.3461650527
 30
0.0
 10
9.6539012827
 20
6.3677142697
 30
0.0
 10
9.6665840031
 20
6.3998499374
 30
0.0
 10
9.67982046
 20
6.4318247024
 30
0.0
 10
9.6935737535
 20
6.4636480057
 30
0.0
 10
9.7054131046
 20
6.4900449069
 30
0.0
 10
9.7150720543
 20
6.5111136683
 30
0.0
 10
9.7223999437
 20
6.5269049591
 30
0.0
 10
9.7297912687
 20
6.5426854618
 30
0.0
 10
9.7372267564
 20
6.5584636523
 30
0.0
 10
9.7446834076
 20
6.5742495471
 30
0.0
 10
9.7496485756
 20
6.5847821069
 30
0.0
 10
9.7521250611
 20
6.5900540276
 30
0.0
  0
SPLINE
  5
381
100
AcDbEntity
  8
0
100
AcDbSpline
 62
7
  6
CONTINUOUS
 70
0
 71
3
 72
37
 73
33
 74
0
 42
0.0000001
 43
0.0000001
 44
0.0000000001
 40
0.0
 40
0.0
 40
0.0
 40
0.0
 40
0.0306156353
 40
0.0613382003
 40
0.0921637848
 40
0.1230913038
 40
0.1541166294
 40
0.1852353218
 40
0.2164419548
 40
0.2477302423
 40
0.2790931586
 40
0.3105229671
 40
0.3420113107
 40
0.3735492947
 40
0.4051275706
 40
0.4367364205
 40
0.4999883406
 40
0.5632407057
 40
0.5948501076
 40
0.6264291492
 40
0.6579681057
 40
0.6894576196
 40
0.7208887856
 40
0.7522532338
 40
0.7835432136
 40
0.8147516832
 40
0.8458723394
 40
0.8768997371
 40
0.9078294165
 40
0.9386572291
 40
0.9693820678
 40
1.0
 40
1.0
 40
1.0
 40
1.0
 10
9.1581828147
 20
6.8366365301
 30
0.0
 10
9.1581828147
 20
6.8288027178
 30
0.0
 10
9.1585771111
 20
6.8131049518
 30
0.0
 10
9.1603424396
 20
6.7895793785
 30
0.0
 10
9.1632785228
 20
6.7660901352
 30
0.0
 10
9.1673775896
 20
6.7426973129
 30
0.0
 10
9.1726295341
 20
6.7194592089
 30
0.0
 10
9.1790210362
 20
6.696434342
 30
0.0
 10
9.1865359818
 20
6.673680486
 30
0.0
 10
9.1951554592
 20
6.6512547809
 30
0.0
 10
9.2048577912
 20
6.6292135337
 30
0.0
 10
9.2156186074
 20
6.6076121088
 30
0.0
 10
9.227410864
 20
6.586504699
 30
0.0
 10
9.2402047973
 20
6.5659444117
 30
0.0
 10
9.2539686904
 20
6.5459823998
 30
0.0
 10
9.2735682641
 20
6.520229782
 30
0.0
 10
9.3003108268
 20
6.4897874979
 30
0.0
 10
9.3297800506
 20
6.4619761072
 30
0.0
 10
9.3548175534
 20
6.441470176
 30
0.0
 10
9.3742763747
 20
6.4270026493
 30
0.0
 10
9.394367801
 20
6.4134830067
 30
0.0
 10
9.4150418419
 20
6.4009447706
 30
0.0
 10
9.4362464834
 20
6.3894195816
 30
0.0
 10
9.4579285301
 20
6.378936401
 30
0.0
 10
9.4800335198
 20
6.3695215604
 30
0.0
 10
9.502505952
 20
6.3611987339
 30
0.0
 10
9.5252893949
 20
6.3539888619
 30
0.0
 10
9.5483266832
 20
6.3479101116
 30
0.0
 10
9.5715598073
 20
6.3429778852
 30
0.0
 10
9.594930864
 20
6.3392043649
 30
0.0
 10
9.6183800743
 20
6.336599464
 30
0.0
 10
9.6340548897
 20
6.3356443911
 30
0.0
 10
9.6418842849
 20
6.3353644004
 30
0.0
  0
SPLINE
  5
382
100
AcDbEntity
  8
0
100
AcDbSpline
 62
7
  6
CONTINUOUS
 70
0
 71
3
 72
42
 73
38
 74
0
 42
0.0000001
 43
0.0000001
 44
0.0000000001
 40
0.0
 40
0.0
 40
0.0
 40
0.0
 40
0.084036824
 40
0.1695051652
 40
0.2553481512
 40
0.340500755
 40
0.4239093117
 40
0.4646387802
 40
0.5045507648
 40
0.5435241865
 40
0.5814419577
 40
0.6181915188
 40
0.6536654072
 40
0.6877619363
 40
0.7203860683
 40
0.7514501714
 40
0.7808749456
 40
0.8085906484
 40
0.8345387813
 40
0.8586739841
 40
0.8809666959
 40
0.8914192741
 40
0.9014095957
 40
0.9109403673
 40
0.9200164037
 40
0.928645065
 40
0.9368362317
 40
0.9446032749
 40
0.9519633261
 40
0.9589378364
 40
0.965553651
 40
0.9718432802
 40
0.97784576
 40
0.9836070658
 40
0.989179842
 40
0.9946229736
 40
1.0
 40
1.0
 40
1.0
 40
1.0
 10
14.0513126514
 20
11.1883313067
 30
0.0
 10
14.0513126514
 20
11.1795494453
 30
0.0
 10
14.0510370691
 20
11.1618351118
 30
0.0
 10
14.049841163
 20
11.1351745095
 30
0.0
 10
14.0478729963
 20
11.1084425861
 30
0.0
 10
14.04515858
 20
11.0819926197
 30
0.0
 10
14.0422826767
 20
11.0603078596
 30
0.0
 10
14.0396273708
 20
11.043370865
 30
0.0
 10
14.0374904093
 20
11.0310545083
 30
0.0
 10
14.0351994494
 20
11.0190648593
 30
0.0
 10
14.032762086
 20
11.0074415135
 30
0.0
 10
14.0301864473
 20
10.9962228712
 30
0.0
 10
14.0274811074
 20
10.9854459744
 30
0.0
 10
14.0246550683
 20
10.9751463829
 30
0.0
 10
14.0217177628
 20
10.9653580282
 30
0.0
 10
14.0186789905
 20
10.956113103
 30
0.0
 10
14.0155488796
 20
10.9474419405
 30
0.0
 10
14.0123378369
 20
10.9393729233
 30
0.0
 10
14.0090565255
 20
10.9319321946
 30
0.0
 10
14.0057157914
 20
10.9251440004
 30
0.0
 10
14.002832674
 20
10.9199423889
 30
0.0
 10
14.0004967068
 20
10.9161354353
 30
0.0
 10
13.9987744475
 20
10.9135184733
 30
0.0
 10
13.9970455349
 20
10.9110801648
 30
0.0
 10
13.9953112862
 20
10.9088224944
 30
0.0
 10
13.993573134
 20
10.9067472288
 30
0.0
 10
13.9918323364
 20
10.9048560838
 30
0.0
 10
13.9900902335
 20
10.903150558
 30
0.0
 10
13.9883481051
 20
10.9016320191
 30
0.0
 10
13.9866071003
 20
10.9003018322
 30
0.0
 10
13.9848684719
 20
10.8991611204
 30
0.0
 10
13.9831333437
 20
10.898211086
 30
0.0
 10
13.981402896
 20
10.8974529168
 30
0.0
 10
13.9796785005
 20
10.8968876397
 30
0.0
 10
13.9779615357
 20
10.8965164725
 30
0.0
 10
13.9762541134
 20
10.8963402437
 30
0.0
 10
13.9751205269
 20
10.8963531595
 30
0.0
 10
13.9745599733
 20
10.8963920365
 30
0.0
  0
SPLINE
  5
383
100
AcDbEntity
  8
0
100
AcDbSpline
 62
7
  6
CONTINUOUS
 70
0
 71
3
 72
42
 73
38
 74
0
 42
0.0000001
 43
0.0000001
 44
0.0000000001
 40
0.0
 40
0.0
 40
0.0
 40
0.0
 40
0.084036824
 40
0.1695051652
 40
0.2553481512
 40
0.340500755
 40
0.4239093117
 40
0.4646387802
 40
0.5045507648
 40
0.5435241865
 40
0.5814419577
 40
0.6181915188
 40
0.6536654072
 40
0.6877619363
 40
0.7203860683
 40
0.7514501714
 40
0.7808749456
 40
0.8085906484
 40
0.8345387813
 40
0.8586739841
 40
0.8809666959
 40
0.8914192741
 40
0.9014095957
 40
0.9109403673
 40
0.9200164037
 40
0.928645065
 40
0.9368362317
 40
0.9446032749
 40
0.9519633261
 40
0.9589378364
 40
0.965553651
 40
0.9718432802
 40
0.97784576
 40
0.9836070658
 40
0.989179842
 40
0.9946229736
 40
1.0
 40
1.0
 40
1.0
 40
1.0
 10
14.0513126514
 20
6.4804087683
 30
0.0
 10
14.0513126514
 20
6.4716269069
 30
0.0
 10
14.0510370691
 20
6.4539125733
 30
0.0
 10
14.049841163
 20
6.4272519711
 30
0.0
 10
14.0478729963
 20
6.4005200476
 30
0.0
 10
14.04515858
 20
6.3740700813
 30
0.0
 10
14.0422826767
 20
6.3523853211
 30
0.0
 10
14.0396273708
 20
6.3354483265
 30
0.0
 10
14.0374904093
 20
6.3231319699
 30
0.0
 10
14.0351994494
 20
6.3111423209
 30
0.0
 10
14.032762086
 20
6.2995189751
 30
0.0
 10
14.0301864473
 20
6.2883003327
 30
0.0
 10
14.0274811074
 20
6.2775234359
 30
0.0
 10
14.0246550683
 20
6.2672238445
 30
0.0
 10
14.0217177628
 20
6.2574354898
 30
0.0
 10
14.0186789905
 20
6.2481905646
 30
0.0
 10
14.0155488796
 20
6.2395194021
 30
0.0
 10
14.0123378369
 20
6.2314503848
 30
0.0
 10
14.0090565255
 20
6.2240096561
 30
0.0
 10
14.0057157914
 20
6.217221462
 30
0.0
 10
14.002832674
 20
6.2120198505
 30
0.0
 10
14.0004967068
 20
6.2082128969
 30
0.0
 10
13.9987744475
 20
6.2055959349
 30
0.0
 10
13.9970455349
 20
6.2031576264
 30
0.0
 10
13.9953112862
 20
6.200899956
 30
0.0
 10
13.993573134
 20
6.1988246903
 30
0.0
 10
13.9918323364
 20
6.1969335453
 30
0.0
 10
13.9900902335
 20
6.1952280195
 30
0.0
 10
13.9883481051
 20
6.1937094807
 30
0.0
 10
13.9866071003
 20
6.1923792938
 30
0.0
 10
13.9848684719
 20
6.1912385819
 30
0.0
 10
13.9831333437
 20
6.1902885476
 30
0.0
 10
13.981402896
 20
6.1895303784
 30
0.0
 10
13.9796785005
 20
6.1889651013
 30
0.0
 10
13.9779615357
 20
6.188593934
 30
0.0
 10
13.9762541134
 20
6.1884177053
 30
0.0
 10
13.9751205269
 20
6.1884306211
 30
0.0
 10
13.9745599733
 20
6.1884694981
 30
0.0
  0
SPLINE
  5
384
100
AcDbEntity
  8
0
100
AcDbSpline
 62
7
  6
CONTINUOUS
 70
0
 71
3
 72
39
 73
35
 74
0
 42
0.0000001
 43
0.0000001
 44
0.0000000001
 40
0.0
 40
0.0
 40
0.0
 40
0.0
 40
0.0314025961
 40
0.0630095117
 40
0.0948071013
 40
0.1267734468
 40
0.1588809726
 40
0.1910970221
 40
0.2233851126
 40
0.2557062443
 40
0.2880202666
 40
0.3202872754
 40
0.3524690059
 40
0.3845301832
 40
0.4164397932
 40
0.4481722491
 40
0.4797084079
 40
0.5110363805
 40
0.5421521194
 40
0.5730597416
 40
0.6037715202
 40
0.6343075557
 40
0.6646951111
 40
0.6949675901
 40
0.7251632182
 40
0.7553234778
 40
0.7854913545
 40
0.8157095094
 40
0.8460184692
 40
0.8764549219
 40
0.9070502403
 40
0.9378293108
 40
0.9688091314
 40
1.0
 40
1.0
 40
1.0
 40
1.0
 10
8.6380933354
 20
5.1690520148
 30
0.0
 10
8.6298186119
 20
5.1696258688
 30
0.0
 10
8.6132608912
 20
5.1715927758
 30
0.0
 10
8.5887579962
 20
5.176934851
 30
0.0
 10
8.564730041
 20
5.1846268329
 30
0.0
 10
8.5414107905
 20
5.1945941908
 30
0.0
 10
8.5190232316
 20
5.206740574
 30
0.0
 10
8.497782336
 20
5.2209489174
 30
0.0
 10
8.4778918459
 20
5.2370826116
 30
0.0
 10
8.4595426054
 20
5.2549866143
 30
0.0
 10
8.4429106735
 20
5.2744889873
 30
0.0
 10
8.4281558221
 20
5.2954026216
 30
0.0
 10
8.4154199075
 20
5.3175268771
 30
0.0
 10
8.4048254618
 20
5.3406494648
 30
0.0
 10
8.3964747141
 20
5.3645485425
 30
0.0
 10
8.3904485318
 20
5.3889947218
 30
0.0
 10
8.3868054671
 20
5.4137531929
 30
0.0
 10
8.385581394
 20
5.4385859958
 30
0.0
 10
8.386789092
 20
5.4632542072
 30
0.0
 10
8.3904178195
 20
5.4875202123
 30
0.0
 10
8.396433561
 20
5.5111499887
 30
0.0
 10
8.40477929
 20
5.5339153128
 30
0.0
 10
8.4153751793
 20
5.555596075
 30
0.0
 10
8.4281194566
 20
5.5759824572
 30
0.0
 10
8.442889414
 20
5.594876974
 30
0.0
 10
8.4595423821
 20
5.6120966152
 30
0.0
 10
8.4779172143
 20
5.6274747288
 30
0.0
 10
8.4978360361
 20
5.6408625822
 30
0.0
 10
8.5191059108
 20
5.6521309798
 30
0.0
 10
8.5415209189
 20
5.6611715898
 30
0.0
 10
8.5648640301
 20
5.6678977924
 30
0.0
 10
8.5889103972
 20
5.6722453499
 30
0.0
 10
8.6134249981
 20
5.6741737468
 30
0.0
 10
8.629874403
 20
5.6738353109
 30
0.0
 10
8.6380933354
 20
5.6732653259
 30
0.0
  0
SPLINE
  5
385
100
AcDbEntity
  8
0
100
AcDbSpline
 62
7
  6
CONTINUOUS
 70
0
 71
3
 72
39
 73
35
 74
0
 42
0.0000001
 43
0.0000001
 44
0.0000000001
 40
0.0
 40
0.0
 40
0.0
 40
0.0
 40
0.0314025961
 40
0.0630095117
 40
0.0948071013
 40
0.1267734468
 40
0.1588809726
 40
0.1910970221
 40
0.2233851126
 40
0.2557062443
 40
0.2880202666
 40
0.3202872754
 40
0.3524690059
 40
0.3845301832
 40
0.4164397932
 40
0.4481722491
 40
0.4797084079
 40
0.5110363805
 40
0.5421521194
 40
0.5730597416
 40
0.6037715202
 40
0.6343075557
 40
0.6646951111
 40
0.6949675901
 40
0.7251632182
 40
0.7553234778
 40
0.7854913545
 40
0.8157095094
 40
0.8460184692
 40
0.8764549219
 40
0.9070502403
 40
0.9378293108
 40
0.9688091314
 40
1.0
 40
1.0
 40
1.0
 40
1.0
 10
8.6380933354
 20
7.6949479072
 30
0.0
 10
8.646368059
 20
7.6943740532
 30
0.0
 10
8.6629257797
 20
7.6924071462
 30
0.0
 10
8.6874286747
 20
7.687065071
 30
0.0
 10
8.7114566299
 20
7.679373089
 30
0.0
 10
8.7347758804
 20
7.6694057312
 30
0.0
 10
8.7571634393
 20
7.657259348
 30
0.0
 10
8.7784043349
 20
7.6430510046
 30
0.0
 10
8.798294825
 20
7.6269173103
 30
0.0
 10
8.8166440655
 20
7.6090133077
 30
0.0
 10
8.8332759974
 20
7.5895109347
 30
0.0
 10
8.8480308488
 20
7.5685973004
 30
0.0
 10
8.8607667634
 20
7.5464730449
 30
0.0
 10
8.8713612091
 20
7.5233504572
 30
0.0
 10
8.8797119568
 20
7.4994513794
 30
0.0
 10
8.8857381391
 20
7.4750052002
 30
0.0
 10
8.8893812038
 20
7.4502467291
 30
0.0
 10
8.8906052768
 20
7.4254139261
 30
0.0
 10
8.8893975789
 20
7.4007457148
 30
0.0
 10
8.8857688514
 20
7.3764797097
 30
0.0
 10
8.8797531098
 20
7.3528499332
 30
0.0
 10
8.8714073809
 20
7.3300846092
 30
0.0
 10
8.8608114916
 20
7.308403847
 30
0.0
 10
8.8480672143
 20
7.2880174648
 30
0.0
 10
8.8332972569
 20
7.269122948
 30
0.0
 10
8.8166442888
 20
7.2519033067
 30
0.0
 10
8.7982694566
 20
7.2365251931
 30
0.0
 10
8.7783506348
 20
7.2231373398
 30
0.0
 10
8.75708076
 20
7.2118689422
 30
0.0
 10
8.734665752
 20
7.2028283322
 30
0.0
 10
8.7113226407
 20
7.1961021296
 30
0.0
 10
8.6872762737
 20
7.1917545721
 30
0.0
 10
8.6627616728
 20
7.1898261752
 30
0.0
 10
8.6463122679
 20
7.1901646111
 30
0.0
 10
8.6380933354
 20
7.190734596
 30
0.0
  0
SPLINE
  5
386
100
AcDbEntity
  8
0
100
AcDbSpline
 62
7
  6
CONTINUOUS
 70
0
 71
3
 72
23
 73
19
 74
0
 42
0.0000001
 43
0.0000001
 44
0.0000000001
 40
0.0
 40
0.0
 40
0.0
 40
0.0
 40
0.0755970481
 40
0.1466395192
 40
0.2134651039
 40
0.2765141432
 40
0.3363266137
 40
0.3935468688
 40
0.4489231172
 40
0.5032882226
 40
0.5575261408
 40
0.6125274601
 40
0.6691434874
 40
0.7281489695
 40
0.7902195499
 40
0.8559235776
 40
0.9257266248
 40
1.0
 40
1.0
 40
1.0
 40
1.0
 10
13.5315437346
 20
6.7458245573
 30
0.0
 10
13.5296607733
 20
6.7440057563
 30
0.0
 10
13.5258973822
 20
6.7405895003
 30
0.0
 10
13.5200731455
 20
6.7360256267
 30
0.0
 10
13.5142557653
 20
6.7321925952
 30
0.0
 10
13.5084505303
 20
6.7290962304
 30
0.0
 10
13.5026623493
 20
6.7267420091
 30
0.0
 10
13.4968971199
 20
6.7251359438
 30
0.0
 10
13.491162471
 20
6.7242834407
 30
0.0
 10
13.4854679162
 20
6.7241887721
 30
0.0
 10
13.4798244041
 20
6.7248531304
 30
0.0
 10
13.4742428909
 20
6.7262747026
 30
0.0
 10
13.4687328364
 20
6.7284485904
 30
0.0
 10
13.4633015462
 20
6.7313684772
 30
0.0
 10
13.4579545544
 20
6.735027727
 30
0.0
 10
13.4526960951
 20
6.7394198911
 30
0.0
 10
13.4475305362
 20
6.7445386093
 30
0.0
 10
13.4442566462
 20
6.7483100365
 30
0.0
 10
13.4426337297
 20
6.7503054856
 30
0.0
  0
SPLINE
  5
387
100
AcDbEntity
  8
0
100
AcDbSpline
 62
7
  6
CONTINUOUS
 70
0
 71
3
 72
20
 73
16
 74
0
 42
0.0000001
 43
0.0000001
 44
0.0000000001
 40
0.0
 40
0.0
 40
0.0
 40
0.0
 40
0.1505522635
 40
0.2945655767
 40
0.4315979367
 40
0.4973715552
 40
0.5612541025
 40
0.6232030598
 40
0.6831800581
 40
0.7411500105
 40
0.7970826172
 40
0.8509516795
 40
0.9027366506
 40
0.9524222304
 40
1.0
 40
1.0
 40
1.0
 40
1.0
 10
9.7443852522
 20
6.3070488119
 30
0.0
 10
9.7357163599
 20
6.3054506294
 30
0.0
 10
9.7187896025
 20
6.3021316649
 30
0.0
 10
9.6941185389
 20
6.2966480526
 30
0.0
 10
9.6744213793
 20
6.2916972122
 30
0.0
 10
9.6593697081
 20
6.2875391888
 30
0.0
 10
9.6486055074
 20
6.284376516
 30
0.0
 10
9.6382213382
 20
6.2811299997
 30
0.0
 10
9.6282269144
 20
6.2778027527
 30
0.0
 10
9.6186316149
 20
6.2743978365
 30
0.0
 10
9.6094444027
 20
6.270918538
 30
0.0
 10
9.6006738861
 20
6.2673680547
 30
0.0
 10
9.5923282002
 20
6.2637497796
 30
0.0
 10
9.5844152355
 20
6.2600670847
 30
0.0
 10
9.5793226276
 20
6.2575158912
 30
0.0
 10
9.5768523763
 20
6.2562282115
 30
0.0
  0
SPLINE
  5
388
100
AcDbEntity
  8
0
100
AcDbSpline
 62
7
  6
CONTINUOUS
 70
0
 71
3
 72
18
 73
14
 74
0
 42
0.0000001
 43
0.0000001
 44
0.0000000001
 40
0.0
 40
0.0
 40
0.0
 40
0.0
 40
0.1468363965
 40
0.2881357126
 40
0.4235044177
 40
0.5525791734
 40
0.6750308999
 40
0.7336828382
 40
0.7905740477
 40
0.8456751597
 40
0.8989606769
 40
0.950408296
 40
1.0
 40
1.0
 40
1.0
 40
1.0
 10
9.7399231022
 20
6.2956500357
 30
0.0
 10
9.7309113273
 20
6.2941227111
 30
0.0
 10
9.7132573707
 20
6.2909459153
 30
0.0
 10
9.6874197211
 20
6.2857012094
 30
0.0
 10
9.6627933551
 20
6.2800814894
 30
0.0
 10
9.6394600314
 20
6.2741056031
 30
0.0
 10
9.6208997658
 20
6.2687719384
 30
0.0
 10
9.6067664312
 20
6.2643286011
 30
0.0
 10
9.5966892866
 20
6.2609676048
 30
0.0
 10
9.5869906536
 20
6.2575329589
 30
0.0
 10
9.5776785053
 20
6.2540275452
 30
0.0
 10
9.5687606134
 20
6.2504542633
 30
0.0
 10
9.5629761444
 20
6.2479831291
 30
0.0
 10
9.560152644
 20
6.2467351928
 30
0.0
  0
SPLINE
  5
389
100
AcDbEntity
  8
0
100
AcDbSpline
 62
7
  6
CONTINUOUS
 70
0
 71
3
 72
39
 73
35
 74
0
 42
0.0000001
 43
0.0000001
 44
0.0000000001
 40
0.0
 40
0.0
 40
0.0
 40
0.0
 40
0.0314025961
 40
0.0630095117
 40
0.0948071013
 40
0.1267734468
 40
0.1588809726
 40
0.1910970221
 40
0.2233851126
 40
0.2557062443
 40
0.2880202666
 40
0.3202872754
 40
0.3524690059
 40
0.3845301832
 40
0.4164397932
 40
0.4481722491
 40
0.4797084079
 40
0.5110363805
 40
0.5421521194
 40
0.5730597416
 40
0.6037715202
 40
0.6343075557
 40
0.6646951111
 40
0.6949675901
 40
0.7251632182
 40
0.7553234778
 40
0.7854913545
 40
0.8157095094
 40
0.8460184692
 40
0.8764549219
 40
0.9070502403
 40
0.9378293108
 40
0.9688091314
 40
1.0
 40
1.0
 40
1.0
 40
1.0
 10
8.6380933354
 20
7.190734596
 30
0.0
 10
8.6298186119
 20
7.1913084501
 30
0.0
 10
8.6132608912
 20
7.1932753571
 30
0.0
 10
8.5887579962
 20
7.1986174323
 30
0.0
 10
8.564730041
 20
7.2063094142
 30
0.0
 10
8.5414107905
 20
7.2162767721
 30
0.0
 10
8.5190232316
 20
7.2284231552
 30
0.0
 10
8.497782336
 20
7.2426314987
 30
0.0
 10
8.4778918459
 20
7.2587651929
 30
0.0
 10
8.4595426054
 20
7.2766691955
 30
0.0
 10
8.4429106735
 20
7.2961715686
 30
0.0
 10
8.4281558221
 20
7.3170852029
 30
0.0
 10
8.4154199075
 20
7.3392094584
 30
0.0
 10
8.4048254618
 20
7.362332046
 30
0.0
 10
8.3964747141
 20
7.3862311238
 30
0.0
 10
8.3904485318
 20
7.410677303
 30
0.0
 10
8.3868054671
 20
7.4354357741
 30
0.0
 10
8.385581394
 20
7.4602685771
 30
0.0
 10
8.386789092
 20
7.4849367884
 30
0.0
 10
8.3904178195
 20
7.5092027936
 30
0.0
 10
8.396433561
 20
7.53283257
 30
0.0
 10
8.40477929
 20
7.5555978941
 30
0.0
 10
8.4153751793
 20
7.5772786562
 30
0.0
 10
8.4281194566
 20
7.5976650384
 30
0.0
 10
8.442889414
 20
7.6165595553
 30
0.0
 10
8.4595423821
 20
7.6337791965
 30
0.0
 10
8.4779172143
 20
7.6491573101
 30
0.0
 10
8.4978360361
 20
7.6625451635
 30
0.0
 10
8.5191059108
 20
7.6738135611
 30
0.0
 10
8.5415209189
 20
7.682854171
 30
0.0
 10
8.5648640301
 20
7.6895803737
 30
0.0
 10
8.5889103972
 20
7.6939279311
 30
0.0
 10
8.6134249981
 20
7.6958563281
 30
0.0
 10
8.629874403
 20
7.6955178921
 30
0.0
 10
8.6380933354
 20
7.6949479072
 30
0.0
  0
SPLINE
  5
38A
100
AcDbEntity
  8
0
100
AcDbSpline
 62
7
  6
CONTINUOUS
 70
0
 71
3
 72
15
 73
11
 74
0
 42
0.0000001
 43
0.0000001
 44
0.0000000001
 40
0.0
 40
0.0
 40
0.0
 40
0.0
 40
0.1273481407
 40
0.2538605842
 40
0.3795879627
 40
0.5046050991
 40
0.6290174438
 40
0.7529533592
 40
0.8765605627
 40
1.0
 40
1.0
 40
1.0
 40
1.0
 10
8.5023807488
 20
9.2633640982
 30
0.0
 10
8.5023807488
 20
9.2676912713
 30
0.0
 10
8.5027939117
 20
9.2763232039
 30
0.0
 10
8.5046624018
 20
9.2891050827
 30
0.0
 10
8.5077606856
 20
9.301565795
 30
0.0
 10
8.5120607769
 20
9.3135887923
 30
0.0
 10
8.5175231922
 20
9.3250632083
 30
0.0
 10
8.5240981623
 20
9.3358830787
 30
0.0
 10
8.531723839
 20
9.345947039
 30
0.0
 10
8.5374656163
 20
9.3520946287
 30
0.0
 10
8.5404824447
 20
9.3550086282
 30
0.0
  0
SPLINE
  5
38B
100
AcDbEntity
  8
0
100
AcDbSpline
 62
7
  6
CONTINUOUS
 70
0
 71
3
 72
14
 73
10
 74
0
 42
0.0000001
 43
0.0000001
 44
0.0000000001
 40
0.0
 40
0.0
 40
0.0
 40
0.0
 40
0.2599132226
 40
0.3863064035
 40
0.5108482221
 40
0.6339981032
 40
0.7562442714
 40
0.8780802898
 40
1.0
 40
1.0
 40
1.0
 40
1.0
 10
11.5698449599
 20
8.869383411
 30
0.0
 10
11.5723666446
 20
8.8718191714
 30
0.0
 10
11.5759289422
 20
8.8756421205
 30
0.0
 10
11.5801664883
 20
8.881079734
 30
0.0
 10
11.5830268523
 20
8.8852407266
 30
0.0
 10
11.5855989983
 20
8.8895204216
 30
0.0
 10
11.5878859395
 20
8.8939181121
 30
0.0
 10
11.5898906713
 20
8.8984329985
 30
0.0
 10
11.591040503
 20
8.9015159189
 30
0.0
 10
11.5915691519
 20
8.9030732106
 30
0.0
  0
SPLINE
  5
38C
100
AcDbEntity
  8
0
100
AcDbSpline
 62
7
  6
CONTINUOUS
 70
0
 71
3
 72
39
 73
35
 74
0
 42
0.0000001
 43
0.0000001
 44
0.0000000001
 40
0.0
 40
0.0
 40
0.0
 40
0.0
 40
0.0939604541
 40
0.1860750312
 40
0.2756730323
 40
0.3193263071
 40
0.3621106202
 40
0.4039502858
 40
0.444772073
 40
0.4845055747
 40
0.5230833458
 40
0.5604411842
 40
0.5965186235
 40
0.6312591741
 40
0.6646106664
 40
0.6965259118
 40
0.7269632336
 40
0.755887031
 40
0.7832687962
 40
0.8090882897
 40
0.8333347797
 40
0.8560089931
 40
0.877125763
 40
0.8967171211
 40
0.9148366574
 40
0.931565363
 40
0.9470185163
 40
0.9613534
 40
0.9681681964
 40
0.9747853613
 40
0.9812390467
 40
0.9875663024
 40
0.9938063675
 40
1.0
 40
1.0
 40
1.0
 40
1.0
 10
11.1915467026
 20
9.0236509847
 30
0.0
 10
11.2051782404
 20
9.0231297624
 30
0.0
 10
11.2321627224
 20
9.0217836175
 30
0.0
 10
11.2720800653
 20
9.0188243239
 30
0.0
 10
11.3046423879
 20
9.0155799456
 30
0.0
 10
11.3300175329
 20
9.0125270152
 30
0.0
 10
11.3484754845
 20
9.0100426772
 30
0.0
 10
11.3664884981
 20
9.0073489119
 30
0.0
 10
11.3840210727
 20
9.0044510139
 30
0.0
 10
11.4010386341
 20
9.0013547727
 30
0.0
 10
11.4175076401
 20
8.998066337
 30
0.0
 10
11.4333956365
 20
8.9945922152
 30
0.0
 10
11.4486713474
 20
8.9909393317
 30
0.0
 10
11.4633047268
 20
8.9871149552
 30
0.0
 10
11.4772670113
 20
8.9831266568
 30
0.0
 10
11.4905308117
 20
8.9789823629
 30
0.0
 10
11.5030701724
 20
8.9746903127
 30
0.0
 10
11.5148606086
 20
8.9702589772
 30
0.0
 10
11.5258791952
 20
8.9656970788
 30
0.0
 10
11.5361046499
 20
8.9610135792
 30
0.0
 10
11.5455173542
 20
8.9562175389
 30
0.0
 10
11.5540994189
 20
8.9513180453
 30
0.0
 10
11.5618347749
 20
8.9463241903
 30
0.0
 10
11.5687091318
 20
8.9412447417
 30
0.0
 10
11.5747097711
 20
8.936088045
 30
0.0
 10
11.5798255706
 20
8.9308613439
 30
0.0
 10
11.5840455458
 20
8.9255722561
 30
0.0
 10
11.5868531852
 20
8.9210412267
 30
0.0
 10
11.5886088551
 20
8.9174089473
 30
0.0
 10
11.5896732992
 20
8.9147222851
 30
0.0
 10
11.5905066301
 20
8.9120290756
 30
0.0
 10
11.5911080523
 20
8.9093305851
 30
0.0
 10
11.5914770141
 20
8.9066287959
 30
0.0
 10
11.591567969
 20
8.9048232992
 30
0.0
 10
11.5915745061
 20
8.9039241103
 30
0.0
  0
SPLINE
  5
38D
100
AcDbEntity
  8
0
100
AcDbSpline
 62
7
  6
CONTINUOUS
 70
0
 71
3
 72
15
 73
11
 74
0
 42
0.0000001
 43
0.0000001
 44
0.0000000001
 40
0.0
 40
0.0
 40
0.0
 40
0.0
 40
0.1273481407
 40
0.2538605842
 40
0.3795879627
 40
0.5046050991
 40
0.6290174438
 40
0.7529533592
 40
0.8765605627
 40
1.0
 40
1.0
 40
1.0
 40
1.0
 10
12.1854561652
 20
6.5332396868
 30
0.0
 10
12.1854561652
 20
6.5375668599
 30
0.0
 10
12.1858693281
 20
6.5461987925
 30
0.0
 10
12.1877378183
 20
6.5589806713
 30
0.0
 10
12.190836102
 20
6.5714413836
 30
0.0
 10
12.1951361933
 20
6.5834643809
 30
0.0
 10
12.2005986086
 20
6.5949387969
 30
0.0
 10
12.2071735787
 20
6.6057586673
 30
0.0
 10
12.2147992555
 20
6.6158226276
 30
0.0
 10
12.2205410327
 20
6.6219702173
 30
0.0
 10
12.2235578612
 20
6.6248842169
 30
0.0
  0
SPLINE
  5
38E
100
AcDbEntity
  8
0
100
AcDbSpline
 62
7
  6
CONTINUOUS
 70
0
 71
3
 72
43
 73
39
 74
0
 42
0.0000001
 43
0.0000001
 44
0.0000000001
 40
0.0
 40
0.0
 40
0.0
 40
0.0
 40
0.0139273485
 40
0.0212639963
 40
0.028885624
 40
0.0368180197
 40
0.0450839196
 40
0.0537031506
 40
0.0626928444
 40
0.0720675566
 40
0.0818395587
 40
0.0920185845
 40
0.1026123588
 40
0.1136263354
 40
0.1250639762
 40
0.1369268549
 40
0.1492143873
 40
0.1619244998
 40
0.1750528184
 40
0.2025394357
 40
0.2316076538
 40
0.2621662547
 40
0.2941030127
 40
0.3272890788
 40
0.361583939
 40
0.3968407322
 40
0.4329116585
 40
0.4696528566
 40
0.506928353
 40
0.5446130273
 40
0.5825945202
 40
0.6207740548
 40
0.6590664855
 40
0.6973996105
 40
0.7739438815
 40
0.850049773
 40
0.9254641632
 40
1.0
 40
1.0
 40
1.0
 40
1.0
 10
11.5915753337
 20
8.903928304
 30
0.0
 10
11.5915750574
 20
8.9066722965
 30
0.0
 10
11.5912801123
 20
8.9108662169
 30
0.0
 10
11.590387134
 20
8.9164883244
 30
0.0
 10
11.589438342
 20
8.9208997769
 30
0.0
 10
11.5882244023
 20
8.9254348171
 30
0.0
 10
11.5867480495
 20
8.9300977964
 30
0.0
 10
11.585012627
 20
8.9348925583
 30
0.0
 10
11.5830214578
 20
8.9398230983
 30
0.0
 10
11.5807790365
 20
8.9448937443
 30
0.0
 10
11.5782896739
 20
8.950108573
 30
0.0
 10
11.5755588972
 20
8.9554719708
 30
0.0
 10
11.5725923792
 20
8.9609880222
 30
0.0
 10
11.5693966885
 20
8.9666608522
 30
0.0
 10
11.5659790515
 20
8.9724944318
 30
0.0
 10
11.562347228
 20
8.9784924018
 30
0.0
 10
11.5585099996
 20
8.9846583801
 30
0.0
 10
11.5544765288
 20
8.9909953787
 30
0.0
 10
11.5487626696
 20
8.9998120696
 30
0.0
 10
11.5411847186
 20
9.0112606436
 30
0.0
 10
11.5316227473
 20
9.0255135639
 30
0.0
 10
11.5215626236
 20
9.0404881009
 30
0.0
 10
11.5111167763
 20
9.0561808282
 30
0.0
 10
11.5004033071
 20
9.0725791271
 30
0.0
 10
11.489543415
 20
9.0896616219
 30
0.0
 10
11.478658412
 20
9.1073990113
 30
0.0
 10
11.4678669243
 20
9.1257552978
 30
0.0
 10
11.4572824129
 20
9.1446892078
 30
0.0
 10
11.4470112156
 20
9.1641556367
 30
0.0
 10
11.4371511911
 20
9.1841069737
 30
0.0
 10
11.4277909121
 20
9.2044942669
 30
0.0
 10
11.4190094307
 20
9.225267912
 30
0.0
 10
11.4108762162
 20
9.246378883
 30
0.0
 10
11.40098265
 20
9.2748937817
 30
0.0
 10
11.3905320362
 20
9.3110787027
 30
0.0
 10
11.3813457168
 20
9.3551094537
 30
0.0
 10
11.3757386855
 20
9.3993402671
 30
0.0
 10
11.3744634401
 20
9.4288978946
 30
0.0
 10
11.3744634401
 20
9.443583086
 30
0.0
  0
SPLINE
  5
38F
100
AcDbEntity
  8
0
100
AcDbSpline
 62
7
  6
CONTINUOUS
 70
0
 71
3
 72
37
 73
33
 74
0
 42
0.0000001
 43
0.0000001
 44
0.0000000001
 40
0.0
 40
0.0
 40
0.0
 40
0.0
 40
0.0063681612
 40
0.0127757182
 40
0.0192612772
 40
0.0258619598
 40
0.0395375624
 40
0.0540607344
 40
0.0696338692
 40
0.0864147068
 40
0.1045218663
 40
0.1240412277
 40
0.1450323534
 40
0.1675337734
 40
0.1915668526
 40
0.2171392387
 40
0.2442473106
 40
0.2728777863
 40
0.303009439
 40
0.3346141655
 40
0.3676576436
 40
0.4021003249
 40
0.4378979183
 40
0.4750016874
 40
0.5133591346
 40
0.5529142301
 40
0.5936075818
 40
0.6353769663
 40
0.7218793625
 40
0.8118756867
 40
0.9047849962
 40
1.0
 40
1.0
 40
1.0
 40
1.0
 10
11.5615753364
 20
8.8696781395
 30
0.0
 10
11.5615753287
 20
8.8704780244
 30
0.0
 10
11.5615095783
 20
8.8720835083
 30
0.0
 10
11.5612142379
 20
8.8744872593
 30
0.0
 10
11.5607222333
 20
8.8768885643
 30
0.0
 10
11.559794029
 20
8.8801223126
 30
0.0
 10
11.5581156307
 20
8.8841759045
 30
0.0
 10
11.5553457437
 20
8.8889412317
 30
0.0
 10
11.5518062429
 20
8.8936613394
 30
0.0
 10
11.5475060461
 20
8.8983301563
 30
0.0
 10
11.5424534769
 20
8.9029425423
 30
0.0
 10
11.5366574005
 20
8.9074924422
 30
0.0
 10
11.5301275437
 20
8.9119732836
 30
0.0
 10
11.5228748225
 20
8.9163779879
 30
0.0
 10
11.5149115425
 20
8.9206993455
 30
0.0
 10
11.5062513326
 20
8.9249299943
 30
0.0
 10
11.4969091537
 20
8.9290625402
 30
0.0
 10
11.486901312
 20
8.933089752
 30
0.0
 10
11.4762453543
 20
8.9370044737
 30
0.0
 10
11.4649600421
 20
8.94079969
 30
0.0
 10
11.4530653337
 20
8.9444686526
 30
0.0
 10
11.4405822976
 20
8.9480047739
 30
0.0
 10
11.4275330821
 20
8.9514016853
 30
0.0
 10
11.4139408863
 20
8.9546533265
 30
0.0
 10
11.3998298835
 20
8.9577538481
 30
0.0
 10
11.3852251962
 20
8.9606976537
 30
0.0
 10
11.3701528211
 20
8.9634795368
 30
0.0
 10
11.3492241373
 20
8.9670071257
 30
0.0
 10
11.3220903802
 20
8.9709588839
 30
0.0
 10
11.2884811427
 20
8.9749314729
 30
0.0
 10
11.2536933183
 20
8.9781590411
 30
0.0
 10
11.230116918
 20
8.9797822472
 30
0.0
 10
11.2181769796
 20
8.9804688003
 30
0.0
  0
SPLINE
  5
390
100
AcDbEntity
  8
0
100
AcDbSpline
 62
7
  6
CONTINUOUS
 70
0
 71
3
 72
23
 73
19
 74
0
 42
0.0000001
 43
0.0000001
 44
0.0000000001
 40
0.0
 40
0.0
 40
0.0
 40
0.0
 40
0.0637767638
 40
0.1273450118
 40
0.1907019674
 40
0.2538561101
 40
0.3168132145
 40
0.3795820843
 40
0.4421733868
 40
0.5045993403
 40
0.5668738673
 40
0.6290123789
 40
0.6910316481
 40
0.752949645
 40
0.8147853545
 40
0.8765586015
 40
0.9382898522
 40
1.0
 40
1.0
 40
1.0
 40
1.0
 10
11.0079925132
 20
9.0895993322
 30
0.0
 10
11.0079925132
 20
9.0970745326
 30
0.0
 10
11.0083503282
 20
9.1120030259
 30
0.0
 10
11.0099652105
 20
9.134304932
 30
0.0
 10
11.0126540555
 20
9.1564300825
 30
0.0
 10
11.0164103858
 20
9.1783264695
 30
0.0
 10
11.0212258361
 20
9.1999440728
 30
0.0
 10
11.0270892547
 20
9.221232919
 30
0.0
 10
11.033987152
 20
9.2421439615
 30
0.0
 10
11.0419037055
 20
9.2626289755
 30
0.0
 10
11.0508207374
 20
9.2826406947
 30
0.0
 10
11.0607176817
 20
9.3021329802
 30
0.0
 10
11.0715717352
 20
9.3210608738
 30
0.0
 10
11.083357923
 20
9.3393807113
 30
0.0
 10
11.0960490827
 20
9.3570501619
 30
0.0
 10
11.1096160636
 20
9.3740286266
 30
0.0
 10
11.1240270313
 20
9.390276423
 30
0.0
 10
11.1341767906
 20
9.4005980628
 30
0.0
 10
11.139379143
 20
9.4056231451
 30
0.0
  0
SPLINE
  5
391
100
AcDbEntity
  8
0
100
AcDbSpline
 62
7
  6
CONTINUOUS
 70
0
 71
3
 72
9
 73
5
 74
0
 42
0.0000001
 43
0.0000001
 44
0.0000000001
 40
0.0
 40
0.0
 40
0.0
 40
0.0
 40
0.5126453384
 40
1.0
 40
1.0
 40
1.0
 40
1.0
 10
11.536671401
 20
8.8467329841
 30
0.0
 10
11.5402172522
 20
8.848484798
 30
0.0
 10
11.5470206926
 20
8.8521383423
 30
0.0
 10
11.5535220174
 20
8.8563105613
 30
0.0
 10
11.5565930957
 20
8.8584796888
 30
0.0
  0
SPLINE
  5
392
100
AcDbEntity
  8
0
100
AcDbSpline
 62
7
  6
CONTINUOUS
 70
0
 71
3
 72
9
 73
5
 74
0
 42
0.0000001
 43
0.0000001
 44
0.0000000001
 40
0.0
 40
0.0
 40
0.0
 40
0.0
 40
0.5096341051
 40
1.0
 40
1.0
 40
1.0
 40
1.0
 10
11.5565930957
 20
8.8584796888
 30
0.0
 10
11.5589760637
 20
8.8601627985
 30
0.0
 10
11.5635397999
 20
8.8636279699
 30
0.0
 10
11.5678259206
 20
8.8674331686
 30
0.0
 10
11.5698449599
 20
8.869383411
 30
0.0
  0
SPLINE
  5
393
100
AcDbEntity
  8
0
100
AcDbSpline
 62
7
  6
CONTINUOUS
 70
0
 71
3
 72
11
 73
7
 74
0
 42
0.0000001
 43
0.0000001
 44
0.0000000001
 40
0.0
 40
0.0
 40
0.0
 40
0.0
 40
0.2683821337
 40
0.524384523
 40
0.7681772509
 40
1.0
 40
1.0
 40
1.0
 40
1.0
 10
11.5366364841
 20
8.84713199
 30
0.0
 10
11.538422154
 20
8.8481524326
 30
0.0
 10
11.5418788975
 20
8.850203484
 30
0.0
 10
11.546829045
 20
8.8533919707
 30
0.0
 10
11.5514172763
 20
8.8566167778
 30
0.0
 10
11.5543039677
 20
8.8588445552
 30
0.0
 10
11.5556824021
 20
8.8599652332
 30
0.0
  0
LINE
  5
394
100
AcDbEntity
  8
0
100
AcDbLine
 62
7
  6
CONTINUOUS
 10
11.5556824021
 20
8.8599652332
 11
11.5616056899
 21
8.8651978615
  0
SPLINE
  5
395
100
AcDbEntity
  8
0
100
AcDbSpline
 62
7
  6
CONTINUOUS
 70
0
 71
3
 72
23
 73
19
 74
0
 42
0.0000001
 43
0.0000001
 44
0.0000000001
 40
0.0
 40
0.0
 40
0.0
 40
0.0
 40
0.0637767638
 40
0.1273450118
 40
0.1907019674
 40
0.2538561101
 40
0.3168132145
 40
0.3795820843
 40
0.4421733868
 40
0.5045993403
 40
0.5668738673
 40
0.6290123789
 40
0.6910316481
 40
0.752949645
 40
0.8147853545
 40
0.8765586015
 40
0.9382898522
 40
1.0
 40
1.0
 40
1.0
 40
1.0
 10
8.8346592753
 20
8.3352480314
 30
0.0
 10
8.8346592753
 20
8.3427232318
 30
0.0
 10
8.8350170902
 20
8.3576517251
 30
0.0
 10
8.8366319726
 20
8.3799536313
 30
0.0
 10
8.8393208176
 20
8.4020787817
 30
0.0
 10
8.8430771479
 20
8.4239751687
 30
0.0
 10
8.8478925982
 20
8.4455927721
 30
0.0
 10
8.8537560167
 20
8.4668816182
 30
0.0
 10
8.8606539141
 20
8.4877926608
 30
0.0
 10
8.8685704676
 20
8.5082776748
 30
0.0
 10
8.8774874995
 20
8.5282893939
 30
0.0
 10
8.8873844437
 20
8.5477816795
 30
0.0
 10
8.8982384973
 20
8.566709573
 30
0.0
 10
8.9100246851
 20
8.5850294105
 30
0.0
 10
8.9227158447
 20
8.6026988611
 30
0.0
 10
8.9362828257
 20
8.6196773258
 30
0.0
 10
8.9506937934
 20
8.6359251222
 30
0.0
 10
8.9608435526
 20
8.646246762
 30
0.0
 10
8.9660459051
 20
8.6512718444
 30
0.0
  0
SPLINE
  5
396
100
AcDbEntity
  8
0
100
AcDbSpline
 62
7
  6
CONTINUOUS
 70
0
 71
3
 72
15
 73
11
 74
0
 42
0.0000001
 43
0.0000001
 44
0.0000000001
 40
0.0
 40
0.0
 40
0.0
 40
0.0
 40
0.1273482888
 40
0.2538606703
 40
0.3795878487
 40
0.5046051206
 40
0.6290174369
 40
0.7529533749
 40
0.8765605786
 40
1.0
 40
1.0
 40
1.0
 40
1.0
 10
8.4190547871
 20
10.3929876764
 30
0.0
 10
8.4190547871
 20
10.4001944089
 30
0.0
 10
8.4197428923
 20
10.4145705324
 30
0.0
 10
8.4228547348
 20
10.4358582113
 30
0.0
 10
8.4280147096
 20
10.4566110137
 30
0.0
 10
8.435176205
 20
10.4766348479
 30
0.0
 10
8.4442735386
 20
10.4957450522
 30
0.0
 10
8.4552237194
 20
10.5137651827
 30
0.0
 10
8.4679238191
 20
10.5305263866
 30
0.0
 10
8.4774863562
 20
10.5407650828
 30
0.0
 10
8.4825107449
 20
10.5456182368
 30
0.0
  0
SPLINE
  5
397
100
AcDbEntity
  8
0
100
AcDbSpline
 62
7
  6
CONTINUOUS
 70
0
 71
3
 72
23
 73
19
 74
0
 42
0.0000001
 43
0.0000001
 44
0.0000000001
 40
0.0
 40
0.0
 40
0.0
 40
0.0
 40
0.0614488463
 40
0.1232975066
 40
0.1855192794
 40
0.248071275
 40
0.3108995332
 40
0.3739401515
 40
0.4371217402
 40
0.5003679843
 40
0.5636003164
 40
0.6267406523
 40
0.6897141155
 40
0.7524516761
 40
0.8148926497
 40
0.8769870681
 40
0.9386966966
 40
1.0
 40
1.0
 40
1.0
 40
1.0
 10
8.6450814439
 20
10.1512860177
 30
0.0
 10
8.6376627262
 20
10.1518005076
 30
0.0
 10
8.6228178732
 20
10.1535639414
 30
0.0
 10
8.6008497605
 20
10.1583533882
 30
0.0
 10
8.5793074557
 20
10.1652496478
 30
0.0
 10
8.5584005415
 20
10.1741858997
 30
0.0
 10
8.538328937
 20
10.1850757605
 30
0.0
 10
8.5192853754
 20
10.1978142753
 30
0.0
 10
8.5014525223
 20
10.2122789666
 30
0.0
 10
8.485001479
 20
10.2283308312
 30
0.0
 10
8.4700900918
 20
10.2458157167
 30
0.0
 10
8.4568616043
 20
10.2645658742
 30
0.0
 10
8.4454431981
 20
10.2844014041
 30
0.0
 10
8.4359447311
 20
10.3051320344
 30
0.0
 10
8.4284578424
 20
10.3265586743
 30
0.0
 10
8.4230551011
 20
10.3484763658
 30
0.0
 10
8.4197888392
 20
10.3706718399
 30
0.0
 10
8.4190547871
 20
10.3855687537
 30
0.0
 10
8.4190547871
 20
10.3929876764
 30
0.0
  0
SPLINE
  5
398
100
AcDbEntity
  8
0
100
AcDbSpline
 62
7
  6
CONTINUOUS
 70
0
 71
3
 72
18
 73
14
 74
0
 42
0.0000001
 43
0.0000001
 44
0.0000000001
 40
0.0
 40
0.0
 40
0.0
 40
0.0
 40
0.0548626755
 40
0.1099292576
 40
0.1654013202
 40
0.2214755501
 40
0.3361333804
 40
0.4553634196
 40
0.5171048815
 40
0.5804365284
 40
0.7123311193
 40
0.8519577055
 40
1.0
 40
1.0
 40
1.0
 40
1.0
 10
10.3730753595
 20
11.1224278795
 30
0.0
 10
10.3730753571
 20
11.1234870935
 30
0.0
 10
10.3731425706
 20
11.1256100699
 30
0.0
 10
10.373444804
 20
11.1287910663
 30
0.0
 10
10.3739485105
 20
11.1319702916
 30
0.0
 10
10.3748949981
 20
11.1362361058
 30
0.0
 10
10.3766001369
 20
11.1415826434
 30
0.0
 10
10.3789355022
 20
11.1468029585
 30
0.0
 10
10.3811826673
 20
11.1509516877
 30
0.0
 10
10.3837557717
 20
11.155195496
 30
0.0
 10
10.3874919771
 20
11.1604826934
 30
0.0
 10
10.3927009354
 20
11.1666959738
 30
0.0
 10
10.3965751531
 20
11.1706827901
 30
0.0
 10
10.3986309261
 20
11.1726685145
 30
0.0
  0
SPLINE
  5
399
100
AcDbEntity
  8
0
100
AcDbSpline
 62
7
  6
CONTINUOUS
 70
0
 71
3
 72
23
 73
19
 74
0
 42
0.0000001
 43
0.0000001
 44
0.0000000001
 40
0.0
 40
0.0
 40
0.0
 40
0.0
 40
0.0637767638
 40
0.1273450118
 40
0.1907019674
 40
0.2538561101
 40
0.3168132145
 40
0.3795820843
 40
0.4421733868
 40
0.5045993403
 40
0.5668738673
 40
0.6290123789
 40
0.6910316481
 40
0.752949645
 40
0.8147853545
 40
0.8765586015
 40
0.9382898522
 40
1.0
 40
1.0
 40
1.0
 40
1.0
 10
11.0079925132
 20
7.2784881854
 30
0.0
 10
11.0079925132
 20
7.2859633858
 30
0.0
 10
11.0083503282
 20
7.3008918791
 30
0.0
 10
11.0099652105
 20
7.3231937853
 30
0.0
 10
11.0126540555
 20
7.3453189357
 30
0.0
 10
11.0164103858
 20
7.3672153227
 30
0.0
 10
11.0212258361
 20
7.3888329261
 30
0.0
 10
11.0270892547
 20
7.4101217722
 30
0.0
 10
11.033987152
 20
7.4310328148
 30
0.0
 10
11.0419037055
 20
7.4515178287
 30
0.0
 10
11.0508207374
 20
7.4715295479
 30
0.0
 10
11.0607176817
 20
7.4910218335
 30
0.0
 10
11.0715717352
 20
7.509949727
 30
0.0
 10
11.083357923
 20
7.5282695645
 30
0.0
 10
11.0960490827
 20
7.5459390151
 30
0.0
 10
11.1096160636
 20
7.5629174798
 30
0.0
 10
11.1240270313
 20
7.5791652762
 30
0.0
 10
11.1341767906
 20
7.589486916
 30
0.0
 10
11.139379143
 20
7.5945119984
 30
0.0
  0
SPLINE
  5
39A
100
AcDbEntity
  8
0
100
AcDbSpline
 62
7
  6
CONTINUOUS
 70
0
 71
3
 72
15
 73
11
 74
0
 42
0.0000001
 43
0.0000001
 44
0.0000000001
 40
0.0
 40
0.0
 40
0.0
 40
0.0
 40
0.1273482888
 40
0.2538606703
 40
0.3795878487
 40
0.5046051206
 40
0.6290174369
 40
0.7529533749
 40
0.8765605786
 40
1.0
 40
1.0
 40
1.0
 40
1.0
 10
11.9215022587
 20
10.1500921192
 30
0.0
 10
11.9215022587
 20
10.1572988518
 30
0.0
 10
11.9221903638
 20
10.1716749752
 30
0.0
 10
11.9253022064
 20
10.1929626542
 30
0.0
 10
11.9304621812
 20
10.2137154566
 30
0.0
 10
11.9376236765
 20
10.2337392908
 30
0.0
 10
11.9467210101
 20
10.2528494951
 30
0.0
 10
11.9576711909
 20
10.2708696256
 30
0.0
 10
11.9703712907
 20
10.2876308295
 30
0.0
 10
11.9799338277
 20
10.2978695256
 30
0.0
 10
11.9849582164
 20
10.3027226797
 30
0.0
  0
SPLINE
  5
39B
100
AcDbEntity
  8
0
100
AcDbSpline
 62
7
  6
CONTINUOUS
 70
0
 71
3
 72
23
 73
19
 74
0
 42
0.0000001
 43
0.0000001
 44
0.0000000001
 40
0.0
 40
0.0
 40
0.0
 40
0.0
 40
0.0614488463
 40
0.1232975066
 40
0.1855192794
 40
0.248071275
 40
0.3108995332
 40
0.3739401515
 40
0.4371217402
 40
0.5003679843
 40
0.5636003164
 40
0.6267406523
 40
0.6897141155
 40
0.7524516761
 40
0.8148926497
 40
0.8769870681
 40
0.9386966966
 40
1.0
 40
1.0
 40
1.0
 40
1.0
 10
12.1475289154
 20
9.9083904606
 30
0.0
 10
12.1401101977
 20
9.9089049504
 30
0.0
 10
12.1252653447
 20
9.9106683843
 30
0.0
 10
12.103297232
 20
9.9154578311
 30
0.0
 10
12.0817549272
 20
9.9223540907
 30
0.0
 10
12.060848013
 20
9.9312903426
 30
0.0
 10
12.0407764085
 20
9.9421802033
 30
0.0
 10
12.0217328469
 20
9.9549187181
 30
0.0
 10
12.0038999938
 20
9.9693834095
 30
0.0
 10
11.9874489506
 20
9.9854352741
 30
0.0
 10
11.9725375633
 20
10.0029201596
 30
0.0
 10
11.9593090758
 20
10.021670317
 30
0.0
 10
11.9478906696
 20
10.0415058469
 30
0.0
 10
11.9383922026
 20
10.0622364773
 30
0.0
 10
11.9309053139
 20
10.0836631171
 30
0.0
 10
11.9255025726
 20
10.1055808086
 30
0.0
 10
11.9222363107
 20
10.1277762828
 30
0.0
 10
11.9215022587
 20
10.1426731965
 30
0.0
 10
11.9215022587
 20
10.1500921192
 30
0.0
  0
SPLINE
  5
39C
100
AcDbEntity
  8
0
100
AcDbSpline
 62
7
  6
CONTINUOUS
 70
0
 71
3
 72
11
 73
7
 74
0
 42
0.0000001
 43
0.0000001
 44
0.0000000001
 40
0.0
 40
0.0
 40
0.0
 40
0.0
 40
0.2526640946
 40
0.5027715649
 40
0.7514678514
 40
1.0
 40
1.0
 40
1.0
 40
1.0
 10
11.3631484622
 20
7.1849174114
 30
0.0
 10
11.3647752573
 20
7.185719936
 30
0.0
 10
11.3679560109
 20
7.1874346284
 30
0.0
 10
11.3725012436
 20
7.1903508263
 30
0.0
 10
11.376780647
 20
7.1935961808
 30
0.0
 10
11.3794479331
 20
7.195975425
 30
0.0
 10
11.3807313068
 20
7.1972150689
 30
0.0
  0
SPLINE
  5
39D
100
AcDbEntity
  8
0
100
AcDbSpline
 62
7
  6
CONTINUOUS
 70
0
 71
3
 72
23
 73
19
 74
0
 42
0.0000001
 43
0.0000001
 44
0.0000000001
 40
0.0
 40
0.0
 40
0.0
 40
0.0
 40
0.0637767638
 40
0.1273450118
 40
0.1907019674
 40
0.2538561101
 40
0.3168132145
 40
0.3795820843
 40
0.4421733868
 40
0.5045993403
 40
0.5668738673
 40
0.6290123789
 40
0.6910316481
 40
0.752949645
 40
0.8147853545
 40
0.8765586015
 40
0.9382898522
 40
1.0
 40
1.0
 40
1.0
 40
1.0
 10
8.8346592753
 20
6.5241367695
 30
0.0
 10
8.8346592753
 20
6.5316119699
 30
0.0
 10
8.8350170902
 20
6.5465404632
 30
0.0
 10
8.8366319726
 20
6.5688423694
 30
0.0
 10
8.8393208176
 20
6.5909675198
 30
0.0
 10
8.8430771479
 20
6.6128639068
 30
0.0
 10
8.8478925982
 20
6.6344815102
 30
0.0
 10
8.8537560167
 20
6.6557703563
 30
0.0
 10
8.8606539141
 20
6.6766813989
 30
0.0
 10
8.8685704676
 20
6.6971664129
 30
0.0
 10
8.8774874995
 20
6.717178132
 30
0.0
 10
8.8873844437
 20
6.7366704176
 30
0.0
 10
8.8982384973
 20
6.7555983111
 30
0.0
 10
8.9100246851
 20
6.7739181486
 30
0.0
 10
8.9227158447
 20
6.7915875992
 30
0.0
 10
8.9362828257
 20
6.8085660639
 30
0.0
 10
8.9506937934
 20
6.8248138603
 30
0.0
 10
8.9608435526
 20
6.8351355001
 30
0.0
 10
8.9660459051
 20
6.8401605825
 30
0.0
  0
SPLINE
  5
39E
100
AcDbEntity
  8
0
100
AcDbSpline
 62
7
  6
CONTINUOUS
 70
0
 71
3
 72
15
 73
11
 74
0
 42
0.0000001
 43
0.0000001
 44
0.0000000001
 40
0.0
 40
0.0
 40
0.0
 40
0.0
 40
0.1273482888
 40
0.2538606703
 40
0.3795878487
 40
0.5046051206
 40
0.6290174369
 40
0.7529533749
 40
0.8765605786
 40
1.0
 40
1.0
 40
1.0
 40
1.0
 10
11.9215022587
 20
8.1284093652
 30
0.0
 10
11.9215022587
 20
8.1356160978
 30
0.0
 10
11.9221903638
 20
8.1499922212
 30
0.0
 10
11.9253022064
 20
8.1712799002
 30
0.0
 10
11.9304621812
 20
8.1920327026
 30
0.0
 10
11.9376236765
 20
8.2120565368
 30
0.0
 10
11.9467210101
 20
8.2311667411
 30
0.0
 10
11.9576711909
 20
8.2491868716
 30
0.0
 10
11.9703712907
 20
8.2659480755
 30
0.0
 10
11.9799338277
 20
8.2761867716
 30
0.0
 10
11.9849582164
 20
8.2810399257
 30
0.0
  0
SPLINE
  5
39F
100
AcDbEntity
  8
0
100
AcDbSpline
 62
7
  6
CONTINUOUS
 70
0
 71
3
 72
23
 73
19
 74
0
 42
0.0000001
 43
0.0000001
 44
0.0000000001
 40
0.0
 40
0.0
 40
0.0
 40
0.0
 40
0.0614488463
 40
0.1232975066
 40
0.1855192794
 40
0.248071275
 40
0.3108995332
 40
0.3739401515
 40
0.4371217402
 40
0.5003679843
 40
0.5636003164
 40
0.6267406523
 40
0.6897141155
 40
0.7524516761
 40
0.8148926497
 40
0.8769870681
 40
0.9386966966
 40
1.0
 40
1.0
 40
1.0
 40
1.0
 10
12.1475289154
 20
7.8867077066
 30
0.0
 10
12.1401101977
 20
7.8872221964
 30
0.0
 10
12.1252653447
 20
7.8889856303
 30
0.0
 10
12.103297232
 20
7.8937750771
 30
0.0
 10
12.0817549272
 20
7.9006713367
 30
0.0
 10
12.060848013
 20
7.9096075886
 30
0.0
 10
12.0407764085
 20
7.9204974493
 30
0.0
 10
12.0217328469
 20
7.9332359642
 30
0.0
 10
12.0038999938
 20
7.9477006555
 30
0.0
 10
11.9874489506
 20
7.9637525201
 30
0.0
 10
11.9725375633
 20
7.9812374056
 30
0.0
 10
11.9593090758
 20
7.999987563
 30
0.0
 10
11.9478906696
 20
8.0198230929
 30
0.0
 10
11.9383922026
 20
8.0405537233
 30
0.0
 10
11.9309053139
 20
8.0619803631
 30
0.0
 10
11.9255025726
 20
8.0838980546
 30
0.0
 10
11.9222363107
 20
8.1060935288
 30
0.0
 10
11.9215022587
 20
8.1209904425
 30
0.0
 10
11.9215022587
 20
8.1284093652
 30
0.0
  0
SPLINE
  5
3A0
100
AcDbEntity
  8
0
100
AcDbSpline
 62
7
  6
CONTINUOUS
 70
0
 71
3
 72
81
 73
77
 74
0
 42
0.0000001
 43
0.0000001
 44
0.0000000001
 40
0.0
 40
0.0
 40
0.0
 40
0.0
 40
0.0039801431
 40
0.0081240931
 40
0.0124360013
 40
0.0169193922
 40
0.021577261
 40
0.0264119999
 40
0.0314252802
 40
0.0366182702
 40
0.0419916862
 40
0.047545808
 40
0.0591950211
 40
0.0715620541
 40
0.0846377536
 40
0.0984090933
 40
0.1128597022
 40
0.1279702741
 40
0.1437189104
 40
0.1600814114
 40
0.1770315069
 40
0.1945410496
 40
0.2125801745
 40
0.2311174668
 40
0.2501201081
 40
0.269554004
 40
0.2893838995
 40
0.3095734898
 40
0.3300855437
 40
0.3508820118
 40
0.3719241296
 40
0.4145865037
 40
0.4577528935
 40
0.5010977816
 40
0.5442939046
 40
0.5870154516
 40
0.6080980225
 40
0.6289420667
 40
0.6495086979
 40
0.669759723
 40
0.6896577522
 40
0.7091663134
 40
0.7282499547
 40
0.7468743561
 40
0.7650064487
 40
0.7826145565
 40
0.7996685343
 40
0.8161399084
 40
0.8320020436
 40
0.8472303388
 40
0.8618024703
 40
0.8756986479
 40
0.888901932
 40
0.9013986383
 40
0.913178861
 40
0.9242371516
 40
0.9294957034
 40
0.9345742191
 40
0.9394737314
 40
0.9441957399
 40
0.9487422908
 40
0.9531160988
 40
0.9573205224
 40
0.9613597593
 40
0.9652388776
 40
0.9689639254
 40
0.9725421104
 40
0.9759818267
 40
0.9792928558
 40
0.982486429
 40
0.9855752896
 40
0.9885737732
 40
0.9914977037
 40
0.9943643137
 40
0.9971920004
 40
1.0
 40
1.0
 40
1.0
 40
1.0
 10
10.3986309261
 20
11.1726685145
 30
0.0
 10
10.4001163304
 20
11.1741033049
 30
0.0
 10
10.4032157331
 20
11.1769627545
 30
0.0
 10
10.4081366542
 20
11.1811392234
 30
0.0
 10
10.4134189522
 20
11.1852857828
 30
0.0
 10
10.4190597275
 20
11.1894001422
 30
0.0
 10
10.4250561739
 20
11.1934804262
 30
0.0
 10
10.4314054011
 20
11.1975246097
 30
0.0
 10
10.4381042318
 20
11.2015307988
 30
0.0
 10
10.4451493293
 20
11.2054969387
 30
0.0
 10
10.4525371778
 20
11.2094210652
 30
0.0
 10
10.4630067129
 20
11.2146783496
 30
0.0
 10
10.4769398121
 20
11.2211149316
 30
0.0
 10
10.4947074554
 20
11.2285225275
 30
0.0
 10
10.5137440723
 20
11.2357169106
 30
0.0
 10
10.5340114322
 20
11.2426835253
 30
0.0
 10
10.5554691133
 20
11.2494082431
 30
0.0
 10
10.5780740432
 20
11.2558773963
 30
0.0
 10
10.601780776
 20
11.2620778272
 30
0.0
 10
10.6265415692
 20
11.2679969077
 30
0.0
 10
10.652306509
 20
11.273622578
 30
0.0
 10
10.6790236084
 20
11.2789433681
 30
0.0
 10
10.706638914
 20
11.2839484481
 30
0.0
 10
10.7350966289
 20
11.2886276291
 30
0.0
 10
10.7643392385
 20
11.2929713841
 30
0.0
 10
10.7943076295
 20
11.2969708663
 30
0.0
 10
10.8249412024
 20
11.3006179291
 30
0.0
 10
10.8561780006
 20
11.303905164
 30
0.0
 10
10.8879548222
 20
11.306825875
 30
0.0
 10
10.9202074382
 20
11.3093741617
 30
0.0
 10
10.9639573794
 20
11.3122814309
 30
0.0
 10
11.0193521724
 20
11.3149402806
 30
0.0
 10
11.086363342
 20
11.3165707543
 30
0.0
 10
11.1536714738
 20
11.316641748
 30
0.0
 10
11.2207320672
 20
11.3151527212
 30
0.0
 10
11.2761995337
 20
11.3126112327
 30
0.0
 10
11.3200320958
 20
11.3097971123
 30
0.0
 10
11.3523642438
 20
11.3073171421
 30
0.0
 10
11.3842323961
 20
11.3044637481
 30
0.0
 10
11.4155721326
 20
11.3012426878
 30
0.0
 10
11.4463200428
 20
11.2976605201
 30
0.0
 10
11.4764139446
 20
11.2937245396
 30
0.0
 10
11.5057929848
 20
11.2894427584
 30
0.0
 10
11.5343977636
 20
11.2848238911
 30
0.0
 10
11.5621704593
 20
11.2798773328
 30
0.0
 10
11.5890549586
 20
11.2746131584
 30
0.0
 10
11.614996975
 20
11.2690420977
 30
0.0
 10
11.6399441553
 20
11.2631754998
 30
0.0
 10
11.6638461879
 20
11.2570253141
 30
0.0
 10
11.6866549229
 20
11.2506040558
 30
0.0
 10
11.7083244909
 20
11.2439248041
 30
0.0
 10
11.728811423
 20
11.2370011421
 30
0.0
 10
11.7480746936
 20
11.2298471229
 30
0.0
 10
11.766076017
 20
11.22247718
 30
0.0
 10
11.7827793291
 20
11.2149061747
 30
0.0
 10
11.7958000195
 20
11.2083362293
 30
0.0
 10
11.8055240337
 20
11.2029780535
 30
0.0
 10
11.8123492001
 20
11.1989861647
 30
0.0
 10
11.8188259608
 20
11.1949555572
 30
0.0
 10
11.8249510986
 20
11.1908881638
 30
0.0
 10
11.8307215326
 20
11.1867859455
 30
0.0
 10
11.8361344458
 20
11.1826509803
 30
0.0
 10
11.8411870921
 20
11.178485173
 30
0.0
 10
11.8458769852
 20
11.1742905579
 30
0.0
 10
11.8502017863
 20
11.1700691104
 30
0.0
 10
11.8541592409
 20
11.1658227192
 30
0.0
 10
11.8577473895
 20
11.1615534116
 30
0.0
 10
11.8609642332
 20
11.1572630312
 30
0.0
 10
11.8638080008
 20
11.1529535426
 30
0.0
 10
11.8662770242
 20
11.1486269121
 30
0.0
 10
11.8683695754
 20
11.1442850907
 30
0.0
 10
11.8700842704
 20
11.1399302515
 30
0.0
 10
11.8714196052
 20
11.135564632
 30
0.0
 10
11.8723743905
 20
11.1311905778
 30
0.0
 10
11.8729477391
 20
11.1268111683
 30
0.0
 10
11.8730753147
 20
11.1238853709
 30
0.0
 10
11.873075318
 20
11.1224283681
 30
0.0
  0
SPLINE
  5
3A1
100
AcDbEntity
  8
0
100
AcDbSpline
 62
7
  6
CONTINUOUS
 70
0
 71
3
 72
15
 73
11
 74
0
 42
0.0000001
 43
0.0000001
 44
0.0000000001
 40
0.0
 40
0.0
 40
0.0
 40
0.0
 40
0.1273483438
 40
0.2538606048
 40
0.3795878922
 40
0.5046051199
 40
0.6290174392
 40
0.7529533668
 40
0.8765605676
 40
1.0
 40
1.0
 40
1.0
 40
1.0
 10
11.2045583955
 20
5.9067646006
 30
0.0
 10
11.2045583955
 20
5.9135094332
 30
0.0
 10
11.2052023987
 20
5.9269641413
 30
0.0
 10
11.2081148358
 20
5.9468874207
 30
0.0
 10
11.2129441442
 20
5.9663100926
 30
0.0
 10
11.2196466933
 20
5.9850505171
 30
0.0
 10
11.2281610081
 20
6.0029358575
 30
0.0
 10
11.2384094796
 20
6.0198009443
 30
0.0
 10
11.2502956985
 20
6.0354877882
 30
0.0
 10
11.2592454405
 20
6.0450701564
 30
0.0
 10
11.2639478036
 20
6.0496122529
 30
0.0
  0
SPLINE
  5
3A2
100
AcDbEntity
  8
0
100
AcDbSpline
 62
7
  6
CONTINUOUS
 70
0
 71
3
 72
15
 73
11
 74
0
 42
0.0000001
 43
0.0000001
 44
0.0000000001
 40
0.0
 40
0.0
 40
0.0
 40
0.0
 40
0.1273482888
 40
0.2538606703
 40
0.3795878487
 40
0.5046051206
 40
0.6290174369
 40
0.7529533749
 40
0.8765605786
 40
1.0
 40
1.0
 40
1.0
 40
1.0
 10
11.9215022587
 20
5.2006881099
 30
0.0
 10
11.9215022587
 20
5.2078948425
 30
0.0
 10
11.9221903638
 20
5.2222709659
 30
0.0
 10
11.9253022064
 20
5.2435586449
 30
0.0
 10
11.9304621812
 20
5.2643114473
 30
0.0
 10
11.9376236765
 20
5.2843352815
 30
0.0
 10
11.9467210101
 20
5.3034454858
 30
0.0
 10
11.9576711909
 20
5.3214656163
 30
0.0
 10
11.9703712907
 20
5.3382268201
 30
0.0
 10
11.9799338277
 20
5.3484655163
 30
0.0
 10
11.9849582164
 20
5.3533186704
 30
0.0
  0
SPLINE
  5
3A3
100
AcDbEntity
  8
0
100
AcDbSpline
 62
7
  6
CONTINUOUS
 70
0
 71
3
 72
23
 73
19
 74
0
 42
0.0000001
 43
0.0000001
 44
0.0000000001
 40
0.0
 40
0.0
 40
0.0
 40
0.0
 40
0.0614488463
 40
0.1232975066
 40
0.1855192794
 40
0.248071275
 40
0.3108995332
 40
0.3739401515
 40
0.4371217402
 40
0.5003679843
 40
0.5636003164
 40
0.6267406523
 40
0.6897141155
 40
0.7524516761
 40
0.8148926497
 40
0.8769870681
 40
0.9386966966
 40
1.0
 40
1.0
 40
1.0
 40
1.0
 10
12.1475289154
 20
4.9589864513
 30
0.0
 10
12.1401101977
 20
4.9595009411
 30
0.0
 10
12.1252653447
 20
4.961264375
 30
0.0
 10
12.103297232
 20
4.9660538217
 30
0.0
 10
12.0817549272
 20
4.9729500814
 30
0.0
 10
12.060848013
 20
4.9818863333
 30
0.0
 10
12.0407764085
 20
4.992776194
 30
0.0
 10
12.0217328469
 20
5.0055147088
 30
0.0
 10
12.0038999938
 20
5.0199794002
 30
0.0
 10
11.9874489506
 20
5.0360312648
 30
0.0
 10
11.9725375633
 20
5.0535161503
 30
0.0
 10
11.9593090758
 20
5.0722663077
 30
0.0
 10
11.9478906696
 20
5.0921018376
 30
0.0
 10
11.9383922026
 20
5.1128324679
 30
0.0
 10
11.9309053139
 20
5.1342591078
 30
0.0
 10
11.9255025726
 20
5.1561767993
 30
0.0
 10
11.9222363107
 20
5.1783722735
 30
0.0
 10
11.9215022587
 20
5.1932691872
 30
0.0
 10
11.9215022587
 20
5.2006881099
 30
0.0
  0
SPLINE
  5
3A4
100
AcDbEntity
  8
0
100
AcDbSpline
 62
7
  6
CONTINUOUS
 70
0
 71
3
 72
39
 73
35
 74
0
 42
0.0000001
 43
0.0000001
 44
0.0000000001
 40
0.0
 40
0.0
 40
0.0
 40
0.0
 40
0.0314025961
 40
0.0630095117
 40
0.0948071013
 40
0.1267734468
 40
0.1588809726
 40
0.1910970221
 40
0.2233851126
 40
0.2557062443
 40
0.2880202666
 40
0.3202872754
 40
0.3524690059
 40
0.3845301832
 40
0.4164397932
 40
0.4481722491
 40
0.4797084079
 40
0.5110363805
 40
0.5421521194
 40
0.5730597416
 40
0.6037715202
 40
0.6343075557
 40
0.6646951111
 40
0.6949675901
 40
0.7251632182
 40
0.7553234778
 40
0.7854913545
 40
0.8157095094
 40
0.8460184692
 40
0.8764549219
 40
0.9070502403
 40
0.9378293108
 40
0.9688091314
 40
1.0
 40
1.0
 40
1.0
 40
1.0
 10
8.6380933354
 20
10.6226693353
 30
0.0
 10
8.646368059
 20
10.6220954812
 30
0.0
 10
8.6629257797
 20
10.6201285742
 30
0.0
 10
8.6874286747
 20
10.614786499
 30
0.0
 10
8.7114566299
 20
10.6070945171
 30
0.0
 10
8.7347758804
 20
10.5971271592
 30
0.0
 10
8.7571634393
 20
10.5849807761
 30
0.0
 10
8.7784043349
 20
10.5707724326
 30
0.0
 10
8.798294825
 20
10.5546387384
 30
0.0
 10
8.8166440655
 20
10.5367347357
 30
0.0
 10
8.8332759974
 20
10.5172323627
 30
0.0
 10
8.8480308488
 20
10.4963187284
 30
0.0
 10
8.8607667634
 20
10.4741944729
 30
0.0
 10
8.8713612091
 20
10.4510718853
 30
0.0
 10
8.8797119568
 20
10.4271728075
 30
0.0
 10
8.8857381391
 20
10.4027266283
 30
0.0
 10
8.8893812038
 20
10.3779681572
 30
0.0
 10
8.8906052768
 20
10.3531353542
 30
0.0
 10
8.8893975789
 20
10.3284671429
 30
0.0
 10
8.8857688514
 20
10.3042011377
 30
0.0
 10
8.8797531098
 20
10.2805713613
 30
0.0
 10
8.8714073809
 20
10.2578060372
 30
0.0
 10
8.8608114916
 20
10.236125275
 30
0.0
 10
8.8480672143
 20
10.2157388928
 30
0.0
 10
8.8332972569
 20
10.196844376
 30
0.0
 10
8.8166442888
 20
10.1796247348
 30
0.0
 10
8.7982694566
 20
10.1642466212
 30
0.0
 10
8.7783506348
 20
10.1508587678
 30
0.0
 10
8.75708076
 20
10.1395903702
 30
0.0
 10
8.734665752
 20
10.1305497602
 30
0.0
 10
8.7113226407
 20
10.1238235576
 30
0.0
 10
8.6872762737
 20
10.1194760002
 30
0.0
 10
8.6627616728
 20
10.1175476032
 30
0.0
 10
8.6463122679
 20
10.1178860392
 30
0.0
 10
8.6380933354
 20
10.1184560241
 30
0.0
  0
SPLINE
  5
3A5
100
AcDbEntity
  8
0
100
AcDbSpline
 62
7
  6
CONTINUOUS
 70
0
 71
3
 72
52
 73
48
 74
0
 42
0.0000001
 43
0.0000001
 44
0.0000000001
 40
0.0
 40
0.0
 40
0.0
 40
0.0
 40
0.0452106793
 40
0.0910035741
 40
0.1371918869
 40
0.1835906187
 40
0.230011408
 40
0.2762667211
 40
0.3221695517
 40
0.367534801
 40
0.4121801311
 40
0.4559269821
 40
0.498601566
 40
0.5400358865
 40
0.5800687993
 40
0.618547133
 40
0.6553269024
 40
0.6902746615
 40
0.7232690715
 40
0.7542028117
 40
0.7829849871
 40
0.7965470957
 40
0.8095464186
 40
0.8219779976
 40
0.8338384889
 40
0.845127035
 40
0.8558449785
 40
0.8659968239
 40
0.8755903645
 40
0.8846375113
 40
0.8931551272
 40
0.9011657414
 40
0.9086990941
 40
0.9157929042
 40
0.9224946525
 40
0.9288622307
 40
0.9349647151
 40
0.9408816352
 40
0.9467009595
 40
0.9525155267
 40
0.9584184295
 40
0.9644982871
 40
0.9708356665
 40
0.9775006651
 40
0.9845524004
 40
0.992039274
 40
1.0
 40
1.0
 40
1.0
 40
1.0
 10
14.0843807587
 20
11.1932726475
 30
0.0
 10
14.0843807587
 20
11.1877080138
 30
0.0
 10
14.0842815067
 20
11.1765068609
 30
0.0
 10
14.0838439153
 20
11.1596258839
 30
0.0
 10
14.0831182526
 20
11.1426084381
 30
0.0
 10
14.082107692
 20
11.1255281391
 30
0.0
 10
14.0808165388
 20
11.1084584835
 30
0.0
 10
14.0792503899
 20
11.0914731469
 30
0.0
 10
14.0774160033
 20
11.0746453463
 30
0.0
 10
14.0753213214
 20
11.0580476462
 30
0.0
 10
14.0729754148
 20
11.0417516006
 30
0.0
 10
14.0703884556
 20
11.0258274512
 30
0.0
 10
14.0675716699
 20
11.0103438158
 30
0.0
 10
14.0645372895
 20
10.9953673875
 30
0.0
 10
14.0612985018
 20
10.9809626384
 30
0.0
 10
14.057869393
 20
10.9671915332
 30
0.0
 10
14.0542648891
 20
10.9541132343
 30
0.0
 10
14.0505006876
 20
10.9417838598
 30
0.0
 10
14.0465931895
 20
10.9302560779
 30
0.0
 10
14.042559388
 20
10.9195792567
 30
0.0
 10
14.0390409155
 20
10.9112712859
 30
0.0
 10
14.0361654868
 20
10.9050954568
 30
0.0
 10
14.0340310554
 20
10.9007962361
 30
0.0
 10
14.0318782588
 20
10.8967418019
 30
0.0
 10
14.029709259
 20
10.8929364924
 30
0.0
 10
14.0275264703
 20
10.8893842909
 30
0.0
 10
14.0253320962
 20
10.8860889703
 30
0.0
 10
14.0231284786
 20
10.883053949
 30
0.0
 10
14.0209178352
 20
10.8802823916
 30
0.0
 10
14.0187023433
 20
10.8777771848
 30
0.0
 10
14.0164841797
 20
10.8755408805
 30
0.0
 10
14.0142652785
 20
10.8735759211
 30
0.0
 10
14.0120476689
 20
10.8718843667
 30
0.0
 10
14.0098330617
 20
10.8704684099
 30
0.0
 10
14.0076233509
 20
10.8693299704
 30
0.0
 10
14.0054203875
 20
10.8684712607
 30
0.0
 10
14.0032264882
 20
10.8678943818
 30
0.0
 10
14.0010445322
 20
10.8676013091
 30
0.0
 10
13.9988781158
 20
10.8675935431
 30
0.0
 10
13.9967312878
 20
10.8678713185
 30
0.0
 10
13.9946080862
 20
10.8684340054
 30
0.0
 10
13.9925118938
 20
10.8692795759
 30
0.0
 10
13.9904454461
 20
10.8704058741
 30
0.0
 10
13.9884106927
 20
10.8718103024
 30
0.0
 10
13.986409288
 20
10.8734906035
 30
0.0
 10
13.9844428238
 20
10.8754443563
 30
0.0
 10
13.9831957516
 20
10.876881947
 30
0.0
 10
13.9825775094
 20
10.8776420999
 30
0.0
  0
SPLINE
  5
3A6
100
AcDbEntity
  8
0
100
AcDbSpline
 62
7
  6
CONTINUOUS
 70
0
 71
3
 72
39
 73
35
 74
0
 42
0.0000001
 43
0.0000001
 44
0.0000000001
 40
0.0
 40
0.0
 40
0.0
 40
0.0
 40
0.0314025961
 40
0.0630095117
 40
0.0948071013
 40
0.1267734468
 40
0.1588809726
 40
0.1910970221
 40
0.2233851126
 40
0.2557062443
 40
0.2880202666
 40
0.3202872754
 40
0.3524690059
 40
0.3845301832
 40
0.4164397932
 40
0.4481722491
 40
0.4797084079
 40
0.5110363805
 40
0.5421521194
 40
0.5730597416
 40
0.6037715202
 40
0.6343075557
 40
0.6646951111
 40
0.6949675901
 40
0.7251632182
 40
0.7553234778
 40
0.7854913545
 40
0.8157095094
 40
0.8460184692
 40
0.8764549219
 40
0.9070502403
 40
0.9378293108
 40
0.9688091314
 40
1.0
 40
1.0
 40
1.0
 40
1.0
 10
8.6380933354
 20
10.1184560241
 30
0.0
 10
8.6298186119
 20
10.1190298781
 30
0.0
 10
8.6132608912
 20
10.1209967851
 30
0.0
 10
8.5887579962
 20
10.1263388603
 30
0.0
 10
8.564730041
 20
10.1340308422
 30
0.0
 10
8.5414107905
 20
10.1439982001
 30
0.0
 10
8.5190232316
 20
10.1561445833
 30
0.0
 10
8.497782336
 20
10.1703529267
 30
0.0
 10
8.4778918459
 20
10.1864866209
 30
0.0
 10
8.4595426054
 20
10.2043906236
 30
0.0
 10
8.4429106735
 20
10.2238929966
 30
0.0
 10
8.4281558221
 20
10.2448066309
 30
0.0
 10
8.4154199075
 20
10.2669308864
 30
0.0
 10
8.4048254618
 20
10.2900534741
 30
0.0
 10
8.3964747141
 20
10.3139525519
 30
0.0
 10
8.3904485318
 20
10.3383987311
 30
0.0
 10
8.3868054671
 20
10.3631572022
 30
0.0
 10
8.385581394
 20
10.3879900051
 30
0.0
 10
8.386789092
 20
10.4126582165
 30
0.0
 10
8.3904178195
 20
10.4369242216
 30
0.0
 10
8.396433561
 20
10.460553998
 30
0.0
 10
8.40477929
 20
10.4833193221
 30
0.0
 10
8.4153751793
 20
10.5050000843
 30
0.0
 10
8.4281194566
 20
10.5253864665
 30
0.0
 10
8.442889414
 20
10.5442809833
 30
0.0
 10
8.4595423821
 20
10.5615006245
 30
0.0
 10
8.4779172143
 20
10.5768787381
 30
0.0
 10
8.4978360361
 20
10.5902665915
 30
0.0
 10
8.5191059108
 20
10.6015349891
 30
0.0
 10
8.5415209189
 20
10.6105755991
 30
0.0
 10
8.5648640301
 20
10.6173018017
 30
0.0
 10
8.5889103972
 20
10.6216493592
 30
0.0
 10
8.6134249981
 20
10.6235777561
 30
0.0
 10
8.629874403
 20
10.6232393202
 30
0.0
 10
8.6380933354
 20
10.6226693353
 30
0.0
  0
SPLINE
  5
3A7
100
AcDbEntity
  8
0
100
AcDbSpline
 62
7
  6
CONTINUOUS
 70
0
 71
3
 72
15
 73
11
 74
0
 42
0.0000001
 43
0.0000001
 44
0.0000000001
 40
0.0
 40
0.0
 40
0.0
 40
0.0
 40
0.1273482888
 40
0.2538606703
 40
0.3795878487
 40
0.5046051206
 40
0.6290174369
 40
0.7529533749
 40
0.8765605786
 40
1.0
 40
1.0
 40
1.0
 40
1.0
 10
8.4190547871
 20
5.4435836671
 30
0.0
 10
8.4190547871
 20
5.4507903996
 30
0.0
 10
8.4197428923
 20
5.4651665231
 30
0.0
 10
8.4228547348
 20
5.486454202
 30
0.0
 10
8.4280147096
 20
5.5072070044
 30
0.0
 10
8.435176205
 20
5.5272308386
 30
0.0
 10
8.4442735386
 20
5.5463410429
 30
0.0
 10
8.4552237194
 20
5.5643611734
 30
0.0
 10
8.4679238191
 20
5.5811223773
 30
0.0
 10
8.4774863562
 20
5.5913610735
 30
0.0
 10
8.4825107449
 20
5.5962142275
 30
0.0
  0
SPLINE
  5
3A8
100
AcDbEntity
  8
0
100
AcDbSpline
 62
7
  6
CONTINUOUS
 70
0
 71
3
 72
23
 73
19
 74
0
 42
0.0000001
 43
0.0000001
 44
0.0000000001
 40
0.0
 40
0.0
 40
0.0
 40
0.0
 40
0.0614488463
 40
0.1232975066
 40
0.1855192794
 40
0.248071275
 40
0.3108995332
 40
0.3739401515
 40
0.4371217402
 40
0.5003679843
 40
0.5636003164
 40
0.6267406523
 40
0.6897141155
 40
0.7524516761
 40
0.8148926497
 40
0.8769870681
 40
0.9386966966
 40
1.0
 40
1.0
 40
1.0
 40
1.0
 10
8.6450814439
 20
5.2018820084
 30
0.0
 10
8.6376627262
 20
5.2023964983
 30
0.0
 10
8.6228178732
 20
5.2041599321
 30
0.0
 10
8.6008497605
 20
5.2089493789
 30
0.0
 10
8.5793074557
 20
5.2158456385
 30
0.0
 10
8.5584005415
 20
5.2247818904
 30
0.0
 10
8.538328937
 20
5.2356717512
 30
0.0
 10
8.5192853754
 20
5.248410266
 30
0.0
 10
8.5014525223
 20
5.2628749573
 30
0.0
 10
8.485001479
 20
5.2789268219
 30
0.0
 10
8.4700900918
 20
5.2964117074
 30
0.0
 10
8.4568616043
 20
5.3151618649
 30
0.0
 10
8.4454431981
 20
5.3349973947
 30
0.0
 10
8.4359447311
 20
5.3557280251
 30
0.0
 10
8.4284578424
 20
5.3771546649
 30
0.0
 10
8.4230551011
 20
5.3990723565
 30
0.0
 10
8.4197888392
 20
5.4212678306
 30
0.0
 10
8.4190547871
 20
5.4361647444
 30
0.0
 10
8.4190547871
 20
5.4435836671
 30
0.0
  0
SPLINE
  5
3A9
100
AcDbEntity
  8
0
100
AcDbSpline
 62
7
  6
CONTINUOUS
 70
0
 71
3
 72
52
 73
48
 74
0
 42
0.0000001
 43
0.0000001
 44
0.0000000001
 40
0.0
 40
0.0
 40
0.0
 40
0.0
 40
0.0452106793
 40
0.0910035741
 40
0.1371918869
 40
0.1835906187
 40
0.230011408
 40
0.2762667211
 40
0.3221695517
 40
0.367534801
 40
0.4121801311
 40
0.4559269821
 40
0.498601566
 40
0.5400358865
 40
0.5800687993
 40
0.618547133
 40
0.6553269024
 40
0.6902746615
 40
0.7232690715
 40
0.7542028117
 40
0.7829849871
 40
0.7965470957
 40
0.8095464186
 40
0.8219779976
 40
0.8338384889
 40
0.845127035
 40
0.8558449785
 40
0.8659968239
 40
0.8755903645
 40
0.8846375113
 40
0.8931551272
 40
0.9011657414
 40
0.9086990941
 40
0.9157929042
 40
0.9224946525
 40
0.9288622307
 40
0.9349647151
 40
0.9408816352
 40
0.9467009595
 40
0.9525155267
 40
0.9584184295
 40
0.9644982871
 40
0.9708356665
 40
0.9775006651
 40
0.9845524004
 40
0.992039274
 40
1.0
 40
1.0
 40
1.0
 40
1.0
 10
14.0843807587
 20
6.4853501091
 30
0.0
 10
14.0843807587
 20
6.4797854754
 30
0.0
 10
14.0842815067
 20
6.4685843225
 30
0.0
 10
14.0838439153
 20
6.4517033455
 30
0.0
 10
14.0831182526
 20
6.4346858997
 30
0.0
 10
14.082107692
 20
6.4176056007
 30
0.0
 10
14.0808165388
 20
6.4005359451
 30
0.0
 10
14.0792503899
 20
6.3835506084
 30
0.0
 10
14.0774160033
 20
6.3667228079
 30
0.0
 10
14.0753213214
 20
6.3501251078
 30
0.0
 10
14.0729754148
 20
6.3338290622
 30
0.0
 10
14.0703884556
 20
6.3179049128
 30
0.0
 10
14.0675716699
 20
6.3024212773
 30
0.0
 10
14.0645372895
 20
6.287444849
 30
0.0
 10
14.0612985018
 20
6.2730401
 30
0.0
 10
14.057869393
 20
6.2592689947
 30
0.0
 10
14.0542648891
 20
6.2461906959
 30
0.0
 10
14.0505006876
 20
6.2338613214
 30
0.0
 10
14.0465931895
 20
6.2223335395
 30
0.0
 10
14.042559388
 20
6.2116567183
 30
0.0
 10
14.0390409155
 20
6.2033487475
 30
0.0
 10
14.0361654868
 20
6.1971729183
 30
0.0
 10
14.0340310554
 20
6.1928736977
 30
0.0
 10
14.0318782588
 20
6.1888192635
 30
0.0
 10
14.029709259
 20
6.185013954
 30
0.0
 10
14.0275264703
 20
6.1814617525
 30
0.0
 10
14.0253320962
 20
6.1781664319
 30
0.0
 10
14.0231284786
 20
6.1751314105
 30
0.0
 10
14.0209178352
 20
6.1723598531
 30
0.0
 10
14.0187023433
 20
6.1698546464
 30
0.0
 10
14.0164841797
 20
6.167618342
 30
0.0
 10
14.0142652785
 20
6.1656533826
 30
0.0
 10
14.0120476689
 20
6.1639618282
 30
0.0
 10
14.0098330617
 20
6.1625458714
 30
0.0
 10
14.0076233509
 20
6.161407432
 30
0.0
 10
14.0054203875
 20
6.1605487223
 30
0.0
 10
14.0032264882
 20
6.1599718433
 30
0.0
 10
14.0010445322
 20
6.1596787706
 30
0.0
 10
13.9988781158
 20
6.1596710047
 30
0.0
 10
13.9967312878
 20
6.1599487801
 30
0.0
 10
13.9946080862
 20
6.160511467
 30
0.0
 10
13.9925118938
 20
6.1613570375
 30
0.0
 10
13.9904454461
 20
6.1624833357
 30
0.0
 10
13.9884106927
 20
6.163887764
 30
0.0
 10
13.986409288
 20
6.1655680651
 30
0.0
 10
13.9844428238
 20
6.1675218179
 30
0.0
 10
13.9831957516
 20
6.1689594086
 30
0.0
 10
13.9825775094
 20
6.1697195614
 30
0.0
  0
SPLINE
  5
3AA
100
AcDbEntity
  8
0
100
AcDbSpline
 62
7
  6
CONTINUOUS
 70
0
 71
3
 72
15
 73
11
 74
0
 42
0.0000001
 43
0.0000001
 44
0.0000000001
 40
0.0
 40
0.0
 40
0.0
 40
0.0
 40
0.1273482888
 40
0.2538606703
 40
0.3795878487
 40
0.5046051206
 40
0.6290174369
 40
0.7529533749
 40
0.8765605786
 40
1.0
 40
1.0
 40
1.0
 40
1.0
 10
8.4190547871
 20
7.4652662483
 30
0.0
 10
8.4190547871
 20
7.4724729809
 30
0.0
 10
8.4197428923
 20
7.4868491043
 30
0.0
 10
8.4228547348
 20
7.5081367833
 30
0.0
 10
8.4280147096
 20
7.5288895857
 30
0.0
 10
8.435176205
 20
7.5489134199
 30
0.0
 10
8.4442735386
 20
7.5680236242
 30
0.0
 10
8.4552237194
 20
7.5860437547
 30
0.0
 10
8.4679238191
 20
7.6028049586
 30
0.0
 10
8.4774863562
 20
7.6130436547
 30
0.0
 10
8.4825107449
 20
7.6178968088
 30
0.0
  0
SPLINE
  5
3AB
100
AcDbEntity
  8
0
100
AcDbSpline
 62
7
  6
CONTINUOUS
 70
0
 71
3
 72
23
 73
19
 74
0
 42
0.0000001
 43
0.0000001
 44
0.0000000001
 40
0.0
 40
0.0
 40
0.0
 40
0.0
 40
0.0614488463
 40
0.1232975066
 40
0.1855192794
 40
0.248071275
 40
0.3108995332
 40
0.3739401515
 40
0.4371217402
 40
0.5003679843
 40
0.5636003164
 40
0.6267406523
 40
0.6897141155
 40
0.7524516761
 40
0.8148926497
 40
0.8769870681
 40
0.9386966966
 40
1.0
 40
1.0
 40
1.0
 40
1.0
 10
8.6450814439
 20
7.2235645897
 30
0.0
 10
8.6376627262
 20
7.2240790795
 30
0.0
 10
8.6228178732
 20
7.2258425134
 30
0.0
 10
8.6008497605
 20
7.2306319602
 30
0.0
 10
8.5793074557
 20
7.2375282198
 30
0.0
 10
8.5584005415
 20
7.2464644717
 30
0.0
 10
8.538328937
 20
7.2573543324
 30
0.0
 10
8.5192853754
 20
7.2700928473
 30
0.0
 10
8.5014525223
 20
7.2845575386
 30
0.0
 10
8.485001479
 20
7.3006094032
 30
0.0
 10
8.4700900918
 20
7.3180942887
 30
0.0
 10
8.4568616043
 20
7.3368444461
 30
0.0
 10
8.4454431981
 20
7.356679976
 30
0.0
 10
8.4359447311
 20
7.3774106064
 30
0.0
 10
8.4284578424
 20
7.3988372462
 30
0.0
 10
8.4230551011
 20
7.4207549377
 30
0.0
 10
8.4197888392
 20
7.4429504119
 30
0.0
 10
8.4190547871
 20
7.4578473256
 30
0.0
 10
8.4190547871
 20
7.4652662483
 30
0.0
  0
SPLINE
  5
3AC
100
AcDbEntity
  8
0
100
AcDbSpline
 62
7
  6
CONTINUOUS
 70
0
 71
3
 72
23
 73
19
 74
0
 42
0.0000001
 43
0.0000001
 44
0.0000000001
 40
0.0
 40
0.0
 40
0.0
 40
0.0
 40
0.0615913054
 40
0.1236546668
 40
0.18615589
 40
0.249035174
 40
0.3122155952
 40
0.3756054673
 40
0.43910312
 40
0.502601781
 40
0.5659946292
 40
0.6291798585
 40
0.6920655642
 40
0.7545742962
 40
0.8166470982
 40
0.878246785
 40
0.9393603037
 40
1.0
 40
1.0
 40
1.0
 40
1.0
 10
8.5994378106
 20
9.3571140264
 30
0.0
 10
8.5994378106
 20
9.3519155786
 30
0.0
 10
8.6000386835
 20
9.3414694751
 30
0.0
 10
8.6027055597
 20
9.3259538827
 30
0.0
 10
8.6071054127
 20
9.3107234423
 30
0.0
 10
8.6131802588
 20
9.2959795144
 30
0.0
 10
8.6208501295
 20
9.2819136747
 30
0.0
 10
8.6300145072
 20
9.2687094028
 30
0.0
 10
8.6405536179
 20
9.2565387342
 30
0.0
 10
8.6523299741
 20
9.2455604164
 30
0.0
 10
8.665190001
 20
9.2359176843
 30
0.0
 10
8.6789660867
 20
9.2277365156
 30
0.0
 10
8.6934787098
 20
9.2211240727
 30
0.0
 10
8.7085387526
 20
9.2161673131
 30
0.0
 10
8.7239495182
 20
9.2129316352
 30
0.0
 10
8.7395105052
 20
9.2114603967
 30
0.0
 10
8.7550154017
 20
9.2117734095
 30
0.0
 10
8.7652236386
 20
9.2131761352
 30
0.0
 10
8.7702439695
 20
9.2141718915
 30
0.0
  0
SPLINE
  5
3AD
100
AcDbEntity
  8
0
100
AcDbSpline
 62
7
  6
CONTINUOUS
 70
0
 71
3
 72
53
 73
49
 74
0
 42
0.0000001
 43
0.0000001
 44
0.0000000001
 40
0.0
 40
0.0
 40
0.0
 40
0.0
 40
0.0092605193
 40
0.0180989179
 40
0.0265397589
 40
0.0346134065
 40
0.0423563395
 40
0.0498106379
 40
0.0570240987
 40
0.0640499798
 40
0.0709465375
 40
0.0777757164
 40
0.0846014677
 40
0.0914878292
 40
0.0984970384
 40
0.1056877974
 40
0.1131140362
 40
0.1208241888
 40
0.1288607331
 40
0.1372604975
 40
0.1460547112
 40
0.1552696467
 40
0.1649271244
 40
0.1750448543
 40
0.1856372545
 40
0.1967155107
 40
0.2082882671
 40
0.220361859
 40
0.2329404733
 40
0.2460267125
 40
0.2596213838
 40
0.2737240416
 40
0.3034435014
 40
0.3351601879
 40
0.368832135
 40
0.4044048285
 40
0.4418130093
 40
0.4809820654
 40
0.5218291532
 40
0.5642640848
 40
0.6081901147
 40
0.6535046729
 40
0.7000999508
 40
0.7478634493
 40
0.7966785216
 40
0.8464248034
 40
0.8969787812
 40
1.0
 40
1.0
 40
1.0
 40
1.0
 10
11.5616056899
 20
8.8651978615
 30
0.0
 10
11.5626018996
 20
8.8661601262
 30
0.0
 10
11.5645016557
 20
8.8680907083
 30
0.0
 10
11.5671214325
 20
8.8710758899
 30
0.0
 10
11.5694409266
 20
8.8740791294
 30
0.0
 10
11.5714581068
 20
8.8770984827
 30
0.0
 10
11.573171402
 20
8.8801321792
 30
0.0
 10
11.5745791241
 20
8.8831784857
 30
0.0
 10
11.5756798618
 20
8.8862353596
 30
0.0
 10
11.5764720459
 20
8.8893006199
 30
0.0
 10
11.5769545229
 20
8.8923717263
 30
0.0
 10
11.5771265472
 20
8.8954459183
 30
0.0
 10
11.5769876841
 20
8.8985202665
 30
0.0
 10
11.5765383527
 20
8.901591842
 30
0.0
 10
11.5757791533
 20
8.9046578367
 30
0.0
 10
11.5747113269
 20
8.9077157256
 30
0.0
 10
11.5733362833
 20
8.9107632719
 30
0.0
 10
11.5716554908
 20
8.9137984117
 30
0.0
 10
11.5696706995
 20
8.9168193749
 30
0.0
 10
11.567383477
 20
8.9198243184
 30
0.0
 10
11.5647956665
 20
8.9228115719
 30
0.0
 10
11.561909106
 20
8.925779389
 30
0.0
 10
11.5587257547
 20
8.9287259662
 30
0.0
 10
11.5552478172
 20
8.9316496001
 30
0.0
 10
11.5514775369
 20
8.934548378
 30
0.0
 10
11.5474174652
 20
8.9374205427
 30
0.0
 10
11.5430702672
 20
8.9402642138
 30
0.0
 10
11.5384388181
 20
8.943077514
 30
0.0
 10
11.5335262241
 20
8.9458586606
 30
0.0
 10
11.5283357235
 20
8.948605709
 30
0.0
 10
11.5228708111
 20
8.9513169453
 30
0.0
 10
11.5150865468
 20
8.9549452039
 30
0.0
 10
11.5046842541
 20
8.9593637297
 30
0.0
 10
11.4913797013
 20
8.964406057
 30
0.0
 10
11.4770790147
 20
8.9692635295
 30
0.0
 10
11.461820656
 20
8.9739229307
 30
0.0
 10
11.445645454
 20
8.9783715529
 30
0.0
 10
11.4285969328
 20
8.9825972374
 30
0.0
 10
11.4107210348
 20
8.9865884233
 30
0.0
 10
11.3920660229
 20
8.9903341984
 30
0.0
 10
11.3726823184
 20
8.9938243253
 30
0.0
 10
11.3526223501
 20
8.9970492636
 30
0.0
 10
11.3319404045
 20
9.0000001994
 30
0.0
 10
11.3106924647
 20
9.0026690698
 30
0.0
 10
11.2889361021
 20
9.0050485729
 30
0.0
 10
11.26673016
 20
9.0071322644
 30
0.0
 10
11.2364135586
 20
9.0095232739
 30
0.0
 10
11.2134771665
 20
9.0108315647
 30
0.0
 10
11.1980831598
 20
9.0114989985
 30
0.0
  0
SPLINE
  5
3AE
100
AcDbEntity
  8
0
100
AcDbSpline
 62
7
  6
CONTINUOUS
 70
0
 71
3
 72
26
 73
22
 74
0
 42
0.0000001
 43
0.0000001
 44
0.0000000001
 40
0.0
 40
0.0
 40
0.0
 40
0.0
 40
0.0193392008
 40
0.0388409315
 40
0.0585957937
 40
0.0786910092
 40
0.0992122424
 40
0.1202411831
 40
0.164100152
 40
0.2108476449
 40
0.2609514114
 40
0.314795638
 40
0.3726890918
 40
0.4348727625
 40
0.5015285275
 40
0.5727879992
 40
0.6487396104
 40
0.729433134
 40
0.8148851578
 40
0.9050899523
 40
1.0
 40
1.0
 40
1.0
 40
1.0
 10
9.5214555015
 20
6.2481117018
 30
0.0
 10
9.5214554697
 20
6.249122797
 30
0.0
 10
9.5215378948
 20
6.251154416
 30
0.0
 10
9.5219069738
 20
6.2541986915
 30
0.0
 10
9.5225214401
 20
6.2572435049
 30
0.0
 10
9.5233810164
 20
6.2602836039
 30
0.0
 10
9.5244851186
 20
6.2633146059
 30
0.0
 10
9.5263073161
 20
6.26739473
 30
0.0
 10
9.5292297636
 20
6.2724674214
 30
0.0
 10
9.533651908
 20
6.2783653941
 30
0.0
 10
9.5390272138
 20
6.2841433277
 30
0.0
 10
9.5453438648
 20
6.289788583
 30
0.0
 10
9.5525896065
 20
6.2952958748
 30
0.0
 10
9.5607511168
 20
6.3006649356
 30
0.0
 10
9.5698139442
 20
6.3059007573
 30
0.0
 10
9.5797619569
 20
6.3110139993
 30
0.0
 10
9.5905774715
 20
6.3160206739
 30
0.0
 10
9.6022412777
 20
6.3209416231
 30
0.0
 10
9.61473266
 20
6.3258028641
 30
0.0
 10
9.6280285241
 20
6.3306350398
 30
0.0
 10
9.6371815472
 20
6.3337811384
 30
0.0
 10
9.6418842849
 20
6.3353644004
 30
0.0
  0
SPLINE
  5
3AF
100
AcDbEntity
  8
0
100
AcDbSpline
 62
7
  6
CONTINUOUS
 70
0
 71
3
 72
39
 73
35
 74
0
 42
0.0000001
 43
0.0000001
 44
0.0000000001
 40
0.0
 40
0.0
 40
0.0
 40
0.0
 40
0.0314025961
 40
0.0630095117
 40
0.0948071013
 40
0.1267734468
 40
0.1588809726
 40
0.1910970221
 40
0.2233851126
 40
0.2557062443
 40
0.2880202666
 40
0.3202872754
 40
0.3524690059
 40
0.3845301832
 40
0.4164397932
 40
0.4481722491
 40
0.4797084079
 40
0.5110363805
 40
0.5421521194
 40
0.5730597416
 40
0.6037715202
 40
0.6343075557
 40
0.6646951111
 40
0.6949675901
 40
0.7251632182
 40
0.7553234778
 40
0.7854913545
 40
0.8157095094
 40
0.8460184692
 40
0.8764549219
 40
0.9070502403
 40
0.9378293108
 40
0.9688091314
 40
1.0
 40
1.0
 40
1.0
 40
1.0
 10
12.140540807
 20
10.3797737781
 30
0.0
 10
12.1488155305
 20
10.3791999241
 30
0.0
 10
12.1653732512
 20
10.3772330171
 30
0.0
 10
12.1898761462
 20
10.3718909419
 30
0.0
 10
12.2139041014
 20
10.3641989599
 30
0.0
 10
12.2372233519
 20
10.3542316021
 30
0.0
 10
12.2596109108
 20
10.3420852189
 30
0.0
 10
12.2808518064
 20
10.3278768755
 30
0.0
 10
12.3007422965
 20
10.3117431812
 30
0.0
 10
12.319091537
 20
10.2938391786
 30
0.0
 10
12.3357234689
 20
10.2743368056
 30
0.0
 10
12.3504783203
 20
10.2534231713
 30
0.0
 10
12.3632142349
 20
10.2312989158
 30
0.0
 10
12.3738086806
 20
10.2081763281
 30
0.0
 10
12.3821594283
 20
10.1842772503
 30
0.0
 10
12.3881856106
 20
10.1598310711
 30
0.0
 10
12.3918286753
 20
10.1350726
 30
0.0
 10
12.3930527483
 20
10.110239797
 30
0.0
 10
12.3918450504
 20
10.0855715857
 30
0.0
 10
12.3882163229
 20
10.0613055806
 30
0.0
 10
12.3822005813
 20
10.0376758041
 30
0.0
 10
12.3738548524
 20
10.0149104801
 30
0.0
 10
12.3632589631
 20
9.9932297179
 30
0.0
 10
12.3505146858
 20
9.9728433357
 30
0.0
 10
12.3357447284
 20
9.9539488189
 30
0.0
 10
12.3190917603
 20
9.9367291776
 30
0.0
 10
12.3007169281
 20
9.921351064
 30
0.0
 10
12.2807981063
 20
9.9079632107
 30
0.0
 10
12.2595282315
 20
9.8966948131
 30
0.0
 10
12.2371132235
 20
9.8876542031
 30
0.0
 10
12.2137701123
 20
9.8809280005
 30
0.0
 10
12.1897237452
 20
9.876580443
 30
0.0
 10
12.1652091443
 20
9.8746520461
 30
0.0
 10
12.1487597394
 20
9.874990482
 30
0.0
 10
12.140540807
 20
9.8755604669
 30
0.0
  0
SPLINE
  5
3B0
100
AcDbEntity
  8
0
100
AcDbSpline
 62
7
  6
CONTINUOUS
 70
0
 71
3
 72
11
 73
7
 74
0
 42
0.0000001
 43
0.0000001
 44
0.0000000001
 40
0.0
 40
0.0
 40
0.0
 40
0.0
 40
0.2552750793
 40
0.5073657357
 40
0.7557997958
 40
1.0
 40
1.0
 40
1.0
 40
1.0
 10
11.3403404004
 20
7.5995116119
 30
0.0
 10
11.3403404004
 20
7.6086048651
 30
0.0
 10
11.3408044775
 20
7.6266816109
 30
0.0
 10
11.3429113491
 20
7.6535339683
 30
0.0
 10
11.3463980554
 20
7.6798443978
 30
0.0
 10
11.3496435746
 20
7.6971004107
 30
0.0
 10
11.3514871541
 20
7.7056015564
 30
0.0
  0
SPLINE
  5
3B1
100
AcDbEntity
  8
0
100
AcDbSpline
 62
7
  6
CONTINUOUS
 70
0
 71
3
 72
19
 73
15
 74
0
 42
0.0000001
 43
0.0000001
 44
0.0000000001
 40
0.0
 40
0.0
 40
0.0
 40
0.0
 40
0.0596764356
 40
0.1205125345
 40
0.1822628548
 40
0.2447114504
 40
0.3076649918
 40
0.3709571147
 40
0.4344456409
 40
0.4980108461
 40
0.6249732623
 40
0.7512371717
 40
0.8763606793
 40
1.0
 40
1.0
 40
1.0
 40
1.0
 10
11.4120214029
 20
7.3075139455
 30
0.0
 10
11.4095695401
 20
7.3130194988
 30
0.0
 10
11.4046734819
 20
7.3241623948
 30
0.0
 10
11.3974919511
 20
7.3411114279
 30
0.0
 10
11.3904801755
 20
7.3584341321
 30
0.0
 10
11.3837179921
 20
7.3760852888
 30
0.0
 10
11.3772762345
 20
7.3940217579
 30
0.0
 10
11.3712171248
 20
7.4122020726
 30
0.0
 10
11.3655945301
 20
7.4305871824
 30
0.0
 10
11.3587442447
 20
7.4553117595
 30
0.0
 10
11.3514973665
 20
7.4864936156
 30
0.0
 10
11.3451208122
 20
7.5241935877
 30
0.0
 10
11.3412267436
 20
7.5618940133
 30
0.0
 10
11.3403404004
 20
7.5870250438
 30
0.0
 10
11.3403404004
 20
7.5995116119
 30
0.0
  0
SPLINE
  5
3B2
100
AcDbEntity
  8
0
100
AcDbSpline
 62
7
  6
CONTINUOUS
 70
0
 71
3
 72
22
 73
18
 74
0
 42
0.0000001
 43
0.0000001
 44
0.0000000001
 40
0.0
 40
0.0
 40
0.0
 40
0.0
 40
0.0509946596
 40
0.1026029316
 40
0.155150044
 40
0.2089377454
 40
0.3211634971
 40
0.3800316278
 40
0.4408806362
 40
0.5037755197
 40
0.568741411
 40
0.6357700133
 40
0.7048261753
 40
0.7758537283
 40
0.8487810106
 40
0.9235264017
 40
1.0
 40
1.0
 40
1.0
 40
1.0
 10
11.3807313068
 20
7.1972150689
 30
0.0
 10
11.3821657989
 20
7.1986006819
 30
0.0
 10
11.3849297415
 20
7.2015182814
 30
0.0
 10
11.3887106052
 20
7.2062731511
 30
0.0
 10
11.3921450128
 20
7.2114159792
 30
0.0
 10
11.3963277771
 20
7.2188787704
 30
0.0
 10
11.3997777013
 20
7.2270016523
 30
0.0
 10
11.4025949029
 20
7.2356267613
 30
0.0
 10
11.4044623516
 20
7.2425236425
 30
0.0
 10
11.4060709167
 20
7.2497287426
 30
0.0
 10
11.4074435106
 20
7.2572279933
 30
0.0
 10
11.4086035069
 20
7.2650063083
 30
0.0
 10
11.409574668
 20
7.2730489806
 30
0.0
 10
11.4103807161
 20
7.2813414304
 30
0.0
 10
11.411045053
 20
7.2898694417
 30
0.0
 10
11.4115903591
 20
7.2986191566
 30
0.0
 10
11.411885845
 20
7.304526116
 30
0.0
 10
11.4120214029
 20
7.3075139455
 30
0.0
  0
SPLINE
  5
3B3
100
AcDbEntity
  8
0
100
AcDbSpline
 62
7
  6
CONTINUOUS
 70
0
 71
3
 72
21
 73
17
 74
0
 42
0.0000001
 43
0.0000001
 44
0.0000000001
 40
0.0
 40
0.0
 40
0.0
 40
0.0
 40
0.1477048476
 40
0.2913454972
 40
0.3612291421
 40
0.4296070956
 40
0.4963253773
 40
0.5612355671
 40
0.6241953106
 40
0.6850690555
 40
0.743728969
 40
0.8000558708
 40
0.8539396096
 40
0.90528011
 40
0.953993286
 40
1.0
 40
1.0
 40
1.0
 40
1.0
 10
11.1887133707
 20
7.3463861245
 30
0.0
 10
11.1999019478
 20
7.3458249309
 30
0.0
 10
11.2219577624
 20
7.3444257589
 30
0.0
 10
11.2492450384
 20
7.3419274467
 30
0.0
 10
11.2704879819
 20
7.3394967721
 30
0.0
 10
11.2859050516
 20
7.3374884087
 30
0.0
 10
11.3009140701
 20
7.3352832362
 30
0.0
 10
11.3154774903
 20
7.3328867961
 30
0.0
 10
11.3295588556
 20
7.3303051448
 30
0.0
 10
11.3431229367
 20
7.3275447826
 30
0.0
 10
11.3561358452
 20
7.3246127107
 30
0.0
 10
11.3685650949
 20
7.3215163339
 30
0.0
 10
11.3803796142
 20
7.3182634726
 30
0.0
 10
11.3915502471
 20
7.3148623208
 30
0.0
 10
11.4020488181
 20
7.3113214972
 30
0.0
 10
11.4087779487
 20
7.3088006867
 30
0.0
 10
11.4120214029
 20
7.3075139455
 30
0.0
  0
SPLINE
  5
3B4
100
AcDbEntity
  8
0
100
AcDbSpline
 62
7
  6
CONTINUOUS
 70
0
 71
3
 72
39
 73
35
 74
0
 42
0.0000001
 43
0.0000001
 44
0.0000000001
 40
0.0
 40
0.0
 40
0.0
 40
0.0
 40
0.0314025961
 40
0.0630095117
 40
0.0948071013
 40
0.1267734468
 40
0.1588809726
 40
0.1910970221
 40
0.2233851126
 40
0.2557062443
 40
0.2880202666
 40
0.3202872754
 40
0.3524690059
 40
0.3845301832
 40
0.4164397932
 40
0.4481722491
 40
0.4797084079
 40
0.5110363805
 40
0.5421521194
 40
0.5730597416
 40
0.6037715202
 40
0.6343075557
 40
0.6646951111
 40
0.6949675901
 40
0.7251632182
 40
0.7553234778
 40
0.7854913545
 40
0.8157095094
 40
0.8460184692
 40
0.8764549219
 40
0.9070502403
 40
0.9378293108
 40
0.9688091314
 40
1.0
 40
1.0
 40
1.0
 40
1.0
 10
12.140540807
 20
9.8755604669
 30
0.0
 10
12.1322660834
 20
9.876134321
 30
0.0
 10
12.1157083627
 20
9.878101228
 30
0.0
 10
12.0912054677
 20
9.8834433032
 30
0.0
 10
12.0671775125
 20
9.8911352851
 30
0.0
 10
12.043858262
 20
9.901102643
 30
0.0
 10
12.0214707031
 20
9.9132490261
 30
0.0
 10
12.0002298075
 20
9.9274573696
 30
0.0
 10
11.9803393174
 20
9.9435910638
 30
0.0
 10
11.9619900769
 20
9.9614950664
 30
0.0
 10
11.945358145
 20
9.9809974395
 30
0.0
 10
11.9306032936
 20
10.0019110738
 30
0.0
 10
11.917867379
 20
10.0240353293
 30
0.0
 10
11.9072729333
 20
10.0471579169
 30
0.0
 10
11.8989221856
 20
10.0710569947
 30
0.0
 10
11.8928960033
 20
10.0955031739
 30
0.0
 10
11.8892529386
 20
10.120261645
 30
0.0
 10
11.8880288656
 20
10.145094448
 30
0.0
 10
11.8892365635
 20
10.1697626593
 30
0.0
 10
11.892865291
 20
10.1940286645
 30
0.0
 10
11.8988810326
 20
10.2176584409
 30
0.0
 10
11.9072267615
 20
10.240423765
 30
0.0
 10
11.9178226508
 20
10.2621045271
 30
0.0
 10
11.9305669281
 20
10.2824909093
 30
0.0
 10
11.9453368855
 20
10.3013854262
 30
0.0
 10
11.9619898536
 20
10.3186050674
 30
0.0
 10
11.9803646858
 20
10.333983181
 30
0.0
 10
12.0002835076
 20
10.3473710344
 30
0.0
 10
12.0215533824
 20
10.358639432
 30
0.0
 10
12.0439683904
 20
10.3676800419
 30
0.0
 10
12.0673115017
 20
10.3744062446
 30
0.0
 10
12.0913578687
 20
10.378753802
 30
0.0
 10
12.1158724696
 20
10.380682199
 30
0.0
 10
12.1323218745
 20
10.380343763
 30
0.0
 10
12.140540807
 20
10.3797737781
 30
0.0
  0
SPLINE
  5
3B5
100
AcDbEntity
  8
0
100
AcDbSpline
 62
7
  6
CONTINUOUS
 70
0
 71
3
 72
39
 73
35
 74
0
 42
0.0000001
 43
0.0000001
 44
0.0000000001
 40
0.0
 40
0.0
 40
0.0
 40
0.0
 40
0.0314025961
 40
0.0630095117
 40
0.0948071013
 40
0.1267734468
 40
0.1588809726
 40
0.1910970221
 40
0.2233851126
 40
0.2557062443
 40
0.2880202666
 40
0.3202872754
 40
0.3524690059
 40
0.3845301832
 40
0.4164397932
 40
0.4481722491
 40
0.4797084079
 40
0.5110363805
 40
0.5421521194
 40
0.5730597416
 40
0.6037715202
 40
0.6343075557
 40
0.6646951111
 40
0.6949675901
 40
0.7251632182
 40
0.7553234778
 40
0.7854913545
 40
0.8157095094
 40
0.8460184692
 40
0.8764549219
 40
0.9070502403
 40
0.9378293108
 40
0.9688091314
 40
1.0
 40
1.0
 40
1.0
 40
1.0
 10
12.140540807
 20
8.3580910241
 30
0.0
 10
12.1488155305
 20
8.3575171701
 30
0.0
 10
12.1653732512
 20
8.3555502631
 30
0.0
 10
12.1898761462
 20
8.3502081879
 30
0.0
 10
12.2139041014
 20
8.3425162059
 30
0.0
 10
12.2372233519
 20
8.3325488481
 30
0.0
 10
12.2596109108
 20
8.3204024649
 30
0.0
 10
12.2808518064
 20
8.3061941215
 30
0.0
 10
12.3007422965
 20
8.2900604272
 30
0.0
 10
12.319091537
 20
8.2721564246
 30
0.0
 10
12.3357234689
 20
8.2526540516
 30
0.0
 10
12.3504783203
 20
8.2317404173
 30
0.0
 10
12.3632142349
 20
8.2096161618
 30
0.0
 10
12.3738086806
 20
8.1864935741
 30
0.0
 10
12.3821594283
 20
8.1625944963
 30
0.0
 10
12.3881856106
 20
8.1381483171
 30
0.0
 10
12.3918286753
 20
8.113389846
 30
0.0
 10
12.3930527483
 20
8.088557043
 30
0.0
 10
12.3918450504
 20
8.0638888317
 30
0.0
 10
12.3882163229
 20
8.0396228266
 30
0.0
 10
12.3822005813
 20
8.0159930501
 30
0.0
 10
12.3738548524
 20
7.9932277261
 30
0.0
 10
12.3632589631
 20
7.9715469639
 30
0.0
 10
12.3505146858
 20
7.9511605817
 30
0.0
 10
12.3357447284
 20
7.9322660649
 30
0.0
 10
12.3190917603
 20
7.9150464236
 30
0.0
 10
12.3007169281
 20
7.89966831
 30
0.0
 10
12.2807981063
 20
7.8862804567
 30
0.0
 10
12.2595282315
 20
7.8750120591
 30
0.0
 10
12.2371132235
 20
7.8659714491
 30
0.0
 10
12.2137701123
 20
7.8592452465
 30
0.0
 10
12.1897237452
 20
7.854897689
 30
0.0
 10
12.1652091443
 20
7.8529692921
 30
0.0
 10
12.1487597394
 20
7.853307728
 30
0.0
 10
12.140540807
 20
7.8538777129
 30
0.0
  0
SPLINE
  5
3B6
100
AcDbEntity
  8
0
100
AcDbSpline
 62
7
  6
CONTINUOUS
 70
0
 71
3
 72
15
 73
11
 74
0
 42
0.0000001
 43
0.0000001
 44
0.0000000001
 40
0.0
 40
0.0
 40
0.0
 40
0.0
 40
0.1089385984
 40
0.2213865385
 40
0.3379713623
 40
0.459249612
 40
0.5857076072
 40
0.7177655401
 40
0.8557689865
 40
1.0
 40
1.0
 40
1.0
 40
1.0
 10
13.4004605211
 20
6.8393663366
 30
0.0
 10
13.4016180119
 20
6.8396584519
 30
0.0
 10
13.4039454058
 20
6.8403549912
 30
0.0
 10
13.4073991042
 20
6.8417022282
 30
0.0
 10
13.4108627964
 20
6.8433653377
 30
0.0
 10
13.4143343543
 20
6.84534297
 30
0.0
 10
13.4178122901
 20
6.8476337117
 30
0.0
 10
13.4212948175
 20
6.8502362137
 30
0.0
 10
13.424780058
 20
6.8531486001
 30
0.0
 10
13.4270528635
 20
6.8552481899
 30
0.0
 10
13.428189665
 20
6.8563462559
 30
0.0
  0
SPLINE
  5
3B7
100
AcDbEntity
  8
0
100
AcDbSpline
 62
7
  6
CONTINUOUS
 70
0
 71
3
 72
63
 73
59
 74
0
 42
0.0000001
 43
0.0000001
 44
0.0000000001
 40
0.0
 40
0.0
 40
0.0
 40
0.0
 40
0.0028266937
 40
0.0057358572
 40
0.0118533685
 40
0.0150889442
 40
0.0184547747
 40
0.0256077275
 40
0.033368545
 40
0.0417751926
 40
0.0508531297
 40
0.060618003
 40
0.0710777204
 40
0.0822339016
 40
0.0940830311
 40
0.1066173886
 40
0.1198256476
 40
0.1336933371
 40
0.1482033201
 40
0.163336085
 40
0.1790699302
 40
0.195381253
 40
0.2122447364
 40
0.2296334346
 40
0.2475189559
 40
0.2658716185
 40
0.2846605118
 40
0.3038536104
 40
0.3433187484
 40
0.3839936181
 40
0.4255925221
 40
0.4678211853
 40
0.5103796019
 40
0.5529647729
 40
0.5952734593
 40
0.6370049156
 40
0.6778636759
 40
0.71756231
 40
0.7368900816
 40
0.7558251578
 40
0.7743351836
 40
0.7923888381
 40
0.8099559701
 40
0.8270077435
 40
0.8435166968
 40
0.8594568866
 40
0.8748041046
 40
0.8895359809
 40
0.9036321683
 40
0.9170746623
 40
0.9298480486
 40
0.9419398139
 40
0.9533408762
 40
0.9640462187
 40
0.9740554927
 40
0.9833741278
 40
0.992015323
 40
1.0
 40
1.0
 40
1.0
 40
1.0
 10
13.4790205883
 20
7.973884245
 30
0.0
 10
13.4800406613
 20
7.9734736878
 30
0.0
 10
13.4820778812
 20
7.9725568702
 30
0.0
 10
13.4861310536
 20
7.9703514582
 30
0.0
 10
13.4900646277
 20
7.9676236148
 30
0.0
 10
13.4938605419
 20
7.9644475486
 30
0.0
 10
13.4977646459
 20
7.9607848583
 30
0.0
 10
13.5025533017
 20
7.9555115561
 30
0.0
 10
13.5080394579
 20
7.9482747683
 30
0.0
 10
13.5133707747
 20
7.9400177716
 30
0.0
 10
13.5185387549
 20
7.9307556667
 30
0.0
 10
13.5235350151
 20
7.92050458
 30
0.0
 10
13.5283506892
 20
7.9092829135
 30
0.0
 10
13.5329770223
 20
7.8971110667
 30
0.0
 10
13.5374054226
 20
7.8840114629
 30
0.0
 10
13.5416275084
 20
7.8700084104
 30
0.0
 10
13.5456352313
 20
7.8551280685
 30
0.0
 10
13.5494209679
 20
7.8393983783
 30
0.0
 10
13.5529774541
 20
7.8228489521
 30
0.0
 10
13.5562978369
 20
7.8055110138
 30
0.0
 10
13.5593757705
 20
7.7874173465
 30
0.0
 10
13.5622053449
 20
7.7686021966
 30
0.0
 10
13.5647810951
 20
7.7491011995
 30
0.0
 10
13.5670980879
 20
7.7289513255
 30
0.0
 10
13.5691518884
 20
7.7081907926
 30
0.0
 10
13.5709385172
 20
7.6868589943
 30
0.0
 10
13.5724545804
 20
7.6649963801
 30
0.0
 10
13.5741266933
 20
7.6349148334
 30
0.0
 10
13.5755039059
 20
7.5962938624
 30
0.0
 10
13.5760316945
 20
7.5489356196
 30
0.0
 10
13.5754445607
 20
7.5005030565
 30
0.0
 10
13.5737467198
 20
7.4513637903
 30
0.0
 10
13.5709507643
 20
7.4018905591
 30
0.0
 10
13.5670778316
 20
7.3524587513
 30
0.0
 10
13.5621573896
 20
7.3034434361
 30
0.0
 10
13.5562269435
 20
7.2552163915
 30
0.0
 10
13.5493318118
 20
7.2081436477
 30
0.0
 10
13.5427690638
 20
7.1698416309
 30
0.0
 10
13.5370618619
 20
7.1400554175
 30
0.0
 10
13.5326131735
 20
7.1184225366
 30
0.0
 10
13.5279667227
 20
7.097338502
 30
0.0
 10
13.5231313085
 20
7.0768433026
 30
0.0
 10
13.5181161535
 20
7.0569758331
 30
0.0
 10
13.5129308476
 20
7.0377737606
 30
0.0
 10
13.5075852798
 20
7.0192734872
 30
0.0
 10
13.5020896253
 20
7.0015100672
 30
0.0
 10
13.4964543988
 20
6.9845171103
 30
0.0
 10
13.4906903574
 20
6.9683267383
 30
0.0
 10
13.4848084619
 20
6.9529695252
 30
0.0
 10
13.4788199358
 20
6.9384743873
 30
0.0
 10
13.4727361826
 20
6.9248685348
 30
0.0
 10
13.4665687003
 20
6.912177432
 30
0.0
 10
13.4603291177
 20
6.9004246777
 30
0.0
 10
13.4540290728
 20
6.8896319345
 30
0.0
 10
13.4476802061
 20
6.8798190201
 30
0.0
 10
13.4412935952
 20
6.8710032746
 30
0.0
 10
13.4348809261
 20
6.8632013399
 30
0.0
 10
13.4304237181
 20
6.8585041856
 30
0.0
 10
13.428189665
 20
6.8563462559
 30
0.0
  0
SPLINE
  5
3B8
100
AcDbEntity
  8
0
100
AcDbSpline
 62
7
  6
CONTINUOUS
 70
0
 71
3
 72
19
 73
15
 74
0
 42
0.0000001
 43
0.0000001
 44
0.0000000001
 40
0.0
 40
0.0
 40
0.0
 40
0.0
 40
0.0616584539
 40
0.1233399361
 40
0.1850672157
 40
0.24686257
 40
0.3087474986
 40
0.3707425057
 40
0.4328669055
 40
0.4951385767
 40
0.6201443509
 40
0.745911736
 40
0.8725153439
 40
1.0
 40
1.0
 40
1.0
 40
1.0
 10
8.8076521429
 20
10.2090071122
 30
0.0
 10
8.805026172
 20
10.2064706362
 30
0.0
 10
8.7996357094
 20
10.2015369359
 30
0.0
 10
8.7911622605
 20
10.1945803039
 30
0.0
 10
8.7823208951
 20
10.188083457
 30
0.0
 10
8.7731341694
 20
10.1820630786
 30
0.0
 10
8.7636250989
 20
10.1765342993
 30
0.0
 10
8.7538178185
 20
10.1715109953
 30
0.0
 10
8.7437366474
 20
10.167005734
 30
0.0
 10
8.7299493837
 20
10.1616987909
 30
0.0
 10
8.7121437096
 20
10.1564152413
 30
0.0
 10
8.6901385959
 20
10.1523104715
 30
0.0
 10
8.6676842591
 20
10.1504697685
 30
0.0
 10
8.6526120385
 20
10.1507637692
 30
0.0
 10
8.6450814439
 20
10.1512860177
 30
0.0
  0
SPLINE
  5
3B9
100
AcDbEntity
  8
0
100
AcDbSpline
 62
7
  6
CONTINUOUS
 70
0
 71
3
 72
89
 73
85
 74
0
 42
0.0000001
 43
0.0000001
 44
0.0000000001
 40
0.0
 40
0.0
 40
0.0
 40
0.0
 40
0.0039487964
 40
0.0077209395
 40
0.0113257008
 40
0.0147746239
 40
0.0212567857
 40
0.0243283409
 40
0.0273114353
 40
0.0302283165
 40
0.0331029101
 40
0.0359603158
 40
0.0388261175
 40
0.0417256612
 40
0.0446833413
 40
0.0477220342
 40
0.0508626344
 40
0.0541238793
 40
0.0575222112
 40
0.0610718739
 40
0.0647850396
 40
0.068671947
 40
0.0727411866
 40
0.0769997786
 40
0.0814534751
 40
0.086106838
 40
0.0909634184
 40
0.096025914
 40
0.1012961865
 40
0.1067754841
 40
0.1124643818
 40
0.1183629598
 40
0.1244708035
 40
0.1373098545
 40
0.1509709058
 40
0.1654373245
 40
0.1806880061
 40
0.1966979799
 40
0.2134388797
 40
0.230879337
 40
0.2489853007
 40
0.2677203068
 40
0.2870457142
 40
0.3069209138
 40
0.3273035168
 40
0.3481495391
 40
0.3694135736
 40
0.3910489527
 40
0.4130079047
 40
0.4352417069
 40
0.4577008342
 40
0.5030929858
 40
0.5487787045
 40
0.5943480723
 40
0.6169616989
 40
0.6393933848
 40
0.6615930358
 40
0.6835112272
 40
0.7050993527
 40
0.726309776
 40
0.7470959899
 40
0.7674127727
 40
0.7872163497
 40
0.8064645632
 40
0.825117053
 40
0.8431354515
 40
0.8604836039
 40
0.8771278087
 40
0.8930370884
 40
0.9081835142
 40
0.9225426009
 40
0.9360937988
 40
0.9425615343
 40
0.948821749
 40
0.9548732781
 40
0.9607153871
 40
0.9663478073
 40
0.9717707118
 40
0.9769848719
 40
0.9819916194
 40
0.9867931455
 40
0.9913924585
 40
0.995793255
 40
1.0
 40
1.0
 40
1.0
 40
1.0
 10
13.5332004443
 20
8.0562251676
 30
0.0
 10
13.5345981971
 20
8.0575259889
 30
0.0
 10
13.5373925413
 20
8.0600047736
 30
0.0
 10
13.5416800033
 20
8.0634162154
 30
0.0
 10
13.5459636189
 20
8.0664316641
 30
0.0
 10
13.5515485192
 20
8.069849715
 30
0.0
 10
13.5572465827
 20
8.0725755818
 30
0.0
 10
13.5630049412
 20
8.0744905267
 30
0.0
 10
13.5672311234
 20
8.075495968
 30
0.0
 10
13.5714378553
 20
8.0760945463
 30
0.0
 10
13.575622189
 20
8.0762851789
 30
0.0
 10
13.5797805769
 20
8.076067491
 30
0.0
 10
13.5839094903
 20
8.0754415305
 30
0.0
 10
13.5880054641
 20
8.0744080703
 30
0.0
 10
13.5920653595
 20
8.0729685096
 30
0.0
 10
13.596086292
 20
8.071124409
 30
0.0
 10
13.6000658609
 20
8.0688778632
 30
0.0
 10
13.6040017748
 20
8.0662307818
 30
0.0
 10
13.6078920569
 20
8.0631853752
 30
0.0
 10
13.6117347513
 20
8.0597437924
 30
0.0
 10
13.6155279082
 20
8.0559082725
 30
0.0
 10
13.6192696952
 20
8.0516812666
 30
0.0
 10
13.6229580631
 20
8.0470652324
 30
0.0
 10
13.6265911622
 20
8.0420629695
 30
0.0
 10
13.6301669303
 20
8.0366773497
 30
0.0
 10
13.6336834137
 20
8.0309115385
 30
0.0
 10
13.6371386388
 20
8.0247689043
 30
0.0
 10
13.6405305569
 20
8.0182530152
 30
0.0
 10
13.6438572932
 20
8.0113677274
 30
0.0
 10
13.6471168027
 20
8.0041170555
 30
0.0
 10
13.6503072356
 20
7.9965053059
 30
0.0
 10
13.6534267027
 20
7.988536951
 30
0.0
 10
13.6575577102
 20
7.9772548038
 30
0.0
 10
13.6625122736
 20
7.9622814914
 30
0.0
 10
13.6680517276
 20
7.9432589515
 30
0.0
 10
13.6732665664
 20
7.9229389864
 30
0.0
 10
13.6781442074
 20
7.901369907
 30
0.0
 10
13.6826728262
 20
7.8786027552
 30
0.0
 10
13.6868414432
 20
7.8546916863
 30
0.0
 10
13.6906399409
 20
7.8296936474
 30
0.0
 10
13.6940590978
 20
7.8036682613
 30
0.0
 10
13.6970906119
 20
7.7766776541
 30
0.0
 10
13.6997271206
 20
7.7487863004
 30
0.0
 10
13.701962217
 20
7.7200608623
 30
0.0
 10
13.7037904735
 20
7.6905700252
 30
0.0
 10
13.7052074472
 20
7.6603843258
 30
0.0
 10
13.7062096871
 20
7.6295759778
 30
0.0
 10
13.7067947459
 20
7.5982186887
 30
0.0
 10
13.7069611686
 20
7.5663875086
 30
0.0
 10
13.7067085587
 20
7.5341585502
 30
0.0
 10
13.7058104535
 20
7.4906068853
 30
0.0
 10
13.7036432131
 20
7.4357435194
 30
0.0
 10
13.6994189887
 20
7.3697977469
 30
0.0
 10
13.6945595353
 20
7.3149461145
 30
0.0
 10
13.6898805579
 20
7.2713796712
 30
0.0
 10
13.6860017776
 20
7.2390951358
 30
0.0
 10
13.6817541161
 20
7.207196293
 30
0.0
 10
13.6771477209
 20
7.1757594232
 30
0.0
 10
13.6721936624
 20
7.1448597713
 30
0.0
 10
13.6669038322
 20
7.1145712688
 30
0.0
 10
13.6612909427
 20
7.0849663766
 30
0.0
 10
13.6553684854
 20
7.0561159031
 30
0.0
 10
13.6491506992
 20
7.0280888356
 30
0.0
 10
13.6426525371
 20
7.0009521726
 30
0.0
 10
13.6358896314
 20
6.9747707593
 30
0.0
 10
13.6288782532
 20
6.9496071224
 30
0.0
 10
13.6216352804
 20
6.9255213091
 30
0.0
 10
13.6141781521
 20
6.9025707207
 30
0.0
 10
13.6065248186
 20
6.8808100002
 30
0.0
 10
13.5986936884
 20
6.8602907529
 30
0.0
 10
13.5907035801
 20
6.8410618459
 30
0.0
 10
13.5838259042
 20
6.8259240147
 30
0.0
 10
13.5782465755
 20
6.8145065495
 30
0.0
 10
13.5740994281
 20
6.8064274717
 30
0.0
 10
13.5699269181
 20
6.7987035916
 30
0.0
 10
13.5657314806
 20
6.7913394824
 30
0.0
 10
13.5615156531
 20
6.784339484
 30
0.0
 10
13.5572818526
 20
6.7777077752
 30
0.0
 10
13.5530326887
 20
6.7714482357
 30
0.0
 10
13.5487705585
 20
6.7655645699
 30
0.0
 10
13.5444979371
 20
6.7600601615
 30
0.0
 10
13.5402171788
 20
6.7549381902
 30
0.0
 10
13.5359309836
 20
6.750201953
 30
0.0
 10
13.5330067989
 20
6.747237769
 30
0.0
 10
13.5315437346
 20
6.7458245573
 30
0.0
  0
SPLINE
  5
3BA
100
AcDbEntity
  8
0
100
AcDbSpline
 62
7
  6
CONTINUOUS
 70
0
 71
3
 72
19
 73
15
 74
0
 42
0.0000001
 43
0.0000001
 44
0.0000000001
 40
0.0
 40
0.0
 40
0.0
 40
0.0
 40
0.0616584539
 40
0.1233399361
 40
0.1850672157
 40
0.24686257
 40
0.3087474986
 40
0.3707425057
 40
0.4328669055
 40
0.4951385767
 40
0.6201443509
 40
0.745911736
 40
0.8725153439
 40
1.0
 40
1.0
 40
1.0
 40
1.0
 10
12.3100996144
 20
9.966111555
 30
0.0
 10
12.3074736435
 20
9.9635750791
 30
0.0
 10
12.3020831809
 20
9.9586413788
 30
0.0
 10
12.293609732
 20
9.9516847467
 30
0.0
 10
12.2847683666
 20
9.9451878998
 30
0.0
 10
12.2755816409
 20
9.9391675215
 30
0.0
 10
12.2660725704
 20
9.9336387422
 30
0.0
 10
12.25626529
 20
9.9286154381
 30
0.0
 10
12.2461841189
 20
9.9241101769
 30
0.0
 10
12.2323968552
 20
9.9188032338
 30
0.0
 10
12.2145911812
 20
9.9135196841
 30
0.0
 10
12.1925860674
 20
9.9094149144
 30
0.0
 10
12.1701317307
 20
9.9075742114
 30
0.0
 10
12.15505951
 20
9.9078682121
 30
0.0
 10
12.1475289154
 20
9.9083904606
 30
0.0
  0
SPLINE
  5
3BB
100
AcDbEntity
  8
0
100
AcDbSpline
 62
7
  6
CONTINUOUS
 70
0
 71
3
 72
18
 73
14
 74
0
 42
0.0000001
 43
0.0000001
 44
0.0000000001
 40
0.0
 40
0.0
 40
0.0
 40
0.0
 40
0.0539806622
 40
0.1081920731
 40
0.1628619191
 40
0.2182116546
 40
0.3317375181
 40
0.4503907162
 40
0.5120901745
 40
0.575557518
 40
0.7082858204
 40
0.8495325552
 40
1.0
 40
1.0
 40
1.0
 40
1.0
 10
13.378303978
 20
9.3233803577
 30
0.0
 10
13.3793477643
 20
9.3233079759
 30
0.0
 10
13.381445406
 20
9.3232337789
 30
0.0
 10
13.3846027217
 20
9.3233352119
 30
0.0
 10
13.3877728587
 20
9.3236492988
 30
0.0
 10
13.3920502544
 20
9.3243569178
 30
0.0
 10
13.3974507974
 20
9.3257933855
 30
0.0
 10
13.4027569517
 20
9.3278983541
 30
0.0
 10
13.4070007994
 20
9.3299815108
 30
0.0
 10
13.4113732784
 20
9.3324079415
 30
0.0
 10
13.4168566361
 20
9.3359911219
 30
0.0
 10
13.4233483281
 20
9.3410574622
 30
0.0
 10
13.427540869
 20
9.3448592274
 30
0.0
 10
13.4296385539
 20
9.3468854355
 30
0.0
  0
SPLINE
  5
3BC
100
AcDbEntity
  8
0
100
AcDbSpline
 62
7
  6
CONTINUOUS
 70
0
 71
3
 72
19
 73
15
 74
0
 42
0.0000001
 43
0.0000001
 44
0.0000000001
 40
0.0
 40
0.0
 40
0.0
 40
0.0
 40
0.0616584539
 40
0.1233399361
 40
0.1850672157
 40
0.24686257
 40
0.3087474986
 40
0.3707425057
 40
0.4328669055
 40
0.4951385767
 40
0.6201443509
 40
0.745911736
 40
0.8725153439
 40
1.0
 40
1.0
 40
1.0
 40
1.0
 10
12.3100996144
 20
7.944428801
 30
0.0
 10
12.3074736435
 20
7.9418923251
 30
0.0
 10
12.3020831809
 20
7.9369586248
 30
0.0
 10
12.293609732
 20
7.9300019927
 30
0.0
 10
12.2847683666
 20
7.9235051458
 30
0.0
 10
12.2755816409
 20
7.9174847675
 30
0.0
 10
12.2660725704
 20
7.9119559882
 30
0.0
 10
12.25626529
 20
7.9069326841
 30
0.0
 10
12.2461841189
 20
7.9024274229
 30
0.0
 10
12.2323968552
 20
7.8971204798
 30
0.0
 10
12.2145911812
 20
7.8918369301
 30
0.0
 10
12.1925860674
 20
7.8877321604
 30
0.0
 10
12.1701317307
 20
7.8858914574
 30
0.0
 10
12.15505951
 20
7.8861854581
 30
0.0
 10
12.1475289154
 20
7.8867077066
 30
0.0
  0
SPLINE
  5
3BD
100
AcDbEntity
  8
0
100
AcDbSpline
 62
7
  6
CONTINUOUS
 70
0
 71
3
 72
19
 73
15
 74
0
 42
0.0000001
 43
0.0000001
 44
0.0000000001
 40
0.0
 40
0.0
 40
0.0
 40
0.0
 40
0.0616584539
 40
0.1233399361
 40
0.1850672157
 40
0.24686257
 40
0.3087474986
 40
0.3707425057
 40
0.4328669055
 40
0.4951385767
 40
0.6201443509
 40
0.745911736
 40
0.8725153439
 40
1.0
 40
1.0
 40
1.0
 40
1.0
 10
12.3100996144
 20
5.0167075457
 30
0.0
 10
12.3074736435
 20
5.0141710698
 30
0.0
 10
12.3020831809
 20
5.0092373695
 30
0.0
 10
12.293609732
 20
5.0022807374
 30
0.0
 10
12.2847683666
 20
4.9957838905
 30
0.0
 10
12.2755816409
 20
4.9897635122
 30
0.0
 10
12.2660725704
 20
4.9842347329
 30
0.0
 10
12.25626529
 20
4.9792114288
 30
0.0
 10
12.2461841189
 20
4.9747061676
 30
0.0
 10
12.2323968552
 20
4.9693992244
 30
0.0
 10
12.2145911812
 20
4.9641156748
 30
0.0
 10
12.1925860674
 20
4.960010905
 30
0.0
 10
12.1701317307
 20
4.9581702021
 30
0.0
 10
12.15505951
 20
4.9584642028
 30
0.0
 10
12.1475289154
 20
4.9589864513
 30
0.0
  0
SPLINE
  5
3BE
100
AcDbEntity
  8
0
100
AcDbSpline
 62
7
  6
CONTINUOUS
 70
0
 71
3
 72
23
 73
19
 74
0
 42
0.0000001
 43
0.0000001
 44
0.0000000001
 40
0.0
 40
0.0
 40
0.0
 40
0.0
 40
0.0615913054
 40
0.1236546668
 40
0.18615589
 40
0.249035174
 40
0.3122155952
 40
0.3756054673
 40
0.43910312
 40
0.502601781
 40
0.5659946292
 40
0.6291798585
 40
0.6920655642
 40
0.7545742962
 40
0.8166470982
 40
0.878246785
 40
0.9393603037
 40
1.0
 40
1.0
 40
1.0
 40
1.0
 10
12.2825132271
 20
6.626989615
 30
0.0
 10
12.2825132271
 20
6.6217911672
 30
0.0
 10
12.2831141
 20
6.6113450637
 30
0.0
 10
12.2857809761
 20
6.5958294713
 30
0.0
 10
12.2901808291
 20
6.5805990309
 30
0.0
 10
12.2962556753
 20
6.565855103
 30
0.0
 10
12.3039255459
 20
6.5517892633
 30
0.0
 10
12.3130899237
 20
6.5385849914
 30
0.0
 10
12.3236290343
 20
6.5264143228
 30
0.0
 10
12.3354053906
 20
6.515436005
 30
0.0
 10
12.3482654174
 20
6.5057932729
 30
0.0
 10
12.3620415031
 20
6.4976121042
 30
0.0
 10
12.3765541262
 20
6.4909996613
 30
0.0
 10
12.391614169
 20
6.4860429017
 30
0.0
 10
12.4070249346
 20
6.4828072238
 30
0.0
 10
12.4225859216
 20
6.4813359853
 30
0.0
 10
12.4380908181
 20
6.4816489981
 30
0.0
 10
12.4482990551
 20
6.4830517238
 30
0.0
 10
12.4533193859
 20
6.4840474801
 30
0.0
  0
SPLINE
  5
3BF
100
AcDbEntity
  8
0
100
AcDbSpline
 62
7
  6
CONTINUOUS
 70
0
 71
3
 72
39
 73
35
 74
0
 42
0.0000001
 43
0.0000001
 44
0.0000000001
 40
0.0
 40
0.0
 40
0.0
 40
0.0
 40
0.0314025961
 40
0.0630095117
 40
0.0948071013
 40
0.1267734468
 40
0.1588809726
 40
0.1910970221
 40
0.2233851126
 40
0.2557062443
 40
0.2880202666
 40
0.3202872754
 40
0.3524690059
 40
0.3845301832
 40
0.4164397932
 40
0.4481722491
 40
0.4797084079
 40
0.5110363805
 40
0.5421521194
 40
0.5730597416
 40
0.6037715202
 40
0.6343075557
 40
0.6646951111
 40
0.6949675901
 40
0.7251632182
 40
0.7553234778
 40
0.7854913545
 40
0.8157095094
 40
0.8460184692
 40
0.8764549219
 40
0.9070502403
 40
0.9378293108
 40
0.9688091314
 40
1.0
 40
1.0
 40
1.0
 40
1.0
 10
12.140540807
 20
7.8538777129
 30
0.0
 10
12.1322660834
 20
7.854451567
 30
0.0
 10
12.1157083627
 20
7.856418474
 30
0.0
 10
12.0912054677
 20
7.8617605492
 30
0.0
 10
12.0671775125
 20
7.8694525311
 30
0.0
 10
12.043858262
 20
7.879419889
 30
0.0
 10
12.0214707031
 20
7.8915662721
 30
0.0
 10
12.0002298075
 20
7.9057746156
 30
0.0
 10
11.9803393174
 20
7.9219083098
 30
0.0
 10
11.9619900769
 20
7.9398123124
 30
0.0
 10
11.945358145
 20
7.9593146855
 30
0.0
 10
11.9306032936
 20
7.9802283198
 30
0.0
 10
11.917867379
 20
8.0023525753
 30
0.0
 10
11.9072729333
 20
8.0254751629
 30
0.0
 10
11.8989221856
 20
8.0493742407
 30
0.0
 10
11.8928960033
 20
8.0738204199
 30
0.0
 10
11.8892529386
 20
8.098578891
 30
0.0
 10
11.8880288656
 20
8.123411694
 30
0.0
 10
11.8892365635
 20
8.1480799053
 30
0.0
 10
11.892865291
 20
8.1723459105
 30
0.0
 10
11.8988810326
 20
8.1959756869
 30
0.0
 10
11.9072267615
 20
8.218741011
 30
0.0
 10
11.9178226508
 20
8.2404217731
 30
0.0
 10
11.9305669281
 20
8.2608081553
 30
0.0
 10
11.9453368855
 20
8.2797026722
 30
0.0
 10
11.9619898536
 20
8.2969223134
 30
0.0
 10
11.9803646858
 20
8.312300427
 30
0.0
 10
12.0002835076
 20
8.3256882804
 30
0.0
 10
12.0215533824
 20
8.336956678
 30
0.0
 10
12.0439683904
 20
8.3459972879
 30
0.0
 10
12.0673115017
 20
8.3527234906
 30
0.0
 10
12.0913578687
 20
8.357071048
 30
0.0
 10
12.1158724696
 20
8.358999445
 30
0.0
 10
12.1323218745
 20
8.358661009
 30
0.0
 10
12.140540807
 20
8.3580910241
 30
0.0
  0
SPLINE
  5
3C0
100
AcDbEntity
  8
0
100
AcDbSpline
 62
7
  6
CONTINUOUS
 70
0
 71
3
 72
19
 73
15
 74
0
 42
0.0000001
 43
0.0000001
 44
0.0000000001
 40
0.0
 40
0.0
 40
0.0
 40
0.0
 40
0.0616584539
 40
0.1233399361
 40
0.1850672157
 40
0.24686257
 40
0.3087474986
 40
0.3707425057
 40
0.4328669055
 40
0.4951385767
 40
0.6201443509
 40
0.745911736
 40
0.8725153439
 40
1.0
 40
1.0
 40
1.0
 40
1.0
 10
8.8076521429
 20
5.2596031028
 30
0.0
 10
8.805026172
 20
5.2570666269
 30
0.0
 10
8.7996357094
 20
5.2521329266
 30
0.0
 10
8.7911622605
 20
5.2451762945
 30
0.0
 10
8.7823208951
 20
5.2386794476
 30
0.0
 10
8.7731341694
 20
5.2326590693
 30
0.0
 10
8.7636250989
 20
5.22713029
 30
0.0
 10
8.7538178185
 20
5.222106986
 30
0.0
 10
8.7437366474
 20
5.2176017247
 30
0.0
 10
8.7299493837
 20
5.2122947816
 30
0.0
 10
8.7121437096
 20
5.207011232
 30
0.0
 10
8.6901385959
 20
5.2029064622
 30
0.0
 10
8.6676842591
 20
5.2010657592
 30
0.0
 10
8.6526120385
 20
5.2013597599
 30
0.0
 10
8.6450814439
 20
5.2018820084
 30
0.0
  0
SPLINE
  5
3C1
100
AcDbEntity
  8
0
100
AcDbSpline
 62
7
  6
CONTINUOUS
 70
0
 71
3
 72
80
 73
76
 74
0
 42
0.0000001
 43
0.0000001
 44
0.0000000001
 40
0.0
 40
0.0
 40
0.0
 40
0.0
 40
0.0027164333
 40
0.0054532439
 40
0.0082303134
 40
0.0110666083
 40
0.0139798205
 40
0.0169861235
 40
0.0201000925
 40
0.0233346074
 40
0.026700957
 40
0.0302089165
 40
0.0338668215
 40
0.0376817913
 40
0.0416597662
 40
0.0458056845
 40
0.050123623
 40
0.0546168076
 40
0.0592878207
 40
0.0641386007
 40
0.069170517
 40
0.0743845042
 40
0.0797809924
 40
0.0853600588
 40
0.0970639113
 40
0.1094906686
 40
0.1226299231
 40
0.1364675895
 40
0.1509864065
 40
0.1661663203
 40
0.1819847808
 40
0.1984170266
 40
0.2154363068
 40
0.2330140629
 40
0.2511200738
 40
0.2697226139
 40
0.2887886001
 40
0.3082837127
 40
0.3281725017
 40
0.3484184966
 40
0.3689843299
 40
0.4109214131
 40
0.4536714881
 40
0.4969135678
 40
0.540321931
 40
0.5835692664
 40
0.6263297968
 40
0.6682824438
 40
0.6888579262
 40
0.7091147793
 40
0.729015614
 40
0.748523937
 40
0.767604256
 40
0.7862222043
 40
0.8043446634
 40
0.8219398727
 40
0.8389775592
 40
0.855429091
 40
0.8712676607
 40
0.8864684515
 40
0.9010088461
 40
0.9148686856
 40
0.9280306091
 40
0.9404804364
 40
0.9522076406
 40
0.9577984264
 40
0.9632066643
 40
0.9684323667
 40
0.9734759758
 40
0.9783383371
 40
0.983020791
 40
0.9875253588
 40
0.9918546114
 40
0.9960116066
 40
1.0
 40
1.0
 40
1.0
 40
1.0
 10
13.4809731297
 20
10.8038245245
 30
0.0
 10
13.4823579816
 20
10.8037284913
 30
0.0
 10
13.4851309859
 20
10.8034103739
 30
0.0
 10
13.4892551722
 20
10.8025589848
 30
0.0
 10
13.4933482031
 20
10.8013336781
 30
0.0
 10
13.4974071477
 20
10.7997355475
 30
0.0
 10
13.5014298869
 20
10.7977660047
 30
0.0
 10
13.5054144242
 20
10.7954266922
 30
0.0
 10
13.5093588315
 20
10.7927191324
 30
0.0
 10
13.5132614335
 20
10.7896451595
 30
0.0
 10
13.5171205201
 20
10.7862065239
 30
0.0
 10
13.5209343835
 20
10.7824050724
 30
0.0
 10
13.52470145
 20
10.7782428651
 30
0.0
 10
13.5284199525
 20
10.7737219337
 30
0.0
 10
13.5320882608
 20
10.7688445783
 30
0.0
 10
13.5357046959
 20
10.7636132109
 30
0.0
 10
13.5392674841
 20
10.7580303665
 30
0.0
 10
13.5427750236
 20
10.7520988444
 30
0.0
 10
13.5462255533
 20
10.7458215304
 30
0.0
 10
13.5496174032
 20
10.7392015328
 30
0.0
 10
13.5529489602
 20
10.7322421417
 30
0.0
 10
13.556218482
 20
10.7249467795
 30
0.0
 10
13.5594244671
 20
10.7173190865
 30
0.0
 10
13.5636802087
 20
10.7065380296
 30
0.0
 10
13.5688129059
 20
10.6922449482
 30
0.0
 10
13.574599535
 20
10.6740956108
 30
0.0
 10
13.5800963061
 20
10.6547206474
 30
0.0
 10
13.5852921128
 20
10.6341587576
 30
0.0
 10
13.5901764145
 20
10.6124507578
 30
0.0
 10
13.5947392747
 20
10.5896399869
 30
0.0
 10
13.5989714269
 20
10.5657720583
 30
0.0
 10
13.6028642608
 20
10.5408947787
 30
0.0
 10
13.6064098512
 20
10.5150580163
 30
0.0
 10
13.6096009681
 20
10.4883136036
 30
0.0
 10
13.6124311215
 20
10.4607152349
 30
0.0
 10
13.614894558
 20
10.4323183474
 30
0.0
 10
13.6169862604
 20
10.4031799954
 30
0.0
 10
13.6187019624
 20
10.373358729
 30
0.0
 10
13.6200381504
 20
10.3429145043
 30
0.0
 10
13.62099215
 20
10.31190848
 30
0.0
 10
13.6217567013
 20
10.2696273225
 30
0.0
 10
13.6217312205
 20
10.2158342488
 30
0.0
 10
13.6201679314
 20
10.1504717198
 30
0.0
 10
13.6170834473
 20
10.0844105536
 30
0.0
 10
13.6125023929
 20
10.0181816945
 30
0.0
 10
13.6064615998
 20
9.9523169675
 30
0.0
 10
13.5990096899
 20
9.8873457217
 30
0.0
 10
13.5916274958
 20
9.834043196
 30
0.0
 10
13.5850477952
 20
9.792251479
 30
0.0
 10
13.5798328065
 20
9.7616554037
 30
0.0
 10
13.5743164898
 20
9.7316665472
 30
0.0
 10
13.5685099272
 20
9.7023451503
 30
0.0
 10
13.5624248429
 20
9.6737501628
 30
0.0
 10
13.5560735182
 20
9.6459390425
 30
0.0
 10
13.5494687906
 20
9.6189676516
 30
0.0
 10
13.5426240022
 20
9.5928901488
 30
0.0
 10
13.5355529791
 20
9.5677588825
 30
0.0
 10
13.5282700005
 20
9.5436242691
 30
0.0
 10
13.5207897974
 20
9.5205346707
 30
0.0
 10
13.5131274881
 20
9.4985363045
 30
0.0
 10
13.5052985497
 20
9.4776731373
 30
0.0
 10
13.4973187704
 20
9.4579868178
 30
0.0
 10
13.4892042221
 20
9.439516402
 30
0.0
 10
13.4809712365
 20
9.4222987614
 30
0.0
 10
13.4739175094
 20
9.408816022
 30
0.0
 10
13.4682162871
 20
9.3986970453
 30
0.0
 10
13.4639892916
 20
9.3915632988
 30
0.0
 10
13.4597450323
 20
9.3847672812
 30
0.0
 10
13.4554856385
 20
9.3783123525
 30
0.0
 10
13.4512132533
 20
9.372201717
 30
0.0
 10
13.4469298903
 20
9.3664384078
 30
0.0
 10
13.4426376628
 20
9.361025176
 30
0.0
 10
13.4383385342
 20
9.3559647154
 30
0.0
 10
13.4340348849
 20
9.3512597708
 30
0.0
 10
13.431104529
 20
9.3483014589
 30
0.0
 10
13.4296385539
 20
9.3468854355
 30
0.0
  0
SPLINE
  5
3C2
100
AcDbEntity
  8
0
100
AcDbSpline
 62
7
  6
CONTINUOUS
 70
0
 71
3
 72
19
 73
15
 74
0
 42
0.0000001
 43
0.0000001
 44
0.0000000001
 40
0.0
 40
0.0
 40
0.0
 40
0.0
 40
0.0616584539
 40
0.1233399361
 40
0.1850672157
 40
0.24686257
 40
0.3087474986
 40
0.3707425057
 40
0.4328669055
 40
0.4951385767
 40
0.6201443509
 40
0.745911736
 40
0.8725153439
 40
1.0
 40
1.0
 40
1.0
 40
1.0
 10
8.8076521429
 20
7.2812856841
 30
0.0
 10
8.805026172
 20
7.2787492082
 30
0.0
 10
8.7996357094
 20
7.2738155079
 30
0.0
 10
8.7911622605
 20
7.2668588758
 30
0.0
 10
8.7823208951
 20
7.2603620289
 30
0.0
 10
8.7731341694
 20
7.2543416506
 30
0.0
 10
8.7636250989
 20
7.2488128713
 30
0.0
 10
8.7538178185
 20
7.2437895672
 30
0.0
 10
8.7437366474
 20
7.239284306
 30
0.0
 10
8.7299493837
 20
7.2339773629
 30
0.0
 10
8.7121437096
 20
7.2286938132
 30
0.0
 10
8.6901385959
 20
7.2245890435
 30
0.0
 10
8.6676842591
 20
7.2227483405
 30
0.0
 10
8.6526120385
 20
7.2230423412
 30
0.0
 10
8.6450814439
 20
7.2235645897
 30
0.0
  0
SPLINE
  5
3C3
100
AcDbEntity
  8
0
100
AcDbSpline
 62
7
  6
CONTINUOUS
 70
0
 71
3
 72
95
 73
91
 74
0
 42
0.0000001
 43
0.0000001
 44
0.0000000001
 40
0.0
 40
0.0
 40
0.0
 40
0.0
 40
0.00394881
 40
0.0077209191
 40
0.0113256466
 40
0.0147745618
 40
0.0212567286
 40
0.0243282669
 40
0.0273113531
 40
0.0302282235
 40
0.0331028085
 40
0.0359602029
 40
0.0388259928
 40
0.0417255201
 40
0.044683191
 40
0.0477218617
 40
0.0508624509
 40
0.0541236743
 40
0.0575219856
 40
0.0610716349
 40
0.0647847676
 40
0.0686716682
 40
0.0727408689
 40
0.0769994493
 40
0.0814531139
 40
0.0861064512
 40
0.090963012
 40
0.0960254677
 40
0.101295727
 40
0.1067749797
 40
0.1124638594
 40
0.1183623996
 40
0.1244702136
 40
0.130786423
 40
0.1373097996
 40
0.1440387315
 40
0.150971284
 40
0.1654376349
 40
0.1806882461
 40
0.1966981434
 40
0.2134389637
 40
0.2308793411
 40
0.2489852249
 40
0.2677201498
 40
0.2870454724
 40
0.306920582
 40
0.3273030931
 40
0.3481490254
 40
0.3694129718
 40
0.391048263
 40
0.4130071252
 40
0.4352408345
 40
0.4576998673
 40
0.4803340498
 40
0.5030927055
 40
0.5259248019
 40
0.548779097
 40
0.5716042852
 40
0.5943491443
 40
0.6169626815
 40
0.6393942792
 40
0.6615938427
 40
0.6835119471
 40
0.7050999876
 40
0.7263103299
 40
0.7470964652
 40
0.7674131697
 40
0.7872166678
 40
0.8064648025
 40
0.8251172162
 40
0.8431355458
 40
0.8604836369
 40
0.8771277834
 40
0.8930370036
 40
0.9081833669
 40
0.9225423907
 40
0.9294203063
 40
0.9360940444
 40
0.942561768
 40
0.9488219474
 40
0.9548734633
 40
0.9607155444
 40
0.9663479366
 40
0.9717708222
 40
0.9769849646
 40
0.9819917111
 40
0.9867932026
 40
0.9913924646
 40
0.9957932363
 40
1.0
 40
1.0
 40
1.0
 40
1.0
 10
13.533615941
 20
10.8771225331
 30
0.0
 10
13.5353644305
 20
10.8787497774
 30
0.0
 10
13.538859932
 20
10.8818505649
 30
0.0
 10
13.5442232123
 20
10.8861180129
 30
0.0
 10
13.5495816604
 20
10.8898901085
 30
0.0
 10
13.556567939
 20
10.8941658463
 30
0.0
 10
13.5636957657
 20
10.8975757762
 30
0.0
 10
13.570899058
 20
10.8999711899
 30
0.0
 10
13.5761856702
 20
10.9012289871
 30
0.0
 10
13.5814479763
 20
10.9019777422
 30
0.0
 10
13.5866822535
 20
10.9022162508
 30
0.0
 10
13.5918840833
 20
10.9019439793
 30
0.0
 10
13.5970490251
 20
10.901160917
 30
0.0
 10
13.6021727978
 20
10.899868237
 30
0.0
 10
13.6072513806
 20
10.8980673849
 30
0.0
 10
13.6122812997
 20
10.8957606615
 30
0.0
 10
13.6172594007
 20
10.8929503628
 30
0.0
 10
13.6221829466
 20
10.8896391188
 30
0.0
 10
13.6270493981
 20
10.8858295705
 30
0.0
 10
13.6318562816
 20
10.8815244053
 30
0.0
 10
13.6366012875
 20
10.8767265296
 30
0.0
 10
13.6412819069
 20
10.8714388365
 30
0.0
 10
13.6458958432
 20
10.8656645985
 30
0.0
 10
13.6504405173
 20
10.8594071363
 30
0.0
 10
13.6549135621
 20
10.8526701765
 30
0.0
 10
13.6593124103
 20
10.8454576036
 30
0.0
 10
13.6636346108
 20
10.8377736496
 30
0.0
 10
13.667877684
 20
10.8296228054
 30
0.0
 10
13.6720391256
 20
10.8210098399
 30
0.0
 10
13.6761165739
 20
10.8119398405
 30
0.0
 10
13.6801075296
 20
10.8024181298
 30
0.0
 10
13.6840097361
 20
10.7924503634
 30
0.0
 10
13.6878207713
 20
10.7820424229
 30
0.0
 10
13.691538452
 20
10.7712005015
 30
0.0
 10
13.6951604872
 20
10.7599310348
 30
0.0
 10
13.6986847799
 20
10.7482407182
 30
0.0
 10
13.7033164505
 20
10.7318686963
 30
0.0
 10
13.7088279025
 20
10.7103923414
 30
0.0
 10
13.7149294808
 20
10.6834112437
 30
0.0
 10
13.720594436
 20
10.6549312734
 30
0.0
 10
13.7258090646
 20
10.6250204024
 30
0.0
 10
13.7305606989
 20
10.5937497976
 30
0.0
 10
13.7348378059
 20
10.5611940604
 30
0.0
 10
13.7386300003
 20
10.5274309029
 30
0.0
 10
13.7419280743
 20
10.4925409832
 30
0.0
 10
13.7447240178
 20
10.4566076908
 30
0.0
 10
13.7470110374
 20
10.4197169426
 30
0.0
 10
13.7487835702
 20
10.3819569705
 30
0.0
 10
13.7500372995
 20
10.3434181062
 30
0.0
 10
13.7507691621
 20
10.3041925603
 30
0.0
 10
13.7509773534
 20
10.2643741974
 30
0.0
 10
13.7506613315
 20
10.224058309
 30
0.0
 10
13.7498218173
 20
10.1833413835
 30
0.0
 10
13.7484607925
 20
10.1423208738
 30
0.0
 10
13.7465814941
 20
10.1010949633
 30
0.0
 10
13.7441884068
 20
10.0597623297
 30
0.0
 10
13.7412872509
 20
10.0184219078
 30
0.0
 10
13.737884972
 20
9.977172651
 30
0.0
 10
13.733989722
 20
9.9361132932
 30
0.0
 10
13.7296108389
 20
9.8953421109
 30
0.0
 10
13.7247588247
 20
9.8549566872
 30
0.0
 10
13.7194453206
 20
9.8150536772
 30
0.0
 10
13.7136830793
 20
9.7757285757
 30
0.0
 10
13.707485935
 20
9.7370754866
 30
0.0
 10
13.7008687709
 20
9.6991868964
 30
0.0
 10
13.6938474834
 20
9.6621534487
 30
0.0
 10
13.686438948
 20
9.6260637232
 30
0.0
 10
13.6786609765
 20
9.5910040196
 30
0.0
 10
13.6705322751
 20
9.5570581469
 30
0.0
 10
13.6620723994
 20
9.5243072157
 30
0.0
 10
13.6533017081
 20
9.4928294389
 30
0.0
 10
13.6442413125
 20
9.4626999226
 30
0.0
 10
13.6349130241
 20
9.4339905084
 30
0.0
 10
13.6253392945
 20
9.4067694513
 30
0.0
 10
13.6155431557
 20
9.3811016798
 30
0.0
 10
13.6070972351
 20
9.3607752057
 30
0.0
 10
13.6002332459
 20
9.3453502548
 30
0.0
 10
13.5951182507
 20
9.3343735978
 30
0.0
 10
13.5899653833
 20
9.3238289836
 30
0.0
 10
13.5847776185
 20
9.3137226923
 30
0.0
 10
13.5795581452
 20
9.3040607021
 30
0.0
 10
13.5743099679
 20
9.2948487739
 30
0.0
 10
13.569036294
 20
9.2860923193
 30
0.0
 10
13.5637401502
 20
9.2777965526
 30
0.0
 10
13.5584247439
 20
9.2699663528
 30
0.0
 10
13.5530931589
 20
9.2626063267
 30
0.0
 10
13.5477484396
 20
9.2557207572
 30
0.0
 10
13.542393576
 20
9.2493135799
 30
0.0
 10
13.537031877
 20
9.2433889142
 30
0.0
 10
13.5333739308
 20
9.2396809404
 30
0.0
 10
13.5315437346
 20
9.2379131065
 30
0.0
  0
SPLINE
  5
3C4
100
AcDbEntity
  8
0
100
AcDbSpline
 62
7
  6
CONTINUOUS
 70
0
 71
3
 72
41
 73
37
 74
0
 42
0.0000001
 43
0.0000001
 44
0.0000000001
 40
0.0
 40
0.0
 40
0.0
 40
0.0
 40
0.0187319668
 40
0.035847177
 40
0.0515868562
 40
0.0590452286
 40
0.0662885459
 40
0.0733702853
 40
0.0803480554
 40
0.0872823544
 40
0.0942348749
 40
0.101266826
 40
0.1084371444
 40
0.1158011528
 40
0.1234095854
 40
0.1395251574
 40
0.1570956931
 40
0.1763399564
 40
0.1974108929
 40
0.220409949
 40
0.2453986527
 40
0.2724083546
 40
0.301446689
 40
0.3325021144
 40
0.3655480286
 40
0.4005449666
 40
0.4374424127
 40
0.476180788
 40
0.516692145
 40
0.5589011524
 40
0.6027262466
 40
0.6480798251
 40
0.6948689152
 40
0.7923565207
 40
0.8943610393
 40
1.0
 40
1.0
 40
1.0
 40
1.0
 10
14.0174663325
 20
6.6728111652
 30
0.0
 10
14.018515763
 20
6.6737878755
 30
0.0
 10
14.0206128712
 20
6.6755662009
 30
0.0
 10
14.0239084468
 20
6.6777580293
 30
0.0
 10
14.0267020792
 20
6.6790986437
 30
0.0
 10
14.0289139761
 20
6.6798383251
 30
0.0
 10
14.030537267
 20
6.6802281096
 30
0.0
 10
14.0321531704
 20
6.6804621014
 30
0.0
 10
14.0337605227
 20
6.6805398693
 30
0.0
 10
14.0353579783
 20
6.68046131
 30
0.0
 10
14.0369441998
 20
6.6802264411
 30
0.0
 10
14.0385178522
 20
6.6798354689
 30
0.0
 10
14.0400777271
 20
6.6792889982
 30
0.0
 10
14.0416228024
 20
6.6785876132
 30
0.0
 10
14.0437012648
 20
6.6774247336
 30
0.0
 10
14.0462658548
 20
6.6755567271
 30
0.0
 10
14.0492032367
 20
6.6727536526
 30
0.0
 10
14.0520572362
 20
6.6693553801
 30
0.0
 10
14.0548235631
 20
6.6653701607
 30
0.0
 10
14.0574979694
 20
6.6608064113
 30
0.0
 10
14.0600753058
 20
6.6556740147
 30
0.0
 10
14.0625500903
 20
6.6499842247
 30
0.0
 10
14.0649167276
 20
6.6437498293
 30
0.0
 10
14.0671697809
 20
6.636985101
 30
0.0
 10
14.0693038879
 20
6.6297056847
 30
0.0
 10
14.0713139459
 20
6.6219285685
 30
0.0
 10
14.0731951712
 20
6.6136720145
 30
0.0
 10
14.0749429969
 20
6.604955471
 30
0.0
 10
14.0765532126
 20
6.5957995352
 30
0.0
 10
14.0780219668
 20
6.5862258841
 30
0.0
 10
14.0793456672
 20
6.5762572125
 30
0.0
 10
14.0805211733
 20
6.565917156
 30
0.0
 10
14.0819059682
 20
6.5514697085
 30
0.0
 10
14.0832313841
 20
6.5326641216
 30
0.0
 10
14.0841765715
 20
6.5093276231
 30
0.0
 10
14.0843807587
 20
6.4934350137
 30
0.0
 10
14.0843807587
 20
6.4853501091
 30
0.0
  0
SPLINE
  5
3C5
100
AcDbEntity
  8
0
100
AcDbSpline
 62
7
  6
CONTINUOUS
 70
0
 71
3
 72
39
 73
35
 74
0
 42
0.0000001
 43
0.0000001
 44
0.0000000001
 40
0.0
 40
0.0
 40
0.0
 40
0.0
 40
0.0299424668
 40
0.0599093107
 40
0.0899243161
 40
0.1200100985
 40
0.1501875656
 40
0.18047543
 40
0.2108897874
 40
0.2414437743
 40
0.272147306
 40
0.3030068952
 40
0.3340255553
 40
0.3652027855
 40
0.3965346322
 40
0.4280138256
 40
0.4596299855
 40
0.4913698787
 40
0.5232177245
 40
0.5551555411
 40
0.5871635267
 40
0.6192204686
 40
0.6513041787
 40
0.6833919402
 40
0.7154609579
 40
0.7474888094
 40
0.7794538884
 40
0.8113358426
 40
0.8431160045
 40
0.8747777028
 40
0.9063070166
 40
0.9376917362
 40
0.9689253561
 40
1.0
 40
1.0
 40
1.0
 40
1.0
 10
8.7357042261
 20
9.1528961685
 30
0.0
 10
8.7333733756
 20
9.1506447652
 30
0.0
 10
8.7285283459
 20
9.1463237133
 30
0.0
 10
8.7207659167
 20
9.1404370105
 30
0.0
 10
8.712548225
 20
9.135174696
 30
0.0
 10
8.703921199
 20
9.1305662758
 30
0.0
 10
8.6949322615
 20
9.1266369353
 30
0.0
 10
8.6856310181
 20
9.1234082853
 30
0.0
 10
8.6760687275
 20
9.120897988
 30
0.0
 10
8.6662980744
 20
9.1191197381
 30
0.0
 10
8.6563728539
 20
9.1180831903
 30
0.0
 10
8.6463476801
 20
9.1177939162
 30
0.0
 10
8.636277687
 20
9.1182533806
 30
0.0
 10
8.6262182277
 20
9.1194589398
 30
0.0
 10
8.616224576
 20
9.1214038616
 30
0.0
 10
8.6063516186
 20
9.1240773408
 30
0.0
 10
8.5966535595
 20
9.1274645887
 30
0.0
 10
8.5871836279
 20
9.1315469171
 30
0.0
 10
8.5779937911
 20
9.1363018419
 30
0.0
 10
8.5691344755
 20
9.1417032058
 30
0.0
 10
8.5606542955
 20
9.147721323
 30
0.0
 10
8.5525997847
 20
9.1543231311
 30
0.0
 10
8.5450151327
 20
9.1614723646
 30
0.0
 10
8.5379419604
 20
9.1691297724
 30
0.0
 10
8.5314190912
 20
9.1772533272
 30
0.0
 10
8.5254823436
 20
9.1857984535
 30
0.0
 10
8.5201643354
 20
9.1947182669
 30
0.0
 10
8.5154943069
 20
9.2039638315
 30
0.0
 10
8.5114979594
 20
9.2134844055
 30
0.0
 10
8.5081972512
 20
9.2232277624
 30
0.0
 10
8.5056104828
 20
9.2331403287
 30
0.0
 10
8.5037517611
 20
9.243167992
 30
0.0
 10
8.5026316773
 20
9.2532548168
 30
0.0
 10
8.5023807488
 20
9.2600009346
 30
0.0
 10
8.5023807488
 20
9.2633640982
 30
0.0
  0
SPLINE
  5
3C6
100
AcDbEntity
  8
0
100
AcDbSpline
 62
7
  6
CONTINUOUS
 70
0
 71
3
 72
33
 73
29
 74
0
 42
0.0000001
 43
0.0000001
 44
0.0000000001
 40
0.0
 40
0.0
 40
0.0
 40
0.0
 40
0.0126611459
 40
0.0256297051
 40
0.039190396
 40
0.053589075
 40
0.0690268423
 40
0.0856607993
 40
0.1036098057
 40
0.1229606461
 40
0.1437743225
 40
0.166091235
 40
0.1899349992
 40
0.2153160868
 40
0.2422335274
 40
0.2706776426
 40
0.3006304033
 40
0.3320676928
 40
0.3649589323
 40
0.3992690139
 40
0.4349576527
 40
0.4719809607
 40
0.5498333233
 40
0.6324071104
 40
0.7192336595
 40
0.8098059996
 40
0.9035832244
 40
1.0
 40
1.0
 40
1.0
 40
1.0
 10
14.0069381163
 20
6.6553481282
 30
0.0
 10
14.0077309144
 20
6.655293144
 30
0.0
 10
14.0093295003
 20
6.6550493932
 30
0.0
 10
14.011679938
 20
6.6542927405
 30
0.0
 10
14.0139893798
 20
6.653147982
 30
0.0
 10
14.0162533038
 20
6.6516206924
 30
0.0
 10
14.018469521
 20
6.6497155952
 30
0.0
 10
14.0206360684
 20
6.6474370308
 30
0.0
 10
14.0227508181
 20
6.6447889836
 30
0.0
 10
14.024811378
 20
6.6417756741
 30
0.0
 10
14.0268150791
 20
6.6384017267
 30
0.0
 10
14.0287590443
 20
6.6346723221
 30
0.0
 10
14.0306403911
 20
6.630593284
 30
0.0
 10
14.0324561026
 20
6.6261710296
 30
0.0
 10
14.0342033483
 20
6.6214126349
 30
0.0
 10
14.035879188
 20
6.6163257414
 30
0.0
 10
14.0374809667
 20
6.6109186047
 30
0.0
 10
14.0390059329
 20
6.6052000153
 30
0.0
 10
14.0404516586
 20
6.5991793212
 30
0.0
 10
14.0418156367
 20
6.59286638
 30
0.0
 10
14.0430957163
 20
6.5862715393
 30
0.0
 10
14.0447147649
 20
6.5769602765
 30
0.0
 10
14.0464995841
 20
6.5646934352
 30
0.0
 10
14.0482433011
 20
6.5492701369
 30
0.0
 10
14.0496111409
 20
6.5330077916
 30
0.0
 10
14.050593779
 20
6.51601346
 30
0.0
 10
14.0511844554
 20
6.4983989424
 30
0.0
 10
14.0513126514
 20
6.4864605628
 30
0.0
 10
14.0513126514
 20
6.4804087683
 30
0.0
  0
SPLINE
  5
3C7
100
AcDbEntity
  8
0
100
AcDbSpline
 62
7
  6
CONTINUOUS
 70
0
 71
3
 72
39
 73
35
 74
0
 42
0.0000001
 43
0.0000001
 44
0.0000000001
 40
0.0
 40
0.0
 40
0.0
 40
0.0
 40
0.0314025961
 40
0.0630095117
 40
0.0948071013
 40
0.1267734468
 40
0.1588809726
 40
0.1910970221
 40
0.2233851126
 40
0.2557062443
 40
0.2880202666
 40
0.3202872754
 40
0.3524690059
 40
0.3845301832
 40
0.4164397932
 40
0.4481722491
 40
0.4797084079
 40
0.5110363805
 40
0.5421521194
 40
0.5730597416
 40
0.6037715202
 40
0.6343075557
 40
0.6646951111
 40
0.6949675901
 40
0.7251632182
 40
0.7553234778
 40
0.7854913545
 40
0.8157095094
 40
0.8460184692
 40
0.8764549219
 40
0.9070502403
 40
0.9378293108
 40
0.9688091314
 40
1.0
 40
1.0
 40
1.0
 40
1.0
 10
12.140540807
 20
5.4303697688
 30
0.0
 10
12.1488155305
 20
5.4297959148
 30
0.0
 10
12.1653732512
 20
5.4278290078
 30
0.0
 10
12.1898761462
 20
5.4224869325
 30
0.0
 10
12.2139041014
 20
5.4147949506
 30
0.0
 10
12.2372233519
 20
5.4048275928
 30
0.0
 10
12.2596109108
 20
5.3926812096
 30
0.0
 10
12.2808518064
 20
5.3784728662
 30
0.0
 10
12.3007422965
 20
5.3623391719
 30
0.0
 10
12.319091537
 20
5.3444351693
 30
0.0
 10
12.3357234689
 20
5.3249327963
 30
0.0
 10
12.3504783203
 20
5.304019162
 30
0.0
 10
12.3632142349
 20
5.2818949065
 30
0.0
 10
12.3738086806
 20
5.2587723188
 30
0.0
 10
12.3821594283
 20
5.234873241
 30
0.0
 10
12.3881856106
 20
5.2104270618
 30
0.0
 10
12.3918286753
 20
5.1856685907
 30
0.0
 10
12.3930527483
 20
5.1608357877
 30
0.0
 10
12.3918450504
 20
5.1361675764
 30
0.0
 10
12.3882163229
 20
5.1119015713
 30
0.0
 10
12.3822005813
 20
5.0882717948
 30
0.0
 10
12.3738548524
 20
5.0655064708
 30
0.0
 10
12.3632589631
 20
5.0438257086
 30
0.0
 10
12.3505146858
 20
5.0234393264
 30
0.0
 10
12.3357447284
 20
5.0045448096
 30
0.0
 10
12.3190917603
 20
4.9873251683
 30
0.0
 10
12.3007169281
 20
4.9719470547
 30
0.0
 10
12.2807981063
 20
4.9585592014
 30
0.0
 10
12.2595282315
 20
4.9472908037
 30
0.0
 10
12.2371132235
 20
4.9382501938
 30
0.0
 10
12.2137701123
 20
4.9315239912
 30
0.0
 10
12.1897237452
 20
4.9271764337
 30
0.0
 10
12.1652091443
 20
4.9252480368
 30
0.0
 10
12.1487597394
 20
4.9255864727
 30
0.0
 10
12.140540807
 20
4.9261564576
 30
0.0
  0
SPLINE
  5
3C8
100
AcDbEntity
  8
0
100
AcDbSpline
 62
7
  6
CONTINUOUS
 70
0
 71
3
 72
41
 73
37
 74
0
 42
0.0000001
 43
0.0000001
 44
0.0000000001
 40
0.0
 40
0.0
 40
0.0
 40
0.0
 40
0.0187319668
 40
0.035847177
 40
0.0515868562
 40
0.0590452286
 40
0.0662885459
 40
0.0733702853
 40
0.0803480554
 40
0.0872823544
 40
0.0942348749
 40
0.101266826
 40
0.1084371444
 40
0.1158011528
 40
0.1234095854
 40
0.1395251574
 40
0.1570956931
 40
0.1763399564
 40
0.1974108929
 40
0.220409949
 40
0.2453986527
 40
0.2724083546
 40
0.301446689
 40
0.3325021144
 40
0.3655480286
 40
0.4005449666
 40
0.4374424127
 40
0.476180788
 40
0.516692145
 40
0.5589011524
 40
0.6027262466
 40
0.6480798251
 40
0.6948689152
 40
0.7923565207
 40
0.8943610393
 40
1.0
 40
1.0
 40
1.0
 40
1.0
 10
14.0174663325
 20
11.3807337036
 30
0.0
 10
14.018515763
 20
11.3817104139
 30
0.0
 10
14.0206128712
 20
11.3834887394
 30
0.0
 10
14.0239084468
 20
11.3856805678
 30
0.0
 10
14.0267020792
 20
11.3870211821
 30
0.0
 10
14.0289139761
 20
11.3877608635
 30
0.0
 10
14.030537267
 20
11.3881506481
 30
0.0
 10
14.0321531704
 20
11.3883846398
 30
0.0
 10
14.0337605227
 20
11.3884624078
 30
0.0
 10
14.0353579783
 20
11.3883838484
 30
0.0
 10
14.0369441998
 20
11.3881489795
 30
0.0
 10
14.0385178522
 20
11.3877580073
 30
0.0
 10
14.0400777271
 20
11.3872115366
 30
0.0
 10
14.0416228024
 20
11.3865101516
 30
0.0
 10
14.0437012648
 20
11.385347272
 30
0.0
 10
14.0462658548
 20
11.3834792656
 30
0.0
 10
14.0492032367
 20
11.380676191
 30
0.0
 10
14.0520572362
 20
11.3772779186
 30
0.0
 10
14.0548235631
 20
11.3732926992
 30
0.0
 10
14.0574979694
 20
11.3687289497
 30
0.0
 10
14.0600753058
 20
11.3635965531
 30
0.0
 10
14.0625500903
 20
11.3579067631
 30
0.0
 10
14.0649167276
 20
11.3516723677
 30
0.0
 10
14.0671697809
 20
11.3449076395
 30
0.0
 10
14.0693038879
 20
11.3376282232
 30
0.0
 10
14.0713139459
 20
11.3298511069
 30
0.0
 10
14.0731951712
 20
11.3215945529
 30
0.0
 10
14.0749429969
 20
11.3128780094
 30
0.0
 10
14.0765532126
 20
11.3037220737
 30
0.0
 10
14.0780219668
 20
11.2941484226
 30
0.0
 10
14.0793456672
 20
11.2841797509
 30
0.0
 10
14.0805211733
 20
11.2738396944
 30
0.0
 10
14.0819059682
 20
11.2593922469
 30
0.0
 10
14.0832313841
 20
11.24058666
 30
0.0
 10
14.0841765715
 20
11.2172501616
 30
0.0
 10
14.0843807587
 20
11.2013575521
 30
0.0
 10
14.0843807587
 20
11.1932726475
 30
0.0
  0
SPLINE
  5
3C9
100
AcDbEntity
  8
0
100
AcDbSpline
 62
7
  6
CONTINUOUS
 70
0
 71
3
 72
39
 73
35
 74
0
 42
0.0000001
 43
0.0000001
 44
0.0000000001
 40
0.0
 40
0.0
 40
0.0
 40
0.0
 40
0.0299424668
 40
0.0599093107
 40
0.0899243161
 40
0.1200100985
 40
0.1501875656
 40
0.18047543
 40
0.2108897874
 40
0.2414437743
 40
0.272147306
 40
0.3030068952
 40
0.3340255553
 40
0.3652027855
 40
0.3965346322
 40
0.4280138256
 40
0.4596299855
 40
0.4913698787
 40
0.5232177245
 40
0.5551555411
 40
0.5871635267
 40
0.6192204686
 40
0.6513041787
 40
0.6833919402
 40
0.7154609579
 40
0.7474888094
 40
0.7794538884
 40
0.8113358426
 40
0.8431160045
 40
0.8747777028
 40
0.9063070166
 40
0.9376917362
 40
0.9689253561
 40
1.0
 40
1.0
 40
1.0
 40
1.0
 10
12.4187796426
 20
6.4227717571
 30
0.0
 10
12.416448792
 20
6.4205203539
 30
0.0
 10
12.4116037624
 20
6.4161993019
 30
0.0
 10
12.4038413331
 20
6.4103125991
 30
0.0
 10
12.3956236415
 20
6.4050502846
 30
0.0
 10
12.3869966154
 20
6.4004418645
 30
0.0
 10
12.3780076779
 20
6.3965125239
 30
0.0
 10
12.3687064345
 20
6.3932838739
 30
0.0
 10
12.3591441439
 20
6.3907735766
 30
0.0
 10
12.3493734909
 20
6.3889953267
 30
0.0
 10
12.3394482703
 20
6.3879587789
 30
0.0
 10
12.3294230966
 20
6.3876695048
 30
0.0
 10
12.3193531034
 20
6.3881289692
 30
0.0
 10
12.3092936442
 20
6.3893345284
 30
0.0
 10
12.2992999924
 20
6.3912794502
 30
0.0
 10
12.289427035
 20
6.3939529294
 30
0.0
 10
12.279728976
 20
6.3973401773
 30
0.0
 10
12.2702590443
 20
6.4014225057
 30
0.0
 10
12.2610692076
 20
6.4061774305
 30
0.0
 10
12.252209892
 20
6.4115787944
 30
0.0
 10
12.243729712
 20
6.4175969116
 30
0.0
 10
12.2356752011
 20
6.4241987197
 30
0.0
 10
12.2280905492
 20
6.4313479532
 30
0.0
 10
12.2210173768
 20
6.439005361
 30
0.0
 10
12.2144945076
 20
6.4471289158
 30
0.0
 10
12.20855776
 20
6.4556740421
 30
0.0
 10
12.2032397518
 20
6.4645938555
 30
0.0
 10
12.1985697233
 20
6.4738394201
 30
0.0
 10
12.1945733758
 20
6.4833599941
 30
0.0
 10
12.1912726677
 20
6.493103351
 30
0.0
 10
12.1886858992
 20
6.5030159173
 30
0.0
 10
12.1868271775
 20
6.5130435806
 30
0.0
 10
12.1857070937
 20
6.5231304054
 30
0.0
 10
12.1854561652
 20
6.5298765232
 30
0.0
 10
12.1854561652
 20
6.5332396868
 30
0.0
  0
SPLINE
  5
3CA
100
AcDbEntity
  8
0
100
AcDbSpline
 62
7
  6
CONTINUOUS
 70
0
 71
3
 72
33
 73
29
 74
0
 42
0.0000001
 43
0.0000001
 44
0.0000000001
 40
0.0
 40
0.0
 40
0.0
 40
0.0
 40
0.0126611459
 40
0.0256297051
 40
0.039190396
 40
0.053589075
 40
0.0690268423
 40
0.0856607993
 40
0.1036098057
 40
0.1229606461
 40
0.1437743225
 40
0.166091235
 40
0.1899349992
 40
0.2153160868
 40
0.2422335274
 40
0.2706776426
 40
0.3006304033
 40
0.3320676928
 40
0.3649589323
 40
0.3992690139
 40
0.4349576527
 40
0.4719809607
 40
0.5498333233
 40
0.6324071104
 40
0.7192336595
 40
0.8098059996
 40
0.9035832244
 40
1.0
 40
1.0
 40
1.0
 40
1.0
 10
14.0069381163
 20
11.3632706666
 30
0.0
 10
14.0077309144
 20
11.3632156825
 30
0.0
 10
14.0093295003
 20
11.3629719316
 30
0.0
 10
14.011679938
 20
11.3622152789
 30
0.0
 10
14.0139893798
 20
11.3610705205
 30
0.0
 10
14.0162533038
 20
11.3595432308
 30
0.0
 10
14.018469521
 20
11.3576381336
 30
0.0
 10
14.0206360684
 20
11.3553595693
 30
0.0
 10
14.0227508181
 20
11.352711522
 30
0.0
 10
14.024811378
 20
11.3496982125
 30
0.0
 10
14.0268150791
 20
11.3463242651
 30
0.0
 10
14.0287590443
 20
11.3425948605
 30
0.0
 10
14.0306403911
 20
11.3385158225
 30
0.0
 10
14.0324561026
 20
11.334093568
 30
0.0
 10
14.0342033483
 20
11.3293351734
 30
0.0
 10
14.035879188
 20
11.3242482798
 30
0.0
 10
14.0374809667
 20
11.3188411431
 30
0.0
 10
14.0390059329
 20
11.3131225537
 30
0.0
 10
14.0404516586
 20
11.3071018596
 30
0.0
 10
14.0418156367
 20
11.3007889184
 30
0.0
 10
14.0430957163
 20
11.2941940778
 30
0.0
 10
14.0447147649
 20
11.2848828149
 30
0.0
 10
14.0464995841
 20
11.2726159736
 30
0.0
 10
14.0482433011
 20
11.2571926753
 30
0.0
 10
14.0496111409
 20
11.24093033
 30
0.0
 10
14.050593779
 20
11.2239359984
 30
0.0
 10
14.0511844554
 20
11.2063214808
 30
0.0
 10
14.0513126514
 20
11.1943831012
 30
0.0
 10
14.0513126514
 20
11.1883313067
 30
0.0
  0
SPLINE
  5
3CB
100
AcDbEntity
  8
0
100
AcDbSpline
 62
7
  6
CONTINUOUS
 70
0
 71
3
 72
41
 73
37
 74
0
 42
0.0000001
 43
0.0000001
 44
0.0000000001
 40
0.0
 40
0.0
 40
0.0
 40
0.0
 40
0.0299421187
 40
0.0449237623
 40
0.0599145134
 40
0.0899291701
 40
0.1200146003
 40
0.1350933624
 40
0.1501974867
 40
0.1804849896
 40
0.2108989845
 40
0.2414526108
 40
0.2721557833
 40
0.3030150127
 40
0.3340333098
 40
0.3652101722
 40
0.3965416482
 40
0.4280204722
 40
0.4596362655
 40
0.4913757931
 40
0.5232232712
 40
0.5551607155
 40
0.5871683244
 40
0.6192248896
 40
0.6513082259
 40
0.6833956162
 40
0.715464263
 40
0.7474917407
 40
0.779456445
 40
0.8113380241
 40
0.8431178121
 40
0.8747791755
 40
0.9063080162
 40
0.9376926983
 40
0.9689252995
 40
1.0
 40
1.0
 40
1.0
 40
1.0
 10
11.5682445244
 20
5.7345765601
 30
0.0
 10
11.5646113846
 20
5.7310672455
 30
0.0
 10
11.5589474955
 20
5.7260159474
 30
0.0
 10
11.5510153904
 20
5.7197483393
 30
0.0
 10
11.5428306457
 20
5.7137926733
 30
0.0
 10
11.5321509446
 20
5.7069535836
 30
0.0
 10
11.5209519572
 20
5.700971428
 30
0.0
 10
11.5117157508
 20
5.6967156044
 30
0.0
 10
11.5022886798
 20
5.6928112645
 30
0.0
 10
11.4901942392
 20
5.6886128681
 30
0.0
 10
11.4752896514
 20
5.6847001228
 30
0.0
 10
11.4600598525
 20
5.6819282356
 30
0.0
 10
11.4445892345
 20
5.6803125202
 30
0.0
 10
11.4289627827
 20
5.679861594
 30
0.0
 10
11.4132664774
 20
5.6805777537
 30
0.0
 10
11.397586589
 20
5.6824568628
 30
0.0
 10
11.3820092715
 20
5.6854884124
 30
0.0
 10
11.3666200778
 20
5.6896555784
 30
0.0
 10
11.3515035004
 20
5.6949353214
 30
0.0
 10
11.3367425125
 20
5.7012985154
 30
0.0
 10
11.3224181194
 20
5.7087101109
 30
0.0
 10
11.3086089205
 20
5.7171293286
 30
0.0
 10
11.2953906832
 20
5.726509883
 30
0.0
 10
11.2828359328
 20
5.7368002351
 30
0.0
 10
11.2710135596
 20
5.7479438736
 30
0.0
 10
11.2599884445
 20
5.7598796222
 30
0.0
 10
11.2498211074
 20
5.7725419723
 30
0.0
 10
11.2405673773
 20
5.7858614391
 30
0.0
 10
11.2322780911
 20
5.799764938
 30
0.0
 10
11.2249988095
 20
5.8141761829
 30
0.0
 10
11.218769587
 20
5.8290160908
 30
0.0
 10
11.2136247069
 20
5.8442032496
 30
0.0
 10
11.2095925924
 20
5.859654202
 30
0.0
 10
11.2066954549
 20
5.875284471
 30
0.0
 10
11.2049494812
 20
5.89100702
 30
0.0
 10
11.2045583955
 20
5.9015222971
 30
0.0
 10
11.2045583955
 20
5.9067646006
 30
0.0
  0
SPLINE
  5
3CC
100
AcDbEntity
  8
0
100
AcDbSpline
 62
7
  6
CONTINUOUS
 70
0
 71
3
 72
39
 73
35
 74
0
 42
0.0000001
 43
0.0000001
 44
0.0000000001
 40
0.0
 40
0.0
 40
0.0
 40
0.0
 40
0.029942471
 40
0.0599093185
 40
0.089924325
 40
0.1200101043
 40
0.1501875632
 40
0.1804754155
 40
0.2108897611
 40
0.2414437393
 40
0.2721472649
 40
0.3030068482
 40
0.3340255005
 40
0.3652027199
 40
0.3965345553
 40
0.4280137416
 40
0.4596298994
 40
0.4913697937
 40
0.523217641
 40
0.5551554573
 40
0.5871634413
 40
0.619220384
 40
0.6513040994
 40
0.6833918697
 40
0.715460897
 40
0.7474887556
 40
0.7794538398
 40
0.8113357995
 40
0.8431159588
 40
0.874777715
 40
0.9063068673
 40
0.9376920959
 40
0.968924654
 40
1.0
 40
1.0
 40
1.0
 40
1.0
 10
11.8125880646
 20
8.7086649345
 30
0.0
 10
11.8045503702
 20
8.7009011244
 30
0.0
 10
11.7878429452
 20
8.6860000922
 30
0.0
 10
11.7610750599
 20
8.6657000711
 30
0.0
 10
11.7327372402
 20
8.6475531762
 30
0.0
 10
11.7029878294
 20
8.6316611997
 30
0.0
 10
11.6719903848
 20
8.6181109646
 30
0.0
 10
11.6399159747
 20
8.6069769606
 30
0.0
 10
11.6069413441
 20
8.5983201197
 30
0.0
 10
11.5732481622
 20
8.5921877056
 30
0.0
 10
11.539021941
 20
8.5886130155
 30
0.0
 10
11.5044510206
 20
8.5876152626
 30
0.0
 10
11.469725531
 20
8.5891994861
 30
0.0
 10
11.4350363545
 20
8.5933565489
 30
0.0
 10
11.4005740879
 20
8.6000632079
 30
0.0
 10
11.3665280086
 20
8.6092822527
 30
0.0
 10
11.3330850399
 20
8.6209626974
 30
0.0
 10
11.3004287451
 20
8.635040101
 30
0.0
 10
11.2687383341
 20
8.6514369218
 30
0.0
 10
11.2381876962
 20
8.6700629465
 30
0.0
 10
11.2089444585
 20
8.6908157823
 30
0.0
 10
11.1811690825
 20
8.713581419
 30
0.0
 10
11.1550139751
 20
8.7382348277
 30
0.0
 10
11.1306226697
 20
8.7646406577
 30
0.0
 10
11.1081290542
 20
8.7926539795
 30
0.0
 10
11.087656643
 20
8.8221210696
 30
0.0
 10
11.0693179053
 20
8.8528802418
 30
0.0
 10
11.0532136576
 20
8.8847627309
 30
0.0
 10
11.0394324936
 20
8.9175935776
 30
0.0
 10
11.0280503097
 20
8.9511926513
 30
0.0
 10
11.0191298392
 20
8.9853753712
 30
0.0
 10
11.0127204961
 20
9.0199546715
 30
0.0
 10
11.008857683
 20
9.0547382217
 30
0.0
 10
11.0079925132
 20
9.0780014951
 30
0.0
 10
11.0079925132
 20
9.0895993322
 30
0.0
  0
SPLINE
  5
3CD
100
AcDbEntity
  8
0
100
AcDbSpline
 62
7
  6
CONTINUOUS
 70
0
 71
3
 72
39
 73
35
 74
0
 42
0.0000001
 43
0.0000001
 44
0.0000000001
 40
0.0
 40
0.0
 40
0.0
 40
0.0
 40
0.0314025961
 40
0.0630095117
 40
0.0948071013
 40
0.1267734468
 40
0.1588809726
 40
0.1910970221
 40
0.2233851126
 40
0.2557062443
 40
0.2880202666
 40
0.3202872754
 40
0.3524690059
 40
0.3845301832
 40
0.4164397932
 40
0.4481722491
 40
0.4797084079
 40
0.5110363805
 40
0.5421521194
 40
0.5730597416
 40
0.6037715202
 40
0.6343075557
 40
0.6646951111
 40
0.6949675901
 40
0.7251632182
 40
0.7553234778
 40
0.7854913545
 40
0.8157095094
 40
0.8460184692
 40
0.8764549219
 40
0.9070502403
 40
0.9378293108
 40
0.9688091314
 40
1.0
 40
1.0
 40
1.0
 40
1.0
 10
12.140540807
 20
4.9261564576
 30
0.0
 10
12.1322660834
 20
4.9267303116
 30
0.0
 10
12.1157083627
 20
4.9286972187
 30
0.0
 10
12.0912054677
 20
4.9340392939
 30
0.0
 10
12.0671775125
 20
4.9417312758
 30
0.0
 10
12.043858262
 20
4.9516986337
 30
0.0
 10
12.0214707031
 20
4.9638450168
 30
0.0
 10
12.0002298075
 20
4.9780533602
 30
0.0
 10
11.9803393174
 20
4.9941870545
 30
0.0
 10
11.9619900769
 20
5.0120910571
 30
0.0
 10
11.945358145
 20
5.0315934302
 30
0.0
 10
11.9306032936
 20
5.0525070645
 30
0.0
 10
11.917867379
 20
5.07463132
 30
0.0
 10
11.9072729333
 20
5.0977539076
 30
0.0
 10
11.8989221856
 20
5.1216529854
 30
0.0
 10
11.8928960033
 20
5.1460991646
 30
0.0
 10
11.8892529386
 20
5.1708576357
 30
0.0
 10
11.8880288656
 20
5.1956904387
 30
0.0
 10
11.8892365635
 20
5.22035865
 30
0.0
 10
11.892865291
 20
5.2446246552
 30
0.0
 10
11.8988810326
 20
5.2682544316
 30
0.0
 10
11.9072267615
 20
5.2910197557
 30
0.0
 10
11.9178226508
 20
5.3127005178
 30
0.0
 10
11.9305669281
 20
5.3330869
 30
0.0
 10
11.9453368855
 20
5.3519814169
 30
0.0
 10
11.9619898536
 20
5.3692010581
 30
0.0
 10
11.9803646858
 20
5.3845791717
 30
0.0
 10
12.0002835076
 20
5.3979670251
 30
0.0
 10
12.0215533824
 20
5.4092354227
 30
0.0
 10
12.0439683904
 20
5.4182760326
 30
0.0
 10
12.0673115017
 20
5.4250022352
 30
0.0
 10
12.0913578687
 20
5.4293497927
 30
0.0
 10
12.1158724696
 20
5.4312781897
 30
0.0
 10
12.1323218745
 20
5.4309397537
 30
0.0
 10
12.140540807
 20
5.4303697688
 30
0.0
  0
SPLINE
  5
3CE
100
AcDbEntity
  8
0
100
AcDbSpline
 62
7
  6
CONTINUOUS
 70
0
 71
3
 72
39
 73
35
 74
0
 42
0.0000001
 43
0.0000001
 44
0.0000000001
 40
0.0
 40
0.0
 40
0.0
 40
0.0
 40
0.029942471
 40
0.0599093185
 40
0.089924325
 40
0.1200101043
 40
0.1501875632
 40
0.1804754155
 40
0.2108897611
 40
0.2414437393
 40
0.2721472649
 40
0.3030068482
 40
0.3340255005
 40
0.3652027199
 40
0.3965345553
 40
0.4280137416
 40
0.4596298994
 40
0.4913697937
 40
0.523217641
 40
0.5551554573
 40
0.5871634413
 40
0.619220384
 40
0.6513040994
 40
0.6833918697
 40
0.715460897
 40
0.7474887556
 40
0.7794538398
 40
0.8113357995
 40
0.8431159588
 40
0.874777715
 40
0.9063068673
 40
0.9376920959
 40
0.968924654
 40
1.0
 40
1.0
 40
1.0
 40
1.0
 10
9.6392548267
 20
6.1432023719
 30
0.0
 10
9.6312171323
 20
6.1354385617
 30
0.0
 10
9.6145097073
 20
6.1205375295
 30
0.0
 10
9.5877418219
 20
6.1002375084
 30
0.0
 10
9.5594040023
 20
6.0820906135
 30
0.0
 10
9.5296545915
 20
6.0661986371
 30
0.0
 10
9.4986571468
 20
6.0526484019
 30
0.0
 10
9.4665827368
 20
6.0415143979
 30
0.0
 10
9.4336081062
 20
6.0328575571
 30
0.0
 10
9.3999149243
 20
6.0267251429
 30
0.0
 10
9.3656887031
 20
6.0231504529
 30
0.0
 10
9.3311177827
 20
6.0221526999
 30
0.0
 10
9.296392293
 20
6.0237369234
 30
0.0
 10
9.2617031166
 20
6.0278939862
 30
0.0
 10
9.22724085
 20
6.0346006452
 30
0.0
 10
9.1931947706
 20
6.04381969
 30
0.0
 10
9.159751802
 20
6.0555001348
 30
0.0
 10
9.1270955072
 20
6.0695775383
 30
0.0
 10
9.0954050962
 20
6.0859743592
 30
0.0
 10
9.0648544582
 20
6.1046003839
 30
0.0
 10
9.0356112205
 20
6.1253532197
 30
0.0
 10
9.0078358445
 20
6.1481188564
 30
0.0
 10
8.9816807372
 20
6.172772265
 30
0.0
 10
8.9572894318
 20
6.199178095
 30
0.0
 10
8.9347958162
 20
6.2271914169
 30
0.0
 10
8.914323405
 20
6.2566585069
 30
0.0
 10
8.8959846674
 20
6.2874176791
 30
0.0
 10
8.8798804197
 20
6.3193001682
 30
0.0
 10
8.8660992556
 20
6.3521310149
 30
0.0
 10
8.8547170718
 20
6.3857300887
 30
0.0
 10
8.8457966013
 20
6.4199128086
 30
0.0
 10
8.8393872582
 20
6.4544921089
 30
0.0
 10
8.835524445
 20
6.4892756591
 30
0.0
 10
8.8346592753
 20
6.5125389324
 30
0.0
 10
8.8346592753
 20
6.5241367695
 30
0.0
  0
SPLINE
  5
3CF
100
AcDbEntity
  8
0
100
AcDbSpline
 62
7
  6
CONTINUOUS
 70
0
 71
3
 72
39
 73
35
 74
0
 42
0.0000001
 43
0.0000001
 44
0.0000000001
 40
0.0
 40
0.0
 40
0.0
 40
0.0
 40
0.029942471
 40
0.0599093185
 40
0.089924325
 40
0.1200101043
 40
0.1501875632
 40
0.1804754155
 40
0.2108897611
 40
0.2414437393
 40
0.2721472649
 40
0.3030068482
 40
0.3340255005
 40
0.3652027199
 40
0.3965345553
 40
0.4280137416
 40
0.4596298994
 40
0.4913697937
 40
0.523217641
 40
0.5551554573
 40
0.5871634413
 40
0.619220384
 40
0.6513040994
 40
0.6833918697
 40
0.715460897
 40
0.7474887556
 40
0.7794538398
 40
0.8113357995
 40
0.8431159588
 40
0.874777715
 40
0.9063068673
 40
0.9376920959
 40
0.968924654
 40
1.0
 40
1.0
 40
1.0
 40
1.0
 10
9.6392548267
 20
7.9543136338
 30
0.0
 10
9.6312171323
 20
7.9465498236
 30
0.0
 10
9.6145097073
 20
7.9316487914
 30
0.0
 10
9.5877418219
 20
7.9113487703
 30
0.0
 10
9.5594040023
 20
7.8932018754
 30
0.0
 10
9.5296545915
 20
7.877309899
 30
0.0
 10
9.4986571468
 20
7.8637596638
 30
0.0
 10
9.4665827368
 20
7.8526256598
 30
0.0
 10
9.4336081062
 20
7.843968819
 30
0.0
 10
9.3999149243
 20
7.8378364048
 30
0.0
 10
9.3656887031
 20
7.8342617148
 30
0.0
 10
9.3311177827
 20
7.8332639618
 30
0.0
 10
9.296392293
 20
7.8348481853
 30
0.0
 10
9.2617031166
 20
7.8390052481
 30
0.0
 10
9.22724085
 20
7.8457119071
 30
0.0
 10
9.1931947706
 20
7.8549309519
 30
0.0
 10
9.159751802
 20
7.8666113967
 30
0.0
 10
9.1270955072
 20
7.8806888002
 30
0.0
 10
9.0954050962
 20
7.8970856211
 30
0.0
 10
9.0648544582
 20
7.9157116458
 30
0.0
 10
9.0356112205
 20
7.9364644816
 30
0.0
 10
9.0078358445
 20
7.9592301183
 30
0.0
 10
8.9816807372
 20
7.9838835269
 30
0.0
 10
8.9572894318
 20
8.0102893569
 30
0.0
 10
8.9347958162
 20
8.0383026788
 30
0.0
 10
8.914323405
 20
8.0677697688
 30
0.0
 10
8.8959846674
 20
8.098528941
 30
0.0
 10
8.8798804197
 20
8.1304114301
 30
0.0
 10
8.8660992556
 20
8.1632422768
 30
0.0
 10
8.8547170718
 20
8.1968413506
 30
0.0
 10
8.8457966013
 20
8.2310240705
 30
0.0
 10
8.8393872582
 20
8.2656033708
 30
0.0
 10
8.835524445
 20
8.300386921
 30
0.0
 10
8.8346592753
 20
8.3236501943
 30
0.0
 10
8.8346592753
 20
8.3352480314
 30
0.0
  0
SPLINE
  5
3D0
100
AcDbEntity
  8
0
100
AcDbSpline
 62
7
  6
CONTINUOUS
 70
0
 71
3
 72
39
 73
35
 74
0
 42
0.0000001
 43
0.0000001
 44
0.0000000001
 40
0.0
 40
0.0
 40
0.0
 40
0.0
 40
0.029942471
 40
0.0599093185
 40
0.089924325
 40
0.1200101043
 40
0.1501875632
 40
0.1804754155
 40
0.2108897611
 40
0.2414437393
 40
0.2721472649
 40
0.3030068482
 40
0.3340255005
 40
0.3652027199
 40
0.3965345553
 40
0.4280137416
 40
0.4596298994
 40
0.4913697937
 40
0.523217641
 40
0.5551554573
 40
0.5871634413
 40
0.619220384
 40
0.6513040994
 40
0.6833918697
 40
0.715460897
 40
0.7474887556
 40
0.7794538398
 40
0.8113357995
 40
0.8431159588
 40
0.874777715
 40
0.9063068673
 40
0.9376920959
 40
0.968924654
 40
1.0
 40
1.0
 40
1.0
 40
1.0
 10
11.8125880646
 20
6.8975537878
 30
0.0
 10
11.8045503702
 20
6.8897899776
 30
0.0
 10
11.7878429452
 20
6.8748889454
 30
0.0
 10
11.7610750599
 20
6.8545889243
 30
0.0
 10
11.7327372402
 20
6.8364420294
 30
0.0
 10
11.7029878294
 20
6.820550053
 30
0.0
 10
11.6719903848
 20
6.8069998178
 30
0.0
 10
11.6399159747
 20
6.7958658138
 30
0.0
 10
11.6069413441
 20
6.787208973
 30
0.0
 10
11.5732481622
 20
6.7810765588
 30
0.0
 10
11.539021941
 20
6.7775018688
 30
0.0
 10
11.5044510206
 20
6.7765041158
 30
0.0
 10
11.469725531
 20
6.7780883393
 30
0.0
 10
11.4350363545
 20
6.7822454021
 30
0.0
 10
11.4005740879
 20
6.7889520611
 30
0.0
 10
11.3665280086
 20
6.7981711059
 30
0.0
 10
11.3330850399
 20
6.8098515507
 30
0.0
 10
11.3004287451
 20
6.8239289542
 30
0.0
 10
11.2687383341
 20
6.8403257751
 30
0.0
 10
11.2381876962
 20
6.8589517998
 30
0.0
 10
11.2089444585
 20
6.8797046356
 30
0.0
 10
11.1811690825
 20
6.9024702723
 30
0.0
 10
11.1550139751
 20
6.9271236809
 30
0.0
 10
11.1306226697
 20
6.9535295109
 30
0.0
 10
11.1081290542
 20
6.9815428328
 30
0.0
 10
11.087656643
 20
7.0110099228
 30
0.0
 10
11.0693179053
 20
7.041769095
 30
0.0
 10
11.0532136576
 20
7.0736515841
 30
0.0
 10
11.0394324936
 20
7.1064824308
 30
0.0
 10
11.0280503097
 20
7.1400815046
 30
0.0
 10
11.0191298392
 20
7.1742642245
 30
0.0
 10
11.0127204961
 20
7.2088435248
 30
0.0
 10
11.008857683
 20
7.243627075
 30
0.0
 10
11.0079925132
 20
7.2668903483
 30
0.0
 10
11.0079925132
 20
7.2784881854
 30
0.0
  0
SPLINE
  5
3D1
100
AcDbEntity
  8
0
100
AcDbSpline
 62
4
  6
CONTINUOUS
 70
0
 71
3
 72
265
 73
261
 74
0
 42
0.0000001
 43
0.0000001
 44
0.0000000001
 40
0.0
 40
0.0
 40
0.0
 40
0.0
 40
0.015625
 40
0.03125
 40
0.0390625
 40
0.046875
 40
0.0546875
 40
0.05859375
 40
0.060546875
 40
0.0625
 40
0.064453125
 40
0.06640625
 40
0.0703125
 40
0.078125
 40
0.0859375
 40
0.09375
 40
0.1015625
 40
0.109375
 40
0.1171875
 40
0.12109375
 40
0.123046875
 40
0.125
 40
0.126953125
 40
0.12890625
 40
0.1328125
 40
0.140625
 40
0.1484375
 40
0.15625
 40
0.1640625
 40
0.171875
 40
0.1796875
 40
0.18359375
 40
0.185546875
 40
0.1875
 40
0.189453125
 40
0.19140625
 40
0.1953125
 40
0.203125
 40
0.2109375
 40
0.21875
 40
0.2265625
 40
0.234375
 40
0.23828125
 40
0.2421875
 40
0.24609375
 40
0.248046875
 40
0.2490234375
 40
0.25
 40
0.2509765625
 40
0.251953125
 40
0.25390625
 40
0.2578125
 40
0.26171875
 40
0.265625
 40
0.2734375
 40
0.28125
 40
0.2890625
 40
0.296875
 40
0.30078125
 40
0.3046875
 40
0.30859375
 40
0.310546875
 40
0.3115234375
 40
0.3125
 40
0.3134765625
 40
0.314453125
 40
0.31640625
 40
0.3203125
 40
0.32421875
 40
0.328125
 40
0.3359375
 40
0.34375
 40
0.3515625
 40
0.359375
 40
0.36328125
 40
0.3671875
 40
0.369140625
 40
0.37109375
 40
0.373046875
 40
0.3740234375
 40
0.375
 40
0.3759765625
 40
0.376953125
 40
0.37890625
 40
0.380859375
 40
0.3828125
 40
0.38671875
 40
0.390625
 40
0.3984375
 40
0.40625
 40
0.4140625
 40
0.421875
 40
0.42578125
 40
0.4296875
 40
0.431640625
 40
0.43359375
 40
0.435546875
 40
0.4365234375
 40
0.4370117188
 40
0.4375
 40
0.4379882812
 40
0.4384765625
 40
0.439453125
 40
0.44140625
 40
0.443359375
 40
0.4453125
 40
0.44921875
 40
0.453125
 40
0.4609375
 40
0.46875
 40
0.4765625
 40
0.484375
 40
0.48828125
 40
0.4921875
 40
0.494140625
 40
0.49609375
 40
0.498046875
 40
0.4990234375
 40
0.4995117188
 40
0.5
 40
0.5004882812
 40
0.5009765625
 40
0.501953125
 40
0.50390625
 40
0.505859375
 40
0.5078125
 40
0.51171875
 40
0.515625
 40
0.5234375
 40
0.53125
 40
0.5390625
 40
0.546875
 40
0.55078125
 40
0.5546875
 40
0.556640625
 40
0.55859375
 40
0.560546875
 40
0.5615234375
 40
0.5620117188
 40
0.5625
 40
0.5629882812
 40
0.5634765625
 40
0.564453125
 40
0.56640625
 40
0.568359375
 40
0.5703125
 40
0.57421875
 40
0.578125
 40
0.5859375
 40
0.59375
 40
0.6015625
 40
0.609375
 40
0.61328125
 40
0.6171875
 40
0.619140625
 40
0.62109375
 40
0.623046875
 40
0.6240234375
 40
0.6245117188
 40
0.625
 40
0.6254882812
 40
0.6259765625
 40
0.626953125
 40
0.62890625
 40
0.630859375
 40
0.6328125
 40
0.63671875
 40
0.640625
 40
0.6484375
 40
0.65625
 40
0.6640625
 40
0.671875
 40
0.67578125
 40
0.6796875
 40
0.681640625
 40
0.68359375
 40
0.685546875
 40
0.6865234375
 40
0.6870117188
 40
0.6875
 40
0.6879882812
 40
0.6884765625
 40
0.689453125
 40
0.69140625
 40
0.693359375
 40
0.6953125
 40
0.69921875
 40
0.703125
 40
0.7109375
 40
0.71875
 40
0.7265625
 40
0.734375
 40
0.73828125
 40
0.7421875
 40
0.744140625
 40
0.74609375
 40
0.748046875
 40
0.7490234375
 40
0.7495117188
 40
0.75
 40
0.7504882812
 40
0.7509765625
 40
0.751953125
 40
0.75390625
 40
0.755859375
 40
0.7578125
 40
0.76171875
 40
0.765625
 40
0.7734375
 40
0.78125
 40
0.7890625
 40
0.796875
 40
0.80078125
 40
0.8046875
 40
0.80859375
 40
0.810546875
 40
0.8115234375
 40
0.8125
 40
0.8134765625
 40
0.814453125
 40
0.81640625
 40
0.8203125
 40
0.82421875
 40
0.828125
 40
0.8359375
 40
0.84375
 40
0.8515625
 40
0.859375
 40
0.86328125
 40
0.8671875
 40
0.87109375
 40
0.873046875
 40
0.8740234375
 40
0.875
 40
0.8759765625
 40
0.876953125
 40
0.87890625
 40
0.8828125
 40
0.88671875
 40
0.890625
 40
0.8984375
 40
0.90625
 40
0.9140625
 40
0.921875
 40
0.92578125
 40
0.9296875
 40
0.93359375
 40
0.935546875
 40
0.9365234375
 40
0.9375
 40
0.9384765625
 40
0.939453125
 40
0.94140625
 40
0.9453125
 40
0.94921875
 40
0.953125
 40
0.9609375
 40
0.96875
 40
0.984375
 40
1.0
 40
1.0
 40
1.0
 40
1.0
 10
12.1826787519
 20
11.7055264967
 30
0.0
 10
12.179463248
 20
11.7056642718
 30
0.0
 10
12.1730322309
 20
11.7059397864
 30
0.0
 10
12.1649935052
 20
11.7062843575
 30
0.0
 10
12.1585624289
 20
11.706559641
 30
0.0
 10
12.1537393816
 20
11.7067671169
 30
0.0
 10
12.1497193488
 20
11.7069367915
 30
0.0
 10
12.1469069484
 20
11.7070618866
 30
0.0
 10
12.1452973289
 20
11.7071234969
 30
0.0
 10
12.1440972513
 20
11.7071975159
 30
0.0
 10
12.1428698922
 20
11.7071652262
 30
0.0
 10
12.1412429294
 20
11.7071592549
 30
0.0
 10
12.1383913111
 20
11.7071315275
 30
0.0
 10
12.1343198868
 20
11.7071009555
 30
0.0
 10
12.1294331939
 20
11.7070603757
 30
0.0
 10
12.1245467301
 20
11.7070209079
 30
0.0
 10
12.1196603337
 20
11.7069808855
 30
0.0
 10
12.1147734388
 20
11.7069419693
 30
0.0
 10
12.1107026317
 20
11.7069063142
 30
0.0
 10
12.1078499136
 20
11.7068876439
 30
0.0
 10
12.1062247127
 20
11.7068671628
 30
0.0
 10
12.1049919419
 20
11.7068794424
 30
0.0
 10
12.1038121899
 20
11.7067860664
 30
0.0
 10
12.1022206936
 20
11.7066984191
 30
0.0
 10
12.0994441922
 20
11.7065278645
 30
0.0
 10
12.0954732519
 20
11.7062931983
 30
0.0
 10
12.0907100742
 20
11.7060077292
 30
0.0
 10
12.0859463096
 20
11.7057233658
 30
0.0
 10
12.0811829417
 20
11.7054384491
 30
0.0
 10
12.076418574
 20
11.7051546399
 30
0.0
 10
12.0724512696
 20
11.7049149018
 30
0.0
 10
12.0696682898
 20
11.7047533846
 30
0.0
 10
12.0680871722
 20
11.704651259
 30
0.0
 10
12.0668755404
 20
11.7046023549
 30
0.0
 10
12.0657625049
 20
11.7044476056
 30
0.0
 10
12.064244066
 20
11.7042781932
 30
0.0
 10
12.0616028218
 20
11.7039645195
 30
0.0
 10
12.0578212362
 20
11.7035254094
 30
0.0
 10
12.05328693
 20
11.7029946194
 30
0.0
 10
12.048751645
 20
11.7024648688
 30
0.0
 10
12.0442166788
 20
11.7019348185
 30
0.0
 10
12.0404372932
 20
11.7014932426
 30
0.0
 10
12.0374142183
 20
11.7011398132
 30
0.0
 10
12.0351457597
 20
11.7008751676
 30
0.0
 10
12.0332590384
 20
11.7006532784
 30
0.0
 10
12.0319311499
 20
11.7005006069
 30
0.0
 10
12.0311835729
 20
11.700409227
 30
0.0
 10
12.0305912932
 20
11.7003523518
 30
0.0
 10
12.030119793
 20
11.7002509073
 30
0.0
 10
12.0294489968
 20
11.7001311943
 30
0.0
 10
12.0282947323
 20
11.6999144532
 30
0.0
 10
12.0266355208
 20
11.6996086099
 30
0.0
 10
12.0246488596
 20
11.699239977
 30
0.0
 10
12.0219984431
 20
11.6987490329
 30
0.0
 10
12.0186859531
 20
11.6981351573
 30
0.0
 10
12.0147107207
 20
11.6973985953
 30
0.0
 10
12.0107356168
 20
11.6966619909
 30
0.0
 10
12.0074228053
 20
11.6960482215
 30
0.0
 10
12.0047730318
 20
11.695557065
 30
0.0
 10
12.0027844095
 20
11.6951890797
 30
0.0
 10
12.0011313333
 20
11.6948812105
 30
0.0
 10
11.9999661164
 20
11.694668086
 30
0.0
 10
11.9993128686
 20
11.6945425783
 30
0.0
 10
11.9987874652
 20
11.6944589333
 30
0.0
 10
11.9983976369
 20
11.6943352061
 30
0.0
 10
11.9978305756
 20
11.6941842177
 30
0.0
 10
11.9968602518
 20
11.6939134738
 30
0.0
 10
11.9954625556
 20
11.6935301024
 30
0.0
 10
11.9937902507
 20
11.6930685991
 30
0.0
 10
11.9915587888
 20
11.6924537704
 30
0.0
 10
11.9887700511
 20
11.6916850602
 30
0.0
 10
11.9854233185
 20
11.6907626816
 30
0.0
 10
11.9820766318
 20
11.6898402872
 30
0.0
 10
11.9792877793
 20
11.6890716162
 30
0.0
 10
11.977056547
 20
11.6884567091
 30
0.0
 10
11.975662376
 20
11.6880723226
 30
0.0
 10
11.9745462387
 20
11.6877649729
 30
0.0
 10
11.9737113276
 20
11.6875340237
 30
0.0
 10
11.9730085957
 20
11.6873429559
 30
0.0
 10
11.9724620487
 20
11.6871869846
 30
0.0
 10
11.9720094065
 20
11.6870785233
 30
0.0
 10
11.9717198729
 20
11.6869375517
 30
0.0
 10
11.9712768521
 20
11.6867609458
 30
0.0
 10
11.9707426243
 20
11.6865362922
 30
0.0
 10
11.9700931836
 20
11.6862683756
 30
0.0
 10
11.9692301853
 20
11.685910571
 30
0.0
 10
11.9681504368
 20
11.6854635146
 30
0.0
 10
11.9664233983
 20
11.684748113
 30
0.0
 10
11.9642644088
 20
11.6838538991
 30
0.0
 10
11.9616737013
 20
11.6827808264
 30
0.0
 10
11.9590829803
 20
11.6817077568
 30
0.0
 10
11.9569240245
 20
11.6808135353
 30
0.0
 10
11.9551969186
 20
11.6800981489
 30
0.0
 10
11.9541173413
 20
11.6796510539
 30
0.0
 10
11.9532539916
 20
11.6792933285
 30
0.0
 10
11.9526056245
 20
11.6790251697
 30
0.0
 10
11.9520680378
 20
11.6788012738
 30
0.0
 10
11.9516863908
 20
11.6786453911
 30
0.0
 10
11.9514766391
 20
11.6785549966
 30
0.0
 10
11.951295853
 20
11.6784909156
 30
0.0
 10
11.95120479
 20
11.6784126346
 30
0.0
 10
11.9510520764
 20
11.6783132131
 30
0.0
 10
11.9507994091
 20
11.6781369177
 30
0.0
 10
11.9504308323
 20
11.6778862737
 30
0.0
 10
11.9499918033
 20
11.6775849844
 30
0.0
 10
11.9494052916
 20
11.6771834458
 30
0.0
 10
11.9486725422
 20
11.6766814607
 30
0.0
 10
11.9474999249
 20
11.6758783192
 30
0.0
 10
11.9460342288
 20
11.6748743803
 30
0.0
 10
11.9442753586
 20
11.6736696589
 30
0.0
 10
11.942516507
 20
11.6724649357
 30
0.0
 10
11.9410507644
 20
11.6714610014
 30
0.0
 10
11.9398782399
 20
11.6706578507
 30
0.0
 10
11.9391452547
 20
11.6701558887
 30
0.0
 10
11.938559227
 20
11.6697543028
 30
0.0
 10
11.9381187193
 20
11.6694531581
 30
0.0
 10
11.9377547689
 20
11.6692020616
 30
0.0
 10
11.9374938428
 20
11.669026574
 30
0.0
 10
11.9373543618
 20
11.6689258583
 30
0.0
 10
11.9372226524
 20
11.6688515526
 30
0.0
 10
11.9371945277
 20
11.6687725413
 30
0.0
 10
11.9371208967
 20
11.6686688343
 30
0.0
 10
11.9370088766
 20
11.6684865823
 30
0.0
 10
11.9368400468
 20
11.6682266221
 30
0.0
 10
11.9366412182
 20
11.6679144987
 30
0.0
 10
11.9363747976
 20
11.667498394
 30
0.0
 10
11.9360422224
 20
11.6669782427
 30
0.0
 10
11.9355098502
 20
11.6661460119
 30
0.0
 10
11.9348444719
 20
11.6651057196
 30
0.0
 10
11.9340459782
 20
11.6638573705
 30
0.0
 10
11.9332475044
 20
11.6626090208
 30
0.0
 10
11.9325820766
 20
11.6615687301
 30
0.0
 10
11.9320498034
 20
11.6607364962
 30
0.0
 10
11.9317169766
 20
11.6602163528
 30
0.0
 10
11.9314510724
 20
11.6598002319
 30
0.0
 10
11.931250666
 20
11.659488158
 30
0.0
 10
11.9310867728
 20
11.6592280429
 30
0.0
 10
11.9309659401
 20
11.6590460674
 30
0.0
 10
11.9309064291
 20
11.6589419174
 30
0.0
 10
11.9308349321
 20
11.6588642668
 30
0.0
 10
11.9308661216
 20
11.6587848509
 30
0.0
 10
11.9308718895
 20
11.6586795787
 30
0.0
 10
11.9308986715
 20
11.6584950656
 30
0.0
 10
11.9309282068
 20
11.6582316253
 30
0.0
 10
11.9309673835
 20
11.6579154329
 30
0.0
 10
11.9310183148
 20
11.6574938654
 30
0.0
 10
11.9310824256
 20
11.6569668983
 30
0.0
 10
11.9311847532
 20
11.6561237552
 30
0.0
 10
11.9313127488
 20
11.655069825
 30
0.0
 10
11.9314663042
 20
11.6538051092
 30
0.0
 10
11.9316198793
 20
11.6525403936
 30
0.0
 10
11.9317478258
 20
11.651486463
 30
0.0
 10
11.9318502516
 20
11.6506433207
 30
0.0
 10
11.9319141127
 20
11.6501163516
 30
0.0
 10
11.9319655566
 20
11.6496947883
 30
0.0
 10
11.9320031673
 20
11.6493785831
 30
0.0
 10
11.9320376025
 20
11.6491151827
 30
0.0
 10
11.9320556372
 20
11.6489305984
 30
0.0
 10
11.9320754204
 20
11.6488254403
 30
0.0
 10
11.9320635592
 20
11.6487456742
 30
0.0
 10
11.9321537535
 20
11.6486693387
 30
0.0
 10
11.9322384145
 20
11.6485663614
 30
0.0
 10
11.9324031571
 20
11.6483867086
 30
0.0
 10
11.9326298324
 20
11.6481297704
 30
0.0
 10
11.9329055542
 20
11.6478215692
 30
0.0
 10
11.9332718871
 20
11.6474105908
 30
0.0
 10
11.933730247
 20
11.6468968827
 30
0.0
 10
11.9344633746
 20
11.6460749413
 30
0.0
 10
11.9353798699
 20
11.6450475175
 30
0.0
 10
11.9364796251
 20
11.6438146076
 30
0.0
 10
11.9375793999
 20
11.6425816986
 30
0.0
 10
11.9384958462
 20
11.6415542724
 30
0.0
 10
11.9392290719
 20
11.6407323358
 30
0.0
 10
11.9396871826
 20
11.6402186157
 30
0.0
 10
11.9400540269
 20
11.6398076618
 30
0.0
 10
11.9403281861
 20
11.6394993856
 30
0.0
 10
11.9405597506
 20
11.6392426821
 30
0.0
 10
11.940715765
 20
11.6390626103
 30
0.0
 10
11.9408144107
 20
11.6389603045
 30
0.0
 10
11.9408616485
 20
11.6388819062
 30
0.0
 10
11.941011125
 20
11.6388098876
 30
0.0
 10
11.941174765
 20
11.6387116374
 30
0.0
 10
11.9414777505
 20
11.6385407365
 30
0.0
 10
11.9419019002
 20
11.6382960502
 30
0.0
 10
11.9424145981
 20
11.6380026587
 30
0.0
 10
11.9430968965
 20
11.637611389
 30
0.0
 10
11.9439502142
 20
11.6371223296
 30
0.0
 10
11.945315274
 20
11.6363398191
 30
0.0
 10
11.9470216845
 20
11.6353616864
 30
0.0
 10
11.9490693383
 20
11.6341879244
 30
0.0
 10
11.9511170102
 20
11.6330141645
 30
0.0
 10
11.9528233755
 20
11.6320360265
 30
0.0
 10
11.9541885257
 20
11.6312535265
 30
0.0
 10
11.9550416137
 20
11.6307644403
 30
0.0
 10
11.9557243836
 20
11.6303732257
 30
0.0
 10
11.9562356409
 20
11.6300796658
 30
0.0
 10
11.956664298
 20
11.6298355063
 30
0.0
 10
11.956959237
 20
11.629663665
 30
0.0
 10
11.9571357696
 20
11.6295669215
 30
0.0
 10
11.9572456442
 20
11.6294902749
 30
0.0
 10
11.95744162
 20
11.6294292584
 30
0.0
 10
11.957672888
 20
11.629342451
 30
0.0
 10
11.9580916
 20
11.6291930783
 30
0.0
 10
11.9586824443
 20
11.6289783607
 30
0.0
 10
11.9593945889
 20
11.6287212681
 30
0.0
 10
11.9603430212
 20
11.6283782793
 30
0.0
 10
11.9615289362
 20
11.6279496113
 30
0.0
 10
11.9634261902
 20
11.6272637044
 30
0.0
 10
11.9657978342
 20
11.6264063349
 30
0.0
 10
11.9686437549
 20
11.6253774811
 30
0.0
 10
11.9714897616
 20
11.6243486463
 30
0.0
 10
11.9738611907
 20
11.6234912291
 30
0.0
 10
11.9757588744
 20
11.6228054177
 30
0.0
 10
11.9771806617
 20
11.6222907248
 30
0.0
 10
11.9783701779
 20
11.6218628775
 30
0.0
 10
11.9791936284
 20
11.6215612975
 30
0.0
 10
11.9796785535
 20
11.6213922246
 30
0.0
 10
11.9800017331
 20
11.6212562404
 30
0.0
 10
11.9804797787
 20
11.6211553454
 30
0.0
 10
11.9810631538
 20
11.6210085793
 30
0.0
 10
11.9821092287
 20
11.6207574412
 30
0.0
 10
11.9835904631
 20
11.6203956911
 30
0.0
 10
11.9853735767
 20
11.6199628672
 30
0.0
 10
11.9877490936
 20
11.6193853226
 30
0.0
 10
11.9907191685
 20
11.6186635462
 30
0.0
 10
11.9942829517
 20
11.617797343
 30
0.0
 10
11.9978468756
 20
11.6169311787
 30
0.0
 10
12.0008165988
 20
11.6162093053
 30
0.0
 10
12.0031928191
 20
11.6156319546
 30
0.0
 10
12.0049737873
 20
11.6151985393
 30
0.0
 10
12.0064617335
 20
11.6148386391
 30
0.0
 10
12.0074958267
 20
11.6145841987
 30
0.0
 10
12.0080983996
 20
11.6144427238
 30
0.0
 10
12.0085174757
 20
11.614325576
 30
0.0
 10
12.0090621351
 20
11.6142506347
 30
0.0
 10
12.0097445427
 20
11.6141359908
 30
0.0
 10
12.0109591655
 20
11.6139422234
 30
0.0
 10
12.0126836706
 20
11.6136618267
 30
0.0
 10
12.0147576441
 20
11.6133268856
 30
0.0
 10
12.0175213463
 20
11.6128797611
 30
0.0
 10
12.0209765247
 20
11.6123210409
 30
0.0
 10
12.025122489
 20
11.6116504913
 30
0.0
 10
12.0292685713
 20
11.6109799863
 30
0.0
 10
12.0327234546
 20
11.6104211549
 30
0.0
 10
12.035487747
 20
11.6099742527
 30
0.0
 10
12.0375599203
 20
11.6096386335
 30
0.0
 10
12.0392900571
 20
11.6093603584
 30
0.0
 10
12.0404946266
 20
11.6091628035
 30
0.0
 10
12.0411931422
 20
11.6090542281
 30
0.0
 10
12.0416883229
 20
11.6089606464
 30
0.0
 10
12.0422932324
 20
11.6089135088
 30
0.0
 10
12.0430615038
 20
11.6088344584
 30
0.0
 10
12.0444238117
 20
11.6087036683
 30
0.0
 10
12.0463606425
 20
11.608512879
 30
0.0
 10
12.0486888301
 20
11.608285621
 30
0.0
 10
12.0517916864
 20
11.6079820203
 30
0.0
 10
12.0556707341
 20
11.6076027215
 30
0.0
 10
12.0618769435
 20
11.6069957305
 30
0.0
 10
12.0696347974
 20
11.6062370307
 30
0.0
 10
12.0758410525
 20
11.6056300589
 30
0.0
 10
12.0789441835
 20
11.6053265745
 30
0.0
  0
SPLINE
  5
3D2
100
AcDbEntity
  8
0
100
AcDbSpline
 62
4
  6
CONTINUOUS
 70
0
 71
3
 72
265
 73
261
 74
0
 42
0.0000001
 43
0.0000001
 44
0.0000000001
 40
0.0
 40
0.0
 40
0.0
 40
0.0
 40
0.015625
 40
0.03125
 40
0.0390625
 40
0.046875
 40
0.0546875
 40
0.05859375
 40
0.060546875
 40
0.0625
 40
0.064453125
 40
0.06640625
 40
0.0703125
 40
0.078125
 40
0.0859375
 40
0.09375
 40
0.1015625
 40
0.109375
 40
0.1171875
 40
0.12109375
 40
0.123046875
 40
0.125
 40
0.126953125
 40
0.12890625
 40
0.1328125
 40
0.140625
 40
0.1484375
 40
0.15625
 40
0.1640625
 40
0.171875
 40
0.1796875
 40
0.18359375
 40
0.185546875
 40
0.1875
 40
0.189453125
 40
0.19140625
 40
0.1953125
 40
0.203125
 40
0.2109375
 40
0.21875
 40
0.2265625
 40
0.234375
 40
0.23828125
 40
0.2421875
 40
0.24609375
 40
0.248046875
 40
0.2490234375
 40
0.25
 40
0.2509765625
 40
0.251953125
 40
0.25390625
 40
0.2578125
 40
0.26171875
 40
0.265625
 40
0.2734375
 40
0.28125
 40
0.2890625
 40
0.296875
 40
0.30078125
 40
0.3046875
 40
0.30859375
 40
0.310546875
 40
0.3115234375
 40
0.3125
 40
0.3134765625
 40
0.314453125
 40
0.31640625
 40
0.3203125
 40
0.32421875
 40
0.328125
 40
0.3359375
 40
0.34375
 40
0.3515625
 40
0.359375
 40
0.36328125
 40
0.3671875
 40
0.369140625
 40
0.37109375
 40
0.373046875
 40
0.3740234375
 40
0.375
 40
0.3759765625
 40
0.376953125
 40
0.37890625
 40
0.380859375
 40
0.3828125
 40
0.38671875
 40
0.390625
 40
0.3984375
 40
0.40625
 40
0.4140625
 40
0.421875
 40
0.42578125
 40
0.4296875
 40
0.431640625
 40
0.43359375
 40
0.435546875
 40
0.4365234375
 40
0.4370117188
 40
0.4375
 40
0.4379882812
 40
0.4384765625
 40
0.439453125
 40
0.44140625
 40
0.443359375
 40
0.4453125
 40
0.44921875
 40
0.453125
 40
0.4609375
 40
0.46875
 40
0.4765625
 40
0.484375
 40
0.48828125
 40
0.4921875
 40
0.494140625
 40
0.49609375
 40
0.498046875
 40
0.4990234375
 40
0.4995117188
 40
0.5
 40
0.5004882812
 40
0.5009765625
 40
0.501953125
 40
0.50390625
 40
0.505859375
 40
0.5078125
 40
0.51171875
 40
0.515625
 40
0.5234375
 40
0.53125
 40
0.5390625
 40
0.546875
 40
0.55078125
 40
0.5546875
 40
0.556640625
 40
0.55859375
 40
0.560546875
 40
0.5615234375
 40
0.5620117188
 40
0.5625
 40
0.5629882812
 40
0.5634765625
 40
0.564453125
 40
0.56640625
 40
0.568359375
 40
0.5703125
 40
0.57421875
 40
0.578125
 40
0.5859375
 40
0.59375
 40
0.6015625
 40
0.609375
 40
0.61328125
 40
0.6171875
 40
0.619140625
 40
0.62109375
 40
0.623046875
 40
0.6240234375
 40
0.6245117188
 40
0.625
 40
0.6254882812
 40
0.6259765625
 40
0.626953125
 40
0.62890625
 40
0.630859375
 40
0.6328125
 40
0.63671875
 40
0.640625
 40
0.6484375
 40
0.65625
 40
0.6640625
 40
0.671875
 40
0.67578125
 40
0.6796875
 40
0.681640625
 40
0.68359375
 40
0.685546875
 40
0.6865234375
 40
0.6870117188
 40
0.6875
 40
0.6879882812
 40
0.6884765625
 40
0.689453125
 40
0.69140625
 40
0.693359375
 40
0.6953125
 40
0.69921875
 40
0.703125
 40
0.7109375
 40
0.71875
 40
0.7265625
 40
0.734375
 40
0.73828125
 40
0.7421875
 40
0.744140625
 40
0.74609375
 40
0.748046875
 40
0.7490234375
 40
0.7495117188
 40
0.75
 40
0.7504882812
 40
0.7509765625
 40
0.751953125
 40
0.75390625
 40
0.755859375
 40
0.7578125
 40
0.76171875
 40
0.765625
 40
0.7734375
 40
0.78125
 40
0.7890625
 40
0.796875
 40
0.80078125
 40
0.8046875
 40
0.80859375
 40
0.810546875
 40
0.8115234375
 40
0.8125
 40
0.8134765625
 40
0.814453125
 40
0.81640625
 40
0.8203125
 40
0.82421875
 40
0.828125
 40
0.8359375
 40
0.84375
 40
0.8515625
 40
0.859375
 40
0.86328125
 40
0.8671875
 40
0.87109375
 40
0.873046875
 40
0.8740234375
 40
0.875
 40
0.8759765625
 40
0.876953125
 40
0.87890625
 40
0.8828125
 40
0.88671875
 40
0.890625
 40
0.8984375
 40
0.90625
 40
0.9140625
 40
0.921875
 40
0.92578125
 40
0.9296875
 40
0.93359375
 40
0.935546875
 40
0.9365234375
 40
0.9375
 40
0.9384765625
 40
0.939453125
 40
0.94140625
 40
0.9453125
 40
0.94921875
 40
0.953125
 40
0.9609375
 40
0.96875
 40
0.984375
 40
1.0
 40
1.0
 40
1.0
 40
1.0
 10
12.0789441666
 20
11.6053265757
 30
0.0
 10
12.0821596706
 20
11.6051888006
 30
0.0
 10
12.0885906876
 20
11.604913286
 30
0.0
 10
12.0966294133
 20
11.604568715
 30
0.0
 10
12.1030604896
 20
11.6042934314
 30
0.0
 10
12.1078835369
 20
11.6040859555
 30
0.0
 10
12.1119035698
 20
11.6039162809
 30
0.0
 10
12.1147159702
 20
11.6037911858
 30
0.0
 10
12.1163255897
 20
11.6037295755
 30
0.0
 10
12.1175256672
 20
11.6036555566
 30
0.0
 10
12.1187530263
 20
11.6036878463
 30
0.0
 10
12.1203799891
 20
11.6036938175
 30
0.0
 10
12.1232316074
 20
11.6037215449
 30
0.0
 10
12.1273030317
 20
11.6037521169
 30
0.0
 10
12.1321897246
 20
11.6037926967
 30
0.0
 10
12.1370761884
 20
11.6038321646
 30
0.0
 10
12.1419625848
 20
11.6038721869
 30
0.0
 10
12.1468494797
 20
11.6039111032
 30
0.0
 10
12.1509202868
 20
11.6039467582
 30
0.0
 10
12.1537730049
 20
11.6039654285
 30
0.0
 10
12.1553982058
 20
11.6039859096
 30
0.0
 10
12.1566309767
 20
11.60397363
 30
0.0
 10
12.1578107286
 20
11.604067006
 30
0.0
 10
12.1594022249
 20
11.6041546534
 30
0.0
 10
12.1621787263
 20
11.6043252079
 30
0.0
 10
12.1661496666
 20
11.6045598741
 30
0.0
 10
12.1709128443
 20
11.6048453432
 30
0.0
 10
12.1756766089
 20
11.6051297066
 30
0.0
 10
12.1804399768
 20
11.6054146233
 30
0.0
 10
12.1852043445
 20
11.6056984325
 30
0.0
 10
12.1891716489
 20
11.6059381707
 30
0.0
 10
12.1919546288
 20
11.6060996879
 30
0.0
 10
12.1935357463
 20
11.6062018134
 30
0.0
 10
12.1947473781
 20
11.6062507175
 30
0.0
 10
12.1958604137
 20
11.6064054668
 30
0.0
 10
12.1973788526
 20
11.6065748792
 30
0.0
 10
12.2000200967
 20
11.6068885529
 30
0.0
 10
12.2038016823
 20
11.607327663
 30
0.0
 10
12.2083359885
 20
11.607858453
 30
0.0
 10
12.2128712735
 20
11.6083882037
 30
0.0
 10
12.2174062397
 20
11.608918254
 30
0.0
 10
12.2211856253
 20
11.6093598298
 30
0.0
 10
12.2242087002
 20
11.6097132592
 30
0.0
 10
12.2264771588
 20
11.6099779048
 30
0.0
 10
12.2283638802
 20
11.610199794
 30
0.0
 10
12.2296917687
 20
11.6103524655
 30
0.0
 10
12.2304393457
 20
11.6104438454
 30
0.0
 10
12.2310316253
 20
11.6105007207
 30
0.0
 10
12.2315031255
 20
11.6106021651
 30
0.0
 10
12.2321739217
 20
11.6107218782
 30
0.0
 10
12.2333281863
 20
11.6109386193
 30
0.0
 10
12.2349873978
 20
11.6112444625
 30
0.0
 10
12.2369740589
 20
11.6116130954
 30
0.0
 10
12.2396244754
 20
11.6121040395
 30
0.0
 10
12.2429369654
 20
11.6127179152
 30
0.0
 10
12.2469121979
 20
11.6134544771
 30
0.0
 10
12.2508873017
 20
11.6141910815
 30
0.0
 10
12.2542001132
 20
11.614804851
 30
0.0
 10
12.2568498867
 20
11.6152960074
 30
0.0
 10
12.258838509
 20
11.6156639927
 30
0.0
 10
12.2604915853
 20
11.6159718619
 30
0.0
 10
12.2616568022
 20
11.6161849864
 30
0.0
 10
12.2623100499
 20
11.6163104941
 30
0.0
 10
12.2628354533
 20
11.6163941391
 30
0.0
 10
12.2632252817
 20
11.6165178663
 30
0.0
 10
12.2637923429
 20
11.6166688548
 30
0.0
 10
12.2647626668
 20
11.6169395987
 30
0.0
 10
12.266160363
 20
11.61732297
 30
0.0
 10
12.2678326678
 20
11.6177844734
 30
0.0
 10
12.2700641297
 20
11.618399302
 30
0.0
 10
12.2728528674
 20
11.6191680123
 30
0.0
 10
12.2761996
 20
11.6200903909
 30
0.0
 10
12.2795462867
 20
11.6210127852
 30
0.0
 10
12.2823351392
 20
11.6217814562
 30
0.0
 10
12.2845663715
 20
11.6223963633
 30
0.0
 10
12.2859605425
 20
11.6227807499
 30
0.0
 10
12.2870766798
 20
11.6230880996
 30
0.0
 10
12.2879115909
 20
11.6233190487
 30
0.0
 10
12.2886143228
 20
11.6235101166
 30
0.0
 10
12.2891608698
 20
11.6236660879
 30
0.0
 10
12.289613512
 20
11.6237745491
 30
0.0
 10
12.2899030457
 20
11.6239155207
 30
0.0
 10
12.2903460665
 20
11.6240921266
 30
0.0
 10
12.2908802943
 20
11.6243167802
 30
0.0
 10
12.2915297349
 20
11.6245846968
 30
0.0
 10
12.2923927332
 20
11.6249425015
 30
0.0
 10
12.2934724818
 20
11.6253895578
 30
0.0
 10
12.2951995202
 20
11.6261049595
 30
0.0
 10
12.2973585098
 20
11.6269991733
 30
0.0
 10
12.2999492172
 20
11.628072246
 30
0.0
 10
12.3025399382
 20
11.6291453157
 30
0.0
 10
12.304698894
 20
11.6300395371
 30
0.0
 10
12.3064259999
 20
11.6307549236
 30
0.0
 10
12.3075055772
 20
11.6312020186
 30
0.0
 10
12.308368927
 20
11.6315597439
 30
0.0
 10
12.309017294
 20
11.6318279027
 30
0.0
 10
12.3095548807
 20
11.6320517987
 30
0.0
 10
12.3099365278
 20
11.6322076813
 30
0.0
 10
12.3101462795
 20
11.6322980758
 30
0.0
 10
12.3103270656
 20
11.6323621569
 30
0.0
 10
12.3104181285
 20
11.6324404378
 30
0.0
 10
12.3105708421
 20
11.6325398593
 30
0.0
 10
12.3108235095
 20
11.6327161547
 30
0.0
 10
12.3111920862
 20
11.6329667987
 30
0.0
 10
12.3116311152
 20
11.633268088
 30
0.0
 10
12.3122176269
 20
11.6336696266
 30
0.0
 10
12.3129503764
 20
11.6341716117
 30
0.0
 10
12.3141229936
 20
11.6349747533
 30
0.0
 10
12.3155886898
 20
11.6359786921
 30
0.0
 10
12.3173475599
 20
11.6371834135
 30
0.0
 10
12.3191064116
 20
11.6383881367
 30
0.0
 10
12.3205721541
 20
11.6393920711
 30
0.0
 10
12.3217446786
 20
11.6401952217
 30
0.0
 10
12.3224776638
 20
11.6406971837
 30
0.0
 10
12.3230636916
 20
11.6410987697
 30
0.0
 10
12.3235041992
 20
11.6413999143
 30
0.0
 10
12.3238681496
 20
11.6416510108
 30
0.0
 10
12.3241290757
 20
11.6418264985
 30
0.0
 10
12.3242685567
 20
11.6419272141
 30
0.0
 10
12.3244002661
 20
11.6420015199
 30
0.0
 10
12.3244283908
 20
11.6420805311
 30
0.0
 10
12.3245020219
 20
11.6421842382
 30
0.0
 10
12.3246140419
 20
11.6423664902
 30
0.0
 10
12.3247828717
 20
11.6426264503
 30
0.0
 10
12.3249817003
 20
11.6429385737
 30
0.0
 10
12.3252481209
 20
11.6433546784
 30
0.0
 10
12.3255806961
 20
11.6438748298
 30
0.0
 10
12.3261130683
 20
11.6447070605
 30
0.0
 10
12.3267784466
 20
11.6457473528
 30
0.0
 10
12.3275769403
 20
11.6469957019
 30
0.0
 10
12.3283754142
 20
11.6482440516
 30
0.0
 10
12.3290408419
 20
11.6492843424
 30
0.0
 10
12.3295731151
 20
11.6501165762
 30
0.0
 10
12.329905942
 20
11.6506367197
 30
0.0
 10
12.3301718461
 20
11.6510528406
 30
0.0
 10
12.3303722525
 20
11.6513649144
 30
0.0
 10
12.3305361458
 20
11.6516250295
 30
0.0
 10
12.3306569784
 20
11.651807005
 30
0.0
 10
12.3307164895
 20
11.651911155
 30
0.0
 10
12.3307879864
 20
11.6519888057
 30
0.0
 10
12.3307567969
 20
11.6520682216
 30
0.0
 10
12.330751029
 20
11.6521734937
 30
0.0
 10
12.330724247
 20
11.6523580069
 30
0.0
 10
12.3306947118
 20
11.6526214471
 30
0.0
 10
12.330655535
 20
11.6529376395
 30
0.0
 10
12.3306046037
 20
11.6533592071
 30
0.0
 10
12.3305404929
 20
11.6538861742
 30
0.0
 10
12.3304381654
 20
11.6547293172
 30
0.0
 10
12.3303101697
 20
11.6557832474
 30
0.0
 10
12.3301566143
 20
11.6570479632
 30
0.0
 10
12.3300030392
 20
11.6583126788
 30
0.0
 10
12.3298750927
 20
11.6593666095
 30
0.0
 10
12.3297726669
 20
11.6602097517
 30
0.0
 10
12.3297088059
 20
11.6607367208
 30
0.0
 10
12.3296573619
 20
11.6611582842
 30
0.0
 10
12.3296197513
 20
11.6614744894
 30
0.0
 10
12.3295853161
 20
11.6617378897
 30
0.0
 10
12.3295672813
 20
11.661922474
 30
0.0
 10
12.3295474981
 20
11.6620276322
 30
0.0
 10
12.3295593593
 20
11.6621073983
 30
0.0
 10
12.329469165
 20
11.6621837338
 30
0.0
 10
12.329384504
 20
11.6622867111
 30
0.0
 10
12.3292197614
 20
11.6624663638
 30
0.0
 10
12.3289930862
 20
11.6627233021
 30
0.0
 10
12.3287173643
 20
11.6630315032
 30
0.0
 10
12.3283510315
 20
11.6634424817
 30
0.0
 10
12.3278926716
 20
11.6639561898
 30
0.0
 10
12.3271595439
 20
11.6647781311
 30
0.0
 10
12.3262430486
 20
11.6658055549
 30
0.0
 10
12.3251432934
 20
11.6670384649
 30
0.0
 10
12.3240435186
 20
11.6682713739
 30
0.0
 10
12.3231270724
 20
11.6692988
 30
0.0
 10
12.3223938466
 20
11.6701207367
 30
0.0
 10
12.3219357359
 20
11.6706344568
 30
0.0
 10
12.3215688916
 20
11.6710454106
 30
0.0
 10
12.3212947324
 20
11.6713536868
 30
0.0
 10
12.3210631679
 20
11.6716103903
 30
0.0
 10
12.3209071535
 20
11.6717904622
 30
0.0
 10
12.3208085078
 20
11.6718927679
 30
0.0
 10
12.32076127
 20
11.6719711662
 30
0.0
 10
12.3206117935
 20
11.6720431848
 30
0.0
 10
12.3204481536
 20
11.672141435
 30
0.0
 10
12.320145168
 20
11.6723123359
 30
0.0
 10
12.3197210183
 20
11.6725570222
 30
0.0
 10
12.3192083205
 20
11.6728504137
 30
0.0
 10
12.318526022
 20
11.6732416834
 30
0.0
 10
12.3176727043
 20
11.6737307428
 30
0.0
 10
12.3163076445
 20
11.6745132533
 30
0.0
 10
12.314601234
 20
11.6754913861
 30
0.0
 10
12.3125535802
 20
11.6766651481
 30
0.0
 10
12.3105059084
 20
11.6778389079
 30
0.0
 10
12.308799543
 20
11.678817046
 30
0.0
 10
12.3074343929
 20
11.6795995459
 30
0.0
 10
12.3065813049
 20
11.6800886322
 30
0.0
 10
12.3058985349
 20
11.6804798468
 30
0.0
 10
12.3053872777
 20
11.6807734066
 30
0.0
 10
12.3049586205
 20
11.6810175661
 30
0.0
 10
12.3046636815
 20
11.6811894074
 30
0.0
 10
12.304487149
 20
11.6812861509
 30
0.0
 10
12.3043772743
 20
11.6813627975
 30
0.0
 10
12.3041812985
 20
11.6814238141
 30
0.0
 10
12.3039500305
 20
11.6815106214
 30
0.0
 10
12.3035313185
 20
11.6816599941
 30
0.0
 10
12.3029404742
 20
11.6818747117
 30
0.0
 10
12.3022283296
 20
11.6821318044
 30
0.0
 10
12.3012798973
 20
11.6824747931
 30
0.0
 10
12.3000939823
 20
11.6829034611
 30
0.0
 10
12.2981967283
 20
11.683589368
 30
0.0
 10
12.2958250843
 20
11.6844467375
 30
0.0
 10
12.2929791636
 20
11.6854755914
 30
0.0
 10
12.290133157
 20
11.6865044261
 30
0.0
 10
12.2877617279
 20
11.6873618434
 30
0.0
 10
12.2858640441
 20
11.6880476548
 30
0.0
 10
12.2844422569
 20
11.6885623476
 30
0.0
 10
12.2832527406
 20
11.6889901949
 30
0.0
 10
12.2824292902
 20
11.689291775
 30
0.0
 10
12.281944365
 20
11.6894608478
 30
0.0
 10
12.2816211854
 20
11.6895968321
 30
0.0
 10
12.2811431398
 20
11.689697727
 30
0.0
 10
12.2805597647
 20
11.6898444931
 30
0.0
 10
12.2795136898
 20
11.6900956312
 30
0.0
 10
12.2780324554
 20
11.6904573813
 30
0.0
 10
12.2762493418
 20
11.6908902053
 30
0.0
 10
12.2738738249
 20
11.6914677498
 30
0.0
 10
12.27090375
 20
11.6921895263
 30
0.0
 10
12.2673399668
 20
11.6930557294
 30
0.0
 10
12.2637760429
 20
11.6939218938
 30
0.0
 10
12.2608063197
 20
11.6946437672
 30
0.0
 10
12.2584300994
 20
11.6952211178
 30
0.0
 10
12.2566491313
 20
11.6956545331
 30
0.0
 10
12.255161185
 20
11.6960144333
 30
0.0
 10
12.2541270918
 20
11.6962688737
 30
0.0
 10
12.2535245189
 20
11.6964103487
 30
0.0
 10
12.2531054428
 20
11.6965274964
 30
0.0
 10
12.2525607835
 20
11.6966024378
 30
0.0
 10
12.2518783758
 20
11.6967170816
 30
0.0
 10
12.250663753
 20
11.696910849
 30
0.0
 10
12.2489392479
 20
11.6971912458
 30
0.0
 10
12.2468652744
 20
11.6975261869
 30
0.0
 10
12.2441015723
 20
11.6979733113
 30
0.0
 10
12.2406463938
 20
11.6985320316
 30
0.0
 10
12.2365004295
 20
11.6992025811
 30
0.0
 10
12.2323543472
 20
11.6998730862
 30
0.0
 10
12.2288994639
 20
11.7004319176
 30
0.0
 10
12.2261351716
 20
11.7008788197
 30
0.0
 10
12.2240629982
 20
11.7012144389
 30
0.0
 10
12.2223328614
 20
11.701492714
 30
0.0
 10
12.221128292
 20
11.7016902689
 30
0.0
 10
12.2204297764
 20
11.7017988443
 30
0.0
 10
12.2199345956
 20
11.701892426
 30
0.0
 10
12.2193296861
 20
11.7019395636
 30
0.0
 10
12.2185614147
 20
11.702018614
 30
0.0
 10
12.2171991069
 20
11.7021494042
 30
0.0
 10
12.215262276
 20
11.7023401934
 30
0.0
 10
12.2129340884
 20
11.7025674514
 30
0.0
 10
12.2098312321
 20
11.7028710521
 30
0.0
 10
12.2059521845
 20
11.7032503509
 30
0.0
 10
12.199745975
 20
11.703857342
 30
0.0
 10
12.1919881211
 20
11.7046160418
 30
0.0
 10
12.1857818661
 20
11.7052230135
 30
0.0
 10
12.182678735
 20
11.7055264979
 30
0.0
  0
ENDSEC
  0
SECTION
  2
OBJECTS
  0
DICTIONARY
  5
C
100
AcDbDictionary
280
0
281
1
  3
ACAD_GROUP
350
D
  3
ACAD_MLINESTYLE
350
17
  3
ACAD_LAYOUT
350
1A
  3
ACAD_PLOTSETTINGS
350
19
  3
ACAD_PLOTSTYLENAME
350
E
  3
ACAD_IMAGE_DICT
350
       3D4
  3
ACAD_IMAGE_VARS
350
       3D5
  3
ACAD_TABLESTYLE
350
       3D6
  0
IMAGEDEF_REACTOR
  5
3D3
100
AcDbRasterImageDefReactor
 90
2
330
28D
  0
DICTIONARY
  5
D
102
{ACAD_REACTORS
330
C
102
}
100
AcDbDictionary
280
0
281
1
  0
ACDBDICTIONARYWDFLT
  5
E
102
{ACAD_REACTORS
330
C
102
}
100
AcDbDictionary
281
1
  3
Normal
350
F
100
AcDbDictionaryWithDefault
340
F
  0
DICTIONARY
  5
3D4
330
C
100
AcDbDictionary
281
1
  3
VLN_assy_2_img_1
350
       3D9
  0
RASTERVARIABLES
  5
3D5
330
C
100
AcDbRasterVariables
 90
0
 70
0
 71
1
 72
5
  0
DICTIONARY
  5
17
102
{ACAD_REACTORS
330
C
102
}
100
AcDbDictionary
280
0
281
1
  3
Standard
350
18
  0
DICTIONARY
  5
3D6
330
C
100
AcDbDictionary
281
1
  3
Standard
350
       3DA
  3
Standard1
350
       3DB
  0
DICTIONARY
  5
19
102
{ACAD_REACTORS
330
C
102
}
100
AcDbDictionary
281
1
  0
DICTIONARY
  5
1A
102
{ACAD_REACTORS
330
C
102
}
100
AcDbDictionary
281
1
  3
Model
350
3D7
  3
Layout1
350
3D8
  0
ACDBPLACEHOLDER
  5
F
102
{ACAD_REACTORS
330
E
102
}
  0
MLINESTYLE
  5
18
102
{ACAD_REACTORS
330
17
102
}
100
AcDbMlineStyle
  2
STANDARD
 70
0
  3

 62
256
 51
90.0
 52
90.0
 71
2
 49
0.5
 62
256
  6
BYLAYER
 49
-0.5
 62
256
  6
BYLAYER
  0
LAYOUT
  5
3D7
102
{ACAD_REACTORS
330
1A
102
}
100
AcDbPlotSettings
  1

  2
none_device
  4
ANSI_C_(22.00_x_17.00_Inches)
  6

 40
0.0
 41
0.0
 42
0.0
 43
0.0
 44
558.8
 45
431.8
 46
0.0
 47
0.0
 48
0.0
 49
0.0
140
0.0
141
0.0
142
1.0
143
1.0
 70
1024
 72
0
 73
0
 74
0
  7

 75
0
147
1.0
148
0.0
149
0.0
100
AcDbLayout
  1
Model
 70
0
 71
0
 10
0.0
 20
0.0
 11
22.0
 21
17.0
 12
0.0
 22
0.0
 32
0.0
 14
0.0
 24
0.0
 34
0.0
 15
0.0
 25
0.0
 35
0.0
146
0.0
 13
0.0
 23
0.0
 33
0.0
 16
1.0
 26
0.0
 36
0.0
 17
0.0
 27
1.0
 37
0.0
 76
0
330
206
345
0
346
0
  0
LAYOUT
  5
3D8
102
{ACAD_REACTORS
330
1A
102
}
100
AcDbPlotSettings
  1

  2
none_device
  4
ANSI_C_(22.00_x_17.00_Inches)
  6

 40
0.0
 41
0.0
 42
0.0
 43
0.0
 44
558.8
 45
431.8
 46
0.0
 47
0.0
 48
0.0
 49
0.0
140
0.0
141
0.0
142
1.0
143
1.0
 70
0
 72
0
 73
0
 74
0
  7

 75
0
147
1.0
148
0.0
149
0.0
100
AcDbLayout
  1
Layout1
 70
0
 71
1
 10
0.0
 20
0.0
 11
22.0
 21
17.0
 12
0.0
 22
0.0
 32
0.0
 14
0.0
 24
0.0
 34
0.0
 15
0.0
 25
0.0
 35
0.0
146
0.0
 13
0.0
 23
0.0
 33
0.0
 16
1.0
 26
0.0
 36
0.0
 17
0.0
 27
1.0
 37
0.0
 76
0
330
207
345
0
346
0
  0
IMAGEDEF
  5
3D9
102
{ACAD_REACTORS
330
3D4
330
3D3
102
}
100
AcDbRasterImageDef
 90
0
  1
VLN_assy_2_img_1.png
 10
369.0
 20
92.0
 11
0.0066666667
 21
0.0066666667
280
1
281
0
  0
TABLESTYLE
  5
3DA
102
{ACAD_REACTORS
330
3D6
330
290
330
291
102
}
330
3D6
100
AcDbTableStyle
  3
Standard
 70
0
 71
0
 40
0.06
 41
0.06
280
1
281
1
  7
Standard
140
0.18
170
1
 62
0
 63
7
283
0
  7
Standard
140
0.18
170
1
 62
0
 63
7
283
0
  7
Standard
140
0.18
170
1
 62
0
 63
7
283
0
  0
TABLESTYLE
  5
3DB
102
{ACAD_REACTORS
330
3D6
330
28F
102
}
330
3D6
100
AcDbTableStyle
  3
Standard1
 70
1
 71
0
 40
0.06
 41
0.06
280
1
281
1
  7
Standard
140
0.18
170
1
 62
0
 63
7
283
0
  7
Standard
140
0.18
170
1
 62
0
 63
7
283
0
  7
Standard
140
0.18
170
1
 62
0
 63
7
283
0
  0
ENDSEC
  0
EOF
