999
DXF file: VGN_assy_2.dxf
999
Pro/ENGINEER 2014200 by Parametric Technology Corporation
  0
SECTION
  2
HEADER
  9
$ACADVER
  1
AC1021
  9
$DWGCODEPAGE
  3
ANSI_1252
  9
$EXTMAX
 10
22.0
 20
17.0
 30
0.0
  9
$EXTMIN
 10
0.0
 20
0.0
 30
0.0
  9
$LIMMIN
 10
0.0
 20
0.0
  9
$LIMMAX
 10
22.0
 20
17.0
  9
$VIEWCTR
 10
11.0
 20
8.5
  9
$VIEWSIZE
 40
17.0
  9
$CLAYER
  8
0
  9
$LTSCALE
 40
1.21
  9
$CELTYPE
  6
BYLAYER
  9
$DIMSCALE
 40
1.0
  9
$DIMASZ
 40
0.1875
  9
$DIMEXO
 40
0.0625
  9
$DIMDLI
 40
0.836
  9
$DIMEXE
 40
0.125
  9
$DIMCEN
 40
0.198
  9
$DIMLFAC
 40
1.0
  9
$DIMBLK
  1
_FILLED
  9
$DIMTXT
 40
0.1
  9
$DIMTOL
 70
0
  9
$DIMLIM
 70
0
  9
$DIMTFAC
 40
1.0
  9
$DIMGAP
 40
0.09
  9
$DIMDSEP
 70
46
  9
$AUNITS
 70
0
  9
$PDMODE
 70
3
  9
$PDSIZE
 40
0.3125
  9
$HANDSEED
  5
2F0
  9
$TILEMODE
 70
1
  9
$MEASUREMENT
 70
0
  9
$INSUNITS
 70
1
  0
ENDSEC
  0
SECTION
  2
CLASSES
  0
CLASS
  1
ACDBDICTIONARYWDFLT
  2
AcDbDictionaryWithDefault
  3
AutoCAD 2000
 90
0
 91
1
280
0
281
0
  0
CLASS
  1
ACDBPLACEHOLDER
  2
AcDbPlaceHolder
  3
AutoCAD 2000
 90
0
 91
1
280
0
281
0
  0
CLASS
  1
LAYOUT
  2
AcDbLayout
  3
AutoCAD 2000
 90
0
 91
0
280
0
281
0
  0
CLASS
  1
RASTERVARIABLES
  2
AcDbRasterVariables
  3
ISM
 90
0
 91
1
280
0
281
0
  0
CLASS
  1
IMAGEDEF
  2
AcDbRasterImageDef
  3
ISM
 90
0
 91
1
280
0
281
0
  0
CLASS
  1
IMAGEDEF_REACTOR
  2
AcDbRasterImageDefReactor
  3
ISM
 90
0
 91
1
280
0
281
0
  0
CLASS
  1
IMAGE
  2
AcDbRasterImage
  3
ISM
 90
127
 91
1
280
0
281
1
  0
CLASS
  1
TABLESTYLE
  2
AcDbTableStyle
  3
ObjectDBX Classes
 90
2047
 91
1
280
0
281
0
  0
CLASS
  1
ACAD_TABLE
  2
AcDbTable
  3
ObjectDBX Classes
 90
1025
 91
3
280
0
281
1
  0
ENDSEC
  0
SECTION
  2
TABLES
  0
TABLE
  2
VPORT
  5
8
100
AcDbSymbolTable
 70
2
  0
VPORT
  5
1F4
100
AcDbSymbolTableRecord
100
AcDbViewportTableRecord
  2
*ACTIVE
 70
0
 10
0.0
 20
0.0
 11
1.0
 21
1.0
 12
11.0
 22
8.5
 13
0.0
 23
0.0
 14
1.0
 24
1.0
 15
0.0
 25
0.0
 16
0.0
 26
0.0
 36
1.0
 17
0.0
 27
0.0
 37
0.0
 40
17.0
 41
1.2941176471
 42
50.0
 43
0.0
 44
0.0
 50
0.0
 51
0.0
 71
0
 72
100
 73
1
 74
1
 75
0
 76
0
 77
0
 78
0
  0
ENDTAB
  0
TABLE
  2
LTYPE
  5
5
100
AcDbSymbolTable
 70
6
  0
LTYPE
  5
14
100
AcDbSymbolTableRecord
100
AcDbLinetypeTableRecord
  2
BYBLOCK
 70
0
  3

 72
65
 73
0
 40
0.0
  0
LTYPE
  5
15
100
AcDbSymbolTableRecord
100
AcDbLinetypeTableRecord
  2
BYLAYER
 70
0
  3

 72
65
 73
0
 40
0.0
  0
LTYPE
  5
16
100
AcDbSymbolTableRecord
100
AcDbLinetypeTableRecord
  2
CONTINUOUS
 70
64
  3
Solid line
 72
65
 73
0
 40
0.0
  0
LTYPE
  5
1F5
100
AcDbSymbolTableRecord
100
AcDbLinetypeTableRecord
  2
CENTER
 70
64
  3
____ _ ____ _ ____ _ ____ _ ____ _ ____ _ ____
 72
65
 73
4
 40
0.6
 49
0.375
 74
0
 49
-0.075
 74
0
 49
0.075
 74
0
 49
-0.075
 74
0
  0
LTYPE
  5
1F6
100
AcDbSymbolTableRecord
100
AcDbLinetypeTableRecord
  2
HIDDEN
 70
64
  3
- - - - - - - - - - - - - - - - - - - -
 72
65
 73
2
 40
0.2
 49
0.1
 74
0
 49
-0.1
 74
0
  0
LTYPE
  5
1F7
100
AcDbSymbolTableRecord
100
AcDbLinetypeTableRecord
  2
PHANTOM
 70
64
  3
_____ _ _ _____ _ _ _____ _ _ _____
 72
65
 73
6
 40
0.8
 49
0.45
 74
0
 49
-0.05
 74
0
 49
0.1
 74
0
 49
-0.05
 74
0
 49
0.1
 74
0
 49
-0.05
 74
0
  0
LTYPE
  5
1F8
100
AcDbSymbolTableRecord
100
AcDbLinetypeTableRecord
  2
DOT
 70
64
  3
. . . . . . . . . . . . . . . . . . . .
 72
65
 73
2
 40
0.2
 49
0.1
 74
0
 49
-0.1
 74
0
  0
LTYPE
  5
1F9
100
AcDbSymbolTableRecord
100
AcDbLinetypeTableRecord
  2
DASHED
 70
64
  3
- - - - - - - - - - - - - - - - - - - -
 72
65
 73
2
 40
0.2
 49
0.1
 74
0
 49
-0.1
 74
0
  0
ENDTAB
  0
TABLE
  2
LAYER
  5
2
100
AcDbSymbolTable
 70
36
  0
LAYER
  5
10
100
AcDbSymbolTableRecord
100
AcDbLayerTableRecord
  2
0
 70
0
 62
7
  6
CONTINUOUS
370
-3
390
F
  0
LAYER
  5
1FA
100
AcDbSymbolTableRecord
100
AcDbLayerTableRecord
  2
DEFAULT_1
 70
0
 62
7
  6
CENTER
370
-3
390
F
  0
LAYER
  5
1FB
100
AcDbSymbolTableRecord
100
AcDbLayerTableRecord
  2
DEFAULT_2
 70
0
 62
8
  6
HIDDEN
370
-3
390
F
  0
LAYER
  5
1FC
100
AcDbSymbolTableRecord
100
AcDbLayerTableRecord
  2
DEFAULT_3
 70
0
 62
7
  6
PHANTOM
370
-3
390
F
  0
LAYER
  5
1FD
100
AcDbSymbolTableRecord
100
AcDbLayerTableRecord
  2
DATUM_PLANES
 70
0
 62
7
  6
CONTINUOUS
370
-3
390
F
  0
LAYER
  5
1FE
100
AcDbSymbolTableRecord
100
AcDbLayerTableRecord
  2
PORT_AREAS
 70
0
 62
7
  6
CONTINUOUS
370
-3
390
F
  0
LAYER
  5
1FF
100
AcDbSymbolTableRecord
100
AcDbLayerTableRecord
  2
SUNNBOMCOSMETIC
 70
0
 62
7
  6
CONTINUOUS
370
-3
390
F
  0
LAYER
  5
200
100
AcDbSymbolTableRecord
100
AcDbLayerTableRecord
  2
SUNNBOMSTAMPING
 70
0
 62
7
  6
CONTINUOUS
370
-3
390
F
  0
LAYER
  5
201
100
AcDbSymbolTableRecord
100
AcDbLayerTableRecord
  2
THREADS
 70
0
 62
7
  6
CONTINUOUS
370
-3
390
F
  0
ENDTAB
  0
TABLE
  2
STYLE
  5
3
100
AcDbSymbolTable
 70
1
  0
STYLE
  5
11
100
AcDbSymbolTableRecord
100
AcDbTextStyleTableRecord
  2
STANDARD
 70
0
 40
0.0
 41
0.8
 50
0.0
 71
0
 42
0.2
  3
txt
  4

  0
STYLE
  5
202
100
AcDbSymbolTableRecord
100
AcDbTextStyleTableRecord
  2
TEXTSTYLE_1
 70
0
 40
0.0
 41
0.8
 50
0.0
 71
0
 42
0.2
  3
gdt
  4

  0
ENDTAB
  0
TABLE
  2
VIEW
  5
6
100
AcDbSymbolTable
 70
0
  0
ENDTAB
  0
TABLE
  2
UCS
  5
7
100
AcDbSymbolTable
 70
0
  0
ENDTAB
  0
TABLE
  2
APPID
  5
9
100
AcDbSymbolTable
 70
1
  0
APPID
  5
203
100
AcDbSymbolTableRecord
100
AcDbRegAppTableRecord
  2
ACAD
 70
0
  0
ENDTAB
  0
TABLE
  2
BLOCK_RECORD
  5
1
100
AcDbSymbolTable
 70
0
  0
BLOCK_RECORD
  5
204
100
AcDbSymbolTableRecord
100
AcDbBlockTableRecord
  2
*Model_Space
  0
BLOCK_RECORD
  5
205
100
AcDbSymbolTableRecord
100
AcDbBlockTableRecord
  2
*Paper_Space
  0
BLOCK_RECORD
  5
206
100
AcDbSymbolTableRecord
100
AcDbBlockTableRecord
  2
SUN_FIRST_THIRD_ANGLE_BL0
  0
BLOCK_RECORD
  5
207
100
AcDbSymbolTableRecord
100
AcDbBlockTableRecord
  2
*T1
  0
BLOCK_RECORD
  5
208
100
AcDbSymbolTableRecord
100
AcDbBlockTableRecord
  2
*T2
  0
BLOCK_RECORD
  5
209
100
AcDbSymbolTableRecord
100
AcDbBlockTableRecord
  2
*T3
  0
ENDTAB
  0
TABLE
  2
DIMSTYLE
  5
A
100
AcDbSymbolTable
 70
1
100
AcDbDimStyleTable
 71
0
  0
DIMSTYLE
105
20A
100
AcDbSymbolTableRecord
100
AcDbDimStyleTableRecord
  2
STANDARD
 70
0
  3

  4

 40
1.0
 41
0.1875
 42
0.0625
 43
0.38
 44
0.125
 45
0.0
 46
0.0
 47
0.001
 48
0.001
140
0.1
141
0.09
142
0.0
143
25.4
144
1.0
145
0.0
146
1.0
147
0.09
 71
0.0
 72
0.0
 73
1
 74
1
 75
0
 76
0
 77
0
 78
4
170
0
171
2
172
0
173
0
174
0
175
0
176
0
177
0
178
0
270
2
271
3
272
3
273
2
274
2
275
0
280
0
281
0
282
0
283
1
284
4
285
0
286
0
287
3
288
0
340
11
278
46
  0
ENDTAB
  0
ENDSEC
  0
SECTION
  2
BLOCKS
  0
BLOCK
  5
20
100
AcDbEntity
  8
0
100
AcDbBlockBegin
  2
*Model_Space
 70
0
 10
0.0
 20
0.0
 30
0.0
  3
*Model_Space
  1

  0
ENDBLK
  5
21
100
AcDbEntity
  8
0
100
AcDbBlockEnd
  0
BLOCK
  5
1C
100
AcDbEntity
  8
0
100
AcDbBlockBegin
  2
*Paper_Space
 70
0
 10
0.0
 20
0.0
 30
0.0
  3
*Paper_Space
  1

  0
ENDBLK
  5
1D
100
AcDbEntity
  8
0
100
AcDbBlockEnd
  0
BLOCK
  5
20B
100
AcDbEntity
  8
0
100
AcDbBlockBegin
 62
2
  6
CONTINUOUS
  2
SUN_FIRST_THIRD_ANGLE_BL0
 70
64
 10
20.4816717061
 20
1.2289683772
  3
SUN_FIRST_THIRD_ANGLE_BL0
  1

  0
TEXT
  5
20C
100
AcDbEntity
  8
0
100
AcDbText
 62
2
  6
CONTINUOUS
 10
19.4750896608
 20
1.4136269581
  7
STANDARD
 40
0.08
  1
FIRST ANGLE
 41
0.8
 72
0
100
AcDbText
  0
TEXT
  5
20D
100
AcDbEntity
  8
0
100
AcDbText
 62
2
  6
CONTINUOUS
 10
20.7842537513
 20
1.4047600029
  7
STANDARD
 40
0.08
  1
THIRD ANGLE
 41
0.8
 72
0
100
AcDbText
  0
LINE
  5
20E
100
AcDbEntity
  8
0
100
AcDbLine
 62
7
  6
CONTINUOUS
 10
19.4767170086
 20
1.1727031207
 11
19.6334271527
 21
1.1717972817
  0
LINE
  5
20F
100
AcDbEntity
  8
0
100
AcDbLine
 62
7
  6
CONTINUOUS
 10
19.6596964832
 20
1.1717972817
 11
19.6950230232
 21
1.171593082
  0
LINE
  5
210
100
AcDbEntity
  8
0
100
AcDbLine
 62
7
  6
CONTINUOUS
 10
19.7194818561
 20
1.1708914427
 11
19.8852396156
 21
1.1699333054
  0
LINE
  5
211
100
AcDbEntity
  8
0
100
AcDbLine
 62
7
  6
CONTINUOUS
 10
19.4758111696
 20
1.2723454088
 11
19.88525039
 21
1.3511534004
  0
LINE
  5
212
100
AcDbEntity
  8
0
100
AcDbLine
 62
7
  6
CONTINUOUS
 10
19.88525039
 20
1.3511534004
 11
19.8831348489
 21
0.9851647912
  0
LINE
  5
213
100
AcDbEntity
  8
0
100
AcDbLine
 62
7
  6
CONTINUOUS
 10
19.8831348489
 20
0.9851647912
 11
19.4767170086
 21
1.0658141206
  0
LINE
  5
214
100
AcDbEntity
  8
0
100
AcDbLine
 62
7
  6
CONTINUOUS
 10
19.4767170086
 20
1.0658141206
 11
19.4779056764
 21
1.2714536432
  0
CIRCLE
  5
215
100
AcDbEntity
  8
0
100
AcDbCircle
 62
7
  6
CONTINUOUS
 10
20.2068232291
 20
1.1717972817
 40
0.175742101
  0
CIRCLE
  5
216
100
AcDbEntity
  8
0
100
AcDbCircle
 62
7
  6
CONTINUOUS
 10
20.2068232291
 20
1.1717972817
 40
0.1005522074
  0
LINE
  5
217
100
AcDbEntity
  8
0
100
AcDbLine
 62
7
  6
CONTINUOUS
 10
20.2077290681
 20
1.3756110529
 11
20.2071171714
 21
1.2379342989
  0
LINE
  5
218
100
AcDbEntity
  8
0
100
AcDbLine
 62
7
  6
CONTINUOUS
 10
20.2077290681
 20
1.2016899681
 11
20.2074674401
 21
1.1428236749
  0
LINE
  5
219
100
AcDbEntity
  8
0
100
AcDbLine
 62
7
  6
CONTINUOUS
 10
20.208634907
 20
1.101141841
 11
20.2080230104
 21
0.963465087
  0
LINE
  5
21A
100
AcDbEntity
  8
0
100
AcDbLine
 62
7
  6
CONTINUOUS
 10
20.0066328138
 20
1.1745147986
 11
20.1443095678
 21
1.1739029019
  0
LINE
  5
21B
100
AcDbEntity
  8
0
100
AcDbLine
 62
7
  6
CONTINUOUS
 10
20.1832714155
 20
1.1727031207
 11
20.238153505
 21
1.172335442
  0
LINE
  5
21C
100
AcDbEntity
  8
0
100
AcDbLine
 62
7
  6
CONTINUOUS
 10
20.2756669918
 20
1.1717972817
 11
20.407916871
 21
1.1712095044
  0
CIRCLE
  5
21D
100
AcDbEntity
  8
0
100
AcDbCircle
 62
7
  6
CONTINUOUS
 10
20.7509457401
 20
1.1693297793
 40
0.1722024983
  0
CIRCLE
  5
21E
100
AcDbEntity
  8
0
100
AcDbCircle
 62
7
  6
CONTINUOUS
 10
20.7509457401
 20
1.1693297793
 40
0.0985164967
  0
LINE
  5
21F
100
AcDbEntity
  8
0
100
AcDbLine
 62
7
  6
CONTINUOUS
 10
20.7169767782
 20
1.170462078
 11
20.7825395137
 21
1.1682766535
  0
LINE
  5
220
100
AcDbEntity
  8
0
100
AcDbLine
 62
7
  6
CONTINUOUS
 10
20.8177513651
 20
1.1693297793
 11
20.947965719
 21
1.1693297793
  0
LINE
  5
221
100
AcDbEntity
  8
0
100
AcDbLine
 62
7
  6
CONTINUOUS
 10
20.6875370113
 20
1.170462078
 11
20.5573226574
 21
1.170462078
  0
LINE
  5
222
100
AcDbEntity
  8
0
100
AcDbLine
 62
7
  6
CONTINUOUS
 10
20.7486811426
 20
1.1987695462
 11
20.7486811426
 21
1.1432869085
  0
LINE
  5
223
100
AcDbEntity
  8
0
100
AcDbLine
 62
7
  6
CONTINUOUS
 10
20.7498134414
 20
1.1059210505
 11
20.7498134414
 21
0.9757066966
  0
LINE
  5
224
100
AcDbEntity
  8
0
100
AcDbLine
 62
7
  6
CONTINUOUS
 10
20.7486811426
 20
1.2338708068
 11
20.7486811426
 21
1.3640851607
  0
LINE
  5
225
100
AcDbEntity
  8
0
100
AcDbLine
 62
7
  6
CONTINUOUS
 10
21.0702539817
 20
1.2701043662
 11
21.4790138229
 21
1.3448360823
  0
LINE
  5
226
100
AcDbEntity
  8
0
100
AcDbLine
 62
7
  6
CONTINUOUS
 10
21.4790138229
 20
1.3448360823
 11
21.4790138229
 21
0.9779712941
  0
LINE
  5
227
100
AcDbEntity
  8
0
100
AcDbLine
 62
7
  6
CONTINUOUS
 10
21.4790138229
 20
0.9779712941
 11
21.069121683
 21
1.0617614
  0
LINE
  5
228
100
AcDbEntity
  8
0
100
AcDbLine
 62
7
  6
CONTINUOUS
 10
21.0702539817
 20
1.2701043662
 11
21.069121683
 21
1.0617614
  0
LINE
  5
229
100
AcDbEntity
  8
0
100
AcDbLine
 62
7
  6
CONTINUOUS
 10
21.4790138229
 20
1.1693297793
 11
21.3159628059
 21
1.1693297793
  0
LINE
  5
22A
100
AcDbEntity
  8
0
100
AcDbLine
 62
7
  6
CONTINUOUS
 10
21.2876553377
 20
1.1693297793
 11
21.2502894796
 21
1.1693297793
  0
LINE
  5
22B
100
AcDbEntity
  8
0
100
AcDbLine
 62
7
  6
CONTINUOUS
 10
21.2208497126
 20
1.1659328831
 11
21.0713862804
 21
1.1659328831
  0
LINE
  5
22C
100
AcDbEntity
  8
0
100
AcDbLine
 62
7
  6
CONTINUOUS
 10
20.4796138713
 20
1.5284908897
 11
20.4766766948
 21
0.9294458646
  0
ENDBLK
  5
22D
100
AcDbEntity
  8
0
  6
BYBLOCK
 62
0
100
AcDbBlockEnd
  0
BLOCK
  5
22E
100
AcDbEntity
  8
0
100
AcDbBlockBegin
  2
*T1
 70
1
 10
0.0
 20
0.0
  3
*T1
  1

  0
LINE
  5
22F
100
AcDbEntity
  8
0
100
AcDbLine
 62
2
  6
CONTINUOUS
 10
9.275
 20
0.0
 11
-0.0
 21
0.0
  0
LINE
  5
230
100
AcDbEntity
  8
0
100
AcDbLine
 62
2
  6
CONTINUOUS
 10
9.275
 20
0.0
 11
9.275
 21
1.25
  0
LINE
  5
231
100
AcDbEntity
  8
0
100
AcDbLine
 62
2
  6
CONTINUOUS
 10
9.275
 20
0.625
 11
-0.0
 21
0.625
  0
LINE
  5
232
100
AcDbEntity
  8
0
100
AcDbLine
 62
2
  6
CONTINUOUS
 10
9.275
 20
1.25
 11
-0.0
 21
1.25
  0
LINE
  5
233
100
AcDbEntity
  8
0
100
AcDbLine
 62
2
  6
CONTINUOUS
 10
6.8
 20
0.0
 11
6.8
 21
1.25
  0
LINE
  5
234
100
AcDbEntity
  8
0
100
AcDbLine
 62
2
  6
CONTINUOUS
 10
6.4
 20
0.0
 11
6.4
 21
0.625
  0
LINE
  5
235
100
AcDbEntity
  8
0
100
AcDbLine
 62
2
  6
CONTINUOUS
 10
5.9
 20
0.0
 11
5.9
 21
0.625
  0
LINE
  5
236
100
AcDbEntity
  8
0
100
AcDbLine
 62
2
  6
CONTINUOUS
 10
5.2
 20
0.0
 11
5.2
 21
0.625
  0
LINE
  5
237
100
AcDbEntity
  8
0
100
AcDbLine
 62
2
  6
CONTINUOUS
 10
4.1
 20
0.0
 11
4.1
 21
1.25
  0
LINE
  5
238
100
AcDbEntity
  8
0
100
AcDbLine
 62
2
  6
CONTINUOUS
 10
-0.0
 20
0.0
 11
-0.0
 21
1.25
  0
MTEXT
  5
239
100
AcDbEntity
  8
0
100
AcDbMText
 62
2
  6
CONTINUOUS
  7
STANDARD
 71
2
 72
1
 10
6.6
 20
0.325
 30
0.0
 11
1.0
 21
0.0
 31
0.0
 44
0.9
  1
2
 40
0.125
 41
0.2
  0
MTEXT
  5
23A
100
AcDbEntity
  8
0
100
AcDbMText
 62
2
  6
CONTINUOUS
  7
STANDARD
 71
2
 72
1
 10
6.15
 20
0.325
 30
0.0
 11
1.0
 21
0.0
 31
0.0
 44
0.9
  1
C
 40
0.125
 41
0.2
  0
MTEXT
  5
23B
100
AcDbEntity
  8
0
100
AcDbMText
 62
2
  6
CONTINUOUS
  7
STANDARD
 71
2
 72
1
 10
5.55
 20
0.325
 30
0.0
 11
1.0
 21
0.0
 31
0.0
 44
0.9
  1
2.000
 40
0.125
 41
1.0
  0
MTEXT
  5
23C
100
AcDbEntity
  8
0
100
AcDbMText
 62
2
  6
CONTINUOUS
  7
STANDARD
 71
2
 72
1
 10
4.65
 20
0.325
 30
0.0
 11
1.0
 21
0.0
 31
0.0
 44
0.9
  1
Oct-15-19
 40
0.125
 41
1.8
  0
MTEXT
  5
23D
100
AcDbEntity
  8
0
100
AcDbMText
 62
2
  6
CONTINUOUS
  7
STANDARD
 71
2
 72
1
 10
2.05
 20
0.4625
 30
0.0
 11
1.0
 21
0.0
 31
0.0
 44
0.9
  1
T-2A Motor mount Eaton/Char-Lynn H & S\PCross pilot
 40
0.125
 41
7.6
  0
MTEXT
  5
23E
100
AcDbEntity
  8
0
100
AcDbMText
 62
2
  6
CONTINUOUS
  7
STANDARD
 71
1
 72
1
 10
6.45
 20
0.5625
 30
0.0
 11
1.0
 21
0.0
 31
0.0
 44
0.9
  1
SHEET
 40
0.06
 41
0.48
  0
MTEXT
  5
23F
100
AcDbEntity
  8
0
100
AcDbMText
 62
2
  6
CONTINUOUS
  7
STANDARD
 71
1
 72
1
 10
5.95
 20
0.5625
 30
0.0
 11
1.0
 21
0.0
 31
0.0
 44
0.9
  1
DWG SIZE
 40
0.06
 41
0.768
  0
MTEXT
  5
240
100
AcDbEntity
  8
0
100
AcDbMText
 62
2
  6
CONTINUOUS
  7
STANDARD
 71
1
 72
1
 10
5.25
 20
0.5625
 30
0.0
 11
1.0
 21
0.0
 31
0.0
 44
0.9
  1
SCALE
 40
0.06
 41
0.48
  0
MTEXT
  5
241
100
AcDbEntity
  8
0
100
AcDbMText
 62
2
  6
CONTINUOUS
  7
STANDARD
 71
1
 72
1
 10
4.15
 20
0.5625
 30
0.0
 11
1.0
 21
0.0
 31
0.0
 44
0.9
  1
DATE
 40
0.06
 41
0.384
  0
MTEXT
  5
242
100
AcDbEntity
  8
0
100
AcDbMText
 62
2
  6
CONTINUOUS
  7
STANDARD
 71
1
 72
1
 10
0.05
 20
0.5625
 30
0.0
 11
1.0
 21
0.0
 31
0.0
 44
0.9
  1
DESCRIPTION
 40
0.06
 41
1.056
  0
MTEXT
  5
243
100
AcDbEntity
  8
0
100
AcDbMText
 62
2
  6
CONTINUOUS
  7
STANDARD
 71
2
 72
1
 10
5.45
 20
1.0375
 30
0.0
 11
1.0
 21
0.0
 31
0.0
 44
0.9
  1
ALL DIMENSIONS IN INCH\PVIEWS ARE THIRD ANGLE
 40
0.12
 41
4.224
  0
MTEXT
  5
244
100
AcDbEntity
  8
0
100
AcDbMText
 62
2
  6
CONTINUOUS
  7
STANDARD
 71
2
 72
1
 10
2.05
 20
0.95
 30
0.0
 11
1.0
 21
0.0
 31
0.0
 44
0.9
  1
VGN
 40
0.125
 41
0.6
  0
MTEXT
  5
245
100
AcDbEntity
  8
0
100
AcDbMText
 62
2
  6
CONTINUOUS
  7
STANDARD
 71
1
 72
1
 10
0.05
 20
1.1875
 30
0.0
 11
1.0
 21
0.0
 31
0.0
 44
0.9
  1
MODEL
 40
0.06
 41
0.48
  0
ENDBLK
  5
246
100
AcDbEntity
  8
0
  6
BYBLOCK
 62
0
100
AcDbBlockEnd
  0
BLOCK
  5
247
100
AcDbEntity
  8
0
100
AcDbBlockBegin
  2
*T2
 70
1
 10
0.0
 20
0.0
  3
*T2
  1

  0
LINE
  5
248
100
AcDbEntity
  8
0
100
AcDbLine
 62
2
  6
CONTINUOUS
 10
0.0
 20
0.0
 11
9.055
 21
0.0
  0
LINE
  5
249
100
AcDbEntity
  8
0
100
AcDbLine
 62
2
  6
CONTINUOUS
 10
0.0
 20
0.0
 11
0.0
 21
-1.844
  0
LINE
  5
24A
100
AcDbEntity
  8
0
100
AcDbLine
 62
2
  6
CONTINUOUS
 10
0.0
 20
-0.344
 11
9.055
 21
-0.344
  0
LINE
  5
24B
100
AcDbEntity
  8
0
100
AcDbLine
 62
2
  6
CONTINUOUS
 10
0.0
 20
-0.594
 11
9.055
 21
-0.594
  0
LINE
  5
24C
100
AcDbEntity
  8
0
100
AcDbLine
 62
2
  6
CONTINUOUS
 10
0.0
 20
-0.844
 11
9.055
 21
-0.844
  0
LINE
  5
24D
100
AcDbEntity
  8
0
100
AcDbLine
 62
2
  6
CONTINUOUS
 10
0.0
 20
-1.094
 11
9.055
 21
-1.094
  0
LINE
  5
24E
100
AcDbEntity
  8
0
100
AcDbLine
 62
2
  6
CONTINUOUS
 10
0.0
 20
-1.344
 11
9.055
 21
-1.344
  0
LINE
  5
24F
100
AcDbEntity
  8
0
100
AcDbLine
 62
2
  6
CONTINUOUS
 10
0.0
 20
-1.594
 11
9.055
 21
-1.594
  0
LINE
  5
250
100
AcDbEntity
  8
0
100
AcDbLine
 62
2
  6
CONTINUOUS
 10
0.0
 20
-1.844
 11
9.055
 21
-1.844
  0
LINE
  5
251
100
AcDbEntity
  8
0
100
AcDbLine
 62
2
  6
CONTINUOUS
 10
3.055
 20
0.0
 11
3.055
 21
-1.844
  0
LINE
  5
252
100
AcDbEntity
  8
0
100
AcDbLine
 62
2
  6
CONTINUOUS
 10
9.055
 20
0.0
 11
9.055
 21
-1.844
  0
MTEXT
  5
253
100
AcDbEntity
  8
0
100
AcDbMText
 62
2
  6
CONTINUOUS
  7
STANDARD
 71
2
 72
1
 10
1.5275
 20
-0.0995
 30
0.0
 11
1.0
 21
0.0
 31
0.0
 44
0.9
  1
Technical Data
 40
0.145
 41
3.248
  0
MTEXT
  5
254
100
AcDbEntity
  8
0
100
AcDbMText
 62
2
  6
CONTINUOUS
  7
STANDARD
 71
2
 72
1
 10
4.555
 20
-0.0995
 30
0.0
 11
1.0
 21
0.0
 31
0.0
 44
0.9
  1
U.S. Units
 40
0.145
 41
2.32
  0
MTEXT
  5
255
100
AcDbEntity
  8
0
100
AcDbMText
 62
2
  6
CONTINUOUS
  7
STANDARD
 71
2
 72
1
 10
7.555
 20
-0.0995
 30
0.0
 11
1.0
 21
0.0
 31
0.0
 44
0.9
  1
Metric Units
 40
0.145
 41
2.784
  0
MTEXT
  5
256
100
AcDbEntity
  8
0
100
AcDbMText
 62
2
  6
CONTINUOUS
  7
STANDARD
 71
2
 72
1
 10
1.5275
 20
-0.4065
 30
0.0
 11
1.0
 21
0.0
 31
0.0
 44
0.9
  1
Cavity
 40
0.125
 41
1.2
  0
MTEXT
  5
257
100
AcDbEntity
  8
0
100
AcDbMText
 62
2
  6
CONTINUOUS
  7
STANDARD
 71
2
 72
1
 10
6.055
 20
-0.4065
 30
0.0
 11
1.0
 21
0.0
 31
0.0
 44
0.9
  1
T-2A
 40
0.125
 41
0.8
  0
MTEXT
  5
258
100
AcDbEntity
  8
0
100
AcDbMText
 62
2
  6
CONTINUOUS
  7
STANDARD
 71
2
 72
1
 10
1.5275
 20
-0.6565
 30
0.0
 11
1.0
 21
0.0
 31
0.0
 44
0.9
  1
Body Features
 40
0.125
 41
2.6
  0
MTEXT
  5
259
100
AcDbEntity
  8
0
100
AcDbMText
 62
2
  6
CONTINUOUS
  7
STANDARD
 71
2
 72
1
 10
6.055
 20
-0.6565
 30
0.0
 11
1.0
 21
0.0
 31
0.0
 44
0.9
  1
Cross pilot
 40
0.125
 41
2.2
  0
MTEXT
  5
25A
100
AcDbEntity
  8
0
100
AcDbMText
 62
2
  6
CONTINUOUS
  7
STANDARD
 71
2
 72
1
 10
1.5275
 20
-0.9065
 30
0.0
 11
1.0
 21
0.0
 31
0.0
 44
0.9
  1
Body Type
 40
0.125
 41
1.8
  0
MTEXT
  5
25B
100
AcDbEntity
  8
0
100
AcDbMText
 62
2
  6
CONTINUOUS
  7
STANDARD
 71
2
 72
1
 10
6.055
 20
-0.9065
 30
0.0
 11
1.0
 21
0.0
 31
0.0
 44
0.9
  1
Motor mount
 40
0.125
 41
2.2
  0
MTEXT
  5
25C
100
AcDbEntity
  8
0
100
AcDbMText
 62
2
  6
CONTINUOUS
  7
STANDARD
 71
2
 72
1
 10
1.5275
 20
-1.1565
 30
0.0
 11
1.0
 21
0.0
 31
0.0
 44
0.9
  1
Interface
 40
0.125
 41
1.8
  0
MTEXT
  5
25D
100
AcDbEntity
  8
0
100
AcDbMText
 62
2
  6
CONTINUOUS
  7
STANDARD
 71
2
 72
1
 10
6.055
 20
-1.1565
 30
0.0
 11
1.0
 21
0.0
 31
0.0
 44
0.9
  1
Eaton/Char-Lynn H & S
 40
0.125
 41
4.2
  0
MTEXT
  5
25E
100
AcDbEntity
  8
0
100
AcDbMText
 62
2
  6
CONTINUOUS
  7
STANDARD
 71
2
 72
1
 10
1.5275
 20
-1.4065
 30
0.0
 11
1.0
 21
0.0
 31
0.0
 44
0.9
  1
Open Cavity Quantity
 40
0.125
 41
4.0
  0
MTEXT
  5
25F
100
AcDbEntity
  8
0
100
AcDbMText
 62
2
  6
CONTINUOUS
  7
STANDARD
 71
2
 72
1
 10
6.055
 20
-1.4065
 30
0.0
 11
1.0
 21
0.0
 31
0.0
 44
0.9
  1
2
 40
0.125
 41
0.2
  0
MTEXT
  5
260
100
AcDbEntity
  8
0
100
AcDbMText
 62
2
  6
CONTINUOUS
  7
STANDARD
 71
2
 72
1
 10
1.5275
 20
-1.6565
 30
0.0
 11
1.0
 21
0.0
 31
0.0
 44
0.9
  1
Weight
 40
0.125
 41
1.2
  0
MTEXT
  5
261
100
AcDbEntity
  8
0
100
AcDbMText
 62
2
  6
CONTINUOUS
  7
STANDARD
 71
2
 72
1
 10
4.555
 20
-1.6565
 30
0.0
 11
1.0
 21
0.0
 31
0.0
 44
0.9
  1
2.566 lb.
 40
0.125
 41
1.8
  0
MTEXT
  5
262
100
AcDbEntity
  8
0
100
AcDbMText
 62
2
  6
CONTINUOUS
  7
STANDARD
 71
2
 72
1
 10
7.555
 20
-1.6565
 30
0.0
 11
1.0
 21
0.0
 31
0.0
 44
0.9
  1
1,164 kg.
 40
0.125
 41
1.8
  0
ENDBLK
  5
263
100
AcDbEntity
  8
0
  6
BYBLOCK
 62
0
100
AcDbBlockEnd
  0
BLOCK
  5
264
100
AcDbEntity
  8
0
100
AcDbBlockBegin
  2
*T3
 70
1
 10
0.0
 20
0.0
  3
*T3
  1

  0
LINE
  5
265
100
AcDbEntity
  8
0
100
AcDbLine
 62
2
  6
CONTINUOUS
 10
0.0
 20
0.0
 11
4.6
 21
0.0
  0
LINE
  5
266
100
AcDbEntity
  8
0
100
AcDbLine
 62
2
  6
CONTINUOUS
 10
0.0
 20
0.0
 11
0.0
 21
-0.93775
  0
LINE
  5
267
100
AcDbEntity
  8
0
100
AcDbLine
 62
2
  6
CONTINUOUS
 10
0.0
 20
-0.34375
 11
4.6
 21
-0.34375
  0
LINE
  5
268
100
AcDbEntity
  8
0
100
AcDbLine
 62
2
  6
CONTINUOUS
 10
0.0
 20
-0.68775
 11
4.6
 21
-0.68775
  0
LINE
  5
269
100
AcDbEntity
  8
0
100
AcDbLine
 62
2
  6
CONTINUOUS
 10
0.0
 20
-0.93775
 11
4.6
 21
-0.93775
  0
LINE
  5
26A
100
AcDbEntity
  8
0
100
AcDbLine
 62
2
  6
CONTINUOUS
 10
1.3
 20
-0.34375
 11
1.3
 21
-0.93775
  0
LINE
  5
26B
100
AcDbEntity
  8
0
100
AcDbLine
 62
2
  6
CONTINUOUS
 10
3.3
 20
-0.34375
 11
3.3
 21
-0.93775
  0
LINE
  5
26C
100
AcDbEntity
  8
0
100
AcDbLine
 62
2
  6
CONTINUOUS
 10
4.6
 20
0.0
 11
4.6
 21
-0.93775
  0
MTEXT
  5
26D
100
AcDbEntity
  8
0
100
AcDbMText
 62
2
  6
CONTINUOUS
  7
STANDARD
 71
2
 72
1
 10
2.3
 20
-0.099375
 30
0.0
 11
1.0
 21
0.0
 31
0.0
 44
0.9
  1
Port Headings
 40
0.145
 41
3.016
  0
MTEXT
  5
26E
100
AcDbEntity
  8
0
100
AcDbMText
 62
2
  6
CONTINUOUS
  7
STANDARD
 71
2
 72
1
 10
0.65
 20
-0.44325
 30
0.0
 11
1.0
 21
0.0
 31
0.0
 44
0.9
  1
Product
 40
0.145
 41
1.624
  0
MTEXT
  5
26F
100
AcDbEntity
  8
0
100
AcDbMText
 62
2
  6
CONTINUOUS
  7
STANDARD
 71
2
 72
1
 10
2.3
 20
-0.44325
 30
0.0
 11
1.0
 21
0.0
 31
0.0
 44
0.9
  1
Port
 40
0.145
 41
0.928
  0
MTEXT
  5
270
100
AcDbEntity
  8
0
100
AcDbMText
 62
2
  6
CONTINUOUS
  7
STANDARD
 71
2
 72
1
 10
3.95
 20
-0.44325
 30
0.0
 11
1.0
 21
0.0
 31
0.0
 44
0.9
  1
Size
 40
0.145
 41
0.928
  0
MTEXT
  5
271
100
AcDbEntity
  8
0
100
AcDbMText
 62
2
  6
CONTINUOUS
  7
STANDARD
 71
2
 72
1
 10
0.65
 20
-0.75025
 30
0.0
 11
1.0
 21
0.0
 31
0.0
 44
0.9
  1
VGN
 40
0.125
 41
0.6
  0
MTEXT
  5
272
100
AcDbEntity
  8
0
100
AcDbMText
 62
2
  6
CONTINUOUS
  7
STANDARD
 71
2
 72
1
 10
2.3
 20
-0.75025
 30
0.0
 11
1.0
 21
0.0
 31
0.0
 44
0.9
  1
Out Ports
 40
0.125
 41
1.8
  0
MTEXT
  5
273
100
AcDbEntity
  8
0
100
AcDbMText
 62
2
  6
CONTINUOUS
  7
STANDARD
 71
2
 72
1
 10
3.95
 20
-0.75025
 30
0.0
 11
1.0
 21
0.0
 31
0.0
 44
0.9
  1
3/4" NPTF
 40
0.125
 41
1.8
  0
ENDBLK
  5
274
100
AcDbEntity
  8
0
  6
BYBLOCK
 62
0
100
AcDbBlockEnd
  0
ENDSEC
  0
SECTION
  2
ENTITIES
  0
IMAGE
  5
275
100
AcDbEntity
  8
0
100
AcDbRasterImage
 62
7
  6
CONTINUOUS
 10
19.2297077316
 20
0.3094318264
 30
0.0
 11
0.0066666667
 21
0.0
 31
0.0
 12
0.0
 22
0.0066666667
 32
0.0
 13
369.0
 23
92.0
340
       2ED
 70
9
280
0
281
50
282
50
283
0
360
       2E7
 71
1
 91
2
 14
-0.5
 24
-0.5
 14
368.5
 24
91.5
  0
INSERT
  5
276
100
AcDbEntity
  8
0
100
AcDbBlockReference
 62
2
  6
CONTINUOUS
  2
SUN_FIRST_THIRD_ANGLE_BL0
 10
20.4816717061
 20
1.2289683772
  0
ACAD_TABLE
  5
277
100
AcDbEntity
  8
0
 62
2
  6
CONTINUOUS
100
AcDbBlockReference
  2
*T1
 10
12.42375
 20
0.30125
 30
0.0
100
AcDbTable
342
       2EF
343
207
 11
1.0
 21
0.0
 31
0.0
 90
6
 91
4
 92
6
 93
20
 94
0
 95
0
 96
0
 70
1
 41
0.0
141
0.525
141
0.1
141
0.525
141
0.1
142
4.1
142
1.1
142
0.7
142
0.5
142
0.4
142
2.475
171
1
172
0
173
0
174
0
175
1
176
1
 91
33
178
0
145
0.0
301
CELL_VALUE
 90
4
  1
T-2A Motor mount Eaton/Char-Lynn H & S\PCross pilot
304
ACVALUE_END
170
2
140
0.125
171
1
172
0
173
0
174
0
175
1
176
1
 91
33
178
0
145
0.0
301
CELL_VALUE
 90
4
  1
Oct-15-19
304
ACVALUE_END
170
5
140
0.125
171
1
172
0
173
0
174
0
175
1
176
1
 91
33
178
0
145
0.0
301
CELL_VALUE
 90
4
  1
2.000
304
ACVALUE_END
170
5
140
0.125
171
1
172
0
173
0
174
0
175
1
176
1
 91
33
178
0
145
0.0
301
CELL_VALUE
 90
4
  1
C
304
ACVALUE_END
170
5
140
0.125
171
1
172
0
173
0
174
0
175
1
176
1
 91
33
178
0
145
0.0
301
CELL_VALUE
 90
4
  1
2
304
ACVALUE_END
170
5
140
0.125
171
1
172
0
173
0
174
0
175
1
176
1
 91
33
178
0
145
0.0
301
CELL_VALUE
 90
4
  1
 
304
ACVALUE_END
170
1
140
0.125
171
1
172
0
173
0
174
0
175
1
176
1
 91
33
178
0
145
0.0
301
CELL_VALUE
 90
4
  1
DESCRIPTION
304
ACVALUE_END
170
1
140
0.06
171
1
172
0
173
0
174
0
175
1
176
1
 91
33
178
0
145
0.0
301
CELL_VALUE
 90
4
  1
DATE
304
ACVALUE_END
170
1
140
0.06
171
1
172
0
173
0
174
0
175
1
176
1
 91
33
178
0
145
0.0
301
CELL_VALUE
 90
4
  1
SCALE
304
ACVALUE_END
170
1
140
0.06
171
1
172
0
173
0
174
0
175
1
176
1
 91
33
178
0
145
0.0
301
CELL_VALUE
 90
4
  1
DWG SIZE
304
ACVALUE_END
170
1
140
0.06
171
1
172
0
173
0
174
0
175
1
176
1
 91
33
178
0
145
0.0
301
CELL_VALUE
 90
4
  1
SHEET
304
ACVALUE_END
170
1
140
0.06
171
1
172
0
173
0
174
0
175
1
176
1
 91
33
178
0
145
0.0
301
CELL_VALUE
 90
4
  1
 
304
ACVALUE_END
170
1
140
0.125
171
1
172
0
173
0
174
0
175
1
176
1
 91
33
178
0
145
0.0
301
CELL_VALUE
 90
4
  1
VGN
304
ACVALUE_END
170
5
140
0.125
171
1
172
0
173
0
174
0
175
4
176
1
 91
33
178
0
145
0.0
301
CELL_VALUE
 90
4
  1
ALL DIMENSIONS IN INCH\PVIEWS ARE THIRD ANGLE
304
ACVALUE_END
170
5
140
0.12
171
1
172
0
173
1
174
0
175
1
176
1
 91
1
178
0
145
0.0
170
1
171
1
172
0
173
1
174
0
175
1
176
1
 91
1
178
0
145
0.0
170
1
171
1
172
0
173
1
174
0
175
1
176
1
 91
1
178
0
145
0.0
170
5
171
1
172
0
173
0
174
0
175
1
176
1
 91
33
178
0
145
0.0
301
CELL_VALUE
 90
4
  1
 
304
ACVALUE_END
170
1
140
0.125
171
1
172
0
173
0
174
0
175
1
176
1
 91
33
178
0
145
0.0
301
CELL_VALUE
 90
4
  1
MODEL
304
ACVALUE_END
170
1
140
0.06
171
1
172
0
173
0
174
0
175
1
176
1
 91
33
178
0
145
0.0
301
CELL_VALUE
 90
4
  1
 
304
ACVALUE_END
170
1
140
0.125
171
1
172
0
173
0
174
0
175
1
176
1
 91
33
178
0
145
0.0
301
CELL_VALUE
 90
4
  1
 
304
ACVALUE_END
170
1
140
0.125
171
1
172
0
173
0
174
0
175
1
176
1
 91
33
178
0
145
0.0
301
CELL_VALUE
 90
4
  1
 
304
ACVALUE_END
170
1
140
0.125
171
1
172
0
173
0
174
0
175
1
176
1
 91
33
178
0
145
0.0
301
CELL_VALUE
 90
4
  1
 
304
ACVALUE_END
170
1
140
0.125
171
1
172
0
173
0
174
0
175
1
176
1
 91
33
178
0
145
0.0
301
CELL_VALUE
 90
4
  1
 
304
ACVALUE_END
170
1
140
0.125
  0
ACAD_TABLE
  5
278
100
AcDbEntity
  8
0
 62
2
  6
CONTINUOUS
100
AcDbBlockReference
  2
*T2
 10
12.4237499994
 20
16.47875
 30
0.0
100
AcDbTable
342
       2EE
343
208
 11
1.0
 21
0.0
 31
0.0
 90
22
 91
7
 92
3
 93
16
 94
0
 95
0
 96
0
 41
0.028
141
0.344
141
0.25
141
0.25
141
0.25
141
0.25
141
0.25
141
0.25
142
3.055
142
3.0
142
3.0
171
1
172
0
173
0
174
0
175
1
176
1
 91
33
178
0
145
0.0
301
CELL_VALUE
 90
4
  1
Technical Data
304
ACVALUE_END
170
5
140
0.145
171
1
172
0
173
0
174
0
175
1
176
1
 91
33
178
0
145
0.0
301
CELL_VALUE
 90
4
  1
U.S. Units
304
ACVALUE_END
170
5
140
0.145
171
1
172
0
173
0
174
0
175
1
176
1
 91
33
178
0
145
0.0
301
CELL_VALUE
 90
4
  1
Metric Units
304
ACVALUE_END
170
5
140
0.145
171
1
172
0
173
0
174
0
175
1
176
1
 91
33
178
0
145
0.0
301
CELL_VALUE
 90
4
  1
Cavity
304
ACVALUE_END
170
5
140
0.125
171
1
172
0
173
0
174
0
175
2
176
1
 91
33
178
0
145
0.0
301
CELL_VALUE
 90
4
  1
T-2A
304
ACVALUE_END
170
5
140
0.125
171
1
172
0
173
1
174
0
175
1
176
1
 91
1
178
0
145
0.0
170
1
171
1
172
0
173
0
174
0
175
1
176
1
 91
33
178
0
145
0.0
301
CELL_VALUE
 90
4
  1
Body Features
304
ACVALUE_END
170
5
140
0.125
171
1
172
0
173
0
174
0
175
2
176
1
 91
33
178
0
145
0.0
301
CELL_VALUE
 90
4
  1
Cross pilot
304
ACVALUE_END
170
5
140
0.125
171
1
172
0
173
1
174
0
175
1
176
1
 91
1
178
0
145
0.0
170
1
171
1
172
0
173
0
174
0
175
1
176
1
 91
33
178
0
145
0.0
301
CELL_VALUE
 90
4
  1
Body Type
304
ACVALUE_END
170
5
140
0.125
171
1
172
0
173
0
174
0
175
2
176
1
 91
33
178
0
145
0.0
301
CELL_VALUE
 90
4
  1
Motor mount
304
ACVALUE_END
170
5
140
0.125
171
1
172
0
173
1
174
0
175
1
176
1
 91
1
178
0
145
0.0
170
1
171
1
172
0
173
0
174
0
175
1
176
1
 91
33
178
0
145
0.0
301
CELL_VALUE
 90
4
  1
Interface
304
ACVALUE_END
170
5
140
0.125
171
1
172
0
173
0
174
0
175
2
176
1
 91
33
178
0
145
0.0
301
CELL_VALUE
 90
4
  1
Eaton/Char-Lynn H & S
304
ACVALUE_END
170
5
140
0.125
171
1
172
0
173
1
174
0
175
1
176
1
 91
1
178
0
145
0.0
170
1
171
1
172
0
173
0
174
0
175
1
176
1
 91
33
178
0
145
0.0
301
CELL_VALUE
 90
4
  1
Open Cavity Quantity
304
ACVALUE_END
170
5
140
0.125
171
1
172
0
173
0
174
0
175
2
176
1
 91
33
178
0
145
0.0
301
CELL_VALUE
 90
4
  1
2
304
ACVALUE_END
170
5
140
0.125
171
1
172
0
173
1
174
0
175
1
176
1
 91
1
178
0
145
0.0
170
1
171
1
172
0
173
0
174
0
175
1
176
1
 91
33
178
0
145
0.0
301
CELL_VALUE
 90
4
  1
Weight
304
ACVALUE_END
170
5
140
0.125
171
1
172
0
173
0
174
0
175
1
176
1
 91
33
178
0
145
0.0
301
CELL_VALUE
 90
4
  1
2.566 lb.
304
ACVALUE_END
170
5
140
0.125
171
1
172
0
173
0
174
0
175
1
176
1
 91
33
178
0
145
0.0
301
CELL_VALUE
 90
4
  1
1,164 kg.
304
ACVALUE_END
170
5
140
0.125
  0
ACAD_TABLE
  5
279
100
AcDbEntity
  8
0
 62
2
  6
CONTINUOUS
100
AcDbBlockReference
  2
*T3
 10
0.52125
 20
1.459
 30
0.0
100
AcDbTable
342
       2EE
343
209
 11
1.0
 21
0.0
 31
0.0
 90
22
 91
3
 92
3
 93
16
 94
0
 95
0
 96
0
 41
0.05
141
0.34375
141
0.344
141
0.25
142
1.3
142
2.0
142
1.3
171
1
172
0
173
0
174
0
175
3
176
1
 91
33
178
0
145
0.0
301
CELL_VALUE
 90
4
  1
Port Headings
304
ACVALUE_END
170
5
140
0.145
171
1
172
0
173
1
174
0
175
1
176
1
 91
1
178
0
145
0.0
170
1
171
1
172
0
173
1
174
0
175
1
176
1
 91
1
178
0
145
0.0
170
1
171
1
172
0
173
0
174
0
175
1
176
1
 91
33
178
0
145
0.0
301
CELL_VALUE
 90
4
  1
Product
304
ACVALUE_END
170
5
140
0.145
171
1
172
0
173
0
174
0
175
1
176
1
 91
33
178
0
145
0.0
301
CELL_VALUE
 90
4
  1
Port
304
ACVALUE_END
170
5
140
0.145
171
1
172
0
173
0
174
0
175
1
176
1
 91
33
178
0
145
0.0
301
CELL_VALUE
 90
4
  1
Size
304
ACVALUE_END
170
5
140
0.145
171
1
172
0
173
0
174
0
175
1
176
1
 91
33
178
0
145
0.0
301
CELL_VALUE
 90
4
  1
VGN
304
ACVALUE_END
170
5
140
0.125
171
1
172
0
173
0
174
0
175
1
176
1
 91
33
178
0
145
0.0
301
CELL_VALUE
 90
4
  1
Out Ports
304
ACVALUE_END
170
5
140
0.125
171
1
172
0
173
0
174
0
175
1
176
1
 91
33
178
0
145
0.0
301
CELL_VALUE
 90
4
  1
3/4" NPTF
304
ACVALUE_END
170
5
140
0.125
  0
MTEXT
  5
27A
100
AcDbEntity
  8
0
100
AcDbMText
 62
2
  6
CONTINUOUS
  7
STANDARD
 71
1
 72
1
 10
0.52125
 20
5.75995
 30
0.0
 11
1.0
 21
0.0
 31
0.0
 44
0.6
  3
Notes\P \P1. Important: Carefully consider\P   the maximum system pressure. The\P   pressure rating of the manifold is\P   dependent on the manifold material,\P   with the port type/size a secondary\P   consideration. Manifolds\P   constructed of alu
  1
minum are not\P   rated for pressures higher than\P   3000 psi (210 bar), regardless of\P   the port type/size specified.
 40
0.1
 41
3.04
  0
LINE
  5
27B
100
AcDbEntity
  8
0
100
AcDbLine
 62
7
  6
CONTINUOUS
 10
0.30125
 20
0.30125
 11
0.30125
 21
16.69875
  0
LINE
  5
27C
100
AcDbEntity
  8
0
100
AcDbLine
 62
7
  6
CONTINUOUS
 10
0.30125
 20
0.30125
 11
21.69875
 21
0.30125
  0
LINE
  5
27D
100
AcDbEntity
  8
0
100
AcDbLine
 62
7
  6
CONTINUOUS
 10
0.30125
 20
16.69875
 11
21.69875
 21
16.69875
  0
LINE
  5
27E
100
AcDbEntity
  8
0
100
AcDbLine
 62
7
  6
CONTINUOUS
 10
21.69875
 20
0.30125
 11
21.69875
 21
16.69875
  0
LINE
  5
27F
100
AcDbEntity
  8
0
100
AcDbLine
 62
7
  6
CONTINUOUS
 10
6.3425026108
 20
9.8646485174
 11
6.3425026108
 21
5.6377569212
  0
LINE
  5
280
100
AcDbEntity
  8
0
100
AcDbLine
 62
7
  6
CONTINUOUS
 10
8.4130532628
 20
11.8646469854
 11
6.3425026108
 21
9.8646485174
  0
LINE
  5
281
100
AcDbEntity
  8
0
100
AcDbLine
 62
7
  6
CONTINUOUS
 10
6.3425026108
 20
5.6377569212
 11
13.5869467372
 21
5.1353530146
  0
LINE
  5
282
100
AcDbEntity
  8
0
100
AcDbLine
 62
7
  6
CONTINUOUS
 10
15.6574973892
 20
11.3622430788
 11
13.5869467372
 21
9.3622446109
  0
LINE
  5
283
100
AcDbEntity
  8
0
100
AcDbLine
 62
7
  6
CONTINUOUS
 10
13.5869467372
 20
9.3622446109
 11
6.3425026108
 21
9.8646485174
  0
LINE
  5
284
100
AcDbEntity
  8
0
100
AcDbLine
 62
7
  6
CONTINUOUS
 10
13.5869467372
 20
5.1353530146
 11
13.5869467372
 21
9.3622446109
  0
LINE
  5
285
100
AcDbEntity
  8
0
100
AcDbLine
 62
7
  6
CONTINUOUS
 10
15.6574973892
 20
11.3622430788
 11
8.4130532628
 21
11.8646469854
  0
LINE
  5
286
100
AcDbEntity
  8
0
100
AcDbLine
 62
7
  6
CONTINUOUS
 10
15.6574973892
 20
7.1353514826
 11
13.5869467372
 21
5.1353530146
  0
LINE
  5
287
100
AcDbEntity
  8
0
100
AcDbLine
 62
7
  6
CONTINUOUS
 10
15.6574973892
 20
7.1353514826
 11
15.6574973892
 21
11.3622430788
  0
ARC
  5
288
100
AcDbEntity
  8
0
100
AcDbCircle
 62
7
  6
CONTINUOUS
 10
10.3864947987
 20
8.1952315273
 40
2.2890938638
100
AcDbArc
 50
147.2267804681
 51
152.683048171
  0
ARC
  5
289
100
AcDbEntity
  8
0
100
AcDbCircle
 62
7
  6
CONTINUOUS
 10
9.6141428501
 20
9.2482335279
 40
0.8961100486
100
AcDbArc
 50
266.0036763228
 51
275.525840948
  0
ARC
  5
28A
100
AcDbEntity
  8
0
100
AcDbCircle
 62
7
  6
CONTINUOUS
 10
12.268507318
 20
9.0641527269
 40
0.8961100486
100
AcDbArc
 50
266.0036763228
 51
275.525840948
  0
ARC
  5
28B
100
AcDbEntity
  8
0
100
AcDbCircle
 62
7
  6
CONTINUOUS
 10
9.6221915586
 20
9.2599073935
 40
0.856810843
100
AcDbArc
 50
266.0064609413
 51
275.055106573
  0
ARC
  5
28C
100
AcDbEntity
  8
0
100
AcDbCircle
 62
7
  6
CONTINUOUS
 10
12.2765560265
 20
9.0758265924
 40
0.856810843
100
AcDbArc
 50
266.0064609413
 51
275.055106573
  0
ARC
  5
28D
100
AcDbEntity
  8
0
100
AcDbCircle
 62
7
  6
CONTINUOUS
 10
9.6323459803
 20
9.2722448581
 40
0.8406043066
100
AcDbArc
 50
266.010808523
 51
274.2714803798
  0
ARC
  5
28E
100
AcDbEntity
  8
0
100
AcDbCircle
 62
7
  6
CONTINUOUS
 10
12.2867104483
 20
9.0881640571
 40
0.8406043066
100
AcDbArc
 50
266.010808523
 51
274.2714803798
  0
SPLINE
  5
28F
100
AcDbEntity
  8
0
100
AcDbSpline
 62
7
  6
CONTINUOUS
 70
0
 71
3
 72
39
 73
35
 74
0
 42
0.0000001
 43
0.0000001
 44
0.0000000001
 40
0.0
 40
0.0
 40
0.0
 40
0.0
 40
0.0958316475
 40
0.1891006073
 40
0.279240642
 40
0.3229674356
 40
0.365711151
 40
0.4074094627
 40
0.4480020772
 40
0.4874317741
 40
0.5256439547
 40
0.5625873626
 40
0.5982141631
 40
0.6324802323
 40
0.6653459096
 40
0.6967758341
 40
0.7267403598
 40
0.7552153214
 40
0.7821838024
 40
0.8076365273
 40
0.831573723
 40
0.8540068598
 40
0.8749607899
 40
0.8944774057
 40
0.9126188108
 40
0.9294731124
 40
0.9451592998
 40
0.9598338063
 40
0.9668558128
 40
0.9737028706
 40
0.9804062828
 40
0.9869996808
 40
0.9935186293
 40
1.0
 40
1.0
 40
1.0
 40
1.0
 10
14.231646941
 20
11.2349772249
 30
0.0
 10
14.2226870693
 20
11.2355985941
 30
0.0
 10
14.2050198233
 20
11.2370217716
 30
0.0
 10
14.1789882561
 20
11.2397384702
 30
0.0
 10
14.1578753154
 20
11.2424783846
 30
0.0
 10
14.141507606
 20
11.2449447488
 30
0.0
 10
14.1296557757
 20
11.2469027766
 30
0.0
 10
14.1181233669
 20
11.2489843382
 30
0.0
 10
14.1069296284
 20
11.2511860454
 30
0.0
 10
14.096093257
 20
11.2535041101
 30
0.0
 10
14.085632337
 20
11.2559346942
 30
0.0
 10
14.0755643143
 20
11.2584736787
 30
0.0
 10
14.0659059679
 20
11.2611167911
 30
0.0
 10
14.0566733804
 20
11.2638596271
 30
0.0
 10
14.0478818919
 20
11.2666975063
 30
0.0
 10
14.0395461042
 20
11.2696257658
 30
0.0
 10
14.0316797944
 20
11.2726393909
 30
0.0
 10
14.0242959588
 20
11.2757334621
 30
0.0
 10
14.0174066998
 20
11.2789027556
 30
0.0
 10
14.0110232722
 20
11.2821421147
 30
0.0
 10
14.0051560105
 20
11.2854462742
 30
0.0
 10
13.9998142996
 20
11.2888099536
 30
0.0
 10
13.9950066639
 20
11.2922280758
 30
0.0
 10
13.9907405944
 20
11.2956955511
 30
0.0
 10
13.9870229835
 20
11.2992077893
 30
0.0
 10
13.9838598181
 20
11.3027605349
 30
0.0
 10
13.9812573828
 20
11.3063494091
 30
0.0
 10
13.9795359688
 20
11.3094122495
 30
0.0
 10
13.9784629619
 20
11.3118647144
 30
0.0
 10
13.9778132637
 20
11.3136817684
 30
0.0
 10
13.9773074698
 20
11.3155024122
 30
0.0
 10
13.9769459501
 20
11.3173258981
 30
0.0
 10
13.9767289137
 20
11.3191511495
 30
0.0
 10
13.9766806166
 20
11.3203700899
 30
0.0
 10
13.9766806215
 20
11.3209775274
 30
0.0
  0
SPLINE
  5
290
100
AcDbEntity
  8
0
100
AcDbSpline
 62
7
  6
CONTINUOUS
 70
0
 71
3
 72
39
 73
35
 74
0
 42
0.0000001
 43
0.0000001
 44
0.0000000001
 40
0.0
 40
0.0
 40
0.0
 40
0.0
 40
0.0958316475
 40
0.1891006073
 40
0.279240642
 40
0.3229674356
 40
0.365711151
 40
0.4074094627
 40
0.4480020772
 40
0.4874317741
 40
0.5256439547
 40
0.5625873626
 40
0.5982141631
 40
0.6324802323
 40
0.6653459096
 40
0.6967758341
 40
0.7267403598
 40
0.7552153214
 40
0.7821838024
 40
0.8076365273
 40
0.831573723
 40
0.8540068598
 40
0.8749607899
 40
0.8944774057
 40
0.9126188108
 40
0.9294731124
 40
0.9451592998
 40
0.9598338063
 40
0.9668558128
 40
0.9737028706
 40
0.9804062828
 40
0.9869996808
 40
0.9935186293
 40
1.0
 40
1.0
 40
1.0
 40
1.0
 10
9.4020175234
 20
11.5699131626
 30
0.0
 10
9.3930576517
 20
11.5705345318
 30
0.0
 10
9.3753904057
 20
11.5719577093
 30
0.0
 10
9.3493588384
 20
11.5746744079
 30
0.0
 10
9.3282458978
 20
11.5774143223
 30
0.0
 10
9.3118781884
 20
11.5798806865
 30
0.0
 10
9.3000263581
 20
11.5818387143
 30
0.0
 10
9.2884939493
 20
11.5839202759
 30
0.0
 10
9.2773002108
 20
11.5861219832
 30
0.0
 10
9.2664638394
 20
11.5884400478
 30
0.0
 10
9.2560029194
 20
11.5908706319
 30
0.0
 10
9.2459348967
 20
11.5934096164
 30
0.0
 10
9.2362765503
 20
11.5960527288
 30
0.0
 10
9.2270439628
 20
11.5987955648
 30
0.0
 10
9.2182524743
 20
11.601633444
 30
0.0
 10
9.2099166866
 20
11.6045617035
 30
0.0
 10
9.2020503768
 20
11.6075753286
 30
0.0
 10
9.1946665412
 20
11.6106693998
 30
0.0
 10
9.1877772821
 20
11.6138386934
 30
0.0
 10
9.1813938546
 20
11.6170780524
 30
0.0
 10
9.1755265929
 20
11.6203822119
 30
0.0
 10
9.170184882
 20
11.6237458913
 30
0.0
 10
9.1653772462
 20
11.6271640135
 30
0.0
 10
9.1611111768
 20
11.6306314889
 30
0.0
 10
9.1573935659
 20
11.634143727
 30
0.0
 10
9.1542304005
 20
11.6376964726
 30
0.0
 10
9.1516279651
 20
11.6412853469
 30
0.0
 10
9.1499065512
 20
11.6443481873
 30
0.0
 10
9.1488335443
 20
11.6468006521
 30
0.0
 10
9.1481838461
 20
11.6486177061
 30
0.0
 10
9.1476780522
 20
11.65043835
 30
0.0
 10
9.1473165325
 20
11.6522618358
 30
0.0
 10
9.1470994961
 20
11.6540870872
 30
0.0
 10
9.147051199
 20
11.6553060277
 30
0.0
 10
9.1470512038
 20
11.6559134651
 30
0.0
  0
SPLINE
  5
291
100
AcDbEntity
  8
0
100
AcDbSpline
 62
7
  6
CONTINUOUS
 70
0
 71
3
 72
39
 73
35
 74
0
 42
0.0000001
 43
0.0000001
 44
0.0000000001
 40
0.0
 40
0.0
 40
0.0
 40
0.0
 40
0.0958316475
 40
0.1891006073
 40
0.279240642
 40
0.3229674356
 40
0.365711151
 40
0.4074094627
 40
0.4480020772
 40
0.4874317741
 40
0.5256439547
 40
0.5625873626
 40
0.5982141631
 40
0.6324802323
 40
0.6653459096
 40
0.6967758341
 40
0.7267403598
 40
0.7552153214
 40
0.7821838024
 40
0.8076365273
 40
0.831573723
 40
0.8540068598
 40
0.8749607899
 40
0.8944774057
 40
0.9126188108
 40
0.9294731124
 40
0.9451592998
 40
0.9598338063
 40
0.9668558128
 40
0.9737028706
 40
0.9804062828
 40
0.9869996808
 40
0.9935186293
 40
1.0
 40
1.0
 40
1.0
 40
1.0
 10
13.6493045701
 20
10.6724776558
 30
0.0
 10
13.6403446984
 20
10.673099025
 30
0.0
 10
13.6226774525
 20
10.6745222025
 30
0.0
 10
13.5966458852
 20
10.6772389011
 30
0.0
 10
13.5755329445
 20
10.6799788155
 30
0.0
 10
13.5591652351
 20
10.6824451797
 30
0.0
 10
13.5473134048
 20
10.6844032075
 30
0.0
 10
13.535780996
 20
10.6864847691
 30
0.0
 10
13.5245872575
 20
10.6886864763
 30
0.0
 10
13.5137508861
 20
10.691004541
 30
0.0
 10
13.5032899661
 20
10.693435125
 30
0.0
 10
13.4932219434
 20
10.6959741096
 30
0.0
 10
13.483563597
 20
10.698617222
 30
0.0
 10
13.4743310095
 20
10.701360058
 30
0.0
 10
13.465539521
 20
10.7041979372
 30
0.0
 10
13.4572037333
 20
10.7071261967
 30
0.0
 10
13.4493374235
 20
10.7101398218
 30
0.0
 10
13.4419535879
 20
10.713233893
 30
0.0
 10
13.4350643289
 20
10.7164031865
 30
0.0
 10
13.4286809013
 20
10.7196425456
 30
0.0
 10
13.4228136396
 20
10.7229467051
 30
0.0
 10
13.4174719288
 20
10.7263103845
 30
0.0
 10
13.412664293
 20
10.7297285067
 30
0.0
 10
13.4083982235
 20
10.733195982
 30
0.0
 10
13.4046806126
 20
10.7367082202
 30
0.0
 10
13.4015174472
 20
10.7402609658
 30
0.0
 10
13.3989150119
 20
10.74384984
 30
0.0
 10
13.3971935979
 20
10.7469126804
 30
0.0
 10
13.396120591
 20
10.7493651453
 30
0.0
 10
13.3954708928
 20
10.7511821992
 30
0.0
 10
13.3949650989
 20
10.7530028431
 30
0.0
 10
13.3946035792
 20
10.754826329
 30
0.0
 10
13.3943865428
 20
10.7566515804
 30
0.0
 10
13.3943382457
 20
10.7578705208
 30
0.0
 10
13.3943382506
 20
10.7584779583
 30
0.0
  0
SPLINE
  5
292
100
AcDbEntity
  8
0
100
AcDbSpline
 62
7
  6
CONTINUOUS
 70
0
 71
3
 72
39
 73
35
 74
0
 42
0.0000001
 43
0.0000001
 44
0.0000000001
 40
0.0
 40
0.0
 40
0.0
 40
0.0
 40
0.0958316475
 40
0.1891006073
 40
0.279240642
 40
0.3229674356
 40
0.365711151
 40
0.4074094627
 40
0.4480020772
 40
0.4874317741
 40
0.5256439547
 40
0.5625873626
 40
0.5982141631
 40
0.6324802323
 40
0.6653459096
 40
0.6967758341
 40
0.7267403598
 40
0.7552153214
 40
0.7821838024
 40
0.8076365273
 40
0.831573723
 40
0.8540068598
 40
0.8749607899
 40
0.8944774057
 40
0.9126188108
 40
0.9294731124
 40
0.9451592998
 40
0.9598338063
 40
0.9668558128
 40
0.9737028706
 40
0.9804062828
 40
0.9869996808
 40
0.9935186293
 40
1.0
 40
1.0
 40
1.0
 40
1.0
 10
8.8196751525
 20
11.0074135935
 30
0.0
 10
8.8107152808
 20
11.0080349627
 30
0.0
 10
8.7930480348
 20
11.0094581402
 30
0.0
 10
8.7670164676
 20
11.0121748388
 30
0.0
 10
8.7459035269
 20
11.0149147532
 30
0.0
 10
8.7295358175
 20
11.0173811174
 30
0.0
 10
8.7176839872
 20
11.0193391452
 30
0.0
 10
8.7061515784
 20
11.0214207068
 30
0.0
 10
8.6949578399
 20
11.023622414
 30
0.0
 10
8.6841214685
 20
11.0259404787
 30
0.0
 10
8.6736605485
 20
11.0283710628
 30
0.0
 10
8.6635925258
 20
11.0309100473
 30
0.0
 10
8.6539341794
 20
11.0335531597
 30
0.0
 10
8.6447015919
 20
11.0362959957
 30
0.0
 10
8.6359101034
 20
11.0391338749
 30
0.0
 10
8.6275743157
 20
11.0420621344
 30
0.0
 10
8.6197080059
 20
11.0450757595
 30
0.0
 10
8.6123241703
 20
11.0481698307
 30
0.0
 10
8.6054349113
 20
11.0513391242
 30
0.0
 10
8.5990514837
 20
11.0545784833
 30
0.0
 10
8.593184222
 20
11.0578826428
 30
0.0
 10
8.5878425111
 20
11.0612463222
 30
0.0
 10
8.5830348754
 20
11.0646644444
 30
0.0
 10
8.5787688059
 20
11.0681319197
 30
0.0
 10
8.575051195
 20
11.0716441579
 30
0.0
 10
8.5718880296
 20
11.0751969035
 30
0.0
 10
8.5692855943
 20
11.0787857777
 30
0.0
 10
8.5675641803
 20
11.0818486181
 30
0.0
 10
8.5664911734
 20
11.084301083
 30
0.0
 10
8.5658414752
 20
11.086118137
 30
0.0
 10
8.5653356813
 20
11.0879387808
 30
0.0
 10
8.5649741616
 20
11.0897622667
 30
0.0
 10
8.5647571252
 20
11.0915875181
 30
0.0
 10
8.5647088281
 20
11.0928064585
 30
0.0
 10
8.564708833
 20
11.093413896
 30
0.0
  0
SPLINE
  5
293
100
AcDbEntity
  8
0
100
AcDbSpline
 62
7
  6
CONTINUOUS
 70
0
 71
3
 72
46
 73
42
 74
0
 42
0.0000001
 43
0.0000001
 44
0.0000000001
 40
0.0
 40
0.0
 40
0.0
 40
0.0
 40
0.095829409
 40
0.1890960784
 40
0.2345917978
 40
0.2792358259
 40
0.3229615504
 40
0.365704342
 40
0.407401575
 40
0.447993293
 40
0.4874220177
 40
0.5256333073
 40
0.5625758845
 40
0.5982017919
 40
0.6324671326
 40
0.6653319927
 40
0.6967612366
 40
0.7267250647
 40
0.755199394
 40
0.7821672584
 40
0.8076194408
 40
0.8315560926
 40
0.8429601443
 40
0.8539906923
 40
0.8646512655
 40
0.8749465835
 40
0.8848823989
 40
0.8944656812
 40
0.9037050043
 40
0.9126104669
 40
0.9211938271
 40
0.9294689277
 40
0.9374517605
 40
0.9451605336
 40
0.9598347106
 40
0.9668565932
 40
0.9737034682
 40
0.9804067254
 40
0.986999995
 40
0.9935187866
 40
1.0
 40
1.0
 40
1.0
 40
1.0
 10
13.2242106843
 20
10.9618685162
 30
0.0
 10
13.2111876258
 20
10.9627716684
 30
0.0
 10
13.1855086575
 20
10.964840271
 30
0.0
 10
13.1537207141
 20
10.9681575436
 30
0.0
 10
13.1289242722
 20
10.9712221085
 30
0.0
 10
13.1108563335
 20
10.9736947205
 30
0.0
 10
13.0931943958
 20
10.9763561976
 30
0.0
 10
13.075967932
 20
10.9792020986
 30
0.0
 10
13.0592057249
 20
10.9822276734
 30
0.0
 10
13.0429357754
 20
10.9854277738
 30
0.0
 10
13.027185253
 20
10.9887970757
 30
0.0
 10
13.0119804402
 20
10.9923298863
 30
0.0
 10
12.9973466958
 20
10.9960202433
 30
0.0
 10
12.9833084155
 20
10.9998620027
 30
0.0
 10
12.9698889594
 20
11.0038486319
 30
0.0
 10
12.9571106427
 20
11.0079734844
 30
0.0
 10
12.9449946705
 20
11.0122296375
 30
0.0
 10
12.9335610775
 20
11.0166099133
 30
0.0
 10
12.9228287639
 20
11.021107085
 30
0.0
 10
12.9128152628
 20
11.025713628
 30
0.0
 10
12.9035371445
 20
11.0304219389
 30
0.0
 10
12.8963182757
 20
11.0344871357
 30
0.0
 10
12.8909335383
 20
11.0377910263
 30
0.0
 10
12.8871537346
 20
11.0402494256
 30
0.0
 10
12.883568835
 20
11.042727385
 30
0.0
 10
12.8801802718
 20
11.0452238764
 30
0.0
 10
12.8769894448
 20
11.047737891
 30
0.0
 10
12.8739977152
 20
11.0502684746
 30
0.0
 10
12.8712062803
 20
11.0528145798
 30
0.0
 10
12.8686162849
 20
11.05537519
 30
0.0
 10
12.8662288606
 20
11.0579493849
 30
0.0
 10
12.8640450469
 20
11.0605360762
 30
0.0
 10
12.8620656048
 20
11.0631345204
 30
0.0
 10
12.8597388924
 20
11.0665562417
 30
0.0
 10
12.8577704172
 20
11.0700588318
 30
0.0
 10
12.8562107703
 20
11.0736233015
 30
0.0
 10
12.8552664777
 20
11.0762644099
 30
0.0
 10
12.8545313175
 20
11.0789106841
 30
0.0
 10
12.8540057486
 20
11.0815610818
 30
0.0
 10
12.8536902979
 20
11.084214067
 30
0.0
 10
12.8536201212
 20
11.0859857798
 30
0.0
 10
12.8536201246
 20
11.0868686815
 30
0.0
  0
SPLINE
  5
294
100
AcDbEntity
  8
0
100
AcDbSpline
 62
7
  6
CONTINUOUS
 70
0
 71
3
 72
46
 73
42
 74
0
 42
0.0000001
 43
0.0000001
 44
0.0000000001
 40
0.0
 40
0.0
 40
0.0
 40
0.0
 40
0.095829409
 40
0.1890960784
 40
0.2345917978
 40
0.2792358259
 40
0.3229615504
 40
0.365704342
 40
0.407401575
 40
0.447993293
 40
0.4874220177
 40
0.5256333073
 40
0.5625758845
 40
0.5982017919
 40
0.6324671326
 40
0.6653319927
 40
0.6967612366
 40
0.7267250647
 40
0.755199394
 40
0.7821672584
 40
0.8076194408
 40
0.8315560926
 40
0.8429601443
 40
0.8539906923
 40
0.8646512655
 40
0.8749465835
 40
0.8848823989
 40
0.8944656812
 40
0.9037050043
 40
0.9126104669
 40
0.9211938271
 40
0.9294689277
 40
0.9374517605
 40
0.9451605336
 40
0.9598347106
 40
0.9668565932
 40
0.9737034682
 40
0.9804067254
 40
0.986999995
 40
0.9935187866
 40
1.0
 40
1.0
 40
1.0
 40
1.0
 10
9.7468773654
 20
11.2030224009
 30
0.0
 10
9.7338543069
 20
11.2039255531
 30
0.0
 10
9.7081753386
 20
11.2059941558
 30
0.0
 10
9.6763873952
 20
11.2093114283
 30
0.0
 10
9.6515909534
 20
11.2123759932
 30
0.0
 10
9.6335230146
 20
11.2148486053
 30
0.0
 10
9.6158610769
 20
11.2175100824
 30
0.0
 10
9.5986346131
 20
11.2203559833
 30
0.0
 10
9.5818724061
 20
11.2233815581
 30
0.0
 10
9.5656024566
 20
11.2265816585
 30
0.0
 10
9.5498519342
 20
11.2299509605
 30
0.0
 10
9.5346471214
 20
11.233483771
 30
0.0
 10
9.5200133769
 20
11.237174128
 30
0.0
 10
9.5059750966
 20
11.2410158874
 30
0.0
 10
9.4925556406
 20
11.2450025167
 30
0.0
 10
9.4797773238
 20
11.2491273691
 30
0.0
 10
9.4676613516
 20
11.2533835222
 30
0.0
 10
9.4562277586
 20
11.2577637981
 30
0.0
 10
9.4454954451
 20
11.2622609698
 30
0.0
 10
9.435481944
 20
11.2668675127
 30
0.0
 10
9.4262038257
 20
11.2715758236
 30
0.0
 10
9.4189849568
 20
11.2756410205
 30
0.0
 10
9.4136002194
 20
11.278944911
 30
0.0
 10
9.4098204158
 20
11.2814033103
 30
0.0
 10
9.4062355161
 20
11.2838812697
 30
0.0
 10
9.4028469529
 20
11.2863777612
 30
0.0
 10
9.399656126
 20
11.2888917758
 30
0.0
 10
9.3966643964
 20
11.2914223593
 30
0.0
 10
9.3938729614
 20
11.2939684645
 30
0.0
 10
9.391282966
 20
11.2965290747
 30
0.0
 10
9.3888955417
 20
11.2991032697
 30
0.0
 10
9.3867117281
 20
11.3016899609
 30
0.0
 10
9.3847322859
 20
11.3042884052
 30
0.0
 10
9.3824055736
 20
11.3077101265
 30
0.0
 10
9.3804370984
 20
11.3112127166
 30
0.0
 10
9.3788774515
 20
11.3147771862
 30
0.0
 10
9.3779331588
 20
11.3174182946
 30
0.0
 10
9.3771979987
 20
11.3200645689
 30
0.0
 10
9.3766724297
 20
11.3227149665
 30
0.0
 10
9.3763569791
 20
11.3253679517
 30
0.0
 10
9.3762868023
 20
11.3271396645
 30
0.0
 10
9.3762868058
 20
11.3280225662
 30
0.0
  0
SPLINE
  5
295
100
AcDbEntity
  8
0
100
AcDbSpline
 62
7
  6
CONTINUOUS
 70
0
 71
3
 72
68
 73
64
 74
0
 42
0.0000001
 43
0.0000001
 44
0.0000000001
 40
0.0
 40
0.0
 40
0.0
 40
0.0
 40
0.0032560661
 40
0.0066398509
 40
0.0101569574
 40
0.0138120664
 40
0.0176090406
 40
0.021551057
 40
0.0256403251
 40
0.0298784329
 40
0.0342664562
 40
0.0388048527
 40
0.0434937881
 40
0.0483329416
 40
0.0533216431
 40
0.0584590158
 40
0.0637437616
 40
0.0691744636
 40
0.0804660403
 40
0.092318728
 40
0.1047140276
 40
0.1176311253
 40
0.1310471828
 40
0.1449375317
 40
0.1592758095
 40
0.1740341111
 40
0.1891832086
 40
0.2046927877
 40
0.2205317419
 40
0.2366685269
 40
0.2530715656
 40
0.2697097509
 40
0.286552928
 40
0.3035723924
 40
0.3207413144
 40
0.338035044
 40
0.3554313883
 40
0.3729107955
 40
0.3904563492
 40
0.4080536421
 40
0.425690716
 40
0.4433578895
 40
0.4610473167
 40
0.4787527997
 40
0.4964696799
 40
0.5141942119
 40
0.5496498478
 40
0.5851086403
 40
0.6028370645
 40
0.6205604316
 40
0.638276352
 40
0.6559819487
 40
0.673673843
 40
0.6913480016
 40
0.7266199726
 40
0.7617573951
 40
0.7967077387
 40
0.8314149965
 40
0.8658263377
 40
0.8999000368
 40
0.933613529
 40
0.9669693494
 40
1.0
 40
1.0
 40
1.0
 40
1.0
 10
9.2592329335
 20
8.2071591191
 30
0.0
 10
9.2578947307
 20
8.2058665144
 30
0.0
 10
9.2550914155
 20
8.2033067348
 30
0.0
 10
9.2506098054
 20
8.199615634
 30
0.0
 10
9.2457759976
 20
8.196004216
 30
0.0
 10
9.2405932754
 20
8.1924758943
 30
0.0
 10
9.2350646453
 20
8.1890342099
 30
0.0
 10
9.2291935307
 20
8.1856828676
 30
0.0
 10
9.222983402
 20
8.1824262478
 30
0.0
 10
9.2164380964
 20
8.1792690866
 30
0.0
 10
9.2095617653
 20
8.1762163658
 30
0.0
 10
9.2023586385
 20
8.1732736965
 30
0.0
 10
9.1948333787
 20
8.1704467345
 30
0.0
 10
9.1869908083
 20
8.1677416517
 30
0.0
 10
9.1788360203
 20
8.1651649799
 30
0.0
 10
9.1703745077
 20
8.1627233387
 30
0.0
 10
9.161611869
 20
8.1604238993
 30
0.0
 10
9.1493758719
 20
8.1575195858
 30
0.0
 10
9.1333616048
 20
8.1543034968
 30
0.0
 10
9.1132890303
 20
8.1511828348
 30
0.0
 10
9.0921782502
 20
8.1488182918
 30
0.0
 10
9.0700958103
 20
8.1472776997
 30
0.0
 10
9.047114368
 20
8.1466295961
 30
0.0
 10
9.0233135468
 20
8.1469419814
 30
0.0
 10
8.9987799394
 20
8.148280908
 30
0.0
 10
8.9736070714
 20
8.1507088423
 30
0.0
 10
8.9478950029
 20
8.1542830774
 30
0.0
 10
8.921749615
 20
8.1590541367
 30
0.0
 10
8.8952815588
 20
8.1650642628
 30
0.0
 10
8.8686048716
 20
8.1723460996
 30
0.0
 10
8.8418352546
 20
8.180921617
 30
0.0
 10
8.8150881088
 20
8.1908013943
 30
0.0
 10
8.7884764909
 20
8.2019845049
 30
0.0
 10
8.7621091246
 20
8.2144588118
 30
0.0
 10
8.7360885793
 20
8.2282016389
 30
0.0
 10
8.7105097933
 20
8.2431809136
 30
0.0
 10
8.6854587583
 20
8.2593562737
 30
0.0
 10
8.6610118202
 20
8.2766807406
 30
0.0
 10
8.6372354587
 20
8.2951023795
 30
0.0
 10
8.6141864279
 20
8.3145658695
 30
0.0
 10
8.5919118438
 20
8.3350135916
 30
0.0
 10
8.5704499436
 20
8.3563869719
 30
0.0
 10
8.5498311984
 20
8.3786277933
 30
0.0
 10
8.5300790028
 20
8.4016785216
 30
0.0
 10
8.5112101221
 20
8.4254833608
 30
0.0
 10
8.4872458494
 20
8.4581560275
 30
0.0
 10
8.4595490803
 20
8.5006169153
 30
0.0
 10
8.434886966
 20
8.5449060784
 30
0.0
 10
8.4169718227
 20
8.5812559712
 30
0.0
 10
8.4044389389
 20
8.6089369785
 30
0.0
 10
8.3928070189
 20
8.6369937985
 30
0.0
 10
8.3820721224
 20
8.6653865228
 30
0.0
 10
8.3722306214
 20
8.6940760133
 30
0.0
 10
8.3603044017
 20
8.7326423152
 30
0.0
 10
8.3476122983
 20
8.7813810861
 30
0.0
 10
8.3358965329
 20
8.8404676746
 30
0.0
 10
8.32768983
 20
8.899817719
 30
0.0
 10
8.3229847541
 20
8.9591309267
 30
0.0
 10
8.3217786357
 20
9.0181179121
 30
0.0
 10
8.3240727672
 20
9.0765052296
 30
0.0
 10
8.3298722974
 20
9.1340452351
 30
0.0
 10
8.3391848822
 20
9.1905173565
 30
0.0
 10
8.3477835826
 20
9.2274973215
 30
0.0
 10
8.3526746708
 20
9.2457265272
 30
0.0
  0
SPLINE
  5
296
100
AcDbEntity
  8
0
100
AcDbSpline
 62
7
  6
CONTINUOUS
 70
0
 71
3
 72
47
 73
43
 74
0
 42
0.0000001
 43
0.0000001
 44
0.0000000001
 40
0.0
 40
0.0
 40
0.0
 40
0.0
 40
0.0585535828
 40
0.1147454921
 40
0.1682892277
 40
0.2191782529
 40
0.2675239348
 40
0.313477113
 40
0.3571926043
 40
0.3988154104
 40
0.4384756371
 40
0.4762877459
 40
0.5123522881
 40
0.5467561203
 40
0.5795754774
 40
0.6108768564
 40
0.6407185583
 40
0.669152925
 40
0.6962264954
 40
0.7219833548
 40
0.7464651496
 40
0.7582424184
 40
0.7697177873
 40
0.7917827395
 40
0.8023892525
 40
0.8127216735
 40
0.8325959412
 40
0.8421656865
 40
0.851507687
 40
0.8695713409
 40
0.8869721942
 40
0.9039619617
 40
0.9124151084
 40
0.9209074658
 40
0.9295027385
 40
0.9382742804
 40
0.947304817
 40
0.9566875903
 40
0.9665268993
 40
0.9769377487
 40
0.988048521
 40
1.0
 40
1.0
 40
1.0
 40
1.0
 10
10.4876381247
 20
8.227018894
 30
0.0
 10
10.4870639461
 20
8.2321147357
 30
0.0
 10
10.4862619076
 20
8.2421396937
 30
0.0
 10
10.485930939
 20
8.2568812567
 30
0.0
 10
10.4863333045
 20
8.2709485376
 30
0.0
 10
10.4873339205
 20
8.2842956538
 30
0.0
 10
10.4888238703
 20
8.2969271329
 30
0.0
 10
10.4907173768
 20
8.3088681695
 30
0.0
 10
10.4929469327
 20
8.3201510465
 30
0.0
 10
10.4954588925
 20
8.3308086546
 30
0.0
 10
10.4982105837
 20
8.3408716443
 30
0.0
 10
10.5011675385
 20
8.3503673975
 30
0.0
 10
10.504300754
 20
8.3593200168
 30
0.0
 10
10.5075876121
 20
8.3677496419
 30
0.0
 10
10.5110080851
 20
8.3756735121
 30
0.0
 10
10.5145462075
 20
8.3831053853
 30
0.0
 10
10.5181883412
 20
8.3900561172
 30
0.0
 10
10.5219228686
 20
8.3965336942
 30
0.0
 10
10.5257404872
 20
8.4025431031
 30
0.0
 10
10.5296328945
 20
8.4080864874
 30
0.0
 10
10.5329755568
 20
8.4123709047
 30
0.0
 10
10.5356844497
 20
8.415555807
 30
0.0
 10
10.5383435199
 20
8.4185027521
 30
0.0
 10
10.5410650001
 20
8.4212537562
 30
0.0
 10
10.543852815
 20
8.4237872634
 30
0.0
 10
10.5465861999
 20
8.4260913707
 30
0.0
 10
10.5493817822
 20
8.428178375
 30
0.0
 10
10.5522394916
 20
8.4300169241
 30
0.0
 10
10.5550467229
 20
8.4316332985
 30
0.0
 10
10.5585994583
 20
8.4333210682
 30
0.0
 10
10.5629709756
 20
8.4347737017
 30
0.0
 10
10.56667895
 20
8.4354439464
 30
0.0
 10
10.5696487353
 20
8.4356190798
 30
0.0
 10
10.5718876778
 20
8.4355631402
 30
0.0
 10
10.5741411931
 20
8.4353102395
 30
0.0
 10
10.576409292
 20
8.4348464262
 30
0.0
 10
10.5786920498
 20
8.4341586052
 30
0.0
 10
10.5809892934
 20
8.4332301219
 30
0.0
 10
10.5833005906
 20
8.4320422064
 30
0.0
 10
10.5856258774
 20
8.4305738643
 30
0.0
 10
10.5879638708
 20
8.4287998355
 30
0.0
 10
10.5894692899
 20
8.427449468
 30
0.0
 10
10.5902216257
 20
8.4267217464
 30
0.0
  0
SPLINE
  5
297
100
AcDbEntity
  8
0
100
AcDbSpline
 62
7
  6
CONTINUOUS
 70
0
 71
3
 72
34
 73
30
 74
0
 42
0.0000001
 43
0.0000001
 44
0.0000000001
 40
0.0
 40
0.0
 40
0.0
 40
0.0
 40
0.0494690302
 40
0.0975223474
 40
0.1439410103
 40
0.1887145616
 40
0.2319197691
 40
0.2736591552
 40
0.3140368384
 40
0.3531484675
 40
0.4278931291
 40
0.4984230065
 40
0.5651029616
 40
0.5970775128
 40
0.6281688948
 40
0.6877493061
 40
0.7438858755
 40
0.7706540209
 40
0.7965391057
 40
0.8215256066
 40
0.8455881015
 40
0.8686986809
 40
0.890823996
 40
0.9119195876
 40
0.9319398564
 40
0.9508269886
 40
0.9685156205
 40
0.9849348097
 40
1.0
 40
1.0
 40
1.0
 40
1.0
 10
10.9873476125
 20
9.0440009295
 30
0.0
 10
10.9887769317
 20
9.0478670433
 30
0.0
 10
10.9917370036
 20
9.055436582
 30
0.0
 10
10.9964539696
 20
9.0664651792
 30
0.0
 10
11.0012999255
 20
9.077008276
 30
0.0
 10
11.0062106602
 20
9.0870733378
 30
0.0
 10
11.0111465938
 20
9.0966895904
 30
0.0
 10
11.0160828105
 20
9.1058918926
 30
0.0
 10
11.0210030041
 20
9.1147140951
 30
0.0
 10
11.0274301505
 20
9.1258430015
 30
0.0
 10
11.0353851851
 20
9.1389887943
 30
0.0
 10
11.0448935783
 20
9.1538728692
 30
0.0
 10
11.052743434
 20
9.1655832315
 30
0.0
 10
11.0589033532
 20
9.174467503
 30
0.0
 10
11.0648111085
 20
9.1828061319
 30
0.0
 10
11.0720298661
 20
9.192682451
 30
0.0
 10
11.0792264888
 20
9.2021258702
 30
0.0
 10
11.0848348205
 20
9.2092474133
 30
0.0
 10
11.0888926269
 20
9.2142858046
 30
0.0
 10
11.0928641629
 20
9.2191036991
 30
0.0
 10
11.0967451025
 20
9.2236961192
 30
0.0
 10
11.100530064
 20
9.2280568874
 30
0.0
 10
11.1042128075
 20
9.2321783212
 30
0.0
 10
11.1077873772
 20
9.2360502293
 30
0.0
 10
11.1112457724
 20
9.2396611211
 30
0.0
 10
11.1145798635
 20
9.2429966288
 30
0.0
 10
11.1177803639
 20
9.246039662
 30
0.0
 10
11.120835662
 20
9.2487705882
 30
0.0
 10
11.1228589061
 20
9.2504421219
 30
0.0
 10
11.1238473736
 20
9.2512158276
 30
0.0
  0
SPLINE
  5
298
100
AcDbEntity
  8
0
100
AcDbSpline
 62
7
  6
CONTINUOUS
 70
0
 71
3
 72
55
 73
51
 74
0
 42
0.0000001
 43
0.0000001
 44
0.0000000001
 40
0.0
 40
0.0
 40
0.0
 40
0.0
 40
0.0311316941
 40
0.062435267
 40
0.0939036962
 40
0.1255259125
 40
0.1572880373
 40
0.1891734388
 40
0.2211631114
 40
0.2532360757
 40
0.2853697856
 40
0.3175405677
 40
0.3497240609
 40
0.3818956698
 40
0.4140310185
 40
0.446106401
 40
0.47809923
 40
0.5099884627
 40
0.525890591
 40
0.5417598548
 40
0.5575942433
 40
0.5733919116
 40
0.5891512003
 40
0.6048706393
 40
0.6205489531
 40
0.6361850813
 40
0.6517781777
 40
0.6673276126
 40
0.6828329905
 40
0.6982941469
 40
0.7137111502
 40
0.7290843115
 40
0.7444141772
 40
0.7597015313
 40
0.7749474013
 40
0.7901530424
 40
0.8053199376
 40
0.8204497997
 40
0.8355445511
 40
0.8506063198
 40
0.8656374324
 40
0.8806403949
 40
0.8956178878
 40
0.9105727338
 40
0.9255079022
 40
0.9404265344
 40
0.9553316958
 40
0.9702266496
 40
0.9851154779
 40
1.0
 40
1.0
 40
1.0
 40
1.0
 10
8.6559465748
 20
9.4395291047
 30
0.0
 10
8.6813949048
 20
9.437764257
 30
0.0
 10
8.7323216893
 20
9.4323604409
 30
0.0
 10
8.808116196
 20
9.4187452339
 30
0.0
 10
8.8831410492
 20
9.3996657608
 30
0.0
 10
8.9569868985
 20
9.3752208162
 30
0.0
 10
9.0292567634
 20
9.3455386645
 30
0.0
 10
9.0995601429
 20
9.3107763061
 30
0.0
 10
9.1675173483
 20
9.2711185394
 30
0.0
 10
9.2327612028
 20
9.2267772561
 30
0.0
 10
9.2949392925
 20
9.1779901579
 30
0.0
 10
9.3537157883
 20
9.1250192821
 30
0.0
 10
9.4087735017
 20
9.0681497696
 30
0.0
 10
9.4598157332
 20
9.0076881814
 30
0.0
 10
9.5065676347
 20
8.9439608737
 30
0.0
 10
9.5487782646
 20
8.8773112748
 30
0.0
 10
9.5862206719
 20
8.8081018104
 30
0.0
 10
9.6133114614
 20
8.7485407208
 30
0.0
 10
9.6324065542
 20
8.6999882303
 30
0.0
 10
9.6454120294
 20
8.6632028927
 30
0.0
 10
9.657095983
 20
8.6260668771
 30
0.0
 10
9.6674432656
 20
8.5886297626
 30
0.0
 10
9.6764404909
 20
8.5509422697
 30
0.0
 10
9.6840761066
 20
8.5130551958
 30
0.0
 10
9.6903402666
 20
8.4750195947
 30
0.0
 10
9.6952252778
 20
8.4368867074
 30
0.0
 10
9.6987251756
 20
8.3987078221
 30
0.0
 10
9.7008357826
 20
8.3605342312
 30
0.0
 10
9.7015550743
 20
8.3224171739
 30
0.0
 10
9.7008827149
 20
8.2844077257
 30
0.0
 10
9.6988201953
 20
8.2465567585
 30
0.0
 10
9.6953711176
 20
8.2089148425
 30
0.0
 10
9.6905407115
 20
8.1715321974
 30
0.0
 10
9.6843360517
 20
8.1344586262
 30
0.0
 10
9.6767662369
 20
8.0977433978
 30
0.0
 10
9.667841919
 20
8.0614352619
 30
0.0
 10
9.657575589
 20
8.025582342
 30
0.0
 10
9.6459816373
 20
7.9902320252
 30
0.0
 10
9.633075925
 20
7.9554310281
 30
0.0
 10
9.6188761223
 20
7.9212252392
 30
0.0
 10
9.6034016495
 20
7.8876596436
 30
0.0
 10
9.5866733118
 20
7.8547784229
 30
0.0
 10
9.5687136701
 20
7.8226247451
 30
0.0
 10
9.5495468801
 20
7.7912407373
 30
0.0
 10
9.5291983876
 20
7.7606675804
 30
0.0
 10
9.5076953097
 20
7.7309453551
 30
0.0
 10
9.4850663563
 20
7.7021129879
 30
0.0
 10
9.4613408813
 20
7.6742077899
 30
0.0
 10
9.4365510199
 20
7.6472674803
 30
0.0
 10
9.4193346771
 20
7.6299716853
 30
0.0
 10
9.4105623278
 20
7.621498246
 30
0.0
  0
SPLINE
  5
299
100
AcDbEntity
  8
0
100
AcDbSpline
 62
7
  6
CONTINUOUS
 70
0
 71
3
 72
25
 73
21
 74
0
 42
0.0000001
 43
0.0000001
 44
0.0000000001
 40
0.0
 40
0.0
 40
0.0
 40
0.0
 40
0.0615283513
 40
0.1230835013
 40
0.1846907185
 40
0.2463760353
 40
0.3081637536
 40
0.370077345
 40
0.432138711
 40
0.4943681182
 40
0.5567839332
 40
0.6194024506
 40
0.6822377528
 40
0.7137430707
 40
0.7453067562
 40
0.8086083873
 40
0.8721544223
 40
0.9040228859
 40
0.9359546725
 40
1.0
 40
1.0
 40
1.0
 40
1.0
 10
7.9099096461
 20
9.1750881304
 30
0.0
 10
7.9219347382
 20
9.1867034781
 30
0.0
 10
7.9466207021
 20
9.2092964967
 30
0.0
 10
7.9854279393
 20
9.2411533885
 30
0.0
 10
8.0259257593
 20
9.2709060304
 30
0.0
 10
8.0680128402
 20
9.298479167
 30
0.0
 10
8.1115860152
 20
9.3238043211
 30
0.0
 10
8.1565376974
 20
9.3468179105
 30
0.0
 10
8.2027570369
 20
9.3674619184
 30
0.0
 10
8.2501297401
 20
9.3856839427
 30
0.0
 10
8.298538765
 20
9.4014374142
 30
0.0
 10
8.3478632065
 20
9.4146815503
 30
0.0
 10
8.3895932619
 20
9.423590927
 30
0.0
 10
8.4233051335
 20
9.4294348997
 30
0.0
 10
8.4572816792
 20
9.4344279983
 30
0.0
 10
8.5000979281
 20
9.4390443888
 30
0.0
 10
8.5431759914
 20
9.4414789189
 30
0.0
 10
8.5777766176
 20
9.4421209421
 30
0.0
 10
8.6125173933
 20
9.4418900551
 30
0.0
 10
8.6385855205
 20
9.4407330979
 30
0.0
 10
8.6559465748
 20
9.4395291047
 30
0.0
  0
SPLINE
  5
29A
100
AcDbEntity
  8
0
100
AcDbSpline
 62
7
  6
CONTINUOUS
 70
0
 71
3
 72
55
 73
51
 74
0
 42
0.0000001
 43
0.0000001
 44
0.0000000001
 40
0.0
 40
0.0
 40
0.0
 40
0.0
 40
0.0311316941
 40
0.062435267
 40
0.0939036962
 40
0.1255259125
 40
0.1572880373
 40
0.1891734388
 40
0.2211631114
 40
0.2532360757
 40
0.2853697856
 40
0.3175405677
 40
0.3497240609
 40
0.3818956698
 40
0.4140310185
 40
0.446106401
 40
0.47809923
 40
0.5099884627
 40
0.525890591
 40
0.5417598548
 40
0.5575942433
 40
0.5733919116
 40
0.5891512003
 40
0.6048706393
 40
0.6205489531
 40
0.6361850813
 40
0.6517781777
 40
0.6673276126
 40
0.6828329905
 40
0.6982941469
 40
0.7137111502
 40
0.7290843115
 40
0.7444141772
 40
0.7597015313
 40
0.7749474013
 40
0.7901530424
 40
0.8053199376
 40
0.8204497997
 40
0.8355445511
 40
0.8506063198
 40
0.8656374324
 40
0.8806403949
 40
0.8956178878
 40
0.9105727338
 40
0.9255079022
 40
0.9404265344
 40
0.9553316958
 40
0.9702266496
 40
0.9851154779
 40
1.0
 40
1.0
 40
1.0
 40
1.0
 10
11.3103110428
 20
9.2554483036
 30
0.0
 10
11.3357593728
 20
9.2536834559
 30
0.0
 10
11.3866861572
 20
9.2482796398
 30
0.0
 10
11.462480664
 20
9.2346644328
 30
0.0
 10
11.5375055171
 20
9.2155849597
 30
0.0
 10
11.6113513664
 20
9.1911400151
 30
0.0
 10
11.6836212313
 20
9.1614578635
 30
0.0
 10
11.7539246109
 20
9.1266955051
 30
0.0
 10
11.8218818163
 20
9.0870377383
 30
0.0
 10
11.8871256708
 20
9.042696455
 30
0.0
 10
11.9493037604
 20
8.9939093568
 30
0.0
 10
12.0080802562
 20
8.940938481
 30
0.0
 10
12.0631379697
 20
8.8840689685
 30
0.0
 10
12.1141802011
 20
8.8236073803
 30
0.0
 10
12.1609321026
 20
8.7598800726
 30
0.0
 10
12.2031427325
 20
8.6932304737
 30
0.0
 10
12.2405851398
 20
8.6240210094
 30
0.0
 10
12.2676759294
 20
8.5644599197
 30
0.0
 10
12.2867710221
 20
8.5159074292
 30
0.0
 10
12.2997764973
 20
8.4791220917
 30
0.0
 10
12.311460451
 20
8.441986076
 30
0.0
 10
12.3218077336
 20
8.4045489616
 30
0.0
 10
12.3308049589
 20
8.3668614686
 30
0.0
 10
12.3384405745
 20
8.3289743947
 30
0.0
 10
12.3447047345
 20
8.2909387936
 30
0.0
 10
12.3495897457
 20
8.2528059063
 30
0.0
 10
12.3530896435
 20
8.214627021
 30
0.0
 10
12.3552002505
 20
8.1764534302
 30
0.0
 10
12.3559195422
 20
8.1383363728
 30
0.0
 10
12.3552471828
 20
8.1003269247
 30
0.0
 10
12.3531846632
 20
8.0624759574
 30
0.0
 10
12.3497355855
 20
8.0248340414
 30
0.0
 10
12.3449051795
 20
7.9874513964
 30
0.0
 10
12.3387005197
 20
7.9503778251
 30
0.0
 10
12.3311307048
 20
7.9136625968
 30
0.0
 10
12.322206387
 20
7.8773544608
 30
0.0
 10
12.3119400569
 20
7.841501541
 30
0.0
 10
12.3003461052
 20
7.8061512241
 30
0.0
 10
12.2874403929
 20
7.771350227
 30
0.0
 10
12.2732405902
 20
7.7371444381
 30
0.0
 10
12.2577661174
 20
7.7035788425
 30
0.0
 10
12.2410377797
 20
7.6706976218
 30
0.0
 10
12.223078138
 20
7.638543944
 30
0.0
 10
12.2039113481
 20
7.6071599362
 30
0.0
 10
12.1835628555
 20
7.5765867793
 30
0.0
 10
12.1620597776
 20
7.546864554
 30
0.0
 10
12.1394308242
 20
7.5180321868
 30
0.0
 10
12.1157053492
 20
7.4901269888
 30
0.0
 10
12.0909154878
 20
7.4631866792
 30
0.0
 10
12.0736991451
 20
7.4458908842
 30
0.0
 10
12.0649267957
 20
7.4374174449
 30
0.0
  0
SPLINE
  5
29B
100
AcDbEntity
  8
0
100
AcDbSpline
 62
7
  6
CONTINUOUS
 70
0
 71
3
 72
36
 73
32
 74
0
 42
0.0000001
 43
0.0000001
 44
0.0000000001
 40
0.0
 40
0.0
 40
0.0
 40
0.0
 40
0.1030812598
 40
0.2010784849
 40
0.2937025286
 40
0.3379260516
 40
0.3807177077
 40
0.4220553036
 40
0.4619193556
 40
0.5002946072
 40
0.5371698334
 40
0.5725374587
 40
0.6063954199
 40
0.6387450154
 40
0.6695943887
 40
0.6989556645
 40
0.7268488289
 40
0.7532998272
 40
0.778343477
 40
0.8020239608
 40
0.8243960752
 40
0.8455285538
 40
0.8655039445
 40
0.8844237852
 40
0.9024079554
 40
0.9195987598
 40
0.9361599171
 40
0.9522754526
 40
0.96814667
 40
0.9839837223
 40
1.0
 40
1.0
 40
1.0
 40
1.0
 10
12.3387437986
 20
7.9543187828
 30
0.0
 10
12.3316370349
 20
7.9513370522
 30
0.0
 10
12.3176263749
 20
7.945863697
 30
0.0
 10
12.2967678643
 20
7.9389678304
 30
0.0
 10
12.2798047938
 20
7.9343929717
 30
0.0
 10
12.2666912081
 20
7.9314829784
 30
0.0
 10
12.257261952
 20
7.929691281
 30
0.0
 10
12.2481027791
 20
7.928249102
 30
0.0
 10
12.2392288759
 20
7.9271484185
 30
0.0
 10
12.2306548694
 20
7.9263803684
 30
0.0
 10
12.2223946099
 20
7.9259352007
 30
0.0
 10
12.2144611086
 20
7.9258029245
 30
0.0
 10
12.2068666431
 20
7.9259724658
 30
0.0
 10
12.199622578
 20
7.9264328941
 30
0.0
 10
12.1927395338
 20
7.9271722998
 30
0.0
 10
12.1862272346
 20
7.9281790036
 30
0.0
 10
12.1800946546
 20
7.929440739
 30
0.0
 10
12.1743499238
 20
7.9309453452
 30
0.0
 10
12.1690004566
 20
7.9326805878
 30
0.0
 10
12.1640528942
 20
7.93463421
 30
0.0
 10
12.1595132532
 20
7.9367943066
 30
0.0
 10
12.1553869067
 20
7.939148971
 30
0.0
 10
12.1516787679
 20
7.9416868685
 30
0.0
 10
12.148393354
 20
7.9443967927
 30
0.0
 10
12.1455349695
 20
7.9472680311
 30
0.0
 10
12.1431078555
 20
7.9502899818
 30
0.0
 10
12.1411161346
 20
7.9534520453
 30
0.0
 10
12.1395638751
 20
7.956743359
 30
0.0
 10
12.1384543496
 20
7.9601527138
 30
0.0
 10
12.1377901525
 20
7.9636679315
 30
0.0
 10
12.1376461929
 20
7.9660523293
 30
0.0
 10
12.1376460976
 20
7.9672497959
 30
0.0
  0
SPLINE
  5
29C
100
AcDbEntity
  8
0
100
AcDbSpline
 62
7
  6
CONTINUOUS
 70
0
 71
3
 72
25
 73
21
 74
0
 42
0.0000001
 43
0.0000001
 44
0.0000000001
 40
0.0
 40
0.0
 40
0.0
 40
0.0
 40
0.0615283513
 40
0.1230835013
 40
0.1846907185
 40
0.2463760353
 40
0.3081637536
 40
0.370077345
 40
0.432138711
 40
0.4943681182
 40
0.5567839332
 40
0.6194024506
 40
0.6822377528
 40
0.7137430707
 40
0.7453067562
 40
0.8086083873
 40
0.8721544223
 40
0.9040228859
 40
0.9359546725
 40
1.0
 40
1.0
 40
1.0
 40
1.0
 10
10.564274114
 20
8.9910073293
 30
0.0
 10
10.5762992062
 20
9.0026226771
 30
0.0
 10
10.60098517
 20
9.0252156956
 30
0.0
 10
10.6397924072
 20
9.0570725875
 30
0.0
 10
10.6802902273
 20
9.0868252293
 30
0.0
 10
10.7223773081
 20
9.1143983659
 30
0.0
 10
10.7659504831
 20
9.1397235201
 30
0.0
 10
10.8109021653
 20
9.1627371094
 30
0.0
 10
10.8571215049
 20
9.1833811173
 30
0.0
 10
10.9044942081
 20
9.2016031416
 30
0.0
 10
10.9529032329
 20
9.2173566131
 30
0.0
 10
11.0022276744
 20
9.2306007493
 30
0.0
 10
11.0439577298
 20
9.2395101259
 30
0.0
 10
11.0776696015
 20
9.2453540986
 30
0.0
 10
11.1116461471
 20
9.2503471972
 30
0.0
 10
11.154462396
 20
9.2549635878
 30
0.0
 10
11.1975404594
 20
9.2573981178
 30
0.0
 10
11.2321410855
 20
9.2580401411
 30
0.0
 10
11.2668818612
 20
9.2578092541
 30
0.0
 10
11.2929499885
 20
9.2566522968
 30
0.0
 10
11.3103110428
 20
9.2554483036
 30
0.0
  0
SPLINE
  5
29D
100
AcDbEntity
  8
0
100
AcDbSpline
 62
7
  6
CONTINUOUS
 70
0
 71
3
 72
37
 73
33
 74
0
 42
0.0000001
 43
0.0000001
 44
0.0000000001
 40
0.0
 40
0.0
 40
0.0
 40
0.0
 40
0.0287247073
 40
0.0559916495
 40
0.0692675188
 40
0.0824264819
 40
0.0955894723
 40
0.1088984949
 40
0.1225177392
 40
0.1366304504
 40
0.1514389246
 40
0.1671590619
 40
0.184023053
 40
0.2022745403
 40
0.2221705145
 40
0.2439832391
 40
0.267998124
 40
0.2945175176
 40
0.32385453
 40
0.3563291962
 40
0.3922509023
 40
0.4318931024
 40
0.4754570306
 40
0.5230191299
 40
0.5744788913
 40
0.6295228996
 40
0.6876286511
 40
0.7481196847
 40
0.8102570886
 40
0.873330588
 40
0.936740878
 40
1.0
 40
1.0
 40
1.0
 40
1.0
 10
10.9941086297
 20
8.9623849883
 30
0.0
 10
10.9932177151
 20
8.9621561699
 30
0.0
 10
10.9914508871
 20
8.961816093
 30
0.0
 10
10.9892228923
 20
8.9617333751
 30
0.0
 10
10.9875097294
 20
8.9619080988
 30
0.0
 10
10.9862648074
 20
8.9621603305
 30
0.0
 10
10.9850517734
 20
8.9625415033
 30
0.0
 10
10.9838742925
 20
8.9630597526
 30
0.0
 10
10.9827360856
 20
8.9637223418
 30
0.0
 10
10.9816414849
 20
8.9645381142
 30
0.0
 10
10.9805961247
 20
8.9655174053
 30
0.0
 10
10.9796046366
 20
8.9666700703
 30
0.0
 10
10.9786740568
 20
8.968009016
 30
0.0
 10
10.9778109515
 20
8.9695475564
 30
0.0
 10
10.9770235768
 20
8.9713013237
 30
0.0
 10
10.9763215261
 20
8.9732876961
 30
0.0
 10
10.9757156885
 20
8.9755258686
 30
0.0
 10
10.9752191146
 20
8.9780367549
 30
0.0
 10
10.9748467613
 20
8.9808424395
 30
0.0
 10
10.9746154875
 20
8.9839651401
 30
0.0
 10
10.9745443528
 20
8.9874255553
 30
0.0
 10
10.9746532496
 20
8.9912401525
 30
0.0
 10
10.974962136
 20
8.9954175597
 30
0.0
 10
10.9754887221
 20
8.9999542411
 30
0.0
 10
10.9762457364
 20
9.004830485
 30
0.0
 10
10.9772381607
 20
9.010008412
 30
0.0
 10
10.9784613204
 20
9.0154334903
 30
0.0
 10
10.979900765
 20
9.021039936
 30
0.0
 10
10.9815341413
 20
9.0267584842
 30
0.0
 10
10.9833344674
 20
9.032524589
 30
0.0
 10
10.9852735607
 20
9.0382833136
 30
0.0
 10
10.9866451708
 20
9.0421009207
 30
0.0
 10
10.9873476125
 20
9.0440009295
 30
0.0
  0
SPLINE
  5
29E
100
AcDbEntity
  8
0
100
AcDbSpline
 62
7
  6
CONTINUOUS
 70
0
 71
3
 72
21
 73
17
 74
0
 42
0.0000001
 43
0.0000001
 44
0.0000000001
 40
0.0
 40
0.0
 40
0.0
 40
0.0
 40
0.0858146275
 40
0.1332681047
 40
0.1840098661
 40
0.2381804856
 40
0.2958396638
 40
0.3569376604
 40
0.4212980759
 40
0.4886103725
 40
0.5584401299
 40
0.6302599964
 40
0.7034961428
 40
0.7775778208
 40
0.8519766814
 40
1.0
 40
1.0
 40
1.0
 40
1.0
 10
10.5183864747
 20
8.1485271913
 30
0.0
 10
10.516622106
 20
8.1502336957
 30
0.0
 10
10.5140534958
 20
8.1530659541
 30
0.0
 10
10.5108487363
 20
8.1572429539
 30
0.0
 10
10.5083860437
 20
8.1608415353
 30
0.0
 10
10.5059614933
 20
8.1648118296
 30
0.0
 10
10.5035949702
 20
8.1691575901
 30
0.0
 10
10.5013092275
 20
8.1738724381
 30
0.0
 10
10.4991284525
 20
8.1789387472
 30
0.0
 10
10.4970768483
 20
8.184326747
 30
0.0
 10
10.4951766718
 20
8.1899953736
 30
0.0
 10
10.4934464109
 20
8.1958948198
 30
0.0
 10
10.4918993808
 20
8.2019703629
 30
0.0
 10
10.490543046
 20
8.2081667889
 30
0.0
 10
10.4889939004
 20
8.2165062478
 30
0.0
 10
10.4881121968
 20
8.2228114982
 30
0.0
 10
10.4876381247
 20
8.227018894
 30
0.0
  0
SPLINE
  5
29F
100
AcDbEntity
  8
0
100
AcDbSpline
 62
7
  6
CONTINUOUS
 70
0
 71
3
 72
52
 73
48
 74
0
 42
0.0000001
 43
0.0000001
 44
0.0000000001
 40
0.0
 40
0.0
 40
0.0
 40
0.0
 40
0.0055575356
 40
0.011177971
 40
0.0169219071
 40
0.0228458128
 40
0.0290006035
 40
0.0354310193
 40
0.0421755037
 40
0.0492663554
 40
0.0567304572
 40
0.0645895726
 40
0.072861298
 40
0.0815593637
 40
0.0906943213
 40
0.1002739841
 40
0.1103036526
 40
0.1207867349
 40
0.131724628
 40
0.1431173346
 40
0.15496333
 40
0.1672598991
 40
0.1800032556
 40
0.1931884905
 40
0.2068099644
 40
0.2208610087
 40
0.2353343701
 40
0.2502219723
 40
0.2812038174
 40
0.3137309249
 40
0.3477182837
 40
0.3830734201
 40
0.4196972559
 40
0.4574848563
 40
0.4963260999
 40
0.5361063183
 40
0.57670689
 40
0.6180058031
 40
0.6598782029
 40
0.7021969238
 40
0.744833016
 40
0.78765628
 40
0.8305357138
 40
0.873340355
 40
0.9159387267
 40
0.9582021968
 40
1.0
 40
1.0
 40
1.0
 40
1.0
 10
10.3762867566
 20
11.3280220441
 30
0.0
 10
10.3762867518
 20
11.326785143
 30
0.0
 10
10.376148282
 20
11.3242951855
 30
0.0
 10
10.3755266517
 20
11.3205735586
 30
0.0
 10
10.3744923448
 20
11.3168602094
 30
0.0
 10
10.3730471864
 20
11.3131594908
 30
0.0
 10
10.3711936655
 20
11.3094743719
 30
0.0
 10
10.3689342567
 20
11.3058076701
 30
0.0
 10
10.3662714684
 20
11.3021619602
 30
0.0
 10
10.363208031
 20
11.2985395905
 30
0.0
 10
10.35974654
 20
11.294943142
 30
0.0
 10
10.3558900329
 20
11.2913749655
 30
0.0
 10
10.351641542
 20
11.2878377361
 30
0.0
 10
10.3470045274
 20
11.2843339902
 30
0.0
 10
10.3419826656
 20
11.2808663951
 30
0.0
 10
10.3365799384
 20
11.2774376799
 30
0.0
 10
10.3308007044
 20
11.2740504409
 30
0.0
 10
10.3246495428
 20
11.2707074993
 30
0.0
 10
10.3181314529
 20
11.2674114085
 30
0.0
 10
10.3112516564
 20
11.2641649373
 30
0.0
 10
10.3040157435
 20
11.2609706585
 30
0.0
 10
10.296429577
 20
11.2578311862
 30
0.0
 10
10.2884993147
 20
11.2547491253
 30
0.0
 10
10.2802314267
 20
11.2517269183
 30
0.0
 10
10.2716326309
 20
11.2487671448
 30
0.0
 10
10.2627099636
 20
11.2458721345
 30
0.0
 10
10.2534706854
 20
11.2430443229
 30
0.0
 10
10.2405677234
 20
11.2393170139
 30
0.0
 10
10.2236969799
 20
11.2348552399
 30
0.0
 10
10.2025753384
 20
11.2298728417
 30
0.0
 10
10.1803854302
 20
11.2252100887
 30
0.0
 10
10.1571998448
 20
11.2208823958
 30
0.0
 10
10.1330942832
 20
11.2169041014
 30
0.0
 10
10.1081475856
 20
11.2132883726
 30
0.0
 10
10.0824413768
 20
11.210047167
 30
0.0
 10
10.056059809
 20
11.2071911992
 30
0.0
 10
10.0290892684
 20
11.2047299073
 30
0.0
 10
10.0016180885
 20
11.2026714229
 30
0.0
 10
9.9737362567
 20
11.2010225462
 30
0.0
 10
9.9455351177
 20
11.1997887241
 30
0.0
 10
9.9171070693
 20
11.1989740322
 30
0.0
 10
9.8885452718
 20
11.1985811612
 30
0.0
 10
9.8599432782
 20
11.1986113936
 30
0.0
 10
9.8313949194
 20
11.1990646552
 30
0.0
 10
9.8029934856
 20
11.1999394027
 30
0.0
 10
9.7748324044
 20
11.2012328154
 30
0.0
 10
9.7561577149
 20
11.2023788065
 30
0.0
 10
9.7468773654
 20
11.2030224009
 30
0.0
  0
SPLINE
  5
2A0
100
AcDbEntity
  8
0
100
AcDbSpline
 62
7
  6
CONTINUOUS
 70
0
 71
3
 72
52
 73
48
 74
0
 42
0.0000001
 43
0.0000001
 44
0.0000000001
 40
0.0
 40
0.0
 40
0.0
 40
0.0
 40
0.0055575356
 40
0.011177971
 40
0.0169219071
 40
0.0228458128
 40
0.0290006035
 40
0.0354310193
 40
0.0421755037
 40
0.0492663554
 40
0.0567304572
 40
0.0645895726
 40
0.072861298
 40
0.0815593637
 40
0.0906943213
 40
0.1002739841
 40
0.1103036526
 40
0.1207867349
 40
0.131724628
 40
0.1431173346
 40
0.15496333
 40
0.1672598991
 40
0.1800032556
 40
0.1931884905
 40
0.2068099644
 40
0.2208610087
 40
0.2353343701
 40
0.2502219723
 40
0.2812038174
 40
0.3137309249
 40
0.3477182837
 40
0.3830734201
 40
0.4196972559
 40
0.4574848563
 40
0.4963260999
 40
0.5361063183
 40
0.57670689
 40
0.6180058031
 40
0.6598782029
 40
0.7021969238
 40
0.744833016
 40
0.78765628
 40
0.8305357138
 40
0.873340355
 40
0.9159387267
 40
0.9582021968
 40
1.0
 40
1.0
 40
1.0
 40
1.0
 10
13.8536200754
 20
11.0868681594
 30
0.0
 10
13.8536200706
 20
11.0856312582
 30
0.0
 10
13.8534816009
 20
11.0831413008
 30
0.0
 10
13.8528599706
 20
11.0794196739
 30
0.0
 10
13.8518256636
 20
11.0757063247
 30
0.0
 10
13.8503805053
 20
11.072005606
 30
0.0
 10
13.8485269844
 20
11.0683204872
 30
0.0
 10
13.8462675755
 20
11.0646537854
 30
0.0
 10
13.8436047872
 20
11.0610080755
 30
0.0
 10
13.8405413498
 20
11.0573857057
 30
0.0
 10
13.8370798588
 20
11.0537892573
 30
0.0
 10
13.8332233517
 20
11.0502210808
 30
0.0
 10
13.8289748609
 20
11.0466838513
 30
0.0
 10
13.8243378462
 20
11.0431801054
 30
0.0
 10
13.8193159844
 20
11.0397125104
 30
0.0
 10
13.8139132573
 20
11.0362837952
 30
0.0
 10
13.8081340232
 20
11.0328965562
 30
0.0
 10
13.8019828617
 20
11.0295536146
 30
0.0
 10
13.7954647717
 20
11.0262575238
 30
0.0
 10
13.7885849753
 20
11.0230110525
 30
0.0
 10
13.7813490624
 20
11.0198167738
 30
0.0
 10
13.7737628959
 20
11.0166773015
 30
0.0
 10
13.7658326335
 20
11.0135952406
 30
0.0
 10
13.7575647455
 20
11.0105730335
 30
0.0
 10
13.7489659497
 20
11.00761326
 30
0.0
 10
13.7400432825
 20
11.0047182498
 30
0.0
 10
13.7308040042
 20
11.0018904382
 30
0.0
 10
13.7179010422
 20
10.9981631292
 30
0.0
 10
13.7010302988
 20
10.9937013552
 30
0.0
 10
13.6799086573
 20
10.988718957
 30
0.0
 10
13.6577187491
 20
10.984056204
 30
0.0
 10
13.6345331637
 20
10.9797285111
 30
0.0
 10
13.6104276021
 20
10.9757502167
 30
0.0
 10
13.5854809044
 20
10.9721344879
 30
0.0
 10
13.5597746957
 20
10.9688932823
 30
0.0
 10
13.5333931278
 20
10.9660373144
 30
0.0
 10
13.5064225873
 20
10.9635760225
 30
0.0
 10
13.4789514073
 20
10.9615175382
 30
0.0
 10
13.4510695755
 20
10.9598686614
 30
0.0
 10
13.4228684365
 20
10.9586348393
 30
0.0
 10
13.3944403882
 20
10.9578201475
 30
0.0
 10
13.3658785907
 20
10.9574272765
 30
0.0
 10
13.3372765971
 20
10.9574575088
 30
0.0
 10
13.3087282383
 20
10.9579107704
 30
0.0
 10
13.2803268045
 20
10.9587855179
 30
0.0
 10
13.2521657232
 20
10.9600789307
 30
0.0
 10
13.2334910338
 20
10.9612249218
 30
0.0
 10
13.2242106843
 20
10.9618685162
 30
0.0
  0
SPLINE
  5
2A1
100
AcDbEntity
  8
0
100
AcDbSpline
 62
7
  6
CONTINUOUS
 70
0
 71
3
 72
50
 73
46
 74
0
 42
0.0000001
 43
0.0000001
 44
0.0000000001
 40
0.0
 40
0.0
 40
0.0
 40
0.0
 40
0.0055575484
 40
0.0111779922
 40
0.016921945
 40
0.0228458833
 40
0.0290006815
 40
0.0354311436
 40
0.0421756504
 40
0.0492665308
 40
0.0567306759
 40
0.0645898217
 40
0.0728615778
 40
0.0815596977
 40
0.0906946685
 40
0.100274387
 40
0.1103041016
 40
0.1207871917
 40
0.1317251696
 40
0.1431178633
 40
0.1549639321
 40
0.16726054
 40
0.1800039018
 40
0.1931892317
 40
0.2208607128
 40
0.2502207991
 40
0.2812027127
 40
0.3137299142
 40
0.3477173552
 40
0.383072554
 40
0.4196964471
 40
0.4574841188
 40
0.4963254304
 40
0.5361057043
 40
0.5767063272
 40
0.6180053027
 40
0.6598777724
 40
0.7021965482
 40
0.7448326997
 40
0.7876559964
 40
0.8305355066
 40
0.8733402465
 40
0.9159384006
 40
0.9582025777
 40
1.0
 40
1.0
 40
1.0
 40
1.0
 10
9.2527088282
 20
11.0934131593
 30
0.0
 10
9.2527088214
 20
11.0925621714
 30
0.0
 10
9.2526134805
 20
11.090849086
 30
0.0
 10
9.2521858292
 20
11.0882886053
 30
0.0
 10
9.2514742017
 20
11.0857338219
 30
0.0
 10
9.2504798887
 20
11.0831877446
 30
0.0
 10
9.2492046862
 20
11.0806523655
 30
0.0
 10
9.2476501631
 20
11.0781296991
 30
0.0
 10
9.2458181645
 20
11.0756214434
 30
0.0
 10
9.2437105036
 20
11.0731292568
 30
0.0
 10
9.2413289772
 20
11.0706549103
 30
0.0
 10
9.2386756899
 20
11.0682000059
 30
0.0
 10
9.2357527181
 20
11.0657663905
 30
0.0
 10
9.2325624308
 20
11.0633558329
 30
0.0
 10
9.2291073901
 20
11.0609701123
 30
0.0
 10
9.2253902945
 20
11.058611173
 30
0.0
 10
9.2214141701
 20
11.0562807621
 30
0.0
 10
9.2171821702
 20
11.053980799
 30
0.0
 10
9.2126977039
 20
11.0517131291
 30
0.0
 10
9.2079644096
 20
11.0494795235
 30
0.0
 10
9.2029860853
 20
11.0472818889
 30
0.0
 10
9.1977667991
 20
11.045121938
 30
0.0
 10
9.1923107722
 20
11.0430014469
 30
0.0
 10
9.1846017266
 20
11.0401836588
 30
0.0
 10
9.1743989143
 20
11.0367838596
 30
0.0
 10
9.1614763864
 20
11.0329509153
 30
0.0
 10
9.1477268084
 20
11.0293144998
 30
0.0
 10
9.1331950503
 20
11.0258866357
 30
0.0
 10
9.1179284111
 20
11.022678669
 30
0.0
 10
9.1019767307
 20
11.0197012233
 30
0.0
 10
9.0853921171
 20
11.0169641598
 30
0.0
 10
9.0682287995
 20
11.0144765481
 30
0.0
 10
9.0505429405
 20
11.0122466074
 30
0.0
 10
9.0323924392
 20
11.0102817055
 30
0.0
 10
9.0138367269
 20
11.0085883367
 30
0.0
 10
8.9949365728
 20
11.007172103
 30
0.0
 10
8.9757538899
 20
11.0060376882
 30
0.0
 10
8.9563515251
 20
11.0051888257
 30
0.0
 10
8.936793053
 20
11.0046283181
 30
0.0
 10
8.9171425585
 20
11.0043580154
 30
0.0
 10
8.8974644029
 20
11.0043788169
 30
0.0
 10
8.8778231866
 20
11.0046906709
 30
0.0
 10
8.8582829574
 20
11.0052924903
 30
0.0
 10
8.8389081647
 20
11.0061823711
 30
0.0
 10
8.8260599593
 20
11.0069708056
 30
0.0
 10
8.8196751525
 20
11.0074135935
 30
0.0
  0
SPLINE
  5
2A2
100
AcDbEntity
  8
0
100
AcDbSpline
 62
7
  6
CONTINUOUS
 70
0
 71
3
 72
19
 73
15
 74
0
 42
0.0000001
 43
0.0000001
 44
0.0000000001
 40
0.0
 40
0.0
 40
0.0
 40
0.0
 40
0.0594516322
 40
0.1184671609
 40
0.1772386018
 40
0.2359597942
 40
0.2948244443
 40
0.354020902
 40
0.4137308226
 40
0.474130263
 40
0.5976221867
 40
0.7257618973
 40
0.8596047544
 40
1.0
 40
1.0
 40
1.0
 40
1.0
 10
9.2805292468
 20
8.2520841407
 30
0.0
 10
9.2805293059
 20
8.2510707535
 30
0.0
 10
9.2804743676
 20
8.2490509453
 30
0.0
 10
9.2802238014
 20
8.2460387009
 30
0.0
 10
9.2798055269
 20
8.2430575941
 30
0.0
 10
9.2792196121
 20
8.2401075028
 30
0.0
 10
9.2784661493
 20
8.2371882162
 30
0.0
 10
9.2775453995
 20
8.234299659
 30
0.0
 10
9.2764576411
 20
8.2314417297
 30
0.0
 10
9.2747730545
 20
8.227644625
 30
0.0
 10
9.2722328195
 20
8.2229601944
 30
0.0
 10
9.2685449239
 20
8.2175107297
 30
0.0
 10
9.2642009706
 20
8.212192357
 30
0.0
 10
9.2609541941
 20
8.2088217294
 30
0.0
 10
9.2592329335
 20
8.2071591191
 30
0.0
  0
SPLINE
  5
2A3
100
AcDbEntity
  8
0
100
AcDbSpline
 62
7
  6
CONTINUOUS
 70
0
 71
3
 72
50
 73
46
 74
0
 42
0.0000001
 43
0.0000001
 44
0.0000000001
 40
0.0
 40
0.0
 40
0.0
 40
0.0
 40
0.0055575484
 40
0.0111779922
 40
0.016921945
 40
0.0228458833
 40
0.0290006815
 40
0.0354311436
 40
0.0421756504
 40
0.0492665308
 40
0.0567306759
 40
0.0645898217
 40
0.0728615778
 40
0.0815596977
 40
0.0906946685
 40
0.100274387
 40
0.1103041016
 40
0.1207871917
 40
0.1317251696
 40
0.1431178633
 40
0.1549639321
 40
0.16726054
 40
0.1800039018
 40
0.1931892317
 40
0.2208607128
 40
0.2502207991
 40
0.2812027127
 40
0.3137299142
 40
0.3477173552
 40
0.383072554
 40
0.4196964471
 40
0.4574841188
 40
0.4963254304
 40
0.5361057043
 40
0.5767063272
 40
0.6180053027
 40
0.6598777724
 40
0.7021965482
 40
0.7448326997
 40
0.7876559964
 40
0.8305355066
 40
0.8733402465
 40
0.9159384006
 40
0.9582025777
 40
1.0
 40
1.0
 40
1.0
 40
1.0
 10
14.0823382458
 20
10.7584772215
 30
0.0
 10
14.082338239
 20
10.7576262337
 30
0.0
 10
14.0822428981
 20
10.7559131483
 30
0.0
 10
14.0818152468
 20
10.7533526676
 30
0.0
 10
14.0811036193
 20
10.7507978842
 30
0.0
 10
14.0801093063
 20
10.7482518069
 30
0.0
 10
14.0788341038
 20
10.7457164278
 30
0.0
 10
14.0772795807
 20
10.7431937614
 30
0.0
 10
14.0754475821
 20
10.7406855057
 30
0.0
 10
14.0733399212
 20
10.7381933191
 30
0.0
 10
14.0709583948
 20
10.7357189726
 30
0.0
 10
14.0683051075
 20
10.7332640682
 30
0.0
 10
14.0653821357
 20
10.7308304528
 30
0.0
 10
14.0621918484
 20
10.7284198952
 30
0.0
 10
14.0587368077
 20
10.7260341746
 30
0.0
 10
14.0550197122
 20
10.7236752353
 30
0.0
 10
14.0510435877
 20
10.7213448244
 30
0.0
 10
14.0468115878
 20
10.7190448613
 30
0.0
 10
14.0423271215
 20
10.7167771914
 30
0.0
 10
14.0375938272
 20
10.7145435858
 30
0.0
 10
14.0326155029
 20
10.7123459512
 30
0.0
 10
14.0273962167
 20
10.7101860003
 30
0.0
 10
14.0219401898
 20
10.7080655092
 30
0.0
 10
14.0142311442
 20
10.705247721
 30
0.0
 10
14.0040283319
 20
10.7018479219
 30
0.0
 10
13.991105804
 20
10.6980149776
 30
0.0
 10
13.977356226
 20
10.6943785621
 30
0.0
 10
13.9628244679
 20
10.690950698
 30
0.0
 10
13.9475578287
 20
10.6877427313
 30
0.0
 10
13.9316061484
 20
10.6847652856
 30
0.0
 10
13.9150215347
 20
10.6820282221
 30
0.0
 10
13.8978582171
 20
10.6795406104
 30
0.0
 10
13.8801723582
 20
10.6773106697
 30
0.0
 10
13.8620218568
 20
10.6753457678
 30
0.0
 10
13.8434661445
 20
10.673652399
 30
0.0
 10
13.8245659904
 20
10.6722361653
 30
0.0
 10
13.8053833075
 20
10.6711017504
 30
0.0
 10
13.7859809427
 20
10.670252888
 30
0.0
 10
13.7664224706
 20
10.6696923804
 30
0.0
 10
13.7467719761
 20
10.6694220777
 30
0.0
 10
13.7270938205
 20
10.6694428792
 30
0.0
 10
13.7074526042
 20
10.6697547332
 30
0.0
 10
13.687912375
 20
10.6703565526
 30
0.0
 10
13.6685375823
 20
10.6712464334
 30
0.0
 10
13.6556893769
 20
10.6720348679
 30
0.0
 10
13.6493045701
 20
10.6724776558
 30
0.0
  0
SPLINE
  5
2A4
100
AcDbEntity
  8
0
100
AcDbSpline
 62
7
  6
CONTINUOUS
 70
0
 71
3
 72
50
 73
46
 74
0
 42
0.0000001
 43
0.0000001
 44
0.0000000001
 40
0.0
 40
0.0
 40
0.0
 40
0.0
 40
0.0055575484
 40
0.0111779922
 40
0.016921945
 40
0.0228458833
 40
0.0290006815
 40
0.0354311436
 40
0.0421756504
 40
0.0492665308
 40
0.0567306759
 40
0.0645898217
 40
0.0728615778
 40
0.0815596977
 40
0.0906946685
 40
0.100274387
 40
0.1103041016
 40
0.1207871917
 40
0.1317251696
 40
0.1431178633
 40
0.1549639321
 40
0.16726054
 40
0.1800039018
 40
0.1931892317
 40
0.2208607128
 40
0.2502207991
 40
0.2812027127
 40
0.3137299142
 40
0.3477173552
 40
0.383072554
 40
0.4196964471
 40
0.4574841188
 40
0.4963254304
 40
0.5361057043
 40
0.5767063272
 40
0.6180053027
 40
0.6598777724
 40
0.7021965482
 40
0.7448326997
 40
0.7876559964
 40
0.8305355066
 40
0.8733402465
 40
0.9159384006
 40
0.9582025777
 40
1.0
 40
1.0
 40
1.0
 40
1.0
 10
9.8350511991
 20
11.6559127284
 30
0.0
 10
9.8350511923
 20
11.6550617405
 30
0.0
 10
9.8349558514
 20
11.6533486551
 30
0.0
 10
9.8345282
 20
11.6507881744
 30
0.0
 10
9.8338165726
 20
11.648233391
 30
0.0
 10
9.8328222596
 20
11.6456873137
 30
0.0
 10
9.8315470571
 20
11.6431519346
 30
0.0
 10
9.829992534
 20
11.6406292682
 30
0.0
 10
9.8281605354
 20
11.6381210125
 30
0.0
 10
9.8260528745
 20
11.6356288259
 30
0.0
 10
9.8236713481
 20
11.6331544795
 30
0.0
 10
9.8210180608
 20
11.630699575
 30
0.0
 10
9.818095089
 20
11.6282659596
 30
0.0
 10
9.8149048017
 20
11.6258554021
 30
0.0
 10
9.811449761
 20
11.6234696815
 30
0.0
 10
9.8077326654
 20
11.6211107421
 30
0.0
 10
9.803756541
 20
11.6187803312
 30
0.0
 10
9.7995245411
 20
11.6164803681
 30
0.0
 10
9.7950400748
 20
11.6142126982
 30
0.0
 10
9.7903067805
 20
11.6119790926
 30
0.0
 10
9.7853284562
 20
11.6097814581
 30
0.0
 10
9.78010917
 20
11.6076215071
 30
0.0
 10
9.7746531431
 20
11.605501016
 30
0.0
 10
9.7669440975
 20
11.6026832279
 30
0.0
 10
9.7567412852
 20
11.5992834288
 30
0.0
 10
9.7438187573
 20
11.5954504844
 30
0.0
 10
9.7300691793
 20
11.5918140689
 30
0.0
 10
9.7155374212
 20
11.5883862048
 30
0.0
 10
9.700270782
 20
11.5851782381
 30
0.0
 10
9.6843191016
 20
11.5822007924
 30
0.0
 10
9.667734488
 20
11.5794637289
 30
0.0
 10
9.6505711704
 20
11.5769761172
 30
0.0
 10
9.6328853114
 20
11.5747461765
 30
0.0
 10
9.6147348101
 20
11.5727812746
 30
0.0
 10
9.5961790977
 20
11.5710879058
 30
0.0
 10
9.5772789437
 20
11.5696716721
 30
0.0
 10
9.5580962608
 20
11.5685372573
 30
0.0
 10
9.538693896
 20
11.5676883948
 30
0.0
 10
9.5191354239
 20
11.5671278872
 30
0.0
 10
9.4994849294
 20
11.5668575845
 30
0.0
 10
9.4798067738
 20
11.566878386
 30
0.0
 10
9.4601655574
 20
11.56719024
 30
0.0
 10
9.4406253282
 20
11.5677920594
 30
0.0
 10
9.4212505355
 20
11.5686819402
 30
0.0
 10
9.4084023302
 20
11.5694703748
 30
0.0
 10
9.4020175234
 20
11.5699131626
 30
0.0
  0
SPLINE
  5
2A5
100
AcDbEntity
  8
0
100
AcDbSpline
 62
7
  6
CONTINUOUS
 70
0
 71
3
 72
50
 73
46
 74
0
 42
0.0000001
 43
0.0000001
 44
0.0000000001
 40
0.0
 40
0.0
 40
0.0
 40
0.0
 40
0.0055575484
 40
0.0111779922
 40
0.016921945
 40
0.0228458833
 40
0.0290006815
 40
0.0354311436
 40
0.0421756504
 40
0.0492665308
 40
0.0567306759
 40
0.0645898217
 40
0.0728615778
 40
0.0815596977
 40
0.0906946685
 40
0.100274387
 40
0.1103041016
 40
0.1207871917
 40
0.1317251696
 40
0.1431178633
 40
0.1549639321
 40
0.16726054
 40
0.1800039018
 40
0.1931892317
 40
0.2208607128
 40
0.2502207991
 40
0.2812027127
 40
0.3137299142
 40
0.3477173552
 40
0.383072554
 40
0.4196964471
 40
0.4574841188
 40
0.4963254304
 40
0.5361057043
 40
0.5767063272
 40
0.6180053027
 40
0.6598777724
 40
0.7021965482
 40
0.7448326997
 40
0.7876559964
 40
0.8305355066
 40
0.8733402465
 40
0.9159384006
 40
0.9582025777
 40
1.0
 40
1.0
 40
1.0
 40
1.0
 10
14.6646806167
 20
11.3209767907
 30
0.0
 10
14.6646806099
 20
11.3201258028
 30
0.0
 10
14.664585269
 20
11.3184127174
 30
0.0
 10
14.6641576176
 20
11.3158522367
 30
0.0
 10
14.6634459902
 20
11.3132974533
 30
0.0
 10
14.6624516772
 20
11.310751376
 30
0.0
 10
14.6611764747
 20
11.3082159969
 30
0.0
 10
14.6596219516
 20
11.3056933305
 30
0.0
 10
14.657789953
 20
11.3031850748
 30
0.0
 10
14.6556822921
 20
11.3006928882
 30
0.0
 10
14.6533007657
 20
11.2982185417
 30
0.0
 10
14.6506474784
 20
11.2957636373
 30
0.0
 10
14.6477245066
 20
11.2933300219
 30
0.0
 10
14.6445342193
 20
11.2909194643
 30
0.0
 10
14.6410791786
 20
11.2885337437
 30
0.0
 10
14.637362083
 20
11.2861748044
 30
0.0
 10
14.6333859586
 20
11.2838443935
 30
0.0
 10
14.6291539587
 20
11.2815444304
 30
0.0
 10
14.6246694924
 20
11.2792767605
 30
0.0
 10
14.6199361981
 20
11.2770431549
 30
0.0
 10
14.6149578738
 20
11.2748455203
 30
0.0
 10
14.6097385876
 20
11.2726855694
 30
0.0
 10
14.6042825607
 20
11.2705650783
 30
0.0
 10
14.5965735151
 20
11.2677472902
 30
0.0
 10
14.5863707028
 20
11.264347491
 30
0.0
 10
14.5734481749
 20
11.2605145467
 30
0.0
 10
14.5596985969
 20
11.2568781312
 30
0.0
 10
14.5451668388
 20
11.2534502671
 30
0.0
 10
14.5299001996
 20
11.2502423004
 30
0.0
 10
14.5139485192
 20
11.2472648547
 30
0.0
 10
14.4973639056
 20
11.2445277912
 30
0.0
 10
14.480200588
 20
11.2420401795
 30
0.0
 10
14.462514729
 20
11.2398102388
 30
0.0
 10
14.4443642277
 20
11.2378453369
 30
0.0
 10
14.4258085154
 20
11.2361519681
 30
0.0
 10
14.4069083613
 20
11.2347357344
 30
0.0
 10
14.3877256784
 20
11.2336013196
 30
0.0
 10
14.3683233136
 20
11.2327524571
 30
0.0
 10
14.3487648415
 20
11.2321919495
 30
0.0
 10
14.329114347
 20
11.2319216468
 30
0.0
 10
14.3094361914
 20
11.2319424483
 30
0.0
 10
14.2897949751
 20
11.2322543023
 30
0.0
 10
14.2702547459
 20
11.2328561217
 30
0.0
 10
14.2508799532
 20
11.2337460025
 30
0.0
 10
14.2380317478
 20
11.234534437
 30
0.0
 10
14.231646941
 20
11.2349772249
 30
0.0
  0
SPLINE
  5
2A6
100
AcDbEntity
  8
0
100
AcDbSpline
 62
7
  6
CONTINUOUS
 70
0
 71
3
 72
39
 73
35
 74
0
 42
0.0000001
 43
0.0000001
 44
0.0000000001
 40
0.0
 40
0.0
 40
0.0
 40
0.0
 40
0.0958316475
 40
0.1891006073
 40
0.279240642
 40
0.3229674356
 40
0.365711151
 40
0.4074094627
 40
0.4480020772
 40
0.4874317741
 40
0.5256439547
 40
0.5625873626
 40
0.5982141631
 40
0.6324802323
 40
0.6653459096
 40
0.6967758341
 40
0.7267403598
 40
0.7552153214
 40
0.7821838024
 40
0.8076365273
 40
0.831573723
 40
0.8540068598
 40
0.8749607899
 40
0.8944774057
 40
0.9126188108
 40
0.9294731124
 40
0.9451592998
 40
0.9598338063
 40
0.9668558128
 40
0.9737028706
 40
0.9804062828
 40
0.9869996808
 40
0.9935186293
 40
1.0
 40
1.0
 40
1.0
 40
1.0
 10
14.4097142971
 20
11.4069770931
 30
0.0
 10
14.4186741688
 20
11.4063557239
 30
0.0
 10
14.4363414148
 20
11.4049325464
 30
0.0
 10
14.4623729821
 20
11.4022158478
 30
0.0
 10
14.4834859227
 20
11.3994759334
 30
0.0
 10
14.4998536321
 20
11.3970095693
 30
0.0
 10
14.5117054624
 20
11.3950515414
 30
0.0
 10
14.5232378713
 20
11.3929699798
 30
0.0
 10
14.5344316097
 20
11.3907682726
 30
0.0
 10
14.5452679812
 20
11.3884502079
 30
0.0
 10
14.5557289011
 20
11.3860196239
 30
0.0
 10
14.5657969238
 20
11.3834806394
 30
0.0
 10
14.5754552703
 20
11.380837527
 30
0.0
 10
14.5846878577
 20
11.378094691
 30
0.0
 10
14.5934793463
 20
11.3752568117
 30
0.0
 10
14.6018151339
 20
11.3723285523
 30
0.0
 10
14.6096814438
 20
11.3693149271
 30
0.0
 10
14.6170652794
 20
11.3662208559
 30
0.0
 10
14.6239545384
 20
11.3630515624
 30
0.0
 10
14.630337966
 20
11.3598122033
 30
0.0
 10
14.6362052276
 20
11.3565080439
 30
0.0
 10
14.6415469385
 20
11.3531443645
 30
0.0
 10
14.6463545743
 20
11.3497262422
 30
0.0
 10
14.6506206437
 20
11.3462587669
 30
0.0
 10
14.6543382547
 20
11.3427465287
 30
0.0
 10
14.65750142
 20
11.3391937832
 30
0.0
 10
14.6601038554
 20
11.3356049089
 30
0.0
 10
14.6618252693
 20
11.3325420685
 30
0.0
 10
14.6628982762
 20
11.3300896036
 30
0.0
 10
14.6635479744
 20
11.3282725497
 30
0.0
 10
14.6640537683
 20
11.3264519058
 30
0.0
 10
14.6644152881
 20
11.3246284199
 30
0.0
 10
14.6646323245
 20
11.3228031685
 30
0.0
 10
14.6646806215
 20
11.3215842281
 30
0.0
 10
14.6646806167
 20
11.3209767907
 30
0.0
  0
SPLINE
  5
2A7
100
AcDbEntity
  8
0
100
AcDbSpline
 62
7
  6
CONTINUOUS
 70
0
 71
3
 72
25
 73
21
 74
0
 42
0.0000001
 43
0.0000001
 44
0.0000000001
 40
0.0
 40
0.0
 40
0.0
 40
0.0
 40
0.0618481624
 40
0.123943261
 40
0.1862592689
 40
0.248766051
 40
0.3114298889
 40
0.3742141536
 40
0.4370799956
 40
0.4999870693
 40
0.5628942755
 40
0.6257605129
 40
0.6885454291
 40
0.7512101625
 40
0.8137180669
 40
0.8760354055
 40
0.9071175247
 40
0.9381410213
 40
0.9691027872
 40
1.0
 40
1.0
 40
1.0
 40
1.0
 10
12.2499594721
 20
8.6018741403
 30
0.0
 10
12.2344747501
 20
8.6060629455
 30
0.0
 10
12.2037234456
 20
8.6155333397
 30
0.0
 10
12.1586010183
 20
8.6328879644
 30
0.0
 10
12.1146031052
 20
8.6533363722
 30
0.0
 10
12.0719549493
 20
8.6767741527
 30
0.0
 10
12.0308712318
 20
8.7030828494
 30
0.0
 10
11.9915597306
 20
8.7321292883
 30
0.0
 10
11.9542189892
 20
8.763766563
 30
0.0
 10
11.9190376825
 20
8.7978347125
 30
0.0
 10
11.8861935867
 20
8.8341615356
 30
0.0
 10
11.8558527014
 20
8.8725634901
 30
0.0
 10
11.8281684657
 20
8.9128464459
 30
0.0
 10
11.8032807921
 20
8.9548072726
 30
0.0
 10
11.7813161031
 20
8.9982325489
 30
0.0
 10
11.7655251365
 20
9.0354954813
 30
0.0
 10
11.7544617169
 20
9.0658162461
 30
0.0
 10
11.7469635102
 20
9.088765816
 30
0.0
 10
11.7402679789
 20
9.1119117837
 30
0.0
 10
11.7363407104
 20
9.1274716701
 30
0.0
 10
11.7345139913
 20
9.1352743642
 30
0.0
  0
SPLINE
  5
2A8
100
AcDbEntity
  8
0
100
AcDbSpline
 62
7
  6
CONTINUOUS
 70
0
 71
3
 72
75
 73
71
 74
0
 42
0.0000001
 43
0.0000001
 44
0.0000000001
 40
0.0
 40
0.0
 40
0.0
 40
0.0
 40
0.015621716
 40
0.0234134808
 40
0.0311917548
 40
0.046707698
 40
0.0621719741
 40
0.0698857163
 40
0.077587098
 40
0.0929526092
 40
0.108272135
 40
0.1235485658
 40
0.1387852287
 40
0.1539858624
 40
0.1691545803
 40
0.1842958303
 40
0.1994143495
 40
0.2145151159
 40
0.229603296
 40
0.2446841907
 40
0.2597631785
 40
0.2748456585
 40
0.2899369924
 40
0.3050424473
 40
0.3201671401
 40
0.3353159831
 40
0.3504936335
 40
0.3657044451
 40
0.3809524252
 40
0.396241195
 40
0.4115739557
 40
0.4269534595
 40
0.4423819858
 40
0.4578613221
 40
0.473392752
 40
0.4889770468
 40
0.5046144633
 40
0.5203047464
 40
0.5360471374
 40
0.5518403855
 40
0.5676827648
 40
0.5835720946
 40
0.5995057629
 40
0.6154807543
 40
0.6314936799
 40
0.6475408108
 40
0.6636181132
 40
0.6797212868
 40
0.6958458032
 40
0.7119869467
 40
0.7281398565
 40
0.7442995687
 40
0.7604610603
 40
0.7766192926
 40
0.7927692555
 40
0.8089060112
 40
0.8250247369
 40
0.8411207679
 40
0.8571896385
 40
0.8652130985
 40
0.8732282066
 40
0.8892303561
 40
0.905193538
 40
0.9211144735
 40
0.9369902483
 40
0.9528184232
 40
0.9685968094
 40
0.9764674147
 40
0.9843252894
 40
1.0
 40
1.0
 40
1.0
 40
1.0
 10
11.3032536767
 20
9.2639928094
 30
0.0
 10
11.2859286307
 20
9.2651943054
 30
0.0
 10
11.2599123205
 20
9.2663620026
 30
0.0
 10
11.2252350294
 20
9.2666371395
 30
0.0
 10
11.1906783933
 20
9.2660585744
 30
0.0
 10
11.1476343351
 20
9.2637384004
 30
0.0
 10
11.1048303903
 20
9.2592831383
 30
0.0
 10
11.0708411255
 20
9.2544454237
 30
0.0
 10
11.0370927845
 20
9.2487718669
 30
0.0
 10
10.9952876064
 20
9.240105547
 30
0.0
 10
10.9458266199
 20
9.2271998465
 30
0.0
 10
10.8972254962
 20
9.211826584
 30
0.0
 10
10.8496022326
 20
9.1940228006
 30
0.0
 10
10.8030714664
 20
9.1738313
 30
0.0
 10
10.7577454835
 20
9.1513006892
 30
0.0
 10
10.7137336032
 20
9.1264852203
 30
0.0
 10
10.6711420027
 20
9.0994446732
 30
0.0
 10
10.630073434
 20
9.0702442088
 30
0.0
 10
10.5906269788
 20
9.0389542139
 30
0.0
 10
10.5528978046
 20
9.0056501302
 30
0.0
 10
10.5169769328
 20
8.970412272
 30
0.0
 10
10.4829509992
 20
8.9333256444
 30
0.0
 10
10.4509020566
 20
8.8944797191
 30
0.0
 10
10.4209073748
 20
8.8539682157
 30
0.0
 10
10.3930392537
 20
8.8118888719
 30
0.0
 10
10.3673648485
 20
8.7683432052
 30
0.0
 10
10.3439460083
 20
8.7234362641
 30
0.0
 10
10.3228391278
 20
8.6772763722
 30
0.0
 10
10.3040950135
 20
8.629974864
 30
0.0
 10
10.2877587429
 20
8.5816458206
 30
0.0
 10
10.2738695772
 20
8.532405782
 30
0.0
 10
10.2624608704
 20
8.4823734645
 30
0.0
 10
10.2535599918
 20
8.4316694736
 30
0.0
 10
10.2471882637
 20
8.3804160132
 30
0.0
 10
10.2433609132
 20
8.328736591
 30
0.0
 10
10.242087039
 20
8.2767557221
 30
0.0
 10
10.243369592
 20
8.2245986303
 30
0.0
 10
10.2472053503
 20
8.1723909459
 30
0.0
 10
10.2535849503
 20
8.120258403
 30
0.0
 10
10.2624929112
 20
8.0683265381
 30
0.0
 10
10.2739076746
 20
8.0167203904
 30
0.0
 10
10.2878016573
 20
7.9655642029
 30
0.0
 10
10.3041413188
 20
7.9149811259
 30
0.0
 10
10.3228872429
 20
7.865092923
 30
0.0
 10
10.3439942326
 20
7.8160196804
 30
0.0
 10
10.367411401
 20
7.7678795111
 30
0.0
 10
10.3930823136
 20
7.720788278
 30
0.0
 10
10.4209451237
 20
7.6748593171
 30
0.0
 10
10.4509327208
 20
7.6302031669
 30
0.0
 10
10.4829728917
 20
7.5869273047
 30
0.0
 10
10.5169884934
 20
7.5451358892
 30
0.0
 10
10.5528976369
 20
7.5049295122
 30
0.0
 10
10.590613885
 20
7.4664049568
 30
0.0
 10
10.6300464403
 20
7.4296549542
 30
0.0
 10
10.6711003983
 20
7.3947679631
 30
0.0
 10
10.7136769004
 20
7.3618279981
 30
0.0
 10
10.7576736463
 20
7.3309142783
 30
0.0
 10
10.8029841103
 20
7.3021016001
 30
0.0
 10
10.8417677224
 20
7.2798877603
 30
0.0
 10
10.8733422472
 20
7.2632355049
 30
0.0
 10
10.9052289356
 20
7.2473548253
 30
0.0
 10
10.9456979314
 20
7.2289349979
 30
0.0
 10
10.9951471283
 20
7.2091664861
 30
0.0
 10
11.0453394503
 20
7.1917919007
 30
0.0
 10
11.0961536564
 20
7.1768533778
 30
0.0
 10
11.1474667695
 20
7.164387128
 30
0.0
 10
11.1905781473
 20
7.1560766258
 30
0.0
 10
11.2251915121
 20
7.1506947945
 30
0.0
 10
11.2598099205
 20
7.1461664398
 30
0.0
 10
11.2858698578
 20
7.1437172434
 30
0.0
 10
11.3032536767
 20
7.1425116715
 30
0.0
  0
SPLINE
  5
2A9
100
AcDbEntity
  8
0
100
AcDbSpline
 62
7
  6
CONTINUOUS
 70
0
 71
3
 72
26
 73
22
 74
0
 42
0.0000001
 43
0.0000001
 44
0.0000000001
 40
0.0
 40
0.0
 40
0.0
 40
0.0
 40
0.0616472487
 40
0.1233175237
 40
0.1850335947
 40
0.2468177207
 40
0.308691404
 40
0.370675155
 40
0.4327882706
 40
0.4950486303
 40
0.5574725121
 40
0.6200744238
 40
0.6514488032
 40
0.6828722578
 40
0.7143460212
 40
0.745871221
 40
0.8090747815
 40
0.8724939711
 40
0.9042883305
 40
0.9361389869
 40
1.0
 40
1.0
 40
1.0
 40
1.0
 10
9.4105623137
 20
7.6214982606
 30
0.0
 10
9.3984425036
 20
7.6097913922
 30
0.0
 10
9.3735632926
 20
7.5870206342
 30
0.0
 10
9.3344552024
 20
7.5549129426
 30
0.0
 10
9.293648866
 20
7.5249275378
 30
0.0
 10
9.2512485228
 20
7.4971412531
 30
0.0
 10
9.2073606629
 20
7.4716236924
 30
0.0
 10
9.1620959758
 20
7.4484391687
 30
0.0
 10
9.1155685636
 20
7.4276459951
 30
0.0
 10
9.0678954389
 20
7.4092964129
 30
0.0
 10
9.0191975927
 20
7.3934366871
 30
0.0
 10
8.9778920081
 20
7.3823359603
 30
0.0
 10
8.9444656209
 20
7.3747352081
 30
0.0
 10
8.9191964748
 20
7.3696741277
 30
0.0
 10
8.8937644823
 20
7.3652602327
 30
0.0
 10
8.8596328619
 20
7.3602379795
 30
0.0
 10
8.8166348385
 20
7.3555946166
 30
0.0
 10
8.7733831037
 20
7.3531444873
 30
0.0
 10
8.7386543034
 20
7.3524967522
 30
0.0
 10
8.7038001707
 20
7.3527259334
 30
0.0
 10
8.6776498036
 20
7.3538855817
 30
0.0
 10
8.6602359869
 20
7.355093234
 30
0.0
  0
SPLINE
  5
2AA
100
AcDbEntity
  8
0
100
AcDbSpline
 62
7
  6
CONTINUOUS
 70
0
 71
3
 72
23
 73
19
 74
0
 42
0.0000001
 43
0.0000001
 44
0.0000000001
 40
0.0
 40
0.0
 40
0.0
 40
0.0
 40
0.0616213482
 40
0.1233265657
 40
0.185124666
 40
0.2470241644
 40
0.3090330379
 40
0.3711587045
 40
0.4334079548
 40
0.49578696
 40
0.5583012238
 40
0.6209554843
 40
0.6837539218
 40
0.7467000406
 40
0.8097958025
 40
0.8730434983
 40
0.9364469797
 40
1.0
 40
1.0
 40
1.0
 40
1.0
 10
9.5621557343
 20
7.8126403163
 30
0.0
 10
9.551861226
 20
7.8069276742
 30
0.0
 10
9.5310441372
 20
7.7958755909
 30
0.0
 10
9.4992056538
 20
7.7804524965
 30
0.0
 10
9.4667713584
 20
7.7661915897
 30
0.0
 10
9.4337812376
 20
7.7531106485
 30
0.0
 10
9.4002753696
 20
7.7412253026
 30
0.0
 10
9.3662945183
 20
7.7305501706
 30
0.0
 10
9.3318800459
 20
7.7210981815
 30
0.0
 10
9.2970738579
 20
7.7128807124
 30
0.0
 10
9.2619182735
 20
7.7059079396
 30
0.0
 10
9.2264561053
 20
7.7001881364
 30
0.0
 10
9.1907304567
 20
7.6957282963
 30
0.0
 10
9.1547848581
 20
7.6925339677
 30
0.0
 10
9.1186631284
 20
7.6906087211
 30
0.0
 10
9.0824085661
 20
7.6899550903
 30
0.0
 10
9.0460665275
 20
7.6905739572
 30
0.0
 10
9.0218372048
 20
7.6918326054
 30
0.0
 10
9.0097239103
 20
7.6926726652
 30
0.0
  0
SPLINE
  5
2AB
100
AcDbEntity
  8
0
100
AcDbSpline
 62
7
  6
CONTINUOUS
 70
0
 71
3
 72
23
 73
19
 74
0
 42
0.0000001
 43
0.0000001
 44
0.0000000001
 40
0.0
 40
0.0
 40
0.0
 40
0.0
 40
0.0615933065
 40
0.1232600516
 40
0.185012845
 40
0.2468637056
 40
0.3088239774
 40
0.3709042745
 40
0.4331144047
 40
0.4954632925
 40
0.5579589641
 40
0.620608461
 40
0.6834177699
 40
0.7463920913
 40
0.8095350928
 40
0.87284914
 40
0.9363391224
 40
1.0
 40
1.0
 40
1.0
 40
1.0
 10
9.6084375422
 20
7.8989061026
 30
0.0
 10
9.5978344246
 20
7.891881263
 30
0.0
 10
9.57631636
 20
7.8782689291
 30
0.0
 10
9.5431897283
 20
7.8592141222
 30
0.0
 10
9.5092455041
 20
7.8415402104
 30
0.0
 10
9.4745373555
 20
7.825275326
 30
0.0
 10
9.4391192854
 20
7.8104445934
 30
0.0
 10
9.4030466129
 20
7.7970711249
 30
0.0
 10
9.366375563
 20
7.7851758482
 30
0.0
 10
9.3291633693
 20
7.774777229
 30
0.0
 10
9.2914680916
 20
7.7658913865
 30
0.0
 10
9.2533485109
 20
7.7585322354
 30
0.0
 10
9.214864062
 20
7.7527111905
 30
0.0
 10
9.1760747771
 20
7.7484372478
 30
0.0
 10
9.1370413126
 20
7.7457170569
 30
0.0
 10
9.0978238308
 20
7.7445547703
 30
0.0
 10
9.0584849106
 20
7.7449523612
 30
0.0
 10
9.0322524604
 20
7.7462549468
 30
0.0
 10
9.019137945
 20
7.7471644415
 30
0.0
  0
SPLINE
  5
2AC
100
AcDbEntity
  8
0
100
AcDbSpline
 62
7
  6
CONTINUOUS
 70
0
 71
3
 72
23
 73
19
 74
0
 42
0.0000001
 43
0.0000001
 44
0.0000000001
 40
0.0
 40
0.0
 40
0.0
 40
0.0
 40
0.0616180918
 40
0.1233194791
 40
0.1851134333
 40
0.2470087246
 40
0.3090135674
 40
0.3711356068
 40
0.4333818474
 40
0.4957586536
 40
0.5582717045
 40
0.6209258921
 40
0.6837255453
 40
0.746674272
 40
0.8097740813
 40
0.8730274218
 40
0.9364382394
 40
1.0
 40
1.0
 40
1.0
 40
1.0
 10
9.6237492583
 20
7.9335473302
 30
0.0
 10
9.6138369075
 20
7.9279668591
 30
0.0
 10
9.5937874784
 20
7.9171690829
 30
0.0
 10
9.5631086725
 20
7.9020972194
 30
0.0
 10
9.5318426075
 20
7.8881574954
 30
0.0
 10
9.5000285981
 20
7.8753677186
 30
0.0
 10
9.4677061098
 20
7.8637434754
 30
0.0
 10
9.4349152961
 20
7.8532993228
 30
0.0
 10
9.4016968828
 20
7.8440482361
 30
0.0
 10
9.3680921774
 20
7.8360015333
 30
0.0
 10
9.3341428839
 20
7.8291694003
 30
0.0
 10
9.2998912039
 20
7.8235601308
 30
0.0
 10
9.2653796414
 20
7.8191806919
 30
0.0
 10
9.2306511241
 20
7.8160366789
 30
0.0
 10
9.1957488648
 20
7.814131656
 30
0.0
 10
9.1607155609
 20
7.8134681905
 30
0.0
 10
9.1255959713
 20
7.8140472001
 30
0.0
 10
9.1021813405
 20
7.8152593112
 30
0.0
 10
9.0904753858
 20
7.816071122
 30
0.0
  0
SPLINE
  5
2AD
100
AcDbEntity
  8
0
100
AcDbSpline
 62
7
  6
CONTINUOUS
 70
0
 71
3
 72
50
 73
46
 74
0
 42
0.0000001
 43
0.0000001
 44
0.0000000001
 40
0.0
 40
0.0
 40
0.0
 40
0.0
 40
0.0291135682
 40
0.0575232908
 40
0.0851300944
 40
0.1119019019
 40
0.162986908
 40
0.2110310124
 40
0.2563661472
 40
0.2993030042
 40
0.3401054633
 40
0.3789904664
 40
0.4161344159
 40
0.4516812959
 40
0.4857488227
 40
0.5184317665
 40
0.5498103197
 40
0.5799482049
 40
0.6089007783
 40
0.6367124928
 40
0.6634238928
 40
0.6890688036
 40
0.7136829462
 40
0.7372999446
 40
0.7599639843
 40
0.7817264786
 40
0.8026638405
 40
0.8128573767
 40
0.8228888945
 40
0.8327790128
 40
0.8425530461
 40
0.8522429027
 40
0.8618855309
 40
0.8715252262
 40
0.8812155291
 40
0.8910181233
 40
0.9010056133
 40
0.9112612466
 40
0.9218797736
 40
0.9329677652
 40
0.9446438587
 40
0.9570383836
 40
0.970293294
 40
0.984560431
 40
1.0
 40
1.0
 40
1.0
 40
1.0
 10
10.6170475404
 20
8.3520187983
 30
0.0
 10
10.6173438494
 20
8.3493890528
 30
0.0
 10
10.6178583204
 20
8.3441849012
 30
0.0
 10
10.6184265412
 20
8.3364668895
 30
0.0
 10
10.618806915
 20
8.3289505136
 30
0.0
 10
10.6190885666
 20
8.3193675808
 30
0.0
 10
10.6190914149
 20
8.3079204339
 30
0.0
 10
10.6186327912
 20
8.2947944567
 30
0.0
 10
10.6177991965
 20
8.282429515
 30
0.0
 10
10.6166521584
 20
8.2707512604
 30
0.0
 10
10.6152353099
 20
8.259693685
 30
0.0
 10
10.6135800257
 20
8.249202152
 30
0.0
 10
10.6117090099
 20
8.2392326647
 30
0.0
 10
10.6096390223
 20
8.22975035
 30
0.0
 10
10.6073826041
 20
8.2207280705
 30
0.0
 10
10.6049479277
 20
8.2121453939
 30
0.0
 10
10.6023421107
 20
8.2039872281
 30
0.0
 10
10.5995683441
 20
8.1962437527
 30
0.0
 10
10.596629919
 20
8.1889092182
 30
0.0
 10
10.5935268337
 20
8.1819824996
 30
0.0
 10
10.5902596597
 20
8.1754659534
 30
0.0
 10
10.5868256499
 20
8.1693667646
 30
0.0
 10
10.583223373
 20
8.1636952933
 30
0.0
 10
10.5794473479
 20
8.1584679504
 30
0.0
 10
10.5754939849
 20
8.153704273
 30
0.0
 10
10.5713552606
 20
8.1494325679
 30
0.0
 10
10.5677134319
 20
8.1462812052
 30
0.0
 10
10.5647023642
 20
8.1440575167
 30
0.0
 10
10.5624135929
 20
8.1425531083
 30
0.0
 10
10.560073155
 20
8.1412049244
 30
0.0
 10
10.557679606
 20
8.1400214431
 30
0.0
 10
10.5552321425
 20
8.139010867
 30
0.0
 10
10.5527293401
 20
8.1381835548
 30
0.0
 10
10.5501698652
 20
8.137551671
 30
0.0
 10
10.5475529683
 20
8.1371267377
 30
0.0
 10
10.5448774796
 20
8.1369243614
 30
0.0
 10
10.5421429258
 20
8.1369605094
 30
0.0
 10
10.539348924
 20
8.1372529421
 30
0.0
 10
10.5364958887
 20
8.1378234737
 30
0.0
 10
10.5335843287
 20
8.1386936748
 30
0.0
 10
10.530616338
 20
8.1398909976
 30
0.0
 10
10.5275941948
 20
8.1414430993
 30
0.0
 10
10.52452259
 20
8.1433832361
 30
0.0
 10
10.5214079052
 20
8.1457461253
 30
0.0
 10
10.5193952588
 20
8.1475514913
 30
0.0
 10
10.5183864747
 20
8.1485271913
 30
0.0
  0
SPLINE
  5
2AE
100
AcDbEntity
  8
0
100
AcDbSpline
 62
7
  6
CONTINUOUS
 70
0
 71
3
 72
23
 73
19
 74
0
 42
0.0000001
 43
0.0000001
 44
0.0000000001
 40
0.0
 40
0.0
 40
0.0
 40
0.0
 40
0.0615905593
 40
0.1232475907
 40
0.1849855133
 40
0.2468181276
 40
0.3087585252
 40
0.3708189893
 40
0.4330108967
 40
0.4953446434
 40
0.5578295977
 40
0.620474013
 40
0.6832849063
 40
0.7462683356
 40
0.809428824
 40
0.8727690546
 40
0.9362943154
 40
1.0
 40
1.0
 40
1.0
 40
1.0
 10
9.6739420329
 20
8.0870226167
 30
0.0
 10
9.6640697807
 20
8.0799628833
 30
0.0
 10
9.643997702
 20
8.0662730609
 30
0.0
 10
9.6129919437
 20
8.0470831967
 30
0.0
 10
9.5811254477
 20
8.0292600072
 30
0.0
 10
9.5484541613
 20
8.0128347597
 30
0.0
 10
9.515034397
 20
7.9978356624
 30
0.0
 10
9.480923984
 20
7.9842887308
 30
0.0
 10
9.4461819106
 20
7.9722173434
 30
0.0
 10
9.4108682902
 20
7.9616422608
 30
0.0
 10
9.3750441749
 20
7.9525817478
 30
0.0
 10
9.3387715002
 20
7.9450515158
 30
0.0
 10
9.302112988
 20
7.9390644235
 30
0.0
 10
9.2651319934
 20
7.9346307916
 30
0.0
 10
9.2278926283
 20
7.9317583163
 30
0.0
 10
9.1904585827
 20
7.9304517567
 30
0.0
 10
9.1528959802
 20
7.9307135837
 30
0.0
 10
9.1278454822
 20
7.9319314815
 30
0.0
 10
9.1153219936
 20
7.9327999884
 30
0.0
  0
SPLINE
  5
2AF
100
AcDbEntity
  8
0
100
AcDbSpline
 62
7
  6
CONTINUOUS
 70
0
 71
3
 72
23
 73
19
 74
0
 42
0.0000001
 43
0.0000001
 44
0.0000000001
 40
0.0
 40
0.0
 40
0.0
 40
0.0
 40
0.061600323
 40
0.1232787912
 40
0.1850465867
 40
0.2469143447
 40
0.3088920827
 40
0.3709891279
 40
0.433214083
 40
0.4955747762
 40
0.5580782137
 40
0.6207305054
 40
0.6835369035
 40
0.746501955
 40
0.8096285965
 40
0.8729191377
 40
0.9363781767
 40
1.0
 40
1.0
 40
1.0
 40
1.0
 10
9.5881017245
 20
7.8579207612
 30
0.0
 10
9.5775500886
 20
7.8513685328
 30
0.0
 10
9.5561669656
 20
7.8386794096
 30
0.0
 10
9.5233333701
 20
7.8209374784
 30
0.0
 10
9.4897669669
 20
7.8045000598
 30
0.0
 10
9.455516344
 20
7.7893909512
 30
0.0
 10
9.4206301301
 20
7.7756317124
 30
0.0
 10
9.3851581912
 20
7.7632418843
 30
0.0
 10
9.3491511325
 20
7.7522390541
 30
0.0
 10
9.3126602792
 20
7.7426390366
 30
0.0
 10
9.2757377212
 20
7.7344553907
 30
0.0
 10
9.2384361322
 20
7.7276997135
 30
0.0
 10
9.200808659
 20
7.7223817403
 30
0.0
 10
9.1629090191
 20
7.7185089634
 30
0.0
 10
9.1247913989
 20
7.7160867742
 30
0.0
 10
9.0865094531
 20
7.7151186933
 30
0.0
 10
9.0481191556
 20
7.7156062066
 30
0.0
 10
9.0225212647
 20
7.7168992386
 30
0.0
 10
9.0097239103
 20
7.7177867382
 30
0.0
  0
SPLINE
  5
2B0
100
AcDbEntity
  8
0
100
AcDbSpline
 62
7
  6
CONTINUOUS
 70
0
 71
3
 72
76
 73
72
 74
0
 42
0.0000001
 43
0.0000001
 44
0.0000000001
 40
0.0
 40
0.0
 40
0.0
 40
0.0
 40
0.0156747225
 40
0.0235325474
 40
0.0314031326
 40
0.0471815238
 40
0.0630096701
 40
0.0709422968
 40
0.0788865451
 40
0.0948074601
 40
0.1107706215
 40
0.1267727505
 40
0.1428102138
 40
0.1588790639
 40
0.1749750748
 40
0.1910937806
 40
0.2072305163
 40
0.2233804589
 40
0.2395386705
 40
0.2557001411
 40
0.2718598323
 40
0.2880127214
 40
0.3041538447
 40
0.3202783411
 40
0.3363814948
 40
0.3524587772
 40
0.3685058876
 40
0.3845187926
 40
0.4004937633
 40
0.4164274113
 40
0.4323167209
 40
0.4481590804
 40
0.4639523087
 40
0.4796946798
 40
0.495384943
 40
0.5110223396
 40
0.5266066146
 40
0.542138025
 40
0.5576173419
 40
0.5730458487
 40
0.588425333
 40
0.6037580741
 40
0.6190468241
 40
0.6342947845
 40
0.6495055768
 40
0.6646832082
 40
0.6798320326
 40
0.6949567066
 40
0.7100621427
 40
0.7251534575
 40
0.7402359181
 40
0.7553148863
 40
0.7703957614
 40
0.7854839222
 40
0.8005846694
 40
0.8157031697
 40
0.830844401
 40
0.8460131002
 40
0.8612137149
 40
0.8764503584
 40
0.8917267696
 40
0.9070462756
 40
0.9147237278
 40
0.9224129996
 40
0.9301143737
 40
0.9378281062
 40
0.9532923541
 40
0.9688083027
 40
0.976586557
 40
0.9843782719
 40
1.0
 40
1.0
 40
1.0
 40
1.0
 10
11.2919069079
 20
7.0892047788
 30
0.0
 10
11.2738290577
 20
7.090458482
 30
0.0
 10
11.2467287613
 20
7.0930054391
 30
0.0
 10
11.2107283582
 20
7.0977145926
 30
0.0
 10
11.1747331377
 20
7.1033112784
 30
0.0
 10
11.1299010643
 20
7.1119534125
 30
0.0
 10
11.0854646903
 20
7.1227491016
 30
0.0
 10
11.0501755049
 20
7.1326678665
 30
0.0
 10
11.0150291254
 20
7.1434526607
 30
0.0
 10
10.9714998795
 20
7.15852065
 30
0.0
 10
10.9200766429
 20
7.1790784312
 30
0.0
 10
10.8695488983
 20
7.2020765288
 30
0.0
 10
10.8200390173
 20
7.2274593032
 30
0.0
 10
10.7716659576
 20
7.2551656458
 30
0.0
 10
10.7245461977
 20
7.2851287971
 30
0.0
 10
10.6787931288
 20
7.3172765922
 30
0.0
 10
10.6345168685
 20
7.351531608
 30
0.0
 10
10.5918239774
 20
7.3878113617
 30
0.0
 10
10.5508172097
 20
7.4260285058
 30
0.0
 10
10.5115952659
 20
7.4660910383
 30
0.0
 10
10.4742525565
 20
7.5079025227
 30
0.0
 10
10.4388789761
 20
7.5513623194
 30
0.0
 10
10.405559688
 20
7.5963658261
 30
0.0
 10
10.3743749201
 20
7.6428047289
 30
0.0
 10
10.3453997723
 20
7.6905672609
 30
0.0
 10
10.3187040375
 20
7.7395384705
 30
0.0
 10
10.2943520274
 20
7.7896004932
 30
0.0
 10
10.2724024204
 20
7.8406328363
 30
0.0
 10
10.2529081238
 20
7.8925126686
 30
0.0
 10
10.2359161453
 20
7.9451151142
 30
0.0
 10
10.2214674801
 20
7.9983135506
 30
0.0
 10
10.2095970115
 20
8.0519799118
 30
0.0
 10
10.2003334257
 20
8.1059849946
 30
0.0
 10
10.1936991424
 20
8.1601987672
 30
0.0
 10
10.1897102583
 20
8.2144906808
 30
0.0
 10
10.188376507
 20
8.2687299816
 30
0.0
 10
10.189701233
 20
8.3227860245
 30
0.0
 10
10.1936813736
 20
8.376528587
 30
0.0
 10
10.2003074708
 20
8.4298281827
 30
0.0
 10
10.2095636914
 20
8.4825563722
 30
0.0
 10
10.2214278617
 20
8.5345860722
 30
0.0
 10
10.2358715177
 20
8.5857918625
 30
0.0
 10
10.2528599701
 20
8.6360502884
 30
0.0
 10
10.2723523847
 20
8.6852401605
 30
0.0
 10
10.2943018779
 20
8.7332428479
 30
0.0
 10
10.3186556264
 20
8.7799425676
 30
0.0
 10
10.3453549931
 20
8.8252266663
 30
0.0
 10
10.3743356641
 20
8.8689858971
 30
0.0
 10
10.4055277996
 20
8.91111469
 30
0.0
 10
10.4388562096
 20
8.9515114067
 30
0.0
 10
10.4742405345
 20
8.9900785898
 30
0.0
 10
10.5115954402
 20
9.0267232019
 30
0.0
 10
10.5508308266
 20
9.0613568528
 30
0.0
 10
10.591852047
 20
9.093896016
 30
0.0
 10
10.6345601399
 20
9.1242622319
 30
0.0
 10
10.6788520728
 20
9.1523822987
 30
0.0
 10
10.7246209874
 20
9.1781884491
 30
0.0
 10
10.7717564881
 20
9.2016185171
 30
0.0
 10
10.8201448095
 20
9.2226160756
 30
0.0
 10
10.8696694699
 20
9.2411306367
 30
0.0
 10
10.9202101595
 20
9.2571175124
 30
0.0
 10
10.9630441349
 20
9.2682938627
 30
0.0
 10
10.9976898744
 20
9.2759375646
 30
0.0
 10
11.023872317
 20
9.2810221182
 30
0.0
 10
11.0502161161
 20
9.2854509152
 30
0.0
 10
11.0855621276
 20
9.2904817297
 30
0.0
 10
11.1300749838
 20
9.295114885
 30
0.0
 10
11.1748374273
 20
9.2975276641
 30
0.0
 10
11.2107736036
 20
9.2981293167
 30
0.0
 10
11.246835256
 20
9.2978432214
 30
0.0
 10
11.2738901768
 20
9.2966288913
 30
0.0
 10
11.2919069079
 20
9.2953794267
 30
0.0
  0
SPLINE
  5
2B1
100
AcDbEntity
  8
0
100
AcDbSpline
 62
7
  6
CONTINUOUS
 70
0
 71
3
 72
39
 73
35
 74
0
 42
0.0000001
 43
0.0000001
 44
0.0000000001
 40
0.0
 40
0.0
 40
0.0
 40
0.0
 40
0.0958316475
 40
0.1891006073
 40
0.279240642
 40
0.3229674356
 40
0.365711151
 40
0.4074094627
 40
0.4480020772
 40
0.4874317741
 40
0.5256439547
 40
0.5625873626
 40
0.5982141631
 40
0.6324802323
 40
0.6653459096
 40
0.6967758341
 40
0.7267403598
 40
0.7552153214
 40
0.7821838024
 40
0.8076365273
 40
0.831573723
 40
0.8540068598
 40
0.8749607899
 40
0.8944774057
 40
0.9126188108
 40
0.9294731124
 40
0.9451592998
 40
0.9598338063
 40
0.9668558128
 40
0.9737028706
 40
0.9804062828
 40
0.9869996808
 40
0.9935186293
 40
1.0
 40
1.0
 40
1.0
 40
1.0
 10
13.8273719262
 20
10.844477524
 30
0.0
 10
13.836331798
 20
10.8438561548
 30
0.0
 10
13.8539990439
 20
10.8424329773
 30
0.0
 10
13.8800306112
 20
10.8397162787
 30
0.0
 10
13.9011435518
 20
10.8369763643
 30
0.0
 10
13.9175112612
 20
10.8345100001
 30
0.0
 10
13.9293630915
 20
10.8325519723
 30
0.0
 10
13.9408955004
 20
10.8304704107
 30
0.0
 10
13.9520892388
 20
10.8282687035
 30
0.0
 10
13.9629256103
 20
10.8259506388
 30
0.0
 10
13.9733865303
 20
10.8235200548
 30
0.0
 10
13.9834545529
 20
10.8209810703
 30
0.0
 10
13.9931128994
 20
10.8183379579
 30
0.0
 10
14.0023454868
 20
10.8155951219
 30
0.0
 10
14.0111369754
 20
10.8127572426
 30
0.0
 10
14.019472763
 20
10.8098289831
 30
0.0
 10
14.0273390729
 20
10.806815358
 30
0.0
 10
14.0347229085
 20
10.8037212868
 30
0.0
 10
14.0416121675
 20
10.8005519933
 30
0.0
 10
14.0479955951
 20
10.7973126342
 30
0.0
 10
14.0538628567
 20
10.7940084748
 30
0.0
 10
14.0592045676
 20
10.7906447954
 30
0.0
 10
14.0640122034
 20
10.7872266731
 30
0.0
 10
14.0682782728
 20
10.7837591978
 30
0.0
 10
14.0719958838
 20
10.7802469596
 30
0.0
 10
14.0751590492
 20
10.7766942141
 30
0.0
 10
14.0777614845
 20
10.7731053398
 30
0.0
 10
14.0794828985
 20
10.7700424994
 30
0.0
 10
14.0805559053
 20
10.7675900345
 30
0.0
 10
14.0812056035
 20
10.7657729806
 30
0.0
 10
14.0817113975
 20
10.7639523367
 30
0.0
 10
14.0820729172
 20
10.7621288508
 30
0.0
 10
14.0822899536
 20
10.7603035994
 30
0.0
 10
14.0823382507
 20
10.759084659
 30
0.0
 10
14.0823382458
 20
10.7584772215
 30
0.0
  0
SPLINE
  5
2B2
100
AcDbEntity
  8
0
100
AcDbSpline
 62
7
  6
CONTINUOUS
 70
0
 71
3
 72
57
 73
53
 74
0
 42
0.0000001
 43
0.0000001
 44
0.0000000001
 40
0.0
 40
0.0
 40
0.0
 40
0.0
 40
0.0149696159
 40
0.0299422018
 40
0.0449207096
 40
0.0599080579
 40
0.0749071109
 40
0.089920664
 40
0.1049514292
 40
0.120002015
 40
0.1350749144
 40
0.1501724927
 40
0.1652969693
 40
0.1804504095
 40
0.1956347147
 40
0.2108516068
 40
0.2261026251
 40
0.241389119
 40
0.2567122353
 40
0.272072921
 40
0.2874719169
 40
0.3029097508
 40
0.3183867432
 40
0.3339030043
 40
0.3494584304
 40
0.3650527149
 40
0.3806853452
 40
0.396355606
 40
0.4120625912
 40
0.427805203
 40
0.4435821603
 40
0.4593920113
 40
0.4752331349
 40
0.4911037534
 40
0.5070019445
 40
0.5229256456
 40
0.5388726697
 40
0.5548407166
 40
0.5868254584
 40
0.6188643484
 40
0.6509360736
 40
0.6830186871
 40
0.715090032
 40
0.7471281691
 40
0.7791118005
 40
0.8110206848
 40
0.8428360401
 40
0.8745409222
 40
0.9061205793
 40
0.9375628037
 40
0.9688579187
 40
1.0
 40
1.0
 40
1.0
 40
1.0
 10
7.9099096602
 20
9.1750881158
 30
0.0
 10
7.9010812238
 20
9.1665604786
 30
0.0
 10
7.8837547191
 20
9.1491557645
 30
0.0
 10
7.8588046168
 20
9.1220481028
 30
0.0
 10
7.8349244791
 20
9.0939734603
 30
0.0
 10
7.8121468005
 20
9.0649698133
 30
0.0
 10
7.790501938
 20
9.0350757375
 30
0.0
 10
7.7700187125
 20
9.0043313153
 30
0.0
 10
7.7507245477
 20
8.9727775671
 30
0.0
 10
7.732645254
 20
8.9404566461
 30
0.0
 10
7.7158048397
 20
8.9074118145
 30
0.0
 10
7.7002258975
 20
8.8736871703
 30
0.0
 10
7.6859292195
 20
8.8393277858
 30
0.0
 10
7.6729337674
 20
8.8043796155
 30
0.0
 10
7.6612570164
 20
8.7688893012
 30
0.0
 10
7.6509144915
 20
8.7329042813
 30
0.0
 10
7.6419198929
 20
8.6964726498
 30
0.0
 10
7.6342853616
 20
8.6596430369
 30
0.0
 10
7.6280209744
 20
8.6224646628
 30
0.0
 10
7.6231350164
 20
8.5849871886
 30
0.0
 10
7.6196341403
 20
8.5472606507
 30
0.0
 10
7.6175228637
 20
8.5093354491
 30
0.0
 10
7.6168039668
 20
8.4712622237
 30
0.0
 10
7.6174785221
 20
8.433091816
 30
0.0
 10
7.6195454503
 20
8.3948751928
 30
0.0
 10
7.6230019968
 20
8.3566633759
 30
0.0
 10
7.6278436303
 20
8.3185073967
 30
0.0
 10
7.6340637056
 20
8.2804581758
 30
0.0
 10
7.641653965
 20
8.2425665147
 30
0.0
 10
7.6506043209
 20
8.2048830148
 30
0.0
 10
7.6609026573
 20
8.1674579429
 30
0.0
 10
7.6725353069
 20
8.1303412798
 30
0.0
 10
7.6854867466
 20
8.0935825784
 30
0.0
 10
7.6997395399
 20
8.0572308658
 30
0.0
 10
7.7152747904
 20
8.021334671
 30
0.0
 10
7.7320716363
 20
7.9859420347
 30
0.0
 10
7.7501078818
 20
7.9510996461
 30
0.0
 10
7.7757875349
 20
7.9054193338
 30
0.0
 10
7.8108643255
 20
7.8499305141
 30
0.0
 10
7.8574602869
 20
7.7863163768
 30
0.0
 10
7.9083403772
 20
7.7259666056
 30
0.0
 10
7.9632321709
 20
7.6692049874
 30
0.0
 10
8.0218434736
 20
7.6163335546
 30
0.0
 10
8.083861801
 20
7.5676342898
 30
0.0
 10
8.1489567011
 20
7.5233668528
 30
0.0
 10
8.2167813961
 20
7.483767542
 30
0.0
 10
8.2869744579
 20
7.4490477737
 30
0.0
 10
8.359161932
 20
7.4193930114
 30
0.0
 10
8.4329587685
 20
7.3949619624
 30
0.0
 10
8.5079729117
 20
7.3758855959
 30
0.0
 10
8.583799219
 20
7.3622663939
 30
0.0
 10
8.6347620062
 20
7.3568598606
 30
0.0
 10
8.6602359869
 20
7.355093234
 30
0.0
  0
SPLINE
  5
2B3
100
AcDbEntity
  8
0
100
AcDbSpline
 62
7
  6
CONTINUOUS
 70
0
 71
3
 72
47
 73
43
 74
0
 42
0.0000001
 43
0.0000001
 44
0.0000000001
 40
0.0
 40
0.0
 40
0.0
 40
0.0
 40
0.014963353
 40
0.0299432406
 40
0.0449418092
 40
0.059961118
 40
0.0750031226
 40
0.0900696682
 40
0.1051624848
 40
0.1202831709
 40
0.1354331978
 40
0.1506138928
 40
0.1658264403
 40
0.181071877
 40
0.1963510816
 40
0.2116647828
 40
0.2270135445
 40
0.2423977748
 40
0.2732691453
 40
0.3042833118
 40
0.335437779
 40
0.3667275955
 40
0.398145471
 40
0.4296819298
 40
0.4613254948
 40
0.4930629001
 40
0.5248793269
 40
0.5567586599
 40
0.588683758
 40
0.6206367372
 40
0.6525992623
 40
0.684552844
 40
0.7164791375
 40
0.7483602394
 40
0.78017898
 40
0.8119192057
 40
0.8435660511
 40
0.8751061987
 40
0.9065280926
 40
0.9378222693
 40
0.9689810828
 40
1.0
 40
1.0
 40
1.0
 40
1.0
 10
10.8066708717
 20
9.1601929227
 30
0.0
 10
10.8005489634
 20
9.1510553438
 30
0.0
 10
10.7886232777
 20
9.1325500052
 30
0.0
 10
10.7717238946
 20
9.104157803
 30
0.0
 10
10.7558223085
 20
9.075147591
 30
0.0
 10
10.7409366088
 20
9.0455522803
 30
0.0
 10
10.7270834718
 20
9.015404809
 30
0.0
 10
10.7142781931
 20
8.9847390337
 30
0.0
 10
10.7025353263
 20
8.9535891525
 30
0.0
 10
10.6918677771
 20
8.9219901014
 30
0.0
 10
10.6822875801
 20
8.8899771855
 30
0.0
 10
10.6738054463
 20
8.8575862201
 30
0.0
 10
10.6664307049
 20
8.8248534666
 30
0.0
 10
10.6601718217
 20
8.7918154986
 30
0.0
 10
10.6550355181
 20
8.7585092831
 30
0.0
 10
10.651027729
 20
8.724972166
 30
0.0
 10
10.6481528249
 20
8.6912411862
 30
0.0
 10
10.6458317617
 20
8.6460115051
 30
0.0
 10
10.6457855693
 20
8.5891682287
 30
0.0
 10
10.6502838423
 20
8.5208785742
 30
0.0
 10
10.6593145461
 20
8.4527281481
 30
0.0
 10
10.6728369589
 20
8.3850235042
 30
0.0
 10
10.6907901644
 20
8.3180665024
 30
0.0
 10
10.7130935685
 20
8.2521563048
 30
0.0
 10
10.7396472106
 20
8.1875871642
 30
0.0
 10
10.7703321915
 20
8.1246473521
 30
0.0
 10
10.805011211
 20
8.0636178168
 30
0.0
 10
10.8435292135
 20
8.004770975
 30
0.0
 10
10.8857140691
 20
7.9483695022
 30
0.0
 10
10.9313773371
 20
7.8946651746
 30
0.0
 10
10.980315106
 20
7.8438977629
 30
0.0
 10
11.0323088601
 20
7.7962939364
 30
0.0
 10
11.0871264711
 20
7.7520662722
 30
0.0
 10
11.1445232394
 20
7.7114123305
 30
0.0
 10
11.2042429691
 20
7.6745137766
 30
0.0
 10
11.2660191073
 20
7.6415355757
 30
0.0
 10
11.3295758885
 20
7.6126252618
 30
0.0
 10
11.3946296497
 20
7.5879122478
 30
0.0
 10
11.4608896836
 20
7.5675072175
 30
0.0
 10
11.5280610592
 20
7.5515017985
 30
0.0
 10
11.5958399263
 20
7.5399679807
 30
0.0
 10
11.6413426274
 20
7.5352833603
 30
0.0
 10
11.6640883783
 20
7.5337059371
 30
0.0
  0
SPLINE
  5
2B4
100
AcDbEntity
  8
0
100
AcDbSpline
 62
7
  6
CONTINUOUS
 70
0
 71
3
 72
46
 73
42
 74
0
 42
0.0000001
 43
0.0000001
 44
0.0000000001
 40
0.0
 40
0.0
 40
0.0
 40
0.0
 40
0.0149724479
 40
0.0299638594
 40
0.0449761713
 40
0.0600112242
 40
0.0750707548
 40
0.0901563826
 40
0.1052696126
 40
0.1204118187
 40
0.1355842464
 40
0.1507880042
 40
0.1660240574
 40
0.1812932325
 40
0.1965962026
 40
0.2119334982
 40
0.242708263
 40
0.2736229573
 40
0.3046763993
 40
0.335865064
 40
0.3671831726
 40
0.3986228156
 40
0.4301741061
 40
0.4618253602
 40
0.4935633003
 40
0.5253732792
 40
0.5572395201
 40
0.5891453686
 40
0.6210735553
 40
0.6530064647
 40
0.684926408
 40
0.7168158974
 40
0.7486579174
 40
0.7804361908
 40
0.8121354368
 40
0.8437416179
 40
0.8752421763
 40
0.9066262255
 40
0.9378848587
 40
0.9690108723
 40
1.0
 40
1.0
 40
1.0
 40
1.0
 10
8.1064686999
 20
9.3204294018
 30
0.0
 10
8.1007714541
 20
9.3109645754
 30
0.0
 10
8.0896984231
 20
9.2918228573
 30
0.0
 10
8.0740850948
 20
9.2625329962
 30
0.0
 10
8.0594740364
 20
9.23267863
 30
0.0
 10
8.0458809924
 20
9.2022922897
 30
0.0
 10
8.033320676
 20
9.1714063186
 30
0.0
 10
8.0218063161
 20
9.1400539467
 30
0.0
 10
8.0113504071
 20
9.1082686965
 30
0.0
 10
8.0019640682
 20
9.0760846607
 30
0.0
 10
7.9936572846
 20
9.0435363341
 30
0.0
 10
7.9864391113
 20
9.0106585633
 30
0.0
 10
7.9803170259
 20
8.9774865915
 30
0.0
 10
7.9752978156
 20
8.9440560402
 30
0.0
 10
7.9713866552
 20
8.9104022856
 30
0.0
 10
7.967650865
 20
8.8652353521
 30
0.0
 10
7.9657785631
 20
8.8083881015
 30
0.0
 10
7.9680067661
 20
8.7399479065
 30
0.0
 10
7.974696492
 20
8.6714912419
 30
0.0
 10
7.9858188174
 20
8.6033131411
 30
0.0
 10
8.0013256266
 20
8.5357048393
 30
0.0
 10
8.0211501684
 20
8.468955748
 30
0.0
 10
8.0452072576
 20
8.4033513671
 30
0.0
 10
8.0733936692
 20
8.3391723141
 30
0.0
 10
8.1055885333
 20
8.2766930525
 30
0.0
 10
8.1416538992
 20
8.2161807615
 30
0.0
 10
8.1814353239
 20
8.1578942027
 30
0.0
 10
8.2247625288
 20
8.1020826273
 30
0.0
 10
8.2714501231
 20
8.0489847208
 30
0.0
 10
8.3212983899
 20
7.9988275939
 30
0.0
 10
8.374094102
 20
7.9518257845
 30
0.0
 10
8.4296114623
 20
7.908180376
 30
0.0
 10
8.4876130612
 20
7.8680781459
 30
0.0
 10
8.5478508778
 20
7.8316907729
 30
0.0
 10
8.6100673386
 20
7.7991741081
 30
0.0
 10
8.6739963733
 20
7.7706675081
 30
0.0
 10
8.7393646376
 20
7.7462932137
 30
0.0
 10
8.8058922893
 20
7.7261558029
 30
0.0
 10
8.8732956419
 20
7.7103418959
 30
0.0
 10
8.9412826097
 20
7.6989196263
 30
0.0
 10
8.9869137395
 20
7.6942545559
 30
0.0
 10
9.0097239103
 20
7.6926726652
 30
0.0
  0
SPLINE
  5
2B5
100
AcDbEntity
  8
0
100
AcDbSpline
 62
7
  6
CONTINUOUS
 70
0
 71
3
 72
49
 73
45
 74
0
 42
0.0000001
 43
0.0000001
 44
0.0000000001
 40
0.0
 40
0.0
 40
0.0
 40
0.0
 40
0.0149596625
 40
0.0299342722
 40
0.044926103
 40
0.059937339
 40
0.0749700682
 40
0.0900262728
 40
0.1051078144
 40
0.1202164344
 40
0.1353537367
 40
0.1505211869
 40
0.1657201054
 40
0.1809516562
 40
0.1962168525
 40
0.2115165416
 40
0.2268514106
 40
0.2422219817
 40
0.257628606
 40
0.2730714736
 40
0.2885506017
 40
0.3040658455
 40
0.3351989523
 40
0.3664707788
 40
0.3978744558
 40
0.4294007993
 40
0.4610384973
 40
0.4927743263
 40
0.5245933945
 40
0.556479406
 40
0.5884149444
 40
0.6203817687
 40
0.6523611184
 40
0.6843340255
 40
0.7162816285
 40
0.7481854858
 40
0.7800278837
 40
0.8117921354
 40
0.8434628681
 40
0.8750262963
 40
0.9064704545
 40
0.9377855309
 40
0.968963612
 40
1.0
 40
1.0
 40
1.0
 40
1.0
 10
8.1937583697
 20
9.3628809757
 30
0.0
 10
8.1874264231
 20
9.3539987103
 30
0.0
 10
8.1750764153
 20
9.3359945215
 30
0.0
 10
8.1575288255
 20
9.3083238281
 30
0.0
 10
8.1409693269
 20
9.2800066687
 30
0.0
 10
8.1254172962
 20
9.2510759701
 30
0.0
 10
8.1108903137
 20
9.221564893
 30
0.0
 10
8.0974052845
 20
9.1915072269
 30
0.0
 10
8.084977446
 20
9.1609375522
 30
0.0
 10
8.0736211693
 20
9.1298908928
 30
0.0
 10
8.0633494682
 20
9.098402877
 30
0.0
 10
8.0541739773
 20
9.0665096701
 30
0.0
 10
8.0461054297
 20
9.034247802
 30
0.0
 10
8.039152822
 20
9.0016543451
 30
0.0
 10
8.0333242852
 20
8.9687666491
 30
0.0
 10
8.0286264325
 20
8.9356224556
 30
0.0
 10
8.0250645466
 20
8.9022597865
 30
0.0
 10
8.0226428945
 20
8.8687169004
 30
0.0
 10
8.0213639922
 20
8.835032251
 30
0.0
 10
8.0212294798
 20
8.8012445883
 30
0.0
 10
8.0222394526
 20
8.7673921869
 30
0.0
 10
8.0251132164
 20
8.7221747716
 30
0.0
 10
8.0315682027
 20
8.6656790549
 30
0.0
 10
8.0438327166
 20
8.5983355731
 30
0.0
 10
8.0605684505
 20
8.5316651211
 30
0.0
 10
8.0816981837
 20
8.4659751068
 30
0.0
 10
8.1071247645
 20
8.4015657824
 30
0.0
 10
8.13673141
 20
8.3387322017
 30
0.0
 10
8.1703822716
 20
8.2777619909
 30
0.0
 10
8.2079230007
 20
8.2189342571
 30
0.0
 10
8.2491815195
 20
8.162518288
 30
0.0
 10
8.2939687959
 20
8.1087723493
 30
0.0
 10
8.3420797018
 20
8.0579425102
 30
0.0
 10
8.393293949
 20
8.0102615388
 30
0.0
 10
8.4473770432
 20
7.9659477956
 30
0.0
 10
8.5040813844
 20
7.9252042668
 30
0.0
 10
8.5631473979
 20
7.8882176601
 30
0.0
 10
8.6243047138
 20
7.8551575509
 30
0.0
 10
8.6872733585
 20
7.8261756172
 30
0.0
 10
8.7517651275
 20
7.8014049286
 30
0.0
 10
8.8174844563
 20
7.7809592578
 30
0.0
 10
8.884131349
 20
7.764932756
 30
0.0
 10
8.951396624
 20
7.7533993574
 30
0.0
 10
8.9965612981
 20
7.7487301373
 30
0.0
 10
9.019137945
 20
7.7471644415
 30
0.0
  0
SPLINE
  5
2B6
100
AcDbEntity
  8
0
100
AcDbSpline
 62
7
  6
CONTINUOUS
 70
0
 71
3
 72
44
 73
40
 74
0
 42
0.0000001
 43
0.0000001
 44
0.0000000001
 40
0.0
 40
0.0
 40
0.0
 40
0.0
 40
0.0149712365
 40
0.0299611461
 40
0.0449716942
 40
0.0600047495
 40
0.0750620728
 40
0.090145317
 40
0.1052560094
 40
0.1203955564
 40
0.135565229
 40
0.150766162
 40
0.1812613433
 40
0.2118916551
 40
0.2426609055
 40
0.2735704768
 40
0.3046193347
 40
0.3358040771
 40
0.3671190233
 40
0.3985563353
 40
0.4301061716
 40
0.4617568693
 40
0.4934951487
 40
0.5253063383
 40
0.5571746162
 40
0.5890832649
 40
0.6210149365
 40
0.6529519244
 40
0.6848764396
 40
0.7167708875
 40
0.7486181417
 40
0.780401814
 40
0.8121065153
 40
0.8437181055
 40
0.875223934
 40
0.9066130286
 40
0.9378764193
 40
0.9690068451
 40
1.0
 40
1.0
 40
1.0
 40
1.0
 10
8.2293928457
 20
9.3777163413
 30
0.0
 10
8.2238748601
 20
9.3686739047
 30
0.0
 10
8.2131468799
 20
9.3503834409
 30
0.0
 10
8.1980101603
 20
9.3223869898
 30
0.0
 10
8.1838345094
 20
9.2938425945
 30
0.0
 10
8.1706356898
 20
9.2647813366
 30
0.0
 10
8.1584275798
 20
9.2352345305
 30
0.0
 10
8.1472235781
 20
9.2052339554
 30
0.0
 10
8.1370355636
 20
9.1748119626
 30
0.0
 10
8.1278745774
 20
9.1440014315
 30
0.0
 10
8.119750469
 20
9.1128350825
 30
0.0
 10
8.1103031478
 20
9.0708107294
 30
0.0
 10
8.1011333734
 20
9.0175440203
 30
0.0
 10
8.0944050519
 20
8.952824603
 30
0.0
 10
8.0919668491
 20
8.8875077778
 30
0.0
 10
8.0938292157
 20
8.8218767891
 30
0.0
 10
8.099983512
 20
8.7562136925
 30
0.0
 10
8.1104028161
 20
8.6908012521
 30
0.0
 10
8.1250418518
 20
8.6259208996
 30
0.0
 10
8.143837244
 20
8.5618517622
 30
0.0
 10
8.166707757
 20
8.4988694034
 30
0.0
 10
8.1935546892
 20
8.437244674
 30
0.0
 10
8.2242622962
 20
8.3772425559
 30
0.0
 10
8.2586982901
 20
8.3191210378
 30
0.0
 10
8.296714406
 20
8.2631300175
 30
0.0
 10
8.3381470397
 20
8.2095102412
 30
0.0
 10
8.3828179304
 20
8.1584922675
 30
0.0
 10
8.4305349198
 20
8.1102954749
 30
0.0
 10
8.4810927946
 20
8.065127145
 30
0.0
 10
8.5342741564
 20
8.0231815751
 30
0.0
 10
8.5898503497
 20
7.9846392514
 30
0.0
 10
8.6475824313
 20
7.9496660759
 30
0.0
 10
8.7072221988
 20
7.9184126647
 30
0.0
 10
8.7685132001
 20
7.8910136655
 30
0.0
 10
8.8311919467
 20
7.8675872174
 30
0.0
 10
8.8949886518
 20
7.8482343799
 30
0.0
 10
8.9596297948
 20
7.833038862
 30
0.0
 10
9.0248337287
 20
7.8220664883
 30
0.0
 10
9.0685983015
 20
7.8175883029
 30
0.0
 10
9.0904753858
 20
7.816071122
 30
0.0
  0
SPLINE
  5
2B7
100
AcDbEntity
  8
0
100
AcDbSpline
 62
7
  6
CONTINUOUS
 70
0
 71
3
 72
48
 73
44
 74
0
 42
0.0000001
 43
0.0000001
 44
0.0000000001
 40
0.0
 40
0.0
 40
0.0
 40
0.0
 40
0.0149572555
 40
0.0299273356
 40
0.0449126643
 40
0.0599155845
 40
0.0749383468
 40
0.0899831026
 40
0.1050518854
 40
0.1201466096
 40
0.1352690557
 40
0.1504208622
 40
0.1656035238
 40
0.1808183745
 40
0.1960665941
 40
0.2113491936
 40
0.2266670148
 40
0.242020732
 40
0.2574108386
 40
0.2728376599
 40
0.303797302
 40
0.3349033594
 40
0.3661521788
 40
0.3975374762
 40
0.4290504857
 40
0.4606801474
 40
0.4924133296
 40
0.5242350798
 40
0.5561289014
 40
0.5880770515
 40
0.6200608528
 40
0.6520610169
 40
0.6840579756
 40
0.7160322154
 40
0.7479646116
 40
0.7798367574
 40
0.8116312841
 40
0.8433321682
 40
0.8749250252
 40
0.9063973589
 40
0.9377389177
 40
0.9689414349
 40
1.0
 40
1.0
 40
1.0
 40
1.0
 10
8.3844511965
 20
9.4223977084
 30
0.0
 10
8.3783277863
 20
9.4144388767
 30
0.0
 10
8.366367415
 20
9.3982874975
 30
0.0
 10
8.349320977
 20
9.3734075011
 30
0.0
 10
8.3331808036
 20
9.3478934945
 30
0.0
 10
8.3179664985
 20
9.321776005
 30
0.0
 10
8.3036957577
 20
9.2950859705
 30
0.0
 10
8.2903856875
 20
9.2678549151
 30
0.0
 10
8.278051905
 20
9.2401151369
 30
0.0
 10
8.2667089964
 20
9.2118994756
 30
0.0
 10
8.2563705004
 20
9.1832412908
 30
0.0
 10
8.2470484264
 20
9.154174583
 30
0.0
 10
8.2387540248
 20
9.124733687
 30
0.0
 10
8.2314969165
 20
9.0949535075
 30
0.0
 10
8.2252857364
 20
9.0648692713
 30
0.0
 10
8.2201278885
 20
9.0345165863
 30
0.0
 10
8.2160292757
 20
9.0039313695
 30
0.0
 10
8.2129949653
 20
8.973149912
 30
0.0
 10
8.2110283342
 20
8.9422081972
 30
0.0
 10
8.2098315086
 20
8.9007436611
 30
0.0
 10
8.2110231264
 20
8.8486864369
 30
0.0
 10
8.2167300344
 20
8.7862510542
 30
0.0
 10
8.2266876975
 20
8.7240608796
 30
0.0
 10
8.2408486291
 20
8.6624118717
 30
0.0
 10
8.2591454068
 20
8.6015948231
 30
0.0
 10
8.2814911707
 20
8.5418972154
 30
0.0
 10
8.3077800008
 20
8.4836010187
 30
0.0
 10
8.3378873969
 20
8.4269815954
 30
0.0
 10
8.3716708579
 20
8.3723063399
 30
0.0
 10
8.4089705994
 20
8.3198334683
 30
0.0
 10
8.4496102941
 20
8.2698108056
 30
0.0
 10
8.4933978998
 20
8.2224746311
 30
0.0
 10
8.5401265576
 20
8.1780485772
 30
0.0
 10
8.5895755191
 20
8.1367425352
 30
0.0
 10
8.6415112251
 20
8.0987517097
 30
0.0
 10
8.6956883954
 20
8.0642557089
 30
0.0
 10
8.7518511803
 20
8.0334177006
 30
0.0
 10
8.8097343246
 20
8.0063836523
 30
0.0
 10
8.8690645033
 20
7.9832816208
 30
0.0
 10
8.9295611916
 20
7.9642210818
 30
0.0
 10
8.9909394841
 20
7.9492926
 30
0.0
 10
9.05290561
 20
7.938567231
 30
0.0
 10
9.0945201314
 20
7.9342426024
 30
0.0
 10
9.1153219936
 20
7.9327999884
 30
0.0
  0
SPLINE
  5
2B8
100
AcDbEntity
  8
0
100
AcDbSpline
 62
7
  6
CONTINUOUS
 70
0
 71
3
 72
41
 73
37
 74
0
 42
0.0000001
 43
0.0000001
 44
0.0000000001
 40
0.0
 40
0.0
 40
0.0
 40
0.0
 40
0.030391768
 40
0.0456307145
 40
0.0608977364
 40
0.0915136667
 40
0.1222422429
 40
0.1376497369
 40
0.1530847951
 40
0.1840334797
 40
0.2150871936
 40
0.2462410453
 40
0.2774890638
 40
0.3088242724
 40
0.3402387709
 40
0.3717238263
 40
0.4032699695
 40
0.4348670978
 40
0.4665045827
 40
0.4981713808
 40
0.5298561488
 40
0.5615473594
 40
0.5932334197
 40
0.6249027891
 40
0.6565440974
 40
0.6881462618
 40
0.7196986015
 40
0.7511909497
 40
0.7826137621
 40
0.813958217
 40
0.8452163243
 40
0.8763809768
 40
0.9074461593
 40
0.9384066634
 40
0.9692590432
 40
1.0
 40
1.0
 40
1.0
 40
1.0
 10
8.6543483136
 20
9.4396421796
 30
0.0
 10
8.6522525233
 20
9.4238553509
 30
0.0
 10
8.649748258
 20
9.4000609299
 30
0.0
 10
8.6476885638
 20
9.3682142764
 30
0.0
 10
8.6464777007
 20
9.33620568
 30
0.0
 10
8.6465676053
 20
9.2960411547
 30
0.0
 10
8.6487879487
 20
9.2558644847
 30
0.0
 10
8.6518358637
 20
9.2237421614
 30
0.0
 10
8.6557379339
 20
9.1915962236
 30
0.0
 10
8.6622049618
 20
9.1515173427
 30
0.0
 10
8.6724721822
 20
9.1037736172
 30
0.0
 10
8.6852242587
 20
9.056469787
 30
0.0
 10
8.7004249715
 20
9.0097403043
 30
0.0
 10
8.7180312995
 20
8.9637169178
 30
0.0
 10
8.7379934084
 20
8.9185296585
 30
0.0
 10
8.7602548338
 20
8.8743061115
 30
0.0
 10
8.7847526299
 20
8.8311711566
 30
0.0
 10
8.8114175507
 20
8.7892465913
 30
0.0
 10
8.8401742434
 20
8.7486507966
 30
0.0
 10
8.8709414614
 20
8.7094984031
 30
0.0
 10
8.9036322924
 20
8.6718999696
 30
0.0
 10
8.9381544026
 20
8.6359616729
 30
0.0
 10
8.9744102963
 20
8.6017850099
 30
0.0
 10
9.0122975894
 20
8.5694665117
 30
0.0
 10
9.0517092975
 20
8.5390974739
 30
0.0
 10
9.0925341332
 20
8.5107636948
 30
0.0
 10
9.1346568199
 20
8.4845452357
 30
0.0
 10
9.1779584179
 20
8.4605161966
 30
0.0
 10
9.2223166567
 20
8.4387445122
 30
0.0
 10
9.2676062821
 20
8.4192917462
 30
0.0
 10
9.3136993873
 20
8.4022129554
 30
0.0
 10
9.3604658523
 20
8.3875564386
 30
0.0
 10
9.4077734104
 20
8.3753638211
 30
0.0
 10
9.4554890434
 20
8.3656694705
 30
0.0
 10
9.5034760175
 20
8.3585012702
 30
0.0
 10
9.5356208299
 20
8.3554141039
 30
0.0
 10
9.5516905435
 20
8.3542996655
 30
0.0
  0
SPLINE
  5
2B9
100
AcDbEntity
  8
0
100
AcDbSpline
 62
7
  6
CONTINUOUS
 70
0
 71
3
 72
43
 73
39
 74
0
 42
0.0000001
 43
0.0000001
 44
0.0000000001
 40
0.0
 40
0.0
 40
0.0
 40
0.0
 40
0.0304254346
 40
0.0456808908
 40
0.0609641441
 40
0.0916115308
 40
0.1223697253
 40
0.1377911695
 40
0.1532395651
 40
0.1842130118
 40
0.2152885928
 40
0.2464611892
 40
0.2777246668
 40
0.3090719488
 40
0.3404950958
 40
0.3719853937
 40
0.4035334467
 40
0.435129276
 40
0.4667624228
 40
0.4984220548
 40
0.5300970755
 40
0.5617762356
 40
0.593448245
 40
0.6251018847
 40
0.6567261188
 40
0.6883102045
 40
0.7198438007
 40
0.7355897772
 40
0.7513194946
 40
0.7827232206
 40
0.814048881
 40
0.8452887666
 40
0.8764360143
 40
0.9074848535
 40
0.9384301715
 40
0.9538641063
 40
0.9692714335
 40
1.0
 40
1.0
 40
1.0
 40
1.0
 10
8.731757879
 20
9.4311728782
 30
0.0
 10
8.7301458919
 20
9.4165265369
 30
0.0
 10
8.7283122887
 20
9.3944660499
 30
0.0
 10
8.7270344523
 20
9.3649668894
 30
0.0
 10
8.7265325314
 20
9.335336074
 30
0.0
 10
8.7273677623
 20
9.2981877234
 30
0.0
 10
8.7301428744
 20
9.2610668687
 30
0.0
 10
8.7335206875
 20
9.2314097723
 30
0.0
 10
8.7376764461
 20
9.2017464158
 30
0.0
 10
8.7443167244
 20
9.1647889916
 30
0.0
 10
8.7545621428
 20
9.1208009125
 30
0.0
 10
8.7670636313
 20
9.077253496
 30
0.0
 10
8.7817865695
 20
9.0342673313
 30
0.0
 10
8.7986903729
 20
8.9919604991
 30
0.0
 10
8.8177284333
 20
8.9504494601
 30
0.0
 10
8.8388482931
 20
8.9098484113
 30
0.0
 10
8.8619917773
 20
8.8702690621
 30
0.0
 10
8.8870951563
 20
8.8318203053
 30
0.0
 10
8.9140893211
 20
8.7946079278
 30
0.0
 10
8.9428999641
 20
8.7587343133
 30
0.0
 10
8.973447785
 20
8.7242981598
 30
0.0
 10
9.0056487117
 20
8.691394219
 30
0.0
 10
9.039414148
 20
8.6601130248
 30
0.0
 10
9.0746511453
 20
8.6305406879
 30
0.0
 10
9.1112629203
 20
8.6027585054
 30
0.0
 10
9.1491481368
 20
8.5768433151
 30
0.0
 10
9.1817110244
 20
8.5568519021
 30
0.0
 10
9.2082935599
 20
8.5418621971
 30
0.0
 10
9.2351840642
 20
8.5275657898
 30
0.0
 10
9.2693909846
 20
8.510983772
 30
0.0
 10
9.3112988954
 20
8.493194826
 30
0.0
 10
9.3539308146
 20
8.4775741686
 30
0.0
 10
9.3971690289
 20
8.464165114
 30
0.0
 10
9.4408939273
 20
8.4530048131
 30
0.0
 10
9.4776709703
 20
8.4455972828
 30
0.0
 10
9.5072139854
 20
8.4408265695
 30
0.0
 10
9.5367656973
 20
8.4368347823
 30
0.0
 10
9.5590205329
 20
8.434705081
 30
0.0
 10
9.5738664622
 20
8.4336755123
 30
0.0
  0
SPLINE
  5
2BA
100
AcDbEntity
  8
0
100
AcDbSpline
 62
7
  6
CONTINUOUS
 70
0
 71
3
 72
39
 73
35
 74
0
 42
0.0000001
 43
0.0000001
 44
0.0000000001
 40
0.0
 40
0.0
 40
0.0
 40
0.0
 40
0.0307314061
 40
0.0615526656
 40
0.0924611953
 40
0.1234537581
 40
0.154526489
 40
0.1856749247
 40
0.2168940463
 40
0.2481783216
 40
0.2795217445
 40
0.3109178779
 40
0.3423599088
 40
0.3738406987
 40
0.4053528305
 40
0.4368886628
 40
0.4684403889
 40
0.5000000914
 40
0.5315597937
 40
0.5631115181
 40
0.5946473466
 40
0.6261594737
 40
0.6576402581
 40
0.6890822822
 40
0.7204784067
 40
0.7518218202
 40
0.7831060861
 40
0.8143251946
 40
0.8454736211
 40
0.876546337
 40
0.9075388688
 40
0.9384474676
 40
0.9692685221
 40
1.0
 40
1.0
 40
1.0
 40
1.0
 10
8.8771734199
 20
9.4001808796
 30
0.0
 10
8.8783639397
 20
9.3876539452
 30
0.0
 10
8.881297053
 20
9.3626121736
 30
0.0
 10
8.887329681
 20
9.3252250756
 30
0.0
 10
8.8949901519
 20
9.2880274332
 30
0.0
 10
8.9042633884
 20
9.2510928447
 30
0.0
 10
8.9151313133
 20
9.2144932077
 30
0.0
 10
8.9275726307
 20
9.178300067
 30
0.0
 10
8.9415629595
 20
9.1425840693
 30
0.0
 10
8.9570749482
 20
9.1074149642
 30
0.0
 10
8.9740783312
 20
9.0728614539
 30
0.0
 10
8.9925398451
 20
9.0389910016
 30
0.0
 10
9.0124233762
 20
9.0058697241
 30
0.0
 10
9.0336900839
 20
8.9735622968
 30
0.0
 10
9.0562984763
 20
8.9421318434
 30
0.0
 10
9.0802043558
 20
8.9116397179
 30
0.0
 10
9.1053610008
 20
8.8821454388
 30
0.0
 10
9.1317192897
 20
8.8537066064
 30
0.0
 10
9.1592277938
 20
8.8263788048
 30
0.0
 10
9.1878327577
 20
8.800215373
 30
0.0
 10
9.2174783026
 20
8.7752673847
 30
0.0
 10
9.2481065515
 20
8.7515835776
 30
0.0
 10
9.2796577361
 20
8.7292102689
 30
0.0
 10
9.3120702146
 20
8.7081911249
 30
0.0
 10
9.3452806849
 20
8.6885671885
 30
0.0
 10
9.379224311
 20
8.6703768209
 30
0.0
 10
9.4138348391
 20
8.6536556332
 30
0.0
 10
9.4490446584
 20
8.6384362565
 30
0.0
 10
9.4847850016
 20
8.6247484335
 30
0.0
 10
9.5209860951
 20
8.6126189536
 30
0.0
 10
9.5575772215
 20
8.6020715846
 30
0.0
 10
9.5944870633
 20
8.5931269873
 30
0.0
 10
9.6316426676
 20
8.5858026019
 30
0.0
 10
9.6565677219
 20
8.5820035898
 30
0.0
 10
9.6690459215
 20
8.5803797986
 30
0.0
  0
SPLINE
  5
2BB
100
AcDbEntity
  8
0
100
AcDbSpline
 62
7
  6
CONTINUOUS
 70
0
 71
3
 72
39
 73
35
 74
0
 42
0.0000001
 43
0.0000001
 44
0.0000000001
 40
0.0
 40
0.0
 40
0.0
 40
0.0
 40
0.0958316475
 40
0.1891006073
 40
0.279240642
 40
0.3229674356
 40
0.365711151
 40
0.4074094627
 40
0.4480020772
 40
0.4874317741
 40
0.5256439547
 40
0.5625873626
 40
0.5982141631
 40
0.6324802323
 40
0.6653459096
 40
0.6967758341
 40
0.7267403598
 40
0.7552153214
 40
0.7821838024
 40
0.8076365273
 40
0.831573723
 40
0.8540068598
 40
0.8749607899
 40
0.8944774057
 40
0.9126188108
 40
0.9294731124
 40
0.9451592998
 40
0.9598338063
 40
0.9668558128
 40
0.9737028706
 40
0.9804062828
 40
0.9869996808
 40
0.9935186293
 40
1.0
 40
1.0
 40
1.0
 40
1.0
 10
9.5800848795
 20
11.7419130308
 30
0.0
 10
9.5890447512
 20
11.7412916616
 30
0.0
 10
9.6067119972
 20
11.7398684841
 30
0.0
 10
9.6327435645
 20
11.7371517855
 30
0.0
 10
9.6538565051
 20
11.7344118711
 30
0.0
 10
9.6702242145
 20
11.731945507
 30
0.0
 10
9.6820760448
 20
11.7299874791
 30
0.0
 10
9.6936084537
 20
11.7279059175
 30
0.0
 10
9.7048021921
 20
11.7257042103
 30
0.0
 10
9.7156385635
 20
11.7233861456
 30
0.0
 10
9.7260994835
 20
11.7209555616
 30
0.0
 10
9.7361675062
 20
11.7184165771
 30
0.0
 10
9.7458258527
 20
11.7157734647
 30
0.0
 10
9.7550584401
 20
11.7130306287
 30
0.0
 10
9.7638499287
 20
11.7101927495
 30
0.0
 10
9.7721857163
 20
11.70726449
 30
0.0
 10
9.7800520262
 20
11.7042508648
 30
0.0
 10
9.7874358618
 20
11.7011567936
 30
0.0
 10
9.7943251208
 20
11.6979875001
 30
0.0
 10
9.8007085484
 20
11.694748141
 30
0.0
 10
9.80657581
 20
11.6914439816
 30
0.0
 10
9.8119175209
 20
11.6880803022
 30
0.0
 10
9.8167251567
 20
11.6846621799
 30
0.0
 10
9.8209912261
 20
11.6811947046
 30
0.0
 10
9.824708837
 20
11.6776824664
 30
0.0
 10
9.8278720024
 20
11.6741297209
 30
0.0
 10
9.8304744378
 20
11.6705408466
 30
0.0
 10
9.8321958517
 20
11.6674780062
 30
0.0
 10
9.8332688586
 20
11.6650255413
 30
0.0
 10
9.8339185568
 20
11.6632084874
 30
0.0
 10
9.8344243507
 20
11.6613878435
 30
0.0
 10
9.8347858705
 20
11.6595643576
 30
0.0
 10
9.8350029069
 20
11.6577391062
 30
0.0
 10
9.8350512039
 20
11.6565201658
 30
0.0
 10
9.8350511991
 20
11.6559127284
 30
0.0
  0
SPLINE
  5
2BC
100
AcDbEntity
  8
0
100
AcDbSpline
 62
7
  6
CONTINUOUS
 70
0
 71
3
 72
38
 73
34
 74
0
 42
0.0000001
 43
0.0000001
 44
0.0000000001
 40
0.0
 40
0.0
 40
0.0
 40
0.0
 40
0.0532160408
 40
0.1051359903
 40
0.1554664575
 40
0.2040784101
 40
0.2509400316
 40
0.2960691487
 40
0.3813147354
 40
0.4602577587
 40
0.4975092685
 40
0.5333511648
 40
0.5678304484
 40
0.6009913305
 40
0.6328720086
 40
0.6635083144
 40
0.6929304962
 40
0.7211659901
 40
0.7482385023
 40
0.7741669538
 40
0.7989695007
 40
0.8226577755
 40
0.8452433744
 40
0.8667337992
 40
0.887133517
 40
0.9064482868
 40
0.9246789167
 40
0.9418320556
 40
0.9579136872
 40
0.9655593794
 40
0.9729454689
 40
0.986951999
 40
1.0
 40
1.0
 40
1.0
 40
1.0
 10
11.1167570282
 20
9.1690008338
 30
0.0
 10
11.1152513481
 20
9.1649281742
 30
0.0
 10
11.1122338964
 20
9.1568977947
 30
0.0
 10
11.107657003
 20
9.1450670495
 30
0.0
 10
11.103110091
 20
9.1336280604
 30
0.0
 10
11.0986156401
 20
9.1226128961
 30
0.0
 10
11.0941846332
 20
9.1120307096
 30
0.0
 10
11.0884741597
 20
9.0987444431
 30
0.0
 10
11.0815057303
 20
9.083150461
 30
0.0
 10
11.0744794179
 20
9.0682900997
 30
0.0
 10
11.0689712043
 20
9.0571745754
 30
0.0
 10
11.0649733771
 20
9.0493603868
 30
0.0
 10
11.0610253193
 20
9.0418965144
 30
0.0
 10
11.0571243431
 20
9.0347743175
 30
0.0
 10
11.0532678712
 20
9.0279863032
 30
0.0
 10
11.0494539466
 20
9.02152612
 30
0.0
 10
11.0456807824
 20
9.0153885517
 30
0.0
 10
11.0419470928
 20
9.0095695025
 30
0.0
 10
11.0382520547
 20
9.0040659876
 30
0.0
 10
11.0345949799
 20
8.9988762361
 30
0.0
 10
11.0309761023
 20
8.9939995094
 30
0.0
 10
11.0273955119
 20
8.9894365138
 30
0.0
 10
11.0238542862
 20
8.9851890759
 30
0.0
 10
11.0203538307
 20
8.9812604797
 30
0.0
 10
11.0168958259
 20
8.977655763
 30
0.0
 10
11.0134833794
 20
8.9743811613
 30
0.0
 10
11.0101190488
 20
8.9714456397
 30
0.0
 10
11.0068076895
 20
8.9688596035
 30
0.0
 10
11.0040508615
 20
8.9669764914
 30
0.0
 10
11.0018749372
 20
8.9656675203
 30
0.0
 10
10.9997951712
 20
8.9645312641
 30
0.0
 10
10.9972401647
 20
8.9633507148
 30
0.0
 10
10.9951397932
 20
8.9626498277
 30
0.0
 10
10.9941086297
 20
8.9623849883
 30
0.0
  0
SPLINE
  5
2BD
100
AcDbEntity
  8
0
100
AcDbSpline
 62
7
  6
CONTINUOUS
 70
0
 71
3
 72
39
 73
35
 74
0
 42
0.0000001
 43
0.0000001
 44
0.0000000001
 40
0.0
 40
0.0
 40
0.0
 40
0.0
 40
0.0958316475
 40
0.1891006073
 40
0.279240642
 40
0.3229674356
 40
0.365711151
 40
0.4074094627
 40
0.4480020772
 40
0.4874317741
 40
0.5256439547
 40
0.5625873626
 40
0.5982141631
 40
0.6324802323
 40
0.6653459096
 40
0.6967758341
 40
0.7267403598
 40
0.7552153214
 40
0.7821838024
 40
0.8076365273
 40
0.831573723
 40
0.8540068598
 40
0.8749607899
 40
0.8944774057
 40
0.9126188108
 40
0.9294731124
 40
0.9451592998
 40
0.9598338063
 40
0.9668558128
 40
0.9737028706
 40
0.9804062828
 40
0.9869996808
 40
0.9935186293
 40
1.0
 40
1.0
 40
1.0
 40
1.0
 10
8.9977425086
 20
11.1794134617
 30
0.0
 10
9.0067023803
 20
11.1787920925
 30
0.0
 10
9.0243696263
 20
11.177368915
 30
0.0
 10
9.0504011936
 20
11.1746522164
 30
0.0
 10
9.0715141342
 20
11.171912302
 30
0.0
 10
9.0878818436
 20
11.1694459379
 30
0.0
 10
9.0997336739
 20
11.16748791
 30
0.0
 10
9.1112660828
 20
11.1654063484
 30
0.0
 10
9.1224598212
 20
11.1632046412
 30
0.0
 10
9.1332961927
 20
11.1608865765
 30
0.0
 10
9.1437571126
 20
11.1584559925
 30
0.0
 10
9.1538251353
 20
11.155917008
 30
0.0
 10
9.1634834818
 20
11.1532738956
 30
0.0
 10
9.1727160692
 20
11.1505310596
 30
0.0
 10
9.1815075578
 20
11.1476931803
 30
0.0
 10
9.1898433454
 20
11.1447649209
 30
0.0
 10
9.1977096553
 20
11.1417512957
 30
0.0
 10
9.2050934909
 20
11.1386572245
 30
0.0
 10
9.2119827499
 20
11.135487931
 30
0.0
 10
9.2183661775
 20
11.1322485719
 30
0.0
 10
9.2242334391
 20
11.1289444125
 30
0.0
 10
9.22957515
 20
11.1255807331
 30
0.0
 10
9.2343827858
 20
11.1221626108
 30
0.0
 10
9.2386488552
 20
11.1186951355
 30
0.0
 10
9.2423664662
 20
11.1151828973
 30
0.0
 10
9.2455296315
 20
11.1116301518
 30
0.0
 10
9.2481320669
 20
11.1080412775
 30
0.0
 10
9.2498534808
 20
11.1049784371
 30
0.0
 10
9.2509264877
 20
11.1025259722
 30
0.0
 10
9.2515761859
 20
11.1007089183
 30
0.0
 10
9.2520819798
 20
11.0988882744
 30
0.0
 10
9.2524434996
 20
11.0970647885
 30
0.0
 10
9.252660536
 20
11.0952395371
 30
0.0
 10
9.252708833
 20
11.0940205967
 30
0.0
 10
9.2527088282
 20
11.0934131593
 30
0.0
  0
SPLINE
  5
2BE
100
AcDbEntity
  8
0
100
AcDbSpline
 62
7
  6
CONTINUOUS
 70
0
 71
3
 72
26
 73
22
 74
0
 42
0.0000001
 43
0.0000001
 44
0.0000000001
 40
0.0
 40
0.0
 40
0.0
 40
0.0
 40
0.0616472487
 40
0.1233175237
 40
0.1850335947
 40
0.2468177207
 40
0.308691404
 40
0.370675155
 40
0.4327882706
 40
0.4950486303
 40
0.5574725121
 40
0.6200744238
 40
0.6514488032
 40
0.6828722578
 40
0.7143460212
 40
0.745871221
 40
0.8090747815
 40
0.8724939711
 40
0.9042883305
 40
0.9361389869
 40
1.0
 40
1.0
 40
1.0
 40
1.0
 10
12.0649267816
 20
7.4374174596
 30
0.0
 10
12.0528069716
 20
7.4257105912
 30
0.0
 10
12.0279277605
 20
7.4029398332
 30
0.0
 10
11.9888196704
 20
7.3708321415
 30
0.0
 10
11.948013334
 20
7.3408467368
 30
0.0
 10
11.9056129907
 20
7.3130604521
 30
0.0
 10
11.8617251309
 20
7.2875428913
 30
0.0
 10
11.8164604437
 20
7.2643583676
 30
0.0
 10
11.7699330315
 20
7.2435651941
 30
0.0
 10
11.7222599069
 20
7.2252156118
 30
0.0
 10
11.6735620606
 20
7.209355886
 30
0.0
 10
11.632256476
 20
7.1982551593
 30
0.0
 10
11.5988300888
 20
7.1906544071
 30
0.0
 10
11.5735609427
 20
7.1855933267
 30
0.0
 10
11.5481289503
 20
7.1811794316
 30
0.0
 10
11.5139973298
 20
7.1761571785
 30
0.0
 10
11.4709993064
 20
7.1715138156
 30
0.0
 10
11.4277475717
 20
7.1690636862
 30
0.0
 10
11.3930187714
 20
7.1684159511
 30
0.0
 10
11.3581646386
 20
7.1686451323
 30
0.0
 10
11.3320142715
 20
7.1698047806
 30
0.0
 10
11.3146004549
 20
7.1710124329
 30
0.0
  0
SPLINE
  5
2BF
100
AcDbEntity
  8
0
100
AcDbSpline
 62
7
  6
CONTINUOUS
 70
0
 71
3
 72
23
 73
19
 74
0
 42
0.0000001
 43
0.0000001
 44
0.0000000001
 40
0.0
 40
0.0
 40
0.0
 40
0.0
 40
0.0616213482
 40
0.1233265657
 40
0.185124666
 40
0.2470241644
 40
0.3090330379
 40
0.3711587045
 40
0.4334079548
 40
0.49578696
 40
0.5583012238
 40
0.6209554843
 40
0.6837539218
 40
0.7467000406
 40
0.8097958025
 40
0.8730434983
 40
0.9364469797
 40
1.0
 40
1.0
 40
1.0
 40
1.0
 10
12.2165202022
 20
7.6285595153
 30
0.0
 10
12.206225694
 20
7.6228468732
 30
0.0
 10
12.1854086051
 20
7.6117947898
 30
0.0
 10
12.1535701217
 20
7.5963716954
 30
0.0
 10
12.1211358263
 20
7.5821107886
 30
0.0
 10
12.0881457055
 20
7.5690298475
 30
0.0
 10
12.0546398375
 20
7.5571445015
 30
0.0
 10
12.0206589863
 20
7.5464693695
 30
0.0
 10
11.9862445139
 20
7.5370173804
 30
0.0
 10
11.9514383258
 20
7.5287999113
 30
0.0
 10
11.9162827414
 20
7.5218271385
 30
0.0
 10
11.8808205732
 20
7.5161073353
 30
0.0
 10
11.8450949246
 20
7.5116474952
 30
0.0
 10
11.809149326
 20
7.5084531666
 30
0.0
 10
11.7730275963
 20
7.50652792
 30
0.0
 10
11.736773034
 20
7.5058742892
 30
0.0
 10
11.7004309955
 20
7.5064931561
 30
0.0
 10
11.6762016727
 20
7.5077518043
 30
0.0
 10
11.6640883783
 20
7.5085918641
 30
0.0
  0
SPLINE
  5
2C0
100
AcDbEntity
  8
0
100
AcDbSpline
 62
7
  6
CONTINUOUS
 70
0
 71
3
 72
44
 73
40
 74
0
 42
0.0000001
 43
0.0000001
 44
0.0000000001
 40
0.0
 40
0.0
 40
0.0
 40
0.0
 40
0.0151898148
 40
0.0304071882
 40
0.0456523658
 40
0.0609255145
 40
0.0915533319
 40
0.1222931079
 40
0.1377058781
 40
0.153145979
 40
0.184104024
 40
0.2151659939
 40
0.2463269071
 40
0.2775807274
 40
0.3089204377
 40
0.3403381211
 40
0.3718250503
 40
0.4033717827
 40
0.4349682619
 40
0.4666039232
 40
0.4982678035
 40
0.5299486541
 40
0.5616350547
 40
0.5933155288
 40
0.6249786601
 40
0.6566132075
 40
0.6882082197
 40
0.719753147
 40
0.7512379511
 40
0.7826532116
 40
0.8139902239
 40
0.8452411076
 40
0.8608332892
 40
0.8764013857
 40
0.9074600714
 40
0.9384144996
 40
0.9538526888
 40
0.9692640468
 40
1.0
 40
1.0
 40
1.0
 40
1.0
 10
11.3586885565
 20
9.2507809665
 30
0.0
 10
11.3577572929
 20
9.2432710572
 30
0.0
 10
11.3560953654
 20
9.2282117327
 30
0.0
 10
11.3542073356
 20
9.2055440775
 30
0.0
 10
11.3529229565
 20
9.1827923348
 30
0.0
 10
11.3520158627
 20
9.1523403912
 30
0.0
 10
11.3523989392
 20
9.1141415757
 30
0.0
 10
11.3547960226
 20
9.0759468645
 30
0.0
 10
11.3579159016
 20
9.0454179222
 30
0.0
 10
11.3618431965
 20
9.0148727168
 30
0.0
 10
11.3682543805
 20
8.9768000757
 30
0.0
 10
11.3783153709
 20
8.9314611308
 30
0.0
 10
11.3907228512
 20
8.8865540455
 30
0.0
 10
11.4054418988
 20
8.842205188
 30
0.0
 10
11.4224312803
 20
8.7985383539
 30
0.0
 10
11.4416433903
 20
8.7556756934
 30
0.0
 10
11.4630244324
 20
8.7137370301
 30
0.0
 10
11.4865145564
 20
8.6728396205
 30
0.0
 10
11.5120480307
 20
8.6330978054
 30
0.0
 10
11.5395534144
 20
8.594622692
 30
0.0
 10
11.5689537619
 20
8.5575218448
 30
0.0
 10
11.6001668427
 20
8.5218989901
 30
0.0
 10
11.6331053686
 20
8.4878537278
 30
0.0
 10
11.667677237
 20
8.4554812542
 30
0.0
 10
11.7037857866
 20
8.4248720981
 30
0.0
 10
11.7413300671
 20
8.3961118684
 30
0.0
 10
11.7802051133
 20
8.3692810176
 30
0.0
 10
11.8203022606
 20
8.3444546128
 30
0.0
 10
11.8615093575
 20
8.3217021453
 30
0.0
 10
11.9037113958
 20
8.3010872412
 30
0.0
 10
11.9467896465
 20
8.2826678296
 30
0.0
 10
11.9833477374
 20
8.2691801099
 30
0.0
 10
12.0129109111
 20
8.2595388149
 30
0.0
 10
12.0426188255
 20
8.2506826159
 30
0.0
 10
12.0800721243
 20
8.2410655185
 30
0.0
 10
12.1179080124
 20
8.2334039959
 30
0.0
 10
12.1483040021
 20
8.228472826
 30
0.0
 10
12.1787094779
 20
8.224349547
 30
0.0
 10
12.2016084656
 20
8.2221533222
 30
0.0
 10
12.2168841519
 20
8.2210939498
 30
0.0
  0
SPLINE
  5
2C1
100
AcDbEntity
  8
0
100
AcDbSpline
 62
7
  6
CONTINUOUS
 70
0
 71
3
 72
23
 73
19
 74
0
 42
0.0000001
 43
0.0000001
 44
0.0000000001
 40
0.0
 40
0.0
 40
0.0
 40
0.0
 40
0.0615933065
 40
0.1232600516
 40
0.185012845
 40
0.2468637056
 40
0.3088239774
 40
0.3709042745
 40
0.4331144047
 40
0.4954632925
 40
0.5579589641
 40
0.620608461
 40
0.6834177699
 40
0.7463920913
 40
0.8095350928
 40
0.87284914
 40
0.9363391224
 40
1.0
 40
1.0
 40
1.0
 40
1.0
 10
12.2628020101
 20
7.7148253016
 30
0.0
 10
12.2521988925
 20
7.707800462
 30
0.0
 10
12.2306808279
 20
7.694188128
 30
0.0
 10
12.1975541962
 20
7.6751333211
 30
0.0
 10
12.163609972
 20
7.6574594093
 30
0.0
 10
12.1289018234
 20
7.641194525
 30
0.0
 10
12.0934837533
 20
7.6263637923
 30
0.0
 10
12.0574110808
 20
7.6129903238
 30
0.0
 10
12.020740031
 20
7.6010950471
 30
0.0
 10
11.9835278373
 20
7.5906964279
 30
0.0
 10
11.9458325595
 20
7.5818105854
 30
0.0
 10
11.9077129788
 20
7.5744514343
 30
0.0
 10
11.86922853
 20
7.5686303894
 30
0.0
 10
11.830439245
 20
7.5643564468
 30
0.0
 10
11.7914057806
 20
7.5616362558
 30
0.0
 10
11.7521882987
 20
7.5604739693
 30
0.0
 10
11.7128493786
 20
7.5608715601
 30
0.0
 10
11.6866169283
 20
7.5621741457
 30
0.0
 10
11.673502413
 20
7.5630836404
 30
0.0
  0
SPLINE
  5
2C2
100
AcDbEntity
  8
0
100
AcDbSpline
 62
7
  6
CONTINUOUS
 70
0
 71
3
 72
23
 73
19
 74
0
 42
0.0000001
 43
0.0000001
 44
0.0000000001
 40
0.0
 40
0.0
 40
0.0
 40
0.0
 40
0.0616180918
 40
0.1233194791
 40
0.1851134333
 40
0.2470087246
 40
0.3090135674
 40
0.3711356068
 40
0.4333818474
 40
0.4957586536
 40
0.5582717045
 40
0.6209258921
 40
0.6837255453
 40
0.746674272
 40
0.8097740813
 40
0.8730274218
 40
0.9364382394
 40
1.0
 40
1.0
 40
1.0
 40
1.0
 10
12.2781137263
 20
7.7494665291
 30
0.0
 10
12.2682013754
 20
7.7438860581
 30
0.0
 10
12.2481519463
 20
7.7330882818
 30
0.0
 10
12.2174731405
 20
7.7180164183
 30
0.0
 10
12.1862070755
 20
7.7040766943
 30
0.0
 10
12.1543930661
 20
7.6912869175
 30
0.0
 10
12.1220705777
 20
7.6796626744
 30
0.0
 10
12.089279764
 20
7.6692185217
 30
0.0
 10
12.0560613508
 20
7.659967435
 30
0.0
 10
12.0224566454
 20
7.6519207323
 30
0.0
 10
11.9885073519
 20
7.6450885992
 30
0.0
 10
11.9542556718
 20
7.6394793297
 30
0.0
 10
11.9197441093
 20
7.6350998908
 30
0.0
 10
11.885015592
 20
7.6319558779
 30
0.0
 10
11.8501133328
 20
7.6300508549
 30
0.0
 10
11.8150800289
 20
7.6293873894
 30
0.0
 10
11.7799604392
 20
7.6299663991
 30
0.0
 10
11.7565458084
 20
7.6311785102
 30
0.0
 10
11.7448398537
 20
7.6319903209
 30
0.0
  0
SPLINE
  5
2C3
100
AcDbEntity
  8
0
100
AcDbSpline
 62
7
  6
CONTINUOUS
 70
0
 71
3
 72
23
 73
19
 74
0
 42
0.0000001
 43
0.0000001
 44
0.0000000001
 40
0.0
 40
0.0
 40
0.0
 40
0.0
 40
0.0615905593
 40
0.1232475907
 40
0.1849855133
 40
0.2468181276
 40
0.3087585252
 40
0.3708189893
 40
0.4330108967
 40
0.4953446434
 40
0.5578295977
 40
0.620474013
 40
0.6832849063
 40
0.7462683356
 40
0.809428824
 40
0.8727690546
 40
0.9362943154
 40
1.0
 40
1.0
 40
1.0
 40
1.0
 10
12.3283065009
 20
7.9029418156
 30
0.0
 10
12.3184342486
 20
7.8958820822
 30
0.0
 10
12.2983621699
 20
7.8821922599
 30
0.0
 10
12.2673564116
 20
7.8630023956
 30
0.0
 10
12.2354899157
 20
7.8451792061
 30
0.0
 10
12.2028186292
 20
7.8287539587
 30
0.0
 10
12.169398865
 20
7.8137548613
 30
0.0
 10
12.1352884519
 20
7.8002079298
 30
0.0
 10
12.1005463785
 20
7.7881365423
 30
0.0
 10
12.0652327581
 20
7.7775614597
 30
0.0
 10
12.0294086429
 20
7.7685009467
 30
0.0
 10
11.9931359681
 20
7.7609707147
 30
0.0
 10
11.9564774559
 20
7.7549836224
 30
0.0
 10
11.9194964614
 20
7.7505499905
 30
0.0
 10
11.8822570963
 20
7.7476775152
 30
0.0
 10
11.8448230506
 20
7.7463709556
 30
0.0
 10
11.8072604482
 20
7.7466327826
 30
0.0
 10
11.7822099502
 20
7.7478506804
 30
0.0
 10
11.7696864615
 20
7.7487191873
 30
0.0
  0
SPLINE
  5
2C4
100
AcDbEntity
  8
0
100
AcDbSpline
 62
7
  6
CONTINUOUS
 70
0
 71
3
 72
75
 73
71
 74
0
 42
0.0000001
 43
0.0000001
 44
0.0000000001
 40
0.0
 40
0.0
 40
0.0
 40
0.0
 40
0.0156747106
 40
0.0235325853
 40
0.0314031906
 40
0.0471815768
 40
0.0630097517
 40
0.0788855265
 40
0.094806462
 40
0.1107696439
 40
0.1267717934
 40
0.1347869015
 40
0.1428103615
 40
0.1588792321
 40
0.1749752631
 40
0.1910939888
 40
0.2072307445
 40
0.2233807074
 40
0.2395389397
 40
0.2557004313
 40
0.2718601435
 40
0.2880130533
 40
0.3041541968
 40
0.3202787132
 40
0.3363818868
 40
0.3524591892
 40
0.3685063201
 40
0.3845192457
 40
0.4004942371
 40
0.4164279054
 40
0.4323172352
 40
0.4481596145
 40
0.4639528626
 40
0.4796952536
 40
0.4953855367
 40
0.5110229532
 40
0.526607248
 40
0.5421386779
 40
0.5576180142
 40
0.5730465405
 40
0.5884260443
 40
0.603758805
 40
0.6190475748
 40
0.6342955549
 40
0.6495063665
 40
0.6646840169
 40
0.6798328599
 40
0.6949575527
 40
0.7100630076
 40
0.7251543415
 40
0.7402368215
 40
0.7553158093
 40
0.770396704
 40
0.7854848841
 40
0.8005856505
 40
0.8157041697
 40
0.8308454197
 40
0.8460141376
 40
0.8612147713
 40
0.8764514342
 40
0.891727865
 40
0.9070473908
 40
0.922412902
 40
0.9301142837
 40
0.9378280259
 40
0.953292302
 40
0.9688082452
 40
0.9765865192
 40
0.984378284
 40
1.0
 40
1.0
 40
1.0
 40
1.0
 10
11.3032536767
 20
9.2639928094
 30
0.0
 10
11.3206374956
 20
9.2627872374
 30
0.0
 10
11.3466974329
 20
9.260338041
 30
0.0
 10
11.3813158413
 20
9.2558096863
 30
0.0
 10
11.4159292061
 20
9.2504278551
 30
0.0
 10
11.459040584
 20
9.2421173528
 30
0.0
 10
11.510353697
 20
9.229651103
 30
0.0
 10
11.5611679032
 20
9.2147125802
 30
0.0
 10
11.6113602252
 20
9.1973379947
 30
0.0
 10
11.6608094221
 20
9.1775694829
 30
0.0
 10
11.7012784179
 20
9.1591496555
 30
0.0
 10
11.7331651063
 20
9.1432689759
 30
0.0
 10
11.7647396311
 20
9.1266167205
 30
0.0
 10
11.8035232432
 20
9.1044028807
 30
0.0
 10
11.8488337072
 20
9.0755902026
 30
0.0
 10
11.892830453
 20
9.0446764828
 30
0.0
 10
11.9354069552
 20
9.0117365178
 30
0.0
 10
11.9764609132
 20
8.9768495266
 30
0.0
 10
12.0158934684
 20
8.9400995241
 30
0.0
 10
12.0536097165
 20
8.9015749687
 30
0.0
 10
12.0895188601
 20
8.8613685916
 30
0.0
 10
12.1235344617
 20
8.8195771761
 30
0.0
 10
12.1555746327
 20
8.7763013139
 30
0.0
 10
12.1855622298
 20
8.7316451638
 30
0.0
 10
12.2134250398
 20
8.6857162029
 30
0.0
 10
12.2390959524
 20
8.6386249697
 30
0.0
 10
12.2625131208
 20
8.5904848004
 30
0.0
 10
12.2836201105
 20
8.5414115579
 30
0.0
 10
12.3023660347
 20
8.491523355
 30
0.0
 10
12.3187056962
 20
8.4409402779
 30
0.0
 10
12.3325996788
 20
8.3897840904
 30
0.0
 10
12.3440144422
 20
8.3381779427
 30
0.0
 10
12.3529224032
 20
8.2862460778
 30
0.0
 10
12.3593020031
 20
8.2341135349
 30
0.0
 10
12.3631377614
 20
8.1819058506
 30
0.0
 10
12.3644203144
 20
8.1297487587
 30
0.0
 10
12.3631464402
 20
8.0777678898
 30
0.0
 10
12.3593190898
 20
8.0260884677
 30
0.0
 10
12.3529473616
 20
7.9748350072
 30
0.0
 10
12.344046483
 20
7.9241310164
 30
0.0
 10
12.3326377762
 20
7.8740986989
 30
0.0
 10
12.3187486106
 20
7.8248586602
 30
0.0
 10
12.3024123399
 20
7.7765296168
 30
0.0
 10
12.2836682256
 20
7.7292281087
 30
0.0
 10
12.2625613452
 20
7.6830682167
 30
0.0
 10
12.2391425049
 20
7.6381612757
 30
0.0
 10
12.2134680997
 20
7.594615609
 30
0.0
 10
12.1855999787
 20
7.5525362652
 30
0.0
 10
12.1556052969
 20
7.5120247617
 30
0.0
 10
12.1235563543
 20
7.4731788365
 30
0.0
 10
12.0895304207
 20
7.4360922089
 30
0.0
 10
12.0536095488
 20
7.4008543506
 30
0.0
 10
12.0158803747
 20
7.3675502669
 30
0.0
 10
11.9764339195
 20
7.336260272
 30
0.0
 10
11.9353653507
 20
7.3070598077
 30
0.0
 10
11.8927737502
 20
7.2800192605
 30
0.0
 10
11.8487618699
 20
7.2552037916
 30
0.0
 10
11.8034358871
 20
7.2326731809
 30
0.0
 10
11.7569051209
 20
7.2124816802
 30
0.0
 10
11.7092818572
 20
7.1946778969
 30
0.0
 10
11.6606807336
 20
7.1793046344
 30
0.0
 10
11.6112197471
 20
7.1663989339
 30
0.0
 10
11.5694145689
 20
7.157732614
 30
0.0
 10
11.5356662279
 20
7.1520590571
 30
0.0
 10
11.5016769632
 20
7.1472213426
 30
0.0
 10
11.4588730184
 20
7.1427660805
 30
0.0
 10
11.4158289602
 20
7.1404459065
 30
0.0
 10
11.3812723241
 20
7.1398673413
 30
0.0
 10
11.346595033
 20
7.1401424783
 30
0.0
 10
11.3205787227
 20
7.1413101754
 30
0.0
 10
11.3032536767
 20
7.1425116715
 30
0.0
  0
SPLINE
  5
2C5
100
AcDbEntity
  8
0
100
AcDbSpline
 62
7
  6
CONTINUOUS
 70
0
 71
3
 72
57
 73
53
 74
0
 42
0.0000001
 43
0.0000001
 44
0.0000000001
 40
0.0
 40
0.0
 40
0.0
 40
0.0
 40
0.0149696159
 40
0.0299422018
 40
0.0449207096
 40
0.0599080579
 40
0.0749071109
 40
0.089920664
 40
0.1049514292
 40
0.120002015
 40
0.1350749144
 40
0.1501724927
 40
0.1652969693
 40
0.1804504095
 40
0.1956347147
 40
0.2108516068
 40
0.2261026251
 40
0.241389119
 40
0.2567122353
 40
0.272072921
 40
0.2874719169
 40
0.3029097508
 40
0.3183867432
 40
0.3339030043
 40
0.3494584304
 40
0.3650527149
 40
0.3806853452
 40
0.396355606
 40
0.4120625912
 40
0.427805203
 40
0.4435821603
 40
0.4593920113
 40
0.4752331349
 40
0.4911037534
 40
0.5070019445
 40
0.5229256456
 40
0.5388726697
 40
0.5548407166
 40
0.5868254584
 40
0.6188643484
 40
0.6509360736
 40
0.6830186871
 40
0.715090032
 40
0.7471281691
 40
0.7791118005
 40
0.8110206848
 40
0.8428360401
 40
0.8745409222
 40
0.9061205793
 40
0.9375628037
 40
0.9688579187
 40
1.0
 40
1.0
 40
1.0
 40
1.0
 10
10.5642741281
 20
8.9910073147
 30
0.0
 10
10.5554456918
 20
8.9824796775
 30
0.0
 10
10.538119187
 20
8.9650749634
 30
0.0
 10
10.5131690848
 20
8.9379673017
 30
0.0
 10
10.489288947
 20
8.9098926593
 30
0.0
 10
10.4665112685
 20
8.8808890122
 30
0.0
 10
10.444866406
 20
8.8509949364
 30
0.0
 10
10.4243831805
 20
8.8202505142
 30
0.0
 10
10.4050890157
 20
8.788696766
 30
0.0
 10
10.3870097219
 20
8.756375845
 30
0.0
 10
10.3701693077
 20
8.7233310134
 30
0.0
 10
10.3545903655
 20
8.6896063692
 30
0.0
 10
10.3402936874
 20
8.6552469847
 30
0.0
 10
10.3272982354
 20
8.6202988144
 30
0.0
 10
10.3156214843
 20
8.5848085001
 30
0.0
 10
10.3052789595
 20
8.5488234802
 30
0.0
 10
10.2962843608
 20
8.5123918488
 30
0.0
 10
10.2886498296
 20
8.4755622358
 30
0.0
 10
10.2823854423
 20
8.4383838617
 30
0.0
 10
10.2774994844
 20
8.4009063875
 30
0.0
 10
10.2739986082
 20
8.3631798497
 30
0.0
 10
10.2718873317
 20
8.325254648
 30
0.0
 10
10.2711684348
 20
8.2871814226
 30
0.0
 10
10.27184299
 20
8.2490110149
 30
0.0
 10
10.2739099182
 20
8.2107943917
 30
0.0
 10
10.2773664648
 20
8.1725825748
 30
0.0
 10
10.2822080983
 20
8.1344265956
 30
0.0
 10
10.2884281736
 20
8.0963773748
 30
0.0
 10
10.296018433
 20
8.0584857136
 30
0.0
 10
10.3049687889
 20
8.0208022137
 30
0.0
 10
10.3152671253
 20
7.9833771419
 30
0.0
 10
10.3268997748
 20
7.9462604787
 30
0.0
 10
10.3398512146
 20
7.9095017774
 30
0.0
 10
10.3541040078
 20
7.8731500648
 30
0.0
 10
10.3696392583
 20
7.83725387
 30
0.0
 10
10.3864361043
 20
7.8018612336
 30
0.0
 10
10.4044723497
 20
7.767018845
 30
0.0
 10
10.4301520028
 20
7.7213385327
 30
0.0
 10
10.4652287934
 20
7.665849713
 30
0.0
 10
10.5118247548
 20
7.6022355757
 30
0.0
 10
10.5627048451
 20
7.5418858045
 30
0.0
 10
10.6175966389
 20
7.4851241863
 30
0.0
 10
10.6762079416
 20
7.4322527535
 30
0.0
 10
10.738226269
 20
7.3835534887
 30
0.0
 10
10.8033211691
 20
7.3392860518
 30
0.0
 10
10.871145864
 20
7.2996867409
 30
0.0
 10
10.9413389259
 20
7.2649669726
 30
0.0
 10
11.0135263999
 20
7.2353122103
 30
0.0
 10
11.0873232364
 20
7.2108811614
 30
0.0
 10
11.1623373796
 20
7.1918047949
 30
0.0
 10
11.2381636869
 20
7.1781855929
 30
0.0
 10
11.2891264741
 20
7.1727790595
 30
0.0
 10
11.3146004549
 20
7.1710124329
 30
0.0
  0
SPLINE
  5
2C6
100
AcDbEntity
  8
0
100
AcDbSpline
 62
7
  6
CONTINUOUS
 70
0
 71
3
 72
23
 73
19
 74
0
 42
0.0000001
 43
0.0000001
 44
0.0000000001
 40
0.0
 40
0.0
 40
0.0
 40
0.0
 40
0.061600323
 40
0.1232787912
 40
0.1850465867
 40
0.2469143447
 40
0.3088920827
 40
0.3709891279
 40
0.433214083
 40
0.4955747762
 40
0.5580782137
 40
0.6207305054
 40
0.6835369035
 40
0.746501955
 40
0.8096285965
 40
0.8729191377
 40
0.9363781767
 40
1.0
 40
1.0
 40
1.0
 40
1.0
 10
12.2424661924
 20
7.6738399601
 30
0.0
 10
12.2319145566
 20
7.6672877317
 30
0.0
 10
12.2105314335
 20
7.6545986085
 30
0.0
 10
12.177697838
 20
7.6368566773
 30
0.0
 10
12.1441314349
 20
7.6204192587
 30
0.0
 10
12.1098808119
 20
7.6053101502
 30
0.0
 10
12.0749945981
 20
7.5915509113
 30
0.0
 10
12.0395226591
 20
7.5791610832
 30
0.0
 10
12.0035156004
 20
7.568158253
 30
0.0
 10
11.9670247471
 20
7.5585582355
 30
0.0
 10
11.9301021891
 20
7.5503745897
 30
0.0
 10
11.8928006001
 20
7.5436189124
 30
0.0
 10
11.855173127
 20
7.5383009392
 30
0.0
 10
11.817273487
 20
7.5344281624
 30
0.0
 10
11.7791558668
 20
7.5320059731
 30
0.0
 10
11.740873921
 20
7.5310378923
 30
0.0
 10
11.7024836235
 20
7.5315254055
 30
0.0
 10
11.6768857327
 20
7.5328184375
 30
0.0
 10
11.6640883783
 20
7.5337059371
 30
0.0
  0
SPLINE
  5
2C7
100
AcDbEntity
  8
0
100
AcDbSpline
 62
7
  6
CONTINUOUS
 70
0
 71
3
 72
46
 73
42
 74
0
 42
0.0000001
 43
0.0000001
 44
0.0000000001
 40
0.0
 40
0.0
 40
0.0
 40
0.0
 40
0.0149724479
 40
0.0299638594
 40
0.0449761713
 40
0.0600112242
 40
0.0750707548
 40
0.0901563826
 40
0.1052696126
 40
0.1204118187
 40
0.1355842464
 40
0.1507880042
 40
0.1660240574
 40
0.1812932325
 40
0.1965962026
 40
0.2119334982
 40
0.242708263
 40
0.2736229573
 40
0.3046763993
 40
0.335865064
 40
0.3671831726
 40
0.3986228156
 40
0.4301741061
 40
0.4618253602
 40
0.4935633003
 40
0.5253732792
 40
0.5572395201
 40
0.5891453686
 40
0.6210735553
 40
0.6530064647
 40
0.684926408
 40
0.7168158974
 40
0.7486579174
 40
0.7804361908
 40
0.8121354368
 40
0.8437416179
 40
0.8752421763
 40
0.9066262255
 40
0.9378848587
 40
0.9690108723
 40
1.0
 40
1.0
 40
1.0
 40
1.0
 10
10.7608331678
 20
9.1363486007
 30
0.0
 10
10.755135922
 20
9.1268837744
 30
0.0
 10
10.744062891
 20
9.1077420562
 30
0.0
 10
10.7284495627
 20
9.0784521951
 30
0.0
 10
10.7138385043
 20
9.0485978289
 30
0.0
 10
10.7002454603
 20
9.0182114887
 30
0.0
 10
10.687685144
 20
8.9873255176
 30
0.0
 10
10.676170784
 20
8.9559731457
 30
0.0
 10
10.665714875
 20
8.9241878954
 30
0.0
 10
10.6563285361
 20
8.8920038596
 30
0.0
 10
10.6480217525
 20
8.859455533
 30
0.0
 10
10.6408035792
 20
8.8265777622
 30
0.0
 10
10.6346814938
 20
8.7934057904
 30
0.0
 10
10.6296622836
 20
8.7599752391
 30
0.0
 10
10.6257511232
 20
8.7263214845
 30
0.0
 10
10.622015333
 20
8.6811545511
 30
0.0
 10
10.620143031
 20
8.6243073004
 30
0.0
 10
10.622371234
 20
8.5558671055
 30
0.0
 10
10.62906096
 20
8.4874104408
 30
0.0
 10
10.6401832853
 20
8.41923234
 30
0.0
 10
10.6556900945
 20
8.3516240382
 30
0.0
 10
10.6755146363
 20
8.2848749469
 30
0.0
 10
10.6995717255
 20
8.2192705661
 30
0.0
 10
10.7277581372
 20
8.155091513
 30
0.0
 10
10.7599530013
 20
8.0926122514
 30
0.0
 10
10.7960183672
 20
8.0320999604
 30
0.0
 10
10.8357997918
 20
7.9738134017
 30
0.0
 10
10.8791269967
 20
7.9180018263
 30
0.0
 10
10.9258145911
 20
7.8649039198
 30
0.0
 10
10.9756628579
 20
7.8147467929
 30
0.0
 10
11.0284585699
 20
7.7677449835
 30
0.0
 10
11.0839759303
 20
7.724099575
 30
0.0
 10
11.1419775291
 20
7.6839973449
 30
0.0
 10
11.2022153457
 20
7.6476099718
 30
0.0
 10
11.2644318066
 20
7.6150933071
 30
0.0
 10
11.3283608412
 20
7.586586707
 30
0.0
 10
11.3937291055
 20
7.5622124126
 30
0.0
 10
11.4602567573
 20
7.5420750018
 30
0.0
 10
11.5276601099
 20
7.5262610948
 30
0.0
 10
11.5956470777
 20
7.5148388252
 30
0.0
 10
11.6412782075
 20
7.5101737548
 30
0.0
 10
11.6640883783
 20
7.5085918641
 30
0.0
  0
SPLINE
  5
2C8
100
AcDbEntity
  8
0
100
AcDbSpline
 62
7
  6
CONTINUOUS
 70
0
 71
3
 72
75
 73
71
 74
0
 42
0.0000001
 43
0.0000001
 44
0.0000000001
 40
0.0
 40
0.0
 40
0.0
 40
0.0
 40
0.0156747106
 40
0.0235325853
 40
0.0314031906
 40
0.0471815768
 40
0.0630097517
 40
0.0788855265
 40
0.094806462
 40
0.1107696439
 40
0.1267717934
 40
0.1347869015
 40
0.1428103615
 40
0.1588792321
 40
0.1749752631
 40
0.1910939888
 40
0.2072307445
 40
0.2233807074
 40
0.2395389397
 40
0.2557004313
 40
0.2718601435
 40
0.2880130533
 40
0.3041541968
 40
0.3202787132
 40
0.3363818868
 40
0.3524591892
 40
0.3685063201
 40
0.3845192457
 40
0.4004942371
 40
0.4164279054
 40
0.4323172352
 40
0.4481596145
 40
0.4639528626
 40
0.4796952536
 40
0.4953855367
 40
0.5110229532
 40
0.526607248
 40
0.5421386779
 40
0.5576180142
 40
0.5730465405
 40
0.5884260443
 40
0.603758805
 40
0.6190475748
 40
0.6342955549
 40
0.6495063665
 40
0.6646840169
 40
0.6798328599
 40
0.6949575527
 40
0.7100630076
 40
0.7251543415
 40
0.7402368215
 40
0.7553158093
 40
0.770396704
 40
0.7854848841
 40
0.8005856505
 40
0.8157041697
 40
0.8308454197
 40
0.8460141376
 40
0.8612147713
 40
0.8764514342
 40
0.891727865
 40
0.9070473908
 40
0.922412902
 40
0.9301142837
 40
0.9378280259
 40
0.953292302
 40
0.9688082452
 40
0.9765865192
 40
0.984378284
 40
1.0
 40
1.0
 40
1.0
 40
1.0
 10
8.6488892088
 20
9.4480736104
 30
0.0
 10
8.6662730277
 20
9.4468680385
 30
0.0
 10
8.692332965
 20
9.4444188421
 30
0.0
 10
8.7269513734
 20
9.4398904874
 30
0.0
 10
8.7615647382
 20
9.4345086561
 30
0.0
 10
8.804676116
 20
9.4261981539
 30
0.0
 10
8.8559892291
 20
9.4137319041
 30
0.0
 10
8.9068034352
 20
9.3987933812
 30
0.0
 10
8.9569957572
 20
9.3814187958
 30
0.0
 10
9.0064449541
 20
9.361650284
 30
0.0
 10
9.0469139499
 20
9.3432304566
 30
0.0
 10
9.0788006383
 20
9.327349777
 30
0.0
 10
9.1103751632
 20
9.3106975216
 30
0.0
 10
9.1491587752
 20
9.2884836818
 30
0.0
 10
9.1944692392
 20
9.2596710036
 30
0.0
 10
9.2384659851
 20
9.2287572839
 30
0.0
 10
9.2810424872
 20
9.1958173188
 30
0.0
 10
9.3220964452
 20
9.1609303277
 30
0.0
 10
9.3615290005
 20
9.1241803252
 30
0.0
 10
9.3992452486
 20
9.0856557698
 30
0.0
 10
9.4351543921
 20
9.0454493927
 30
0.0
 10
9.4691699938
 20
9.0036579772
 30
0.0
 10
9.5012101647
 20
8.960382115
 30
0.0
 10
9.5311977618
 20
8.9157259649
 30
0.0
 10
9.5590605719
 20
8.8697970039
 30
0.0
 10
9.5847314845
 20
8.8227057708
 30
0.0
 10
9.6081486529
 20
8.7745656015
 30
0.0
 10
9.6292556426
 20
8.725492359
 30
0.0
 10
9.6480015667
 20
8.675604156
 30
0.0
 10
9.6643412282
 20
8.625021079
 30
0.0
 10
9.6782352109
 20
8.5738648915
 30
0.0
 10
9.6896499743
 20
8.5222587438
 30
0.0
 10
9.6985579352
 20
8.4703268789
 30
0.0
 10
9.7049375352
 20
8.418194336
 30
0.0
 10
9.7087732935
 20
8.3659866516
 30
0.0
 10
9.7100558465
 20
8.3138295598
 30
0.0
 10
9.7087819723
 20
8.2618486909
 30
0.0
 10
9.7049546219
 20
8.2101692687
 30
0.0
 10
9.6985828937
 20
8.1589158083
 30
0.0
 10
9.6896820151
 20
8.1082118175
 30
0.0
 10
9.6782733083
 20
8.0581794999
 30
0.0
 10
9.6643841426
 20
8.0089394613
 30
0.0
 10
9.648047872
 20
7.9606104179
 30
0.0
 10
9.6293037577
 20
7.9133089097
 30
0.0
 10
9.6081968772
 20
7.8671490178
 30
0.0
 10
9.584778037
 20
7.8222420768
 30
0.0
 10
9.5591036318
 20
7.77869641
 30
0.0
 10
9.5312355107
 20
7.7366170663
 30
0.0
 10
9.501240829
 20
7.6961055628
 30
0.0
 10
9.4691918863
 20
7.6572596375
 30
0.0
 10
9.4351659528
 20
7.6201730099
 30
0.0
 10
9.3992450809
 20
7.5849351517
 30
0.0
 10
9.3615159067
 20
7.551631068
 30
0.0
 10
9.3220694515
 20
7.5203410731
 30
0.0
 10
9.2810008828
 20
7.4911406088
 30
0.0
 10
9.2384092823
 20
7.4641000616
 30
0.0
 10
9.194397402
 20
7.4392845927
 30
0.0
 10
9.1490714191
 20
7.4167539819
 30
0.0
 10
9.1025406529
 20
7.3965624813
 30
0.0
 10
9.0549173893
 20
7.3787586979
 30
0.0
 10
9.0063162657
 20
7.3633854354
 30
0.0
 10
8.9568552791
 20
7.3504797349
 30
0.0
 10
8.915050101
 20
7.3418134151
 30
0.0
 10
8.88130176
 20
7.3361398582
 30
0.0
 10
8.8473124952
 20
7.3313021436
 30
0.0
 10
8.8045085504
 20
7.3268468816
 30
0.0
 10
8.7614644922
 20
7.3245267076
 30
0.0
 10
8.7269078561
 20
7.3239481424
 30
0.0
 10
8.692230565
 20
7.3242232793
 30
0.0
 10
8.6662142548
 20
7.3253909765
 30
0.0
 10
8.6488892088
 20
7.3265924725
 30
0.0
  0
SPLINE
  5
2C9
100
AcDbEntity
  8
0
100
AcDbSpline
 62
7
  6
CONTINUOUS
 70
0
 71
3
 72
49
 73
45
 74
0
 42
0.0000001
 43
0.0000001
 44
0.0000000001
 40
0.0
 40
0.0
 40
0.0
 40
0.0
 40
0.0149596625
 40
0.0299342722
 40
0.044926103
 40
0.059937339
 40
0.0749700682
 40
0.0900262728
 40
0.1051078144
 40
0.1202164344
 40
0.1353537367
 40
0.1505211869
 40
0.1657201054
 40
0.1809516562
 40
0.1962168525
 40
0.2115165416
 40
0.2268514106
 40
0.2422219817
 40
0.257628606
 40
0.2730714736
 40
0.2885506017
 40
0.3040658455
 40
0.3351989523
 40
0.3664707788
 40
0.3978744558
 40
0.4294007993
 40
0.4610384973
 40
0.4927743263
 40
0.5245933945
 40
0.556479406
 40
0.5884149444
 40
0.6203817687
 40
0.6523611184
 40
0.6843340255
 40
0.7162816285
 40
0.7481854858
 40
0.7800278837
 40
0.8117921354
 40
0.8434628681
 40
0.8750262963
 40
0.9064704545
 40
0.9377855309
 40
0.968963612
 40
1.0
 40
1.0
 40
1.0
 40
1.0
 10
10.8481228376
 20
9.1788001746
 30
0.0
 10
10.8417908911
 20
9.1699179092
 30
0.0
 10
10.8294408833
 20
9.1519137204
 30
0.0
 10
10.8118932934
 20
9.124243027
 30
0.0
 10
10.7953337949
 20
9.0959258676
 30
0.0
 10
10.7797817641
 20
9.066995169
 30
0.0
 10
10.7652547817
 20
9.037484092
 30
0.0
 10
10.7517697524
 20
9.0074264258
 30
0.0
 10
10.739341914
 20
8.9768567512
 30
0.0
 10
10.7279856372
 20
8.9458100917
 30
0.0
 10
10.7177139362
 20
8.9143220759
 30
0.0
 10
10.7085384452
 20
8.882428869
 30
0.0
 10
10.7004698976
 20
8.8501670009
 30
0.0
 10
10.6935172899
 20
8.817573544
 30
0.0
 10
10.6876887531
 20
8.784685848
 30
0.0
 10
10.6829909004
 20
8.7515416545
 30
0.0
 10
10.6794290145
 20
8.7181789854
 30
0.0
 10
10.6770073625
 20
8.6846360994
 30
0.0
 10
10.6757284601
 20
8.6509514499
 30
0.0
 10
10.6755939477
 20
8.6171637872
 30
0.0
 10
10.6766039205
 20
8.5833113859
 30
0.0
 10
10.6794776843
 20
8.5380939705
 30
0.0
 10
10.6859326706
 20
8.4815982538
 30
0.0
 10
10.6981971845
 20
8.414254772
 30
0.0
 10
10.7149329184
 20
8.34758432
 30
0.0
 10
10.7360626516
 20
8.2818943057
 30
0.0
 10
10.7614892324
 20
8.2174849813
 30
0.0
 10
10.7910958779
 20
8.1546514006
 30
0.0
 10
10.8247467395
 20
8.0936811898
 30
0.0
 10
10.8622874687
 20
8.0348534561
 30
0.0
 10
10.9035459874
 20
7.978437487
 30
0.0
 10
10.9483332638
 20
7.9246915482
 30
0.0
 10
10.9964441698
 20
7.8738617092
 30
0.0
 10
11.0476584169
 20
7.8261807377
 30
0.0
 10
11.1017415112
 20
7.7818669945
 30
0.0
 10
11.1584458523
 20
7.7411234657
 30
0.0
 10
11.2175118659
 20
7.704136859
 30
0.0
 10
11.2786691817
 20
7.6710767498
 30
0.0
 10
11.3416378265
 20
7.6420948161
 30
0.0
 10
11.4061295955
 20
7.6173241275
 30
0.0
 10
11.4718489242
 20
7.5968784567
 30
0.0
 10
11.5384958169
 20
7.580851955
 30
0.0
 10
11.6057610919
 20
7.5693185563
 30
0.0
 10
11.650925766
 20
7.5646493362
 30
0.0
 10
11.673502413
 20
7.5630836404
 30
0.0
  0
SPLINE
  5
2CA
100
AcDbEntity
  8
0
100
AcDbSpline
 62
7
  6
CONTINUOUS
 70
0
 71
3
 72
44
 73
40
 74
0
 42
0.0000001
 43
0.0000001
 44
0.0000000001
 40
0.0
 40
0.0
 40
0.0
 40
0.0
 40
0.0149712365
 40
0.0299611461
 40
0.0449716942
 40
0.0600047495
 40
0.0750620728
 40
0.090145317
 40
0.1052560094
 40
0.1203955564
 40
0.135565229
 40
0.150766162
 40
0.1812613433
 40
0.2118916551
 40
0.2426609055
 40
0.2735704768
 40
0.3046193347
 40
0.3358040771
 40
0.3671190233
 40
0.3985563353
 40
0.4301061716
 40
0.4617568693
 40
0.4934951487
 40
0.5253063383
 40
0.5571746162
 40
0.5890832649
 40
0.6210149365
 40
0.6529519244
 40
0.6848764396
 40
0.7167708875
 40
0.7486181417
 40
0.780401814
 40
0.8121065153
 40
0.8437181055
 40
0.875223934
 40
0.9066130286
 40
0.9378764193
 40
0.9690068451
 40
1.0
 40
1.0
 40
1.0
 40
1.0
 10
10.8837573136
 20
9.1936355402
 30
0.0
 10
10.8782393281
 20
9.1845931037
 30
0.0
 10
10.8675113479
 20
9.1663026399
 30
0.0
 10
10.8523746283
 20
9.1383061888
 30
0.0
 10
10.8381989773
 20
9.1097617934
 30
0.0
 10
10.8250001578
 20
9.0807005355
 30
0.0
 10
10.8127920478
 20
9.0511537294
 30
0.0
 10
10.8015880461
 20
9.0211531543
 30
0.0
 10
10.7914000316
 20
8.9907311616
 30
0.0
 10
10.7822390453
 20
8.9599206304
 30
0.0
 10
10.7741149369
 20
8.9287542814
 30
0.0
 10
10.7646676157
 20
8.8867299283
 30
0.0
 10
10.7554978413
 20
8.8334632192
 30
0.0
 10
10.7487695198
 20
8.7687438019
 30
0.0
 10
10.746331317
 20
8.7034269767
 30
0.0
 10
10.7481936837
 20
8.637795988
 30
0.0
 10
10.75434798
 20
8.5721328914
 30
0.0
 10
10.764767284
 20
8.5067204511
 30
0.0
 10
10.7794063197
 20
8.4418400985
 30
0.0
 10
10.7982017119
 20
8.3777709612
 30
0.0
 10
10.8210722249
 20
8.3147886024
 30
0.0
 10
10.8479191571
 20
8.2531638729
 30
0.0
 10
10.8786267641
 20
8.1931617548
 30
0.0
 10
10.9130627581
 20
8.1350402368
 30
0.0
 10
10.951078874
 20
8.0790492164
 30
0.0
 10
10.9925115076
 20
8.0254294402
 30
0.0
 10
11.0371823984
 20
7.9744114664
 30
0.0
 10
11.0848993878
 20
7.9262146738
 30
0.0
 10
11.1354572626
 20
7.8810463439
 30
0.0
 10
11.1886386244
 20
7.8391007741
 30
0.0
 10
11.2442148176
 20
7.8005584503
 30
0.0
 10
11.3019468992
 20
7.7655852748
 30
0.0
 10
11.3615866668
 20
7.7343318636
 30
0.0
 10
11.4228776681
 20
7.7069328644
 30
0.0
 10
11.4855564146
 20
7.6835064163
 30
0.0
 10
11.5493531198
 20
7.6641535788
 30
0.0
 10
11.6139942627
 20
7.6489580609
 30
0.0
 10
11.6791981966
 20
7.6379856872
 30
0.0
 10
11.7229627694
 20
7.6335075018
 30
0.0
 10
11.7448398537
 20
7.6319903209
 30
0.0
  0
SPLINE
  5
2CB
100
AcDbEntity
  8
0
100
AcDbSpline
 62
7
  6
CONTINUOUS
 70
0
 71
3
 72
48
 73
44
 74
0
 42
0.0000001
 43
0.0000001
 44
0.0000000001
 40
0.0
 40
0.0
 40
0.0
 40
0.0
 40
0.0149572555
 40
0.0299273356
 40
0.0449126643
 40
0.0599155845
 40
0.0749383468
 40
0.0899831026
 40
0.1050518854
 40
0.1201466096
 40
0.1352690557
 40
0.1504208622
 40
0.1656035238
 40
0.1808183745
 40
0.1960665941
 40
0.2113491936
 40
0.2266670148
 40
0.242020732
 40
0.2574108386
 40
0.2728376599
 40
0.303797302
 40
0.3349033594
 40
0.3661521788
 40
0.3975374762
 40
0.4290504857
 40
0.4606801474
 40
0.4924133296
 40
0.5242350798
 40
0.5561289014
 40
0.5880770515
 40
0.6200608528
 40
0.6520610169
 40
0.6840579756
 40
0.7160322154
 40
0.7479646116
 40
0.7798367574
 40
0.8116312841
 40
0.8433321682
 40
0.8749250252
 40
0.9063973589
 40
0.9377389177
 40
0.9689414349
 40
1.0
 40
1.0
 40
1.0
 40
1.0
 10
11.0388156644
 20
9.2383169073
 30
0.0
 10
11.0326922542
 20
9.2303580756
 30
0.0
 10
11.020731883
 20
9.2142066964
 30
0.0
 10
11.003685445
 20
9.1893267
 30
0.0
 10
10.9875452715
 20
9.1638126934
 30
0.0
 10
10.9723309665
 20
9.1376952039
 30
0.0
 10
10.9580602257
 20
9.1110051694
 30
0.0
 10
10.9447501555
 20
9.083774114
 30
0.0
 10
10.9324163729
 20
9.0560343359
 30
0.0
 10
10.9210734644
 20
9.0278186745
 30
0.0
 10
10.9107349683
 20
8.9991604897
 30
0.0
 10
10.9014128943
 20
8.9700937819
 30
0.0
 10
10.8931184927
 20
8.9406528859
 30
0.0
 10
10.8858613844
 20
8.9108727064
 30
0.0
 10
10.8796502044
 20
8.8807884702
 30
0.0
 10
10.8744923565
 20
8.8504357853
 30
0.0
 10
10.8703937437
 20
8.8198505685
 30
0.0
 10
10.8673594333
 20
8.7890691109
 30
0.0
 10
10.8653928022
 20
8.7581273961
 30
0.0
 10
10.8641959765
 20
8.71666286
 30
0.0
 10
10.8653875943
 20
8.6646056358
 30
0.0
 10
10.8710945023
 20
8.6021702531
 30
0.0
 10
10.8810521654
 20
8.5399800785
 30
0.0
 10
10.895213097
 20
8.4783310707
 30
0.0
 10
10.9135098747
 20
8.417514022
 30
0.0
 10
10.9358556386
 20
8.3578164144
 30
0.0
 10
10.9621444687
 20
8.2995202176
 30
0.0
 10
10.9922518649
 20
8.2429007943
 30
0.0
 10
11.0260353258
 20
8.1882255388
 30
0.0
 10
11.0633350673
 20
8.1357526672
 30
0.0
 10
11.1039747621
 20
8.0857300045
 30
0.0
 10
11.1477623678
 20
8.03839383
 30
0.0
 10
11.1944910255
 20
7.9939677761
 30
0.0
 10
11.243939987
 20
7.9526617341
 30
0.0
 10
11.295875693
 20
7.9146709087
 30
0.0
 10
11.3500528634
 20
7.8801749079
 30
0.0
 10
11.4062156482
 20
7.8493368995
 30
0.0
 10
11.4640987925
 20
7.8223028512
 30
0.0
 10
11.5234289712
 20
7.7992008197
 30
0.0
 10
11.5839256596
 20
7.7801402807
 30
0.0
 10
11.645303952
 20
7.765211799
 30
0.0
 10
11.7072700779
 20
7.7544864299
 30
0.0
 10
11.7488845993
 20
7.7501618014
 30
0.0
 10
11.7696864615
 20
7.7487191873
 30
0.0
  0
SPLINE
  5
2CC
100
AcDbEntity
  8
0
100
AcDbSpline
 62
7
  6
CONTINUOUS
 70
0
 71
3
 72
41
 73
37
 74
0
 42
0.0000001
 43
0.0000001
 44
0.0000000001
 40
0.0
 40
0.0
 40
0.0
 40
0.0
 40
0.030391768
 40
0.0456307145
 40
0.0608977364
 40
0.0915136667
 40
0.1222422429
 40
0.1376497369
 40
0.1530847951
 40
0.1840334797
 40
0.2150871936
 40
0.2462410453
 40
0.2774890638
 40
0.3088242724
 40
0.3402387709
 40
0.3717238263
 40
0.4032699695
 40
0.4348670978
 40
0.4665045827
 40
0.4981713808
 40
0.5298561488
 40
0.5615473594
 40
0.5932334197
 40
0.6249027891
 40
0.6565440974
 40
0.6881462618
 40
0.7196986015
 40
0.7511909497
 40
0.7826137621
 40
0.813958217
 40
0.8452163243
 40
0.8763809768
 40
0.9074461593
 40
0.9384066634
 40
0.9692590432
 40
1.0
 40
1.0
 40
1.0
 40
1.0
 10
11.3087127816
 20
9.2555613785
 30
0.0
 10
11.3066169912
 20
9.2397745499
 30
0.0
 10
11.304112726
 20
9.2159801288
 30
0.0
 10
11.3020530317
 20
9.1841334753
 30
0.0
 10
11.3008421686
 20
9.152124879
 30
0.0
 10
11.3009320733
 20
9.1119603537
 30
0.0
 10
11.3031524166
 20
9.0717836836
 30
0.0
 10
11.3062003317
 20
9.0396613604
 30
0.0
 10
11.3101024018
 20
9.0075154225
 30
0.0
 10
11.3165694297
 20
8.9674365416
 30
0.0
 10
11.3268366501
 20
8.9196928161
 30
0.0
 10
11.3395887266
 20
8.8723889859
 30
0.0
 10
11.3547894395
 20
8.8256595032
 30
0.0
 10
11.3723957675
 20
8.7796361167
 30
0.0
 10
11.3923578764
 20
8.7344488574
 30
0.0
 10
11.4146193017
 20
8.6902253105
 30
0.0
 10
11.4391170979
 20
8.6470903556
 30
0.0
 10
11.4657820186
 20
8.6051657902
 30
0.0
 10
11.4945387113
 20
8.5645699955
 30
0.0
 10
11.5253059294
 20
8.525417602
 30
0.0
 10
11.5579967603
 20
8.4878191685
 30
0.0
 10
11.5925188705
 20
8.4518808719
 30
0.0
 10
11.6287747642
 20
8.4177042088
 30
0.0
 10
11.6666620573
 20
8.3853857107
 30
0.0
 10
11.7060737655
 20
8.3550166729
 30
0.0
 10
11.7468986011
 20
8.3266828938
 30
0.0
 10
11.7890212878
 20
8.3004644346
 30
0.0
 10
11.8323228859
 20
8.2764353956
 30
0.0
 10
11.8766811247
 20
8.2546637111
 30
0.0
 10
11.92197075
 20
8.2352109451
 30
0.0
 10
11.9680638552
 20
8.2181321543
 30
0.0
 10
12.0148303203
 20
8.2034756376
 30
0.0
 10
12.0621378784
 20
8.19128302
 30
0.0
 10
12.1098535114
 20
8.1815886695
 30
0.0
 10
12.1578404854
 20
8.1744204692
 30
0.0
 10
12.1899852978
 20
8.1713333029
 30
0.0
 10
12.2060550114
 20
8.1702188644
 30
0.0
  0
SPLINE
  5
2CD
100
AcDbEntity
  8
0
100
AcDbSpline
 62
7
  6
CONTINUOUS
 70
0
 71
3
 72
39
 73
35
 74
0
 42
0.0000001
 43
0.0000001
 44
0.0000000001
 40
0.0
 40
0.0
 40
0.0
 40
0.0
 40
0.0307551757
 40
0.0615967028
 40
0.0925218866
 40
0.1235274378
 40
0.1546095065
 40
0.185763707
 40
0.2169851483
 40
0.2482684789
 40
0.2796079263
 40
0.3109973317
 40
0.3424301959
 40
0.3738997307
 40
0.4053989007
 40
0.4369204679
 40
0.4684570465
 40
0.5000011532
 40
0.5315452512
 40
0.5630818025
 40
0.5946033235
 40
0.6261024303
 40
0.6575718849
 40
0.6890046513
 40
0.7203939424
 40
0.7517332612
 40
0.7830164488
 40
0.8142377311
 40
0.8453917629
 40
0.8764736559
 40
0.9074789935
 40
0.9384040227
 40
0.9692453456
 40
1.0
 40
1.0
 40
1.0
 40
1.0
 10
8.9081653493
 20
9.3905406831
 30
0.0
 10
8.9095224829
 20
9.3787038024
 30
0.0
 10
8.9127432065
 20
9.3550513904
 30
0.0
 10
8.9190704533
 20
9.3197615372
 30
0.0
 10
8.9268893607
 20
9.2846719599
 30
0.0
 10
8.9361852912
 20
9.2498482697
 30
0.0
 10
8.9469410741
 20
9.2153545282
 30
0.0
 10
8.9591368856
 20
9.1812544997
 30
0.0
 10
8.9727501353
 20
9.147611106
 30
0.0
 10
8.987755622
 20
9.1144864375
 30
0.0
 10
9.0041256495
 20
9.0819416483
 30
0.0
 10
9.0218300281
 20
9.0500368429
 30
0.0
 10
9.0408359848
 20
9.018830877
 30
0.0
 10
9.0611084086
 20
8.9883813414
 30
0.0
 10
9.0826099166
 20
8.9587444762
 30
0.0
 10
9.1053008066
 20
8.9299749926
 30
0.0
 10
9.1291391309
 20
8.9021259549
 30
0.0
 10
9.1540808899
 20
8.8752487743
 30
0.0
 10
9.1800800949
 20
8.849393122
 30
0.0
 10
9.2070887085
 20
8.8246066924
 30
0.0
 10
9.2350568523
 20
8.800935218
 30
0.0
 10
9.263932928
 20
8.7784224327
 30
0.0
 10
9.2936636625
 20
8.7571099479
 30
0.0
 10
9.3241941305
 20
8.737037057
 30
0.0
 10
9.3554679781
 20
8.7182408224
 30
0.0
 10
9.3874275151
 20
8.7007560227
 30
0.0
 10
9.4200137395
 20
8.6846149515
 30
0.0
 10
9.4531664761
 20
8.6698473751
 30
0.0
 10
9.4868245357
 20
8.6564806002
 30
0.0
 10
9.5209258203
 20
8.644539417
 30
0.0
 10
9.5554073078
 20
8.6340458195
 30
0.0
 10
9.5902055579
 20
8.6250192138
 30
0.0
 10
9.6252553813
 20
8.6174764579
 30
0.0
 10
9.6487821061
 20
8.6134404363
 30
0.0
 10
9.6605648277
 20
8.6116751556
 30
0.0
  0
SPLINE
  5
2CE
100
AcDbEntity
  8
0
100
AcDbSpline
 62
7
  6
CONTINUOUS
 70
0
 71
3
 72
43
 73
39
 74
0
 42
0.0000001
 43
0.0000001
 44
0.0000000001
 40
0.0
 40
0.0
 40
0.0
 40
0.0
 40
0.0304254346
 40
0.0456808908
 40
0.0609641441
 40
0.0916115308
 40
0.1223697253
 40
0.1377911695
 40
0.1532395651
 40
0.1842130118
 40
0.2152885928
 40
0.2464611892
 40
0.2777246668
 40
0.3090719488
 40
0.3404950958
 40
0.3719853937
 40
0.4035334467
 40
0.435129276
 40
0.4667624228
 40
0.4984220548
 40
0.5300970755
 40
0.5617762356
 40
0.593448245
 40
0.6251018847
 40
0.6567261188
 40
0.6883102045
 40
0.7198438007
 40
0.7355897772
 40
0.7513194946
 40
0.7827232206
 40
0.814048881
 40
0.8452887666
 40
0.8764360143
 40
0.9074848535
 40
0.9384301715
 40
0.9538641063
 40
0.9692714335
 40
1.0
 40
1.0
 40
1.0
 40
1.0
 10
11.3861223469
 20
9.2470920772
 30
0.0
 10
11.3845103598
 20
9.2324457358
 30
0.0
 10
11.3826767566
 20
9.2103852488
 30
0.0
 10
11.3813989202
 20
9.1808860884
 30
0.0
 10
11.3808969993
 20
9.1512552729
 30
0.0
 10
11.3817322302
 20
9.1141069224
 30
0.0
 10
11.3845073423
 20
9.0769860676
 30
0.0
 10
11.3878851555
 20
9.0473289713
 30
0.0
 10
11.392040914
 20
9.0176656147
 30
0.0
 10
11.3986811923
 20
8.9807081905
 30
0.0
 10
11.4089266107
 20
8.9367201114
 30
0.0
 10
11.4214280992
 20
8.893172695
 30
0.0
 10
11.4361510374
 20
8.8501865302
 30
0.0
 10
11.4530548409
 20
8.807879698
 30
0.0
 10
11.4720929012
 20
8.7663686591
 30
0.0
 10
11.493212761
 20
8.7257676103
 30
0.0
 10
11.5163562453
 20
8.686188261
 30
0.0
 10
11.5414596243
 20
8.6477395042
 30
0.0
 10
11.568453789
 20
8.6105271267
 30
0.0
 10
11.5972644321
 20
8.5746535123
 30
0.0
 10
11.6278122529
 20
8.5402173588
 30
0.0
 10
11.6600131796
 20
8.5073134179
 30
0.0
 10
11.6937786159
 20
8.4760322237
 30
0.0
 10
11.7290156133
 20
8.4464598869
 30
0.0
 10
11.7656273883
 20
8.4186777043
 30
0.0
 10
11.8035126047
 20
8.392762514
 30
0.0
 10
11.8360754923
 20
8.372771101
 30
0.0
 10
11.8626580278
 20
8.357781396
 30
0.0
 10
11.8895485321
 20
8.3434849887
 30
0.0
 10
11.9237554526
 20
8.326902971
 30
0.0
 10
11.9656633633
 20
8.3091140249
 30
0.0
 10
12.0082952826
 20
8.2934933675
 30
0.0
 10
12.0515334968
 20
8.2800843129
 30
0.0
 10
12.0952583953
 20
8.268924012
 30
0.0
 10
12.1320354382
 20
8.2615164818
 30
0.0
 10
12.1615784533
 20
8.2567457685
 30
0.0
 10
12.1911301652
 20
8.2527539812
 30
0.0
 10
12.2133850009
 20
8.25062428
 30
0.0
 10
12.2282309301
 20
8.2495947113
 30
0.0
  0
SPLINE
  5
2CF
100
AcDbEntity
  8
0
100
AcDbSpline
 62
7
  6
CONTINUOUS
 70
0
 71
3
 72
39
 73
35
 74
0
 42
0.0000001
 43
0.0000001
 44
0.0000000001
 40
0.0
 40
0.0
 40
0.0
 40
0.0
 40
0.0307314061
 40
0.0615526656
 40
0.0924611953
 40
0.1234537581
 40
0.154526489
 40
0.1856749247
 40
0.2168940463
 40
0.2481783216
 40
0.2795217445
 40
0.3109178779
 40
0.3423599088
 40
0.3738406987
 40
0.4053528305
 40
0.4368886628
 40
0.4684403889
 40
0.5000000914
 40
0.5315597937
 40
0.5631115181
 40
0.5946473466
 40
0.6261594737
 40
0.6576402581
 40
0.6890822822
 40
0.7204784067
 40
0.7518218202
 40
0.7831060861
 40
0.8143251946
 40
0.8454736211
 40
0.876546337
 40
0.9075388688
 40
0.9384474676
 40
0.9692685221
 40
1.0
 40
1.0
 40
1.0
 40
1.0
 10
11.5315378878
 20
9.2161000785
 30
0.0
 10
11.5327284076
 20
9.2035731441
 30
0.0
 10
11.5356615209
 20
9.1785313725
 30
0.0
 10
11.541694149
 20
9.1411442745
 30
0.0
 10
11.5493546199
 20
9.1039466321
 30
0.0
 10
11.5586278564
 20
9.0670120436
 30
0.0
 10
11.5694957812
 20
9.0304124066
 30
0.0
 10
11.5819370986
 20
8.9942192659
 30
0.0
 10
11.5959274274
 20
8.9585032683
 30
0.0
 10
11.6114394161
 20
8.9233341631
 30
0.0
 10
11.6284427991
 20
8.8887806528
 30
0.0
 10
11.6469043131
 20
8.8549102006
 30
0.0
 10
11.6667878441
 20
8.821788923
 30
0.0
 10
11.6880545519
 20
8.7894814958
 30
0.0
 10
11.7106629442
 20
8.7580510423
 30
0.0
 10
11.7345688237
 20
8.7275589168
 30
0.0
 10
11.7597254687
 20
8.6980646377
 30
0.0
 10
11.7860837576
 20
8.6696258053
 30
0.0
 10
11.8135922618
 20
8.6422980037
 30
0.0
 10
11.8421972256
 20
8.6161345719
 30
0.0
 10
11.8718427705
 20
8.5911865837
 30
0.0
 10
11.9024710194
 20
8.5675027765
 30
0.0
 10
11.9340222041
 20
8.5451294678
 30
0.0
 10
11.9664346826
 20
8.5241103238
 30
0.0
 10
11.9996451529
 20
8.5044863874
 30
0.0
 10
12.0335887789
 20
8.4862960198
 30
0.0
 10
12.068199307
 20
8.4695748322
 30
0.0
 10
12.1034091263
 20
8.4543554554
 30
0.0
 10
12.1391494695
 20
8.4406676324
 30
0.0
 10
12.1753505631
 20
8.4285381526
 30
0.0
 10
12.2119416894
 20
8.4179907835
 30
0.0
 10
12.2488515312
 20
8.4090461862
 30
0.0
 10
12.2860071355
 20
8.4017218008
 30
0.0
 10
12.3109321898
 20
8.3979227887
 30
0.0
 10
12.3234103895
 20
8.3962989975
 30
0.0
  0
SPLINE
  5
2D0
100
AcDbEntity
  8
0
100
AcDbSpline
 62
7
  6
CONTINUOUS
 70
0
 71
3
 72
25
 73
21
 74
0
 42
0.0000001
 43
0.0000001
 44
0.0000000001
 40
0.0
 40
0.0
 40
0.0
 40
0.0
 40
0.0618481624
 40
0.123943261
 40
0.1862592689
 40
0.248766051
 40
0.3114298889
 40
0.3742141536
 40
0.4370799956
 40
0.4999870693
 40
0.5628942755
 40
0.6257605129
 40
0.6885454291
 40
0.7512101625
 40
0.8137180669
 40
0.8760354055
 40
0.9071175247
 40
0.9381410213
 40
0.9691027872
 40
1.0
 40
1.0
 40
1.0
 40
1.0
 10
9.5955950042
 20
8.7859549413
 30
0.0
 10
9.5801102822
 20
8.7901437466
 30
0.0
 10
9.5493589777
 20
8.7996141408
 30
0.0
 10
9.5042365504
 20
8.8169687655
 30
0.0
 10
9.4602386372
 20
8.8374171733
 30
0.0
 10
9.4175904814
 20
8.8608549538
 30
0.0
 10
9.3765067639
 20
8.8871636504
 30
0.0
 10
9.3371952626
 20
8.9162100894
 30
0.0
 10
9.2998545213
 20
8.947847364
 30
0.0
 10
9.2646732146
 20
8.9819155135
 30
0.0
 10
9.2318291188
 20
9.0182423367
 30
0.0
 10
9.2014882334
 20
9.0566442912
 30
0.0
 10
9.1738039978
 20
9.0969272469
 30
0.0
 10
9.1489163241
 20
9.1388880737
 30
0.0
 10
9.1269516352
 20
9.18231335
 30
0.0
 10
9.1111606685
 20
9.2195762824
 30
0.0
 10
9.100097249
 20
9.2498970472
 30
0.0
 10
9.0925990422
 20
9.2728466171
 30
0.0
 10
9.085903511
 20
9.2959925847
 30
0.0
 10
9.0819762425
 20
9.3115524712
 30
0.0
 10
9.0801495233
 20
9.3193551653
 30
0.0
  0
SPLINE
  5
2D1
100
AcDbEntity
  8
0
100
AcDbSpline
 62
7
  6
CONTINUOUS
 70
0
 71
3
 72
26
 73
22
 74
0
 42
0.0000001
 43
0.0000001
 44
0.0000000001
 40
0.0
 40
0.0
 40
0.0
 40
0.0
 40
0.0193802447
 40
0.0395074763
 40
0.0603908506
 40
0.0820377703
 40
0.1044551077
 40
0.1276489974
 40
0.1763820775
 40
0.2282630999
 40
0.2832983242
 40
0.3414806579
 40
0.4027907785
 40
0.4671978384
 40
0.5346601293
 40
0.6051260785
 40
0.6785335904
 40
0.7548112373
 40
0.8338774884
 40
0.9156406878
 40
1.0
 40
1.0
 40
1.0
 40
1.0
 10
12.1589424109
 20
8.0060635996
 30
0.0
 10
12.159972193
 20
8.0070582927
 30
0.0
 10
12.1621051543
 20
8.0090513661
 30
0.0
 10
12.1654554162
 20
8.0119984545
 30
0.0
 10
12.1690151557
 20
8.0149582016
 30
0.0
 10
12.1727830433
 20
8.0179296024
 30
0.0
 10
12.1767576439
 20
8.0209121611
 30
0.0
 10
12.1824245563
 20
8.0249705696
 30
0.0
 10
12.1900269375
 20
8.030060521
 30
0.0
 10
12.1998052353
 20
8.0361145978
 30
0.0
 10
12.2103698325
 20
8.0422132086
 30
0.0
 10
12.2217046042
 20
8.0483610678
 30
0.0
 10
12.2337926533
 20
8.0545642494
 30
0.0
 10
12.2466151753
 20
8.0608312687
 30
0.0
 10
12.2601518182
 20
8.067172463
 30
0.0
 10
12.2743806431
 20
8.0735995786
 30
0.0
 10
12.2892776567
 20
8.0801265953
 30
0.0
 10
12.3048172002
 20
8.0867683485
 30
0.0
 10
12.3209714127
 20
8.0935413517
 30
0.0
 10
12.3377103334
 20
8.1004631639
 30
0.0
 10
12.3490656364
 20
8.105118354
 30
0.0
 10
12.3548334667
 20
8.1074787714
 30
0.0
  0
SPLINE
  5
2D2
100
AcDbEntity
  8
0
100
AcDbSpline
 62
7
  6
CONTINUOUS
 70
0
 71
3
 72
30
 73
26
 74
0
 42
0.0000001
 43
0.0000001
 44
0.0000000001
 40
0.0
 40
0.0
 40
0.0
 40
0.0
 40
0.0097728102
 40
0.0205761867
 40
0.0325056991
 40
0.0456533079
 40
0.0601059933
 40
0.0759467695
 40
0.093255601
 40
0.1121088451
 40
0.1325751655
 40
0.154719128
 40
0.1785940682
 40
0.2042423066
 40
0.2316932925
 40
0.2609563345
 40
0.3248642784
 40
0.3956229625
 40
0.4725166014
 40
0.5545155629
 40
0.640403929
 40
0.7289387402
 40
0.8189815812
 40
0.9095871098
 40
1.0
 40
1.0
 40
1.0
 40
1.0
 10
11.139097509
 20
9.2531295895
 30
0.0
 10
11.1391711143
 20
9.2528538482
 30
0.0
 10
11.1393011299
 20
9.2522664786
 30
0.0
 10
11.1394409577
 20
9.251326955
 30
0.0
 10
11.1395327391
 20
9.2502826014
 30
0.0
 10
11.1395741181
 20
9.2491285123
 30
0.0
 10
11.1395628257
 20
9.2478595824
 30
0.0
 10
11.1394964528
 20
9.2464707301
 30
0.0
 10
11.1393725086
 20
9.2449568969
 30
0.0
 10
11.1391885357
 20
9.2433132226
 30
0.0
 10
11.1389421749
 20
9.2415351019
 30
0.0
 10
11.1386310945
 20
9.2396184542
 30
0.0
 10
11.1382532663
 20
9.2375598051
 30
0.0
 10
11.1378068946
 20
9.2353565713
 30
0.0
 10
11.1372905971
 20
9.2330073044
 30
0.0
 10
11.1364838097
 20
9.2295782964
 30
0.0
 10
11.1352927602
 20
9.2249410391
 30
0.0
 10
11.1336286662
 20
9.2189907895
 30
0.0
 10
11.1317094873
 20
9.2125644251
 30
0.0
 10
11.1295648874
 20
9.205745137
 30
0.0
 10
11.1272318272
 20
9.1986293737
 30
0.0
 10
11.1247501521
 20
9.1913155989
 30
0.0
 10
11.1221581456
 20
9.1838941458
 30
0.0
 10
11.1194896393
 20
9.1764415966
 30
0.0
 10
11.1176726043
 20
9.1714773424
 30
0.0
 10
11.1167570282
 20
9.1690008338
 30
0.0
  0
SPLINE
  5
2D3
100
AcDbEntity
  8
0
100
AcDbSpline
 62
7
  6
CONTINUOUS
 70
0
 71
3
 72
22
 73
18
 74
0
 42
0.0000001
 43
0.0000001
 44
0.0000000001
 40
0.0
 40
0.0
 40
0.0
 40
0.0
 40
0.073384811
 40
0.1144316414
 40
0.1588718533
 40
0.2071010987
 40
0.2595104575
 40
0.3164491523
 40
0.3781739049
 40
0.4447741725
 40
0.5160875365
 40
0.5916345578
 40
0.6706161964
 40
0.752000875
 40
0.8346781684
 40
0.9176248229
 40
1.0
 40
1.0
 40
1.0
 40
1.0
 10
10.5902216257
 20
8.4267217464
 30
0.0
 10
10.5916408931
 20
8.4253489131
 30
0.0
 10
10.5937049987
 20
8.4230499804
 30
0.0
 10
10.5962762463
 20
8.4196334128
 30
0.0
 10
10.5982743035
 20
8.4166387239
 30
0.0
 10
10.6002643315
 20
8.4132784183
 30
0.0
 10
10.6022376423
 20
8.4095236515
 30
0.0
 10
10.6041820237
 20
8.4053495421
 30
0.0
 10
10.6060812616
 20
8.4007388461
 30
0.0
 10
10.6079148
 20
8.3956881118
 30
0.0
 10
10.6096584985
 20
8.3902140494
 30
0.0
 10
10.6112865902
 20
8.3843580563
 30
0.0
 10
10.6127749197
 20
8.3781860088
 30
0.0
 10
10.61410447
 20
8.3717818986
 30
0.0
 10
10.6152640102
 20
8.3652365965
 30
0.0
 10
10.616250649
 20
8.3586362345
 30
0.0
 10
10.6167993655
 20
8.3542213534
 30
0.0
 10
10.6170475404
 20
8.3520187983
 30
0.0
  0
SPLINE
  5
2D4
100
AcDbEntity
  8
0
100
AcDbSpline
 62
7
  6
CONTINUOUS
 70
0
 71
3
 72
75
 73
71
 74
0
 42
0.0000001
 43
0.0000001
 44
0.0000000001
 40
0.0
 40
0.0
 40
0.0
 40
0.0
 40
0.015621716
 40
0.0234134808
 40
0.0311917548
 40
0.046707698
 40
0.0621719741
 40
0.0698857163
 40
0.077587098
 40
0.0929526092
 40
0.108272135
 40
0.1235485658
 40
0.1387852287
 40
0.1539858624
 40
0.1691545803
 40
0.1842958303
 40
0.1994143495
 40
0.2145151159
 40
0.229603296
 40
0.2446841907
 40
0.2597631785
 40
0.2748456585
 40
0.2899369924
 40
0.3050424473
 40
0.3201671401
 40
0.3353159831
 40
0.3504936335
 40
0.3657044451
 40
0.3809524252
 40
0.396241195
 40
0.4115739557
 40
0.4269534595
 40
0.4423819858
 40
0.4578613221
 40
0.473392752
 40
0.4889770468
 40
0.5046144633
 40
0.5203047464
 40
0.5360471374
 40
0.5518403855
 40
0.5676827648
 40
0.5835720946
 40
0.5995057629
 40
0.6154807543
 40
0.6314936799
 40
0.6475408108
 40
0.6636181132
 40
0.6797212868
 40
0.6958458032
 40
0.7119869467
 40
0.7281398565
 40
0.7442995687
 40
0.7604610603
 40
0.7766192926
 40
0.7927692555
 40
0.8089060112
 40
0.8250247369
 40
0.8411207679
 40
0.8571896385
 40
0.8652130985
 40
0.8732282066
 40
0.8892303561
 40
0.905193538
 40
0.9211144735
 40
0.9369902483
 40
0.9528184232
 40
0.9685968094
 40
0.9764674147
 40
0.9843252894
 40
1.0
 40
1.0
 40
1.0
 40
1.0
 10
8.6488892088
 20
9.4480736104
 30
0.0
 10
8.6315641628
 20
9.4492751065
 30
0.0
 10
8.6055478525
 20
9.4504428037
 30
0.0
 10
8.5708705614
 20
9.4507179406
 30
0.0
 10
8.5363139253
 20
9.4501393754
 30
0.0
 10
8.4932698672
 20
9.4478192014
 30
0.0
 10
8.4504659223
 20
9.4433639393
 30
0.0
 10
8.4164766576
 20
9.4385262248
 30
0.0
 10
8.3827283166
 20
9.4328526679
 30
0.0
 10
8.3409231384
 20
9.424186348
 30
0.0
 10
8.2914621519
 20
9.4112806475
 30
0.0
 10
8.2428610283
 20
9.3959073851
 30
0.0
 10
8.1952377646
 20
9.3781036017
 30
0.0
 10
8.1487069984
 20
9.3579121011
 30
0.0
 10
8.1033810156
 20
9.3353814903
 30
0.0
 10
8.0593691353
 20
9.3105660214
 30
0.0
 10
8.0167775348
 20
9.2835254742
 30
0.0
 10
7.975708966
 20
9.2543250099
 30
0.0
 10
7.9362625108
 20
9.223035015
 30
0.0
 10
7.8985333367
 20
9.1897309313
 30
0.0
 10
7.8626124648
 20
9.154493073
 30
0.0
 10
7.8285865312
 20
9.1174064455
 30
0.0
 10
7.7965375886
 20
9.0785605202
 30
0.0
 10
7.7665429068
 20
9.0380490167
 30
0.0
 10
7.7386747858
 20
8.995969673
 30
0.0
 10
7.7130003806
 20
8.9524240062
 30
0.0
 10
7.6895815404
 20
8.9075170652
 30
0.0
 10
7.6684746599
 20
8.8613571732
 30
0.0
 10
7.6497305456
 20
8.8140556651
 30
0.0
 10
7.6333942749
 20
8.7657266217
 30
0.0
 10
7.6195051093
 20
8.716486583
 30
0.0
 10
7.6080964025
 20
8.6664542655
 30
0.0
 10
7.5991955239
 20
8.6157502747
 30
0.0
 10
7.5928237957
 20
8.5644968142
 30
0.0
 10
7.5889964453
 20
8.5128173921
 30
0.0
 10
7.5877225711
 20
8.4608365232
 30
0.0
 10
7.5890051241
 20
8.4086794314
 30
0.0
 10
7.5928408824
 20
8.356471747
 30
0.0
 10
7.5992204823
 20
8.3043392041
 30
0.0
 10
7.6081284433
 20
8.2524073392
 30
0.0
 10
7.6195432067
 20
8.2008011915
 30
0.0
 10
7.6334371893
 20
8.149645004
 30
0.0
 10
7.6497768508
 20
8.099061927
 30
0.0
 10
7.668522775
 20
8.049173724
 30
0.0
 10
7.6896297647
 20
8.0001004815
 30
0.0
 10
7.7130469331
 20
7.9519603122
 30
0.0
 10
7.7387178457
 20
7.904869079
 30
0.0
 10
7.7665806557
 20
7.8589401181
 30
0.0
 10
7.7965682528
 20
7.814283968
 30
0.0
 10
7.8286084238
 20
7.7710081058
 30
0.0
 10
7.8626240254
 20
7.7292166903
 30
0.0
 10
7.898533169
 20
7.6890103132
 30
0.0
 10
7.9362494171
 20
7.6504857578
 30
0.0
 10
7.9756819724
 20
7.6137357553
 30
0.0
 10
8.0167359304
 20
7.5788487642
 30
0.0
 10
8.0593124325
 20
7.5459087991
 30
0.0
 10
8.1033091784
 20
7.5149950794
 30
0.0
 10
8.1486196423
 20
7.4861824012
 30
0.0
 10
8.1874032544
 20
7.4639685614
 30
0.0
 10
8.2189777793
 20
7.447316306
 30
0.0
 10
8.2508644677
 20
7.4314356264
 30
0.0
 10
8.2913334635
 20
7.413015799
 30
0.0
 10
8.3407826603
 20
7.3932472872
 30
0.0
 10
8.3909749824
 20
7.3758727018
 30
0.0
 10
8.4417891885
 20
7.3609341789
 30
0.0
 10
8.4931023015
 20
7.3484679291
 30
0.0
 10
8.5362136794
 20
7.3401574268
 30
0.0
 10
8.5708270442
 20
7.3347755956
 30
0.0
 10
8.6054454526
 20
7.3302472409
 30
0.0
 10
8.6315053899
 20
7.3277980445
 30
0.0
 10
8.6488892088
 20
7.3265924725
 30
0.0
  0
SPLINE
  5
2D5
100
AcDbEntity
  8
0
100
AcDbSpline
 62
7
  6
CONTINUOUS
 70
0
 71
3
 72
44
 73
40
 74
0
 42
0.0000001
 43
0.0000001
 44
0.0000000001
 40
0.0
 40
0.0
 40
0.0
 40
0.0
 40
0.0151898148
 40
0.0304071882
 40
0.0456523658
 40
0.0609255145
 40
0.0915533319
 40
0.1222931079
 40
0.1377058781
 40
0.153145979
 40
0.184104024
 40
0.2151659939
 40
0.2463269071
 40
0.2775807274
 40
0.3089204377
 40
0.3403381211
 40
0.3718250503
 40
0.4033717827
 40
0.4349682619
 40
0.4666039232
 40
0.4982678035
 40
0.5299486541
 40
0.5616350547
 40
0.5933155288
 40
0.6249786601
 40
0.6566132075
 40
0.6882082197
 40
0.719753147
 40
0.7512379511
 40
0.7826532116
 40
0.8139902239
 40
0.8452411076
 40
0.8608332892
 40
0.8764013857
 40
0.9074600714
 40
0.9384144996
 40
0.9538526888
 40
0.9692640468
 40
1.0
 40
1.0
 40
1.0
 40
1.0
 10
8.7043240886
 20
9.4348617675
 30
0.0
 10
8.7033928249
 20
9.4273518583
 30
0.0
 10
8.7017308975
 20
9.4122925338
 30
0.0
 10
8.6998428677
 20
9.3896248786
 30
0.0
 10
8.6985584885
 20
9.3668731359
 30
0.0
 10
8.6976513947
 20
9.3364211923
 30
0.0
 10
8.6980344712
 20
9.2982223768
 30
0.0
 10
8.7004315547
 20
9.2600276656
 30
0.0
 10
8.7035514336
 20
9.2294987232
 30
0.0
 10
8.7074787286
 20
9.1989535178
 30
0.0
 10
8.7138899126
 20
9.1608808767
 30
0.0
 10
8.723950903
 20
9.1155419319
 30
0.0
 10
8.7363583832
 20
9.0706348466
 30
0.0
 10
8.7510774309
 20
9.0262859891
 30
0.0
 10
8.7680668124
 20
8.982619155
 30
0.0
 10
8.7872789223
 20
8.9397564945
 30
0.0
 10
8.8086599644
 20
8.8978178311
 30
0.0
 10
8.8321500885
 20
8.8569204216
 30
0.0
 10
8.8576835627
 20
8.8171786065
 30
0.0
 10
8.8851889465
 20
8.7787034931
 30
0.0
 10
8.914589294
 20
8.7416026458
 30
0.0
 10
8.9458023748
 20
8.7059797912
 30
0.0
 10
8.9787409006
 20
8.6719345289
 30
0.0
 10
9.0133127691
 20
8.6395620553
 30
0.0
 10
9.0494213187
 20
8.6089528992
 30
0.0
 10
9.0869655991
 20
8.5801926694
 30
0.0
 10
9.1258406453
 20
8.5533618187
 30
0.0
 10
9.1659377927
 20
8.5285354139
 30
0.0
 10
9.2071448896
 20
8.5057829464
 30
0.0
 10
9.2493469279
 20
8.4851680423
 30
0.0
 10
9.2924251785
 20
8.4667486307
 30
0.0
 10
9.3289832695
 20
8.4532609109
 30
0.0
 10
9.3585464432
 20
8.443619616
 30
0.0
 10
9.3882543576
 20
8.434763417
 30
0.0
 10
9.4257076564
 20
8.4251463196
 30
0.0
 10
9.4635435445
 20
8.417484797
 30
0.0
 10
9.4939395342
 20
8.4125536271
 30
0.0
 10
9.5243450099
 20
8.4084303481
 30
0.0
 10
9.5472439976
 20
8.4062341233
 30
0.0
 10
9.562519684
 20
8.4051747509
 30
0.0
  0
SPLINE
  5
2D6
100
AcDbEntity
  8
0
100
AcDbSpline
 62
7
  6
CONTINUOUS
 70
0
 71
3
 72
39
 73
35
 74
0
 42
0.0000001
 43
0.0000001
 44
0.0000000001
 40
0.0
 40
0.0
 40
0.0
 40
0.0
 40
0.0307551757
 40
0.0615967028
 40
0.0925218866
 40
0.1235274378
 40
0.1546095065
 40
0.185763707
 40
0.2169851483
 40
0.2482684789
 40
0.2796079263
 40
0.3109973317
 40
0.3424301959
 40
0.3738997307
 40
0.4053989007
 40
0.4369204679
 40
0.4684570465
 40
0.5000011532
 40
0.5315452512
 40
0.5630818025
 40
0.5946033235
 40
0.6261024303
 40
0.6575718849
 40
0.6890046513
 40
0.7203939424
 40
0.7517332612
 40
0.7830164488
 40
0.8142377311
 40
0.8453917629
 40
0.8764736559
 40
0.9074789935
 40
0.9384040227
 40
0.9692453456
 40
1.0
 40
1.0
 40
1.0
 40
1.0
 10
11.5625298173
 20
9.206459882
 30
0.0
 10
11.5638869508
 20
9.1946230013
 30
0.0
 10
11.5671076744
 20
9.1709705893
 30
0.0
 10
11.5734349212
 20
9.1356807361
 30
0.0
 10
11.5812538286
 20
9.1005911589
 30
0.0
 10
11.5905497592
 20
9.0657674687
 30
0.0
 10
11.6013055421
 20
9.0312737271
 30
0.0
 10
11.6135013535
 20
8.9971736986
 30
0.0
 10
11.6271146033
 20
8.9635303049
 30
0.0
 10
11.6421200899
 20
8.9304056364
 30
0.0
 10
11.6584901174
 20
8.8978608472
 30
0.0
 10
11.676194496
 20
8.8659560419
 30
0.0
 10
11.6952004527
 20
8.834750076
 30
0.0
 10
11.7154728765
 20
8.8043005403
 30
0.0
 10
11.7369743845
 20
8.7746636751
 30
0.0
 10
11.7596652746
 20
8.7458941916
 30
0.0
 10
11.7835035988
 20
8.7180451538
 30
0.0
 10
11.8084453579
 20
8.6911679733
 30
0.0
 10
11.8344445629
 20
8.6653123209
 30
0.0
 10
11.8614531764
 20
8.6405258914
 30
0.0
 10
11.8894213202
 20
8.6168544169
 30
0.0
 10
11.9182973959
 20
8.5943416317
 30
0.0
 10
11.9480281304
 20
8.5730291469
 30
0.0
 10
11.9785585985
 20
8.552956256
 30
0.0
 10
12.009832446
 20
8.5341600213
 30
0.0
 10
12.0417919831
 20
8.5166752216
 30
0.0
 10
12.0743782074
 20
8.5005341504
 30
0.0
 10
12.1075309441
 20
8.485766574
 30
0.0
 10
12.1411890036
 20
8.4723997991
 30
0.0
 10
12.1752902883
 20
8.4604586159
 30
0.0
 10
12.2097717757
 20
8.4499650185
 30
0.0
 10
12.2445700258
 20
8.4409384127
 30
0.0
 10
12.2796198493
 20
8.4333956568
 30
0.0
 10
12.303146574
 20
8.4293596352
 30
0.0
 10
12.3149292957
 20
8.4275943545
 30
0.0
  0
SPLINE
  5
2D7
100
AcDbEntity
  8
0
100
AcDbSpline
 62
7
  6
CONTINUOUS
 70
0
 71
3
 72
16
 73
12
 74
0
 42
0.0000001
 43
0.0000001
 44
0.0000000001
 40
0.0
 40
0.0
 40
0.0
 40
0.0
 40
0.0496121262
 40
0.1001704711
 40
0.2049099493
 40
0.3158104259
 40
0.4341563469
 40
0.5609917795
 40
0.697163439
 40
0.8433346845
 40
1.0
 40
1.0
 40
1.0
 40
1.0
 10
12.1376460976
 20
7.9672497959
 30
0.0
 10
12.1376460378
 20
7.9680009244
 30
0.0
 10
12.1377031844
 20
7.9695181089
 30
0.0
 10
12.1380442212
 20
7.9726038284
 30
0.0
 10
12.1389095272
 20
7.9765536352
 30
0.0
 10
12.140607794
 20
7.9813285465
 30
0.0
 10
12.1429725765
 20
7.9861843307
 30
0.0
 10
12.1459998791
 20
7.9911100702
 30
0.0
 10
12.1496852802
 20
7.9960977425
 30
0.0
 10
12.1540246644
 20
8.0011390816
 30
0.0
 10
12.1572363996
 20
8.0044157191
 30
0.0
 10
12.1589424109
 20
8.0060635996
 30
0.0
  0
SPLINE
  5
2D8
100
AcDbEntity
  8
0
100
AcDbSpline
 62
7
  6
CONTINUOUS
 70
0
 71
3
 72
52
 73
48
 74
0
 42
0.0000001
 43
0.0000001
 44
0.0000000001
 40
0.0
 40
0.0
 40
0.0
 40
0.0
 40
0.0055575356
 40
0.011177971
 40
0.0169219071
 40
0.0228458128
 40
0.0290006035
 40
0.0354310193
 40
0.0421755037
 40
0.0492663554
 40
0.0567304572
 40
0.0645895726
 40
0.072861298
 40
0.0815593637
 40
0.0906943213
 40
0.1002739841
 40
0.1103036526
 40
0.1207867349
 40
0.131724628
 40
0.1431173346
 40
0.15496333
 40
0.1672598991
 40
0.1800032556
 40
0.1931884905
 40
0.2068099644
 40
0.2208610087
 40
0.2353343701
 40
0.2502219723
 40
0.2812038174
 40
0.3137309249
 40
0.3477182837
 40
0.3830734201
 40
0.4196972559
 40
0.4574848563
 40
0.4963260999
 40
0.5361063183
 40
0.57670689
 40
0.6180058031
 40
0.6598782029
 40
0.7021969238
 40
0.744833016
 40
0.78765628
 40
0.8305357138
 40
0.873340355
 40
0.9159387267
 40
0.9582021968
 40
1.0
 40
1.0
 40
1.0
 40
1.0
 10
9.3762868058
 20
11.3280225662
 30
0.0
 10
9.3762868106
 20
11.3292594673
 30
0.0
 10
9.3764252803
 20
11.3317494248
 30
0.0
 10
9.3770469106
 20
11.3354710517
 30
0.0
 10
9.3780812176
 20
11.3391844009
 30
0.0
 10
9.3795263759
 20
11.3428851196
 30
0.0
 10
9.3813798968
 20
11.3465702384
 30
0.0
 10
9.3836393057
 20
11.3502369402
 30
0.0
 10
9.386302094
 20
11.3538826501
 30
0.0
 10
9.3893655314
 20
11.3575050199
 30
0.0
 10
9.3928270224
 20
11.3611014683
 30
0.0
 10
9.3966835295
 20
11.3646696448
 30
0.0
 10
9.4009320203
 20
11.3682068743
 30
0.0
 10
9.405569035
 20
11.3717106202
 30
0.0
 10
9.4105908968
 20
11.3751782152
 30
0.0
 10
9.4159936239
 20
11.3786069304
 30
0.0
 10
9.421772858
 20
11.3819941694
 30
0.0
 10
9.4279240195
 20
11.385337111
 30
0.0
 10
9.4344421095
 20
11.3886332018
 30
0.0
 10
9.4413219059
 20
11.3918796731
 30
0.0
 10
9.4485578188
 20
11.3950739518
 30
0.0
 10
9.4561439854
 20
11.3982134241
 30
0.0
 10
9.4640742477
 20
11.401295485
 30
0.0
 10
9.4723421357
 20
11.404317692
 30
0.0
 10
9.4809409315
 20
11.4072774656
 30
0.0
 10
9.4898635987
 20
11.4101724758
 30
0.0
 10
9.499102877
 20
11.4130002874
 30
0.0
 10
9.512005839
 20
11.4167275964
 30
0.0
 10
9.5288765824
 20
11.4211893704
 30
0.0
 10
9.5499982239
 20
11.4261717686
 30
0.0
 10
9.5721881321
 20
11.4308345216
 30
0.0
 10
9.5953737175
 20
11.4351622145
 30
0.0
 10
9.6194792791
 20
11.4391405089
 30
0.0
 10
9.6444259768
 20
11.4427562377
 30
0.0
 10
9.6701321855
 20
11.4459974433
 30
0.0
 10
9.6965137534
 20
11.4488534111
 30
0.0
 10
9.7234842939
 20
11.451314703
 30
0.0
 10
9.7509554739
 20
11.4533731874
 30
0.0
 10
9.7788373057
 20
11.4550220642
 30
0.0
 10
9.8070384447
 20
11.4562558862
 30
0.0
 10
9.835466493
 20
11.4570705781
 30
0.0
 10
9.8640282905
 20
11.4574634491
 30
0.0
 10
9.8926302841
 20
11.4574332167
 30
0.0
 10
9.9211786429
 20
11.4569799551
 30
0.0
 10
9.9495800767
 20
11.4561052077
 30
0.0
 10
9.977741158
 20
11.4548117949
 30
0.0
 10
9.9964158474
 20
11.4536658038
 30
0.0
 10
10.0056961969
 20
11.4530222094
 30
0.0
  0
SPLINE
  5
2D9
100
AcDbEntity
  8
0
100
AcDbSpline
 62
7
  6
CONTINUOUS
 70
0
 71
3
 72
47
 73
43
 74
0
 42
0.0000001
 43
0.0000001
 44
0.0000000001
 40
0.0
 40
0.0
 40
0.0
 40
0.0
 40
0.014963353
 40
0.0299432406
 40
0.0449418092
 40
0.059961118
 40
0.0750031226
 40
0.0900696682
 40
0.1051624848
 40
0.1202831709
 40
0.1354331978
 40
0.1506138928
 40
0.1658264403
 40
0.181071877
 40
0.1963510816
 40
0.2116647828
 40
0.2270135445
 40
0.2423977748
 40
0.2732691453
 40
0.3042833118
 40
0.335437779
 40
0.3667275955
 40
0.398145471
 40
0.4296819298
 40
0.4613254948
 40
0.4930629001
 40
0.5248793269
 40
0.5567586599
 40
0.588683758
 40
0.6206367372
 40
0.6525992623
 40
0.684552844
 40
0.7164791375
 40
0.7483602394
 40
0.78017898
 40
0.8119192057
 40
0.8435660511
 40
0.8751061987
 40
0.9065280926
 40
0.9378222693
 40
0.9689810828
 40
1.0
 40
1.0
 40
1.0
 40
1.0
 10
8.1523064038
 20
9.3442737238
 30
0.0
 10
8.1461844955
 20
9.3351361449
 30
0.0
 10
8.1342588097
 20
9.3166308063
 30
0.0
 10
8.1173594267
 20
9.288238604
 30
0.0
 10
8.1014578406
 20
9.2592283921
 30
0.0
 10
8.0865721409
 20
9.2296330813
 30
0.0
 10
8.0727190039
 20
9.19948561
 30
0.0
 10
8.0599137252
 20
9.1688198347
 30
0.0
 10
8.0481708584
 20
9.1376699535
 30
0.0
 10
8.0375033091
 20
9.1060709025
 30
0.0
 10
8.0279231122
 20
9.0740579866
 30
0.0
 10
8.0194409784
 20
9.0416670212
 30
0.0
 10
8.012066237
 20
9.0089342677
 30
0.0
 10
8.0058073537
 20
8.9758962997
 30
0.0
 10
8.0006710501
 20
8.9425900842
 30
0.0
 10
7.996663261
 20
8.9090529671
 30
0.0
 10
7.993788357
 20
8.8753219873
 30
0.0
 10
7.9914672938
 20
8.8300923062
 30
0.0
 10
7.9914211013
 20
8.7732490298
 30
0.0
 10
7.9959193743
 20
8.7049593752
 30
0.0
 10
8.0049500781
 20
8.6368089491
 30
0.0
 10
8.018472491
 20
8.5691043053
 30
0.0
 10
8.0364256964
 20
8.5021473035
 30
0.0
 10
8.0587291006
 20
8.4362371059
 30
0.0
 10
8.0852827427
 20
8.3716679653
 30
0.0
 10
8.1159677235
 20
8.3087281531
 30
0.0
 10
8.1506467431
 20
8.2476986179
 30
0.0
 10
8.1891647456
 20
8.188851776
 30
0.0
 10
8.2313496011
 20
8.1324503032
 30
0.0
 10
8.2770128692
 20
8.0787459757
 30
0.0
 10
8.3259506381
 20
8.027978564
 30
0.0
 10
8.3779443922
 20
7.9803747374
 30
0.0
 10
8.4327620031
 20
7.9361470732
 30
0.0
 10
8.4901587715
 20
7.8954931316
 30
0.0
 10
8.5498785011
 20
7.8585945777
 30
0.0
 10
8.6116546394
 20
7.8256163768
 30
0.0
 10
8.6752114206
 20
7.7967060628
 30
0.0
 10
8.7402651818
 20
7.7719930489
 30
0.0
 10
8.8065252157
 20
7.7515880185
 30
0.0
 10
8.8736965912
 20
7.7355825995
 30
0.0
 10
8.9414754583
 20
7.7240487818
 30
0.0
 10
8.9869781594
 20
7.7193641613
 30
0.0
 10
9.0097239103
 20
7.7177867382
 30
0.0
  0
SPLINE
  5
2DA
100
AcDbEntity
  8
0
100
AcDbSpline
 62
7
  6
CONTINUOUS
 70
0
 71
3
 72
46
 73
42
 74
0
 42
0.0000001
 43
0.0000001
 44
0.0000000001
 40
0.0
 40
0.0
 40
0.0
 40
0.0
 40
0.095829409
 40
0.1890960784
 40
0.2345917978
 40
0.2792358259
 40
0.3229615504
 40
0.365704342
 40
0.407401575
 40
0.447993293
 40
0.4874220177
 40
0.5256333073
 40
0.5625758845
 40
0.5982017919
 40
0.6324671326
 40
0.6653319927
 40
0.6967612366
 40
0.7267250647
 40
0.755199394
 40
0.7821672584
 40
0.8076194408
 40
0.8315560926
 40
0.8429601443
 40
0.8539906923
 40
0.8646512655
 40
0.8749465835
 40
0.8848823989
 40
0.8944656812
 40
0.9037050043
 40
0.9126104669
 40
0.9211938271
 40
0.9294689277
 40
0.9374517605
 40
0.9451605336
 40
0.9598347106
 40
0.9668565932
 40
0.9737034682
 40
0.9804067254
 40
0.986999995
 40
0.9935187866
 40
1.0
 40
1.0
 40
1.0
 40
1.0
 10
13.4830295158
 20
11.2118683247
 30
0.0
 10
13.4960525743
 20
11.2109651725
 30
0.0
 10
13.5217315426
 20
11.2088965698
 30
0.0
 10
13.553519486
 20
11.2055792973
 30
0.0
 10
13.5783159278
 20
11.2025147323
 30
0.0
 10
13.5963838666
 20
11.2000421203
 30
0.0
 10
13.6140458043
 20
11.1973806432
 30
0.0
 10
13.6312722681
 20
11.1945347422
 30
0.0
 10
13.6480344751
 20
11.1915091675
 30
0.0
 10
13.6643044247
 20
11.1883090671
 30
0.0
 10
13.680054947
 20
11.1849397651
 30
0.0
 10
13.6952597598
 20
11.1814069546
 30
0.0
 10
13.7098935043
 20
11.1777165976
 30
0.0
 10
13.7239317846
 20
11.1738748382
 30
0.0
 10
13.7373512406
 20
11.1698882089
 30
0.0
 10
13.7501295574
 20
11.1657633564
 30
0.0
 10
13.7622455296
 20
11.1615072034
 30
0.0
 10
13.7736791226
 20
11.1571269275
 30
0.0
 10
13.7844114362
 20
11.1526297558
 30
0.0
 10
13.7944249372
 20
11.1480232128
 30
0.0
 10
13.8037030555
 20
11.143314902
 30
0.0
 10
13.8109219244
 20
11.1392497051
 30
0.0
 10
13.8163066618
 20
11.1359458146
 30
0.0
 10
13.8200864655
 20
11.1334874152
 30
0.0
 10
13.8236713651
 20
11.1310094559
 30
0.0
 10
13.8270599283
 20
11.1285129644
 30
0.0
 10
13.8302507552
 20
11.1259989498
 30
0.0
 10
13.8332424849
 20
11.1234683663
 30
0.0
 10
13.8360339198
 20
11.1209222611
 30
0.0
 10
13.8386239152
 20
11.1183616509
 30
0.0
 10
13.8410113395
 20
11.1157874559
 30
0.0
 10
13.8431951531
 20
11.1132007646
 30
0.0
 10
13.8451745953
 20
11.1106023204
 30
0.0
 10
13.8475013076
 20
11.1071805991
 30
0.0
 10
13.8494697828
 20
11.103678009
 30
0.0
 10
13.8510294297
 20
11.1001135393
 30
0.0
 10
13.8519737224
 20
11.097472431
 30
0.0
 10
13.8527088825
 20
11.0948261567
 30
0.0
 10
13.8532344515
 20
11.092175759
 30
0.0
 10
13.8535499021
 20
11.0895227739
 30
0.0
 10
13.8536200789
 20
11.0877510611
 30
0.0
 10
13.8536200754
 20
11.0868681594
 30
0.0
  0
SPLINE
  5
2DB
100
AcDbEntity
  8
0
100
AcDbSpline
 62
7
  6
CONTINUOUS
 70
0
 71
3
 72
52
 73
48
 74
0
 42
0.0000001
 43
0.0000001
 44
0.0000000001
 40
0.0
 40
0.0
 40
0.0
 40
0.0
 40
0.0055575356
 40
0.011177971
 40
0.0169219071
 40
0.0228458128
 40
0.0290006035
 40
0.0354310193
 40
0.0421755037
 40
0.0492663554
 40
0.0567304572
 40
0.0645895726
 40
0.072861298
 40
0.0815593637
 40
0.0906943213
 40
0.1002739841
 40
0.1103036526
 40
0.1207867349
 40
0.131724628
 40
0.1431173346
 40
0.15496333
 40
0.1672598991
 40
0.1800032556
 40
0.1931884905
 40
0.2068099644
 40
0.2208610087
 40
0.2353343701
 40
0.2502219723
 40
0.2812038174
 40
0.3137309249
 40
0.3477182837
 40
0.3830734201
 40
0.4196972559
 40
0.4574848563
 40
0.4963260999
 40
0.5361063183
 40
0.57670689
 40
0.6180058031
 40
0.6598782029
 40
0.7021969238
 40
0.744833016
 40
0.78765628
 40
0.8305357138
 40
0.873340355
 40
0.9159387267
 40
0.9582021968
 40
1.0
 40
1.0
 40
1.0
 40
1.0
 10
12.8536201246
 20
11.0868686815
 30
0.0
 10
12.8536201294
 20
11.0881055826
 30
0.0
 10
12.8537585992
 20
11.09059554
 30
0.0
 10
12.8543802295
 20
11.094317167
 30
0.0
 10
12.8554145364
 20
11.0980305162
 30
0.0
 10
12.8568596948
 20
11.1017312348
 30
0.0
 10
12.8587132157
 20
11.1054163536
 30
0.0
 10
12.8609726245
 20
11.1090830554
 30
0.0
 10
12.8636354128
 20
11.1127287654
 30
0.0
 10
12.8666988502
 20
11.1163511351
 30
0.0
 10
12.8701603413
 20
11.1199475835
 30
0.0
 10
12.8740168483
 20
11.1235157601
 30
0.0
 10
12.8782653392
 20
11.1270529895
 30
0.0
 10
12.8829023539
 20
11.1305567354
 30
0.0
 10
12.8879242156
 20
11.1340243305
 30
0.0
 10
12.8933269428
 20
11.1374530457
 30
0.0
 10
12.8991061768
 20
11.1408402847
 30
0.0
 10
12.9052573384
 20
11.1441832263
 30
0.0
 10
12.9117754283
 20
11.1474793171
 30
0.0
 10
12.9186552248
 20
11.1507257883
 30
0.0
 10
12.9258911377
 20
11.153920067
 30
0.0
 10
12.9334773042
 20
11.1570595394
 30
0.0
 10
12.9414075665
 20
11.1601416003
 30
0.0
 10
12.9496754545
 20
11.1631638073
 30
0.0
 10
12.9582742504
 20
11.1661235808
 30
0.0
 10
12.9671969176
 20
11.1690185911
 30
0.0
 10
12.9764361958
 20
11.1718464027
 30
0.0
 10
12.9893391578
 20
11.1755737117
 30
0.0
 10
13.0062099013
 20
11.1800354857
 30
0.0
 10
13.0273315428
 20
11.1850178839
 30
0.0
 10
13.049521451
 20
11.1896806368
 30
0.0
 10
13.0727070364
 20
11.1940083298
 30
0.0
 10
13.096812598
 20
11.1979866242
 30
0.0
 10
13.1217592956
 20
11.201602353
 30
0.0
 10
13.1474655044
 20
11.2048435586
 30
0.0
 10
13.1738470722
 20
11.2076995264
 30
0.0
 10
13.2008176128
 20
11.2101608183
 30
0.0
 10
13.2282887927
 20
11.2122193027
 30
0.0
 10
13.2561706245
 20
11.2138681794
 30
0.0
 10
13.2843717635
 20
11.2151020015
 30
0.0
 10
13.3127998119
 20
11.2159166933
 30
0.0
 10
13.3413616094
 20
11.2163095644
 30
0.0
 10
13.369963603
 20
11.216279332
 30
0.0
 10
13.3985119618
 20
11.2158260704
 30
0.0
 10
13.4269133956
 20
11.2149513229
 30
0.0
 10
13.4550744768
 20
11.2136579102
 30
0.0
 10
13.4737491663
 20
11.2125119191
 30
0.0
 10
13.4830295158
 20
11.2118683247
 30
0.0
  0
SPLINE
  5
2DC
100
AcDbEntity
  8
0
100
AcDbSpline
 62
7
  6
CONTINUOUS
 70
0
 71
3
 72
11
 73
7
 74
0
 42
0.0000001
 43
0.0000001
 44
0.0000000001
 40
0.0
 40
0.0
 40
0.0
 40
0.0
 40
0.2431120997
 40
0.4911786448
 40
0.7436591962
 40
1.0
 40
1.0
 40
1.0
 40
1.0
 10
9.0657009214
 20
8.1474220122
 30
0.0
 10
9.0523756947
 20
8.149173126
 30
0.0
 10
9.0254252932
 20
8.152498153
 30
0.0
 10
8.9845512216
 20
8.1569203642
 30
0.0
 10
8.9428895158
 20
8.1608204977
 30
0.0
 10
8.9148482352
 20
8.1630510252
 30
0.0
 10
8.9007144876
 20
8.1640793554
 30
0.0
  0
SPLINE
  5
2DD
100
AcDbEntity
  8
0
100
AcDbSpline
 62
7
  6
CONTINUOUS
 70
0
 71
3
 72
30
 73
26
 74
0
 42
0.0000001
 43
0.0000001
 44
0.0000000001
 40
0.0
 40
0.0
 40
0.0
 40
0.0
 40
0.0206410215
 40
0.0421581532
 40
0.0645436945
 40
0.0877874826
 40
0.1118772693
 40
0.1367988011
 40
0.1625361113
 40
0.1890715581
 40
0.2163860565
 40
0.2444590947
 40
0.2732689224
 40
0.3027925569
 40
0.3330059391
 40
0.3638839367
 40
0.4275274876
 40
0.4935050835
 40
0.5615846538
 40
0.631523039
 40
0.7030675396
 40
0.7759573893
 40
0.8499251768
 40
0.9246982336
 40
1.0
 40
1.0
 40
1.0
 40
1.0
 10
9.2023767863
 20
8.1733722706
 30
0.0
 10
9.1991263302
 20
8.1748924593
 30
0.0
 10
9.1924419613
 20
8.1779008382
 30
0.0
 10
9.1820917567
 20
8.182237014
 30
0.0
 10
9.1712185028
 20
8.1864868182
 30
0.0
 10
9.1598330342
 20
8.1906460037
 30
0.0
 10
9.1479465559
 20
8.1947104265
 30
0.0
 10
9.135570831
 20
8.1986760592
 30
0.0
 10
9.1227181037
 20
8.2025389314
 30
0.0
 10
9.1094011074
 20
8.206295211
 30
0.0
 10
9.0956330419
 20
8.2099411352
 30
0.0
 10
9.081427563
 20
8.2134730825
 30
0.0
 10
9.0667987655
 20
8.2168875176
 30
0.0
 10
9.0517611741
 20
8.2201810399
 30
0.0
 10
9.0363297034
 20
8.2233503791
 30
0.0
 10
9.0150350435
 20
8.2274475634
 30
0.0
 10
8.9875417185
 20
8.2322230816
 30
0.0
 10
8.9535549009
 20
8.2373554277
 30
0.0
 10
8.9183841194
 20
8.2419249079
 30
0.0
 10
8.8821691198
 20
8.2459131966
 30
0.0
 10
8.8450536421
 20
8.2493042684
 30
0.0
 10
8.8071851186
 20
8.2520845145
 30
0.0
 10
8.7687139438
 20
8.2542427809
 30
0.0
 10
8.7297931074
 20
8.2557704037
 30
0.0
 10
8.7037084229
 20
8.2563629714
 30
0.0
 10
8.6906188382
 20
8.2565534697
 30
0.0
  0
SPLINE
  5
2DE
100
AcDbEntity
  8
0
100
AcDbSpline
 62
7
  6
CONTINUOUS
 70
0
 71
3
 72
50
 73
46
 74
0
 42
0.0000001
 43
0.0000001
 44
0.0000000001
 40
0.0
 40
0.0
 40
0.0
 40
0.0
 40
0.0055575484
 40
0.0111779922
 40
0.016921945
 40
0.0228458833
 40
0.0290006815
 40
0.0354311436
 40
0.0421756504
 40
0.0492665308
 40
0.0567306759
 40
0.0645898217
 40
0.0728615778
 40
0.0815596977
 40
0.0906946685
 40
0.100274387
 40
0.1103041016
 40
0.1207871917
 40
0.1317251696
 40
0.1431178633
 40
0.1549639321
 40
0.16726054
 40
0.1800039018
 40
0.1931892317
 40
0.2208607128
 40
0.2502207991
 40
0.2812027127
 40
0.3137299142
 40
0.3477173552
 40
0.383072554
 40
0.4196964471
 40
0.4574841188
 40
0.4963254304
 40
0.5361057043
 40
0.5767063272
 40
0.6180053027
 40
0.6598777724
 40
0.7021965482
 40
0.7448326997
 40
0.7876559964
 40
0.8305355066
 40
0.8733402465
 40
0.9159384006
 40
0.9582025777
 40
1.0
 40
1.0
 40
1.0
 40
1.0
 10
8.564708833
 20
11.093413896
 30
0.0
 10
8.5647088398
 20
11.0942648838
 30
0.0
 10
8.5648041806
 20
11.0959779693
 30
0.0
 10
8.565231832
 20
11.0985384499
 30
0.0
 10
8.5659434595
 20
11.1010932333
 30
0.0
 10
8.5669377724
 20
11.1036393106
 30
0.0
 10
8.5682129749
 20
11.1061746897
 30
0.0
 10
8.569767498
 20
11.1086973561
 30
0.0
 10
8.5715994967
 20
11.1112056119
 30
0.0
 10
8.5737071575
 20
11.1136977984
 30
0.0
 10
8.576088684
 20
11.1161721449
 30
0.0
 10
8.5787419712
 20
11.1186270493
 30
0.0
 10
8.581664943
 20
11.1210606647
 30
0.0
 10
8.5848552303
 20
11.1234712223
 30
0.0
 10
8.588310271
 20
11.1258569429
 30
0.0
 10
8.5920273666
 20
11.1282158822
 30
0.0
 10
8.5960034911
 20
11.1305462931
 30
0.0
 10
8.600235491
 20
11.1328462562
 30
0.0
 10
8.6047199572
 20
11.1351139261
 30
0.0
 10
8.6094532515
 20
11.1373475317
 30
0.0
 10
8.6144315759
 20
11.1395451663
 30
0.0
 10
8.6196508621
 20
11.1417051172
 30
0.0
 10
8.6251068889
 20
11.1438256084
 30
0.0
 10
8.6328159346
 20
11.1466433965
 30
0.0
 10
8.6430187469
 20
11.1500431956
 30
0.0
 10
8.6559412747
 20
11.15387614
 30
0.0
 10
8.6696908528
 20
11.1575125554
 30
0.0
 10
8.6842226109
 20
11.1609404196
 30
0.0
 10
8.69948925
 20
11.1641483862
 30
0.0
 10
8.7154409304
 20
11.1671258319
 30
0.0
 10
8.7320255441
 20
11.1698628955
 30
0.0
 10
8.7491888617
 20
11.1723505071
 30
0.0
 10
8.7668747206
 20
11.1745804478
 30
0.0
 10
8.7850252219
 20
11.1765453497
 30
0.0
 10
8.8035809343
 20
11.1782387185
 30
0.0
 10
8.8224810883
 20
11.1796549522
 30
0.0
 10
8.8416637712
 20
11.1807893671
 30
0.0
 10
8.861066136
 20
11.1816382295
 30
0.0
 10
8.8806246082
 20
11.1821987371
 30
0.0
 10
8.9002751027
 20
11.1824690398
 30
0.0
 10
8.9199532583
 20
11.1824482383
 30
0.0
 10
8.9395944746
 20
11.1821363843
 30
0.0
 10
8.9591347038
 20
11.1815345649
 30
0.0
 10
8.9785094965
 20
11.1806446841
 30
0.0
 10
8.9913577019
 20
11.1798562496
 30
0.0
 10
8.9977425086
 20
11.1794134617
 30
0.0
  0
SPLINE
  5
2DF
100
AcDbEntity
  8
0
100
AcDbSpline
 62
7
  6
CONTINUOUS
 70
0
 71
3
 72
76
 73
72
 74
0
 42
0.0000001
 43
0.0000001
 44
0.0000000001
 40
0.0
 40
0.0
 40
0.0
 40
0.0
 40
0.0156747225
 40
0.0235325474
 40
0.0314031326
 40
0.0471815238
 40
0.0630096701
 40
0.0709422968
 40
0.0788865451
 40
0.0948074601
 40
0.1107706215
 40
0.1267727505
 40
0.1428102138
 40
0.1588790639
 40
0.1749750748
 40
0.1910937806
 40
0.2072305163
 40
0.2233804589
 40
0.2395386705
 40
0.2557001411
 40
0.2718598323
 40
0.2880127214
 40
0.3041538447
 40
0.3202783411
 40
0.3363814948
 40
0.3524587772
 40
0.3685058876
 40
0.3845187926
 40
0.4004937633
 40
0.4164274113
 40
0.4323167209
 40
0.4481590804
 40
0.4639523087
 40
0.4796946798
 40
0.495384943
 40
0.5110223396
 40
0.5266066146
 40
0.542138025
 40
0.5576173419
 40
0.5730458487
 40
0.588425333
 40
0.6037580741
 40
0.6190468241
 40
0.6342947845
 40
0.6495055768
 40
0.6646832082
 40
0.6798320326
 40
0.6949567066
 40
0.7100621427
 40
0.7251534575
 40
0.7402359181
 40
0.7553148863
 40
0.7703957614
 40
0.7854839222
 40
0.8005846694
 40
0.8157031697
 40
0.830844401
 40
0.8460131002
 40
0.8612137149
 40
0.8764503584
 40
0.8917267696
 40
0.9070462756
 40
0.9147237278
 40
0.9224129996
 40
0.9301143737
 40
0.9378281062
 40
0.9532923541
 40
0.9688083027
 40
0.976586557
 40
0.9843782719
 40
1.0
 40
1.0
 40
1.0
 40
1.0
 10
8.63754244
 20
9.4794602278
 30
0.0
 10
8.6556202902
 20
9.4782065246
 30
0.0
 10
8.6827205867
 20
9.4756595675
 30
0.0
 10
8.7187209898
 20
9.4709504141
 30
0.0
 10
8.7547162102
 20
9.4653537282
 30
0.0
 10
8.7995482836
 20
9.4567115941
 30
0.0
 10
8.8439846576
 20
9.445915905
 30
0.0
 10
8.8792738431
 20
9.4359971401
 30
0.0
 10
8.9144202226
 20
9.4252123459
 30
0.0
 10
8.9579494685
 20
9.4101443566
 30
0.0
 10
9.009372705
 20
9.3895865754
 30
0.0
 10
9.0599004497
 20
9.3665884778
 30
0.0
 10
9.1094103306
 20
9.3412057034
 30
0.0
 10
9.1577833904
 20
9.3134993608
 30
0.0
 10
9.2049031502
 20
9.2835362095
 30
0.0
 10
9.2506562191
 20
9.2513884144
 30
0.0
 10
9.2949324795
 20
9.2171333986
 30
0.0
 10
9.3376253706
 20
9.1808536449
 30
0.0
 10
9.3786321382
 20
9.1426365008
 30
0.0
 10
9.417854082
 20
9.1025739683
 30
0.0
 10
9.4551967914
 20
9.0607624839
 30
0.0
 10
9.4905703718
 20
9.0173026872
 30
0.0
 10
9.52388966
 20
8.9722991805
 30
0.0
 10
9.5550744279
 20
8.9258602777
 30
0.0
 10
9.5840495756
 20
8.8780977457
 30
0.0
 10
9.6107453105
 20
8.8291265361
 30
0.0
 10
9.6350973206
 20
8.7790645134
 30
0.0
 10
9.6570469275
 20
8.7280321703
 30
0.0
 10
9.6765412242
 20
8.676152338
 30
0.0
 10
9.6935332026
 20
8.6235498924
 30
0.0
 10
9.7079818678
 20
8.570351456
 30
0.0
 10
9.7198523365
 20
8.5166850948
 30
0.0
 10
9.7291159222
 20
8.462680012
 30
0.0
 10
9.7357502055
 20
8.4084662394
 30
0.0
 10
9.7397390897
 20
8.3541743258
 30
0.0
 10
9.741072841
 20
8.299935025
 30
0.0
 10
9.7397481149
 20
8.2458789821
 30
0.0
 10
9.7357679743
 20
8.1921364196
 30
0.0
 10
9.7291418771
 20
8.1388368239
 30
0.0
 10
9.7198856565
 20
8.0861086344
 30
0.0
 10
9.7080214862
 20
8.0340789344
 30
0.0
 10
9.6935778303
 20
7.9828731442
 30
0.0
 10
9.6765893779
 20
7.9326147182
 30
0.0
 10
9.6570969632
 20
7.8834248461
 30
0.0
 10
9.63514747
 20
7.8354221587
 30
0.0
 10
9.6107937216
 20
7.788722439
 30
0.0
 10
9.5840943548
 20
7.7434383403
 30
0.0
 10
9.5551136839
 20
7.6996791095
 30
0.0
 10
9.5239215484
 20
7.6575503166
 30
0.0
 10
9.4905931383
 20
7.6171536
 30
0.0
 10
9.4552088135
 20
7.5785864168
 30
0.0
 10
9.4178539077
 20
7.5419418048
 30
0.0
 10
9.3786185214
 20
7.5073081538
 30
0.0
 10
9.337597301
 20
7.4747689906
 30
0.0
 10
9.294889208
 20
7.4444027747
 30
0.0
 10
9.2505972751
 20
7.4162827079
 30
0.0
 10
9.2048283606
 20
7.3904765575
 30
0.0
 10
9.1576928599
 20
7.3670464895
 30
0.0
 10
9.1093045385
 20
7.3460489311
 30
0.0
 10
9.059779878
 20
7.3275343699
 30
0.0
 10
9.0092391885
 20
7.3115474942
 30
0.0
 10
8.966405213
 20
7.3003711439
 30
0.0
 10
8.9317594735
 20
7.292727442
 30
0.0
 10
8.905577031
 20
7.2876428884
 30
0.0
 10
8.8792332319
 20
7.2832140914
 30
0.0
 10
8.8438872204
 20
7.2781832769
 30
0.0
 10
8.7993743642
 20
7.2735501216
 30
0.0
 10
8.7546119206
 20
7.2711373425
 30
0.0
 10
8.7186757443
 20
7.2705356899
 30
0.0
 10
8.6826140919
 20
7.2708217852
 30
0.0
 10
8.6555591711
 20
7.2720361153
 30
0.0
 10
8.63754244
 20
7.2732855799
 30
0.0
  0
SPLINE
  5
2E0
100
AcDbEntity
  8
0
100
AcDbSpline
 62
7
  6
CONTINUOUS
 70
0
 71
3
 72
64
 73
60
 74
0
 42
0.0000001
 43
0.0000001
 44
0.0000000001
 40
0.0
 40
0.0
 40
0.0
 40
0.0
 40
0.0356736465
 40
0.0713237004
 40
0.1069492024
 40
0.1425574532
 40
0.1781641447
 40
0.2137926327
 40
0.2494723827
 40
0.2852366123
 40
0.3211192927
 40
0.3571515161
 40
0.3933575488
 40
0.4297504852
 40
0.4663274793
 40
0.4846796781
 40
0.5030668978
 40
0.5399141892
 40
0.5767889596
 40
0.6135707087
 40
0.6318780623
 40
0.6500975241
 40
0.6861589917
 40
0.7039389273
 40
0.7215051581
 40
0.7388204932
 40
0.7558461019
 40
0.7725421705
 40
0.7888685138
 40
0.8047851692
 40
0.8202532244
 40
0.8352354977
 40
0.8496971471
 40
0.8636064531
 40
0.8769354089
 40
0.8896600866
 40
0.9017611692
 40
0.9132245202
 40
0.9187141665
 40
0.9240415752
 40
0.9292065198
 40
0.9342093202
 40
0.9390506017
 40
0.9437314345
 40
0.9482534575
 40
0.952618716
 40
0.9568298108
 40
0.9608899732
 40
0.9648029947
 40
0.9685733559
 40
0.9722062849
 40
0.9757077703
 40
0.9790846407
 40
0.9823446165
 40
0.9885472686
 40
0.9915124288
 40
0.9944011808
 40
0.9972259713
 40
1.0
 40
1.0
 40
1.0
 40
1.0
 10
8.6419115388
 20
9.4401508418
 30
0.0
 10
8.6392606663
 20
9.423543778
 30
0.0
 10
8.634942178
 20
9.3901751244
 30
0.0
 10
8.6314697121
 20
9.3398478132
 30
0.0
 10
8.6310318082
 20
9.2894315061
 30
0.0
 10
8.6336336059
 20
9.2391014768
 30
0.0
 10
8.6392546517
 20
9.1890175578
 30
0.0
 10
8.6478509095
 20
9.1393243229
 30
0.0
 10
8.6593572417
 20
9.0901480691
 30
0.0
 10
8.6736908822
 20
9.0415968098
 30
0.0
 10
8.6907547584
 20
8.9937617566
 30
0.0
 10
8.7104399421
 20
8.9467204972
 30
0.0
 10
8.7326267662
 20
8.9005409774
 30
0.0
 10
8.7571834557
 20
8.8552871001
 30
0.0
 10
8.7794768998
 20
8.8184388308
 30
0.0
 10
8.798344117
 20
8.7894771557
 30
0.0
 10
8.8179039298
 20
8.7608241356
 30
0.0
 10
8.8435088603
 20
8.7257382285
 30
0.0
 10
8.8758523194
 20
8.684886031
 30
0.0
 10
8.9039902013
 20
8.6518916
 30
0.0
 10
8.9270697805
 20
8.6261669809
 30
0.0
 10
8.9503256199
 20
8.6010625427
 30
0.0
 10
8.9739718146
 20
8.5766646674
 30
0.0
 10
8.997878667
 20
8.5529643917
 30
0.0
 10
9.0157218287
 20
8.535702589
 30
0.0
 10
9.0334975428
 20
8.5188849633
 30
0.0
 10
9.0511386221
 20
8.5025237681
 30
0.0
 10
9.0685755435
 20
8.486629515
 30
0.0
 10
9.085737531
 20
8.4712106973
 30
0.0
 10
9.1025532039
 20
8.4562732778
 30
0.0
 10
9.1189514163
 20
8.441820316
 30
0.0
 10
9.1348623303
 20
8.4278519481
 30
0.0
 10
9.1502182002
 20
8.4143651528
 30
0.0
 10
9.164954165
 20
8.4013536776
 30
0.0
 10
9.1790090178
 20
8.3888082371
 30
0.0
 10
9.192325741
 20
8.3767166661
 30
0.0
 10
9.2048517027
 20
8.3650640978
 30
0.0
 10
9.2147286931
 20
8.3555736138
 30
0.0
 10
9.2221856419
 20
8.3481762741
 30
0.0
 10
9.2274713812
 20
8.3428070201
 30
0.0
 10
9.2325264665
 20
8.3375336128
 30
0.0
 10
9.2373467058
 20
8.3323535496
 30
0.0
 10
9.2419280221
 20
8.3272641031
 30
0.0
 10
9.2462666086
 20
8.3222625252
 30
0.0
 10
9.2503591613
 20
8.3173462469
 30
0.0
 10
9.2542023866
 20
8.3125124635
 30
0.0
 10
9.2577933012
 20
8.3077584562
 30
0.0
 10
9.2611293808
 20
8.3030816803
 30
0.0
 10
9.2642080277
 20
8.298479393
 30
0.0
 10
9.2670269771
 20
8.2939490236
 30
0.0
 10
9.2695843774
 20
8.2894881285
 30
0.0
 10
9.2718781877
 20
8.2850942591
 30
0.0
 10
9.2739068541
 20
8.2807647502
 30
0.0
 10
9.2762177633
 20
8.2751689755
 30
0.0
 10
9.2780500659
 20
8.2695896294
 30
0.0
 10
9.2793418587
 20
8.2640516971
 30
0.0
 10
9.2800250267
 20
8.2600149179
 30
0.0
 10
9.2804361098
 20
8.2560321123
 30
0.0
 10
9.2805291706
 20
8.2533918758
 30
0.0
 10
9.2805292468
 20
8.2520841407
 30
0.0
  0
SPLINE
  5
2E1
100
AcDbEntity
  8
0
100
AcDbSpline
 62
7
  6
CONTINUOUS
 70
0
 71
3
 72
46
 73
42
 74
0
 42
0.0000001
 43
0.0000001
 44
0.0000000001
 40
0.0
 40
0.0
 40
0.0
 40
0.0
 40
0.095829409
 40
0.1890960784
 40
0.2345917978
 40
0.2792358259
 40
0.3229615504
 40
0.365704342
 40
0.407401575
 40
0.447993293
 40
0.4874220177
 40
0.5256333073
 40
0.5625758845
 40
0.5982017919
 40
0.6324671326
 40
0.6653319927
 40
0.6967612366
 40
0.7267250647
 40
0.755199394
 40
0.7821672584
 40
0.8076194408
 40
0.8315560926
 40
0.8429601443
 40
0.8539906923
 40
0.8646512655
 40
0.8749465835
 40
0.8848823989
 40
0.8944656812
 40
0.9037050043
 40
0.9126104669
 40
0.9211938271
 40
0.9294689277
 40
0.9374517605
 40
0.9451605336
 40
0.9598347106
 40
0.9668565932
 40
0.9737034682
 40
0.9804067254
 40
0.986999995
 40
0.9935187866
 40
1.0
 40
1.0
 40
1.0
 40
1.0
 10
10.0056961969
 20
11.4530222094
 30
0.0
 10
10.0187192554
 20
11.4521190572
 30
0.0
 10
10.0443982237
 20
11.4500504545
 30
0.0
 10
10.0761861671
 20
11.446733182
 30
0.0
 10
10.100982609
 20
11.4436686171
 30
0.0
 10
10.1190505477
 20
11.441196005
 30
0.0
 10
10.1367124854
 20
11.4385345279
 30
0.0
 10
10.1539389492
 20
11.435688627
 30
0.0
 10
10.1707011563
 20
11.4326630522
 30
0.0
 10
10.1869711058
 20
11.4294629518
 30
0.0
 10
10.2027216282
 20
11.4260936498
 30
0.0
 10
10.217926441
 20
11.4225608393
 30
0.0
 10
10.2325601854
 20
11.4188704823
 30
0.0
 10
10.2465984657
 20
11.4150287229
 30
0.0
 10
10.2600179218
 20
11.4110420937
 30
0.0
 10
10.2727962385
 20
11.4069172412
 30
0.0
 10
10.2849122107
 20
11.4026610881
 30
0.0
 10
10.2963458038
 20
11.3982808123
 30
0.0
 10
10.3070781173
 20
11.3937836405
 30
0.0
 10
10.3170916184
 20
11.3891770976
 30
0.0
 10
10.3263697367
 20
11.3844687867
 30
0.0
 10
10.3335886055
 20
11.3804035899
 30
0.0
 10
10.3389733429
 20
11.3770996993
 30
0.0
 10
10.3427531466
 20
11.3746413
 30
0.0
 10
10.3463380462
 20
11.3721633406
 30
0.0
 10
10.3497266094
 20
11.3696668492
 30
0.0
 10
10.3529174364
 20
11.3671528345
 30
0.0
 10
10.355909166
 20
11.364622251
 30
0.0
 10
10.358700601
 20
11.3620761458
 30
0.0
 10
10.3612905963
 20
11.3595155356
 30
0.0
 10
10.3636780206
 20
11.3569413406
 30
0.0
 10
10.3658618343
 20
11.3543546494
 30
0.0
 10
10.3678412764
 20
11.3517562052
 30
0.0
 10
10.3701679888
 20
11.3483344839
 30
0.0
 10
10.372136464
 20
11.3448318937
 30
0.0
 10
10.3736961109
 20
11.3412674241
 30
0.0
 10
10.3746404035
 20
11.3386263157
 30
0.0
 10
10.3753755637
 20
11.3359800415
 30
0.0
 10
10.3759011326
 20
11.3333296438
 30
0.0
 10
10.3762165833
 20
11.3306766586
 30
0.0
 10
10.37628676
 20
11.3289049458
 30
0.0
 10
10.3762867566
 20
11.3280220441
 30
0.0
  0
SPLINE
  5
2E2
100
AcDbEntity
  8
0
100
AcDbSpline
 62
7
  6
CONTINUOUS
 70
0
 71
3
 72
76
 73
72
 74
0
 42
0.0000001
 43
0.0000001
 44
0.0000000001
 40
0.0
 40
0.0
 40
0.0
 40
0.0
 40
0.0156747225
 40
0.0235325474
 40
0.0314031326
 40
0.0471815238
 40
0.0630096701
 40
0.0709422968
 40
0.0788865451
 40
0.0948074601
 40
0.1107706215
 40
0.1267727505
 40
0.1428102138
 40
0.1588790639
 40
0.1749750748
 40
0.1910937806
 40
0.2072305163
 40
0.2233804589
 40
0.2395386705
 40
0.2557001411
 40
0.2718598323
 40
0.2880127214
 40
0.3041538447
 40
0.3202783411
 40
0.3363814948
 40
0.3524587772
 40
0.3685058876
 40
0.3845187926
 40
0.4004937633
 40
0.4164274113
 40
0.4323167209
 40
0.4481590804
 40
0.4639523087
 40
0.4796946798
 40
0.495384943
 40
0.5110223396
 40
0.5266066146
 40
0.542138025
 40
0.5576173419
 40
0.5730458487
 40
0.588425333
 40
0.6037580741
 40
0.6190468241
 40
0.6342947845
 40
0.6495055768
 40
0.6646832082
 40
0.6798320326
 40
0.6949567066
 40
0.7100621427
 40
0.7251534575
 40
0.7402359181
 40
0.7553148863
 40
0.7703957614
 40
0.7854839222
 40
0.8005846694
 40
0.8157031697
 40
0.830844401
 40
0.8460131002
 40
0.8612137149
 40
0.8764503584
 40
0.8917267696
 40
0.9070462756
 40
0.9147237278
 40
0.9224129996
 40
0.9301143737
 40
0.9378281062
 40
0.9532923541
 40
0.9688083027
 40
0.976586557
 40
0.9843782719
 40
1.0
 40
1.0
 40
1.0
 40
1.0
 10
8.63754244
 20
7.2732855799
 30
0.0
 10
8.6194645898
 20
7.274539283
 30
0.0
 10
8.5923642934
 20
7.2770862401
 30
0.0
 10
8.5563638903
 20
7.2817953936
 30
0.0
 10
8.5203686698
 20
7.2873920795
 30
0.0
 10
8.4755365964
 20
7.2960342135
 30
0.0
 10
8.4311002224
 20
7.3068299027
 30
0.0
 10
8.3958110369
 20
7.3167486676
 30
0.0
 10
8.3606646575
 20
7.3275334617
 30
0.0
 10
8.3171354115
 20
7.3426014511
 30
0.0
 10
8.265712175
 20
7.3631592322
 30
0.0
 10
8.2151844304
 20
7.3861573299
 30
0.0
 10
8.1656745494
 20
7.4115401043
 30
0.0
 10
8.1173014896
 20
7.4392464469
 30
0.0
 10
8.0701817298
 20
7.4692095982
 30
0.0
 10
8.0244286609
 20
7.5013573933
 30
0.0
 10
7.9801524005
 20
7.5356124091
 30
0.0
 10
7.9374595094
 20
7.5718921627
 30
0.0
 10
7.8964527418
 20
7.6101093069
 30
0.0
 10
7.857230798
 20
7.6501718394
 30
0.0
 10
7.8198880886
 20
7.6919833238
 30
0.0
 10
7.7845145082
 20
7.7354431204
 30
0.0
 10
7.75119522
 20
7.7804466272
 30
0.0
 10
7.7200104521
 20
7.82688553
 30
0.0
 10
7.6910353044
 20
7.874648062
 30
0.0
 10
7.6643395696
 20
7.9236192716
 30
0.0
 10
7.6399875594
 20
7.9736812943
 30
0.0
 10
7.6180379525
 20
8.0247136374
 30
0.0
 10
7.5985436559
 20
8.0765934697
 30
0.0
 10
7.5815516774
 20
8.1291959153
 30
0.0
 10
7.5671030122
 20
8.1823943517
 30
0.0
 10
7.5552325435
 20
8.2360607129
 30
0.0
 10
7.5459689578
 20
8.2900657957
 30
0.0
 10
7.5393346745
 20
8.3442795683
 30
0.0
 10
7.5353457904
 20
8.3985714818
 30
0.0
 10
7.534012039
 20
8.4528107826
 30
0.0
 10
7.5353367651
 20
8.5068668256
 30
0.0
 10
7.5393169057
 20
8.5606093881
 30
0.0
 10
7.5459430029
 20
8.6139089838
 30
0.0
 10
7.5551992235
 20
8.6666371732
 30
0.0
 10
7.5670633938
 20
8.7186668733
 30
0.0
 10
7.5815070497
 20
8.7698726635
 30
0.0
 10
7.5984955021
 20
8.8201310895
 30
0.0
 10
7.6179879168
 20
8.8693209615
 30
0.0
 10
7.63993741
 20
8.9173236489
 30
0.0
 10
7.6642911584
 20
8.9640233687
 30
0.0
 10
7.6909905252
 20
9.0093074674
 30
0.0
 10
7.7199711961
 20
9.0530666982
 30
0.0
 10
7.7511633316
 20
9.0951954911
 30
0.0
 10
7.7844917417
 20
9.1355922077
 30
0.0
 10
7.8198760666
 20
9.1741593908
 30
0.0
 10
7.8572309723
 20
9.2108040029
 30
0.0
 10
7.8964663586
 20
9.2454376539
 30
0.0
 10
7.937487579
 20
9.2779768171
 30
0.0
 10
7.980195672
 20
9.3083430329
 30
0.0
 10
8.0244876049
 20
9.3364630998
 30
0.0
 10
8.0702565195
 20
9.3622692502
 30
0.0
 10
8.1173920201
 20
9.3856993182
 30
0.0
 10
8.1657803415
 20
9.4066968766
 30
0.0
 10
8.215305002
 20
9.4252114378
 30
0.0
 10
8.2658456915
 20
9.4411983135
 30
0.0
 10
8.308679667
 20
9.4523746638
 30
0.0
 10
8.3433254065
 20
9.4600183656
 30
0.0
 10
8.369507849
 20
9.4651029193
 30
0.0
 10
8.3958516481
 20
9.4695317162
 30
0.0
 10
8.4311976597
 20
9.4745625308
 30
0.0
 10
8.4757105158
 20
9.4791956861
 30
0.0
 10
8.5204729594
 20
9.4816084652
 30
0.0
 10
8.5564091357
 20
9.4822101178
 30
0.0
 10
8.5924707881
 20
9.4819240225
 30
0.0
 10
8.6195257089
 20
9.4807096924
 30
0.0
 10
8.63754244
 20
9.4794602278
 30
0.0
  0
SPLINE
  5
2E3
100
AcDbEntity
  8
0
100
AcDbSpline
 62
7
  6
CONTINUOUS
 70
0
 71
3
 72
50
 73
46
 74
0
 42
0.0000001
 43
0.0000001
 44
0.0000000001
 40
0.0
 40
0.0
 40
0.0
 40
0.0
 40
0.0055575484
 40
0.0111779922
 40
0.016921945
 40
0.0228458833
 40
0.0290006815
 40
0.0354311436
 40
0.0421756504
 40
0.0492665308
 40
0.0567306759
 40
0.0645898217
 40
0.0728615778
 40
0.0815596977
 40
0.0906946685
 40
0.100274387
 40
0.1103041016
 40
0.1207871917
 40
0.1317251696
 40
0.1431178633
 40
0.1549639321
 40
0.16726054
 40
0.1800039018
 40
0.1931892317
 40
0.2208607128
 40
0.2502207991
 40
0.2812027127
 40
0.3137299142
 40
0.3477173552
 40
0.383072554
 40
0.4196964471
 40
0.4574841188
 40
0.4963254304
 40
0.5361057043
 40
0.5767063272
 40
0.6180053027
 40
0.6598777724
 40
0.7021965482
 40
0.7448326997
 40
0.7876559964
 40
0.8305355066
 40
0.8733402465
 40
0.9159384006
 40
0.9582025777
 40
1.0
 40
1.0
 40
1.0
 40
1.0
 10
13.3943382506
 20
10.7584779583
 30
0.0
 10
13.3943382574
 20
10.7593289461
 30
0.0
 10
13.3944335982
 20
10.7610420315
 30
0.0
 10
13.3948612496
 20
10.7636025122
 30
0.0
 10
13.3955728771
 20
10.7661572956
 30
0.0
 10
13.39656719
 20
10.7687033729
 30
0.0
 10
13.3978423925
 20
10.771238752
 30
0.0
 10
13.3993969156
 20
10.7737614184
 30
0.0
 10
13.4012289143
 20
10.7762696742
 30
0.0
 10
13.4033365751
 20
10.7787618607
 30
0.0
 10
13.4057181016
 20
10.7812362072
 30
0.0
 10
13.4083713888
 20
10.7836911116
 30
0.0
 10
13.4112943606
 20
10.786124727
 30
0.0
 10
13.4144846479
 20
10.7885352846
 30
0.0
 10
13.4179396886
 20
10.7909210052
 30
0.0
 10
13.4216567842
 20
10.7932799445
 30
0.0
 10
13.4256329087
 20
10.7956103554
 30
0.0
 10
13.4298649086
 20
10.7979103185
 30
0.0
 10
13.4343493748
 20
10.8001779884
 30
0.0
 10
13.4390826691
 20
10.802411594
 30
0.0
 10
13.4440609935
 20
10.8046092286
 30
0.0
 10
13.4492802797
 20
10.8067691795
 30
0.0
 10
13.4547363065
 20
10.8088896707
 30
0.0
 10
13.4624453522
 20
10.8117074588
 30
0.0
 10
13.4726481645
 20
10.8151072579
 30
0.0
 10
13.4855706923
 20
10.8189402023
 30
0.0
 10
13.4993202704
 20
10.8225766177
 30
0.0
 10
13.5138520285
 20
10.8260044818
 30
0.0
 10
13.5291186676
 20
10.8292124485
 30
0.0
 10
13.545070348
 20
10.8321898942
 30
0.0
 10
13.5616549617
 20
10.8349269578
 30
0.0
 10
13.5788182793
 20
10.8374145694
 30
0.0
 10
13.5965041382
 20
10.8396445101
 30
0.0
 10
13.6146546395
 20
10.841609412
 30
0.0
 10
13.6332103519
 20
10.8433027808
 30
0.0
 10
13.6521105059
 20
10.8447190145
 30
0.0
 10
13.6712931888
 20
10.8458534294
 30
0.0
 10
13.6906955536
 20
10.8467022918
 30
0.0
 10
13.7102540258
 20
10.8472627994
 30
0.0
 10
13.7299045203
 20
10.8475331021
 30
0.0
 10
13.7495826759
 20
10.8475123006
 30
0.0
 10
13.7692238922
 20
10.8472004466
 30
0.0
 10
13.7887641214
 20
10.8465986272
 30
0.0
 10
13.8081389141
 20
10.8457087464
 30
0.0
 10
13.8209871195
 20
10.8449203119
 30
0.0
 10
13.8273719262
 20
10.844477524
 30
0.0
  0
SPLINE
  5
2E4
100
AcDbEntity
  8
0
100
AcDbSpline
 62
7
  6
CONTINUOUS
 70
0
 71
3
 72
76
 73
72
 74
0
 42
0.0000001
 43
0.0000001
 44
0.0000000001
 40
0.0
 40
0.0
 40
0.0
 40
0.0
 40
0.0156747225
 40
0.0235325474
 40
0.0314031326
 40
0.0471815238
 40
0.0630096701
 40
0.0709422968
 40
0.0788865451
 40
0.0948074601
 40
0.1107706215
 40
0.1267727505
 40
0.1428102138
 40
0.1588790639
 40
0.1749750748
 40
0.1910937806
 40
0.2072305163
 40
0.2233804589
 40
0.2395386705
 40
0.2557001411
 40
0.2718598323
 40
0.2880127214
 40
0.3041538447
 40
0.3202783411
 40
0.3363814948
 40
0.3524587772
 40
0.3685058876
 40
0.3845187926
 40
0.4004937633
 40
0.4164274113
 40
0.4323167209
 40
0.4481590804
 40
0.4639523087
 40
0.4796946798
 40
0.495384943
 40
0.5110223396
 40
0.5266066146
 40
0.542138025
 40
0.5576173419
 40
0.5730458487
 40
0.588425333
 40
0.6037580741
 40
0.6190468241
 40
0.6342947845
 40
0.6495055768
 40
0.6646832082
 40
0.6798320326
 40
0.6949567066
 40
0.7100621427
 40
0.7251534575
 40
0.7402359181
 40
0.7553148863
 40
0.7703957614
 40
0.7854839222
 40
0.8005846694
 40
0.8157031697
 40
0.830844401
 40
0.8460131002
 40
0.8612137149
 40
0.8764503584
 40
0.8917267696
 40
0.9070462756
 40
0.9147237278
 40
0.9224129996
 40
0.9301143737
 40
0.9378281062
 40
0.9532923541
 40
0.9688083027
 40
0.976586557
 40
0.9843782719
 40
1.0
 40
1.0
 40
1.0
 40
1.0
 10
11.2919069079
 20
9.2953794267
 30
0.0
 10
11.3099847582
 20
9.2941257236
 30
0.0
 10
11.3370850546
 20
9.2915787665
 30
0.0
 10
11.3730854577
 20
9.286869613
 30
0.0
 10
11.4090806782
 20
9.2812729271
 30
0.0
 10
11.4539127516
 20
9.2726307931
 30
0.0
 10
11.4983491256
 20
9.2618351039
 30
0.0
 10
11.533638311
 20
9.2519163391
 30
0.0
 10
11.5687846905
 20
9.2411315449
 30
0.0
 10
11.6123139364
 20
9.2260635555
 30
0.0
 10
11.663737173
 20
9.2055057744
 30
0.0
 10
11.7142649176
 20
9.1825076767
 30
0.0
 10
11.7637747986
 20
9.1571249023
 30
0.0
 10
11.8121478583
 20
9.1294185598
 30
0.0
 10
11.8592676182
 20
9.0994554084
 30
0.0
 10
11.9050206871
 20
9.0673076133
 30
0.0
 10
11.9492969474
 20
9.0330525976
 30
0.0
 10
11.9919898385
 20
8.9967728439
 30
0.0
 10
12.0329966062
 20
8.9585556997
 30
0.0
 10
12.07221855
 20
8.9184931673
 30
0.0
 10
12.1095612594
 20
8.8766816828
 30
0.0
 10
12.1449348398
 20
8.8332218862
 30
0.0
 10
12.1782541279
 20
8.7882183794
 30
0.0
 10
12.2094388958
 20
8.7417794766
 30
0.0
 10
12.2384140436
 20
8.6940169446
 30
0.0
 10
12.2651097784
 20
8.645045735
 30
0.0
 10
12.2894617885
 20
8.5949837123
 30
0.0
 10
12.3114113955
 20
8.5439513692
 30
0.0
 10
12.3309056921
 20
8.4920715369
 30
0.0
 10
12.3478976706
 20
8.4394690913
 30
0.0
 10
12.3623463358
 20
8.3862706549
 30
0.0
 10
12.3742168044
 20
8.3326042937
 30
0.0
 10
12.3834803902
 20
8.2785992109
 30
0.0
 10
12.3901146735
 20
8.2243854383
 30
0.0
 10
12.3941035576
 20
8.1700935248
 30
0.0
 10
12.3954373089
 20
8.115854224
 30
0.0
 10
12.3941125829
 20
8.061798181
 30
0.0
 10
12.3901324423
 20
8.0080556185
 30
0.0
 10
12.3835063451
 20
7.9547560228
 30
0.0
 10
12.3742501245
 20
7.9020278334
 30
0.0
 10
12.3623859542
 20
7.8499981333
 30
0.0
 10
12.3479422982
 20
7.7987923431
 30
0.0
 10
12.3309538458
 20
7.7485339171
 30
0.0
 10
12.3114614312
 20
7.6993440451
 30
0.0
 10
12.289511938
 20
7.6513413577
 30
0.0
 10
12.2651581895
 20
7.6046416379
 30
0.0
 10
12.2384588228
 20
7.5593575393
 30
0.0
 10
12.2094781518
 20
7.5155983084
 30
0.0
 10
12.1782860163
 20
7.4734695155
 30
0.0
 10
12.1449576063
 20
7.4330727989
 30
0.0
 10
12.1095732814
 20
7.3945056158
 30
0.0
 10
12.0722183757
 20
7.3578610037
 30
0.0
 10
12.0329829893
 20
7.3232273527
 30
0.0
 10
11.9919617689
 20
7.2906881895
 30
0.0
 10
11.949253676
 20
7.2603219737
 30
0.0
 10
11.9049617431
 20
7.2322019068
 30
0.0
 10
11.8591928285
 20
7.2063957564
 30
0.0
 10
11.8120573278
 20
7.1829656884
 30
0.0
 10
11.7636690064
 20
7.16196813
 30
0.0
 10
11.714144346
 20
7.1434535688
 30
0.0
 10
11.6636036564
 20
7.1274666931
 30
0.0
 10
11.620769681
 20
7.1162903428
 30
0.0
 10
11.5861239415
 20
7.108646641
 30
0.0
 10
11.5599414989
 20
7.1035620873
 30
0.0
 10
11.5335976998
 20
7.0991332904
 30
0.0
 10
11.4982516883
 20
7.0941024758
 30
0.0
 10
11.4537388321
 20
7.0894693205
 30
0.0
 10
11.4089763886
 20
7.0870565414
 30
0.0
 10
11.3730402123
 20
7.0864548888
 30
0.0
 10
11.3369785599
 20
7.0867409841
 30
0.0
 10
11.3099236391
 20
7.0879553142
 30
0.0
 10
11.2919069079
 20
7.0892047788
 30
0.0
  0
SPLINE
  5
2E5
100
AcDbEntity
  8
0
100
AcDbSpline
 62
7
  6
CONTINUOUS
 70
0
 71
3
 72
50
 73
46
 74
0
 42
0.0000001
 43
0.0000001
 44
0.0000000001
 40
0.0
 40
0.0
 40
0.0
 40
0.0
 40
0.0055575484
 40
0.0111779922
 40
0.016921945
 40
0.0228458833
 40
0.0290006815
 40
0.0354311436
 40
0.0421756504
 40
0.0492665308
 40
0.0567306759
 40
0.0645898217
 40
0.0728615778
 40
0.0815596977
 40
0.0906946685
 40
0.100274387
 40
0.1103041016
 40
0.1207871917
 40
0.1317251696
 40
0.1431178633
 40
0.1549639321
 40
0.16726054
 40
0.1800039018
 40
0.1931892317
 40
0.2208607128
 40
0.2502207991
 40
0.2812027127
 40
0.3137299142
 40
0.3477173552
 40
0.383072554
 40
0.4196964471
 40
0.4574841188
 40
0.4963254304
 40
0.5361057043
 40
0.5767063272
 40
0.6180053027
 40
0.6598777724
 40
0.7021965482
 40
0.7448326997
 40
0.7876559964
 40
0.8305355066
 40
0.8733402465
 40
0.9159384006
 40
0.9582025777
 40
1.0
 40
1.0
 40
1.0
 40
1.0
 10
9.1470512038
 20
11.6559134651
 30
0.0
 10
9.1470512106
 20
11.6567644529
 30
0.0
 10
9.1471465515
 20
11.6584775384
 30
0.0
 10
9.1475742029
 20
11.661038019
 30
0.0
 10
9.1482858304
 20
11.6635928024
 30
0.0
 10
9.1492801433
 20
11.6661388797
 30
0.0
 10
9.1505553458
 20
11.6686742589
 30
0.0
 10
9.1521098689
 20
11.6711969252
 30
0.0
 10
9.1539418675
 20
11.673705181
 30
0.0
 10
9.1560495284
 20
11.6761973675
 30
0.0
 10
9.1584310549
 20
11.678671714
 30
0.0
 10
9.1610843421
 20
11.6811266184
 30
0.0
 10
9.1640073139
 20
11.6835602338
 30
0.0
 10
9.1671976012
 20
11.6859707914
 30
0.0
 10
9.1706526419
 20
11.688356512
 30
0.0
 10
9.1743697375
 20
11.6907154513
 30
0.0
 10
9.1783458619
 20
11.6930458622
 30
0.0
 10
9.1825778618
 20
11.6953458253
 30
0.0
 10
9.1870623281
 20
11.6976134952
 30
0.0
 10
9.1917956224
 20
11.6998471008
 30
0.0
 10
9.1967739468
 20
11.7020447354
 30
0.0
 10
9.2019932329
 20
11.7042046863
 30
0.0
 10
9.2074492598
 20
11.7063251775
 30
0.0
 10
9.2151583055
 20
11.7091429656
 30
0.0
 10
9.2253611178
 20
11.7125427647
 30
0.0
 10
9.2382836456
 20
11.7163757091
 30
0.0
 10
9.2520332237
 20
11.7200121245
 30
0.0
 10
9.2665649817
 20
11.7234399887
 30
0.0
 10
9.2818316209
 20
11.7266479553
 30
0.0
 10
9.2977833013
 20
11.729625401
 30
0.0
 10
9.3143679149
 20
11.7323624646
 30
0.0
 10
9.3315312326
 20
11.7348500762
 30
0.0
 10
9.3492170915
 20
11.7370800169
 30
0.0
 10
9.3673675928
 20
11.7390449188
 30
0.0
 10
9.3859233052
 20
11.7407382876
 30
0.0
 10
9.4048234592
 20
11.7421545213
 30
0.0
 10
9.4240061421
 20
11.7432889362
 30
0.0
 10
9.4434085069
 20
11.7441377986
 30
0.0
 10
9.4629669791
 20
11.7446983062
 30
0.0
 10
9.4826174736
 20
11.7449686089
 30
0.0
 10
9.5022956292
 20
11.7449478075
 30
0.0
 10
9.5219368455
 20
11.7446359534
 30
0.0
 10
9.5414770747
 20
11.744034134
 30
0.0
 10
9.5608518674
 20
11.7431442532
 30
0.0
 10
9.5737000728
 20
11.7423558187
 30
0.0
 10
9.5800848795
 20
11.7419130308
 30
0.0
  0
SPLINE
  5
2E6
100
AcDbEntity
  8
0
100
AcDbSpline
 62
7
  6
CONTINUOUS
 70
0
 71
3
 72
50
 73
46
 74
0
 42
0.0000001
 43
0.0000001
 44
0.0000000001
 40
0.0
 40
0.0
 40
0.0
 40
0.0
 40
0.0055575484
 40
0.0111779922
 40
0.016921945
 40
0.0228458833
 40
0.0290006815
 40
0.0354311436
 40
0.0421756504
 40
0.0492665308
 40
0.0567306759
 40
0.0645898217
 40
0.0728615778
 40
0.0815596977
 40
0.0906946685
 40
0.100274387
 40
0.1103041016
 40
0.1207871917
 40
0.1317251696
 40
0.1431178633
 40
0.1549639321
 40
0.16726054
 40
0.1800039018
 40
0.1931892317
 40
0.2208607128
 40
0.2502207991
 40
0.2812027127
 40
0.3137299142
 40
0.3477173552
 40
0.383072554
 40
0.4196964471
 40
0.4574841188
 40
0.4963254304
 40
0.5361057043
 40
0.5767063272
 40
0.6180053027
 40
0.6598777724
 40
0.7021965482
 40
0.7448326997
 40
0.7876559964
 40
0.8305355066
 40
0.8733402465
 40
0.9159384006
 40
0.9582025777
 40
1.0
 40
1.0
 40
1.0
 40
1.0
 10
13.9766806215
 20
11.3209775274
 30
0.0
 10
13.9766806283
 20
11.3218285152
 30
0.0
 10
13.9767759691
 20
11.3235416007
 30
0.0
 10
13.9772036205
 20
11.3261020813
 30
0.0
 10
13.977915248
 20
11.3286568647
 30
0.0
 10
13.9789095609
 20
11.331202942
 30
0.0
 10
13.9801847634
 20
11.3337383212
 30
0.0
 10
13.9817392865
 20
11.3362609875
 30
0.0
 10
13.9835712852
 20
11.3387692433
 30
0.0
 10
13.985678946
 20
11.3412614298
 30
0.0
 10
13.9880604725
 20
11.3437357763
 30
0.0
 10
13.9907137597
 20
11.3461906807
 30
0.0
 10
13.9936367315
 20
11.3486242961
 30
0.0
 10
13.9968270188
 20
11.3510348537
 30
0.0
 10
14.0002820595
 20
11.3534205743
 30
0.0
 10
14.0039991551
 20
11.3557795136
 30
0.0
 10
14.0079752795
 20
11.3581099245
 30
0.0
 10
14.0122072795
 20
11.3604098876
 30
0.0
 10
14.0166917457
 20
11.3626775575
 30
0.0
 10
14.02142504
 20
11.3649111631
 30
0.0
 10
14.0264033644
 20
11.3671087977
 30
0.0
 10
14.0316226506
 20
11.3692687486
 30
0.0
 10
14.0370786774
 20
11.3713892398
 30
0.0
 10
14.0447877231
 20
11.3742070279
 30
0.0
 10
14.0549905354
 20
11.377606827
 30
0.0
 10
14.0679130632
 20
11.3814397714
 30
0.0
 10
14.0816626413
 20
11.3850761868
 30
0.0
 10
14.0961943994
 20
11.388504051
 30
0.0
 10
14.1114610385
 20
11.3917120176
 30
0.0
 10
14.1274127189
 20
11.3946894633
 30
0.0
 10
14.1439973325
 20
11.3974265269
 30
0.0
 10
14.1611606502
 20
11.3999141385
 30
0.0
 10
14.1788465091
 20
11.4021440792
 30
0.0
 10
14.1969970104
 20
11.4041089811
 30
0.0
 10
14.2155527228
 20
11.4058023499
 30
0.0
 10
14.2344528768
 20
11.4072185836
 30
0.0
 10
14.2536355597
 20
11.4083529985
 30
0.0
 10
14.2730379245
 20
11.4092018609
 30
0.0
 10
14.2925963967
 20
11.4097623685
 30
0.0
 10
14.3122468912
 20
11.4100326712
 30
0.0
 10
14.3319250468
 20
11.4100118697
 30
0.0
 10
14.3515662631
 20
11.4097000157
 30
0.0
 10
14.3711064923
 20
11.4090981963
 30
0.0
 10
14.390481285
 20
11.4082083155
 30
0.0
 10
14.4033294904
 20
11.407419881
 30
0.0
 10
14.4097142971
 20
11.4069770931
 30
0.0
  0
ENDSEC
  0
SECTION
  2
OBJECTS
  0
DICTIONARY
  5
C
100
AcDbDictionary
280
0
281
1
  3
ACAD_GROUP
350
D
  3
ACAD_MLINESTYLE
350
17
  3
ACAD_LAYOUT
350
1A
  3
ACAD_PLOTSETTINGS
350
19
  3
ACAD_PLOTSTYLENAME
350
E
  3
ACAD_IMAGE_DICT
350
       2E8
  3
ACAD_IMAGE_VARS
350
       2E9
  3
ACAD_TABLESTYLE
350
       2EA
  0
IMAGEDEF_REACTOR
  5
2E7
100
AcDbRasterImageDefReactor
 90
2
330
275
  0
DICTIONARY
  5
D
102
{ACAD_REACTORS
330
C
102
}
100
AcDbDictionary
280
0
281
1
  0
ACDBDICTIONARYWDFLT
  5
E
102
{ACAD_REACTORS
330
C
102
}
100
AcDbDictionary
281
1
  3
Normal
350
F
100
AcDbDictionaryWithDefault
340
F
  0
DICTIONARY
  5
2E8
330
C
100
AcDbDictionary
281
1
  3
VGN_assy_2_img_1
350
       2ED
  0
RASTERVARIABLES
  5
2E9
330
C
100
AcDbRasterVariables
 90
0
 70
0
 71
1
 72
5
  0
DICTIONARY
  5
17
102
{ACAD_REACTORS
330
C
102
}
100
AcDbDictionary
280
0
281
1
  3
Standard
350
18
  0
DICTIONARY
  5
2EA
330
C
100
AcDbDictionary
281
1
  3
Standard
350
       2EE
  3
Standard1
350
       2EF
  0
DICTIONARY
  5
19
102
{ACAD_REACTORS
330
C
102
}
100
AcDbDictionary
281
1
  0
DICTIONARY
  5
1A
102
{ACAD_REACTORS
330
C
102
}
100
AcDbDictionary
281
1
  3
Model
350
2EB
  3
Layout1
350
2EC
  0
ACDBPLACEHOLDER
  5
F
102
{ACAD_REACTORS
330
E
102
}
  0
MLINESTYLE
  5
18
102
{ACAD_REACTORS
330
17
102
}
100
AcDbMlineStyle
  2
STANDARD
 70
0
  3

 62
256
 51
90.0
 52
90.0
 71
2
 49
0.5
 62
256
  6
BYLAYER
 49
-0.5
 62
256
  6
BYLAYER
  0
LAYOUT
  5
2EB
102
{ACAD_REACTORS
330
1A
102
}
100
AcDbPlotSettings
  1

  2
none_device
  4
ANSI_C_(22.00_x_17.00_Inches)
  6

 40
0.0
 41
0.0
 42
0.0
 43
0.0
 44
558.8
 45
431.8
 46
0.0
 47
0.0
 48
0.0
 49
0.0
140
0.0
141
0.0
142
1.0
143
1.0
 70
1024
 72
0
 73
0
 74
0
  7

 75
0
147
1.0
148
0.0
149
0.0
100
AcDbLayout
  1
Model
 70
0
 71
0
 10
0.0
 20
0.0
 11
22.0
 21
17.0
 12
0.0
 22
0.0
 32
0.0
 14
0.0
 24
0.0
 34
0.0
 15
0.0
 25
0.0
 35
0.0
146
0.0
 13
0.0
 23
0.0
 33
0.0
 16
1.0
 26
0.0
 36
0.0
 17
0.0
 27
1.0
 37
0.0
 76
0
330
204
345
0
346
0
  0
LAYOUT
  5
2EC
102
{ACAD_REACTORS
330
1A
102
}
100
AcDbPlotSettings
  1

  2
none_device
  4
ANSI_C_(22.00_x_17.00_Inches)
  6

 40
0.0
 41
0.0
 42
0.0
 43
0.0
 44
558.8
 45
431.8
 46
0.0
 47
0.0
 48
0.0
 49
0.0
140
0.0
141
0.0
142
1.0
143
1.0
 70
0
 72
0
 73
0
 74
0
  7

 75
0
147
1.0
148
0.0
149
0.0
100
AcDbLayout
  1
Layout1
 70
0
 71
1
 10
0.0
 20
0.0
 11
22.0
 21
17.0
 12
0.0
 22
0.0
 32
0.0
 14
0.0
 24
0.0
 34
0.0
 15
0.0
 25
0.0
 35
0.0
146
0.0
 13
0.0
 23
0.0
 33
0.0
 16
1.0
 26
0.0
 36
0.0
 17
0.0
 27
1.0
 37
0.0
 76
0
330
205
345
0
346
0
  0
IMAGEDEF
  5
2ED
102
{ACAD_REACTORS
330
2E8
330
2E7
102
}
100
AcDbRasterImageDef
 90
0
  1
VGN_assy_2_img_1.png
 10
369.0
 20
92.0
 11
0.0066666667
 21
0.0066666667
280
1
281
0
  0
TABLESTYLE
  5
2EE
102
{ACAD_REACTORS
330
2EA
330
278
330
279
102
}
330
2EA
100
AcDbTableStyle
  3
Standard
 70
0
 71
0
 40
0.06
 41
0.06
280
1
281
1
  7
Standard
140
0.18
170
1
 62
0
 63
7
283
0
  7
Standard
140
0.18
170
1
 62
0
 63
7
283
0
  7
Standard
140
0.18
170
1
 62
0
 63
7
283
0
  0
TABLESTYLE
  5
2EF
102
{ACAD_REACTORS
330
2EA
330
277
102
}
330
2EA
100
AcDbTableStyle
  3
Standard1
 70
1
 71
0
 40
0.06
 41
0.06
280
1
281
1
  7
Standard
140
0.18
170
1
 62
0
 63
7
283
0
  7
Standard
140
0.18
170
1
 62
0
 63
7
283
0
  7
Standard
140
0.18
170
1
 62
0
 63
7
283
0
  0
ENDSEC
  0
EOF
