999
DXF file: VGG_8.dxf
999
Pro/ENGINEER 2006240 by Parametric Technology Corporation
  0
SECTION
  2
HEADER
  9
$ACADVER
  1
AC1015
  9
$DWGCODEPAGE
  3
ANSI_1252
  9
$EXTMAX
 10
22.0
 20
17.0
 30
0.0
  9
$EXTMIN
 10
0.0
 20
0.0
 30
0.0
  9
$LIMMIN
 10
0.0
 20
0.0
  9
$LIMMAX
 10
22.0
 20
17.0
  9
$VIEWCTR
 10
11.0
 20
8.5
  9
$VIEWSIZE
 40
17.0
  9
$CLAYER
  8
0
  9
$LTSCALE
 40
1.21
  9
$CELTYPE
  6
BYLAYER
  9
$DIMSCALE
 40
1.0
  9
$DIMASZ
 40
0.1875
  9
$DIMEXO
 40
0.1375
  9
$DIMDLI
 40
0.836
  9
$DIMEXE
 40
0.396
  9
$DIMCEN
 40
0.198
  9
$DIMLFAC
 40
1.0
  9
$DIMBLK
  1
_CLOSED
  9
$DIMTXT
 40
0.15625
  9
$DIMTOL
 70
0
  9
$DIMLIM
 70
0
  9
$DIMTFAC
 40
1.0
  9
$PDMODE
 70
3
  9
$PDSIZE
 40
0.3125
  9
$HANDSEED
  5
3E1
  9
$MEASUREMENT
 70
0
  9
$INSUNITS
 70
1
  0
ENDSEC
  0
SECTION
  2
CLASSES
  0
CLASS
  1
ACDBDICTIONARYWDFLT
  2
AcDbDictionaryWithDefault
  3
AutoCAD 2000
 90
0
280
0
281
0
  0
CLASS
  1
ACDBPLACEHOLDER
  2
AcDbPlaceHolder
  3
AutoCAD 2000
 90
0
280
0
281
0
  0
CLASS
  1
LAYOUT
  2
AcDbLayout
  3
AutoCAD 2000
 90
0
280
0
281
0
  0
ENDSEC
  0
SECTION
  2
TABLES
  0
TABLE
  2
VPORT
  5
8
100
AcDbSymbolTable
 70
2
  0
VPORT
  5
1F4
100
AcDbSymbolTableRecord
100
AcDbViewportTableRecord
  2
*ACTIVE
 70
0
 10
0.0
 20
0.0
 11
1.0
 21
1.0
 12
11.0
 22
8.5
 13
0.0
 23
0.0
 14
1.0
 24
1.0
 15
0.0
 25
0.0
 16
0.0
 26
0.0
 36
1.0
 17
0.0
 27
0.0
 37
0.0
 40
17.0
 41
1.2941176471
 42
50.0
 43
0.0
 44
0.0
 50
0.0
 51
0.0
 71
0
 72
100
 73
1
 74
1
 75
0
 76
0
 77
0
 78
0
  0
ENDTAB
  0
TABLE
  2
LTYPE
  5
5
100
AcDbSymbolTable
 70
6
  0
LTYPE
  5
14
100
AcDbSymbolTableRecord
100
AcDbLinetypeTableRecord
  2
BYBLOCK
 70
0
  3

 72
65
 73
0
 40
0.0
  0
LTYPE
  5
15
100
AcDbSymbolTableRecord
100
AcDbLinetypeTableRecord
  2
BYLAYER
 70
0
  3

 72
65
 73
0
 40
0.0
  0
LTYPE
  5
16
100
AcDbSymbolTableRecord
100
AcDbLinetypeTableRecord
  2
CONTINUOUS
 70
64
  3
Solid line
 72
65
 73
0
 40
0.0
  0
LTYPE
  5
1F5
100
AcDbSymbolTableRecord
100
AcDbLinetypeTableRecord
  2
CENTER
 70
64
  3
____ _ ____ _ ____ _ ____ _ ____ _ ____ _ ____
 72
65
 73
4
 40
0.6
 49
0.375
 74
0
 49
-0.075
 74
0
 49
0.075
 74
0
 49
-0.075
 74
0
  0
LTYPE
  5
1F6
100
AcDbSymbolTableRecord
100
AcDbLinetypeTableRecord
  2
HIDDEN
 70
64
  3
- - - - - - - - - - - - - - - - - - - -
 72
65
 73
2
 40
0.2
 49
0.1
 74
0
 49
-0.1
 74
0
  0
LTYPE
  5
1F7
100
AcDbSymbolTableRecord
100
AcDbLinetypeTableRecord
  2
PHANTOM
 70
64
  3
_____ _ _ _____ _ _ _____ _ _ _____
 72
65
 73
6
 40
0.8
 49
0.45
 74
0
 49
-0.05
 74
0
 49
0.1
 74
0
 49
-0.05
 74
0
 49
0.1
 74
0
 49
-0.05
 74
0
  0
LTYPE
  5
1F8
100
AcDbSymbolTableRecord
100
AcDbLinetypeTableRecord
  2
DOT
 70
64
  3
. . . . . . . . . . . . . . . . . . . .
 72
65
 73
2
 40
0.2
 49
0.1
 74
0
 49
-0.1
 74
0
  0
LTYPE
  5
1F9
100
AcDbSymbolTableRecord
100
AcDbLinetypeTableRecord
  2
DASHED
 70
64
  3
- - - - - - - - - - - - - - - - - - - -
 72
65
 73
2
 40
0.2
 49
0.1
 74
0
 49
-0.1
 74
0
  0
ENDTAB
  0
TABLE
  2
LAYER
  5
2
100
AcDbSymbolTable
 70
36
  0
LAYER
  5
10
100
AcDbSymbolTableRecord
100
AcDbLayerTableRecord
  2
0
 70
0
 62
7
  6
CONTINUOUS
370
-3
390
F
  0
LAYER
  5
1FA
100
AcDbSymbolTableRecord
100
AcDbLayerTableRecord
  2
DEFAULT_1
 70
0
 62
7
  6
CENTER
370
-3
390
F
  0
LAYER
  5
1FB
100
AcDbSymbolTableRecord
100
AcDbLayerTableRecord
  2
DEFAULT_2
 70
0
 62
8
  6
HIDDEN
370
-3
390
F
  0
LAYER
  5
1FC
100
AcDbSymbolTableRecord
100
AcDbLayerTableRecord
  2
DEFAULT_3
 70
0
 62
7
  6
PHANTOM
370
-3
390
F
  0
LAYER
  5
1FD
100
AcDbSymbolTableRecord
100
AcDbLayerTableRecord
  2
01_ALL_DTM_PLN
 70
0
 62
7
  6
CONTINUOUS
370
-3
390
F
  0
LAYER
  5
1FE
100
AcDbSymbolTableRecord
100
AcDbLayerTableRecord
  2
01__ASM_ALL_DTM_PLN
 70
0
 62
7
  6
CONTINUOUS
370
-3
390
F
  0
LAYER
  5
1FF
100
AcDbSymbolTableRecord
100
AcDbLayerTableRecord
  2
01__ASM_DEF_DTM_PLN
 70
0
 62
7
  6
CONTINUOUS
370
-3
390
F
  0
LAYER
  5
200
100
AcDbSymbolTableRecord
100
AcDbLayerTableRecord
  2
01___PRT_ALL_DTM_PLN
 70
0
 62
7
  6
CONTINUOUS
370
-3
390
F
  0
LAYER
  5
201
100
AcDbSymbolTableRecord
100
AcDbLayerTableRecord
  2
01___PRT_DEF_DTM_PLN
 70
0
 62
7
  6
CONTINUOUS
370
-3
390
F
  0
LAYER
  5
202
100
AcDbSymbolTableRecord
100
AcDbLayerTableRecord
  2
02_ALL_AXES
 70
0
 62
7
  6
CONTINUOUS
370
-3
390
F
  0
LAYER
  5
203
100
AcDbSymbolTableRecord
100
AcDbLayerTableRecord
  2
02__ASM_ALL_AXES
 70
0
 62
7
  6
CONTINUOUS
370
-3
390
F
  0
LAYER
  5
204
100
AcDbSymbolTableRecord
100
AcDbLayerTableRecord
  2
02___PRT_ALL_AXES
 70
0
 62
7
  6
CONTINUOUS
370
-3
390
F
  0
LAYER
  5
205
100
AcDbSymbolTableRecord
100
AcDbLayerTableRecord
  2
03_ALL_CURVES
 70
0
 62
7
  6
CONTINUOUS
370
-3
390
F
  0
LAYER
  5
206
100
AcDbSymbolTableRecord
100
AcDbLayerTableRecord
  2
03__ASM_ALL_CURVES
 70
0
 62
7
  6
CONTINUOUS
370
-3
390
F
  0
LAYER
  5
207
100
AcDbSymbolTableRecord
100
AcDbLayerTableRecord
  2
03___PRT_ALL_CURVES
 70
0
 62
7
  6
CONTINUOUS
370
-3
390
F
  0
LAYER
  5
208
100
AcDbSymbolTableRecord
100
AcDbLayerTableRecord
  2
04_ALL_DTM_PNT
 70
0
 62
7
  6
CONTINUOUS
370
-3
390
F
  0
LAYER
  5
209
100
AcDbSymbolTableRecord
100
AcDbLayerTableRecord
  2
04__ASM_ALL_DTM_PNT
 70
0
 62
7
  6
CONTINUOUS
370
-3
390
F
  0
LAYER
  5
20A
100
AcDbSymbolTableRecord
100
AcDbLayerTableRecord
  2
04___PRT_ALL_DTM_PNT
 70
0
 62
7
  6
CONTINUOUS
370
-3
390
F
  0
LAYER
  5
20B
100
AcDbSymbolTableRecord
100
AcDbLayerTableRecord
  2
05_ALL_DTM_CSYS
 70
0
 62
7
  6
CONTINUOUS
370
-3
390
F
  0
LAYER
  5
20C
100
AcDbSymbolTableRecord
100
AcDbLayerTableRecord
  2
05__ASM_ALL_DTM_CSYS
 70
0
 62
7
  6
CONTINUOUS
370
-3
390
F
  0
LAYER
  5
20D
100
AcDbSymbolTableRecord
100
AcDbLayerTableRecord
  2
05__ASM_DEF_DTM_CSYS
 70
0
 62
7
  6
CONTINUOUS
370
-3
390
F
  0
LAYER
  5
20E
100
AcDbSymbolTableRecord
100
AcDbLayerTableRecord
  2
05___PRT_ALL_DTM_CSYS
 70
0
 62
7
  6
CONTINUOUS
370
-3
390
F
  0
LAYER
  5
20F
100
AcDbSymbolTableRecord
100
AcDbLayerTableRecord
  2
05___PRT_DEF_DTM_CSYS
 70
0
 62
7
  6
CONTINUOUS
370
-3
390
F
  0
LAYER
  5
210
100
AcDbSymbolTableRecord
100
AcDbLayerTableRecord
  2
06_ALL_SURFS
 70
0
 62
7
  6
CONTINUOUS
370
-3
390
F
  0
LAYER
  5
211
100
AcDbSymbolTableRecord
100
AcDbLayerTableRecord
  2
06__ASM_ALL_SURFS
 70
0
 62
7
  6
CONTINUOUS
370
-3
390
F
  0
LAYER
  5
212
100
AcDbSymbolTableRecord
100
AcDbLayerTableRecord
  2
06___PRT_ALL_SURFS
 70
0
 62
7
  6
CONTINUOUS
370
-3
390
F
  0
LAYER
  5
213
100
AcDbSymbolTableRecord
100
AcDbLayerTableRecord
  2
07__ASM_ALL_SKELETONS
 70
0
 62
7
  6
CONTINUOUS
370
-3
390
F
  0
LAYER
  5
214
100
AcDbSymbolTableRecord
100
AcDbLayerTableRecord
  2
COPY_GEO_FET
 70
0
 62
7
  6
CONTINUOUS
370
-3
390
F
  0
LAYER
  5
215
100
AcDbSymbolTableRecord
100
AcDbLayerTableRecord
  2
COSMETIC
 70
0
 62
7
  6
CONTINUOUS
370
-3
390
F
  0
LAYER
  5
216
100
AcDbSymbolTableRecord
100
AcDbLayerTableRecord
  2
CUT_REF_SURF
 70
0
 62
7
  6
CONTINUOUS
370
-3
390
F
  0
LAYER
  5
217
100
AcDbSymbolTableRecord
100
AcDbLayerTableRecord
  2
DATESTAMP
 70
0
 62
7
  6
CONTINUOUS
370
-3
390
F
  0
LAYER
  5
218
100
AcDbSymbolTableRecord
100
AcDbLayerTableRecord
  2
DATUM
 70
0
 62
7
  6
CONTINUOUS
370
-3
390
F
  0
LAYER
  5
219
100
AcDbSymbolTableRecord
100
AcDbLayerTableRecord
  2
DATUM_B
 70
0
 62
7
  6
CONTINUOUS
370
-3
390
F
  0
LAYER
  5
21A
100
AcDbSymbolTableRecord
100
AcDbLayerTableRecord
  2
DATUM_PLANES
 70
0
 62
7
  6
CONTINUOUS
370
-3
390
F
  0
LAYER
  5
21B
100
AcDbSymbolTableRecord
100
AcDbLayerTableRecord
  2
DIM
 70
0
 62
7
  6
CONTINUOUS
370
-3
390
F
  0
LAYER
  5
21C
100
AcDbSymbolTableRecord
100
AcDbLayerTableRecord
  2
DIMENSIONS
 70
0
 62
7
  6
CONTINUOUS
370
-3
390
F
  0
LAYER
  5
21D
100
AcDbSymbolTableRecord
100
AcDbLayerTableRecord
  2
DIM_1
 70
0
 62
7
  6
CONTINUOUS
370
-3
390
F
  0
LAYER
  5
21E
100
AcDbSymbolTableRecord
100
AcDbLayerTableRecord
  2
DIM_2
 70
0
 62
7
  6
CONTINUOUS
370
-3
390
F
  0
LAYER
  5
21F
100
AcDbSymbolTableRecord
100
AcDbLayerTableRecord
  2
DIM_3
 70
0
 62
7
  6
CONTINUOUS
370
-3
390
F
  0
LAYER
  5
220
100
AcDbSymbolTableRecord
100
AcDbLayerTableRecord
  2
DIM_4
 70
0
 62
7
  6
CONTINUOUS
370
-3
390
F
  0
LAYER
  5
221
100
AcDbSymbolTableRecord
100
AcDbLayerTableRecord
  2
DIM_5
 70
0
 62
7
  6
CONTINUOUS
370
-3
390
F
  0
LAYER
  5
222
100
AcDbSymbolTableRecord
100
AcDbLayerTableRecord
  2
DTM
 70
0
 62
7
  6
CONTINUOUS
370
-3
390
F
  0
LAYER
  5
223
100
AcDbSymbolTableRecord
100
AcDbLayerTableRecord
  2
EXT_COPY_GEO
 70
0
 62
7
  6
CONTINUOUS
370
-3
390
F
  0
LAYER
  5
224
100
AcDbSymbolTableRecord
100
AcDbLayerTableRecord
  2
LS
 70
0
 62
7
  6
CONTINUOUS
370
-3
390
F
  0
LAYER
  5
225
100
AcDbSymbolTableRecord
100
AcDbLayerTableRecord
  2
ORIGIN
 70
0
 62
7
  6
CONTINUOUS
370
-3
390
F
  0
LAYER
  5
226
100
AcDbSymbolTableRecord
100
AcDbLayerTableRecord
  2
PARAMETERDIMENSIONS
 70
0
 62
7
  6
CONTINUOUS
370
-3
390
F
  0
LAYER
  5
227
100
AcDbSymbolTableRecord
100
AcDbLayerTableRecord
  2
PARTNUMBER
 70
0
 62
7
  6
CONTINUOUS
370
-3
390
F
  0
LAYER
  5
228
100
AcDbSymbolTableRecord
100
AcDbLayerTableRecord
  2
PORT_AREAS
 70
0
 62
7
  6
CONTINUOUS
370
-3
390
F
  0
LAYER
  5
229
100
AcDbSymbolTableRecord
100
AcDbLayerTableRecord
  2
TEXT
 70
0
 62
7
  6
CONTINUOUS
370
-3
390
F
  0
LAYER
  5
22A
100
AcDbSymbolTableRecord
100
AcDbLayerTableRecord
  2
THREAD
 70
0
 62
7
  6
CONTINUOUS
370
-3
390
F
  0
LAYER
  5
22B
100
AcDbSymbolTableRecord
100
AcDbLayerTableRecord
  2
THREADS
 70
0
 62
7
  6
CONTINUOUS
370
-3
390
F
  0
LAYER
  5
22C
100
AcDbSymbolTableRecord
100
AcDbLayerTableRecord
  2
VGG_10
 70
0
 62
7
  6
CONTINUOUS
370
-3
390
F
  0
LAYER
  5
22D
100
AcDbSymbolTableRecord
100
AcDbLayerTableRecord
  2
VGG_2
 70
0
 62
7
  6
CONTINUOUS
370
-3
390
F
  0
LAYER
  5
22E
100
AcDbSymbolTableRecord
100
AcDbLayerTableRecord
  2
VGG_5
 70
0
 62
7
  6
CONTINUOUS
370
-3
390
F
  0
LAYER
  5
22F
100
AcDbSymbolTableRecord
100
AcDbLayerTableRecord
  2
VGG_6
 70
0
 62
7
  6
CONTINUOUS
370
-3
390
F
  0
LAYER
  5
230
100
AcDbSymbolTableRecord
100
AcDbLayerTableRecord
  2
VGG_7
 70
0
 62
7
  6
CONTINUOUS
370
-3
390
F
  0
LAYER
  5
231
100
AcDbSymbolTableRecord
100
AcDbLayerTableRecord
  2
VGG_8
 70
0
 62
7
  6
CONTINUOUS
370
-3
390
F
  0
ENDTAB
  0
TABLE
  2
STYLE
  5
3
100
AcDbSymbolTable
 70
1
  0
STYLE
  5
11
100
AcDbSymbolTableRecord
100
AcDbTextStyleTableRecord
  2
STANDARD
 70
0
 40
0.0
 41
0.8
 50
0.0
 71
0
 42
0.2
  3
txt
  4

  0
ENDTAB
  0
TABLE
  2
VIEW
  5
6
100
AcDbSymbolTable
 70
0
  0
ENDTAB
  0
TABLE
  2
UCS
  5
7
100
AcDbSymbolTable
 70
0
  0
ENDTAB
  0
TABLE
  2
APPID
  5
9
100
AcDbSymbolTable
 70
1
  0
APPID
  5
232
100
AcDbSymbolTableRecord
100
AcDbRegAppTableRecord
  2
ACAD
 70
0
  0
ENDTAB
  0
TABLE
  2
BLOCK_RECORD
  5
1
100
AcDbSymbolTable
 70
0
  0
BLOCK_RECORD
  5
1F
100
AcDbSymbolTableRecord
100
AcDbBlockTableRecord
  2
*MODEL_SPACE
  0
BLOCK_RECORD
  5
1B
100
AcDbSymbolTableRecord
100
AcDbBlockTableRecord
  2
*PAPER_SPACE
  0
ENDTAB
  0
TABLE
  2
DIMSTYLE
  5
A
100
AcDbSymbolTable
 70
1
100
AcDbDimStyleTable
 71
0
  0
DIMSTYLE
105
233
100
AcDbSymbolTableRecord
100
AcDbDimStyleTableRecord
  2
STANDARD
 70
0
  3

  4

 40
1.0
 41
0.1875
 42
0.0625
 43
0.38
 44
0.18
 45
0.0
 46
0.0
 47
0.01
 48
0.01
140
0.15625
141
0.09
142
0.0
143
25.4
144
1.0
145
0.0
146
1.0
147
0.09
 71
0.0
 72
0.0
 73
1
 74
1
 75
0
 76
0
 77
0
 78
4
170
0
171
2
172
0
173
0
174
0
175
0
176
0
177
0
178
0
270
2
271
2
272
2
273
2
274
2
275
0
280
0
281
0
282
0
283
1
284
4
285
0
286
0
287
3
288
0
340
11
  0
ENDTAB
  0
ENDSEC
  0
SECTION
  2
BLOCKS
  0
BLOCK
  5
20
100
AcDbEntity
  8
0
100
AcDbBlockBegin
  2
*MODEL_SPACE
 70
0
 10
0.0
 20
0.0
 30
0.0
  3
*MODEL_SPACE
  1

  0
ENDBLK
  5
21
100
AcDbEntity
  8
0
100
AcDbBlockEnd
  0
BLOCK
  5
1C
100
AcDbEntity
  8
0
100
AcDbBlockBegin
  2
*PAPER_SPACE
 70
0
 10
0.0
 20
0.0
 30
0.0
  3
*PAPER_SPACE
  1

  0
ENDBLK
  5
1D
100
AcDbEntity
  8
0
100
AcDbBlockEnd
  0
ENDSEC
  0
SECTION
  2
ENTITIES
  0
LINE
  5
234
100
AcDbEntity
  8
03__ASM_ALL_CURVES
100
AcDbLine
 62
4
  6
CONTINUOUS
 10
9.3195457038
 20
11.2333539017
 11
9.3295457038
 21
11.2600205667
  0
LINE
  5
235
100
AcDbEntity
  8
03__ASM_ALL_CURVES
100
AcDbLine
 62
4
  6
CONTINUOUS
 10
9.4095457038
 20
11.1933539005
 11
9.4045457038
 21
11.1866872336
  0
LINE
  5
236
100
AcDbEntity
  8
03__ASM_ALL_CURVES
100
AcDbLine
 62
4
  6
CONTINUOUS
 10
9.3745457038
 20
11.2266872318
 11
9.3845457038
 21
11.2333539017
  0
LINE
  5
237
100
AcDbEntity
  8
03__ASM_ALL_CURVES
100
AcDbLine
 62
4
  6
CONTINUOUS
 10
9.4045457038
 20
11.1866872336
 11
9.3945457038
 21
11.1800205667
  0
LINE
  5
238
100
AcDbEntity
  8
03__ASM_ALL_CURVES
100
AcDbLine
 62
4
  6
CONTINUOUS
 10
9.3145457038
 20
11.2133538993
 11
9.3195457038
 21
11.2333539017
  0
LINE
  5
239
100
AcDbEntity
  8
03__ASM_ALL_CURVES
100
AcDbLine
 62
4
  6
CONTINUOUS
 10
9.4145457038
 20
11.2066872342
 11
9.4095457038
 21
11.1933539005
  0
LINE
  5
23A
100
AcDbEntity
  8
03__ASM_ALL_CURVES
100
AcDbLine
 62
4
  6
CONTINUOUS
 10
9.6445457038
 20
11.2600205667
 11
9.6095457038
 21
11.2000205667
  0
LINE
  5
23B
100
AcDbEntity
  8
03__ASM_ALL_CURVES
100
AcDbLine
 62
4
  6
CONTINUOUS
 10
9.5545457038
 20
11.2600205667
 11
9.5445457038
 21
11.2466872318
  0
LINE
  5
23C
100
AcDbEntity
  8
03__ASM_ALL_CURVES
100
AcDbLine
 62
4
  6
CONTINUOUS
 10
9.1495457038
 20
11.2600205667
 11
9.1495457038
 21
11.1800205667
  0
LINE
  5
23D
100
AcDbEntity
  8
03__ASM_ALL_CURVES
100
AcDbLine
 62
4
  6
CONTINUOUS
 10
9.3095457038
 20
11.1800205667
 11
9.3145457038
 21
11.2133538993
  0
LINE
  5
23E
100
AcDbEntity
  8
03__ASM_ALL_CURVES
100
AcDbLine
 62
4
  6
CONTINUOUS
 10
9.3795457038
 20
11.2600205667
 11
9.3745457038
 21
11.2266872318
  0
LINE
  5
23F
100
AcDbEntity
  8
03__ASM_ALL_CURVES
100
AcDbLine
 62
4
  6
CONTINUOUS
 10
9.5445457038
 20
11.2466872318
 11
9.5395457038
 21
11.2266872318
  0
LINE
  5
240
100
AcDbEntity
  8
03__ASM_ALL_CURVES
100
AcDbLine
 62
4
  6
CONTINUOUS
 10
9.7245457038
 20
11.2600205667
 11
9.6895457038
 21
11.2000205667
  0
LINE
  5
241
100
AcDbEntity
  8
03__ASM_ALL_CURVES
100
AcDbLine
 62
4
  6
CONTINUOUS
 10
9.8845457038
 20
11.2600205667
 11
9.8495457038
 21
11.2000205667
  0
LINE
  5
242
100
AcDbEntity
  8
03__ASM_ALL_CURVES
100
AcDbLine
 62
4
  6
CONTINUOUS
 10
9.2420457038
 20
11.1800205667
 11
9.2420457038
 21
11.190020567
  0
LINE
  5
243
100
AcDbEntity
  8
03__ASM_ALL_CURVES
100
AcDbLine
 62
4
  6
CONTINUOUS
 10
9.9645457038
 20
11.2600205667
 11
9.9295457038
 21
11.2000205667
  0
LINE
  5
244
100
AcDbEntity
  8
03__ASM_ALL_CURVES
100
AcDbLine
 62
4
  6
CONTINUOUS
 10
10.0345457038
 20
11.1933539005
 11
10.0245457038
 21
11.1800205667
  0
LINE
  5
245
100
AcDbEntity
  8
03__ASM_ALL_CURVES
100
AcDbLine
 62
4
  6
CONTINUOUS
 10
9.5395457038
 20
11.2266872318
 11
9.5395457038
 21
11.2133538993
  0
LINE
  5
246
100
AcDbEntity
  8
03__ASM_ALL_CURVES
100
AcDbLine
 62
4
  6
CONTINUOUS
 10
12.6458790388
 20
7.8500205667
 11
12.6592123689
 21
7.8500205667
  0
LINE
  5
247
100
AcDbEntity
  8
03__ASM_ALL_CURVES
100
AcDbLine
 62
4
  6
CONTINUOUS
 10
9.6445457038
 20
11.1800205667
 11
9.6445457038
 21
11.2600205667
  0
LINE
  5
248
100
AcDbEntity
  8
03__ASM_ALL_CURVES
100
AcDbLine
 62
4
  6
CONTINUOUS
 10
9.7245457038
 20
11.1800205667
 11
9.7245457038
 21
11.2600205667
  0
LINE
  5
249
100
AcDbEntity
  8
03__ASM_ALL_CURVES
100
AcDbLine
 62
4
  6
CONTINUOUS
 10
10.0395457038
 20
11.2133538993
 11
10.0345457038
 21
11.1933539005
  0
LINE
  5
24A
100
AcDbEntity
  8
03__ASM_ALL_CURVES
100
AcDbLine
 62
4
  6
CONTINUOUS
 10
12.6792123713
 20
8.2200205667
 11
12.6992123701
 21
8.2250205667
  0
LINE
  5
24B
100
AcDbEntity
  8
03__ASM_ALL_CURVES
100
AcDbLine
 62
4
  6
CONTINUOUS
 10
13.3822123713
 20
8.5400205667
 11
13.4022123701
 21
8.5450205667
  0
LINE
  5
24C
100
AcDbEntity
  8
03__ASM_ALL_CURVES
100
AcDbLine
 62
4
  6
CONTINUOUS
 10
12.7125457038
 20
7.9225205667
 11
12.7025457035
 21
7.9225205667
  0
LINE
  5
24D
100
AcDbEntity
  8
03__ASM_ALL_CURVES
100
AcDbLine
 62
4
  6
CONTINUOUS
 10
12.6458790388
 20
8.0100205667
 11
12.6592123689
 21
8.0100205667
  0
LINE
  5
24E
100
AcDbEntity
  8
03__ASM_ALL_CURVES
100
AcDbLine
 62
4
  6
CONTINUOUS
 10
12.6858790364
 20
8.0500205667
 11
12.6592123689
 21
8.0500205667
  0
LINE
  5
24F
100
AcDbEntity
  8
03__ASM_ALL_CURVES
100
AcDbLine
 62
4
  6
CONTINUOUS
 10
9.8020457038
 20
11.1800205667
 11
9.8020457038
 21
11.190020567
  0
LINE
  5
250
100
AcDbEntity
  8
03__ASM_ALL_CURVES
100
AcDbLine
 62
4
  6
CONTINUOUS
 10
9.8845457038
 20
11.1800205667
 11
9.8845457038
 21
11.2600205667
  0
LINE
  5
251
100
AcDbEntity
  8
03__ASM_ALL_CURVES
100
AcDbLine
 62
4
  6
CONTINUOUS
 10
9.9295457038
 20
9.4566872342
 11
9.9295457038
 21
9.4833539017
  0
LINE
  5
252
100
AcDbEntity
  8
03__ASM_ALL_CURVES
100
AcDbLine
 62
4
  6
CONTINUOUS
 10
9.9645457038
 20
11.1800205667
 11
9.9645457038
 21
11.2600205667
  0
LINE
  5
253
100
AcDbEntity
  8
03__ASM_ALL_CURVES
100
AcDbLine
 62
4
  6
CONTINUOUS
 10
12.6592123689
 20
8.0900205667
 11
12.6858790364
 21
8.0900205667
  0
LINE
  5
254
100
AcDbEntity
  8
03__ASM_ALL_CURVES
100
AcDbLine
 62
4
  6
CONTINUOUS
 10
13.3488790388
 20
8.1700205667
 11
13.3622123689
 21
8.1700205667
  0
LINE
  5
255
100
AcDbEntity
  8
03__ASM_ALL_CURVES
100
AcDbLine
 62
4
  6
CONTINUOUS
 10
12.6658790388
 20
8.2200205667
 11
12.6792123713
 21
8.2200205667
  0
LINE
  5
256
100
AcDbEntity
  8
03__ASM_ALL_CURVES
100
AcDbLine
 62
4
  6
CONTINUOUS
 10
13.4155457038
 20
8.2425205667
 11
13.4055457035
 21
8.2425205667
  0
LINE
  5
257
100
AcDbEntity
  8
03__ASM_ALL_CURVES
100
AcDbLine
 62
4
  6
CONTINUOUS
 10
12.6925457038
 20
7.8150205667
 11
12.7125457038
 21
7.8100205667
  0
LINE
  5
258
100
AcDbEntity
  8
03__ASM_ALL_CURVES
100
AcDbLine
 62
4
  6
CONTINUOUS
 10
9.9695457038
 20
9.4833539017
 11
9.9695457038
 21
9.4566872342
  0
LINE
  5
259
100
AcDbEntity
  8
03__ASM_ALL_CURVES
100
AcDbLine
 62
4
  6
CONTINUOUS
 10
10.0395457038
 20
11.2266872318
 11
10.0395457038
 21
11.2133538993
  0
LINE
  5
25A
100
AcDbEntity
  8
03__ASM_ALL_CURVES
100
AcDbLine
 62
4
  6
CONTINUOUS
 10
9.9295457038
 20
9.4833539017
 11
9.9345457038
 21
9.4966872318
  0
LINE
  5
25B
100
AcDbEntity
  8
03__ASM_ALL_CURVES
100
AcDbLine
 62
4
  6
CONTINUOUS
 10
9.9695457038
 20
9.4566872342
 11
9.9645457038
 21
9.4433539005
  0
LINE
  5
25C
100
AcDbEntity
  8
03__ASM_ALL_CURVES
100
AcDbLine
 62
4
  6
CONTINUOUS
 10
12.6458790388
 20
8.7150205667
 11
12.6658790388
 21
8.7200205667
  0
LINE
  5
25D
100
AcDbEntity
  8
03__ASM_ALL_CURVES
100
AcDbLine
 62
4
  6
CONTINUOUS
 10
13.3622123689
 20
8.3300205667
 11
13.3888790364
 21
8.3300205667
  0
LINE
  5
25E
100
AcDbEntity
  8
03__ASM_ALL_CURVES
100
AcDbLine
 62
4
  6
CONTINUOUS
 10
13.3888790364
 20
8.3700205667
 11
13.3622123689
 21
8.3700205667
  0
LINE
  5
25F
100
AcDbEntity
  8
03__ASM_ALL_CURVES
100
AcDbLine
 62
4
  6
CONTINUOUS
 10
13.3622123689
 20
8.4100205667
 11
13.3888790364
 21
8.4100205667
  0
LINE
  5
260
100
AcDbEntity
  8
03__ASM_ALL_CURVES
100
AcDbLine
 62
4
  6
CONTINUOUS
 10
12.6925457038
 20
7.9750205667
 11
12.7125457038
 21
7.9700205667
  0
LINE
  5
261
100
AcDbEntity
  8
03__ASM_ALL_CURVES
100
AcDbLine
 62
4
  6
CONTINUOUS
 10
9.9395457038
 20
9.4366872336
 11
9.9345457038
 21
9.4433539005
  0
LINE
  5
262
100
AcDbEntity
  8
03__ASM_ALL_CURVES
100
AcDbLine
 62
4
  6
CONTINUOUS
 10
9.9345457038
 20
9.4433539005
 11
9.9295457038
 21
9.4566872342
  0
LINE
  5
263
100
AcDbEntity
  8
03__ASM_ALL_CURVES
100
AcDbLine
 62
4
  6
CONTINUOUS
 10
9.9645457038
 20
9.4966872318
 11
9.9695457038
 21
9.4833539017
  0
LINE
  5
264
100
AcDbEntity
  8
03__ASM_ALL_CURVES
100
AcDbLine
 62
4
  6
CONTINUOUS
 10
9.4095457038
 20
11.2200205667
 11
9.4145457038
 21
11.2066872342
  0
LINE
  5
265
100
AcDbEntity
  8
03__ASM_ALL_CURVES
100
AcDbLine
 62
4
  6
CONTINUOUS
 10
9.5395457038
 20
11.2133538993
 11
9.5445457038
 21
11.1933539005
  0
LINE
  5
266
100
AcDbEntity
  8
03__ASM_ALL_CURVES
100
AcDbLine
 62
4
  6
CONTINUOUS
 10
9.9345457038
 20
9.4966872318
 11
9.9395457038
 21
9.5033539017
  0
LINE
  5
267
100
AcDbEntity
  8
03__ASM_ALL_CURVES
100
AcDbLine
 62
4
  6
CONTINUOUS
 10
9.9645457038
 20
9.4433539005
 11
9.9595457038
 21
9.4366872336
  0
LINE
  5
268
100
AcDbEntity
  8
03__ASM_ALL_CURVES
100
AcDbLine
 62
4
  6
CONTINUOUS
 10
12.6792123713
 20
8.8600205667
 11
12.6992123701
 21
8.8650205667
  0
LINE
  5
269
100
AcDbEntity
  8
03__ASM_ALL_CURVES
100
AcDbLine
 62
4
  6
CONTINUOUS
 10
13.3488790388
 20
9.0350205667
 11
13.3688790388
 21
9.0400205667
  0
LINE
  5
26A
100
AcDbEntity
  8
03__ASM_ALL_CURVES
100
AcDbLine
 62
4
  6
CONTINUOUS
 10
12.7125457038
 20
8.4825205667
 11
12.7025457035
 21
8.4825205667
  0
LINE
  5
26B
100
AcDbEntity
  8
03__ASM_ALL_CURVES
100
AcDbLine
 62
4
  6
CONTINUOUS
 10
12.6925457038
 20
8.5250205667
 11
12.6858790364
 21
8.5250205667
  0
LINE
  5
26C
100
AcDbEntity
  8
03__ASM_ALL_CURVES
100
AcDbLine
 62
4
  6
CONTINUOUS
 10
12.6525457038
 20
8.5300205667
 11
12.6458790388
 21
8.5300205667
  0
LINE
  5
26D
100
AcDbEntity
  8
03__ASM_ALL_CURVES
100
AcDbLine
 62
4
  6
CONTINUOUS
 10
13.3688790388
 20
8.5400205667
 11
13.3822123713
 21
8.5400205667
  0
LINE
  5
26E
100
AcDbEntity
  8
03__ASM_ALL_CURVES
100
AcDbLine
 62
4
  6
CONTINUOUS
 10
12.6458790388
 20
8.5700205667
 11
12.6525457038
 21
8.5700205667
  0
LINE
  5
26F
100
AcDbEntity
  8
03__ASM_ALL_CURVES
100
AcDbLine
 62
4
  6
CONTINUOUS
 10
12.6858790364
 20
8.5750205667
 11
12.6925457038
 21
8.5750205667
  0
LINE
  5
270
100
AcDbEntity
  8
03__ASM_ALL_CURVES
100
AcDbLine
 62
4
  6
CONTINUOUS
 10
12.6925457038
 20
8.6050205667
 11
12.6858790364
 21
8.6050205667
  0
LINE
  5
271
100
AcDbEntity
  8
03__ASM_ALL_CURVES
100
AcDbLine
 62
4
  6
CONTINUOUS
 10
12.6525457038
 20
8.6100205667
 11
12.6458790388
 21
8.6100205667
  0
LINE
  5
272
100
AcDbEntity
  8
03__ASM_ALL_CURVES
100
AcDbLine
 62
4
  6
CONTINUOUS
 10
12.6325457038
 20
8.3000205667
 11
12.6658790388
 21
8.2950205667
  0
LINE
  5
273
100
AcDbEntity
  8
03__ASM_ALL_CURVES
100
AcDbLine
 62
4
  6
CONTINUOUS
 10
12.6325457038
 20
8.3800205667
 11
12.6658790388
 21
8.3750205667
  0
LINE
  5
274
100
AcDbEntity
  8
03__ASM_ALL_CURVES
100
AcDbLine
 62
4
  6
CONTINUOUS
 10
12.6458790388
 20
8.2250205667
 11
12.6658790388
 21
8.2200205667
  0
LINE
  5
275
100
AcDbEntity
  8
03__ASM_ALL_CURVES
100
AcDbLine
 62
4
  6
CONTINUOUS
 10
10.4428790388
 20
8.9350205667
 11
10.4362123689
 21
8.9400205667
  0
LINE
  5
276
100
AcDbEntity
  8
03__ASM_ALL_CURVES
100
AcDbLine
 62
4
  6
CONTINUOUS
 10
9.9595457038
 20
9.5033539017
 11
9.9645457038
 21
9.4966872318
  0
LINE
  5
277
100
AcDbEntity
  8
03__ASM_ALL_CURVES
100
AcDbLine
 62
4
  6
CONTINUOUS
 10
10.4362123689
 20
8.9400205667
 11
10.4295457038
 21
8.9500205667
  0
LINE
  5
278
100
AcDbEntity
  8
03__ASM_ALL_CURVES
100
AcDbLine
 62
4
  6
CONTINUOUS
 10
10.502879037
 20
8.9600205667
 11
10.5095457038
 21
8.9500205667
  0
LINE
  5
279
100
AcDbEntity
  8
0
100
AcDbLine
 62
7
  6
CONTINUOUS
 10
10.4695457038
 20
11.2200205667
 11
10.4695457038
 21
9.4700205667
  0
LINE
  5
27A
100
AcDbEntity
  8
03__ASM_ALL_CURVES
100
AcDbLine
 62
4
  6
CONTINUOUS
 10
10.4695457038
 20
9.3900205667
 11
10.4695457038
 21
9.1500205667
  0
LINE
  5
27B
100
AcDbEntity
  8
03__ASM_ALL_CURVES
100
AcDbLine
 62
4
  6
CONTINUOUS
 10
12.6458790388
 20
9.1150205667
 11
12.6658790388
 21
9.1200205667
  0
LINE
  5
27C
100
AcDbEntity
  8
03__ASM_ALL_CURVES
100
AcDbLine
 62
4
  6
CONTINUOUS
 10
12.6458790388
 20
8.6500205667
 11
12.6525457038
 21
8.6500205667
  0
LINE
  5
27D
100
AcDbEntity
  8
03__ASM_ALL_CURVES
100
AcDbLine
 62
4
  6
CONTINUOUS
 10
12.6858790364
 20
8.6550205667
 11
12.6925457038
 21
8.6550205667
  0
LINE
  5
27E
100
AcDbEntity
  8
03__ASM_ALL_CURVES
100
AcDbLine
 62
4
  6
CONTINUOUS
 10
12.6658790388
 20
8.7200205667
 11
12.6792123713
 21
8.7200205667
  0
LINE
  5
27F
100
AcDbEntity
  8
03__ASM_ALL_CURVES
100
AcDbLine
 62
4
  6
CONTINUOUS
 10
13.3488790388
 20
8.7300205667
 11
13.3555457038
 21
8.7300205667
  0
LINE
  5
280
100
AcDbEntity
  8
03__ASM_ALL_CURVES
100
AcDbLine
 62
4
  6
CONTINUOUS
 10
13.3888790364
 20
8.7350205667
 11
13.3955457038
 21
8.7350205667
  0
LINE
  5
281
100
AcDbEntity
  8
03__ASM_ALL_CURVES
100
AcDbLine
 62
4
  6
CONTINUOUS
 10
13.4155457038
 20
8.8025205667
 11
13.4055457035
 21
8.8025205667
  0
LINE
  5
282
100
AcDbEntity
  8
03__ASM_ALL_CURVES
100
AcDbLine
 62
4
  6
CONTINUOUS
 10
13.3955457038
 20
8.1350205667
 11
13.4155457038
 21
8.1300205667
  0
LINE
  5
283
100
AcDbEntity
  8
03__ASM_ALL_CURVES
100
AcDbLine
 62
4
  6
CONTINUOUS
 10
12.6592123689
 20
8.0500205667
 11
12.6458790388
 21
8.0550205667
  0
LINE
  5
284
100
AcDbEntity
  8
03__ASM_ALL_CURVES
100
AcDbLine
 62
4
  6
CONTINUOUS
 10
12.6858790364
 20
8.0900205667
 11
12.6992123701
 21
8.0850205667
  0
LINE
  5
285
100
AcDbEntity
  8
03__ASM_ALL_CURVES
100
AcDbLine
 62
4
  6
CONTINUOUS
 10
10.4562123689
 20
8.9300205667
 11
10.4428790388
 21
8.9350205667
  0
LINE
  5
286
100
AcDbEntity
  8
03__ASM_ALL_CURVES
100
AcDbLine
 62
4
  6
CONTINUOUS
 10
10.4828790364
 20
8.9700205667
 11
10.4962123701
 21
8.9650205667
  0
LINE
  5
287
100
AcDbEntity
  8
03__ASM_ALL_CURVES
100
AcDbLine
 62
4
  6
CONTINUOUS
 10
9.9495457038
 20
9.4300205667
 11
9.9395457038
 21
9.4366872336
  0
LINE
  5
288
100
AcDbEntity
  8
03__ASM_ALL_CURVES
100
AcDbLine
 62
4
  6
CONTINUOUS
 10
9.9495457038
 20
9.5100205667
 11
9.9595457038
 21
9.5033539017
  0
LINE
  5
289
100
AcDbEntity
  8
03__ASM_ALL_CURVES
100
AcDbLine
 62
4
  6
CONTINUOUS
 10
10.4962123701
 20
8.9650205667
 11
10.502879037
 21
8.9600205667
  0
LINE
  5
28A
100
AcDbEntity
  8
03__ASM_ALL_CURVES
100
AcDbLine
 62
4
  6
CONTINUOUS
 10
10.0345457038
 20
11.2466872318
 11
10.0395457038
 21
11.2266872318
  0
LINE
  5
28B
100
AcDbEntity
  8
03__ASM_ALL_CURVES
100
AcDbLine
 62
4
  6
CONTINUOUS
 10
9.9395457038
 20
9.5033539017
 11
9.9495457038
 21
9.5100205667
  0
LINE
  5
28C
100
AcDbEntity
  8
03__ASM_ALL_CURVES
100
AcDbLine
 62
4
  6
CONTINUOUS
 10
9.9595457038
 20
9.4366872336
 11
9.9495457038
 21
9.4300205667
  0
LINE
  5
28D
100
AcDbEntity
  8
03__ASM_ALL_CURVES
100
AcDbLine
 62
4
  6
CONTINUOUS
 10
13.3888790364
 20
8.8500205667
 11
13.3622123689
 21
8.8500205667
  0
LINE
  5
28E
100
AcDbEntity
  8
03__ASM_ALL_CURVES
100
AcDbLine
 62
4
  6
CONTINUOUS
 10
12.6658790388
 20
8.8600205667
 11
12.6792123713
 21
8.8600205667
  0
LINE
  5
28F
100
AcDbEntity
  8
03__ASM_ALL_CURVES
100
AcDbLine
 62
4
  6
CONTINUOUS
 10
13.3888790364
 20
8.9300205667
 11
13.3622123689
 21
8.9300205667
  0
LINE
  5
290
100
AcDbEntity
  8
03__ASM_ALL_CURVES
100
AcDbLine
 62
4
  6
CONTINUOUS
 10
10.4828790364
 20
8.9300205667
 11
10.4562123689
 21
8.9300205667
  0
LINE
  5
291
100
AcDbEntity
  8
03__ASM_ALL_CURVES
100
AcDbLine
 62
4
  6
CONTINUOUS
 10
12.6325457038
 20
8.9300205667
 11
12.7125457038
 21
8.9300205667
  0
LINE
  5
292
100
AcDbEntity
  8
03__ASM_ALL_CURVES
100
AcDbLine
 62
4
  6
CONTINUOUS
 10
10.4562123689
 20
8.9700205667
 11
10.4828790364
 21
8.9700205667
  0
LINE
  5
293
100
AcDbEntity
  8
03__ASM_ALL_CURVES
100
AcDbLine
 62
4
  6
CONTINUOUS
 10
13.4155457038
 20
8.6300205667
 11
13.3822123713
 21
8.6350205667
  0
LINE
  5
294
100
AcDbEntity
  8
03__ASM_ALL_CURVES
100
AcDbLine
 62
4
  6
CONTINUOUS
 10
12.6858790364
 20
8.3350205667
 11
12.6992123701
 21
8.3300205667
  0
LINE
  5
295
100
AcDbEntity
  8
03__ASM_ALL_CURVES
100
AcDbLine
 62
4
  6
CONTINUOUS
 10
12.6858790364
 20
8.4150205667
 11
12.6992123701
 21
8.4100205667
  0
LINE
  5
296
100
AcDbEntity
  8
03__ASM_ALL_CURVES
100
AcDbLine
 62
4
  6
CONTINUOUS
 10
12.6458790388
 20
7.8100205667
 11
12.6392123689
 21
7.8150205667
  0
LINE
  5
297
100
AcDbEntity
  8
03__ASM_ALL_CURVES
100
AcDbLine
 62
4
  6
CONTINUOUS
 10
9.2420457038
 20
11.190020567
 11
9.2495457038
 21
11.1800205667
  0
LINE
  5
298
100
AcDbEntity
  8
03__ASM_ALL_CURVES
100
AcDbLine
 62
4
  6
CONTINUOUS
 10
10.4295457038
 20
8.9500205667
 11
10.4362123689
 21
8.9600205667
  0
LINE
  5
299
100
AcDbEntity
  8
03__ASM_ALL_CURVES
100
AcDbLine
 62
4
  6
CONTINUOUS
 10
12.6458790388
 20
9.0100205667
 11
12.6525457038
 21
9.0100205667
  0
LINE
  5
29A
100
AcDbEntity
  8
03__ASM_ALL_CURVES
100
AcDbLine
 62
4
  6
CONTINUOUS
 10
13.3688790388
 20
9.0400205667
 11
13.3822123713
 21
9.0400205667
  0
LINE
  5
29B
100
AcDbEntity
  8
03__ASM_ALL_CURVES
100
AcDbLine
 62
4
  6
CONTINUOUS
 10
12.6858790364
 20
9.0500205667
 11
12.6992123701
 21
9.0500205667
  0
LINE
  5
29C
100
AcDbEntity
  8
03__ASM_ALL_CURVES
100
AcDbLine
 62
4
  6
CONTINUOUS
 10
12.6658790388
 20
9.1200205667
 11
12.6792123713
 21
9.1200205667
  0
LINE
  5
29D
100
AcDbEntity
  8
03__ASM_ALL_CURVES
100
AcDbLine
 62
4
  6
CONTINUOUS
 10
13.3488790388
 20
8.5450205667
 11
13.3688790388
 21
8.5400205667
  0
LINE
  5
29E
100
AcDbEntity
  8
03__ASM_ALL_CURVES
100
AcDbLine
 62
4
  6
CONTINUOUS
 10
12.6792123713
 20
8.7200205667
 11
12.6992123701
 21
8.7150205667
  0
LINE
  5
29F
100
AcDbEntity
  8
03__ASM_ALL_CURVES
100
AcDbLine
 62
4
  6
CONTINUOUS
 10
13.3822123713
 20
8.6350205667
 11
13.3622123689
 21
8.6400205667
  0
LINE
  5
2A0
100
AcDbEntity
  8
03__ASM_ALL_CURVES
100
AcDbLine
 62
4
  6
CONTINUOUS
 10
13.3622123689
 20
8.2900205667
 11
13.3488790388
 21
8.2950205667
  0
LINE
  5
2A1
100
AcDbEntity
  8
03__ASM_ALL_CURVES
100
AcDbLine
 62
4
  6
CONTINUOUS
 10
13.3622123689
 20
8.3300205667
 11
13.3755457038
 21
8.3250205667
  0
LINE
  5
2A2
100
AcDbEntity
  8
03__ASM_ALL_CURVES
100
AcDbLine
 62
4
  6
CONTINUOUS
 10
13.3888790364
 20
8.3300205667
 11
13.4022123701
 21
8.3250205667
  0
LINE
  5
2A3
100
AcDbEntity
  8
03__ASM_ALL_CURVES
100
AcDbLine
 62
4
  6
CONTINUOUS
 10
12.6792123713
 20
7.8250205667
 11
12.6925457038
 21
7.8150205667
  0
LINE
  5
2A4
100
AcDbEntity
  8
03__ASM_ALL_CURVES
100
AcDbLine
 62
4
  6
CONTINUOUS
 10
12.6592123689
 20
7.8500205667
 11
12.6658790388
 21
7.8450205667
  0
LINE
  5
2A5
100
AcDbEntity
  8
03__ASM_ALL_CURVES
100
AcDbLine
 62
4
  6
CONTINUOUS
 10
12.6458790388
 20
7.9700205667
 11
12.6392123689
 21
7.9750205667
  0
LINE
  5
2A6
100
AcDbEntity
  8
03__ASM_ALL_CURVES
100
AcDbLine
 62
4
  6
CONTINUOUS
 10
12.6792123713
 20
7.9850205667
 11
12.6925457038
 21
7.9750205667
  0
LINE
  5
2A7
100
AcDbEntity
  8
03__ASM_ALL_CURVES
100
AcDbLine
 62
4
  6
CONTINUOUS
 10
12.6592123689
 20
8.0100205667
 11
12.6658790388
 21
8.0050205667
  0
LINE
  5
2A8
100
AcDbEntity
  8
03__ASM_ALL_CURVES
100
AcDbLine
 62
4
  6
CONTINUOUS
 10
9.3745457038
 20
11.1866872336
 11
9.3695457038
 21
11.1933539005
  0
LINE
  5
2A9
100
AcDbEntity
  8
03__ASM_ALL_CURVES
100
AcDbLine
 62
4
  6
CONTINUOUS
 10
9.4045457038
 20
11.2266872318
 11
9.4095457038
 21
11.2200205667
  0
LINE
  5
2AA
100
AcDbEntity
  8
03__ASM_ALL_CURVES
100
AcDbLine
 62
4
  6
CONTINUOUS
 10
9.5445457038
 20
11.1933539005
 11
9.5545457038
 21
11.1800205667
  0
LINE
  5
2AB
100
AcDbEntity
  8
03__ASM_ALL_CURVES
100
AcDbLine
 62
4
  6
CONTINUOUS
 10
10.5095457038
 20
8.9500205667
 11
10.502879037
 21
8.9400205667
  0
LINE
  5
2AC
100
AcDbEntity
  8
03__ASM_ALL_CURVES
100
AcDbLine
 62
4
  6
CONTINUOUS
 10
12.6458790388
 20
8.8650205667
 11
12.6658790388
 21
8.8600205667
  0
LINE
  5
2AD
100
AcDbEntity
  8
03__ASM_ALL_CURVES
100
AcDbLine
 62
4
  6
CONTINUOUS
 10
13.3622123689
 20
8.3700205667
 11
13.3488790388
 21
8.3750205667
  0
LINE
  5
2AE
100
AcDbEntity
  8
03__ASM_ALL_CURVES
100
AcDbLine
 62
4
  6
CONTINUOUS
 10
13.3888790364
 20
8.4100205667
 11
13.4022123701
 21
8.4050205667
  0
LINE
  5
2AF
100
AcDbEntity
  8
03__ASM_ALL_CURVES
100
AcDbLine
 62
4
  6
CONTINUOUS
 10
12.6458790388
 20
8.0550205667
 11
12.6392123689
 21
8.0600205667
  0
LINE
  5
2B0
100
AcDbEntity
  8
03__ASM_ALL_CURVES
100
AcDbLine
 62
4
  6
CONTINUOUS
 10
12.6992123701
 20
8.0850205667
 11
12.705879037
 21
8.0800205667
  0
LINE
  5
2B1
100
AcDbEntity
  8
03__ASM_ALL_CURVES
100
AcDbLine
 62
4
  6
CONTINUOUS
 10
12.6325457038
 20
8.2350205667
 11
12.6458790388
 21
8.2250205667
  0
LINE
  5
2B2
100
AcDbEntity
  8
03__ASM_ALL_CURVES
100
AcDbLine
 62
4
  6
CONTINUOUS
 10
10.4362123689
 20
8.9600205667
 11
10.4428790388
 21
8.9650205667
  0
LINE
  5
2B3
100
AcDbEntity
  8
03__ASM_ALL_CURVES
100
AcDbLine
 62
4
  6
CONTINUOUS
 10
10.3895457038
 20
9.4700205667
 11
10.1495457038
 21
9.4700205667
  0
LINE
  5
2B4
100
AcDbEntity
  8
0
100
AcDbLine
 62
7
  6
CONTINUOUS
 10
10.4695457038
 20
9.4700205667
 11
12.7195455846
 21
9.4700205667
  0
LINE
  5
2B5
100
AcDbEntity
  8
0
100
AcDbLine
 62
7
  6
CONTINUOUS
 10
13.3445456027
 20
9.5110205667
 11
12.7195455846
 21
9.5110205667
  0
LINE
  5
2B6
100
AcDbEntity
  8
03__ASM_ALL_CURVES
100
AcDbLine
 62
4
  6
CONTINUOUS
 10
12.6792123713
 20
9.1200205667
 11
12.6992123701
 21
9.1150205667
  0
LINE
  5
2B7
100
AcDbEntity
  8
03__ASM_ALL_CURVES
100
AcDbLine
 62
4
  6
CONTINUOUS
 10
13.3622123689
 20
8.6400205667
 11
13.3355457038
 21
8.6500205667
  0
LINE
  5
2B8
100
AcDbEntity
  8
03__ASM_ALL_CURVES
100
AcDbLine
 62
4
  6
CONTINUOUS
 10
12.6992123701
 20
8.3300205667
 11
12.705879037
 21
8.3250205667
  0
LINE
  5
2B9
100
AcDbEntity
  8
03__ASM_ALL_CURVES
100
AcDbLine
 62
4
  6
CONTINUOUS
 10
12.6992123701
 20
8.4100205667
 11
12.705879037
 21
8.4050205667
  0
LINE
  5
2BA
100
AcDbEntity
  8
03__ASM_ALL_CURVES
100
AcDbLine
 62
4
  6
CONTINUOUS
 10
9.8020457038
 20
11.190020567
 11
9.8095457038
 21
11.1800205667
  0
LINE
  5
2BB
100
AcDbEntity
  8
03__ASM_ALL_CURVES
100
AcDbLine
 62
4
  6
CONTINUOUS
 10
10.502879037
 20
8.9400205667
 11
10.4962123701
 21
8.9350205667
  0
LINE
  5
2BC
100
AcDbEntity
  8
03__ASM_ALL_CURVES
100
AcDbLine
 62
4
  6
CONTINUOUS
 10
13.3822123713
 20
9.0400205667
 11
13.4022123701
 21
9.0350205667
  0
LINE
  5
2BD
100
AcDbEntity
  8
03__ASM_ALL_CURVES
100
AcDbLine
 62
4
  6
CONTINUOUS
 10
13.3622123689
 20
8.8500205667
 11
13.3488790388
 21
8.8550205667
  0
LINE
  5
2BE
100
AcDbEntity
  8
03__ASM_ALL_CURVES
100
AcDbLine
 62
4
  6
CONTINUOUS
 10
13.3888790364
 20
8.8500205667
 11
13.3755457038
 21
8.8550205667
  0
LINE
  5
2BF
100
AcDbEntity
  8
03__ASM_ALL_CURVES
100
AcDbLine
 62
4
  6
CONTINUOUS
 10
13.3888790364
 20
8.8900205667
 11
13.4022123701
 21
8.8850205667
  0
LINE
  5
2C0
100
AcDbEntity
  8
03__ASM_ALL_CURVES
100
AcDbLine
 62
4
  6
CONTINUOUS
 10
13.3622123689
 20
8.9300205667
 11
13.3488790388
 21
8.9350205667
  0
LINE
  5
2C1
100
AcDbEntity
  8
03__ASM_ALL_CURVES
100
AcDbLine
 62
4
  6
CONTINUOUS
 10
13.3888790364
 20
8.9300205667
 11
13.3755457038
 21
8.9350205667
  0
LINE
  5
2C2
100
AcDbEntity
  8
03__ASM_ALL_CURVES
100
AcDbLine
 62
4
  6
CONTINUOUS
 10
12.6458790388
 20
8.5300205667
 11
12.6392123689
 21
8.5350205667
  0
LINE
  5
2C3
100
AcDbEntity
  8
03__ASM_ALL_CURVES
100
AcDbLine
 62
4
  6
CONTINUOUS
 10
12.6858790364
 20
8.5250205667
 11
12.6725457038
 21
8.5350205667
  0
LINE
  5
2C4
100
AcDbEntity
  8
03__ASM_ALL_CURVES
100
AcDbLine
 62
4
  6
CONTINUOUS
 10
12.6525457038
 20
8.5700205667
 11
12.6592123689
 21
8.5650205667
  0
LINE
  5
2C5
100
AcDbEntity
  8
03__ASM_ALL_CURVES
100
AcDbLine
 62
4
  6
CONTINUOUS
 10
12.6458790388
 20
8.6100205667
 11
12.6392123689
 21
8.6150205667
  0
LINE
  5
2C6
100
AcDbEntity
  8
03__ASM_ALL_CURVES
100
AcDbLine
 62
4
  6
CONTINUOUS
 10
12.6925457038
 20
8.5750205667
 11
12.705879037
 21
8.5650205667
  0
LINE
  5
2C7
100
AcDbEntity
  8
03__ASM_ALL_CURVES
100
AcDbLine
 62
4
  6
CONTINUOUS
 10
12.6858790364
 20
8.6050205667
 11
12.6725457038
 21
8.6150205667
  0
LINE
  5
2C8
100
AcDbEntity
  8
03__ASM_ALL_CURVES
100
AcDbLine
 62
4
  6
CONTINUOUS
 10
12.6525457038
 20
8.6500205667
 11
12.6592123689
 21
8.6450205667
  0
LINE
  5
2C9
100
AcDbEntity
  8
03__ASM_ALL_CURVES
100
AcDbLine
 62
4
  6
CONTINUOUS
 10
13.3488790388
 20
8.1300205667
 11
13.3422123689
 21
8.1350205667
  0
LINE
  5
2CA
100
AcDbEntity
  8
03__ASM_ALL_CURVES
100
AcDbLine
 62
4
  6
CONTINUOUS
 10
12.6925457038
 20
8.6550205667
 11
12.705879037
 21
8.6450205667
  0
LINE
  5
2CB
100
AcDbEntity
  8
03__ASM_ALL_CURVES
100
AcDbLine
 62
4
  6
CONTINUOUS
 10
13.3822123713
 20
8.1450205667
 11
13.3955457038
 21
8.1350205667
  0
LINE
  5
2CC
100
AcDbEntity
  8
03__ASM_ALL_CURVES
100
AcDbLine
 62
4
  6
CONTINUOUS
 10
13.3622123689
 20
8.1700205667
 11
13.3688790388
 21
8.1650205667
  0
LINE
  5
2CD
100
AcDbEntity
  8
03__ASM_ALL_CURVES
100
AcDbLine
 62
4
  6
CONTINUOUS
 10
10.0245457038
 20
11.2600205667
 11
10.0345457038
 21
11.2466872318
  0
LINE
  5
2CE
100
AcDbEntity
  8
0
100
AcDbLine
 62
7
  6
CONTINUOUS
 10
11.5480456027
 20
10.6330991966
 11
11.5480456027
 21
10.7040205667
  0
LINE
  5
2CF
100
AcDbEntity
  8
0
100
AcDbLine
 62
7
  6
CONTINUOUS
 10
11.5635456027
 20
10.6885205667
 11
11.5635456027
 21
10.6272382287
  0
LINE
  5
2D0
100
AcDbEntity
  8
03__ASM_ALL_CURVES
100
AcDbLine
 62
4
  6
CONTINUOUS
 10
10.4428790388
 20
8.9650205667
 11
10.4562123689
 21
8.9700205667
  0
LINE
  5
2D1
100
AcDbEntity
  8
03__ASM_ALL_CURVES
100
AcDbLine
 62
4
  6
CONTINUOUS
 10
10.4962123701
 20
8.9350205667
 11
10.4828790364
 21
8.9300205667
  0
LINE
  5
2D2
100
AcDbEntity
  8
0
100
AcDbLine
 62
7
  6
CONTINUOUS
 10
13.3755456027
 20
9.8860205667
 11
12.7195455846
 21
9.8860205667
  0
LINE
  5
2D3
100
AcDbEntity
  8
03__ASM_ALL_CURVES
100
AcDbLine
 62
4
  6
CONTINUOUS
 10
13.3888790364
 20
8.9700205667
 11
13.4022123701
 21
8.9650205667
  0
LINE
  5
2D4
100
AcDbEntity
  8
03__ASM_ALL_CURVES
100
AcDbLine
 62
4
  6
CONTINUOUS
 10
9.3845457038
 20
11.1800205667
 11
9.3745457038
 21
11.1866872336
  0
LINE
  5
2D5
100
AcDbEntity
  8
03__ASM_ALL_CURVES
100
AcDbLine
 62
4
  6
CONTINUOUS
 10
9.3945457038
 20
11.2333539017
 11
9.4045457038
 21
11.2266872318
  0
LINE
  5
2D6
100
AcDbEntity
  8
03__ASM_ALL_CURVES
100
AcDbLine
 62
4
  6
CONTINUOUS
 10
12.6992123701
 20
8.7150205667
 11
12.7125457038
 21
8.7050205667
  0
LINE
  5
2D7
100
AcDbEntity
  8
03__ASM_ALL_CURVES
100
AcDbLine
 62
4
  6
CONTINUOUS
 10
13.3488790388
 20
8.2950205667
 11
13.3422123689
 21
8.3000205667
  0
LINE
  5
2D8
100
AcDbEntity
  8
03__ASM_ALL_CURVES
100
AcDbLine
 62
4
  6
CONTINUOUS
 10
12.6325457038
 20
8.8750205667
 11
12.6458790388
 21
8.8650205667
  0
LINE
  5
2D9
100
AcDbEntity
  8
03__ASM_ALL_CURVES
100
AcDbLine
 62
4
  6
CONTINUOUS
 10
13.4022123701
 20
8.3250205667
 11
13.408879037
 21
8.3200205667
  0
LINE
  5
2DA
100
AcDbEntity
  8
03__ASM_ALL_CURVES
100
AcDbLine
 62
4
  6
CONTINUOUS
 10
13.3488790388
 20
8.3750205667
 11
13.3422123689
 21
8.3800205667
  0
LINE
  5
2DB
100
AcDbEntity
  8
03__ASM_ALL_CURVES
100
AcDbLine
 62
4
  6
CONTINUOUS
 10
13.4022123701
 20
8.4050205667
 11
13.408879037
 21
8.4000205667
  0
LINE
  5
2DC
100
AcDbEntity
  8
03__ASM_ALL_CURVES
100
AcDbLine
 62
4
  6
CONTINUOUS
 10
12.6392123689
 20
7.8150205667
 11
12.6325457038
 21
7.8250205667
  0
LINE
  5
2DD
100
AcDbEntity
  8
03__ASM_ALL_CURVES
100
AcDbLine
 62
4
  6
CONTINUOUS
 10
12.6658790388
 20
7.8450205667
 11
12.6792123713
 21
7.8250205667
  0
LINE
  5
2DE
100
AcDbEntity
  8
03__ASM_ALL_CURVES
100
AcDbLine
 62
4
  6
CONTINUOUS
 10
12.6392123689
 20
7.9750205667
 11
12.6325457038
 21
7.9850205667
  0
LINE
  5
2DF
100
AcDbEntity
  8
03__ASM_ALL_CURVES
100
AcDbLine
 62
4
  6
CONTINUOUS
 10
12.6658790388
 20
8.0050205667
 11
12.6792123713
 21
7.9850205667
  0
LINE
  5
2E0
100
AcDbEntity
  8
03__ASM_ALL_CURVES
100
AcDbLine
 62
4
  6
CONTINUOUS
 10
12.6392123689
 20
8.0600205667
 11
12.6325457038
 21
8.0700205667
  0
LINE
  5
2E1
100
AcDbEntity
  8
03__ASM_ALL_CURVES
100
AcDbLine
 62
4
  6
CONTINUOUS
 10
12.6392123689
 20
9.0150205667
 11
12.6458790388
 21
9.0100205667
  0
LINE
  5
2E2
100
AcDbEntity
  8
03__ASM_ALL_CURVES
100
AcDbLine
 62
4
  6
CONTINUOUS
 10
13.3355457038
 20
8.5550205667
 11
13.3488790388
 21
8.5450205667
  0
LINE
  5
2E3
100
AcDbEntity
  8
03__ASM_ALL_CURVES
100
AcDbLine
 62
4
  6
CONTINUOUS
 10
12.6992123701
 20
9.0500205667
 11
12.705879037
 21
9.0450205667
  0
LINE
  5
2E4
100
AcDbEntity
  8
03__ASM_ALL_CURVES
100
AcDbLine
 62
4
  6
CONTINUOUS
 10
12.6992123701
 20
9.1150205667
 11
12.7125457038
 21
9.1050205667
  0
LINE
  5
2E5
100
AcDbEntity
  8
03__ASM_ALL_CURVES
100
AcDbLine
 62
4
  6
CONTINUOUS
 10
12.705879037
 20
8.0800205667
 11
12.7125457038
 21
8.0700205667
  0
LINE
  5
2E6
100
AcDbEntity
  8
03__ASM_ALL_CURVES
100
AcDbLine
 62
4
  6
CONTINUOUS
 10
12.6658790388
 20
8.2950205667
 11
12.6592123689
 21
8.3050205667
  0
LINE
  5
2E7
100
AcDbEntity
  8
03__ASM_ALL_CURVES
100
AcDbLine
 62
4
  6
CONTINUOUS
 10
12.6658790388
 20
8.3750205667
 11
12.6592123689
 21
8.3850205667
  0
LINE
  5
2E8
100
AcDbEntity
  8
03__ASM_ALL_CURVES
100
AcDbLine
 62
4
  6
CONTINUOUS
 10
12.705879037
 20
8.3250205667
 11
12.7125457038
 21
8.3150205667
  0
LINE
  5
2E9
100
AcDbEntity
  8
03__ASM_ALL_CURVES
100
AcDbLine
 62
4
  6
CONTINUOUS
 10
13.3555457038
 20
8.7300205667
 11
13.3622123689
 21
8.7250205667
  0
LINE
  5
2EA
100
AcDbEntity
  8
03__ASM_ALL_CURVES
100
AcDbLine
 62
4
  6
CONTINUOUS
 10
13.3955457038
 20
8.7350205667
 11
13.408879037
 21
8.7250205667
  0
LINE
  5
2EB
100
AcDbEntity
  8
03__ASM_ALL_CURVES
100
AcDbLine
 62
4
  6
CONTINUOUS
 10
13.3488790388
 20
8.8550205667
 11
13.3422123689
 21
8.8600205667
  0
LINE
  5
2EC
100
AcDbEntity
  8
03__ASM_ALL_CURVES
100
AcDbLine
 62
4
  6
CONTINUOUS
 10
12.705879037
 20
8.4050205667
 11
12.7125457038
 21
8.3950205667
  0
LINE
  5
2ED
100
AcDbEntity
  8
03__ASM_ALL_CURVES
100
AcDbLine
 62
4
  6
CONTINUOUS
 10
12.6392123689
 20
8.5350205667
 11
12.6325457038
 21
8.5450205667
  0
LINE
  5
2EE
100
AcDbEntity
  8
03__ASM_ALL_CURVES
100
AcDbLine
 62
4
  6
CONTINUOUS
 10
12.6725457038
 20
8.5350205667
 11
12.6658790388
 21
8.5450205667
  0
LINE
  5
2EF
100
AcDbEntity
  8
03__ASM_ALL_CURVES
100
AcDbLine
 62
4
  6
CONTINUOUS
 10
12.6592123689
 20
8.5650205667
 11
12.6658790388
 21
8.5550205667
  0
LINE
  5
2F0
100
AcDbEntity
  8
03__ASM_ALL_CURVES
100
AcDbLine
 62
4
  6
CONTINUOUS
 10
12.6392123689
 20
8.6150205667
 11
12.6325457038
 21
8.6250205667
  0
LINE
  5
2F1
100
AcDbEntity
  8
03__ASM_ALL_CURVES
100
AcDbLine
 62
4
  6
CONTINUOUS
 10
12.705879037
 20
8.5650205667
 11
12.7125457038
 21
8.5550205667
  0
LINE
  5
2F2
100
AcDbEntity
  8
03__ASM_ALL_CURVES
100
AcDbLine
 62
4
  6
CONTINUOUS
 10
12.6725457038
 20
8.6150205667
 11
12.6658790388
 21
8.6250205667
  0
LINE
  5
2F3
100
AcDbEntity
  8
03__ASM_ALL_CURVES
100
AcDbLine
 62
4
  6
CONTINUOUS
 10
12.6592123689
 20
8.6450205667
 11
12.6658790388
 21
8.6350205667
  0
LINE
  5
2F4
100
AcDbEntity
  8
03__ASM_ALL_CURVES
100
AcDbLine
 62
4
  6
CONTINUOUS
 10
12.705879037
 20
8.6450205667
 11
12.7125457038
 21
8.6350205667
  0
LINE
  5
2F5
100
AcDbEntity
  8
03__ASM_ALL_CURVES
100
AcDbLine
 62
4
  6
CONTINUOUS
 10
13.4022123701
 20
8.8850205667
 11
13.408879037
 21
8.8800205667
  0
LINE
  5
2F6
100
AcDbEntity
  8
03__ASM_ALL_CURVES
100
AcDbLine
 62
4
  6
CONTINUOUS
 10
13.3488790388
 20
8.9350205667
 11
13.3422123689
 21
8.9400205667
  0
LINE
  5
2F7
100
AcDbEntity
  8
03__ASM_ALL_CURVES
100
AcDbLine
 62
4
  6
CONTINUOUS
 10
13.4022123701
 20
8.9650205667
 11
13.408879037
 21
8.9600205667
  0
LINE
  5
2F8
100
AcDbEntity
  8
03__ASM_ALL_CURVES
100
AcDbLine
 62
4
  6
CONTINUOUS
 10
13.4022123701
 20
9.0350205667
 11
13.4155457038
 21
9.0250205667
  0
LINE
  5
2F9
100
AcDbEntity
  8
03__ASM_ALL_CURVES
100
AcDbLine
 62
4
  6
CONTINUOUS
 10
12.6325457038
 20
9.0250205667
 11
12.6392123689
 21
9.0150205667
  0
LINE
  5
2FA
100
AcDbEntity
  8
03__ASM_ALL_CURVES
100
AcDbLine
 62
4
  6
CONTINUOUS
 10
12.705879037
 20
9.0450205667
 11
12.7125457038
 21
9.0350205667
  0
LINE
  5
2FB
100
AcDbEntity
  8
0
100
AcDbLine
 62
7
  6
CONTINUOUS
 10
11.5480456027
 20
10.7040205667
 11
11.5635456027
 21
10.6885205667
  0
LINE
  5
2FC
100
AcDbEntity
  8
03__ASM_ALL_CURVES
100
AcDbLine
 62
4
  6
CONTINUOUS
 10
13.3422123689
 20
8.1350205667
 11
13.3355457038
 21
8.1450205667
  0
LINE
  5
2FD
100
AcDbEntity
  8
03__ASM_ALL_CURVES
100
AcDbLine
 62
4
  6
CONTINUOUS
 10
13.3688790388
 20
8.1650205667
 11
13.3822123713
 21
8.1450205667
  0
LINE
  5
2FE
100
AcDbEntity
  8
03__ASM_ALL_CURVES
100
AcDbLine
 62
4
  6
CONTINUOUS
 10
13.3422123689
 20
8.3000205667
 11
13.3355457038
 21
8.3100205667
  0
LINE
  5
2FF
100
AcDbEntity
  8
03__ASM_ALL_CURVES
100
AcDbLine
 62
4
  6
CONTINUOUS
 10
13.3422123689
 20
8.3800205667
 11
13.3355457038
 21
8.3900205667
  0
LINE
  5
300
100
AcDbEntity
  8
03__ASM_ALL_CURVES
100
AcDbLine
 62
4
  6
CONTINUOUS
 10
13.408879037
 20
8.3200205667
 11
13.4155457038
 21
8.3100205667
  0
LINE
  5
301
100
AcDbEntity
  8
03__ASM_ALL_CURVES
100
AcDbLine
 62
4
  6
CONTINUOUS
 10
12.6325457038
 20
9.1050205667
 11
12.6458790388
 21
9.1150205667
  0
LINE
  5
302
100
AcDbEntity
  8
03__ASM_ALL_CURVES
100
AcDbLine
 62
4
  6
CONTINUOUS
 10
12.6458790388
 20
9.0500205667
 11
12.6392123689
 21
9.0450205667
  0
LINE
  5
303
100
AcDbEntity
  8
03__ASM_ALL_CURVES
100
AcDbLine
 62
4
  6
CONTINUOUS
 10
12.6792123713
 20
9.0450205667
 11
12.6858790364
 21
9.0500205667
  0
LINE
  5
304
100
AcDbEntity
  8
03__ASM_ALL_CURVES
100
AcDbLine
 62
4
  6
CONTINUOUS
 10
12.6525457038
 20
9.0100205667
 11
12.6592123689
 21
9.0150205667
  0
LINE
  5
305
100
AcDbEntity
  8
03__ASM_ALL_CURVES
100
AcDbLine
 62
4
  6
CONTINUOUS
 10
12.705879037
 20
9.0150205667
 11
12.6925457038
 21
9.0050205667
  0
LINE
  5
306
100
AcDbEntity
  8
03__ASM_ALL_CURVES
100
AcDbLine
 62
4
  6
CONTINUOUS
 10
13.3755457038
 20
8.9650205667
 11
13.3888790364
 21
8.9700205667
  0
LINE
  5
307
100
AcDbEntity
  8
0
100
AcDbLine
 62
7
  6
CONTINUOUS
 10
11.5480456027
 20
10.7040205667
 11
11.490260221
 21
10.7040205667
  0
LINE
  5
308
100
AcDbEntity
  8
0
100
AcDbLine
 62
7
  6
CONTINUOUS
 10
13.3755456027
 20
10.8040205667
 11
12.7195455846
 21
10.8040205667
  0
LINE
  5
309
100
AcDbEntity
  8
03__ASM_ALL_CURVES
100
AcDbLine
 62
4
  6
CONTINUOUS
 10
13.408879037
 20
8.4000205667
 11
13.4155457038
 21
8.3900205667
  0
LINE
  5
30A
100
AcDbEntity
  8
03__ASM_ALL_CURVES
100
AcDbLine
 62
4
  6
CONTINUOUS
 10
13.3422123689
 20
8.6950205667
 11
13.3355457038
 21
8.7050205667
  0
LINE
  5
30B
100
AcDbEntity
  8
03__ASM_ALL_CURVES
100
AcDbLine
 62
4
  6
CONTINUOUS
 10
13.3622123689
 20
8.7250205667
 11
13.3688790388
 21
8.7150205667
  0
LINE
  5
30C
100
AcDbEntity
  8
03__ASM_ALL_CURVES
100
AcDbLine
 62
4
  6
CONTINUOUS
 10
12.6325457038
 20
9.0350205667
 11
12.6325457038
 21
9.0250205667
  0
LINE
  5
30D
100
AcDbEntity
  8
03__ASM_ALL_CURVES
100
AcDbLine
 62
4
  6
CONTINUOUS
 10
12.6325457038
 20
8.4100205667
 11
12.6325457038
 21
8.3800205667
  0
LINE
  5
30E
100
AcDbEntity
  8
03__ASM_ALL_CURVES
100
AcDbLine
 62
4
  6
CONTINUOUS
 10
12.6325457038
 20
8.3300205667
 11
12.6325457038
 21
8.3000205667
  0
LINE
  5
30F
100
AcDbEntity
  8
03__ASM_ALL_CURVES
100
AcDbLine
 62
4
  6
CONTINUOUS
 10
12.6325457038
 20
7.8250205667
 11
12.6325457038
 21
7.8350205667
  0
LINE
  5
310
100
AcDbEntity
  8
03__ASM_ALL_CURVES
100
AcDbLine
 62
4
  6
CONTINUOUS
 10
12.6325457038
 20
7.9850205667
 11
12.6325457038
 21
7.9950205667
  0
LINE
  5
311
100
AcDbEntity
  8
03__ASM_ALL_CURVES
100
AcDbLine
 62
4
  6
CONTINUOUS
 10
12.6325457038
 20
8.5450205667
 11
12.6325457038
 21
8.5550205667
  0
LINE
  5
312
100
AcDbEntity
  8
03__ASM_ALL_CURVES
100
AcDbLine
 62
4
  6
CONTINUOUS
 10
12.6325457038
 20
8.6250205667
 11
12.6325457038
 21
8.6350205667
  0
LINE
  5
313
100
AcDbEntity
  8
03__ASM_ALL_CURVES
100
AcDbLine
 62
4
  6
CONTINUOUS
 10
12.6592123689
 20
8.3050205667
 11
12.6592123689
 21
8.3150205667
  0
LINE
  5
314
100
AcDbEntity
  8
03__ASM_ALL_CURVES
100
AcDbLine
 62
4
  6
CONTINUOUS
 10
12.6592123689
 20
8.3850205667
 11
12.6592123689
 21
8.3950205667
  0
LINE
  5
315
100
AcDbEntity
  8
03__ASM_ALL_CURVES
100
AcDbLine
 62
4
  6
CONTINUOUS
 10
12.6658790388
 20
8.5450205667
 11
12.6658790388
 21
8.5550205667
  0
LINE
  5
316
100
AcDbEntity
  8
03__ASM_ALL_CURVES
100
AcDbLine
 62
4
  6
CONTINUOUS
 10
12.6658790388
 20
8.6250205667
 11
12.6658790388
 21
8.6350205667
  0
LINE
  5
317
100
AcDbEntity
  8
03__ASM_ALL_CURVES
100
AcDbLine
 62
4
  6
CONTINUOUS
 10
12.6725457038
 20
9.3900205667
 11
12.6725457038
 21
9.1500205667
  0
LINE
  5
318
100
AcDbEntity
  8
03__ASM_ALL_CURVES
100
AcDbLine
 62
4
  6
CONTINUOUS
 10
12.7125457038
 20
9.0350205667
 11
12.7125457038
 21
9.0250205667
  0
LINE
  5
319
100
AcDbEntity
  8
03__ASM_ALL_CURVES
100
AcDbLine
 62
4
  6
CONTINUOUS
 10
12.7125457038
 20
8.6350205667
 11
12.7125457038
 21
8.6250205667
  0
LINE
  5
31A
100
AcDbEntity
  8
03__ASM_ALL_CURVES
100
AcDbLine
 62
4
  6
CONTINUOUS
 10
12.7125457038
 20
8.5550205667
 11
12.7125457038
 21
8.5450205667
  0
LINE
  5
31B
100
AcDbEntity
  8
03__ASM_ALL_CURVES
100
AcDbLine
 62
4
  6
CONTINUOUS
 10
12.7125457038
 20
8.4900205667
 11
12.7125457038
 21
8.4825205667
  0
LINE
  5
31C
100
AcDbEntity
  8
03__ASM_ALL_CURVES
100
AcDbLine
 62
4
  6
CONTINUOUS
 10
12.7125457038
 20
8.3950205667
 11
12.7125457038
 21
8.3850205667
  0
LINE
  5
31D
100
AcDbEntity
  8
03__ASM_ALL_CURVES
100
AcDbLine
 62
4
  6
CONTINUOUS
 10
12.7125457038
 20
8.3150205667
 11
12.7125457038
 21
8.3050205667
  0
LINE
  5
31E
100
AcDbEntity
  8
03__ASM_ALL_CURVES
100
AcDbLine
 62
4
  6
CONTINUOUS
 10
12.7125457038
 20
7.9300205667
 11
12.7125457038
 21
7.9225205667
  0
LINE
  5
31F
100
AcDbEntity
  8
03__ASM_ALL_CURVES
100
AcDbLine
 62
4
  6
CONTINUOUS
 10
12.7125457038
 20
7.8100205667
 11
12.7125457038
 21
7.8500205667
  0
LINE
  5
320
100
AcDbEntity
  8
03__ASM_ALL_CURVES
100
AcDbLine
 62
4
  6
CONTINUOUS
 10
12.7125457038
 20
7.9700205667
 11
12.7125457038
 21
8.0100205667
  0
LINE
  5
321
100
AcDbEntity
  8
03__ASM_ALL_CURVES
100
AcDbLine
 62
4
  6
CONTINUOUS
 10
12.7125457038
 20
8.9300205667
 11
12.7125457038
 21
8.9700205667
  0
LINE
  5
322
100
AcDbEntity
  8
0
100
AcDbLine
 62
7
  6
CONTINUOUS
 10
12.7195455846
 20
11.2200205667
 11
12.7195455846
 21
9.4700205667
  0
LINE
  5
323
100
AcDbEntity
  8
03__ASM_ALL_CURVES
100
AcDbLine
 62
4
  6
CONTINUOUS
 10
12.6392123689
 20
9.0450205667
 11
12.6325457038
 21
9.0350205667
  0
LINE
  5
324
100
AcDbEntity
  8
03__ASM_ALL_CURVES
100
AcDbLine
 62
4
  6
CONTINUOUS
 10
12.6592123689
 20
9.0150205667
 11
12.6792123713
 21
9.0450205667
  0
LINE
  5
325
100
AcDbEntity
  8
03__ASM_ALL_CURVES
100
AcDbLine
 62
4
  6
CONTINUOUS
 10
12.6992123701
 20
8.8650205667
 11
12.7125457038
 21
8.8750205667
  0
LINE
  5
326
100
AcDbEntity
  8
03__ASM_ALL_CURVES
100
AcDbLine
 62
4
  6
CONTINUOUS
 10
12.6325457038
 20
8.7050205667
 11
12.6458790388
 21
8.7150205667
  0
LINE
  5
327
100
AcDbEntity
  8
03__ASM_ALL_CURVES
100
AcDbLine
 62
4
  6
CONTINUOUS
 10
13.4022123701
 20
8.9350205667
 11
13.3888790364
 21
8.9300205667
  0
LINE
  5
328
100
AcDbEntity
  8
03__ASM_ALL_CURVES
100
AcDbLine
 62
4
  6
CONTINUOUS
 10
13.3755457038
 20
8.8850205667
 11
13.3888790364
 21
8.8900205667
  0
LINE
  5
329
100
AcDbEntity
  8
03__ASM_ALL_CURVES
100
AcDbLine
 62
4
  6
CONTINUOUS
 10
13.4022123701
 20
8.8550205667
 11
13.3888790364
 21
8.8500205667
  0
LINE
  5
32A
100
AcDbEntity
  8
03__ASM_ALL_CURVES
100
AcDbLine
 62
4
  6
CONTINUOUS
 10
13.408879037
 20
8.7250205667
 11
13.4155457038
 21
8.7150205667
  0
LINE
  5
32B
100
AcDbEntity
  8
03__ASM_ALL_CURVES
100
AcDbLine
 62
4
  6
CONTINUOUS
 10
13.3422123689
 20
8.8600205667
 11
13.3355457038
 21
8.8700205667
  0
LINE
  5
32C
100
AcDbEntity
  8
03__ASM_ALL_CURVES
100
AcDbLine
 62
4
  6
CONTINUOUS
 10
13.3422123689
 20
8.9400205667
 11
13.3355457038
 21
8.9500205667
  0
LINE
  5
32D
100
AcDbEntity
  8
03__ASM_ALL_CURVES
100
AcDbLine
 62
4
  6
CONTINUOUS
 10
13.408879037
 20
8.8800205667
 11
13.4155457038
 21
8.8700205667
  0
LINE
  5
32E
100
AcDbEntity
  8
03__ASM_ALL_CURVES
100
AcDbLine
 62
4
  6
CONTINUOUS
 10
13.408879037
 20
8.9600205667
 11
13.4155457038
 21
8.9500205667
  0
LINE
  5
32F
100
AcDbEntity
  8
03__ASM_ALL_CURVES
100
AcDbLine
 62
4
  6
CONTINUOUS
 10
13.3755457038
 20
8.3250205667
 11
13.3822123713
 21
8.3100205667
  0
LINE
  5
330
100
AcDbEntity
  8
03__ASM_ALL_CURVES
100
AcDbLine
 62
4
  6
CONTINUOUS
 10
12.7125457038
 20
9.0250205667
 11
12.705879037
 21
9.0150205667
  0
LINE
  5
331
100
AcDbEntity
  8
03__ASM_ALL_CURVES
100
AcDbLine
 62
4
  6
CONTINUOUS
 10
12.6325457038
 20
8.6350205667
 11
12.6392123689
 21
8.6450205667
  0
LINE
  5
332
100
AcDbEntity
  8
03__ASM_ALL_CURVES
100
AcDbLine
 62
4
  6
CONTINUOUS
 10
12.6658790388
 20
8.6350205667
 11
12.6725457038
 21
8.6450205667
  0
LINE
  5
333
100
AcDbEntity
  8
0
100
AcDbLine
 62
7
  6
CONTINUOUS
 10
13.3755456027
 20
9.5420205667
 11
13.3445456027
 21
9.5110205667
  0
LINE
  5
334
100
AcDbEntity
  8
03__ASM_ALL_CURVES
100
AcDbLine
 62
4
  6
CONTINUOUS
 10
12.6392123689
 20
8.6450205667
 11
12.6458790388
 21
8.6500205667
  0
LINE
  5
335
100
AcDbEntity
  8
03__ASM_ALL_CURVES
100
AcDbLine
 62
4
  6
CONTINUOUS
 10
12.6725457038
 20
8.6450205667
 11
12.6858790364
 21
8.6550205667
  0
LINE
  5
336
100
AcDbEntity
  8
03__ASM_ALL_CURVES
100
AcDbLine
 62
4
  6
CONTINUOUS
 10
12.6592123689
 20
8.6150205667
 11
12.6525457038
 21
8.6100205667
  0
LINE
  5
337
100
AcDbEntity
  8
03__ASM_ALL_CURVES
100
AcDbLine
 62
4
  6
CONTINUOUS
 10
12.6392123689
 20
8.5650205667
 11
12.6458790388
 21
8.5700205667
  0
LINE
  5
338
100
AcDbEntity
  8
03__ASM_ALL_CURVES
100
AcDbLine
 62
4
  6
CONTINUOUS
 10
12.705879037
 20
8.6150205667
 11
12.6925457038
 21
8.6050205667
  0
LINE
  5
339
100
AcDbEntity
  8
03__ASM_ALL_CURVES
100
AcDbLine
 62
4
  6
CONTINUOUS
 10
12.6725457038
 20
8.5650205667
 11
12.6858790364
 21
8.5750205667
  0
LINE
  5
33A
100
AcDbEntity
  8
03__ASM_ALL_CURVES
100
AcDbLine
 62
4
  6
CONTINUOUS
 10
12.6592123689
 20
8.5350205667
 11
12.6525457038
 21
8.5300205667
  0
LINE
  5
33B
100
AcDbEntity
  8
03__ASM_ALL_CURVES
100
AcDbLine
 62
4
  6
CONTINUOUS
 10
13.3355457038
 20
9.0250205667
 11
13.3488790388
 21
9.0350205667
  0
LINE
  5
33C
100
AcDbEntity
  8
03__ASM_ALL_CURVES
100
AcDbLine
 62
4
  6
CONTINUOUS
 10
12.705879037
 20
8.5350205667
 11
12.6925457038
 21
8.5250205667
  0
LINE
  5
33D
100
AcDbEntity
  8
03__ASM_ALL_CURVES
100
AcDbLine
 62
4
  6
CONTINUOUS
 10
12.6725457038
 20
8.4100205667
 11
12.6858790364
 21
8.4150205667
  0
LINE
  5
33E
100
AcDbEntity
  8
03__ASM_ALL_CURVES
100
AcDbLine
 62
4
  6
CONTINUOUS
 10
12.6725457038
 20
8.3300205667
 11
12.6858790364
 21
8.3350205667
  0
LINE
  5
33F
100
AcDbEntity
  8
0
100
AcDbLine
 62
7
  6
CONTINUOUS
 10
13.3445456027
 20
11.1790205667
 11
12.7195455846
 21
11.1790205667
  0
LINE
  5
340
100
AcDbEntity
  8
03__ASM_ALL_CURVES
100
AcDbLine
 62
4
  6
CONTINUOUS
 10
9.8095457038
 20
11.1800205667
 11
9.8020457038
 21
11.1800205667
  0
LINE
  5
341
100
AcDbEntity
  8
03__ASM_ALL_CURVES
100
AcDbLine
 62
4
  6
CONTINUOUS
 10
9.3945457038
 20
11.1800205667
 11
9.3845457038
 21
11.1800205667
  0
LINE
  5
342
100
AcDbEntity
  8
03__ASM_ALL_CURVES
100
AcDbLine
 62
4
  6
CONTINUOUS
 10
9.2495457038
 20
11.1800205667
 11
9.2420457038
 21
11.1800205667
  0
LINE
  5
343
100
AcDbEntity
  8
03__ASM_ALL_CURVES
100
AcDbLine
 62
4
  6
CONTINUOUS
 10
9.6095457038
 20
11.2000205667
 11
9.6545457038
 21
11.2000205667
  0
LINE
  5
344
100
AcDbEntity
  8
03__ASM_ALL_CURVES
100
AcDbLine
 62
4
  6
CONTINUOUS
 10
9.6895457038
 20
11.2000205667
 11
9.7345457038
 21
11.2000205667
  0
LINE
  5
345
100
AcDbEntity
  8
03__ASM_ALL_CURVES
100
AcDbLine
 62
4
  6
CONTINUOUS
 10
9.8495457038
 20
11.2000205667
 11
9.8945457038
 21
11.2000205667
  0
LINE
  5
346
100
AcDbEntity
  8
03__ASM_ALL_CURVES
100
AcDbLine
 62
4
  6
CONTINUOUS
 10
9.9295457038
 20
11.2000205667
 11
9.9745457038
 21
11.2000205667
  0
LINE
  5
347
100
AcDbEntity
  8
03__ASM_ALL_CURVES
100
AcDbLine
 62
4
  6
CONTINUOUS
 10
10.3895457038
 20
11.2200205667
 11
10.1495457038
 21
11.2200205667
  0
LINE
  5
348
100
AcDbEntity
  8
0
100
AcDbLine
 62
7
  6
CONTINUOUS
 10
10.4695457038
 20
11.2200205667
 11
12.7195455846
 21
11.2200205667
  0
LINE
  5
349
100
AcDbEntity
  8
03__ASM_ALL_CURVES
100
AcDbLine
 62
4
  6
CONTINUOUS
 10
13.3755457038
 20
8.8550205667
 11
13.3688790388
 21
8.8700205667
  0
LINE
  5
34A
100
AcDbEntity
  8
03__ASM_ALL_CURVES
100
AcDbLine
 62
4
  6
CONTINUOUS
 10
12.6658790388
 20
8.6250205667
 11
12.6592123689
 21
8.6150205667
  0
LINE
  5
34B
100
AcDbEntity
  8
03__ASM_ALL_CURVES
100
AcDbLine
 62
4
  6
CONTINUOUS
 10
12.6325457038
 20
8.5550205667
 11
12.6392123689
 21
8.5650205667
  0
LINE
  5
34C
100
AcDbEntity
  8
03__ASM_ALL_CURVES
100
AcDbLine
 62
4
  6
CONTINUOUS
 10
12.7125457038
 20
8.6250205667
 11
12.705879037
 21
8.6150205667
  0
LINE
  5
34D
100
AcDbEntity
  8
03__ASM_ALL_CURVES
100
AcDbLine
 62
4
  6
CONTINUOUS
 10
12.6658790388
 20
8.5550205667
 11
12.6725457038
 21
8.5650205667
  0
LINE
  5
34E
100
AcDbEntity
  8
03__ASM_ALL_CURVES
100
AcDbLine
 62
4
  6
CONTINUOUS
 10
12.6658790388
 20
8.5450205667
 11
12.6592123689
 21
8.5350205667
  0
LINE
  5
34F
100
AcDbEntity
  8
03__ASM_ALL_CURVES
100
AcDbLine
 62
4
  6
CONTINUOUS
 10
12.7125457038
 20
8.5450205667
 11
12.705879037
 21
8.5350205667
  0
LINE
  5
350
100
AcDbEntity
  8
03__ASM_ALL_CURVES
100
AcDbLine
 62
4
  6
CONTINUOUS
 10
12.6592123689
 20
8.3950205667
 11
12.6658790388
 21
8.4050205667
  0
LINE
  5
351
100
AcDbEntity
  8
03__ASM_ALL_CURVES
100
AcDbLine
 62
4
  6
CONTINUOUS
 10
12.6592123689
 20
8.3150205667
 11
12.6658790388
 21
8.3250205667
  0
LINE
  5
352
100
AcDbEntity
  8
03__ASM_ALL_CURVES
100
AcDbLine
 62
4
  6
CONTINUOUS
 10
12.7125457038
 20
8.3850205667
 11
12.705879037
 21
8.3750205667
  0
LINE
  5
353
100
AcDbEntity
  8
03__ASM_ALL_CURVES
100
AcDbLine
 62
4
  6
CONTINUOUS
 10
12.7025457035
 20
8.4825205667
 11
12.7125457038
 21
8.4900205667
  0
LINE
  5
354
100
AcDbEntity
  8
03__ASM_ALL_CURVES
100
AcDbLine
 62
4
  6
CONTINUOUS
 10
13.3422123689
 20
8.9600205667
 11
13.3488790388
 21
8.9650205667
  0
LINE
  5
355
100
AcDbEntity
  8
03__ASM_ALL_CURVES
100
AcDbLine
 62
4
  6
CONTINUOUS
 10
12.6658790388
 20
8.4050205667
 11
12.6725457038
 21
8.4100205667
  0
LINE
  5
356
100
AcDbEntity
  8
03__ASM_ALL_CURVES
100
AcDbLine
 62
4
  6
CONTINUOUS
 10
13.408879037
 20
8.9400205667
 11
13.4022123701
 21
8.9350205667
  0
LINE
  5
357
100
AcDbEntity
  8
03__ASM_ALL_CURVES
100
AcDbLine
 62
4
  6
CONTINUOUS
 10
13.3422123689
 20
8.8800205667
 11
13.3488790388
 21
8.8850205667
  0
LINE
  5
358
100
AcDbEntity
  8
03__ASM_ALL_CURVES
100
AcDbLine
 62
4
  6
CONTINUOUS
 10
12.705879037
 20
8.3750205667
 11
12.6992123701
 21
8.3700205667
  0
LINE
  5
359
100
AcDbEntity
  8
03__ASM_ALL_CURVES
100
AcDbLine
 62
4
  6
CONTINUOUS
 10
12.6658790388
 20
8.3250205667
 11
12.6725457038
 21
8.3300205667
  0
LINE
  5
35A
100
AcDbEntity
  8
03__ASM_ALL_CURVES
100
AcDbLine
 62
4
  6
CONTINUOUS
 10
13.408879037
 20
8.8600205667
 11
13.4022123701
 21
8.8550205667
  0
LINE
  5
35B
100
AcDbEntity
  8
03__ASM_ALL_CURVES
100
AcDbLine
 62
4
  6
CONTINUOUS
 10
12.705879037
 20
8.2950205667
 11
12.6992123701
 21
8.2900205667
  0
LINE
  5
35C
100
AcDbEntity
  8
03__ASM_ALL_CURVES
100
AcDbLine
 62
4
  6
CONTINUOUS
 10
13.3488790388
 20
8.4050205667
 11
13.3622123689
 21
8.4100205667
  0
LINE
  5
35D
100
AcDbEntity
  8
03__ASM_ALL_CURVES
100
AcDbLine
 62
4
  6
CONTINUOUS
 10
13.4022123701
 20
8.3750205667
 11
13.3888790364
 21
8.3700205667
  0
LINE
  5
35E
100
AcDbEntity
  8
03__ASM_ALL_CURVES
100
AcDbLine
 62
4
  6
CONTINUOUS
 10
12.6458790388
 20
8.0850205667
 11
12.6592123689
 21
8.0900205667
  0
LINE
  5
35F
100
AcDbEntity
  8
03__ASM_ALL_CURVES
100
AcDbLine
 62
4
  6
CONTINUOUS
 10
13.3488790388
 20
8.3250205667
 11
13.3622123689
 21
8.3300205667
  0
LINE
  5
360
100
AcDbEntity
  8
03__ASM_ALL_CURVES
100
AcDbLine
 62
4
  6
CONTINUOUS
 10
9.3845457038
 20
11.2333539017
 11
9.3945457038
 21
11.2333539017
  0
LINE
  5
361
100
AcDbEntity
  8
03__ASM_ALL_CURVES
100
AcDbLine
 62
4
  6
CONTINUOUS
 10
9.4095457038
 20
11.2600205667
 11
9.3795457038
 21
11.2600205667
  0
LINE
  5
362
100
AcDbEntity
  8
03__ASM_ALL_CURVES
100
AcDbLine
 62
4
  6
CONTINUOUS
 10
9.3295457038
 20
11.2600205667
 11
9.2895457038
 21
11.2600205667
  0
LINE
  5
363
100
AcDbEntity
  8
03__ASM_ALL_CURVES
100
AcDbLine
 62
4
  6
CONTINUOUS
 10
13.3755457038
 20
8.9350205667
 11
13.3688790388
 21
8.9500205667
  0
LINE
  5
364
100
AcDbEntity
  8
03__ASM_ALL_CURVES
100
AcDbLine
 62
4
  6
CONTINUOUS
 10
12.7125457038
 20
8.3050205667
 11
12.705879037
 21
8.2950205667
  0
LINE
  5
365
100
AcDbEntity
  8
03__ASM_ALL_CURVES
100
AcDbLine
 62
4
  6
CONTINUOUS
 10
12.6325457038
 20
8.0700205667
 11
12.6392123689
 21
8.0800205667
  0
LINE
  5
366
100
AcDbEntity
  8
03__ASM_ALL_CURVES
100
AcDbLine
 62
4
  6
CONTINUOUS
 10
12.6325457038
 20
7.9950205667
 11
12.6392123689
 21
8.0050205667
  0
LINE
  5
367
100
AcDbEntity
  8
03__ASM_ALL_CURVES
100
AcDbLine
 62
4
  6
CONTINUOUS
 10
12.7125457038
 20
8.0700205667
 11
12.705879037
 21
8.0600205667
  0
LINE
  5
368
100
AcDbEntity
  8
03__ASM_ALL_CURVES
100
AcDbLine
 62
4
  6
CONTINUOUS
 10
13.4055457035
 20
8.8025205667
 11
13.4155457038
 21
8.8100205667
  0
LINE
  5
369
100
AcDbEntity
  8
03__ASM_ALL_CURVES
100
AcDbLine
 62
4
  6
CONTINUOUS
 10
13.3422123689
 20
8.7250205667
 11
13.3488790388
 21
8.7300205667
  0
LINE
  5
36A
100
AcDbEntity
  8
03__ASM_ALL_CURVES
100
AcDbLine
 62
4
  6
CONTINUOUS
 10
12.6992123701
 20
8.2250205667
 11
12.7125457038
 21
8.2350205667
  0
LINE
  5
36B
100
AcDbEntity
  8
03__ASM_ALL_CURVES
100
AcDbLine
 62
4
  6
CONTINUOUS
 10
13.3755457038
 20
8.7250205667
 11
13.3888790364
 21
8.7350205667
  0
LINE
  5
36C
100
AcDbEntity
  8
03__ASM_ALL_CURVES
100
AcDbLine
 62
4
  6
CONTINUOUS
 10
13.408879037
 20
8.6950205667
 11
13.4022123701
 21
8.6900205667
  0
LINE
  5
36D
100
AcDbEntity
  8
03__ASM_ALL_CURVES
100
AcDbLine
 62
4
  6
CONTINUOUS
 10
12.6392123689
 20
8.0800205667
 11
12.6458790388
 21
8.0850205667
  0
LINE
  5
36E
100
AcDbEntity
  8
03__ASM_ALL_CURVES
100
AcDbLine
 62
4
  6
CONTINUOUS
 10
12.705879037
 20
8.0600205667
 11
12.6992123701
 21
8.0550205667
  0
LINE
  5
36F
100
AcDbEntity
  8
03__ASM_ALL_CURVES
100
AcDbLine
 62
4
  6
CONTINUOUS
 10
12.6992123701
 20
8.0550205667
 11
12.6858790364
 21
8.0500205667
  0
LINE
  5
370
100
AcDbEntity
  8
03__ASM_ALL_CURVES
100
AcDbLine
 62
4
  6
CONTINUOUS
 10
13.3755457038
 20
8.2950205667
 11
13.3622123689
 21
8.2900205667
  0
LINE
  5
371
100
AcDbEntity
  8
03__ASM_ALL_CURVES
100
AcDbLine
 62
4
  6
CONTINUOUS
 10
13.3355457038
 20
8.6500205667
 11
13.3355457038
 21
8.6100205667
  0
LINE
  5
372
100
AcDbEntity
  8
03__ASM_ALL_CURVES
100
AcDbLine
 62
4
  6
CONTINUOUS
 10
13.3355457038
 20
8.1450205667
 11
13.3355457038
 21
8.1550205667
  0
LINE
  5
373
100
AcDbEntity
  8
03__ASM_ALL_CURVES
100
AcDbLine
 62
4
  6
CONTINUOUS
 10
13.3355457038
 20
8.7050205667
 11
13.3355457038
 21
8.7150205667
  0
LINE
  5
374
100
AcDbEntity
  8
0
100
AcDbLine
 62
7
  6
CONTINUOUS
 10
13.3445456027
 20
9.5110205667
 11
13.3445456027
 21
11.1790205667
  0
LINE
  5
375
100
AcDbEntity
  8
03__ASM_ALL_CURVES
100
AcDbLine
 62
4
  6
CONTINUOUS
 10
13.3688790388
 20
8.7050205667
 11
13.3688790388
 21
8.7150205667
  0
LINE
  5
376
100
AcDbEntity
  8
03__ASM_ALL_CURVES
100
AcDbLine
 62
4
  6
CONTINUOUS
 10
13.3755457038
 20
9.3900205667
 11
13.3755457038
 21
9.1500205667
  0
LINE
  5
377
100
AcDbEntity
  8
0
100
AcDbLine
 62
7
  6
CONTINUOUS
 10
13.3755456027
 20
9.5420205667
 11
13.3755456027
 21
11.1480205667
  0
LINE
  5
378
100
AcDbEntity
  8
03__ASM_ALL_CURVES
100
AcDbLine
 62
4
  6
CONTINUOUS
 10
13.4155457038
 20
8.8100205667
 11
13.4155457038
 21
8.8025205667
  0
LINE
  5
379
100
AcDbEntity
  8
03__ASM_ALL_CURVES
100
AcDbLine
 62
4
  6
CONTINUOUS
 10
13.4155457038
 20
8.7150205667
 11
13.4155457038
 21
8.7050205667
  0
LINE
  5
37A
100
AcDbEntity
  8
03__ASM_ALL_CURVES
100
AcDbLine
 62
4
  6
CONTINUOUS
 10
13.4155457038
 20
8.2500205667
 11
13.4155457038
 21
8.2425205667
  0
LINE
  5
37B
100
AcDbEntity
  8
03__ASM_ALL_CURVES
100
AcDbLine
 62
4
  6
CONTINUOUS
 10
13.4155457038
 20
8.1300205667
 11
13.4155457038
 21
8.1700205667
  0
LINE
  5
37C
100
AcDbEntity
  8
03__ASM_ALL_CURVES
100
AcDbLine
 62
4
  6
CONTINUOUS
 10
13.3688790388
 20
8.9500205667
 11
13.3755457038
 21
8.9650205667
  0
LINE
  5
37D
100
AcDbEntity
  8
03__ASM_ALL_CURVES
100
AcDbLine
 62
4
  6
CONTINUOUS
 10
13.3688790388
 20
8.8700205667
 11
13.3755457038
 21
8.8850205667
  0
LINE
  5
37E
100
AcDbEntity
  8
03__ASM_ALL_CURVES
100
AcDbLine
 62
4
  6
CONTINUOUS
 10
13.3355457038
 20
8.9500205667
 11
13.3422123689
 21
8.9600205667
  0
LINE
  5
37F
100
AcDbEntity
  8
03__ASM_ALL_CURVES
100
AcDbLine
 62
4
  6
CONTINUOUS
 10
12.6325457038
 20
7.8350205667
 11
12.6392123689
 21
7.8450205667
  0
LINE
  5
380
100
AcDbEntity
  8
03__ASM_ALL_CURVES
100
AcDbLine
 62
4
  6
CONTINUOUS
 10
13.3355457038
 20
8.8700205667
 11
13.3422123689
 21
8.8800205667
  0
LINE
  5
381
100
AcDbEntity
  8
03__ASM_ALL_CURVES
100
AcDbLine
 62
4
  6
CONTINUOUS
 10
13.4155457038
 20
8.9500205667
 11
13.408879037
 21
8.9400205667
  0
LINE
  5
382
100
AcDbEntity
  8
03__ASM_ALL_CURVES
100
AcDbLine
 62
4
  6
CONTINUOUS
 10
13.4155457038
 20
8.8700205667
 11
13.408879037
 21
8.8600205667
  0
LINE
  5
383
100
AcDbEntity
  8
03__ASM_ALL_CURVES
100
AcDbLine
 62
4
  6
CONTINUOUS
 10
13.3355457038
 20
8.7150205667
 11
13.3422123689
 21
8.7250205667
  0
LINE
  5
384
100
AcDbEntity
  8
03__ASM_ALL_CURVES
100
AcDbLine
 62
4
  6
CONTINUOUS
 10
13.3688790388
 20
8.7150205667
 11
13.3755457038
 21
8.7250205667
  0
LINE
  5
385
100
AcDbEntity
  8
03__ASM_ALL_CURVES
100
AcDbLine
 62
4
  6
CONTINUOUS
 10
12.6392123689
 20
8.0050205667
 11
12.6458790388
 21
8.0100205667
  0
LINE
  5
386
100
AcDbEntity
  8
03__ASM_ALL_CURVES
100
AcDbLine
 62
4
  6
CONTINUOUS
 10
13.4022123701
 20
8.5450205667
 11
13.4155457038
 21
8.5550205667
  0
LINE
  5
387
100
AcDbEntity
  8
03__ASM_ALL_CURVES
100
AcDbLine
 62
4
  6
CONTINUOUS
 10
12.7025457035
 20
7.9225205667
 11
12.7125457038
 21
7.9300205667
  0
LINE
  5
388
100
AcDbEntity
  8
03__ASM_ALL_CURVES
100
AcDbLine
 62
4
  6
CONTINUOUS
 10
13.3422123689
 20
8.4000205667
 11
13.3488790388
 21
8.4050205667
  0
LINE
  5
389
100
AcDbEntity
  8
03__ASM_ALL_CURVES
100
AcDbLine
 62
4
  6
CONTINUOUS
 10
12.6392123689
 20
7.8450205667
 11
12.6458790388
 21
7.8500205667
  0
LINE
  5
38A
100
AcDbEntity
  8
03__ASM_ALL_CURVES
100
AcDbLine
 62
4
  6
CONTINUOUS
 10
13.408879037
 20
8.3800205667
 11
13.4022123701
 21
8.3750205667
  0
LINE
  5
38B
100
AcDbEntity
  8
03__ASM_ALL_CURVES
100
AcDbLine
 62
4
  6
CONTINUOUS
 10
13.3422123689
 20
8.3200205667
 11
13.3488790388
 21
8.3250205667
  0
LINE
  5
38C
100
AcDbEntity
  8
03__ASM_ALL_CURVES
100
AcDbLine
 62
4
  6
CONTINUOUS
 10
13.4155457038
 20
8.7050205667
 11
13.408879037
 21
8.6950205667
  0
LINE
  5
38D
100
AcDbEntity
  8
03__ASM_ALL_CURVES
100
AcDbLine
 62
4
  6
CONTINUOUS
 10
13.3355457038
 20
8.3900205667
 11
13.3422123689
 21
8.4000205667
  0
LINE
  5
38E
100
AcDbEntity
  8
03__ASM_ALL_CURVES
100
AcDbLine
 62
4
  6
CONTINUOUS
 10
13.3355457038
 20
8.3100205667
 11
13.3422123689
 21
8.3200205667
  0
LINE
  5
38F
100
AcDbEntity
  8
03__ASM_ALL_CURVES
100
AcDbLine
 62
4
  6
CONTINUOUS
 10
13.408879037
 20
8.3000205667
 11
13.4022123701
 21
8.2950205667
  0
LINE
  5
390
100
AcDbEntity
  8
03__ASM_ALL_CURVES
100
AcDbLine
 62
4
  6
CONTINUOUS
 10
13.4055457035
 20
8.2425205667
 11
13.4155457038
 21
8.2500205667
  0
LINE
  5
391
100
AcDbEntity
  8
03__ASM_ALL_CURVES
100
AcDbLine
 62
4
  6
CONTINUOUS
 10
13.3422123689
 20
8.1650205667
 11
13.3488790388
 21
8.1700205667
  0
LINE
  5
392
100
AcDbEntity
  8
03__ASM_ALL_CURVES
100
AcDbLine
 62
4
  6
CONTINUOUS
 10
13.3822123713
 20
8.3100205667
 11
13.3755457038
 21
8.2950205667
  0
LINE
  5
393
100
AcDbEntity
  8
03__ASM_ALL_CURVES
100
AcDbLine
 62
4
  6
CONTINUOUS
 10
13.4155457038
 20
8.3900205667
 11
13.408879037
 21
8.3800205667
  0
LINE
  5
394
100
AcDbEntity
  8
03__ASM_ALL_CURVES
100
AcDbLine
 62
4
  6
CONTINUOUS
 10
13.4155457038
 20
8.3100205667
 11
13.408879037
 21
8.3000205667
  0
LINE
  5
395
100
AcDbEntity
  8
03__ASM_ALL_CURVES
100
AcDbLine
 62
4
  6
CONTINUOUS
 10
13.3355457038
 20
8.1550205667
 11
13.3422123689
 21
8.1650205667
  0
LINE
  5
396
100
AcDbEntity
  8
0
100
AcDbLine
 62
7
  6
CONTINUOUS
 10
13.3755456027
 20
11.1480205667
 11
13.3445456027
 21
11.1790205667
  0
CIRCLE
  5
397
100
AcDbEntity
  8
0
100
AcDbCircle
 62
7
  6
CONTINUOUS
 10
10.7975457129
 20
9.7200205667
 40
0.148
  0
CIRCLE
  5
398
100
AcDbEntity
  8
0
100
AcDbCircle
 62
7
  6
CONTINUOUS
 10
11.1415456948
 20
9.7040205641
 40
0.065
  0
CIRCLE
  5
399
100
AcDbEntity
  8
0
100
AcDbCircle
 62
7
  6
CONTINUOUS
 10
10.7975457129
 20
10.9700205667
 40
0.148
  0
CIRCLE
  5
39A
100
AcDbEntity
  8
0
100
AcDbCircle
 62
7
  6
CONTINUOUS
 10
11.5945457038
 20
10.3450205667
 40
0.065
  0
CIRCLE
  5
39B
100
AcDbEntity
  8
0
100
AcDbCircle
 62
7
  6
CONTINUOUS
 10
12.3915457544
 20
9.7200205667
 40
0.148
  0
CIRCLE
  5
39C
100
AcDbEntity
  8
0
100
AcDbCircle
 62
7
  6
CONTINUOUS
 10
12.0475456533
 20
9.7040205641
 40
0.078
  0
CIRCLE
  5
39D
100
AcDbEntity
  8
0
100
AcDbCircle
 62
7
  6
CONTINUOUS
 10
12.3915457544
 20
10.9700205667
 40
0.148
  0
SPLINE
  5
39E
100
AcDbEntity
  8
0
100
AcDbSpline
 62
7
  6
CONTINUOUS
 70
0
 71
3
 72
8
 73
4
 74
2
 42
0.0000001
 43
0.0000001
 44
0.0000000001
 12
0.0074835906
 22
0.0005706147
 32
0.0
 13
0.0075030281
 23
0.0
 33
0.0
 40
0.0
 40
0.0
 40
0.0
 40
0.0
 40
1.0
 40
1.0
 40
1.0
 40
1.0
 10
11.2280480862
 20
10.5033622408
 30
0.0
 10
11.2305426164
 20
10.5035524458
 30
0.0
 10
11.2330446673
 20
10.5036478436
 30
0.0
 10
11.2355456767
 20
10.5036478436
 30
0.0
 11
11.2280480862
 21
10.5033622408
 31
0.0
 11
11.2355456767
 21
10.5036478436
 31
0.0
  0
SPLINE
  5
39F
100
AcDbEntity
  8
0
100
AcDbSpline
 62
7
  6
CONTINUOUS
 70
0
 71
3
 72
28
 73
24
 74
22
 42
0.0000001
 43
0.0000001
 44
0.0000000001
 12
0.0270079987
 22
-0.2135117993
 32
0.0
 13
-0.2093629676
 23
-0.0499777104
 33
0.0
 40
0.0
 40
0.0
 40
0.0
 40
0.0
 40
0.0635076272
 40
0.1263931136
 40
0.1882712061
 40
0.2487992443
 40
0.3076881783
 40
0.3647112668
 40
0.4197052099
 40
0.472572061
 40
0.5232725683
 40
0.5718222088
 40
0.6182823058
 40
0.6627521091
 40
0.705361619
 40
0.7462634209
 40
0.785627084
 40
0.8236328352
 40
0.8604698887
 40
0.8963300136
 40
0.9314075916
 40
0.9658993026
 40
1.0
 40
1.0
 40
1.0
 40
1.0
 10
12.0779733102
 20
10.3577873024
 30
0.0
 10
12.0785450482
 20
10.3532674265
 30
0.0
 10
12.0794026157
 20
10.3442364742
 30
0.0
 10
12.0798366972
 20
10.330730653
 30
0.0
 10
12.0794285647
 20
10.3174378809
 30
0.0
 10
12.078208159
 20
10.3044829191
 30
0.0
 10
12.0762193794
 20
10.2919760421
 30
0.0
 10
12.0735170581
 20
10.2800104073
 30
0.0
 10
12.0701635825
 20
10.2686605079
 30
0.0
 10
12.0662255614
 20
10.2579821592
 30
0.0
 10
12.0617706653
 20
10.2480132664
 30
0.0
 10
12.056864997
 20
10.2387756848
 30
0.0
 10
12.051570933
 20
10.2302774381
 30
0.0
 10
12.0459455928
 20
10.2225153181
 30
0.0
 10
12.0400398462
 20
10.2154775216
 30
0.0
 10
12.033897785
 20
10.2091461529
 30
0.0
 10
12.0275566892
 20
10.203499603
 30
0.0
 10
12.0210471426
 20
10.1985144725
 30
0.0
 10
12.0143935874
 20
10.194167396
 30
0.0
 10
12.0076148457
 20
10.1904363996
 30
0.0
 10
12.0007249064
 20
10.1873020517
 30
0.0
 10
11.9937334377
 20
10.1847483356
 30
0.0
 10
11.9889914523
 20
10.1834200426
 30
0.0
 10
11.9866116446
 20
10.182851951
 30
0.0
 11
12.0779733102
 21
10.3577873024
 31
0.0
 11
12.0792639017
 21
10.3441829369
 31
0.0
 11
12.079696123
 21
10.3306582678
 31
0.0
 11
12.0792839242
 21
10.3173498448
 31
0.0
 11
12.0780578376
 21
10.3043833813
 31
0.0
 11
12.0760625172
 21
10.2918698591
 31
0.0
 11
12.0733535737
 21
10.2799025143
 31
0.0
 11
12.0699942131
 21
10.2685558797
 31
0.0
 11
12.0660516681
 21
10.2578851347
 31
0.0
 11
12.061594201
 21
10.2479276698
 31
0.0
 11
12.0566882541
 21
10.2387044583
 31
0.0
 11
12.0513964216
 21
10.2302226931
 31
0.0
 11
12.0457759227
 21
10.2224783858
 31
0.0
 11
12.0398775424
 21
10.2154589215
 31
0.0
 11
12.0337452689
 21
10.2091457776
 31
0.0
 11
12.027416129
 21
10.2035167292
 31
0.0
 11
12.0209206089
 21
10.1985480337
 31
0.0
 11
12.0142827087
 21
10.1942158214
 31
0.0
 11
12.0075211417
 21
10.1904979382
 31
0.0
 11
12.0006496819
 21
10.1873747685
 31
0.0
 11
11.9936777018
 21
10.1848300748
 31
0.0
 11
11.9866116446
 21
10.182851951
 31
0.0
  0
SPLINE
  5
3A0
100
AcDbEntity
  8
0
100
AcDbSpline
 62
7
  6
CONTINUOUS
 70
0
 71
3
 72
8
 73
4
 74
2
 42
0.0000001
 43
0.0000001
 44
0.0000000001
 12
-0.0070984066
 22
-0.0016944836
 32
0.0
 13
-0.0072057439
 23
-0.0011412777
 33
0.0
 40
0.0
 40
0.0
 40
0.0
 40
0.0
 40
1.0
 40
1.0
 40
1.0
 40
1.0
 10
11.9866116446
 20
10.182851951
 30
0.0
 10
11.984245509
 20
10.1822871231
 30
0.0
 10
11.9818572984
 20
10.181813507
 30
0.0
 10
11.9794553838
 20
10.1814330811
 30
0.0
 11
11.9866116446
 21
10.182851951
 31
0.0
 11
11.9794553838
 21
10.1814330811
 31
0.0
  0
SPLINE
  5
3A1
100
AcDbEntity
  8
0
100
AcDbSpline
 62
7
  6
CONTINUOUS
 70
0
 71
3
 72
28
 73
24
 74
22
 42
0.0000001
 43
0.0000001
 44
0.0000000001
 12
0.0
 22
0.1945280382
 32
0.0
 13
0.1940680333
 23
0.0141391375
 33
0.0
 40
0.0
 40
0.0
 40
0.0
 40
0.0
 40
0.0513054145
 40
0.102506871
 40
0.1535259056
 40
0.2043372943
 40
0.2548191016
 40
0.3049262995
 40
0.3545651546
 40
0.4037726858
 40
0.4524436853
 40
0.5006115223
 40
0.5482035299
 40
0.5952990009
 40
0.6418445145
 40
0.6879024862
 40
0.7335014369
 40
0.7786644572
 40
0.8234708121
 40
0.8678947204
 40
0.9121134343
 40
0.9561021889
 40
1.0
 40
1.0
 40
1.0
 40
1.0
 10
11.4695457038
 20
10.7670206173
 30
0.0
 10
11.4695457038
 20
10.7703473978
 30
0.0
 10
11.469778473
 20
10.7769965723
 30
0.0
 10
11.4708226446
 20
10.7869044741
 30
0.0
 10
11.4725518638
 20
10.7966839894
 30
0.0
 10
11.4749505224
 20
10.806272951
 30
0.0
 10
11.4779976944
 20
10.815613787
 30
0.0
 10
11.4816651694
 20
10.8246468998
 30
0.0
 10
11.4859230628
 20
10.833325186
 30
0.0
 10
11.4907359401
 20
10.8416008361
 30
0.0
 10
11.4960686495
 20
10.8494362792
 30
0.0
 10
11.5018788841
 20
10.8567913989
 30
0.0
 10
11.5081287174
 20
10.8636390522
 30
0.0
 10
11.5147748374
 20
10.8699509371
 30
0.0
 10
11.5217786479
 20
10.8757079228
 30
0.0
 10
11.5290981579
 20
10.8808915737
 30
0.0
 10
11.5366948667
 20
10.885488835
 30
0.0
 10
11.5445309841
 20
10.8894894174
 30
0.0
 10
11.55256555
 20
10.8928834984
 30
0.0
 10
11.56076671
 20
10.8956673552
 30
0.0
 10
11.5690968046
 20
10.8978358598
 30
0.0
 10
11.5775289496
 20
10.8993874218
 30
0.0
 10
11.5831985766
 20
10.9000089793
 30
0.0
 10
11.5860382972
 20
10.9002158717
 30
0.0
 11
11.4695457038
 21
10.7670206173
 31
0.0
 11
11.4698950467
 21
10.776994843
 31
0.0
 11
11.4709392546
 21
10.7869000738
 31
0.0
 11
11.4726679223
 21
10.7966729978
 31
0.0
 11
11.4750673079
 21
10.8062615923
 31
0.0
 11
11.4781138237
 21
10.8155972034
 31
0.0
 11
11.481781633
 21
10.8246280479
 31
0.0
 11
11.4860361118
 21
10.8332964172
 31
0.0
 11
11.4908496282
 21
10.8415703476
 31
0.0
 11
11.4961778901
 21
10.8493966024
 31
0.0
 11
11.5019873559
 21
10.8567482628
 31
0.0
 11
11.5082295813
 21
10.8635852807
 31
0.0
 11
11.5148736034
 21
10.869893056
 31
0.0
 11
11.5218692342
 21
10.8756413987
 31
0.0
 11
11.5291817452
 21
10.8808183691
 31
0.0
 11
11.5367712709
 21
10.8854097597
 31
0.0
 11
11.5445965342
 21
10.8894034802
 31
0.0
 11
11.5526260197
 21
10.8927942954
 31
0.0
 11
11.5608093974
 21
10.8955712063
 31
0.0
 11
11.5691339158
 21
10.8977375412
 31
0.0
 11
11.5775497648
 21
10.8992856122
 31
0.0
 11
11.5860382972
 21
10.9002158717
 31
0.0
  0
SPLINE
  5
3A2
100
AcDbEntity
  8
0
100
AcDbSpline
 62
7
  6
CONTINUOUS
 70
0
 71
3
 72
8
 73
4
 74
2
 42
0.0000001
 43
0.0000001
 44
0.0000000001
 12
0.0084929046
 22
0.0006187642
 32
0.0
 13
0.0085130356
 23
-0.0000000666
 33
0.0
 40
0.0
 40
0.0
 40
0.0
 40
0.0
 40
1.0
 40
1.0
 40
1.0
 40
1.0
 10
11.5860382972
 20
10.9002158717
 30
0.0
 10
11.5888692654
 20
10.9004221264
 30
0.0
 10
11.5917080253
 20
10.900525454
 30
0.0
 10
11.5945457038
 20
10.9005254319
 30
0.0
 11
11.5860382972
 21
10.9002158717
 31
0.0
 11
11.5945457038
 21
10.9005254319
 31
0.0
  0
SPLINE
  5
3A3
100
AcDbEntity
  8
0
100
AcDbSpline
 62
7
  6
CONTINUOUS
 70
0
 71
3
 72
22
 73
18
 74
16
 42
0.0000001
 43
0.0000001
 44
0.0000000001
 12
-0.0345376748
 22
-0.0744282153
 32
0.0
 13
0.0822220254
 23
-0.0011851099
 33
0.0
 40
0.0
 40
0.0
 40
0.0
 40
0.0
 40
0.0387080633
 40
0.1108928629
 40
0.1836103836
 40
0.2569302837
 40
0.3311322994
 40
0.4063108291
 40
0.4823104321
 40
0.5585038052
 40
0.6340053534
 40
0.7077246682
 40
0.7786736248
 40
0.8458960446
 40
0.9088026223
 40
0.9676552502
 40
1.0
 40
1.0
 40
1.0
 40
1.0
 10
11.626689623
 20
10.0448792668
 30
0.0
 10
11.6262439942
 20
10.0439189428
 30
0.0
 10
11.6250315542
 20
10.0411379678
 30
0.0
 10
11.6233432475
 20
10.0364026957
 30
0.0
 10
11.6218736961
 20
10.030610336
 30
0.0
 10
11.6209767513
 20
10.0246452335
 30
0.0
 10
11.6207056129
 20
10.0185504432
 30
0.0
 10
11.6211154583
 20
10.012388384
 30
0.0
 10
11.6222542992
 20
10.0062614364
 30
0.0
 10
11.6241461697
 20
10.0003124821
 30
0.0
 10
11.6267747277
 20
9.9947170625
 30
0.0
 10
11.6300784897
 20
9.9896597306
 30
0.0
 10
11.6339529964
 20
9.9853204204
 30
0.0
 10
11.6382615959
 20
9.9818603389
 30
0.0
 10
11.6428500821
 20
9.97941135
 30
0.0
 10
11.6469386258
 20
9.9782496778
 30
0.0
 10
11.6494354899
 20
9.9780356939
 30
0.0
 10
11.6503219735
 20
9.9780229166
 30
0.0
 11
11.626689623
 21
10.0448792668
 31
0.0
 11
11.6254210579
 21
10.0419678819
 31
0.0
 11
11.6234366374
 21
10.0363893347
 31
0.0
 11
11.6219741262
 21
10.0306067281
 31
0.0
 11
11.6210843853
 21
10.0246588112
 31
0.0
 11
11.6208187028
 21
10.0185781605
 31
0.0
 11
11.6212332334
 21
10.012425558
 31
0.0
 11
11.6223785717
 21
10.0062977761
 31
0.0
 11
11.6242802082
 21
10.0003443145
 31
0.0
 11
11.626923276
 21
9.9947435982
 31
0.0
 11
11.630243271
 21
9.9896896759
 31
0.0
 11
11.6341356084
 21
9.9853632836
 31
0.0
 11
11.6384531314
 21
9.9819336166
 31
0.0
 11
11.6430216713
 21
9.9795349889
 31
0.0
 11
11.6476741
 21
9.9782470393
 31
0.0
 11
11.6503219735
 21
9.9780229166
 31
0.0
  0
SPLINE
  5
3A4
100
AcDbEntity
  8
0
100
AcDbSpline
 62
7
  6
CONTINUOUS
 70
0
 71
3
 72
8
 73
4
 74
2
 42
0.0000001
 43
0.0000001
 44
0.0000000001
 12
0.0002713185
 22
-0.0000039107
 32
0.0
 13
0.0002713483
 23
0.0000000422
 33
0.0
 40
0.0
 40
0.0
 40
0.0
 40
0.0
 40
1.0
 40
1.0
 40
1.0
 40
1.0
 10
11.6503219735
 20
9.9780229166
 30
0.0
 10
11.650412413
 20
9.978021613
 30
0.0
 10
11.6505028621
 20
9.9780209664
 30
0.0
 10
11.6505933116
 20
9.9780209804
 30
0.0
 11
11.6503219735
 21
9.9780229166
 31
0.0
 11
11.6505933116
 21
9.9780209804
 31
0.0
  0
SPLINE
  5
3A5
100
AcDbEntity
  8
0
100
AcDbSpline
 62
7
  6
CONTINUOUS
 70
0
 71
3
 72
28
 73
24
 74
22
 42
0.0000001
 43
0.0000001
 44
0.0000000001
 12
0.1775270902
 22
0.0681462653
 32
0.0
 13
0.0807619453
 23
-0.1721686903
 33
0.0
 40
0.0
 40
0.0
 40
0.0
 40
0.0
 40
0.0489471199
 40
0.097865937
 40
0.1467271543
 40
0.1955035744
 40
0.2441698918
 40
0.2927032977
 40
0.3410837964
 40
0.3892948526
 40
0.4373234558
 40
0.4851605257
 40
0.5328010308
 40
0.5802438629
 40
0.6274921327
 40
0.6745526351
 40
0.7214360005
 40
0.7681562914
 40
0.814730604
 40
0.8611789659
 40
0.9075235835
 40
0.9537886979
 40
1.0
 40
1.0
 40
1.0
 40
1.0
 10
11.54974971
 20
10.039718129
 30
0.0
 10
11.5526461899
 20
10.0408299835
 30
0.0
 10
11.5585160803
 20
10.0428482756
 30
0.0
 10
11.5675083783
 20
10.0452450289
 30
0.0
 10
11.5766369271
 20
10.0469983593
 30
0.0
 10
11.5858506949
 20
10.0481000623
 30
0.0
 10
11.5950985604
 20
10.048546194
 30
0.0
 10
11.6043297134
 20
10.0483369935
 30
0.0
 10
11.6134940926
 20
10.0474767598
 30
0.0
 10
11.6225427677
 20
10.0459736737
 30
0.0
 10
11.6314282976
 20
10.0438395741
 30
0.0
 10
11.6401050208
 20
10.0410897013
 30
0.0
 10
11.6485292977
 20
10.0377424165
 30
0.0
 10
11.6566597059
 20
10.0338189058
 30
0.0
 10
11.6644571608
 20
10.0293428916
 30
0.0
 10
11.6718850151
 20
10.0243403386
 30
0.0
 10
11.6789090888
 20
10.0188391917
 30
0.0
 10
11.6854976801
 20
10.0128691231
 30
0.0
 10
11.6916215409
 20
10.0064613183
 30
0.0
 10
11.697253831
 20
9.9996482783
 30
0.0
 10
11.7023700453
 20
9.9924637223
 30
0.0
 10
11.70694804
 20
9.9849422334
 30
0.0
 10
11.7096288154
 20
9.9797254182
 30
0.0
 10
11.7108728536
 20
9.9770733718
 30
0.0
 11
11.54974971
 21
10.039718129
 31
0.0
 11
11.558549773
 21
10.0427438798
 31
0.0
 11
11.5675364082
 21
10.0451389886
 31
0.0
 11
11.5766590801
 21
10.0468909719
 31
0.0
 11
11.5858667849
 21
10.0479916544
 31
0.0
 11
11.5951083815
 21
10.0484371167
 31
0.0
 11
11.6043330608
 21
10.0482276315
 31
0.0
 11
11.6134907465
 21
10.0473675371
 31
0.0
 11
11.6225325355
 21
10.0458650554
 31
0.0
 11
11.6314109983
 21
10.0437320707
 31
0.0
 11
11.6400805097
 21
10.0409838662
 31
0.0
 11
11.6484974863
 21
10.037638838
 31
0.0
 11
11.6566205431
 21
10.0337182128
 31
0.0
 11
11.6644106847
 21
10.0292457254
 31
0.0
 11
11.6718313174
 21
10.0242473655
 31
0.0
 11
11.6788483472
 21
10.0187510754
 31
0.0
 11
11.6854301562
 21
10.0127865155
 31
0.0
 11
11.6915475661
 21
10.0063848574
 31
0.0
 11
11.6971738264
 21
9.999578563
 31
0.0
 11
11.7022845096
 21
9.9924012787
 31
0.0
 11
11.7068574868
 21
9.9848876745
 31
0.0
 11
11.7108728536
 21
9.9770733718
 31
0.0
  0
SPLINE
  5
3A6
100
AcDbEntity
  8
0
100
AcDbSpline
 62
7
  6
CONTINUOUS
 70
0
 71
3
 72
8
 73
4
 74
2
 42
0.0000001
 43
0.0000001
 44
0.0000000001
 12
0.0037299188
 22
-0.0079514581
 32
0.0
 13
0.0031466195
 23
-0.008197224
 33
0.0
 40
0.0
 40
0.0
 40
0.0
 40
0.0
 40
1.0
 40
1.0
 40
1.0
 40
1.0
 10
11.7108728536
 20
9.9770733718
 30
0.0
 10
11.7121161599
 20
9.9744228858
 30
0.0
 10
11.713264009
 20
9.9717272961
 30
0.0
 10
11.7143128822
 20
9.9689948881
 30
0.0
 11
11.7108728536
 21
9.9770733718
 31
0.0
 11
11.7143128822
 21
9.9689948881
 31
0.0
  0
SPLINE
  5
3A7
100
AcDbEntity
  8
0
100
AcDbSpline
 62
7
  6
CONTINUOUS
 70
0
 71
3
 72
16
 73
12
 74
10
 42
0.0000001
 43
0.0000001
 44
0.0000000001
 12
-0.0617545357
 22
0.0439343316
 32
0.0
 13
-0.0757719293
 23
0.0
 33
0.0
 40
0.0
 40
0.0
 40
0.0
 40
0.0
 40
0.0691051543
 40
0.1867160322
 40
0.303852201
 40
0.4205637052
 40
0.536909024
 40
0.6529528544
 40
0.7687657368
 40
0.8844223267
 40
1.0
 40
1.0
 40
1.0
 40
1.0
 10
11.6655575512
 20
10.8730402347
 30
0.0
 10
11.6641350323
 20
10.8740522643
 30
0.0
 10
11.6602342216
 20
10.8767061453
 30
0.0
 10
11.653648382
 20
10.8806590904
 30
0.0
 10
11.6457221155
 20
10.8846727529
 30
0.0
 10
11.6375573472
 20
10.8880939502
 30
0.0
 10
11.6291936969
 20
10.890909921
 30
0.0
 10
11.6206709481
 20
10.8931104479
 30
0.0
 10
11.6120287306
 20
10.8946877281
 30
0.0
 10
11.6033074359
 20
10.8956362696
 30
0.0
 10
11.5974648849
 20
10.8958473209
 30
0.0
 10
11.5945457038
 20
10.8958473209
 30
0.0
 11
11.6655575512
 21
10.8730402347
 31
0.0
 11
11.661227566
 21
10.8759859164
 31
0.0
 11
11.6535863568
 21
10.8805716107
 31
0.0
 11
11.6456677954
 21
10.8845807572
 31
0.0
 11
11.6375112482
 21
10.8879979855
 31
0.0
 11
11.6291562581
 21
10.8908106124
 31
0.0
 11
11.6206425112
 21
10.893008472
 31
0.0
 11
11.6120097049
 21
10.8945838119
 31
0.0
 11
11.6032975389
 21
10.8955311752
 31
0.0
 11
11.5945457038
 21
10.8958473209
 31
0.0
  0
SPLINE
  5
3A8
100
AcDbEntity
  8
0
100
AcDbSpline
 62
7
  6
CONTINUOUS
 70
0
 71
3
 72
13
 73
9
 74
7
 42
0.0000001
 43
0.0000001
 44
0.0000000001
 12
-0.0483305241
 22
-0.0106333395
 32
0.0
 13
-0.0403228163
 23
-0.0286870588
 33
0.0
 40
0.0
 40
0.0
 40
0.0
 40
0.0
 40
0.1777211691
 40
0.3559040336
 40
0.5346476414
 40
0.7140415703
 40
0.894162488
 40
1.0
 40
1.0
 40
1.0
 40
1.0
 10
11.5684489153
 20
10.8930084761
 30
0.0
 10
11.5655857962
 20
10.8923785529
 30
0.0
 10
11.5598977473
 20
10.8909099314
 30
0.0
 10
11.5515341154
 20
10.8880939704
 30
0.0
 10
11.5433693666
 20
10.8846727866
 30
0.0
 10
11.5354431199
 20
10.8806591417
 30
0.0
 10
11.5288572533
 20
10.8767061891
 30
0.0
 10
11.5249564116
 20
10.8740522901
 30
0.0
 10
11.5235338561
 20
10.8730402344
 30
0.0
 11
11.5684489153
 21
10.8930084761
 31
0.0
 11
11.5599351854
 21
10.8908106231
 31
0.0
 11
11.551580213
 21
10.8879980057
 31
0.0
 11
11.5434236855
 21
10.8845807911
 31
0.0
 11
11.5355051443
 21
10.8805716623
 31
0.0
 11
11.5278639543
 21
10.8759859896
 31
0.0
 11
11.5235338561
 21
10.8730402344
 31
0.0
  0
SPLINE
  5
3A9
100
AcDbEntity
  8
0
100
AcDbSpline
 62
7
  6
CONTINUOUS
 70
0
 71
3
 72
8
 73
4
 74
2
 42
0.0000001
 43
0.0000001
 44
0.0000000001
 12
-0.0084323062
 22
-0.0039412031
 32
0.0
 13
-0.0086896662
 23
-0.0033356503
 33
0.0
 40
0.0
 40
0.0
 40
0.0
 40
0.0
 40
1.0
 40
1.0
 40
1.0
 40
1.0
 10
11.6479062611
 20
9.8099629457
 30
0.0
 10
11.6450954924
 20
9.8086492114
 30
0.0
 10
11.6422382531
 20
9.807434906
 30
0.0
 10
11.6393416977
 20
9.8063230225
 30
0.0
 11
11.6479062611
 21
9.8099629457
 31
0.0
 11
11.6393416977
 21
9.8063230225
 31
0.0
  0
SPLINE
  5
3AA
100
AcDbEntity
  8
0
100
AcDbSpline
 62
7
  6
CONTINUOUS
 70
0
 71
3
 72
30
 73
26
 74
24
 42
0.0000001
 43
0.0000001
 44
0.0000000001
 12
-0.2117690629
 22
0.0
 32
0.0
 13
0.0
 23
0.2117690629
 33
0.0
 40
0.0
 40
0.0
 40
0.0
 40
0.0
 40
0.0368239698
 40
0.073754744
 40
0.1108983461
 40
0.1483588242
 40
0.186237907
 40
0.2246327301
 40
0.2636356073
 40
0.3033323906
 40
0.3437998367
 40
0.3851055611
 40
0.4273048032
 40
0.4704386966
 40
0.5145328617
 40
0.5595948411
 40
0.6056129445
 40
0.6525549223
 40
0.7003671612
 40
0.748974788
 40
0.7982824307
 40
0.8481757201
 40
0.8985238952
 40
0.9491830366
 40
1.0
 40
1.0
 40
1.0
 40
1.0
 10
11.5945457038
 20
10.62268305
 30
0.0
 10
11.5919463113
 20
10.62268305
 30
0.0
 10
11.5867380436
 20
10.6228707958
 30
0.0
 10
11.5789490487
 20
10.6237159383
 30
0.0
 10
11.5711963007
 20
10.6251267658
 30
0.0
 10
11.5634999192
 20
10.6271064726
 30
0.0
 10
11.5558808698
 20
10.6296591324
 30
0.0
 10
11.5483622326
 20
10.6327893087
 30
0.0
 10
11.5409693779
 20
10.6365015381
 30
0.0
 10
11.5337303599
 20
10.6407997064
 30
0.0
 10
11.5266760912
 20
10.6456863386
 30
0.0
 10
11.5198404943
 20
10.6511617649
 30
0.0
 10
11.5132604371
 20
10.6572232659
 30
0.0
 10
11.5069755701
 20
10.663864123
 30
0.0
 10
11.5010279502
 20
10.671072693
 30
0.0
 10
11.4954614648
 20
10.6788315382
 30
0.0
 10
11.4903210871
 20
10.6871166178
 30
0.0
 10
11.4856519212
 20
10.6958966697
 30
0.0
 10
11.4814980955
 20
10.7051327928
 30
0.0
 10
11.4779015305
 20
10.7147783049
 30
0.0
 10
11.4749006403
 20
10.7247789423
 30
0.0
 10
11.4725290385
 20
10.7350733248
 30
0.0
 10
11.470814326
 20
10.7455940834
 30
0.0
 10
11.4697770426
 20
10.7562681351
 30
0.0
 10
11.4695457038
 20
10.763433464
 30
0.0
 10
11.4695457038
 20
10.7670206176
 30
0.0
 11
11.5945457038
 21
10.62268305
 31
0.0
 11
11.586752583
 21
10.6229638356
 31
0.0
 11
11.5789773605
 21
10.6238068997
 31
0.0
 11
11.5712384308
 21
10.6252143127
 31
0.0
 11
11.5635552464
 21
10.6271893306
 31
0.0
 11
11.5559486661
 21
10.6297361502
 31
0.0
 11
11.5484416353
 21
10.6328594462
 31
0.0
 11
11.5410593669
 21
10.6365639233
 31
0.0
 11
11.5338297119
 21
10.6408536997
 31
0.0
 11
11.5267835735
 21
10.6457314659
 31
0.0
 11
11.5199547104
 21
10.6511978578
 31
0.0
 11
11.5133799575
 21
10.6572504233
 31
0.0
 11
11.5070989887
 21
10.6638827031
 31
0.0
 11
11.5011538707
 21
10.6710833773
 31
0.0
 11
11.4955886094
 21
10.6788352559
 31
0.0
 11
11.490448324
 21
10.6871145431
 31
0.0
 11
11.4857783147
 21
10.6958901732
 31
0.0
 11
11.4816229557
 21
10.7051233588
 31
0.0
 11
11.4780244368
 21
10.71476746
 31
0.0
 11
11.4750214501
 21
10.7247681577
 31
0.0
 11
11.4726478824
 21
10.7350639564
 31
0.0
 11
11.4709315737
 21
10.7455870972
 31
0.0
 11
11.4698932517
 21
10.7562647704
 31
0.0
 11
11.4695457038
 21
10.7670206176
 31
0.0
  0
SPLINE
  5
3AB
100
AcDbEntity
  8
0
100
AcDbSpline
 62
7
  6
CONTINUOUS
 70
0
 71
3
 72
30
 73
26
 74
24
 42
0.0000001
 43
0.0000001
 44
0.0000000001
 12
0.0
 22
-0.2117690627
 32
0.0
 13
-0.2117690627
 23
0.0
 33
0.0
 40
0.0
 40
0.0
 40
0.0
 40
0.0
 40
0.0508166313
 40
0.1014754102
 40
0.1518232046
 40
0.2017161147
 40
0.2510233754
 40
0.2996306698
 40
0.3474426236
 40
0.3943843638
 40
0.4404023444
 40
0.4854642497
 40
0.5295584827
 40
0.5726925448
 40
0.6148919841
 40
0.6561980493
 40
0.6966658477
 40
0.7363630676
 40
0.7753663681
 40
0.8137615615
 40
0.8516409811
 40
0.8891017004
 40
0.9262454246
 40
0.9631761903
 40
1.0
 40
1.0
 40
1.0
 40
1.0
 10
11.7195457038
 20
10.7670206173
 30
0.0
 10
11.7195457038
 20
10.7634334871
 30
0.0
 10
11.7193143682
 20
10.7562682073
 30
0.0
 10
11.718277099
 20
10.7455942307
 30
0.0
 10
11.7165624114
 20
10.7350735485
 30
0.0
 10
11.7141908446
 20
10.7247792408
 30
0.0
 10
11.7111899984
 20
10.7147786711
 30
0.0
 10
11.7075934841
 20
10.7051332155
 30
0.0
 10
11.7034397126
 20
10.6958971344
 30
0.0
 10
11.6987706001
 20
10.6871171059
 30
0.0
 10
11.6936302718
 20
10.6788320319
 30
0.0
 10
11.6880638246
 20
10.6710731704
 30
0.0
 10
11.6821162291
 20
10.6638645655
 30
0.0
 10
11.6758313698
 20
10.6572236589
 30
0.0
 10
11.6692513011
 20
10.6511620966
 30
0.0
 10
11.6624156761
 20
10.6456866048
 30
0.0
 10
11.6553613581
 20
10.6407999035
 30
0.0
 10
11.6481222781
 20
10.6365016716
 30
0.0
 10
11.6407293531
 20
10.6327893882
 30
0.0
 10
11.6332106462
 20
10.6296591711
 30
0.0
 10
11.6255915349
 20
10.6271064848
 30
0.0
 10
11.6178951057
 20
10.6251267646
 30
0.0
 10
11.6101423327
 20
10.6237159342
 30
0.0
 10
11.6023533409
 20
10.6228707946
 30
0.0
 10
11.5971450851
 20
10.62268305
 30
0.0
 10
11.5945457038
 20
10.62268305
 30
0.0
 11
11.7195457038
 21
10.7670206173
 31
0.0
 11
11.7191981605
 21
10.7562648404
 31
0.0
 11
11.7181598529
 21
10.7455872429
 31
0.0
 11
11.7164435692
 21
10.7350641797
 31
0.0
 11
11.7140700365
 21
10.7247684553
 31
0.0
 11
11.7110670948
 21
10.7147678287
 31
0.0
 11
11.7074686266
 21
10.7051237837
 31
0.0
 11
11.7033133219
 21
10.6958906399
 31
0.0
 11
11.6986433681
 21
10.6871150372
 31
0.0
 11
11.6935031295
 21
10.6788357516
 31
0.0
 11
11.6879379104
 21
10.671083862
 31
0.0
 11
11.6819928149
 21
10.6638831507
 31
0.0
 11
11.6757118503
 21
10.6572508177
 31
0.0
 11
11.6691370918
 21
10.6511981966
 31
0.0
 11
11.6623081934
 21
10.6457317334
 31
0.0
 11
11.6552620099
 21
10.6408539012
 31
0.0
 11
11.6480322871
 21
10.6365640579
 31
0.0
 11
11.6406499461
 21
10.6328595258
 31
0.0
 11
11.633142847
 21
10.6297361897
 31
0.0
 11
11.6255362009
 21
10.6271893423
 31
0.0
 11
11.6178529673
 21
10.6252143105
 31
0.0
 11
11.6101140118
 21
10.6238068945
 31
0.0
 11
11.6023387909
 21
10.6229638331
 31
0.0
 11
11.5945457038
 21
10.62268305
 31
0.0
  0
SPLINE
  5
3AC
100
AcDbEntity
  8
0
100
AcDbSpline
 62
7
  6
CONTINUOUS
 70
0
 71
3
 72
8
 73
4
 74
2
 42
0.0000001
 43
0.0000001
 44
0.0000000001
 12
-0.0072057206
 22
-0.001141274
 32
0.0
 13
-0.0072745863
 23
-0.0005819786
 33
0.0
 40
0.0
 40
0.0
 40
0.0
 40
0.0
 40
1.0
 40
1.0
 40
1.0
 40
1.0
 10
11.9794553838
 20
10.1814330811
 30
0.0
 10
11.9770534769
 20
10.1810526565
 30
0.0
 10
11.9746358061
 20
10.1807650951
 30
0.0
 10
11.972210944
 20
10.1805711022
 30
0.0
 11
11.9794553838
 21
10.1814330811
 31
0.0
 11
11.972210944
 21
10.1805711022
 31
0.0
  0
SPLINE
  5
3AD
100
AcDbEntity
  8
0
100
AcDbSpline
 62
7
  6
CONTINUOUS
 70
0
 71
3
 72
8
 73
4
 74
2
 42
0.0000001
 43
0.0000001
 44
0.0000000001
 12
-0.0000837319
 22
0.0005205632
 32
0.0
 13
-0.0000824807
 23
0.0005207629
 33
0.0
 40
0.0
 40
0.0
 40
0.0
 40
0.0
 40
1.0
 40
1.0
 40
1.0
 40
1.0
 10
11.8301677235
 20
10.324945598
 30
0.0
 10
11.8301398129
 20
10.325119119
 30
0.0
 10
11.8301121107
 20
10.3252926736
 30
0.0
 10
11.8300846171
 20
10.3254662613
 30
0.0
 11
11.8301677235
 21
10.324945598
 31
0.0
 11
11.8300846171
 21
10.3254662613
 31
0.0
  0
SPLINE
  5
3AE
100
AcDbEntity
  8
0
100
AcDbSpline
 62
7
  6
CONTINUOUS
 70
0
 71
3
 72
8
 73
4
 74
2
 42
0.0000001
 43
0.0000001
 44
0.0000000001
 12
0.0075030098
 22
0.0
 32
0.0
 13
0.0074835724
 23
-0.000570612
 33
0.0
 40
0.0
 40
0.0
 40
0.0
 40
0.0
 40
1.0
 40
1.0
 40
1.0
 40
1.0
 10
11.2355456767
 20
10.5036478436
 30
0.0
 10
11.2380466799
 20
10.5036478436
 30
0.0
 10
11.2405487247
 20
10.5035524462
 30
0.0
 10
11.2430432488
 20
10.5033622422
 30
0.0
 11
11.2355456767
 21
10.5036478436
 31
0.0
 11
11.2430432488
 21
10.5033622422
 31
0.0
  0
SPLINE
  5
3AF
100
AcDbEntity
  8
0
100
AcDbSpline
 62
7
  6
CONTINUOUS
 70
0
 71
3
 72
8
 73
4
 74
2
 42
0.0000001
 43
0.0000001
 44
0.0000000001
 12
0.0000000668
 22
-0.0001159291
 32
0.0
 13
-0.0
 23
-0.0001159291
 33
0.0
 40
0.0
 40
0.0
 40
0.0
 40
0.0
 40
1.0
 40
1.0
 40
1.0
 40
1.0
 10
11.3605456505
 20
10.345136493
 30
0.0
 10
11.3605456728
 20
10.3450978499
 30
0.0
 10
11.3605456839
 20
10.3450592069
 30
0.0
 10
11.3605456839
 20
10.3450205638
 30
0.0
 11
11.3605456505
 21
10.345136493
 31
0.0
 11
11.3605456839
 21
10.3450205638
 31
0.0
  0
SPLINE
  5
3B0
100
AcDbEntity
  8
0
100
AcDbSpline
 62
7
  6
CONTINUOUS
 70
0
 71
3
 72
8
 73
4
 74
2
 42
0.0000001
 43
0.0000001
 44
0.0000000001
 12
0.0085130414
 22
0.0000000685
 32
0.0
 13
0.0084929104
 23
-0.0006187655
 33
0.0
 40
0.0
 40
0.0
 40
0.0
 40
0.0
 40
1.0
 40
1.0
 40
1.0
 40
1.0
 10
11.5945457038
 20
10.9005254319
 30
0.0
 10
11.5973833843
 20
10.9005254547
 30
0.0
 10
11.6002221461
 20
10.9004221264
 30
0.0
 10
11.6030531162
 20
10.9002158713
 30
0.0
 11
11.5945457038
 21
10.9005254319
 31
0.0
 11
11.6030531162
 21
10.9002158713
 31
0.0
  0
SPLINE
  5
3B1
100
AcDbEntity
  8
0
100
AcDbSpline
 62
7
  6
CONTINUOUS
 70
0
 71
3
 72
28
 73
24
 74
22
 42
0.0000001
 43
0.0000001
 44
0.0000000001
 12
0.194068028
 22
-0.0141391589
 32
0.0
 13
0.0
 23
-0.1945280325
 33
0.0
 40
0.0
 40
0.0
 40
0.0
 40
0.0
 40
0.0438986377
 40
0.0878873326
 40
0.1321069717
 40
0.1765319631
 40
0.2213383531
 40
0.2665019465
 40
0.3121004067
 40
0.3581594195
 40
0.4047045945
 40
0.4518002894
 40
0.4993917659
 40
0.5475594855
 40
0.5962305089
 40
0.6454378052
 40
0.695076457
 40
0.7451828929
 40
0.7956646585
 40
0.8464753831
 40
0.8974943071
 40
0.9486950955
 40
1.0
 40
1.0
 40
1.0
 40
1.0
 10
11.6030531162
 20
10.9002158713
 30
0.0
 10
11.6058928902
 20
10.9000089747
 30
0.0
 10
11.6115625663
 20
10.8993874079
 30
0.0
 10
11.6199948169
 20
10.8978358144
 30
0.0
 10
11.6283250294
 20
10.8956672608
 30
0.0
 10
11.6365263049
 20
10.892883331
 30
0.0
 10
11.6445609562
 20
10.8894891709
 30
0.0
 10
11.6523970604
 20
10.8854885458
 30
0.0
 10
11.6599938081
 20
10.8808912091
 30
0.0
 10
11.6673133017
 20
10.8757075109
 30
0.0
 10
11.6743171248
 20
10.8699504465
 30
0.0
 10
11.6809631785
 20
10.8636385529
 30
0.0
 10
11.6872129563
 20
10.856790887
 30
0.0
 10
11.6930231304
 20
10.8494357715
 30
0.0
 10
11.698355791
 20
10.8416003214
 30
0.0
 10
11.703168618
 20
10.8333246735
 30
0.0
 10
11.7074264415
 20
10.8246464402
 30
0.0
 10
11.7110938615
 20
10.8156133762
 30
0.0
 10
11.7141409781
 20
10.8062726226
 30
0.0
 10
11.7165396022
 20
10.7966837076
 30
0.0
 10
11.7182687884
 20
10.7869042818
 30
0.0
 10
11.7193129397
 20
10.7769964625
 30
0.0
 10
11.7195457038
 20
10.7703473646
 30
0.0
 10
11.7195457038
 20
10.7670206173
 30
0.0
 11
11.6030531162
 21
10.9002158713
 31
0.0
 11
11.6115418075
 21
10.8992855881
 31
0.0
 11
11.6199576428
 21
10.8977375078
 31
0.0
 11
11.6282823306
 21
10.8955711104
 31
0.0
 11
11.6364658974
 21
10.8927941017
 31
0.0
 11
11.6444953735
 21
10.8894032474
 31
0.0
 11
11.6523207159
 21
10.8854094373
 31
0.0
 11
11.6599101369
 21
10.8808180583
 31
0.0
 11
11.6672227851
 21
10.8756409318
 31
0.0
 11
11.6742183314
 21
10.8698925904
 31
0.0
 11
11.6808623491
 21
10.8635847476
 31
0.0
 11
11.6871044682
 21
10.8567477729
 31
0.0
 11
11.6929138844
 21
10.8493961028
 31
0.0
 11
11.6982421123
 21
10.8415698196
 31
0.0
 11
11.7030555688
 21
10.8332959075
 31
0.0
 11
11.7073099947
 21
10.8246275566
 31
0.0
 11
11.7109777178
 21
10.8155968374
 31
0.0
 11
11.7140242053
 21
10.8062612259
 31
0.0
 11
11.7164235378
 21
10.7966727516
 31
0.0
 11
11.7181521852
 21
10.7868998462
 31
0.0
 11
11.719196368
 21
10.7769947437
 31
0.0
 11
11.7195457038
 21
10.7670206173
 31
0.0
  0
SPLINE
  5
3B2
100
AcDbEntity
  8
0
100
AcDbSpline
 62
7
  6
CONTINUOUS
 70
0
 71
3
 72
17
 73
13
 74
11
 42
0.0000001
 43
0.0000001
 44
0.0000000001
 12
0.063189602
 22
-0.0474736288
 32
0.0
 13
0.0790195174
 23
0.0
 33
0.0
 40
0.0
 40
0.0
 40
0.0
 40
0.0
 40
0.0084235366
 40
0.1200158643
 40
0.231183929
 40
0.3418467784
 40
0.4522077616
 40
0.5621354335
 40
0.6718866454
 40
0.7813423999
 40
0.8907253195
 40
1.0
 40
1.0
 40
1.0
 40
1.0
 10
11.5209121864
 20
10.87484671
 30
0.0
 10
11.521089613
 20
10.8747134114
 30
0.0
 10
11.5236225812
 20
10.8728209361
 30
0.0
 10
11.5286394927
 20
10.8693608017
 30
0.0
 10
11.5362097671
 20
10.864894367
 30
0.0
 10
11.5440481427
 20
10.8609894334
 30
0.0
 10
11.5521133815
 20
10.8576623484
 30
0.0
 10
11.5603715643
 20
10.8549234976
 30
0.0
 10
11.5687802917
 20
10.8527839848
 30
0.0
 10
11.5773058173
 20
10.8512501738
 30
0.0
 10
11.585905916
 20
10.8503279263
 30
0.0
 10
11.5916674263
 20
10.850122722
 30
0.0
 10
11.5945457038
 20
10.850122722
 30
0.0
 11
11.5209121864
 21
10.87484671
 31
0.0
 11
11.5214455273
 21
10.8744482315
 31
0.0
 11
11.5287048115
 21
10.8694422928
 31
0.0
 11
11.5362708887
 21
10.8649790002
 31
0.0
 11
11.5440981464
 21
10.8610801857
 31
0.0
 11
11.5521599854
 21
10.8577549994
 31
0.0
 11
11.5604049256
 21
10.8550209446
 31
0.0
 11
11.5688096994
 21
10.8528827626
 31
0.0
 11
11.5773222126
 21
10.8513515027
 31
0.0
 11
11.585916343
 21
10.8504300708
 31
0.0
 11
11.5945457038
 21
10.850122722
 31
0.0
  0
SPLINE
  5
3B3
100
AcDbEntity
  8
0
100
AcDbSpline
 62
7
  6
CONTINUOUS
 70
0
 71
3
 72
17
 73
13
 74
11
 42
0.0000001
 43
0.0000001
 44
0.0000000001
 12
0.0790195134
 22
0.0
 32
0.0
 13
0.0631896001
 23
0.0474736243
 33
0.0
 40
0.0
 40
0.0
 40
0.0
 40
0.0
 40
0.1092653735
 40
0.2186542095
 40
0.328121824
 40
0.4378708754
 40
0.5477802629
 40
0.6581428668
 40
0.7688120976
 40
0.8799815171
 40
0.9915693476
 40
1.0
 40
1.0
 40
1.0
 40
1.0
 10
11.5945457038
 20
10.850122722
 30
0.0
 10
11.5974237361
 20
10.850122722
 30
0.0
 10
11.6031851562
 20
10.8503279055
 30
0.0
 10
11.6117854813
 20
10.8512501413
 30
0.0
 10
11.6203114108
 20
10.8527840395
 30
0.0
 10
11.6287199079
 20
10.8549235366
 30
0.0
 10
11.6369776217
 20
10.8576622148
 30
0.0
 10
11.6450426339
 20
10.8609891382
 30
0.0
 10
11.6528812487
 20
10.8648941459
 30
0.0
 10
11.660451606
 20
10.8693606078
 30
0.0
 10
11.6654686138
 20
10.8728207855
 30
0.0
 10
11.6680016415
 20
10.8747132963
 30
0.0
 10
11.668179218
 20
10.8748467075
 30
0.0
 11
11.5945457038
 21
10.850122722
 31
0.0
 11
11.6031743303
 21
10.8504300184
 31
0.0
 11
11.6117689288
 21
10.8513514646
 31
0.0
 11
11.6202823615
 21
10.8528829042
 31
0.0
 11
11.6286869592
 21
10.8550210842
 31
0.0
 11
11.6369305326
 21
10.8577546689
 31
0.0
 11
11.6449925136
 21
10.8610798458
 31
0.0
 11
11.6528202402
 21
10.8649788488
 31
0.0
 11
11.6603864188
 21
10.8694421795
 31
0.0
 11
11.6676454256
 21
10.8744478936
 31
0.0
 11
11.668179218
 21
10.8748467075
 31
0.0
  0
SPLINE
  5
3B4
100
AcDbEntity
  8
0
100
AcDbSpline
 62
7
  6
CONTINUOUS
 70
0
 71
3
 72
32
 73
28
 74
26
 42
0.0000001
 43
0.0000001
 44
0.0000000001
 12
0.0
 22
-0.1417564083
 32
0.0
 13
-0.1417563925
 23
0.0000668975
 33
0.0
 40
0.0
 40
0.0
 40
0.0
 40
0.0
 40
0.0349329916
 40
0.0753002985
 40
0.1194356394
 40
0.164331792
 40
0.2096315466
 40
0.2560604128
 40
0.3039001574
 40
0.3508766964
 40
0.3969744078
 40
0.4429312628
 40
0.490027433
 40
0.5363919422
 40
0.5807783534
 40
0.6232760338
 40
0.664051895
 40
0.703240599
 40
0.7412226706
 40
0.7776318377
 40
0.8122739226
 40
0.8453783655
 40
0.8774478313
 40
0.9088418931
 40
0.9396027144
 40
0.969957156
 40
1.0
 40
1.0
 40
1.0
 40
1.0
 10
11.7195457038
 20
10.7670206173
 30
0.0
 10
11.7195457038
 20
10.7653699588
 30
0.0
 10
11.7190189009
 20
10.7617946826
 30
0.0
 10
11.7166380042
 20
10.7566061531
 30
0.0
 10
11.7128447174
 20
10.7517575824
 30
0.0
 10
11.7081359375
 20
10.7474709515
 30
0.0
 10
11.7028640548
 20
10.7437249394
 30
0.0
 10
11.6971562106
 20
10.740407344
 30
0.0
 10
11.6911534576
 20
10.7374790505
 30
0.0
 10
11.6850054967
 20
10.7349141895
 30
0.0
 10
11.6788261765
 20
10.7326776662
 30
0.0
 10
11.6725560164
 20
10.7306930822
 30
0.0
 10
11.6662063542
 20
10.7289330205
 30
0.0
 10
11.6598754891
 20
10.7273968422
 30
0.0
 10
11.6537161978
 20
10.7260870006
 30
0.0
 10
11.6477856429
 20
10.724981167
 30
0.0
 10
11.6420741344
 20
10.7240491861
 30
0.0
 10
11.6365560264
 20
10.7232647324
 30
0.0
 10
11.6312289078
 20
10.7226100763
 30
0.0
 10
11.6261048205
 20
10.7220715999
 30
0.0
 10
11.6212022701
 20
10.7216369514
 30
0.0
 10
11.6164982427
 20
10.7212916079
 30
0.0
 10
11.6119429905
 20
10.7210225504
 30
0.0
 10
11.6074951199
 20
10.7208210025
 30
0.0
 10
11.6031259708
 20
10.7206809615
 30
0.0
 10
11.5988192261
 20
10.7205992363
 30
0.0
 10
11.5959652922
 20
10.7205801945
 30
0.0
 10
11.5945457038
 20
10.7205808644
 30
0.0
 11
11.7195457038
 21
10.7670206173
 31
0.0
 11
11.7188472382
 21
10.7621181479
 31
0.0
 11
11.716532235
 21
10.7568850076
 31
0.0
 11
11.7127414607
 21
10.7519077177
 31
0.0
 11
11.7080711291
 21
10.7475842308
 31
0.0
 11
11.7028559501
 21
10.743837504
 31
0.0
 11
11.6971772679
 21
10.7405103603
 31
0.0
 11
11.6910894885
 21
10.7375222321
 31
0.0
 11
11.6849477967
 21
10.7349483428
 31
0.0
 11
11.6788057284
 21
10.7327175145
 31
0.0
 11
11.6725963684
 21
10.7307465028
 31
0.0
 11
11.6661639534
 21
10.7289589153
 31
0.0
 11
11.6597775984
 21
10.7274059239
 31
0.0
 11
11.6536236364
 21
10.7260949131
 31
0.0
 11
11.6477016841
 21
10.7249890677
 31
0.0
 11
11.6419970785
 21
10.7240570564
 31
0.0
 11
11.6364972431
 21
10.7232743608
 31
0.0
 11
11.6311533189
 21
10.722617013
 31
0.0
 11
11.6260203979
 21
10.7220771565
 31
0.0
 11
11.6211288747
 21
10.7216431696
 31
0.0
 11
11.6164487196
 21
10.7212993538
 31
0.0
 11
11.6119105855
 21
10.7210311563
 31
0.0
 11
11.6074648444
 21
10.720829562
 31
0.0
 11
11.6031065379
 21
10.7206899035
 31
0.0
 11
11.5988043842
 21
10.7206078242
 31
0.0
 11
11.5945457038
 21
10.7205808644
 31
0.0
  0
SPLINE
  5
3B5
100
AcDbEntity
  8
0
100
AcDbSpline
 62
7
  6
CONTINUOUS
 70
0
 71
3
 72
30
 73
26
 74
24
 42
0.0000001
 43
0.0000001
 44
0.0000000001
 12
0.226505377
 22
0.0358749274
 32
0.0
 13
0.0358807513
 23
-0.2265421785
 33
0.0
 40
0.0
 40
0.0
 40
0.0
 40
0.0
 40
0.0318126059
 40
0.0638083941
 40
0.0961708732
 40
0.1290827584
 40
0.1627287138
 40
0.1972913529
 40
0.2329504223
 40
0.269883777
 40
0.3082607767
 40
0.3482401752
 40
0.3899656328
 40
0.4335588528
 40
0.4791129852
 40
0.5266856373
 40
0.5762913577
 40
0.6278929674
 40
0.6813986301
 40
0.7366549921
 40
0.79344909
 40
0.8515098217
 40
0.9105154782
 40
0.9701051253
 40
1.0
 40
1.0
 40
1.0
 40
1.0
 10
11.9276359591
 20
10.5086080523
 30
0.0
 10
11.9300378678
 20
10.5089884773
 30
0.0
 10
11.9348871347
 20
10.5095652562
 30
0.0
 10
11.9422394676
 20
10.509867214
 30
0.0
 10
11.9496776732
 20
10.5095989984
 30
0.0
 10
11.9571986959
 20
10.5087472361
 30
0.0
 10
11.9647983135
 20
10.5072937144
 30
0.0
 10
11.9724692446
 20
10.5052156313
 30
0.0
 10
11.9802004099
 20
10.5024862648
 30
0.0
 10
11.9879758146
 20
10.4990758243
 30
0.0
 10
11.9957736173
 20
10.4949525846
 30
0.0
 10
12.003565062
 20
10.4900844455
 30
0.0
 10
12.0113137291
 20
10.4844407517
 30
0.0
 10
12.01897489
 20
10.4779945318
 30
0.0
 10
12.0264951907
 20
10.4707250801
 30
0.0
 10
12.0338128222
 20
10.4626207351
 30
0.0
 10
12.0408581368
 20
10.4536818611
 30
0.0
 10
12.0475550402
 20
10.4439236083
 30
0.0
 10
12.0538229125
 20
10.4333785033
 30
0.0
 10
12.0595793868
 20
10.4220981357
 30
0.0
 10
12.0647435216
 20
10.4101541801
 30
0.0
 10
12.0692394866
 20
10.3976379743
 30
0.0
 10
12.073000271
 20
10.3846588922
 30
0.0
 10
12.075473331
 20
10.3735729716
 30
0.0
 10
12.0766491755
 20
10.3668323555
 30
0.0
 10
12.0770067257
 20
10.3645748722
 30
0.0
 11
11.9276359591
 21
10.5086080523
 31
0.0
 11
11.9348804046
 21
10.5094700317
 31
0.0
 11
11.9422117334
 21
10.5097722569
 31
0.0
 11
11.9496286256
 21
10.5095065992
 31
0.0
 11
11.9571286106
 21
10.508659758
 31
0.0
 11
11.9647078257
 21
10.5072134029
 31
0.0
 11
11.9723592892
 21
10.5051446141
 31
0.0
 11
11.9800720133
 21
10.5024265507
 31
0.0
 11
11.9878306216
 21
10.4990290673
 31
0.0
 11
11.9956135075
 21
10.4949201224
 31
0.0
 11
12.0033922494
 21
10.4900671611
 31
0.0
 11
12.0111308244
 21
10.4844388997
 31
0.0
 11
12.0187847684
 21
10.4780076664
 31
0.0
 11
12.0263008894
 21
10.4707519716
 31
0.0
 11
12.0336174331
 21
10.4626592918
 31
0.0
 11
12.0406647169
 21
10.4537290274
 31
0.0
 11
12.0473662057
 21
10.4439757032
 31
0.0
 11
12.0536409097
 21
10.4334310107
 31
0.0
 11
12.0594056656
 21
10.4221463307
 31
0.0
 11
12.0645787544
 21
10.4101932003
 31
0.0
 11
12.0690834281
 21
10.3976633529
 31
0.0
 11
12.0728517946
 21
10.3846669605
 31
0.0
 11
12.075828426
 21
10.3713294612
 31
0.0
 11
12.0770067257
 21
10.3645748722
 31
0.0
  0
SPLINE
  5
3B6
100
AcDbEntity
  8
0
100
AcDbSpline
 62
7
  6
CONTINUOUS
 70
0
 71
3
 72
13
 73
9
 74
7
 42
0.0000001
 43
0.0000001
 44
0.0000000001
 12
-0.0508352811
 22
0.0
 32
0.0
 13
-0.0475926292
 23
-0.0178912178
 33
0.0
 40
0.0
 40
0.0
 40
0.0
 40
0.0
 40
0.1795796754
 40
0.3589205364
 40
0.5377879185
 40
0.7159554313
 40
0.893209026
 40
1.0
 40
1.0
 40
1.0
 40
1.0
 10
11.5945457038
 20
10.7130383738
 30
0.0
 10
11.5915027094
 20
10.7130383738
 30
0.0
 10
11.5854190071
 20
10.7128459761
 30
0.0
 10
11.5763413926
 20
10.7119815222
 30
0.0
 10
11.5673602398
 20
10.7105458502
 30
0.0
 10
11.5585238098
 20
10.7085465586
 30
0.0
 10
11.5510068507
 20
10.7063272213
 30
0.0
 10
11.5464668475
 20
10.7047233077
 30
0.0
 10
11.5447726931
 20
10.7040864342
 30
0.0
 11
11.5945457038
 21
10.7130383738
 31
0.0
 11
11.5854212895
 21
10.7127495851
 31
0.0
 11
11.5763455579
 21
10.7118847596
 31
0.0
 11
11.5673669319
 21
10.7104485116
 31
0.0
 11
11.5585333164
 21
10.7084485041
 31
0.0
 11
11.5498918426
 21
10.7058954081
 31
0.0
 11
11.5447726931
 21
10.7040864342
 31
0.0
  0
SPLINE
  5
3B7
100
AcDbEntity
  8
0
100
AcDbSpline
 62
7
  6
CONTINUOUS
 70
0
 71
3
 72
19
 73
15
 74
13
 42
0.0000001
 43
0.0000001
 44
0.0000000001
 12
0.1060497676
 22
0.0
 32
0.0
 13
0.0737908639
 23
-0.0761985393
 33
0.0
 40
0.0
 40
0.0
 40
0.0
 40
0.0
 40
0.0859557155
 40
0.1717974569
 40
0.2574132252
 40
0.3426949583
 40
0.4275404669
 40
0.5118553287
 40
0.5955547211
 40
0.6785651719
 40
0.7608261993
 40
0.842291808
 40
0.9229318032
 40
1.0
 40
1.0
 40
1.0
 40
1.0
 10
11.5945457038
 20
10.7130383738
 30
0.0
 10
11.5975842317
 20
10.7130383738
 30
0.0
 10
11.6036590109
 20
10.7128465403
 30
0.0
 10
11.6127234512
 20
10.7119846176
 30
0.0
 10
11.6216918524
 20
10.7105531345
 30
0.0
 10
11.6305161628
 20
10.7085596454
 30
0.0
 10
11.6391496915
 20
10.7060146701
 30
0.0
 10
11.6475465875
 20
10.7029316389
 30
0.0
 10
11.655662283
 20
10.699326822
 30
0.0
 10
11.6634536725
 20
10.695219244
 30
0.0
 10
11.6708793475
 20
10.6906305903
 30
0.0
 10
11.6778998209
 20
10.6855850785
 30
0.0
 10
11.6844033752
 20
10.6801712606
 30
0.0
 10
11.6884265016
 20
10.6763049307
 30
0.0
 10
11.6903221446
 20
10.674347436
 30
0.0
 11
11.5945457038
 21
10.7130383738
 31
0.0
 11
11.6036567386
 21
10.7127504325
 31
0.0
 11
11.6127193048
 21
10.7118881403
 31
0.0
 11
11.6216851914
 21
10.7104560844
 31
0.0
 11
11.6305067021
 21
10.7084618831
 31
0.0
 11
11.6391369082
 21
10.705916145
 31
0.0
 11
11.6475298992
 21
10.7028324129
 31
0.0
 11
11.6556410261
 21
10.6992270916
 31
0.0
 11
11.6634271396
 21
10.6951193606
 31
0.0
 11
11.6708468192
 21
10.690531072
 31
0.0
 11
11.677860594
 21
10.6854866346
 31
0.0
 11
11.6844311522
 21
10.6800128836
 31
0.0
 11
11.6903221446
 21
10.674347436
 31
0.0
  0
SPLINE
  5
3B8
100
AcDbEntity
  8
0
100
AcDbSpline
 62
7
  6
CONTINUOUS
 70
0
 71
3
 72
29
 73
25
 74
23
 42
0.0000001
 43
0.0000001
 44
0.0000000001
 12
-0.1857260385
 22
-0.0712935467
 32
0.0
 13
-0.0712787024
 23
0.1856873684
 33
0.0
 40
0.0
 40
0.0
 40
0.0
 40
0.0
 40
0.046786237
 40
0.0935455184
 40
0.1402497427
 40
0.1868729134
 40
0.2333908419
 40
0.2797817263
 40
0.3260264536
 40
0.3721092186
 40
0.4180175849
 40
0.4637428733
 40
0.5092802743
 40
0.5546287286
 40
0.5997912096
 40
0.6447742122
 40
0.6895878976
 40
0.7342457073
 40
0.7787639831
 40
0.8231618682
 40
0.8674605889
 40
0.911683316
 40
0.955854601
 40
1.0
 40
1.0
 40
1.0
 40
1.0
 10
11.6393416977
 20
9.8063230225
 30
0.0
 10
11.6364452235
 20
9.8052111703
 30
0.0
 10
11.6305753389
 20
9.8031928797
 30
0.0
 10
11.6215830466
 20
9.8007961266
 30
0.0
 10
11.6124544972
 20
9.7990427948
 30
0.0
 10
11.6032407286
 20
9.7979410905
 30
0.0
 10
11.5939928622
 20
9.7974949578
 30
0.0
 10
11.5847617082
 20
9.7977041573
 30
0.0
 10
11.5755973281
 20
9.7985643901
 30
0.0
 10
11.5665486519
 20
9.8000674754
 30
0.0
 10
11.557663121
 20
9.8022015744
 30
0.0
 10
11.5489863966
 20
9.8049514468
 30
0.0
 10
11.5405621187
 20
9.8082987313
 30
0.0
 10
11.5324317093
 20
9.8122222418
 30
0.0
 10
11.5246342534
 20
9.8166982559
 30
0.0
 10
11.517206398
 20
9.8217008089
 30
0.0
 10
11.5101823234
 20
9.8272019561
 30
0.0
 10
11.5035937312
 20
9.8331720249
 30
0.0
 10
11.4974698696
 20
9.8395798301
 30
0.0
 10
11.4918375787
 20
9.8463928706
 30
0.0
 10
11.4867213637
 20
9.8535774271
 30
0.0
 10
11.4821433687
 20
9.8610989164
 30
0.0
 10
11.4781237705
 20
9.8689210937
 30
0.0
 10
11.4758273939
 20
9.8743138661
 30
0.0
 10
11.4747785183
 20
9.8770462804
 30
0.0
 11
11.6393416977
 21
9.8063230225
 31
0.0
 11
11.6305416524
 21
9.8032972772
 31
0.0
 11
11.6215550167
 21
9.8009021669
 31
0.0
 11
11.6124323442
 21
9.7991501822
 31
0.0
 11
11.6032246385
 21
9.7980494985
 31
0.0
 11
11.5939830411
 21
9.797604035
 31
0.0
 11
11.5847583608
 21
9.7978135192
 31
0.0
 11
11.5756006741
 21
9.7986736128
 31
0.0
 11
11.5665588841
 21
9.8001760938
 31
0.0
 11
11.5576804202
 21
9.8023090778
 31
0.0
 11
11.5490109077
 21
9.8050572819
 31
0.0
 11
11.54059393
 21
9.8084023098
 31
0.0
 11
11.5324708721
 21
9.8123229348
 31
0.0
 11
11.5246807295
 21
9.8167954221
 31
0.0
 11
11.5172600957
 21
9.8217937821
 31
0.0
 11
11.510243065
 21
9.8272900723
 31
0.0
 11
11.5036612551
 21
9.8332546325
 31
0.0
 11
11.4975438443
 21
9.839656291
 31
0.0
 11
11.4919175833
 21
9.8464625859
 31
0.0
 11
11.4868068995
 21
9.8536398708
 31
0.0
 11
11.4822339217
 21
9.8611534756
 31
0.0
 11
11.4782185549
 21
9.8689677781
 31
0.0
 11
11.4747785183
 21
9.8770462804
 31
0.0
  0
SPLINE
  5
3B9
100
AcDbEntity
  8
0
100
AcDbSpline
 62
7
  6
CONTINUOUS
 70
0
 71
3
 72
30
 73
26
 74
24
 42
0.0000001
 43
0.0000001
 44
0.0000000001
 12
-0.2234993703
 22
0.0
 32
0.0
 13
0.0000000033
 23
0.2235369942
 33
0.0
 40
0.0
 40
0.0
 40
0.0
 40
0.0
 40
0.0335708627
 40
0.0673066469
 40
0.1013724696
 40
0.1359318639
 40
0.1711482863
 40
0.2071815854
 40
0.2441874525
 40
0.2823168346
 40
0.3217106464
 40
0.3624982696
 40
0.4047931444
 40
0.4486873117
 40
0.4942470263
 40
0.5415071216
 40
0.5904655008
 40
0.6410784134
 40
0.6932577349
 40
0.7468674391
 40
0.8017260805
 40
0.8576081302
 40
0.9142507938
 40
0.9713621853
 40
1.0
 40
1.0
 40
1.0
 40
1.0
 10
11.2355456824
 20
10.1863932878
 30
0.0
 10
11.2330446602
 20
10.1863932878
 30
0.0
 10
11.228028241
 20
10.1865845566
 30
0.0
 10
11.2205184004
 20
10.1874466085
 30
0.0
 10
11.2130228657
 20
10.1888901525
 30
0.0
 10
11.2055515518
 20
10.1909251323
 30
0.0
 10
11.1981161118
 20
10.1935649467
 30
0.0
 10
11.1907316246
 20
10.1968259006
 30
0.0
 10
11.1834171126
 20
10.2007264436
 30
0.0
 10
11.1761963439
 20
10.2052862018
 30
0.0
 10
11.1690983987
 20
10.210524801
 30
0.0
 10
11.1621582326
 20
10.2164603697
 30
0.0
 10
11.155416934
 20
10.2231078856
 30
0.0
 10
11.1489217865
 20
10.2304772574
 30
0.0
 10
11.1427259902
 20
10.2385712525
 30
0.0
 10
11.1368879659
 20
10.2473833944
 30
0.0
 10
11.1314702484
 20
10.2568958723
 30
0.0
 10
11.1265378623
 20
10.2670777453
 30
0.0
 10
11.1221563021
 20
10.277883472
 30
0.0
 10
11.1183890517
 20
10.2892521924
 30
0.0
 10
11.1152949203
 20
10.3011076345
 30
0.0
 10
11.1129252348
 20
10.3133591278
 30
0.0
 10
11.1113212247
 20
10.3259034204
 30
0.0
 10
11.1106472786
 20
10.336497326
 30
0.0
 10
11.1105456694
 20
10.3428866992
 30
0.0
 10
11.1105456694
 20
10.3450205696
 30
0.0
 11
11.2355456824
 21
10.1863932878
 31
0.0
 11
11.2280480536
 21
10.1866788951
 31
0.0
 11
11.2205572052
 21
10.18753778
 31
0.0
 11
11.2130806088
 21
10.1889761057
 31
0.0
 11
11.205627528
 21
10.1910038647
 31
0.0
 11
11.1982093509
 21
10.1936346251
 31
0.0
 11
11.1908409306
 21
10.1968848483
 31
0.0
 11
11.1835411421
 21
10.200773167
 31
0.0
 11
11.1763333263
 21
10.2053195995
 31
0.0
 11
11.169246444
 21
10.2105440786
 31
0.0
 11
11.1623152174
 21
10.2164652018
 31
0.0
 11
11.1555805313
 21
10.2230985196
 31
0.0
 11
11.1490896221
 21
10.2304545003
 31
0.0
 11
11.1428956814
 21
10.2385365656
 31
0.0
 11
11.1370572392
 21
10.247338903
 31
0.0
 11
11.1316370783
 21
10.2568443158
 31
0.0
 11
11.1267006326
 21
10.267022322
 31
0.0
 11
11.1223138462
 21
10.2778278488
 31
0.0
 11
11.1185408571
 21
10.2892000311
 31
0.0
 11
11.1154410767
 21
10.3010625915
 31
0.0
 11
11.1130664837
 21
10.3133243813
 31
0.0
 11
11.1114588547
 21
10.3258814905
 31
0.0
 11
11.1106474732
 21
10.3386200363
 31
0.0
 11
11.1105456694
 21
10.3450205696
 31
0.0
  0
SPLINE
  5
3BA
100
AcDbEntity
  8
0
100
AcDbSpline
 62
7
  6
CONTINUOUS
 70
0
 71
3
 72
27
 73
23
 74
21
 42
0.0000001
 43
0.0000001
 44
0.0000000001
 12
0.0129188129
 22
0.1841409924
 32
0.0
 13
0.1841092159
 23
0.0134131968
 33
0.0
 40
0.0
 40
0.0
 40
0.0
 40
0.0
 40
0.0540223791
 40
0.1078570454
 40
0.1614317987
 40
0.2146707057
 40
0.2675064352
 40
0.3198817209
 40
0.3717505194
 40
0.4230786963
 40
0.4738444439
 40
0.5240382136
 40
0.5736625037
 40
0.6227312123
 40
0.6712689525
 40
0.7193100853
 40
0.7668976957
 40
0.8140825795
 40
0.8609219048
 40
0.9074786812
 40
0.953818864
 40
1.0
 40
1.0
 40
1.0
 40
1.0
 10
11.469895183
 20
10.7769967855
 30
0.0
 10
11.470127818
 20
10.780312697
 30
0.0
 10
11.470824051
 20
10.7869161159
 30
0.0
 10
11.4725557296
 20
10.7967028584
 30
0.0
 10
11.4749574195
 20
10.8062972431
 30
0.0
 10
11.4780075341
 20
10.8156409872
 30
0.0
 10
11.4816792644
 20
10.8246787599
 30
0.0
 10
11.485941418
 20
10.8333597197
 30
0.0
 10
11.4907592141
 20
10.8416378829
 30
0.0
 10
11.4960951089
 20
10.8494724025
 30
0.0
 10
11.5019096054
 20
10.8568276351
 30
0.0
 10
11.5081620211
 20
10.8636730546
 30
0.0
 10
11.5148111736
 20
10.8699830157
 30
0.0
 10
11.5218159743
 20
10.8757364083
 30
0.0
 10
11.5291359051
 20
10.8809162223
 30
0.0
 10
11.5367313794
 20
10.8855090616
 30
0.0
 10
11.5445639852
 20
10.8895046327
 30
0.0
 10
11.5525965982
 20
10.8928952306
 30
0.0
 10
11.5607934465
 20
10.8956752656
 30
0.0
 10
11.5691198872
 20
10.8978407939
 30
0.0
 10
11.577541811
 20
10.8993890354
 30
0.0
 10
11.583204173
 20
10.9000093928
 30
0.0
 10
11.5860382972
 20
10.9002158717
 30
0.0
 11
11.469895183
 21
10.7769967855
 31
0.0
 11
11.4709408513
 21
10.7869113956
 31
0.0
 11
11.4726724643
 21
10.7966942849
 31
0.0
 11
11.4750740945
 21
10.8062851556
 31
0.0
 11
11.4781239292
 21
10.815624824
 31
0.0
 11
11.4817950298
 21
10.8246579519
 31
0.0
 11
11.4860560663
 21
10.8333336705
 31
0.0
 11
11.4908721251
 21
10.8416060307
 31
0.0
 11
11.496205538
 21
10.8494342493
 31
0.0
 11
11.5020167075
 21
10.8567827885
 31
0.0
 11
11.5082648687
 21
10.8636212472
 31
0.0
 11
11.5149087924
 21
10.8699241321
 31
0.0
 11
11.5219073657
 21
10.8756704901
 31
0.0
 11
11.5292200819
 21
10.8808434774
 31
0.0
 11
11.5368073921
 21
10.8854298593
 31
0.0
 11
11.5446309428
 21
10.8894194931
 31
0.0
 11
11.5526537115
 21
10.8928048196
 31
0.0
 11
11.5608399859
 21
10.8955803589
 31
0.0
 11
11.5691553919
 21
10.8977423016
 31
0.0
 11
11.5775664186
 21
10.8992880521
 31
0.0
 11
11.5860382972
 21
10.9002158717
 31
0.0
  0
SPLINE
  5
3BB
100
AcDbEntity
  8
0
100
AcDbSpline
 62
7
  6
CONTINUOUS
 70
0
 71
3
 72
8
 73
4
 74
2
 42
0.0000001
 43
0.0000001
 44
0.0000000001
 12
0.0
 22
0.006400486
 32
0.0
 13
0.0002035362
 23
0.0063972546
 33
0.0
 40
0.0
 40
0.0
 40
0.0
 40
0.0
 40
1.0
 40
1.0
 40
1.0
 40
1.0
 10
11.1105456694
 20
10.3450205667
 30
0.0
 10
11.1105456694
 20
10.3471540621
 30
0.0
 10
11.1105795921
 20
10.3492875574
 30
0.0
 10
11.1106474375
 20
10.3514199756
 30
0.0
 11
11.1105456694
 21
10.3450205667
 31
0.0
 11
11.1106474375
 21
10.3514199756
 31
0.0
  0
SPLINE
  5
3BC
100
AcDbEntity
  8
0
100
AcDbSpline
 62
7
  6
CONTINUOUS
 70
0
 71
3
 72
29
 73
25
 74
23
 42
0.0000001
 43
0.0000001
 44
0.0000000001
 12
0.0069049658
 22
0.217026875
 32
0.0
 13
0.2170999528
 23
0.0
 33
0.0
 40
0.0
 40
0.0
 40
0.0
 40
0.0
 40
0.0587968513
 40
0.1171090693
 40
0.1746381782
 40
0.2311135865
 40
0.286303391
 40
0.3400203726
 40
0.3921251261
 40
0.4425264844
 40
0.491179635
 40
0.5380824671
 40
0.5832707372
 40
0.6268126174
 40
0.6688031085
 40
0.7093586931
 40
0.7486124896
 40
0.7867100578
 40
0.8238059256
 40
0.8600608246
 40
0.895639588
 40
0.9307096234
 40
0.9654398504
 40
1.0
 40
1.0
 40
1.0
 40
1.0
 10
11.1106474375
 20
10.3514199756
 30
0.0
 10
11.1107827676
 20
10.3556734746
 30
0.0
 10
11.1113211404
 20
10.3641368771
 30
0.0
 10
11.1129251224
 20
10.3766813003
 30
0.0
 10
11.1152947547
 20
10.3889327633
 30
0.0
 10
11.1183888267
 20
10.4007881757
 30
0.0
 10
11.1221560069
 20
10.4121568541
 30
0.0
 10
11.1265374961
 20
10.4229625599
 30
0.0
 10
11.131469806
 20
10.4331444178
 30
0.0
 10
11.1368874585
 20
10.4426569119
 30
0.0
 10
11.1427254264
 20
10.4514690893
 30
0.0
 10
11.1489211868
 20
10.4595631468
 30
0.0
 10
11.1554163192
 20
10.4669325986
 30
0.0
 10
11.162157632
 20
10.4735802143
 30
0.0
 10
11.1690978413
 20
10.4795158924
 30
0.0
 10
11.1761958537
 20
10.4847545994
 30
0.0
 10
11.1834167201
 20
10.4893144655
 30
0.0
 10
11.1907313333
 20
10.4932150948
 30
0.0
 10
11.1981159269
 20
10.4964761156
 30
0.0
 10
11.2055514655
 20
10.4991159771
 30
0.0
 10
11.2130228584
 20
10.5011509814
 30
0.0
 10
11.2205184468
 20
10.5025945321
 30
0.0
 10
11.2280282738
 20
10.5034565795
 30
0.0
 10
11.2330446744
 20
10.5036478436
 30
0.0
 10
11.2355456767
 20
10.5036478436
 30
0.0
 11
11.1106474375
 21
10.3514199756
 31
0.0
 11
11.1114587891
 21
10.3641589576
 31
0.0
 11
11.1130663713
 21
10.3767160528
 31
0.0
 11
11.1154409117
 21
10.388977816
 31
0.0
 11
11.1185406277
 21
10.4008403277
 31
0.0
 11
11.1223135561
 21
10.4122124973
 31
0.0
 11
11.1267002543
 21
10.4230179614
 31
0.0
 11
11.1316366377
 21
10.4331959816
 31
0.0
 11
11.1370567255
 21
10.4427013964
 31
0.0
 11
11.1428951096
 21
10.4515037666
 31
0.0
 11
11.1490890189
 21
10.4595859002
 31
0.0
 11
11.1555799148
 21
10.4669419627
 31
0.0
 11
11.1623146025
 21
10.4735753675
 31
0.0
 11
11.1692458889
 21
10.4794966141
 31
0.0
 11
11.1763328428
 21
10.484721204
 31
0.0
 11
11.1835407263
 21
10.489267725
 31
0.0
 11
11.1908406712
 21
10.493156159
 31
0.0
 11
11.1982091679
 21
10.4964064357
 31
0.0
 11
11.2056274247
 21
10.4990372365
 31
0.0
 11
11.2130806447
 21
10.5010650361
 31
0.0
 11
11.2205572546
 21
10.502503361
 31
0.0
 11
11.2280481075
 21
10.5033622425
 31
0.0
 11
11.2355456767
 21
10.5036478436
 31
0.0
  0
SPLINE
  5
3BD
100
AcDbEntity
  8
0
100
AcDbSpline
 62
7
  6
CONTINUOUS
 70
0
 71
3
 72
8
 73
4
 74
2
 42
0.0000001
 43
0.0000001
 44
0.0000000001
 12
0.0010725661
 22
-0.0067719161
 32
0.0
 13
0.0008604301
 23
-0.0068021324
 33
0.0
 40
0.0
 40
0.0
 40
0.0
 40
0.0
 40
1.0
 40
1.0
 40
1.0
 40
1.0
 10
12.077006725
 20
10.3645748766
 30
0.0
 10
12.077364247
 20
10.3623175712
 30
0.0
 10
12.0776865002
 20
10.3600546798
 30
0.0
 10
12.0779733102
 20
10.3577873024
 30
0.0
 11
12.077006725
 21
10.3645748766
 31
0.0
 11
12.0779733102
 21
10.3577873024
 31
0.0
  0
SPLINE
  5
3BE
100
AcDbEntity
  8
0
100
AcDbSpline
 62
7
  6
CONTINUOUS
 70
0
 71
3
 72
29
 73
25
 74
23
 42
0.0000001
 43
0.0000001
 44
0.0000000001
 12
0.027923699
 22
-0.2207508713
 32
0.0
 13
-0.2197345565
 23
-0.0348025347
 33
0.0
 40
0.0
 40
0.0
 40
0.0
 40
0.0
 40
0.0614266317
 40
0.1222502866
 40
0.1820996712
 40
0.2406433028
 40
0.2976018646
 40
0.3527554816
 40
0.4059468249
 40
0.4570804105
 40
0.5061188036
 40
0.5530766061
 40
0.5980131372
 40
0.6410246202
 40
0.6822365326
 40
0.7217965871
 40
0.7598686343
 40
0.7966276205
 40
0.8322556231
 40
0.866938891
 40
0.9008657846
 40
0.9342254665
 40
0.9672071836
 40
1.0
 40
1.0
 40
1.0
 40
1.0
 10
12.0779733102
 20
10.3577873024
 30
0.0
 10
12.0785450631
 20
10.3532673082
 30
0.0
 10
12.0794026371
 20
10.344236209
 30
0.0
 10
12.0798366995
 20
10.3307302065
 30
0.0
 10
12.0794285333
 20
10.3174373379
 30
0.0
 10
12.0782080781
 20
10.3044822529
 30
0.0
 10
12.0762192318
 20
10.2919752555
 30
0.0
 10
12.0735168215
 20
10.2800094833
 30
0.0
 10
12.0701632463
 20
10.268659482
 30
0.0
 10
12.0662251092
 20
10.2579810404
 30
0.0
 10
12.0617701012
 20
10.248012104
 30
0.0
 10
12.0568643258
 20
10.238774516
 30
0.0
 10
12.0515701726
 20
10.2302763054
 30
0.0
 10
12.045944769
 20
10.2225142617
 30
0.0
 10
12.0400389872
 20
10.215476571
 30
0.0
 10
12.0338969402
 20
10.2091453466
 30
0.0
 10
12.0275558828
 20
10.20349894
 30
0.0
 10
12.0210464257
 20
10.1985139692
 30
0.0
 10
12.0143929866
 20
10.194167041
 30
0.0
 10
12.007614376
 20
10.1904361677
 30
0.0
 10
12.0007245733
 20
10.1873019192
 30
0.0
 10
11.9937332401
 20
10.1847482769
 30
0.0
 10
11.986647448
 20
10.1827634613
 30
0.0
 10
11.9818572888
 20
10.1818135055
 30
0.0
 10
11.9794553838
 20
10.1814330811
 30
0.0
 11
12.0779733102
 21
10.3577873024
 31
0.0
 11
12.0792639243
 21
10.3441825801
 31
0.0
 11
12.0796961232
 21
10.3306578281
 31
0.0
 11
12.0792838903
 21
10.3173493044
 31
0.0
 11
12.0780577558
 21
10.3043827368
 31
0.0
 11
12.0760623618
 21
10.291869053
 31
0.0
 11
12.0733533392
 21
10.2799016158
 31
0.0
 11
12.069993863
 21
10.2685548266
 31
0.0
 11
12.0660512156
 21
10.2578840259
 31
0.0
 11
12.0615936253
 21
10.247926493
 31
0.0
 11
12.0566875717
 21
10.2387032759
 31
0.0
 11
12.051395659
 21
10.2302215613
 31
0.0
 11
12.0457750856
 21
10.2224773148
 31
0.0
 11
12.0398766766
 21
10.2154579636
 31
0.0
 11
12.0337444094
 21
10.2091449551
 31
0.0
 11
12.0274153428
 21
10.2035160804
 31
0.0
 11
12.0209198574
 21
10.1985475023
 31
0.0
 11
12.014282121
 21
10.1942154688
 31
0.0
 11
12.0075207076
 21
10.1904977206
 31
0.0
 11
12.0006493122
 21
10.1873746173
 31
0.0
 11
11.9936775217
 21
10.1848300168
 31
0.0
 11
11.986611616
 21
10.1828519441
 31
0.0
 11
11.9794553838
 21
10.1814330811
 31
0.0
  0
SPLINE
  5
3BF
100
AcDbEntity
  8
0
100
AcDbSpline
 62
7
  6
CONTINUOUS
 70
0
 71
3
 72
10
 73
6
 74
4
 42
0.0000001
 43
0.0000001
 44
0.0000000001
 12
-0.0262964125
 22
0.0
 32
0.0
 13
-0.0256878446
 23
-0.0056516576
 33
0.0
 40
0.0
 40
0.0
 40
0.0
 40
0.0
 40
0.3330317665
 40
0.6662907435
 40
1.0
 40
1.0
 40
1.0
 40
1.0
 10
11.5945457038
 20
10.8958473209
 30
0.0
 10
11.5916265236
 20
10.8958473209
 30
0.0
 10
11.5857839759
 20
10.8956362698
 30
0.0
 10
11.5770626876
 20
10.8946877294
 30
0.0
 10
11.5713063391
 20
10.8936371463
 30
0.0
 10
11.5684489153
 20
10.8930084761
 30
0.0
 11
11.5945457038
 21
10.8958473209
 31
0.0
 11
11.5857938714
 21
10.8955311754
 31
0.0
 11
11.5770817126
 21
10.8945838133
 31
0.0
 11
11.5684489153
 21
10.8930084761
 31
0.0
  0
SPLINE
  5
3C0
100
AcDbEntity
  8
0
100
AcDbSpline
 62
7
  6
CONTINUOUS
 70
0
 71
3
 72
8
 73
4
 74
2
 42
0.0000001
 43
0.0000001
 44
0.0000000001
 12
0.0031466194
 22
-0.0081972238
 32
0.0
 13
0.0025486941
 23
-0.0084048876
 33
0.0
 40
0.0
 40
0.0
 40
0.0
 40
0.0
 40
1.0
 40
1.0
 40
1.0
 40
1.0
 10
11.7143128822
 20
9.9689948881
 30
0.0
 10
11.7153617553
 20
9.9662624802
 30
0.0
 10
11.7163124387
 20
9.9634912058
 30
0.0
 10
11.7171620034
 20
9.9606895766
 30
0.0
 11
11.7143128822
 21
9.9689948881
 31
0.0
 11
11.7171620034
 21
9.9606895766
 31
0.0
  0
SPLINE
  5
3C1
100
AcDbEntity
  8
0
100
AcDbSpline
 62
7
  6
CONTINUOUS
 70
0
 71
3
 72
28
 73
24
 74
22
 42
0.0000001
 43
0.0000001
 44
0.0000000001
 12
0.0551855187
 22
-0.1819865608
 32
0.0
 13
-0.1775270904
 23
-0.0681462652
 33
0.0
 40
0.0
 40
0.0
 40
0.0
 40
0.0
 40
0.0462112678
 40
0.0924763544
 40
0.138820936
 40
0.1852692261
 40
0.2318435143
 40
0.278563731
 40
0.3254470432
 40
0.3725074906
 40
0.4197556697
 40
0.4671984742
 40
0.5148389014
 40
0.5626759321
 40
0.6107044903
 40
0.6589154902
 40
0.7072959727
 40
0.7558293344
 40
0.8044956452
 40
0.8532720527
 40
0.902133263
 40
0.951052089
 40
1.0
 40
1.0
 40
1.0
 40
1.0
 10
11.7171620034
 20
9.9606895766
 30
0.0
 10
11.7180120676
 20
9.9578863
 30
0.0
 10
11.7195105931
 20
9.9522156658
 30
0.0
 10
11.721141338
 20
9.9435628401
 30
0.0
 10
11.7221466562
 20
9.9348002676
 30
0.0
 10
11.7225198641
 20
9.925968463
 30
0.0
 10
11.7222566097
 20
9.917108884
 30
0.0
 10
11.7213550919
 20
9.9082636396
 30
0.0
 10
11.7198161797
 20
9.8994754788
 30
0.0
 10
11.7176435772
 20
9.8907876639
 30
0.0
 10
11.714843986
 20
9.88224383
 30
0.0
 10
11.711427267
 20
9.8738877974
 30
0.0
 10
11.7074065906
 20
9.8657633436
 30
0.0
 10
11.7027985648
 20
9.8579139335
 30
0.0
 10
11.6976233327
 20
9.850382411
 30
0.0
 10
11.6919046294
 20
9.8432106549
 30
0.0
 10
11.6856697894
 20
9.8364392089
 30
0.0
 10
11.6789496983
 20
9.8301068912
 30
0.0
 10
11.6717786843
 20
9.8242503961
 30
0.0
 10
11.6641943447
 20
9.8189038993
 30
0.0
 10
11.65623731
 20
9.8140986775
 30
0.0
 10
11.6479509493
 20
9.8098627581
 30
0.0
 10
11.6422382243
 20
9.8074348949
 30
0.0
 10
11.6393416975
 20
9.8063230225
 30
0.0
 11
11.7171620034
 21
9.9606895766
 31
0.0
 11
11.719406792
 21
9.9521956195
 31
0.0
 11
11.7210359898
 21
9.9435520097
 31
0.0
 11
11.722040553
 21
9.9347985404
 31
0.0
 11
11.722413728
 21
9.9259757887
 31
0.0
 11
11.7221511544
 21
9.9171250879
 31
0.0
 11
11.7212509913
 21
9.90828848
 31
0.0
 11
11.7197140636
 21
9.8995086403
 31
0.0
 11
11.7175440215
 21
9.8908287714
 31
0.0
 11
11.7147475071
 21
9.8822924581
 31
0.0
 11
11.7113343179
 21
9.8739434822
 31
0.0
 11
11.7073175591
 21
9.8658255952
 31
0.0
 11
11.702713775
 21
9.8579822482
 31
0.0
 11
11.6975430486
 21
9.8504562826
 31
0.0
 11
11.6918290603
 21
9.843289586
 31
0.0
 11
11.6855990983
 21
9.8365227191
 31
0.0
 11
11.6788840117
 21
9.8301945244
 31
0.0
 11
11.671718102
 21
9.824341725
 31
0.0
 11
11.6641389516
 21
9.818998527
 31
0.0
 11
11.6561871862
 21
9.8141962369
 31
0.0
 11
11.6479061775
 21
9.8099629067
 31
0.0
 11
11.6393416975
 21
9.8063230225
 31
0.0
  0
SPLINE
  5
3C2
100
AcDbEntity
  8
0
100
AcDbSpline
 62
7
  6
CONTINUOUS
 70
0
 71
3
 72
8
 73
4
 74
2
 42
0.0000001
 43
0.0000001
 44
0.0000000001
 12
-0.007979394
 22
0.0
 32
0.0
 13
-0.0079601598
 23
0.0005875009
 33
0.0
 40
0.0
 40
0.0
 40
0.0
 40
0.0
 40
1.0
 40
1.0
 40
1.0
 40
1.0
 10
11.5945457038
 20
10.62268305
 30
0.0
 10
11.5918859058
 20
10.62268305
 30
0.0
 10
11.5892250461
 20
10.622781205
 30
0.0
 10
11.5865716595
 20
10.6229770386
 30
0.0
 11
11.5945457038
 21
10.62268305
 31
0.0
 11
11.5865716595
 21
10.6229770386
 31
0.0
  0
SPLINE
  5
3C3
100
AcDbEntity
  8
0
100
AcDbSpline
 62
7
  6
CONTINUOUS
 70
0
 71
3
 72
8
 73
4
 74
2
 42
0.0000001
 43
0.0000001
 44
0.0000000001
 12
-0.0007277881
 22
0.0109900711
 32
0.0
 13
0.0
 23
0.0110114451
 33
0.0
 40
0.0
 40
0.0
 40
0.0
 40
0.0
 40
1.0
 40
1.0
 40
1.0
 40
1.0
 10
11.4699095978
 20
10.7560151115
 30
0.0
 10
11.4696670018
 20
10.7596784685
 30
0.0
 10
11.4695457038
 20
10.7633501359
 30
0.0
 10
11.4695457038
 20
10.7670206176
 30
0.0
 11
11.4699095978
 21
10.7560151115
 31
0.0
 11
11.4695457038
 21
10.7670206176
 31
0.0
  0
SPLINE
  5
3C4
100
AcDbEntity
  8
0
100
AcDbSpline
 62
7
  6
CONTINUOUS
 70
0
 71
3
 72
8
 73
4
 74
2
 42
0.0000001
 43
0.0000001
 44
0.0000000001
 12
0.0
 22
-0.0110114117
 32
0.0
 13
-0.0007277837
 23
-0.0109900379
 33
0.0
 40
0.0
 40
0.0
 40
0.0
 40
0.0
 40
1.0
 40
1.0
 40
1.0
 40
1.0
 10
11.7195457038
 20
10.7670206173
 30
0.0
 10
11.7195457038
 20
10.7633501467
 30
0.0
 10
11.7194244066
 20
10.7596784905
 30
0.0
 10
11.7191818121
 20
10.7560151446
 30
0.0
 11
11.7195457038
 21
10.7670206173
 31
0.0
 11
11.7191818121
 21
10.7560151446
 31
0.0
  0
SPLINE
  5
3C5
100
AcDbEntity
  8
0
100
AcDbSpline
 62
7
  6
CONTINUOUS
 70
0
 71
3
 72
8
 73
4
 74
2
 42
0.0000001
 43
0.0000001
 44
0.0000000001
 12
-0.0079601433
 22
-0.0005874985
 32
0.0
 13
-0.0079793774
 23
0.0
 33
0.0
 40
0.0
 40
0.0
 40
0.0
 40
0.0
 40
1.0
 40
1.0
 40
1.0
 40
1.0
 10
11.6025197316
 20
10.6229770374
 30
0.0
 10
11.5998663505
 20
10.6227812046
 30
0.0
 10
11.5972054963
 20
10.62268305
 30
0.0
 10
11.5945457038
 20
10.62268305
 30
0.0
 11
11.6025197316
 21
10.6229770374
 31
0.0
 11
11.5945457038
 21
10.62268305
 31
0.0
  0
SPLINE
  5
3C6
100
AcDbEntity
  8
0
100
AcDbSpline
 62
7
  6
CONTINUOUS
 70
0
 71
3
 72
30
 73
26
 74
24
 42
0.0000001
 43
0.0000001
 44
0.0000000001
 12
-0.2259846986
 22
-0.03579246
 32
0.0
 13
-0.0363413048
 23
0.2259347399
 33
0.0
 40
0.0
 40
0.0
 40
0.0
 40
0.0
 40
0.031885853
 40
0.0639553816
 40
0.0963924211
 40
0.1293809842
 40
0.1631050023
 40
0.1977476265
 40
0.2334899543
 40
0.2705090277
 40
0.3089749545
 40
0.3490470533
 40
0.3908689514
 40
0.4345626558
 40
0.4802217284
 40
0.5279038477
 40
0.5776232117
 40
0.6293434211
 40
0.6829716328
 40
0.7383548694
 40
0.795279337
 40
0.8534734441
 40
0.9126148762
 40
0.9723416304
 40
1.0
 40
1.0
 40
1.0
 40
1.0
 10
11.9794553838
 20
10.1814330811
 30
0.0
 10
11.9770534788
 20
10.1810526568
 30
0.0
 10
11.9722042143
 20
10.1804758778
 30
0.0
 10
11.964851884
 20
10.1801739194
 30
0.0
 10
11.9574136124
 20
10.1804421368
 30
0.0
 10
11.949892485
 20
10.181293918
 30
0.0
 10
11.9422927403
 20
10.1827474833
 30
0.0
 10
11.9346216694
 20
10.1848256317
 30
0.0
 10
11.9268903673
 20
10.1875550875
 30
0.0
 10
11.919114828
 20
10.1909656446
 30
0.0
 10
11.9113169383
 20
10.1950889997
 30
0.0
 10
11.90352544
 20
10.1999572541
 30
0.0
 10
11.8957767598
 20
10.2056010508
 30
0.0
 10
11.8881156294
 20
10.2120473458
 30
0.0
 10
11.880595388
 20
10.2193168459
 30
0.0
 10
11.8732778528
 20
10.2274211943
 30
0.0
 10
11.8662326419
 20
10.2363600442
 30
0.0
 10
11.8595358591
 20
10.2461182247
 30
0.0
 10
11.8532680871
 20
10.2566632592
 30
0.0
 10
11.847511707
 20
10.2679435329
 30
0.0
 10
11.8423476435
 20
10.2798874091
 30
0.0
 10
11.8378517319
 20
10.2924035479
 30
0.0
 10
11.8340909859
 20
10.3053825803
 30
0.0
 10
11.8316562557
 20
10.3162967584
 30
0.0
 10
11.8305027706
 20
10.3228626025
 30
0.0
 10
11.8301677235
 20
10.324945598
 30
0.0
 11
11.9794553838
 21
10.1814330811
 31
0.0
 11
11.9722109497
 21
10.1805711027
 31
0.0
 11
11.9648796163
 21
10.1802688766
 31
0.0
 11
11.957462725
 21
10.1805345337
 31
0.0
 11
11.9499625481
 21
10.1813814034
 31
0.0
 11
11.9423832148
 21
10.1828278002
 31
0.0
 11
11.9347316807
 21
10.1848966353
 31
0.0
 11
11.9270187322
 21
10.1876148183
 31
0.0
 11
11.9192600144
 21
10.1910124069
 31
0.0
 11
11.9114770549
 21
10.1951214597
 31
0.0
 11
11.9036982358
 21
10.1999745505
 31
0.0
 11
11.895959649
 21
10.2056029137
 31
0.0
 11
11.8883057469
 21
10.2120342124
 31
0.0
 11
11.8807896818
 21
10.219289959
 31
0.0
 11
11.8734732146
 21
10.2273826641
 31
0.0
 11
11.8664260753
 21
10.2363128532
 31
0.0
 11
11.8597246729
 21
10.2460661554
 31
0.0
 11
11.8534500977
 21
10.2566107301
 31
0.0
 11
11.8476854242
 21
10.2678953396
 31
0.0
 11
11.842512411
 21
10.2798483815
 31
0.0
 11
11.8380077941
 21
10.2923781524
 31
0.0
 11
11.8342394611
 21
10.3053745125
 31
0.0
 11
11.8312628593
 21
10.3187119739
 31
0.0
 11
11.8301677235
 21
10.324945598
 31
0.0
  0
SPLINE
  5
3C7
100
AcDbEntity
  8
0
100
AcDbSpline
 62
7
  6
CONTINUOUS
 70
0
 71
3
 72
30
 73
26
 74
24
 42
0.0000001
 43
0.0000001
 44
0.0000000001
 12
0.2233834548
 22
0.0
 32
0.0
 13
0.0001286831
 23
-0.2234210223
 33
0.0
 40
0.0
 40
0.0
 40
0.0
 40
0.0
 40
0.0335880137
 40
0.0673413202
 40
0.1014248764
 40
0.1360028503
 40
0.1712379409
 40
0.2072903448
 40
0.2443162725
 40
0.2824659053
 40
0.3218807088
 40
0.3626900566
 40
0.4050071548
 40
0.448924332
 40
0.4945078425
 40
0.5417924371
 40
0.5907760641
 40
0.6414151718
 40
0.6936211576
 40
0.7472585376
 40
0.802145359
 40
0.8580562418
 40
0.9147282061
 40
0.9718691509
 40
1.0
 40
1.0
 40
1.0
 40
1.0
 10
11.2355456767
 20
10.5036478436
 30
0.0
 10
11.2380466788
 20
10.5036478436
 30
0.0
 10
11.2430630792
 20
10.5034565795
 30
0.0
 10
11.2505729057
 20
10.5025945322
 30
0.0
 10
11.2580684937
 20
10.5011509817
 30
0.0
 10
11.2655398861
 20
10.4991159777
 30
0.0
 10
11.2729754242
 20
10.4964761164
 30
0.0
 10
11.2803600173
 20
10.4932150961
 30
0.0
 10
11.2876746301
 20
10.4893144674
 30
0.0
 10
11.2948954961
 20
10.4847546018
 30
0.0
 10
11.3019935083
 20
10.4795158954
 30
0.0
 10
11.3089337174
 20
10.4735802178
 30
0.0
 10
11.3156750301
 20
10.4669326028
 30
0.0
 10
11.3221701625
 20
10.4595631517
 30
0.0
 10
11.3283659228
 20
10.4514690949
 30
0.0
 10
11.3342038908
 20
10.4426569184
 30
0.0
 10
11.3396215435
 20
10.4331444251
 30
0.0
 10
11.3445538536
 20
10.4229625681
 30
0.0
 10
11.3489353431
 20
10.4121568631
 30
0.0
 10
11.3527025237
 20
10.4007881856
 30
0.0
 10
11.3557965962
 20
10.388932774
 30
0.0
 10
11.3581662291
 20
10.3766813118
 30
0.0
 10
11.3597701926
 20
10.3641370387
 30
0.0
 10
11.3604416343
 20
10.3535819474
 30
0.0
 10
11.3605444438
 20
10.3472315007
 30
0.0
 10
11.3605456505
 20
10.345136493
 30
0.0
 11
11.2355456767
 21
10.5036478436
 31
0.0
 11
11.2430432455
 21
10.5033622425
 31
0.0
 11
11.250534098
 21
10.5025033611
 31
0.0
 11
11.2580107074
 21
10.5010650364
 31
0.0
 11
11.2654639269
 21
10.499037237
 31
0.0
 11
11.2728821832
 21
10.4964064366
 31
0.0
 11
11.2802506794
 21
10.4931561604
 31
0.0
 11
11.2875506239
 21
10.4892677269
 31
0.0
 11
11.2947585071
 21
10.4847212063
 31
0.0
 11
11.3018454607
 21
10.4794966171
 31
0.0
 11
11.308776747
 21
10.4735753711
 31
0.0
 11
11.3155114345
 21
10.4669419669
 31
0.0
 11
11.3220023303
 21
10.4595859051
 31
0.0
 11
11.3281962397
 21
10.4515037722
 31
0.0
 11
11.3340346238
 21
10.4427014028
 31
0.0
 11
11.3394547118
 21
10.4331959888
 31
0.0
 11
11.3443910954
 21
10.4230179695
 31
0.0
 11
11.3487777939
 21
10.4122125063
 31
0.0
 11
11.3525507227
 21
10.4008403377
 31
0.0
 11
11.3556504392
 21
10.3889778267
 31
0.0
 11
11.3580249802
 21
10.3767160643
 31
0.0
 11
11.359632563
 21
10.3641589698
 31
0.0
 11
11.360443901
 21
10.3514204397
 31
0.0
 11
11.3605456505
 21
10.345136493
 31
0.0
  0
SPLINE
  5
3C8
100
AcDbEntity
  8
0
100
AcDbSpline
 62
7
  6
CONTINUOUS
 70
0
 71
3
 72
22
 73
18
 74
16
 42
0.0000001
 43
0.0000001
 44
0.0000000001
 12
-0.0345376026
 22
-0.0744277549
 32
0.0
 13
0.0822206193
 23
-0.0011868809
 33
0.0
 40
0.0
 40
0.0
 40
0.0
 40
0.0
 40
0.03460786
 40
0.106866239
 40
0.1797254682
 40
0.2533554301
 40
0.3278683378
 40
0.4032740427
 40
0.4794127799
 40
0.5558682591
 40
0.6318840262
 40
0.706347239
 40
0.7779306528
 40
0.8454407264
 40
0.9082767813
 40
0.9668068647
 40
1.0
 40
1.0
 40
1.0
 40
1.0
 10
11.6266896311
 20
10.0448792852
 30
0.0
 10
11.6262912069
 20
10.0440206901
 30
0.0
 10
11.6251162387
 20
10.0413437516
 30
0.0
 10
11.6234398364
 20
10.036717268
 30
0.0
 10
11.6219362893
 20
10.0309188064
 30
0.0
 10
11.6210052226
 20
10.0249377647
 30
0.0
 10
11.6207026703
 20
10.0188211537
 30
0.0
 10
11.6210841975
 20
10.012638668
 30
0.0
 10
11.6221971998
 20
10.0064894934
 30
0.0
 10
11.6240689548
 20
10.0005078499
 30
0.0
 10
11.6266912084
 20
9.9948633086
 30
0.0
 10
11.6300058868
 20
9.9897507539
 30
0.0
 10
11.633900627
 20
9.9853677747
 30
0.0
 10
11.6382220976
 20
9.9818861084
 30
0.0
 10
11.6428041495
 20
9.9794315843
 30
0.0
 10
11.6469011899
 20
9.9782560882
 30
0.0
 10
11.6494122522
 20
9.9780359907
 30
0.0
 10
11.6503219723
 20
9.9780228586
 30
0.0
 11
11.6266896311
 21
10.0448792852
 31
0.0
 11
11.625548882
 21
10.0422791143
 31
0.0
 11
11.6235337398
 21
10.0367051891
 31
0.0
 11
11.6220379981
 21
10.030919098
 31
0.0
 11
11.6211135883
 21
10.0249507488
 31
0.0
 11
11.6208165064
 21
10.0188460356
 31
0.0
 11
11.6212027949
 21
10.0126729405
 31
0.0
 11
11.622321248
 21
10.0065286104
 31
0.0
 11
11.6242016607
 21
10.0005458879
 31
0.0
 11
11.6268386207
 21
9.99489573
 31
0.0
 11
11.6301745666
 21
9.989779341
 31
0.0
 11
11.6340914531
 21
9.9854050735
 31
0.0
 11
11.6384220802
 21
9.9819540024
 31
0.0
 11
11.6429817551
 21
9.9795509758
 31
0.0
 11
11.6476052613
 21
9.9782578235
 31
0.0
 11
11.6503219723
 21
9.9780228586
 31
0.0
  0
SPLINE
  5
3C9
100
AcDbEntity
  8
0
100
AcDbSpline
 62
7
  6
CONTINUOUS
 70
0
 71
3
 72
8
 73
4
 74
2
 42
0.0000001
 43
0.0000001
 44
0.0000000001
 12
0.0002645195
 22
-0.0000038184
 32
0.0
 13
0.0002645505
 23
-0.0000000583
 33
0.0
 40
0.0
 40
0.0
 40
0.0
 40
0.0
 40
1.0
 40
1.0
 40
1.0
 40
1.0
 10
11.6503219723
 20
9.9780228586
 30
0.0
 10
11.6504101454
 20
9.9780215858
 30
0.0
 10
11.6504983281
 20
9.9780209379
 30
0.0
 10
11.6505865116
 20
9.9780209185
 30
0.0
 11
11.6503219723
 21
9.9780228586
 31
0.0
 11
11.6505865116
 21
9.9780209185
 31
0.0
  0
SPLINE
  5
3CA
100
AcDbEntity
  8
0
100
AcDbSpline
 62
7
  6
CONTINUOUS
 70
0
 71
3
 72
8
 73
4
 74
2
 42
0.0000001
 43
0.0000001
 44
0.0000000001
 12
0.0086895185
 22
0.0033355936
 32
0.0
 13
0.0089034497
 23
0.002713394
 33
0.0
 40
0.0
 40
0.0
 40
0.0
 40
0.0
 40
1.0
 40
1.0
 40
1.0
 40
1.0
 10
11.5497497102
 20
10.0397181291
 30
0.0
 10
11.5526462163
 20
10.0408299937
 30
0.0
 10
11.5555820373
 20
10.0418394397
 30
0.0
 10
11.5585498538
 20
10.0427439044
 30
0.0
 11
11.5497497102
 21
10.0397181291
 31
0.0
 11
11.5585498538
 21
10.0427439044
 31
0.0
  0
SPLINE
  5
3CB
100
AcDbEntity
  8
0
100
AcDbSpline
 62
7
  6
CONTINUOUS
 70
0
 71
3
 72
27
 73
23
 74
21
 42
0.0000001
 43
0.0000001
 44
0.0000000001
 12
0.1729942605
 22
0.052721317
 32
0.0
 13
0.0768088448
 23
-0.1637414523
 33
0.0
 40
0.0
 40
0.0
 40
0.0
 40
0.0
 40
0.0514369805
 40
0.1028129128
 40
0.1540996777
 40
0.2052706796
 40
0.25630189
 40
0.307172353
 40
0.3578646106
 40
0.4083650369
 40
0.4586640785
 40
0.5087563981
 40
0.5586409239
 40
0.6083208077
 40
0.6578032981
 40
0.7070995366
 40
0.7562242856
 40
0.8051955957
 40
0.854034423
 40
0.9027642044
 40
0.9514103994
 40
1.0
 40
1.0
 40
1.0
 40
1.0
 10
11.5585498538
 20
10.0427439044
 30
0.0
 10
11.5615159546
 20
10.0436478462
 30
0.0
 10
11.5675085153
 20
10.0452450613
 30
0.0
 10
11.5766370925
 20
10.046998385
 30
0.0
 10
11.5858508591
 20
10.048100076
 30
0.0
 10
11.5950987203
 20
10.0485461959
 30
0.0
 10
11.6043298678
 20
10.0483369843
 30
0.0
 10
11.6134942377
 20
10.0474767407
 30
0.0
 10
11.6225429029
 20
10.045973646
 30
0.0
 10
11.631428421
 20
10.0438395395
 30
0.0
 10
11.6401051309
 20
10.0410896617
 30
0.0
 10
11.6485293955
 20
10.0377423732
 30
0.0
 10
11.6566597886
 20
10.0338188619
 30
0.0
 10
11.66445723
 20
10.0293428481
 30
0.0
 10
11.6718850702
 20
10.0243402983
 30
0.0
 10
11.6789091313
 20
10.0188391555
 30
0.0
 10
11.6854977124
 20
10.0128690913
 30
0.0
 10
11.6916215631
 20
10.006461293
 30
0.0
 10
11.6972538457
 20
9.9996482587
 30
0.0
 10
11.7023700534
 20
9.9924637097
 30
0.0
 10
11.7069480435
 20
9.9849422267
 30
0.0
 10
11.7096288166
 20
9.9797254157
 30
0.0
 10
11.7108728536
 20
9.9770733718
 30
0.0
 11
11.5585498538
 21
10.0427439044
 31
0.0
 11
11.5675365737
 21
10.0451390265
 31
0.0
 11
11.5766592456
 21
10.0468909977
 31
0.0
 11
11.5858669486
 21
10.0479916681
 31
0.0
 11
11.5951085436
 21
10.0484371188
 31
0.0
 11
11.6043332133
 21
10.0482276227
 31
0.0
 11
11.6134908941
 21
10.0473675179
 31
0.0
 11
11.6225326699
 21
10.0458650281
 31
0.0
 11
11.6314111214
 21
10.0437320365
 31
0.0
 11
11.6400806222
 21
10.0409838261
 31
0.0
 11
11.6484975812
 21
10.0376387963
 31
0.0
 11
11.6566206294
 21
10.0337181673
 31
0.0
 11
11.6644107521
 21
10.0292456835
 31
0.0
 11
11.6718313725
 21
10.0242473254
 31
0.0
 11
11.6788483909
 21
10.0187510386
 31
0.0
 11
11.6854301864
 21
10.0127864861
 31
0.0
 11
11.6915475905
 21
10.0063848301
 31
0.0
 11
11.6971738399
 21
9.9995785454
 31
0.0
 11
11.7022845176
 21
9.9924012666
 31
0.0
 11
11.7068574909
 21
9.9848876672
 31
0.0
 11
11.7108728536
 21
9.9770733718
 31
0.0
  0
SPLINE
  5
3CC
100
AcDbEntity
  8
0
100
AcDbSpline
 62
7
  6
CONTINUOUS
 70
0
 71
3
 72
15
 73
11
 74
9
 42
0.0000001
 43
0.0000001
 44
0.0000000001
 12
-0.0546170913
 22
0.0388565046
 32
0.0
 13
-0.0668581522
 23
0.0048359405
 33
0.0
 40
0.0
 40
0.0
 40
0.0
 40
0.0
 40
0.0781371603
 40
0.2111174056
 40
0.3435608416
 40
0.4755242825
 40
0.607073521
 40
0.7382819959
 40
0.8692293678
 40
1.0
 40
1.0
 40
1.0
 40
1.0
 10
11.6655575512
 20
10.8730402347
 30
0.0
 10
11.6641350097
 20
10.8740522804
 30
0.0
 10
11.6602341789
 20
10.8767061731
 30
0.0
 10
11.6536483221
 20
10.8806591231
 30
0.0
 10
11.6457220649
 20
10.884672776
 30
0.0
 10
11.6375573082
 20
10.8880939646
 30
0.0
 10
11.6291936678
 20
10.8909099293
 30
0.0
 10
11.6206709297
 20
10.8931104518
 30
0.0
 10
11.6120287206
 20
10.8946877293
 30
0.0
 10
11.6062118984
 20
10.8953203756
 30
0.0
 10
11.6032975374
 20
10.8955311753
 30
0.0
 11
11.6655575512
 21
10.8730402347
 31
0.0
 11
11.6612274963
 21
10.8759859617
 31
0.0
 11
11.6535862958
 21
10.8805716444
 31
0.0
 11
11.6456677483
 21
10.884580779
 31
0.0
 11
11.637511206
 21
10.8879980015
 31
0.0
 11
11.6291562317
 21
10.8908106203
 31
0.0
 11
11.6206424934
 21
10.8930084759
 31
0.0
 11
11.6120096944
 21
10.8945838134
 31
0.0
 11
11.6032975374
 21
10.8955311753
 31
0.0
  0
SPLINE
  5
3CD
100
AcDbEntity
  8
0
100
AcDbSpline
 62
7
  6
CONTINUOUS
 70
0
 71
3
 72
8
 73
4
 74
2
 42
0.0000001
 43
0.0000001
 44
0.0000000001
 12
-0.0087371248
 22
0.000631968
 32
0.0
 13
-0.0087575419
 23
0.0
 33
0.0
 40
0.0
 40
0.0
 40
0.0
 40
0.0
 40
1.0
 40
1.0
 40
1.0
 40
1.0
 10
11.6032975374
 20
10.8955311753
 30
0.0
 10
11.6003851625
 20
10.8957418313
 30
0.0
 10
11.5974648845
 20
10.8958473209
 30
0.0
 10
11.5945457038
 20
10.8958473209
 30
0.0
 11
11.6032975374
 21
10.8955311753
 31
0.0
 11
11.5945457038
 21
10.8958473209
 31
0.0
  0
SPLINE
  5
3CE
100
AcDbEntity
  8
0
100
AcDbSpline
 62
7
  6
CONTINUOUS
 70
0
 71
3
 72
27
 73
23
 74
21
 42
0.0000001
 43
0.0000001
 44
0.0000000001
 12
0.184109259
 22
-0.0134132091
 32
0.0
 13
0.0129187516
 23
-0.1841410409
 33
0.0
 40
0.0
 40
0.0
 40
0.0
 40
0.0
 40
0.0461810937
 40
0.0925212652
 40
0.1390780306
 40
0.185917345
 40
0.2331022173
 40
0.2806898166
 40
0.3287309376
 40
0.3772686665
 40
0.4263373632
 40
0.4759616416
 40
0.5261553991
 40
0.5769211347
 40
0.6282492993
 40
0.6801180854
 40
0.7324933587
 40
0.7853290756
 40
0.83856797
 40
0.8921427105
 40
0.9459773642
 40
1.0
 40
1.0
 40
1.0
 40
1.0
 10
11.6030531162
 20
10.9002158713
 30
0.0
 10
11.6058872385
 20
10.9000093924
 30
0.0
 10
11.6115495985
 20
10.8993890351
 30
0.0
 10
11.6199715204
 20
10.8978407939
 30
0.0
 10
11.6282979611
 20
10.8956752656
 30
0.0
 10
11.6364948095
 20
10.8928952306
 30
0.0
 10
11.6445274225
 20
10.8895046327
 30
0.0
 10
11.6523600282
 20
10.8855090617
 30
0.0
 10
11.6599555025
 20
10.8809162224
 30
0.0
 10
11.6672754334
 20
10.8757364083
 30
0.0
 10
11.6742802341
 20
10.8699830157
 30
0.0
 10
11.6809293865
 20
10.8636730546
 30
0.0
 10
11.6871818022
 20
10.8568276351
 30
0.0
 10
11.6929962988
 20
10.8494724026
 30
0.0
 10
11.6983321935
 20
10.841637883
 30
0.0
 10
11.7031499897
 20
10.8333597198
 30
0.0
 10
11.7074121433
 20
10.82467876
 30
0.0
 10
11.7110838735
 20
10.8156409872
 30
0.0
 10
11.7141339881
 20
10.8062972431
 30
0.0
 10
11.7165356781
 20
10.7967028585
 30
0.0
 10
11.7182673595
 20
10.7869160995
 30
0.0
 10
11.7189635932
 20
10.780312664
 30
0.0
 10
11.7191962282
 20
10.7769967358
 30
0.0
 11
11.6030531162
 21
10.9002158713
 31
0.0
 11
11.611524989
 21
10.8992880521
 31
0.0
 11
11.6199360157
 21
10.8977423016
 31
0.0
 11
11.6282514217
 21
10.8955803589
 31
0.0
 11
11.6364376962
 21
10.8928048196
 31
0.0
 11
11.6444604648
 21
10.8894194932
 31
0.0
 11
11.6522840156
 21
10.8854298593
 31
0.0
 11
11.6598713258
 21
10.8808434775
 31
0.0
 11
11.667184042
 21
10.8756704901
 31
0.0
 11
11.6741826153
 21
10.8699241321
 31
0.0
 11
11.6808265389
 21
10.8636212472
 31
0.0
 11
11.6870747001
 21
10.8567827886
 31
0.0
 11
11.6928858696
 21
10.8494342493
 31
0.0
 11
11.6982192825
 21
10.8416060307
 31
0.0
 11
11.7030353413
 21
10.8333336705
 31
0.0
 11
11.7072963778
 21
10.824657952
 31
0.0
 11
11.7109674785
 21
10.8156248241
 31
0.0
 11
11.7140173131
 21
10.8062851556
 31
0.0
 11
11.7164189434
 21
10.7966942849
 31
0.0
 11
11.7181505563
 21
10.7869113956
 31
0.0
 11
11.7191962282
 21
10.7769967358
 31
0.0
  0
SPLINE
  5
3CF
100
AcDbEntity
  8
0
100
AcDbSpline
 62
7
  6
CONTINUOUS
 70
0
 71
3
 72
8
 73
4
 74
2
 42
0.0000001
 43
0.0000001
 44
0.0000000001
 12
0.0086336465
 22
0.0
 32
0.0
 13
0.0086140835
 23
0.0006142234
 33
0.0
 40
0.0
 40
0.0
 40
0.0
 40
0.0
 40
1.0
 40
1.0
 40
1.0
 40
1.0
 10
11.5945457038
 20
10.850122722
 30
0.0
 10
11.597423586
 20
10.850122722
 30
0.0
 10
11.6003025197
 20
10.8502252452
 30
0.0
 10
11.6031738808
 20
10.8504299863
 30
0.0
 11
11.5945457038
 21
10.850122722
 31
0.0
 11
11.6031738808
 21
10.8504299863
 31
0.0
  0
SPLINE
  5
3D0
100
AcDbEntity
  8
0
100
AcDbSpline
 62
7
  6
CONTINUOUS
 70
0
 71
3
 72
16
 73
12
 74
10
 42
0.0000001
 43
0.0000001
 44
0.0000000001
 12
0.0702262918
 22
0.0050074547
 32
0.0
 13
0.0562854891
 23
0.0422865814
 33
0.0
 40
0.0
 40
0.0
 40
0.0
 40
0.0
 40
0.1227303805
 40
0.2456283648
 40
0.3687647683
 40
0.4922123549
 40
0.6160387073
 40
0.7403042742
 40
0.8650618012
 40
0.9903547689
 40
1.0
 40
1.0
 40
1.0
 40
1.0
 10
11.6031738808
 20
10.8504299863
 30
0.0
 10
11.6060468473
 20
10.8506348419
 30
0.0
 10
11.6117815316
 20
10.8512496371
 30
0.0
 10
11.6203041044
 20
10.8527825164
 30
0.0
 10
11.6287123785
 20
10.8549213488
 30
0.0
 10
11.6369682492
 20
10.8576587477
 30
0.0
 10
11.6450335962
 20
10.8609850766
 30
0.0
 10
11.6528704603
 20
10.8648883107
 30
0.0
 10
11.6604410622
 20
10.8693539031
 30
0.0
 10
11.6654613359
 20
10.8728155372
 30
0.0
 10
11.6679981817
 20
10.8747106972
 30
0.0
 10
11.6681791439
 20
10.8748466519
 30
0.0
 11
11.6031738808
 21
10.8504299863
 31
0.0
 11
11.6117631549
 21
10.8513506369
 31
0.0
 11
11.6202768496
 21
10.8528817091
 31
0.0
 11
11.6286764898
 21
10.8550180212
 31
0.0
 11
11.6369240293
 21
10.8577522533
 31
0.0
 11
11.6449814748
 21
10.8610748283
 31
0.0
 11
11.6528109035
 21
10.8649737786
 31
0.0
 11
11.6603745986
 21
10.8694346319
 31
0.0
 11
11.6676351536
 21
10.8744402624
 31
0.0
 11
11.6681791439
 21
10.8748466519
 31
0.0
  0
SPLINE
  5
3D1
100
AcDbEntity
  8
0
100
AcDbSpline
 62
7
  6
CONTINUOUS
 70
0
 71
3
 72
16
 73
12
 74
10
 42
0.0000001
 43
0.0000001
 44
0.0000000001
 12
0.0562851945
 22
-0.0422863601
 32
0.0
 13
0.0702259085
 23
-0.0050076418
 33
0.0
 40
0.0
 40
0.0
 40
0.0
 40
0.0
 40
0.0096452766
 40
0.1349389032
 40
0.2596970822
 40
0.3839632944
 40
0.5077902935
 40
0.6312385408
 40
0.7543755906
 40
0.8772742082
 40
1.0
 40
1.0
 40
1.0
 40
1.0
 10
11.5209122638
 20
10.8748466519
 30
0.0
 10
11.5210932259
 20
10.8747106973
 30
0.0
 10
11.5236300716
 20
10.8728155373
 30
0.0
 10
11.5286503453
 20
10.8693539032
 30
0.0
 10
11.5362209471
 20
10.8648883108
 30
0.0
 10
11.5440578111
 20
10.8609850768
 30
0.0
 10
11.5521231582
 20
10.8576587478
 30
0.0
 10
11.5603790292
 20
10.8549213488
 30
0.0
 10
11.5687873035
 20
10.8527825164
 30
0.0
 10
11.5773097552
 20
10.8512496588
 30
0.0
 10
11.5830443159
 20
10.8506348681
 30
0.0
 10
11.5859171593
 20
10.8504300125
 30
0.0
 11
11.5209122638
 21
10.8748466519
 31
0.0
 11
11.5214562538
 21
10.8744402626
 31
0.0
 11
11.5287168089
 21
10.8694346319
 31
0.0
 11
11.536280504
 21
10.8649737787
 31
0.0
 11
11.5441099323
 21
10.8610748285
 31
0.0
 11
11.5521673778
 21
10.8577522536
 31
0.0
 11
11.5604149182
 21
10.8550180211
 31
0.0
 11
11.5688145586
 21
10.852881709
 31
0.0
 11
11.5773282526
 21
10.8513506369
 31
0.0
 11
11.5859171593
 21
10.8504300125
 31
0.0
  0
SPLINE
  5
3D2
100
AcDbEntity
  8
0
100
AcDbSpline
 62
7
  6
CONTINUOUS
 70
0
 71
3
 72
8
 73
4
 74
2
 42
0.0000001
 43
0.0000001
 44
0.0000000001
 12
0.0086144491
 22
-0.0006142758
 32
0.0
 13
0.0086340149
 23
0.0
 33
0.0
 40
0.0
 40
0.0
 40
0.0
 40
0.0
 40
1.0
 40
1.0
 40
1.0
 40
1.0
 10
11.5859171593
 20
10.8504300125
 30
0.0
 10
11.5887886423
 20
10.8502252539
 30
0.0
 10
11.5916676989
 20
10.850122722
 30
0.0
 10
11.5945457038
 20
10.850122722
 30
0.0
 11
11.5859171593
 21
10.8504300125
 31
0.0
 11
11.5945457038
 21
10.850122722
 31
0.0
  0
SPLINE
  5
3D3
100
AcDbEntity
  8
0
100
AcDbSpline
 62
7
  6
CONTINUOUS
 70
0
 71
3
 72
29
 73
25
 74
23
 42
0.0000001
 43
0.0000001
 44
0.0000000001
 12
-0.0712786892
 22
0.1856873339
 32
0.0
 13
0.1857260041
 23
0.0712935333
 33
0.0
 40
0.0
 40
0.0
 40
0.0
 40
0.0
 40
0.0441452996
 40
0.0883165573
 40
0.1325392578
 40
0.176837944
 40
0.2212357605
 40
0.2657540128
 40
0.3104117516
 40
0.355225386
 40
0.400208336
 40
0.4453707302
 40
0.4907191578
 40
0.5362564842
 40
0.5819817349
 40
0.627890058
 40
0.6739727687
 40
0.7202174804
 40
0.7666083222
 40
0.813126244
 40
0.8597494022
 40
0.9064536196
 40
0.9532129093
 40
1.0
 40
1.0
 40
1.0
 40
1.0
 10
11.4747785183
 20
9.8770462804
 30
0.0
 10
11.4737296452
 20
9.8797786881
 30
0.0
 10
11.4718277221
 20
9.8853228668
 30
0.0
 10
11.4695808108
 20
9.8938255021
 30
0.0
 10
11.4679500673
 20
9.9024783273
 30
0.0
 10
11.4669447503
 20
9.9112408991
 30
0.0
 10
11.4665715436
 20
9.920072703
 30
0.0
 10
11.4668347989
 20
9.9289322811
 30
0.0
 10
11.4677363175
 20
9.9377775245
 30
0.0
 10
11.4692752305
 20
9.9465656845
 30
0.0
 10
11.4714478336
 20
9.9552534984
 30
0.0
 10
11.4742474253
 20
9.9637973312
 30
0.0
 10
11.4776641446
 20
9.9721533628
 30
0.0
 10
11.4816848213
 20
9.9802778156
 30
0.0
 10
11.4862928471
 20
9.9881272246
 30
0.0
 10
11.4914680791
 20
9.9956587462
 30
0.0
 10
11.4971867822
 20
10.0028305013
 30
0.0
 10
11.503421622
 20
10.0096019464
 30
0.0
 10
11.5101417127
 20
10.0159342633
 30
0.0
 10
11.5173127262
 20
10.0217907576
 30
0.0
 10
11.5248970652
 20
10.0271372537
 30
0.0
 10
11.5328540993
 20
10.0319424749
 30
0.0
 10
11.5411404591
 20
10.0361783938
 30
0.0
 10
11.5468531837
 20
10.0386062568
 30
0.0
 10
11.5497497102
 20
10.0397181291
 30
0.0
 11
11.4747785183
 21
9.8770462804
 31
0.0
 11
11.4719293992
 21
9.8853515918
 31
0.0
 11
11.469684612
 21
9.8938455485
 31
0.0
 11
11.4680554155
 21
9.9024891576
 31
0.0
 11
11.4670508535
 21
9.9112426263
 31
0.0
 11
11.4666776796
 21
9.9200653773
 31
0.0
 11
11.4669402541
 21
9.9289160771
 31
0.0
 11
11.4678404181
 21
9.9377526842
 31
0.0
 11
11.4693773466
 21
9.9465325229
 31
0.0
 11
11.4715473892
 21
9.9552123908
 31
0.0
 11
11.4743439041
 21
9.9637487031
 31
0.0
 11
11.4777570937
 21
9.972097678
 31
0.0
 11
11.4817738527
 21
9.980215564
 31
0.0
 11
11.4863776368
 21
9.98805891
 31
0.0
 11
11.4915483633
 21
9.9955848746
 31
0.0
 11
11.4972623514
 21
10.0027515703
 31
0.0
 11
11.5034923131
 21
10.0095184362
 31
0.0
 11
11.5102073993
 21
10.0158466301
 31
0.0
 11
11.5173733084
 21
10.0216994287
 31
0.0
 11
11.5249524583
 21
10.027042626
 31
0.0
 11
11.532904223
 21
10.0318449156
 31
0.0
 11
11.541185231
 21
10.0360782453
 31
0.0
 11
11.5497497102
 21
10.0397181291
 31
0.0
  0
SPLINE
  5
3D4
100
AcDbEntity
  8
0
100
AcDbSpline
 62
7
  6
CONTINUOUS
 70
0
 71
3
 72
30
 73
26
 74
24
 42
0.0000001
 43
0.0000001
 44
0.0000000001
 12
-0.0358807554
 22
0.2265421735
 32
0.0
 13
0.2265053725
 23
0.0358749267
 33
0.0
 40
0.0
 40
0.0
 40
0.0
 40
0.0
 40
0.0298934943
 40
0.0894829534
 40
0.1484884361
 40
0.2065487719
 40
0.2633423869
 40
0.3185983138
 40
0.3721032503
 40
0.4237045704
 40
0.4733096443
 40
0.5208821563
 40
0.5664362719
 40
0.6100295369
 40
0.6517552984
 40
0.6917352829
 40
0.7301127878
 40
0.7670467656
 40
0.8027069331
 40
0.837269925
 40
0.8709164227
 40
0.9038291559
 40
0.936191633
 40
0.9681874435
 40
1.0
 40
1.0
 40
1.0
 40
1.0
 10
11.8300846178
 20
10.3254662569
 30
0.0
 10
11.8297270841
 20
10.3277236359
 30
0.0
 10
11.828762426
 20
10.3344975791
 30
0.0
 10
11.8276887033
 20
10.345804999
 30
0.0
 10
11.8272546433
 20
10.359310927
 30
0.0
 10
11.8276628095
 20
10.3726037956
 30
0.0
 10
11.8288832647
 20
10.3855588806
 30
0.0
 10
11.830872111
 20
10.398065878
 30
0.0
 10
11.8335745214
 20
10.4100316502
 30
0.0
 10
11.8369280965
 20
10.4213816514
 30
0.0
 10
11.8408662336
 20
10.4320600931
 30
0.0
 10
11.8453212417
 20
10.4420290294
 30
0.0
 10
11.850227017
 20
10.4512666175
 30
0.0
 10
11.8555211702
 20
10.459764828
 30
0.0
 10
11.8611465738
 20
10.4675268717
 30
0.0
 10
11.8670523556
 20
10.4745645624
 30
0.0
 10
11.8731944027
 20
10.4808957869
 30
0.0
 10
11.87953546
 20
10.4865421935
 30
0.0
 10
11.8860449172
 20
10.4915271643
 30
0.0
 10
11.8926983562
 20
10.4958740925
 30
0.0
 10
11.8994769669
 20
10.4996049658
 30
0.0
 10
11.9063667696
 20
10.5027392142
 30
0.0
 10
11.9133581027
 20
10.5052928565
 30
0.0
 10
11.9204438948
 20
10.5072776722
 30
0.0
 10
11.9252340541
 20
10.5082276279
 30
0.0
 10
11.9276359591
 20
10.5086080523
 30
0.0
 11
11.8300846178
 21
10.3254662569
 31
0.0
 11
11.8291180045
 21
10.3322540531
 31
0.0
 11
11.8278274185
 21
10.3458585533
 31
0.0
 11
11.8273952197
 21
10.3593833054
 31
0.0
 11
11.8278074525
 21
10.372691829
 31
0.0
 11
11.8290335871
 21
10.3856583967
 31
0.0
 11
11.831028981
 21
10.3981720805
 31
0.0
 11
11.8337380036
 21
10.4101395177
 31
0.0
 11
11.8370974798
 21
10.4214863069
 31
0.0
 11
11.8410401272
 21
10.4321571075
 31
0.0
 11
11.8454977175
 21
10.4421146404
 31
0.0
 11
11.8504037711
 21
10.4513378576
 31
0.0
 11
11.8556956838
 21
10.4598195722
 31
0.0
 11
11.8613162573
 21
10.4675638187
 31
0.0
 11
11.8672146663
 21
10.4745831699
 31
0.0
 11
11.8733469335
 21
10.4808961783
 31
0.0
 11
11.879676
 21
10.486525053
 31
0.0
 11
11.8861714854
 21
10.4914936312
 31
0.0
 11
11.8928092218
 21
10.4958256647
 31
0.0
 11
11.8995706353
 21
10.4995434129
 31
0.0
 11
11.9064420306
 21
10.5026665161
 31
0.0
 11
11.9134138211
 21
10.5052111167
 31
0.0
 11
11.9204797268
 21
10.5071891893
 31
0.0
 11
11.9276359591
 21
10.5086080523
 31
0.0
  0
SPLINE
  5
3D5
100
AcDbEntity
  8
0
100
AcDbSpline
 62
7
  6
CONTINUOUS
 70
0
 71
3
 72
51
 73
47
 74
45
 42
0.0000001
 43
0.0000001
 44
0.0000000001
 12
0.0
 22
0.4235305272
 32
0.0
 13
0.0
 23
-0.4235305272
 33
0.0
 40
0.0
 40
0.0
 40
0.0
 40
0.0
 40
0.0265622499
 40
0.0530343602
 40
0.0793291408
 40
0.1053651224
 40
0.1310689904
 40
0.1563775592
 40
0.1812392076
 40
0.2056147506
 40
0.229477763
 40
0.2528144157
 40
0.2756229049
 40
0.2979125732
 40
0.3197028234
 40
0.3410219164
 40
0.3619057336
 40
0.3823965676
 40
0.4025419833
 40
0.4223937798
 40
0.4420070629
 40
0.4614394274
 40
0.4807502398
 40
0.4999999999
 40
0.51924976
 40
0.5385605724
 40
0.557992937
 40
0.57760622
 40
0.5974580166
 40
0.6176034323
 40
0.6380942662
 40
0.6589780835
 40
0.6802971765
 40
0.7020874267
 40
0.724377095
 40
0.7471855842
 40
0.7705222369
 40
0.7943852494
 40
0.8187607923
 40
0.8436224408
 40
0.8689310095
 40
0.8946348776
 40
0.9206708592
 40
0.9469656398
 40
0.9734377501
 40
1.0
 40
1.0
 40
1.0
 40
1.0
 10
11.4695457038
 20
10.7670206176
 30
0.0
 10
11.4695457038
 20
10.7707705921
 30
0.0
 10
11.4697984919
 20
10.7782602865
 30
0.0
 10
11.4709315753
 20
10.7894104165
 30
0.0
 10
11.4728032525
 20
10.8003857319
 30
0.0
 10
11.4753891122
 20
10.8111033389
 30
0.0
 10
11.4786564732
 20
10.8214873399
 30
0.0
 10
11.4825657307
 20
10.8314692092
 30
0.0
 10
11.4870718951
 20
10.840989087
 30
0.0
 10
11.4921262149
 20
10.8499962555
 30
0.0
 10
11.4976777782
 20
10.8584492631
 30
0.0
 10
11.5036750029
 20
10.8663156249
 30
0.0
 10
11.5100669463
 20
10.8735711962
 30
0.0
 10
11.5168043871
 20
10.8801992924
 30
0.0
 10
11.5238406565
 20
10.8861896405
 30
0.0
 10
11.5311322142
 20
10.8915372392
 30
0.0
 10
11.538638981
 20
10.8962411988
 30
0.0
 10
11.5463244508
 20
10.9003036155
 30
0.0
 10
11.5541556107
 20
10.9037285248
 30
0.0
 10
11.5621027003
 20
10.9065209647
 30
0.0
 10
11.5701388425
 20
10.908686168
 30
0.0
 10
11.5782395741
 20
10.9102288964
 30
0.0
 10
11.5863823013
 20
10.9111529214
 30
0.0
 10
11.5945457039
 20
10.9114606537
 30
0.0
 10
11.6027091066
 20
10.9111529214
 30
0.0
 10
11.6108518338
 20
10.9102288964
 30
0.0
 10
11.6189525654
 20
10.908686168
 30
0.0
 10
11.6269887076
 20
10.9065209647
 30
0.0
 10
11.6349357972
 20
10.9037285248
 30
0.0
 10
11.6427669571
 20
10.9003036154
 30
0.0
 10
11.6504524269
 20
10.8962411987
 30
0.0
 10
11.6579591937
 20
10.8915372391
 30
0.0
 10
11.6652507513
 20
10.8861896403
 30
0.0
 10
11.6722870207
 20
10.8801992923
 30
0.0
 10
11.6790244615
 20
10.873571196
 30
0.0
 10
11.6854164049
 20
10.8663156247
 30
0.0
 10
11.6914136296
 20
10.8584492629
 30
0.0
 10
11.6969651929
 20
10.8499962552
 30
0.0
 10
11.7020195127
 20
10.8409890868
 30
0.0
 10
11.7065256771
 20
10.831469209
 30
0.0
 10
11.7104349346
 20
10.8214873396
 30
0.0
 10
11.7137022956
 20
10.8111033387
 30
0.0
 10
11.7162881552
 20
10.8003857316
 30
0.0
 10
11.7181598324
 20
10.7894104162
 30
0.0
 10
11.7192929158
 20
10.7782602862
 30
0.0
 10
11.7195457038
 20
10.7707705918
 30
0.0
 10
11.7195457038
 20
10.7670206173
 30
0.0
 11
11.4695457038
 21
10.7670206176
 31
0.0
 11
11.4699255305
 21
10.7782641275
 31
0.0
 11
11.4710598491
 21
10.7894183459
 31
0.0
 11
11.4729334104
 21
10.8003962587
 31
0.0
 11
11.4755215592
 21
10.8111152578
 31
0.0
 11
11.4787913073
 21
10.8214989884
 31
0.0
 11
11.4827027072
 21
10.8314788116
 31
0.0
 11
11.4872104205
 21
10.8409948196
 31
0.0
 11
11.4922653676
 21
10.8499963794
 31
0.0
 11
11.4978163512
 21
10.8584422218
 31
0.0
 11
11.5038115622
 21
10.8663001253
 31
0.0
 11
11.5101998983
 21
10.8735462642
 31
0.0
 11
11.5169320483
 21
10.8801643045
 31
0.0
 11
11.5239613206
 21
10.8861443336
 31
0.0
 11
11.5312442127
 21
10.891481702
 31
0.0
 11
11.5387407348
 21
10.8961758491
 31
0.0
 11
11.5464145123
 21
10.9002291676
 31
0.0
 11
11.5542326963
 21
10.9036459513
 31
0.0
 11
11.5621657142
 21
10.9064314551
 31
0.0
 11
11.5701868936
 21
10.9085910867
 31
0.0
 11
11.5782719864
 21
10.9101297417
 31
0.0
 11
11.5863986213
 21
10.9110512855
 31
0.0
 11
11.5945457039
 21
10.9113581846
 31
0.0
 11
11.6026927866
 21
10.9110512855
 31
0.0
 11
11.6108194215
 21
10.9101297417
 31
0.0
 11
11.6189045143
 21
10.9085910867
 31
0.0
 11
11.6269256937
 21
10.906431455
 31
0.0
 11
11.6348587116
 21
10.9036459512
 31
0.0
 11
11.6426768956
 21
10.9002291675
 31
0.0
 11
11.6503506731
 21
10.896175849
 31
0.0
 11
11.6578471952
 21
10.8914817019
 31
0.0
 11
11.6651300872
 21
10.8861443335
 31
0.0
 11
11.6721593595
 21
10.8801643044
 31
0.0
 11
11.6788915095
 21
10.873546264
 31
0.0
 11
11.6852798456
 21
10.8663001252
 31
0.0
 11
11.6912750566
 21
10.8584422216
 31
0.0
 11
11.6968260402
 21
10.8499963792
 31
0.0
 11
11.7018809873
 21
10.8409948194
 31
0.0
 11
11.7063887006
 21
10.8314788113
 31
0.0
 11
11.7103001004
 21
10.8214989881
 31
0.0
 11
11.7135698485
 21
10.8111152576
 31
0.0
 11
11.7161579974
 21
10.8003962584
 31
0.0
 11
11.7180315586
 21
10.7894183456
 31
0.0
 11
11.7191658772
 21
10.7782641272
 31
0.0
 11
11.7195457038
 21
10.7670206173
 31
0.0
  0
SPLINE
  5
3D6
100
AcDbEntity
  8
0
100
AcDbSpline
 62
7
  6
CONTINUOUS
 70
0
 71
3
 72
8
 73
4
 74
2
 42
0.0000001
 43
0.0000001
 44
0.0000000001
 12
0.0000451458
 22
0.000026489
 32
0.0
 13
0.0000452246
 23
0.0000263553
 33
0.0
 40
0.0
 40
0.0
 40
0.0
 40
0.0
 40
1.0
 40
1.0
 40
1.0
 40
1.0
 10
11.4830091047
 20
10.701907798
 30
0.0
 10
11.4830241533
 20
10.7019166277
 30
0.0
 10
11.483039215
 20
10.7019254351
 30
0.0
 10
11.4830542899
 20
10.7019342202
 30
0.0
 11
11.4830091047
 21
10.701907798
 31
0.0
 11
11.4830542899
 21
10.7019342202
 31
0.0
  0
SPLINE
  5
3D7
100
AcDbEntity
  8
0
100
AcDbSpline
 62
7
  6
CONTINUOUS
 70
0
 71
3
 72
11
 73
7
 74
5
 42
0.0000001
 43
0.0000001
 44
0.0000000001
 12
0.0065719251
 22
0.0038298802
 32
0.0
 13
0.0076139371
 23
-0.0000036426
 33
0.0
 40
0.0
 40
0.0
 40
0.0
 40
0.0
 40
0.0581282739
 40
0.4644535858
 40
0.8456112861
 40
1.0
 40
1.0
 40
1.0
 40
1.0
 10
11.4830542899
 20
10.7019342202
 30
0.0
 10
11.4831816281
 20
10.7020084283
 30
0.0
 10
11.4842065666
 20
10.7025886325
 30
0.0
 10
11.4861800715
 20
10.7034534788
 30
0.0
 10
11.4885303557
 20
10.7039544024
 30
0.0
 10
11.489889763
 20
10.704020664
 30
0.0
 10
11.4902815983
 20
10.7040204765
 30
0.0
 11
11.4830542899
 21
10.7019342202
 31
0.0
 11
11.483439103
 21
10.7021520106
 31
0.0
 11
11.4862726703
 21
10.7033762972
 31
0.0
 11
11.4891078909
 21
10.7039642958
 31
0.0
 11
11.4902815983
 21
10.7040204765
 31
0.0
  0
SPLINE
  5
3D8
100
AcDbEntity
  8
0
100
AcDbSpline
 62
7
  6
CONTINUOUS
 70
0
 71
3
 72
30
 73
26
 74
24
 42
0.0000001
 43
0.0000001
 44
0.0000000001
 12
-0.0
 22
-0.2235369799
 32
0.0
 13
-0.2234993559
 23
0.0
 33
0.0
 40
0.0
 40
0.0
 40
0.0
 40
0.0
 40
0.0286348028
 40
0.0857461161
 40
0.1423886926
 40
0.1982705826
 40
0.2531289424
 40
0.306738509
 40
0.3589174238
 40
0.4095302732
 40
0.4584885003
 40
0.5057485759
 40
0.5513084496
 40
0.595202854
 40
0.6374980093
 40
0.678286196
 40
0.7176805617
 40
0.755810413
 40
0.792817142
 40
0.8288508521
 40
0.8640676726
 40
0.898627717
 40
0.9326935997
 40
0.9664294035
 40
1.0
 40
1.0
 40
1.0
 40
1.0
 10
11.3605456839
 20
10.3450205667
 30
0.0
 10
11.3605456839
 20
10.3428869209
 30
0.0
 10
11.360444089
 20
10.3364977783
 30
0.0
 10
11.3597701938
 20
10.3259041076
 30
0.0
 10
11.3581662311
 20
10.3133598342
 30
0.0
 10
11.355796599
 20
10.3011083716
 30
0.0
 10
11.3527025271
 20
10.2892529596
 30
0.0
 10
11.3489353472
 20
10.2778842815
 30
0.0
 10
11.3445538582
 20
10.2670785758
 30
0.0
 10
11.3396215487
 20
10.2568967182
 30
0.0
 10
11.3342038964
 20
10.2473842242
 30
0.0
 10
11.3283659288
 20
10.2385720469
 30
0.0
 10
11.3221701688
 20
10.2304779894
 30
0.0
 10
11.3156750367
 20
10.2231085376
 30
0.0
 10
11.3089337242
 20
10.2164609218
 30
0.0
 10
11.3019935152
 20
10.2105252436
 30
0.0
 10
11.2948955031
 20
10.2052865364
 30
0.0
 10
11.287674637
 20
10.2007266701
 30
0.0
 10
11.2803600241
 20
10.1968260407
 30
0.0
 10
11.2729754308
 20
10.1935650197
 30
0.0
 10
11.2655398925
 20
10.1909251578
 30
0.0
 10
11.2580684999
 20
10.1888901533
 30
0.0
 10
11.2505729117
 20
10.1874466019
 30
0.0
 10
11.243063085
 20
10.1865845554
 30
0.0
 10
11.2380466846
 20
10.1863932878
 30
0.0
 10
11.2355456824
 20
10.1863932878
 30
0.0
 11
11.3605456839
 21
10.3450205667
 31
0.0
 11
11.3604439014
 21
10.3386207067
 31
0.0
 11
11.3596325643
 21
10.3258821765
 31
0.0
 11
11.3580249822
 21
10.3133250817
 31
0.0
 11
11.3556504419
 21
10.3010633189
 31
0.0
 11
11.3525507262
 21
10.2892008075
 31
0.0
 11
11.348777798
 21
10.2778286382
 31
0.0
 11
11.3443911
 21
10.2670231744
 31
0.0
 11
11.3394547169
 21
10.2568451544
 31
0.0
 11
11.3340346294
 21
10.2473397397
 31
0.0
 11
11.3281962457
 21
10.2385373696
 31
0.0
 11
11.3220023366
 21
10.230455236
 31
0.0
 11
11.3155114411
 21
10.2230991735
 31
0.0
 11
11.3087767538
 21
10.2164657686
 31
0.0
 11
11.3018454677
 21
10.2105445219
 31
0.0
 11
11.2947585141
 21
10.2053199319
 31
0.0
 11
11.2875506308
 21
10.2007734106
 31
0.0
 11
11.2802506862
 21
10.1968849764
 31
0.0
 11
11.2728821898
 21
10.1936346995
 31
0.0
 11
11.2654639333
 21
10.1910038984
 31
0.0
 11
11.2580107135
 21
10.1889760985
 31
0.0
 11
11.2505341039
 21
10.1875377733
 31
0.0
 11
11.2430432513
 21
10.1866788914
 31
0.0
 11
11.2355456824
 21
10.1863932878
 31
0.0
  0
SPLINE
  5
3D9
100
AcDbEntity
  8
0
100
AcDbSpline
 62
7
  6
CONTINUOUS
 70
0
 71
3
 72
31
 73
27
 74
25
 42
0.0000001
 43
0.0000001
 44
0.0000000001
 12
0.0
 22
-0.1417514887
 32
0.0
 13
-0.1417514651
 23
0.0000817071
 33
0.0
 40
0.0
 40
0.0
 40
0.0
 40
0.0
 40
0.03787649
 40
0.0780473155
 40
0.121876966
 40
0.1695785895
 40
0.2204981003
 40
0.2733187535
 40
0.3264928727
 40
0.3791931121
 40
0.4309706959
 40
0.4814186913
 40
0.5302219433
 40
0.5771063776
 40
0.6218256492
 40
0.6642535376
 40
0.7044513396
 40
0.742585084
 40
0.7788578788
 40
0.8134927688
 40
0.8467235011
 40
0.8787867005
 40
0.909923385
 40
0.9403557433
 40
0.9703700116
 40
1.0
 40
1.0
 40
1.0
 40
1.0
 10
11.7195457038
 20
10.7670206173
 30
0.0
 10
11.7195457038
 20
10.7652309343
 30
0.0
 10
11.7189502148
 20
10.7615227789
 30
0.0
 10
11.7164245375
 20
10.7562796277
 30
0.0
 10
11.7125089938
 20
10.7513911949
 30
0.0
 10
11.7074566641
 20
10.7469084246
 30
0.0
 10
11.7015344593
 20
10.7428664014
 30
0.0
 10
11.6950284253
 20
10.7392923912
 30
0.0
 10
11.6881994683
 20
10.7361821061
 30
0.0
 10
11.6812450006
 20
10.7335029386
 30
0.0
 10
11.6742914358
 20
10.7312072177
 30
0.0
 10
11.6674274582
 20
10.7292488794
 30
0.0
 10
11.6607239799
 20
10.7275878611
 30
0.0
 10
11.6542379998
 20
10.7261886351
 30
0.0
 10
11.6480132336
 20
10.7250188724
 30
0.0
 10
11.64207447
 20
10.7240479152
 30
0.0
 10
11.6364246506
 20
10.7232468418
 30
0.0
 10
11.6310492605
 20
10.7225896571
 30
0.0
 10
11.625924648
 20
10.7220542583
 30
0.0
 10
11.6210228407
 20
10.7216224213
 30
0.0
 10
11.616313462
 20
10.7212793832
 30
0.0
 10
11.6117646905
 20
10.7210133809
 30
0.0
 10
11.6073448226
 20
10.7208154105
 30
0.0
 10
11.6030195073
 20
10.7206784494
 30
0.0
 10
11.5987639879
 20
10.7205988239
 30
0.0
 10
11.5959457353
 20
10.7205800574
 30
0.0
 10
11.5945457038
 20
10.7205808644
 30
0.0
 11
11.7195457038
 21
10.7670206173
 31
0.0
 11
11.718727045
 21
10.761714349
 31
0.0
 11
11.7163273279
 21
10.7565504243
 31
0.0
 11
11.7125037041
 21
10.7516534606
 31
0.0
 11
11.7074868487
 21
10.7471199434
 31
0.0
 11
11.7015498991
 21
10.7430149529
 31
0.0
 11
11.6950017651
 21
10.7393840862
 31
0.0
 11
11.6881502115
 21
10.7362423862
 31
0.0
 11
11.6811838205
 21
10.733545103
 31
0.0
 11
11.6742169438
 21
10.7312360733
 31
0.0
 11
11.6673418489
 21
10.7292685895
 31
0.0
 11
11.6606279322
 21
10.7276009178
 31
0.0
 11
11.6541320218
 21
10.7261967653
 31
0.0
 11
11.6479023936
 21
10.725024183
 31
0.0
 11
11.6419671907
 21
10.7240525019
 31
0.0
 11
11.6363256448
 21
10.7232516998
 31
0.0
 11
11.6309601565
 21
10.7225950962
 31
0.0
 11
11.6258463136
 21
10.7220603792
 31
0.0
 11
11.6209557355
 21
10.7216292179
 31
0.0
 11
11.6162576932
 21
10.72128678
 31
0.0
 11
11.611720447
 21
10.7210213031
 31
0.0
 11
11.6073112027
 21
10.7208236662
 31
0.0
 11
11.6029995299
 21
10.7206871933
 31
0.0
 11
11.598745717
 21
10.7206070833
 31
0.0
 11
11.5945457038
 21
10.7205808644
 31
0.0
  0
SPLINE
  5
3DA
100
AcDbEntity
  8
0
100
AcDbSpline
 62
7
  6
CONTINUOUS
 70
0
 71
3
 72
9
 73
5
 74
3
 42
0.0000001
 43
0.0000001
 44
0.0000000001
 12
0.0061347089
 22
-0.0000013516
 32
0.0
 13
0.0057857622
 23
0.0019930257
 33
0.0
 40
0.0
 40
0.0
 40
0.0
 40
0.0
 40
0.2585938468
 40
1.0
 40
1.0
 40
1.0
 40
1.0
 10
11.6505865116
 20
9.9780209185
 30
0.0
 10
11.6511153109
 20
9.978020802
 30
0.0
 10
11.6531603366
 20
9.9781077484
 30
0.0
 10
11.6551781609
 20
9.9785443627
 30
0.0
 10
11.6566080274
 20
9.9790369098
 30
0.0
 11
11.6505865116
 21
9.9780209185
 31
0.0
 11
11.652171154
 21
9.9780891522
 31
0.0
 11
11.6566080274
 21
9.9790369098
 31
0.0
  0
SPLINE
  5
3DB
100
AcDbEntity
  8
0
100
AcDbSpline
 62
7
  6
CONTINUOUS
 70
0
 71
3
 72
14
 73
10
 74
8
 42
0.0000001
 43
0.0000001
 44
0.0000000001
 12
-0.0509433895
 22
0.0
 32
0.0
 13
-0.0476784629
 23
-0.0179662735
 33
0.0
 40
0.0
 40
0.0
 40
0.0
 40
0.0
 40
0.1638857905
 40
0.327589213
 40
0.4909305492
 40
0.6537353658
 40
0.8158371211
 40
0.9770797242
 40
1.0
 40
1.0
 40
1.0
 40
1.0
 10
11.5945457038
 20
10.7130383738
 30
0.0
 10
11.591762738
 20
10.7130383738
 30
0.0
 10
11.586198557
 20
10.7128774439
 30
0.0
 10
11.5778889722
 20
10.7121541949
 30
0.0
 10
11.569653241
 20
10.7109523423
 30
0.0
 10
11.5615283918
 20
10.7092772132
 30
0.0
 10
11.5535504997
 20
10.7071362323
 30
0.0
 10
11.547968714
 20
10.7052764379
 30
0.0
 10
11.545037106
 20
10.7041861158
 30
0.0
 10
11.5446728382
 20
10.7040488518
 30
0.0
 11
11.5945457038
 21
10.7130383738
 31
0.0
 11
11.5862003006
 21
10.7127968444
 31
0.0
 11
11.5778921371
 21
10.712073334
 31
0.0
 11
11.5696582869
 21
10.7108710709
 31
0.0
 11
11.5615354919
 21
10.7091954203
 31
0.0
 11
11.5535599987
 21
10.7070538592
 31
0.0
 11
11.5457673962
 21
10.704455944
 31
0.0
 11
11.5446728382
 21
10.7040488518
 31
0.0
  0
SPLINE
  5
3DC
100
AcDbEntity
  8
0
100
AcDbSpline
 62
7
  6
CONTINUOUS
 70
0
 71
3
 72
31
 73
27
 74
25
 42
0.0000001
 43
0.0000001
 44
0.0000000001
 12
-0.141751465
 22
-0.0000818367
 32
0.0
 13
-0.0
 23
0.1417514886
 33
0.0
 40
0.0
 40
0.0
 40
0.0
 40
0.0
 40
0.0296296134
 40
0.0596439002
 40
0.0900763059
 40
0.1212130481
 40
0.1532762458
 40
0.186506894
 40
0.2211417016
 40
0.2574144726
 40
0.2955486589
 40
0.3357463771
 40
0.3781740822
 40
0.4228927728
 40
0.4697768217
 40
0.5185800764
 40
0.5690279084
 40
0.620805448
 40
0.6735059727
 40
0.7266806282
 40
0.7795017315
 40
0.8304213936
 40
0.8781231413
 40
0.9219528293
 40
0.9621235665
 40
1.0
 40
1.0
 40
1.0
 40
1.0
 10
11.5945457038
 20
10.7205808644
 30
0.0
 10
11.5931456901
 20
10.7205800561
 30
0.0
 10
11.5903274543
 20
10.7205988228
 30
0.0
 10
11.5860719495
 20
10.7206784485
 30
0.0
 10
11.5817466284
 20
10.7208154088
 30
0.0
 10
11.5773267556
 20
10.7210133788
 30
0.0
 10
11.5727779854
 20
10.7212793806
 30
0.0
 10
11.5680686146
 20
10.7216224177
 30
0.0
 10
11.5631668161
 20
10.722054253
 30
0.0
 10
11.5580421877
 20
10.7225896522
 30
0.0
 10
11.5526667819
 20
10.7232468386
 30
0.0
 10
11.5470169543
 20
10.7240479127
 30
0.0
 10
11.5410782302
 20
10.7250188628
 30
0.0
 10
11.5348535171
 20
10.7261886141
 30
0.0
 10
11.5283675807
 20
10.7275878265
 30
0.0
 10
11.521664126
 20
10.7292488327
 30
0.0
 10
11.5148001559
 20
10.7312071619
 30
0.0
 10
11.5078465848
 20
10.7335028752
 30
0.0
 10
11.5008920792
 20
10.7361820466
 30
0.0
 10
11.4940630638
 20
10.7392923488
 30
0.0
 10
11.48755698
 20
10.7428663805
 30
0.0
 10
11.481634746
 20
10.7469084218
 30
0.0
 10
11.4765824056
 20
10.7513912025
 30
0.0
 10
11.4726668622
 20
10.7562796403
 30
0.0
 10
11.4701411908
 20
10.7615227885
 30
0.0
 10
11.4695457038
 20
10.765230937
 30
0.0
 10
11.4695457038
 20
10.7670206173
 30
0.0
 11
11.5945457038
 21
10.7205808644
 31
0.0
 11
11.5903457439
 21
10.720607082
 31
0.0
 11
11.5860919283
 21
10.7206871922
 31
0.0
 11
11.5817802487
 21
10.7208236645
 31
0.0
 11
11.5773709963
 21
10.7210213013
 31
0.0
 11
11.5728337503
 21
10.7212867777
 31
0.0
 11
11.5681357199
 21
10.7216292142
 31
0.0
 11
11.5632451534
 21
10.7220603735
 31
0.0
 11
11.5581313137
 21
10.7225950891
 31
0.0
 11
11.5527657632
 21
10.7232516999
 31
0.0
 11
11.547124229
 21
10.7240525
 31
0.0
 11
11.5411890516
 21
10.7250241764
 31
0.0
 11
11.534959504
 21
10.7261967418
 31
0.0
 11
11.5284636461
 21
10.7276008787
 31
0.0
 11
11.5217497277
 21
10.7292685447
 31
0.0
 11
11.5148746531
 21
10.7312360154
 31
0.0
 11
11.5079077796
 21
10.7335450345
 31
0.0
 11
11.5009413472
 21
10.736242323
 31
0.0
 11
11.494089721
 21
10.7393840469
 31
0.0
 11
11.4875415289
 21
10.7430149404
 31
0.0
 11
11.4816045608
 21
10.747119942
 31
0.0
 11
11.476587693
 21
10.7516534717
 31
0.0
 11
11.4727640688
 21
10.7565504419
 31
0.0
 11
11.4703643603
 21
10.7617143567
 31
0.0
 11
11.4695457038
 21
10.7670206173
 31
0.0
  0
SPLINE
  5
3DD
100
AcDbEntity
  8
0
100
AcDbSpline
 62
7
  6
CONTINUOUS
 70
0
 71
3
 72
8
 73
4
 74
2
 42
0.0000001
 43
0.0000001
 44
0.0000000001
 12
0.0000217077
 22
-0.0000224054
 32
0.0
 13
0.0000217015
 23
-0.0000224114
 33
0.0
 40
0.0
 40
0.0
 40
0.0
 40
0.0
 40
1.0
 40
1.0
 40
1.0
 40
1.0
 10
11.6903035356
 20
10.6743666433
 30
0.0
 10
11.6903107715
 20
10.6743591748
 30
0.0
 10
11.6903180063
 20
10.6743517054
 30
0.0
 10
11.6903252402
 20
10.6743442349
 30
0.0
 11
11.6903035356
 21
10.6743666433
 31
0.0
 11
11.6903252402
 21
10.6743442349
 31
0.0
  0
SPLINE
  5
3DE
100
AcDbEntity
  8
0
100
AcDbSpline
 62
7
  6
CONTINUOUS
 70
0
 71
3
 72
11
 73
7
 74
5
 42
0.0000001
 43
0.0000001
 44
0.0000000001
 12
-0.0108702428
 22
0.0283179505
 32
0.0
 13
-0.0039229314
 23
0.0300778841
 33
0.0
 40
0.0
 40
0.0
 40
0.0
 40
0.0
 40
0.25011527
 40
0.5001840375
 40
0.7501604588
 40
1.0
 40
1.0
 40
1.0
 40
1.0
 10
11.6640430271
 20
9.9496980987
 30
0.0
 10
11.6631367558
 20
9.952059016
 30
0.0
 10
11.6614636071
 20
9.9568352091
 30
0.0
 10
11.6593824606
 20
9.9641333256
 30
0.0
 10
11.657737213
 20
9.9715390382
 30
0.0
 10
11.6569347286
 20
9.9765320283
 30
0.0
 10
11.6566080274
 20
9.9790369098
 30
0.0
 11
11.6640430271
 21
9.9496980987
 31
0.0
 11
11.6615348408
 21
9.9568581492
 31
0.0
 11
11.6594547712
 21
9.964152615
 31
0.0
 11
11.657810481
 21
9.9715546245
 31
0.0
 11
11.6566080274
 21
9.9790369098
 31
0.0
  0
SPLINE
  5
3DF
100
AcDbEntity
  8
0
100
AcDbSpline
 62
7
  6
CONTINUOUS
 70
0
 71
3
 72
17
 73
13
 74
11
 42
0.0000001
 43
0.0000001
 44
0.0000000001
 12
0.0298062641
 22
-0.0776479725
 32
0.0
 13
0.0709633247
 23
-0.0434142233
 33
0.0
 40
0.0
 40
0.0
 40
0.0
 40
0.0
 40
0.1083145968
 40
0.2166008279
 40
0.3248308942
 40
0.4329781201
 40
0.5410174898
 40
0.6489261548
 40
0.7566839008
 40
0.8642735675
 40
0.9716814103
 40
1.0
 40
1.0
 40
1.0
 40
1.0
 10
11.6640430271
 20
9.9496980987
 30
0.0
 10
11.6651191782
 20
9.9468946291
 30
0.0
 10
11.6674689561
 20
9.9413620459
 30
0.0
 10
11.671565869
 20
9.9333343489
 30
0.0
 10
11.6762143951
 20
9.9256178315
 30
0.0
 10
11.6813902061
 20
9.918253099
 30
0.0
 10
11.6870665038
 20
9.9112782451
 30
0.0
 10
11.6932138221
 20
9.9047295297
 30
0.0
 10
11.6998002687
 20
9.8986409573
 30
0.0
 10
11.7067916652
 20
9.8930441627
 30
0.0
 10
11.7123495393
 20
9.8892111263
 30
0.0
 10
11.7155415008
 20
9.8872166184
 30
0.0
 10
11.7162113612
 20
9.8868068085
 30
0.0
 11
11.6640430271
 21
9.9496980987
 31
0.0
 11
11.667564811
 21
9.9414062397
 31
0.0
 11
11.6716589441
 21
9.9333841788
 31
0.0
 11
11.6763041596
 21
9.9256735862
 31
0.0
 11
11.6814763281
 21
9.9183145142
 31
0.0
 11
11.687148583
 21
9.9113451891
 31
0.0
 11
11.6932914603
 21
9.9048018127
 31
0.0
 11
11.6998730509
 21
9.8987183742
 31
0.0
 11
11.7068591673
 21
9.8931264736
 31
0.0
 11
11.7142135203
 21
9.8880551578
 31
0.0
 11
11.7162113612
 21
9.8868068085
 31
0.0
  0
SPLINE
  5
3E0
100
AcDbEntity
  8
0
100
AcDbSpline
 62
7
  6
CONTINUOUS
 70
0
 71
3
 72
17
 73
13
 74
11
 42
0.0000001
 43
0.0000001
 44
0.0000000001
 12
0.0451808193
 22
0.0155634696
 32
0.0
 13
0.0467321449
 23
0.0099852047
 33
0.0
 40
0.0
 40
0.0
 40
0.0
 40
0.0
 40
0.0480490353
 40
0.1091045862
 40
0.1829073535
 40
0.2691141699
 40
0.3672872565
 40
0.4768864316
 40
0.5972665195
 40
0.7276816431
 40
0.8672974841
 40
1.0
 40
1.0
 40
1.0
 40
1.0
 10
11.6566080274
 20
9.9790369098
 30
0.0
 10
11.657331659
 20
9.9792861797
 30
0.0
 10
11.6589763688
 20
9.9798476625
 30
0.0
 10
11.6617395096
 20
9.9807715658
 30
0.0
 10
11.6650877616
 20
9.9818619886
 30
0.0
 10
11.669009994
 20
9.9830987473
 30
0.0
 10
11.6734911694
 20
9.9844581394
 30
0.0
 10
11.6785117687
 20
9.9859132399
 30
0.0
 10
11.6840474126
 20
9.9874343907
 30
0.0
 10
11.6900687721
 20
9.988989891
 30
0.0
 10
11.6963062422
 20
9.990490201
 30
0.0
 10
11.7005406015
 20
9.9914323556
 30
0.0
 10
11.7026077593
 20
9.9918740429
 30
0.0
 11
11.6566080274
 21
9.9790369098
 31
0.0
 11
11.6587809811
 21
9.9797787156
 31
0.0
 11
11.6615480244
 21
9.9807038979
 31
0.0
 11
11.6649014455
 21
9.9817959592
 31
0.0
 11
11.6688302811
 21
9.9830347296
 31
0.0
 11
11.6733196167
 21
9.9843964955
 31
0.0
 11
11.6783499779
 21
9.9858542875
 31
0.0
 11
11.6838969247
 21
9.9873783677
 31
0.0
 11
11.6899309439
 21
9.9889369231
 31
0.0
 11
11.6964177141
 21
9.9904969463
 31
0.0
 11
11.7026077593
 21
9.9918740429
 31
0.0
  0
ENDSEC
  0
SECTION
  2
OBJECTS
  0
DICTIONARY
  5
C
100
AcDbDictionary
280
0
281
1
  3
ACAD_GROUP
350
D
  3
ACAD_MLINESTYLE
350
17
  3
ACAD_LAYOUT
350
1A
  3
ACAD_PLOTSETTINGS
350
19
  3
ACAD_PLOTSTYLENAME
350
E
  0
DICTIONARY
  5
D
102
{ACAD_REACTORS
330
C
102
}
100
AcDbDictionary
280
0
281
1
  0
ACDBDICTIONARYWDFLT
  5
E
102
{ACAD_REACTORS
330
C
102
}
100
AcDbDictionary
281
1
  3
Normal
350
F
100
AcDbDictionaryWithDefault
340
F
  0
DICTIONARY
  5
17
102
{ACAD_REACTORS
330
C
102
}
100
AcDbDictionary
280
0
281
1
  3
Standard
350
18
  0
DICTIONARY
  5
19
102
{ACAD_REACTORS
330
C
102
}
100
AcDbDictionary
281
1
  0
DICTIONARY
  5
1A
102
{ACAD_REACTORS
330
C
102
}
100
AcDbDictionary
281
1
  3
Layout1
350
1E
  3
Model
350
22
  0
ACDBPLACEHOLDER
  5
F
102
{ACAD_REACTORS
330
E
102
}
  0
MLINESTYLE
  5
18
102
{ACAD_REACTORS
330
17
102
}
100
AcDbMlineStyle
  2
STANDARD
 70
0
  3

 62
256
 51
90.0
 52
90.0
 71
2
 49
0.5
 62
256
  6
BYLAYER
 49
-0.5
 62
256
  6
BYLAYER
  0
LAYOUT
  5
1E
102
{ACAD_REACTORS
330
1A
102
}
100
AcDbPlotSettings
  1

  2

  4

  6

 40
0.0
 41
0.0
 42
0.0
 43
0.0
 44
0.0
 45
0.0
 46
0.0
 47
0.0
 48
0.0
 49
0.0
140
0.0
141
0.0
142
1.0
143
1.0
 70
0
 72
0
 73
0
 74
0
  7

 75
0
147
1.0
148
0.0
149
0.0
100
AcDbLayout
  1
Layout1
 70
0
 71
0
 10
0.0
 20
0.0
 11
0.0
 21
0.0
 12
0.0
 22
0.0
 32
0.0
 14
0.0
 24
0.0
 34
0.0
 15
0.0
 25
0.0
 35
0.0
146
0.0
 13
0.0
 23
0.0
 33
0.0
 16
0.0
 26
0.0
 36
0.0
 17
0.0
 27
0.0
 37
0.0
 76
0
330
1B
331
0
345
0
346
0
  0
LAYOUT
  5
22
102
{ACAD_REACTORS
330
1A
102
}
100
AcDbPlotSettings
  1

  2

  4

  6

 40
0.0
 41
0.0
 42
0.0
 43
0.0
 44
0.0
 45
0.0
 46
0.0
 47
0.0
 48
0.0
 49
0.0
140
0.0
141
0.0
142
1.0
143
1.0
 70
0
 72
0
 73
0
 74
0
  7

 75
0
147
1.0
148
0.0
149
0.0
100
AcDbLayout
  1
Model
 70
0
 71
0
 10
0.0
 20
0.0
 11
0.0
 21
0.0
 12
0.0
 22
0.0
 32
0.0
 14
0.0
 24
0.0
 34
0.0
 15
0.0
 25
0.0
 35
0.0
146
0.0
 13
0.0
 23
0.0
 33
0.0
 16
0.0
 26
0.0
 36
0.0
 17
0.0
 27
0.0
 37
0.0
 76
0
330
1F
331
0
345
0
346
0
  0
ENDSEC
  0
EOF
