999
DXF file: VGG_6.dxf
999
Pro/ENGINEER 2006240 by Parametric Technology Corporation
  0
SECTION
  2
HEADER
  9
$ACADVER
  1
AC1015
  9
$DWGCODEPAGE
  3
ANSI_1252
  9
$EXTMAX
 10
22.0
 20
17.0
 30
0.0
  9
$EXTMIN
 10
0.0
 20
0.0
 30
0.0
  9
$LIMMIN
 10
0.0
 20
0.0
  9
$LIMMAX
 10
22.0
 20
17.0
  9
$VIEWCTR
 10
11.0
 20
8.5
  9
$VIEWSIZE
 40
17.0
  9
$CLAYER
  8
0
  9
$LTSCALE
 40
1.21
  9
$CELTYPE
  6
BYLAYER
  9
$DIMSCALE
 40
1.0
  9
$DIMASZ
 40
0.1875
  9
$DIMEXO
 40
0.1375
  9
$DIMDLI
 40
0.836
  9
$DIMEXE
 40
0.396
  9
$DIMCEN
 40
0.198
  9
$DIMLFAC
 40
1.0
  9
$DIMBLK
  1
_CLOSED
  9
$DIMTXT
 40
0.15625
  9
$DIMTOL
 70
0
  9
$DIMLIM
 70
0
  9
$DIMTFAC
 40
1.0
  9
$PDMODE
 70
3
  9
$PDSIZE
 40
0.3125
  9
$HANDSEED
  5
3C3
  9
$MEASUREMENT
 70
0
  9
$INSUNITS
 70
1
  0
ENDSEC
  0
SECTION
  2
CLASSES
  0
CLASS
  1
ACDBDICTIONARYWDFLT
  2
AcDbDictionaryWithDefault
  3
AutoCAD 2000
 90
0
280
0
281
0
  0
CLASS
  1
ACDBPLACEHOLDER
  2
AcDbPlaceHolder
  3
AutoCAD 2000
 90
0
280
0
281
0
  0
CLASS
  1
LAYOUT
  2
AcDbLayout
  3
AutoCAD 2000
 90
0
280
0
281
0
  0
ENDSEC
  0
SECTION
  2
TABLES
  0
TABLE
  2
VPORT
  5
8
100
AcDbSymbolTable
 70
2
  0
VPORT
  5
1F4
100
AcDbSymbolTableRecord
100
AcDbViewportTableRecord
  2
*ACTIVE
 70
0
 10
0.0
 20
0.0
 11
1.0
 21
1.0
 12
11.0
 22
8.5
 13
0.0
 23
0.0
 14
1.0
 24
1.0
 15
0.0
 25
0.0
 16
0.0
 26
0.0
 36
1.0
 17
0.0
 27
0.0
 37
0.0
 40
17.0
 41
1.2941176471
 42
50.0
 43
0.0
 44
0.0
 50
0.0
 51
0.0
 71
0
 72
100
 73
1
 74
1
 75
0
 76
0
 77
0
 78
0
  0
ENDTAB
  0
TABLE
  2
LTYPE
  5
5
100
AcDbSymbolTable
 70
6
  0
LTYPE
  5
14
100
AcDbSymbolTableRecord
100
AcDbLinetypeTableRecord
  2
BYBLOCK
 70
0
  3

 72
65
 73
0
 40
0.0
  0
LTYPE
  5
15
100
AcDbSymbolTableRecord
100
AcDbLinetypeTableRecord
  2
BYLAYER
 70
0
  3

 72
65
 73
0
 40
0.0
  0
LTYPE
  5
16
100
AcDbSymbolTableRecord
100
AcDbLinetypeTableRecord
  2
CONTINUOUS
 70
64
  3
Solid line
 72
65
 73
0
 40
0.0
  0
LTYPE
  5
1F5
100
AcDbSymbolTableRecord
100
AcDbLinetypeTableRecord
  2
CENTER
 70
64
  3
____ _ ____ _ ____ _ ____ _ ____ _ ____ _ ____
 72
65
 73
4
 40
0.6
 49
0.375
 74
0
 49
-0.075
 74
0
 49
0.075
 74
0
 49
-0.075
 74
0
  0
LTYPE
  5
1F6
100
AcDbSymbolTableRecord
100
AcDbLinetypeTableRecord
  2
HIDDEN
 70
64
  3
- - - - - - - - - - - - - - - - - - - -
 72
65
 73
2
 40
0.2
 49
0.1
 74
0
 49
-0.1
 74
0
  0
LTYPE
  5
1F7
100
AcDbSymbolTableRecord
100
AcDbLinetypeTableRecord
  2
PHANTOM
 70
64
  3
_____ _ _ _____ _ _ _____ _ _ _____
 72
65
 73
6
 40
0.8
 49
0.45
 74
0
 49
-0.05
 74
0
 49
0.1
 74
0
 49
-0.05
 74
0
 49
0.1
 74
0
 49
-0.05
 74
0
  0
LTYPE
  5
1F8
100
AcDbSymbolTableRecord
100
AcDbLinetypeTableRecord
  2
DOT
 70
64
  3
. . . . . . . . . . . . . . . . . . . .
 72
65
 73
2
 40
0.2
 49
0.1
 74
0
 49
-0.1
 74
0
  0
LTYPE
  5
1F9
100
AcDbSymbolTableRecord
100
AcDbLinetypeTableRecord
  2
DASHED
 70
64
  3
- - - - - - - - - - - - - - - - - - - -
 72
65
 73
2
 40
0.2
 49
0.1
 74
0
 49
-0.1
 74
0
  0
ENDTAB
  0
TABLE
  2
LAYER
  5
2
100
AcDbSymbolTable
 70
36
  0
LAYER
  5
10
100
AcDbSymbolTableRecord
100
AcDbLayerTableRecord
  2
0
 70
0
 62
7
  6
CONTINUOUS
370
-3
390
F
  0
LAYER
  5
1FA
100
AcDbSymbolTableRecord
100
AcDbLayerTableRecord
  2
DEFAULT_1
 70
0
 62
7
  6
CENTER
370
-3
390
F
  0
LAYER
  5
1FB
100
AcDbSymbolTableRecord
100
AcDbLayerTableRecord
  2
DEFAULT_2
 70
0
 62
8
  6
HIDDEN
370
-3
390
F
  0
LAYER
  5
1FC
100
AcDbSymbolTableRecord
100
AcDbLayerTableRecord
  2
DEFAULT_3
 70
0
 62
7
  6
PHANTOM
370
-3
390
F
  0
LAYER
  5
1FD
100
AcDbSymbolTableRecord
100
AcDbLayerTableRecord
  2
01_ALL_DTM_PLN
 70
0
 62
7
  6
CONTINUOUS
370
-3
390
F
  0
LAYER
  5
1FE
100
AcDbSymbolTableRecord
100
AcDbLayerTableRecord
  2
01__ASM_ALL_DTM_PLN
 70
0
 62
7
  6
CONTINUOUS
370
-3
390
F
  0
LAYER
  5
1FF
100
AcDbSymbolTableRecord
100
AcDbLayerTableRecord
  2
01__ASM_DEF_DTM_PLN
 70
0
 62
7
  6
CONTINUOUS
370
-3
390
F
  0
LAYER
  5
200
100
AcDbSymbolTableRecord
100
AcDbLayerTableRecord
  2
01___PRT_ALL_DTM_PLN
 70
0
 62
7
  6
CONTINUOUS
370
-3
390
F
  0
LAYER
  5
201
100
AcDbSymbolTableRecord
100
AcDbLayerTableRecord
  2
01___PRT_DEF_DTM_PLN
 70
0
 62
7
  6
CONTINUOUS
370
-3
390
F
  0
LAYER
  5
202
100
AcDbSymbolTableRecord
100
AcDbLayerTableRecord
  2
02_ALL_AXES
 70
0
 62
7
  6
CONTINUOUS
370
-3
390
F
  0
LAYER
  5
203
100
AcDbSymbolTableRecord
100
AcDbLayerTableRecord
  2
02__ASM_ALL_AXES
 70
0
 62
7
  6
CONTINUOUS
370
-3
390
F
  0
LAYER
  5
204
100
AcDbSymbolTableRecord
100
AcDbLayerTableRecord
  2
02___PRT_ALL_AXES
 70
0
 62
7
  6
CONTINUOUS
370
-3
390
F
  0
LAYER
  5
205
100
AcDbSymbolTableRecord
100
AcDbLayerTableRecord
  2
03_ALL_CURVES
 70
0
 62
7
  6
CONTINUOUS
370
-3
390
F
  0
LAYER
  5
206
100
AcDbSymbolTableRecord
100
AcDbLayerTableRecord
  2
03__ASM_ALL_CURVES
 70
0
 62
7
  6
CONTINUOUS
370
-3
390
F
  0
LAYER
  5
207
100
AcDbSymbolTableRecord
100
AcDbLayerTableRecord
  2
03___PRT_ALL_CURVES
 70
0
 62
7
  6
CONTINUOUS
370
-3
390
F
  0
LAYER
  5
208
100
AcDbSymbolTableRecord
100
AcDbLayerTableRecord
  2
04_ALL_DTM_PNT
 70
0
 62
7
  6
CONTINUOUS
370
-3
390
F
  0
LAYER
  5
209
100
AcDbSymbolTableRecord
100
AcDbLayerTableRecord
  2
04__ASM_ALL_DTM_PNT
 70
0
 62
7
  6
CONTINUOUS
370
-3
390
F
  0
LAYER
  5
20A
100
AcDbSymbolTableRecord
100
AcDbLayerTableRecord
  2
04___PRT_ALL_DTM_PNT
 70
0
 62
7
  6
CONTINUOUS
370
-3
390
F
  0
LAYER
  5
20B
100
AcDbSymbolTableRecord
100
AcDbLayerTableRecord
  2
05_ALL_DTM_CSYS
 70
0
 62
7
  6
CONTINUOUS
370
-3
390
F
  0
LAYER
  5
20C
100
AcDbSymbolTableRecord
100
AcDbLayerTableRecord
  2
05__ASM_ALL_DTM_CSYS
 70
0
 62
7
  6
CONTINUOUS
370
-3
390
F
  0
LAYER
  5
20D
100
AcDbSymbolTableRecord
100
AcDbLayerTableRecord
  2
05__ASM_DEF_DTM_CSYS
 70
0
 62
7
  6
CONTINUOUS
370
-3
390
F
  0
LAYER
  5
20E
100
AcDbSymbolTableRecord
100
AcDbLayerTableRecord
  2
05___PRT_ALL_DTM_CSYS
 70
0
 62
7
  6
CONTINUOUS
370
-3
390
F
  0
LAYER
  5
20F
100
AcDbSymbolTableRecord
100
AcDbLayerTableRecord
  2
05___PRT_DEF_DTM_CSYS
 70
0
 62
7
  6
CONTINUOUS
370
-3
390
F
  0
LAYER
  5
210
100
AcDbSymbolTableRecord
100
AcDbLayerTableRecord
  2
06_ALL_SURFS
 70
0
 62
7
  6
CONTINUOUS
370
-3
390
F
  0
LAYER
  5
211
100
AcDbSymbolTableRecord
100
AcDbLayerTableRecord
  2
06__ASM_ALL_SURFS
 70
0
 62
7
  6
CONTINUOUS
370
-3
390
F
  0
LAYER
  5
212
100
AcDbSymbolTableRecord
100
AcDbLayerTableRecord
  2
06___PRT_ALL_SURFS
 70
0
 62
7
  6
CONTINUOUS
370
-3
390
F
  0
LAYER
  5
213
100
AcDbSymbolTableRecord
100
AcDbLayerTableRecord
  2
07__ASM_ALL_SKELETONS
 70
0
 62
7
  6
CONTINUOUS
370
-3
390
F
  0
LAYER
  5
214
100
AcDbSymbolTableRecord
100
AcDbLayerTableRecord
  2
COPY_GEO_FET
 70
0
 62
7
  6
CONTINUOUS
370
-3
390
F
  0
LAYER
  5
215
100
AcDbSymbolTableRecord
100
AcDbLayerTableRecord
  2
COSMETIC
 70
0
 62
7
  6
CONTINUOUS
370
-3
390
F
  0
LAYER
  5
216
100
AcDbSymbolTableRecord
100
AcDbLayerTableRecord
  2
CUT_REF_SURF
 70
0
 62
7
  6
CONTINUOUS
370
-3
390
F
  0
LAYER
  5
217
100
AcDbSymbolTableRecord
100
AcDbLayerTableRecord
  2
DATESTAMP
 70
0
 62
7
  6
CONTINUOUS
370
-3
390
F
  0
LAYER
  5
218
100
AcDbSymbolTableRecord
100
AcDbLayerTableRecord
  2
DATUM
 70
0
 62
7
  6
CONTINUOUS
370
-3
390
F
  0
LAYER
  5
219
100
AcDbSymbolTableRecord
100
AcDbLayerTableRecord
  2
DATUM_B
 70
0
 62
7
  6
CONTINUOUS
370
-3
390
F
  0
LAYER
  5
21A
100
AcDbSymbolTableRecord
100
AcDbLayerTableRecord
  2
DATUM_PLANES
 70
0
 62
7
  6
CONTINUOUS
370
-3
390
F
  0
LAYER
  5
21B
100
AcDbSymbolTableRecord
100
AcDbLayerTableRecord
  2
DIM
 70
0
 62
7
  6
CONTINUOUS
370
-3
390
F
  0
LAYER
  5
21C
100
AcDbSymbolTableRecord
100
AcDbLayerTableRecord
  2
DIMENSIONS
 70
0
 62
7
  6
CONTINUOUS
370
-3
390
F
  0
LAYER
  5
21D
100
AcDbSymbolTableRecord
100
AcDbLayerTableRecord
  2
DIM_1
 70
0
 62
7
  6
CONTINUOUS
370
-3
390
F
  0
LAYER
  5
21E
100
AcDbSymbolTableRecord
100
AcDbLayerTableRecord
  2
DIM_2
 70
0
 62
7
  6
CONTINUOUS
370
-3
390
F
  0
LAYER
  5
21F
100
AcDbSymbolTableRecord
100
AcDbLayerTableRecord
  2
DIM_3
 70
0
 62
7
  6
CONTINUOUS
370
-3
390
F
  0
LAYER
  5
220
100
AcDbSymbolTableRecord
100
AcDbLayerTableRecord
  2
DIM_4
 70
0
 62
7
  6
CONTINUOUS
370
-3
390
F
  0
LAYER
  5
221
100
AcDbSymbolTableRecord
100
AcDbLayerTableRecord
  2
DIM_5
 70
0
 62
7
  6
CONTINUOUS
370
-3
390
F
  0
LAYER
  5
222
100
AcDbSymbolTableRecord
100
AcDbLayerTableRecord
  2
DTM
 70
0
 62
7
  6
CONTINUOUS
370
-3
390
F
  0
LAYER
  5
223
100
AcDbSymbolTableRecord
100
AcDbLayerTableRecord
  2
EXT_COPY_GEO
 70
0
 62
7
  6
CONTINUOUS
370
-3
390
F
  0
LAYER
  5
224
100
AcDbSymbolTableRecord
100
AcDbLayerTableRecord
  2
LS
 70
0
 62
7
  6
CONTINUOUS
370
-3
390
F
  0
LAYER
  5
225
100
AcDbSymbolTableRecord
100
AcDbLayerTableRecord
  2
ORIGIN
 70
0
 62
7
  6
CONTINUOUS
370
-3
390
F
  0
LAYER
  5
226
100
AcDbSymbolTableRecord
100
AcDbLayerTableRecord
  2
PARAMETERDIMENSIONS
 70
0
 62
7
  6
CONTINUOUS
370
-3
390
F
  0
LAYER
  5
227
100
AcDbSymbolTableRecord
100
AcDbLayerTableRecord
  2
PARTNUMBER
 70
0
 62
7
  6
CONTINUOUS
370
-3
390
F
  0
LAYER
  5
228
100
AcDbSymbolTableRecord
100
AcDbLayerTableRecord
  2
PORT_AREAS
 70
0
 62
7
  6
CONTINUOUS
370
-3
390
F
  0
LAYER
  5
229
100
AcDbSymbolTableRecord
100
AcDbLayerTableRecord
  2
TEXT
 70
0
 62
7
  6
CONTINUOUS
370
-3
390
F
  0
LAYER
  5
22A
100
AcDbSymbolTableRecord
100
AcDbLayerTableRecord
  2
THREAD
 70
0
 62
7
  6
CONTINUOUS
370
-3
390
F
  0
LAYER
  5
22B
100
AcDbSymbolTableRecord
100
AcDbLayerTableRecord
  2
THREADS
 70
0
 62
7
  6
CONTINUOUS
370
-3
390
F
  0
LAYER
  5
22C
100
AcDbSymbolTableRecord
100
AcDbLayerTableRecord
  2
VGG_10
 70
0
 62
7
  6
CONTINUOUS
370
-3
390
F
  0
LAYER
  5
22D
100
AcDbSymbolTableRecord
100
AcDbLayerTableRecord
  2
VGG_2
 70
0
 62
7
  6
CONTINUOUS
370
-3
390
F
  0
LAYER
  5
22E
100
AcDbSymbolTableRecord
100
AcDbLayerTableRecord
  2
VGG_5
 70
0
 62
7
  6
CONTINUOUS
370
-3
390
F
  0
LAYER
  5
22F
100
AcDbSymbolTableRecord
100
AcDbLayerTableRecord
  2
VGG_6
 70
0
 62
7
  6
CONTINUOUS
370
-3
390
F
  0
LAYER
  5
230
100
AcDbSymbolTableRecord
100
AcDbLayerTableRecord
  2
VGG_7
 70
0
 62
7
  6
CONTINUOUS
370
-3
390
F
  0
LAYER
  5
231
100
AcDbSymbolTableRecord
100
AcDbLayerTableRecord
  2
VGG_8
 70
0
 62
7
  6
CONTINUOUS
370
-3
390
F
  0
ENDTAB
  0
TABLE
  2
STYLE
  5
3
100
AcDbSymbolTable
 70
1
  0
STYLE
  5
11
100
AcDbSymbolTableRecord
100
AcDbTextStyleTableRecord
  2
STANDARD
 70
0
 40
0.0
 41
0.8
 50
0.0
 71
0
 42
0.2
  3
txt
  4

  0
ENDTAB
  0
TABLE
  2
VIEW
  5
6
100
AcDbSymbolTable
 70
0
  0
ENDTAB
  0
TABLE
  2
UCS
  5
7
100
AcDbSymbolTable
 70
0
  0
ENDTAB
  0
TABLE
  2
APPID
  5
9
100
AcDbSymbolTable
 70
1
  0
APPID
  5
232
100
AcDbSymbolTableRecord
100
AcDbRegAppTableRecord
  2
ACAD
 70
0
  0
ENDTAB
  0
TABLE
  2
BLOCK_RECORD
  5
1
100
AcDbSymbolTable
 70
0
  0
BLOCK_RECORD
  5
1F
100
AcDbSymbolTableRecord
100
AcDbBlockTableRecord
  2
*MODEL_SPACE
  0
BLOCK_RECORD
  5
1B
100
AcDbSymbolTableRecord
100
AcDbBlockTableRecord
  2
*PAPER_SPACE
  0
ENDTAB
  0
TABLE
  2
DIMSTYLE
  5
A
100
AcDbSymbolTable
 70
1
100
AcDbDimStyleTable
 71
0
  0
DIMSTYLE
105
233
100
AcDbSymbolTableRecord
100
AcDbDimStyleTableRecord
  2
STANDARD
 70
0
  3

  4

 40
1.0
 41
0.1875
 42
0.0625
 43
0.38
 44
0.18
 45
0.0
 46
0.0
 47
0.01
 48
0.01
140
0.15625
141
0.09
142
0.0
143
25.4
144
1.0
145
0.0
146
1.0
147
0.09
 71
0.0
 72
0.0
 73
1
 74
1
 75
0
 76
0
 77
0
 78
4
170
0
171
2
172
0
173
0
174
0
175
0
176
0
177
0
178
0
270
2
271
2
272
2
273
2
274
2
275
0
280
0
281
0
282
0
283
1
284
4
285
0
286
0
287
3
288
0
340
11
  0
ENDTAB
  0
ENDSEC
  0
SECTION
  2
BLOCKS
  0
BLOCK
  5
20
100
AcDbEntity
  8
0
100
AcDbBlockBegin
  2
*MODEL_SPACE
 70
0
 10
0.0
 20
0.0
 30
0.0
  3
*MODEL_SPACE
  1

  0
ENDBLK
  5
21
100
AcDbEntity
  8
0
100
AcDbBlockEnd
  0
BLOCK
  5
1C
100
AcDbEntity
  8
0
100
AcDbBlockBegin
  2
*PAPER_SPACE
 70
0
 10
0.0
 20
0.0
 30
0.0
  3
*PAPER_SPACE
  1

  0
ENDBLK
  5
1D
100
AcDbEntity
  8
0
100
AcDbBlockEnd
  0
ENDSEC
  0
SECTION
  2
ENTITIES
  0
LINE
  5
234
100
AcDbEntity
  8
0
100
AcDbLine
 62
7
  6
CONTINUOUS
 10
8.1493629896
 20
10.8086695612
 11
8.1803629896
 21
10.8396695612
  0
LINE
  5
235
100
AcDbEntity
  8
03__ASM_ALL_CURVES
100
AcDbLine
 62
4
  6
CONTINUOUS
 10
8.1160295536
 20
7.7956695612
 11
8.1093628885
 21
7.8056695612
  0
LINE
  5
236
100
AcDbEntity
  8
03__ASM_ALL_CURVES
100
AcDbLine
 62
4
  6
CONTINUOUS
 10
8.1226962234
 20
7.7906695612
 11
8.1160295536
 21
7.7956695612
  0
LINE
  5
237
100
AcDbEntity
  8
03__ASM_ALL_CURVES
100
AcDbLine
 62
4
  6
CONTINUOUS
 10
8.1560295559
 20
7.8056695612
 11
8.1693628885
 21
7.7956695612
  0
LINE
  5
238
100
AcDbEntity
  8
03__ASM_ALL_CURVES
100
AcDbLine
 62
4
  6
CONTINUOUS
 10
8.1426962234
 20
7.8256695612
 11
8.1560295559
 21
7.8056695612
  0
LINE
  5
239
100
AcDbEntity
  8
03__ASM_ALL_CURVES
100
AcDbLine
 62
4
  6
CONTINUOUS
 10
8.1160295536
 20
7.9606695612
 11
8.1093628885
 21
7.9706695612
  0
LINE
  5
23A
100
AcDbEntity
  8
03__ASM_ALL_CURVES
100
AcDbLine
 62
4
  6
CONTINUOUS
 10
8.1160295536
 20
8.0406695612
 11
8.1093628885
 21
8.0506695612
  0
LINE
  5
23B
100
AcDbEntity
  8
03__ASM_ALL_CURVES
100
AcDbLine
 62
4
  6
CONTINUOUS
 10
8.1826962216
 20
7.9806695612
 11
8.1893628885
 21
7.9706695612
  0
LINE
  5
23C
100
AcDbEntity
  8
03__ASM_ALL_CURVES
100
AcDbLine
 62
4
  6
CONTINUOUS
 10
8.1493628885
 20
7.9856695612
 11
8.1560295559
 21
7.9706695612
  0
LINE
  5
23D
100
AcDbEntity
  8
03__ASM_ALL_CURVES
100
AcDbLine
 62
4
  6
CONTINUOUS
 10
8.1360295536
 20
7.8306695612
 11
8.1426962234
 21
7.8256695612
  0
LINE
  5
23E
100
AcDbEntity
  8
03__ASM_ALL_CURVES
100
AcDbLine
 62
4
  6
CONTINUOUS
 10
8.1226962234
 20
7.9556695612
 11
8.1160295536
 21
7.9606695612
  0
LINE
  5
23F
100
AcDbEntity
  8
03__ASM_ALL_CURVES
100
AcDbLine
 62
4
  6
CONTINUOUS
 10
8.8256962234
 20
7.4706695612
 11
8.8190295536
 21
7.4756695612
  0
LINE
  5
240
100
AcDbEntity
  8
03__ASM_ALL_CURVES
100
AcDbLine
 62
4
  6
CONTINUOUS
 10
8.1760295548
 20
7.9856695612
 11
8.1826962216
 21
7.9806695612
  0
LINE
  5
241
100
AcDbEntity
  8
03__ASM_ALL_CURVES
100
AcDbLine
 62
4
  6
CONTINUOUS
 10
8.1226962234
 20
8.0356695612
 11
8.1160295536
 21
8.0406695612
  0
LINE
  5
242
100
AcDbEntity
  8
03__ASM_ALL_CURVES
100
AcDbLine
 62
4
  6
CONTINUOUS
 10
8.8590295559
 20
7.4856695612
 11
8.8723628885
 21
7.4756695612
  0
LINE
  5
243
100
AcDbEntity
  8
03__ASM_ALL_CURVES
100
AcDbLine
 62
4
  6
CONTINUOUS
 10
8.8390295536
 20
7.5106695612
 11
8.8456962234
 21
7.5056695612
  0
LINE
  5
244
100
AcDbEntity
  8
03__ASM_ALL_CURVES
100
AcDbLine
 62
4
  6
CONTINUOUS
 10
8.1826962216
 20
8.0606695612
 11
8.1893628885
 21
8.0506695612
  0
LINE
  5
245
100
AcDbEntity
  8
03__ASM_ALL_CURVES
100
AcDbLine
 62
4
  6
CONTINUOUS
 10
8.1160295536
 20
8.3556695612
 11
8.1093628885
 21
8.3656695612
  0
LINE
  5
246
100
AcDbEntity
  8
03__ASM_ALL_CURVES
100
AcDbLine
 62
4
  6
CONTINUOUS
 10
8.1360295536
 20
8.3856695612
 11
8.1426962234
 21
8.3756695612
  0
LINE
  5
247
100
AcDbEntity
  8
03__ASM_ALL_CURVES
100
AcDbLine
 62
4
  6
CONTINUOUS
 10
8.1826962216
 20
8.3856695612
 11
8.1893628885
 21
8.3756695612
  0
LINE
  5
248
100
AcDbEntity
  8
03__ASM_ALL_CURVES
100
AcDbLine
 62
4
  6
CONTINUOUS
 10
8.1493628885
 20
8.5156695612
 11
8.1426962234
 21
8.5306695612
  0
LINE
  5
249
100
AcDbEntity
  8
03__ASM_ALL_CURVES
100
AcDbLine
 62
4
  6
CONTINUOUS
 10
8.1093628885
 20
8.3106695612
 11
8.1093628885
 21
8.2706695612
  0
LINE
  5
24A
100
AcDbEntity
  8
03__ASM_ALL_CURVES
100
AcDbLine
 62
4
  6
CONTINUOUS
 10
8.1093628885
 20
7.8056695612
 11
8.1093628885
 21
7.8156695612
  0
LINE
  5
24B
100
AcDbEntity
  8
03__ASM_ALL_CURVES
100
AcDbLine
 62
4
  6
CONTINUOUS
 10
8.1093628885
 20
8.3656695612
 11
8.1093628885
 21
8.3756695612
  0
LINE
  5
24C
100
AcDbEntity
  8
03__ASM_ALL_CURVES
100
AcDbLine
 62
4
  6
CONTINUOUS
 10
8.1426962234
 20
8.3656695612
 11
8.1426962234
 21
8.3756695612
  0
LINE
  5
24D
100
AcDbEntity
  8
0
100
AcDbLine
 62
7
  6
CONTINUOUS
 10
8.1493629896
 20
10.8086695612
 11
8.1493629896
 21
9.2026695612
  0
LINE
  5
24E
100
AcDbEntity
  8
03__ASM_ALL_CURVES
100
AcDbLine
 62
4
  6
CONTINUOUS
 10
8.1493628885
 20
9.0506695612
 11
8.1493628885
 21
8.8106695612
  0
LINE
  5
24F
100
AcDbEntity
  8
0
100
AcDbLine
 62
7
  6
CONTINUOUS
 10
8.1803629896
 20
10.8396695612
 11
8.1803629896
 21
9.1716695612
  0
LINE
  5
250
100
AcDbEntity
  8
03__ASM_ALL_CURVES
100
AcDbLine
 62
4
  6
CONTINUOUS
 10
8.1893628885
 20
8.4706695612
 11
8.1893628885
 21
8.4631695612
  0
LINE
  5
251
100
AcDbEntity
  8
03__ASM_ALL_CURVES
100
AcDbLine
 62
4
  6
CONTINUOUS
 10
8.1893628885
 20
8.3756695612
 11
8.1893628885
 21
8.3656695612
  0
LINE
  5
252
100
AcDbEntity
  8
03__ASM_ALL_CURVES
100
AcDbLine
 62
4
  6
CONTINUOUS
 10
8.1893628885
 20
7.9106695612
 11
8.1893628885
 21
7.9031695612
  0
LINE
  5
253
100
AcDbEntity
  8
03__ASM_ALL_CURVES
100
AcDbLine
 62
4
  6
CONTINUOUS
 10
8.1893628885
 20
7.7906695612
 11
8.1893628885
 21
7.8306695612
  0
LINE
  5
254
100
AcDbEntity
  8
03__ASM_ALL_CURVES
100
AcDbLine
 62
4
  6
CONTINUOUS
 10
8.1760295548
 20
8.0656695612
 11
8.1826962216
 21
8.0606695612
  0
LINE
  5
255
100
AcDbEntity
  8
03__ASM_ALL_CURVES
100
AcDbLine
 62
4
  6
CONTINUOUS
 10
8.8256962234
 20
7.6306695612
 11
8.8190295536
 21
7.6356695612
  0
LINE
  5
256
100
AcDbEntity
  8
03__ASM_ALL_CURVES
100
AcDbLine
 62
4
  6
CONTINUOUS
 10
8.8590295559
 20
7.6456695612
 11
8.8723628885
 21
7.6356695612
  0
LINE
  5
257
100
AcDbEntity
  8
03__ASM_ALL_CURVES
100
AcDbLine
 62
4
  6
CONTINUOUS
 10
8.1093628885
 20
8.2156695612
 11
8.1226962234
 21
8.2056695612
  0
LINE
  5
258
100
AcDbEntity
  8
03__ASM_ALL_CURVES
100
AcDbLine
 62
4
  6
CONTINUOUS
 10
8.8390295536
 20
7.6706695612
 11
8.8456962234
 21
7.6656695612
  0
LINE
  5
259
100
AcDbEntity
  8
03__ASM_ALL_CURVES
100
AcDbLine
 62
4
  6
CONTINUOUS
 10
8.8256962234
 20
7.7156695612
 11
8.8190295536
 21
7.7206695612
  0
LINE
  5
25A
100
AcDbEntity
  8
03__ASM_ALL_CURVES
100
AcDbLine
 62
4
  6
CONTINUOUS
 10
8.1160295536
 20
8.5206695612
 11
8.1093628885
 21
8.5306695612
  0
LINE
  5
25B
100
AcDbEntity
  8
03__ASM_ALL_CURVES
100
AcDbLine
 62
4
  6
CONTINUOUS
 10
8.8190295536
 20
7.4756695612
 11
8.8123628885
 21
7.4856695612
  0
LINE
  5
25C
100
AcDbEntity
  8
03__ASM_ALL_CURVES
100
AcDbLine
 62
4
  6
CONTINUOUS
 10
8.8456962234
 20
7.5056695612
 11
8.8590295559
 21
7.4856695612
  0
LINE
  5
25D
100
AcDbEntity
  8
03__ASM_ALL_CURVES
100
AcDbLine
 62
4
  6
CONTINUOUS
 10
8.1160295536
 20
8.6006695612
 11
8.1093628885
 21
8.6106695612
  0
LINE
  5
25E
100
AcDbEntity
  8
03__ASM_ALL_CURVES
100
AcDbLine
 62
4
  6
CONTINUOUS
 10
8.1826962216
 20
8.5406695612
 11
8.1893628885
 21
8.5306695612
  0
LINE
  5
25F
100
AcDbEntity
  8
03__ASM_ALL_CURVES
100
AcDbLine
 62
4
  6
CONTINUOUS
 10
8.8190295536
 20
7.6356695612
 11
8.8123628885
 21
7.6456695612
  0
LINE
  5
260
100
AcDbEntity
  8
03__ASM_ALL_CURVES
100
AcDbLine
 62
4
  6
CONTINUOUS
 10
8.1826962216
 20
8.6206695612
 11
8.1893628885
 21
8.6106695612
  0
LINE
  5
261
100
AcDbEntity
  8
03__ASM_ALL_CURVES
100
AcDbLine
 62
4
  6
CONTINUOUS
 10
8.8456962234
 20
7.6656695612
 11
8.8590295559
 21
7.6456695612
  0
LINE
  5
262
100
AcDbEntity
  8
03__ASM_ALL_CURVES
100
AcDbLine
 62
4
  6
CONTINUOUS
 10
8.8190295536
 20
7.7206695612
 11
8.8123628885
 21
7.7306695612
  0
LINE
  5
263
100
AcDbEntity
  8
03__ASM_ALL_CURVES
100
AcDbLine
 62
4
  6
CONTINUOUS
 10
8.1493628885
 20
8.5956695612
 11
8.1426962234
 21
8.6106695612
  0
LINE
  5
264
100
AcDbEntity
  8
03__ASM_ALL_CURVES
100
AcDbLine
 62
4
  6
CONTINUOUS
 10
8.8723628885
 20
7.4756695612
 11
8.8923628885
 21
7.4706695612
  0
LINE
  5
265
100
AcDbEntity
  8
03__ASM_ALL_CURVES
100
AcDbLine
 62
4
  6
CONTINUOUS
 10
8.1693628885
 20
7.7956695612
 11
8.1893628885
 21
7.7906695612
  0
LINE
  5
266
100
AcDbEntity
  8
03__ASM_ALL_CURVES
100
AcDbLine
 62
4
  6
CONTINUOUS
 10
8.8723628885
 20
7.6356695612
 11
8.8923628885
 21
7.6306695612
  0
LINE
  5
267
100
AcDbEntity
  8
03__ASM_ALL_CURVES
100
AcDbLine
 62
4
  6
CONTINUOUS
 10
8.1360295536
 20
7.9506695612
 11
8.1226962234
 21
7.9556695612
  0
LINE
  5
268
100
AcDbEntity
  8
03__ASM_ALL_CURVES
100
AcDbLine
 62
4
  6
CONTINUOUS
 10
8.8390295536
 20
7.7106695612
 11
8.8256962234
 21
7.7156695612
  0
LINE
  5
269
100
AcDbEntity
  8
03__ASM_ALL_CURVES
100
AcDbLine
 62
4
  6
CONTINUOUS
 10
8.1360295536
 20
7.9906695612
 11
8.1493628885
 21
7.9856695612
  0
LINE
  5
26A
100
AcDbEntity
  8
03__ASM_ALL_CURVES
100
AcDbLine
 62
4
  6
CONTINUOUS
 10
8.162696221
 20
7.9906695612
 11
8.1760295548
 21
7.9856695612
  0
LINE
  5
26B
100
AcDbEntity
  8
03__ASM_ALL_CURVES
100
AcDbLine
 62
4
  6
CONTINUOUS
 10
8.865696221
 20
7.7506695612
 11
8.8790295548
 21
7.7456695612
  0
LINE
  5
26C
100
AcDbEntity
  8
03__ASM_ALL_CURVES
100
AcDbLine
 62
4
  6
CONTINUOUS
 10
8.1360295536
 20
8.0306695612
 11
8.1226962234
 21
8.0356695612
  0
LINE
  5
26D
100
AcDbEntity
  8
03__ASM_ALL_CURVES
100
AcDbLine
 62
4
  6
CONTINUOUS
 10
8.8790295548
 20
7.7456695612
 11
8.8856962216
 21
7.7406695612
  0
LINE
  5
26E
100
AcDbEntity
  8
03__ASM_ALL_CURVES
100
AcDbLine
 62
4
  6
CONTINUOUS
 10
8.1293628885
 20
8.3906695612
 11
8.1360295536
 21
8.3856695612
  0
LINE
  5
26F
100
AcDbEntity
  8
03__ASM_ALL_CURVES
100
AcDbLine
 62
4
  6
CONTINUOUS
 10
8.8123628885
 20
7.8956695612
 11
8.8256962234
 21
7.8856695612
  0
LINE
  5
270
100
AcDbEntity
  8
03__ASM_ALL_CURVES
100
AcDbLine
 62
4
  6
CONTINUOUS
 10
8.1693628885
 20
8.3956695612
 11
8.1826962216
 21
8.3856695612
  0
LINE
  5
271
100
AcDbEntity
  8
03__ASM_ALL_CURVES
100
AcDbLine
 62
4
  6
CONTINUOUS
 10
8.1226962234
 20
8.5156695612
 11
8.1160295536
 21
8.5206695612
  0
LINE
  5
272
100
AcDbEntity
  8
03__ASM_ALL_CURVES
100
AcDbLine
 62
4
  6
CONTINUOUS
 10
8.8856962216
 20
7.7406695612
 11
8.8923628885
 21
7.7306695612
  0
LINE
  5
273
100
AcDbEntity
  8
03__ASM_ALL_CURVES
100
AcDbLine
 62
4
  6
CONTINUOUS
 10
8.8456962234
 20
7.9556695612
 11
8.8390295536
 21
7.9656695612
  0
LINE
  5
274
100
AcDbEntity
  8
03__ASM_ALL_CURVES
100
AcDbLine
 62
4
  6
CONTINUOUS
 10
8.8456962234
 20
8.0356695612
 11
8.8390295536
 21
8.0456695612
  0
LINE
  5
275
100
AcDbEntity
  8
03__ASM_ALL_CURVES
100
AcDbLine
 62
4
  6
CONTINUOUS
 10
8.8856962216
 20
7.9856695612
 11
8.8923628885
 21
7.9756695612
  0
LINE
  5
276
100
AcDbEntity
  8
03__ASM_ALL_CURVES
100
AcDbLine
 62
4
  6
CONTINUOUS
 10
8.1426962234
 20
8.6106695612
 11
8.1493628885
 21
8.6256695612
  0
LINE
  5
277
100
AcDbEntity
  8
03__ASM_ALL_CURVES
100
AcDbLine
 62
4
  6
CONTINUOUS
 10
8.1426962234
 20
8.5306695612
 11
8.1493628885
 21
8.5456695612
  0
LINE
  5
278
100
AcDbEntity
  8
03__ASM_ALL_CURVES
100
AcDbLine
 62
4
  6
CONTINUOUS
 10
8.8256962234
 20
7.5106695612
 11
8.8390295536
 21
7.5106695612
  0
LINE
  5
279
100
AcDbEntity
  8
03__ASM_ALL_CURVES
100
AcDbLine
 62
4
  6
CONTINUOUS
 10
8.162696221
 20
8.0706695612
 11
8.1760295548
 21
8.0656695612
  0
LINE
  5
27A
100
AcDbEntity
  8
03__ASM_ALL_CURVES
100
AcDbLine
 62
4
  6
CONTINUOUS
 10
8.8790295548
 20
7.9906695612
 11
8.8856962216
 21
7.9856695612
  0
LINE
  5
27B
100
AcDbEntity
  8
03__ASM_ALL_CURVES
100
AcDbLine
 62
4
  6
CONTINUOUS
 10
8.1760295548
 20
8.5456695612
 11
8.1826962216
 21
8.5406695612
  0
LINE
  5
27C
100
AcDbEntity
  8
03__ASM_ALL_CURVES
100
AcDbLine
 62
4
  6
CONTINUOUS
 10
8.1226962234
 20
8.5956695612
 11
8.1160295536
 21
8.6006695612
  0
LINE
  5
27D
100
AcDbEntity
  8
03__ASM_ALL_CURVES
100
AcDbLine
 62
4
  6
CONTINUOUS
 10
8.8790295548
 20
8.0706695612
 11
8.8856962216
 21
8.0656695612
  0
LINE
  5
27E
100
AcDbEntity
  8
03__ASM_ALL_CURVES
100
AcDbLine
 62
4
  6
CONTINUOUS
 10
8.1760295548
 20
8.6256695612
 11
8.1826962216
 21
8.6206695612
  0
LINE
  5
27F
100
AcDbEntity
  8
03__ASM_ALL_CURVES
100
AcDbLine
 62
4
  6
CONTINUOUS
 10
8.8256962234
 20
8.1906695612
 11
8.8190295536
 21
8.1956695612
  0
LINE
  5
280
100
AcDbEntity
  8
03__ASM_ALL_CURVES
100
AcDbLine
 62
4
  6
CONTINUOUS
 10
8.1760295548
 20
8.6956695612
 11
8.1893628885
 21
8.6856695612
  0
LINE
  5
281
100
AcDbEntity
  8
03__ASM_ALL_CURVES
100
AcDbLine
 62
4
  6
CONTINUOUS
 10
8.865696221
 20
8.1856695612
 11
8.8523628885
 21
8.1956695612
  0
LINE
  5
282
100
AcDbEntity
  8
03__ASM_ALL_CURVES
100
AcDbLine
 62
4
  6
CONTINUOUS
 10
8.8323628885
 20
8.2306695612
 11
8.8390295536
 21
8.2256695612
  0
LINE
  5
283
100
AcDbEntity
  8
03__ASM_ALL_CURVES
100
AcDbLine
 62
4
  6
CONTINUOUS
 10
8.8856962216
 20
8.0656695612
 11
8.8923628885
 21
8.0556695612
  0
LINE
  5
284
100
AcDbEntity
  8
03__ASM_ALL_CURVES
100
AcDbLine
 62
4
  6
CONTINUOUS
 10
8.8190295536
 20
8.1956695612
 11
8.8123628885
 21
8.2056695612
  0
LINE
  5
285
100
AcDbEntity
  8
03__ASM_ALL_CURVES
100
AcDbLine
 62
4
  6
CONTINUOUS
 10
8.8523628885
 20
8.1956695612
 11
8.8456962234
 21
8.2056695612
  0
LINE
  5
286
100
AcDbEntity
  8
03__ASM_ALL_CURVES
100
AcDbLine
 62
4
  6
CONTINUOUS
 10
8.8390295536
 20
8.2256695612
 11
8.8456962234
 21
8.2156695612
  0
LINE
  5
287
100
AcDbEntity
  8
03__ASM_ALL_CURVES
100
AcDbLine
 62
4
  6
CONTINUOUS
 10
8.8190295536
 20
8.2756695612
 11
8.8123628885
 21
8.2856695612
  0
LINE
  5
288
100
AcDbEntity
  8
03__ASM_ALL_CURVES
100
AcDbLine
 62
4
  6
CONTINUOUS
 10
8.8856962216
 20
8.2256695612
 11
8.8923628885
 21
8.2156695612
  0
LINE
  5
289
100
AcDbEntity
  8
03__ASM_ALL_CURVES
100
AcDbLine
 62
4
  6
CONTINUOUS
 10
8.8523628885
 20
8.2756695612
 11
8.8456962234
 21
8.2856695612
  0
LINE
  5
28A
100
AcDbEntity
  8
03__ASM_ALL_CURVES
100
AcDbLine
 62
4
  6
CONTINUOUS
 10
8.8390295536
 20
8.3056695612
 11
8.8456962234
 21
8.2956695612
  0
LINE
  5
28B
100
AcDbEntity
  8
03__ASM_ALL_CURVES
100
AcDbLine
 62
4
  6
CONTINUOUS
 10
8.8856962216
 20
8.3056695612
 11
8.8923628885
 21
8.2956695612
  0
LINE
  5
28C
100
AcDbEntity
  8
0
100
AcDbLine
 62
7
  6
CONTINUOUS
 10
8.8053630077
 20
9.1306695612
 11
8.8053630077
 21
10.8806695612
  0
LINE
  5
28D
100
AcDbEntity
  8
03__ASM_ALL_CURVES
100
AcDbLine
 62
4
  6
CONTINUOUS
 10
8.8123628885
 20
8.6956695612
 11
8.8123628885
 21
8.6856695612
  0
LINE
  5
28E
100
AcDbEntity
  8
03__ASM_ALL_CURVES
100
AcDbLine
 62
4
  6
CONTINUOUS
 10
8.8123628885
 20
8.0706695612
 11
8.8123628885
 21
8.0406695612
  0
LINE
  5
28F
100
AcDbEntity
  8
03__ASM_ALL_CURVES
100
AcDbLine
 62
4
  6
CONTINUOUS
 10
8.8123628885
 20
7.9906695612
 11
8.8123628885
 21
7.9606695612
  0
LINE
  5
290
100
AcDbEntity
  8
03__ASM_ALL_CURVES
100
AcDbLine
 62
4
  6
CONTINUOUS
 10
8.8123628885
 20
7.4856695612
 11
8.8123628885
 21
7.4956695612
  0
LINE
  5
291
100
AcDbEntity
  8
03__ASM_ALL_CURVES
100
AcDbLine
 62
4
  6
CONTINUOUS
 10
8.8123628885
 20
7.6456695612
 11
8.8123628885
 21
7.6556695612
  0
LINE
  5
292
100
AcDbEntity
  8
03__ASM_ALL_CURVES
100
AcDbLine
 62
4
  6
CONTINUOUS
 10
8.8123628885
 20
8.2056695612
 11
8.8123628885
 21
8.2156695612
  0
LINE
  5
293
100
AcDbEntity
  8
03__ASM_ALL_CURVES
100
AcDbLine
 62
4
  6
CONTINUOUS
 10
8.8123628885
 20
8.2856695612
 11
8.8123628885
 21
8.2956695612
  0
LINE
  5
294
100
AcDbEntity
  8
03__ASM_ALL_CURVES
100
AcDbLine
 62
4
  6
CONTINUOUS
 10
8.1093628885
 20
8.6106695612
 11
8.1160295536
 21
8.6206695612
  0
LINE
  5
295
100
AcDbEntity
  8
03__ASM_ALL_CURVES
100
AcDbLine
 62
4
  6
CONTINUOUS
 10
8.8923628885
 20
7.5831695612
 11
8.8823628882
 21
7.5831695612
  0
LINE
  5
296
100
AcDbEntity
  8
03__ASM_ALL_CURVES
100
AcDbLine
 62
4
  6
CONTINUOUS
 10
8.8256962234
 20
7.6706695612
 11
8.8390295536
 21
7.6706695612
  0
LINE
  5
297
100
AcDbEntity
  8
03__ASM_ALL_CURVES
100
AcDbLine
 62
4
  6
CONTINUOUS
 10
8.865696221
 20
7.7106695612
 11
8.8390295536
 21
7.7106695612
  0
LINE
  5
298
100
AcDbEntity
  8
03__ASM_ALL_CURVES
100
AcDbLine
 62
4
  6
CONTINUOUS
 10
8.8256962234
 20
7.8856695612
 11
8.8456962234
 21
7.8806695612
  0
LINE
  5
299
100
AcDbEntity
  8
03__ASM_ALL_CURVES
100
AcDbLine
 62
4
  6
CONTINUOUS
 10
8.1226962234
 20
8.2056695612
 11
8.1426962234
 21
8.2006695612
  0
LINE
  5
29A
100
AcDbEntity
  8
03__ASM_ALL_CURVES
100
AcDbLine
 62
4
  6
CONTINUOUS
 10
8.865696221
 20
7.9956695612
 11
8.8790295548
 21
7.9906695612
  0
LINE
  5
29B
100
AcDbEntity
  8
03__ASM_ALL_CURVES
100
AcDbLine
 62
4
  6
CONTINUOUS
 10
8.1360295536
 20
8.3006695612
 11
8.1093628885
 21
8.3106695612
  0
LINE
  5
29C
100
AcDbEntity
  8
03__ASM_ALL_CURVES
100
AcDbLine
 62
4
  6
CONTINUOUS
 10
8.865696221
 20
8.0756695612
 11
8.8790295548
 21
8.0706695612
  0
LINE
  5
29D
100
AcDbEntity
  8
03__ASM_ALL_CURVES
100
AcDbLine
 62
4
  6
CONTINUOUS
 10
8.8723628885
 20
8.2356695612
 11
8.8856962216
 21
8.2256695612
  0
LINE
  5
29E
100
AcDbEntity
  8
03__ASM_ALL_CURVES
100
AcDbLine
 62
4
  6
CONTINUOUS
 10
8.8256962234
 20
8.2706695612
 11
8.8190295536
 21
8.2756695612
  0
LINE
  5
29F
100
AcDbEntity
  8
03__ASM_ALL_CURVES
100
AcDbLine
 62
4
  6
CONTINUOUS
 10
8.865696221
 20
8.2656695612
 11
8.8523628885
 21
8.2756695612
  0
LINE
  5
2A0
100
AcDbEntity
  8
03__ASM_ALL_CURVES
100
AcDbLine
 62
4
  6
CONTINUOUS
 10
8.8323628885
 20
8.3106695612
 11
8.8390295536
 21
8.3056695612
  0
LINE
  5
2A1
100
AcDbEntity
  8
03__ASM_ALL_CURVES
100
AcDbLine
 62
4
  6
CONTINUOUS
 10
8.8723628885
 20
8.3156695612
 11
8.8856962216
 21
8.3056695612
  0
LINE
  5
2A2
100
AcDbEntity
  8
03__ASM_ALL_CURVES
100
AcDbLine
 62
4
  6
CONTINUOUS
 10
8.8790295548
 20
8.3756695612
 11
8.8923628885
 21
8.3656695612
  0
LINE
  5
2A3
100
AcDbEntity
  8
0
100
AcDbLine
 62
7
  6
CONTINUOUS
 10
8.1493629896
 20
9.2026695612
 11
8.1803629896
 21
9.1716695612
  0
LINE
  5
2A4
100
AcDbEntity
  8
03__ASM_ALL_CURVES
100
AcDbLine
 62
4
  6
CONTINUOUS
 10
8.8123628885
 20
8.6856695612
 11
8.8190295536
 21
8.6756695612
  0
LINE
  5
2A5
100
AcDbEntity
  8
03__ASM_ALL_CURVES
100
AcDbLine
 62
4
  6
CONTINUOUS
 10
8.8390295536
 20
7.9656695612
 11
8.8390295536
 21
7.9756695612
  0
LINE
  5
2A6
100
AcDbEntity
  8
03__ASM_ALL_CURVES
100
AcDbLine
 62
4
  6
CONTINUOUS
 10
8.8390295536
 20
8.0456695612
 11
8.8390295536
 21
8.0556695612
  0
LINE
  5
2A7
100
AcDbEntity
  8
03__ASM_ALL_CURVES
100
AcDbLine
 62
4
  6
CONTINUOUS
 10
8.8456962234
 20
8.2056695612
 11
8.8456962234
 21
8.2156695612
  0
LINE
  5
2A8
100
AcDbEntity
  8
03__ASM_ALL_CURVES
100
AcDbLine
 62
4
  6
CONTINUOUS
 10
8.8456962234
 20
8.2856695612
 11
8.8456962234
 21
8.2956695612
  0
LINE
  5
2A9
100
AcDbEntity
  8
03__ASM_ALL_CURVES
100
AcDbLine
 62
4
  6
CONTINUOUS
 10
8.8523628885
 20
9.0506695612
 11
8.8523628885
 21
8.8106695612
  0
LINE
  5
2AA
100
AcDbEntity
  8
03__ASM_ALL_CURVES
100
AcDbLine
 62
4
  6
CONTINUOUS
 10
8.8923628885
 20
8.6956695612
 11
8.8923628885
 21
8.6856695612
  0
LINE
  5
2AB
100
AcDbEntity
  8
03__ASM_ALL_CURVES
100
AcDbLine
 62
4
  6
CONTINUOUS
 10
8.8923628885
 20
8.2956695612
 11
8.8923628885
 21
8.2856695612
  0
LINE
  5
2AC
100
AcDbEntity
  8
03__ASM_ALL_CURVES
100
AcDbLine
 62
4
  6
CONTINUOUS
 10
8.8923628885
 20
8.2156695612
 11
8.8923628885
 21
8.2056695612
  0
LINE
  5
2AD
100
AcDbEntity
  8
03__ASM_ALL_CURVES
100
AcDbLine
 62
4
  6
CONTINUOUS
 10
8.8923628885
 20
8.1506695612
 11
8.8923628885
 21
8.1431695612
  0
LINE
  5
2AE
100
AcDbEntity
  8
03__ASM_ALL_CURVES
100
AcDbLine
 62
4
  6
CONTINUOUS
 10
8.8923628885
 20
8.0556695612
 11
8.8923628885
 21
8.0456695612
  0
LINE
  5
2AF
100
AcDbEntity
  8
03__ASM_ALL_CURVES
100
AcDbLine
 62
4
  6
CONTINUOUS
 10
8.8923628885
 20
7.9756695612
 11
8.8923628885
 21
7.9656695612
  0
LINE
  5
2B0
100
AcDbEntity
  8
03__ASM_ALL_CURVES
100
AcDbLine
 62
4
  6
CONTINUOUS
 10
8.8923628885
 20
7.5906695612
 11
8.8923628885
 21
7.5831695612
  0
LINE
  5
2B1
100
AcDbEntity
  8
03__ASM_ALL_CURVES
100
AcDbLine
 62
4
  6
CONTINUOUS
 10
8.8923628885
 20
7.4706695612
 11
8.8923628885
 21
7.5106695612
  0
LINE
  5
2B2
100
AcDbEntity
  8
03__ASM_ALL_CURVES
100
AcDbLine
 62
4
  6
CONTINUOUS
 10
8.8923628885
 20
7.6306695612
 11
8.8923628885
 21
7.6706695612
  0
LINE
  5
2B3
100
AcDbEntity
  8
03__ASM_ALL_CURVES
100
AcDbLine
 62
4
  6
CONTINUOUS
 10
8.8923628885
 20
8.5906695612
 11
8.8923628885
 21
8.6306695612
  0
LINE
  5
2B4
100
AcDbEntity
  8
03__ASM_ALL_CURVES
100
AcDbLine
 62
4
  6
CONTINUOUS
 10
8.1560295559
 20
7.9706695612
 11
8.1493628885
 21
7.9556695612
  0
LINE
  5
2B5
100
AcDbEntity
  8
03__ASM_ALL_CURVES
100
AcDbLine
 62
4
  6
CONTINUOUS
 10
8.1093628885
 20
8.5306695612
 11
8.1160295536
 21
8.5406695612
  0
LINE
  5
2B6
100
AcDbEntity
  8
03__ASM_ALL_CURVES
100
AcDbLine
 62
4
  6
CONTINUOUS
 10
8.1893628885
 20
8.6106695612
 11
8.1826962216
 21
8.6006695612
  0
LINE
  5
2B7
100
AcDbEntity
  8
03__ASM_ALL_CURVES
100
AcDbLine
 62
4
  6
CONTINUOUS
 10
8.1893628885
 20
8.5306695612
 11
8.1826962216
 21
8.5206695612
  0
LINE
  5
2B8
100
AcDbEntity
  8
03__ASM_ALL_CURVES
100
AcDbLine
 62
4
  6
CONTINUOUS
 10
8.1093628885
 20
8.3756695612
 11
8.1160295536
 21
8.3856695612
  0
LINE
  5
2B9
100
AcDbEntity
  8
03__ASM_ALL_CURVES
100
AcDbLine
 62
4
  6
CONTINUOUS
 10
8.1426962234
 20
8.3756695612
 11
8.1493628885
 21
8.3856695612
  0
LINE
  5
2BA
100
AcDbEntity
  8
03__ASM_ALL_CURVES
100
AcDbLine
 62
4
  6
CONTINUOUS
 10
8.1893628885
 20
8.3656695612
 11
8.1826962216
 21
8.3556695612
  0
LINE
  5
2BB
100
AcDbEntity
  8
03__ASM_ALL_CURVES
100
AcDbLine
 62
4
  6
CONTINUOUS
 10
8.8390295536
 20
7.7506695612
 11
8.865696221
 21
7.7506695612
  0
LINE
  5
2BC
100
AcDbEntity
  8
03__ASM_ALL_CURVES
100
AcDbLine
 62
4
  6
CONTINUOUS
 10
8.1226962234
 20
7.8306695612
 11
8.1360295536
 21
7.8306695612
  0
LINE
  5
2BD
100
AcDbEntity
  8
03__ASM_ALL_CURVES
100
AcDbLine
 62
4
  6
CONTINUOUS
 10
8.8456962234
 20
7.8806695612
 11
8.8590295559
 21
7.8806695612
  0
LINE
  5
2BE
100
AcDbEntity
  8
03__ASM_ALL_CURVES
100
AcDbLine
 62
4
  6
CONTINUOUS
 10
8.1893628885
 20
7.9031695612
 11
8.1793628882
 21
7.9031695612
  0
LINE
  5
2BF
100
AcDbEntity
  8
03__ASM_ALL_CURVES
100
AcDbLine
 62
4
  6
CONTINUOUS
 10
8.8123628885
 20
7.9606695612
 11
8.8456962234
 21
7.9556695612
  0
LINE
  5
2C0
100
AcDbEntity
  8
03__ASM_ALL_CURVES
100
AcDbLine
 62
4
  6
CONTINUOUS
 10
8.8123628885
 20
8.0406695612
 11
8.8456962234
 21
8.0356695612
  0
LINE
  5
2C1
100
AcDbEntity
  8
03__ASM_ALL_CURVES
100
AcDbLine
 62
4
  6
CONTINUOUS
 10
8.1560295559
 20
8.2956695612
 11
8.1360295536
 21
8.3006695612
  0
LINE
  5
2C2
100
AcDbEntity
  8
03__ASM_ALL_CURVES
100
AcDbLine
 62
4
  6
CONTINUOUS
 10
8.1360295536
 20
8.5106695612
 11
8.1226962234
 21
8.5156695612
  0
LINE
  5
2C3
100
AcDbEntity
  8
03__ASM_ALL_CURVES
100
AcDbLine
 62
4
  6
CONTINUOUS
 10
8.162696221
 20
8.5106695612
 11
8.1493628885
 21
8.5156695612
  0
LINE
  5
2C4
100
AcDbEntity
  8
03__ASM_ALL_CURVES
100
AcDbLine
 62
4
  6
CONTINUOUS
 10
8.162696221
 20
8.5506695612
 11
8.1760295548
 21
8.5456695612
  0
LINE
  5
2C5
100
AcDbEntity
  8
03__ASM_ALL_CURVES
100
AcDbLine
 62
4
  6
CONTINUOUS
 10
8.1360295536
 20
8.5906695612
 11
8.1226962234
 21
8.5956695612
  0
LINE
  5
2C6
100
AcDbEntity
  8
03__ASM_ALL_CURVES
100
AcDbLine
 62
4
  6
CONTINUOUS
 10
8.162696221
 20
8.5906695612
 11
8.1493628885
 21
8.5956695612
  0
LINE
  5
2C7
100
AcDbEntity
  8
03__ASM_ALL_CURVES
100
AcDbLine
 62
4
  6
CONTINUOUS
 10
8.162696221
 20
8.6306695612
 11
8.1760295548
 21
8.6256695612
  0
LINE
  5
2C8
100
AcDbEntity
  8
03__ASM_ALL_CURVES
100
AcDbLine
 62
4
  6
CONTINUOUS
 10
8.8123628885
 20
8.5356695612
 11
8.8256962234
 21
8.5256695612
  0
LINE
  5
2C9
100
AcDbEntity
  8
03__ASM_ALL_CURVES
100
AcDbLine
 62
4
  6
CONTINUOUS
 10
8.8190295536
 20
8.6756695612
 11
8.8256962234
 21
8.6706695612
  0
LINE
  5
2CA
100
AcDbEntity
  8
03__ASM_ALL_CURVES
100
AcDbLine
 62
4
  6
CONTINUOUS
 10
8.8856962216
 20
8.7056695612
 11
8.8923628885
 21
8.6956695612
  0
LINE
  5
2CB
100
AcDbEntity
  8
03__ASM_ALL_CURVES
100
AcDbLine
 62
4
  6
CONTINUOUS
 10
8.1093628885
 20
8.0506695612
 11
8.1160295536
 21
8.0606695612
  0
LINE
  5
2CC
100
AcDbEntity
  8
03__ASM_ALL_CURVES
100
AcDbLine
 62
4
  6
CONTINUOUS
 10
8.1093628885
 20
7.9706695612
 11
8.1160295536
 21
7.9806695612
  0
LINE
  5
2CD
100
AcDbEntity
  8
03__ASM_ALL_CURVES
100
AcDbLine
 62
4
  6
CONTINUOUS
 10
8.1893628885
 20
8.0506695612
 11
8.1826962216
 21
8.0406695612
  0
LINE
  5
2CE
100
AcDbEntity
  8
03__ASM_ALL_CURVES
100
AcDbLine
 62
4
  6
CONTINUOUS
 10
8.1360295536
 20
7.9906695612
 11
8.162696221
 21
7.9906695612
  0
LINE
  5
2CF
100
AcDbEntity
  8
03__ASM_ALL_CURVES
100
AcDbLine
 62
4
  6
CONTINUOUS
 10
8.162696221
 20
8.0306695612
 11
8.1360295536
 21
8.0306695612
  0
LINE
  5
2D0
100
AcDbEntity
  8
03__ASM_ALL_CURVES
100
AcDbLine
 62
4
  6
CONTINUOUS
 10
8.1360295536
 20
8.0706695612
 11
8.162696221
 21
8.0706695612
  0
LINE
  5
2D1
100
AcDbEntity
  8
03__ASM_ALL_CURVES
100
AcDbLine
 62
4
  6
CONTINUOUS
 10
8.1893628885
 20
8.2906695612
 11
8.1560295559
 21
8.2956695612
  0
LINE
  5
2D2
100
AcDbEntity
  8
03__ASM_ALL_CURVES
100
AcDbLine
 62
4
  6
CONTINUOUS
 10
8.8590295559
 20
8.3806695612
 11
8.8790295548
 21
8.3756695612
  0
LINE
  5
2D3
100
AcDbEntity
  8
03__ASM_ALL_CURVES
100
AcDbLine
 62
4
  6
CONTINUOUS
 10
8.8790295548
 20
8.7106695612
 11
8.8856962216
 21
8.7056695612
  0
LINE
  5
2D4
100
AcDbEntity
  8
03__ASM_ALL_CURVES
100
AcDbLine
 62
4
  6
CONTINUOUS
 10
8.8790295548
 20
8.7756695612
 11
8.8923628885
 21
8.7656695612
  0
LINE
  5
2D5
100
AcDbEntity
  8
03__ASM_ALL_CURVES
100
AcDbLine
 62
4
  6
CONTINUOUS
 10
8.1893628885
 20
7.9706695612
 11
8.1826962216
 21
7.9606695612
  0
LINE
  5
2D6
100
AcDbEntity
  8
03__ASM_ALL_CURVES
100
AcDbLine
 62
4
  6
CONTINUOUS
 10
8.1093628885
 20
7.8156695612
 11
8.1160295536
 21
7.8256695612
  0
LINE
  5
2D7
100
AcDbEntity
  8
03__ASM_ALL_CURVES
100
AcDbLine
 62
4
  6
CONTINUOUS
 10
8.8190295536
 20
8.7056695612
 11
8.8123628885
 21
8.6956695612
  0
LINE
  5
2D8
100
AcDbEntity
  8
03__ASM_ALL_CURVES
100
AcDbLine
 62
4
  6
CONTINUOUS
 10
8.8390295536
 20
8.6756695612
 11
8.8590295559
 21
8.7056695612
  0
LINE
  5
2D9
100
AcDbEntity
  8
03__ASM_ALL_CURVES
100
AcDbLine
 62
4
  6
CONTINUOUS
 10
8.8590295559
 20
7.8806695612
 11
8.8790295548
 21
7.8856695612
  0
LINE
  5
2DA
100
AcDbEntity
  8
03__ASM_ALL_CURVES
100
AcDbLine
 62
4
  6
CONTINUOUS
 10
8.8923628885
 20
8.1431695612
 11
8.8823628882
 21
8.1431695612
  0
LINE
  5
2DB
100
AcDbEntity
  8
03__ASM_ALL_CURVES
100
AcDbLine
 62
4
  6
CONTINUOUS
 10
8.8723628885
 20
8.1856695612
 11
8.865696221
 21
8.1856695612
  0
LINE
  5
2DC
100
AcDbEntity
  8
03__ASM_ALL_CURVES
100
AcDbLine
 62
4
  6
CONTINUOUS
 10
8.8323628885
 20
8.1906695612
 11
8.8256962234
 21
8.1906695612
  0
LINE
  5
2DD
100
AcDbEntity
  8
03__ASM_ALL_CURVES
100
AcDbLine
 62
4
  6
CONTINUOUS
 10
8.1426962234
 20
8.2006695612
 11
8.1560295559
 21
8.2006695612
  0
LINE
  5
2DE
100
AcDbEntity
  8
03__ASM_ALL_CURVES
100
AcDbLine
 62
4
  6
CONTINUOUS
 10
8.8256962234
 20
8.2306695612
 11
8.8323628885
 21
8.2306695612
  0
LINE
  5
2DF
100
AcDbEntity
  8
03__ASM_ALL_CURVES
100
AcDbLine
 62
4
  6
CONTINUOUS
 10
8.865696221
 20
8.2356695612
 11
8.8723628885
 21
8.2356695612
  0
LINE
  5
2E0
100
AcDbEntity
  8
03__ASM_ALL_CURVES
100
AcDbLine
 62
4
  6
CONTINUOUS
 10
8.8723628885
 20
8.2656695612
 11
8.865696221
 21
8.2656695612
  0
LINE
  5
2E1
100
AcDbEntity
  8
03__ASM_ALL_CURVES
100
AcDbLine
 62
4
  6
CONTINUOUS
 10
8.8323628885
 20
8.2706695612
 11
8.8256962234
 21
8.2706695612
  0
LINE
  5
2E2
100
AcDbEntity
  8
03__ASM_ALL_CURVES
100
AcDbLine
 62
4
  6
CONTINUOUS
 10
8.8256962234
 20
8.5256695612
 11
8.8456962234
 21
8.5206695612
  0
LINE
  5
2E3
100
AcDbEntity
  8
03__ASM_ALL_CURVES
100
AcDbLine
 62
4
  6
CONTINUOUS
 10
8.1560295559
 20
8.7006695612
 11
8.1760295548
 21
8.6956695612
  0
LINE
  5
2E4
100
AcDbEntity
  8
03__ASM_ALL_CURVES
100
AcDbLine
 62
4
  6
CONTINUOUS
 10
8.8923628885
 20
8.6856695612
 11
8.8856962216
 21
8.6756695612
  0
LINE
  5
2E5
100
AcDbEntity
  8
03__ASM_ALL_CURVES
100
AcDbLine
 62
4
  6
CONTINUOUS
 10
8.8123628885
 20
8.2956695612
 11
8.8190295536
 21
8.3056695612
  0
LINE
  5
2E6
100
AcDbEntity
  8
03__ASM_ALL_CURVES
100
AcDbLine
 62
4
  6
CONTINUOUS
 10
8.1093628885
 20
8.6856695612
 11
8.1226962234
 21
8.6956695612
  0
LINE
  5
2E7
100
AcDbEntity
  8
03__ASM_ALL_CURVES
100
AcDbLine
 62
4
  6
CONTINUOUS
 10
8.1160295536
 20
8.6206695612
 11
8.1226962234
 21
8.6256695612
  0
LINE
  5
2E8
100
AcDbEntity
  8
03__ASM_ALL_CURVES
100
AcDbLine
 62
4
  6
CONTINUOUS
 10
8.1826962216
 20
8.6006695612
 11
8.1760295548
 21
8.5956695612
  0
LINE
  5
2E9
100
AcDbEntity
  8
03__ASM_ALL_CURVES
100
AcDbLine
 62
4
  6
CONTINUOUS
 10
8.1160295536
 20
8.5406695612
 11
8.1226962234
 21
8.5456695612
  0
LINE
  5
2EA
100
AcDbEntity
  8
03__ASM_ALL_CURVES
100
AcDbLine
 62
4
  6
CONTINUOUS
 10
8.1826962216
 20
8.5206695612
 11
8.1760295548
 21
8.5156695612
  0
LINE
  5
2EB
100
AcDbEntity
  8
03__ASM_ALL_CURVES
100
AcDbLine
 62
4
  6
CONTINUOUS
 10
8.8256962234
 20
8.3106695612
 11
8.8323628885
 21
8.3106695612
  0
LINE
  5
2EC
100
AcDbEntity
  8
03__ASM_ALL_CURVES
100
AcDbLine
 62
4
  6
CONTINUOUS
 10
8.865696221
 20
8.3156695612
 11
8.8723628885
 21
8.3156695612
  0
LINE
  5
2ED
100
AcDbEntity
  8
03__ASM_ALL_CURVES
100
AcDbLine
 62
4
  6
CONTINUOUS
 10
8.8456962234
 20
8.3806695612
 11
8.8590295559
 21
8.3806695612
  0
LINE
  5
2EE
100
AcDbEntity
  8
03__ASM_ALL_CURVES
100
AcDbLine
 62
4
  6
CONTINUOUS
 10
8.1226962234
 20
8.3906695612
 11
8.1293628885
 21
8.3906695612
  0
LINE
  5
2EF
100
AcDbEntity
  8
03__ASM_ALL_CURVES
100
AcDbLine
 62
4
  6
CONTINUOUS
 10
8.162696221
 20
8.3956695612
 11
8.1693628885
 21
8.3956695612
  0
LINE
  5
2F0
100
AcDbEntity
  8
03__ASM_ALL_CURVES
100
AcDbLine
 62
4
  6
CONTINUOUS
 10
8.1893628885
 20
8.4631695612
 11
8.1793628882
 21
8.4631695612
  0
LINE
  5
2F1
100
AcDbEntity
  8
03__ASM_ALL_CURVES
100
AcDbLine
 62
4
  6
CONTINUOUS
 10
8.8590295559
 20
8.7806695612
 11
8.8790295548
 21
8.7756695612
  0
LINE
  5
2F2
100
AcDbEntity
  8
03__ASM_ALL_CURVES
100
AcDbLine
 62
4
  6
CONTINUOUS
 10
8.8456962234
 20
8.2956695612
 11
8.8523628885
 21
8.3056695612
  0
LINE
  5
2F3
100
AcDbEntity
  8
03__ASM_ALL_CURVES
100
AcDbLine
 62
4
  6
CONTINUOUS
 10
8.8456962234
 20
8.2856695612
 11
8.8390295536
 21
8.2756695612
  0
LINE
  5
2F4
100
AcDbEntity
  8
03__ASM_ALL_CURVES
100
AcDbLine
 62
4
  6
CONTINUOUS
 10
8.8123628885
 20
8.2156695612
 11
8.8190295536
 21
8.2256695612
  0
LINE
  5
2F5
100
AcDbEntity
  8
03__ASM_ALL_CURVES
100
AcDbLine
 62
4
  6
CONTINUOUS
 10
8.8456962234
 20
8.2156695612
 11
8.8523628885
 21
8.2256695612
  0
LINE
  5
2F6
100
AcDbEntity
  8
03__ASM_ALL_CURVES
100
AcDbLine
 62
4
  6
CONTINUOUS
 10
8.8923628885
 20
8.2856695612
 11
8.8856962216
 21
8.2756695612
  0
LINE
  5
2F7
100
AcDbEntity
  8
03__ASM_ALL_CURVES
100
AcDbLine
 62
4
  6
CONTINUOUS
 10
8.8456962234
 20
8.2056695612
 11
8.8390295536
 21
8.1956695612
  0
LINE
  5
2F8
100
AcDbEntity
  8
03__ASM_ALL_CURVES
100
AcDbLine
 62
4
  6
CONTINUOUS
 10
8.8923628885
 20
8.2056695612
 11
8.8856962216
 21
8.1956695612
  0
LINE
  5
2F9
100
AcDbEntity
  8
03__ASM_ALL_CURVES
100
AcDbLine
 62
4
  6
CONTINUOUS
 10
8.8390295536
 20
8.0556695612
 11
8.8456962234
 21
8.0656695612
  0
LINE
  5
2FA
100
AcDbEntity
  8
03__ASM_ALL_CURVES
100
AcDbLine
 62
4
  6
CONTINUOUS
 10
8.1793628882
 20
8.4631695612
 11
8.1893628885
 21
8.4706695612
  0
LINE
  5
2FB
100
AcDbEntity
  8
03__ASM_ALL_CURVES
100
AcDbLine
 62
4
  6
CONTINUOUS
 10
8.1160295536
 20
8.3856695612
 11
8.1226962234
 21
8.3906695612
  0
LINE
  5
2FC
100
AcDbEntity
  8
03__ASM_ALL_CURVES
100
AcDbLine
 62
4
  6
CONTINUOUS
 10
8.1493628885
 20
8.3856695612
 11
8.162696221
 21
8.3956695612
  0
LINE
  5
2FD
100
AcDbEntity
  8
03__ASM_ALL_CURVES
100
AcDbLine
 62
4
  6
CONTINUOUS
 10
8.1826962216
 20
8.3556695612
 11
8.1760295548
 21
8.3506695612
  0
LINE
  5
2FE
100
AcDbEntity
  8
03__ASM_ALL_CURVES
100
AcDbLine
 62
4
  6
CONTINUOUS
 10
8.8123628885
 20
8.7656695612
 11
8.8256962234
 21
8.7756695612
  0
LINE
  5
2FF
100
AcDbEntity
  8
03__ASM_ALL_CURVES
100
AcDbLine
 62
4
  6
CONTINUOUS
 10
11.8003628885
 20
10.8873362263
 11
11.8103628885
 21
10.8940028962
  0
LINE
  5
300
100
AcDbEntity
  8
03__ASM_ALL_CURVES
100
AcDbLine
 62
4
  6
CONTINUOUS
 10
8.162696221
 20
8.5106695612
 11
8.1360295536
 21
8.5106695612
  0
LINE
  5
301
100
AcDbEntity
  8
03__ASM_ALL_CURVES
100
AcDbLine
 62
4
  6
CONTINUOUS
 10
8.8456962234
 20
8.5206695612
 11
8.8590295559
 21
8.5206695612
  0
LINE
  5
302
100
AcDbEntity
  8
03__ASM_ALL_CURVES
100
AcDbLine
 62
4
  6
CONTINUOUS
 10
11.068696221
 20
8.5906695612
 11
11.0420295536
 21
8.5906695612
  0
LINE
  5
303
100
AcDbEntity
  8
03__ASM_ALL_CURVES
100
AcDbLine
 62
4
  6
CONTINUOUS
 10
8.162696221
 20
8.5906695612
 11
8.1360295536
 21
8.5906695612
  0
LINE
  5
304
100
AcDbEntity
  8
03__ASM_ALL_CURVES
100
AcDbLine
 62
4
  6
CONTINUOUS
 10
8.8123628885
 20
8.5906695612
 11
8.8923628885
 21
8.5906695612
  0
LINE
  5
305
100
AcDbEntity
  8
03__ASM_ALL_CURVES
100
AcDbLine
 62
4
  6
CONTINUOUS
 10
11.0420295536
 20
8.6306695612
 11
11.068696221
 21
8.6306695612
  0
LINE
  5
306
100
AcDbEntity
  8
03__ASM_ALL_CURVES
100
AcDbLine
 62
4
  6
CONTINUOUS
 10
8.8390295536
 20
7.9756695612
 11
8.8456962234
 21
7.9856695612
  0
LINE
  5
307
100
AcDbEntity
  8
03__ASM_ALL_CURVES
100
AcDbLine
 62
4
  6
CONTINUOUS
 10
8.8923628885
 20
8.0456695612
 11
8.8856962216
 21
8.0356695612
  0
LINE
  5
308
100
AcDbEntity
  8
03__ASM_ALL_CURVES
100
AcDbLine
 62
4
  6
CONTINUOUS
 10
8.8923628885
 20
7.9656695612
 11
8.8856962216
 21
7.9556695612
  0
LINE
  5
309
100
AcDbEntity
  8
03__ASM_ALL_CURVES
100
AcDbLine
 62
4
  6
CONTINUOUS
 10
8.8123628885
 20
7.7306695612
 11
8.8190295536
 21
7.7406695612
  0
LINE
  5
30A
100
AcDbEntity
  8
03__ASM_ALL_CURVES
100
AcDbLine
 62
4
  6
CONTINUOUS
 10
8.8123628885
 20
7.6556695612
 11
8.8190295536
 21
7.6656695612
  0
LINE
  5
30B
100
AcDbEntity
  8
03__ASM_ALL_CURVES
100
AcDbLine
 62
4
  6
CONTINUOUS
 10
8.8923628885
 20
7.7306695612
 11
8.8856962216
 21
7.7206695612
  0
LINE
  5
30C
100
AcDbEntity
  8
03__ASM_ALL_CURVES
100
AcDbLine
 62
4
  6
CONTINUOUS
 10
8.8256962234
 20
8.7106695612
 11
8.8190295536
 21
8.7056695612
  0
LINE
  5
30D
100
AcDbEntity
  8
03__ASM_ALL_CURVES
100
AcDbLine
 62
4
  6
CONTINUOUS
 10
8.1760295548
 20
8.2056695612
 11
8.1893628885
 21
8.2156695612
  0
LINE
  5
30E
100
AcDbEntity
  8
03__ASM_ALL_CURVES
100
AcDbLine
 62
4
  6
CONTINUOUS
 10
8.8590295559
 20
8.7056695612
 11
8.865696221
 21
8.7106695612
  0
LINE
  5
30F
100
AcDbEntity
  8
03__ASM_ALL_CURVES
100
AcDbLine
 62
4
  6
CONTINUOUS
 10
8.8323628885
 20
8.6706695612
 11
8.8390295536
 21
8.6756695612
  0
LINE
  5
310
100
AcDbEntity
  8
03__ASM_ALL_CURVES
100
AcDbLine
 62
4
  6
CONTINUOUS
 10
8.8856962216
 20
8.6756695612
 11
8.8723628885
 21
8.6656695612
  0
LINE
  5
311
100
AcDbEntity
  8
03__ASM_ALL_CURVES
100
AcDbLine
 62
4
  6
CONTINUOUS
 10
8.1160295536
 20
8.0606695612
 11
8.1226962234
 21
8.0656695612
  0
LINE
  5
312
100
AcDbEntity
  8
03__ASM_ALL_CURVES
100
AcDbLine
 62
4
  6
CONTINUOUS
 10
11.8303628885
 20
10.8473362281
 11
11.8203628885
 21
10.8406695612
  0
LINE
  5
313
100
AcDbEntity
  8
03__ASM_ALL_CURVES
100
AcDbLine
 62
4
  6
CONTINUOUS
 10
8.1560295559
 20
8.2006695612
 11
8.1760295548
 21
8.2056695612
  0
LINE
  5
314
100
AcDbEntity
  8
03__ASM_ALL_CURVES
100
AcDbLine
 62
4
  6
CONTINUOUS
 10
8.8256962234
 20
8.3756695612
 11
8.8456962234
 21
8.3806695612
  0
LINE
  5
315
100
AcDbEntity
  8
03__ASM_ALL_CURVES
100
AcDbLine
 62
4
  6
CONTINUOUS
 10
8.8256962234
 20
8.6706695612
 11
8.8323628885
 21
8.6706695612
  0
LINE
  5
316
100
AcDbEntity
  8
03__ASM_ALL_CURVES
100
AcDbLine
 62
4
  6
CONTINUOUS
 10
8.1426962234
 20
8.7006695612
 11
8.1560295559
 21
8.7006695612
  0
LINE
  5
317
100
AcDbEntity
  8
03__ASM_ALL_CURVES
100
AcDbLine
 62
4
  6
CONTINUOUS
 10
8.865696221
 20
8.7106695612
 11
8.8790295548
 21
8.7106695612
  0
LINE
  5
318
100
AcDbEntity
  8
03__ASM_ALL_CURVES
100
AcDbLine
 62
4
  6
CONTINUOUS
 10
8.8456962234
 20
8.7806695612
 11
8.8590295559
 21
8.7806695612
  0
LINE
  5
319
100
AcDbEntity
  8
03__ASM_ALL_CURVES
100
AcDbLine
 62
4
  6
CONTINUOUS
 10
8.8123628885
 20
7.4956695612
 11
8.8190295536
 21
7.5056695612
  0
LINE
  5
31A
100
AcDbEntity
  8
03__ASM_ALL_CURVES
100
AcDbLine
 62
4
  6
CONTINUOUS
 10
8.1826962216
 20
8.0406695612
 11
8.1760295548
 21
8.0356695612
  0
LINE
  5
31B
100
AcDbEntity
  8
03__ASM_ALL_CURVES
100
AcDbLine
 62
4
  6
CONTINUOUS
 10
8.1160295536
 20
7.9806695612
 11
8.1226962234
 21
7.9856695612
  0
LINE
  5
31C
100
AcDbEntity
  8
03__ASM_ALL_CURVES
100
AcDbLine
 62
4
  6
CONTINUOUS
 10
8.8790295548
 20
8.5256695612
 11
8.8923628885
 21
8.5356695612
  0
LINE
  5
31D
100
AcDbEntity
  8
03__ASM_ALL_CURVES
100
AcDbLine
 62
4
  6
CONTINUOUS
 10
8.1826962216
 20
7.9606695612
 11
8.1760295548
 21
7.9556695612
  0
LINE
  5
31E
100
AcDbEntity
  8
03__ASM_ALL_CURVES
100
AcDbLine
 62
4
  6
CONTINUOUS
 10
8.1793628882
 20
7.9031695612
 11
8.1893628885
 21
7.9106695612
  0
LINE
  5
31F
100
AcDbEntity
  8
03__ASM_ALL_CURVES
100
AcDbLine
 62
4
  6
CONTINUOUS
 10
8.8123628885
 20
8.3656695612
 11
8.8256962234
 21
8.3756695612
  0
LINE
  5
320
100
AcDbEntity
  8
03__ASM_ALL_CURVES
100
AcDbLine
 62
4
  6
CONTINUOUS
 10
8.1160295536
 20
7.8256695612
 11
8.1226962234
 21
7.8306695612
  0
LINE
  5
321
100
AcDbEntity
  8
03__ASM_ALL_CURVES
100
AcDbLine
 62
4
  6
CONTINUOUS
 10
8.8190295536
 20
8.3056695612
 11
8.8256962234
 21
8.3106695612
  0
LINE
  5
322
100
AcDbEntity
  8
03__ASM_ALL_CURVES
100
AcDbLine
 62
4
  6
CONTINUOUS
 10
8.1493628885
 20
8.6256695612
 11
8.162696221
 21
8.6306695612
  0
LINE
  5
323
100
AcDbEntity
  8
03__ASM_ALL_CURVES
100
AcDbLine
 62
4
  6
CONTINUOUS
 10
8.1760295548
 20
8.5956695612
 11
8.162696221
 21
8.5906695612
  0
LINE
  5
324
100
AcDbEntity
  8
03__ASM_ALL_CURVES
100
AcDbLine
 62
4
  6
CONTINUOUS
 10
8.8590295559
 20
8.5206695612
 11
8.8790295548
 21
8.5256695612
  0
LINE
  5
325
100
AcDbEntity
  8
03__ASM_ALL_CURVES
100
AcDbLine
 62
4
  6
CONTINUOUS
 10
11.0420295536
 20
8.5906695612
 11
11.0286962234
 21
8.5956695612
  0
LINE
  5
326
100
AcDbEntity
  8
03__ASM_ALL_CURVES
100
AcDbLine
 62
4
  6
CONTINUOUS
 10
11.068696221
 20
8.6306695612
 11
11.0820295548
 21
8.6256695612
  0
LINE
  5
327
100
AcDbEntity
  8
03__ASM_ALL_CURVES
100
AcDbLine
 62
4
  6
CONTINUOUS
 10
8.8523628885
 20
8.3056695612
 11
8.865696221
 21
8.3156695612
  0
LINE
  5
328
100
AcDbEntity
  8
03__ASM_ALL_CURVES
100
AcDbLine
 62
4
  6
CONTINUOUS
 10
8.8390295536
 20
8.2756695612
 11
8.8323628885
 21
8.2706695612
  0
LINE
  5
329
100
AcDbEntity
  8
03__ASM_ALL_CURVES
100
AcDbLine
 62
4
  6
CONTINUOUS
 10
8.8856962216
 20
8.2756695612
 11
8.8723628885
 21
8.2656695612
  0
LINE
  5
32A
100
AcDbEntity
  8
03__ASM_ALL_CURVES
100
AcDbLine
 62
4
  6
CONTINUOUS
 10
8.8190295536
 20
8.2256695612
 11
8.8256962234
 21
8.2306695612
  0
LINE
  5
32B
100
AcDbEntity
  8
03__ASM_ALL_CURVES
100
AcDbLine
 62
4
  6
CONTINUOUS
 10
8.8523628885
 20
8.2256695612
 11
8.865696221
 21
8.2356695612
  0
LINE
  5
32C
100
AcDbEntity
  8
03__ASM_ALL_CURVES
100
AcDbLine
 62
4
  6
CONTINUOUS
 10
8.8390295536
 20
8.1956695612
 11
8.8323628885
 21
8.1906695612
  0
LINE
  5
32D
100
AcDbEntity
  8
03__ASM_ALL_CURVES
100
AcDbLine
 62
4
  6
CONTINUOUS
 10
8.8856962216
 20
8.1956695612
 11
8.8723628885
 21
8.1856695612
  0
LINE
  5
32E
100
AcDbEntity
  8
03__ASM_ALL_CURVES
100
AcDbLine
 62
4
  6
CONTINUOUS
 10
8.8823628882
 20
8.1431695612
 11
8.8923628885
 21
8.1506695612
  0
LINE
  5
32F
100
AcDbEntity
  8
03__ASM_ALL_CURVES
100
AcDbLine
 62
4
  6
CONTINUOUS
 10
8.1493628885
 20
8.5456695612
 11
8.162696221
 21
8.5506695612
  0
LINE
  5
330
100
AcDbEntity
  8
03__ASM_ALL_CURVES
100
AcDbLine
 62
4
  6
CONTINUOUS
 10
8.1760295548
 20
8.5156695612
 11
8.162696221
 21
8.5106695612
  0
LINE
  5
331
100
AcDbEntity
  8
03__ASM_ALL_CURVES
100
AcDbLine
 62
4
  6
CONTINUOUS
 10
8.8256962234
 20
8.7756695612
 11
8.8456962234
 21
8.7806695612
  0
LINE
  5
332
100
AcDbEntity
  8
0
100
AcDbLine
 62
7
  6
CONTINUOUS
 10
11.0553628885
 20
9.1306695612
 11
8.8053630077
 21
9.1306695612
  0
LINE
  5
333
100
AcDbEntity
  8
03__ASM_ALL_CURVES
100
AcDbLine
 62
4
  6
CONTINUOUS
 10
11.1353628885
 20
9.1306695612
 11
11.3753628885
 21
9.1306695612
  0
LINE
  5
334
100
AcDbEntity
  8
0
100
AcDbLine
 62
7
  6
CONTINUOUS
 10
8.8053630077
 20
9.1716695612
 11
8.1803629896
 21
9.1716695612
  0
LINE
  5
335
100
AcDbEntity
  8
03__ASM_ALL_CURVES
100
AcDbLine
 62
4
  6
CONTINUOUS
 10
11.0286962234
 20
8.5956695612
 11
11.0220295536
 21
8.6006695612
  0
LINE
  5
336
100
AcDbEntity
  8
03__ASM_ALL_CURVES
100
AcDbLine
 62
4
  6
CONTINUOUS
 10
11.0820295548
 20
8.6256695612
 11
11.0886962216
 21
8.6206695612
  0
LINE
  5
337
100
AcDbEntity
  8
03__ASM_ALL_CURVES
100
AcDbLine
 62
4
  6
CONTINUOUS
 10
8.8456962234
 20
8.0656695612
 11
8.8523628885
 21
8.0706695612
  0
LINE
  5
338
100
AcDbEntity
  8
03__ASM_ALL_CURVES
100
AcDbLine
 62
4
  6
CONTINUOUS
 10
8.8856962216
 20
8.0356695612
 11
8.8790295548
 21
8.0306695612
  0
LINE
  5
339
100
AcDbEntity
  8
03__ASM_ALL_CURVES
100
AcDbLine
 62
4
  6
CONTINUOUS
 10
8.8456962234
 20
7.9856695612
 11
8.8523628885
 21
7.9906695612
  0
LINE
  5
33A
100
AcDbEntity
  8
03__ASM_ALL_CURVES
100
AcDbLine
 62
4
  6
CONTINUOUS
 10
8.8856962216
 20
7.9556695612
 11
8.8790295548
 21
7.9506695612
  0
LINE
  5
33B
100
AcDbEntity
  8
03__ASM_ALL_CURVES
100
AcDbLine
 62
4
  6
CONTINUOUS
 10
8.8790295548
 20
7.8856695612
 11
8.8923628885
 21
7.8956695612
  0
LINE
  5
33C
100
AcDbEntity
  8
03__ASM_ALL_CURVES
100
AcDbLine
 62
4
  6
CONTINUOUS
 10
8.1226962234
 20
8.6956695612
 11
8.1426962234
 21
8.7006695612
  0
LINE
  5
33D
100
AcDbEntity
  8
03__ASM_ALL_CURVES
100
AcDbLine
 62
4
  6
CONTINUOUS
 10
11.8353628885
 20
10.854002895
 11
11.8303628885
 21
10.8473362281
  0
LINE
  5
33E
100
AcDbEntity
  8
03__ASM_ALL_CURVES
100
AcDbLine
 62
4
  6
CONTINUOUS
 10
11.9803628885
 20
10.9206695612
 11
11.9703628885
 21
10.9073362263
  0
LINE
  5
33F
100
AcDbEntity
  8
03__ASM_ALL_CURVES
100
AcDbLine
 62
4
  6
CONTINUOUS
 10
8.8190295536
 20
7.7406695612
 11
8.8256962234
 21
7.7456695612
  0
LINE
  5
340
100
AcDbEntity
  8
03__ASM_ALL_CURVES
100
AcDbLine
 62
4
  6
CONTINUOUS
 10
8.8856962216
 20
7.7206695612
 11
8.8790295548
 21
7.7156695612
  0
LINE
  5
341
100
AcDbEntity
  8
03__ASM_ALL_CURVES
100
AcDbLine
 62
4
  6
CONTINUOUS
 10
8.8190295536
 20
7.6656695612
 11
8.8256962234
 21
7.6706695612
  0
LINE
  5
342
100
AcDbEntity
  8
03__ASM_ALL_CURVES
100
AcDbLine
 62
4
  6
CONTINUOUS
 10
8.1226962234
 20
8.0656695612
 11
8.1360295536
 21
8.0706695612
  0
LINE
  5
343
100
AcDbEntity
  8
03__ASM_ALL_CURVES
100
AcDbLine
 62
4
  6
CONTINUOUS
 10
8.1760295548
 20
8.0356695612
 11
8.162696221
 21
8.0306695612
  0
LINE
  5
344
100
AcDbEntity
  8
03__ASM_ALL_CURVES
100
AcDbLine
 62
4
  6
CONTINUOUS
 10
8.1226962234
 20
7.9856695612
 11
8.1360295536
 21
7.9906695612
  0
LINE
  5
345
100
AcDbEntity
  8
0
100
AcDbLine
 62
7
  6
CONTINUOUS
 10
8.1493629896
 20
9.5466695612
 11
8.8053630077
 21
9.5466695612
  0
LINE
  5
346
100
AcDbEntity
  8
03__ASM_ALL_CURVES
100
AcDbLine
 62
4
  6
CONTINUOUS
 10
11.0220295536
 20
8.6006695612
 11
11.0153628885
 21
8.6106695612
  0
LINE
  5
347
100
AcDbEntity
  8
03__ASM_ALL_CURVES
100
AcDbLine
 62
4
  6
CONTINUOUS
 10
11.0886962216
 20
8.6206695612
 11
11.0953628885
 21
8.6106695612
  0
LINE
  5
348
100
AcDbEntity
  8
03__ASM_ALL_CURVES
100
AcDbLine
 62
4
  6
CONTINUOUS
 10
8.8823628882
 20
7.5831695612
 11
8.8923628885
 21
7.5906695612
  0
LINE
  5
349
100
AcDbEntity
  8
03__ASM_ALL_CURVES
100
AcDbLine
 62
4
  6
CONTINUOUS
 10
8.8190295536
 20
7.5056695612
 11
8.8256962234
 21
7.5106695612
  0
LINE
  5
34A
100
AcDbEntity
  8
03__ASM_ALL_CURVES
100
AcDbLine
 62
4
  6
CONTINUOUS
 10
8.1493628885
 20
7.9556695612
 11
8.1360295536
 21
7.9506695612
  0
LINE
  5
34B
100
AcDbEntity
  8
03__ASM_ALL_CURVES
100
AcDbLine
 62
4
  6
CONTINUOUS
 10
8.8523628885
 20
8.0706695612
 11
8.865696221
 21
8.0756695612
  0
LINE
  5
34C
100
AcDbEntity
  8
03__ASM_ALL_CURVES
100
AcDbLine
 62
4
  6
CONTINUOUS
 10
12.0703628885
 20
10.9206695612
 11
12.0353628885
 21
10.8606695612
  0
LINE
  5
34D
100
AcDbEntity
  8
03__ASM_ALL_CURVES
100
AcDbLine
 62
4
  6
CONTINUOUS
 10
12.1503628885
 20
10.9206695612
 11
12.1153628885
 21
10.8606695612
  0
LINE
  5
34E
100
AcDbEntity
  8
03__ASM_ALL_CURVES
100
AcDbLine
 62
4
  6
CONTINUOUS
 10
12.4603628885
 20
10.854002895
 11
12.4503628885
 21
10.8406695612
  0
LINE
  5
34F
100
AcDbEntity
  8
03__ASM_ALL_CURVES
100
AcDbLine
 62
4
  6
CONTINUOUS
 10
11.5653628885
 20
9.1640028962
 11
11.5753628885
 21
9.1706695612
  0
LINE
  5
350
100
AcDbEntity
  8
03__ASM_ALL_CURVES
100
AcDbLine
 62
4
  6
CONTINUOUS
 10
8.8523628885
 20
7.9906695612
 11
8.865696221
 21
7.9956695612
  0
LINE
  5
351
100
AcDbEntity
  8
03__ASM_ALL_CURVES
100
AcDbLine
 62
4
  6
CONTINUOUS
 10
11.5753628885
 20
9.0906695612
 11
11.5653628885
 21
9.0973362281
  0
LINE
  5
352
100
AcDbEntity
  8
03__ASM_ALL_CURVES
100
AcDbLine
 62
4
  6
CONTINUOUS
 10
11.5753628885
 20
9.1706695612
 11
11.5853628885
 21
9.1640028962
  0
LINE
  5
353
100
AcDbEntity
  8
03__ASM_ALL_CURVES
100
AcDbLine
 62
4
  6
CONTINUOUS
 10
11.0553628885
 20
9.0506695612
 11
11.0553628885
 21
8.8106695612
  0
LINE
  5
354
100
AcDbEntity
  8
0
100
AcDbLine
 62
7
  6
CONTINUOUS
 10
11.0553628885
 20
9.1306695612
 11
11.0553628885
 21
10.8806695612
  0
LINE
  5
355
100
AcDbEntity
  8
03__ASM_ALL_CURVES
100
AcDbLine
 62
4
  6
CONTINUOUS
 10
11.7453628885
 20
10.8940028962
 11
11.7553628885
 21
10.9206695612
  0
LINE
  5
356
100
AcDbEntity
  8
03__ASM_ALL_CURVES
100
AcDbLine
 62
4
  6
CONTINUOUS
 10
11.8403628885
 20
10.8673362287
 11
11.8353628885
 21
10.854002895
  0
LINE
  5
357
100
AcDbEntity
  8
03__ASM_ALL_CURVES
100
AcDbLine
 62
4
  6
CONTINUOUS
 10
12.3103628885
 20
10.9206695612
 11
12.2753628885
 21
10.8606695612
  0
LINE
  5
358
100
AcDbEntity
  8
03__ASM_ALL_CURVES
100
AcDbLine
 62
4
  6
CONTINUOUS
 10
12.3903628885
 20
10.9206695612
 11
12.3553628885
 21
10.8606695612
  0
LINE
  5
359
100
AcDbEntity
  8
03__ASM_ALL_CURVES
100
AcDbLine
 62
4
  6
CONTINUOUS
 10
11.0153628885
 20
8.6106695612
 11
11.0220295536
 21
8.6206695612
  0
LINE
  5
35A
100
AcDbEntity
  8
03__ASM_ALL_CURVES
100
AcDbLine
 62
4
  6
CONTINUOUS
 10
11.0220295536
 20
8.6206695612
 11
11.0286962234
 21
8.6256695612
  0
LINE
  5
35B
100
AcDbEntity
  8
03__ASM_ALL_CURVES
100
AcDbLine
 62
4
  6
CONTINUOUS
 10
11.5853628885
 20
9.0973362281
 11
11.5753628885
 21
9.0906695612
  0
LINE
  5
35C
100
AcDbEntity
  8
03__ASM_ALL_CURVES
100
AcDbLine
 62
4
  6
CONTINUOUS
 10
11.0286962234
 20
8.6256695612
 11
11.0420295536
 21
8.6306695612
  0
LINE
  5
35D
100
AcDbEntity
  8
03__ASM_ALL_CURVES
100
AcDbLine
 62
4
  6
CONTINUOUS
 10
11.0820295548
 20
8.5956695612
 11
11.068696221
 21
8.5906695612
  0
LINE
  5
35E
100
AcDbEntity
  8
03__ASM_ALL_CURVES
100
AcDbLine
 62
4
  6
CONTINUOUS
 10
8.8256962234
 20
7.7456695612
 11
8.8390295536
 21
7.7506695612
  0
LINE
  5
35F
100
AcDbEntity
  8
03__ASM_ALL_CURVES
100
AcDbLine
 62
4
  6
CONTINUOUS
 10
8.8790295548
 20
7.7156695612
 11
8.865696221
 21
7.7106695612
  0
LINE
  5
360
100
AcDbEntity
  8
03__ASM_ALL_CURVES
100
AcDbLine
 62
4
  6
CONTINUOUS
 10
11.7403628885
 20
10.8740028938
 11
11.7453628885
 21
10.8940028962
  0
LINE
  5
361
100
AcDbEntity
  8
03__ASM_ALL_CURVES
100
AcDbLine
 62
4
  6
CONTINUOUS
 10
11.0953628885
 20
8.6106695612
 11
11.0886962216
 21
8.6006695612
  0
LINE
  5
362
100
AcDbEntity
  8
03__ASM_ALL_CURVES
100
AcDbLine
 62
4
  6
CONTINUOUS
 10
11.5603628885
 20
9.1573362263
 11
11.5653628885
 21
9.1640028962
  0
LINE
  5
363
100
AcDbEntity
  8
03__ASM_ALL_CURVES
100
AcDbLine
 62
4
  6
CONTINUOUS
 10
11.5903628885
 20
9.104002895
 11
11.5853628885
 21
9.0973362281
  0
LINE
  5
364
100
AcDbEntity
  8
03__ASM_ALL_CURVES
100
AcDbLine
 62
4
  6
CONTINUOUS
 10
11.0886962216
 20
8.6006695612
 11
11.0820295548
 21
8.5956695612
  0
LINE
  5
365
100
AcDbEntity
  8
03__ASM_ALL_CURVES
100
AcDbLine
 62
4
  6
CONTINUOUS
 10
11.5653628885
 20
9.0973362281
 11
11.5603628885
 21
9.104002895
  0
LINE
  5
366
100
AcDbEntity
  8
03__ASM_ALL_CURVES
100
AcDbLine
 62
4
  6
CONTINUOUS
 10
11.5853628885
 20
9.1640028962
 11
11.5903628885
 21
9.1573362263
  0
LINE
  5
367
100
AcDbEntity
  8
03__ASM_ALL_CURVES
100
AcDbLine
 62
4
  6
CONTINUOUS
 10
11.5553628885
 20
9.1173362287
 11
11.5553628885
 21
9.1440028962
  0
LINE
  5
368
100
AcDbEntity
  8
03__ASM_ALL_CURVES
100
AcDbLine
 62
4
  6
CONTINUOUS
 10
11.5753628885
 20
10.9206695612
 11
11.5753628885
 21
10.8406695612
  0
LINE
  5
369
100
AcDbEntity
  8
03__ASM_ALL_CURVES
100
AcDbLine
 62
4
  6
CONTINUOUS
 10
11.5953628885
 20
9.1440028962
 11
11.5953628885
 21
9.1173362287
  0
LINE
  5
36A
100
AcDbEntity
  8
03__ASM_ALL_CURVES
100
AcDbLine
 62
4
  6
CONTINUOUS
 10
11.7353628885
 20
10.8406695612
 11
11.7403628885
 21
10.8740028938
  0
LINE
  5
36B
100
AcDbEntity
  8
03__ASM_ALL_CURVES
100
AcDbLine
 62
4
  6
CONTINUOUS
 10
11.8053628885
 20
10.9206695612
 11
11.8003628885
 21
10.8873362263
  0
LINE
  5
36C
100
AcDbEntity
  8
03__ASM_ALL_CURVES
100
AcDbLine
 62
4
  6
CONTINUOUS
 10
11.9703628885
 20
10.9073362263
 11
11.9653628885
 21
10.8873362263
  0
LINE
  5
36D
100
AcDbEntity
  8
03__ASM_ALL_CURVES
100
AcDbLine
 62
4
  6
CONTINUOUS
 10
11.5553628885
 20
9.1440028962
 11
11.5603628885
 21
9.1573362263
  0
LINE
  5
36E
100
AcDbEntity
  8
03__ASM_ALL_CURVES
100
AcDbLine
 62
4
  6
CONTINUOUS
 10
11.5953628885
 20
9.1173362287
 11
11.5903628885
 21
9.104002895
  0
LINE
  5
36F
100
AcDbEntity
  8
0
100
AcDbLine
 62
7
  6
CONTINUOUS
 10
8.1493629896
 20
10.4646695612
 11
8.8053630077
 21
10.4646695612
  0
LINE
  5
370
100
AcDbEntity
  8
03__ASM_ALL_CURVES
100
AcDbLine
 62
4
  6
CONTINUOUS
 10
11.5603628885
 20
9.104002895
 11
11.5553628885
 21
9.1173362287
  0
LINE
  5
371
100
AcDbEntity
  8
03__ASM_ALL_CURVES
100
AcDbLine
 62
4
  6
CONTINUOUS
 10
11.5903628885
 20
9.1573362263
 11
11.5953628885
 21
9.1440028962
  0
LINE
  5
372
100
AcDbEntity
  8
03__ASM_ALL_CURVES
100
AcDbLine
 62
4
  6
CONTINUOUS
 10
11.6678628885
 20
10.8406695612
 11
11.6678628885
 21
10.8506695615
  0
LINE
  5
373
100
AcDbEntity
  8
03__ASM_ALL_CURVES
100
AcDbLine
 62
4
  6
CONTINUOUS
 10
11.9653628885
 20
10.8873362263
 11
11.9653628885
 21
10.8740028938
  0
LINE
  5
374
100
AcDbEntity
  8
0
100
AcDbLine
 62
7
  6
CONTINUOUS
 10
8.1803629896
 20
10.8396695612
 11
8.8053630077
 21
10.8396695612
  0
LINE
  5
375
100
AcDbEntity
  8
03__ASM_ALL_CURVES
100
AcDbLine
 62
4
  6
CONTINUOUS
 10
12.2353628885
 20
10.8406695612
 11
12.2278628885
 21
10.8406695612
  0
LINE
  5
376
100
AcDbEntity
  8
03__ASM_ALL_CURVES
100
AcDbLine
 62
4
  6
CONTINUOUS
 10
11.8203628885
 20
10.8406695612
 11
11.8103628885
 21
10.8406695612
  0
LINE
  5
377
100
AcDbEntity
  8
03__ASM_ALL_CURVES
100
AcDbLine
 62
4
  6
CONTINUOUS
 10
11.6753628885
 20
10.8406695612
 11
11.6678628885
 21
10.8406695612
  0
LINE
  5
378
100
AcDbEntity
  8
03__ASM_ALL_CURVES
100
AcDbLine
 62
4
  6
CONTINUOUS
 10
12.0353628885
 20
10.8606695612
 11
12.0803628885
 21
10.8606695612
  0
LINE
  5
379
100
AcDbEntity
  8
03__ASM_ALL_CURVES
100
AcDbLine
 62
4
  6
CONTINUOUS
 10
12.1153628885
 20
10.8606695612
 11
12.1603628885
 21
10.8606695612
  0
LINE
  5
37A
100
AcDbEntity
  8
03__ASM_ALL_CURVES
100
AcDbLine
 62
4
  6
CONTINUOUS
 10
12.2753628885
 20
10.8606695612
 11
12.3203628885
 21
10.8606695612
  0
LINE
  5
37B
100
AcDbEntity
  8
03__ASM_ALL_CURVES
100
AcDbLine
 62
4
  6
CONTINUOUS
 10
12.3553628885
 20
10.8606695612
 11
12.4003628885
 21
10.8606695612
  0
LINE
  5
37C
100
AcDbEntity
  8
0
100
AcDbLine
 62
7
  6
CONTINUOUS
 10
11.0553628885
 20
10.8806695612
 11
8.8053630077
 21
10.8806695612
  0
LINE
  5
37D
100
AcDbEntity
  8
03__ASM_ALL_CURVES
100
AcDbLine
 62
4
  6
CONTINUOUS
 10
11.1353628885
 20
10.8806695612
 11
11.3753628885
 21
10.8806695612
  0
LINE
  5
37E
100
AcDbEntity
  8
03__ASM_ALL_CURVES
100
AcDbLine
 62
4
  6
CONTINUOUS
 10
12.0703628885
 20
10.8406695612
 11
12.0703628885
 21
10.9206695612
  0
LINE
  5
37F
100
AcDbEntity
  8
03__ASM_ALL_CURVES
100
AcDbLine
 62
4
  6
CONTINUOUS
 10
12.1503628885
 20
10.8406695612
 11
12.1503628885
 21
10.9206695612
  0
LINE
  5
380
100
AcDbEntity
  8
03__ASM_ALL_CURVES
100
AcDbLine
 62
4
  6
CONTINUOUS
 10
12.4653628885
 20
10.8740028938
 11
12.4603628885
 21
10.854002895
  0
LINE
  5
381
100
AcDbEntity
  8
03__ASM_ALL_CURVES
100
AcDbLine
 62
4
  6
CONTINUOUS
 10
11.8103628885
 20
10.8940028962
 11
11.8203628885
 21
10.8940028962
  0
LINE
  5
382
100
AcDbEntity
  8
03__ASM_ALL_CURVES
100
AcDbLine
 62
4
  6
CONTINUOUS
 10
11.8353628885
 20
10.9206695612
 11
11.8053628885
 21
10.9206695612
  0
LINE
  5
383
100
AcDbEntity
  8
03__ASM_ALL_CURVES
100
AcDbLine
 62
4
  6
CONTINUOUS
 10
11.7553628885
 20
10.9206695612
 11
11.7153628885
 21
10.9206695612
  0
LINE
  5
384
100
AcDbEntity
  8
03__ASM_ALL_CURVES
100
AcDbLine
 62
4
  6
CONTINUOUS
 10
12.2278628885
 20
10.8406695612
 11
12.2278628885
 21
10.8506695615
  0
LINE
  5
385
100
AcDbEntity
  8
03__ASM_ALL_CURVES
100
AcDbLine
 62
4
  6
CONTINUOUS
 10
12.3103628885
 20
10.8406695612
 11
12.3103628885
 21
10.9206695612
  0
LINE
  5
386
100
AcDbEntity
  8
03__ASM_ALL_CURVES
100
AcDbLine
 62
4
  6
CONTINUOUS
 10
11.8353628885
 20
10.8806695612
 11
11.8403628885
 21
10.8673362287
  0
LINE
  5
387
100
AcDbEntity
  8
03__ASM_ALL_CURVES
100
AcDbLine
 62
4
  6
CONTINUOUS
 10
11.9653628885
 20
10.8740028938
 11
11.9703628885
 21
10.854002895
  0
LINE
  5
388
100
AcDbEntity
  8
03__ASM_ALL_CURVES
100
AcDbLine
 62
4
  6
CONTINUOUS
 10
12.3903628885
 20
10.8406695612
 11
12.3903628885
 21
10.9206695612
  0
LINE
  5
389
100
AcDbEntity
  8
03__ASM_ALL_CURVES
100
AcDbLine
 62
4
  6
CONTINUOUS
 10
12.4653628885
 20
10.8873362263
 11
12.4653628885
 21
10.8740028938
  0
LINE
  5
38A
100
AcDbEntity
  8
03__ASM_ALL_CURVES
100
AcDbLine
 62
4
  6
CONTINUOUS
 10
11.8103628885
 20
10.8406695612
 11
11.8003628885
 21
10.8473362281
  0
LINE
  5
38B
100
AcDbEntity
  8
03__ASM_ALL_CURVES
100
AcDbLine
 62
4
  6
CONTINUOUS
 10
11.6678628885
 20
10.8506695615
 11
11.6753628885
 21
10.8406695612
  0
LINE
  5
38C
100
AcDbEntity
  8
03__ASM_ALL_CURVES
100
AcDbLine
 62
4
  6
CONTINUOUS
 10
11.8003628885
 20
10.8473362281
 11
11.7953628885
 21
10.854002895
  0
LINE
  5
38D
100
AcDbEntity
  8
03__ASM_ALL_CURVES
100
AcDbLine
 62
4
  6
CONTINUOUS
 10
11.8203628885
 20
10.8940028962
 11
11.8303628885
 21
10.8873362263
  0
LINE
  5
38E
100
AcDbEntity
  8
03__ASM_ALL_CURVES
100
AcDbLine
 62
4
  6
CONTINUOUS
 10
11.8303628885
 20
10.8873362263
 11
11.8353628885
 21
10.8806695612
  0
LINE
  5
38F
100
AcDbEntity
  8
03__ASM_ALL_CURVES
100
AcDbLine
 62
4
  6
CONTINUOUS
 10
11.9703628885
 20
10.854002895
 11
11.9803628885
 21
10.8406695612
  0
LINE
  5
390
100
AcDbEntity
  8
03__ASM_ALL_CURVES
100
AcDbLine
 62
4
  6
CONTINUOUS
 10
12.2278628885
 20
10.8506695615
 11
12.2353628885
 21
10.8406695612
  0
LINE
  5
391
100
AcDbEntity
  8
03__ASM_ALL_CURVES
100
AcDbLine
 62
4
  6
CONTINUOUS
 10
12.4503628885
 20
10.9206695612
 11
12.4603628885
 21
10.9073362263
  0
LINE
  5
392
100
AcDbEntity
  8
03__ASM_ALL_CURVES
100
AcDbLine
 62
4
  6
CONTINUOUS
 10
12.4603628885
 20
10.9073362263
 11
12.4653628885
 21
10.8873362263
  0
CIRCLE
  5
393
100
AcDbEntity
  8
0
100
AcDbCircle
 62
7
  6
CONTINUOUS
 10
9.1333628379
 20
9.3806695612
 40
0.148
  0
CIRCLE
  5
394
100
AcDbEntity
  8
0
100
AcDbCircle
 62
7
  6
CONTINUOUS
 10
9.477362939
 20
9.3646695586
 40
0.065
  0
CIRCLE
  5
395
100
AcDbEntity
  8
0
100
AcDbCircle
 62
7
  6
CONTINUOUS
 10
9.1333628379
 20
10.6306695612
 40
0.148
  0
CIRCLE
  5
396
100
AcDbEntity
  8
0
100
AcDbCircle
 62
7
  6
CONTINUOUS
 10
10.7273628794
 20
9.3806695612
 40
0.148
  0
CIRCLE
  5
397
100
AcDbEntity
  8
0
100
AcDbCircle
 62
7
  6
CONTINUOUS
 10
10.3833628975
 20
9.3646695586
 40
0.078
  0
CIRCLE
  5
398
100
AcDbEntity
  8
0
100
AcDbCircle
 62
7
  6
CONTINUOUS
 10
10.7273628794
 20
10.6306695612
 40
0.148
  0
CIRCLE
  5
399
100
AcDbEntity
  8
0
100
AcDbCircle
 62
7
  6
CONTINUOUS
 10
9.9303628885
 20
10.0056695612
 40
0.065
  0
SPLINE
  5
39A
100
AcDbEntity
  8
0
100
AcDbSpline
 62
7
  6
CONTINUOUS
 70
0
 71
3
 72
8
 73
4
 74
2
 42
0.0000001
 43
0.0000001
 44
0.0000000001
 12
-0.0072057206
 22
0.001141274
 32
0.0
 13
-0.007098384
 23
0.0016944763
 33
0.0
 40
0.0
 40
0.0
 40
0.0
 40
0.0
 40
1.0
 40
1.0
 40
1.0
 40
1.0
 10
9.5454532086
 20
9.8420820757
 30
0.0
 10
9.5430513017
 20
9.8424625003
 30
0.0
 10
9.5406630988
 20
9.8429361146
 30
0.0
 10
9.5382969707
 20
9.84350094
 30
0.0
 11
9.5454532086
 21
9.8420820757
 31
0.0
 11
9.5382969707
 21
9.84350094
 31
0.0
  0
SPLINE
  5
39B
100
AcDbEntity
  8
0
100
AcDbSpline
 62
7
  6
CONTINUOUS
 70
0
 71
3
 72
8
 73
4
 74
2
 42
0.0000001
 43
0.0000001
 44
0.0000000001
 12
0.00008123
 22
0.0005209656
 32
0.0
 13
0.0000824817
 23
0.0005207689
 33
0.0
 40
0.0
 40
0.0
 40
0.0
 40
0.0
 40
1.0
 40
1.0
 40
1.0
 40
1.0
 10
9.4478200121
 20
10.0247030081
 30
0.0
 10
9.4478470888
 20
10.0248766633
 30
0.0
 10
9.4478743741
 20
10.0250502859
 30
0.0
 10
9.447901868
 20
10.0252238755
 30
0.0
 11
9.4478200121
 21
10.0247030081
 31
0.0
 11
9.447901868
 21
10.0252238755
 31
0.0
  0
SPLINE
  5
39C
100
AcDbEntity
  8
0
100
AcDbSpline
 62
7
  6
CONTINUOUS
 70
0
 71
3
 72
8
 73
4
 74
2
 42
0.0000001
 43
0.0000001
 44
0.0000000001
 12
0.0075030108
 22
0.0
 32
0.0
 13
0.0074835733
 23
-0.0005706121
 33
0.0
 40
0.0
 40
0.0
 40
0.0
 40
0.0
 40
1.0
 40
1.0
 40
1.0
 40
1.0
 10
10.2893629157
 20
10.1642968381
 30
0.0
 10
10.2918639193
 20
10.1642968381
 30
0.0
 10
10.2943659644
 20
10.1642014407
 30
0.0
 10
10.2968604888
 20
10.1640112367
 30
0.0
 11
10.2893629157
 21
10.1642968381
 31
0.0
 11
10.2968604888
 21
10.1640112367
 31
0.0
  0
SPLINE
  5
39D
100
AcDbEntity
  8
0
100
AcDbSpline
 62
7
  6
CONTINUOUS
 70
0
 71
3
 72
8
 73
4
 74
2
 42
0.0000001
 43
0.0000001
 44
0.0000000001
 12
0.0000000714
 22
-0.0001198617
 32
0.0
 13
-0.0
 23
-0.0001198617
 33
0.0
 40
0.0
 40
0.0
 40
0.0
 40
0.0
 40
1.0
 40
1.0
 40
1.0
 40
1.0
 10
10.4143628872
 20
10.0057894201
 30
0.0
 10
10.414362911
 20
10.0057494662
 30
0.0
 10
10.4143629229
 20
10.0057095123
 30
0.0
 10
10.4143629229
 20
10.0056695584
 30
0.0
 11
10.4143628872
 21
10.0057894201
 31
0.0
 11
10.4143629229
 21
10.0056695584
 31
0.0
  0
SPLINE
  5
39E
100
AcDbEntity
  8
0
100
AcDbSpline
 62
7
  6
CONTINUOUS
 70
0
 71
3
 72
8
 73
4
 74
2
 42
0.0000001
 43
0.0000001
 44
0.0000000001
 12
0.0006609829
 22
-0.0093478065
 32
0.0
 13
0.0
 23
-0.009371146
 33
0.0
 40
0.0
 40
0.0
 40
0.0
 40
0.0
 40
1.0
 40
1.0
 40
1.0
 40
1.0
 10
10.0550322854
 20
10.4370329781
 30
0.0
 10
10.055252613
 20
10.4339170426
 30
0.0
 10
10.0553628885
 20
10.4307933273
 30
0.0
 10
10.0553628885
 20
10.427669612
 30
0.0
 11
10.0550322854
 21
10.4370329781
 31
0.0
 11
10.0553628885
 21
10.427669612
 31
0.0
  0
SPLINE
  5
39F
100
AcDbEntity
  8
0
100
AcDbSpline
 62
7
  6
CONTINUOUS
 70
0
 71
3
 72
8
 73
4
 74
2
 42
0.0000001
 43
0.0000001
 44
0.0000000001
 12
0.0024952219
 22
-0.0068555659
 32
0.0
 13
0.0019593425
 23
-0.007029885
 33
0.0
 40
0.0
 40
0.0
 40
0.0
 40
0.0
 40
1.0
 40
1.0
 40
1.0
 40
1.0
 10
10.086001005
 20
9.640317212
 30
0.0
 10
10.0868327457
 20
9.6380320234
 30
0.0
 10
10.0875763371
 20
9.6357136413
 30
0.0
 10
10.0882294513
 20
9.6333703463
 30
0.0
 11
10.086001005
 21
9.640317212
 31
0.0
 11
10.0882294513
 21
9.6333703463
 31
0.0
  0
SPLINE
  5
3A0
100
AcDbEntity
  8
0
100
AcDbSpline
 62
7
  6
CONTINUOUS
 70
0
 71
3
 72
8
 73
4
 74
2
 42
0.0000001
 43
0.0000001
 44
0.0000000001
 12
-0.0004950271
 22
-0.0001815235
 32
0.0
 13
-0.0004954619
 23
-0.0001803334
 33
0.0
 40
0.0
 40
0.0
 40
0.0
 40
0.0
 40
1.0
 40
1.0
 40
1.0
 40
1.0
 10
9.9736106508
 20
9.4663889092
 30
0.0
 10
9.9734456417
 20
9.4663284014
 30
0.0
 10
9.97328056
 20
9.4662680918
 30
0.0
 10
9.973115406
 20
9.4662079807
 30
0.0
 11
9.9736106508
 21
9.4663889092
 31
0.0
 11
9.973115406
 21
9.4662079807
 31
0.0
  0
SPLINE
  5
3A1
100
AcDbEntity
  8
0
100
AcDbSpline
 62
7
  6
CONTINUOUS
 70
0
 71
3
 72
28
 73
24
 74
22
 42
0.0000001
 43
0.0000001
 44
0.0000000001
 12
0.2044356171
 22
0.0672517576
 32
0.0
 13
0.0890078167
 23
-0.1959801835
 33
0.0
 40
0.0
 40
0.0
 40
0.0
 40
0.0
 40
0.0635076272
 40
0.1263931135
 40
0.1882712061
 40
0.2487992443
 40
0.3076881783
 40
0.3647112668
 40
0.4197052099
 40
0.472572061
 40
0.5232725683
 40
0.5718222088
 40
0.6182823058
 40
0.6627521091
 40
0.705361619
 40
0.7462634209
 40
0.785627084
 40
0.8236328352
 40
0.8604698887
 40
0.8963300136
 40
0.9314075916
 40
0.9658993026
 40
1.0
 40
1.0
 40
1.0
 40
1.0
 10
9.894088801
 20
9.7033751149
 30
0.0
 10
9.8984165413
 20
9.7047987814
 30
0.0
 10
9.907117938
 20
9.7073637799
 30
0.0
 10
9.9202927925
 20
9.7103669183
 30
0.0
 10
9.9334192143
 20
9.7125026649
 30
0.0
 10
9.9463690213
 20
9.7137766047
 30
0.0
 10
9.9590255888
 20
9.7142107892
 30
0.0
 10
9.9712870084
 20
9.7138412679
 30
0.0
 10
9.9830682515
 20
9.7127150681
 30
0.0
 10
9.9943018187
 20
9.7108869245
 30
0.0
 10
10.0049375892
 20
9.7084160317
 30
0.0
 10
10.014941496
 20
9.7053631081
 30
0.0
 10
10.024293761
 20
9.7017878529
 30
0.0
 10
10.0329866345
 20
9.6977469483
 30
0.0
 10
10.0410219964
 20
9.6932925818
 30
0.0
 10
10.0484090006
 20
9.6884714496
 30
0.0
 10
10.0551617455
 20
9.6833242702
 30
0.0
 10
10.0612973652
 20
9.67788553
 30
0.0
 10
10.0668341319
 20
9.6721836806
 30
0.0
 10
10.0717900242
 20
9.6662413912
 30
0.0
 10
10.0761814477
 20
9.6600761013
 30
0.0
 10
10.08002228
 20
9.6537003576
 30
0.0
 10
10.082230982
 20
9.649298946
 30
0.0
 10
10.0832427249
 20
9.647071259
 30
0.0
 11
9.894088801
 21
9.7033751149
 31
0.0
 11
9.9071969594
 21
9.7072378299
 31
0.0
 11
9.9203906706
 21
9.7102427386
 31
0.0
 11
9.9335332316
 21
9.7123774799
 31
0.0
 11
9.946495413
 21
9.7136480378
 31
0.0
 11
9.9591597516
 21
9.7140770697
 31
0.0
 11
9.9714241134
 21
9.7137013741
 31
0.0
 11
9.9832032746
 21
9.7125687744
 31
0.0
 11
9.994430241
 21
9.7107347392
 31
0.0
 11
10.005055284
 21
9.7082591422
 31
0.0
 11
10.0150451379
 21
9.7052032031
 31
0.0
 11
10.0243807985
 21
9.7016269935
 31
0.0
 11
10.0330552628
 21
9.6975874425
 31
0.0
 11
10.0410712237
 21
9.693136809
 31
0.0
 11
10.0484384704
 21
9.6883218073
 31
0.0
 11
10.0551717542
 21
9.6831830246
 31
0.0
 11
10.0612885644
 21
9.6777549173
 31
0.0
 11
10.0668077528
 21
9.6720655991
 31
0.0
 11
10.0717474959
 21
9.6661376666
 31
0.0
 11
10.0761244205
 21
9.6599883838
 31
0.0
 11
10.0799526775
 21
9.6536300491
 31
0.0
 11
10.0832427249
 21
9.647071259
 31
0.0
  0
SPLINE
  5
3A2
100
AcDbEntity
  8
0
100
AcDbSpline
 62
7
  6
CONTINUOUS
 70
0
 71
3
 72
8
 73
4
 74
2
 42
0.0000001
 43
0.0000001
 44
0.0000000001
 12
0.003017791
 22
-0.0066446662
 32
0.0
 13
0.00249523
 23
-0.006855588
 33
0.0
 40
0.0
 40
0.0
 40
0.0
 40
0.0
 40
1.0
 40
1.0
 40
1.0
 40
1.0
 10
10.0832427249
 20
9.647071259
 30
0.0
 10
10.0842486552
 20
9.6448563703
 30
0.0
 10
10.0851692617
 20
9.6426024081
 30
0.0
 10
10.086001005
 20
9.640317212
 30
0.0
 11
10.0832427249
 21
9.647071259
 31
0.0
 11
10.086001005
 21
9.640317212
 31
0.0
  0
SPLINE
  5
3A3
100
AcDbEntity
  8
0
100
AcDbSpline
 62
7
  6
CONTINUOUS
 70
0
 71
3
 72
28
 73
24
 74
22
 42
0.0000001
 43
0.0000001
 44
0.0000000001
 12
-0.0000000002
 22
0.1906060438
 32
0.0
 13
0.1901222005
 23
0.0137517956
 33
0.0
 40
0.0
 40
0.0
 40
0.0
 40
0.0
 40
0.0491634258
 40
0.0982938755
 40
0.1473570776
 40
0.1963213093
 40
0.2451570877
 40
0.2938378764
 40
0.3423404665
 40
0.390645717
 40
0.4387386285
 40
0.4866088084
 40
0.5342505843
 40
0.581662859
 40
0.6288494301
 40
0.6758183485
 40
0.7225820977
 40
0.7691570958
 40
0.8155632413
 40
0.8618237862
 40
0.9079644551
 40
0.9540132959
 40
1.0
 40
1.0
 40
1.0
 40
1.0
 10
9.8053628885
 20
10.4276696116
 30
0.0
 10
9.8053628885
 20
10.430793227
 30
0.0
 10
9.8055833514
 20
10.4370383626
 30
0.0
 10
9.8065733109
 20
10.4463541291
 30
0.0
 10
9.8082158082
 20
10.4555643816
 30
0.0
 10
9.8104997873
 20
10.4646175584
 30
0.0
 10
9.8134100449
 20
10.4734636776
 30
0.0
 10
9.8169274739
 20
10.4820546998
 30
0.0
 10
9.8210293702
 20
10.4903449165
 30
0.0
 10
9.8256897725
 20
10.498291255
 30
0.0
 10
9.8308798396
 20
10.5058535382
 30
0.0
 10
9.8365682303
 20
10.512994658
 30
0.0
 10
9.8427214883
 20
10.5196806876
 30
0.0
 10
9.8493044198
 20
10.5258809383
 30
0.0
 10
9.8562804292
 20
10.531567939
 30
0.0
 10
9.8636118502
 20
10.5367173949
 30
0.0
 10
9.8712602103
 20
10.5413080849
 30
0.0
 10
9.8791864769
 20
10.5453217474
 30
0.0
 10
9.8873512451
 20
10.5487429447
 30
0.0
 10
9.8957148954
 20
10.5515589155
 30
0.0
 10
9.9042376442
 20
10.5537594424
 30
0.0
 10
9.9128798622
 20
10.5553367227
 30
0.0
 10
9.9186966904
 20
10.5559693699
 30
0.0
 10
9.9216110549
 20
10.5561801698
 30
0.0
 11
9.8053628885
 21
10.4276696116
 31
0.0
 11
9.8056934704
 21
10.4370326786
 31
0.0
 11
9.8066829897
 21
10.4463428584
 31
0.0
 11
9.8083247222
 21
10.4555473957
 31
0.0
 11
9.810607591
 21
10.4645947697
 31
0.0
 11
9.8135163553
 21
10.4734349809
 31
0.0
 11
9.8170318698
 21
10.4820199984
 31
0.0
 11
9.8211313785
 21
10.4903041087
 31
0.0
 11
9.8257888836
 21
10.4982442805
 31
0.0
 11
9.8309754957
 21
10.5058003635
 31
0.0
 11
9.8366598397
 21
10.5129353029
 31
0.0
 11
9.8428084404
 21
10.5196152429
 31
0.0
 11
9.8493860721
 21
10.5258095488
 31
0.0
 11
9.8563561593
 21
10.5314908483
 31
0.0
 11
9.8636810263
 21
10.5366349109
 31
0.0
 11
9.8713222355
 21
10.5412206052
 31
0.0
 11
9.8792407969
 21
10.5452297517
 31
0.0
 11
9.8873973441
 21
10.54864698
 31
0.0
 11
9.8957523342
 21
10.551459607
 31
0.0
 11
9.9042660811
 21
10.5536574665
 31
0.0
 11
9.9128988874
 21
10.5552328064
 31
0.0
 11
9.9216110549
 21
10.5561801698
 31
0.0
  0
SPLINE
  5
3A4
100
AcDbEntity
  8
0
100
AcDbSpline
 62
7
  6
CONTINUOUS
 70
0
 71
3
 72
8
 73
4
 74
2
 42
0.0000001
 43
0.0000001
 44
0.0000000001
 12
0.0087371248
 22
0.000631968
 32
0.0
 13
0.0087575419
 23
0.0
 33
0.0
 40
0.0
 40
0.0
 40
0.0
 40
0.0
 40
1.0
 40
1.0
 40
1.0
 40
1.0
 10
9.9216110549
 20
10.5561801698
 30
0.0
 10
9.9245234298
 20
10.5563908258
 30
0.0
 10
9.9274437079
 20
10.5564963155
 30
0.0
 10
9.9303628885
 20
10.5564963155
 30
0.0
 11
9.9216110549
 21
10.5561801698
 31
0.0
 11
9.9303628885
 21
10.5564963155
 31
0.0
  0
SPLINE
  5
3A5
100
AcDbEntity
  8
0
100
AcDbSpline
 62
7
  6
CONTINUOUS
 70
0
 71
3
 72
8
 73
4
 74
2
 42
0.0000001
 43
0.0000001
 44
0.0000000001
 12
0.0074835902
 22
0.0005706147
 32
0.0
 13
0.0075030278
 23
0.0
 33
0.0
 40
0.0
 40
0.0
 40
0.0
 40
0.0
 40
1.0
 40
1.0
 40
1.0
 40
1.0
 10
10.2818653255
 20
10.1640112354
 30
0.0
 10
10.2843598556
 20
10.1642014403
 30
0.0
 10
10.2868619064
 20
10.1642968381
 30
0.0
 10
10.2893629157
 20
10.1642968381
 30
0.0
 11
10.2818653255
 21
10.1640112354
 31
0.0
 11
10.2893629157
 21
10.1642968381
 31
0.0
  0
SPLINE
  5
3A6
100
AcDbEntity
  8
0
100
AcDbSpline
 62
7
  6
CONTINUOUS
 70
0
 71
3
 72
28
 73
24
 74
22
 42
0.0000001
 43
0.0000001
 44
0.0000000001
 12
-0.0402926414
 22
-0.2114077186
 32
0.0
 13
-0.2145599765
 23
0.0171650878
 33
0.0
 40
0.0
 40
0.0
 40
0.0
 40
0.0
 40
0.0635076272
 40
0.1263931135
 40
0.1882712061
 40
0.2487992443
 40
0.3076881783
 40
0.3647112668
 40
0.4197052099
 40
0.472572061
 40
0.5232725683
 40
0.5718222088
 40
0.6182823058
 40
0.6627521091
 40
0.705361619
 40
0.7462634209
 40
0.785627084
 40
0.8236328352
 40
0.8604698887
 40
0.8963300136
 40
0.9314075916
 40
0.9658993026
 40
1.0
 40
1.0
 40
1.0
 40
1.0
 10
9.6936457759
 20
9.9793611934
 30
0.0
 10
9.6927928125
 20
9.9748858592
 30
0.0
 10
9.6908176899
 20
9.9660319103
 30
0.0
 10
9.6870569977
 20
9.9530529725
 30
0.0
 10
9.6825611482
 20
9.9405369148
 30
0.0
 10
9.6773971701
 20
9.9285931401
 30
0.0
 10
9.6716408907
 20
9.9173129599
 30
0.0
 10
9.6653732459
 20
9.9067680281
 30
0.0
 10
9.6586765893
 20
9.8970099133
 30
0.0
 10
9.6516315174
 20
9.8880711156
 30
0.0
 10
9.6443141022
 20
9.8799667738
 30
0.0
 10
9.6367939647
 20
9.8726972465
 30
0.0
 10
9.629132908
 20
9.8662508893
 30
0.0
 10
9.6213842645
 20
9.8606070003
 30
0.0
 10
9.613592767
 20
9.8557386341
 30
0.0
 10
9.6057948191
 20
9.8516151459
 30
0.0
 10
9.5980191988
 20
9.8482044642
 30
0.0
 10
9.590287762
 20
9.8454748839
 30
0.0
 10
9.5826165344
 20
9.8433966301
 30
0.0
 10
9.5750166268
 20
9.8419429881
 30
0.0
 10
9.5674953383
 20
9.8410911544
 30
0.0
 10
9.5600569148
 20
9.8408229087
 30
0.0
 10
9.5551365535
 20
9.841024981
 30
0.0
 10
9.5526976719
 20
9.8412200948
 30
0.0
 11
9.6936457759
 21
9.9793611934
 31
0.0
 11
9.6906692212
 21
9.9660238583
 31
0.0
 11
9.6869009354
 21
9.9530275698
 31
0.0
 11
9.6823963823
 21
9.9404978839
 31
0.0
 11
9.677223447
 21
9.9285449259
 31
0.0
 11
9.6714588935
 21
9.917260447
 31
0.0
 11
9.6651844222
 21
9.9067159353
 31
0.0
 11
9.6584831776
 21
9.896962744
 31
0.0
 11
9.6514361529
 21
9.8880325759
 31
0.0
 11
9.6441198239
 21
9.8799398971
 31
0.0
 11
9.636603862
 21
9.8726841227
 31
0.0
 11
9.6289500206
 21
9.8662527508
 31
0.0
 11
9.6212114859
 21
9.8606243065
 31
0.0
 11
9.6134326592
 21
9.855771099
 31
0.0
 11
9.6056496518
 21
9.8516619191
 31
0.0
 11
9.5978908104
 21
9.8482641877
 31
0.0
 11
9.5901777923
 21
9.8455459036
 31
0.0
 11
9.5825260469
 21
9.8434769488
 31
0.0
 11
9.5749465254
 21
9.8420304709
 31
0.0
 11
9.5674462662
 21
9.8411835579
 31
0.0
 11
9.5600291655
 21
9.8409178706
 31
0.0
 11
9.5526976719
 21
9.8412200948
 31
0.0
  0
SPLINE
  5
3A7
100
AcDbEntity
  8
0
100
AcDbSpline
 62
7
  6
CONTINUOUS
 70
0
 71
3
 72
8
 73
4
 74
2
 42
0.0000001
 43
0.0000001
 44
0.0000000001
 12
-0.0072746101
 22
0.0005819786
 32
0.0
 13
-0.0072057439
 23
0.0011412777
 33
0.0
 40
0.0
 40
0.0
 40
0.0
 40
0.0
 40
1.0
 40
1.0
 40
1.0
 40
1.0
 10
9.5526976719
 20
9.8412200948
 30
0.0
 10
9.5502728019
 20
9.8414140877
 30
0.0
 10
9.5478551232
 20
9.8417016498
 30
0.0
 10
9.5454532086
 20
9.8420820757
 30
0.0
 11
9.5526976719
 21
9.8412200948
 31
0.0
 11
9.5454532086
 21
9.8420820757
 31
0.0
  0
SPLINE
  5
3A8
100
AcDbEntity
  8
0
100
AcDbSpline
 62
7
  6
CONTINUOUS
 70
0
 71
3
 72
15
 73
11
 74
9
 42
0.0000001
 43
0.0000001
 44
0.0000000001
 12
-0.0547130254
 22
-0.0389182995
 32
0.0
 13
-0.0669766449
 23
-0.0047759449
 33
0.0
 40
0.0
 40
0.0
 40
0.0
 40
0.0
 40
0.0927597022
 40
0.2236193828
 40
0.3538843575
 40
0.4837939951
 40
0.6131935674
 40
0.7423854228
 40
0.8712294852
 40
1.0
 40
1.0
 40
1.0
 40
1.0
 10
10.0013668968
 20
10.5335732229
 30
0.0
 10
9.9996751755
 20
10.532369873
 30
0.0
 10
9.9955245898
 20
10.5295705381
 30
0.0
 10
9.9886988252
 20
10.5255433615
 30
0.0
 10
9.9808604496
 20
10.5216384279
 30
0.0
 10
9.9727952108
 20
10.518311343
 30
0.0
 10
9.964537028
 20
10.5155724922
 30
0.0
 10
9.9561283006
 20
10.5134329793
 30
0.0
 10
9.9476025064
 20
10.51189912
 30
0.0
 10
9.9418663054
 20
10.5112840073
 30
0.0
 10
9.938991433
 20
10.5110790071
 30
0.0
 11
10.0013668968
 21
10.5335732229
 31
0.0
 11
9.9962037808
 21
10.5300912874
 31
0.0
 11
9.9886377036
 21
10.5256279947
 31
0.0
 11
9.980810446
 21
10.5217291802
 31
0.0
 11
9.9727486069
 21
10.5184039939
 31
0.0
 11
9.9645036667
 21
10.5156699391
 31
0.0
 11
9.9560988929
 21
10.5135317571
 31
0.0
 11
9.9475863797
 21
10.5120004973
 31
0.0
 11
9.938991433
 21
10.5110790071
 31
0.0
  0
SPLINE
  5
3A9
100
AcDbEntity
  8
0
100
AcDbSpline
 62
7
  6
CONTINUOUS
 70
0
 71
3
 72
8
 73
4
 74
2
 42
0.0000001
 43
0.0000001
 44
0.0000000001
 12
-0.0086144507
 22
-0.0006142759
 32
0.0
 13
-0.0086340143
 23
0.0
 33
0.0
 40
0.0
 40
0.0
 40
0.0
 40
0.0
 40
1.0
 40
1.0
 40
1.0
 40
1.0
 10
9.938991433
 20
10.5110790071
 30
0.0
 10
9.9361199494
 20
10.5108742484
 30
0.0
 10
9.9332408932
 20
10.5107717165
 30
0.0
 10
9.9303628885
 20
10.5107717165
 30
0.0
 11
9.938991433
 21
10.5110790071
 31
0.0
 11
9.9303628885
 21
10.5107717165
 31
0.0
  0
SPLINE
  5
3AA
100
AcDbEntity
  8
0
100
AcDbSpline
 62
7
  6
CONTINUOUS
 70
0
 71
3
 72
8
 73
4
 74
2
 42
0.0000001
 43
0.0000001
 44
0.0000000001
 12
-0.0086336462
 22
0.0
 32
0.0
 13
-0.0086140851
 23
0.0006142236
 33
0.0
 40
0.0
 40
0.0
 40
0.0
 40
0.0
 40
1.0
 40
1.0
 40
1.0
 40
1.0
 10
9.9303628885
 20
10.5107717165
 30
0.0
 10
9.9274850064
 20
10.5107717165
 30
0.0
 10
9.9246060732
 20
10.5108742396
 30
0.0
 10
9.9217347115
 20
10.5110789808
 30
0.0
 11
9.9303628885
 21
10.5107717165
 31
0.0
 11
9.9217347115
 21
10.5110789808
 31
0.0
  0
SPLINE
  5
3AB
100
AcDbEntity
  8
0
100
AcDbSpline
 62
7
  6
CONTINUOUS
 70
0
 71
3
 72
15
 73
11
 74
9
 42
0.0000001
 43
0.0000001
 44
0.0000000001
 12
-0.0669770293
 22
0.0047757682
 32
0.0
 13
-0.0547133268
 23
0.0389185168
 33
0.0
 40
0.0
 40
0.0
 40
0.0
 40
0.0
 40
0.1287712797
 40
0.2576285813
 40
0.3868171699
 40
0.5161944946
 40
0.6461053125
 40
0.7763770694
 40
0.9072376118
 40
1.0
 40
1.0
 40
1.0
 40
1.0
 10
9.9217347115
 20
10.5110789808
 30
0.0
 10
9.9188598056
 20
10.5112839748
 30
0.0
 10
9.913123259
 20
10.5118991092
 30
0.0
 10
9.9045971816
 20
10.513433034
 30
0.0
 10
9.8961886844
 20
10.5155725311
 30
0.0
 10
9.8879309706
 20
10.5183112093
 30
0.0
 10
9.8798659584
 20
10.5216381328
 30
0.0
 10
9.8720273436
 20
10.5255431404
 30
0.0
 10
9.8652013331
 20
10.5295704425
 30
0.0
 10
9.8610506563
 20
10.5323698339
 30
0.0
 10
9.8593588767
 20
10.5335732254
 30
0.0
 11
9.9217347115
 21
10.5110789808
 31
0.0
 11
9.9131396635
 21
10.5120004591
 31
0.0
 11
9.9046262308
 21
10.5135318988
 31
0.0
 11
9.8962216332
 21
10.5156700787
 31
0.0
 11
9.8879780597
 21
10.5184036634
 31
0.0
 11
9.8799160787
 21
10.5217288403
 31
0.0
 11
9.8720883521
 21
10.5256278433
 31
0.0
 11
9.8645221736
 21
10.530091174
 31
0.0
 11
9.8593588767
 21
10.5335732254
 31
0.0
  0
SPLINE
  5
3AC
100
AcDbEntity
  8
0
100
AcDbSpline
 62
7
  6
CONTINUOUS
 70
0
 71
3
 72
30
 73
26
 74
24
 42
0.0000001
 43
0.0000001
 44
0.0000000001
 12
-0.2234993411
 22
-0.0
 32
0.0
 13
0.0000000033
 23
0.223536965
 33
0.0
 40
0.0
 40
0.0
 40
0.0
 40
0.0
 40
0.0335707341
 40
0.0673065228
 40
0.10137235
 40
0.1359317488
 40
0.1711481758
 40
0.2071814796
 40
0.2441873516
 40
0.2823167386
 40
0.3217105555
 40
0.362498184
 40
0.4047930643
 40
0.4486872373
 40
0.4942469578
 40
0.5415070593
 40
0.5904654449
 40
0.6410783641
 40
0.6932576924
 40
0.7468674037
 40
0.8017260522
 40
0.8576081093
 40
0.9142507803
 40
0.9713621795
 40
1.0
 40
1.0
 40
1.0
 40
1.0
 10
10.2893628922
 20
9.8470422835
 30
0.0
 10
10.2868618799
 20
9.8470422835
 30
0.0
 10
10.2818454707
 20
9.847233552
 30
0.0
 10
10.2743356399
 20
9.848095603
 30
0.0
 10
10.2668401052
 20
9.8495391469
 30
0.0
 10
10.2593687913
 20
9.8515741267
 30
0.0
 10
10.2519333512
 20
9.854213941
 30
0.0
 10
10.2445488641
 20
9.8574748949
 30
0.0
 10
10.237234352
 20
9.8613754378
 30
0.0
 10
10.2300135834
 20
9.865935196
 30
0.0
 10
10.2229156382
 20
9.8711737952
 30
0.0
 10
10.215975472
 20
9.8771093638
 30
0.0
 10
10.2092341733
 20
9.8837568797
 30
0.0
 10
10.2027390258
 20
9.8911262515
 30
0.0
 10
10.1965432295
 20
9.8992202466
 30
0.0
 10
10.1907052052
 20
9.9080323884
 30
0.0
 10
10.1852874877
 20
9.9175448663
 30
0.0
 10
10.1803551015
 20
9.9277267393
 30
0.0
 10
10.1759735413
 20
9.938532466
 30
0.0
 10
10.1722062908
 20
9.9499011864
 30
0.0
 10
10.1691121594
 20
9.9617566285
 30
0.0
 10
10.1667424739
 20
9.9740081218
 30
0.0
 10
10.1651384637
 20
9.9865524145
 30
0.0
 10
10.1644645176
 20
9.9971463202
 30
0.0
 10
10.1643629084
 20
10.0035356936
 30
0.0
 10
10.1643629084
 20
10.0056695641
 30
0.0
 11
10.2893628922
 21
9.8470422835
 31
0.0
 11
10.2818652931
 21
9.8473278896
 31
0.0
 11
10.2743744447
 21
9.8481867745
 31
0.0
 11
10.2668978483
 21
9.8496251001
 31
0.0
 11
10.2594447675
 21
9.851652859
 31
0.0
 11
10.2520265904
 21
9.8542836194
 31
0.0
 11
10.2446581701
 21
9.8575338426
 31
0.0
 11
10.2373583816
 21
9.8614221612
 31
0.0
 11
10.2301505657
 21
9.8659685937
 31
0.0
 11
10.2230636834
 21
9.8711930727
 31
0.0
 11
10.2161324568
 21
9.877114196
 31
0.0
 11
10.2093977707
 21
9.8837475137
 31
0.0
 11
10.2029068615
 21
9.8911034944
 31
0.0
 11
10.1967129208
 21
9.8991855597
 31
0.0
 11
10.1908744785
 21
9.9079878971
 31
0.0
 11
10.1854543175
 21
9.9174933098
 31
0.0
 11
10.1805178718
 21
9.927671316
 31
0.0
 11
10.1761310854
 21
9.9384768428
 31
0.0
 11
10.1723580963
 21
9.9498490251
 31
0.0
 11
10.1692583158
 21
9.9617115855
 31
0.0
 11
10.1668837227
 21
9.9739733753
 31
0.0
 11
10.1652760938
 21
9.9865304845
 31
0.0
 11
10.1644647122
 21
9.9992690303
 31
0.0
 11
10.1643629084
 21
10.0056695641
 31
0.0
  0
SPLINE
  5
3AD
100
AcDbEntity
  8
0
100
AcDbSpline
 62
7
  6
CONTINUOUS
 70
0
 71
3
 72
29
 73
25
 74
23
 42
0.0000001
 43
0.0000001
 44
0.0000000001
 12
0.0000000002
 22
-0.1993654104
 32
0.0
 13
-0.1993240296
 23
-0.0
 33
0.0
 40
0.0
 40
0.0
 40
0.0
 40
0.0
 40
0.0470033358
 40
0.0939751798
 40
0.140882731
 40
0.1876956601
 40
0.2343857796
 40
0.2809277192
 40
0.3272992895
 40
0.3734821906
 40
0.419462082
 40
0.4652290279
 40
0.5107776049
 40
0.5561067642
 40
0.6012201363
 40
0.6461254186
 40
0.690834546
 40
0.7353632154
 40
0.7797304509
 40
0.823958483
 40
0.8680719059
 40
0.9120975352
 40
0.9560637507
 40
1.0
 40
1.0
 40
1.0
 40
1.0
 10
10.0553628885
 20
10.427669612
 30
0.0
 10
10.0553628885
 20
10.4245459989
 30
0.0
 10
10.0551424258
 20
10.4183008654
 30
0.0
 10
10.054152467
 20
10.4089851008
 30
0.0
 10
10.05250997
 20
10.3997748479
 30
0.0
 10
10.0502259913
 20
10.3907216708
 30
0.0
 10
10.047315734
 20
10.3818755511
 30
0.0
 10
10.0437983052
 20
10.3732845284
 30
0.0
 10
10.0396964091
 20
10.3649943113
 30
0.0
 10
10.0350360068
 20
10.3570479723
 30
0.0
 10
10.0298459399
 20
10.3494856887
 30
0.0
 10
10.0241575491
 20
10.3423445684
 30
0.0
 10
10.018004291
 20
10.3356585384
 30
0.0
 10
10.0114213595
 20
10.3294582873
 30
0.0
 10
10.0044453499
 20
10.3237712862
 30
0.0
 10
9.9971139289
 20
10.31862183
 30
0.0
 10
9.9894655685
 20
10.3140311397
 30
0.0
 10
9.9815393018
 20
10.3100174769
 30
0.0
 10
9.9733745332
 20
10.3065962794
 30
0.0
 10
9.9650108827
 20
10.3037803084
 30
0.0
 10
9.9564881337
 20
10.3015797813
 30
0.0
 10
9.9478459159
 20
10.300002501
 30
0.0
 10
9.9391246187
 20
10.2990539593
 30
0.0
 10
9.9332820652
 20
10.2988429079
 30
0.0
 10
9.9303628818
 20
10.2988429079
 30
0.0
 11
10.0553628885
 21
10.427669612
 31
0.0
 11
10.055032307
 21
10.4183065517
 31
0.0
 11
10.0540427882
 21
10.4089963716
 31
0.0
 11
10.052401056
 21
10.3997918338
 31
0.0
 11
10.0501181876
 21
10.3907444594
 31
0.0
 11
10.0472094235
 21
10.3819042478
 31
0.0
 11
10.0436939093
 21
10.3733192299
 31
0.0
 11
10.0395944008
 21
10.365035119
 31
0.0
 11
10.0349368958
 21
10.3570949468
 31
0.0
 11
10.0297502837
 21
10.3495388634
 31
0.0
 11
10.0240659398
 21
10.3424039236
 31
0.0
 11
10.017917339
 21
10.3357239831
 31
0.0
 11
10.0113397072
 21
10.3295296768
 31
0.0
 11
10.0043696199
 21
10.3238483769
 31
0.0
 11
9.9970447527
 21
10.318704314
 31
0.0
 11
9.9894035433
 21
10.3141186194
 31
0.0
 11
9.9814849817
 21
10.3101094726
 31
0.0
 11
9.9733284343
 21
10.3066922441
 31
0.0
 11
9.9649734439
 21
10.303879617
 31
0.0
 11
9.9564596967
 21
10.3016817573
 31
0.0
 11
9.9478268902
 21
10.3001064172
 31
0.0
 11
9.9391147238
 21
10.2991590539
 31
0.0
 11
9.9303628818
 21
10.2988429079
 31
0.0
  0
SPLINE
  5
3AE
100
AcDbEntity
  8
0
100
AcDbSpline
 62
7
  6
CONTINUOUS
 70
0
 71
3
 72
30
 73
26
 74
24
 42
0.0000001
 43
0.0000001
 44
0.0000000001
 12
0.226505377
 22
-0.0358749274
 32
0.0
 13
-0.0358807607
 23
-0.226542177
 33
0.0
 40
0.0
 40
0.0
 40
0.0
 40
0.0
 40
0.0318126059
 40
0.0638083941
 40
0.0961708732
 40
0.1290827584
 40
0.1627287137
 40
0.1972913529
 40
0.2329504223
 40
0.2698837769
 40
0.3082607767
 40
0.3482401752
 40
0.3899656328
 40
0.4335588528
 40
0.4791129852
 40
0.5266856373
 40
0.5762913576
 40
0.6278929674
 40
0.6813986301
 40
0.7366549921
 40
0.79344909
 40
0.8515098217
 40
0.9105154782
 40
0.9701051253
 40
1.0
 40
1.0
 40
1.0
 40
1.0
 10
9.5972726333
 20
10.1692570468
 30
0.0
 10
9.599674542
 20
10.1688766219
 30
0.0
 10
9.6044647034
 20
10.1679266654
 30
0.0
 10
9.6115504975
 20
10.1659418484
 30
0.0
 10
9.6185417683
 20
10.1633882283
 30
0.0
 10
9.6254314769
 20
10.1602540304
 30
0.0
 10
9.6322099799
 20
10.1565232381
 30
0.0
 10
9.6388633058
 20
10.1521764155
 30
0.0
 10
9.6453726604
 20
10.1471915723
 30
0.0
 10
9.6517136256
 20
10.1415453184
 30
0.0
 10
9.6578556255
 20
10.1352142309
 30
0.0
 10
9.663761392
 20
10.1281766667
 30
0.0
 10
9.6693868151
 20
10.1204147252
 30
0.0
 10
9.6746810206
 20
10.1119165768
 30
0.0
 10
9.6795868675
 20
10.1026790167
 30
0.0
 10
9.6840419683
 20
10.092710054
 30
0.0
 10
9.6879801966
 20
10.0820315577
 30
0.0
 10
9.6913338643
 20
10.0706814508
 30
0.0
 10
9.6940363485
 20
10.0587155809
 30
0.0
 10
9.6960252555
 20
10.0462084655
 30
0.0
 10
9.6972457544
 20
10.0332532832
 30
0.0
 10
9.6976539508
 20
10.0199603346
 30
0.0
 10
9.6972199125
 20
10.0064543476
 30
0.0
 10
9.6961461944
 20
9.9951467931
 30
0.0
 10
9.6951815241
 20
9.9883727303
 30
0.0
 10
9.6948239738
 20
9.9861152469
 30
0.0
 11
9.5972726333
 21
10.1692570468
 31
0.0
 11
9.6044288767
 21
10.1678381812
 31
0.0
 11
9.6114947774
 21
10.1658601092
 31
0.0
 11
9.6184665683
 21
10.163315508
 31
0.0
 11
9.6253377896
 21
10.1601924913
 31
0.0
 11
9.6320991032
 21
10.1564748196
 31
0.0
 11
9.6387367865
 21
10.1521428523
 31
0.0
 11
9.6452320953
 21
10.1471744576
 31
0.0
 11
9.6515610902
 21
10.141545717
 31
0.0
 11
9.6576933207
 21
10.1352328342
 31
0.0
 11
9.6635916964
 21
10.1282136303
 31
0.0
 11
9.6692122901
 21
10.1204694844
 31
0.0
 11
9.674504263
 21
10.1119878193
 31
0.0
 11
9.6794103859
 21
10.1027646344
 31
0.0
 11
9.6838680569
 21
10.0928071022
 31
0.0
 11
9.6878108186
 21
10.0821361855
 31
0.0
 11
9.6911703702
 21
10.0707893491
 31
0.0
 11
9.6938794792
 21
10.0588217604
 31
0.0
 11
9.69587493
 21
10.0463079844
 31
0.0
 11
9.6971011093
 21
10.0333413095
 31
0.0
 11
9.6975133729
 21
10.0200326957
 31
0.0
 11
9.6970811963
 21
10.0065079028
 31
0.0
 11
9.695790627
 21
9.9929033575
 31
0.0
 11
9.6948239738
 21
9.9861152469
 31
0.0
  0
SPLINE
  5
3AF
100
AcDbEntity
  8
0
100
AcDbSpline
 62
7
  6
CONTINUOUS
 70
0
 71
3
 72
30
 73
26
 74
24
 42
0.0000001
 43
0.0000001
 44
0.0000000001
 12
-0.0784350673
 22
0.2154985764
 32
0.0
 13
0.2155335905
 23
0.0784478064
 33
0.0
 40
0.0
 40
0.0
 40
0.0
 40
0.0
 40
0.0318126059
 40
0.0638083941
 40
0.0961708732
 40
0.1290827584
 40
0.1627287137
 40
0.1972913529
 40
0.2329504223
 40
0.2698837769
 40
0.3082607767
 40
0.3482401752
 40
0.3899656328
 40
0.4335588528
 40
0.4791129852
 40
0.5266856373
 40
0.5762913577
 40
0.6278929674
 40
0.6813986301
 40
0.7366549921
 40
0.79344909
 40
0.8515098217
 40
0.9105154782
 40
0.9701051253
 40
1.0
 40
1.0
 40
1.0
 40
1.0
 10
9.7747247719
 20
9.5270219286
 30
0.0
 10
9.7738930307
 20
9.529307119
 30
0.0
 10
9.772401565
 20
9.5339572365
 30
0.0
 10
9.7707022638
 20
9.5411168701
 30
0.0
 10
9.769546275
 20
9.5484695929
 30
0.0
 10
9.7689473093
 20
9.5560149572
 30
0.0
 10
9.7689240503
 20
9.5637522934
 30
0.0
 10
9.7695002705
 20
9.5716788048
 30
0.0
 10
9.770704315
 20
9.5797887145
 30
0.0
 10
9.7725684789
 20
9.5880720059
 30
0.0
 10
9.7751280722
 20
9.5965132922
 30
0.0
 10
9.7784200921
 20
9.6050904708
 30
0.0
 10
9.7824815799
 20
9.6137736406
 30
0.0
 10
9.7873475462
 20
9.6225240412
 30
0.0
 10
9.7930484965
 20
9.6312932495
 30
0.0
 10
9.799607672
 20
9.6400228175
 30
0.0
 10
9.8070380043
 20
9.6486443073
 30
0.0
 10
9.8153391411
 20
9.6570801322
 30
0.0
 10
9.8244945364
 20
9.6652449469
 30
0.0
 10
9.8344692648
 20
9.6730480541
 30
0.0
 10
9.845208413
 20
9.6803963235
 30
0.0
 10
9.8566367903
 20
9.6871978895
 30
0.0
 10
9.8686598186
 20
9.6933661034
 30
0.0
 10
9.8790701774
 20
9.6979090196
 30
0.0
 10
9.8854625877
 20
9.7003494308
 30
0.0
 10
9.887610371
 20
9.7011311599
 30
0.0
 11
9.7747247719
 21
9.5270219286
 31
0.0
 11
9.7724963242
 21
9.5339687998
 31
0.0
 11
9.7708007683
 21
9.5411077641
 31
0.0
 11
9.7696463353
 21
9.548439077
 31
0.0
 11
9.7690465531
 21
9.5559628511
 31
0.0
 11
9.7690201521
 21
9.5636787923
 31
0.0
 11
9.7695909634
 21
9.5715844203
 31
0.0
 11
9.7707874311
 21
9.5796740709
 31
0.0
 11
9.772642081
 21
9.5879384021
 31
0.0
 11
9.7751904883
 21
9.5963623181
 31
0.0
 11
9.7784700331
 21
9.6049241313
 31
0.0
 11
9.7825182978
 21
9.6135944498
 31
0.0
 11
9.7873709299
 21
9.6223349064
 31
0.0
 11
9.7930591736
 21
9.631097387
 31
0.0
 11
9.7996071057
 21
9.6398236613
 31
0.0
 11
9.8070286109
 21
9.6484454414
 31
0.0
 11
9.8153240347
 21
9.6568848269
 31
0.0
 11
9.8244777215
 21
9.6650562691
 31
0.0
 11
9.8344551029
 21
9.6728683287
 31
0.0
 11
9.8452015487
 21
9.6802271381
 31
0.0
 11
9.8566416553
 21
9.6870398559
 31
0.0
 11
9.8686802291
 21
9.6932188154
 31
0.0
 11
9.881204713
 21
9.6986856726
 31
0.0
 11
9.887610371
 21
9.7011311599
 31
0.0
  0
SPLINE
  5
3B0
100
AcDbEntity
  8
0
100
AcDbSpline
 62
7
  6
CONTINUOUS
 70
0
 71
3
 72
30
 73
26
 74
24
 42
0.0000001
 43
0.0000001
 44
0.0000000001
 12
-0.2259846927
 22
0.0357924591
 32
0.0
 13
0.0352550324
 23
0.2261067824
 33
0.0
 40
0.0
 40
0.0
 40
0.0
 40
0.0
 40
0.0318858539
 40
0.0639553833
 40
0.0963924236
 40
0.1293809876
 40
0.1631050067
 40
0.1977476318
 40
0.2334899605
 40
0.2705090349
 40
0.3089749627
 40
0.3490470625
 40
0.3908689618
 40
0.4345626673
 40
0.4802217411
 40
0.5279038617
 40
0.577623227
 40
0.6293434378
 40
0.6829716509
 40
0.7383548889
 40
0.7952793581
 40
0.8534734667
 40
0.9126149003
 40
0.9723416562
 40
1.0
 40
1.0
 40
1.0
 40
1.0
 10
9.5454532086
 20
9.8420820757
 30
0.0
 10
9.5430513036
 20
9.8424625
 30
0.0
 10
9.5382611444
 20
9.8434124558
 30
0.0
 10
9.5311753525
 20
9.8453972713
 30
0.0
 10
9.5241840197
 20
9.8479509135
 30
0.0
 10
9.5172942173
 20
9.8510851617
 30
0.0
 10
9.510515607
 20
9.8548160348
 30
0.0
 10
9.5038621682
 20
9.8591629627
 30
0.0
 10
9.4973527112
 20
9.8641479331
 30
0.0
 10
9.4910116539
 20
9.8697943394
 30
0.0
 10
9.4848696069
 20
9.8761255636
 30
0.0
 10
9.478963825
 20
9.8831632541
 30
0.0
 10
9.4733384213
 20
9.8909252976
 30
0.0
 10
9.468044268
 20
9.8994235079
 30
0.0
 10
9.4631384925
 20
9.9086610957
 30
0.0
 10
9.4586834843
 20
9.9186300318
 30
0.0
 10
9.4547453472
 20
9.9293084731
 30
0.0
 10
9.4513917718
 20
9.9406584741
 30
0.0
 10
9.4486893613
 20
9.9526242459
 30
0.0
 10
9.4467005148
 20
9.9651312429
 30
0.0
 10
9.4454800593
 20
9.9780863276
 30
0.0
 10
9.4450718928
 20
9.991379196
 30
0.0
 10
9.4455059525
 20
10.0048851238
 30
0.0
 10
9.4465630527
 20
10.016017495
 30
0.0
 10
9.4474949802
 20
10.0226184283
 30
0.0
 10
9.4478200121
 20
10.0247030081
 30
0.0
 11
9.5454532086
 21
9.8420820757
 31
0.0
 11
9.5382969764
 21
9.8435009386
 31
0.0
 11
9.5312310709
 21
9.8454790112
 31
0.0
 11
9.5242592807
 21
9.8480236116
 31
0.0
 11
9.5173878857
 21
9.8511467146
 31
0.0
 11
9.5106264726
 21
9.8548644625
 31
0.0
 11
9.5039887364
 21
9.8591964957
 31
0.0
 11
9.4974932512
 21
9.8641650736
 31
0.0
 11
9.4911641847
 21
9.869793948
 31
0.0
 11
9.4850319175
 21
9.8761069561
 31
0.0
 11
9.4791335085
 21
9.8831263071
 31
0.0
 11
9.4735129349
 21
9.8908705534
 31
0.0
 11
9.4682210221
 21
9.8993522678
 31
0.0
 11
9.4633149684
 21
9.9085754848
 31
0.0
 11
9.458857378
 21
9.9185330174
 31
0.0
 11
9.4549147304
 21
9.9292038177
 31
0.0
 11
9.4515552541
 21
9.9405506066
 31
0.0
 11
9.4488462313
 21
9.9525180434
 31
0.0
 11
9.4468508371
 21
9.9650317268
 31
0.0
 11
9.4456247023
 21
9.9779982942
 31
0.0
 11
9.4452124691
 21
9.9913068176
 31
0.0
 11
9.4456446677
 21
10.0048315695
 31
0.0
 11
9.4469352534
 21
10.0184360697
 31
0.0
 11
9.4478200121
 21
10.0247030081
 31
0.0
  0
SPLINE
  5
3B1
100
AcDbEntity
  8
0
100
AcDbSpline
 62
7
  6
CONTINUOUS
 70
0
 71
3
 72
30
 73
26
 74
24
 42
0.0000001
 43
0.0000001
 44
0.0000000001
 12
0.2233795228
 22
0.0
 32
0.0
 13
0.0001330462
 23
-0.2234170871
 33
0.0
 40
0.0
 40
0.0
 40
0.0
 40
0.0
 40
0.0335886079
 40
0.0673425115
 40
0.1014266706
 40
0.1360052563
 40
0.1712409704
 40
0.2072940125
 40
0.2443205957
 40
0.2824709042
 40
0.3218864058
 40
0.3626964766
 40
0.4050143249
 40
0.4489322805
 40
0.4945165992
 40
0.5418020321
 40
0.5907865276
 40
0.6414265333
 40
0.6936334446
 40
0.7472717754
 40
0.8021595695
 40
0.8580714428
 40
0.9147444107
 40
0.9718863667
 40
1.0
 40
1.0
 40
1.0
 40
1.0
 10
10.2893629157
 20
10.1642968381
 30
0.0
 10
10.2918639181
 20
10.1642968381
 30
0.0
 10
10.2968803189
 20
10.164105574
 30
0.0
 10
10.304390146
 20
10.1632435265
 30
0.0
 10
10.3118857347
 20
10.1617999757
 30
0.0
 10
10.3193571277
 20
10.1597649714
 30
0.0
 10
10.3267926664
 20
10.1571251097
 30
0.0
 10
10.3341772601
 20
10.1538640888
 30
0.0
 10
10.3414918735
 20
10.1499634593
 30
0.0
 10
10.3487127401
 20
10.1454035929
 30
0.0
 10
10.3558107528
 20
10.1401648856
 30
0.0
 10
10.3627509624
 20
10.1342292069
 30
0.0
 10
10.3694922755
 20
10.1275815906
 30
0.0
 10
10.3759874081
 20
10.1202121382
 30
0.0
 10
10.3821831686
 20
10.1121180799
 30
0.0
 10
10.3880211367
 20
10.1033059018
 30
0.0
 10
10.3934387893
 20
10.0937934068
 30
0.0
 10
10.398371099
 20
10.0836115481
 30
0.0
 10
10.4027525881
 20
10.0728058413
 30
0.0
 10
10.406519768
 20
10.061437162
 30
0.0
 10
10.4096138397
 20
10.0495817487
 30
0.0
 10
10.4119834716
 20
10.0373302849
 30
0.0
 10
10.4135874338
 20
10.0247860102
 30
0.0
 10
10.4142587905
 20
10.014232235
 30
0.0
 10
10.4143616404
 20
10.0078831088
 30
0.0
 10
10.4143628872
 20
10.0057894201
 30
0.0
 11
10.2893629157
 21
10.1642968381
 31
0.0
 11
10.2968604852
 21
10.164011237
 31
0.0
 11
10.3043513383
 21
10.1631523554
 31
0.0
 11
10.3118279483
 21
10.1617140304
 31
0.0
 11
10.3192811685
 21
10.1596862307
 31
0.0
 11
10.3266994254
 21
10.1570554298
 31
0.0
 11
10.3340679222
 21
10.153805153
 31
0.0
 11
10.3413678673
 21
10.1499167188
 31
0.0
 11
10.348575751
 21
10.1453701975
 31
0.0
 11
10.3556627052
 21
10.1401456073
 31
0.0
 11
10.3625939919
 21
10.1342243602
 31
0.0
 11
10.3693286798
 21
10.1275909548
 31
0.0
 11
10.3758195759
 21
10.1202348916
 31
0.0
 11
10.3820134855
 21
10.1121527573
 31
0.0
 11
10.3878518696
 21
10.1033503863
 31
0.0
 11
10.3932719575
 21
10.0938449706
 31
0.0
 11
10.3982083409
 21
10.0836669495
 31
0.0
 11
10.4025950389
 21
10.0728614845
 31
0.0
 11
10.4063679671
 21
10.0614893141
 31
0.0
 11
10.4094676827
 21
10.0496268014
 31
0.0
 11
10.4118422227
 21
10.0373650373
 31
0.0
 11
10.4134498042
 21
10.0248079413
 31
0.0
 11
10.4142611408
 21
10.0120694099
 31
0.0
 11
10.4143628872
 21
10.0057894201
 31
0.0
  0
SPLINE
  5
3B2
100
AcDbEntity
  8
0
100
AcDbSpline
 62
7
  6
CONTINUOUS
 70
0
 71
3
 72
8
 73
4
 74
2
 42
0.0000001
 43
0.0000001
 44
0.0000000001
 12
0.0087575409
 22
0.0
 32
0.0
 13
0.0087371239
 23
-0.0006319679
 33
0.0
 40
0.0
 40
0.0
 40
0.0
 40
0.0
 40
1.0
 40
1.0
 40
1.0
 40
1.0
 10
9.9303628885
 20
10.5564963155
 30
0.0
 10
9.9332820688
 20
10.5564963155
 30
0.0
 10
9.9362023465
 20
10.5563908259
 30
0.0
 10
9.9391147212
 20
10.5561801699
 30
0.0
 11
9.9303628885
 21
10.5564963155
 31
0.0
 11
9.9391147212
 21
10.5561801699
 31
0.0
  0
SPLINE
  5
3B3
100
AcDbEntity
  8
0
100
AcDbSpline
 62
7
  6
CONTINUOUS
 70
0
 71
3
 72
28
 73
24
 74
22
 42
0.0000001
 43
0.0000001
 44
0.0000000001
 12
0.1901222014
 22
-0.0137517942
 32
0.0
 13
-0.0
 23
-0.1906060446
 33
0.0
 40
0.0
 40
0.0
 40
0.0
 40
0.0
 40
0.0459866564
 40
0.0920354585
 40
0.1381760798
 40
0.1844365335
 40
0.2308426453
 40
0.2774175516
 40
0.3241812316
 40
0.3711500813
 40
0.4183365399
 40
0.4657487778
 40
0.5133904593
 40
0.5612605872
 40
0.6093534423
 40
0.6576586223
 40
0.7061611888
 40
0.7548419223
 40
0.8036776872
 40
0.8526418992
 40
0.9017050882
 40
0.9508355423
 40
1.0
 40
1.0
 40
1.0
 40
1.0
 10
9.9391147212
 20
10.5561801699
 30
0.0
 10
9.9420290826
 20
10.5559693702
 30
0.0
 10
9.9478459055
 20
10.5553367239
 30
0.0
 10
9.9564881153
 20
10.5537594461
 30
0.0
 10
9.9650108535
 20
10.5515589235
 30
0.0
 10
9.9733744942
 20
10.5487429586
 30
0.0
 10
9.9815392511
 20
10.5453217697
 30
0.0
 10
9.9894655085
 20
10.5413081166
 30
0.0
 10
9.9971138589
 20
10.5367174386
 30
0.0
 10
10.0044452704
 20
10.5315679971
 30
0.0
 10
10.0114212739
 20
10.5258810109
 30
0.0
 10
10.0180041999
 20
10.519680777
 30
0.0
 10
10.024157457
 20
10.5129947623
 30
0.0
 10
10.0298458478
 20
10.505853659
 30
0.0
 10
10.0350359175
 20
10.4982913914
 30
0.0
 10
10.0396963253
 20
10.4903450672
 30
0.0
 10
10.0437982285
 20
10.4820548644
 30
0.0
 10
10.0473156674
 20
10.4734638526
 30
0.0
 10
10.0502259361
 20
10.4646177429
 30
0.0
 10
10.0525099277
 20
10.4555645723
 30
0.0
 10
10.0541524384
 20
10.446354324
 30
0.0
 10
10.0551424186
 20
10.4370384942
 30
0.0
 10
10.0553628885
 20
10.4307932927
 30
0.0
 10
10.0553628885
 20
10.4276696118
 30
0.0
 11
9.9391147212
 21
10.5561801699
 31
0.0
 11
9.9478268797
 21
10.5552328079
 31
0.0
 11
9.9564596789
 21
10.5536574702
 31
0.0
 11
9.9649734175
 21
10.5514596145
 31
0.0
 11
9.973328392
 21
10.5486469955
 31
0.0
 11
9.9814849346
 21
10.5452297727
 31
0.0
 11
9.9894034823
 21
10.5412206379
 31
0.0
 11
9.997044683
 21
10.5366349549
 31
0.0
 11
10.0043695429
 21
10.5314909049
 31
0.0
 11
10.0113396183
 21
10.5258096248
 31
0.0
 11
10.0179172507
 21
10.5196153298
 31
0.0
 11
10.0240658461
 21
10.5129354093
 31
0.0
 11
10.029750192
 21
10.5058004841
 31
0.0
 11
10.0349368072
 21
10.4982444162
 31
0.0
 11
10.0395943158
 21
10.4903042619
 31
0.0
 11
10.0436938337
 21
10.4820201611
 31
0.0
 11
10.0472093562
 21
10.4734351583
 31
0.0
 11
10.0501181326
 21
10.4645949537
 31
0.0
 11
10.0524010137
 21
10.4555475867
 31
0.0
 11
10.0540427595
 21
10.4463430542
 31
0.0
 11
10.0550322926
 21
10.437032875
 31
0.0
 11
10.0553628885
 21
10.4276696118
 31
0.0
  0
SPLINE
  5
3B4
100
AcDbEntity
  8
0
100
AcDbSpline
 62
7
  6
CONTINUOUS
 70
0
 71
3
 72
30
 73
26
 74
24
 42
0.0000001
 43
0.0000001
 44
0.0000000001
 12
0.0782547632
 22
-0.2150031949
 32
0.0
 13
-0.2148494277
 23
-0.0787839968
 33
0.0
 40
0.0
 40
0.0
 40
0.0
 40
0.0
 40
0.0318858538
 40
0.0639553831
 40
0.0963924233
 40
0.1293809872
 40
0.1631050061
 40
0.1977476311
 40
0.2334899597
 40
0.270509034
 40
0.3089749617
 40
0.3490470613
 40
0.3908689604
 40
0.4345626658
 40
0.4802217395
 40
0.5279038599
 40
0.577623225
 40
0.6293434357
 40
0.6829716486
 40
0.7383548864
 40
0.7952793554
 40
0.8534734638
 40
0.9126148973
 40
0.9723416529
 40
1.0
 40
1.0
 40
1.0
 40
1.0
 10
10.086001005
 20
9.640317212
 30
0.0
 10
10.086832745
 20
9.6380320252
 30
0.0
 10
10.0883242102
 20
9.63338191
 30
0.0
 10
10.0900235115
 20
9.626222279
 30
0.0
 10
10.0911795112
 20
9.6188694912
 30
0.0
 10
10.0917784784
 20
9.6113240206
 30
0.0
 10
10.0918017188
 20
9.6035865513
 30
0.0
 10
10.0912254611
 20
9.5956598901
 30
0.0
 10
10.0900213551
 20
9.5875498291
 30
0.0
 10
10.0881571025
 20
9.5792663834
 30
0.0
 10
10.0855974125
 20
9.5708249896
 30
0.0
 10
10.0823052896
 20
9.5622477364
 30
0.0
 10
10.0782437032
 20
9.5535645341
 30
0.0
 10
10.0733776574
 20
9.5448141491
 30
0.0
 10
10.0676766482
 20
9.5360449898
 30
0.0
 10
10.0611174511
 20
9.5273155157
 30
0.0
 10
10.0536871226
 20
9.5186941322
 30
0.0
 10
10.0453860337
 20
9.5102584395
 30
0.0
 10
10.0362306885
 20
9.5020937367
 30
0.0
 10
10.0262560344
 20
9.4942907399
 30
0.0
 10
10.0155169505
 20
9.4869425558
 30
0.0
 10
10.0040886289
 20
9.4801410548
 30
0.0
 10
9.992065642
 20
9.4739728882
 30
0.0
 10
9.9818165582
 20
9.4695003682
 30
0.0
 10
9.9755914441
 20
9.4671152543
 30
0.0
 10
9.9736106508
 20
9.4663889092
 30
0.0
 11
10.086001005
 21
9.640317212
 31
0.0
 11
10.0882294497
 21
9.6333703519
 31
0.0
 11
10.0899250074
 21
9.6262313831
 31
0.0
 11
10.0910794407
 21
9.6189000713
 31
0.0
 11
10.0916792316
 21
9.6113761034
 31
0.0
 11
10.0917056142
 21
9.6036600383
 31
0.0
 11
10.0911347709
 21
9.595754332
 31
0.0
 11
10.0899382286
 21
9.5876644384
 31
0.0
 11
10.0880834964
 21
9.5793999796
 31
0.0
 11
10.0855349972
 21
9.5709759708
 31
0.0
 11
10.0822553399
 21
9.5624140571
 31
0.0
 11
10.0782069776
 21
9.5537437076
 31
0.0
 11
10.0733542733
 21
9.5450032796
 31
0.0
 11
10.0676659681
 21
9.536240844
 31
0.0
 11
10.0611179965
 21
9.52751464
 31
0.0
 11
10.0536965377
 21
9.5188930162
 31
0.0
 11
10.045401119
 21
9.5104537196
 31
0.0
 11
10.0362475232
 21
9.5022824263
 31
0.0
 11
10.0262701954
 21
9.4944704611
 31
0.0
 11
10.015523822
 21
9.4871117428
 31
0.0
 11
10.0040837797
 21
9.4802990954
 31
0.0
 11
9.9920452312
 21
9.4741201749
 31
0.0
 11
9.9795207789
 21
9.468653354
 31
0.0
 11
9.9736106508
 21
9.4663889092
 31
0.0
  0
SPLINE
  5
3B5
100
AcDbEntity
  8
0
100
AcDbSpline
 62
7
  6
CONTINUOUS
 70
0
 71
3
 72
8
 73
4
 74
2
 42
0.0000001
 43
0.0000001
 44
0.0000000001
 12
0.0064428417
 22
0.0023450026
 32
0.0
 13
0.0065129802
 23
0.0021425296
 33
0.0
 40
0.0
 40
0.0
 40
0.0
 40
0.0
 40
1.0
 40
1.0
 40
1.0
 40
1.0
 10
9.8876103668
 20
9.7011311584
 30
0.0
 10
9.8897579806
 20
9.7019128259
 30
0.0
 10
9.8919178076
 20
9.7026609384
 30
0.0
 10
9.894088801
 20
9.7033751149
 30
0.0
 11
9.8876103668
 21
9.7011311584
 31
0.0
 11
9.894088801
 21
9.7033751149
 31
0.0
  0
SPLINE
  5
3B6
100
AcDbEntity
  8
0
100
AcDbSpline
 62
7
  6
CONTINUOUS
 70
0
 71
3
 72
29
 73
25
 74
23
 42
0.0000001
 43
0.0000001
 44
0.0000000001
 12
0.2113669631
 22
0.069531914
 32
0.0
 13
0.0760904441
 23
-0.2090567771
 33
0.0
 40
0.0
 40
0.0
 40
0.0
 40
0.0
 40
0.0614266317
 40
0.1222502866
 40
0.1820996712
 40
0.2406433028
 40
0.2976018646
 40
0.3527554816
 40
0.4059468249
 40
0.4570804105
 40
0.5061188036
 40
0.5530766061
 40
0.5980131372
 40
0.6410246202
 40
0.6822365326
 40
0.7217965871
 40
0.7598686343
 40
0.7966276205
 40
0.8322556231
 40
0.866938891
 40
0.9008657846
 40
0.9342254665
 40
0.9672071836
 40
1.0
 40
1.0
 40
1.0
 40
1.0
 10
9.894088801
 20
9.7033751149
 30
0.0
 10
9.8984166545
 20
9.7047988187
 30
0.0
 10
9.9071181941
 20
9.7073638516
 30
0.0
 10
9.9202932304
 20
9.7103670058
 30
0.0
 10
9.9334197533
 20
9.7125027377
 30
0.0
 10
9.9463696908
 20
9.7137766524
 30
0.0
 10
9.9590263891
 20
9.7142107944
 30
0.0
 10
9.9712879606
 20
9.7138412119
 30
0.0
 10
9.9830693227
 20
9.7127149337
 30
0.0
 10
9.9943030032
 20
9.7108866941
 30
0.0
 10
10.0049388378
 20
9.7084156998
 30
0.0
 10
10.0149427714
 20
9.7053626723
 30
0.0
 10
10.0242950179
 20
9.7017873226
 30
0.0
 10
10.0329878286
 20
9.6977463412
 30
0.0
 10
10.0410230934
 20
9.6932919199
 30
0.0
 10
10.0484099533
 20
9.6884707742
 30
0.0
 10
10.0551625503
 20
9.6833236051
 30
0.0
 10
10.0612979961
 20
9.6778849223
 30
0.0
 10
10.066834595
 20
9.6721831586
 30
0.0
 10
10.0717903415
 20
9.6662409743
 30
0.0
 10
10.0761816413
 20
9.6600757995
 30
0.0
 10
10.0800223753
 20
9.6537001748
 30
0.0
 10
10.0833227572
 20
9.6471232893
 30
0.0
 10
10.085169265
 20
9.6426023989
 30
0.0
 10
10.086001005
 20
9.640317212
 30
0.0
 11
9.894088801
 21
9.7033751149
 31
0.0
 11
9.9071973054
 21
9.7072379202
 31
0.0
 11
9.9203911022
 21
9.7102428227
 31
0.0
 11
9.9335337685
 21
9.7123775497
 31
0.0
 11
9.9464960613
 21
9.7136480805
 31
0.0
 11
9.9591605726
 21
9.714077071
 31
0.0
 11
9.9714250402
 21
9.7137013154
 31
0.0
 11
9.9832043752
 21
9.7125686317
 31
0.0
 11
9.9944314158
 21
9.7107345066
 31
0.0
 11
10.005056549
 21
9.7082588017
 31
0.0
 11
10.0150464289
 21
9.7052027588
 31
0.0
 11
10.024382055
 21
9.7016264609
 31
0.0
 11
10.0330564739
 21
9.6975868251
 31
0.0
 11
10.0410723293
 21
9.6931361419
 31
0.0
 11
10.0484394418
 21
9.6883211205
 31
0.0
 11
10.055172541
 21
9.6831823766
 31
0.0
 11
10.0612892294
 21
9.677754281
 31
0.0
 11
10.0668082111
 21
9.6720650895
 31
0.0
 11
10.0717477923
 21
9.666137282
 31
0.0
 11
10.0761246394
 21
9.6599880498
 31
0.0
 11
10.0799527688
 21
9.6536298834
 31
0.0
 11
10.083242737
 21
9.6470712323
 31
0.0
 11
10.086001005
 21
9.640317212
 31
0.0
  0
SPLINE
  5
3B7
100
AcDbEntity
  8
0
100
AcDbSpline
 62
7
  6
CONTINUOUS
 70
0
 71
3
 72
8
 73
4
 74
2
 42
0.0000001
 43
0.0000001
 44
0.0000000001
 12
0.0
 22
0.0093709476
 32
0.0
 13
0.0006609549
 23
0.0093476097
 33
0.0
 40
0.0
 40
0.0
 40
0.0
 40
0.0
 40
1.0
 40
1.0
 40
1.0
 40
1.0
 10
9.8053628885
 20
10.4276696118
 30
0.0
 10
9.8053628885
 20
10.430793261
 30
0.0
 10
9.8054731593
 20
10.4339169102
 30
0.0
 10
9.8056934776
 20
10.4370327801
 30
0.0
 11
9.8053628885
 21
10.4276696118
 31
0.0
 11
9.8056934776
 21
10.4370327801
 31
0.0
  0
SPLINE
  5
3B8
100
AcDbEntity
  8
0
100
AcDbSpline
 62
7
  6
CONTINUOUS
 70
0
 71
3
 72
27
 73
23
 74
21
 42
0.0000001
 43
0.0000001
 44
0.0000000001
 12
0.0127829357
 22
0.1807837374
 32
0.0
 13
0.1807750404
 23
0.0130757029
 33
0.0
 40
0.0
 40
0.0
 40
0.0
 40
0.0
 40
0.0516713546
 40
0.1032714048
 40
0.1547673603
 40
0.2061282273
 40
0.2573260468
 40
0.3083364869
 40
0.3591393346
 40
0.4097188788
 40
0.4600641796
 40
0.5101692218
 40
0.560032957
 40
0.6096592386
 40
0.6590566598
 40
0.7082383027
 40
0.7572214112
 40
0.8060269974
 40
0.8546793943
 40
0.9032057627
 40
0.9516355642
 40
1.0
 40
1.0
 40
1.0
 40
1.0
 10
9.8056934776
 20
10.4370327801
 30
0.0
 10
9.8059136481
 20
10.4401465603
 30
0.0
 10
9.8065733335
 20
10.4463542968
 30
0.0
 10
9.8082158505
 20
10.4555645781
 30
0.0
 10
9.8104998425
 20
10.4646177482
 30
0.0
 10
9.8134101114
 20
10.4734638575
 30
0.0
 10
9.8169275504
 20
10.4820548689
 30
0.0
 10
9.8210294539
 20
10.4903450712
 30
0.0
 10
9.8256898618
 20
10.498291395
 30
0.0
 10
9.8308799315
 20
10.5058536621
 30
0.0
 10
9.8365683224
 20
10.512994765
 30
0.0
 10
9.8427215794
 20
10.5196807793
 30
0.0
 10
9.8493045053
 20
10.5258810129
 30
0.0
 10
9.8562805087
 20
10.5315679987
 30
0.0
 10
9.86361192
 20
10.5367174399
 30
0.0
 10
9.8712602703
 20
10.5413081176
 30
0.0
 10
9.8791865275
 20
10.5453217705
 30
0.0
 10
9.8873512841
 20
10.5487429591
 30
0.0
 10
9.8957149246
 20
10.5515589238
 30
0.0
 10
9.9042376626
 20
10.5537594463
 30
0.0
 10
9.9128798717
 20
10.5553367239
 30
0.0
 10
9.9186966939
 20
10.5559693702
 30
0.0
 10
9.9216110549
 20
10.5561801698
 30
0.0
 11
9.8056934776
 21
10.4370327801
 31
0.0
 11
9.8066830184
 21
10.4463430604
 31
0.0
 11
9.8083247645
 21
10.4555475924
 31
0.0
 11
9.810607646
 21
10.4645949591
 31
0.0
 11
9.8135164225
 21
10.4734351632
 31
0.0
 11
9.8170319453
 21
10.4820201656
 31
0.0
 11
9.8211314633
 21
10.490304266
 31
0.0
 11
9.825788972
 21
10.4982444198
 31
0.0
 11
9.8309755873
 21
10.5058004872
 31
0.0
 11
9.8366599332
 21
10.512935412
 31
0.0
 11
9.8428085286
 21
10.5196153321
 31
0.0
 11
9.8493861609
 21
10.5258096267
 31
0.0
 11
9.8563562362
 21
10.5314909065
 31
0.0
 11
9.863681096
 21
10.5366349562
 31
0.0
 11
9.8713222965
 21
10.5412206389
 31
0.0
 11
9.879240844
 21
10.5452297735
 31
0.0
 11
9.8873973864
 21
10.548646996
 31
0.0
 11
9.8957523606
 21
10.5514596148
 31
0.0
 11
9.9042660989
 21
10.5536574704
 31
0.0
 11
9.9128988979
 21
10.5552328079
 31
0.0
 11
9.9216110549
 21
10.5561801698
 31
0.0
  0
SPLINE
  5
3B9
100
AcDbEntity
  8
0
100
AcDbSpline
 62
7
  6
CONTINUOUS
 70
0
 71
3
 72
8
 73
4
 74
2
 42
0.0000001
 43
0.0000001
 44
0.0000000001
 12
-0.0
 22
0.0064004938
 32
0.0
 13
0.0002035367
 23
0.0063972624
 33
0.0
 40
0.0
 40
0.0
 40
0.0
 40
0.0
 40
1.0
 40
1.0
 40
1.0
 40
1.0
 10
10.1643629084
 20
10.0056695612
 30
0.0
 10
10.1643629084
 20
10.0078030592
 30
0.0
 10
10.1643968312
 20
10.0099365571
 30
0.0
 10
10.1644646768
 20
10.0120689779
 30
0.0
 11
10.1643629084
 21
10.0056695612
 31
0.0
 11
10.1644646768
 21
10.0120689779
 31
0.0
  0
SPLINE
  5
3BA
100
AcDbEntity
  8
0
100
AcDbSpline
 62
7
  6
CONTINUOUS
 70
0
 71
3
 72
29
 73
25
 74
23
 42
0.0000001
 43
0.0000001
 44
0.0000000001
 12
0.006904974
 22
0.2170268669
 32
0.0
 13
0.217099945
 23
0.0
 33
0.0
 40
0.0
 40
0.0
 40
0.0
 40
0.0
 40
0.0587969237
 40
0.1171091377
 40
0.1746382421
 40
0.2311136457
 40
0.2863034453
 40
0.340020422
 40
0.3921251707
 40
0.4425265242
 40
0.4911796703
 40
0.5380824982
 40
0.5832707644
 40
0.6268126409
 40
0.6688031287
 40
0.7093587102
 40
0.748612504
 40
0.7867100696
 40
0.8238059351
 40
0.860060832
 40
0.8956395934
 40
0.9307096269
 40
0.9654398521
 40
1.0
 40
1.0
 40
1.0
 40
1.0
 10
10.1644646768
 20
10.0120689779
 30
0.0
 10
10.1646000072
 20
10.016322482
 30
0.0
 10
10.165138381
 20
10.0247858891
 30
0.0
 10
10.1667423648
 20
10.0373303162
 30
0.0
 10
10.1691119982
 20
10.0495817776
 30
0.0
 10
10.1722060711
 20
10.0614371883
 30
0.0
 10
10.1759732519
 20
10.0728058649
 30
0.0
 10
10.1803547416
 20
10.083611569
 30
0.0
 10
10.1852870517
 20
10.0937934251
 30
0.0
 10
10.1907047043
 20
10.1033059175
 30
0.0
 10
10.1965426722
 20
10.1121180933
 30
0.0
 10
10.2027384324
 20
10.1202121493
 30
0.0
 10
10.2092335645
 20
10.1275815997
 30
0.0
 10
10.215974877
 20
10.1342292142
 30
0.0
 10
10.2229150858
 20
10.1401648913
 30
0.0
 10
10.2300130977
 20
10.1454035973
 30
0.0
 10
10.2372339635
 20
10.1499634626
 30
0.0
 10
10.2445485762
 20
10.1538640911
 30
0.0
 10
10.2519331691
 20
10.1571251113
 30
0.0
 10
10.2593687071
 20
10.1597649724
 30
0.0
 10
10.2668400993
 20
10.1617999763
 30
0.0
 10
10.2743356871
 20
10.1632435268
 30
0.0
 10
10.2818455134
 20
10.1641055741
 30
0.0
 10
10.2868619136
 20
10.1642968381
 30
0.0
 10
10.2893629157
 20
10.1642968381
 30
0.0
 11
10.1644646768
 21
10.0120689779
 31
0.0
 11
10.1652760303
 21
10.0248079751
 31
0.0
 11
10.1668836137
 21
10.0373650687
 31
0.0
 11
10.1692581552
 21
10.0496268303
 31
0.0
 11
10.172357872
 21
10.0614893403
 31
0.0
 11
10.1761308011
 21
10.0728615081
 31
0.0
 11
10.1805174998
 21
10.0836669704
 31
0.0
 11
10.1854538834
 21
10.0938449888
 31
0.0
 11
10.1908739714
 21
10.103350402
 31
0.0
 11
10.1967123554
 21
10.1121527706
 31
0.0
 11
10.2029062645
 21
10.1202349027
 31
0.0
 11
10.2093971601
 21
10.1275909639
 31
0.0
 11
10.2161318474
 21
10.1342243675
 31
0.0
 11
10.2230631333
 21
10.140145613
 31
0.0
 11
10.2301500867
 21
10.1453702018
 31
0.0
 11
10.2373579697
 21
10.1499167221
 31
0.0
 11
10.244657914
 21
10.1538051554
 31
0.0
 11
10.2520264101
 21
10.1570554315
 31
0.0
 11
10.2594446663
 21
10.1596862318
 31
0.0
 11
10.2668978857
 21
10.1617140311
 31
0.0
 11
10.2743744949
 21
10.1631523557
 31
0.0
 11
10.2818653471
 21
10.164011237
 31
0.0
 11
10.2893629157
 21
10.1642968381
 31
0.0
  0
SPLINE
  5
3BB
100
AcDbEntity
  8
0
100
AcDbSpline
 62
7
  6
CONTINUOUS
 70
0
 71
3
 72
8
 73
4
 74
2
 42
0.0000001
 43
0.0000001
 44
0.0000000001
 12
-0.0010725661
 22
-0.0067719161
 32
0.0
 13
-0.0012836568
 23
-0.0067350998
 33
0.0
 40
0.0
 40
0.0
 40
0.0
 40
0.0
 40
1.0
 40
1.0
 40
1.0
 40
1.0
 10
9.6948239745
 20
9.9861152514
 30
0.0
 10
9.6944664524
 20
9.983857946
 30
0.0
 10
9.6940736615
 20
9.9816062267
 30
0.0
 10
9.6936457759
 20
9.9793611934
 30
0.0
 11
9.6948239745
 21
9.9861152514
 31
0.0
 11
9.6936457759
 21
9.9793611934
 31
0.0
  0
SPLINE
  5
3BC
100
AcDbEntity
  8
0
100
AcDbSpline
 62
7
  6
CONTINUOUS
 70
0
 71
3
 72
29
 73
25
 74
23
 42
0.0000001
 43
0.0000001
 44
0.0000000001
 12
-0.0416587549
 22
-0.2185754522
 32
0.0
 13
-0.2197345565
 23
0.0348025347
 33
0.0
 40
0.0
 40
0.0
 40
0.0
 40
0.0
 40
0.0614266317
 40
0.1222502866
 40
0.1820996712
 40
0.2406433028
 40
0.2976018646
 40
0.3527554816
 40
0.4059468249
 40
0.4570804105
 40
0.5061188036
 40
0.5530766061
 40
0.5980131372
 40
0.6410246202
 40
0.6822365326
 40
0.7217965871
 40
0.7598686343
 40
0.7966276205
 40
0.8322556231
 40
0.866938891
 40
0.9008657846
 40
0.9342254665
 40
0.9672071836
 40
1.0
 40
1.0
 40
1.0
 40
1.0
 10
9.6936457759
 20
9.9793611934
 30
0.0
 10
9.6927927902
 20
9.9748857421
 30
0.0
 10
9.6908176284
 20
9.9660316515
 30
0.0
 10
9.687056862
 20
9.9530525471
 30
0.0
 10
9.6825609505
 20
9.9405364081
 30
0.0
 10
9.6773968872
 20
9.9285925314
 30
0.0
 10
9.6716405073
 20
9.9173122574
 30
0.0
 10
9.6653727353
 20
9.9067672225
 30
0.0
 10
9.6586759525
 20
9.8970090416
 30
0.0
 10
9.6516307417
 20
9.8880701913
 30
0.0
 10
9.6443132065
 20
9.8799658427
 30
0.0
 10
9.6367929652
 20
9.8726963423
 30
0.0
 10
9.6291318348
 20
9.8662500471
 30
0.0
 10
9.6213831546
 20
9.8606062502
 30
0.0
 10
9.6135916563
 20
9.8557379955
 30
0.0
 10
9.6057937665
 20
9.8516146401
 30
0.0
 10
9.598018227
 20
9.8482040828
 30
0.0
 10
9.5902869247
 20
9.8454746268
 30
0.0
 10
9.5826158534
 20
9.8433964781
 30
0.0
 10
9.5750161083
 20
9.8419429127
 30
0.0
 10
9.5674949806
 20
9.8410911314
 30
0.0
 10
9.5600567087
 20
9.8408229139
 30
0.0
 10
9.5527043782
 20
9.8411248723
 30
0.0
 10
9.5478551135
 20
9.8417016513
 30
0.0
 10
9.5454532086
 20
9.8420820757
 30
0.0
 11
9.6936457759
 21
9.9793611934
 31
0.0
 11
9.6906691324
 21
9.966023512
 31
0.0
 11
9.6869007998
 21
9.9530271516
 31
0.0
 11
9.682396183
 21
9.9404973805
 31
0.0
 11
9.67722317
 21
9.9285443382
 31
0.0
 11
9.6714584966
 21
9.9172597283
 31
0.0
 11
9.6651839215
 21
9.9067151532
 31
0.0
 11
9.6584825191
 21
9.8969618506
 31
0.0
 11
9.6514353799
 21
9.8880316612
 31
0.0
 11
9.6441189127
 21
9.8799389558
 31
0.0
 11
9.6366028476
 21
9.872683209
 31
0.0
 11
9.6289489456
 21
9.86625191
 31
0.0
 11
9.6212103588
 21
9.8606235466
 31
0.0
 11
9.6134315397
 21
9.8557704555
 31
0.0
 11
9.6056485801
 21
9.8516614025
 31
0.0
 11
9.5978898622
 21
9.8482638136
 31
0.0
 11
9.5901769134
 21
9.8455456304
 31
0.0
 11
9.582525379
 21
9.843476795
 31
0.0
 11
9.5749460453
 21
9.8420303981
 31
0.0
 11
9.567445868
 21
9.8411835283
 31
0.0
 11
9.5600289764
 21
9.8409178711
 31
0.0
 11
9.5526976427
 21
9.8412200972
 31
0.0
 11
9.5454532086
 21
9.8420820757
 31
0.0
  0
SPLINE
  5
3BD
100
AcDbEntity
  8
0
100
AcDbSpline
 62
7
  6
CONTINUOUS
 70
0
 71
3
 72
16
 73
12
 74
10
 42
0.0000001
 43
0.0000001
 44
0.0000000001
 12
-0.0757628365
 22
0.0
 32
0.0
 13
-0.0617501874
 23
0.0439239991
 33
0.0
 40
0.0
 40
0.0
 40
0.0
 40
0.0
 40
0.1139502749
 40
0.2279761531
 40
0.342151794
 40
0.4565489331
 40
0.5712351699
 40
0.6862732906
 40
0.8017194538
 40
0.9176226616
 40
1.0
 40
1.0
 40
1.0
 40
1.0
 10
9.9303628885
 20
10.5107717165
 30
0.0
 10
9.9274851565
 20
10.5107717165
 30
0.0
 10
9.9217256797
 20
10.5109768095
 30
0.0
 10
9.9131272086
 20
10.511898605
 30
0.0
 10
9.9046044879
 20
10.5134315109
 30
0.0
 10
9.8961962138
 20
10.5155703433
 30
0.0
 10
9.8879403431
 20
10.5183077422
 30
0.0
 10
9.8798749961
 20
10.5216340711
 30
0.0
 10
9.872038132
 20
10.5255373052
 30
0.0
 10
9.8652082258
 20
10.5295659911
 30
0.0
 10
9.8610544316
 20
10.5323671473
 30
0.0
 10
9.8593588263
 20
10.5335732613
 30
0.0
 11
9.9303628885
 21
10.5107717165
 31
0.0
 11
9.921735161
 21
10.5110789488
 31
0.0
 11
9.9131454374
 21
10.5119996314
 31
0.0
 11
9.9046317428
 21
10.5135307037
 31
0.0
 11
9.8962321025
 21
10.5156670157
 31
0.0
 11
9.887984563
 21
10.5184012478
 31
0.0
 11
9.8799271175
 21
10.5217238228
 31
0.0
 11
9.8720976889
 21
10.5256227731
 31
0.0
 11
9.8645339937
 21
10.5300836264
 31
0.0
 11
9.8593588263
 21
10.5335732613
 31
0.0
  0
SPLINE
  5
3BE
100
AcDbEntity
  8
0
100
AcDbSpline
 62
7
  6
CONTINUOUS
 70
0
 71
3
 72
16
 73
12
 74
10
 42
0.0000001
 43
0.0000001
 44
0.0000000001
 12
-0.0617501874
 22
-0.043923999
 32
0.0
 13
-0.0757628365
 23
0.0
 33
0.0
 40
0.0
 40
0.0
 40
0.0
 40
0.0
 40
0.0823773364
 40
0.1982805433
 40
0.3137267018
 40
0.4287648214
 40
0.5434510718
 40
0.6578482125
 40
0.7720238443
 40
0.8860497179
 40
1.0
 40
1.0
 40
1.0
 40
1.0
 10
10.0013669507
 20
10.5335732613
 30
0.0
 10
9.9996713454
 20
10.5323671473
 30
0.0
 10
9.9955175513
 20
10.5295659912
 30
0.0
 10
9.9886876452
 20
10.5255373053
 30
0.0
 10
9.9808507812
 20
10.5216340713
 30
0.0
 10
9.9727854341
 20
10.5183077423
 30
0.0
 10
9.9645295631
 20
10.5155703433
 30
0.0
 10
9.9561212889
 20
10.5134315109
 30
0.0
 10
9.9475985685
 20
10.511898605
 30
0.0
 10
9.9390000975
 20
10.5109768096
 30
0.0
 10
9.9332406207
 20
10.5107717165
 30
0.0
 10
9.9303628885
 20
10.5107717165
 30
0.0
 11
10.0013669507
 21
10.5335732613
 31
0.0
 11
9.9961917834
 21
10.5300836265
 31
0.0
 11
9.9886280883
 21
10.5256227732
 31
0.0
 11
9.98079866
 21
10.521723823
 31
0.0
 11
9.9727412145
 21
10.5184012481
 31
0.0
 11
9.9644936741
 21
10.5156670156
 31
0.0
 11
9.9560940337
 21
10.5135307036
 31
0.0
 11
9.9475803398
 21
10.5119996314
 31
0.0
 11
9.9389906166
 21
10.5110789488
 31
0.0
 11
9.9303628885
 21
10.5107717165
 31
0.0
  0
SPLINE
  5
3BF
100
AcDbEntity
  8
0
100
AcDbSpline
 62
7
  6
CONTINUOUS
 70
0
 71
3
 72
30
 73
26
 74
24
 42
0.0000001
 43
0.0000001
 44
0.0000000001
 12
-0.2155335848
 22
-0.0784478094
 32
0.0
 13
-0.0784350658
 23
0.2154985721
 33
0.0
 40
0.0
 40
0.0
 40
0.0
 40
0.0
 40
0.0298934943
 40
0.0894829534
 40
0.1484884361
 40
0.2065487719
 40
0.2633423869
 40
0.3185983138
 40
0.3721032503
 40
0.4237045704
 40
0.4733096443
 40
0.5208821563
 40
0.5664362719
 40
0.6100295369
 40
0.6517552984
 40
0.6917352829
 40
0.7301127878
 40
0.7670467656
 40
0.8027069331
 40
0.837269925
 40
0.8709164227
 40
0.9038291559
 40
0.936191633
 40
0.9681874435
 40
1.0
 40
1.0
 40
1.0
 40
1.0
 10
9.9731154102
 20
9.4662079822
 30
0.0
 10
9.9709677262
 20
9.4654262892
 30
0.0
 10
9.9645023048
 20
9.4631868252
 30
0.0
 10
9.9536075101
 20
9.4599752724
 30
0.0
 10
9.9404325466
 20
9.4569721348
 30
0.0
 10
9.9273060236
 20
9.4548364029
 30
0.0
 10
9.9143560862
 20
9.4535624882
 30
0.0
 10
9.9016993878
 20
9.4531283462
 30
0.0
 10
9.8894378164
 20
9.4534979287
 30
0.0
 10
9.8776564543
 20
9.4546242069
 30
0.0
 10
9.8664227737
 20
9.4564524465
 30
0.0
 10
9.8557869392
 20
9.4589234408
 30
0.0
 10
9.8457830056
 20
9.4619764684
 30
0.0
 10
9.836430759
 20
9.465551818
 30
0.0
 10
9.8277379483
 20
9.4695927994
 30
0.0
 10
9.8197026835
 20
9.4740472207
 30
0.0
 10
9.8123158237
 20
9.4788683664
 30
0.0
 10
9.8055632267
 20
9.4840155355
 30
0.0
 10
9.7994277809
 20
9.4894542183
 30
0.0
 10
9.793891182
 20
9.495155982
 30
0.0
 10
9.7889354354
 20
9.5010981663
 30
0.0
 10
9.7845441356
 20
9.5072633411
 30
0.0
 10
9.7807034017
 20
9.5136389658
 30
0.0
 10
9.7774030198
 20
9.5202158513
 30
0.0
 10
9.7755565119
 20
9.5247367417
 30
0.0
 10
9.7747247719
 20
9.5270219286
 30
0.0
 11
9.9731154102
 21
9.4662079822
 31
0.0
 11
9.9666367634
 21
9.4639639557
 31
0.0
 11
9.9535284716
 21
9.4601012204
 31
0.0
 11
9.9403346748
 21
9.4570963179
 31
0.0
 11
9.9271920085
 21
9.4549615909
 31
0.0
 11
9.9142297157
 21
9.4536910601
 31
0.0
 11
9.9015652044
 21
9.4532620696
 31
0.0
 11
9.8893007368
 21
9.4536378252
 31
0.0
 11
9.8775214018
 21
9.4547705089
 31
0.0
 11
9.8662943612
 21
9.456604634
 31
0.0
 11
9.8556692279
 21
9.459080339
 31
0.0
 11
9.8456793481
 21
9.4621363818
 31
0.0
 11
9.8363437219
 21
9.4657126797
 31
0.0
 11
9.8276693031
 21
9.4697523155
 31
0.0
 11
9.8196534476
 21
9.4742029987
 31
0.0
 11
9.8122863352
 21
9.4790180201
 31
0.0
 11
9.8055532359
 21
9.484156764
 31
0.0
 11
9.7994365475
 21
9.4895848596
 31
0.0
 11
9.7939175659
 21
9.4952740511
 31
0.0
 11
9.7889779847
 21
9.5012018586
 31
0.0
 11
9.7846011376
 21
9.5073510908
 31
0.0
 11
9.7807730082
 21
9.5137092572
 31
0.0
 11
9.7774830399
 21
9.5202679083
 31
0.0
 11
9.7747247719
 21
9.5270219286
 31
0.0
  0
SPLINE
  5
3C0
100
AcDbEntity
  8
0
100
AcDbSpline
 62
7
  6
CONTINUOUS
 70
0
 71
3
 72
30
 73
26
 74
24
 42
0.0000001
 43
0.0000001
 44
0.0000000001
 12
0.0
 22
-0.223537009
 32
0.0
 13
-0.223499385
 23
-0.0
 33
0.0
 40
0.0
 40
0.0
 40
0.0
 40
0.0
 40
0.0286349129
 40
0.085746223
 40
0.1423887957
 40
0.1982706812
 40
0.2531290361
 40
0.3067385971
 40
0.3589175059
 40
0.4095303489
 40
0.4584885694
 40
0.5057486383
 40
0.5513085053
 40
0.595202903
 40
0.6374980518
 40
0.6782862323
 40
0.717680592
 40
0.7558104378
 40
0.7928171617
 40
0.8288508671
 40
0.8640676835
 40
0.8986277244
 40
0.9326936041
 40
0.9664294055
 40
1.0
 40
1.0
 40
1.0
 40
1.0
 10
10.4143629229
 20
10.0056695613
 30
0.0
 10
10.4143629229
 20
10.003535907
 30
0.0
 10
10.4142613274
 20
9.9971467556
 30
0.0
 10
10.4135874303
 20
9.9865530759
 30
0.0
 10
10.4119834658
 20
9.9740088019
 30
0.0
 10
10.4096138318
 20
9.961757339
 30
0.0
 10
10.4065197581
 20
9.949901927
 30
0.0
 10
10.4027525763
 20
9.9385332492
 30
0.0
 10
10.3983710856
 20
9.9277275441
 30
0.0
 10
10.3934387743
 20
9.9175456872
 30
0.0
 10
10.3880211204
 20
9.9080331942
 30
0.0
 10
10.3821831512
 20
9.8992210181
 30
0.0
 10
10.3759873897
 20
9.8911269619
 30
0.0
 10
10.3694922563
 20
9.8837575116
 30
0.0
 10
10.3627509425
 20
9.8771098974
 30
0.0
 10
10.3558107324
 20
9.8711742207
 30
0.0
 10
10.3487127193
 20
9.8659355153
 30
0.0
 10
10.3414918522
 20
9.8613756508
 30
0.0
 10
10.3341772383
 20
9.8574750231
 30
0.0
 10
10.3267926442
 20
9.854214004
 30
0.0
 10
10.3193571051
 20
9.851574144
 30
0.0
 10
10.3118857117
 20
9.8495391414
 30
0.0
 10
10.3043901228
 20
9.8480955924
 30
0.0
 10
10.2968802954
 20
9.8472335468
 30
0.0
 10
10.2918638946
 20
9.8470422835
 30
0.0
 10
10.2893628922
 20
9.8470422835
 30
0.0
 11
10.4143629229
 21
10.0056695613
 31
0.0
 11
10.4142611396
 21
9.9992696758
 31
0.0
 11
10.4134498008
 21
9.9865311448
 31
0.0
 11
10.4118422169
 21
9.9739740494
 31
0.0
 11
10.4094676748
 21
9.9617122863
 31
0.0
 11
10.4063679571
 21
9.9498497749
 31
0.0
 11
10.4025950271
 21
9.9384776059
 31
0.0
 11
10.3982083273
 21
9.9276721426
 31
0.0
 11
10.3932719425
 21
9.9174941234
 31
0.0
 11
10.3878518533
 21
9.9079887097
 31
0.0
 11
10.382013468
 21
9.8991863408
 31
0.0
 11
10.3758195575
 21
9.8911042085
 31
0.0
 11
10.3693286606
 21
9.8837481475
 31
0.0
 11
10.3625939721
 21
9.8771147441
 31
0.0
 11
10.3556626849
 21
9.8711934991
 31
0.0
 11
10.3485757302
 21
9.8659689108
 31
0.0
 11
10.341367846
 21
9.8614223913
 31
0.0
 11
10.3340679005
 21
9.8575339589
 31
0.0
 11
10.3266994033
 21
9.8542836839
 31
0.0
 11
10.319281146
 21
9.8516528847
 31
0.0
 11
10.3118279255
 21
9.8496250867
 31
0.0
 11
10.3043513151
 21
9.8481867635
 31
0.0
 11
10.2968604618
 21
9.8473278838
 31
0.0
 11
10.2893628922
 21
9.8470422835
 31
0.0
  0
SPLINE
  5
3C1
100
AcDbEntity
  8
0
100
AcDbSpline
 62
7
  6
CONTINUOUS
 70
0
 71
3
 72
29
 73
25
 74
23
 42
0.0000001
 43
0.0000001
 44
0.0000000001
 12
-0.1993240162
 22
0.0
 32
0.0
 13
0.0
 23
0.199365397
 33
0.0
 40
0.0
 40
0.0
 40
0.0
 40
0.0
 40
0.0439362029
 40
0.0879023813
 40
0.1319279738
 40
0.1760413514
 40
0.2202692964
 40
0.2646364998
 40
0.3091650816
 40
0.353874143
 40
0.3987793599
 40
0.4438926246
 40
0.4892217488
 40
0.5347702356
 40
0.5805371318
 40
0.6265169694
 40
0.6726998032
 40
0.719071351
 40
0.7656132379
 40
0.8123033446
 40
0.859116255
 40
0.9060237935
 40
0.952995642
 40
1.0
 40
1.0
 40
1.0
 40
1.0
 10
9.9303628818
 20
10.2988429079
 30
0.0
 10
9.9274437017
 20
10.2988429079
 30
0.0
 10
9.9216011542
 20
10.2990539599
 30
0.0
 10
9.9128798656
 20
10.3000025005
 30
0.0
 10
9.9042376561
 20
10.3015797787
 30
0.0
 10
9.8957149182
 20
10.3037803016
 30
0.0
 10
9.8873512779
 20
10.3065962668
 30
0.0
 10
9.8791865214
 20
10.3100174559
 30
0.0
 10
9.8712602644
 20
10.3140311092
 30
0.0
 10
9.8636119144
 20
10.3186217873
 30
0.0
 10
9.8562805033
 20
10.323771229
 30
0.0
 10
9.8493045003
 20
10.3294582151
 30
0.0
 10
9.8427215747
 20
10.3356584491
 30
0.0
 10
9.836568318
 20
10.3423444637
 30
0.0
 10
9.8308799275
 20
10.3494855669
 30
0.0
 10
9.8256898582
 20
10.3570478343
 30
0.0
 10
9.8210294507
 20
10.3649941584
 30
0.0
 10
9.8169275476
 20
10.3732843609
 30
0.0
 10
9.813410109
 20
10.3818753725
 30
0.0
 10
9.8104998406
 20
10.3907214819
 30
0.0
 10
9.8082158491
 20
10.3997746522
 30
0.0
 10
9.8065733385
 20
10.4089849002
 30
0.0
 10
9.8055833583
 20
10.4183007297
 30
0.0
 10
9.8053628885
 20
10.424545931
 30
0.0
 10
9.8053628885
 20
10.4276696118
 30
0.0
 11
9.9303628818
 21
10.2988429079
 31
0.0
 11
9.9216110497
 21
10.2991590541
 31
0.0
 11
9.9128988913
 21
10.3001064166
 31
0.0
 11
9.9042660924
 21
10.3016817546
 31
0.0
 11
9.8957523542
 21
10.3038796107
 31
0.0
 11
9.8873973801
 21
10.3066922299
 31
0.0
 11
9.8792408379
 21
10.3101094529
 31
0.0
 11
9.8713222906
 21
10.3141185879
 31
0.0
 11
9.8636810904
 21
10.318704271
 31
0.0
 11
9.8563562308
 21
10.3238483211
 31
0.0
 11
9.8493861559
 21
10.3295296013
 31
0.0
 11
9.8428085238
 21
10.3357238962
 31
0.0
 11
9.8366599288
 21
10.3424038167
 31
0.0
 11
9.8309755833
 21
10.3495387418
 31
0.0
 11
9.8257889684
 21
10.3570948095
 31
0.0
 11
9.8211314601
 21
10.3650349636
 31
0.0
 11
9.8170319425
 21
10.3733190642
 31
0.0
 11
9.8135164202
 21
10.3819040668
 31
0.0
 11
9.8106076441
 21
10.3907442711
 31
0.0
 11
9.8083247631
 21
10.3997916378
 31
0.0
 11
9.8066830174
 21
10.40899617
 31
0.0
 11
9.8056934843
 21
10.4183063489
 31
0.0
 11
9.8053628885
 21
10.4276696118
 31
0.0
  0
SPLINE
  5
3C2
100
AcDbEntity
  8
0
100
AcDbSpline
 62
7
  6
CONTINUOUS
 70
0
 71
3
 72
30
 73
26
 74
24
 42
0.0000001
 43
0.0000001
 44
0.0000000001
 12
0.0358807554
 22
0.2265421735
 32
0.0
 13
0.2265053725
 23
-0.0358749267
 33
0.0
 40
0.0
 40
0.0
 40
0.0
 40
0.0
 40
0.0298934943
 40
0.0894829534
 40
0.1484884361
 40
0.2065487719
 40
0.2633423869
 40
0.3185983138
 40
0.3721032503
 40
0.4237045704
 40
0.4733096443
 40
0.5208821563
 40
0.5664362719
 40
0.6100295369
 40
0.6517552984
 40
0.6917352829
 40
0.7301127878
 40
0.7670467656
 40
0.8027069331
 40
0.837269925
 40
0.8709164227
 40
0.9038291559
 40
0.936191633
 40
0.9681874435
 40
1.0
 40
1.0
 40
1.0
 40
1.0
 10
9.4479018673
 20
10.0252238711
 30
0.0
 10
9.4482594011
 20
10.0274812502
 30
0.0
 10
9.4494352202
 20
10.0342217488
 30
0.0
 10
9.4519082342
 20
10.0453075427
 30
0.0
 10
9.4556689798
 20
10.0582865754
 30
0.0
 10
9.4601648913
 20
10.0708027144
 30
0.0
 10
9.4653289546
 20
10.082746591
 30
0.0
 10
9.4710853346
 20
10.0940268651
 30
0.0
 10
9.4773531065
 20
10.1045719
 30
0.0
 10
9.4840498893
 20
10.1143300809
 30
0.0
 10
9.4910951001
 20
10.1232689312
 30
0.0
 10
9.4984126353
 20
10.1313732798
 30
0.0
 10
9.5059328766
 20
10.1386427802
 30
0.0
 10
9.513594007
 20
10.1450890754
 30
0.0
 10
9.5213426872
 20
10.1507328723
 30
0.0
 10
9.5291341855
 20
10.155601127
 30
0.0
 10
9.5369320753
 20
10.1597244824
 30
0.0
 10
9.5447076148
 20
10.1631350396
 30
0.0
 10
9.5524389171
 20
10.1658644957
 30
0.0
 10
9.5601099884
 20
10.1679426444
 30
0.0
 10
9.5677097335
 20
10.1693962098
 30
0.0
 10
9.5752308613
 20
10.1702479911
 30
0.0
 10
9.5826691331
 20
10.1705162085
 30
0.0
 10
9.5900214636
 20
10.1702142502
 30
0.0
 10
9.5948707283
 20
10.1696374712
 30
0.0
 10
9.5972726333
 20
10.1692570468
 30
0.0
 11
9.4479018673
 21
10.0252238711
 31
0.0
 11
9.4490801078
 21
10.0319781489
 31
0.0
 11
9.4520567094
 21
10.0453156105
 31
0.0
 11
9.4558250421
 21
10.0583119709
 31
0.0
 11
9.4603296588
 21
10.070841742
 31
0.0
 11
9.4655026718
 21
10.0827947843
 31
0.0
 11
9.4712673452
 21
10.0940793942
 31
0.0
 11
9.4775419203
 21
10.1046239693
 31
0.0
 11
9.4842433227
 21
10.1143772719
 31
0.0
 11
9.4912904619
 21
10.1233074613
 31
0.0
 11
9.4986069291
 21
10.1314001667
 31
0.0
 11
9.5061229942
 21
10.1386559135
 31
0.0
 11
9.5137768962
 21
10.1450872125
 31
0.0
 11
9.521515483
 21
10.1507155759
 31
0.0
 11
9.5292943021
 21
10.155568667
 31
0.0
 11
9.5370772617
 21
10.15967772
 31
0.0
 11
9.5448359796
 21
10.1630753088
 31
0.0
 11
9.5525489284
 21
10.1657934921
 31
0.0
 11
9.5602004629
 21
10.1678623275
 31
0.0
 11
9.5677797965
 21
10.1693087244
 31
0.0
 11
9.5752799738
 21
10.1701555942
 31
0.0
 11
9.5826968654
 21
10.1704212514
 31
0.0
 11
9.5900281991
 21
10.1701190253
 31
0.0
 11
9.5972726333
 21
10.1692570468
 31
0.0
  0
ENDSEC
  0
SECTION
  2
OBJECTS
  0
DICTIONARY
  5
C
100
AcDbDictionary
280
0
281
1
  3
ACAD_GROUP
350
D
  3
ACAD_MLINESTYLE
350
17
  3
ACAD_LAYOUT
350
1A
  3
ACAD_PLOTSETTINGS
350
19
  3
ACAD_PLOTSTYLENAME
350
E
  0
DICTIONARY
  5
D
102
{ACAD_REACTORS
330
C
102
}
100
AcDbDictionary
280
0
281
1
  0
ACDBDICTIONARYWDFLT
  5
E
102
{ACAD_REACTORS
330
C
102
}
100
AcDbDictionary
281
1
  3
Normal
350
F
100
AcDbDictionaryWithDefault
340
F
  0
DICTIONARY
  5
17
102
{ACAD_REACTORS
330
C
102
}
100
AcDbDictionary
280
0
281
1
  3
Standard
350
18
  0
DICTIONARY
  5
19
102
{ACAD_REACTORS
330
C
102
}
100
AcDbDictionary
281
1
  0
DICTIONARY
  5
1A
102
{ACAD_REACTORS
330
C
102
}
100
AcDbDictionary
281
1
  3
Layout1
350
1E
  3
Model
350
22
  0
ACDBPLACEHOLDER
  5
F
102
{ACAD_REACTORS
330
E
102
}
  0
MLINESTYLE
  5
18
102
{ACAD_REACTORS
330
17
102
}
100
AcDbMlineStyle
  2
STANDARD
 70
0
  3

 62
256
 51
90.0
 52
90.0
 71
2
 49
0.5
 62
256
  6
BYLAYER
 49
-0.5
 62
256
  6
BYLAYER
  0
LAYOUT
  5
1E
102
{ACAD_REACTORS
330
1A
102
}
100
AcDbPlotSettings
  1

  2

  4

  6

 40
0.0
 41
0.0
 42
0.0
 43
0.0
 44
0.0
 45
0.0
 46
0.0
 47
0.0
 48
0.0
 49
0.0
140
0.0
141
0.0
142
1.0
143
1.0
 70
0
 72
0
 73
0
 74
0
  7

 75
0
147
1.0
148
0.0
149
0.0
100
AcDbLayout
  1
Layout1
 70
0
 71
0
 10
0.0
 20
0.0
 11
0.0
 21
0.0
 12
0.0
 22
0.0
 32
0.0
 14
0.0
 24
0.0
 34
0.0
 15
0.0
 25
0.0
 35
0.0
146
0.0
 13
0.0
 23
0.0
 33
0.0
 16
0.0
 26
0.0
 36
0.0
 17
0.0
 27
0.0
 37
0.0
 76
0
330
1B
331
0
345
0
346
0
  0
LAYOUT
  5
22
102
{ACAD_REACTORS
330
1A
102
}
100
AcDbPlotSettings
  1

  2

  4

  6

 40
0.0
 41
0.0
 42
0.0
 43
0.0
 44
0.0
 45
0.0
 46
0.0
 47
0.0
 48
0.0
 49
0.0
140
0.0
141
0.0
142
1.0
143
1.0
 70
0
 72
0
 73
0
 74
0
  7

 75
0
147
1.0
148
0.0
149
0.0
100
AcDbLayout
  1
Model
 70
0
 71
0
 10
0.0
 20
0.0
 11
0.0
 21
0.0
 12
0.0
 22
0.0
 32
0.0
 14
0.0
 24
0.0
 34
0.0
 15
0.0
 25
0.0
 35
0.0
146
0.0
 13
0.0
 23
0.0
 33
0.0
 16
0.0
 26
0.0
 36
0.0
 17
0.0
 27
0.0
 37
0.0
 76
0
330
1F
331
0
345
0
346
0
  0
ENDSEC
  0
EOF
