999
DXF file: VGG_5.dxf
999
Pro/ENGINEER 2006240 by Parametric Technology Corporation
  0
SECTION
  2
HEADER
  9
$ACADVER
  1
AC1015
  9
$DWGCODEPAGE
  3
ANSI_1252
  9
$EXTMAX
 10
22.0
 20
17.0
 30
0.0
  9
$EXTMIN
 10
0.0
 20
0.0
 30
0.0
  9
$LIMMIN
 10
0.0
 20
0.0
  9
$LIMMAX
 10
22.0
 20
17.0
  9
$VIEWCTR
 10
11.0
 20
8.5
  9
$VIEWSIZE
 40
17.0
  9
$CLAYER
  8
0
  9
$LTSCALE
 40
1.21
  9
$CELTYPE
  6
BYLAYER
  9
$DIMSCALE
 40
1.0
  9
$DIMASZ
 40
0.1875
  9
$DIMEXO
 40
0.1375
  9
$DIMDLI
 40
0.836
  9
$DIMEXE
 40
0.396
  9
$DIMCEN
 40
0.198
  9
$DIMLFAC
 40
1.0
  9
$DIMBLK
  1
_CLOSED
  9
$DIMTXT
 40
0.15625
  9
$DIMTOL
 70
0
  9
$DIMLIM
 70
0
  9
$DIMTFAC
 40
1.0
  9
$PDMODE
 70
3
  9
$PDSIZE
 40
0.3125
  9
$HANDSEED
  5
47E
  9
$MEASUREMENT
 70
0
  9
$INSUNITS
 70
1
  0
ENDSEC
  0
SECTION
  2
CLASSES
  0
CLASS
  1
ACDBDICTIONARYWDFLT
  2
AcDbDictionaryWithDefault
  3
AutoCAD 2000
 90
0
280
0
281
0
  0
CLASS
  1
ACDBPLACEHOLDER
  2
AcDbPlaceHolder
  3
AutoCAD 2000
 90
0
280
0
281
0
  0
CLASS
  1
LAYOUT
  2
AcDbLayout
  3
AutoCAD 2000
 90
0
280
0
281
0
  0
ENDSEC
  0
SECTION
  2
TABLES
  0
TABLE
  2
VPORT
  5
8
100
AcDbSymbolTable
 70
2
  0
VPORT
  5
1F4
100
AcDbSymbolTableRecord
100
AcDbViewportTableRecord
  2
*ACTIVE
 70
0
 10
0.0
 20
0.0
 11
1.0
 21
1.0
 12
11.0
 22
8.5
 13
0.0
 23
0.0
 14
1.0
 24
1.0
 15
0.0
 25
0.0
 16
0.0
 26
0.0
 36
1.0
 17
0.0
 27
0.0
 37
0.0
 40
17.0
 41
1.2941176471
 42
50.0
 43
0.0
 44
0.0
 50
0.0
 51
0.0
 71
0
 72
100
 73
1
 74
1
 75
0
 76
0
 77
0
 78
0
  0
ENDTAB
  0
TABLE
  2
LTYPE
  5
5
100
AcDbSymbolTable
 70
6
  0
LTYPE
  5
14
100
AcDbSymbolTableRecord
100
AcDbLinetypeTableRecord
  2
BYBLOCK
 70
0
  3

 72
65
 73
0
 40
0.0
  0
LTYPE
  5
15
100
AcDbSymbolTableRecord
100
AcDbLinetypeTableRecord
  2
BYLAYER
 70
0
  3

 72
65
 73
0
 40
0.0
  0
LTYPE
  5
16
100
AcDbSymbolTableRecord
100
AcDbLinetypeTableRecord
  2
CONTINUOUS
 70
64
  3
Solid line
 72
65
 73
0
 40
0.0
  0
LTYPE
  5
1F5
100
AcDbSymbolTableRecord
100
AcDbLinetypeTableRecord
  2
CENTER
 70
64
  3
____ _ ____ _ ____ _ ____ _ ____ _ ____ _ ____
 72
65
 73
4
 40
0.6
 49
0.375
 74
0
 49
-0.075
 74
0
 49
0.075
 74
0
 49
-0.075
 74
0
  0
LTYPE
  5
1F6
100
AcDbSymbolTableRecord
100
AcDbLinetypeTableRecord
  2
HIDDEN
 70
64
  3
- - - - - - - - - - - - - - - - - - - -
 72
65
 73
2
 40
0.2
 49
0.1
 74
0
 49
-0.1
 74
0
  0
LTYPE
  5
1F7
100
AcDbSymbolTableRecord
100
AcDbLinetypeTableRecord
  2
PHANTOM
 70
64
  3
_____ _ _ _____ _ _ _____ _ _ _____
 72
65
 73
6
 40
0.8
 49
0.45
 74
0
 49
-0.05
 74
0
 49
0.1
 74
0
 49
-0.05
 74
0
 49
0.1
 74
0
 49
-0.05
 74
0
  0
LTYPE
  5
1F8
100
AcDbSymbolTableRecord
100
AcDbLinetypeTableRecord
  2
DOT
 70
64
  3
. . . . . . . . . . . . . . . . . . . .
 72
65
 73
2
 40
0.2
 49
0.1
 74
0
 49
-0.1
 74
0
  0
LTYPE
  5
1F9
100
AcDbSymbolTableRecord
100
AcDbLinetypeTableRecord
  2
DASHED
 70
64
  3
- - - - - - - - - - - - - - - - - - - -
 72
65
 73
2
 40
0.2
 49
0.1
 74
0
 49
-0.1
 74
0
  0
ENDTAB
  0
TABLE
  2
LAYER
  5
2
100
AcDbSymbolTable
 70
36
  0
LAYER
  5
10
100
AcDbSymbolTableRecord
100
AcDbLayerTableRecord
  2
0
 70
0
 62
7
  6
CONTINUOUS
370
-3
390
F
  0
LAYER
  5
1FA
100
AcDbSymbolTableRecord
100
AcDbLayerTableRecord
  2
DEFAULT_1
 70
0
 62
7
  6
CENTER
370
-3
390
F
  0
LAYER
  5
1FB
100
AcDbSymbolTableRecord
100
AcDbLayerTableRecord
  2
DEFAULT_2
 70
0
 62
8
  6
HIDDEN
370
-3
390
F
  0
LAYER
  5
1FC
100
AcDbSymbolTableRecord
100
AcDbLayerTableRecord
  2
DEFAULT_3
 70
0
 62
7
  6
PHANTOM
370
-3
390
F
  0
LAYER
  5
1FD
100
AcDbSymbolTableRecord
100
AcDbLayerTableRecord
  2
01_ALL_DTM_PLN
 70
0
 62
7
  6
CONTINUOUS
370
-3
390
F
  0
LAYER
  5
1FE
100
AcDbSymbolTableRecord
100
AcDbLayerTableRecord
  2
01__ASM_ALL_DTM_PLN
 70
0
 62
7
  6
CONTINUOUS
370
-3
390
F
  0
LAYER
  5
1FF
100
AcDbSymbolTableRecord
100
AcDbLayerTableRecord
  2
01__ASM_DEF_DTM_PLN
 70
0
 62
7
  6
CONTINUOUS
370
-3
390
F
  0
LAYER
  5
200
100
AcDbSymbolTableRecord
100
AcDbLayerTableRecord
  2
01___PRT_ALL_DTM_PLN
 70
0
 62
7
  6
CONTINUOUS
370
-3
390
F
  0
LAYER
  5
201
100
AcDbSymbolTableRecord
100
AcDbLayerTableRecord
  2
01___PRT_DEF_DTM_PLN
 70
0
 62
7
  6
CONTINUOUS
370
-3
390
F
  0
LAYER
  5
202
100
AcDbSymbolTableRecord
100
AcDbLayerTableRecord
  2
02_ALL_AXES
 70
0
 62
7
  6
CONTINUOUS
370
-3
390
F
  0
LAYER
  5
203
100
AcDbSymbolTableRecord
100
AcDbLayerTableRecord
  2
02__ASM_ALL_AXES
 70
0
 62
7
  6
CONTINUOUS
370
-3
390
F
  0
LAYER
  5
204
100
AcDbSymbolTableRecord
100
AcDbLayerTableRecord
  2
02___PRT_ALL_AXES
 70
0
 62
7
  6
CONTINUOUS
370
-3
390
F
  0
LAYER
  5
205
100
AcDbSymbolTableRecord
100
AcDbLayerTableRecord
  2
03_ALL_CURVES
 70
0
 62
7
  6
CONTINUOUS
370
-3
390
F
  0
LAYER
  5
206
100
AcDbSymbolTableRecord
100
AcDbLayerTableRecord
  2
03__ASM_ALL_CURVES
 70
0
 62
7
  6
CONTINUOUS
370
-3
390
F
  0
LAYER
  5
207
100
AcDbSymbolTableRecord
100
AcDbLayerTableRecord
  2
03___PRT_ALL_CURVES
 70
0
 62
7
  6
CONTINUOUS
370
-3
390
F
  0
LAYER
  5
208
100
AcDbSymbolTableRecord
100
AcDbLayerTableRecord
  2
04_ALL_DTM_PNT
 70
0
 62
7
  6
CONTINUOUS
370
-3
390
F
  0
LAYER
  5
209
100
AcDbSymbolTableRecord
100
AcDbLayerTableRecord
  2
04__ASM_ALL_DTM_PNT
 70
0
 62
7
  6
CONTINUOUS
370
-3
390
F
  0
LAYER
  5
20A
100
AcDbSymbolTableRecord
100
AcDbLayerTableRecord
  2
04___PRT_ALL_DTM_PNT
 70
0
 62
7
  6
CONTINUOUS
370
-3
390
F
  0
LAYER
  5
20B
100
AcDbSymbolTableRecord
100
AcDbLayerTableRecord
  2
05_ALL_DTM_CSYS
 70
0
 62
7
  6
CONTINUOUS
370
-3
390
F
  0
LAYER
  5
20C
100
AcDbSymbolTableRecord
100
AcDbLayerTableRecord
  2
05__ASM_ALL_DTM_CSYS
 70
0
 62
7
  6
CONTINUOUS
370
-3
390
F
  0
LAYER
  5
20D
100
AcDbSymbolTableRecord
100
AcDbLayerTableRecord
  2
05__ASM_DEF_DTM_CSYS
 70
0
 62
7
  6
CONTINUOUS
370
-3
390
F
  0
LAYER
  5
20E
100
AcDbSymbolTableRecord
100
AcDbLayerTableRecord
  2
05___PRT_ALL_DTM_CSYS
 70
0
 62
7
  6
CONTINUOUS
370
-3
390
F
  0
LAYER
  5
20F
100
AcDbSymbolTableRecord
100
AcDbLayerTableRecord
  2
05___PRT_DEF_DTM_CSYS
 70
0
 62
7
  6
CONTINUOUS
370
-3
390
F
  0
LAYER
  5
210
100
AcDbSymbolTableRecord
100
AcDbLayerTableRecord
  2
06_ALL_SURFS
 70
0
 62
7
  6
CONTINUOUS
370
-3
390
F
  0
LAYER
  5
211
100
AcDbSymbolTableRecord
100
AcDbLayerTableRecord
  2
06__ASM_ALL_SURFS
 70
0
 62
7
  6
CONTINUOUS
370
-3
390
F
  0
LAYER
  5
212
100
AcDbSymbolTableRecord
100
AcDbLayerTableRecord
  2
06___PRT_ALL_SURFS
 70
0
 62
7
  6
CONTINUOUS
370
-3
390
F
  0
LAYER
  5
213
100
AcDbSymbolTableRecord
100
AcDbLayerTableRecord
  2
07__ASM_ALL_SKELETONS
 70
0
 62
7
  6
CONTINUOUS
370
-3
390
F
  0
LAYER
  5
214
100
AcDbSymbolTableRecord
100
AcDbLayerTableRecord
  2
COPY_GEO_FET
 70
0
 62
7
  6
CONTINUOUS
370
-3
390
F
  0
LAYER
  5
215
100
AcDbSymbolTableRecord
100
AcDbLayerTableRecord
  2
COSMETIC
 70
0
 62
7
  6
CONTINUOUS
370
-3
390
F
  0
LAYER
  5
216
100
AcDbSymbolTableRecord
100
AcDbLayerTableRecord
  2
CUT_REF_SURF
 70
0
 62
7
  6
CONTINUOUS
370
-3
390
F
  0
LAYER
  5
217
100
AcDbSymbolTableRecord
100
AcDbLayerTableRecord
  2
DATESTAMP
 70
0
 62
7
  6
CONTINUOUS
370
-3
390
F
  0
LAYER
  5
218
100
AcDbSymbolTableRecord
100
AcDbLayerTableRecord
  2
DATUM
 70
0
 62
7
  6
CONTINUOUS
370
-3
390
F
  0
LAYER
  5
219
100
AcDbSymbolTableRecord
100
AcDbLayerTableRecord
  2
DATUM_B
 70
0
 62
7
  6
CONTINUOUS
370
-3
390
F
  0
LAYER
  5
21A
100
AcDbSymbolTableRecord
100
AcDbLayerTableRecord
  2
DATUM_PLANES
 70
0
 62
7
  6
CONTINUOUS
370
-3
390
F
  0
LAYER
  5
21B
100
AcDbSymbolTableRecord
100
AcDbLayerTableRecord
  2
DIM
 70
0
 62
7
  6
CONTINUOUS
370
-3
390
F
  0
LAYER
  5
21C
100
AcDbSymbolTableRecord
100
AcDbLayerTableRecord
  2
DIMENSIONS
 70
0
 62
7
  6
CONTINUOUS
370
-3
390
F
  0
LAYER
  5
21D
100
AcDbSymbolTableRecord
100
AcDbLayerTableRecord
  2
DIM_1
 70
0
 62
7
  6
CONTINUOUS
370
-3
390
F
  0
LAYER
  5
21E
100
AcDbSymbolTableRecord
100
AcDbLayerTableRecord
  2
DIM_2
 70
0
 62
7
  6
CONTINUOUS
370
-3
390
F
  0
LAYER
  5
21F
100
AcDbSymbolTableRecord
100
AcDbLayerTableRecord
  2
DIM_3
 70
0
 62
7
  6
CONTINUOUS
370
-3
390
F
  0
LAYER
  5
220
100
AcDbSymbolTableRecord
100
AcDbLayerTableRecord
  2
DIM_4
 70
0
 62
7
  6
CONTINUOUS
370
-3
390
F
  0
LAYER
  5
221
100
AcDbSymbolTableRecord
100
AcDbLayerTableRecord
  2
DIM_5
 70
0
 62
7
  6
CONTINUOUS
370
-3
390
F
  0
LAYER
  5
222
100
AcDbSymbolTableRecord
100
AcDbLayerTableRecord
  2
DTM
 70
0
 62
7
  6
CONTINUOUS
370
-3
390
F
  0
LAYER
  5
223
100
AcDbSymbolTableRecord
100
AcDbLayerTableRecord
  2
EXT_COPY_GEO
 70
0
 62
7
  6
CONTINUOUS
370
-3
390
F
  0
LAYER
  5
224
100
AcDbSymbolTableRecord
100
AcDbLayerTableRecord
  2
LS
 70
0
 62
7
  6
CONTINUOUS
370
-3
390
F
  0
LAYER
  5
225
100
AcDbSymbolTableRecord
100
AcDbLayerTableRecord
  2
ORIGIN
 70
0
 62
7
  6
CONTINUOUS
370
-3
390
F
  0
LAYER
  5
226
100
AcDbSymbolTableRecord
100
AcDbLayerTableRecord
  2
PARAMETERDIMENSIONS
 70
0
 62
7
  6
CONTINUOUS
370
-3
390
F
  0
LAYER
  5
227
100
AcDbSymbolTableRecord
100
AcDbLayerTableRecord
  2
PARTNUMBER
 70
0
 62
7
  6
CONTINUOUS
370
-3
390
F
  0
LAYER
  5
228
100
AcDbSymbolTableRecord
100
AcDbLayerTableRecord
  2
PORT_AREAS
 70
0
 62
7
  6
CONTINUOUS
370
-3
390
F
  0
LAYER
  5
229
100
AcDbSymbolTableRecord
100
AcDbLayerTableRecord
  2
TEXT
 70
0
 62
7
  6
CONTINUOUS
370
-3
390
F
  0
LAYER
  5
22A
100
AcDbSymbolTableRecord
100
AcDbLayerTableRecord
  2
THREAD
 70
0
 62
7
  6
CONTINUOUS
370
-3
390
F
  0
LAYER
  5
22B
100
AcDbSymbolTableRecord
100
AcDbLayerTableRecord
  2
THREADS
 70
0
 62
7
  6
CONTINUOUS
370
-3
390
F
  0
LAYER
  5
22C
100
AcDbSymbolTableRecord
100
AcDbLayerTableRecord
  2
VGG_10
 70
0
 62
7
  6
CONTINUOUS
370
-3
390
F
  0
LAYER
  5
22D
100
AcDbSymbolTableRecord
100
AcDbLayerTableRecord
  2
VGG_2
 70
0
 62
7
  6
CONTINUOUS
370
-3
390
F
  0
LAYER
  5
22E
100
AcDbSymbolTableRecord
100
AcDbLayerTableRecord
  2
VGG_5
 70
0
 62
7
  6
CONTINUOUS
370
-3
390
F
  0
LAYER
  5
22F
100
AcDbSymbolTableRecord
100
AcDbLayerTableRecord
  2
VGG_6
 70
0
 62
7
  6
CONTINUOUS
370
-3
390
F
  0
LAYER
  5
230
100
AcDbSymbolTableRecord
100
AcDbLayerTableRecord
  2
VGG_7
 70
0
 62
7
  6
CONTINUOUS
370
-3
390
F
  0
LAYER
  5
231
100
AcDbSymbolTableRecord
100
AcDbLayerTableRecord
  2
VGG_8
 70
0
 62
7
  6
CONTINUOUS
370
-3
390
F
  0
ENDTAB
  0
TABLE
  2
STYLE
  5
3
100
AcDbSymbolTable
 70
1
  0
STYLE
  5
11
100
AcDbSymbolTableRecord
100
AcDbTextStyleTableRecord
  2
STANDARD
 70
0
 40
0.0
 41
0.8
 50
0.0
 71
0
 42
0.2
  3
txt
  4

  0
ENDTAB
  0
TABLE
  2
VIEW
  5
6
100
AcDbSymbolTable
 70
0
  0
ENDTAB
  0
TABLE
  2
UCS
  5
7
100
AcDbSymbolTable
 70
0
  0
ENDTAB
  0
TABLE
  2
APPID
  5
9
100
AcDbSymbolTable
 70
1
  0
APPID
  5
232
100
AcDbSymbolTableRecord
100
AcDbRegAppTableRecord
  2
ACAD
 70
0
  0
ENDTAB
  0
TABLE
  2
BLOCK_RECORD
  5
1
100
AcDbSymbolTable
 70
0
  0
BLOCK_RECORD
  5
1F
100
AcDbSymbolTableRecord
100
AcDbBlockTableRecord
  2
*MODEL_SPACE
  0
BLOCK_RECORD
  5
1B
100
AcDbSymbolTableRecord
100
AcDbBlockTableRecord
  2
*PAPER_SPACE
  0
ENDTAB
  0
TABLE
  2
DIMSTYLE
  5
A
100
AcDbSymbolTable
 70
1
100
AcDbDimStyleTable
 71
0
  0
DIMSTYLE
105
233
100
AcDbSymbolTableRecord
100
AcDbDimStyleTableRecord
  2
STANDARD
 70
0
  3

  4

 40
1.0
 41
0.1875
 42
0.0625
 43
0.38
 44
0.18
 45
0.0
 46
0.0
 47
0.01
 48
0.01
140
0.15625
141
0.09
142
0.0
143
25.4
144
1.0
145
0.0
146
1.0
147
0.09
 71
0.0
 72
0.0
 73
1
 74
1
 75
0
 76
0
 77
0
 78
4
170
0
171
2
172
0
173
0
174
0
175
0
176
0
177
0
178
0
270
2
271
2
272
2
273
2
274
2
275
0
280
0
281
0
282
0
283
1
284
4
285
0
286
0
287
3
288
0
340
11
  0
ENDTAB
  0
ENDSEC
  0
SECTION
  2
BLOCKS
  0
BLOCK
  5
20
100
AcDbEntity
  8
0
100
AcDbBlockBegin
  2
*MODEL_SPACE
 70
0
 10
0.0
 20
0.0
 30
0.0
  3
*MODEL_SPACE
  1

  0
ENDBLK
  5
21
100
AcDbEntity
  8
0
100
AcDbBlockEnd
  0
BLOCK
  5
1C
100
AcDbEntity
  8
0
100
AcDbBlockBegin
  2
*PAPER_SPACE
 70
0
 10
0.0
 20
0.0
 30
0.0
  3
*PAPER_SPACE
  1

  0
ENDBLK
  5
1D
100
AcDbEntity
  8
0
100
AcDbBlockEnd
  0
ENDSEC
  0
SECTION
  2
ENTITIES
  0
LINE
  5
234
100
AcDbEntity
  8
03__ASM_ALL_CURVES
100
AcDbLine
 62
4
  6
CONTINUOUS
 10
8.9969085923
 20
8.0196046618
 11
9.0569085923
 21
7.9846046618
  0
LINE
  5
235
100
AcDbEntity
  8
03__ASM_ALL_CURVES
100
AcDbLine
 62
4
  6
CONTINUOUS
 10
8.7499085923
 20
8.2496046618
 11
8.7632419272
 21
8.2396046618
  0
LINE
  5
236
100
AcDbEntity
  8
03__ASM_ALL_CURVES
100
AcDbLine
 62
4
  6
CONTINUOUS
 10
8.7565752574
 20
8.3896046618
 11
8.7499085923
 21
8.3996046618
  0
LINE
  5
237
100
AcDbEntity
  8
03__ASM_ALL_CURVES
100
AcDbLine
 62
4
  6
CONTINUOUS
 10
8.7765752574
 20
8.4196046618
 11
8.7832419272
 21
8.4096046618
  0
LINE
  5
238
100
AcDbEntity
  8
03__ASM_ALL_CURVES
100
AcDbLine
 62
4
  6
CONTINUOUS
 10
9.0302419272
 20
8.0696046618
 11
9.0235752574
 21
8.0796046618
  0
LINE
  5
239
100
AcDbEntity
  8
03__ASM_ALL_CURVES
100
AcDbLine
 62
4
  6
CONTINUOUS
 10
8.8232419255
 20
8.4196046618
 11
8.8299085923
 21
8.4096046618
  0
LINE
  5
23A
100
AcDbEntity
  8
03__ASM_ALL_CURVES
100
AcDbLine
 62
4
  6
CONTINUOUS
 10
9.0702419255
 20
8.0996046618
 11
9.0769085923
 21
8.0896046618
  0
LINE
  5
23B
100
AcDbEntity
  8
03__ASM_ALL_CURVES
100
AcDbLine
 62
4
  6
CONTINUOUS
 10
8.7565752574
 20
8.6296046618
 11
8.7499085923
 21
8.6396046618
  0
LINE
  5
23C
100
AcDbEntity
  8
03__ASM_ALL_CURVES
100
AcDbLine
 62
4
  6
CONTINUOUS
 10
8.7499085923
 20
8.1046046618
 11
8.7499085923
 21
8.0646046618
  0
LINE
  5
23D
100
AcDbEntity
  8
03__ASM_ALL_CURVES
100
AcDbLine
 62
4
  6
CONTINUOUS
 10
8.7499085923
 20
8.3996046618
 11
8.7499085923
 21
8.4096046618
  0
LINE
  5
23E
100
AcDbEntity
  8
03__ASM_ALL_CURVES
100
AcDbLine
 62
4
  6
CONTINUOUS
 10
8.7499085923
 20
8.6396046618
 11
8.7499085923
 21
8.6496046618
  0
LINE
  5
23F
100
AcDbEntity
  8
03__ASM_ALL_CURVES
100
AcDbLine
 62
4
  6
CONTINUOUS
 10
8.7832419272
 20
8.3996046618
 11
8.7832419272
 21
8.4096046618
  0
LINE
  5
240
100
AcDbEntity
  8
03__ASM_ALL_CURVES
100
AcDbLine
 62
4
  6
CONTINUOUS
 10
8.7832419272
 20
8.6396046618
 11
8.7832419272
 21
8.6496046618
  0
LINE
  5
241
100
AcDbEntity
  8
0
100
AcDbLine
 62
7
  6
CONTINUOUS
 10
8.7899085446
 20
10.9146046618
 11
8.7899085446
 21
9.1646046618
  0
LINE
  5
242
100
AcDbEntity
  8
03__ASM_ALL_CURVES
100
AcDbLine
 62
4
  6
CONTINUOUS
 10
8.7899085923
 20
9.0846046618
 11
8.7899085923
 21
8.8446046618
  0
LINE
  5
243
100
AcDbEntity
  8
03__ASM_ALL_CURVES
100
AcDbLine
 62
4
  6
CONTINUOUS
 10
8.8099085923
 20
8.3046046618
 11
8.8099085923
 21
8.3496046618
  0
LINE
  5
244
100
AcDbEntity
  8
0
100
AcDbLine
 62
7
  6
CONTINUOUS
 10
8.8279085685
 20
9.5806046618
 11
8.8279085685
 21
10.4986046618
  0
LINE
  5
245
100
AcDbEntity
  8
03__ASM_ALL_CURVES
100
AcDbLine
 62
4
  6
CONTINUOUS
 10
8.8299085923
 20
8.6496046618
 11
8.8299085923
 21
8.6396046618
  0
LINE
  5
246
100
AcDbEntity
  8
03__ASM_ALL_CURVES
100
AcDbLine
 62
4
  6
CONTINUOUS
 10
8.8299085923
 20
8.5046046618
 11
8.8299085923
 21
8.4971046618
  0
LINE
  5
247
100
AcDbEntity
  8
03__ASM_ALL_CURVES
100
AcDbLine
 62
4
  6
CONTINUOUS
 10
8.8299085923
 20
8.4096046618
 11
8.8299085923
 21
8.3996046618
  0
LINE
  5
248
100
AcDbEntity
  8
03__ASM_ALL_CURVES
100
AcDbLine
 62
4
  6
CONTINUOUS
 10
8.8299085923
 20
8.0246046618
 11
8.8299085923
 21
8.0171046618
  0
LINE
  5
249
100
AcDbEntity
  8
0
100
AcDbLine
 62
7
  6
CONTINUOUS
 10
8.8589085685
 20
9.5806046618
 11
8.8589085685
 21
10.4986046618
  0
LINE
  5
24A
100
AcDbEntity
  8
03__ASM_ALL_CURVES
100
AcDbLine
 62
4
  6
CONTINUOUS
 10
8.7765752574
 20
8.0946046618
 11
8.7499085923
 21
8.1046046618
  0
LINE
  5
24B
100
AcDbEntity
  8
03__ASM_ALL_CURVES
100
AcDbLine
 62
4
  6
CONTINUOUS
 10
9.6265752574
 20
7.8246046618
 11
9.6132419272
 21
7.8296046618
  0
LINE
  5
24C
100
AcDbEntity
  8
03__ASM_ALL_CURVES
100
AcDbLine
 62
4
  6
CONTINUOUS
 10
8.7499085923
 20
8.3396046618
 11
8.8099085923
 21
8.3046046618
  0
LINE
  5
24D
100
AcDbEntity
  8
03__ASM_ALL_CURVES
100
AcDbLine
 62
4
  6
CONTINUOUS
 10
9.0635752586
 20
8.1046046618
 11
9.0702419255
 21
8.0996046618
  0
LINE
  5
24E
100
AcDbEntity
  8
03__ASM_ALL_CURVES
100
AcDbLine
 62
4
  6
CONTINUOUS
 10
8.9969085923
 20
8.2496046618
 11
9.0102419272
 21
8.2396046618
  0
LINE
  5
24F
100
AcDbEntity
  8
03__ASM_ALL_CURVES
100
AcDbLine
 62
4
  6
CONTINUOUS
 10
8.7699085923
 20
8.4246046618
 11
8.7765752574
 21
8.4196046618
  0
LINE
  5
250
100
AcDbEntity
  8
03__ASM_ALL_CURVES
100
AcDbLine
 62
4
  6
CONTINUOUS
 10
8.8099085923
 20
8.4296046618
 11
8.8232419255
 21
8.4196046618
  0
LINE
  5
251
100
AcDbEntity
  8
03__ASM_ALL_CURVES
100
AcDbLine
 62
4
  6
CONTINUOUS
 10
9.6132419272
 20
7.8296046618
 11
9.6065752574
 21
7.8346046618
  0
LINE
  5
252
100
AcDbEntity
  8
03__ASM_ALL_CURVES
100
AcDbLine
 62
4
  6
CONTINUOUS
 10
8.7899085923
 20
8.6296046618
 11
8.7832419272
 21
8.6396046618
  0
LINE
  5
253
100
AcDbEntity
  8
03__ASM_ALL_CURVES
100
AcDbLine
 62
4
  6
CONTINUOUS
 10
9.0035752574
 20
8.3096046618
 11
8.9969085923
 21
8.3196046618
  0
LINE
  5
254
100
AcDbEntity
  8
03__ASM_ALL_CURVES
100
AcDbLine
 62
4
  6
CONTINUOUS
 10
8.7765752574
 20
8.6596046618
 11
8.7832419272
 21
8.6496046618
  0
LINE
  5
255
100
AcDbEntity
  8
03__ASM_ALL_CURVES
100
AcDbLine
 62
4
  6
CONTINUOUS
 10
9.0235752574
 20
8.3396046618
 11
9.0302419272
 21
8.3296046618
  0
LINE
  5
256
100
AcDbEntity
  8
03__ASM_ALL_CURVES
100
AcDbLine
 62
4
  6
CONTINUOUS
 10
8.8232419255
 20
8.6596046618
 11
8.8299085923
 21
8.6496046618
  0
LINE
  5
257
100
AcDbEntity
  8
03__ASM_ALL_CURVES
100
AcDbLine
 62
4
  6
CONTINUOUS
 10
9.0035752574
 20
8.3946046618
 11
8.9969085923
 21
8.4046046618
  0
LINE
  5
258
100
AcDbEntity
  8
03__ASM_ALL_CURVES
100
AcDbLine
 62
4
  6
CONTINUOUS
 10
9.0702419255
 20
8.3396046618
 11
9.0769085923
 21
8.3296046618
  0
LINE
  5
259
100
AcDbEntity
  8
03__ASM_ALL_CURVES
100
AcDbLine
 62
4
  6
CONTINUOUS
 10
9.0702419255
 20
8.4146046618
 11
9.0769085923
 21
8.4046046618
  0
LINE
  5
25A
100
AcDbEntity
  8
03__ASM_ALL_CURVES
100
AcDbLine
 62
4
  6
CONTINUOUS
 10
9.0035752574
 20
8.5496046618
 11
8.9969085923
 21
8.5596046618
  0
LINE
  5
25B
100
AcDbEntity
  8
03__ASM_ALL_CURVES
100
AcDbLine
 62
4
  6
CONTINUOUS
 10
9.0369085923
 20
8.3896046618
 11
9.0302419272
 21
8.4046046618
  0
LINE
  5
25C
100
AcDbEntity
  8
03__ASM_ALL_CURVES
100
AcDbLine
 62
4
  6
CONTINUOUS
 10
8.9969085923
 20
8.1046046618
 11
8.9969085923
 21
8.0746046618
  0
LINE
  5
25D
100
AcDbEntity
  8
03__ASM_ALL_CURVES
100
AcDbLine
 62
4
  6
CONTINUOUS
 10
8.9969085923
 20
8.3196046618
 11
8.9969085923
 21
8.3296046618
  0
LINE
  5
25E
100
AcDbEntity
  8
03__ASM_ALL_CURVES
100
AcDbLine
 62
4
  6
CONTINUOUS
 10
8.9969085923
 20
8.5596046618
 11
8.9969085923
 21
8.5696046618
  0
LINE
  5
25F
100
AcDbEntity
  8
03__ASM_ALL_CURVES
100
AcDbLine
 62
4
  6
CONTINUOUS
 10
8.9969085923
 20
8.6396046618
 11
8.9969085923
 21
8.6496046618
  0
LINE
  5
260
100
AcDbEntity
  8
03__ASM_ALL_CURVES
100
AcDbLine
 62
4
  6
CONTINUOUS
 10
9.0235752574
 20
8.0796046618
 11
9.0235752574
 21
8.0896046618
  0
LINE
  5
261
100
AcDbEntity
  8
03__ASM_ALL_CURVES
100
AcDbLine
 62
4
  6
CONTINUOUS
 10
9.0302419272
 20
8.3196046618
 11
9.0302419272
 21
8.3296046618
  0
LINE
  5
262
100
AcDbEntity
  8
03__ASM_ALL_CURVES
100
AcDbLine
 62
4
  6
CONTINUOUS
 10
9.0302419272
 20
8.5596046618
 11
9.0302419272
 21
8.5696046618
  0
LINE
  5
263
100
AcDbEntity
  8
03__ASM_ALL_CURVES
100
AcDbLine
 62
4
  6
CONTINUOUS
 10
9.0302419272
 20
8.6396046618
 11
9.0302419272
 21
8.6496046618
  0
LINE
  5
264
100
AcDbEntity
  8
03__ASM_ALL_CURVES
100
AcDbLine
 62
4
  6
CONTINUOUS
 10
9.0369085923
 20
9.0846046618
 11
9.0369085923
 21
8.8446046618
  0
LINE
  5
265
100
AcDbEntity
  8
03__ASM_ALL_CURVES
100
AcDbLine
 62
4
  6
CONTINUOUS
 10
9.0569085923
 20
7.9846046618
 11
9.0569085923
 21
8.0296046618
  0
LINE
  5
266
100
AcDbEntity
  8
03__ASM_ALL_CURVES
100
AcDbLine
 62
4
  6
CONTINUOUS
 10
8.7965752598
 20
8.0896046618
 11
8.7765752574
 21
8.0946046618
  0
LINE
  5
267
100
AcDbEntity
  8
03__ASM_ALL_CURVES
100
AcDbLine
 62
4
  6
CONTINUOUS
 10
9.6532419249
 20
7.8646046618
 11
9.6665752586
 21
7.8596046618
  0
LINE
  5
268
100
AcDbEntity
  8
03__ASM_ALL_CURVES
100
AcDbLine
 62
4
  6
CONTINUOUS
 10
9.0502419249
 20
8.1096046618
 11
9.0635752586
 21
8.1046046618
  0
LINE
  5
269
100
AcDbEntity
  8
03__ASM_ALL_CURVES
100
AcDbLine
 62
4
  6
CONTINUOUS
 10
9.0169085923
 20
8.3446046618
 11
9.0235752574
 21
8.3396046618
  0
LINE
  5
26A
100
AcDbEntity
  8
03__ASM_ALL_CURVES
100
AcDbLine
 62
4
  6
CONTINUOUS
 10
9.6665752586
 20
7.8596046618
 11
9.6732419255
 21
7.8546046618
  0
LINE
  5
26B
100
AcDbEntity
  8
03__ASM_ALL_CURVES
100
AcDbLine
 62
4
  6
CONTINUOUS
 10
9.0569085923
 20
8.3496046618
 11
9.0702419255
 21
8.3396046618
  0
LINE
  5
26C
100
AcDbEntity
  8
03__ASM_ALL_CURVES
100
AcDbLine
 62
4
  6
CONTINUOUS
 10
9.0102419272
 20
8.3896046618
 11
9.0035752574
 21
8.3946046618
  0
LINE
  5
26D
100
AcDbEntity
  8
03__ASM_ALL_CURVES
100
AcDbLine
 62
4
  6
CONTINUOUS
 10
9.6132419272
 20
7.9846046618
 11
9.6065752574
 21
7.9896046618
  0
LINE
  5
26E
100
AcDbEntity
  8
03__ASM_ALL_CURVES
100
AcDbLine
 62
4
  6
CONTINUOUS
 10
8.7632419272
 20
8.6246046618
 11
8.7565752574
 21
8.6296046618
  0
LINE
  5
26F
100
AcDbEntity
  8
03__ASM_ALL_CURVES
100
AcDbLine
 62
4
  6
CONTINUOUS
 10
9.0635752586
 20
8.4196046618
 11
9.0702419255
 21
8.4146046618
  0
LINE
  5
270
100
AcDbEntity
  8
03__ASM_ALL_CURVES
100
AcDbLine
 62
4
  6
CONTINUOUS
 10
9.6532419249
 20
7.9796046618
 11
9.6399085923
 21
7.9896046618
  0
LINE
  5
271
100
AcDbEntity
  8
03__ASM_ALL_CURVES
100
AcDbLine
 62
4
  6
CONTINUOUS
 10
8.8032419249
 20
8.6196046618
 11
8.7899085923
 21
8.6296046618
  0
LINE
  5
272
100
AcDbEntity
  8
03__ASM_ALL_CURVES
100
AcDbLine
 62
4
  6
CONTINUOUS
 10
9.6199085923
 20
8.0246046618
 11
9.6265752574
 21
8.0196046618
  0
LINE
  5
273
100
AcDbEntity
  8
03__ASM_ALL_CURVES
100
AcDbLine
 62
4
  6
CONTINUOUS
 10
8.7699085923
 20
8.6646046618
 11
8.7765752574
 21
8.6596046618
  0
LINE
  5
274
100
AcDbEntity
  8
03__ASM_ALL_CURVES
100
AcDbLine
 62
4
  6
CONTINUOUS
 10
9.6599085923
 20
8.0296046618
 11
9.6732419255
 21
8.0196046618
  0
LINE
  5
275
100
AcDbEntity
  8
03__ASM_ALL_CURVES
100
AcDbLine
 62
4
  6
CONTINUOUS
 10
8.8099085923
 20
8.6696046618
 11
8.8232419255
 21
8.6596046618
  0
LINE
  5
276
100
AcDbEntity
  8
03__ASM_ALL_CURVES
100
AcDbLine
 62
4
  6
CONTINUOUS
 10
9.0369085923
 20
8.5496046618
 11
9.0302419272
 21
8.5596046618
  0
LINE
  5
277
100
AcDbEntity
  8
03__ASM_ALL_CURVES
100
AcDbLine
 62
4
  6
CONTINUOUS
 10
9.0235752574
 20
8.5796046618
 11
9.0302419272
 21
8.5696046618
  0
LINE
  5
278
100
AcDbEntity
  8
03__ASM_ALL_CURVES
100
AcDbLine
 62
4
  6
CONTINUOUS
 10
9.0035752574
 20
8.6296046618
 11
8.9969085923
 21
8.6396046618
  0
LINE
  5
279
100
AcDbEntity
  8
03__ASM_ALL_CURVES
100
AcDbLine
 62
4
  6
CONTINUOUS
 10
9.0702419255
 20
8.5796046618
 11
9.0769085923
 21
8.5696046618
  0
LINE
  5
27A
100
AcDbEntity
  8
03__ASM_ALL_CURVES
100
AcDbLine
 62
4
  6
CONTINUOUS
 10
9.0235752574
 20
8.6596046618
 11
9.0302419272
 21
8.6496046618
  0
LINE
  5
27B
100
AcDbEntity
  8
03__ASM_ALL_CURVES
100
AcDbLine
 62
4
  6
CONTINUOUS
 10
9.6065752574
 20
7.8346046618
 11
9.5999085923
 21
7.8446046618
  0
LINE
  5
27C
100
AcDbEntity
  8
03__ASM_ALL_CURVES
100
AcDbLine
 62
4
  6
CONTINUOUS
 10
9.0702419255
 20
8.6596046618
 11
9.0769085923
 21
8.6496046618
  0
LINE
  5
27D
100
AcDbEntity
  8
03__ASM_ALL_CURVES
100
AcDbLine
 62
4
  6
CONTINUOUS
 10
9.6732419255
 20
7.8546046618
 11
9.6799085923
 21
7.8446046618
  0
LINE
  5
27E
100
AcDbEntity
  8
03__ASM_ALL_CURVES
100
AcDbLine
 62
4
  6
CONTINUOUS
 10
9.0769085923
 20
8.6496046618
 11
9.0769085923
 21
8.6396046618
  0
LINE
  5
27F
100
AcDbEntity
  8
03__ASM_ALL_CURVES
100
AcDbLine
 62
4
  6
CONTINUOUS
 10
9.0769085923
 20
8.5696046618
 11
9.0769085923
 21
8.5596046618
  0
LINE
  5
280
100
AcDbEntity
  8
03__ASM_ALL_CURVES
100
AcDbLine
 62
4
  6
CONTINUOUS
 10
9.0769085923
 20
8.5046046618
 11
9.0769085923
 21
8.4971046618
  0
LINE
  5
281
100
AcDbEntity
  8
03__ASM_ALL_CURVES
100
AcDbLine
 62
4
  6
CONTINUOUS
 10
9.0769085923
 20
8.3296046618
 11
9.0769085923
 21
8.3196046618
  0
LINE
  5
282
100
AcDbEntity
  8
03__ASM_ALL_CURVES
100
AcDbLine
 62
4
  6
CONTINUOUS
 10
9.0769085923
 20
8.0896046618
 11
9.0769085923
 21
8.0796046618
  0
LINE
  5
283
100
AcDbEntity
  8
03__ASM_ALL_CURVES
100
AcDbLine
 62
4
  6
CONTINUOUS
 10
9.0769085923
 20
7.9446046618
 11
9.0769085923
 21
7.9371046618
  0
LINE
  5
284
100
AcDbEntity
  8
0
100
AcDbLine
 62
7
  6
CONTINUOUS
 10
9.2029085685
 20
9.2366046618
 11
9.2029085685
 21
9.2056046618
  0
LINE
  5
285
100
AcDbEntity
  8
0
100
AcDbLine
 62
7
  6
CONTINUOUS
 10
9.2029085685
 20
10.8426046618
 11
9.2029085685
 21
10.8736046618
  0
LINE
  5
286
100
AcDbEntity
  8
03__ASM_ALL_CURVES
100
AcDbLine
 62
4
  6
CONTINUOUS
 10
9.6532419249
 20
7.8246046618
 11
9.6265752574
 21
7.8246046618
  0
LINE
  5
287
100
AcDbEntity
  8
03__ASM_ALL_CURVES
100
AcDbLine
 62
4
  6
CONTINUOUS
 10
8.9969085923
 20
7.8446046618
 11
9.0769085923
 21
7.8446046618
  0
LINE
  5
288
100
AcDbEntity
  8
03__ASM_ALL_CURVES
100
AcDbLine
 62
4
  6
CONTINUOUS
 10
9.6265752574
 20
7.8646046618
 11
9.6532419249
 21
7.8646046618
  0
LINE
  5
289
100
AcDbEntity
  8
03__ASM_ALL_CURVES
100
AcDbLine
 62
4
  6
CONTINUOUS
 10
8.7499085923
 20
7.9246046618
 11
8.8299085923
 21
7.9246046618
  0
LINE
  5
28A
100
AcDbEntity
  8
03__ASM_ALL_CURVES
100
AcDbLine
 62
4
  6
CONTINUOUS
 10
8.8299085923
 20
8.0846046618
 11
8.7965752598
 21
8.0896046618
  0
LINE
  5
28B
100
AcDbEntity
  8
03__ASM_ALL_CURVES
100
AcDbLine
 62
4
  6
CONTINUOUS
 10
8.9969085923
 20
8.0746046618
 11
9.0302419272
 21
8.0696046618
  0
LINE
  5
28C
100
AcDbEntity
  8
03__ASM_ALL_CURVES
100
AcDbLine
 62
4
  6
CONTINUOUS
 10
8.7632419272
 20
8.2396046618
 11
8.7832419272
 21
8.2346046618
  0
LINE
  5
28D
100
AcDbEntity
  8
03__ASM_ALL_CURVES
100
AcDbLine
 62
4
  6
CONTINUOUS
 10
9.0102419272
 20
8.2396046618
 11
9.0302419272
 21
8.2346046618
  0
LINE
  5
28E
100
AcDbEntity
  8
03__ASM_ALL_CURVES
100
AcDbLine
 62
4
  6
CONTINUOUS
 10
9.6532419249
 20
8.1096046618
 11
9.6665752586
 21
8.1046046618
  0
LINE
  5
28F
100
AcDbEntity
  8
03__ASM_ALL_CURVES
100
AcDbLine
 62
4
  6
CONTINUOUS
 10
9.0235752574
 20
8.3846046618
 11
9.0102419272
 21
8.3896046618
  0
LINE
  5
290
100
AcDbEntity
  8
03__ASM_ALL_CURVES
100
AcDbLine
 62
4
  6
CONTINUOUS
 10
9.0502419249
 20
8.3846046618
 11
9.0369085923
 21
8.3896046618
  0
LINE
  5
291
100
AcDbEntity
  8
03__ASM_ALL_CURVES
100
AcDbLine
 62
4
  6
CONTINUOUS
 10
9.0102419272
 20
8.5446046618
 11
9.0035752574
 21
8.5496046618
  0
LINE
  5
292
100
AcDbEntity
  8
03__ASM_ALL_CURVES
100
AcDbLine
 62
4
  6
CONTINUOUS
 10
9.0502419249
 20
8.5396046618
 11
9.0369085923
 21
8.5496046618
  0
LINE
  5
293
100
AcDbEntity
  8
03__ASM_ALL_CURVES
100
AcDbLine
 62
4
  6
CONTINUOUS
 10
8.8165752586
 20
8.7296046618
 11
8.8299085923
 21
8.7196046618
  0
LINE
  5
294
100
AcDbEntity
  8
03__ASM_ALL_CURVES
100
AcDbLine
 62
4
  6
CONTINUOUS
 10
9.0169085923
 20
8.5846046618
 11
9.0235752574
 21
8.5796046618
  0
LINE
  5
295
100
AcDbEntity
  8
03__ASM_ALL_CURVES
100
AcDbLine
 62
4
  6
CONTINUOUS
 10
9.6665752586
 20
8.1046046618
 11
9.6732419255
 21
8.0996046618
  0
LINE
  5
296
100
AcDbEntity
  8
03__ASM_ALL_CURVES
100
AcDbLine
 62
4
  6
CONTINUOUS
 10
9.0569085923
 20
8.5896046618
 11
9.0702419255
 21
8.5796046618
  0
LINE
  5
297
100
AcDbEntity
  8
03__ASM_ALL_CURVES
100
AcDbLine
 62
4
  6
CONTINUOUS
 10
9.0169085923
 20
8.6646046618
 11
9.0235752574
 21
8.6596046618
  0
LINE
  5
298
100
AcDbEntity
  8
03__ASM_ALL_CURVES
100
AcDbLine
 62
4
  6
CONTINUOUS
 10
9.5999085923
 20
8.2496046618
 11
9.6132419272
 21
8.2396046618
  0
LINE
  5
299
100
AcDbEntity
  8
03__ASM_ALL_CURVES
100
AcDbLine
 62
4
  6
CONTINUOUS
 10
9.0569085923
 20
8.6696046618
 11
9.0702419255
 21
8.6596046618
  0
LINE
  5
29A
100
AcDbEntity
  8
03__ASM_ALL_CURVES
100
AcDbLine
 62
4
  6
CONTINUOUS
 10
9.6065752574
 20
7.9896046618
 11
9.5999085923
 21
7.9996046618
  0
LINE
  5
29B
100
AcDbEntity
  8
03__ASM_ALL_CURVES
100
AcDbLine
 62
4
  6
CONTINUOUS
 10
9.6399085923
 20
7.9896046618
 11
9.6332419272
 21
7.9996046618
  0
LINE
  5
29C
100
AcDbEntity
  8
03__ASM_ALL_CURVES
100
AcDbLine
 62
4
  6
CONTINUOUS
 10
9.6265752574
 20
8.0196046618
 11
9.6332419272
 21
8.0096046618
  0
LINE
  5
29D
100
AcDbEntity
  8
03__ASM_ALL_CURVES
100
AcDbLine
 62
4
  6
CONTINUOUS
 10
9.6332419272
 20
8.0696046618
 11
9.6265752574
 21
8.0796046618
  0
LINE
  5
29E
100
AcDbEntity
  8
03__ASM_ALL_CURVES
100
AcDbLine
 62
4
  6
CONTINUOUS
 10
9.6732419255
 20
8.0196046618
 11
9.6799085923
 21
8.0096046618
  0
LINE
  5
29F
100
AcDbEntity
  8
03__ASM_ALL_CURVES
100
AcDbLine
 62
4
  6
CONTINUOUS
 10
9.6732419255
 20
8.0996046618
 11
9.6799085923
 21
8.0896046618
  0
LINE
  5
2A0
100
AcDbEntity
  8
03__ASM_ALL_CURVES
100
AcDbLine
 62
4
  6
CONTINUOUS
 10
8.7499085923
 20
8.6496046618
 11
8.7565752574
 21
8.6596046618
  0
LINE
  5
2A1
100
AcDbEntity
  8
03__ASM_ALL_CURVES
100
AcDbLine
 62
4
  6
CONTINUOUS
 10
9.6799085923
 20
7.9371046618
 11
9.669908592
 21
7.9371046618
  0
LINE
  5
2A2
100
AcDbEntity
  8
03__ASM_ALL_CURVES
100
AcDbLine
 62
4
  6
CONTINUOUS
 10
9.0769085923
 20
7.9371046618
 11
9.066908592
 21
7.9371046618
  0
LINE
  5
2A3
100
AcDbEntity
  8
03__ASM_ALL_CURVES
100
AcDbLine
 62
4
  6
CONTINUOUS
 10
9.6599085923
 20
7.9796046618
 11
9.6532419249
 21
7.9796046618
  0
LINE
  5
2A4
100
AcDbEntity
  8
03__ASM_ALL_CURVES
100
AcDbLine
 62
4
  6
CONTINUOUS
 10
9.6199085923
 20
7.9846046618
 11
9.6132419272
 21
7.9846046618
  0
LINE
  5
2A5
100
AcDbEntity
  8
03__ASM_ALL_CURVES
100
AcDbLine
 62
4
  6
CONTINUOUS
 10
8.8299085923
 20
8.0171046618
 11
8.819908592
 21
8.0171046618
  0
LINE
  5
2A6
100
AcDbEntity
  8
03__ASM_ALL_CURVES
100
AcDbLine
 62
4
  6
CONTINUOUS
 10
9.0769085923
 20
8.0196046618
 11
8.9969085923
 21
8.0196046618
  0
LINE
  5
2A7
100
AcDbEntity
  8
03__ASM_ALL_CURVES
100
AcDbLine
 62
4
  6
CONTINUOUS
 10
9.6132419272
 20
8.0246046618
 11
9.6199085923
 21
8.0246046618
  0
LINE
  5
2A8
100
AcDbEntity
  8
03__ASM_ALL_CURVES
100
AcDbLine
 62
4
  6
CONTINUOUS
 10
9.6532419249
 20
8.0296046618
 11
9.6599085923
 21
8.0296046618
  0
LINE
  5
2A9
100
AcDbEntity
  8
03__ASM_ALL_CURVES
100
AcDbLine
 62
4
  6
CONTINUOUS
 10
9.5999085923
 20
8.0746046618
 11
9.6332419272
 21
8.0696046618
  0
LINE
  5
2AA
100
AcDbEntity
  8
03__ASM_ALL_CURVES
100
AcDbLine
 62
4
  6
CONTINUOUS
 10
9.6132419272
 20
8.2396046618
 11
9.6332419272
 21
8.2346046618
  0
LINE
  5
2AB
100
AcDbEntity
  8
03__ASM_ALL_CURVES
100
AcDbLine
 62
4
  6
CONTINUOUS
 10
9.0502419249
 20
8.4246046618
 11
9.0635752586
 21
8.4196046618
  0
LINE
  5
2AC
100
AcDbEntity
  8
03__ASM_ALL_CURVES
100
AcDbLine
 62
4
  6
CONTINUOUS
 10
9.6132419272
 20
8.3046046618
 11
9.6065752574
 21
8.3096046618
  0
LINE
  5
2AD
100
AcDbEntity
  8
03__ASM_ALL_CURVES
100
AcDbLine
 62
4
  6
CONTINUOUS
 10
9.0635752586
 20
8.7296046618
 11
9.0769085923
 21
8.7196046618
  0
LINE
  5
2AE
100
AcDbEntity
  8
03__ASM_ALL_CURVES
100
AcDbLine
 62
4
  6
CONTINUOUS
 10
9.6465752598
 20
8.3196046618
 11
9.6599085923
 21
8.3096046618
  0
LINE
  5
2AF
100
AcDbEntity
  8
03__ASM_ALL_CURVES
100
AcDbLine
 62
4
  6
CONTINUOUS
 10
9.6265752574
 20
8.3446046618
 11
9.6332419272
 21
8.3396046618
  0
LINE
  5
2B0
100
AcDbEntity
  8
03__ASM_ALL_CURVES
100
AcDbLine
 62
4
  6
CONTINUOUS
 10
9.6065752574
 20
8.3096046618
 11
9.5999085923
 21
8.3196046618
  0
LINE
  5
2B1
100
AcDbEntity
  8
03__ASM_ALL_CURVES
100
AcDbLine
 62
4
  6
CONTINUOUS
 10
9.6332419272
 20
8.3396046618
 11
9.6465752598
 21
8.3196046618
  0
LINE
  5
2B2
100
AcDbEntity
  8
03__ASM_ALL_CURVES
100
AcDbLine
 62
4
  6
CONTINUOUS
 10
9.0302419272
 20
8.4046046618
 11
9.0369085923
 21
8.4196046618
  0
LINE
  5
2B3
100
AcDbEntity
  8
03__ASM_ALL_CURVES
100
AcDbLine
 62
4
  6
CONTINUOUS
 10
8.7832419272
 20
8.6496046618
 11
8.7899085923
 21
8.6596046618
  0
LINE
  5
2B4
100
AcDbEntity
  8
03__ASM_ALL_CURVES
100
AcDbLine
 62
4
  6
CONTINUOUS
 10
8.7832419272
 20
8.6396046618
 11
8.7765752574
 21
8.6296046618
  0
LINE
  5
2B5
100
AcDbEntity
  8
03__ASM_ALL_CURVES
100
AcDbLine
 62
4
  6
CONTINUOUS
 10
8.8299085923
 20
8.6396046618
 11
8.8232419255
 21
8.6296046618
  0
LINE
  5
2B6
100
AcDbEntity
  8
03__ASM_ALL_CURVES
100
AcDbLine
 62
4
  6
CONTINUOUS
 10
8.7499085923
 20
8.4096046618
 11
8.7565752574
 21
8.4196046618
  0
LINE
  5
2B7
100
AcDbEntity
  8
03__ASM_ALL_CURVES
100
AcDbLine
 62
4
  6
CONTINUOUS
 10
8.7832419272
 20
8.4096046618
 11
8.7899085923
 21
8.4196046618
  0
LINE
  5
2B8
100
AcDbEntity
  8
03__ASM_ALL_CURVES
100
AcDbLine
 62
4
  6
CONTINUOUS
 10
11.2349085923
 20
10.9212713269
 11
11.2449085923
 21
10.9279379967
  0
LINE
  5
2B9
100
AcDbEntity
  8
03__ASM_ALL_CURVES
100
AcDbLine
 62
4
  6
CONTINUOUS
 10
8.7832419272
 20
8.2346046618
 11
8.7965752598
 21
8.2346046618
  0
LINE
  5
2BA
100
AcDbEntity
  8
03__ASM_ALL_CURVES
100
AcDbLine
 62
4
  6
CONTINUOUS
 10
9.0302419272
 20
8.2346046618
 11
9.0435752598
 21
8.2346046618
  0
LINE
  5
2BB
100
AcDbEntity
  8
03__ASM_ALL_CURVES
100
AcDbLine
 62
4
  6
CONTINUOUS
 10
9.6332419272
 20
8.2346046618
 11
9.6465752598
 21
8.2346046618
  0
LINE
  5
2BC
100
AcDbEntity
  8
03__ASM_ALL_CURVES
100
AcDbLine
 62
4
  6
CONTINUOUS
 10
9.6599085923
 20
8.3096046618
 11
9.6799085923
 21
8.3046046618
  0
LINE
  5
2BD
100
AcDbEntity
  8
03__ASM_ALL_CURVES
100
AcDbLine
 62
4
  6
CONTINUOUS
 10
9.6665752586
 20
8.5846046618
 11
9.6732419255
 21
8.5796046618
  0
LINE
  5
2BE
100
AcDbEntity
  8
03__ASM_ALL_CURVES
100
AcDbLine
 62
4
  6
CONTINUOUS
 10
9.6132419272
 20
8.6296046618
 11
9.6065752574
 21
8.6346046618
  0
LINE
  5
2BF
100
AcDbEntity
  8
03__ASM_ALL_CURVES
100
AcDbLine
 62
4
  6
CONTINUOUS
 10
9.6665752586
 20
8.6596046618
 11
9.6732419255
 21
8.6546046618
  0
LINE
  5
2C0
100
AcDbEntity
  8
03__ASM_ALL_CURVES
100
AcDbLine
 62
4
  6
CONTINUOUS
 10
9.6332419272
 20
8.5496046618
 11
9.6265752574
 21
8.5596046618
  0
LINE
  5
2C1
100
AcDbEntity
  8
03__ASM_ALL_CURVES
100
AcDbLine
 62
4
  6
CONTINUOUS
 10
9.6065752574
 20
8.6346046618
 11
9.5999085923
 21
8.6446046618
  0
LINE
  5
2C2
100
AcDbEntity
  8
03__ASM_ALL_CURVES
100
AcDbLine
 62
4
  6
CONTINUOUS
 10
9.6732419255
 20
8.5796046618
 11
9.6799085923
 21
8.5696046618
  0
LINE
  5
2C3
100
AcDbEntity
  8
03__ASM_ALL_CURVES
100
AcDbLine
 62
4
  6
CONTINUOUS
 10
9.6732419255
 20
8.6546046618
 11
9.6799085923
 21
8.6446046618
  0
LINE
  5
2C4
100
AcDbEntity
  8
03__ASM_ALL_CURVES
100
AcDbLine
 62
4
  6
CONTINUOUS
 10
9.6399085923
 20
8.6596046618
 11
9.6465752598
 21
8.6446046618
  0
LINE
  5
2C5
100
AcDbEntity
  8
03__ASM_ALL_CURVES
100
AcDbLine
 62
4
  6
CONTINUOUS
 10
9.5999085923
 20
8.5846046618
 11
9.5999085923
 21
8.5546046618
  0
LINE
  5
2C6
100
AcDbEntity
  8
03__ASM_ALL_CURVES
100
AcDbLine
 62
4
  6
CONTINUOUS
 10
9.5999085923
 20
8.1046046618
 11
9.5999085923
 21
8.0746046618
  0
LINE
  5
2C7
100
AcDbEntity
  8
03__ASM_ALL_CURVES
100
AcDbLine
 62
4
  6
CONTINUOUS
 10
9.5999085923
 20
7.9996046618
 11
9.5999085923
 21
8.0096046618
  0
LINE
  5
2C8
100
AcDbEntity
  8
03__ASM_ALL_CURVES
100
AcDbLine
 62
4
  6
CONTINUOUS
 10
9.5999085923
 20
8.3196046618
 11
9.5999085923
 21
8.3296046618
  0
LINE
  5
2C9
100
AcDbEntity
  8
03__ASM_ALL_CURVES
100
AcDbLine
 62
4
  6
CONTINUOUS
 10
9.6265752574
 20
8.0796046618
 11
9.6265752574
 21
8.0896046618
  0
LINE
  5
2CA
100
AcDbEntity
  8
03__ASM_ALL_CURVES
100
AcDbLine
 62
4
  6
CONTINUOUS
 10
9.6265752574
 20
8.5596046618
 11
9.6265752574
 21
8.5696046618
  0
LINE
  5
2CB
100
AcDbEntity
  8
03__ASM_ALL_CURVES
100
AcDbLine
 62
4
  6
CONTINUOUS
 10
9.6332419272
 20
7.9996046618
 11
9.6332419272
 21
8.0096046618
  0
LINE
  5
2CC
100
AcDbEntity
  8
03__ASM_ALL_CURVES
100
AcDbLine
 62
4
  6
CONTINUOUS
 10
9.6399085923
 20
9.0846046618
 11
9.6399085923
 21
8.8446046618
  0
LINE
  5
2CD
100
AcDbEntity
  8
03__ASM_ALL_CURVES
100
AcDbLine
 62
4
  6
CONTINUOUS
 10
9.6799085923
 20
8.5696046618
 11
9.6799085923
 21
8.5596046618
  0
LINE
  5
2CE
100
AcDbEntity
  8
03__ASM_ALL_CURVES
100
AcDbLine
 62
4
  6
CONTINUOUS
 10
9.6799085923
 20
8.5046046618
 11
9.6799085923
 21
8.4971046618
  0
LINE
  5
2CF
100
AcDbEntity
  8
03__ASM_ALL_CURVES
100
AcDbLine
 62
4
  6
CONTINUOUS
 10
9.6799085923
 20
8.0896046618
 11
9.6799085923
 21
8.0796046618
  0
LINE
  5
2D0
100
AcDbEntity
  8
03__ASM_ALL_CURVES
100
AcDbLine
 62
4
  6
CONTINUOUS
 10
9.6799085923
 20
8.0096046618
 11
9.6799085923
 21
7.9996046618
  0
LINE
  5
2D1
100
AcDbEntity
  8
03__ASM_ALL_CURVES
100
AcDbLine
 62
4
  6
CONTINUOUS
 10
9.6799085923
 20
7.9446046618
 11
9.6799085923
 21
7.9371046618
  0
LINE
  5
2D2
100
AcDbEntity
  8
03__ASM_ALL_CURVES
100
AcDbLine
 62
4
  6
CONTINUOUS
 10
9.6799085923
 20
8.3046046618
 11
9.6799085923
 21
8.3446046618
  0
LINE
  5
2D3
100
AcDbEntity
  8
03__ASM_ALL_CURVES
100
AcDbLine
 62
4
  6
CONTINUOUS
 10
8.8299085923
 20
8.3996046618
 11
8.8232419255
 21
8.3896046618
  0
LINE
  5
2D4
100
AcDbEntity
  8
03__ASM_ALL_CURVES
100
AcDbLine
 62
4
  6
CONTINUOUS
 10
8.9969085923
 20
8.6496046618
 11
9.0035752574
 21
8.6596046618
  0
LINE
  5
2D5
100
AcDbEntity
  8
03__ASM_ALL_CURVES
100
AcDbLine
 62
4
  6
CONTINUOUS
 10
9.0302419272
 20
8.6496046618
 11
9.0369085923
 21
8.6596046618
  0
LINE
  5
2D6
100
AcDbEntity
  8
03__ASM_ALL_CURVES
100
AcDbLine
 62
4
  6
CONTINUOUS
 10
8.9969085923
 20
8.5696046618
 11
9.0035752574
 21
8.5796046618
  0
LINE
  5
2D7
100
AcDbEntity
  8
03__ASM_ALL_CURVES
100
AcDbLine
 62
4
  6
CONTINUOUS
 10
9.0302419272
 20
8.5696046618
 11
9.0369085923
 21
8.5796046618
  0
LINE
  5
2D8
100
AcDbEntity
  8
03__ASM_ALL_CURVES
100
AcDbLine
 62
4
  6
CONTINUOUS
 10
9.0769085923
 20
8.6396046618
 11
9.0702419255
 21
8.6296046618
  0
LINE
  5
2D9
100
AcDbEntity
  8
03__ASM_ALL_CURVES
100
AcDbLine
 62
4
  6
CONTINUOUS
 10
9.0302419272
 20
8.5596046618
 11
9.0235752574
 21
8.5496046618
  0
LINE
  5
2DA
100
AcDbEntity
  8
03__ASM_ALL_CURVES
100
AcDbLine
 62
4
  6
CONTINUOUS
 10
9.0769085923
 20
8.5596046618
 11
9.0702419255
 21
8.5496046618
  0
LINE
  5
2DB
100
AcDbEntity
  8
03__ASM_ALL_CURVES
100
AcDbLine
 62
4
  6
CONTINUOUS
 10
8.9969085923
 20
8.4046046618
 11
9.0035752574
 21
8.4146046618
  0
LINE
  5
2DC
100
AcDbEntity
  8
03__ASM_ALL_CURVES
100
AcDbLine
 62
4
  6
CONTINUOUS
 10
11.2649085923
 20
10.8812713287
 11
11.2549085923
 21
10.8746046618
  0
LINE
  5
2DD
100
AcDbEntity
  8
03__ASM_ALL_CURVES
100
AcDbLine
 62
4
  6
CONTINUOUS
 10
8.8299085923
 20
8.3396046618
 11
8.7499085923
 21
8.3396046618
  0
LINE
  5
2DE
100
AcDbEntity
  8
03__ASM_ALL_CURVES
100
AcDbLine
 62
4
  6
CONTINUOUS
 10
9.0102419272
 20
8.3446046618
 11
9.0169085923
 21
8.3446046618
  0
LINE
  5
2DF
100
AcDbEntity
  8
03__ASM_ALL_CURVES
100
AcDbLine
 62
4
  6
CONTINUOUS
 10
9.6132419272
 20
8.3446046618
 11
9.6265752574
 21
8.3446046618
  0
LINE
  5
2E0
100
AcDbEntity
  8
03__ASM_ALL_CURVES
100
AcDbLine
 62
4
  6
CONTINUOUS
 10
9.0502419249
 20
8.3496046618
 11
9.0569085923
 21
8.3496046618
  0
LINE
  5
2E1
100
AcDbEntity
  8
03__ASM_ALL_CURVES
100
AcDbLine
 62
4
  6
CONTINUOUS
 10
9.0502419249
 20
8.3846046618
 11
9.0235752574
 21
8.3846046618
  0
LINE
  5
2E2
100
AcDbEntity
  8
03__ASM_ALL_CURVES
100
AcDbLine
 62
4
  6
CONTINUOUS
 10
9.5999085923
 20
8.4046046618
 11
9.6799085923
 21
8.4046046618
  0
LINE
  5
2E3
100
AcDbEntity
  8
03__ASM_ALL_CURVES
100
AcDbLine
 62
4
  6
CONTINUOUS
 10
8.7632419272
 20
8.4246046618
 11
8.7699085923
 21
8.4246046618
  0
LINE
  5
2E4
100
AcDbEntity
  8
03__ASM_ALL_CURVES
100
AcDbLine
 62
4
  6
CONTINUOUS
 10
9.5999085923
 20
8.5546046618
 11
9.6332419272
 21
8.5496046618
  0
LINE
  5
2E5
100
AcDbEntity
  8
03__ASM_ALL_CURVES
100
AcDbLine
 62
4
  6
CONTINUOUS
 10
8.7965752598
 20
8.7346046618
 11
8.8165752586
 21
8.7296046618
  0
LINE
  5
2E6
100
AcDbEntity
  8
03__ASM_ALL_CURVES
100
AcDbLine
 62
4
  6
CONTINUOUS
 10
9.0435752598
 20
8.7346046618
 11
9.0635752586
 21
8.7296046618
  0
LINE
  5
2E7
100
AcDbEntity
  8
03__ASM_ALL_CURVES
100
AcDbLine
 62
4
  6
CONTINUOUS
 10
9.6532419249
 20
8.5896046618
 11
9.6665752586
 21
8.5846046618
  0
LINE
  5
2E8
100
AcDbEntity
  8
03__ASM_ALL_CURVES
100
AcDbLine
 62
4
  6
CONTINUOUS
 10
9.6265752574
 20
8.6246046618
 11
9.6132419272
 21
8.6296046618
  0
LINE
  5
2E9
100
AcDbEntity
  8
03__ASM_ALL_CURVES
100
AcDbLine
 62
4
  6
CONTINUOUS
 10
9.6265752574
 20
8.6646046618
 11
9.6399085923
 21
8.6596046618
  0
LINE
  5
2EA
100
AcDbEntity
  8
03__ASM_ALL_CURVES
100
AcDbLine
 62
4
  6
CONTINUOUS
 10
9.6532419249
 20
8.6646046618
 11
9.6665752586
 21
8.6596046618
  0
LINE
  5
2EB
100
AcDbEntity
  8
03__ASM_ALL_CURVES
100
AcDbLine
 62
4
  6
CONTINUOUS
 10
9.6665752586
 20
8.7296046618
 11
9.6799085923
 21
8.7196046618
  0
LINE
  5
2EC
100
AcDbEntity
  8
03__ASM_ALL_CURVES
100
AcDbLine
 62
4
  6
CONTINUOUS
 10
8.9969085923
 20
8.3296046618
 11
9.0035752574
 21
8.3396046618
  0
LINE
  5
2ED
100
AcDbEntity
  8
03__ASM_ALL_CURVES
100
AcDbLine
 62
4
  6
CONTINUOUS
 10
9.0769085923
 20
8.4046046618
 11
9.0702419255
 21
8.3946046618
  0
LINE
  5
2EE
100
AcDbEntity
  8
03__ASM_ALL_CURVES
100
AcDbLine
 62
4
  6
CONTINUOUS
 10
9.0302419272
 20
8.3296046618
 11
9.0369085923
 21
8.3396046618
  0
LINE
  5
2EF
100
AcDbEntity
  8
03__ASM_ALL_CURVES
100
AcDbLine
 62
4
  6
CONTINUOUS
 10
9.0769085923
 20
8.3196046618
 11
9.0702419255
 21
8.3096046618
  0
LINE
  5
2F0
100
AcDbEntity
  8
03__ASM_ALL_CURVES
100
AcDbLine
 62
4
  6
CONTINUOUS
 10
8.7499085923
 20
8.7196046618
 11
8.7632419272
 21
8.7296046618
  0
LINE
  5
2F1
100
AcDbEntity
  8
03__ASM_ALL_CURVES
100
AcDbLine
 62
4
  6
CONTINUOUS
 10
9.6465752598
 20
8.2346046618
 11
9.6665752586
 21
8.2396046618
  0
LINE
  5
2F2
100
AcDbEntity
  8
03__ASM_ALL_CURVES
100
AcDbLine
 62
4
  6
CONTINUOUS
 10
8.8032419249
 20
8.4296046618
 11
8.8099085923
 21
8.4296046618
  0
LINE
  5
2F3
100
AcDbEntity
  8
03__ASM_ALL_CURVES
100
AcDbLine
 62
4
  6
CONTINUOUS
 10
9.6799085923
 20
8.4971046618
 11
9.669908592
 21
8.4971046618
  0
LINE
  5
2F4
100
AcDbEntity
  8
03__ASM_ALL_CURVES
100
AcDbLine
 62
4
  6
CONTINUOUS
 10
9.0769085923
 20
8.4971046618
 11
9.066908592
 21
8.4971046618
  0
LINE
  5
2F5
100
AcDbEntity
  8
03__ASM_ALL_CURVES
100
AcDbLine
 62
4
  6
CONTINUOUS
 10
8.8299085923
 20
8.4971046618
 11
8.819908592
 21
8.4971046618
  0
LINE
  5
2F6
100
AcDbEntity
  8
03__ASM_ALL_CURVES
100
AcDbLine
 62
4
  6
CONTINUOUS
 10
9.0569085923
 20
8.5396046618
 11
9.0502419249
 21
8.5396046618
  0
LINE
  5
2F7
100
AcDbEntity
  8
03__ASM_ALL_CURVES
100
AcDbLine
 62
4
  6
CONTINUOUS
 10
9.0169085923
 20
8.5446046618
 11
9.0102419272
 21
8.5446046618
  0
LINE
  5
2F8
100
AcDbEntity
  8
03__ASM_ALL_CURVES
100
AcDbLine
 62
4
  6
CONTINUOUS
 10
8.7499085923
 20
8.5646046618
 11
8.8299085923
 21
8.5646046618
  0
LINE
  5
2F9
100
AcDbEntity
  8
03__ASM_ALL_CURVES
100
AcDbLine
 62
4
  6
CONTINUOUS
 10
9.0102419272
 20
8.5846046618
 11
9.0169085923
 21
8.5846046618
  0
LINE
  5
2FA
100
AcDbEntity
  8
03__ASM_ALL_CURVES
100
AcDbLine
 62
4
  6
CONTINUOUS
 10
9.0502419249
 20
8.5896046618
 11
9.0569085923
 21
8.5896046618
  0
LINE
  5
2FB
100
AcDbEntity
  8
03__ASM_ALL_CURVES
100
AcDbLine
 62
4
  6
CONTINUOUS
 10
9.6465752598
 20
8.7346046618
 11
9.6665752586
 21
8.7296046618
  0
LINE
  5
2FC
100
AcDbEntity
  8
03__ASM_ALL_CURVES
100
AcDbLine
 62
4
  6
CONTINUOUS
 10
9.6465752598
 20
8.6446046618
 11
9.6399085923
 21
8.6296046618
  0
LINE
  5
2FD
100
AcDbEntity
  8
03__ASM_ALL_CURVES
100
AcDbLine
 62
4
  6
CONTINUOUS
 10
9.0235752574
 20
8.0896046618
 11
9.0302419272
 21
8.0996046618
  0
LINE
  5
2FE
100
AcDbEntity
  8
03__ASM_ALL_CURVES
100
AcDbLine
 62
4
  6
CONTINUOUS
 10
9.0769085923
 20
8.0796046618
 11
9.0702419255
 21
8.0696046618
  0
LINE
  5
2FF
100
AcDbEntity
  8
03__ASM_ALL_CURVES
100
AcDbLine
 62
4
  6
CONTINUOUS
 10
8.7565752574
 20
8.6596046618
 11
8.7632419272
 21
8.6646046618
  0
LINE
  5
300
100
AcDbEntity
  8
03__ASM_ALL_CURVES
100
AcDbLine
 62
4
  6
CONTINUOUS
 10
8.7899085923
 20
8.6596046618
 11
8.8032419249
 21
8.6696046618
  0
LINE
  5
301
100
AcDbEntity
  8
03__ASM_ALL_CURVES
100
AcDbLine
 62
4
  6
CONTINUOUS
 10
8.7765752574
 20
8.6296046618
 11
8.7699085923
 21
8.6246046618
  0
LINE
  5
302
100
AcDbEntity
  8
03__ASM_ALL_CURVES
100
AcDbLine
 62
4
  6
CONTINUOUS
 10
8.8232419255
 20
8.6296046618
 11
8.8099085923
 21
8.6196046618
  0
LINE
  5
303
100
AcDbEntity
  8
03__ASM_ALL_CURVES
100
AcDbLine
 62
4
  6
CONTINUOUS
 10
8.9969085923
 20
8.7196046618
 11
9.0102419272
 21
8.7296046618
  0
LINE
  5
304
100
AcDbEntity
  8
03__ASM_ALL_CURVES
100
AcDbLine
 62
4
  6
CONTINUOUS
 10
11.2349085923
 20
10.3229379967
 11
11.2449085923
 21
10.3296046618
  0
LINE
  5
305
100
AcDbEntity
  8
03__ASM_ALL_CURVES
100
AcDbLine
 62
4
  6
CONTINUOUS
 10
11.2649085923
 20
10.2962713269
 11
11.2449085923
 21
10.2829379943
  0
LINE
  5
306
100
AcDbEntity
  8
03__ASM_ALL_CURVES
100
AcDbLine
 62
4
  6
CONTINUOUS
 10
9.0435752598
 20
8.2346046618
 11
9.0635752586
 21
8.2396046618
  0
LINE
  5
307
100
AcDbEntity
  8
03__ASM_ALL_CURVES
100
AcDbLine
 62
4
  6
CONTINUOUS
 10
8.7965752598
 20
8.2346046618
 11
8.8165752586
 21
8.2396046618
  0
LINE
  5
308
100
AcDbEntity
  8
03__ASM_ALL_CURVES
100
AcDbLine
 62
4
  6
CONTINUOUS
 10
8.8099085923
 20
8.6196046618
 11
8.8032419249
 21
8.6196046618
  0
LINE
  5
309
100
AcDbEntity
  8
03__ASM_ALL_CURVES
100
AcDbLine
 62
4
  6
CONTINUOUS
 10
10.5032419249
 20
8.6246046618
 11
10.4765752574
 21
8.6246046618
  0
LINE
  5
30A
100
AcDbEntity
  8
03__ASM_ALL_CURVES
100
AcDbLine
 62
4
  6
CONTINUOUS
 10
8.7699085923
 20
8.6246046618
 11
8.7632419272
 21
8.6246046618
  0
LINE
  5
30B
100
AcDbEntity
  8
03__ASM_ALL_CURVES
100
AcDbLine
 62
4
  6
CONTINUOUS
 10
8.7632419272
 20
8.6646046618
 11
8.7699085923
 21
8.6646046618
  0
LINE
  5
30C
100
AcDbEntity
  8
03__ASM_ALL_CURVES
100
AcDbLine
 62
4
  6
CONTINUOUS
 10
9.0102419272
 20
8.6646046618
 11
9.0169085923
 21
8.6646046618
  0
LINE
  5
30D
100
AcDbEntity
  8
03__ASM_ALL_CURVES
100
AcDbLine
 62
4
  6
CONTINUOUS
 10
9.6265752574
 20
8.6646046618
 11
9.6532419249
 21
8.6646046618
  0
LINE
  5
30E
100
AcDbEntity
  8
03__ASM_ALL_CURVES
100
AcDbLine
 62
4
  6
CONTINUOUS
 10
10.4765752574
 20
8.6646046618
 11
10.5032419249
 21
8.6646046618
  0
LINE
  5
30F
100
AcDbEntity
  8
03__ASM_ALL_CURVES
100
AcDbLine
 62
4
  6
CONTINUOUS
 10
8.8032419249
 20
8.6696046618
 11
8.8099085923
 21
8.6696046618
  0
LINE
  5
310
100
AcDbEntity
  8
03__ASM_ALL_CURVES
100
AcDbLine
 62
4
  6
CONTINUOUS
 10
9.0502419249
 20
8.6696046618
 11
9.0569085923
 21
8.6696046618
  0
LINE
  5
311
100
AcDbEntity
  8
03__ASM_ALL_CURVES
100
AcDbLine
 62
4
  6
CONTINUOUS
 10
8.7832419272
 20
8.7346046618
 11
8.7965752598
 21
8.7346046618
  0
LINE
  5
312
100
AcDbEntity
  8
03__ASM_ALL_CURVES
100
AcDbLine
 62
4
  6
CONTINUOUS
 10
9.0302419272
 20
8.7346046618
 11
9.0435752598
 21
8.7346046618
  0
LINE
  5
313
100
AcDbEntity
  8
03__ASM_ALL_CURVES
100
AcDbLine
 62
4
  6
CONTINUOUS
 10
9.6332419272
 20
8.7346046618
 11
9.6465752598
 21
8.7346046618
  0
LINE
  5
314
100
AcDbEntity
  8
03__ASM_ALL_CURVES
100
AcDbLine
 62
4
  6
CONTINUOUS
 10
10.4765752574
 20
8.6246046618
 11
10.4632419272
 21
8.6296046618
  0
LINE
  5
315
100
AcDbEntity
  8
03__ASM_ALL_CURVES
100
AcDbLine
 62
4
  6
CONTINUOUS
 10
10.5032419249
 20
8.6646046618
 11
10.5165752586
 21
8.6596046618
  0
LINE
  5
316
100
AcDbEntity
  8
03__ASM_ALL_CURVES
100
AcDbLine
 62
4
  6
CONTINUOUS
 10
10.4632419272
 20
8.6296046618
 11
10.4565752574
 21
8.6346046618
  0
LINE
  5
317
100
AcDbEntity
  8
0
100
AcDbLine
 62
7
  6
CONTINUOUS
 10
10.0779085685
 20
9.2366046618
 11
10.0779085685
 21
9.2056046618
  0
LINE
  5
318
100
AcDbEntity
  8
0
100
AcDbLine
 62
7
  6
CONTINUOUS
 10
10.0779085685
 20
10.8426046618
 11
10.0779085685
 21
10.8736046618
  0
LINE
  5
319
100
AcDbEntity
  8
03__ASM_ALL_CURVES
100
AcDbLine
 62
4
  6
CONTINUOUS
 10
9.5999085923
 20
8.6446046618
 11
9.6065752574
 21
8.6546046618
  0
LINE
  5
31A
100
AcDbEntity
  8
03__ASM_ALL_CURVES
100
AcDbLine
 62
4
  6
CONTINUOUS
 10
9.6265752574
 20
8.5696046618
 11
9.6332419272
 21
8.5796046618
  0
LINE
  5
31B
100
AcDbEntity
  8
03__ASM_ALL_CURVES
100
AcDbLine
 62
4
  6
CONTINUOUS
 10
9.6799085923
 20
8.6446046618
 11
9.6732419255
 21
8.6346046618
  0
LINE
  5
31C
100
AcDbEntity
  8
03__ASM_ALL_CURVES
100
AcDbLine
 62
4
  6
CONTINUOUS
 10
9.6799085923
 20
8.5596046618
 11
9.6732419255
 21
8.5496046618
  0
LINE
  5
31D
100
AcDbEntity
  8
03__ASM_ALL_CURVES
100
AcDbLine
 62
4
  6
CONTINUOUS
 10
11.2699085923
 20
10.8879379955
 11
11.2649085923
 21
10.8812713287
  0
LINE
  5
31E
100
AcDbEntity
  8
03__ASM_ALL_CURVES
100
AcDbLine
 62
4
  6
CONTINUOUS
 10
11.4149085923
 20
10.9546046618
 11
11.4049085923
 21
10.9412713269
  0
LINE
  5
31F
100
AcDbEntity
  8
03__ASM_ALL_CURVES
100
AcDbLine
 62
4
  6
CONTINUOUS
 10
9.0035752574
 20
8.6596046618
 11
9.0102419272
 21
8.6646046618
  0
LINE
  5
320
100
AcDbEntity
  8
03__ASM_ALL_CURVES
100
AcDbLine
 62
4
  6
CONTINUOUS
 10
8.819908592
 20
8.4971046618
 11
8.8299085923
 21
8.5046046618
  0
LINE
  5
321
100
AcDbEntity
  8
03__ASM_ALL_CURVES
100
AcDbLine
 62
4
  6
CONTINUOUS
 10
9.0369085923
 20
8.6596046618
 11
9.0502419249
 21
8.6696046618
  0
LINE
  5
322
100
AcDbEntity
  8
03__ASM_ALL_CURVES
100
AcDbLine
 62
4
  6
CONTINUOUS
 10
8.7565752574
 20
8.4196046618
 11
8.7632419272
 21
8.4246046618
  0
LINE
  5
323
100
AcDbEntity
  8
03__ASM_ALL_CURVES
100
AcDbLine
 62
4
  6
CONTINUOUS
 10
8.7899085923
 20
8.4196046618
 11
8.8032419249
 21
8.4296046618
  0
LINE
  5
324
100
AcDbEntity
  8
03__ASM_ALL_CURVES
100
AcDbLine
 62
4
  6
CONTINUOUS
 10
9.0702419255
 20
8.6296046618
 11
9.0635752586
 21
8.6246046618
  0
LINE
  5
325
100
AcDbEntity
  8
03__ASM_ALL_CURVES
100
AcDbLine
 62
4
  6
CONTINUOUS
 10
9.0035752574
 20
8.5796046618
 11
9.0102419272
 21
8.5846046618
  0
LINE
  5
326
100
AcDbEntity
  8
03__ASM_ALL_CURVES
100
AcDbLine
 62
4
  6
CONTINUOUS
 10
9.0369085923
 20
8.5796046618
 11
9.0502419249
 21
8.5896046618
  0
LINE
  5
327
100
AcDbEntity
  8
03__ASM_ALL_CURVES
100
AcDbLine
 62
4
  6
CONTINUOUS
 10
9.0235752574
 20
8.5496046618
 11
9.0169085923
 21
8.5446046618
  0
LINE
  5
328
100
AcDbEntity
  8
03__ASM_ALL_CURVES
100
AcDbLine
 62
4
  6
CONTINUOUS
 10
8.8232419255
 20
8.3896046618
 11
8.8165752586
 21
8.3846046618
  0
LINE
  5
329
100
AcDbEntity
  8
03__ASM_ALL_CURVES
100
AcDbLine
 62
4
  6
CONTINUOUS
 10
9.0702419255
 20
8.5496046618
 11
9.0569085923
 21
8.5396046618
  0
LINE
  5
32A
100
AcDbEntity
  8
03__ASM_ALL_CURVES
100
AcDbLine
 62
4
  6
CONTINUOUS
 10
10.9999085923
 20
10.0729379967
 11
11.0099085923
 21
10.0796046618
  0
LINE
  5
32B
100
AcDbEntity
  8
03__ASM_ALL_CURVES
100
AcDbLine
 62
4
  6
CONTINUOUS
 10
11.4749085923
 20
10.3229379967
 11
11.4849085923
 21
10.3296046618
  0
LINE
  5
32C
100
AcDbEntity
  8
03__ASM_ALL_CURVES
100
AcDbLine
 62
4
  6
CONTINUOUS
 10
11.0199085923
 20
10.0062713287
 11
11.0099085923
 21
9.9996046618
  0
LINE
  5
32D
100
AcDbEntity
  8
03__ASM_ALL_CURVES
100
AcDbLine
 62
4
  6
CONTINUOUS
 10
11.1549085923
 20
10.0729379967
 11
11.1649085923
 21
10.0796046618
  0
LINE
  5
32E
100
AcDbEntity
  8
03__ASM_ALL_CURVES
100
AcDbLine
 62
4
  6
CONTINUOUS
 10
11.5049085923
 20
10.2962713269
 11
11.4849085923
 21
10.2829379943
  0
LINE
  5
32F
100
AcDbEntity
  8
03__ASM_ALL_CURVES
100
AcDbLine
 62
4
  6
CONTINUOUS
 10
11.5549085923
 20
10.3229379967
 11
11.5649085923
 21
10.3296046618
  0
LINE
  5
330
100
AcDbEntity
  8
03__ASM_ALL_CURVES
100
AcDbLine
 62
4
  6
CONTINUOUS
 10
11.1549085923
 20
10.0396046618
 11
11.1649085923
 21
10.0462713269
  0
LINE
  5
331
100
AcDbEntity
  8
03__ASM_ALL_CURVES
100
AcDbLine
 62
4
  6
CONTINUOUS
 10
11.1849085923
 20
10.0529379967
 11
11.1749085923
 21
10.0462713269
  0
LINE
  5
332
100
AcDbEntity
  8
03__ASM_ALL_CURVES
100
AcDbLine
 62
4
  6
CONTINUOUS
 10
11.5549085923
 20
10.2896046618
 11
11.5649085923
 21
10.2962713269
  0
LINE
  5
333
100
AcDbEntity
  8
03__ASM_ALL_CURVES
100
AcDbLine
 62
4
  6
CONTINUOUS
 10
10.5165752586
 20
8.6596046618
 11
10.5232419255
 21
8.6546046618
  0
LINE
  5
334
100
AcDbEntity
  8
03__ASM_ALL_CURVES
100
AcDbLine
 62
4
  6
CONTINUOUS
 10
10.4565752574
 20
8.6346046618
 11
10.4499085923
 21
8.6446046618
  0
LINE
  5
335
100
AcDbEntity
  8
03__ASM_ALL_CURVES
100
AcDbLine
 62
4
  6
CONTINUOUS
 10
10.5232419255
 20
8.6546046618
 11
10.5299085923
 21
8.6446046618
  0
LINE
  5
336
100
AcDbEntity
  8
03__ASM_ALL_CURVES
100
AcDbLine
 62
4
  6
CONTINUOUS
 10
9.5999085923
 20
8.3296046618
 11
9.6065752574
 21
8.3396046618
  0
LINE
  5
337
100
AcDbEntity
  8
03__ASM_ALL_CURVES
100
AcDbLine
 62
4
  6
CONTINUOUS
 10
9.066908592
 20
8.4971046618
 11
9.0769085923
 21
8.5046046618
  0
LINE
  5
338
100
AcDbEntity
  8
03__ASM_ALL_CURVES
100
AcDbLine
 62
4
  6
CONTINUOUS
 10
9.0035752574
 20
8.4146046618
 11
9.0102419272
 21
8.4196046618
  0
LINE
  5
339
100
AcDbEntity
  8
03__ASM_ALL_CURVES
100
AcDbLine
 62
4
  6
CONTINUOUS
 10
8.8165752586
 20
8.2396046618
 11
8.8299085923
 21
8.2496046618
  0
LINE
  5
33A
100
AcDbEntity
  8
03__ASM_ALL_CURVES
100
AcDbLine
 62
4
  6
CONTINUOUS
 10
9.0702419255
 20
8.3946046618
 11
9.0635752586
 21
8.3896046618
  0
LINE
  5
33B
100
AcDbEntity
  8
03__ASM_ALL_CURVES
100
AcDbLine
 62
4
  6
CONTINUOUS
 10
9.0035752574
 20
8.3396046618
 11
9.0102419272
 21
8.3446046618
  0
LINE
  5
33C
100
AcDbEntity
  8
03__ASM_ALL_CURVES
100
AcDbLine
 62
4
  6
CONTINUOUS
 10
9.0369085923
 20
8.3396046618
 11
9.0502419249
 21
8.3496046618
  0
LINE
  5
33D
100
AcDbEntity
  8
03__ASM_ALL_CURVES
100
AcDbLine
 62
4
  6
CONTINUOUS
 10
9.5999085923
 20
8.7196046618
 11
9.6132419272
 21
8.7296046618
  0
LINE
  5
33E
100
AcDbEntity
  8
03__ASM_ALL_CURVES
100
AcDbLine
 62
4
  6
CONTINUOUS
 10
11.5849085923
 20
10.3029379967
 11
11.5749085923
 21
10.2962713269
  0
LINE
  5
33F
100
AcDbEntity
  8
03__ASM_ALL_CURVES
100
AcDbLine
 62
4
  6
CONTINUOUS
 10
11.1849085923
 20
10.0062713287
 11
11.1749085923
 21
9.9996046618
  0
LINE
  5
340
100
AcDbEntity
  8
03__ASM_ALL_CURVES
100
AcDbLine
 62
4
  6
CONTINUOUS
 10
11.5849085923
 20
10.2562713287
 11
11.5749085923
 21
10.2496046618
  0
LINE
  5
341
100
AcDbEntity
  8
03__ASM_ALL_CURVES
100
AcDbLine
 62
4
  6
CONTINUOUS
 10
11.4749085923
 20
10.0729379967
 11
11.4849085923
 21
10.0796046618
  0
LINE
  5
342
100
AcDbEntity
  8
03__ASM_ALL_CURVES
100
AcDbLine
 62
4
  6
CONTINUOUS
 10
11.8249085923
 20
10.0396046618
 11
11.8099085923
 21
10.0329379943
  0
LINE
  5
343
100
AcDbEntity
  8
03__ASM_ALL_CURVES
100
AcDbLine
 62
4
  6
CONTINUOUS
 10
9.6132419272
 20
8.7296046618
 11
9.6332419272
 21
8.7346046618
  0
LINE
  5
344
100
AcDbEntity
  8
0
100
AcDbLine
 62
7
  6
CONTINUOUS
 10
10.4219085685
 20
10.4986046618
 11
10.4219085685
 21
9.5806046618
  0
LINE
  5
345
100
AcDbEntity
  8
0
100
AcDbLine
 62
7
  6
CONTINUOUS
 10
10.4529085685
 20
10.4986046618
 11
10.4529085685
 21
9.5806046618
  0
LINE
  5
346
100
AcDbEntity
  8
03__ASM_ALL_CURVES
100
AcDbLine
 62
4
  6
CONTINUOUS
 10
10.4899085923
 20
9.0846046618
 11
10.4899085923
 21
8.8446046618
  0
LINE
  5
347
100
AcDbEntity
  8
0
100
AcDbLine
 62
7
  6
CONTINUOUS
 10
10.4899085923
 20
9.1646046618
 11
10.4899085923
 21
10.9146046618
  0
LINE
  5
348
100
AcDbEntity
  8
03__ASM_ALL_CURVES
100
AcDbLine
 62
4
  6
CONTINUOUS
 10
11.1799085923
 20
10.9279379967
 11
11.1899085923
 21
10.9546046618
  0
LINE
  5
349
100
AcDbEntity
  8
03__ASM_ALL_CURVES
100
AcDbLine
 62
4
  6
CONTINUOUS
 10
11.5049085923
 20
10.9546046618
 11
11.4699085923
 21
10.8946046618
  0
LINE
  5
34A
100
AcDbEntity
  8
03__ASM_ALL_CURVES
100
AcDbLine
 62
4
  6
CONTINUOUS
 10
9.6265752574
 20
8.0896046618
 11
9.6332419272
 21
8.0996046618
  0
LINE
  5
34B
100
AcDbEntity
  8
03__ASM_ALL_CURVES
100
AcDbLine
 62
4
  6
CONTINUOUS
 10
9.5999085923
 20
8.0096046618
 11
9.6065752574
 21
8.0196046618
  0
LINE
  5
34C
100
AcDbEntity
  8
03__ASM_ALL_CURVES
100
AcDbLine
 62
4
  6
CONTINUOUS
 10
9.6332419272
 20
8.0096046618
 11
9.6399085923
 21
8.0196046618
  0
LINE
  5
34D
100
AcDbEntity
  8
03__ASM_ALL_CURVES
100
AcDbLine
 62
4
  6
CONTINUOUS
 10
9.6799085923
 20
8.0796046618
 11
9.6732419255
 21
8.0696046618
  0
LINE
  5
34E
100
AcDbEntity
  8
03__ASM_ALL_CURVES
100
AcDbLine
 62
4
  6
CONTINUOUS
 10
9.6332419272
 20
7.9996046618
 11
9.6265752574
 21
7.9896046618
  0
LINE
  5
34F
100
AcDbEntity
  8
03__ASM_ALL_CURVES
100
AcDbLine
 62
4
  6
CONTINUOUS
 10
9.6799085923
 20
7.9996046618
 11
9.6732419255
 21
7.9896046618
  0
LINE
  5
350
100
AcDbEntity
  8
03__ASM_ALL_CURVES
100
AcDbLine
 62
4
  6
CONTINUOUS
 10
9.5999085923
 20
7.8446046618
 11
9.6065752574
 21
7.8546046618
  0
LINE
  5
351
100
AcDbEntity
  8
03__ASM_ALL_CURVES
100
AcDbLine
 62
4
  6
CONTINUOUS
 10
10.9949085923
 20
10.0662713269
 11
10.9999085923
 21
10.0729379967
  0
LINE
  5
352
100
AcDbEntity
  8
03__ASM_ALL_CURVES
100
AcDbLine
 62
4
  6
CONTINUOUS
 10
11.2299085923
 20
10.3162713269
 11
11.2349085923
 21
10.3229379967
  0
LINE
  5
353
100
AcDbEntity
  8
03__ASM_ALL_CURVES
100
AcDbLine
 62
4
  6
CONTINUOUS
 10
11.0249085923
 20
10.0129379955
 11
11.0199085923
 21
10.0062713287
  0
LINE
  5
354
100
AcDbEntity
  8
03__ASM_ALL_CURVES
100
AcDbLine
 62
4
  6
CONTINUOUS
 10
11.2449085923
 20
10.2829379943
 11
11.2349085923
 21
10.2696046618
  0
LINE
  5
355
100
AcDbEntity
  8
03__ASM_ALL_CURVES
100
AcDbLine
 62
4
  6
CONTINUOUS
 10
11.2699085923
 20
10.3029379967
 11
11.2649085923
 21
10.2962713269
  0
LINE
  5
356
100
AcDbEntity
  8
03__ASM_ALL_CURVES
100
AcDbLine
 62
4
  6
CONTINUOUS
 10
11.1499085923
 20
10.0662713269
 11
11.1549085923
 21
10.0729379967
  0
LINE
  5
357
100
AcDbEntity
  8
03__ASM_ALL_CURVES
100
AcDbLine
 62
4
  6
CONTINUOUS
 10
11.1449085923
 20
10.0262713293
 11
11.1549085923
 21
10.0396046618
  0
LINE
  5
358
100
AcDbEntity
  8
03__ASM_ALL_CURVES
100
AcDbLine
 62
4
  6
CONTINUOUS
 10
9.0702419255
 20
8.3096046618
 11
9.0635752586
 21
8.3046046618
  0
LINE
  5
359
100
AcDbEntity
  8
03__ASM_ALL_CURVES
100
AcDbLine
 62
4
  6
CONTINUOUS
 10
9.6065752574
 20
8.6546046618
 11
9.6132419272
 21
8.6596046618
  0
LINE
  5
35A
100
AcDbEntity
  8
03__ASM_ALL_CURVES
100
AcDbLine
 62
4
  6
CONTINUOUS
 10
9.0635752586
 20
8.2396046618
 11
9.0769085923
 21
8.2496046618
  0
LINE
  5
35B
100
AcDbEntity
  8
03__ASM_ALL_CURVES
100
AcDbLine
 62
4
  6
CONTINUOUS
 10
8.819908592
 20
8.0171046618
 11
8.8299085923
 21
8.0246046618
  0
LINE
  5
35C
100
AcDbEntity
  8
03__ASM_ALL_CURVES
100
AcDbLine
 62
4
  6
CONTINUOUS
 10
9.6732419255
 20
8.6346046618
 11
9.6665752586
 21
8.6296046618
  0
LINE
  5
35D
100
AcDbEntity
  8
03__ASM_ALL_CURVES
100
AcDbLine
 62
4
  6
CONTINUOUS
 10
9.6332419272
 20
8.5796046618
 11
9.6399085923
 21
8.5846046618
  0
LINE
  5
35E
100
AcDbEntity
  8
03__ASM_ALL_CURVES
100
AcDbLine
 62
4
  6
CONTINUOUS
 10
9.0302419272
 20
8.0996046618
 11
9.0369085923
 21
8.1046046618
  0
LINE
  5
35F
100
AcDbEntity
  8
03__ASM_ALL_CURVES
100
AcDbLine
 62
4
  6
CONTINUOUS
 10
11.5049085923
 20
10.0462713269
 11
11.4849085923
 21
10.0329379943
  0
LINE
  5
360
100
AcDbEntity
  8
03__ASM_ALL_CURVES
100
AcDbLine
 62
4
  6
CONTINUOUS
 10
11.5549085923
 20
10.0729379967
 11
11.5649085923
 21
10.0796046618
  0
LINE
  5
361
100
AcDbEntity
  8
03__ASM_ALL_CURVES
100
AcDbLine
 62
4
  6
CONTINUOUS
 10
11.5849085923
 20
10.0462713269
 11
11.5649085923
 21
10.0329379943
  0
LINE
  5
362
100
AcDbEntity
  8
03__ASM_ALL_CURVES
100
AcDbLine
 62
4
  6
CONTINUOUS
 10
11.7199085923
 20
10.0729379967
 11
11.7299085923
 21
10.0796046618
  0
LINE
  5
363
100
AcDbEntity
  8
03__ASM_ALL_CURVES
100
AcDbLine
 62
4
  6
CONTINUOUS
 10
11.7999085923
 20
10.0729379967
 11
11.8099085923
 21
10.0796046618
  0
LINE
  5
364
100
AcDbEntity
  8
03__ASM_ALL_CURVES
100
AcDbLine
 62
4
  6
CONTINUOUS
 10
9.0102419272
 20
8.7296046618
 11
9.0302419272
 21
8.7346046618
  0
LINE
  5
365
100
AcDbEntity
  8
03__ASM_ALL_CURVES
100
AcDbLine
 62
4
  6
CONTINUOUS
 10
8.7632419272
 20
8.7296046618
 11
8.7832419272
 21
8.7346046618
  0
LINE
  5
366
100
AcDbEntity
  8
0
100
AcDbLine
 62
7
  6
CONTINUOUS
 10
8.7899085446
 20
9.1646046618
 11
10.4899085923
 21
9.1646046618
  0
LINE
  5
367
100
AcDbEntity
  8
03__ASM_ALL_CURVES
100
AcDbLine
 62
4
  6
CONTINUOUS
 10
10.5699085923
 20
9.1646046618
 11
10.8099085923
 21
9.1646046618
  0
LINE
  5
368
100
AcDbEntity
  8
0
100
AcDbLine
 62
7
  6
CONTINUOUS
 10
10.0779085685
 20
9.2056046618
 11
9.2029085685
 21
9.2056046618
  0
LINE
  5
369
100
AcDbEntity
  8
0
100
AcDbLine
 62
7
  6
CONTINUOUS
 10
10.0779085685
 20
9.2366046618
 11
9.2029085685
 21
9.2366046618
  0
LINE
  5
36A
100
AcDbEntity
  8
03__ASM_ALL_CURVES
100
AcDbLine
 62
4
  6
CONTINUOUS
 10
11.2749085923
 20
10.9012713293
 11
11.2699085923
 21
10.8879379955
  0
LINE
  5
36B
100
AcDbEntity
  8
03__ASM_ALL_CURVES
100
AcDbLine
 62
4
  6
CONTINUOUS
 10
10.9899085923
 20
10.0529379967
 11
10.9949085923
 21
10.0662713269
  0
LINE
  5
36C
100
AcDbEntity
  8
03__ASM_ALL_CURVES
100
AcDbLine
 62
4
  6
CONTINUOUS
 10
11.5849085923
 20
10.9546046618
 11
11.5499085923
 21
10.8946046618
  0
LINE
  5
36D
100
AcDbEntity
  8
03__ASM_ALL_CURVES
100
AcDbLine
 62
4
  6
CONTINUOUS
 10
11.7449085923
 20
10.9546046618
 11
11.7099085923
 21
10.8946046618
  0
LINE
  5
36E
100
AcDbEntity
  8
03__ASM_ALL_CURVES
100
AcDbLine
 62
4
  6
CONTINUOUS
 10
9.6799085923
 20
7.8446046618
 11
9.6732419255
 21
7.8346046618
  0
LINE
  5
36F
100
AcDbEntity
  8
03__ASM_ALL_CURVES
100
AcDbLine
 62
4
  6
CONTINUOUS
 10
11.1899085923
 20
10.0596046618
 11
11.1849085923
 21
10.0529379967
  0
LINE
  5
370
100
AcDbEntity
  8
03__ASM_ALL_CURVES
100
AcDbLine
 62
4
  6
CONTINUOUS
 10
11.4149085923
 20
10.3296046618
 11
11.4049085923
 21
10.3162713269
  0
LINE
  5
371
100
AcDbEntity
  8
03__ASM_ALL_CURVES
100
AcDbLine
 62
4
  6
CONTINUOUS
 10
11.1949085923
 20
10.0196046618
 11
11.1849085923
 21
10.0062713287
  0
LINE
  5
372
100
AcDbEntity
  8
03__ASM_ALL_CURVES
100
AcDbLine
 62
4
  6
CONTINUOUS
 10
11.8949085923
 20
10.8879379955
 11
11.8849085923
 21
10.8746046618
  0
LINE
  5
373
100
AcDbEntity
  8
03__ASM_ALL_CURVES
100
AcDbLine
 62
4
  6
CONTINUOUS
 10
11.4699085923
 20
10.3162713269
 11
11.4749085923
 21
10.3229379967
  0
LINE
  5
374
100
AcDbEntity
  8
03__ASM_ALL_CURVES
100
AcDbLine
 62
4
  6
CONTINUOUS
 10
11.4849085923
 20
10.2829379943
 11
11.4749085923
 21
10.2696046618
  0
LINE
  5
375
100
AcDbEntity
  8
03__ASM_ALL_CURVES
100
AcDbLine
 62
4
  6
CONTINUOUS
 10
11.5099085923
 20
10.3029379967
 11
11.5049085923
 21
10.2962713269
  0
LINE
  5
376
100
AcDbEntity
  8
03__ASM_ALL_CURVES
100
AcDbLine
 62
4
  6
CONTINUOUS
 10
11.5499085923
 20
10.3162713269
 11
11.5549085923
 21
10.3229379967
  0
LINE
  5
377
100
AcDbEntity
  8
03__ASM_ALL_CURVES
100
AcDbLine
 62
4
  6
CONTINUOUS
 10
9.6732419255
 20
8.5496046618
 11
9.6665752586
 21
8.5446046618
  0
LINE
  5
378
100
AcDbEntity
  8
03__ASM_ALL_CURVES
100
AcDbLine
 62
4
  6
CONTINUOUS
 10
9.0702419255
 20
8.0696046618
 11
9.0635752586
 21
8.0646046618
  0
LINE
  5
379
100
AcDbEntity
  8
03__ASM_ALL_CURVES
100
AcDbLine
 62
4
  6
CONTINUOUS
 10
9.669908592
 20
8.4971046618
 11
9.6799085923
 21
8.5046046618
  0
LINE
  5
37A
100
AcDbEntity
  8
03__ASM_ALL_CURVES
100
AcDbLine
 62
4
  6
CONTINUOUS
 10
9.066908592
 20
7.9371046618
 11
9.0769085923
 21
7.9446046618
  0
LINE
  5
37B
100
AcDbEntity
  8
03__ASM_ALL_CURVES
100
AcDbLine
 62
4
  6
CONTINUOUS
 10
9.6065752574
 20
8.3396046618
 11
9.6132419272
 21
8.3446046618
  0
LINE
  5
37C
100
AcDbEntity
  8
03__ASM_ALL_CURVES
100
AcDbLine
 62
4
  6
CONTINUOUS
 10
11.7399085923
 20
10.0062713287
 11
11.7299085923
 21
9.9996046618
  0
LINE
  5
37D
100
AcDbEntity
  8
03__ASM_ALL_CURVES
100
AcDbLine
 62
4
  6
CONTINUOUS
 10
11.8199085923
 20
10.0062713287
 11
11.8099085923
 21
9.9996046618
  0
LINE
  5
37E
100
AcDbEntity
  8
03__ASM_ALL_CURVES
100
AcDbLine
 62
4
  6
CONTINUOUS
 10
11.0099085923
 20
9.1246046618
 11
10.9999085923
 21
9.1312713287
  0
LINE
  5
37F
100
AcDbEntity
  8
03__ASM_ALL_CURVES
100
AcDbLine
 62
4
  6
CONTINUOUS
 10
11.1749085923
 20
10.9079379943
 11
11.1799085923
 21
10.9279379967
  0
LINE
  5
380
100
AcDbEntity
  8
03__ASM_ALL_CURVES
100
AcDbLine
 62
4
  6
CONTINUOUS
 10
11.0299085923
 20
10.0262713293
 11
11.0249085923
 21
10.0129379955
  0
LINE
  5
381
100
AcDbEntity
  8
03__ASM_ALL_CURVES
100
AcDbLine
 62
4
  6
CONTINUOUS
 10
11.8249085923
 20
10.9546046618
 11
11.7899085923
 21
10.8946046618
  0
LINE
  5
382
100
AcDbEntity
  8
03__ASM_ALL_CURVES
100
AcDbLine
 62
4
  6
CONTINUOUS
 10
10.4499085923
 20
8.6446046618
 11
10.4565752574
 21
8.6546046618
  0
LINE
  5
383
100
AcDbEntity
  8
03__ASM_ALL_CURVES
100
AcDbLine
 62
4
  6
CONTINUOUS
 10
10.5299085923
 20
8.6446046618
 11
10.5232419255
 21
8.6346046618
  0
LINE
  5
384
100
AcDbEntity
  8
03__ASM_ALL_CURVES
100
AcDbLine
 62
4
  6
CONTINUOUS
 10
11.5449085923
 20
10.2762713293
 11
11.5549085923
 21
10.2896046618
  0
LINE
  5
385
100
AcDbEntity
  8
03__ASM_ALL_CURVES
100
AcDbLine
 62
4
  6
CONTINUOUS
 10
11.4149085923
 20
10.0796046618
 11
11.4049085923
 21
10.0662713269
  0
LINE
  5
386
100
AcDbEntity
  8
03__ASM_ALL_CURVES
100
AcDbLine
 62
4
  6
CONTINUOUS
 10
11.5899085923
 20
10.3096046618
 11
11.5849085923
 21
10.3029379967
  0
LINE
  5
387
100
AcDbEntity
  8
03__ASM_ALL_CURVES
100
AcDbLine
 62
4
  6
CONTINUOUS
 10
11.5949085923
 20
10.2696046618
 11
11.5849085923
 21
10.2562713287
  0
LINE
  5
388
100
AcDbEntity
  8
03__ASM_ALL_CURVES
100
AcDbLine
 62
4
  6
CONTINUOUS
 10
11.4699085923
 20
10.0662713269
 11
11.4749085923
 21
10.0729379967
  0
LINE
  5
389
100
AcDbEntity
  8
03__ASM_ALL_CURVES
100
AcDbLine
 62
4
  6
CONTINUOUS
 10
11.4849085923
 20
10.0329379943
 11
11.4749085923
 21
10.0196046618
  0
LINE
  5
38A
100
AcDbEntity
  8
03__ASM_ALL_CURVES
100
AcDbLine
 62
4
  6
CONTINUOUS
 10
11.5099085923
 20
10.0529379967
 11
11.5049085923
 21
10.0462713269
  0
LINE
  5
38B
100
AcDbEntity
  8
03__ASM_ALL_CURVES
100
AcDbLine
 62
4
  6
CONTINUOUS
 10
11.5499085923
 20
10.0662713269
 11
11.5549085923
 21
10.0729379967
  0
LINE
  5
38C
100
AcDbEntity
  8
03__ASM_ALL_CURVES
100
AcDbLine
 62
4
  6
CONTINUOUS
 10
11.5649085923
 20
10.0329379943
 11
11.5549085923
 21
10.0196046618
  0
LINE
  5
38D
100
AcDbEntity
  8
03__ASM_ALL_CURVES
100
AcDbLine
 62
4
  6
CONTINUOUS
 10
9.6665752586
 20
8.2396046618
 11
9.6799085923
 21
8.2496046618
  0
LINE
  5
38E
100
AcDbEntity
  8
03__ASM_ALL_CURVES
100
AcDbLine
 62
4
  6
CONTINUOUS
 10
10.9999085923
 20
9.1979379967
 11
11.0099085923
 21
9.2046046618
  0
LINE
  5
38F
100
AcDbEntity
  8
03__ASM_ALL_CURVES
100
AcDbLine
 62
4
  6
CONTINUOUS
 10
9.6132419272
 20
8.6596046618
 11
9.6265752574
 21
8.6646046618
  0
LINE
  5
390
100
AcDbEntity
  8
03__ASM_ALL_CURVES
100
AcDbLine
 62
4
  6
CONTINUOUS
 10
9.0369085923
 20
8.4196046618
 11
9.0502419249
 21
8.4246046618
  0
LINE
  5
391
100
AcDbEntity
  8
03__ASM_ALL_CURVES
100
AcDbLine
 62
4
  6
CONTINUOUS
 10
9.6399085923
 20
8.6296046618
 11
9.6265752574
 21
8.6246046618
  0
LINE
  5
392
100
AcDbEntity
  8
03__ASM_ALL_CURVES
100
AcDbLine
 62
4
  6
CONTINUOUS
 10
9.0635752586
 20
8.3896046618
 11
9.0502419249
 21
8.3846046618
  0
LINE
  5
393
100
AcDbEntity
  8
03__ASM_ALL_CURVES
100
AcDbLine
 62
4
  6
CONTINUOUS
 10
9.6399085923
 20
8.5846046618
 11
9.6532419249
 21
8.5896046618
  0
LINE
  5
394
100
AcDbEntity
  8
0
100
AcDbLine
 62
7
  6
CONTINUOUS
 10
8.8589085685
 20
9.5806046618
 11
8.8279085685
 21
9.5806046618
  0
LINE
  5
395
100
AcDbEntity
  8
0
100
AcDbLine
 62
7
  6
CONTINUOUS
 10
10.4219085685
 20
9.5806046618
 11
10.4529085685
 21
9.5806046618
  0
LINE
  5
396
100
AcDbEntity
  8
03__ASM_ALL_CURVES
100
AcDbLine
 62
4
  6
CONTINUOUS
 10
11.0099085923
 20
9.2046046618
 11
11.0199085923
 21
9.1979379967
  0
LINE
  5
397
100
AcDbEntity
  8
03__ASM_ALL_CURVES
100
AcDbLine
 62
4
  6
CONTINUOUS
 10
10.9999085923
 20
9.1312713287
 11
10.9949085923
 21
9.1379379955
  0
LINE
  5
398
100
AcDbEntity
  8
03__ASM_ALL_CURVES
100
AcDbLine
 62
4
  6
CONTINUOUS
 10
10.9899085923
 20
9.1512713293
 11
10.9899085923
 21
9.1779379967
  0
LINE
  5
399
100
AcDbEntity
  8
03__ASM_ALL_CURVES
100
AcDbLine
 62
4
  6
CONTINUOUS
 10
10.9899085923
 20
10.0262713293
 11
10.9899085923
 21
10.0529379967
  0
LINE
  5
39A
100
AcDbEntity
  8
03__ASM_ALL_CURVES
100
AcDbLine
 62
4
  6
CONTINUOUS
 10
11.0099085923
 20
10.9546046618
 11
11.0099085923
 21
10.8746046618
  0
LINE
  5
39B
100
AcDbEntity
  8
03__ASM_ALL_CURVES
100
AcDbLine
 62
4
  6
CONTINUOUS
 10
11.0099085923
 20
10.3296046618
 11
11.0099085923
 21
10.2496046618
  0
LINE
  5
39C
100
AcDbEntity
  8
03__ASM_ALL_CURVES
100
AcDbLine
 62
4
  6
CONTINUOUS
 10
11.0299085923
 20
10.0529379967
 11
11.0299085923
 21
10.0262713293
  0
LINE
  5
39D
100
AcDbEntity
  8
03__ASM_ALL_CURVES
100
AcDbLine
 62
4
  6
CONTINUOUS
 10
11.0299085923
 20
9.1779379967
 11
11.0299085923
 21
9.1512713293
  0
LINE
  5
39E
100
AcDbEntity
  8
03__ASM_ALL_CURVES
100
AcDbLine
 62
4
  6
CONTINUOUS
 10
11.1699085923
 20
10.8746046618
 11
11.1749085923
 21
10.9079379943
  0
LINE
  5
39F
100
AcDbEntity
  8
03__ASM_ALL_CURVES
100
AcDbLine
 62
4
  6
CONTINUOUS
 10
11.2399085923
 20
10.9546046618
 11
11.2349085923
 21
10.9212713269
  0
LINE
  5
3A0
100
AcDbEntity
  8
03__ASM_ALL_CURVES
100
AcDbLine
 62
4
  6
CONTINUOUS
 10
11.2349085923
 20
10.2696046618
 11
11.2299085923
 21
10.2496046618
  0
LINE
  5
3A1
100
AcDbEntity
  8
03__ASM_ALL_CURVES
100
AcDbLine
 62
4
  6
CONTINUOUS
 10
11.4049085923
 20
10.9412713269
 11
11.3999085923
 21
10.9212713269
  0
LINE
  5
3A2
100
AcDbEntity
  8
03__ASM_ALL_CURVES
100
AcDbLine
 62
4
  6
CONTINUOUS
 10
11.2549085923
 20
10.0329379943
 11
11.2599085923
 21
10.0529379967
  0
LINE
  5
3A3
100
AcDbEntity
  8
03__ASM_ALL_CURVES
100
AcDbLine
 62
4
  6
CONTINUOUS
 10
11.2599085923
 20
10.0529379967
 11
11.2699085923
 21
10.0796046618
  0
LINE
  5
3A4
100
AcDbEntity
  8
03__ASM_ALL_CURVES
100
AcDbLine
 62
4
  6
CONTINUOUS
 10
10.9899085923
 20
9.1779379967
 11
10.9949085923
 21
9.1912713269
  0
LINE
  5
3A5
100
AcDbEntity
  8
03__ASM_ALL_CURVES
100
AcDbLine
 62
4
  6
CONTINUOUS
 10
11.0299085923
 20
9.1512713293
 11
11.0249085923
 21
9.1379379955
  0
LINE
  5
3A6
100
AcDbEntity
  8
03__ASM_ALL_CURVES
100
AcDbLine
 62
4
  6
CONTINUOUS
 10
11.7449085923
 20
10.3296046618
 11
11.7099085923
 21
10.2696046618
  0
LINE
  5
3A7
100
AcDbEntity
  8
03__ASM_ALL_CURVES
100
AcDbLine
 62
4
  6
CONTINUOUS
 10
11.5899085923
 20
10.0529379967
 11
11.5849085923
 21
10.0462713269
  0
LINE
  5
3A8
100
AcDbEntity
  8
03__ASM_ALL_CURVES
100
AcDbLine
 62
4
  6
CONTINUOUS
 10
10.9949085923
 20
9.1912713269
 11
10.9999085923
 21
9.1979379967
  0
LINE
  5
3A9
100
AcDbEntity
  8
03__ASM_ALL_CURVES
100
AcDbLine
 62
4
  6
CONTINUOUS
 10
11.7149085923
 20
10.0662713269
 11
11.7199085923
 21
10.0729379967
  0
LINE
  5
3AA
100
AcDbEntity
  8
03__ASM_ALL_CURVES
100
AcDbLine
 62
4
  6
CONTINUOUS
 10
11.0249085923
 20
9.1379379955
 11
11.0199085923
 21
9.1312713287
  0
LINE
  5
3AB
100
AcDbEntity
  8
03__ASM_ALL_CURVES
100
AcDbLine
 62
4
  6
CONTINUOUS
 10
11.8949085923
 20
10.2629379955
 11
11.8849085923
 21
10.2496046618
  0
LINE
  5
3AC
100
AcDbEntity
  8
03__ASM_ALL_CURVES
100
AcDbLine
 62
4
  6
CONTINUOUS
 10
11.7449085923
 20
10.0129379955
 11
11.7399085923
 21
10.0062713287
  0
LINE
  5
3AD
100
AcDbEntity
  8
03__ASM_ALL_CURVES
100
AcDbLine
 62
4
  6
CONTINUOUS
 10
11.7949085923
 20
10.0662713269
 11
11.7999085923
 21
10.0729379967
  0
LINE
  5
3AE
100
AcDbEntity
  8
03__ASM_ALL_CURVES
100
AcDbLine
 62
4
  6
CONTINUOUS
 10
9.6332419272
 20
8.0996046618
 11
9.6399085923
 21
8.1046046618
  0
LINE
  5
3AF
100
AcDbEntity
  8
03__ASM_ALL_CURVES
100
AcDbLine
 62
4
  6
CONTINUOUS
 10
9.6732419255
 20
8.0696046618
 11
9.6665752586
 21
8.0646046618
  0
LINE
  5
3B0
100
AcDbEntity
  8
03__ASM_ALL_CURVES
100
AcDbLine
 62
4
  6
CONTINUOUS
 10
9.6065752574
 20
8.0196046618
 11
9.6132419272
 21
8.0246046618
  0
LINE
  5
3B1
100
AcDbEntity
  8
03__ASM_ALL_CURVES
100
AcDbLine
 62
4
  6
CONTINUOUS
 10
10.4565752574
 20
8.6546046618
 11
10.4632419272
 21
8.6596046618
  0
LINE
  5
3B2
100
AcDbEntity
  8
03__ASM_ALL_CURVES
100
AcDbLine
 62
4
  6
CONTINUOUS
 10
9.6399085923
 20
8.0196046618
 11
9.6532419249
 21
8.0296046618
  0
LINE
  5
3B3
100
AcDbEntity
  8
03__ASM_ALL_CURVES
100
AcDbLine
 62
4
  6
CONTINUOUS
 10
9.6265752574
 20
7.9896046618
 11
9.6199085923
 21
7.9846046618
  0
LINE
  5
3B4
100
AcDbEntity
  8
03__ASM_ALL_CURVES
100
AcDbLine
 62
4
  6
CONTINUOUS
 10
10.5232419255
 20
8.6346046618
 11
10.5165752586
 21
8.6296046618
  0
LINE
  5
3B5
100
AcDbEntity
  8
03__ASM_ALL_CURVES
100
AcDbLine
 62
4
  6
CONTINUOUS
 10
9.6732419255
 20
7.9896046618
 11
9.6599085923
 21
7.9796046618
  0
LINE
  5
3B6
100
AcDbEntity
  8
03__ASM_ALL_CURVES
100
AcDbLine
 62
4
  6
CONTINUOUS
 10
11.0199085923
 20
9.1312713287
 11
11.0099085923
 21
9.1246046618
  0
LINE
  5
3B7
100
AcDbEntity
  8
03__ASM_ALL_CURVES
100
AcDbLine
 62
4
  6
CONTINUOUS
 10
10.4632419272
 20
8.6596046618
 11
10.4765752574
 21
8.6646046618
  0
LINE
  5
3B8
100
AcDbEntity
  8
03__ASM_ALL_CURVES
100
AcDbLine
 62
4
  6
CONTINUOUS
 10
11.0199085923
 20
9.1979379967
 11
11.0249085923
 21
9.1912713269
  0
LINE
  5
3B9
100
AcDbEntity
  8
03__ASM_ALL_CURVES
100
AcDbLine
 62
4
  6
CONTINUOUS
 10
10.9949085923
 20
9.1379379955
 11
10.9899085923
 21
9.1512713293
  0
LINE
  5
3BA
100
AcDbEntity
  8
03__ASM_ALL_CURVES
100
AcDbLine
 62
4
  6
CONTINUOUS
 10
11.0249085923
 20
9.1912713269
 11
11.0299085923
 21
9.1779379967
  0
LINE
  5
3BB
100
AcDbEntity
  8
03__ASM_ALL_CURVES
100
AcDbLine
 62
4
  6
CONTINUOUS
 10
11.1024085923
 20
9.9996046618
 11
11.1024085923
 21
10.0096046621
  0
LINE
  5
3BC
100
AcDbEntity
  8
03__ASM_ALL_CURVES
100
AcDbLine
 62
4
  6
CONTINUOUS
 10
11.1024085923
 20
10.2496046618
 11
11.1024085923
 21
10.2596046621
  0
LINE
  5
3BD
100
AcDbEntity
  8
03__ASM_ALL_CURVES
100
AcDbLine
 62
4
  6
CONTINUOUS
 10
11.1024085923
 20
10.8746046618
 11
11.1024085923
 21
10.8846046621
  0
LINE
  5
3BE
100
AcDbEntity
  8
03__ASM_ALL_CURVES
100
AcDbLine
 62
4
  6
CONTINUOUS
 10
11.1449085923
 20
10.0196046618
 11
11.1449085923
 21
10.0262713293
  0
LINE
  5
3BF
100
AcDbEntity
  8
03__ASM_ALL_CURVES
100
AcDbLine
 62
4
  6
CONTINUOUS
 10
11.1499085923
 20
10.0596046618
 11
11.1499085923
 21
10.0662713269
  0
LINE
  5
3C0
100
AcDbEntity
  8
03__ASM_ALL_CURVES
100
AcDbLine
 62
4
  6
CONTINUOUS
 10
11.1699085923
 20
10.3296046618
 11
11.1699085923
 21
10.2496046618
  0
LINE
  5
3C1
100
AcDbEntity
  8
03__ASM_ALL_CURVES
100
AcDbLine
 62
4
  6
CONTINUOUS
 10
11.1899085923
 20
10.0662713269
 11
11.1899085923
 21
10.0596046618
  0
LINE
  5
3C2
100
AcDbEntity
  8
03__ASM_ALL_CURVES
100
AcDbLine
 62
4
  6
CONTINUOUS
 10
11.1949085923
 20
10.0262713293
 11
11.1949085923
 21
10.0196046618
  0
LINE
  5
3C3
100
AcDbEntity
  8
03__ASM_ALL_CURVES
100
AcDbLine
 62
4
  6
CONTINUOUS
 10
11.2499085923
 20
9.9996046618
 11
11.2549085923
 21
10.0329379943
  0
LINE
  5
3C4
100
AcDbEntity
  8
03__ASM_ALL_CURVES
100
AcDbLine
 62
4
  6
CONTINUOUS
 10
11.4049085923
 20
10.3162713269
 11
11.3999085923
 21
10.2962713269
  0
LINE
  5
3C5
100
AcDbEntity
  8
03__ASM_ALL_CURVES
100
AcDbLine
 62
4
  6
CONTINUOUS
 10
11.4049085923
 20
10.0662713269
 11
11.3999085923
 21
10.0462713269
  0
LINE
  5
3C6
100
AcDbEntity
  8
03__ASM_ALL_CURVES
100
AcDbLine
 62
4
  6
CONTINUOUS
 10
11.4749085923
 20
10.2696046618
 11
11.4699085923
 21
10.2496046618
  0
LINE
  5
3C7
100
AcDbEntity
  8
03__ASM_ALL_CURVES
100
AcDbLine
 62
4
  6
CONTINUOUS
 10
11.8249085923
 20
10.3296046618
 11
11.7899085923
 21
10.2696046618
  0
LINE
  5
3C8
100
AcDbEntity
  8
03__ASM_ALL_CURVES
100
AcDbLine
 62
4
  6
CONTINUOUS
 10
11.8249085923
 20
10.0129379955
 11
11.8199085923
 21
10.0062713287
  0
LINE
  5
3C9
100
AcDbEntity
  8
03__ASM_ALL_CURVES
100
AcDbLine
 62
4
  6
CONTINUOUS
 10
11.8949085923
 20
10.0129379955
 11
11.8849085923
 21
9.9996046618
  0
LINE
  5
3CA
100
AcDbEntity
  8
03__ASM_ALL_CURVES
100
AcDbLine
 62
4
  6
CONTINUOUS
 10
9.669908592
 20
7.9371046618
 11
9.6799085923
 21
7.9446046618
  0
LINE
  5
3CB
100
AcDbEntity
  8
03__ASM_ALL_CURVES
100
AcDbLine
 62
4
  6
CONTINUOUS
 10
9.6065752574
 20
7.8546046618
 11
9.6132419272
 21
7.8596046618
  0
LINE
  5
3CC
100
AcDbEntity
  8
03__ASM_ALL_CURVES
100
AcDbLine
 62
4
  6
CONTINUOUS
 10
9.6732419255
 20
7.8346046618
 11
9.6665752586
 21
7.8296046618
  0
LINE
  5
3CD
100
AcDbEntity
  8
03__ASM_ALL_CURVES
100
AcDbLine
 62
4
  6
CONTINUOUS
 10
9.0369085923
 20
8.1046046618
 11
9.0502419249
 21
8.1096046618
  0
LINE
  5
3CE
100
AcDbEntity
  8
03__ASM_ALL_CURVES
100
AcDbLine
 62
4
  6
CONTINUOUS
 10
10.5165752586
 20
8.6296046618
 11
10.5032419249
 21
8.6246046618
  0
LINE
  5
3CF
100
AcDbEntity
  8
03__ASM_ALL_CURVES
100
AcDbLine
 62
4
  6
CONTINUOUS
 10
11.2699085923
 20
10.3162713269
 11
11.2699085923
 21
10.3029379967
  0
LINE
  5
3D0
100
AcDbEntity
  8
03__ASM_ALL_CURVES
100
AcDbLine
 62
4
  6
CONTINUOUS
 10
11.4749085923
 20
10.0196046618
 11
11.4699085923
 21
9.9996046618
  0
LINE
  5
3D1
100
AcDbEntity
  8
03__ASM_ALL_CURVES
100
AcDbLine
 62
4
  6
CONTINUOUS
 10
11.5549085923
 20
10.0196046618
 11
11.5499085923
 21
9.9996046618
  0
LINE
  5
3D2
100
AcDbEntity
  8
03__ASM_ALL_CURVES
100
AcDbLine
 62
4
  6
CONTINUOUS
 10
11.7099085923
 20
10.0529379967
 11
11.7149085923
 21
10.0662713269
  0
LINE
  5
3D3
100
AcDbEntity
  8
03__ASM_ALL_CURVES
100
AcDbLine
 62
4
  6
CONTINUOUS
 10
9.6399085923
 20
8.1046046618
 11
9.6532419249
 21
8.1096046618
  0
LINE
  5
3D4
100
AcDbEntity
  8
03__ASM_ALL_CURVES
100
AcDbLine
 62
4
  6
CONTINUOUS
 10
11.6699085923
 20
9.9996046618
 11
11.6624085923
 21
9.9996046618
  0
LINE
  5
3D5
100
AcDbEntity
  8
03__ASM_ALL_CURVES
100
AcDbLine
 62
4
  6
CONTINUOUS
 10
11.1749085923
 20
9.9996046618
 11
11.1649085923
 21
9.9996046618
  0
LINE
  5
3D6
100
AcDbEntity
  8
03__ASM_ALL_CURVES
100
AcDbLine
 62
4
  6
CONTINUOUS
 10
11.1099085923
 20
9.9996046618
 11
11.1024085923
 21
9.9996046618
  0
LINE
  5
3D7
100
AcDbEntity
  8
03__ASM_ALL_CURVES
100
AcDbLine
 62
4
  6
CONTINUOUS
 10
11.4699085923
 20
9.9996046618
 11
11.5099085923
 21
9.9996046618
  0
LINE
  5
3D8
100
AcDbEntity
  8
03__ASM_ALL_CURVES
100
AcDbLine
 62
4
  6
CONTINUOUS
 10
11.5499085923
 20
9.9996046618
 11
11.5899085923
 21
9.9996046618
  0
LINE
  5
3D9
100
AcDbEntity
  8
03__ASM_ALL_CURVES
100
AcDbLine
 62
4
  6
CONTINUOUS
 10
10.5699085923
 20
10.0396046618
 11
10.8099085923
 21
10.0396046618
  0
LINE
  5
3DA
100
AcDbEntity
  8
03__ASM_ALL_CURVES
100
AcDbLine
 62
4
  6
CONTINUOUS
 10
11.1649085923
 20
10.0462713269
 11
11.1749085923
 21
10.0462713269
  0
LINE
  5
3DB
100
AcDbEntity
  8
03__ASM_ALL_CURVES
100
AcDbLine
 62
4
  6
CONTINUOUS
 10
10.9999085923
 20
10.0062713287
 11
10.9949085923
 21
10.0129379955
  0
LINE
  5
3DC
100
AcDbEntity
  8
03__ASM_ALL_CURVES
100
AcDbLine
 62
4
  6
CONTINUOUS
 10
10.9949085923
 20
10.0129379955
 11
10.9899085923
 21
10.0262713293
  0
LINE
  5
3DD
100
AcDbEntity
  8
03__ASM_ALL_CURVES
100
AcDbLine
 62
4
  6
CONTINUOUS
 10
11.0249085923
 20
10.0662713269
 11
11.0299085923
 21
10.0529379967
  0
LINE
  5
3DE
100
AcDbEntity
  8
03__ASM_ALL_CURVES
100
AcDbLine
 62
4
  6
CONTINUOUS
 10
11.3999085923
 20
10.9212713269
 11
11.3999085923
 21
10.9079379943
  0
LINE
  5
3DF
100
AcDbEntity
  8
03__ASM_ALL_CURVES
100
AcDbLine
 62
4
  6
CONTINUOUS
 10
11.3999085923
 20
10.2962713269
 11
11.3999085923
 21
10.2829379943
  0
LINE
  5
3E0
100
AcDbEntity
  8
03__ASM_ALL_CURVES
100
AcDbLine
 62
4
  6
CONTINUOUS
 10
11.3999085923
 20
10.0462713269
 11
11.3999085923
 21
10.0329379943
  0
LINE
  5
3E1
100
AcDbEntity
  8
03__ASM_ALL_CURVES
100
AcDbLine
 62
4
  6
CONTINUOUS
 10
11.5049085923
 20
10.8746046618
 11
11.5049085923
 21
10.9546046618
  0
LINE
  5
3E2
100
AcDbEntity
  8
03__ASM_ALL_CURVES
100
AcDbLine
 62
4
  6
CONTINUOUS
 10
11.5099085923
 20
10.3162713269
 11
11.5099085923
 21
10.3029379967
  0
LINE
  5
3E3
100
AcDbEntity
  8
03__ASM_ALL_CURVES
100
AcDbLine
 62
4
  6
CONTINUOUS
 10
11.5099085923
 20
10.0662713269
 11
11.5099085923
 21
10.0529379967
  0
LINE
  5
3E4
100
AcDbEntity
  8
03__ASM_ALL_CURVES
100
AcDbLine
 62
4
  6
CONTINUOUS
 10
11.8999085923
 20
10.9079379943
 11
11.8949085923
 21
10.8879379955
  0
LINE
  5
3E5
100
AcDbEntity
  8
03__ASM_ALL_CURVES
100
AcDbLine
 62
4
  6
CONTINUOUS
 10
11.7499085923
 20
10.0262713293
 11
11.7449085923
 21
10.0129379955
  0
LINE
  5
3E6
100
AcDbEntity
  8
03__ASM_ALL_CURVES
100
AcDbLine
 62
4
  6
CONTINUOUS
 10
11.7899085923
 20
10.0529379967
 11
11.7949085923
 21
10.0662713269
  0
LINE
  5
3E7
100
AcDbEntity
  8
03__ASM_ALL_CURVES
100
AcDbLine
 62
4
  6
CONTINUOUS
 10
11.8299085923
 20
10.0529379967
 11
11.8249085923
 21
10.0396046618
  0
LINE
  5
3E8
100
AcDbEntity
  8
03__ASM_ALL_CURVES
100
AcDbLine
 62
4
  6
CONTINUOUS
 10
11.8299085923
 20
10.0262713293
 11
11.8249085923
 21
10.0129379955
  0
LINE
  5
3E9
100
AcDbEntity
  8
03__ASM_ALL_CURVES
100
AcDbLine
 62
4
  6
CONTINUOUS
 10
9.6132419272
 20
7.8596046618
 11
9.6265752574
 21
7.8646046618
  0
LINE
  5
3EA
100
AcDbEntity
  8
03__ASM_ALL_CURVES
100
AcDbLine
 62
4
  6
CONTINUOUS
 10
9.6665752586
 20
7.8296046618
 11
9.6532419249
 21
7.8246046618
  0
LINE
  5
3EB
100
AcDbEntity
  8
03__ASM_ALL_CURVES
100
AcDbLine
 62
4
  6
CONTINUOUS
 10
11.2699085923
 20
10.0796046618
 11
11.2299085923
 21
10.0796046618
  0
LINE
  5
3EC
100
AcDbEntity
  8
03__ASM_ALL_CURVES
100
AcDbLine
 62
4
  6
CONTINUOUS
 10
11.1649085923
 20
10.0796046618
 11
11.1749085923
 21
10.0796046618
  0
LINE
  5
3ED
100
AcDbEntity
  8
03__ASM_ALL_CURVES
100
AcDbLine
 62
4
  6
CONTINUOUS
 10
11.4849085923
 20
10.0796046618
 11
11.4949085923
 21
10.0796046618
  0
LINE
  5
3EE
100
AcDbEntity
  8
03__ASM_ALL_CURVES
100
AcDbLine
 62
4
  6
CONTINUOUS
 10
11.5649085923
 20
10.0796046618
 11
11.5749085923
 21
10.0796046618
  0
LINE
  5
3EF
100
AcDbEntity
  8
03__ASM_ALL_CURVES
100
AcDbLine
 62
4
  6
CONTINUOUS
 10
11.0099085923
 20
9.9996046618
 11
10.9999085923
 21
10.0062713287
  0
LINE
  5
3F0
100
AcDbEntity
  8
03__ASM_ALL_CURVES
100
AcDbLine
 62
4
  6
CONTINUOUS
 10
11.0099085923
 20
10.0796046618
 11
11.0199085923
 21
10.0729379967
  0
LINE
  5
3F1
100
AcDbEntity
  8
03__ASM_ALL_CURVES
100
AcDbLine
 62
4
  6
CONTINUOUS
 10
11.1649085923
 20
9.9996046618
 11
11.1549085923
 21
10.0062713287
  0
LINE
  5
3F2
100
AcDbEntity
  8
03__ASM_ALL_CURVES
100
AcDbLine
 62
4
  6
CONTINUOUS
 10
11.0199085923
 20
10.0729379967
 11
11.0249085923
 21
10.0662713269
  0
LINE
  5
3F3
100
AcDbEntity
  8
03__ASM_ALL_CURVES
100
AcDbLine
 62
4
  6
CONTINUOUS
 10
11.1024085923
 20
10.0096046621
 11
11.1099085923
 21
9.9996046618
  0
LINE
  5
3F4
100
AcDbEntity
  8
03__ASM_ALL_CURVES
100
AcDbLine
 62
4
  6
CONTINUOUS
 10
11.1549085923
 20
10.0062713287
 11
11.1449085923
 21
10.0196046618
  0
LINE
  5
3F5
100
AcDbEntity
  8
03__ASM_ALL_CURVES
100
AcDbLine
 62
4
  6
CONTINUOUS
 10
11.1549085923
 20
10.0529379967
 11
11.1499085923
 21
10.0596046618
  0
LINE
  5
3F6
100
AcDbEntity
  8
03__ASM_ALL_CURVES
100
AcDbLine
 62
4
  6
CONTINUOUS
 10
11.5449085923
 20
10.2696046618
 11
11.5449085923
 21
10.2762713293
  0
LINE
  5
3F7
100
AcDbEntity
  8
03__ASM_ALL_CURVES
100
AcDbLine
 62
4
  6
CONTINUOUS
 10
11.5499085923
 20
10.3096046618
 11
11.5499085923
 21
10.3162713269
  0
LINE
  5
3F8
100
AcDbEntity
  8
03__ASM_ALL_CURVES
100
AcDbLine
 62
4
  6
CONTINUOUS
 10
11.5849085923
 20
10.8746046618
 11
11.5849085923
 21
10.9546046618
  0
LINE
  5
3F9
100
AcDbEntity
  8
03__ASM_ALL_CURVES
100
AcDbLine
 62
4
  6
CONTINUOUS
 10
11.5899085923
 20
10.3162713269
 11
11.5899085923
 21
10.3096046618
  0
LINE
  5
3FA
100
AcDbEntity
  8
03__ASM_ALL_CURVES
100
AcDbLine
 62
4
  6
CONTINUOUS
 10
11.5899085923
 20
10.0662713269
 11
11.5899085923
 21
10.0529379967
  0
LINE
  5
3FB
100
AcDbEntity
  8
03__ASM_ALL_CURVES
100
AcDbLine
 62
4
  6
CONTINUOUS
 10
11.5949085923
 20
10.2762713293
 11
11.5949085923
 21
10.2696046618
  0
LINE
  5
3FC
100
AcDbEntity
  8
03__ASM_ALL_CURVES
100
AcDbLine
 62
4
  6
CONTINUOUS
 10
11.6624085923
 20
9.9996046618
 11
11.6624085923
 21
10.0096046621
  0
LINE
  5
3FD
100
AcDbEntity
  8
03__ASM_ALL_CURVES
100
AcDbLine
 62
4
  6
CONTINUOUS
 10
11.6624085923
 20
10.2496046618
 11
11.6624085923
 21
10.2596046621
  0
LINE
  5
3FE
100
AcDbEntity
  8
03__ASM_ALL_CURVES
100
AcDbLine
 62
4
  6
CONTINUOUS
 10
11.6624085923
 20
10.8746046618
 11
11.6624085923
 21
10.8846046621
  0
LINE
  5
3FF
100
AcDbEntity
  8
03__ASM_ALL_CURVES
100
AcDbLine
 62
4
  6
CONTINUOUS
 10
11.8999085923
 20
10.2829379943
 11
11.8949085923
 21
10.2629379955
  0
LINE
  5
400
100
AcDbEntity
  8
03__ASM_ALL_CURVES
100
AcDbLine
 62
4
  6
CONTINUOUS
 10
11.8999085923
 20
10.0329379943
 11
11.8949085923
 21
10.0129379955
  0
LINE
  5
401
100
AcDbEntity
  8
03__ASM_ALL_CURVES
100
AcDbLine
 62
4
  6
CONTINUOUS
 10
11.6699085923
 20
10.2496046618
 11
11.6624085923
 21
10.2496046618
  0
LINE
  5
402
100
AcDbEntity
  8
03__ASM_ALL_CURVES
100
AcDbLine
 62
4
  6
CONTINUOUS
 10
11.5749085923
 20
10.2496046618
 11
11.5649085923
 21
10.2496046618
  0
LINE
  5
403
100
AcDbEntity
  8
03__ASM_ALL_CURVES
100
AcDbLine
 62
4
  6
CONTINUOUS
 10
11.1099085923
 20
10.2496046618
 11
11.1024085923
 21
10.2496046618
  0
LINE
  5
404
100
AcDbEntity
  8
03__ASM_ALL_CURVES
100
AcDbLine
 62
4
  6
CONTINUOUS
 10
11.2299085923
 20
10.2496046618
 11
11.2699085923
 21
10.2496046618
  0
LINE
  5
405
100
AcDbEntity
  8
03__ASM_ALL_CURVES
100
AcDbLine
 62
4
  6
CONTINUOUS
 10
11.4699085923
 20
10.2496046618
 11
11.5099085923
 21
10.2496046618
  0
LINE
  5
406
100
AcDbEntity
  8
03__ASM_ALL_CURVES
100
AcDbLine
 62
4
  6
CONTINUOUS
 10
11.7099085923
 20
10.2696046618
 11
11.7549085923
 21
10.2696046618
  0
LINE
  5
407
100
AcDbEntity
  8
03__ASM_ALL_CURVES
100
AcDbLine
 62
4
  6
CONTINUOUS
 10
11.7899085923
 20
10.2696046618
 11
11.8349085923
 21
10.2696046618
  0
LINE
  5
408
100
AcDbEntity
  8
03__ASM_ALL_CURVES
100
AcDbLine
 62
4
  6
CONTINUOUS
 10
10.5699085923
 20
10.2896046618
 11
10.8099085923
 21
10.2896046618
  0
LINE
  5
409
100
AcDbEntity
  8
03__ASM_ALL_CURVES
100
AcDbLine
 62
4
  6
CONTINUOUS
 10
11.5649085923
 20
10.2962713269
 11
11.5749085923
 21
10.2962713269
  0
LINE
  5
40A
100
AcDbEntity
  8
03__ASM_ALL_CURVES
100
AcDbLine
 62
4
  6
CONTINUOUS
 10
11.2449085923
 20
10.3296046618
 11
11.2549085923
 21
10.3296046618
  0
LINE
  5
40B
100
AcDbEntity
  8
03__ASM_ALL_CURVES
100
AcDbLine
 62
4
  6
CONTINUOUS
 10
11.4849085923
 20
10.3296046618
 11
11.4949085923
 21
10.3296046618
  0
LINE
  5
40C
100
AcDbEntity
  8
03__ASM_ALL_CURVES
100
AcDbLine
 62
4
  6
CONTINUOUS
 10
11.5649085923
 20
10.3296046618
 11
11.5749085923
 21
10.3296046618
  0
LINE
  5
40D
100
AcDbEntity
  8
03__ASM_ALL_CURVES
100
AcDbLine
 62
4
  6
CONTINUOUS
 10
11.1649085923
 20
10.0462713269
 11
11.1549085923
 21
10.0529379967
  0
LINE
  5
40E
100
AcDbEntity
  8
03__ASM_ALL_CURVES
100
AcDbLine
 62
4
  6
CONTINUOUS
 10
11.1749085923
 20
10.0462713269
 11
11.1849085923
 21
10.0396046618
  0
LINE
  5
40F
100
AcDbEntity
  8
03__ASM_ALL_CURVES
100
AcDbLine
 62
4
  6
CONTINUOUS
 10
11.1749085923
 20
10.0796046618
 11
11.1849085923
 21
10.0729379967
  0
LINE
  5
410
100
AcDbEntity
  8
03__ASM_ALL_CURVES
100
AcDbLine
 62
4
  6
CONTINUOUS
 10
11.1849085923
 20
10.0396046618
 11
11.1949085923
 21
10.0262713293
  0
LINE
  5
411
100
AcDbEntity
  8
03__ASM_ALL_CURVES
100
AcDbLine
 62
4
  6
CONTINUOUS
 10
11.1849085923
 20
10.0729379967
 11
11.1899085923
 21
10.0662713269
  0
LINE
  5
412
100
AcDbEntity
  8
03__ASM_ALL_CURVES
100
AcDbLine
 62
4
  6
CONTINUOUS
 10
11.1024085923
 20
10.2596046621
 11
11.1099085923
 21
10.2496046618
  0
LINE
  5
413
100
AcDbEntity
  8
03__ASM_ALL_CURVES
100
AcDbLine
 62
4
  6
CONTINUOUS
 10
11.4049085923
 20
10.0129379955
 11
11.4149085923
 21
9.9996046618
  0
LINE
  5
414
100
AcDbEntity
  8
03__ASM_ALL_CURVES
100
AcDbLine
 62
4
  6
CONTINUOUS
 10
11.3999085923
 20
10.0329379943
 11
11.4049085923
 21
10.0129379955
  0
LINE
  5
415
100
AcDbEntity
  8
03__ASM_ALL_CURVES
100
AcDbLine
 62
4
  6
CONTINUOUS
 10
11.3999085923
 20
10.2829379943
 11
11.4049085923
 21
10.2629379955
  0
LINE
  5
416
100
AcDbEntity
  8
03__ASM_ALL_CURVES
100
AcDbLine
 62
4
  6
CONTINUOUS
 10
11.7099085923
 20
10.0262713293
 11
11.7099085923
 21
10.0529379967
  0
LINE
  5
417
100
AcDbEntity
  8
03__ASM_ALL_CURVES
100
AcDbLine
 62
4
  6
CONTINUOUS
 10
11.7449085923
 20
10.2496046618
 11
11.7449085923
 21
10.3296046618
  0
LINE
  5
418
100
AcDbEntity
  8
03__ASM_ALL_CURVES
100
AcDbLine
 62
4
  6
CONTINUOUS
 10
11.7449085923
 20
10.8746046618
 11
11.7449085923
 21
10.9546046618
  0
LINE
  5
419
100
AcDbEntity
  8
03__ASM_ALL_CURVES
100
AcDbLine
 62
4
  6
CONTINUOUS
 10
11.7499085923
 20
10.0529379967
 11
11.7499085923
 21
10.0262713293
  0
LINE
  5
41A
100
AcDbEntity
  8
03__ASM_ALL_CURVES
100
AcDbLine
 62
4
  6
CONTINUOUS
 10
11.8249085923
 20
10.2496046618
 11
11.8249085923
 21
10.3296046618
  0
LINE
  5
41B
100
AcDbEntity
  8
03__ASM_ALL_CURVES
100
AcDbLine
 62
4
  6
CONTINUOUS
 10
11.8249085923
 20
10.8746046618
 11
11.8249085923
 21
10.9546046618
  0
LINE
  5
41C
100
AcDbEntity
  8
03__ASM_ALL_CURVES
100
AcDbLine
 62
4
  6
CONTINUOUS
 10
11.8299085923
 20
10.0529379967
 11
11.8299085923
 21
10.0262713293
  0
LINE
  5
41D
100
AcDbEntity
  8
0
100
AcDbLine
 62
7
  6
CONTINUOUS
 10
8.8589085685
 20
10.4986046618
 11
8.8279085685
 21
10.4986046618
  0
LINE
  5
41E
100
AcDbEntity
  8
0
100
AcDbLine
 62
7
  6
CONTINUOUS
 10
10.4219085685
 20
10.4986046618
 11
10.4529085685
 21
10.4986046618
  0
LINE
  5
41F
100
AcDbEntity
  8
03__ASM_ALL_CURVES
100
AcDbLine
 62
4
  6
CONTINUOUS
 10
11.8099085923
 20
10.0329379943
 11
11.7949085923
 21
10.0396046618
  0
LINE
  5
420
100
AcDbEntity
  8
03__ASM_ALL_CURVES
100
AcDbLine
 62
4
  6
CONTINUOUS
 10
11.4949085923
 20
10.0796046618
 11
11.5049085923
 21
10.0729379967
  0
LINE
  5
421
100
AcDbEntity
  8
03__ASM_ALL_CURVES
100
AcDbLine
 62
4
  6
CONTINUOUS
 10
11.5749085923
 20
10.0796046618
 11
11.5849085923
 21
10.0729379967
  0
LINE
  5
422
100
AcDbEntity
  8
03__ASM_ALL_CURVES
100
AcDbLine
 62
4
  6
CONTINUOUS
 10
11.7299085923
 20
9.9996046618
 11
11.7199085923
 21
10.0062713287
  0
LINE
  5
423
100
AcDbEntity
  8
03__ASM_ALL_CURVES
100
AcDbLine
 62
4
  6
CONTINUOUS
 10
11.2549085923
 20
10.3296046618
 11
11.2649085923
 21
10.3229379967
  0
LINE
  5
424
100
AcDbEntity
  8
03__ASM_ALL_CURVES
100
AcDbLine
 62
4
  6
CONTINUOUS
 10
11.2649085923
 20
10.3229379967
 11
11.2699085923
 21
10.3162713269
  0
LINE
  5
425
100
AcDbEntity
  8
03__ASM_ALL_CURVES
100
AcDbLine
 62
4
  6
CONTINUOUS
 10
11.5049085923
 20
10.0729379967
 11
11.5099085923
 21
10.0662713269
  0
LINE
  5
426
100
AcDbEntity
  8
03__ASM_ALL_CURVES
100
AcDbLine
 62
4
  6
CONTINUOUS
 10
11.4049085923
 20
10.2629379955
 11
11.4149085923
 21
10.2496046618
  0
LINE
  5
427
100
AcDbEntity
  8
03__ASM_ALL_CURVES
100
AcDbLine
 62
4
  6
CONTINUOUS
 10
11.2699085923
 20
10.9146046618
 11
11.2749085923
 21
10.9012713293
  0
LINE
  5
428
100
AcDbEntity
  8
03__ASM_ALL_CURVES
100
AcDbLine
 62
4
  6
CONTINUOUS
 10
11.3999085923
 20
10.9079379943
 11
11.4049085923
 21
10.8879379955
  0
LINE
  5
429
100
AcDbEntity
  8
03__ASM_ALL_CURVES
100
AcDbLine
 62
4
  6
CONTINUOUS
 10
11.8999085923
 20
10.9212713269
 11
11.8999085923
 21
10.9079379943
  0
LINE
  5
42A
100
AcDbEntity
  8
03__ASM_ALL_CURVES
100
AcDbLine
 62
4
  6
CONTINUOUS
 10
11.8999085923
 20
10.2962713269
 11
11.8999085923
 21
10.2829379943
  0
LINE
  5
42B
100
AcDbEntity
  8
03__ASM_ALL_CURVES
100
AcDbLine
 62
4
  6
CONTINUOUS
 10
11.8999085923
 20
10.0462713269
 11
11.8999085923
 21
10.0329379943
  0
LINE
  5
42C
100
AcDbEntity
  8
03__ASM_ALL_CURVES
100
AcDbLine
 62
4
  6
CONTINUOUS
 10
11.8099085923
 20
9.9996046618
 11
11.7999085923
 21
10.0062713287
  0
LINE
  5
42D
100
AcDbEntity
  8
03__ASM_ALL_CURVES
100
AcDbLine
 62
4
  6
CONTINUOUS
 10
11.7299085923
 20
10.0796046618
 11
11.7399085923
 21
10.0729379967
  0
LINE
  5
42E
100
AcDbEntity
  8
03__ASM_ALL_CURVES
100
AcDbLine
 62
4
  6
CONTINUOUS
 10
11.8099085923
 20
10.0796046618
 11
11.8199085923
 21
10.0729379967
  0
LINE
  5
42F
100
AcDbEntity
  8
03__ASM_ALL_CURVES
100
AcDbLine
 62
4
  6
CONTINUOUS
 10
11.5649085923
 20
10.2496046618
 11
11.5549085923
 21
10.2562713287
  0
LINE
  5
430
100
AcDbEntity
  8
03__ASM_ALL_CURVES
100
AcDbLine
 62
4
  6
CONTINUOUS
 10
11.4949085923
 20
10.3296046618
 11
11.5049085923
 21
10.3229379967
  0
LINE
  5
431
100
AcDbEntity
  8
03__ASM_ALL_CURVES
100
AcDbLine
 62
4
  6
CONTINUOUS
 10
11.5649085923
 20
10.2962713269
 11
11.5549085923
 21
10.3029379967
  0
LINE
  5
432
100
AcDbEntity
  8
03__ASM_ALL_CURVES
100
AcDbLine
 62
4
  6
CONTINUOUS
 10
11.5749085923
 20
10.2962713269
 11
11.5849085923
 21
10.2896046618
  0
LINE
  5
433
100
AcDbEntity
  8
03__ASM_ALL_CURVES
100
AcDbLine
 62
4
  6
CONTINUOUS
 10
11.5749085923
 20
10.3296046618
 11
11.5849085923
 21
10.3229379967
  0
LINE
  5
434
100
AcDbEntity
  8
03__ASM_ALL_CURVES
100
AcDbLine
 62
4
  6
CONTINUOUS
 10
11.5849085923
 20
10.0729379967
 11
11.5899085923
 21
10.0662713269
  0
LINE
  5
435
100
AcDbEntity
  8
03__ASM_ALL_CURVES
100
AcDbLine
 62
4
  6
CONTINUOUS
 10
11.6624085923
 20
10.0096046621
 11
11.6699085923
 21
9.9996046618
  0
LINE
  5
436
100
AcDbEntity
  8
03__ASM_ALL_CURVES
100
AcDbLine
 62
4
  6
CONTINUOUS
 10
11.7199085923
 20
10.0062713287
 11
11.7149085923
 21
10.0129379955
  0
LINE
  5
437
100
AcDbEntity
  8
03__ASM_ALL_CURVES
100
AcDbLine
 62
4
  6
CONTINUOUS
 10
11.5049085923
 20
10.3229379967
 11
11.5099085923
 21
10.3162713269
  0
LINE
  5
438
100
AcDbEntity
  8
03__ASM_ALL_CURVES
100
AcDbLine
 62
4
  6
CONTINUOUS
 10
11.5549085923
 20
10.2562713287
 11
11.5449085923
 21
10.2696046618
  0
LINE
  5
439
100
AcDbEntity
  8
03__ASM_ALL_CURVES
100
AcDbLine
 62
4
  6
CONTINUOUS
 10
11.1024085923
 20
10.8846046621
 11
11.1099085923
 21
10.8746046618
  0
LINE
  5
43A
100
AcDbEntity
  8
03__ASM_ALL_CURVES
100
AcDbLine
 62
4
  6
CONTINUOUS
 10
11.5549085923
 20
10.3029379967
 11
11.5499085923
 21
10.3096046618
  0
LINE
  5
43B
100
AcDbEntity
  8
03__ASM_ALL_CURVES
100
AcDbLine
 62
4
  6
CONTINUOUS
 10
11.7399085923
 20
10.0729379967
 11
11.7449085923
 21
10.0662713269
  0
LINE
  5
43C
100
AcDbEntity
  8
03__ASM_ALL_CURVES
100
AcDbLine
 62
4
  6
CONTINUOUS
 10
11.5849085923
 20
10.2896046618
 11
11.5949085923
 21
10.2762713293
  0
LINE
  5
43D
100
AcDbEntity
  8
03__ASM_ALL_CURVES
100
AcDbLine
 62
4
  6
CONTINUOUS
 10
11.7999085923
 20
10.0062713287
 11
11.7949085923
 21
10.0129379955
  0
LINE
  5
43E
100
AcDbEntity
  8
03__ASM_ALL_CURVES
100
AcDbLine
 62
4
  6
CONTINUOUS
 10
11.5849085923
 20
10.3229379967
 11
11.5899085923
 21
10.3162713269
  0
LINE
  5
43F
100
AcDbEntity
  8
03__ASM_ALL_CURVES
100
AcDbLine
 62
4
  6
CONTINUOUS
 10
11.7149085923
 20
10.0129379955
 11
11.7099085923
 21
10.0262713293
  0
LINE
  5
440
100
AcDbEntity
  8
03__ASM_ALL_CURVES
100
AcDbLine
 62
4
  6
CONTINUOUS
 10
11.7449085923
 20
10.0662713269
 11
11.7499085923
 21
10.0529379967
  0
LINE
  5
441
100
AcDbEntity
  8
03__ASM_ALL_CURVES
100
AcDbLine
 62
4
  6
CONTINUOUS
 10
11.7949085923
 20
10.0396046618
 11
11.7899085923
 21
10.0529379967
  0
LINE
  5
442
100
AcDbEntity
  8
0
100
AcDbLine
 62
7
  6
CONTINUOUS
 10
9.2029085685
 20
10.8426046618
 11
10.0779085685
 21
10.8426046618
  0
LINE
  5
443
100
AcDbEntity
  8
0
100
AcDbLine
 62
7
  6
CONTINUOUS
 10
9.2029085685
 20
10.8736046618
 11
10.0779085685
 21
10.8736046618
  0
LINE
  5
444
100
AcDbEntity
  8
03__ASM_ALL_CURVES
100
AcDbLine
 62
4
  6
CONTINUOUS
 10
11.6699085923
 20
10.8746046618
 11
11.6624085923
 21
10.8746046618
  0
LINE
  5
445
100
AcDbEntity
  8
03__ASM_ALL_CURVES
100
AcDbLine
 62
4
  6
CONTINUOUS
 10
11.2549085923
 20
10.8746046618
 11
11.2449085923
 21
10.8746046618
  0
LINE
  5
446
100
AcDbEntity
  8
03__ASM_ALL_CURVES
100
AcDbLine
 62
4
  6
CONTINUOUS
 10
11.1099085923
 20
10.8746046618
 11
11.1024085923
 21
10.8746046618
  0
LINE
  5
447
100
AcDbEntity
  8
03__ASM_ALL_CURVES
100
AcDbLine
 62
4
  6
CONTINUOUS
 10
11.4699085923
 20
10.8946046618
 11
11.5149085923
 21
10.8946046618
  0
LINE
  5
448
100
AcDbEntity
  8
03__ASM_ALL_CURVES
100
AcDbLine
 62
4
  6
CONTINUOUS
 10
11.5499085923
 20
10.8946046618
 11
11.5949085923
 21
10.8946046618
  0
LINE
  5
449
100
AcDbEntity
  8
03__ASM_ALL_CURVES
100
AcDbLine
 62
4
  6
CONTINUOUS
 10
11.7099085923
 20
10.8946046618
 11
11.7549085923
 21
10.8946046618
  0
LINE
  5
44A
100
AcDbEntity
  8
03__ASM_ALL_CURVES
100
AcDbLine
 62
4
  6
CONTINUOUS
 10
11.7899085923
 20
10.8946046618
 11
11.8349085923
 21
10.8946046618
  0
LINE
  5
44B
100
AcDbEntity
  8
03__ASM_ALL_CURVES
100
AcDbLine
 62
4
  6
CONTINUOUS
 10
11.6624085923
 20
10.2596046621
 11
11.6699085923
 21
10.2496046618
  0
LINE
  5
44C
100
AcDbEntity
  8
03__ASM_ALL_CURVES
100
AcDbLine
 62
4
  6
CONTINUOUS
 10
11.8199085923
 20
10.0729379967
 11
11.8249085923
 21
10.0662713269
  0
LINE
  5
44D
100
AcDbEntity
  8
03__ASM_ALL_CURVES
100
AcDbLine
 62
4
  6
CONTINUOUS
 10
11.2349085923
 20
10.8812713287
 11
11.2299085923
 21
10.8879379955
  0
LINE
  5
44E
100
AcDbEntity
  8
03__ASM_ALL_CURVES
100
AcDbLine
 62
4
  6
CONTINUOUS
 10
11.8849085923
 20
10.0796046618
 11
11.8949085923
 21
10.0662713269
  0
LINE
  5
44F
100
AcDbEntity
  8
03__ASM_ALL_CURVES
100
AcDbLine
 62
4
  6
CONTINUOUS
 10
11.2649085923
 20
10.9212713269
 11
11.2699085923
 21
10.9146046618
  0
LINE
  5
450
100
AcDbEntity
  8
03__ASM_ALL_CURVES
100
AcDbLine
 62
4
  6
CONTINUOUS
 10
11.8249085923
 20
10.0662713269
 11
11.8299085923
 21
10.0529379967
  0
LINE
  5
451
100
AcDbEntity
  8
03__ASM_ALL_CURVES
100
AcDbLine
 62
4
  6
CONTINUOUS
 10
11.8949085923
 20
10.0662713269
 11
11.8999085923
 21
10.0462713269
  0
LINE
  5
452
100
AcDbEntity
  8
03__ASM_ALL_CURVES
100
AcDbLine
 62
4
  6
CONTINUOUS
 10
11.8949085923
 20
10.3162713269
 11
11.8999085923
 21
10.2962713269
  0
LINE
  5
453
100
AcDbEntity
  8
0
100
AcDbLine
 62
7
  6
CONTINUOUS
 10
10.4899085923
 20
10.9146046618
 11
8.7899085446
 21
10.9146046618
  0
LINE
  5
454
100
AcDbEntity
  8
03__ASM_ALL_CURVES
100
AcDbLine
 62
4
  6
CONTINUOUS
 10
10.5699085923
 20
10.9146046618
 11
10.8099085923
 21
10.9146046618
  0
LINE
  5
455
100
AcDbEntity
  8
03__ASM_ALL_CURVES
100
AcDbLine
 62
4
  6
CONTINUOUS
 10
11.2449085923
 20
10.9279379967
 11
11.2549085923
 21
10.9279379967
  0
LINE
  5
456
100
AcDbEntity
  8
03__ASM_ALL_CURVES
100
AcDbLine
 62
4
  6
CONTINUOUS
 10
11.2699085923
 20
10.9546046618
 11
11.2399085923
 21
10.9546046618
  0
LINE
  5
457
100
AcDbEntity
  8
03__ASM_ALL_CURVES
100
AcDbLine
 62
4
  6
CONTINUOUS
 10
11.1899085923
 20
10.9546046618
 11
11.1499085923
 21
10.9546046618
  0
LINE
  5
458
100
AcDbEntity
  8
03__ASM_ALL_CURVES
100
AcDbLine
 62
4
  6
CONTINUOUS
 10
11.2449085923
 20
10.8746046618
 11
11.2349085923
 21
10.8812713287
  0
LINE
  5
459
100
AcDbEntity
  8
03__ASM_ALL_CURVES
100
AcDbLine
 62
4
  6
CONTINUOUS
 10
11.2549085923
 20
10.9279379967
 11
11.2649085923
 21
10.9212713269
  0
LINE
  5
45A
100
AcDbEntity
  8
03__ASM_ALL_CURVES
100
AcDbLine
 62
4
  6
CONTINUOUS
 10
11.4049085923
 20
10.8879379955
 11
11.4149085923
 21
10.8746046618
  0
LINE
  5
45B
100
AcDbEntity
  8
03__ASM_ALL_CURVES
100
AcDbLine
 62
4
  6
CONTINUOUS
 10
11.8849085923
 20
10.3296046618
 11
11.8949085923
 21
10.3162713269
  0
LINE
  5
45C
100
AcDbEntity
  8
03__ASM_ALL_CURVES
100
AcDbLine
 62
4
  6
CONTINUOUS
 10
11.8949085923
 20
10.9412713269
 11
11.8999085923
 21
10.9212713269
  0
LINE
  5
45D
100
AcDbEntity
  8
03__ASM_ALL_CURVES
100
AcDbLine
 62
4
  6
CONTINUOUS
 10
11.6624085923
 20
10.8846046621
 11
11.6699085923
 21
10.8746046618
  0
LINE
  5
45E
100
AcDbEntity
  8
03__ASM_ALL_CURVES
100
AcDbLine
 62
4
  6
CONTINUOUS
 10
11.8849085923
 20
10.9546046618
 11
11.8949085923
 21
10.9412713269
  0
ARC
  5
45F
100
AcDbEntity
  8
0
100
AcDbCircle
 62
7
  6
CONTINUOUS
 10
9.2029085685
 20
9.5806046618
 40
0.375
100
AcDbArc
 50
180.0
 51
270.0
  0
ARC
  5
460
100
AcDbEntity
  8
0
100
AcDbCircle
 62
7
  6
CONTINUOUS
 10
9.2029085685
 20
9.5806046618
 40
0.344
100
AcDbArc
 50
180.0
 51
270.0
  0
ARC
  5
461
100
AcDbEntity
  8
0
100
AcDbCircle
 62
7
  6
CONTINUOUS
 10
9.2029085685
 20
10.4986046618
 40
0.375
100
AcDbArc
 50
90.0
 51
180.0
  0
ARC
  5
462
100
AcDbEntity
  8
0
100
AcDbCircle
 62
7
  6
CONTINUOUS
 10
9.2029085685
 20
10.4986046618
 40
0.344
100
AcDbArc
 50
90.0
 51
180.0
  0
CIRCLE
  5
463
100
AcDbEntity
  8
0
100
AcDbCircle
 62
7
  6
CONTINUOUS
 10
9.0369086429
 20
10.2896046618
 40
0.1095
  0
CIRCLE
  5
464
100
AcDbEntity
  8
0
100
AcDbCircle
 62
7
  6
CONTINUOUS
 10
9.0369086429
 20
10.2896046618
 40
0.094
  0
CIRCLE
  5
465
100
AcDbEntity
  8
0
100
AcDbCircle
 62
7
  6
CONTINUOUS
 10
9.0369085923
 20
10.2896046618
 40
0.0935
  0
ARC
  5
466
100
AcDbEntity
  8
0
100
AcDbCircle
 62
7
  6
CONTINUOUS
 10
10.0779085685
 20
9.5806046618
 40
0.375
100
AcDbArc
 50
270.0
 51
360.0
  0
ARC
  5
467
100
AcDbEntity
  8
0
100
AcDbCircle
 62
7
  6
CONTINUOUS
 10
10.0779085685
 20
9.5806046618
 40
0.344
100
AcDbArc
 50
270.0
 51
360.0
  0
CIRCLE
  5
468
100
AcDbEntity
  8
0
100
AcDbCircle
 62
7
  6
CONTINUOUS
 10
9.6399085685
 20
10.0396046618
 40
0.4820000091
  0
CIRCLE
  5
469
100
AcDbEntity
  8
0
100
AcDbCircle
 62
7
  6
CONTINUOUS
 10
9.6399085685
 20
10.0396046618
 40
0.4305
  0
CIRCLE
  5
46A
100
AcDbEntity
  8
0
100
AcDbCircle
 62
7
  6
CONTINUOUS
 10
9.6399085685
 20
10.0396046618
 40
0.4175
  0
CIRCLE
  5
46B
100
AcDbEntity
  8
0
100
AcDbCircle
 62
7
  6
CONTINUOUS
 10
9.6399085685
 20
10.0396046618
 40
0.407
  0
CIRCLE
  5
46C
100
AcDbEntity
  8
0
100
AcDbCircle
 62
7
  6
CONTINUOUS
 10
9.6399085685
 20
10.0396046618
 40
0.367
  0
CIRCLE
  5
46D
100
AcDbEntity
  8
0
100
AcDbCircle
 62
7
  6
CONTINUOUS
 10
9.6399085685
 20
10.0396046618
 40
0.3445
  0
CIRCLE
  5
46E
100
AcDbEntity
  8
0
100
AcDbCircle
 62
7
  6
CONTINUOUS
 10
9.6399085685
 20
10.0396046618
 40
0.2655
  0
CIRCLE
  5
46F
100
AcDbEntity
  8
0
100
AcDbCircle
 62
7
  6
CONTINUOUS
 10
9.6399085685
 20
10.0396046618
 40
0.211
  0
ARC
  5
470
100
AcDbEntity
  8
0
100
AcDbCircle
 62
7
  6
CONTINUOUS
 10
10.0779085685
 20
10.4986046618
 40
0.375
100
AcDbArc
 50
0.0
 51
90.0
  0
ARC
  5
471
100
AcDbEntity
  8
0
100
AcDbCircle
 62
7
  6
CONTINUOUS
 10
10.0779085685
 20
10.4986046618
 40
0.344
100
AcDbArc
 50
0.0
 51
90.0
  0
SPLINE
  5
472
100
AcDbEntity
  8
0
100
AcDbSpline
 62
7
  6
CONTINUOUS
 70
0
 71
3
 72
8
 73
4
 74
2
 42
0.0000001
 43
0.0000001
 44
0.0000000001
 12
-0.0057102416
 22
0.0039688283
 32
0.0
 13
-0.0056485557
 23
0.0040562767
 33
0.0
 40
0.0
 40
0.0
 40
0.0
 40
0.0
 40
1.0
 40
1.0
 40
1.0
 40
1.0
 10
9.6559447249
 20
9.7747049
 30
0.0
 10
9.654041311
 20
9.7760278428
 30
0.0
 10
9.6521477929
 20
9.7773651
 30
0.0
 10
9.650264941
 20
9.7787171922
 30
0.0
 11
9.6559447249
 21
9.7747049
 31
0.0
 11
9.650264941
 21
9.7787171922
 31
0.0
  0
SPLINE
  5
473
100
AcDbEntity
  8
0
100
AcDbSpline
 62
7
  6
CONTINUOUS
 70
0
 71
3
 72
8
 73
4
 74
2
 42
0.0000001
 43
0.0000001
 44
0.0000000001
 12
-0.0056307852
 22
0.0043251248
 32
0.0
 13
-0.0053287836
 23
0.0046947497
 33
0.0
 40
0.0
 40
0.0
 40
0.0
 40
0.0
 40
1.0
 40
1.0
 40
1.0
 40
1.0
 10
9.639398296
 20
9.7867847096
 30
0.0
 10
9.6375213676
 20
9.7882264179
 30
0.0
 10
9.6356921018
 20
9.7897314589
 30
0.0
 10
9.6339158405
 20
9.7912963755
 30
0.0
 11
9.639398296
 21
9.7867847096
 31
0.0
 11
9.6339158405
 21
9.7912963755
 31
0.0
  0
SPLINE
  5
474
100
AcDbEntity
  8
0
100
AcDbSpline
 62
7
  6
CONTINUOUS
 70
0
 71
3
 72
14
 73
10
 74
8
 42
0.0000001
 43
0.0000001
 44
0.0000000001
 12
-0.0369979192
 22
0.0325958012
 32
0.0
 13
-0.017517921
 23
0.04607917
 33
0.0
 40
0.0
 40
0.0
 40
0.0
 40
0.0
 40
0.1437852735
 40
0.2872970685
 40
0.430513475
 40
0.5734118869
 40
0.7159722466
 40
0.8581765802
 40
1.0
 40
1.0
 40
1.0
 40
1.0
 10
9.6339158405
 20
9.7912963755
 30
0.0
 10
9.6321425886
 20
9.7928586409
 30
0.0
 10
9.6287050073
 20
9.7960994324
 30
0.0
 10
9.6238952014
 20
9.8012946385
 30
0.0
 10
9.6194613371
 20
9.8067954588
 30
0.0
 10
9.6154262858
 20
9.8125761932
 30
0.0
 10
9.6118113236
 20
9.8186093312
 30
0.0
 10
9.6086361242
 20
9.8248649395
 30
0.0
 10
9.6068212273
 20
9.8291698662
 30
0.0
 10
9.6059930768
 20
9.8313482347
 30
0.0
 11
9.6339158405
 21
9.7912963755
 31
0.0
 11
9.6287587999
 21
9.7961591639
 31
0.0
 11
9.6239530989
 21
9.8013510884
 31
0.0
 11
9.6195231072
 21
9.8068483778
 31
0.0
 11
9.6154917773
 21
9.8126252535
 31
0.0
 11
9.6118803674
 21
9.8186541108
 31
0.0
 11
9.6087082875
 21
9.8249055851
 31
0.0
 11
9.6059930768
 21
9.8313482347
 31
0.0
  0
SPLINE
  5
475
100
AcDbEntity
  8
0
100
AcDbSpline
 62
7
  6
CONTINUOUS
 70
0
 71
3
 72
10
 73
6
 74
4
 42
0.0000001
 43
0.0000001
 44
0.0000000001
 12
0.0525459869
 22
-0.0161675515
 32
0.0
 13
0.0523465359
 23
-0.0168021048
 33
0.0
 40
0.0
 40
0.0
 40
0.0
 40
0.0
 40
0.3143875841
 40
0.6483293632
 40
1.0
 40
1.0
 40
1.0
 40
1.0
 10
9.828269454
 20
9.9445195587
 30
0.0
 10
9.8337760559
 20
9.9428252663
 30
0.0
 10
9.8451250292
 20
9.9393093883
 30
0.0
 10
9.8626085271
 20
9.9338176684
 30
0.0
 10
9.8745798029
 20
9.930003033
 30
0.0
 10
9.8807160494
 20
9.9280334307
 30
0.0
 11
9.828269454
 21
9.9445195587
 31
0.0
 11
9.8447794635
 21
9.9394049509
 31
0.0
 11
9.8622948572
 21
9.9339033003
 31
0.0
 11
9.8807160494
 21
9.9280334307
 31
0.0
  0
SPLINE
  5
476
100
AcDbEntity
  8
0
100
AcDbSpline
 62
7
  6
CONTINUOUS
 70
0
 71
3
 72
8
 73
4
 74
2
 42
0.0000001
 43
0.0000001
 44
0.0000000001
 12
-0.0001528996
 22
0.0001061798
 32
0.0
 13
-0.0001528571
 23
0.0001062413
 33
0.0
 40
0.0
 40
0.0
 40
0.0
 40
0.0
 40
1.0
 40
1.0
 40
1.0
 40
1.0
 10
9.6560976027
 20
9.7745986898
 30
0.0
 10
9.6560466362
 20
9.7746340831
 30
0.0
 10
9.6559956767
 20
9.7746694866
 30
0.0
 10
9.6559447244
 20
9.7747049004
 30
0.0
 11
9.6560976027
 21
9.7745986898
 31
0.0
 11
9.6559447244
 21
9.7747049004
 31
0.0
  0
SPLINE
  5
477
100
AcDbEntity
  8
0
100
AcDbSpline
 62
7
  6
CONTINUOUS
 70
0
 71
3
 72
8
 73
4
 74
2
 42
0.0000001
 43
0.0000001
 44
0.0000000001
 12
-0.0055930261
 22
0.0040164004
 32
0.0
 13
-0.0055280471
 23
0.0041053841
 33
0.0
 40
0.0
 40
0.0
 40
0.0
 40
0.0
 40
1.0
 40
1.0
 40
1.0
 40
1.0
 10
9.650264941
 20
9.7787171922
 30
0.0
 10
9.6484005989
 20
9.7800559924
 30
0.0
 10
9.6465467144
 20
9.7814093374
 30
0.0
 10
9.644704032
 20
9.7827777987
 30
0.0
 11
9.650264941
 21
9.7787171922
 31
0.0
 11
9.644704032
 21
9.7827777987
 31
0.0
  0
SPLINE
  5
478
100
AcDbEntity
  8
0
100
AcDbSpline
 62
7
  6
CONTINUOUS
 70
0
 71
3
 72
8
 73
4
 74
2
 42
0.0000001
 43
0.0000001
 44
0.0000000001
 12
-0.0053378697
 22
0.0039641496
 32
0.0
 13
-0.0052728026
 23
0.0040501509
 33
0.0
 40
0.0
 40
0.0
 40
0.0
 40
0.0
 40
1.0
 40
1.0
 40
1.0
 40
1.0
 10
9.644704032
 20
9.7827777987
 30
0.0
 10
9.6429247421
 20
9.7840991819
 30
0.0
 10
9.6411558969
 20
9.7854346593
 30
0.0
 10
9.639398296
 20
9.7867847096
 30
0.0
 11
9.644704032
 21
9.7827777987
 31
0.0
 11
9.639398296
 21
9.7867847096
 31
0.0
  0
SPLINE
  5
479
100
AcDbEntity
  8
0
100
AcDbSpline
 62
7
  6
CONTINUOUS
 70
0
 71
3
 72
14
 73
10
 74
8
 42
0.0000001
 43
0.0000001
 44
0.0000000001
 12
-0.0391807056
 22
0.0300955259
 32
0.0
 13
-0.0207933107
 23
0.0448307924
 33
0.0
 40
0.0
 40
0.0
 40
0.0
 40
0.0
 40
0.1437116072
 40
0.2871769088
 40
0.4303715809
 40
0.5732718453
 40
0.7158552198
 40
0.8581014231
 40
1.0
 40
1.0
 40
1.0
 40
1.0
 10
9.639398296
 20
9.7867847096
 30
0.0
 10
9.6375213886
 20
9.7882264017
 30
0.0
 10
9.6338660319
 20
9.7912338692
 30
0.0
 10
9.6287051947
 20
9.7960992487
 30
0.0
 10
9.6238954664
 20
9.8012943354
 30
0.0
 10
9.6194616349
 20
9.8067950652
 30
0.0
 10
9.615426597
 20
9.8125757157
 30
0.0
 10
9.6118115687
 20
9.8186088818
 30
0.0
 10
9.6096919381
 20
9.8227848146
 30
0.0
 10
9.6087084244
 20
9.8249052899
 30
0.0
 11
9.639398296
 21
9.7867847096
 31
0.0
 11
9.6339159002
 21
9.7912963229
 31
0.0
 11
9.6287590105
 21
9.7961589514
 31
0.0
 11
9.6239533654
 21
9.8013507799
 31
0.0
 11
9.6195234072
 21
9.8068479781
 31
0.0
 11
9.615492088
 21
9.8126247735
 31
0.0
 11
9.6118806754
 21
9.8186535533
 31
0.0
 11
9.6087084244
 21
9.8249052899
 31
0.0
  0
SPLINE
  5
47A
100
AcDbEntity
  8
0
100
AcDbSpline
 62
7
  6
CONTINUOUS
 70
0
 71
3
 72
8
 73
4
 74
2
 42
0.0000001
 43
0.0000001
 44
0.0000000001
 12
-0.0029426439
 22
0.006344399
 32
0.0
 13
-0.002484567
 23
0.0065354094
 33
0.0
 40
0.0
 40
0.0
 40
0.0
 40
0.0
 40
1.0
 40
1.0
 40
1.0
 40
1.0
 10
9.6087084244
 20
9.8249052899
 30
0.0
 10
9.6077275431
 20
9.8270200895
 30
0.0
 10
9.6068212658
 20
9.8291697649
 30
0.0
 10
9.6059930768
 20
9.8313482347
 30
0.0
 11
9.6087084244
 21
9.8249052899
 31
0.0
 11
9.6059930768
 21
9.8313482347
 31
0.0
  0
SPLINE
  5
47B
100
AcDbEntity
  8
0
100
AcDbSpline
 62
7
  6
CONTINUOUS
 70
0
 71
3
 72
14
 73
10
 74
8
 42
0.0000001
 43
0.0000001
 44
0.0000000001
 12
0.0173877761
 22
0.0554130227
 32
0.0
 13
0.0
 23
0.0580721933
 33
0.0
 40
0.0
 40
0.0
 40
0.0
 40
0.0
 40
0.0853653068
 40
0.2409465991
 40
0.3959181185
 40
0.5497832971
 40
0.7020581966
 40
0.8522773851
 40
1.0
 40
1.0
 40
1.0
 40
1.0
 10
9.7918824086
 20
9.8219515181
 30
0.0
 10
9.7923771796
 20
9.8235283014
 30
0.0
 10
9.7937192299
 20
9.827995916
 30
0.0
 10
9.7956703542
 20
9.8354099668
 30
0.0
 10
9.797567652
 20
9.8442005052
 30
0.0
 10
9.7990546723
 20
9.8530048156
 30
0.0
 10
9.800123655
 20
9.8617770952
 30
0.0
 10
9.8007690125
 20
9.8704713433
 30
0.0
 10
9.8009159433
 20
9.8762396546
 30
0.0
 10
9.8009159433
 20
9.87909918
 30
0.0
 11
9.7918824086
 21
9.8219515181
 31
0.0
 11
9.7933087224
 21
9.82669955
 31
0.0
 11
9.7956076703
 21
9.8354371186
 31
0.0
 11
9.7975052593
 21
9.8442343229
 31
0.0
 11
9.7989915593
 21
9.8530451283
 31
0.0
 11
9.8000587928
 21
9.8618234285
 31
0.0
 11
9.800701375
 21
9.8705232876
 31
0.0
 11
9.8009159433
 21
9.87909918
 31
0.0
  0
SPLINE
  5
47C
100
AcDbEntity
  8
0
100
AcDbSpline
 62
7
  6
CONTINUOUS
 70
0
 71
3
 72
8
 73
4
 74
2
 42
0.0000001
 43
0.0000001
 44
0.0000000001
 12
0.0000973491
 22
-0.000031247
 32
0.0
 13
0.0000973484
 23
-0.0000312491
 33
0.0
 40
0.0
 40
0.0
 40
0.0
 40
0.0
 40
1.0
 40
1.0
 40
1.0
 40
1.0
 10
9.8807160488
 20
9.9280334309
 30
0.0
 10
9.8807484985
 20
9.9280230152
 30
0.0
 10
9.8807809481
 20
9.9280125992
 30
0.0
 10
9.8808133976
 20
9.9280021828
 30
0.0
 11
9.8807160488
 21
9.9280334309
 31
0.0
 11
9.8808133976
 21
9.9280021828
 31
0.0
  0
SPLINE
  5
47D
100
AcDbEntity
  8
0
100
AcDbSpline
 62
7
  6
CONTINUOUS
 70
0
 71
3
 72
10
 73
6
 74
4
 42
0.0000001
 43
0.0000001
 44
0.0000000001
 12
0.0032505161
 22
-0.022129495
 32
0.0
 13
-0.0
 23
-0.0223669489
 33
0.0
 40
0.0
 40
0.0
 40
0.0
 40
0.0
 40
0.3260104042
 40
0.6595581483
 40
1.0
 40
1.0
 40
1.0
 40
1.0
 10
9.7993404654
 20
9.9013929755
 30
0.0
 10
9.7996936995
 20
9.8989881603
 30
0.0
 10
9.8002804467
 20
9.8941032974
 30
0.0
 10
9.8008022929
 20
9.8866633125
 30
0.0
 10
9.8009159433
 20
9.8816373952
 30
0.0
 10
9.8009159433
 20
9.87909918
 30
0.0
 11
9.7993404654
 21
9.9013929755
 31
0.0
 11
9.8002144796
 21
9.8941536873
 31
0.0
 11
9.8007403895
 21
9.8867118016
 31
0.0
 11
9.8009159433
 21
9.87909918
 31
0.0
  0
ENDSEC
  0
SECTION
  2
OBJECTS
  0
DICTIONARY
  5
C
100
AcDbDictionary
280
0
281
1
  3
ACAD_GROUP
350
D
  3
ACAD_MLINESTYLE
350
17
  3
ACAD_LAYOUT
350
1A
  3
ACAD_PLOTSETTINGS
350
19
  3
ACAD_PLOTSTYLENAME
350
E
  0
DICTIONARY
  5
D
102
{ACAD_REACTORS
330
C
102
}
100
AcDbDictionary
280
0
281
1
  0
ACDBDICTIONARYWDFLT
  5
E
102
{ACAD_REACTORS
330
C
102
}
100
AcDbDictionary
281
1
  3
Normal
350
F
100
AcDbDictionaryWithDefault
340
F
  0
DICTIONARY
  5
17
102
{ACAD_REACTORS
330
C
102
}
100
AcDbDictionary
280
0
281
1
  3
Standard
350
18
  0
DICTIONARY
  5
19
102
{ACAD_REACTORS
330
C
102
}
100
AcDbDictionary
281
1
  0
DICTIONARY
  5
1A
102
{ACAD_REACTORS
330
C
102
}
100
AcDbDictionary
281
1
  3
Layout1
350
1E
  3
Model
350
22
  0
ACDBPLACEHOLDER
  5
F
102
{ACAD_REACTORS
330
E
102
}
  0
MLINESTYLE
  5
18
102
{ACAD_REACTORS
330
17
102
}
100
AcDbMlineStyle
  2
STANDARD
 70
0
  3

 62
256
 51
90.0
 52
90.0
 71
2
 49
0.5
 62
256
  6
BYLAYER
 49
-0.5
 62
256
  6
BYLAYER
  0
LAYOUT
  5
1E
102
{ACAD_REACTORS
330
1A
102
}
100
AcDbPlotSettings
  1

  2

  4

  6

 40
0.0
 41
0.0
 42
0.0
 43
0.0
 44
0.0
 45
0.0
 46
0.0
 47
0.0
 48
0.0
 49
0.0
140
0.0
141
0.0
142
1.0
143
1.0
 70
0
 72
0
 73
0
 74
0
  7

 75
0
147
1.0
148
0.0
149
0.0
100
AcDbLayout
  1
Layout1
 70
0
 71
0
 10
0.0
 20
0.0
 11
0.0
 21
0.0
 12
0.0
 22
0.0
 32
0.0
 14
0.0
 24
0.0
 34
0.0
 15
0.0
 25
0.0
 35
0.0
146
0.0
 13
0.0
 23
0.0
 33
0.0
 16
0.0
 26
0.0
 36
0.0
 17
0.0
 27
0.0
 37
0.0
 76
0
330
1B
331
0
345
0
346
0
  0
LAYOUT
  5
22
102
{ACAD_REACTORS
330
1A
102
}
100
AcDbPlotSettings
  1

  2

  4

  6

 40
0.0
 41
0.0
 42
0.0
 43
0.0
 44
0.0
 45
0.0
 46
0.0
 47
0.0
 48
0.0
 49
0.0
140
0.0
141
0.0
142
1.0
143
1.0
 70
0
 72
0
 73
0
 74
0
  7

 75
0
147
1.0
148
0.0
149
0.0
100
AcDbLayout
  1
Model
 70
0
 71
0
 10
0.0
 20
0.0
 11
0.0
 21
0.0
 12
0.0
 22
0.0
 32
0.0
 14
0.0
 24
0.0
 34
0.0
 15
0.0
 25
0.0
 35
0.0
146
0.0
 13
0.0
 23
0.0
 33
0.0
 16
0.0
 26
0.0
 36
0.0
 17
0.0
 27
0.0
 37
0.0
 76
0
330
1F
331
0
345
0
346
0
  0
ENDSEC
  0
EOF
