999
DXF file: VFX_assy_2.dxf
999
Pro/ENGINEER 2014200 by Parametric Technology Corporation
  0
SECTION
  2
HEADER
  9
$ACADVER
  1
AC1021
  9
$DWGCODEPAGE
  3
ANSI_1252
  9
$EXTMAX
 10
22.0
 20
17.0
 30
0.0
  9
$EXTMIN
 10
0.0
 20
0.0
 30
0.0
  9
$LIMMIN
 10
0.0
 20
0.0
  9
$LIMMAX
 10
22.0
 20
17.0
  9
$VIEWCTR
 10
11.0
 20
8.5
  9
$VIEWSIZE
 40
17.0
  9
$CLAYER
  8
0
  9
$LTSCALE
 40
1.21
  9
$CELTYPE
  6
BYLAYER
  9
$DIMSCALE
 40
1.0
  9
$DIMASZ
 40
0.1875
  9
$DIMEXO
 40
0.0625
  9
$DIMDLI
 40
0.836
  9
$DIMEXE
 40
0.125
  9
$DIMCEN
 40
0.198
  9
$DIMLFAC
 40
1.0
  9
$DIMBLK
  1
_FILLED
  9
$DIMTXT
 40
0.1
  9
$DIMTOL
 70
0
  9
$DIMLIM
 70
0
  9
$DIMTFAC
 40
1.0
  9
$DIMGAP
 40
0.09
  9
$DIMDSEP
 70
46
  9
$AUNITS
 70
0
  9
$PDMODE
 70
3
  9
$PDSIZE
 40
0.3125
  9
$HANDSEED
  5
38E
  9
$TILEMODE
 70
1
  9
$MEASUREMENT
 70
0
  9
$INSUNITS
 70
1
  0
ENDSEC
  0
SECTION
  2
CLASSES
  0
CLASS
  1
ACDBDICTIONARYWDFLT
  2
AcDbDictionaryWithDefault
  3
AutoCAD 2000
 90
0
 91
1
280
0
281
0
  0
CLASS
  1
ACDBPLACEHOLDER
  2
AcDbPlaceHolder
  3
AutoCAD 2000
 90
0
 91
1
280
0
281
0
  0
CLASS
  1
LAYOUT
  2
AcDbLayout
  3
AutoCAD 2000
 90
0
 91
0
280
0
281
0
  0
CLASS
  1
RASTERVARIABLES
  2
AcDbRasterVariables
  3
ISM
 90
0
 91
1
280
0
281
0
  0
CLASS
  1
IMAGEDEF
  2
AcDbRasterImageDef
  3
ISM
 90
0
 91
1
280
0
281
0
  0
CLASS
  1
IMAGEDEF_REACTOR
  2
AcDbRasterImageDefReactor
  3
ISM
 90
0
 91
1
280
0
281
0
  0
CLASS
  1
IMAGE
  2
AcDbRasterImage
  3
ISM
 90
127
 91
1
280
0
281
1
  0
CLASS
  1
TABLESTYLE
  2
AcDbTableStyle
  3
ObjectDBX Classes
 90
2047
 91
1
280
0
281
0
  0
CLASS
  1
ACAD_TABLE
  2
AcDbTable
  3
ObjectDBX Classes
 90
1025
 91
3
280
0
281
1
  0
ENDSEC
  0
SECTION
  2
TABLES
  0
TABLE
  2
VPORT
  5
8
100
AcDbSymbolTable
 70
2
  0
VPORT
  5
1F4
100
AcDbSymbolTableRecord
100
AcDbViewportTableRecord
  2
*ACTIVE
 70
0
 10
0.0
 20
0.0
 11
1.0
 21
1.0
 12
11.0
 22
8.5
 13
0.0
 23
0.0
 14
1.0
 24
1.0
 15
0.0
 25
0.0
 16
0.0
 26
0.0
 36
1.0
 17
0.0
 27
0.0
 37
0.0
 40
17.0
 41
1.2941176471
 42
50.0
 43
0.0
 44
0.0
 50
0.0
 51
0.0
 71
0
 72
100
 73
1
 74
1
 75
0
 76
0
 77
0
 78
0
  0
ENDTAB
  0
TABLE
  2
LTYPE
  5
5
100
AcDbSymbolTable
 70
6
  0
LTYPE
  5
14
100
AcDbSymbolTableRecord
100
AcDbLinetypeTableRecord
  2
BYBLOCK
 70
0
  3

 72
65
 73
0
 40
0.0
  0
LTYPE
  5
15
100
AcDbSymbolTableRecord
100
AcDbLinetypeTableRecord
  2
BYLAYER
 70
0
  3

 72
65
 73
0
 40
0.0
  0
LTYPE
  5
16
100
AcDbSymbolTableRecord
100
AcDbLinetypeTableRecord
  2
CONTINUOUS
 70
64
  3
Solid line
 72
65
 73
0
 40
0.0
  0
LTYPE
  5
1F5
100
AcDbSymbolTableRecord
100
AcDbLinetypeTableRecord
  2
CENTER
 70
64
  3
____ _ ____ _ ____ _ ____ _ ____ _ ____ _ ____
 72
65
 73
4
 40
0.6
 49
0.375
 74
0
 49
-0.075
 74
0
 49
0.075
 74
0
 49
-0.075
 74
0
  0
LTYPE
  5
1F6
100
AcDbSymbolTableRecord
100
AcDbLinetypeTableRecord
  2
HIDDEN
 70
64
  3
- - - - - - - - - - - - - - - - - - - -
 72
65
 73
2
 40
0.2
 49
0.1
 74
0
 49
-0.1
 74
0
  0
LTYPE
  5
1F7
100
AcDbSymbolTableRecord
100
AcDbLinetypeTableRecord
  2
PHANTOM
 70
64
  3
_____ _ _ _____ _ _ _____ _ _ _____
 72
65
 73
6
 40
0.8
 49
0.45
 74
0
 49
-0.05
 74
0
 49
0.1
 74
0
 49
-0.05
 74
0
 49
0.1
 74
0
 49
-0.05
 74
0
  0
LTYPE
  5
1F8
100
AcDbSymbolTableRecord
100
AcDbLinetypeTableRecord
  2
DOT
 70
64
  3
. . . . . . . . . . . . . . . . . . . .
 72
65
 73
2
 40
0.2
 49
0.1
 74
0
 49
-0.1
 74
0
  0
LTYPE
  5
1F9
100
AcDbSymbolTableRecord
100
AcDbLinetypeTableRecord
  2
DASHED
 70
64
  3
- - - - - - - - - - - - - - - - - - - -
 72
65
 73
2
 40
0.2
 49
0.1
 74
0
 49
-0.1
 74
0
  0
ENDTAB
  0
TABLE
  2
LAYER
  5
2
100
AcDbSymbolTable
 70
36
  0
LAYER
  5
10
100
AcDbSymbolTableRecord
100
AcDbLayerTableRecord
  2
0
 70
0
 62
7
  6
CONTINUOUS
370
-3
390
F
  0
LAYER
  5
1FA
100
AcDbSymbolTableRecord
100
AcDbLayerTableRecord
  2
DEFAULT_1
 70
0
 62
7
  6
CENTER
370
-3
390
F
  0
LAYER
  5
1FB
100
AcDbSymbolTableRecord
100
AcDbLayerTableRecord
  2
DEFAULT_2
 70
0
 62
8
  6
HIDDEN
370
-3
390
F
  0
LAYER
  5
1FC
100
AcDbSymbolTableRecord
100
AcDbLayerTableRecord
  2
DEFAULT_3
 70
0
 62
7
  6
PHANTOM
370
-3
390
F
  0
LAYER
  5
1FD
100
AcDbSymbolTableRecord
100
AcDbLayerTableRecord
  2
DATUM_PLANES
 70
0
 62
7
  6
CONTINUOUS
370
-3
390
F
  0
LAYER
  5
1FE
100
AcDbSymbolTableRecord
100
AcDbLayerTableRecord
  2
DIMENSIONS
 70
0
 62
7
  6
CONTINUOUS
370
-3
390
F
  0
LAYER
  5
1FF
100
AcDbSymbolTableRecord
100
AcDbLayerTableRecord
  2
DTM_500001
 70
0
 62
7
  6
CONTINUOUS
370
-3
390
F
  0
LAYER
  5
200
100
AcDbSymbolTableRecord
100
AcDbLayerTableRecord
  2
PARAMETERDIMENSIONS
 70
0
 62
7
  6
CONTINUOUS
370
-3
390
F
  0
LAYER
  5
201
100
AcDbSymbolTableRecord
100
AcDbLayerTableRecord
  2
PORT_AREAS
 70
0
 62
7
  6
CONTINUOUS
370
-3
390
F
  0
LAYER
  5
202
100
AcDbSymbolTableRecord
100
AcDbLayerTableRecord
  2
SUNNBOMCOSMETIC
 70
0
 62
7
  6
CONTINUOUS
370
-3
390
F
  0
LAYER
  5
203
100
AcDbSymbolTableRecord
100
AcDbLayerTableRecord
  2
SUNNBOMSTAMPING
 70
0
 62
7
  6
CONTINUOUS
370
-3
390
F
  0
LAYER
  5
204
100
AcDbSymbolTableRecord
100
AcDbLayerTableRecord
  2
THREADS
 70
0
 62
7
  6
CONTINUOUS
370
-3
390
F
  0
ENDTAB
  0
TABLE
  2
STYLE
  5
3
100
AcDbSymbolTable
 70
1
  0
STYLE
  5
11
100
AcDbSymbolTableRecord
100
AcDbTextStyleTableRecord
  2
STANDARD
 70
0
 40
0.0
 41
0.8
 50
0.0
 71
0
 42
0.2
  3
txt
  4

  0
STYLE
  5
205
100
AcDbSymbolTableRecord
100
AcDbTextStyleTableRecord
  2
TEXTSTYLE_1
 70
0
 40
0.0
 41
0.8
 50
0.0
 71
0
 42
0.2
  3
gdt
  4

  0
ENDTAB
  0
TABLE
  2
VIEW
  5
6
100
AcDbSymbolTable
 70
0
  0
ENDTAB
  0
TABLE
  2
UCS
  5
7
100
AcDbSymbolTable
 70
0
  0
ENDTAB
  0
TABLE
  2
APPID
  5
9
100
AcDbSymbolTable
 70
1
  0
APPID
  5
206
100
AcDbSymbolTableRecord
100
AcDbRegAppTableRecord
  2
ACAD
 70
0
  0
ENDTAB
  0
TABLE
  2
BLOCK_RECORD
  5
1
100
AcDbSymbolTable
 70
0
  0
BLOCK_RECORD
  5
207
100
AcDbSymbolTableRecord
100
AcDbBlockTableRecord
  2
*Model_Space
  0
BLOCK_RECORD
  5
208
100
AcDbSymbolTableRecord
100
AcDbBlockTableRecord
  2
*Paper_Space
  0
BLOCK_RECORD
  5
209
100
AcDbSymbolTableRecord
100
AcDbBlockTableRecord
  2
SUN_FIRST_THIRD_ANGLE_BL0
  0
BLOCK_RECORD
  5
20A
100
AcDbSymbolTableRecord
100
AcDbBlockTableRecord
  2
*T1
  0
BLOCK_RECORD
  5
20B
100
AcDbSymbolTableRecord
100
AcDbBlockTableRecord
  2
*T2
  0
BLOCK_RECORD
  5
20C
100
AcDbSymbolTableRecord
100
AcDbBlockTableRecord
  2
*T3
  0
ENDTAB
  0
TABLE
  2
DIMSTYLE
  5
A
100
AcDbSymbolTable
 70
1
100
AcDbDimStyleTable
 71
0
  0
DIMSTYLE
105
20D
100
AcDbSymbolTableRecord
100
AcDbDimStyleTableRecord
  2
STANDARD
 70
0
  3

  4

 40
1.0
 41
0.1875
 42
0.0625
 43
0.38
 44
0.125
 45
0.0
 46
0.0
 47
0.001
 48
0.001
140
0.1
141
0.09
142
0.0
143
25.4
144
1.0
145
0.0
146
1.0
147
0.09
 71
0.0
 72
0.0
 73
1
 74
1
 75
0
 76
0
 77
0
 78
4
170
0
171
2
172
0
173
0
174
0
175
0
176
0
177
0
178
0
270
2
271
3
272
3
273
2
274
2
275
0
280
0
281
0
282
0
283
1
284
4
285
0
286
0
287
3
288
0
340
11
278
46
  0
ENDTAB
  0
ENDSEC
  0
SECTION
  2
BLOCKS
  0
BLOCK
  5
20
100
AcDbEntity
  8
0
100
AcDbBlockBegin
  2
*Model_Space
 70
0
 10
0.0
 20
0.0
 30
0.0
  3
*Model_Space
  1

  0
ENDBLK
  5
21
100
AcDbEntity
  8
0
100
AcDbBlockEnd
  0
BLOCK
  5
1C
100
AcDbEntity
  8
0
100
AcDbBlockBegin
  2
*Paper_Space
 70
0
 10
0.0
 20
0.0
 30
0.0
  3
*Paper_Space
  1

  0
ENDBLK
  5
1D
100
AcDbEntity
  8
0
100
AcDbBlockEnd
  0
BLOCK
  5
20E
100
AcDbEntity
  8
0
100
AcDbBlockBegin
 62
2
  6
CONTINUOUS
  2
SUN_FIRST_THIRD_ANGLE_BL0
 70
64
 10
20.4816717061
 20
1.2289683772
  3
SUN_FIRST_THIRD_ANGLE_BL0
  1

  0
TEXT
  5
20F
100
AcDbEntity
  8
0
100
AcDbText
 62
2
  6
CONTINUOUS
 10
19.4750896608
 20
1.4136269581
  7
STANDARD
 40
0.08
  1
FIRST ANGLE
 41
0.8
 72
0
100
AcDbText
  0
TEXT
  5
210
100
AcDbEntity
  8
0
100
AcDbText
 62
2
  6
CONTINUOUS
 10
20.7842537513
 20
1.4047600029
  7
STANDARD
 40
0.08
  1
THIRD ANGLE
 41
0.8
 72
0
100
AcDbText
  0
LINE
  5
211
100
AcDbEntity
  8
0
100
AcDbLine
 62
7
  6
CONTINUOUS
 10
19.4767170086
 20
1.1727031207
 11
19.6334271527
 21
1.1717972817
  0
LINE
  5
212
100
AcDbEntity
  8
0
100
AcDbLine
 62
7
  6
CONTINUOUS
 10
19.6596964832
 20
1.1717972817
 11
19.6950230232
 21
1.171593082
  0
LINE
  5
213
100
AcDbEntity
  8
0
100
AcDbLine
 62
7
  6
CONTINUOUS
 10
19.7194818561
 20
1.1708914427
 11
19.8852396156
 21
1.1699333054
  0
LINE
  5
214
100
AcDbEntity
  8
0
100
AcDbLine
 62
7
  6
CONTINUOUS
 10
19.4758111696
 20
1.2723454088
 11
19.88525039
 21
1.3511534004
  0
LINE
  5
215
100
AcDbEntity
  8
0
100
AcDbLine
 62
7
  6
CONTINUOUS
 10
19.88525039
 20
1.3511534004
 11
19.8831348489
 21
0.9851647912
  0
LINE
  5
216
100
AcDbEntity
  8
0
100
AcDbLine
 62
7
  6
CONTINUOUS
 10
19.8831348489
 20
0.9851647912
 11
19.4767170086
 21
1.0658141206
  0
LINE
  5
217
100
AcDbEntity
  8
0
100
AcDbLine
 62
7
  6
CONTINUOUS
 10
19.4767170086
 20
1.0658141206
 11
19.4779056764
 21
1.2714536432
  0
CIRCLE
  5
218
100
AcDbEntity
  8
0
100
AcDbCircle
 62
7
  6
CONTINUOUS
 10
20.2068232291
 20
1.1717972817
 40
0.175742101
  0
CIRCLE
  5
219
100
AcDbEntity
  8
0
100
AcDbCircle
 62
7
  6
CONTINUOUS
 10
20.2068232291
 20
1.1717972817
 40
0.1005522074
  0
LINE
  5
21A
100
AcDbEntity
  8
0
100
AcDbLine
 62
7
  6
CONTINUOUS
 10
20.2077290681
 20
1.3756110529
 11
20.2071171714
 21
1.2379342989
  0
LINE
  5
21B
100
AcDbEntity
  8
0
100
AcDbLine
 62
7
  6
CONTINUOUS
 10
20.2077290681
 20
1.2016899681
 11
20.2074674401
 21
1.1428236749
  0
LINE
  5
21C
100
AcDbEntity
  8
0
100
AcDbLine
 62
7
  6
CONTINUOUS
 10
20.208634907
 20
1.101141841
 11
20.2080230104
 21
0.963465087
  0
LINE
  5
21D
100
AcDbEntity
  8
0
100
AcDbLine
 62
7
  6
CONTINUOUS
 10
20.0066328138
 20
1.1745147986
 11
20.1443095678
 21
1.1739029019
  0
LINE
  5
21E
100
AcDbEntity
  8
0
100
AcDbLine
 62
7
  6
CONTINUOUS
 10
20.1832714155
 20
1.1727031207
 11
20.238153505
 21
1.172335442
  0
LINE
  5
21F
100
AcDbEntity
  8
0
100
AcDbLine
 62
7
  6
CONTINUOUS
 10
20.2756669918
 20
1.1717972817
 11
20.407916871
 21
1.1712095044
  0
CIRCLE
  5
220
100
AcDbEntity
  8
0
100
AcDbCircle
 62
7
  6
CONTINUOUS
 10
20.7509457401
 20
1.1693297793
 40
0.1722024983
  0
CIRCLE
  5
221
100
AcDbEntity
  8
0
100
AcDbCircle
 62
7
  6
CONTINUOUS
 10
20.7509457401
 20
1.1693297793
 40
0.0985164967
  0
LINE
  5
222
100
AcDbEntity
  8
0
100
AcDbLine
 62
7
  6
CONTINUOUS
 10
20.7169767782
 20
1.170462078
 11
20.7825395137
 21
1.1682766535
  0
LINE
  5
223
100
AcDbEntity
  8
0
100
AcDbLine
 62
7
  6
CONTINUOUS
 10
20.8177513651
 20
1.1693297793
 11
20.947965719
 21
1.1693297793
  0
LINE
  5
224
100
AcDbEntity
  8
0
100
AcDbLine
 62
7
  6
CONTINUOUS
 10
20.6875370113
 20
1.170462078
 11
20.5573226574
 21
1.170462078
  0
LINE
  5
225
100
AcDbEntity
  8
0
100
AcDbLine
 62
7
  6
CONTINUOUS
 10
20.7486811426
 20
1.1987695462
 11
20.7486811426
 21
1.1432869085
  0
LINE
  5
226
100
AcDbEntity
  8
0
100
AcDbLine
 62
7
  6
CONTINUOUS
 10
20.7498134414
 20
1.1059210505
 11
20.7498134414
 21
0.9757066966
  0
LINE
  5
227
100
AcDbEntity
  8
0
100
AcDbLine
 62
7
  6
CONTINUOUS
 10
20.7486811426
 20
1.2338708068
 11
20.7486811426
 21
1.3640851607
  0
LINE
  5
228
100
AcDbEntity
  8
0
100
AcDbLine
 62
7
  6
CONTINUOUS
 10
21.0702539817
 20
1.2701043662
 11
21.4790138229
 21
1.3448360823
  0
LINE
  5
229
100
AcDbEntity
  8
0
100
AcDbLine
 62
7
  6
CONTINUOUS
 10
21.4790138229
 20
1.3448360823
 11
21.4790138229
 21
0.9779712941
  0
LINE
  5
22A
100
AcDbEntity
  8
0
100
AcDbLine
 62
7
  6
CONTINUOUS
 10
21.4790138229
 20
0.9779712941
 11
21.069121683
 21
1.0617614
  0
LINE
  5
22B
100
AcDbEntity
  8
0
100
AcDbLine
 62
7
  6
CONTINUOUS
 10
21.0702539817
 20
1.2701043662
 11
21.069121683
 21
1.0617614
  0
LINE
  5
22C
100
AcDbEntity
  8
0
100
AcDbLine
 62
7
  6
CONTINUOUS
 10
21.4790138229
 20
1.1693297793
 11
21.3159628059
 21
1.1693297793
  0
LINE
  5
22D
100
AcDbEntity
  8
0
100
AcDbLine
 62
7
  6
CONTINUOUS
 10
21.2876553377
 20
1.1693297793
 11
21.2502894796
 21
1.1693297793
  0
LINE
  5
22E
100
AcDbEntity
  8
0
100
AcDbLine
 62
7
  6
CONTINUOUS
 10
21.2208497126
 20
1.1659328831
 11
21.0713862804
 21
1.1659328831
  0
LINE
  5
22F
100
AcDbEntity
  8
0
100
AcDbLine
 62
7
  6
CONTINUOUS
 10
20.4796138713
 20
1.5284908897
 11
20.4766766948
 21
0.9294458646
  0
ENDBLK
  5
230
100
AcDbEntity
  8
0
  6
BYBLOCK
 62
0
100
AcDbBlockEnd
  0
BLOCK
  5
231
100
AcDbEntity
  8
0
100
AcDbBlockBegin
  2
*T1
 70
1
 10
0.0
 20
0.0
  3
*T1
  1

  0
LINE
  5
232
100
AcDbEntity
  8
0
100
AcDbLine
 62
2
  6
CONTINUOUS
 10
9.275
 20
0.0
 11
-0.0
 21
0.0
  0
LINE
  5
233
100
AcDbEntity
  8
0
100
AcDbLine
 62
2
  6
CONTINUOUS
 10
9.275
 20
0.0
 11
9.275
 21
1.25
  0
LINE
  5
234
100
AcDbEntity
  8
0
100
AcDbLine
 62
2
  6
CONTINUOUS
 10
9.275
 20
0.625
 11
-0.0
 21
0.625
  0
LINE
  5
235
100
AcDbEntity
  8
0
100
AcDbLine
 62
2
  6
CONTINUOUS
 10
9.275
 20
1.25
 11
-0.0
 21
1.25
  0
LINE
  5
236
100
AcDbEntity
  8
0
100
AcDbLine
 62
2
  6
CONTINUOUS
 10
6.8
 20
0.0
 11
6.8
 21
1.25
  0
LINE
  5
237
100
AcDbEntity
  8
0
100
AcDbLine
 62
2
  6
CONTINUOUS
 10
6.4
 20
0.0
 11
6.4
 21
0.625
  0
LINE
  5
238
100
AcDbEntity
  8
0
100
AcDbLine
 62
2
  6
CONTINUOUS
 10
5.9
 20
0.0
 11
5.9
 21
0.625
  0
LINE
  5
239
100
AcDbEntity
  8
0
100
AcDbLine
 62
2
  6
CONTINUOUS
 10
5.2
 20
0.0
 11
5.2
 21
0.625
  0
LINE
  5
23A
100
AcDbEntity
  8
0
100
AcDbLine
 62
2
  6
CONTINUOUS
 10
4.1
 20
0.0
 11
4.1
 21
1.25
  0
LINE
  5
23B
100
AcDbEntity
  8
0
100
AcDbLine
 62
2
  6
CONTINUOUS
 10
-0.0
 20
0.0
 11
-0.0
 21
1.25
  0
MTEXT
  5
23C
100
AcDbEntity
  8
0
100
AcDbMText
 62
2
  6
CONTINUOUS
  7
STANDARD
 71
2
 72
1
 10
6.6
 20
0.325
 30
0.0
 11
1.0
 21
0.0
 31
0.0
 44
0.9
  1
2
 40
0.125
 41
0.2
  0
MTEXT
  5
23D
100
AcDbEntity
  8
0
100
AcDbMText
 62
2
  6
CONTINUOUS
  7
STANDARD
 71
2
 72
1
 10
6.15
 20
0.325
 30
0.0
 11
1.0
 21
0.0
 31
0.0
 44
0.9
  1
C
 40
0.125
 41
0.2
  0
MTEXT
  5
23E
100
AcDbEntity
  8
0
100
AcDbMText
 62
2
  6
CONTINUOUS
  7
STANDARD
 71
2
 72
1
 10
5.55
 20
0.325
 30
0.0
 11
1.0
 21
0.0
 31
0.0
 44
0.9
  1
1.000
 40
0.125
 41
1.0
  0
MTEXT
  5
23F
100
AcDbEntity
  8
0
100
AcDbMText
 62
2
  6
CONTINUOUS
  7
STANDARD
 71
2
 72
1
 10
4.65
 20
0.325
 30
0.0
 11
1.0
 21
0.0
 31
0.0
 44
0.9
  1
Jul-21-20
 40
0.125
 41
1.8
  0
MTEXT
  5
240
100
AcDbEntity
  8
0
100
AcDbMText
 62
2
  6
CONTINUOUS
  7
STANDARD
 71
2
 72
1
 10
2.05
 20
0.4625
 30
0.0
 11
1.0
 21
0.0
 31
0.0
 44
0.9
  1
T-23A Gasket mount Sun\PDirect mount, cross pilot
 40
0.125
 41
5.0
  0
MTEXT
  5
241
100
AcDbEntity
  8
0
100
AcDbMText
 62
2
  6
CONTINUOUS
  7
STANDARD
 71
1
 72
1
 10
6.45
 20
0.5625
 30
0.0
 11
1.0
 21
0.0
 31
0.0
 44
0.9
  1
SHEET
 40
0.06
 41
0.48
  0
MTEXT
  5
242
100
AcDbEntity
  8
0
100
AcDbMText
 62
2
  6
CONTINUOUS
  7
STANDARD
 71
1
 72
1
 10
5.95
 20
0.5625
 30
0.0
 11
1.0
 21
0.0
 31
0.0
 44
0.9
  1
DWG SIZE
 40
0.06
 41
0.768
  0
MTEXT
  5
243
100
AcDbEntity
  8
0
100
AcDbMText
 62
2
  6
CONTINUOUS
  7
STANDARD
 71
1
 72
1
 10
5.25
 20
0.5625
 30
0.0
 11
1.0
 21
0.0
 31
0.0
 44
0.9
  1
SCALE
 40
0.06
 41
0.48
  0
MTEXT
  5
244
100
AcDbEntity
  8
0
100
AcDbMText
 62
2
  6
CONTINUOUS
  7
STANDARD
 71
1
 72
1
 10
4.15
 20
0.5625
 30
0.0
 11
1.0
 21
0.0
 31
0.0
 44
0.9
  1
DATE
 40
0.06
 41
0.384
  0
MTEXT
  5
245
100
AcDbEntity
  8
0
100
AcDbMText
 62
2
  6
CONTINUOUS
  7
STANDARD
 71
1
 72
1
 10
0.05
 20
0.5625
 30
0.0
 11
1.0
 21
0.0
 31
0.0
 44
0.9
  1
DESCRIPTION
 40
0.06
 41
1.056
  0
MTEXT
  5
246
100
AcDbEntity
  8
0
100
AcDbMText
 62
2
  6
CONTINUOUS
  7
STANDARD
 71
2
 72
1
 10
5.45
 20
1.0375
 30
0.0
 11
1.0
 21
0.0
 31
0.0
 44
0.9
  1
ALL DIMENSIONS IN INCH\PVIEWS ARE THIRD ANGLE
 40
0.12
 41
4.224
  0
MTEXT
  5
247
100
AcDbEntity
  8
0
100
AcDbMText
 62
2
  6
CONTINUOUS
  7
STANDARD
 71
2
 72
1
 10
2.05
 20
0.95
 30
0.0
 11
1.0
 21
0.0
 31
0.0
 44
0.9
  1
VFX
 40
0.125
 41
0.6
  0
MTEXT
  5
248
100
AcDbEntity
  8
0
100
AcDbMText
 62
2
  6
CONTINUOUS
  7
STANDARD
 71
1
 72
1
 10
0.05
 20
1.1875
 30
0.0
 11
1.0
 21
0.0
 31
0.0
 44
0.9
  1
MODEL
 40
0.06
 41
0.48
  0
ENDBLK
  5
249
100
AcDbEntity
  8
0
  6
BYBLOCK
 62
0
100
AcDbBlockEnd
  0
BLOCK
  5
24A
100
AcDbEntity
  8
0
100
AcDbBlockBegin
  2
*T2
 70
1
 10
0.0
 20
0.0
  3
*T2
  1

  0
LINE
  5
24B
100
AcDbEntity
  8
0
100
AcDbLine
 62
2
  6
CONTINUOUS
 10
0.0
 20
0.0
 11
9.055
 21
0.0
  0
LINE
  5
24C
100
AcDbEntity
  8
0
100
AcDbLine
 62
2
  6
CONTINUOUS
 10
0.0
 20
0.0
 11
0.0
 21
-3.094
  0
LINE
  5
24D
100
AcDbEntity
  8
0
100
AcDbLine
 62
2
  6
CONTINUOUS
 10
0.0
 20
-0.344
 11
9.055
 21
-0.344
  0
LINE
  5
24E
100
AcDbEntity
  8
0
100
AcDbLine
 62
2
  6
CONTINUOUS
 10
0.0
 20
-0.594
 11
9.055
 21
-0.594
  0
LINE
  5
24F
100
AcDbEntity
  8
0
100
AcDbLine
 62
2
  6
CONTINUOUS
 10
0.0
 20
-0.844
 11
9.055
 21
-0.844
  0
LINE
  5
250
100
AcDbEntity
  8
0
100
AcDbLine
 62
2
  6
CONTINUOUS
 10
0.0
 20
-1.094
 11
9.055
 21
-1.094
  0
LINE
  5
251
100
AcDbEntity
  8
0
100
AcDbLine
 62
2
  6
CONTINUOUS
 10
0.0
 20
-1.344
 11
9.055
 21
-1.344
  0
LINE
  5
252
100
AcDbEntity
  8
0
100
AcDbLine
 62
2
  6
CONTINUOUS
 10
0.0
 20
-1.594
 11
9.055
 21
-1.594
  0
LINE
  5
253
100
AcDbEntity
  8
0
100
AcDbLine
 62
2
  6
CONTINUOUS
 10
0.0
 20
-1.844
 11
9.055
 21
-1.844
  0
LINE
  5
254
100
AcDbEntity
  8
0
100
AcDbLine
 62
2
  6
CONTINUOUS
 10
0.0
 20
-2.094
 11
9.055
 21
-2.094
  0
LINE
  5
255
100
AcDbEntity
  8
0
100
AcDbLine
 62
2
  6
CONTINUOUS
 10
0.0
 20
-2.344
 11
9.055
 21
-2.344
  0
LINE
  5
256
100
AcDbEntity
  8
0
100
AcDbLine
 62
2
  6
CONTINUOUS
 10
0.0
 20
-2.594
 11
9.055
 21
-2.594
  0
LINE
  5
257
100
AcDbEntity
  8
0
100
AcDbLine
 62
2
  6
CONTINUOUS
 10
0.0
 20
-2.844
 11
9.055
 21
-2.844
  0
LINE
  5
258
100
AcDbEntity
  8
0
100
AcDbLine
 62
2
  6
CONTINUOUS
 10
0.0
 20
-3.094
 11
9.055
 21
-3.094
  0
LINE
  5
259
100
AcDbEntity
  8
0
100
AcDbLine
 62
2
  6
CONTINUOUS
 10
3.055
 20
0.0
 11
3.055
 21
-3.094
  0
LINE
  5
25A
100
AcDbEntity
  8
0
100
AcDbLine
 62
2
  6
CONTINUOUS
 10
9.055
 20
0.0
 11
9.055
 21
-3.094
  0
MTEXT
  5
25B
100
AcDbEntity
  8
0
100
AcDbMText
 62
2
  6
CONTINUOUS
  7
STANDARD
 71
2
 72
1
 10
1.5275
 20
-0.0995
 30
0.0
 11
1.0
 21
0.0
 31
0.0
 44
0.9
  1
Technical Data
 40
0.145
 41
3.248
  0
MTEXT
  5
25C
100
AcDbEntity
  8
0
100
AcDbMText
 62
2
  6
CONTINUOUS
  7
STANDARD
 71
2
 72
1
 10
4.555
 20
-0.0995
 30
0.0
 11
1.0
 21
0.0
 31
0.0
 44
0.9
  1
U.S. Units
 40
0.145
 41
2.32
  0
MTEXT
  5
25D
100
AcDbEntity
  8
0
100
AcDbMText
 62
2
  6
CONTINUOUS
  7
STANDARD
 71
2
 72
1
 10
7.555
 20
-0.0995
 30
0.0
 11
1.0
 21
0.0
 31
0.0
 44
0.9
  1
Metric Units
 40
0.145
 41
2.784
  0
MTEXT
  5
25E
100
AcDbEntity
  8
0
100
AcDbMText
 62
2
  6
CONTINUOUS
  7
STANDARD
 71
2
 72
1
 10
1.5275
 20
-0.4065
 30
0.0
 11
1.0
 21
0.0
 31
0.0
 44
0.9
  1
Cavity
 40
0.125
 41
1.2
  0
MTEXT
  5
25F
100
AcDbEntity
  8
0
100
AcDbMText
 62
2
  6
CONTINUOUS
  7
STANDARD
 71
2
 72
1
 10
6.055
 20
-0.4065
 30
0.0
 11
1.0
 21
0.0
 31
0.0
 44
0.9
  1
T-23A
 40
0.125
 41
1.0
  0
MTEXT
  5
260
100
AcDbEntity
  8
0
100
AcDbMText
 62
2
  6
CONTINUOUS
  7
STANDARD
 71
2
 72
1
 10
1.5275
 20
-0.6565
 30
0.0
 11
1.0
 21
0.0
 31
0.0
 44
0.9
  1
Body Features
 40
0.125
 41
2.6
  0
MTEXT
  5
261
100
AcDbEntity
  8
0
100
AcDbMText
 62
2
  6
CONTINUOUS
  7
STANDARD
 71
2
 72
1
 10
6.055
 20
-0.6565
 30
0.0
 11
1.0
 21
0.0
 31
0.0
 44
0.9
  1
Direct mount, cross pilot
 40
0.125
 41
5.0
  0
MTEXT
  5
262
100
AcDbEntity
  8
0
100
AcDbMText
 62
2
  6
CONTINUOUS
  7
STANDARD
 71
2
 72
1
 10
1.5275
 20
-0.9065
 30
0.0
 11
1.0
 21
0.0
 31
0.0
 44
0.9
  1
Body Type
 40
0.125
 41
1.8
  0
MTEXT
  5
263
100
AcDbEntity
  8
0
100
AcDbMText
 62
2
  6
CONTINUOUS
  7
STANDARD
 71
2
 72
1
 10
6.055
 20
-0.9065
 30
0.0
 11
1.0
 21
0.0
 31
0.0
 44
0.9
  1
Gasket mount
 40
0.125
 41
2.4
  0
MTEXT
  5
264
100
AcDbEntity
  8
0
100
AcDbMText
 62
2
  6
CONTINUOUS
  7
STANDARD
 71
2
 72
1
 10
1.5275
 20
-1.1565
 30
0.0
 11
1.0
 21
0.0
 31
0.0
 44
0.9
  1
Interface
 40
0.125
 41
1.8
  0
MTEXT
  5
265
100
AcDbEntity
  8
0
100
AcDbMText
 62
2
  6
CONTINUOUS
  7
STANDARD
 71
2
 72
1
 10
6.055
 20
-1.1565
 30
0.0
 11
1.0
 21
0.0
 31
0.0
 44
0.9
  1
Sun
 40
0.125
 41
0.6
  0
MTEXT
  5
266
100
AcDbEntity
  8
0
100
AcDbMText
 62
2
  6
CONTINUOUS
  7
STANDARD
 71
2
 72
1
 10
1.5275
 20
-1.4065
 30
0.0
 11
1.0
 21
0.0
 31
0.0
 44
0.9
  1
Open Cavity Quantity
 40
0.125
 41
4.0
  0
MTEXT
  5
267
100
AcDbEntity
  8
0
100
AcDbMText
 62
2
  6
CONTINUOUS
  7
STANDARD
 71
2
 72
1
 10
6.055
 20
-1.4065
 30
0.0
 11
1.0
 21
0.0
 31
0.0
 44
0.9
  1
1
 40
0.125
 41
0.2
  0
MTEXT
  5
268
100
AcDbEntity
  8
0
100
AcDbMText
 62
2
  6
CONTINUOUS
  7
STANDARD
 71
2
 72
1
 10
1.5275
 20
-1.6565
 30
0.0
 11
1.0
 21
0.0
 31
0.0
 44
0.9
  1
Weight
 40
0.125
 41
1.2
  0
MTEXT
  5
269
100
AcDbEntity
  8
0
100
AcDbMText
 62
2
  6
CONTINUOUS
  7
STANDARD
 71
2
 72
1
 10
4.555
 20
-1.6565
 30
0.0
 11
1.0
 21
0.0
 31
0.0
 44
0.9
  1
8.760 lb.
 40
0.125
 41
1.8
  0
MTEXT
  5
26A
100
AcDbEntity
  8
0
100
AcDbMText
 62
2
  6
CONTINUOUS
  7
STANDARD
 71
2
 72
1
 10
7.555
 20
-1.6565
 30
0.0
 11
1.0
 21
0.0
 31
0.0
 44
0.9
  1
3,974 kg.
 40
0.125
 41
1.8
  0
MTEXT
  5
26B
100
AcDbEntity
  8
0
100
AcDbMText
 62
2
  6
CONTINUOUS
  7
STANDARD
 71
2
 72
1
 10
1.5275
 20
-1.9065
 30
0.0
 11
1.0
 21
0.0
 31
0.0
 44
0.9
  1
Mounting Hole Diameter
 40
0.125
 41
4.4
  0
MTEXT
  5
26C
100
AcDbEntity
  8
0
100
AcDbMText
 62
2
  6
CONTINUOUS
  7
STANDARD
 71
2
 72
1
 10
4.555
 20
-1.9065
 30
0.0
 11
1.0
 21
0.0
 31
0.0
 44
0.9
  1
.53 in.
 40
0.125
 41
1.4
  0
MTEXT
  5
26D
100
AcDbEntity
  8
0
100
AcDbMText
 62
2
  6
CONTINUOUS
  7
STANDARD
 71
2
 72
1
 10
7.555
 20
-1.9065
 30
0.0
 11
1.0
 21
0.0
 31
0.0
 44
0.9
  1
13,5 mm
 40
0.125
 41
1.4
  0
MTEXT
  5
26E
100
AcDbEntity
  8
0
100
AcDbMText
 62
2
  6
CONTINUOUS
  7
STANDARD
 71
2
 72
1
 10
1.5275
 20
-2.1565
 30
0.0
 11
1.0
 21
0.0
 31
0.0
 44
0.9
  1
Mounting Hole Depth
 40
0.125
 41
3.8
  0
MTEXT
  5
26F
100
AcDbEntity
  8
0
100
AcDbMText
 62
2
  6
CONTINUOUS
  7
STANDARD
 71
2
 72
1
 10
6.055
 20
-2.1565
 30
0.0
 11
1.0
 21
0.0
 31
0.0
 44
0.9
  1
Through
 40
0.125
 41
1.4
  0
MTEXT
  5
270
100
AcDbEntity
  8
0
100
AcDbMText
 62
2
  6
CONTINUOUS
  7
STANDARD
 71
2
 72
1
 10
1.5275
 20
-2.4065
 30
0.0
 11
1.0
 21
0.0
 31
0.0
 44
0.9
  1
Mounting Hole Quantity
 40
0.125
 41
4.4
  0
MTEXT
  5
271
100
AcDbEntity
  8
0
100
AcDbMText
 62
2
  6
CONTINUOUS
  7
STANDARD
 71
2
 72
1
 10
6.055
 20
-2.4065
 30
0.0
 11
1.0
 21
0.0
 31
0.0
 44
0.9
  1
2
 40
0.125
 41
0.2
  0
MTEXT
  5
272
100
AcDbEntity
  8
0
100
AcDbMText
 62
2
  6
CONTINUOUS
  7
STANDARD
 71
2
 72
1
 10
1.5275
 20
-2.6565
 30
0.0
 11
1.0
 21
0.0
 31
0.0
 44
0.9
  1
Mounting Hole C'bore Diameter
 40
0.125
 41
5.8
  0
MTEXT
  5
273
100
AcDbEntity
  8
0
100
AcDbMText
 62
2
  6
CONTINUOUS
  7
STANDARD
 71
2
 72
1
 10
4.555
 20
-2.6565
 30
0.0
 11
1.0
 21
0.0
 31
0.0
 44
0.9
  1
.78 in.
 40
0.125
 41
1.4
  0
MTEXT
  5
274
100
AcDbEntity
  8
0
100
AcDbMText
 62
2
  6
CONTINUOUS
  7
STANDARD
 71
2
 72
1
 10
7.555
 20
-2.6565
 30
0.0
 11
1.0
 21
0.0
 31
0.0
 44
0.9
  1
19,8 mm
 40
0.125
 41
1.4
  0
MTEXT
  5
275
100
AcDbEntity
  8
0
100
AcDbMText
 62
2
  6
CONTINUOUS
  7
STANDARD
 71
2
 72
1
 10
1.5275
 20
-2.9065
 30
0.0
 11
1.0
 21
0.0
 31
0.0
 44
0.9
  1
Mounting Hole C'bore Depth
 40
0.125
 41
5.2
  0
MTEXT
  5
276
100
AcDbEntity
  8
0
100
AcDbMText
 62
2
  6
CONTINUOUS
  7
STANDARD
 71
2
 72
1
 10
4.555
 20
-2.9065
 30
0.0
 11
1.0
 21
0.0
 31
0.0
 44
0.9
  1
.47 in.
 40
0.125
 41
1.4
  0
MTEXT
  5
277
100
AcDbEntity
  8
0
100
AcDbMText
 62
2
  6
CONTINUOUS
  7
STANDARD
 71
2
 72
1
 10
7.555
 20
-2.9065
 30
0.0
 11
1.0
 21
0.0
 31
0.0
 44
0.9
  1
12 mm
 40
0.125
 41
1.0
  0
ENDBLK
  5
278
100
AcDbEntity
  8
0
  6
BYBLOCK
 62
0
100
AcDbBlockEnd
  0
BLOCK
  5
279
100
AcDbEntity
  8
0
100
AcDbBlockBegin
  2
*T3
 70
1
 10
0.0
 20
0.0
  3
*T3
  1

  0
LINE
  5
27A
100
AcDbEntity
  8
0
100
AcDbLine
 62
2
  6
CONTINUOUS
 10
0.0
 20
0.0
 11
4.6
 21
0.0
  0
LINE
  5
27B
100
AcDbEntity
  8
0
100
AcDbLine
 62
2
  6
CONTINUOUS
 10
0.0
 20
0.0
 11
0.0
 21
-1.18775
  0
LINE
  5
27C
100
AcDbEntity
  8
0
100
AcDbLine
 62
2
  6
CONTINUOUS
 10
0.0
 20
-0.34375
 11
4.6
 21
-0.34375
  0
LINE
  5
27D
100
AcDbEntity
  8
0
100
AcDbLine
 62
2
  6
CONTINUOUS
 10
0.0
 20
-0.68775
 11
4.6
 21
-0.68775
  0
LINE
  5
27E
100
AcDbEntity
  8
0
100
AcDbLine
 62
2
  6
CONTINUOUS
 10
0.0
 20
-0.93775
 11
4.6
 21
-0.93775
  0
LINE
  5
27F
100
AcDbEntity
  8
0
100
AcDbLine
 62
2
  6
CONTINUOUS
 10
0.0
 20
-1.18775
 11
4.6
 21
-1.18775
  0
LINE
  5
280
100
AcDbEntity
  8
0
100
AcDbLine
 62
2
  6
CONTINUOUS
 10
1.3
 20
-0.34375
 11
1.3
 21
-1.18775
  0
LINE
  5
281
100
AcDbEntity
  8
0
100
AcDbLine
 62
2
  6
CONTINUOUS
 10
3.3
 20
-0.34375
 11
3.3
 21
-1.18775
  0
LINE
  5
282
100
AcDbEntity
  8
0
100
AcDbLine
 62
2
  6
CONTINUOUS
 10
4.6
 20
0.0
 11
4.6
 21
-1.18775
  0
MTEXT
  5
283
100
AcDbEntity
  8
0
100
AcDbMText
 62
2
  6
CONTINUOUS
  7
STANDARD
 71
2
 72
1
 10
2.3
 20
-0.099375
 30
0.0
 11
1.0
 21
0.0
 31
0.0
 44
0.9
  1
Port Headings
 40
0.145
 41
3.016
  0
MTEXT
  5
284
100
AcDbEntity
  8
0
100
AcDbMText
 62
2
  6
CONTINUOUS
  7
STANDARD
 71
2
 72
1
 10
0.65
 20
-0.44325
 30
0.0
 11
1.0
 21
0.0
 31
0.0
 44
0.9
  1
Product
 40
0.145
 41
1.624
  0
MTEXT
  5
285
100
AcDbEntity
  8
0
100
AcDbMText
 62
2
  6
CONTINUOUS
  7
STANDARD
 71
2
 72
1
 10
2.3
 20
-0.44325
 30
0.0
 11
1.0
 21
0.0
 31
0.0
 44
0.9
  1
Port
 40
0.145
 41
0.928
  0
MTEXT
  5
286
100
AcDbEntity
  8
0
100
AcDbMText
 62
2
  6
CONTINUOUS
  7
STANDARD
 71
2
 72
1
 10
3.95
 20
-0.44325
 30
0.0
 11
1.0
 21
0.0
 31
0.0
 44
0.9
  1
Size
 40
0.145
 41
0.928
  0
MTEXT
  5
287
100
AcDbEntity
  8
0
100
AcDbMText
 62
2
  6
CONTINUOUS
  7
STANDARD
 71
2
 72
1
 10
0.65
 20
-0.75025
 30
0.0
 11
1.0
 21
0.0
 31
0.0
 44
0.9
  1
VFX
 40
0.125
 41
0.6
  0
MTEXT
  5
288
100
AcDbEntity
  8
0
100
AcDbMText
 62
2
  6
CONTINUOUS
  7
STANDARD
 71
2
 72
1
 10
2.3
 20
-0.75025
 30
0.0
 11
1.0
 21
0.0
 31
0.0
 44
0.9
  1
Ports C2, V1, V2
 40
0.125
 41
3.2
  0
MTEXT
  5
289
100
AcDbEntity
  8
0
100
AcDbMText
 62
2
  6
CONTINUOUS
  7
STANDARD
 71
2
 72
1
 10
3.95
 20
-0.75025
 30
0.0
 11
1.0
 21
0.0
 31
0.0
 44
0.9
  1
3/4" NPTF
 40
0.125
 41
1.8
  0
MTEXT
  5
28A
100
AcDbEntity
  8
0
100
AcDbMText
 62
2
  6
CONTINUOUS
  7
STANDARD
 71
2
 72
1
 10
0.65
 20
-1.00025
 30
0.0
 11
1.0
 21
0.0
 31
0.0
 44
0.9
  1
VFX
 40
0.125
 41
0.6
  0
MTEXT
  5
28B
100
AcDbEntity
  8
0
100
AcDbMText
 62
2
  6
CONTINUOUS
  7
STANDARD
 71
2
 72
1
 10
2.3
 20
-1.00025
 30
0.0
 11
1.0
 21
0.0
 31
0.0
 44
0.9
  1
Vent Port
 40
0.125
 41
1.8
  0
MTEXT
  5
28C
100
AcDbEntity
  8
0
100
AcDbMText
 62
2
  6
CONTINUOUS
  7
STANDARD
 71
2
 72
1
 10
3.95
 20
-1.00025
 30
0.0
 11
1.0
 21
0.0
 31
0.0
 44
0.9
  1
1/4" NPTF
 40
0.125
 41
1.8
  0
ENDBLK
  5
28D
100
AcDbEntity
  8
0
  6
BYBLOCK
 62
0
100
AcDbBlockEnd
  0
ENDSEC
  0
SECTION
  2
ENTITIES
  0
IMAGE
  5
28E
100
AcDbEntity
  8
0
100
AcDbRasterImage
 62
7
  6
CONTINUOUS
 10
19.2297077316
 20
0.3094318264
 30
0.0
 11
0.0066666667
 21
0.0
 31
0.0
 12
0.0
 22
0.0066666667
 32
0.0
 13
369.0
 23
92.0
340
       38B
 70
9
280
0
281
50
282
50
283
0
360
       385
 71
1
 91
2
 14
-0.5
 24
-0.5
 14
368.5
 24
91.5
  0
INSERT
  5
28F
100
AcDbEntity
  8
0
100
AcDbBlockReference
 62
2
  6
CONTINUOUS
  2
SUN_FIRST_THIRD_ANGLE_BL0
 10
20.4816717061
 20
1.2289683772
  0
ACAD_TABLE
  5
290
100
AcDbEntity
  8
0
 62
2
  6
CONTINUOUS
100
AcDbBlockReference
  2
*T1
 10
12.42375
 20
0.30125
 30
0.0
100
AcDbTable
342
       38D
343
20A
 11
1.0
 21
0.0
 31
0.0
 90
6
 91
4
 92
6
 93
20
 94
0
 95
0
 96
0
 70
1
 41
0.0
141
0.525
141
0.1
141
0.525
141
0.1
142
4.1
142
1.1
142
0.7
142
0.5
142
0.4
142
2.475
171
1
172
0
173
0
174
0
175
1
176
1
 91
33
178
0
145
0.0
301
CELL_VALUE
 90
4
  1
T-23A Gasket mount Sun\PDirect mount, cross pilot
304
ACVALUE_END
170
2
140
0.125
171
1
172
0
173
0
174
0
175
1
176
1
 91
33
178
0
145
0.0
301
CELL_VALUE
 90
4
  1
Jul-21-20
304
ACVALUE_END
170
5
140
0.125
171
1
172
0
173
0
174
0
175
1
176
1
 91
33
178
0
145
0.0
301
CELL_VALUE
 90
4
  1
1.000
304
ACVALUE_END
170
5
140
0.125
171
1
172
0
173
0
174
0
175
1
176
1
 91
33
178
0
145
0.0
301
CELL_VALUE
 90
4
  1
C
304
ACVALUE_END
170
5
140
0.125
171
1
172
0
173
0
174
0
175
1
176
1
 91
33
178
0
145
0.0
301
CELL_VALUE
 90
4
  1
2
304
ACVALUE_END
170
5
140
0.125
171
1
172
0
173
0
174
0
175
1
176
1
 91
33
178
0
145
0.0
301
CELL_VALUE
 90
4
  1
 
304
ACVALUE_END
170
1
140
0.125
171
1
172
0
173
0
174
0
175
1
176
1
 91
33
178
0
145
0.0
301
CELL_VALUE
 90
4
  1
DESCRIPTION
304
ACVALUE_END
170
1
140
0.06
171
1
172
0
173
0
174
0
175
1
176
1
 91
33
178
0
145
0.0
301
CELL_VALUE
 90
4
  1
DATE
304
ACVALUE_END
170
1
140
0.06
171
1
172
0
173
0
174
0
175
1
176
1
 91
33
178
0
145
0.0
301
CELL_VALUE
 90
4
  1
SCALE
304
ACVALUE_END
170
1
140
0.06
171
1
172
0
173
0
174
0
175
1
176
1
 91
33
178
0
145
0.0
301
CELL_VALUE
 90
4
  1
DWG SIZE
304
ACVALUE_END
170
1
140
0.06
171
1
172
0
173
0
174
0
175
1
176
1
 91
33
178
0
145
0.0
301
CELL_VALUE
 90
4
  1
SHEET
304
ACVALUE_END
170
1
140
0.06
171
1
172
0
173
0
174
0
175
1
176
1
 91
33
178
0
145
0.0
301
CELL_VALUE
 90
4
  1
 
304
ACVALUE_END
170
1
140
0.125
171
1
172
0
173
0
174
0
175
1
176
1
 91
33
178
0
145
0.0
301
CELL_VALUE
 90
4
  1
VFX
304
ACVALUE_END
170
5
140
0.125
171
1
172
0
173
0
174
0
175
4
176
1
 91
33
178
0
145
0.0
301
CELL_VALUE
 90
4
  1
ALL DIMENSIONS IN INCH\PVIEWS ARE THIRD ANGLE
304
ACVALUE_END
170
5
140
0.12
171
1
172
0
173
1
174
0
175
1
176
1
 91
1
178
0
145
0.0
170
1
171
1
172
0
173
1
174
0
175
1
176
1
 91
1
178
0
145
0.0
170
1
171
1
172
0
173
1
174
0
175
1
176
1
 91
1
178
0
145
0.0
170
5
171
1
172
0
173
0
174
0
175
1
176
1
 91
33
178
0
145
0.0
301
CELL_VALUE
 90
4
  1
 
304
ACVALUE_END
170
1
140
0.125
171
1
172
0
173
0
174
0
175
1
176
1
 91
33
178
0
145
0.0
301
CELL_VALUE
 90
4
  1
MODEL
304
ACVALUE_END
170
1
140
0.06
171
1
172
0
173
0
174
0
175
1
176
1
 91
33
178
0
145
0.0
301
CELL_VALUE
 90
4
  1
 
304
ACVALUE_END
170
1
140
0.125
171
1
172
0
173
0
174
0
175
1
176
1
 91
33
178
0
145
0.0
301
CELL_VALUE
 90
4
  1
 
304
ACVALUE_END
170
1
140
0.125
171
1
172
0
173
0
174
0
175
1
176
1
 91
33
178
0
145
0.0
301
CELL_VALUE
 90
4
  1
 
304
ACVALUE_END
170
1
140
0.125
171
1
172
0
173
0
174
0
175
1
176
1
 91
33
178
0
145
0.0
301
CELL_VALUE
 90
4
  1
 
304
ACVALUE_END
170
1
140
0.125
171
1
172
0
173
0
174
0
175
1
176
1
 91
33
178
0
145
0.0
301
CELL_VALUE
 90
4
  1
 
304
ACVALUE_END
170
1
140
0.125
  0
ACAD_TABLE
  5
291
100
AcDbEntity
  8
0
 62
2
  6
CONTINUOUS
100
AcDbBlockReference
  2
*T2
 10
12.4237499994
 20
16.47875
 30
0.0
100
AcDbTable
342
       38C
343
20B
 11
1.0
 21
0.0
 31
0.0
 90
22
 91
12
 92
3
 93
16
 94
0
 95
0
 96
0
 41
0.028
141
0.344
141
0.25
141
0.25
141
0.25
141
0.25
141
0.25
141
0.25
141
0.25
141
0.25
141
0.25
141
0.25
141
0.25
142
3.055
142
3.0
142
3.0
171
1
172
0
173
0
174
0
175
1
176
1
 91
33
178
0
145
0.0
301
CELL_VALUE
 90
4
  1
Technical Data
304
ACVALUE_END
170
5
140
0.145
171
1
172
0
173
0
174
0
175
1
176
1
 91
33
178
0
145
0.0
301
CELL_VALUE
 90
4
  1
U.S. Units
304
ACVALUE_END
170
5
140
0.145
171
1
172
0
173
0
174
0
175
1
176
1
 91
33
178
0
145
0.0
301
CELL_VALUE
 90
4
  1
Metric Units
304
ACVALUE_END
170
5
140
0.145
171
1
172
0
173
0
174
0
175
1
176
1
 91
33
178
0
145
0.0
301
CELL_VALUE
 90
4
  1
Cavity
304
ACVALUE_END
170
5
140
0.125
171
1
172
0
173
0
174
0
175
2
176
1
 91
33
178
0
145
0.0
301
CELL_VALUE
 90
4
  1
T-23A
304
ACVALUE_END
170
5
140
0.125
171
1
172
0
173
1
174
0
175
1
176
1
 91
1
178
0
145
0.0
170
1
171
1
172
0
173
0
174
0
175
1
176
1
 91
33
178
0
145
0.0
301
CELL_VALUE
 90
4
  1
Body Features
304
ACVALUE_END
170
5
140
0.125
171
1
172
0
173
0
174
0
175
2
176
1
 91
33
178
0
145
0.0
301
CELL_VALUE
 90
4
  1
Direct mount, cross pilot
304
ACVALUE_END
170
5
140
0.125
171
1
172
0
173
1
174
0
175
1
176
1
 91
1
178
0
145
0.0
170
1
171
1
172
0
173
0
174
0
175
1
176
1
 91
33
178
0
145
0.0
301
CELL_VALUE
 90
4
  1
Body Type
304
ACVALUE_END
170
5
140
0.125
171
1
172
0
173
0
174
0
175
2
176
1
 91
33
178
0
145
0.0
301
CELL_VALUE
 90
4
  1
Gasket mount
304
ACVALUE_END
170
5
140
0.125
171
1
172
0
173
1
174
0
175
1
176
1
 91
1
178
0
145
0.0
170
1
171
1
172
0
173
0
174
0
175
1
176
1
 91
33
178
0
145
0.0
301
CELL_VALUE
 90
4
  1
Interface
304
ACVALUE_END
170
5
140
0.125
171
1
172
0
173
0
174
0
175
2
176
1
 91
33
178
0
145
0.0
301
CELL_VALUE
 90
4
  1
Sun
304
ACVALUE_END
170
5
140
0.125
171
1
172
0
173
1
174
0
175
1
176
1
 91
1
178
0
145
0.0
170
1
171
1
172
0
173
0
174
0
175
1
176
1
 91
33
178
0
145
0.0
301
CELL_VALUE
 90
4
  1
Open Cavity Quantity
304
ACVALUE_END
170
5
140
0.125
171
1
172
0
173
0
174
0
175
2
176
1
 91
33
178
0
145
0.0
301
CELL_VALUE
 90
4
  1
1
304
ACVALUE_END
170
5
140
0.125
171
1
172
0
173
1
174
0
175
1
176
1
 91
1
178
0
145
0.0
170
1
171
1
172
0
173
0
174
0
175
1
176
1
 91
33
178
0
145
0.0
301
CELL_VALUE
 90
4
  1
Weight
304
ACVALUE_END
170
5
140
0.125
171
1
172
0
173
0
174
0
175
1
176
1
 91
33
178
0
145
0.0
301
CELL_VALUE
 90
4
  1
8.760 lb.
304
ACVALUE_END
170
5
140
0.125
171
1
172
0
173
0
174
0
175
1
176
1
 91
33
178
0
145
0.0
301
CELL_VALUE
 90
4
  1
3,974 kg.
304
ACVALUE_END
170
5
140
0.125
171
1
172
0
173
0
174
0
175
1
176
1
 91
33
178
0
145
0.0
301
CELL_VALUE
 90
4
  1
Mounting Hole Diameter
304
ACVALUE_END
170
5
140
0.125
171
1
172
0
173
0
174
0
175
1
176
1
 91
33
178
0
145
0.0
301
CELL_VALUE
 90
4
  1
.53 in.
304
ACVALUE_END
170
5
140
0.125
171
1
172
0
173
0
174
0
175
1
176
1
 91
33
178
0
145
0.0
301
CELL_VALUE
 90
4
  1
13,5 mm
304
ACVALUE_END
170
5
140
0.125
171
1
172
0
173
0
174
0
175
1
176
1
 91
33
178
0
145
0.0
301
CELL_VALUE
 90
4
  1
Mounting Hole Depth
304
ACVALUE_END
170
5
140
0.125
171
1
172
0
173
0
174
0
175
2
176
1
 91
33
178
0
145
0.0
301
CELL_VALUE
 90
4
  1
Through
304
ACVALUE_END
170
5
140
0.125
171
1
172
0
173
1
174
0
175
1
176
1
 91
1
178
0
145
0.0
170
1
171
1
172
0
173
0
174
0
175
1
176
1
 91
33
178
0
145
0.0
301
CELL_VALUE
 90
4
  1
Mounting Hole Quantity
304
ACVALUE_END
170
5
140
0.125
171
1
172
0
173
0
174
0
175
2
176
1
 91
33
178
0
145
0.0
301
CELL_VALUE
 90
4
  1
2
304
ACVALUE_END
170
5
140
0.125
171
1
172
0
173
1
174
0
175
1
176
1
 91
1
178
0
145
0.0
170
1
171
1
172
0
173
0
174
0
175
1
176
1
 91
33
178
0
145
0.0
301
CELL_VALUE
 90
4
  1
Mounting Hole C'bore Diameter
304
ACVALUE_END
170
5
140
0.125
171
1
172
0
173
0
174
0
175
1
176
1
 91
33
178
0
145
0.0
301
CELL_VALUE
 90
4
  1
.78 in.
304
ACVALUE_END
170
5
140
0.125
171
1
172
0
173
0
174
0
175
1
176
1
 91
33
178
0
145
0.0
301
CELL_VALUE
 90
4
  1
19,8 mm
304
ACVALUE_END
170
5
140
0.125
171
1
172
0
173
0
174
0
175
1
176
1
 91
33
178
0
145
0.0
301
CELL_VALUE
 90
4
  1
Mounting Hole C'bore Depth
304
ACVALUE_END
170
5
140
0.125
171
1
172
0
173
0
174
0
175
1
176
1
 91
33
178
0
145
0.0
301
CELL_VALUE
 90
4
  1
.47 in.
304
ACVALUE_END
170
5
140
0.125
171
1
172
0
173
0
174
0
175
1
176
1
 91
33
178
0
145
0.0
301
CELL_VALUE
 90
4
  1
12 mm
304
ACVALUE_END
170
5
140
0.125
  0
ACAD_TABLE
  5
292
100
AcDbEntity
  8
0
 62
2
  6
CONTINUOUS
100
AcDbBlockReference
  2
*T3
 10
0.52125
 20
1.709
 30
0.0
100
AcDbTable
342
       38C
343
20C
 11
1.0
 21
0.0
 31
0.0
 90
22
 91
4
 92
3
 93
16
 94
0
 95
0
 96
0
 41
0.05
141
0.34375
141
0.344
141
0.25
141
0.25
142
1.3
142
2.0
142
1.3
171
1
172
0
173
0
174
0
175
3
176
1
 91
33
178
0
145
0.0
301
CELL_VALUE
 90
4
  1
Port Headings
304
ACVALUE_END
170
5
140
0.145
171
1
172
0
173
1
174
0
175
1
176
1
 91
1
178
0
145
0.0
170
1
171
1
172
0
173
1
174
0
175
1
176
1
 91
1
178
0
145
0.0
170
1
171
1
172
0
173
0
174
0
175
1
176
1
 91
33
178
0
145
0.0
301
CELL_VALUE
 90
4
  1
Product
304
ACVALUE_END
170
5
140
0.145
171
1
172
0
173
0
174
0
175
1
176
1
 91
33
178
0
145
0.0
301
CELL_VALUE
 90
4
  1
Port
304
ACVALUE_END
170
5
140
0.145
171
1
172
0
173
0
174
0
175
1
176
1
 91
33
178
0
145
0.0
301
CELL_VALUE
 90
4
  1
Size
304
ACVALUE_END
170
5
140
0.145
171
1
172
0
173
0
174
0
175
1
176
1
 91
33
178
0
145
0.0
301
CELL_VALUE
 90
4
  1
VFX
304
ACVALUE_END
170
5
140
0.125
171
1
172
0
173
0
174
0
175
1
176
1
 91
33
178
0
145
0.0
301
CELL_VALUE
 90
4
  1
Ports C2, V1, V2
304
ACVALUE_END
170
5
140
0.125
171
1
172
0
173
0
174
0
175
1
176
1
 91
33
178
0
145
0.0
301
CELL_VALUE
 90
4
  1
3/4" NPTF
304
ACVALUE_END
170
5
140
0.125
171
1
172
0
173
0
174
0
175
1
176
1
 91
33
178
0
145
0.0
301
CELL_VALUE
 90
4
  1
VFX
304
ACVALUE_END
170
5
140
0.125
171
1
172
0
173
0
174
0
175
1
176
1
 91
33
178
0
145
0.0
301
CELL_VALUE
 90
4
  1
Vent Port
304
ACVALUE_END
170
5
140
0.125
171
1
172
0
173
0
174
0
175
1
176
1
 91
33
178
0
145
0.0
301
CELL_VALUE
 90
4
  1
1/4" NPTF
304
ACVALUE_END
170
5
140
0.125
  0
MTEXT
  5
293
100
AcDbEntity
  8
0
100
AcDbMText
 62
2
  6
CONTINUOUS
  7
STANDARD
 71
1
 72
1
 10
0.52125
 20
5.75995
 30
0.0
 11
1.0
 21
0.0
 31
0.0
 44
0.6
  3
Notes\P \P1. Important: Carefully consider\P   the maximum system pressure. The\P   pressure rating of the manifold is\P   dependent on the manifold material,\P   with the port type/size a secondary\P   consideration. Manifolds\P   constructed of alu
  1
minum are not\P   rated for pressures higher than\P   3000 psi (210 bar), regardless of\P   the port type/size specified.
 40
0.1
 41
3.04
  0
LINE
  5
294
100
AcDbEntity
  8
0
100
AcDbLine
 62
7
  6
CONTINUOUS
 10
0.30125
 20
0.30125
 11
0.30125
 21
16.69875
  0
LINE
  5
295
100
AcDbEntity
  8
0
100
AcDbLine
 62
7
  6
CONTINUOUS
 10
0.30125
 20
0.30125
 11
21.69875
 21
0.30125
  0
LINE
  5
296
100
AcDbEntity
  8
0
100
AcDbLine
 62
7
  6
CONTINUOUS
 10
0.30125
 20
16.69875
 11
21.69875
 21
16.69875
  0
LINE
  5
297
100
AcDbEntity
  8
0
100
AcDbLine
 62
7
  6
CONTINUOUS
 10
21.69875
 20
0.30125
 11
21.69875
 21
16.69875
  0
LINE
  5
298
100
AcDbEntity
  8
0
100
AcDbLine
 62
7
  6
CONTINUOUS
 10
7.9369770288
 20
6.130920254
 11
7.9369770288
 21
9.4517734065
  0
LINE
  5
299
100
AcDbEntity
  8
0
100
AcDbLine
 62
7
  6
CONTINUOUS
 10
7.9369770288
 20
9.4517734065
 11
9.7163564954
 21
11.1705220899
  0
LINE
  5
29A
100
AcDbEntity
  8
0
100
AcDbLine
 62
7
  6
CONTINUOUS
 10
12.2836435046
 20
5.8294779101
 11
7.9369770288
 21
6.130920254
  0
LINE
  5
29B
100
AcDbEntity
  8
0
100
AcDbLine
 62
4
  6
CONTINUOUS
 10
8.7638095938
 20
8.4690755181
 11
8.7638095938
 21
8.4497570054
  0
LINE
  5
29C
100
AcDbEntity
  8
0
100
AcDbLine
 62
4
  6
CONTINUOUS
 10
8.5754540507
 20
8.4435009872
 11
8.5826984946
 21
8.4719763591
  0
LINE
  5
29D
100
AcDbEntity
  8
0
100
AcDbLine
 62
4
  6
CONTINUOUS
 10
8.713098486
 20
8.4049775373
 11
8.705854042
 21
8.3765021653
  0
LINE
  5
29E
100
AcDbEntity
  8
0
100
AcDbLine
 62
4
  6
CONTINUOUS
 10
8.5826984946
 20
8.4140208074
 11
8.5754540507
 21
8.4435009872
  0
LINE
  5
29F
100
AcDbEntity
  8
0
100
AcDbLine
 62
4
  6
CONTINUOUS
 10
8.5826984946
 20
8.4719763591
 11
8.5971873826
 21
8.4902900709
  0
LINE
  5
2A0
100
AcDbEntity
  8
0
100
AcDbLine
 62
4
  6
CONTINUOUS
 10
9.3272348355
 20
9.6370878872
 11
9.320579494
 21
9.6306593205
  0
LINE
  5
2A1
100
AcDbEntity
  8
0
100
AcDbLine
 62
4
  6
CONTINUOUS
 10
9.3658187083
 20
9.6229285601
 11
9.3591633675
 21
9.6164999941
  0
LINE
  5
2A2
100
AcDbEntity
  8
0
100
AcDbLine
 62
4
  6
CONTINUOUS
 10
9.4514252719
 20
9.6284752512
 11
9.4336776957
 21
9.6113324079
  0
LINE
  5
2A3
100
AcDbEntity
  8
0
100
AcDbLine
 62
4
  6
CONTINUOUS
 10
8.5971873826
 20
8.3936974827
 11
8.5826984946
 21
8.4140208074
  0
LINE
  5
2A4
100
AcDbEntity
  8
0
100
AcDbLine
 62
4
  6
CONTINUOUS
 10
8.6406540464
 20
8.4872756475
 11
8.6478984903
 21
8.4771139804
  0
LINE
  5
2A5
100
AcDbEntity
  8
0
100
AcDbLine
 62
4
  6
CONTINUOUS
 10
8.705854042
 20
8.4730947492
 11
8.713098486
 21
8.4822516086
  0
LINE
  5
2A6
100
AcDbEntity
  8
0
100
AcDbLine
 62
4
  6
CONTINUOUS
 10
8.6478984903
 20
8.3998399143
 11
8.6406540464
 21
8.3906830593
  0
LINE
  5
2A7
100
AcDbEntity
  8
0
100
AcDbLine
 62
4
  6
CONTINUOUS
 10
8.7275873739
 20
8.4232912456
 11
8.713098486
 21
8.4049775373
  0
LINE
  5
2A8
100
AcDbEntity
  8
0
100
AcDbLine
 62
4
  6
CONTINUOUS
 10
8.7638095938
 20
8.4497570054
 11
8.7565651498
 21
8.4406001461
  0
LINE
  5
2A9
100
AcDbEntity
  8
0
100
AcDbLine
 62
4
  6
CONTINUOUS
 10
9.4978003273
 20
9.6275558355
 11
9.475615856
 21
9.6061272805
  0
LINE
  5
2AA
100
AcDbEntity
  8
0
100
AcDbLine
 62
4
  6
CONTINUOUS
 10
9.4689605161
 20
9.5996987154
 11
9.4667420682
 21
9.5975558592
  0
LINE
  5
2AB
100
AcDbEntity
  8
0
100
AcDbLine
 62
4
  6
CONTINUOUS
 10
9.6755159277
 20
9.7792159738
 11
9.6444576686
 21
9.7492159975
  0
LINE
  5
2AC
100
AcDbEntity
  8
0
100
AcDbLine
 62
4
  6
CONTINUOUS
 10
9.6958110036
 20
9.7502480419
 11
9.7179954744
 21
9.7716765965
  0
LINE
  5
2AD
100
AcDbEntity
  8
0
100
AcDbLine
 62
4
  6
CONTINUOUS
 10
9.570096153
 20
9.6202453976
 11
9.5412563411
 21
9.5923882768
  0
LINE
  5
2AE
100
AcDbEntity
  8
0
100
AcDbLine
 62
4
  6
CONTINUOUS
 10
9.6054320425
 20
9.6200915507
 11
9.5832475712
 21
9.5986629957
  0
LINE
  5
2AF
100
AcDbEntity
  8
0
100
AcDbLine
 62
4
  6
CONTINUOUS
 10
9.7803879205
 20
9.7719430764
 11
9.7493296614
 21
9.7419431001
  0
LINE
  5
2B0
100
AcDbEntity
  8
0
100
AcDbLine
 62
4
  6
CONTINUOUS
 10
9.63292379
 20
9.5952179382
 11
9.6528898141
 21
9.6145036377
  0
LINE
  5
2B1
100
AcDbEntity
  8
0
100
AcDbLine
 62
4
  6
CONTINUOUS
 10
9.7868839976
 20
9.7439321083
 11
9.8090684685
 21
9.7653606629
  0
LINE
  5
2B2
100
AcDbEntity
  8
0
100
AcDbLine
 62
4
  6
CONTINUOUS
 10
9.6882257036
 20
9.6143497908
 11
9.6704781262
 21
9.5972069464
  0
LINE
  5
2B3
100
AcDbEntity
  8
0
100
AcDbLine
 62
4
  6
CONTINUOUS
 10
9.8670240202
 20
9.7613414317
 11
9.8448395493
 21
9.7399128772
  0
LINE
  5
2B4
100
AcDbEntity
  8
0
100
AcDbLine
 62
4
  6
CONTINUOUS
 10
9.7356834199
 20
9.6087618816
 11
9.7290280784
 21
9.602333315
  0
LINE
  5
2B5
100
AcDbEntity
  8
0
100
AcDbLine
 62
4
  6
CONTINUOUS
 10
9.7538131189
 20
9.5891309409
 11
9.7582500128
 21
9.5934166515
  0
LINE
  5
2B6
100
AcDbEntity
  8
0
100
AcDbLine
 62
4
  6
CONTINUOUS
 10
9.9636165695
 20
9.7546427157
 11
9.9414320987
 21
9.7332141611
  0
LINE
  5
2B7
100
AcDbEntity
  8
0
100
AcDbLine
 62
4
  6
CONTINUOUS
 10
9.81241614
 20
9.6057371548
 11
9.7902316687
 21
9.5843085998
  0
LINE
  5
2B8
100
AcDbEntity
  8
0
100
AcDbLine
 62
4
  6
CONTINUOUS
 10
9.8144753785
 20
9.5734404722
 11
9.8455336376
 21
9.6034404486
  0
LINE
  5
2B9
100
AcDbEntity
  8
0
100
AcDbLine
 62
4
  6
CONTINUOUS
 10
8.7565651498
 20
8.4792371852
 11
8.7638095938
 21
8.4690755181
  0
LINE
  5
2BA
100
AcDbEntity
  8
0
100
AcDbLine
 62
4
  6
CONTINUOUS
 10
9.8929913539
 20
9.5978525394
 11
9.8752437776
 21
9.5807096961
  0
LINE
  5
2BB
100
AcDbEntity
  8
0
100
AcDbLine
 62
4
  6
CONTINUOUS
 10
9.9880385
 20
9.6868039372
 11
9.9569802409
 21
9.6568039608
  0
LINE
  5
2BC
100
AcDbEntity
  8
0
100
AcDbLine
 62
4
  6
CONTINUOUS
 10
10.1419201467
 20
9.7468707314
 11
10.1108618876
 21
9.716870755
  0
LINE
  5
2BD
100
AcDbEntity
  8
0
100
AcDbLine
 62
4
  6
CONTINUOUS
 10
9.9801157428
 20
9.5734368006
 11
10.0000817663
 21
9.5927224994
  0
LINE
  5
2BE
100
AcDbEntity
  8
0
100
AcDbLine
 62
4
  6
CONTINUOUS
 10
10.208155059
 20
9.7422773246
 11
10.1770967999
 21
9.7122773483
  0
LINE
  5
2BF
100
AcDbEntity
  8
0
100
AcDbLine
 62
4
  6
CONTINUOUS
 10
10.0497579574
 20
9.5892774439
 11
10.0186996983
 21
9.5592774675
  0
LINE
  5
2C0
100
AcDbEntity
  8
0
100
AcDbLine
 62
4
  6
CONTINUOUS
 10
10.1739484214
 20
9.5806648059
 11
10.1428901623
 21
9.5506648296
  0
LINE
  5
2C1
100
AcDbEntity
  8
0
100
AcDbLine
 62
4
  6
CONTINUOUS
 10
10.0515136243
 20
9.6824019224
 11
9.9873379056
 21
9.6546986496
  0
LINE
  5
2C2
100
AcDbEntity
  8
0
100
AcDbLine
 62
4
  6
CONTINUOUS
 10
10.3406248974
 20
9.7330905101
 11
10.2764491822
 21
9.7053872372
  0
LINE
  5
2C3
100
AcDbEntity
  8
0
100
AcDbLine
 62
4
  6
CONTINUOUS
 10
9.9578003988
 20
9.6033104065
 11
9.8951036615
 21
9.5770357024
  0
LINE
  5
2C4
100
AcDbEntity
  8
0
100
AcDbLine
 62
4
  6
CONTINUOUS
 10
9.4639822906
 20
9.5977472504
 11
9.4689605161
 21
9.5996987154
  0
LINE
  5
2C5
100
AcDbEntity
  8
0
100
AcDbLine
 62
4
  6
CONTINUOUS
 10
8.6116762705
 20
8.383033416
 11
8.5971873826
 21
8.3936974827
  0
LINE
  5
2C6
100
AcDbEntity
  8
0
100
AcDbLine
 62
4
  6
CONTINUOUS
 10
8.6261651584
 20
8.4979397116
 11
8.6406540464
 21
8.4872756475
  0
LINE
  5
2C7
100
AcDbEntity
  8
0
100
AcDbLine
 62
4
  6
CONTINUOUS
 10
8.7420762619
 20
8.4899012493
 11
8.7565651498
 21
8.4792371852
  0
LINE
  5
2C8
100
AcDbEntity
  8
0
100
AcDbLine
 62
4
  6
CONTINUOUS
 10
10.3609199319
 20
9.7041225811
 11
10.3831044027
 21
9.7255511357
  0
LINE
  5
2C9
100
AcDbEntity
  8
0
100
AcDbLine
 62
4
  6
CONTINUOUS
 10
10.2319039731
 20
9.5766455748
 11
10.2008457141
 21
9.5466455984
  0
LINE
  5
2CA
100
AcDbEntity
  8
0
100
AcDbLine
 62
4
  6
CONTINUOUS
 10
10.2605845349
 20
9.5700631603
 11
10.2339631702
 21
9.544348895
  0
LINE
  5
2CB
100
AcDbEntity
  8
0
100
AcDbLine
 62
4
  6
CONTINUOUS
 10
10.4454968419
 20
9.7258176161
 11
10.4144385828
 21
9.6958176397
  0
LINE
  5
2CC
100
AcDbEntity
  8
0
100
AcDbLine
 62
4
  6
CONTINUOUS
 10
10.2919187219
 20
9.5403296639
 11
10.3185400867
 21
9.5660439291
  0
LINE
  5
2CD
100
AcDbEntity
  8
0
100
AcDbLine
 62
4
  6
CONTINUOUS
 10
10.3516575428
 20
9.5637472258
 11
10.3472206485
 21
9.5594615147
  0
LINE
  5
2CE
100
AcDbEntity
  8
0
100
AcDbLine
 62
4
  6
CONTINUOUS
 10
10.3918655176
 20
9.5425851506
 11
10.3874286237
 21
9.53829944
  0
LINE
  5
2CF
100
AcDbEntity
  8
0
100
AcDbLine
 62
4
  6
CONTINUOUS
 10
8.5971873826
 20
8.4902900709
 11
8.6116762705
 21
8.4989445194
  0
LINE
  5
2D0
100
AcDbEntity
  8
0
100
AcDbLine
 62
4
  6
CONTINUOUS
 10
8.713098486
 20
8.4822516086
 11
8.7275873739
 21
8.4909060571
  0
LINE
  5
2D1
100
AcDbEntity
  8
0
100
AcDbLine
 62
4
  6
CONTINUOUS
 10
8.6406540464
 20
8.3906830593
 11
8.6261651584
 21
8.3820286082
  0
LINE
  5
2D2
100
AcDbEntity
  8
0
100
AcDbLine
 62
4
  6
CONTINUOUS
 10
8.7565651498
 20
8.4406001461
 11
8.7275873739
 21
8.4232912456
  0
LINE
  5
2D3
100
AcDbEntity
  8
0
100
AcDbLine
 62
4
  6
CONTINUOUS
 10
10.0535728248
 20
9.6501052424
 11
10.0515136243
 21
9.6824019224
  0
LINE
  5
2D4
100
AcDbEntity
  8
0
100
AcDbLine
 62
4
  6
CONTINUOUS
 10
9.944779825
 20
9.5735906487
 11
9.9421261869
 21
9.5967417325
  0
LINE
  5
2D5
100
AcDbEntity
  8
0
100
AcDbLine
 62
4
  6
CONTINUOUS
 10
10.2764491822
 20
9.7053872372
 11
10.2743899713
 21
9.7376839179
  0
LINE
  5
2D6
100
AcDbEntity
  8
0
100
AcDbLine
 62
7
  6
CONTINUOUS
 10
11.4516276744
 20
9.8904151245
 11
11.4531856579
 21
9.8918920295
  0
LINE
  5
2D7
100
AcDbEntity
  8
0
100
AcDbLine
 62
7
  6
CONTINUOUS
 10
11.4670824886
 20
9.9047981436
 11
11.4686149015
 21
9.9062466142
  0
LINE
  5
2D8
100
AcDbEntity
  8
0
100
AcDbLine
 62
7
  6
CONTINUOUS
 10
11.4686005877
 20
9.9062372399
 11
11.4531856579
 21
9.8918920295
  0
LINE
  5
2D9
100
AcDbEntity
  8
0
100
AcDbLine
 62
4
  6
CONTINUOUS
 10
8.6261651584
 20
8.3820286082
 11
8.6116762705
 21
8.383033416
  0
LINE
  5
2DA
100
AcDbEntity
  8
0
100
AcDbLine
 62
4
  6
CONTINUOUS
 10
8.705854042
 20
8.3765021653
 11
8.7638095938
 21
8.3724829342
  0
LINE
  5
2DB
100
AcDbEntity
  8
0
100
AcDbLine
 62
4
  6
CONTINUOUS
 10
9.6704781262
 20
9.5972069464
 11
9.6743205652
 21
9.5923470621
  0
LINE
  5
2DC
100
AcDbEntity
  8
0
100
AcDbLine
 62
7
  6
CONTINUOUS
 10
12.3713276238
 20
9.8412498739
 11
12.3721550414
 21
9.8420311489
  0
LINE
  5
2DD
100
AcDbEntity
  8
0
100
AcDbLine
 62
4
  6
CONTINUOUS
 10
8.6116762705
 20
8.4989445194
 11
8.6261651584
 21
8.4979397116
  0
LINE
  5
2DE
100
AcDbEntity
  8
0
100
AcDbLine
 62
4
  6
CONTINUOUS
 10
8.7275873739
 20
8.4909060571
 11
8.7420762619
 21
8.4899012493
  0
LINE
  5
2DF
100
AcDbEntity
  8
0
100
AcDbLine
 62
4
  6
CONTINUOUS
 10
10.2008457141
 20
9.5466455984
 11
10.1739484214
 21
9.5806648059
  0
LINE
  5
2E0
100
AcDbEntity
  8
0
100
AcDbLine
 62
4
  6
CONTINUOUS
 10
9.7571142263
 20
9.5866053022
 11
9.7538131189
 21
9.5891309409
  0
LINE
  5
2E1
100
AcDbEntity
  8
0
100
AcDbLine
 62
4
  6
CONTINUOUS
 10
9.8741865867
 20
9.6625457203
 11
9.8390099335
 21
9.6971391034
  0
LINE
  5
2E2
100
AcDbEntity
  8
0
100
AcDbLine
 62
7
  6
CONTINUOUS
 10
11.4303313516
 20
9.8485481323
 11
11.4303313516
 21
9.7700468199
  0
LINE
  5
2E3
100
AcDbEntity
  8
0
100
AcDbLine
 62
7
  6
CONTINUOUS
 10
12.2836435046
 20
9.1503310626
 11
14.0630229712
 21
10.869079746
  0
LINE
  5
2E4
100
AcDbEntity
  8
0
100
AcDbLine
 62
4
  6
CONTINUOUS
 10
9.3155481444
 20
9.617228014
 11
9.3094872593
 21
9.6199450439
  0
LINE
  5
2E5
100
AcDbEntity
  8
0
100
AcDbLine
 62
4
  6
CONTINUOUS
 10
9.3769109438
 20
9.6336428374
 11
9.370850058
 21
9.6363598666
  0
LINE
  5
2E6
100
AcDbEntity
  8
0
100
AcDbLine
 62
4
  6
CONTINUOUS
 10
9.4453643861
 20
9.6311922804
 11
9.4514252719
 21
9.6284752512
  0
LINE
  5
2E7
100
AcDbEntity
  8
0
100
AcDbLine
 62
4
  6
CONTINUOUS
 10
9.564035212
 20
9.6229624307
 11
9.570096153
 21
9.6202453976
  0
LINE
  5
2E8
100
AcDbEntity
  8
0
100
AcDbLine
 62
4
  6
CONTINUOUS
 10
9.6528898141
 20
9.6145036377
 11
9.6468288731
 21
9.6172206708
  0
LINE
  5
2E9
100
AcDbEntity
  8
0
100
AcDbLine
 62
4
  6
CONTINUOUS
 10
9.9861766556
 20
9.5707197688
 11
9.9801157428
 21
9.5734368006
  0
LINE
  5
2EA
100
AcDbEntity
  8
0
100
AcDbLine
 62
7
  6
CONTINUOUS
 10
11.8254875133
 20
9.9206396153
 11
11.8254875133
 21
9.8038184346
  0
LINE
  5
2EB
100
AcDbEntity
  8
0
100
AcDbLine
 62
7
  6
CONTINUOUS
 10
7.9369770288
 20
9.4517734065
 11
12.2836435046
 21
9.1503310626
  0
LINE
  5
2EC
100
AcDbEntity
  8
0
100
AcDbLine
 62
4
  6
CONTINUOUS
 10
9.7213431459
 20
9.6120530884
 11
9.7356834199
 21
9.6087618816
  0
LINE
  5
2ED
100
AcDbEntity
  8
0
100
AcDbLine
 62
4
  6
CONTINUOUS
 10
9.8786510799
 20
9.6011437461
 11
9.8929913539
 21
9.5978525394
  0
LINE
  5
2EE
100
AcDbEntity
  8
0
100
AcDbLine
 62
4
  6
CONTINUOUS
 10
9.320579494
 20
9.6306593205
 11
9.3273798623
 21
9.6286565766
  0
LINE
  5
2EF
100
AcDbEntity
  8
0
100
AcDbLine
 62
4
  6
CONTINUOUS
 10
9.35901834
 20
9.624931304
 11
9.3658187083
 21
9.6229285601
  0
LINE
  5
2F0
100
AcDbEntity
  8
0
100
AcDbLine
 62
4
  6
CONTINUOUS
 10
10.3472206485
 20
9.5594615147
 11
10.3918655176
 21
9.5425851506
  0
LINE
  5
2F1
100
AcDbEntity
  8
0
100
AcDbLine
 62
4
  6
CONTINUOUS
 10
9.7079328309
 20
9.74481398
 11
9.6958110036
 21
9.7502480419
  0
LINE
  5
2F2
100
AcDbEntity
  8
0
100
AcDbLine
 62
4
  6
CONTINUOUS
 10
9.7990058249
 20
9.7384980464
 11
9.7868839976
 21
9.7439321083
  0
LINE
  5
2F3
100
AcDbEntity
  8
0
100
AcDbLine
 62
4
  6
CONTINUOUS
 10
10.3333155421
 20
9.5374587847
 11
10.3272546259
 21
9.5401758167
  0
LINE
  5
2F4
100
AcDbEntity
  8
0
100
AcDbLine
 62
4
  6
CONTINUOUS
 10
9.8549021934
 20
9.7667754941
 11
9.8670240202
 21
9.7613414317
  0
LINE
  5
2F5
100
AcDbEntity
  8
0
100
AcDbLine
 62
4
  6
CONTINUOUS
 10
10.3185400867
 20
9.5660439291
 11
10.3064182529
 21
9.5714779919
  0
LINE
  5
2F6
100
AcDbEntity
  8
0
100
AcDbLine
 62
4
  6
CONTINUOUS
 10
9.9514947427
 20
9.760076778
 11
9.9636165695
 21
9.7546427157
  0
LINE
  5
2F7
100
AcDbEntity
  8
0
100
AcDbLine
 62
4
  6
CONTINUOUS
 10
10.4118315417
 20
9.5618708501
 11
10.405770624
 21
9.5645878816
  0
LINE
  5
2F8
100
AcDbEntity
  8
0
100
AcDbLine
 62
4
  6
CONTINUOUS
 10
10.373041766
 20
9.6986885187
 11
10.3609199319
 21
9.7041225811
  0
LINE
  5
2F9
100
AcDbEntity
  8
0
100
AcDbLine
 62
4
  6
CONTINUOUS
 10
10.3874286237
 20
9.53829944
 11
10.366433
 21
9.5351620811
  0
LINE
  5
2FA
100
AcDbEntity
  8
0
100
AcDbLine
 62
4
  6
CONTINUOUS
 10
10.366433
 20
9.5351620811
 11
10.3333155421
 21
9.5374587847
  0
LINE
  5
2FB
100
AcDbEntity
  8
0
100
AcDbLine
 62
4
  6
CONTINUOUS
 10
9.4667420682
 20
9.5975558592
 11
9.4639822906
 21
9.5977472504
  0
LINE
  5
2FC
100
AcDbEntity
  8
0
100
AcDbLine
 62
4
  6
CONTINUOUS
 10
10.0275734861
 20
9.5678488888
 11
9.9861766556
 21
9.5707197688
  0
LINE
  5
2FD
100
AcDbEntity
  8
0
100
AcDbLine
 62
4
  6
CONTINUOUS
 10
9.8564666086
 20
9.5797151911
 11
9.8233491663
 21
9.5820118935
  0
LINE
  5
2FE
100
AcDbEntity
  8
0
100
AcDbLine
 62
4
  6
CONTINUOUS
 10
9.7902316687
 20
9.5843085998
 11
9.7571142263
 21
9.5866053022
  0
LINE
  5
2FF
100
AcDbEntity
  8
0
100
AcDbLine
 62
4
  6
CONTINUOUS
 10
9.4231799148
 20
9.6097637254
 11
9.390062362
 21
9.6120604355
  0
LINE
  5
300
100
AcDbEntity
  8
0
100
AcDbLine
 62
4
  6
CONTINUOUS
 10
9.3486655867
 20
9.6149313116
 11
9.3155481444
 21
9.617228014
  0
LINE
  5
301
100
AcDbEntity
  8
0
100
AcDbLine
 62
4
  6
CONTINUOUS
 10
9.6743205652
 20
9.5923470621
 11
9.7157173958
 21
9.5894761821
  0
LINE
  5
302
100
AcDbEntity
  8
0
100
AcDbLine
 62
4
  6
CONTINUOUS
 10
9.7102509103
 20
9.6013388109
 11
9.6771334679
 21
9.6036355133
  0
LINE
  5
303
100
AcDbEntity
  8
0
100
AcDbLine
 62
4
  6
CONTINUOUS
 10
10.405770624
 20
9.5645878816
 11
10.3726531652
 21
9.5668845852
  0
LINE
  5
304
100
AcDbEntity
  8
0
100
AcDbLine
 62
4
  6
CONTINUOUS
 10
10.3064182529
 20
9.5714779919
 11
10.2815801505
 21
9.5732005202
  0
LINE
  5
305
100
AcDbEntity
  8
0
100
AcDbLine
 62
4
  6
CONTINUOUS
 10
9.6468288731
 20
9.6172206708
 11
9.6054320425
 21
9.6200915507
  0
LINE
  5
306
100
AcDbEntity
  8
0
100
AcDbLine
 62
4
  6
CONTINUOUS
 10
9.370850058
 20
9.6363598666
 11
9.3377326157
 21
9.638656569
  0
LINE
  5
307
100
AcDbEntity
  8
0
100
AcDbLine
 62
4
  6
CONTINUOUS
 10
9.4122468333
 20
9.6334889905
 11
9.4453643861
 21
9.6311922804
  0
LINE
  5
308
100
AcDbEntity
  8
0
100
AcDbLine
 62
4
  6
CONTINUOUS
 10
9.5474764908
 20
9.6241107819
 11
9.564035212
 21
9.6229624307
  0
LINE
  5
309
100
AcDbEntity
  8
0
100
AcDbLine
 62
4
  6
CONTINUOUS
 10
9.6882257036
 20
9.6143497908
 11
9.7213431459
 21
9.6120530884
  0
LINE
  5
30A
100
AcDbEntity
  8
0
100
AcDbLine
 62
4
  6
CONTINUOUS
 10
9.8455336376
 20
9.6034404486
 11
9.8786510799
 21
9.6011437461
  0
LINE
  5
30B
100
AcDbEntity
  8
0
100
AcDbLine
 62
4
  6
CONTINUOUS
 10
9.9743591199
 20
9.6021620553
 11
9.9578003988
 21
9.6033104065
  0
LINE
  5
30C
100
AcDbEntity
  8
0
100
AcDbLine
 62
4
  6
CONTINUOUS
 10
9.9569802409
 20
9.6568039608
 11
9.9073040567
 21
9.6602490159
  0
LINE
  5
30D
100
AcDbEntity
  8
0
100
AcDbLine
 62
4
  6
CONTINUOUS
 10
9.9206147383
 20
9.6731061479
 11
9.9702909226
 21
9.6696610928
  0
LINE
  5
30E
100
AcDbEntity
  8
0
100
AcDbLine
 62
4
  6
CONTINUOUS
 10
9.3273798623
 20
9.6286565766
 11
9.35901834
 21
9.624931304
  0
LINE
  5
30F
100
AcDbEntity
  8
0
100
AcDbLine
 62
4
  6
CONTINUOUS
 10
9.5734957798
 20
9.7663863153
 11
9.535255031
 21
9.7751628682
  0
LINE
  5
310
100
AcDbEntity
  8
0
100
AcDbLine
 62
4
  6
CONTINUOUS
 10
10.4984210785
 20
9.708367076
 11
10.4601803258
 21
9.7171436287
  0
LINE
  5
311
100
AcDbEntity
  8
0
100
AcDbLine
 62
7
  6
CONTINUOUS
 10
12.1394599473
 20
9.942413716
 11
12.1394599473
 21
9.7822207807
  0
LINE
  5
312
100
AcDbEntity
  8
0
100
AcDbLine
 62
7
  6
CONTINUOUS
 10
12.2836435046
 20
9.1503310626
 11
12.2836435046
 21
5.8294779101
  0
LINE
  5
313
100
AcDbEntity
  8
0
100
AcDbLine
 62
4
  6
CONTINUOUS
 10
10.3726531652
 20
9.5668845852
 11
10.3516575428
 21
9.5637472258
  0
LINE
  5
314
100
AcDbEntity
  8
0
100
AcDbLine
 62
4
  6
CONTINUOUS
 10
10.2815801505
 20
9.5732005202
 11
10.2605845349
 21
9.5700631603
  0
LINE
  5
315
100
AcDbEntity
  8
0
100
AcDbLine
 62
4
  6
CONTINUOUS
 10
10.3831044027
 20
9.7255511357
 11
10.4041000251
 21
9.7286884951
  0
LINE
  5
316
100
AcDbEntity
  8
0
100
AcDbLine
 62
4
  6
CONTINUOUS
 10
9.4336776957
 20
9.6113324079
 11
9.4231799148
 21
9.6097637254
  0
LINE
  5
317
100
AcDbEntity
  8
0
100
AcDbLine
 62
4
  6
CONTINUOUS
 10
9.3591633675
 20
9.6164999941
 11
9.3486655867
 21
9.6149313116
  0
LINE
  5
318
100
AcDbEntity
  8
0
100
AcDbLine
 62
4
  6
CONTINUOUS
 10
9.3377326157
 20
9.638656569
 11
9.3272348355
 21
9.6370878872
  0
LINE
  5
319
100
AcDbEntity
  8
0
100
AcDbLine
 62
4
  6
CONTINUOUS
 10
9.9414320987
 20
9.7332141611
 11
9.9204364836
 21
9.7300768017
  0
LINE
  5
31A
100
AcDbEntity
  8
0
100
AcDbLine
 62
4
  6
CONTINUOUS
 10
9.8752437776
 20
9.5807096961
 11
9.8564666086
 21
9.5797151911
  0
LINE
  5
31B
100
AcDbEntity
  8
0
100
AcDbLine
 62
4
  6
CONTINUOUS
 10
9.7290280784
 20
9.602333315
 11
9.7102509103
 21
9.6013388109
  0
LINE
  5
31C
100
AcDbEntity
  8
0
100
AcDbLine
 62
4
  6
CONTINUOUS
 10
10.4483486074
 20
9.7057150656
 11
10.4984210785
 21
9.708367076
  0
LINE
  5
31D
100
AcDbEntity
  8
0
100
AcDbLine
 62
4
  6
CONTINUOUS
 10
9.535255031
 20
9.7751628682
 11
9.5853274982
 21
9.7778148784
  0
LINE
  5
31E
100
AcDbEntity
  8
0
100
AcDbLine
 62
4
  6
CONTINUOUS
 10
10.4144385828
 20
9.6958176397
 11
10.373041766
 21
9.6986885187
  0
LINE
  5
31F
100
AcDbEntity
  8
0
100
AcDbLine
 62
4
  6
CONTINUOUS
 10
10.2102142699
 20
9.7099806439
 11
10.1439793576
 21
9.7145740507
  0
LINE
  5
320
100
AcDbEntity
  8
0
100
AcDbLine
 62
4
  6
CONTINUOUS
 10
10.1108618876
 20
9.716870755
 11
10.0611856965
 21
9.7203158106
  0
LINE
  5
321
100
AcDbEntity
  8
0
100
AcDbLine
 62
4
  6
CONTINUOUS
 10
9.9204364836
 20
9.7300768017
 11
9.8873190413
 21
9.7323735041
  0
LINE
  5
322
100
AcDbEntity
  8
0
100
AcDbLine
 62
4
  6
CONTINUOUS
 10
9.8238439343
 20
9.7367755177
 11
9.7990058249
 21
9.7384980464
  0
LINE
  5
323
100
AcDbEntity
  8
0
100
AcDbLine
 62
4
  6
CONTINUOUS
 10
9.7493296614
 20
9.7419431001
 11
9.7079328309
 21
9.74481398
  0
LINE
  5
324
100
AcDbEntity
  8
0
100
AcDbLine
 62
4
  6
CONTINUOUS
 10
9.6444576686
 20
9.7492159975
 11
9.5947815051
 21
9.7526610511
  0
LINE
  5
325
100
AcDbEntity
  8
0
100
AcDbLine
 62
4
  6
CONTINUOUS
 10
9.6246509079
 20
9.7643698319
 11
9.6577683502
 21
9.7620731294
  0
LINE
  5
326
100
AcDbEntity
  8
0
100
AcDbLine
 62
4
  6
CONTINUOUS
 10
10.0910550993
 20
9.7320245913
 11
10.1241725693
 21
9.729727887
  0
LINE
  5
327
100
AcDbEntity
  8
0
100
AcDbLine
 62
4
  6
CONTINUOUS
 10
10.3207119566
 20
9.7252846557
 11
10.2765553484
 21
9.7283469269
  0
LINE
  5
328
100
AcDbEntity
  8
0
100
AcDbLine
 62
4
  6
CONTINUOUS
 10
10.1419201467
 20
9.7468707314
 11
10.0922439555
 21
9.750315787
  0
LINE
  5
329
100
AcDbEntity
  8
0
100
AcDbLine
 62
4
  6
CONTINUOUS
 10
9.6755159277
 20
9.7792159738
 11
9.6258397642
 21
9.7826610275
  0
LINE
  5
32A
100
AcDbEntity
  8
0
100
AcDbLine
 62
4
  6
CONTINUOUS
 10
9.7389910899
 20
9.7748139564
 11
9.7803879205
 21
9.7719430764
  0
LINE
  5
32B
100
AcDbEntity
  8
0
100
AcDbLine
 62
4
  6
CONTINUOUS
 10
9.830064084
 20
9.7684980228
 11
9.8549021934
 21
9.7667754941
  0
LINE
  5
32C
100
AcDbEntity
  8
0
100
AcDbLine
 62
4
  6
CONTINUOUS
 10
9.9183773004
 20
9.7623734804
 11
9.9514947427
 21
9.760076778
  0
LINE
  5
32D
100
AcDbEntity
  8
0
100
AcDbLine
 62
4
  6
CONTINUOUS
 10
10.4041000251
 20
9.7286884951
 11
10.4454968419
 21
9.7258176161
  0
LINE
  5
32E
100
AcDbEntity
  8
0
100
AcDbLine
 62
4
  6
CONTINUOUS
 10
9.9052448458
 20
9.6925456966
 11
9.8079516744
 21
9.667139127
  0
LINE
  5
32F
100
AcDbEntity
  8
0
100
AcDbLine
 62
4
  6
CONTINUOUS
 10
9.8448395493
 20
9.7399128772
 11
9.8238439343
 21
9.7367755177
  0
LINE
  5
330
100
AcDbEntity
  8
0
100
AcDbLine
 62
4
  6
CONTINUOUS
 10
9.8090684685
 20
9.7653606629
 11
9.830064084
 21
9.7684980228
  0
LINE
  5
331
100
AcDbEntity
  8
0
100
AcDbLine
 62
4
  6
CONTINUOUS
 10
9.7179954744
 20
9.7716765965
 11
9.7389910899
 21
9.7748139564
  0
LINE
  5
332
100
AcDbEntity
  8
0
100
AcDbLine
 62
7
  6
CONTINUOUS
 10
12.6803313516
 20
9.8485481323
 11
12.6803313516
 21
9.7700813682
  0
LINE
  5
333
100
AcDbEntity
  8
0
100
AcDbLine
 62
7
  6
CONTINUOUS
 10
12.6420621156
 20
9.9062372399
 11
12.6574770453
 21
9.8918920295
  0
LINE
  5
334
100
AcDbEntity
  8
0
100
AcDbLine
 62
7
  6
CONTINUOUS
 10
9.7163564954
 20
11.1705220899
 11
14.0630229712
 21
10.869079746
  0
LINE
  5
335
100
AcDbEntity
  8
0
100
AcDbLine
 62
7
  6
CONTINUOUS
 10
12.2836435046
 20
5.8294779101
 11
14.0630229712
 21
7.5482265935
  0
LINE
  5
336
100
AcDbEntity
  8
0
100
AcDbLine
 62
7
  6
CONTINUOUS
 10
14.0630229712
 20
10.869079746
 11
14.0630229712
 21
7.5482265935
  0
ARC
  5
337
100
AcDbEntity
  8
0
100
AcDbCircle
 62
7
  6
CONTINUOUS
 10
9.2520562029
 20
8.1419780948
 40
1.0646141422
100
AcDbArc
 50
338.5931765446
 51
339.8712471996
  0
ARC
  5
338
100
AcDbEntity
  8
0
100
AcDbCircle
 62
7
  6
CONTINUOUS
 10
11.6281203433
 20
9.3017523443
 40
0.5116031917
100
AcDbArc
 50
112.7442841836
 51
113.2499418304
  0
ARC
  5
339
100
AcDbEntity
  8
0
100
AcDbCircle
 62
7
  6
CONTINUOUS
 10
12.4825458179
 20
9.3017605063
 40
0.5115943274
100
AcDbArc
 50
66.7496984908
 51
67.2557204881
  0
ARC
  5
33A
100
AcDbEntity
  8
0
100
AcDbCircle
 62
7
  6
CONTINUOUS
 10
11.7890602625
 20
9.8951599642
 40
0.0733475411
100
AcDbArc
 50
229.2554762658
 51
231.7173745467
  0
ARC
  5
33B
100
AcDbEntity
  8
0
100
AcDbCircle
 62
7
  6
CONTINUOUS
 10
11.7836468589
 20
9.8889049452
 40
0.0650753102
100
AcDbArc
 50
227.0644204655
 51
229.272003284
  0
SPLINE
  5
33C
100
AcDbEntity
  8
0
100
AcDbSpline
 62
7
  6
CONTINUOUS
 70
0
 71
3
 72
48
 73
44
 74
0
 42
0.0000001
 43
0.0000001
 44
0.0000000001
 40
0.0
 40
0.0
 40
0.0
 40
0.0
 40
0.0083001213
 40
0.0171788073
 40
0.0266483739
 40
0.0367140976
 40
0.0473768138
 40
0.0586345632
 40
0.0704829227
 40
0.0829132983
 40
0.1094720083
 40
0.1382075509
 40
0.1689833754
 40
0.2016443695
 40
0.236014226
 40
0.2719031349
 40
0.3091067979
 40
0.3474107802
 40
0.3865915456
 40
0.4264184404
 40
0.4666563059
 40
0.5070661045
 40
0.5474082573
 40
0.5874430006
 40
0.6269334291
 40
0.6656466758
 40
0.7033556995
 40
0.7398422937
 40
0.7748968027
 40
0.8083237379
 40
0.8399393429
 40
0.8695807046
 40
0.8971008537
 40
0.91002869
 40
0.9223833923
 40
0.9341540088
 40
0.9453340641
 40
0.9559195284
 40
0.9659086722
 40
0.9753028937
 40
0.9841081058
 40
0.9923349732
 40
1.0
 40
1.0
 40
1.0
 40
1.0
 10
11.7436184517
 20
9.8375847645
 30
0.0
 10
11.7450239146
 20
9.8364739034
 30
0.0
 10
11.7480109927
 20
9.8342725987
 30
0.0
 10
11.752829864
 20
9.8311279263
 30
0.0
 10
11.7581288545
 20
9.8280360696
 30
0.0
 10
11.7638991347
 20
9.82500133
 30
0.0
 10
11.7701316308
 20
9.8220281826
 30
0.0
 10
11.776816867
 20
9.8191213853
 30
0.0
 10
11.7839448266
 20
9.8162859457
 30
0.0
 10
11.7942531825
 20
9.8125227788
 30
0.0
 10
11.8081779615
 20
9.8080560263
 30
0.0
 10
11.8261027349
 20
9.8031586773
 30
0.0
 10
11.8454816048
 20
9.7986418202
 30
0.0
 10
11.8661922902
 20
9.7945366453
 30
0.0
 10
11.8881040679
 20
9.7908681388
 30
0.0
 10
11.9110782134
 20
9.7876614505
 30
0.0
 10
11.9349689986
 20
9.7849362291
 30
0.0
 10
11.9596248065
 20
9.7827109495
 30
0.0
 10
11.9848889635
 20
9.7809993728
 30
0.0
 10
12.0106009807
 20
9.7798129315
 30
0.0
 10
12.0365973452
 20
9.7791591145
 30
0.0
 10
12.0627128578
 20
9.7790420901
 30
0.0
 10
12.0887814028
 20
9.7794628704
 30
0.0
 10
12.1146373099
 20
9.7804182778
 30
0.0
 10
12.1401161501
 20
9.7819028234
 30
0.0
 10
12.1650560308
 20
9.7839060373
 30
0.0
 10
12.1892984664
 20
9.7864160892
 30
0.0
 10
12.212689535
 20
9.7894154398
 30
0.0
 10
12.2350808029
 20
9.7928862457
 30
0.0
 10
12.256330371
 20
9.7968041813
 30
0.0
 10
12.2763039985
 20
9.8011458695
 30
0.0
 10
12.29487546
 20
9.8058810716
 30
0.0
 10
12.3093743916
 20
9.8102170616
 30
0.0
 10
12.3201671771
 20
9.8138811451
 30
0.0
 10
12.3276707333
 20
9.8166508893
 30
0.0
 10
12.3347411766
 20
9.8194957807
 30
0.0
 10
12.3413678932
 20
9.8224111296
 30
0.0
 10
12.3475410642
 20
9.8253924526
 30
0.0
 10
12.3532511425
 20
9.8284353663
 30
0.0
 10
12.3584886338
 20
9.8315357961
 30
0.0
 10
12.3632455548
 20
9.8346880769
 30
0.0
 10
12.3675139753
 20
9.8378862313
 30
0.0
 10
12.3701191244
 20
9.8401228872
 30
0.0
 10
12.3713304698
 20
9.841249669
 30
0.0
  0
SPLINE
  5
33D
100
AcDbEntity
  8
0
100
AcDbSpline
 62
7
  6
CONTINUOUS
 70
0
 71
3
 72
14
 73
10
 74
0
 42
0.0000001
 43
0.0000001
 44
0.0000000001
 40
0.0
 40
0.0
 40
0.0
 40
0.0
 40
0.1086223694
 40
0.2227361345
 40
0.3419212653
 40
0.4657736359
 40
0.5938907229
 40
0.7258701321
 40
1.0
 40
1.0
 40
1.0
 40
1.0
 10
12.3444365114
 20
9.8243133278
 30
0.0
 10
12.3455461848
 20
9.8263366229
 30
0.0
 10
12.3477466662
 20
9.8305268801
 30
0.0
 10
12.35093139
 20
9.8370563533
 30
0.0
 10
12.3540834398
 20
9.8439589008
 30
0.0
 10
12.3572016771
 20
9.8512016522
 30
0.0
 10
12.3602860136
 20
9.8587532518
 30
0.0
 10
12.3644060001
 20
9.8693287439
 30
0.0
 10
12.3673646926
 20
9.8774344084
 30
0.0
 10
12.3693037857
 20
9.8829258287
 30
0.0
  0
SPLINE
  5
33E
100
AcDbEntity
  8
0
100
AcDbSpline
 62
7
  6
CONTINUOUS
 70
0
 71
3
 72
52
 73
48
 74
0
 42
0.0000001
 43
0.0000001
 44
0.0000000001
 40
0.0
 40
0.0
 40
0.0
 40
0.0
 40
0.0077387223
 40
0.0160539521
 40
0.024962965
 40
0.0344768859
 40
0.0446016061
 40
0.0553386983
 40
0.0666866828
 40
0.0786412572
 40
0.091193383
 40
0.1043314041
 40
0.1180424256
 40
0.1323116939
 40
0.1471215533
 40
0.1624533379
 40
0.1946023933
 40
0.2285843148
 40
0.264207331
 40
0.3012625655
 40
0.3395308301
 40
0.378780781
 40
0.4187745662
 40
0.4592671292
 40
0.500010293
 40
0.540753239
 40
0.581245724
 40
0.6212388443
 40
0.6604885582
 40
0.6987556413
 40
0.7358105213
 40
0.7714319254
 40
0.8054132247
 40
0.8375605374
 40
0.8676997949
 40
0.881967701
 40
0.8956782168
 40
0.9088158324
 40
0.9213666357
 40
0.9333203307
 40
0.9446687486
 40
0.9554056403
 40
0.9655284678
 40
0.9750398662
 40
0.9839464413
 40
0.9922598492
 40
1.0
 40
1.0
 40
1.0
 40
1.0
 10
11.4686110549
 20
9.9062468912
 30
0.0
 10
11.4709015226
 20
9.9083776434
 30
0.0
 10
11.4758334625
 20
9.9126063077
 30
0.0
 10
11.4839241056
 20
9.9186472826
 30
0.0
 10
11.4929531448
 20
9.9245990779
 30
0.0
 10
11.502905405
 20
9.9304496453
 30
0.0
 10
11.5137645345
 20
9.9361896042
 30
0.0
 10
11.5255125811
 20
9.9418108062
 30
0.0
 10
11.5381314744
 20
9.9473044325
 30
0.0
 10
11.5516016638
 20
9.9526610856
 30
0.0
 10
11.5659010087
 20
9.9578727763
 30
0.0
 10
11.5810058317
 20
9.9629310602
 30
0.0
 10
11.5968917059
 20
9.9678270453
 30
0.0
 10
11.6135327928
 20
9.9725520106
 30
0.0
 10
11.6309014014
 20
9.9770990613
 30
0.0
 10
11.6553800937
 20
9.9830080316
 30
0.0
 10
11.6875972244
 20
9.989859637
 30
0.0
 10
11.7280872173
 20
9.9971388145
 30
0.0
 10
11.7707302667
 20
10.0035477135
 30
0.0
 10
11.815245941
 20
10.0090462303
 30
0.0
 10
11.8613417945
 20
10.0135948576
 30
0.0
 10
11.9087147065
 20
10.0171655181
 30
0.0
 10
11.9570528364
 20
10.0197323357
 30
0.0
 10
12.006038111
 20
10.0212796396
 30
0.0
 10
12.0553478938
 20
10.0217961716
 30
0.0
 10
12.1046576295
 20
10.021278789
 30
0.0
 10
12.1536425156
 20
10.0197312625
 30
0.0
 10
12.2019801652
 20
10.0171630105
 30
0.0
 10
12.249352268
 20
10.0135926936
 30
0.0
 10
12.2954472025
 20
10.0090422113
 30
0.0
 10
12.3399617225
 20
10.0035444045
 30
0.0
 10
12.3826032885
 20
9.9971334992
 30
0.0
 10
12.4230922304
 20
9.9898552624
 30
0.0
 10
12.4611625808
 20
9.9817557914
 30
0.0
 10
12.4911910766
 20
9.974238843
 30
0.0
 10
12.5137925363
 20
9.9678202199
 30
0.0
 10
12.5296775161
 20
9.9629243755
 30
0.0
 10
12.5447815436
 20
9.9578665653
 30
0.0
 10
12.559079533
 20
9.9526541967
 30
0.0
 10
12.5725485757
 20
9.9472966165
 30
0.0
 10
12.5851671428
 20
9.9418029154
 30
0.0
 10
12.5969143995
 20
9.936181582
 30
0.0
 10
12.607771155
 20
9.9304411186
 30
0.0
 10
12.6177207993
 20
9.9245916323
 30
0.0
 10
12.6267480778
 20
9.9186421468
 30
0.0
 10
12.6348373626
 20
9.9126011765
 30
0.0
 10
12.6397680944
 20
9.9083713481
 30
0.0
 10
12.6420586455
 20
9.9062398377
 30
0.0
  0
SPLINE
  5
33F
100
AcDbEntity
  8
0
100
AcDbSpline
 62
7
  6
CONTINUOUS
 70
0
 71
3
 72
15
 73
11
 74
0
 42
0.0000001
 43
0.0000001
 44
0.0000000001
 40
0.0
 40
0.0
 40
0.0
 40
0.0
 40
0.1492632538
 40
0.2897091991
 40
0.4220366375
 40
0.5471358952
 40
0.666101153
 40
0.7802218941
 40
0.8909758692
 40
1.0
 40
1.0
 40
1.0
 40
1.0
 10
12.6574763989
 20
9.891891983
 30
0.0
 10
12.6593122465
 20
9.8901834893
 30
0.0
 10
12.6627721154
 20
9.8867532467
 30
0.0
 10
12.6674306899
 20
9.8813981452
 30
0.0
 10
12.6713877873
 20
9.8759994366
 30
0.0
 10
12.6746371523
 20
9.8705620948
 30
0.0
 10
12.6771741075
 20
9.8650917066
 30
0.0
 10
12.6789929468
 20
9.8595938116
 30
0.0
 10
12.6800875349
 20
9.854076971
 30
0.0
 10
12.6803314426
 20
9.8503799001
 30
0.0
 10
12.6803314003
 20
9.8485481323
 30
0.0
  0
SPLINE
  5
340
100
AcDbEntity
  8
0
100
AcDbSpline
 62
7
  6
CONTINUOUS
 70
0
 71
3
 72
15
 73
11
 74
0
 42
0.0000001
 43
0.0000001
 44
0.0000000001
 40
0.0
 40
0.0
 40
0.0
 40
0.0
 40
0.1098818339
 40
0.2213890443
 40
0.3360729859
 40
0.4553559627
 40
0.5804641769
 40
0.712410792
 40
0.8520301999
 40
1.0
 40
1.0
 40
1.0
 40
1.0
 10
11.4303313029
 20
9.8485481323
 30
0.0
 10
11.4303313437
 20
9.8503157342
 30
0.0
 10
11.4305584046
 20
9.8538810721
 30
0.0
 10
11.4315759872
 20
9.8592038056
 30
0.0
 10
11.4332684591
 20
9.8645105665
 30
0.0
 10
11.4356324775
 20
9.8697929671
 30
0.0
 10
11.4386617957
 20
9.87504543
 30
0.0
 10
11.4423493557
 20
9.8802630209
 30
0.0
 10
11.4466888239
 20
9.8854402701
 30
0.0
 10
11.4499156329
 20
9.8887614193
 30
0.0
 10
11.4516276744
 20
9.8904151245
 30
0.0
  0
SPLINE
  5
341
100
AcDbEntity
  8
0
100
AcDbSpline
 62
7
  6
CONTINUOUS
 70
0
 71
3
 72
28
 73
24
 74
0
 42
0.0000001
 43
0.0000001
 44
0.0000000001
 40
0.0
 40
0.0
 40
0.0
 40
0.0
 40
0.0719228633
 40
0.1428069269
 40
0.212481107
 40
0.280763181
 40
0.3475023933
 40
0.3802540182
 40
0.4125777223
 40
0.4444694654
 40
0.4759304608
 40
0.5069693103
 40
0.5376048294
 40
0.5678617924
 40
0.5977678192
 40
0.6566593153
 40
0.6857441456
 40
0.7146341975
 40
0.7433728885
 40
0.7719974853
 40
0.8290154922
 40
0.885936193
 40
1.0
 40
1.0
 40
1.0
 40
1.0
 10
12.1394599473
 20
9.942413716
 30
0.0
 10
12.1439046877
 20
9.9382275204
 30
0.0
 10
12.1528607463
 20
9.9300525692
 30
0.0
 10
12.1666329208
 20
9.9183961716
 30
0.0
 10
12.1806620091
 20
9.9075449945
 30
0.0
 10
12.1949501536
 20
9.8976394041
 30
0.0
 10
12.2071399806
 20
9.890250586
 30
0.0
 10
12.2170084281
 20
9.8849701583
 30
0.0
 10
12.2244120827
 20
9.8813667333
 30
0.0
 10
12.2318554048
 20
9.8781101331
 30
0.0
 10
12.2393295938
 20
9.8752137874
 30
0.0
 10
12.2468264409
 20
9.8726928212
 30
0.0
 10
12.2543351236
 20
9.8705546568
 30
0.0
 10
12.2618444977
 20
9.8688011125
 30
0.0
 10
12.2717910934
 20
9.8669906862
 30
0.0
 10
12.2817625259
 20
9.8659363972
 30
0.0
 10
12.2916816756
 20
9.8656247366
 30
0.0
 10
12.2990449299
 20
9.8657497257
 30
0.0
 10
12.3063549802
 20
9.8662155326
 30
0.0
 10
12.3160107388
 20
9.8672666827
 30
0.0
 10
12.3279481343
 20
9.8693507881
 30
0.0
 10
12.346716286
 20
9.8741387114
 30
0.0
 10
12.3603894597
 20
9.8791444262
 30
0.0
 10
12.3693037857
 20
9.8829258287
 30
0.0
  0
SPLINE
  5
342
100
AcDbEntity
  8
0
100
AcDbSpline
 62
7
  6
CONTINUOUS
 70
0
 71
3
 72
24
 73
20
 74
0
 42
0.0000001
 43
0.0000001
 44
0.0000000001
 40
0.0
 40
0.0
 40
0.0
 40
0.0
 40
0.1216799191
 40
0.18275286
 40
0.2440086129
 40
0.3054958583
 40
0.3363392546
 40
0.3672557824
 40
0.3982473642
 40
0.4293153603
 40
0.4916839284
 40
0.5543763011
 40
0.5858455174
 40
0.6173906749
 40
0.649006271
 40
0.6806864162
 40
0.7442220903
 40
0.8718315185
 40
1.0
 40
1.0
 40
1.0
 40
1.0
 10
11.8254875133
 20
9.9206396153
 30
0.0
 10
11.8377309159
 20
9.9153669976
 30
0.0
 10
11.8564285465
 20
9.9081187106
 30
0.0
 10
11.8819942975
 20
9.9002752661
 30
0.0
 10
11.9015511224
 20
9.8954264502
 30
0.0
 10
11.9181117924
 20
9.8923798525
 30
0.0
 10
11.9314990402
 20
9.8906045315
 30
0.0
 10
11.9416148036
 20
9.8896212938
 30
0.0
 10
11.9517839538
 20
9.8889992283
 30
0.0
 10
11.9654140022
 20
9.888664189
 30
0.0
 10
11.9825270174
 20
9.8892098067
 30
0.0
 10
11.9995944529
 20
9.891039558
 30
0.0
 10
12.0131883228
 20
9.8932604418
 30
0.0
 10
12.0233562819
 20
9.8952936175
 30
0.0
 10
12.0334706451
 20
9.8976804033
 30
0.0
 10
12.0468825725
 20
9.9013202768
 30
0.0
 10
12.0701270135
 20
9.9088264122
 30
0.0
 10
12.1024408232
 20
9.9223937555
 30
0.0
 10
12.1272577641
 20
9.9354663979
 30
0.0
 10
12.1394599473
 20
9.942413716
 30
0.0
  0
SPLINE
  5
343
100
AcDbEntity
  8
0
100
AcDbSpline
 62
7
  6
CONTINUOUS
 70
0
 71
3
 72
15
 73
11
 74
0
 42
0.0000001
 43
0.0000001
 44
0.0000000001
 40
0.0
 40
0.0
 40
0.0
 40
0.0
 40
0.1540419154
 40
0.2930491848
 40
0.4197878473
 40
0.5379840928
 40
0.6516622095
 40
0.7646487824
 40
0.880028186
 40
1.0
 40
1.0
 40
1.0
 40
1.0
 10
11.7834232154
 20
9.8379442861
 30
0.0
 10
11.7821248766
 20
9.8366901871
 30
0.0
 10
11.779528306
 20
9.8344284837
 30
0.0
 10
11.7754128156
 20
9.8317032129
 30
0.0
 10
11.7712960331
 20
9.8298349431
 30
0.0
 10
11.7671976405
 20
9.8288016157
 30
0.0
 10
11.7631390046
 20
9.8285703619
 30
0.0
 10
11.7591424497
 20
9.8290795769
 30
0.0
 10
11.7552185789
 20
9.8302596034
 30
0.0
 10
11.7527074267
 20
9.8314208185
 30
0.0
 10
11.7514668674
 20
9.8320822472
 30
0.0
  0
SPLINE
  5
344
100
AcDbEntity
  8
0
100
AcDbSpline
 62
7
  6
CONTINUOUS
 70
0
 71
3
 72
19
 73
15
 74
0
 42
0.0000001
 43
0.0000001
 44
0.0000000001
 40
0.0
 40
0.0
 40
0.0
 40
0.0
 40
0.1551097632
 40
0.3039122815
 40
0.4452895036
 40
0.5780062911
 40
0.6407287039
 40
0.7008135343
 40
0.7581185464
 40
0.8125295476
 40
0.8639551845
 40
0.9123347724
 40
0.9576686466
 40
1.0
 40
1.0
 40
1.0
 40
1.0
 10
11.8254875133
 20
9.9206396153
 30
0.0
 10
11.8238791085
 20
9.9160846886
 30
0.0
 10
11.8206490475
 20
9.9071874609
 30
0.0
 10
11.8156267275
 20
9.8942597426
 30
0.0
 10
11.8105167657
 20
9.8821191428
 30
0.0
 10
11.806105846
 20
9.8725985681
 30
0.0
 10
11.8025086457
 20
9.8654994179
 30
0.0
 10
11.7998412793
 20
9.8605641413
 30
0.0
 10
11.7971545311
 20
9.855936189
 30
0.0
 10
11.7944509848
 20
9.8516331225
 30
0.0
 10
11.7917332507
 20
9.8476714835
 30
0.0
 10
11.7890025178
 20
9.8440670771
 30
0.0
 10
11.7862638142
 20
9.8408315583
 30
0.0
 10
11.7843714226
 20
9.838860184
 30
0.0
 10
11.7834232154
 20
9.8379442861
 30
0.0
  0
SPLINE
  5
345
100
AcDbEntity
  8
0
100
AcDbSpline
 62
7
  6
CONTINUOUS
 70
0
 71
3
 72
64
 73
60
 74
0
 42
0.0000001
 43
0.0000001
 44
0.0000000001
 40
0.0
 40
0.0
 40
0.0
 40
0.0
 40
0.008401291
 40
0.0175392113
 40
0.0274395175
 40
0.0381173775
 40
0.049579163
 40
0.0618247425
 40
0.0748490796
 40
0.0886398496
 40
0.1031796301
 40
0.1184487377
 40
0.1344234421
 40
0.1510764068
 40
0.1683790755
 40
0.1863002229
 40
0.2238577893
 40
0.2634602892
 40
0.3047904091
 40
0.3475115463
 40
0.3912714435
 40
0.4357056122
 40
0.480443002
 40
0.525108678
 40
0.5693289391
 40
0.6127345878
 40
0.6549653389
 40
0.6755318177
 40
0.695675794
 40
0.7153562433
 40
0.7345345909
 40
0.7531730131
 40
0.7712348024
 40
0.7886865562
 40
0.8054962988
 40
0.8216333501
 40
0.8370711315
 40
0.8517856366
 40
0.8657547294
 40
0.8789613442
 40
0.8913929307
 40
0.9030403859
 40
0.9139016228
 40
0.9239827563
 40
0.9332974814
 40
0.9418715919
 40
0.9497470339
 40
0.9569834053
 40
0.9636641081
 40
0.9699016424
 40
0.972899934
 40
0.975842557
 40
0.9787509791
 40
0.9816476261
 40
0.9845551863
 40
0.9874960545
 40
0.9904918405
 40
0.9935629609
 40
1.0
 40
1.0
 40
1.0
 40
1.0
 10
12.6435802147
 20
9.8232077492
 30
0.0
 10
12.6409830945
 20
9.8206991236
 30
0.0
 10
12.6353015132
 20
9.8157273551
 30
0.0
 10
12.625831427
 20
9.8086828335
 30
0.0
 10
12.6150873125
 20
9.8017616868
 30
0.0
 10
12.6030933067
 20
9.7949827244
 30
0.0
 10
12.5898761853
 20
9.7883589878
 30
0.0
 10
12.5754642453
 20
9.7819038914
 30
0.0
 10
12.5598875956
 20
9.7756323253
 30
0.0
 10
12.5431805484
 20
9.7695573447
 30
0.0
 10
12.5253803617
 20
9.7636920693
 30
0.0
 10
12.5065262293
 20
9.7580510758
 30
0.0
 10
12.4866602823
 20
9.752646967
 30
0.0
 10
12.4658271787
 20
9.7474910174
 30
0.0
 10
12.4440731129
 20
9.7425955827
 30
0.0
 10
12.4134234784
 20
9.7363329691
 30
0.0
 10
12.3731625079
 20
9.7292756647
 30
0.0
 10
12.32273192
 20
9.7221281543
 30
0.0
 10
12.2699057477
 20
9.7162395415
 30
0.0
 10
12.2151572379
 20
9.7116636672
 30
0.0
 10
12.1589763362
 20
9.7084436779
 30
0.0
 10
12.1018664508
 20
9.7066076172
 30
0.0
 10
12.0443394961
 20
9.7061729544
 30
0.0
 10
11.9869110506
 20
9.7071441416
 30
0.0
 10
11.9300957991
 20
9.7095109978
 30
0.0
 10
11.874403321
 20
9.7132532409
 30
0.0
 10
11.8289516063
 20
9.7175254121
 30
0.0
 10
11.7935390179
 20
9.7216237891
 30
0.0
 10
11.7678012619
 20
9.724989234
 30
0.0
 10
11.7427090209
 20
9.7286665491
 30
0.0
 10
11.7183183193
 20
9.732646461
 30
0.0
 10
11.6946838874
 20
9.736919968
 30
0.0
 10
11.6718589118
 20
9.7414784619
 30
0.0
 10
11.6498942781
 20
9.7463107118
 30
0.0
 10
11.6288390671
 20
9.7514054979
 30
0.0
 10
11.6087407022
 20
9.7567524924
 30
0.0
 10
11.5896438283
 20
9.7623388988
 30
0.0
 10
11.5715907403
 20
9.7681514704
 30
0.0
 10
11.5546220131
 20
9.7741783279
 30
0.0
 10
11.5387750824
 20
9.7804055936
 30
0.0
 10
11.5240843087
 20
9.7868183592
 30
0.0
 10
11.5105823059
 20
9.7934035982
 30
0.0
 10
11.4982983891
 20
9.8001471865
 30
0.0
 10
11.4872577815
 20
9.8070335113
 30
0.0
 10
11.4774840803
 20
9.8140496644
 30
0.0
 10
11.4689983209
 20
9.8211835855
 30
0.0
 10
11.461816975
 20
9.8284219419
 30
0.0
 10
11.4559570779
 20
9.83575642
 30
0.0
 10
11.4514387972
 20
9.8431777477
 30
0.0
 10
11.4487720926
 20
9.849511965
 30
0.0
 10
11.4473682494
 20
9.8545603915
 30
0.0
 10
11.4466720013
 20
9.8583047793
 30
0.0
 10
11.4463205455
 20
9.8620532535
 30
0.0
 10
11.4463137797
 20
9.8658031778
 30
0.0
 10
11.4466515564
 20
9.8695518124
 30
0.0
 10
11.4473333639
 20
9.8732964293
 30
0.0
 10
11.4483587719
 20
9.8770348517
 30
0.0
 10
11.4502108636
 20
9.8820848126
 30
0.0
 10
11.4520805026
 20
9.885741332
 30
0.0
 10
11.453500937
 20
9.8881154745
 30
0.0
  0
SPLINE
  5
346
100
AcDbEntity
  8
0
100
AcDbSpline
 62
7
  6
CONTINUOUS
 70
0
 71
3
 72
9
 73
5
 74
0
 42
0.0000001
 43
0.0000001
 44
0.0000000001
 40
0.0
 40
0.0
 40
0.0
 40
0.0
 40
0.4763995565
 40
1.0
 40
1.0
 40
1.0
 40
1.0
 10
11.453500937
 20
9.8881154745
 30
0.0
 10
11.455258615
 20
9.8910532928
 30
0.0
 10
11.459457127
 20
9.8969213255
 30
0.0
 10
11.4643761698
 20
9.9021840403
 30
0.0
 10
11.4670824886
 20
9.9047981436
 30
0.0
  0
SPLINE
  5
347
100
AcDbEntity
  8
0
100
AcDbSpline
 62
7
  6
CONTINUOUS
 70
0
 71
3
 72
59
 73
55
 74
0
 42
0.0000001
 43
0.0000001
 44
0.0000000001
 40
0.0
 40
0.0
 40
0.0
 40
0.0
 40
0.0081190485
 40
0.0169139379
 40
0.0264079425
 40
0.0366153449
 40
0.0475429449
 40
0.0591917082
 40
0.0715584865
 40
0.0846348615
 40
0.0984066964
 40
0.112857639
 40
0.1279690737
 40
0.1437183287
 40
0.160081036
 40
0.1770317796
 40
0.1945421284
 40
0.2125816802
 40
0.2501218981
 40
0.2893857948
 40
0.3300881344
 40
0.3719271912
 40
0.414591044
 40
0.4577588631
 40
0.5011052014
 40
0.5443027388
 40
0.5870256722
 40
0.6289529323
 40
0.6697708531
 40
0.7091779804
 40
0.7468858727
 40
0.7826259555
 40
0.7996803121
 40
0.8161524676
 40
0.8320150821
 40
0.8472435356
 40
0.8618162899
 40
0.8757131138
 40
0.8889164169
 40
0.9014134826
 40
0.913194411
 40
0.9242527644
 40
0.9345890698
 40
0.944210126
 40
0.9531294056
 40
0.9613713118
 40
0.9689737183
 40
0.9759892806
 40
0.9824904411
 40
0.9885738369
 40
0.9914979005
 40
0.9943645582
 40
0.9971921535
 40
1.0
 40
1.0
 40
1.0
 40
1.0
 10
12.6590350288
 20
9.8066811401
 30
0.0
 10
12.6565100613
 20
9.8042422086
 30
0.0
 10
12.6510111792
 20
9.7994054388
 30
0.0
 10
12.6418829801
 20
9.7925316897
 30
0.0
 10
12.6315734017
 20
9.7857702993
 30
0.0
 10
12.6201035134
 20
9.7791379471
 30
0.0
 10
12.607496382
 20
9.7726469147
 30
0.0
 10
12.5937768968
 20
9.7663086677
 30
0.0
 10
12.5789707755
 20
9.7601360236
 30
0.0
 10
12.5631069294
 20
9.7541412768
 30
0.0
 10
12.5462174664
 20
9.7483355159
 30
0.0
 10
12.5283360943
 20
9.7427310739
 30
0.0
 10
12.5094983978
 20
9.7373404403
 30
0.0
 10
12.489742707
 20
9.7321734763
 30
0.0
 10
12.4691088395
 20
9.7272405817
 30
0.0
 10
12.4476380071
 20
9.7225527472
 30
0.0
 10
12.4253736113
 20
9.718118935
 30
0.0
 10
12.3942760905
 20
9.7124825322
 30
0.0
 10
12.3537487424
 20
9.7061697654
 30
0.0
 10
12.3033316722
 20
9.6998293775
 30
0.0
 10
12.2509111517
 20
9.69468211
 30
0.0
 10
12.1969106818
 20
9.6907682999
 30
0.0
 10
12.1417663012
 20
9.6881212667
 30
0.0
 10
12.0859234206
 20
9.6867629405
 30
0.0
 10
12.0298333523
 20
9.6867033009
 30
0.0
 10
11.9739493443
 20
9.6879446107
 30
0.0
 10
11.91872292
 20
9.6904750486
 30
0.0
 10
11.8646003368
 20
9.6942745378
 30
0.0
 10
11.812018612
 20
9.6993122064
 30
0.0
 10
11.7614019942
 20
9.7055449542
 30
0.0
 10
11.7131592108
 20
9.7129236751
 30
0.0
 10
11.6746791496
 20
9.720081623
 30
0.0
 10
11.645395584
 20
9.7263703913
 30
0.0
 10
11.6246061605
 20
9.7312589932
 30
0.0
 10
11.6046878463
 20
9.7363840961
 30
0.0
 10
11.585680774
 20
9.7417355351
 30
0.0
 10
11.5676227613
 20
9.747301449
 30
0.0
 10
11.550550234
 20
9.7530708368
 30
0.0
 10
11.534497772
 20
9.7590329684
 30
0.0
 10
11.5194968341
 20
9.7651746638
 30
0.0
 10
11.5055769999
 20
9.7714833835
 30
0.0
 10
11.492766422
 20
9.7779479564
 30
0.0
 10
11.4810896488
 20
9.784554993
 30
0.0
 10
11.4705684337
 20
9.7912911926
 30
0.0
 10
11.461223528
 20
9.7981454806
 30
0.0
 10
11.4530728768
 20
9.8051066645
 30
0.0
 10
11.4461308732
 20
9.8121629448
 30
0.0
 10
11.4404124551
 20
9.8193064825
 30
0.0
 10
11.435935107
 20
9.8265285855
 30
0.0
 10
11.4332150276
 20
9.8326876415
 30
0.0
 10
11.431711594
 20
9.8376018486
 30
0.0
 10
11.4309153777
 20
9.8412468031
 30
0.0
 10
11.4304375216
 20
9.8448960794
 30
0.0
 10
11.4303312749
 20
9.8473340688
 30
0.0
 10
11.4303313029
 20
9.8485481323
 30
0.0
  0
SPLINE
  5
348
100
AcDbEntity
  8
0
100
AcDbSpline
 62
7
  6
CONTINUOUS
 70
0
 71
3
 72
9
 73
5
 74
0
 42
0.0000001
 43
0.0000001
 44
0.0000000001
 40
0.0
 40
0.0
 40
0.0
 40
0.0
 40
0.5223790954
 40
1.0
 40
1.0
 40
1.0
 40
1.0
 10
12.6420586455
 20
9.9062398377
 30
0.0
 10
12.644674301
 20
9.9038057958
 30
0.0
 10
12.6494716523
 20
9.8989118108
 30
0.0
 10
12.6536756323
 20
9.8934889239
 30
0.0
 10
12.6554858725
 20
9.890769492
 30
0.0
  0
SPLINE
  5
349
100
AcDbEntity
  8
0
100
AcDbSpline
 62
7
  6
CONTINUOUS
 70
0
 71
3
 72
21
 73
17
 74
0
 42
0.0000001
 43
0.0000001
 44
0.0000000001
 40
0.0
 40
0.0
 40
0.0
 40
0.0
 40
0.1277271277
 40
0.1880766613
 40
0.2466360633
 40
0.3039064052
 40
0.360429056
 40
0.41677209
 40
0.4735085568
 40
0.5311986325
 40
0.5903743755
 40
0.6515276072
 40
0.7150915259
 40
0.7814353202
 40
0.8508747238
 40
1.0
 40
1.0
 40
1.0
 40
1.0
 10
12.6554858725
 20
9.890769492
 30
0.0
 10
12.6572698032
 20
9.8880895836
 30
0.0
 10
12.659622893
 20
9.8839419743
 30
0.0
 10
12.6619412985
 20
9.8781665499
 30
0.0
 10
12.6632034925
 20
9.8739015524
 30
0.0
 10
12.6640183499
 20
9.8696270005
 30
0.0
 10
12.6643839647
 20
9.8653465149
 30
0.0
 10
12.6643001433
 20
9.8610646885
 30
0.0
 10
12.6637673147
 20
9.8567858266
 30
0.0
 10
12.6627863901
 20
9.8525140799
 30
0.0
 10
12.6613586797
 20
9.8482531944
 30
0.0
 10
12.6594855003
 20
9.8440068498
 30
0.0
 10
12.6571697281
 20
9.8397784054
 30
0.0
 10
12.654414897
 20
9.8355705105
 30
0.0
 10
12.6500574834
 20
9.8298566962
 30
0.0
 10
12.6462836818
 20
9.8258190981
 30
0.0
 10
12.6435802147
 20
9.8232077492
 30
0.0
  0
SPLINE
  5
34A
100
AcDbEntity
  8
0
100
AcDbSpline
 62
7
  6
CONTINUOUS
 70
0
 71
3
 72
56
 73
52
 74
0
 42
0.0000001
 43
0.0000001
 44
0.0000000001
 40
0.0
 40
0.0
 40
0.0
 40
0.0
 40
0.0078447335
 40
0.0150428967
 40
0.0216909549
 40
0.0279175014
 40
0.0338875419
 40
0.0397913698
 40
0.0458256053
 40
0.052173629
 40
0.0589894863
 40
0.0663945352
 40
0.074479917
 40
0.0833083905
 40
0.0929218704
 40
0.1033477738
 40
0.1145997111
 40
0.1266801424
 40
0.1395854483
 40
0.1533059341
 40
0.1678241765
 40
0.1831193822
 40
0.1991682258
 40
0.2159419585
 40
0.2515335516
 40
0.2896179174
 40
0.3298779218
 40
0.3719690157
 40
0.4155237668
 40
0.4601558315
 40
0.5054675207
 40
0.5510519169
 40
0.5964999744
 40
0.6414032458
 40
0.6853608106
 40
0.7279814822
 40
0.768891512
 40
0.8077377807
 40
0.8441930746
 40
0.8614328123
 40
0.8779683535
 40
0.8937686685
 40
0.9088078364
 40
0.923062332
 40
0.9365114248
 40
0.949141981
 40
0.9609470432
 40
0.9719246596
 40
0.9820804593
 40
0.9914298659
 40
1.0
 40
1.0
 40
1.0
 40
1.0
 10
12.3721550414
 20
9.8420311489
 30
0.0
 10
12.3734829464
 20
9.8433138067
 30
0.0
 10
12.3759169897
 20
9.8458953132
 30
0.0
 10
12.3789720155
 20
9.8500015336
 30
0.0
 10
12.3812526539
 20
9.8541587171
 30
0.0
 10
12.3827407894
 20
9.8583597535
 30
0.0
 10
12.3834205628
 20
9.8625903395
 30
0.0
 10
12.383284373
 20
9.8668286376
 30
0.0
 10
12.3823334915
 20
9.8710505834
 30
0.0
 10
12.3805800071
 20
9.8752367296
 30
0.0
 10
12.3780412748
 20
9.8793773449
 30
0.0
 10
12.3747296036
 20
9.8834668064
 30
0.0
 10
12.3706544184
 20
9.8874990754
 30
0.0
 10
12.3658271612
 20
9.8914695601
 30
0.0
 10
12.3602587687
 20
9.8953717822
 30
0.0
 10
12.3539607348
 20
9.8991970886
 30
0.0
 10
12.3469474023
 20
9.9029374298
 30
0.0
 10
12.3392352962
 20
9.9065850844
 30
0.0
 10
12.3308418717
 20
9.9101310033
 30
0.0
 10
12.3217865072
 20
9.9135661511
 30
0.0
 10
12.3120910724
 20
9.9168832483
 30
0.0
 10
12.3017785582
 20
9.9200741799
 30
0.0
 10
12.2908731712
 20
9.9231305007
 30
0.0
 10
12.2752666599
 20
9.9270954701
 30
0.0
 10
12.2544613617
 20
9.9316305999
 30
0.0
 10
12.228056506
 20
9.9363302858
 30
0.0
 10
12.1999930388
 20
9.9403436439
 30
0.0
 10
12.1705402536
 20
9.9436312846
 30
0.0
 10
12.1399804112
 20
9.9461597994
 30
0.0
 10
12.1086070176
 20
9.9479057726
 30
0.0
 10
12.0767215552
 20
9.9488505876
 30
0.0
 10
12.0446304143
 20
9.9489859325
 30
0.0
 10
12.0126421999
 20
9.9483103307
 30
0.0
 10
11.9810642977
 20
9.9468296986
 30
0.0
 10
11.9502002202
 20
9.9445599257
 30
0.0
 10
11.9203464439
 20
9.9415218072
 30
0.0
 10
11.8917892353
 20
9.937746485
 30
0.0
 10
11.864802792
 20
9.9332706482
 30
0.0
 10
11.8434567058
 20
9.9289166828
 30
0.0
 10
11.8273760941
 20
9.9250899228
 30
0.0
 10
11.816089938
 20
9.9221271784
 30
0.0
 10
11.8053794267
 20
9.9190247457
 30
0.0
 10
11.795269875
 20
9.9157909626
 30
0.0
 10
11.7857853777
 20
9.9124339613
 30
0.0
 10
11.776948795
 20
9.9089610161
 30
0.0
 10
11.7687805744
 20
9.9053805346
 30
0.0
 10
11.7612989449
 20
9.9017011335
 30
0.0
 10
11.7545215517
 20
9.8979304624
 30
0.0
 10
11.7484644965
 20
9.8940769232
 30
0.0
 10
11.7431423339
 20
9.8901518941
 30
0.0
 10
11.7399583578
 20
9.8873760087
 30
0.0
 10
11.7385076618
 20
9.8859747439
 30
0.0
  0
SPLINE
  5
34B
100
AcDbEntity
  8
0
100
AcDbSpline
 62
7
  6
CONTINUOUS
 70
0
 71
3
 72
15
 73
11
 74
0
 42
0.0000001
 43
0.0000001
 44
0.0000000001
 40
0.0
 40
0.0
 40
0.0
 40
0.0
 40
0.1098818339
 40
0.2213890443
 40
0.3360729859
 40
0.4553559627
 40
0.5804641769
 40
0.712410792
 40
0.8520301999
 40
1.0
 40
1.0
 40
1.0
 40
1.0
 10
12.6803314003
 20
9.8485481323
 30
0.0
 10
12.6803313595
 20
9.8467805304
 30
0.0
 10
12.6801042987
 20
9.8432151925
 30
0.0
 10
12.679086716
 20
9.837892459
 30
0.0
 10
12.6773942442
 20
9.832585698
 30
0.0
 10
12.6750302257
 20
9.8273032975
 30
0.0
 10
12.6720009076
 20
9.8220508345
 30
0.0
 10
12.6683133475
 20
9.8168332436
 30
0.0
 10
12.6639738793
 20
9.8116559944
 30
0.0
 10
12.6607470703
 20
9.8083348453
 30
0.0
 10
12.6590350288
 20
9.8066811401
 30
0.0
  0
SPLINE
  5
34C
100
AcDbEntity
  8
0
100
AcDbSpline
 62
7
  6
CONTINUOUS
 70
0
 71
3
 72
21
 73
17
 74
0
 42
0.0000001
 43
0.0000001
 44
0.0000000001
 40
0.0
 40
0.0
 40
0.0
 40
0.0
 40
0.1429764656
 40
0.2085334058
 40
0.2706552842
 40
0.3298704726
 40
0.3868119795
 40
0.4422208669
 40
0.4969055632
 40
0.5517065123
 40
0.607459037
 40
0.6649544226
 40
0.7249013458
 40
0.7879136756
 40
0.854510413
 40
1.0
 40
1.0
 40
1.0
 40
1.0
 10
11.7385076618
 20
9.8859747439
 30
0.0
 10
11.7367334046
 20
9.884260943
 30
0.0
 10
11.7342929354
 20
9.8815921573
 30
0.0
 10
11.7316093569
 20
9.8777642511
 30
0.0
 10
11.730012522
 20
9.8749565843
 30
0.0
 10
11.7287773538
 20
9.8721328879
 30
0.0
 10
11.7279079795
 20
9.8692960356
 30
0.0
 10
11.7274063719
 20
9.8664504197
 30
0.0
 10
11.7272737876
 20
9.8636006306
 30
0.0
 10
11.72751061
 20
9.8607517077
 30
0.0
 10
11.7281162318
 20
9.857908649
 30
0.0
 10
11.7290890165
 20
9.8550760883
 30
0.0
 10
11.7304253603
 20
9.8522575441
 30
0.0
 10
11.732122192
 20
9.8494556064
 30
0.0
 10
11.7349445211
 20
9.8456333608
 30
0.0
 10
11.7374817119
 20
9.8429721951
 30
0.0
 10
11.7393191433
 20
9.8412620062
 30
0.0
  0
SPLINE
  5
34D
100
AcDbEntity
  8
0
100
AcDbSpline
 62
7
  6
CONTINUOUS
 70
0
 71
3
 72
41
 73
37
 74
0
 42
0.0000001
 43
0.0000001
 44
0.0000000001
 40
0.0
 40
0.0
 40
0.0
 40
0.0
 40
0.095831117
 40
0.1428223828
 40
0.1891016657
 40
0.2345981013
 40
0.2792429722
 40
0.3229696121
 40
0.3657132006
 40
0.4074112622
 40
0.448003761
 40
0.4874332724
 40
0.5256453013
 40
0.5625885702
 40
0.5982152284
 40
0.6324812004
 40
0.665346694
 40
0.6967765908
 40
0.7267409665
 40
0.7552158729
 40
0.7821842525
 40
0.8076369368
 40
0.8315740791
 40
0.8540071168
 40
0.8749610733
 40
0.8944776011
 40
0.9126190189
 40
0.9294732547
 40
0.945159461
 40
0.9598339275
 40
0.9668559389
 40
0.9737029555
 40
0.9804063486
 40
0.986999737
 40
0.9935186587
 40
1.0
 40
1.0
 40
1.0
 40
1.0
 10
11.8652289199
 20
9.6861736424
 30
0.0
 10
11.8460980794
 20
9.6875003707
 30
0.0
 10
11.8176067572
 20
9.6897953732
 30
0.0
 10
11.7799473017
 20
9.6935060997
 30
0.0
 10
11.7523468882
 20
9.6965654928
 30
0.0
 10
11.7252531464
 20
9.6999141066
 30
0.0
 10
11.6987113856
 20
9.7035463267
 30
0.0
 10
11.6727659942
 20
9.7074560333
 30
0.0
 10
11.6474603161
 20
9.7116366844
 30
0.0
 10
11.6228366368
 20
9.716081232
 30
0.0
 10
11.5989360802
 20
9.7207821962
 30
0.0
 10
11.5757985603
 20
9.7257316875
 30
0.0
 10
11.553462694
 20
9.7309213859
 30
0.0
 10
11.5319657258
 20
9.7363425447
 30
0.0
 10
11.5113434835
 20
9.741986049
 30
0.0
 10
11.4916303083
 20
9.7478424351
 30
0.0
 10
11.4728589644
 20
9.7539018466
 30
0.0
 10
11.4550605906
 20
9.760154107
 30
0.0
 10
11.438264655
 20
9.7665887638
 30
0.0
 10
11.4224988658
 20
9.7731950896
 30
0.0
 10
11.4077890923
 20
9.7799620983
 30
0.0
 10
11.3941593372
 20
9.7868786607
 30
0.0
 10
11.3816316863
 20
9.7939335882
 30
0.0
 10
11.370226211
 20
9.8011156688
 30
0.0
 10
11.3599609939
 20
9.8084138619
 30
0.0
 10
11.3508522111
 20
9.8158175879
 30
0.0
 10
11.3429143726
 20
9.8233167425
 30
0.0
 10
11.3361604927
 20
9.8309025279
 30
0.0
 10
11.3306037028
 20
9.8385653187
 30
0.0
 10
11.3269282217
 20
9.8451050569
 30
0.0
 10
11.3246370438
 20
9.8503414468
 30
0.0
 10
11.3232498761
 20
9.8542211955
 30
0.0
 10
11.3221698925
 20
9.8581085752
 30
0.0
 10
11.3213978913
 20
9.8620020187
 30
0.0
 10
11.3209344736
 20
9.8658992484
 30
0.0
 10
11.3208313486
 20
9.8685018947
 30
0.0
 10
11.3208313535
 20
9.8697988776
 30
0.0
  0
SPLINE
  5
34E
100
AcDbEntity
  8
0
100
AcDbSpline
 62
7
  6
CONTINUOUS
 70
0
 71
3
 72
37
 73
33
 74
0
 42
0.0000001
 43
0.0000001
 44
0.0000000001
 40
0.0
 40
0.0
 40
0.0
 40
0.0
 40
0.0958326293
 40
0.1891024329
 40
0.2792432903
 40
0.365712538
 40
0.4074111723
 40
0.4480042544
 40
0.4874343041
 40
0.5256468778
 40
0.5625906964
 40
0.598217801
 40
0.6324842932
 40
0.6653502578
 40
0.6967805579
 40
0.7267453929
 40
0.755220679
 40
0.7821894498
 40
0.8076424875
 40
0.8315799437
 40
0.8540133504
 40
0.8749675574
 40
0.8944843533
 40
0.9126260686
 40
0.9294805052
 40
0.9451669439
 40
0.959841614
 40
0.9737025845
 40
0.980406067
 40
0.9869995581
 40
0.9935185688
 40
1.0
 40
1.0
 40
1.0
 40
1.0
 10
11.8756528497
 20
10.3802424012
 30
0.0
 10
11.865481841
 20
10.3809477631
 30
0.0
 10
11.8454264991
 20
10.3825633258
 30
0.0
 10
11.8158760238
 20
10.3856472047
 30
0.0
 10
11.7873997357
 20
10.3893429017
 30
0.0
 10
11.7644532233
 20
10.3929537055
 30
0.0
 10
11.746783986
 20
10.3961428838
 30
0.0
 10
11.7340771434
 20
10.3986421863
 30
0.0
 10
11.7217759885
 20
10.401273605
 30
0.0
 10
11.7099010289
 20
10.4040327316
 30
0.0
 10
11.6984720747
 20
10.4069149
 30
0.0
 10
11.6875081777
 20
10.4099153142
 30
0.0
 10
11.6770275825
 20
10.4130288716
 30
0.0
 10
11.6670477173
 20
10.4162503814
 30
0.0
 10
11.6575851423
 20
10.4195744371
 30
0.0
 10
11.6486555087
 20
10.4229954319
 30
0.0
 10
11.6402735629
 20
10.4265077253
 30
0.0
 10
11.6324530493
 20
10.4301054275
 30
0.0
 10
11.6252067338
 20
10.4337826452
 30
0.0
 10
11.6185463619
 20
10.4375334427
 30
0.0
 10
11.6124825786
 20
10.4413517982
 30
0.0
 10
11.6070250448
 20
10.4452319377
 30
0.0
 10
11.6021823326
 20
10.4491681484
 30
0.0
 10
11.5979621101
 20
10.4531551312
 30
0.0
 10
11.5943714539
 20
10.4571880065
 30
0.0
 10
11.5914169918
 20
10.4612624979
 30
0.0
 10
11.5891059707
 20
10.4653735766
 30
0.0
 10
11.5877071754
 20
10.468866191
 30
0.0
 10
11.5869332938
 20
10.4716522973
 30
0.0
 10
11.5865227871
 20
10.4737223048
 30
0.0
 10
11.5862764301
 20
10.4757942736
 30
0.0
 10
11.5862216199
 20
10.4771779841
 30
0.0
 10
11.5862216226
 20
10.4778675303
 30
0.0
  0
SPLINE
  5
34F
100
AcDbEntity
  8
0
100
AcDbSpline
 62
7
  6
CONTINUOUS
 70
0
 71
3
 72
37
 73
33
 74
0
 42
0.0000001
 43
0.0000001
 44
0.0000000001
 40
0.0
 40
0.0
 40
0.0
 40
0.0
 40
0.0958326293
 40
0.1891024329
 40
0.2792432903
 40
0.365712538
 40
0.4074111723
 40
0.4480042544
 40
0.4874343041
 40
0.5256468778
 40
0.5625906964
 40
0.598217801
 40
0.6324842932
 40
0.6653502578
 40
0.6967805579
 40
0.7267453929
 40
0.755220679
 40
0.7821894498
 40
0.8076424875
 40
0.8315799437
 40
0.8540133504
 40
0.8749675574
 40
0.8944843533
 40
0.9126260686
 40
0.9294805052
 40
0.9451669439
 40
0.959841614
 40
0.9737025845
 40
0.980406067
 40
0.9869995581
 40
0.9935185688
 40
1.0
 40
1.0
 40
1.0
 40
1.0
 10
9.7003878424
 20
10.5310975418
 30
0.0
 10
9.6902168337
 20
10.5318029037
 30
0.0
 10
9.6701614919
 20
10.5334184664
 30
0.0
 10
9.6406110165
 20
10.5365023453
 30
0.0
 10
9.6121347285
 20
10.5401980423
 30
0.0
 10
9.5891882161
 20
10.5438088461
 30
0.0
 10
9.5715189787
 20
10.5469980244
 30
0.0
 10
9.5588121361
 20
10.549497327
 30
0.0
 10
9.5465109812
 20
10.5521287456
 30
0.0
 10
9.5346360217
 20
10.5548878722
 30
0.0
 10
9.5232070674
 20
10.5577700406
 30
0.0
 10
9.5122431705
 20
10.5607704548
 30
0.0
 10
9.5017625753
 20
10.5638840123
 30
0.0
 10
9.4917827101
 20
10.567105522
 30
0.0
 10
9.4823201351
 20
10.5704295777
 30
0.0
 10
9.4733905015
 20
10.5738505725
 30
0.0
 10
9.4650085557
 20
10.5773628659
 30
0.0
 10
9.4571880421
 20
10.5809605681
 30
0.0
 10
9.4499417265
 20
10.5846377858
 30
0.0
 10
9.4432813547
 20
10.5883885834
 30
0.0
 10
9.4372175714
 20
10.5922069389
 30
0.0
 10
9.4317600376
 20
10.5960870784
 30
0.0
 10
9.4269173254
 20
10.6000232891
 30
0.0
 10
9.4226971028
 20
10.6040102718
 30
0.0
 10
9.4191064467
 20
10.6080431471
 30
0.0
 10
9.4161519845
 20
10.6121176385
 30
0.0
 10
9.4138409635
 20
10.6162287172
 30
0.0
 10
9.4124421681
 20
10.6197213316
 30
0.0
 10
9.4116682865
 20
10.6225074379
 30
0.0
 10
9.4112577799
 20
10.6245774454
 30
0.0
 10
9.4110114229
 20
10.6266494142
 30
0.0
 10
9.4109566126
 20
10.6280331247
 30
0.0
 10
9.4109566153
 20
10.6287226709
 30
0.0
  0
SPLINE
  5
350
100
AcDbEntity
  8
0
100
AcDbSpline
 62
7
  6
CONTINUOUS
 70
0
 71
3
 72
15
 73
11
 74
0
 42
0.0000001
 43
0.0000001
 44
0.0000000001
 40
0.0
 40
0.0
 40
0.0
 40
0.0
 40
0.1210091816
 40
0.2475826747
 40
0.3775468502
 40
0.5085248972
 40
0.6381672148
 40
0.7643649562
 40
0.885398469
 40
1.0
 40
1.0
 40
1.0
 40
1.0
 10
10.1517188476
 20
7.6650187873
 30
0.0
 10
10.1532483556
 20
7.6689312406
 30
0.0
 10
10.1565470957
 20
7.6768706409
 30
0.0
 10
10.1620305111
 20
7.6887778312
 30
0.0
 10
10.1680816295
 20
7.7007954345
 30
0.0
 10
10.1745669481
 20
7.7127053419
 30
0.0
 10
10.1813359182
 20
7.7243048234
 30
0.0
 10
10.1882354361
 20
7.7354224629
 30
0.0
 10
10.1951238777
 20
7.7459274557
 30
0.0
 10
10.1997660789
 20
7.7526635634
 30
0.0
 10
10.2020596502
 20
7.7559142324
 30
0.0
  0
SPLINE
  5
351
100
AcDbEntity
  8
0
100
AcDbSpline
 62
7
  6
CONTINUOUS
 70
0
 71
3
 72
23
 73
19
 74
0
 42
0.0000001
 43
0.0000001
 44
0.0000000001
 40
0.0
 40
0.0
 40
0.0
 40
0.0
 40
0.0616482066
 40
0.1233194398
 40
0.1850364729
 40
0.2468215638
 40
0.3086962099
 40
0.3706809215
 40
0.4327950013
 40
0.4950563319
 40
0.5574811817
 40
0.6200840805
 40
0.6828775834
 40
0.7458723398
 40
0.8090769807
 40
0.8724966303
 40
0.9361388571
 40
1.0
 40
1.0
 40
1.0
 40
1.0
 10
8.3978680994
 20
7.9945551179
 30
0.0
 10
8.4029516813
 20
7.9994655037
 30
0.0
 10
8.4133871424
 20
8.0090165558
 30
0.0
 10
8.4297908018
 20
8.0224839612
 30
0.0
 10
8.4469067835
 20
8.035061187
 30
0.0
 10
8.4646913813
 20
8.0467159764
 30
0.0
 10
8.4830999111
 20
8.0574191583
 30
0.0
 10
8.5020859266
 20
8.0671437774
 30
0.0
 10
8.5216015984
 20
8.0758653804
 30
0.0
 10
8.5415977644
 20
8.0835619989
 30
0.0
 10
8.5620240404
 20
8.0902143033
 30
0.0
 10
8.5828289582
 20
8.0958056165
 30
0.0
 10
8.6039601162
 20
8.1003219269
 30
0.0
 10
8.6253643436
 20
8.1037518963
 30
0.0
 10
8.6469875955
 20
8.1060868645
 30
0.0
 10
8.6687758993
 20
8.1073212369
 30
0.0
 10
8.6906733596
 20
8.10745169
 30
0.0
 10
8.7052842757
 20
8.1068037658
 30
0.0
 10
8.7125883055
 20
8.1062972296
 30
0.0
  0
SPLINE
  5
352
100
AcDbEntity
  8
0
100
AcDbSpline
 62
7
  6
CONTINUOUS
 70
0
 71
3
 72
39
 73
35
 74
0
 42
0.0000001
 43
0.0000001
 44
0.0000000001
 40
0.0
 40
0.0
 40
0.0
 40
0.0
 40
0.0299393046
 40
0.0599022798
 40
0.0899120362
 40
0.1199905823
 40
0.1501583143
 40
0.1804335559
 40
0.2108321562
 40
0.2413671583
 40
0.2720485416
 40
0.3028830449
 40
0.3338740655
 40
0.3650216366
 40
0.3963224767
 40
0.4277701061
 40
0.4593550258
 40
0.491064949
 40
0.5228850818
 40
0.554798444
 40
0.5867862231
 40
0.618828155
 40
0.6509029254
 40
0.6829885856
 40
0.7150629765
 40
0.7471041564
 40
0.7790908249
 40
0.8110027394
 40
0.8428211144
 40
0.8745290121
 40
0.9061116491
 40
0.937556897
 40
0.9688549736
 40
1.0
 40
1.0
 40
1.0
 40
1.0
 10
9.0273085116
 20
7.3429104908
 30
0.0
 10
9.0347138962
 20
7.3500635764
 30
0.0
 10
9.0489759326
 20
7.3649626607
 30
0.0
 10
9.0685630447
 20
7.3889263748
 30
0.0
 10
9.0862489784
 20
7.4143861449
 30
0.0
 10
9.1019374068
 20
7.4412038727
 30
0.0
 10
9.1155450641
 20
7.4692363826
 30
0.0
 10
9.1269992809
 20
7.4983334517
 30
0.0
 10
9.136239139
 20
7.5283393774
 30
0.0
 10
9.1432155828
 20
7.5590936245
 30
0.0
 10
9.1478917114
 20
7.5904317533
 30
0.0
 10
9.1502429335
 20
7.6221862915
 30
0.0
 10
9.1502570832
 20
7.6541876335
 30
0.0
 10
9.1479344629
 20
7.6862649412
 30
0.0
 10
9.1432878247
 20
7.7182470485
 30
0.0
 10
9.1363422887
 20
7.7499633647
 30
0.0
 10
9.1271351971
 20
7.7812447722
 30
0.0
 10
9.1157159093
 20
7.8119245167
 30
0.0
 10
9.1021455434
 20
7.8418390885
 30
0.0
 10
9.0864966346
 20
7.8708290791
 30
0.0
 10
9.0688527497
 20
7.8987400199
 30
0.0
 10
9.0493080427
 20
7.9254231943
 30
0.0
 10
9.0279667566
 20
7.9507364206
 30
0.0
 10
9.0049426715
 20
7.974544801
 30
0.0
 10
8.9803585052
 20
7.9967214327
 30
0.0
 10
8.9543452634
 20
8.0171480762
 30
0.0
 10
8.9270415575
 20
8.0357157878
 30
0.0
 10
8.8985928649
 20
8.052325494
 30
0.0
 10
8.8691507783
 20
8.0668885171
 30
0.0
 10
8.8388721417
 20
8.0793270237
 30
0.0
 10
8.8079184646
 20
8.0895745022
 30
0.0
 10
8.7764541984
 20
8.0975759864
 30
0.0
 10
8.7446492719
 20
8.1032884962
 30
0.0
 10
8.7232732209
 20
8.1055562282
 30
0.0
 10
8.7125883055
 20
8.1062972296
 30
0.0
  0
SPLINE
  5
353
100
AcDbEntity
  8
0
100
AcDbSpline
 62
7
  6
CONTINUOUS
 70
0
 71
3
 72
39
 73
35
 74
0
 42
0.0000001
 43
0.0000001
 44
0.0000000001
 40
0.0
 40
0.0
 40
0.0
 40
0.0
 40
0.0311378356
 40
0.0624413686
 40
0.0939039361
 40
0.1255149311
 40
0.1572610237
 40
0.1891262
 40
0.2210921308
 40
0.2531385566
 40
0.2852436861
 40
0.3173846232
 40
0.3495377991
 40
0.3816794159
 40
0.4137858923
 40
0.4458343054
 40
0.4778028291
 40
0.5096711519
 40
0.5414208858
 40
0.5730359437
 40
0.6045028899
 40
0.6358112439
 40
0.666953757
 40
0.6979266092
 40
0.7287295635
 40
0.7593660391
 40
0.7898431147
 40
0.8201714301
 40
0.8503650232
 40
0.8804410537
 40
0.910419453
 40
0.940322512
 40
0.9701740848
 40
1.0
 40
1.0
 40
1.0
 40
1.0
 10
10.5532129463
 20
7.8166095187
 30
0.0
 10
10.5719989969
 20
7.8153067017
 30
0.0
 10
10.609589618
 20
7.8113182399
 30
0.0
 10
10.6655305836
 20
7.8012697977
 30
0.0
 10
10.7208932735
 20
7.7871906934
 30
0.0
 10
10.7753766359
 20
7.7691547435
 30
0.0
 10
10.828688927
 20
7.7472572733
 30
0.0
 10
10.8805433087
 20
7.7216145613
 30
0.0
 10
10.9306609878
 20
7.6923631408
 30
0.0
 10
10.9787724159
 20
7.6596592753
 30
0.0
 10
11.0246189049
 20
7.6236780292
 30
0.0
 10
11.0679539278
 20
7.5846121971
 30
0.0
 10
11.1085445932
 20
7.5426713942
 30
0.0
 10
11.1461729638
 20
7.4980809057
 30
0.0
 10
11.1806371091
 20
7.451080312
 30
0.0
 10
11.2117522967
 20
7.4019222632
 30
0.0
 10
11.2393521111
 20
7.3508711305
 30
0.0
 10
11.2632891718
 20
7.2982014135
 30
0.0
 10
11.2834359735
 20
7.244196269
 30
0.0
 10
11.2996857512
 20
7.1891459881
 30
0.0
 10
11.3119528275
 20
7.1333462816
 30
0.0
 10
11.3201730394
 20
7.0770966504
 30
0.0
 10
11.324304266
 20
7.0206987466
 30
0.0
 10
11.3243264047
 20
6.9644546345
 30
0.0
 10
11.3202413368
 20
6.9086651427
 30
0.0
 10
11.3120730461
 20
6.8536281987
 30
0.0
 10
11.2998672686
 20
6.7996371984
 30
0.0
 10
11.2836910003
 20
6.7469794695
 30
0.0
 10
11.263632228
 20
6.6959347706
 30
0.0
 10
11.2397992405
 20
6.6467737384
 30
0.0
 10
11.212320164
 20
6.5997569513
 30
0.0
 10
11.181340986
 20
6.5551325018
 30
0.0
 10
11.1470298801
 20
6.5131391007
 30
0.0
 10
11.1220444464
 20
6.4870343867
 30
0.0
 10
11.109070702
 20
6.4745027113
 30
0.0
  0
SPLINE
  5
354
100
AcDbEntity
  8
0
100
AcDbSpline
 62
7
  6
CONTINUOUS
 70
0
 71
3
 72
23
 73
19
 74
0
 42
0.0000001
 43
0.0000001
 44
0.0000000001
 40
0.0
 40
0.0
 40
0.0
 40
0.0
 40
0.0615683623
 40
0.1231623966
 40
0.1848063098
 40
0.2465250521
 40
0.308341925
 40
0.370279449
 40
0.4323586559
 40
0.4945990274
 40
0.5570182408
 40
0.619632003
 40
0.682453914
 40
0.7454952943
 40
0.8087652474
 40
0.8722701643
 40
0.9360147408
 40
1.0
 40
1.0
 40
1.0
 40
1.0
 10
10.0016446026
 20
7.6209945056
 30
0.0
 10
10.0105413308
 20
7.6295880856
 30
0.0
 10
10.0288048906
 20
7.6463034141
 30
0.0
 10
10.0575151768
 20
7.6698725771
 30
0.0
 10
10.0874748971
 20
7.6918845271
 30
0.0
 10
10.1186085308
 20
7.7122833505
 30
0.0
 10
10.1508391657
 20
7.7310182415
 30
0.0
 10
10.1840866326
 20
7.7480421107
 30
0.0
 10
10.2182683503
 20
7.7633120785
 30
0.0
 10
10.2532992835
 20
7.7767895165
 30
0.0
 10
10.289092206
 20
7.7884401613
 30
0.0
 10
10.3255578798
 20
7.7982342266
 30
0.0
 10
10.3626052564
 20
7.8061464761
 30
0.0
 10
10.4001417463
 20
7.8121563485
 30
0.0
 10
10.4380732491
 20
7.8162479513
 30
0.0
 10
10.4763050598
 20
7.818410253
 30
0.0
 10
10.5147398541
 20
7.8186370044
 30
0.0
 10
10.5403888089
 20
7.8174988757
 30
0.0
 10
10.5532129463
 20
7.8166095187
 30
0.0
  0
SPLINE
  5
355
100
AcDbEntity
  8
0
100
AcDbSpline
 62
7
  6
CONTINUOUS
 70
0
 71
3
 72
24
 73
20
 74
0
 42
0.0000001
 43
0.0000001
 44
0.0000000001
 40
0.0
 40
0.0
 40
0.0
 40
0.0
 40
0.0246244294
 40
0.03797536
 40
0.0521607961
 40
0.0834039846
 40
0.1190476582
 40
0.1596198489
 40
0.205543724
 40
0.2571609389
 40
0.3147468996
 40
0.3785153197
 40
0.4486148059
 40
0.5251230491
 40
0.6080358558
 40
0.6972542363
 40
0.7925667377
 40
0.8936402364
 40
1.0
 40
1.0
 40
1.0
 40
1.0
 10
10.1436508411
 20
7.5912380352
 30
0.0
 10
10.1431674908
 20
7.5916435787
 30
0.0
 10
10.1424938085
 20
7.5923582862
 30
0.0
 10
10.1417219266
 20
7.5934504346
 30
0.0
 10
10.1409620235
 20
7.5947529762
 30
0.0
 10
10.1401375128
 20
7.5966681384
 30
0.0
 10
10.1393760271
 20
7.5993199293
 30
0.0
 10
10.1388264016
 20
7.6024055875
 30
0.0
 10
10.1385054306
 20
7.6059334129
 30
0.0
 10
10.1384310942
 20
7.6099104336
 30
0.0
 10
10.1386223036
 20
7.6143407609
 30
0.0
 10
10.1390982464
 20
7.6192253089
 30
0.0
 10
10.1398777627
 20
7.6245609354
 30
0.0
 10
10.1409785954
 20
7.6303396269
 30
0.0
 10
10.1424165354
 20
7.6365476135
 30
0.0
 10
10.144204412
 20
7.6431643628
 30
0.0
 10
10.1463508909
 20
7.650161832
 30
0.0
 10
10.1488592214
 20
7.6575035112
 30
0.0
 10
10.1507265917
 20
7.6624806151
 30
0.0
 10
10.1517188476
 20
7.6650187873
 30
0.0
  0
SPLINE
  5
356
100
AcDbEntity
  8
0
100
AcDbSpline
 62
7
  6
CONTINUOUS
 70
0
 71
3
 72
52
 73
48
 74
0
 42
0.0000001
 43
0.0000001
 44
0.0000000001
 40
0.0
 40
0.0
 40
0.0
 40
0.0
 40
0.0055575385
 40
0.0111779654
 40
0.0169219129
 40
0.0228458065
 40
0.0290006049
 40
0.0354310191
 40
0.0421754984
 40
0.0492663608
 40
0.0567304501
 40
0.0645895722
 40
0.0728612975
 40
0.0815593507
 40
0.0906943324
 40
0.1002739614
 40
0.1103036706
 40
0.120786711
 40
0.131724639
 40
0.1431173184
 40
0.1549633281
 40
0.1672598946
 40
0.1800032447
 40
0.1931884924
 40
0.2068099532
 40
0.2208610037
 40
0.2353343665
 40
0.2502219557
 40
0.2812037941
 40
0.3137309028
 40
0.3477182693
 40
0.383073415
 40
0.4196972551
 40
0.4574848508
 40
0.4963260881
 40
0.5361063043
 40
0.5767068783
 40
0.6180057966
 40
0.6598782005
 40
0.7021969227
 40
0.7448330149
 40
0.7876562701
 40
0.8305357432
 40
0.8733402649
 40
0.9159389686
 40
0.9582017827
 40
1.0
 40
1.0
 40
1.0
 40
1.0
 10
12.7898313497
 20
9.8697981259
 30
0.0
 10
12.7898313428
 20
9.8679811171
 30
0.0
 10
12.7896278277
 20
9.8643233807
 30
0.0
 10
12.788714803
 20
9.858856284
 30
0.0
 10
12.7871952814
 20
9.8534014087
 30
0.0
 10
12.7850724368
 20
9.8479650183
 30
0.0
 10
12.7823495631
 20
9.8425516024
 30
0.0
 10
12.7790305083
 20
9.8371652102
 30
0.0
 10
12.7751188811
 20
9.8318096518
 30
0.0
 10
12.7706186687
 20
9.8264884135
 30
0.0
 10
12.765533763
 20
9.8212052052
 30
0.0
 10
12.7598685409
 20
9.8159635695
 30
0.0
 10
12.7536275099
 20
9.8107673813
 30
0.0
 10
12.7468157487
 20
9.8056203528
 30
0.0
 10
12.7394386096
 20
9.8005265043
 30
0.0
 10
12.7315020337
 20
9.7954896541
 30
0.0
 10
12.723012306
 20
9.7905138782
 30
0.0
 10
12.7139762801
 20
9.7856030183
 30
0.0
 10
12.7044011834
 20
9.7807611286
 30
0.0
 10
12.6942947792
 20
9.7759920111
 30
0.0
 10
12.6836652146
 20
9.7712996454
 30
0.0
 10
12.6725211384
 20
9.7666877508
 30
0.0
 10
12.6608715837
 20
9.7621601967
 30
0.0
 10
12.6487260525
 20
9.7577205907
 30
0.0
 10
12.6360944252
 20
9.7533726657
 30
0.0
 10
12.6229870253
 20
9.7491199057
 30
0.0
 10
12.609414527
 20
9.7449658509
 30
0.0
 10
12.5904600848
 20
9.7394904233
 30
0.0
 10
12.5656769678
 20
9.7329360789
 30
0.0
 10
12.5346492756
 20
9.7256169339
 30
0.0
 10
12.5020522931
 20
9.7187673525
 30
0.0
 10
12.4679926596
 20
9.7124099754
 30
0.0
 10
12.4325815855
 20
9.7065658638
 30
0.0
 10
12.3959348887
 20
9.7012543547
 30
0.0
 10
12.3581724722
 20
9.6964930187
 30
0.0
 10
12.3194179507
 20
9.6922975985
 30
0.0
 10
12.2797982241
 20
9.6886819602
 30
0.0
 10
12.2394430559
 20
9.6856580495
 30
0.0
 10
12.1984846405
 20
9.6832358541
 30
0.0
 10
12.1570571646
 20
9.6814233722
 30
0.0
 10
12.1152963633
 20
9.6802265879
 30
0.0
 10
12.073339072
 20
9.6796494517
 30
0.0
 10
12.0313227718
 20
9.679693869
 30
0.0
 10
11.9893851491
 20
9.6803596922
 30
0.0
 10
11.9476635881
 20
9.6816447263
 30
0.0
 10
11.9062949282
 20
9.6835447207
 30
0.0
 10
11.8788618886
 20
9.6852281928
 30
0.0
 10
11.8652289199
 20
9.6861736424
 30
0.0
  0
SPLINE
  5
357
100
AcDbEntity
  8
0
100
AcDbSpline
 62
7
  6
CONTINUOUS
 70
0
 71
3
 72
46
 73
42
 74
0
 42
0.0000001
 43
0.0000001
 44
0.0000000001
 40
0.0
 40
0.0
 40
0.0
 40
0.0
 40
0.0055575944
 40
0.0111780892
 40
0.0169220862
 40
0.0228460546
 40
0.0290009104
 40
0.0354313943
 40
0.04217595
 40
0.0492668767
 40
0.0567310575
 40
0.0645902562
 40
0.0728620691
 40
0.0815602268
 40
0.0906952811
 40
0.1002750453
 40
0.1103048199
 40
0.1207880132
 40
0.131726022
 40
0.1431188492
 40
0.15496497
 40
0.1672616692
 40
0.193189203
 40
0.2208609184
 40
0.2502212754
 40
0.2812034483
 40
0.3137309001
 40
0.3477186186
 40
0.3830741291
 40
0.4196983525
 40
0.4574863528
 40
0.4963280074
 40
0.5361086469
 40
0.5767096482
 40
0.6180089984
 40
0.6598818413
 40
0.7022010101
 40
0.7448375534
 40
0.8305388008
 40
0.9159403354
 40
1.0
 40
1.0
 40
1.0
 40
1.0
 10
12.3672215842
 20
10.4778671226
 30
0.0
 10
12.3672215804
 20
10.4769011028
 30
0.0
 10
12.3671134355
 20
10.474956446
 30
0.0
 10
12.3666279423
 20
10.4720498554
 30
0.0
 10
12.3658201485
 20
10.4691497296
 30
0.0
 10
12.3646914799
 20
10.4662594684
 30
0.0
 10
12.36324388
 20
10.4633813906
 30
0.0
 10
12.3614792817
 20
10.4605176965
 30
0.0
 10
12.3593996441
 20
10.457670397
 30
0.0
 10
12.3570070995
 20
10.4548413263
 30
0.0
 10
12.354303675
 20
10.4520325
 30
0.0
 10
12.3512917429
 20
10.4492457542
 30
0.0
 10
12.3479736716
 20
10.446483178
 30
0.0
 10
12.3443521631
 20
10.4437467524
 30
0.0
 10
12.3404300891
 20
10.4410385607
 30
0.0
 10
12.3362105592
 20
10.4383607341
 30
0.0
 10
12.3316969774
 20
10.4357153004
 30
0.0
 10
12.3268929202
 20
10.4331044634
 30
0.0
 10
12.3218022918
 20
10.4305302148
 30
0.0
 10
12.3164291717
 20
10.4279947274
 30
0.0
 10
12.3107779199
 20
10.4254999695
 30
0.0
 10
12.302735482
 20
10.4221718049
 30
0.0
 10
12.2920097811
 20
10.418142622
 30
0.0
 10
12.2783266624
 20
10.4135828647
 30
0.0
 10
12.2636571569
 20
10.4092318159
 30
0.0
 10
12.2480490365
 20
10.4051038378
 30
0.0
 10
12.2315529471
 20
10.4012125985
 30
0.0
 10
12.2142226538
 20
10.3975709845
 30
0.0
 10
12.1961147045
 20
10.3941910575
 30
0.0
 10
12.1772882629
 20
10.3910840093
 30
0.0
 10
12.1578048915
 20
10.3882601251
 30
0.0
 10
12.1377283426
 20
10.3857287436
 30
0.0
 10
12.1171243379
 20
10.3834982326
 30
0.0
 10
12.0960603465
 20
10.3815759641
 30
0.0
 10
12.0746053521
 20
10.3799682859
 30
0.0
 10
12.0528296522
 20
10.3786805205
 30
0.0
 10
12.0308045222
 20
10.3777168777
 30
0.0
 10
12.0011522378
 20
10.3768672356
 30
0.0
 10
11.9639948333
 20
10.3766327705
 30
0.0
 10
11.9196485185
 20
10.3776620864
 30
0.0
 10
11.8902290714
 20
10.3792315368
 30
0.0
 10
11.8756528497
 20
10.3802424012
 30
0.0
  0
SPLINE
  5
358
100
AcDbEntity
  8
0
100
AcDbSpline
 62
7
  6
CONTINUOUS
 70
0
 71
3
 72
46
 73
42
 74
0
 42
0.0000001
 43
0.0000001
 44
0.0000000001
 40
0.0
 40
0.0
 40
0.0
 40
0.0
 40
0.0055575944
 40
0.0111780892
 40
0.0169220862
 40
0.0228460546
 40
0.0290009104
 40
0.0354313943
 40
0.04217595
 40
0.0492668767
 40
0.0567310575
 40
0.0645902562
 40
0.0728620691
 40
0.0815602268
 40
0.0906952811
 40
0.1002750453
 40
0.1103048199
 40
0.1207880132
 40
0.131726022
 40
0.1431188492
 40
0.15496497
 40
0.1672616692
 40
0.193189203
 40
0.2208609184
 40
0.2502212754
 40
0.2812034483
 40
0.3137309001
 40
0.3477186186
 40
0.3830741291
 40
0.4196983525
 40
0.4574863528
 40
0.4963280074
 40
0.5361086469
 40
0.5767096482
 40
0.6180089984
 40
0.6598818413
 40
0.7022010101
 40
0.7448375534
 40
0.8305388008
 40
0.9159403354
 40
1.0
 40
1.0
 40
1.0
 40
1.0
 10
10.1919565769
 20
10.6287222632
 30
0.0
 10
10.1919565731
 20
10.6277562434
 30
0.0
 10
10.1918484283
 20
10.6258115866
 30
0.0
 10
10.191362935
 20
10.622904996
 30
0.0
 10
10.1905551413
 20
10.6200048703
 30
0.0
 10
10.1894264726
 20
10.617114609
 30
0.0
 10
10.1879788728
 20
10.6142365312
 30
0.0
 10
10.1862142745
 20
10.6113728371
 30
0.0
 10
10.1841346368
 20
10.6085255376
 30
0.0
 10
10.1817420922
 20
10.6056964669
 30
0.0
 10
10.1790386677
 20
10.6028876407
 30
0.0
 10
10.1760267357
 20
10.6001008948
 30
0.0
 10
10.1727086643
 20
10.5973383186
 30
0.0
 10
10.1690871559
 20
10.5946018931
 30
0.0
 10
10.1651650818
 20
10.5918937013
 30
0.0
 10
10.1609455519
 20
10.5892158748
 30
0.0
 10
10.1564319701
 20
10.586570441
 30
0.0
 10
10.151627913
 20
10.583959604
 30
0.0
 10
10.1465372845
 20
10.5813853554
 30
0.0
 10
10.1411641645
 20
10.578849868
 30
0.0
 10
10.1355129126
 20
10.5763551101
 30
0.0
 10
10.1274704748
 20
10.5730269456
 30
0.0
 10
10.1167447739
 20
10.5689977627
 30
0.0
 10
10.1030616552
 20
10.5644380053
 30
0.0
 10
10.0883921497
 20
10.5600869565
 30
0.0
 10
10.0727840292
 20
10.5559589785
 30
0.0
 10
10.0562879399
 20
10.5520677392
 30
0.0
 10
10.0389576466
 20
10.5484261252
 30
0.0
 10
10.0208496973
 20
10.5450461981
 30
0.0
 10
10.0020232557
 20
10.5419391499
 30
0.0
 10
9.9825398842
 20
10.5391152657
 30
0.0
 10
9.9624633354
 20
10.5365838842
 30
0.0
 10
9.9418593307
 20
10.5343533732
 30
0.0
 10
9.9207953392
 20
10.5324311047
 30
0.0
 10
9.8993403449
 20
10.5308234265
 30
0.0
 10
9.8775646449
 20
10.5295356611
 30
0.0
 10
9.855539515
 20
10.5285720183
 30
0.0
 10
9.8258872306
 20
10.5277223762
 30
0.0
 10
9.7887298261
 20
10.5274879111
 30
0.0
 10
9.7443835113
 20
10.528517227
 30
0.0
 10
9.7149640642
 20
10.5300866774
 30
0.0
 10
9.7003878424
 20
10.5310975418
 30
0.0
  0
SPLINE
  5
359
100
AcDbEntity
  8
0
100
AcDbSpline
 62
7
  6
CONTINUOUS
 70
0
 71
3
 72
69
 73
65
 74
0
 42
0.0000001
 43
0.0000001
 44
0.0000000001
 40
0.0
 40
0.0
 40
0.0
 40
0.0
 40
0.0156749348
 40
0.0314027839
 40
0.0471814364
 40
0.0630099721
 40
0.0788860943
 40
0.0948073732
 40
0.1107709045
 40
0.1267734005
 40
0.1428112328
 40
0.1588804529
 40
0.1749768346
 40
0.1910959109
 40
0.2072330173
 40
0.2233833314
 40
0.2395419155
 40
0.2557037586
 40
0.2718638216
 40
0.2880170822
 40
0.3202749255
 40
0.3524475142
 40
0.3684949934
 40
0.3845082673
 40
0.4004836065
 40
0.4164176212
 40
0.4323072962
 40
0.4481500201
 40
0.4639436125
 40
0.4796863462
 40
0.49537697
 40
0.5110147255
 40
0.5265993589
 40
0.5421311273
 40
0.5576108011
 40
0.5730396628
 40
0.5884195007
 40
0.6037525947
 40
0.6190416973
 40
0.634290009
 40
0.649501151
 40
0.6646791309
 40
0.6798283035
 40
0.6949533259
 40
0.71005911
 40
0.725150772
 40
0.7402335794
 40
0.7553128946
 40
0.7703941172
 40
0.7854826259
 40
0.8005837208
 40
0.8157025686
 40
0.8308441477
 40
0.8460131958
 40
0.8612141607
 40
0.8764511552
 40
0.8917279166
 40
0.907047777
 40
0.9224136185
 40
0.9378278587
 40
0.9532924887
 40
0.9688086929
 40
0.9843780614
 40
1.0
 40
1.0
 40
1.0
 40
1.0
 10
8.6913651613
 20
8.1650031677
 30
0.0
 10
8.6998341267
 20
8.164415843
 30
0.0
 10
8.7167747023
 20
8.1628237277
 30
0.0
 10
8.7420788072
 20
8.1592003162
 30
0.0
 10
8.7672611172
 20
8.1543459049
 30
0.0
 10
8.7922599383
 20
8.148272623
 30
0.0
 10
8.8170155181
 20
8.1409948955
 30
0.0
 10
8.84146811
 20
8.1325303689
 30
0.0
 10
8.8655588979
 20
8.1228994632
 30
0.0
 10
8.8892298919
 20
8.1121254116
 30
0.0
 10
8.9124241212
 20
8.1002341868
 30
0.0
 10
8.9350857556
 20
8.0872544262
 30
0.0
 10
8.9571602432
 20
8.0732173851
 30
0.0
 10
8.9785944693
 20
8.0581568975
 30
0.0
 10
8.9993368551
 20
8.0421092354
 30
0.0
 10
9.0193374719
 20
8.0251130477
 30
0.0
 10
9.0385481972
 20
8.0072092004
 30
0.0
 10
9.0569226795
 20
7.9884409328
 30
0.0
 10
9.0744170813
 20
7.9688528898
 30
0.0
 10
9.0964994513
 20
7.941722899
 30
0.0
 10
9.1216971537
 20
7.906008897
 30
0.0
 10
9.1434742336
 20
7.8681771313
 30
0.0
 10
9.1586958735
 20
7.8368845931
 30
0.0
 10
9.1689789738
 20
7.8129768064
 30
0.0
 10
9.1781115408
 20
7.7886724248
 30
0.0
 10
9.1860718836
 20
7.7640293929
 30
0.0
 10
9.1928407308
 20
7.7391071877
 30
0.0
 10
9.1984017699
 20
7.713965765
 30
0.0
 10
9.2027415531
 20
7.688665662
 30
0.0
 10
9.205849556
 20
7.6632677897
 30
0.0
 10
9.2077182352
 20
7.6378333105
 30
0.0
 10
9.208343058
 20
7.6124234809
 30
0.0
 10
9.2077224633
 20
7.5870995027
 30
0.0
 10
9.2058578802
 20
7.5619223802
 30
0.0
 10
9.2027537126
 20
7.5369527779
 30
0.0
 10
9.1984173793
 20
7.5122508693
 30
0.0
 10
9.1928592918
 20
7.4878761858
 30
0.0
 10
9.1860927874
 20
7.4638874811
 30
0.0
 10
9.1781341119
 20
7.440342591
 30
0.0
 10
9.16900237
 20
7.4172983001
 30
0.0
 10
9.158719534
 20
7.3948101837
 30
0.0
 10
9.147310372
 20
7.3729324732
 30
0.0
 10
9.1348023571
 20
7.3517179397
 30
0.0
 10
9.1212256128
 20
7.3312177639
 30
0.0
 10
9.1066128323
 20
7.3114814206
 30
0.0
 10
9.0909992508
 20
7.292556521
 30
0.0
 10
9.0744225301
 20
7.2744887083
 30
0.0
 10
9.056922647
 20
7.2573215661
 30
0.0
 10
9.0385418048
 20
7.2410965076
 30
0.0
 10
9.0193243254
 20
7.2258526858
 30
0.0
 10
8.9993165825
 20
7.2116268458
 30
0.0
 10
8.9785668563
 20
7.1984532647
 30
0.0
 10
8.9571252049
 20
7.1863636861
 30
0.0
 10
8.9350433484
 20
7.1753872402
 30
0.0
 10
8.9123745422
 20
7.1655503826
 30
0.0
 10
8.8891734736
 20
7.1568767709
 30
0.0
 10
8.8654961016
 20
7.1493872484
 30
0.0
 10
8.8413995184
 20
7.1430998187
 30
0.0
 10
8.8169418236
 20
7.1380295882
 30
0.0
 10
8.7921819304
 20
7.1341887221
 30
0.0
 10
8.7671796743
 20
7.1315864711
 30
0.0
 10
8.7419948499
 20
7.1302288527
 30
0.0
 10
8.7166892281
 20
7.1301193177
 30
0.0
 10
8.6998054936
 20
7.1308771333
 30
0.0
 10
8.6913651613
 20
7.1314624724
 30
0.0
  0
SPLINE
  5
35A
100
AcDbEntity
  8
0
100
AcDbSpline
 62
7
  6
CONTINUOUS
 70
0
 71
3
 72
41
 73
37
 74
0
 42
0.0000001
 43
0.0000001
 44
0.0000000001
 40
0.0
 40
0.0
 40
0.0
 40
0.0
 40
0.095831117
 40
0.1428223828
 40
0.1891016657
 40
0.2345981013
 40
0.2792429722
 40
0.3229696121
 40
0.3657132006
 40
0.4074112622
 40
0.448003761
 40
0.4874332724
 40
0.5256453013
 40
0.5625885702
 40
0.5982152284
 40
0.6324812004
 40
0.665346694
 40
0.6967765908
 40
0.7267409665
 40
0.7552158729
 40
0.7821842525
 40
0.8076369368
 40
0.8315740791
 40
0.8540071168
 40
0.8749610733
 40
0.8944776011
 40
0.9126190189
 40
0.9294732547
 40
0.945159461
 40
0.9598339275
 40
0.9668559389
 40
0.9737029555
 40
0.9804063486
 40
0.986999737
 40
0.9935186587
 40
1.0
 40
1.0
 40
1.0
 40
1.0
 10
12.2454337834
 20
10.0534233611
 30
0.0
 10
12.2645646238
 20
10.0520966328
 30
0.0
 10
12.293055946
 20
10.0498016302
 30
0.0
 10
12.3307154016
 20
10.0460909037
 30
0.0
 10
12.3583158151
 20
10.0430315106
 30
0.0
 10
12.3854095568
 20
10.0396828969
 30
0.0
 10
12.4119513176
 20
10.0360506767
 30
0.0
 10
12.4378967091
 20
10.0321409701
 30
0.0
 10
12.4632023871
 20
10.027960319
 30
0.0
 10
12.4878260665
 20
10.0235157714
 30
0.0
 10
12.511726623
 20
10.0188148072
 30
0.0
 10
12.5348641429
 20
10.013865316
 30
0.0
 10
12.5572000093
 20
10.0086756175
 30
0.0
 10
12.5786969774
 20
10.0032544588
 30
0.0
 10
12.5993192197
 20
9.9976109544
 30
0.0
 10
12.6190323949
 20
9.9917545683
 30
0.0
 10
12.6378037388
 20
9.9856951568
 30
0.0
 10
12.6556021126
 20
9.9794428964
 30
0.0
 10
12.6723980482
 20
9.9730082396
 30
0.0
 10
12.6881638374
 20
9.9664019139
 30
0.0
 10
12.702873611
 20
9.9596349051
 30
0.0
 10
12.7165033661
 20
9.9527183427
 30
0.0
 10
12.7290310169
 20
9.9456634153
 30
0.0
 10
12.7404364922
 20
9.9384813346
 30
0.0
 10
12.7507017094
 20
9.9311831416
 30
0.0
 10
12.7598104921
 20
9.9237794155
 30
0.0
 10
12.7677483307
 20
9.916280261
 30
0.0
 10
12.7745022105
 20
9.9086944756
 30
0.0
 10
12.7800590005
 20
9.9010316848
 30
0.0
 10
12.7837344816
 20
9.8944919466
 30
0.0
 10
12.7860256594
 20
9.8892555566
 30
0.0
 10
12.7874128271
 20
9.8853758079
 30
0.0
 10
12.7884928108
 20
9.8814884282
 30
0.0
 10
12.7892648119
 20
9.8775949847
 30
0.0
 10
12.7897282296
 20
9.8736977551
 30
0.0
 10
12.7898313547
 20
9.8710951087
 30
0.0
 10
12.7898313497
 20
9.8697981259
 30
0.0
  0
SPLINE
  5
35B
100
AcDbEntity
  8
0
100
AcDbSpline
 62
7
  6
CONTINUOUS
 70
0
 71
3
 72
15
 73
11
 74
0
 42
0.0000001
 43
0.0000001
 44
0.0000000001
 40
0.0
 40
0.0
 40
0.0
 40
0.0
 40
0.1267799524
 40
0.2530141358
 40
0.3787117682
 40
0.503888479
 40
0.6285692827
 40
0.75278679
 40
0.8765812877
 40
1.0
 40
1.0
 40
1.0
 40
1.0
 10
10.9713157859
 20
6.7540666999
 30
0.0
 10
10.9856897841
 20
6.7530698598
 30
0.0
 10
11.0144454566
 20
6.7519655129
 30
0.0
 10
11.0575004144
 20
6.752999308
 30
0.0
 10
11.1002256937
 20
6.7567226075
 30
0.0
 10
11.1424542365
 20
6.7631215713
 30
0.0
 10
11.1840232316
 20
6.7721715734
 30
0.0
 10
11.2247724613
 20
6.7838382299
 30
0.0
 10
11.2645422417
 20
6.7980756476
 30
0.0
 10
11.2903407728
 20
6.8092625104
 30
0.0
 10
11.3030189602
 20
6.8152630744
 30
0.0
  0
SPLINE
  5
35C
100
AcDbEntity
  8
0
100
AcDbSpline
 62
7
  6
CONTINUOUS
 70
0
 71
3
 72
17
 73
13
 74
0
 42
0.0000001
 43
0.0000001
 44
0.0000000001
 40
0.0
 40
0.0
 40
0.0
 40
0.0
 40
0.1266840967
 40
0.2528562023
 40
0.3785223277
 40
0.4411766954
 40
0.5037100982
 40
0.6284117356
 40
0.7526682709
 40
0.8146470138
 40
0.8765275264
 40
1.0
 40
1.0
 40
1.0
 40
1.0
 10
11.0252844914
 20
6.8511120231
 30
0.0
 10
11.0379253705
 20
6.8502353751
 30
0.0
 10
11.0632132585
 20
6.8492174666
 30
0.0
 10
11.1010878233
 20
6.8499138008
 30
0.0
 10
11.1324700483
 20
6.8523499445
 30
0.0
 10
11.1573771325
 20
6.8554086053
 30
0.0
 10
11.1820864083
 20
6.8591955899
 30
0.0
 10
11.2126591906
 20
6.865299301
 30
0.0
 10
11.2427537575
 20
6.8732256623
 30
0.0
 10
11.2664419601
 20
6.880637451
 30
0.0
 10
11.2898179946
 20
6.888742898
 30
0.0
 10
11.3070512408
 20
6.8956201162
 30
0.0
 10
11.3183749565
 20
6.9005492259
 30
0.0
  0
SPLINE
  5
35D
100
AcDbEntity
  8
0
100
AcDbSpline
 62
7
  6
CONTINUOUS
 70
0
 71
3
 72
11
 73
7
 74
0
 42
0.0000001
 43
0.0000001
 44
0.0000000001
 40
0.0
 40
0.0
 40
0.0
 40
0.0
 40
0.2426811595
 40
0.4900577107
 40
0.7424936198
 40
1.0
 40
1.0
 40
1.0
 40
1.0
 10
8.8306905385
 20
8.081812036
 30
0.0
 10
8.8247100482
 20
8.0751464526
 30
0.0
 10
8.8132822368
 20
8.0610898731
 30
0.0
 10
8.7980239536
 20
8.0382894253
 30
0.0
 10
8.7845852719
 20
8.0137477893
 30
0.0
 10
8.7769700857
 20
7.9965122052
 30
0.0
 10
8.7734840211
 20
7.9876724558
 30
0.0
  0
SPLINE
  5
35E
100
AcDbEntity
  8
0
100
AcDbSpline
 62
7
  6
CONTINUOUS
 70
0
 71
3
 72
71
 73
67
 74
0
 42
0.0000001
 43
0.0000001
 44
0.0000000001
 40
0.0
 40
0.0
 40
0.0
 40
0.0
 40
0.0156748001
 40
0.031402177
 40
0.0471806494
 40
0.0630088935
 40
0.0788847431
 40
0.0948057523
 40
0.1107690081
 40
0.1267712317
 40
0.14280879
 40
0.1588777353
 40
0.1749738412
 40
0.191092642
 40
0.2072294727
 40
0.2233795104
 40
0.2395378174
 40
0.2556993836
 40
0.2718591706
 40
0.2880121555
 40
0.3041533744
 40
0.320277966
 40
0.3363812145
 40
0.3524585914
 40
0.3685057962
 40
0.3845187956
 40
0.4004938609
 40
0.4164276034
 40
0.4323170075
 40
0.448159461
 40
0.4639527826
 40
0.4796952464
 40
0.4953856018
 40
0.5110230901
 40
0.5266074569
 40
0.542138959
 40
0.5576183677
 40
0.5730469661
 40
0.5884265418
 40
0.6037593738
 40
0.6190482141
 40
0.6342962644
 40
0.6495071461
 40
0.6646848667
 40
0.6798337802
 40
0.6949585435
 40
0.710064069
 40
0.7251554732
 40
0.7402380233
 40
0.7553170809
 40
0.7703980452
 40
0.785486295
 40
0.8005871313
 40
0.8157057207
 40
0.8308470411
 40
0.8460158297
 40
0.8612165342
 40
0.8764532679
 40
0.8917297695
 40
0.9070493661
 40
0.9224149484
 40
0.9378289234
 40
0.9532932669
 40
0.9688092951
 40
0.9843781947
 40
1.0
 40
1.0
 40
1.0
 40
1.0
 10
10.5440108742
 20
6.2370018302
 30
0.0
 10
10.5309036534
 20
6.237910819
 30
0.0
 10
10.5046853948
 20
6.2403748281
 30
0.0
 10
10.4655231479
 20
6.2459827247
 30
0.0
 10
10.4265495037
 20
6.25349564
 30
0.0
 10
10.3878596953
 20
6.2628951033
 30
0.0
 10
10.3495464061
 20
6.2741585823
 30
0.0
 10
10.3117020124
 20
6.2872587958
 30
0.0
 10
10.2744175695
 20
6.302164181
 30
0.0
 10
10.2377828322
 20
6.3188387818
 30
0.0
 10
10.2018859749
 20
6.3372424131
 30
0.0
 10
10.1668133973
 20
6.3573307295
 30
0.0
 10
10.1326495095
 20
6.3790553333
 30
0.0
 10
10.0994765328
 20
6.4023638948
 30
0.0
 10
10.0673743044
 20
6.4272002807
 30
0.0
 10
10.0364200859
 20
6.4535046878
 30
0.0
 10
10.0066883789
 20
6.4812137867
 30
0.0
 10
9.9782507464
 20
6.5102608731
 30
0.0
 10
9.9511756419
 20
6.5405760279
 30
0.0
 10
9.9255282448
 20
6.572086284
 30
0.0
 10
9.9013703063
 20
6.6047158022
 30
0.0
 10
9.8787599927
 20
6.6383860472
 30
0.0
 10
9.8577517503
 20
6.6730159797
 30
0.0
 10
9.838396177
 20
6.7085222526
 30
0.0
 10
9.8207399006
 20
6.7448194099
 30
0.0
 10
9.8048254673
 20
6.7818200908
 30
0.0
 10
9.7906912388
 20
6.8194352387
 30
0.0
 10
9.7783713007
 20
6.857574314
 30
0.0
 10
9.7678953795
 20
6.8961455104
 30
0.0
 10
9.759288772
 20
6.9350559748
 30
0.0
 10
9.7525722764
 20
6.9742120274
 30
0.0
 10
9.7477621424
 20
7.0135193883
 30
0.0
 10
9.7448700368
 20
7.0528834033
 30
0.0
 10
9.7439030131
 20
7.0922092711
 30
0.0
 10
9.7448634931
 20
7.1314022693
 30
0.0
 10
9.7477492593
 20
7.170367982
 30
0.0
 10
9.752553458
 20
7.2090125259
 30
0.0
 10
9.7592646135
 20
7.247242776
 30
0.0
 10
9.7678666543
 20
7.2849665896
 30
0.0
 10
9.7783389436
 20
7.3220930298
 30
0.0
 10
9.7906563252
 20
7.3585325871
 30
0.0
 10
9.8047891892
 20
7.3941973948
 30
0.0
 10
9.8207035402
 20
7.4290014417
 30
0.0
 10
9.8383610769
 20
7.4628607817
 30
0.0
 10
9.8577192835
 20
7.4956937382
 30
0.0
 10
9.8787315304
 20
7.527421103
 30
0.0
 10
9.9013471857
 20
7.5579663307
 30
0.0
 10
9.9255117381
 20
7.587255725
 30
0.0
 10
9.9511669254
 20
7.6152186219
 30
0.0
 10
9.9782508728
 20
7.6417875673
 30
0.0
 10
10.0066982518
 20
7.666898476
 30
0.0
 10
10.0364404376
 20
7.6904907894
 30
0.0
 10
10.0674056782
 20
7.7125076223
 30
0.0
 10
10.0995192692
 20
7.7328959013
 30
0.0
 10
10.1327037371
 20
7.7516064934
 30
0.0
 10
10.1668790286
 20
7.7685943242
 30
0.0
 10
10.2019627063
 20
7.7838184857
 30
0.0
 10
10.2378701497
 20
7.7972423357
 30
0.0
 10
10.2745147578
 20
7.8088335899
 30
0.0
 10
10.3118081695
 20
7.8185643979
 30
0.0
 10
10.3496604585
 20
7.8264113814
 30
0.0
 10
10.3879804236
 20
7.8323557584
 30
0.0
 10
10.4266755549
 20
7.8363832278
 30
0.0
 10
10.4656530797
 20
7.8384842975
 30
0.0
 10
10.5048176852
 20
7.838653895
 30
0.0
 10
10.5309479674
 20
7.8374810089
 30
0.0
 10
10.5440108742
 20
7.8365750933
 30
0.0
  0
SPLINE
  5
35F
100
AcDbEntity
  8
0
100
AcDbSpline
 62
7
  6
CONTINUOUS
 70
0
 71
3
 72
23
 73
19
 74
0
 42
0.0000001
 43
0.0000001
 44
0.0000000001
 40
0.0
 40
0.0
 40
0.0
 40
0.0
 40
0.0638611429
 40
0.1275033697
 40
0.1909230193
 40
0.2541276602
 40
0.3171224166
 40
0.3799159195
 40
0.4425188183
 40
0.5049436681
 40
0.5672049987
 40
0.6293190785
 40
0.6913037901
 40
0.7531784362
 40
0.8149635271
 40
0.8766805602
 40
0.9383517934
 40
1.0
 40
1.0
 40
1.0
 40
1.0
 10
8.7125883055
 20
7.2311683791
 30
0.0
 10
8.7198923353
 20
7.2306618429
 30
0.0
 10
8.7345032514
 20
7.2300139187
 30
0.0
 10
8.7564007117
 20
7.2301443718
 30
0.0
 10
8.7781890155
 20
7.2313787442
 30
0.0
 10
8.7998122674
 20
7.2337137124
 30
0.0
 10
8.8212164948
 20
7.2371436817
 30
0.0
 10
8.8423476527
 20
7.2416599921
 30
0.0
 10
8.8631525706
 20
7.2472513054
 30
0.0
 10
8.8835788466
 20
7.2539036098
 30
0.0
 10
8.9035750126
 20
7.2616002282
 30
0.0
 10
8.9230906844
 20
7.2703218313
 30
0.0
 10
8.9420766999
 20
7.2800464504
 30
0.0
 10
8.9604852297
 20
7.2907496323
 30
0.0
 10
8.9782698275
 20
7.3024044217
 30
0.0
 10
8.9953858092
 20
7.3149816475
 30
0.0
 10
9.0117894685
 20
7.3284490529
 30
0.0
 10
9.0222249297
 20
7.3380001049
 30
0.0
 10
9.0273085116
 20
7.3429104908
 30
0.0
  0
SPLINE
  5
360
100
AcDbEntity
  8
0
100
AcDbSpline
 62
7
  6
CONTINUOUS
 70
0
 71
3
 72
39
 73
35
 74
0
 42
0.0000001
 43
0.0000001
 44
0.0000000001
 40
0.0
 40
0.0
 40
0.0
 40
0.0
 40
0.029921916
 40
0.0599013868
 40
0.0899572952
 40
0.1201069234
 40
0.1503656073
 40
0.1807464428
 40
0.2112600463
 40
0.2419143694
 40
0.2727145807
 40
0.3036630021
 40
0.3347591073
 40
0.3659995685
 40
0.3973783584
 40
0.428886898
 40
0.4605142447
 40
0.4922473176
 40
0.524071148
 40
0.5559691665
 40
0.5879235019
 40
0.6199153029
 40
0.6519250657
 40
0.6839329769
 40
0.7159192565
 40
0.7478644944
 40
0.77975
 40
0.8115581189
 40
0.8432725585
 40
0.8748786842
 40
0.9063637832
 40
0.9377174001
 40
0.9689311463
 40
1.0
 40
1.0
 40
1.0
 40
1.0
 10
10.1377543576
 20
7.7233617219
 30
0.0
 10
10.1272711334
 20
7.7101488633
 30
0.0
 10
10.1072571018
 20
7.6829091882
 30
0.0
 10
10.0803064201
 20
7.6399054151
 30
0.0
 10
10.0565247341
 20
7.5949232533
 30
0.0
 10
10.0360281407
 20
7.5481816973
 30
0.0
 10
10.0189140026
 20
7.4999044837
 30
0.0
 10
10.0052641646
 20
7.4503236028
 30
0.0
 10
9.9951436167
 20
7.3996769327
 30
0.0
 10
9.9886003864
 20
7.3482074419
 30
0.0
 10
9.9856652929
 20
7.296161911
 30
0.0
 10
9.9863518926
 20
7.2437897684
 30
0.0
 10
9.9906564312
 20
7.1913419046
 30
0.0
 10
9.9985578375
 20
7.1390694831
 30
0.0
 10
10.0100178051
 20
7.087222735
 30
0.0
 10
10.0249810764
 20
7.0360497848
 30
0.0
 10
10.0433756995
 20
6.9857954809
 30
0.0
 10
10.0651133724
 20
6.936700245
 30
0.0
 10
10.0900897904
 20
6.8889988964
 30
0.0
 10
10.1181852393
 20
6.8429195771
 30
0.0
 10
10.1492651552
 20
6.798682672
 30
0.0
 10
10.1831807722
 20
6.7564997827
 30
0.0
 10
10.2197697534
 20
6.716572664
 30
0.0
 10
10.2588570219
 20
6.6790923039
 30
0.0
 10
10.3002556021
 20
6.6442380371
 30
0.0
 10
10.343767507
 20
6.612176702
 30
0.0
 10
10.3891846272
 20
6.5830617983
 30
0.0
 10
10.4362897416
 20
6.5570327561
 30
0.0
 10
10.4848575441
 20
6.5342143219
 30
0.0
 10
10.5346558033
 20
6.5147159694
 30
0.0
 10
10.5854460857
 20
6.498631326
 30
0.0
 10
10.63698615
 20
6.4860377348
 30
0.0
 10
10.6890261782
 20
6.476995917
 30
0.0
 10
10.7239773815
 20
6.4733560485
 30
0.0
 10
10.7414483922
 20
6.4721444298
 30
0.0
  0
SPLINE
  5
361
100
AcDbEntity
  8
0
100
AcDbSpline
 62
7
  6
CONTINUOUS
 70
0
 71
3
 72
37
 73
33
 74
0
 42
0.0000001
 43
0.0000001
 44
0.0000000001
 40
0.0
 40
0.0
 40
0.0
 40
0.0
 40
0.0958326293
 40
0.1891024329
 40
0.2792432903
 40
0.365712538
 40
0.4074111723
 40
0.4480042544
 40
0.4874343041
 40
0.5256468778
 40
0.5625906964
 40
0.598217801
 40
0.6324842932
 40
0.6653502578
 40
0.6967805579
 40
0.7267453929
 40
0.755220679
 40
0.7821894498
 40
0.8076424875
 40
0.8315799437
 40
0.8540133504
 40
0.8749675574
 40
0.8944843533
 40
0.9126260686
 40
0.9294805052
 40
0.9451669439
 40
0.959841614
 40
0.9737025845
 40
0.980406067
 40
0.9869995581
 40
0.9935185688
 40
1.0
 40
1.0
 40
1.0
 40
1.0
 10
12.0777903571
 20
10.5754922517
 30
0.0
 10
12.0879613658
 20
10.5747868898
 30
0.0
 10
12.1080167076
 20
10.5731713271
 30
0.0
 10
12.1375671829
 20
10.5700874482
 30
0.0
 10
12.166043471
 20
10.5663917512
 30
0.0
 10
12.1889899834
 20
10.5627809473
 30
0.0
 10
12.2066592207
 20
10.5595917691
 30
0.0
 10
12.2193660633
 20
10.5570924665
 30
0.0
 10
12.2316672183
 20
10.5544610479
 30
0.0
 10
12.2435421778
 20
10.5517019213
 30
0.0
 10
12.254971132
 20
10.5488197529
 30
0.0
 10
12.265935029
 20
10.5458193387
 30
0.0
 10
12.2764156242
 20
10.5427057812
 30
0.0
 10
12.2863954894
 20
10.5394842715
 30
0.0
 10
12.2958580644
 20
10.5361602158
 30
0.0
 10
12.304787698
 20
10.532739221
 30
0.0
 10
12.3131696438
 20
10.5292269276
 30
0.0
 10
12.3209901574
 20
10.5256292254
 30
0.0
 10
12.328236473
 20
10.5219520077
 30
0.0
 10
12.3348968448
 20
10.5182012101
 30
0.0
 10
12.3409606281
 20
10.5143828546
 30
0.0
 10
12.3464181619
 20
10.5105027151
 30
0.0
 10
12.3512608741
 20
10.5065665044
 30
0.0
 10
12.3554810966
 20
10.5025795217
 30
0.0
 10
12.3590717528
 20
10.4985466464
 30
0.0
 10
12.362026215
 20
10.494472155
 30
0.0
 10
12.364337236
 20
10.4903610763
 30
0.0
 10
12.3657360314
 20
10.4868684619
 30
0.0
 10
12.366509913
 20
10.4840823556
 30
0.0
 10
12.3669204196
 20
10.4820123481
 30
0.0
 10
12.3671667766
 20
10.4799403793
 30
0.0
 10
12.3672215868
 20
10.4785566688
 30
0.0
 10
12.3672215842
 20
10.4778671226
 30
0.0
  0
SPLINE
  5
362
100
AcDbEntity
  8
0
100
AcDbSpline
 62
7
  6
CONTINUOUS
 70
0
 71
3
 72
23
 73
19
 74
0
 42
0.0000001
 43
0.0000001
 44
0.0000000001
 40
0.0
 40
0.0
 40
0.0
 40
0.0
 40
0.0616470917
 40
0.1236114797
 40
0.1858647008
 40
0.2483707899
 40
0.3110872786
 40
0.3739663554
 40
0.4369561187
 40
0.5000018905
 40
0.563047595
 40
0.6260371642
 40
0.6889159268
 40
0.7516319826
 40
0.8141375329
 40
0.8763901336
 40
0.9383538018
 40
1.0
 40
1.0
 40
1.0
 40
1.0
 10
10.7534793357
 20
7.7759047309
 30
0.0
 10
10.7557906679
 20
7.7591168091
 30
0.0
 10
10.7618045317
 20
7.725628587
 30
0.0
 10
10.7748717739
 20
7.6761812572
 30
0.0
 10
10.7919211045
 20
7.6277085644
 30
0.0
 10
10.8128339938
 20
7.5805486437
 30
0.0
 10
10.8374659647
 20
7.5350247711
 30
0.0
 10
10.8656471225
 20
7.4914505611
 30
0.0
 10
10.8971831796
 20
7.4501257305
 30
0.0
 10
10.9318568621
 20
7.4113346261
 30
0.0
 10
10.9694295416
 20
7.3753443196
 30
0.0
 10
11.0096425177
 20
7.3424024809
 30
0.0
 10
11.0522191471
 20
7.3127361147
 30
0.0
 10
11.096866539
 20
7.2865496521
 30
0.0
 10
11.1432771639
 20
7.2640237545
 30
0.0
 10
11.1911329001
 20
7.245313942
 30
0.0
 10
11.2400998622
 20
7.2305502908
 30
0.0
 10
11.2733604917
 20
7.2233859376
 30
0.0
 10
11.2900585355
 20
7.2204974116
 30
0.0
  0
SPLINE
  5
363
100
AcDbEntity
  8
0
100
AcDbSpline
 62
7
  6
CONTINUOUS
 70
0
 71
3
 72
71
 73
67
 74
0
 42
0.0000001
 43
0.0000001
 44
0.0000000001
 40
0.0
 40
0.0
 40
0.0
 40
0.0
 40
0.0156748001
 40
0.031402177
 40
0.0471806494
 40
0.0630088935
 40
0.0788847431
 40
0.0948057523
 40
0.1107690081
 40
0.1267712317
 40
0.14280879
 40
0.1588777353
 40
0.1749738412
 40
0.191092642
 40
0.2072294727
 40
0.2233795104
 40
0.2395378174
 40
0.2556993836
 40
0.2718591706
 40
0.2880121555
 40
0.3041533744
 40
0.320277966
 40
0.3363812145
 40
0.3524585914
 40
0.3685057962
 40
0.3845187956
 40
0.4004938609
 40
0.4164276034
 40
0.4323170075
 40
0.448159461
 40
0.4639527826
 40
0.4796952464
 40
0.4953856018
 40
0.5110230901
 40
0.5266074569
 40
0.542138959
 40
0.5576183677
 40
0.5730469661
 40
0.5884265418
 40
0.6037593738
 40
0.6190482141
 40
0.6342962644
 40
0.6495071461
 40
0.6646848667
 40
0.6798337802
 40
0.6949585435
 40
0.710064069
 40
0.7251554732
 40
0.7402380233
 40
0.7553170809
 40
0.7703980452
 40
0.785486295
 40
0.8005871313
 40
0.8157057207
 40
0.8308470411
 40
0.8460158297
 40
0.8612165342
 40
0.8764532679
 40
0.8917297695
 40
0.9070493661
 40
0.9224149484
 40
0.9378289234
 40
0.9532932669
 40
0.9688092951
 40
0.9843781947
 40
1.0
 40
1.0
 40
1.0
 40
1.0
 10
10.5440108742
 20
7.8365750933
 30
0.0
 10
10.557118095
 20
7.8356661044
 30
0.0
 10
10.5833363535
 20
7.8332020954
 30
0.0
 10
10.6224986005
 20
7.8275941987
 30
0.0
 10
10.6614722447
 20
7.8200812834
 30
0.0
 10
10.700162053
 20
7.8106818201
 30
0.0
 10
10.7384753422
 20
7.7994183411
 30
0.0
 10
10.776319736
 20
7.7863181276
 30
0.0
 10
10.8136041789
 20
7.7714127424
 30
0.0
 10
10.8502389162
 20
7.7547381416
 30
0.0
 10
10.8861357735
 20
7.7363345103
 30
0.0
 10
10.921208351
 20
7.7162461939
 30
0.0
 10
10.9553722389
 20
7.6945215901
 30
0.0
 10
10.9885452156
 20
7.6712130286
 30
0.0
 10
11.020647444
 20
7.6463766427
 30
0.0
 10
11.0516016624
 20
7.6200722356
 30
0.0
 10
11.0813333694
 20
7.5923631368
 30
0.0
 10
11.1097710019
 20
7.5633160504
 30
0.0
 10
11.1368461065
 20
7.5330008956
 30
0.0
 10
11.1624935035
 20
7.5014906394
 30
0.0
 10
11.1866514421
 20
7.4688611212
 30
0.0
 10
11.2092617556
 20
7.4351908762
 30
0.0
 10
11.230269998
 20
7.4005609437
 30
0.0
 10
11.2496255714
 20
7.3650546708
 30
0.0
 10
11.2672818477
 20
7.3287575135
 30
0.0
 10
11.2831962811
 20
7.2917568326
 30
0.0
 10
11.2973305096
 20
7.2541416848
 30
0.0
 10
11.3096504476
 20
7.2160026094
 30
0.0
 10
11.3201263689
 20
7.177431413
 30
0.0
 10
11.3287329763
 20
7.1385209486
 30
0.0
 10
11.3354494719
 20
7.099364896
 30
0.0
 10
11.340259606
 20
7.0600575352
 30
0.0
 10
11.3431517116
 20
7.0206935201
 30
0.0
 10
11.3441187353
 20
6.9813676523
 30
0.0
 10
11.3431582552
 20
6.9421746541
 30
0.0
 10
11.3402724891
 20
6.9032089414
 30
0.0
 10
11.3354682903
 20
6.8645643975
 30
0.0
 10
11.3287571349
 20
6.8263341474
 30
0.0
 10
11.3201550941
 20
6.7886103338
 30
0.0
 10
11.3096828047
 20
6.7514838936
 30
0.0
 10
11.2973654232
 20
6.7150443363
 30
0.0
 10
11.2832325591
 20
6.6793795287
 30
0.0
 10
11.2673182082
 20
6.6445754818
 30
0.0
 10
11.2496606714
 20
6.6107161417
 30
0.0
 10
11.2303024648
 20
6.5778831853
 30
0.0
 10
11.209290218
 20
6.5461558204
 30
0.0
 10
11.1866745627
 20
6.5156105927
 30
0.0
 10
11.1625100103
 20
6.4863211984
 30
0.0
 10
11.136854823
 20
6.4583583015
 30
0.0
 10
11.1097708755
 20
6.4317893561
 30
0.0
 10
11.0813234966
 20
6.4066784474
 30
0.0
 10
11.0515813108
 20
6.383086134
 30
0.0
 10
11.0206160702
 20
6.3610693012
 30
0.0
 10
10.9885024792
 20
6.3406810222
 30
0.0
 10
10.9553180113
 20
6.32197043
 30
0.0
 10
10.9211427198
 20
6.3049825992
 30
0.0
 10
10.886059042
 20
6.2897584377
 30
0.0
 10
10.8501515986
 20
6.2763345877
 30
0.0
 10
10.8135069906
 20
6.2647433335
 30
0.0
 10
10.7762135788
 20
6.2550125255
 30
0.0
 10
10.7383612899
 20
6.247165542
 30
0.0
 10
10.7000413248
 20
6.241221165
 30
0.0
 10
10.6613461934
 20
6.2371936956
 30
0.0
 10
10.6223686686
 20
6.2350926259
 30
0.0
 10
10.5832040632
 20
6.2349230284
 30
0.0
 10
10.5570737809
 20
6.2360959145
 30
0.0
 10
10.5440108742
 20
6.2370018302
 30
0.0
  0
SPLINE
  5
364
100
AcDbEntity
  8
0
100
AcDbSpline
 62
7
  6
CONTINUOUS
 70
0
 71
3
 72
24
 73
20
 74
0
 42
0.0000001
 43
0.0000001
 44
0.0000000001
 40
0.0
 40
0.0
 40
0.0
 40
0.0
 40
0.0638616952
 40
0.1275021573
 40
0.1909220383
 40
0.254126221
 40
0.3171206041
 40
0.3799138006
 40
0.4425163449
 40
0.5049408551
 40
0.5672018455
 40
0.6293155854
 40
0.691299967
 40
0.7222523722
 40
0.7531797809
 40
0.8149645358
 40
0.8766812289
 40
0.9383521291
 40
1.0
 40
1.0
 40
1.0
 40
1.0
 10
10.5553576523
 20
6.2779056793
 30
0.0
 10
10.5682084102
 20
6.2770144762
 30
0.0
 10
10.5939144831
 20
6.2758744569
 30
0.0
 10
10.6324404857
 20
6.2761040982
 30
0.0
 10
10.6707742421
 20
6.2782757265
 30
0.0
 10
10.7088178763
 20
6.282383918
 30
0.0
 10
10.7464760629
 20
6.2884185223
 30
0.0
 10
10.7836538427
 20
6.2963643924
 30
0.0
 10
10.8202576464
 20
6.3062016568
 30
0.0
 10
10.8561952271
 20
6.3179056066
 30
0.0
 10
10.8913762145
 20
6.3314469485
 30
0.0
 10
10.9257113862
 20
6.3467913303
 30
0.0
 10
10.9535621007
 20
6.3610564852
 30
0.0
 10
10.9753287246
 20
6.3733276937
 30
0.0
 10
10.9967257084
 20
6.3861544866
 30
0.0
 10
11.0227931119
 20
6.4032372113
 30
0.0
 10
11.0529063201
 20
6.4253651173
 30
0.0
 10
11.0817667445
 20
6.4490594505
 30
0.0
 10
11.100126632
 20
6.4658634389
 30
0.0
 10
11.1090706184
 20
6.4745026561
 30
0.0
  0
SPLINE
  5
365
100
AcDbEntity
  8
0
100
AcDbSpline
 62
7
  6
CONTINUOUS
 70
0
 71
3
 72
71
 73
67
 74
0
 42
0.0000001
 43
0.0000001
 44
0.0000000001
 40
0.0
 40
0.0
 40
0.0
 40
0.0
 40
0.0156217993
 40
0.031190691
 40
0.0467067193
 40
0.0621710637
 40
0.0775850391
 40
0.0929506217
 40
0.1082702192
 40
0.1235467206
 40
0.1387834556
 40
0.1539841596
 40
0.1691529496
 40
0.1842942698
 40
0.19941286
 40
0.2145136966
 40
0.2296019466
 40
0.2446829119
 40
0.2597619694
 40
0.2748445205
 40
0.2899359247
 40
0.3050414508
 40
0.3201662147
 40
0.3353151284
 40
0.3504928497
 40
0.3657037318
 40
0.3809517824
 40
0.3962406236
 40
0.4115734554
 40
0.4269530323
 40
0.4423816304
 40
0.4578610403
 40
0.4733925423
 40
0.4889769097
 40
0.5046143987
 40
0.5203047541
 40
0.5360472191
 40
0.5518405403
 40
0.5676829951
 40
0.583572399
 40
0.5995061424
 40
0.6154812081
 40
0.6314942079
 40
0.6475414135
 40
0.6636187907
 40
0.6797220398
 40
0.6958466321
 40
0.7119878511
 40
0.7281408371
 40
0.744300624
 40
0.7604621912
 40
0.7766204984
 40
0.7927705366
 40
0.8089073681
 40
0.8250261688
 40
0.8411222761
 40
0.8571912208
 40
0.8732287805
 40
0.8892310039
 40
0.9051942605
 40
0.9211152701
 40
0.93699112
 40
0.9528193649
 40
0.9685978374
 40
0.9843252062
 40
1.0
 40
1.0
 40
1.0
 40
1.0
 10
10.5496842633
 20
6.2636552985
 30
0.0
 10
10.5624013402
 20
6.2627733662
 30
0.0
 10
10.5878398431
 20
6.2616315286
 30
0.0
 10
10.6259676012
 20
6.2617966387
 30
0.0
 10
10.6639132371
 20
6.2638420817
 30
0.0
 10
10.7015839624
 20
6.2677629273
 30
0.0
 10
10.7388894537
 20
6.2735499329
 30
0.0
 10
10.77573965
 20
6.2811891759
 30
0.0
 10
10.8120457645
 20
6.2906623708
 30
0.0
 10
10.8477202524
 20
6.3019467598
 30
0.0
 10
10.8826770902
 20
6.3150152281
 30
0.0
 10
10.9168319718
 20
6.3298363474
 30
0.0
 10
10.9501025142
 20
6.3463744451
 30
0.0
 10
10.9824084652
 20
6.3645896959
 30
0.0
 10
11.0136718882
 20
6.3844382197
 30
0.0
 10
11.043817363
 20
6.4058721824
 30
0.0
 10
11.0727721612
 20
6.428839918
 30
0.0
 10
11.1004664313
 20
6.4532860449
 30
0.0
 10
11.1268333652
 20
6.4791516098
 30
0.0
 10
11.1518093634
 20
6.5063742222
 30
0.0
 10
11.1753341897
 20
6.5348882153
 30
0.0
 10
11.1973511237
 20
6.564624795
 30
0.0
 10
11.2178070977
 20
6.5955122164
 30
0.0
 10
11.2366528201
 20
6.6274759603
 30
0.0
 10
11.2538428955
 20
6.6604389156
 30
0.0
 10
11.2693359342
 20
6.6943215677
 30
0.0
 10
11.2830946482
 20
6.7290421933
 30
0.0
 10
11.2950859427
 20
6.7645170575
 30
0.0
 10
11.3052809913
 20
6.800660621
 30
0.0
 10
11.3136553037
 20
6.8373857422
 30
0.0
 10
11.3201887901
 20
6.8746038937
 30
0.0
 10
11.3248658032
 20
6.9122253701
 30
0.0
 10
11.327675173
 20
6.9501595136
 30
0.0
 10
11.3286102248
 20
6.988314925
 30
0.0
 10
11.3276688026
 20
7.0265996885
 30
0.0
 10
11.3248532612
 20
7.0649215898
 30
0.0
 10
11.32017047
 20
7.1031883359
 30
0.0
 10
11.3136317849
 20
7.1413077805
 30
0.0
 10
11.3052530267
 20
7.1791881374
 30
0.0
 10
11.2950544424
 20
7.2167382091
 30
0.0
 10
11.2830606591
 20
7.2538675987
 30
0.0
 10
11.2693006168
 20
7.2904869318
 30
0.0
 10
11.2538074979
 20
7.3265080647
 30
0.0
 10
11.2366186495
 20
7.3618442991
 30
0.0
 10
11.2177754907
 20
7.3964105868
 30
0.0
 10
11.1973234151
 20
7.4301237341
 30
0.0
 10
11.1753116815
 20
7.4629026001
 30
0.0
 10
11.1517932938
 20
7.4946682916
 30
0.0
 10
11.1268248797
 20
7.5253443514
 30
0.0
 10
11.1004665546
 20
7.5548569496
 30
0.0
 10
11.0727817728
 20
7.5831350488
 30
0.0
 10
11.043837176
 20
7.6101105831
 30
0.0
 10
11.0137024315
 20
7.6357186121
 30
0.0
 10
10.9824500702
 20
7.6598974846
 30
0.0
 10
10.9501553061
 20
7.6825889794
 30
0.0
 10
10.9168958654
 20
7.7037384497
 30
0.0
 10
10.8827517901
 20
7.7232949516
 30
0.0
 10
10.847805258
 20
7.7412113676
 30
0.0
 10
10.8121403797
 20
7.757444528
 30
0.0
 10
10.7758429964
 20
7.7719553096
 30
0.0
 10
10.7390004862
 20
7.7847087099
 30
0.0
 10
10.7017014939
 20
7.7956740006
 30
0.0
 10
10.6640359508
 20
7.8048246233
 30
0.0
 10
10.6260940925
 20
7.8121386394
 30
0.0
 10
10.5879686309
 20
7.8175980732
 30
0.0
 10
10.5624444809
 20
7.8199968475
 30
0.0
 10
10.5496842633
 20
7.8208817716
 30
0.0
  0
SPLINE
  5
366
100
AcDbEntity
  8
0
100
AcDbSpline
 62
7
  6
CONTINUOUS
 70
0
 71
3
 72
37
 73
33
 74
0
 42
0.0000001
 43
0.0000001
 44
0.0000000001
 40
0.0
 40
0.0
 40
0.0
 40
0.0
 40
0.0958326293
 40
0.1891024329
 40
0.2792432903
 40
0.365712538
 40
0.4074111723
 40
0.4480042544
 40
0.4874343041
 40
0.5256468778
 40
0.5625906964
 40
0.598217801
 40
0.6324842932
 40
0.6653502578
 40
0.6967805579
 40
0.7267453929
 40
0.755220679
 40
0.7821894498
 40
0.8076424875
 40
0.8315799437
 40
0.8540133504
 40
0.8749675574
 40
0.8944843533
 40
0.9126260686
 40
0.9294805052
 40
0.9451669439
 40
0.959841614
 40
0.9737025845
 40
0.980406067
 40
0.9869995581
 40
0.9935185688
 40
1.0
 40
1.0
 40
1.0
 40
1.0
 10
9.9025253498
 20
10.7263473923
 30
0.0
 10
9.9126963585
 20
10.7256420304
 30
0.0
 10
9.9327517003
 20
10.7240264677
 30
0.0
 10
9.9623021757
 20
10.7209425888
 30
0.0
 10
9.9907784637
 20
10.7172468918
 30
0.0
 10
10.0137249762
 20
10.713636088
 30
0.0
 10
10.0313942135
 20
10.7104469097
 30
0.0
 10
10.0441010561
 20
10.7079476072
 30
0.0
 10
10.056402211
 20
10.7053161885
 30
0.0
 10
10.0682771706
 20
10.7025570619
 30
0.0
 10
10.0797061248
 20
10.6996748935
 30
0.0
 10
10.0906700218
 20
10.6966744793
 30
0.0
 10
10.101150617
 20
10.6935609219
 30
0.0
 10
10.1111304821
 20
10.6903394121
 30
0.0
 10
10.1205930572
 20
10.6870153564
 30
0.0
 10
10.1295226907
 20
10.6835943616
 30
0.0
 10
10.1379046366
 20
10.6800820682
 30
0.0
 10
10.1457251502
 20
10.676484366
 30
0.0
 10
10.1529714657
 20
10.6728071483
 30
0.0
 10
10.1596318375
 20
10.6690563508
 30
0.0
 10
10.1656956208
 20
10.6652379953
 30
0.0
 10
10.1711531546
 20
10.6613578558
 30
0.0
 10
10.1759958669
 20
10.657421645
 30
0.0
 10
10.1802160894
 20
10.6534346623
 30
0.0
 10
10.1838067456
 20
10.649401787
 30
0.0
 10
10.1867612077
 20
10.6453272956
 30
0.0
 10
10.1890722287
 20
10.6412162169
 30
0.0
 10
10.1904710241
 20
10.6377236025
 30
0.0
 10
10.1912449057
 20
10.6349374962
 30
0.0
 10
10.1916554124
 20
10.6328674887
 30
0.0
 10
10.1919017694
 20
10.6307955199
 30
0.0
 10
10.1919565796
 20
10.6294118094
 30
0.0
 10
10.1919565769
 20
10.6287222632
 30
0.0
  0
SPLINE
  5
367
100
AcDbEntity
  8
0
100
AcDbSpline
 62
7
  6
CONTINUOUS
 70
0
 71
3
 72
71
 73
67
 74
0
 42
0.0000001
 43
0.0000001
 44
0.0000000001
 40
0.0
 40
0.0
 40
0.0
 40
0.0
 40
0.0156217995
 40
0.0311906909
 40
0.0467067193
 40
0.0621710637
 40
0.077585039
 40
0.0929506217
 40
0.1082702191
 40
0.1235467205
 40
0.1387834556
 40
0.1539841596
 40
0.1691529495
 40
0.1842942698
 40
0.1994128599
 40
0.2145136966
 40
0.2296019466
 40
0.2446829119
 40
0.2597619694
 40
0.2748445204
 40
0.2899359247
 40
0.3050414508
 40
0.3201662147
 40
0.3353151284
 40
0.3504928497
 40
0.3657037318
 40
0.3809517824
 40
0.3962406236
 40
0.4115734554
 40
0.4269530323
 40
0.4423816304
 40
0.4578610403
 40
0.4733925423
 40
0.4889769097
 40
0.5046143987
 40
0.5203047541
 40
0.5360472191
 40
0.5518405403
 40
0.5676829951
 40
0.583572399
 40
0.5995061424
 40
0.6154812081
 40
0.6314942079
 40
0.6475414135
 40
0.6636187907
 40
0.6797220398
 40
0.6958466321
 40
0.7119878511
 40
0.7281408371
 40
0.744300624
 40
0.7604621912
 40
0.7766204984
 40
0.7927705366
 40
0.8089073681
 40
0.8250261688
 40
0.8411222761
 40
0.8571912208
 40
0.8732287805
 40
0.8892310039
 40
0.9051942605
 40
0.9211152701
 40
0.93699112
 40
0.952819365
 40
0.9685978374
 40
0.984325206
 40
1.0
 40
1.0
 40
1.0
 40
1.0
 10
10.5496842633
 20
7.8208817716
 30
0.0
 10
10.5369671861
 20
7.8217637039
 30
0.0
 10
10.5115286833
 20
7.8229055407
 30
0.0
 10
10.4734009253
 20
7.8227404318
 30
0.0
 10
10.4354552894
 20
7.8206949885
 30
0.0
 10
10.3977845642
 20
7.8167741427
 30
0.0
 10
10.3604790728
 20
7.8109871374
 30
0.0
 10
10.3236288765
 20
7.8033478943
 30
0.0
 10
10.287322762
 20
7.7938746993
 30
0.0
 10
10.2516482742
 20
7.7825903103
 30
0.0
 10
10.2166914364
 20
7.7695218421
 30
0.0
 10
10.1825365548
 20
7.7547007228
 30
0.0
 10
10.1492660123
 20
7.7381626251
 30
0.0
 10
10.1169600614
 20
7.7199473742
 30
0.0
 10
10.0856966383
 20
7.7000988505
 30
0.0
 10
10.0555511636
 20
7.6786648877
 30
0.0
 10
10.0265963653
 20
7.6556971521
 30
0.0
 10
9.9989020952
 20
7.6312510253
 30
0.0
 10
9.9725351613
 20
7.6053854603
 30
0.0
 10
9.9475591631
 20
7.5781628479
 30
0.0
 10
9.9240343368
 20
7.5496488548
 30
0.0
 10
9.9020174028
 20
7.5199122751
 30
0.0
 10
9.8815614288
 20
7.4890248537
 30
0.0
 10
9.8627157064
 20
7.4570611098
 30
0.0
 10
9.845525631
 20
7.4240981546
 30
0.0
 10
9.8300325923
 20
7.3902155025
 30
0.0
 10
9.8162738784
 20
7.3554948769
 30
0.0
 10
9.8042825839
 20
7.3200200127
 30
0.0
 10
9.7940875352
 20
7.2838764492
 30
0.0
 10
9.7857132228
 20
7.2471513279
 30
0.0
 10
9.7791797364
 20
7.2099331764
 30
0.0
 10
9.7745027233
 20
7.1723117
 30
0.0
 10
9.7716933535
 20
7.1343775566
 30
0.0
 10
9.7707583017
 20
7.0962221451
 30
0.0
 10
9.7716997239
 20
7.0579373816
 30
0.0
 10
9.7745152653
 20
7.0196154804
 30
0.0
 10
9.7791980565
 20
6.9813487342
 30
0.0
 10
9.7857367416
 20
6.9432292896
 30
0.0
 10
9.7941154998
 20
6.9053489327
 30
0.0
 10
9.8043140841
 20
6.867798861
 30
0.0
 10
9.8163078674
 20
6.8306694714
 30
0.0
 10
9.8300679097
 20
6.7940501384
 30
0.0
 10
9.8455610286
 20
6.7580290054
 30
0.0
 10
9.862749877
 20
6.722692771
 30
0.0
 10
9.8815930358
 20
6.6881264833
 30
0.0
 10
9.9020451114
 20
6.6544133361
 30
0.0
 10
9.9240568451
 20
6.62163447
 30
0.0
 10
9.9475752327
 20
6.5898687785
 30
0.0
 10
9.9725436469
 20
6.5591927187
 30
0.0
 10
9.9989019719
 20
6.5296801205
 30
0.0
 10
10.0265867537
 20
6.5014020214
 30
0.0
 10
10.0555313505
 20
6.4744264871
 30
0.0
 10
10.085666095
 20
6.4488184581
 30
0.0
 10
10.1169184563
 20
6.4246395856
 30
0.0
 10
10.1492132204
 20
6.4019480908
 30
0.0
 10
10.1824726611
 20
6.3807986204
 30
0.0
 10
10.2166167364
 20
6.3612421185
 30
0.0
 10
10.2515632685
 20
6.3433257025
 30
0.0
 10
10.2872281469
 20
6.3270925422
 30
0.0
 10
10.3235255301
 20
6.3125817605
 30
0.0
 10
10.3603680404
 20
6.2998283604
 30
0.0
 10
10.3976670326
 20
6.2888630694
 30
0.0
 10
10.4353325758
 20
6.2797124469
 30
0.0
 10
10.4732744341
 20
6.2723984313
 30
0.0
 10
10.5113998954
 20
6.266938996
 30
0.0
 10
10.5369240455
 20
6.2645402226
 30
0.0
 10
10.5496842633
 20
6.2636552985
 30
0.0
  0
SPLINE
  5
368
100
AcDbEntity
  8
0
100
AcDbSpline
 62
7
  6
CONTINUOUS
 70
0
 71
3
 72
46
 73
42
 74
0
 42
0.0000001
 43
0.0000001
 44
0.0000000001
 40
0.0
 40
0.0
 40
0.0
 40
0.0
 40
0.0149704459
 40
0.0299438637
 40
0.0449232031
 40
0.0599113823
 40
0.0749112684
 40
0.0899256556
 40
0.1049572541
 40
0.1200086753
 40
0.1350824125
 40
0.1501808278
 40
0.1653061437
 40
0.1804604264
 40
0.1956455733
 40
0.2108633097
 40
0.2413971073
 40
0.2720772799
 40
0.3029105657
 40
0.333900365
 40
0.3650467078
 40
0.3963463129
 40
0.4277927027
 40
0.4593763759
 40
0.4910850475
 40
0.5229039246
 40
0.5548160279
 40
0.5868025458
 40
0.6188432133
 40
0.6509167191
 40
0.6830011139
 40
0.7150742381
 40
0.7471141541
 40
0.7790995609
 40
0.8110102156
 40
0.8428273376
 40
0.8745339792
 40
0.9061153901
 40
0.9375593546
 40
0.9688562112
 40
1.0
 40
1.0
 40
1.0
 40
1.0
 10
10.0016446154
 20
7.6209944923
 30
0.0
 10
9.9951295455
 20
7.6147014237
 30
0.0
 10
9.9823432575
 20
7.6018573584
 30
0.0
 10
9.9639309574
 20
7.5818529525
 30
0.0
 10
9.9463083366
 20
7.5611348729
 30
0.0
 10
9.9294992548
 20
7.5397312558
 30
0.0
 10
9.9135261077
 20
7.5176705623
 30
0.0
 10
9.8984102899
 20
7.4949822867
 30
0.0
 10
9.8841719023
 20
7.4716967954
 30
0.0
 10
9.870830015
 20
7.4478451726
 30
0.0
 10
9.8584024658
 20
7.4234592811
 30
0.0
 10
9.8469057633
 20
7.3985717592
 30
0.0
 10
9.8363553081
 20
7.3732157956
 30
0.0
 10
9.8267652202
 20
7.3474253996
 30
0.0
 10
9.8181481221
 20
7.3212345659
 30
0.0
 10
9.8079611796
 20
7.2857915891
 30
0.0
 10
9.7977194821
 20
7.2406447971
 30
0.0
 10
9.7894928034
 20
7.1855103192
 30
0.0
 10
9.7853559638
 20
7.1296416203
 30
0.0
 10
9.7853310966
 20
7.0733391265
 30
0.0
 10
9.7894174996
 20
7.0169028671
 30
0.0
 10
9.7975927052
 20
6.9606341299
 30
0.0
 10
9.8098125631
 20
6.9048330141
 30
0.0
 10
9.8260113873
 20
6.849797081
 30
0.0
 10
9.8461022507
 20
6.7958196845
 30
0.0
 10
9.8699776866
 20
6.7431885167
 30
0.0
 10
9.8975101108
 20
6.6921840588
 30
0.0
 10
9.9285524277
 20
6.6430780437
 30
0.0
 10
9.9629390248
 20
6.5961321402
 30
0.0
 10
10.0004865301
 20
6.551596532
 30
0.0
 10
10.040994692
 20
6.5097085007
 30
0.0
 10
10.0842476269
 20
6.4706913304
 30
0.0
 10
10.130014873
 20
6.4347530864
 30
0.0
 10
10.1780525095
 20
6.4020853761
 30
0.0
 10
10.2281046098
 20
6.372862527
 30
0.0
 10
10.2799044958
 20
6.347240632
 30
0.0
 10
10.3331761855
 20
6.3253565299
 30
0.0
 10
10.387635513
 20
6.3073273125
 30
0.0
 10
10.4429931738
 20
6.2932496588
 30
0.0
 10
10.4989501705
 20
6.2831992061
 30
0.0
 10
10.5365588103
 20
6.2792093834
 30
0.0
 10
10.5553576523
 20
6.2779056793
 30
0.0
  0
SPLINE
  5
369
100
AcDbEntity
  8
0
100
AcDbSpline
 62
7
  6
CONTINUOUS
 70
0
 71
3
 72
23
 73
19
 74
0
 42
0.0000001
 43
0.0000001
 44
0.0000000001
 40
0.0
 40
0.0
 40
0.0
 40
0.0
 40
0.063723994
 40
0.1272628956
 40
0.1906134451
 40
0.2537805768
 40
0.3167670786
 40
0.3795780057
 40
0.4422197192
 40
0.5046997342
 40
0.567026841
 40
0.6292110062
 40
0.6912632854
 40
0.7531957628
 40
0.8150214644
 40
0.8767542351
 40
0.9384086748
 40
1.0
 40
1.0
 40
1.0
 40
1.0
 10
10.7414483922
 20
6.4721444298
 30
0.0
 10
10.7521203766
 20
6.4714043252
 30
0.0
 10
10.7734673295
 20
6.4703757748
 30
0.0
 10
10.8054751301
 20
6.4701948812
 30
0.0
 10
10.8373686718
 20
6.4713786851
 30
0.0
 10
10.8690893459
 20
6.4739248559
 30
0.0
 10
10.9005804911
 20
6.4778290513
 30
0.0
 10
10.9317851846
 20
6.4830841952
 30
0.0
 10
10.9626472191
 20
6.4896808378
 30
0.0
 10
10.993110959
 20
6.4976071511
 30
0.0
 10
11.0231214651
 20
6.5068489245
 30
0.0
 10
11.0526246325
 20
6.5173895133
 30
0.0
 10
11.0815672665
 20
6.5292099234
 30
0.0
 10
11.1098971857
 20
6.5422888917
 30
0.0
 10
11.1375632264
 20
6.5566028694
 30
0.0
 10
11.1645156787
 20
6.5721261862
 30
0.0
 10
11.1907052581
 20
6.5888303576
 30
0.0
 10
11.2076338369
 20
6.6007399383
 30
0.0
 10
11.2159530749
 20
6.6068797706
 30
0.0
  0
SPLINE
  5
36A
100
AcDbEntity
  8
0
100
AcDbSpline
 62
7
  6
CONTINUOUS
 70
0
 71
3
 72
23
 73
19
 74
0
 42
0.0000001
 43
0.0000001
 44
0.0000000001
 40
0.0
 40
0.0
 40
0.0
 40
0.0
 40
0.0636909924
 40
0.1272043187
 40
0.1905360075
 40
0.2536909158
 40
0.3166714986
 40
0.3794821096
 40
0.4421284597
 40
0.5046172123
 40
0.5669561916
 40
0.6291542994
 40
0.6912214282
 40
0.7531683946
 40
0.8150069086
 40
0.876749457
 40
0.9384092207
 40
1.0
 40
1.0
 40
1.0
 40
1.0
 10
10.7357750031
 20
6.4578940491
 30
0.0
 10
10.7461688741
 20
6.4571732317
 30
0.0
 10
10.7669593882
 20
6.4561551302
 30
0.0
 10
10.7981353713
 20
6.455904744
 30
0.0
 10
10.8292082337
 20
6.4569338927
 30
0.0
 10
10.8601249798
 20
6.4592406783
 30
0.0
 10
10.890834481
 20
6.4628214473
 30
0.0
 10
10.9212852893
 20
6.4676701768
 30
0.0
 10
10.9514265623
 20
6.4737787808
 30
0.0
 10
10.9812079373
 20
6.4811371667
 30
0.0
 10
11.0105796505
 20
6.4897330496
 30
0.0
 10
11.0394926373
 20
6.4995520642
 30
0.0
 10
11.0678985755
 20
6.5105778477
 30
0.0
 10
11.0957499797
 20
6.5227920682
 30
0.0
 10
11.1230002735
 20
6.5361742611
 30
0.0
 10
11.1496040862
 20
6.5507021883
 30
0.0
 10
11.1755163184
 20
6.5663511787
 30
0.0
 10
11.1923108215
 20
6.5775203016
 30
0.0
 10
11.2005763967
 20
6.5832815005
 30
0.0
  0
SPLINE
  5
36B
100
AcDbEntity
  8
0
100
AcDbSpline
 62
7
  6
CONTINUOUS
 70
0
 71
3
 72
15
 73
11
 74
0
 42
0.0000001
 43
0.0000001
 44
0.0000000001
 40
0.0
 40
0.0
 40
0.0
 40
0.0
 40
0.1265965974
 40
0.2527133525
 40
0.3783537444
 40
0.5035297341
 40
0.6282574159
 40
0.7525591628
 40
0.8764624711
 40
1.0
 40
1.0
 40
1.0
 40
1.0
 10
11.0132494157
 20
6.7945714784
 30
0.0
 10
11.0259384765
 20
6.793691489
 30
0.0
 10
11.0513219492
 20
6.7926247183
 30
0.0
 10
11.0893514617
 20
6.7931192096
 30
0.0
 10
11.1271541768
 20
6.7957097674
 30
0.0
 10
11.164614841
 20
6.8003887525
 30
0.0
 10
11.2016210989
 20
6.8071422438
 30
0.0
 10
11.2380618522
 20
6.8159501902
 30
0.0
 10
11.2738259286
 20
6.8267856318
 30
0.0
 10
11.297181669
 20
6.8353525807
 30
0.0
 10
11.3087063442
 20
6.8399617213
 30
0.0
  0
SPLINE
  5
36C
100
AcDbEntity
  8
0
100
AcDbSpline
 62
7
  6
CONTINUOUS
 70
0
 71
3
 72
43
 73
39
 74
0
 42
0.0000001
 43
0.0000001
 44
0.0000000001
 40
0.0
 40
0.0
 40
0.0
 40
0.0
 40
0.0310389481
 40
0.062219767
 40
0.0935377422
 40
0.1249849343
 40
0.1565514968
 40
0.188225424
 40
0.2199928843
 40
0.2518384549
 40
0.2837453967
 40
0.3156959425
 40
0.3476715979
 40
0.3796534509
 40
0.4116224866
 40
0.4435599034
 40
0.4754474254
 40
0.50726761
 40
0.5390041443
 40
0.5706421303
 40
0.6021683495
 40
0.6335715073
 40
0.6648424494
 40
0.6959743492
 40
0.7269628605
 40
0.7578062292
 40
0.7885053612
 40
0.8190638427
 40
0.8342945025
 40
0.8494925581
 40
0.864659187
 40
0.879795722
 40
0.9099798055
 40
0.940062991
 40
0.9550739318
 40
0.9700656013
 40
0.9850401954
 40
1.0
 40
1.0
 40
1.0
 40
1.0
 10
10.7342427153
 20
6.4506953918
 30
0.0
 10
10.7168027815
 20
6.4519048553
 30
0.0
 10
10.6819141031
 20
6.4555131684
 30
0.0
 10
10.6299539718
 20
6.4644288144
 30
0.0
 10
10.5784726836
 20
6.4768193594
 30
0.0
 10
10.527709644
 20
6.4926275037
 30
0.0
 10
10.4778971374
 20
6.5117802759
 30
0.0
 10
10.4292640068
 20
6.5341894933
 30
0.0
 10
10.3820333819
 20
6.559752014
 30
0.0
 10
10.3364220043
 20
6.5883502748
 30
0.0
 10
10.2926391624
 20
6.6198528421
 30
0.0
 10
10.2508857656
 20
6.6541150061
 30
0.0
 10
10.2113534318
 20
6.690979445
 30
0.0
 10
10.1742236035
 20
6.7302769226
 30
0.0
 10
10.1396667011
 20
6.7718270464
 30
0.0
 10
10.1078413821
 20
6.8154391243
 30
0.0
 10
10.0788938136
 20
6.8609130232
 30
0.0
 10
10.0529570092
 20
6.908040078
 30
0.0
 10
10.0301502236
 20
6.9566040372
 30
0.0
 10
10.0105783577
 20
7.0063820236
 30
0.0
 10
9.994331521
 20
7.0571455719
 30
0.0
 10
9.9814846201
 20
7.1086616654
 30
0.0
 10
9.9720970056
 20
7.1606937768
 30
0.0
 10
9.9662122142
 20
7.2130029917
 30
0.0
 10
9.9638576659
 20
7.2653488954
 30
0.0
 10
9.9650447081
 20
7.3174913865
 30
0.0
 10
9.9697679625
 20
7.369189136
 30
0.0
 10
9.9766421302
 20
7.4117552437
 30
0.0
 10
9.9838839081
 20
7.4453384152
 30
0.0
 10
9.990172361
 20
7.4702424834
 30
0.0
 10
9.9973165181
 20
7.4948595364
 30
0.0
 10
10.0079604219
 20
7.5272280572
 30
0.0
 10
10.0233605277
 20
7.5668473348
 30
0.0
 10
10.0415145696
 20
7.6052052273
 30
0.0
 10
10.057619504
 20
7.6349760051
 30
0.0
 10
10.0704688399
 20
7.6568141763
 30
0.0
 10
10.0840811533
 20
7.6781501972
 30
0.0
 10
10.0936591405
 20
7.692030372
 30
0.0
 10
10.098569297
 20
7.6988774634
 30
0.0
  0
SPLINE
  5
36D
100
AcDbEntity
  8
0
100
AcDbSpline
 62
7
  6
CONTINUOUS
 70
0
 71
3
 72
41
 73
37
 74
0
 42
0.0000001
 43
0.0000001
 44
0.0000000001
 40
0.0
 40
0.0
 40
0.0
 40
0.0
 40
0.0478801696
 40
0.0979295767
 40
0.1493142223
 40
0.2011681475
 40
0.3033198597
 40
0.4000950915
 40
0.4895544596
 40
0.5313423796
 40
0.5711572303
 40
0.6090180979
 40
0.6449529977
 40
0.6789934754
 40
0.7111704759
 40
0.7415122358
 40
0.7700440337
 40
0.7967863553
 40
0.8217573493
 40
0.8449717194
 40
0.866443794
 40
0.8861892318
 40
0.9042283178
 40
0.9205929442
 40
0.9353331188
 40
0.9421216912
 40
0.9485398526
 40
0.9603390866
 40
0.9657852937
 40
0.9709753098
 40
0.9759570914
 40
0.9807876207
 40
0.9855323334
 40
0.9902642702
 40
0.9950608647
 40
1.0
 40
1.0
 40
1.0
 40
1.0
 10
10.243225123
 20
7.7534070672
 30
0.0
 10
10.2420729991
 20
7.7504599555
 30
0.0
 10
10.2396956731
 20
7.7444403561
 30
0.0
 10
10.2360120181
 20
7.7352857263
 30
0.0
 10
10.2321702191
 20
7.7259118552
 30
0.0
 10
10.2269396094
 20
7.7133861923
 30
0.0
 10
10.2203949205
 20
7.6981587608
 30
0.0
 10
10.2125877058
 20
7.680771303
 30
0.0
 10
10.2061509603
 20
7.6671441478
 30
0.0
 10
10.2011411497
 20
7.6570093276
 30
0.0
 10
10.1975520056
 20
7.6499769121
 30
0.0
 10
10.1940448456
 20
7.6433377371
 30
0.0
 10
10.1906184171
 20
7.6370884286
 30
0.0
 10
10.1872713223
 20
7.6312250938
 30
0.0
 10
10.1840022884
 20
7.6257440906
 30
0.0
 10
10.1808103943
 20
7.6206424705
 30
0.0
 10
10.1776952761
 20
7.6159182767
 30
0.0
 10
10.1746571292
 20
7.6115706554
 30
0.0
 10
10.1716969185
 20
7.6075999431
 30
0.0
 10
10.1688162744
 20
7.6040076643
 30
0.0
 10
10.1660176502
 20
7.6007964853
 30
0.0
 10
10.1633042725
 20
7.597970236
 30
0.0
 10
10.1606799902
 20
7.59553365
 30
0.0
 10
10.1581496254
 20
7.5934928364
 30
0.0
 10
10.1560692383
 20
7.5920909117
 30
0.0
 10
10.1544560829
 20
7.5911891131
 30
0.0
 10
10.1529664276
 20
7.5904724367
 30
0.0
 10
10.1514891862
 20
7.5899360783
 30
0.0
 10
10.1500382703
 20
7.5896213045
 30
0.0
 10
10.1490110502
 20
7.5895026187
 30
0.0
 10
10.1480174398
 20
7.5894969035
 30
0.0
 10
10.1470591516
 20
7.5896062317
 30
0.0
 10
10.1461383826
 20
7.5898327068
 30
0.0
 10
10.1452575883
 20
7.5901781854
 30
0.0
 10
10.1444195127
 20
7.5906439812
 30
0.0
 10
10.1439009009
 20
7.5910282284
 30
0.0
 10
10.1436508411
 20
7.5912380352
 30
0.0
  0
SPLINE
  5
36E
100
AcDbEntity
  8
0
100
AcDbSpline
 62
7
  6
CONTINUOUS
 70
0
 71
3
 72
39
 73
35
 74
0
 42
0.0000001
 43
0.0000001
 44
0.0000000001
 40
0.0
 40
0.0
 40
0.0
 40
0.0
 40
0.0299257133
 40
0.0599153072
 40
0.0899866838
 40
0.1201560775
 40
0.1504377446
 40
0.1808436952
 40
0.2113834854
 40
0.2420640606
 40
0.2728896595
 40
0.3038617696
 40
0.334979137
 40
0.3662378286
 40
0.3976313405
 40
0.4291507493
 40
0.4607848959
 40
0.4925206094
 40
0.5243429535
 40
0.5562355021
 40
0.5881806271
 40
0.6201598075
 40
0.6521539445
 40
0.6841436865
 40
0.7161097589
 40
0.7480332815
 40
0.779896103
 40
0.8116811019
 40
0.8433724921
 40
0.8749561087
 40
0.9064196516
 40
0.9377530178
 40
0.9689480822
 40
1.0
 40
1.0
 40
1.0
 40
1.0
 10
10.1131781901
 20
7.7082071766
 30
0.0
 10
10.1030691067
 20
7.6947012131
 30
0.0
 10
10.0838114548
 20
7.6669092881
 30
0.0
 10
10.0580086562
 20
7.6231835693
 30
0.0
 10
10.0353776733
 20
7.5775790121
 30
0.0
 10
10.0160263746
 20
7.5303123573
 30
0.0
 10
10.0000444957
 20
7.4816044427
 30
0.0
 10
9.9875066334
 20
7.4316837591
 30
0.0
 10
9.9784709592
 20
7.38078413
 30
0.0
 10
9.9729792935
 20
7.3291439179
 30
0.0
 10
9.9710568508
 20
7.2770048251
 30
0.0
 10
9.9727121784
 20
7.2246107941
 30
0.0
 10
9.9779370483
 20
7.172206865
 30
0.0
 10
9.9867065708
 20
7.1200380327
 30
0.0
 10
9.9989793457
 20
7.068348117
 30
0.0
 10
10.0146976664
 20
7.0173786429
 30
0.0
 10
10.033787774
 20
6.9673677231
 30
0.0
 10
10.0561601597
 20
6.9185489363
 30
0.0
 10
10.0817100637
 20
6.8711502724
 30
0.0
 10
10.1103179476
 20
6.8253930798
 30
0.0
 10
10.1418500632
 20
6.781491055
 30
0.0
 10
10.176159012
 20
6.7396492145
 30
0.0
 10
10.2130844632
 20
6.7000629598
 30
0.0
 10
10.2524539218
 20
6.662917194
 30
0.0
 10
10.2940835197
 20
6.6283854709
 30
0.0
 10
10.3377788595
 20
6.5966291826
 30
0.0
 10
10.383335871
 20
6.5677967568
 30
0.0
 10
10.4305418199
 20
6.5420230314
 30
0.0
 10
10.4791762472
 20
6.5194286176
 30
0.0
 10
10.5290120909
 20
6.5001193641
 30
0.0
 10
10.579816362
 20
6.484185773
 30
0.0
 10
10.6313524733
 20
6.4717026672
 30
0.0
 10
10.6833765256
 20
6.4627287989
 30
0.0
 10
10.7183118351
 20
6.4591051239
 30
0.0
 10
10.7357750031
 20
6.4578940491
 30
0.0
  0
SPLINE
  5
36F
100
AcDbEntity
  8
0
100
AcDbSpline
 62
7
  6
CONTINUOUS
 70
0
 71
3
 72
15
 73
11
 74
0
 42
0.0000001
 43
0.0000001
 44
0.0000000001
 40
0.0
 40
0.0
 40
0.0
 40
0.0
 40
0.1265622099
 40
0.2526563404
 40
0.3782853083
 40
0.5034603067
 40
0.628196137
 40
0.7525135514
 40
0.8764380535
 40
1.0
 40
1.0
 40
1.0
 40
1.0
 10
10.9645914754
 20
6.6876841096
 30
0.0
 10
10.9780409333
 20
6.6867513865
 30
0.0
 10
11.0049452499
 20
6.6856030018
 30
0.0
 10
11.0452573793
 20
6.6860467106
 30
0.0
 10
11.0853405679
 20
6.6886584967
 30
0.0
 10
11.1250784326
 20
6.6934310143
 30
0.0
 10
11.1643574904
 20
6.7003507512
 30
0.0
 10
11.2030654505
 20
6.7093981353
 30
0.0
 10
11.2410898664
 20
6.720546802
 30
0.0
 10
11.2659489969
 20
6.7293724549
 30
0.0
 10
11.2782237425
 20
6.7341235817
 30
0.0
  0
SPLINE
  5
370
100
AcDbEntity
  8
0
100
AcDbSpline
 62
7
  6
CONTINUOUS
 70
0
 71
3
 72
44
 73
40
 74
0
 42
0.0000001
 43
0.0000001
 44
0.0000000001
 40
0.0
 40
0.0
 40
0.0
 40
0.0
 40
0.0309034033
 40
0.0464053074
 40
0.0619386809
 40
0.093095105
 40
0.1243702167
 40
0.1557565853
 40
0.1872450961
 40
0.2188252209
 40
0.250485141
 40
0.2663426774
 40
0.2822152358
 40
0.3139950485
 40
0.3458133079
 40
0.3776549131
 40
0.409504445
 40
0.4413463766
 40
0.4731652844
 40
0.5049460585
 40
0.5366741102
 40
0.568335574
 40
0.5999175032
 40
0.6314080556
 40
0.662796668
 40
0.6940742167
 40
0.7252331626
 40
0.7562676761
 40
0.7871737429
 40
0.8179492447
 40
0.8485940147
 40
0.863869714
 40
0.8791135779
 40
0.9095042974
 40
0.9397756175
 40
0.9548707282
 40
0.9699389924
 40
0.9849816406
 40
1.0
 40
1.0
 40
1.0
 40
1.0
 10
10.9645914754
 20
6.6876841096
 30
0.0
 10
10.9491032112
 20
6.6887582244
 30
0.0
 10
10.9258870808
 20
6.6910841502
 30
0.0
 10
10.895094277
 20
6.6955885291
 30
0.0
 10
10.8643252122
 20
6.7010418337
 30
0.0
 10
10.82608046
 20
6.7096151995
 30
0.0
 10
10.7807590818
 20
6.7226550038
 30
0.0
 10
10.7361305252
 20
6.7384081944
 30
0.0
 10
10.6923635172
 20
6.7568152982
 30
0.0
 10
10.6496233005
 20
6.7778063654
 30
0.0
 10
10.6150117346
 20
6.797377686
 30
0.0
 10
10.5879924799
 20
6.8142415492
 30
0.0
 10
10.5614209034
 20
6.8319113902
 30
0.0
 10
10.5291426516
 20
6.8554493081
 30
0.0
 10
10.492067713
 20
6.8858941892
 30
0.0
 10
10.4567718889
 20
6.9184376695
 30
0.0
 10
10.4233888322
 20
6.9529567224
 30
0.0
 10
10.392043946
 20
6.9893215911
 30
0.0
 10
10.362855267
 20
7.0273954023
 30
0.0
 10
10.3359326621
 20
7.0670349119
 30
0.0
 10
10.3113775154
 20
7.1080909784
 30
0.0
 10
10.2892823222
 20
7.1504091357
 30
0.0
 10
10.2697303497
 20
7.1938301655
 30
0.0
 10
10.2527953219
 20
7.2381906913
 30
0.0
 10
10.2385411427
 20
7.2833237899
 30
0.0
 10
10.2270216533
 20
7.3290596037
 30
0.0
 10
10.2182804313
 20
7.3752260098
 30
0.0
 10
10.2123506084
 20
7.4216491284
 30
0.0
 10
10.2092547951
 20
7.4681544654
 30
0.0
 10
10.2090047898
 20
7.5145657316
 30
0.0
 10
10.211171686
 20
7.5530626299
 30
0.0
 10
10.2143279277
 20
7.5836325857
 30
0.0
 10
10.2184188846
 20
7.6139628124
 30
0.0
 10
10.2252889429
 20
7.6515000733
 30
0.0
 10
10.2344974273
 20
7.6884568055
 30
0.0
 10
10.2432381165
 20
7.7175375167
 30
0.0
 10
10.250467873
 20
7.739071261
 30
0.0
 10
10.2583703942
 20
7.7603257121
 30
0.0
 10
10.2640871304
 20
7.7743075123
 30
0.0
 10
10.2670549581
 20
7.7812443292
 30
0.0
  0
SPLINE
  5
371
100
AcDbEntity
  8
0
100
AcDbSpline
 62
7
  6
CONTINUOUS
 70
0
 71
3
 72
45
 73
41
 74
0
 42
0.0000001
 43
0.0000001
 44
0.0000000001
 40
0.0
 40
0.0
 40
0.0
 40
0.0
 40
0.0309422122
 40
0.0464650973
 40
0.0620204081
 40
0.0932231364
 40
0.1245476275
 40
0.1402549032
 40
0.1559894291
 40
0.1875314017
 40
0.2191657459
 40
0.2508796634
 40
0.2826591871
 40
0.3144893905
 40
0.3463546104
 40
0.3782386761
 40
0.4101251447
 40
0.4419975388
 40
0.4738395841
 40
0.5056354457
 40
0.5373699593
 40
0.5690288558
 40
0.6005989763
 40
0.6320684755
 40
0.6634270095
 40
0.6946659069
 40
0.7257783188
 40
0.7567593457
 40
0.7876061383
 40
0.8183179686
 40
0.8336255975
 40
0.8489002037
 40
0.8641423082
 40
0.8793525582
 40
0.9096767295
 40
0.9398845028
 40
0.9549497744
 40
0.9699897628
 40
0.9850059693
 40
1.0
 40
1.0
 40
1.0
 40
1.0
 10
10.9645914754
 20
6.7330826261
 30
0.0
 10
10.9495959315
 20
6.7341225706
 30
0.0
 10
10.9271186034
 20
6.7363954063
 30
0.0
 10
10.8973133143
 20
6.740824535
 30
0.0
 10
10.8675343266
 20
6.7461997036
 30
0.0
 10
10.8305337332
 20
6.7546691666
 30
0.0
 10
10.7940518845
 20
6.7654131529
 30
0.0
 10
10.7652219678
 20
6.7753539321
 30
0.0
 10
10.7366082057
 20
6.7862023367
 30
0.0
 10
10.7013939715
 20
6.8014151174
 30
0.0
 10
10.660227501
 20
6.8222179039
 30
0.0
 10
10.6202771626
 20
6.8455014112
 30
0.0
 10
10.5817034197
 20
6.8711722021
 30
0.0
 10
10.5446599583
 20
6.8991277972
 30
0.0
 10
10.5092947051
 20
6.9292565008
 30
0.0
 10
10.4757488058
 20
6.9614380014
 30
0.0
 10
10.4441561809
 20
6.9955438038
 30
0.0
 10
10.4146429632
 20
7.031437751
 30
0.0
 10
10.3873270087
 20
7.0689765628
 30
0.0
 10
10.3623174266
 20
7.1080104039
 30
0.0
 10
10.3397141466
 20
7.1483834764
 30
0.0
 10
10.3196075224
 20
7.1899346366
 30
0.0
 10
10.3020779714
 20
7.2324980317
 30
0.0
 10
10.2871956545
 20
7.2759037576
 30
0.0
 10
10.2750201937
 20
7.3199785204
 30
0.0
 10
10.2656004367
 20
7.3645463596
 30
0.0
 10
10.258974242
 20
7.4094292004
 30
0.0
 10
10.2551683834
 20
7.454448087
 30
0.0
 10
10.2541982049
 20
7.4994219299
 30
0.0
 10
10.2557584339
 20
7.5367580875
 30
0.0
 10
10.2584269938
 20
7.5664188178
 30
0.0
 10
10.2611323485
 20
7.5885190335
 30
0.0
 10
10.264540975
 20
7.610473907
 30
0.0
 10
10.2700128751
 20
7.6394917107
 30
0.0
 10
10.2785890629
 20
7.6753019632
 30
0.0
 10
10.2894708143
 20
7.7104071066
 30
0.0
 10
10.299522306
 20
7.7379335281
 30
0.0
 10
10.3077199048
 20
7.7582672829
 30
0.0
 10
10.3165740534
 20
7.7782855285
 30
0.0
 10
10.3229135292
 20
7.791417416
 30
0.0
 10
10.3261894215
 20
7.7979232191
 30
0.0
  0
SPLINE
  5
372
100
AcDbEntity
  8
0
100
AcDbSpline
 62
7
  6
CONTINUOUS
 70
0
 71
3
 72
44
 73
40
 74
0
 42
0.0000001
 43
0.0000001
 44
0.0000000001
 40
0.0
 40
0.0
 40
0.0
 40
0.0
 40
0.0309488839
 40
0.0464753641
 40
0.0620344372
 40
0.0932450907
 40
0.1245780178
 40
0.1402896873
 40
0.1560286909
 40
0.1875797647
 40
0.2192233215
 40
0.2509463944
 40
0.2827348376
 40
0.3145735403
 40
0.3464466536
 40
0.3783378256
 40
0.4102304409
 40
0.4421078632
 40
0.4739536777
 40
0.5057519318
 40
0.5374873704
 40
0.5691456644
 40
0.6007136291
 40
0.6321794301
 40
0.663532774
 40
0.6947650805
 40
0.7258696334
 40
0.7568417077
 40
0.7876786684
 40
0.8183800399
 40
0.8336823161
 40
0.8489515227
 40
0.8641882219
 40
0.8793931033
 40
0.9097067742
 40
0.9399047279
 40
0.9549654837
 40
0.9700012676
 40
1.0
 40
1.0
 40
1.0
 40
1.0
 10
10.9713157859
 20
6.7540666999
 30
0.0
 10
10.9565544107
 20
6.7550904048
 30
0.0
 10
10.9344281279
 20
6.7573311932
 30
0.0
 10
10.9050895932
 20
6.7617023684
 30
0.0
 10
10.8757775257
 20
6.7670093032
 30
0.0
 10
10.8393592518
 20
6.7753743453
 30
0.0
 10
10.8034561732
 20
6.7859887068
 30
0.0
 10
10.7750870909
 20
6.7958106596
 30
0.0
 10
10.746933199
 20
6.8065300008
 30
0.0
 10
10.7122904183
 20
6.8215625454
 30
0.0
 10
10.6718026293
 20
6.8421191903
 30
0.0
 10
10.6325232942
 20
6.865126726
 30
0.0
 10
10.5946117239
 20
6.8904919226
 30
0.0
 10
10.5582204417
 20
6.9181125315
 30
0.0
 10
10.5234961913
 20
6.9478771185
 30
0.0
 10
10.4905789145
 20
6.9796656649
 30
0.0
 10
10.4596013053
 20
7.013350003
 30
0.0
 10
10.4306882513
 20
7.0487943457
 30
0.0
 10
10.4039563423
 20
7.0858558261
 30
0.0
 10
10.379513401
 20
7.1243850695
 30
0.0
 10
10.3574580516
 20
7.1642267898
 30
0.0
 10
10.3378793238
 20
7.2052204103
 30
0.0
 10
10.3208562954
 20
7.2472007042
 30
0.0
 10
10.3064577733
 20
7.2899984561
 30
0.0
 10
10.2947420144
 20
7.3334411272
 30
0.0
 10
10.2857564934
 20
7.3773535822
 30
0.0
 10
10.279537687
 20
7.4215586453
 30
0.0
 10
10.2761109874
 20
7.465878334
 30
0.0
 10
10.2754903428
 20
7.5101326229
 30
0.0
 10
10.2773163804
 20
7.5468525699
 30
0.0
 10
10.2801812726
 20
7.5760112391
 30
0.0
 10
10.2830255195
 20
7.5977308899
 30
0.0
 10
10.2865645688
 20
7.6193010397
 30
0.0
 10
10.2921987656
 20
7.6478011594
 30
0.0
 10
10.3009561482
 20
7.6829549282
 30
0.0
 10
10.3119889114
 20
7.7173901949
 30
0.0
 10
10.3221426384
 20
7.7443751436
 30
0.0
 10
10.3331519574
 20
7.7709181361
 30
0.0
 10
10.3423956066
 20
7.7903877048
 30
0.0
 10
10.3489794564
 20
7.8031298343
 30
0.0
  0
SPLINE
  5
373
100
AcDbEntity
  8
0
100
AcDbSpline
 62
7
  6
CONTINUOUS
 70
0
 71
3
 72
43
 73
39
 74
0
 42
0.0000001
 43
0.0000001
 44
0.0000000001
 40
0.0
 40
0.0
 40
0.0
 40
0.0
 40
0.0309099913
 40
0.0464154825
 40
0.0619525679
 40
0.0931168394
 40
0.1244003214
 40
0.1557954713
 40
0.1872930476
 40
0.2188823761
 40
0.2505514775
 40
0.2664135598
 40
0.2822905934
 40
0.314079023
 40
0.3459053491
 40
0.3777542937
 40
0.4096102677
 40
0.4414575854
 40
0.4732806797
 40
0.5050643174
 40
0.5367938096
 40
0.5684552181
 40
0.6000355538
 40
0.6315229658
 40
0.6629069179
 40
0.6941783511
 40
0.7253298294
 40
0.7563556659
 40
0.7872520271
 40
0.818017013
 40
0.84865071
 40
0.8639207752
 40
0.8791589736
 40
0.9095383887
 40
0.9397987795
 40
0.9548886964
 40
0.9699519963
 40
1.0
 40
1.0
 40
1.0
 40
1.0
 10
11.0132494157
 20
6.7945714784
 30
0.0
 10
10.9989174548
 20
6.7955654032
 30
0.0
 10
10.9774345911
 20
6.7977210198
 30
0.0
 10
10.9489419173
 20
6.8018999817
 30
0.0
 10
10.9204717396
 20
6.806961376
 30
0.0
 10
10.8850864626
 20
6.8149216754
 30
0.0
 10
10.8431587807
 20
6.8270324587
 30
0.0
 10
10.8018785758
 20
6.8416656129
 30
0.0
 10
10.7614034859
 20
6.8587653359
 30
0.0
 10
10.7218878551
 20
6.87826599
 30
0.0
 10
10.6898972184
 20
6.8964475087
 30
0.0
 10
10.664930636
 20
6.9121132761
 30
0.0
 10
10.6403826758
 20
6.9285272315
 30
0.0
 10
10.6105722778
 20
6.9503909712
 30
0.0
 10
10.5763490508
 20
6.9786677529
 30
0.0
 10
10.5437873369
 20
7.0088900796
 30
0.0
 10
10.5130116779
 20
7.0409425572
 30
0.0
 10
10.4841388418
 20
7.0747034901
 30
0.0
 10
10.4572786509
 20
7.1100445319
 30
0.0
 10
10.4325332263
 20
7.1468313868
 30
0.0
 10
10.4099966939
 20
7.1849242577
 30
0.0
 10
10.3897548026
 20
7.2241783881
 30
0.0
 10
10.3718846054
 20
7.2644446039
 30
0.0
 10
10.3564541673
 20
7.3055698761
 30
0.0
 10
10.3435223056
 20
7.3473978993
 30
0.0
 10
10.333138365
 20
7.3897696709
 30
0.0
 10
10.3253420314
 20
7.4325241235
 30
0.0
 10
10.3201631613
 20
7.4754986066
 30
0.0
 10
10.3176217261
 20
7.5185299604
 30
0.0
 10
10.3177274983
 20
7.5614534222
 30
0.0
 10
10.3200244516
 20
7.5970386372
 30
0.0
 10
10.3231839822
 20
7.6252841398
 30
0.0
 10
10.3272115377
 20
7.6532996335
 30
0.0
 10
10.3338772155
 20
7.6879560936
 30
0.0
 10
10.3427138408
 20
7.7220527365
 30
0.0
 10
10.3510576787
 20
7.7488681484
 30
0.0
 10
10.3602257947
 20
7.7753074739
 30
0.0
 10
10.368051433
 20
7.7947799696
 30
0.0
 10
10.3736775843
 20
7.8075623227
 30
0.0
  0
SPLINE
  5
374
100
AcDbEntity
  8
0
100
AcDbSpline
 62
7
  6
CONTINUOUS
 70
0
 71
3
 72
43
 73
39
 74
0
 42
0.0000001
 43
0.0000001
 44
0.0000000001
 40
0.0
 40
0.0
 40
0.0
 40
0.0
 40
0.0309294015
 40
0.0464454042
 40
0.0619934545
 40
0.0931808802
 40
0.1244890561
 40
0.1559101164
 40
0.187434431
 40
0.2190508829
 40
0.2507470056
 40
0.2666224494
 40
0.2825126228
 40
0.3143262975
 40
0.346176171
 40
0.3780464329
 40
0.4099209837
 40
0.4417836634
 40
0.4736184799
 40
0.5054098364
 40
0.5371427544
 40
0.5688030909
 40
0.600377747
 40
0.6318548649
 40
0.6632240118
 40
0.6944763478
 40
0.7256047737
 40
0.7566040588
 40
0.7874709424
 40
0.8182042096
 40
0.8488047363
 40
0.8640580128
 40
0.8792793962
 40
0.9096254665
 40
0.9398539326
 40
0.9549288225
 40
0.9699778525
 40
1.0
 40
1.0
 40
1.0
 40
1.0
 10
11.0252844914
 20
6.8511120231
 30
0.0
 10
11.0116778675
 20
6.8520556456
 30
0.0
 10
10.9912823493
 20
6.8541116277
 30
0.0
 10
10.9642352465
 20
6.8581098971
 30
0.0
 10
10.937211034
 20
6.8629582805
 30
0.0
 10
10.9036287684
 20
6.8705922285
 30
0.0
 10
10.8638521224
 20
6.8822161699
 30
0.0
 10
10.8247084514
 20
6.896267511
 30
0.0
 10
10.7863517194
 20
6.9126910588
 30
0.0
 10
10.7489325745
 20
6.9314218799
 30
0.0
 10
10.7186667006
 20
6.9488849326
 30
0.0
 10
10.6950653013
 20
6.9639300425
 30
0.0
 10
10.6718737684
 20
6.9796920172
 30
0.0
 10
10.6437382105
 20
7.0006837926
 30
0.0
 10
10.61148674
 20
7.0278250316
 30
0.0
 10
10.5808561501
 20
7.0568231588
 30
0.0
 10
10.5519671153
 20
7.0875641363
 30
0.0
 10
10.524932535
 20
7.1199277498
 30
0.0
 10
10.4998583291
 20
7.1537872774
 30
0.0
 10
10.4768426943
 20
7.1890101958
 30
0.0
 10
10.4559758112
 20
7.2254586378
 30
0.0
 10
10.4373394689
 20
7.2629899421
 30
0.0
 10
10.4210067516
 20
7.3014572033
 30
0.0
 10
10.4070417503
 20
7.3407098415
 30
0.0
 10
10.3954993137
 20
7.3805941888
 30
0.0
 10
10.3864248291
 20
7.4209540762
 30
0.0
 10
10.3798540489
 20
7.4616314719
 30
0.0
 10
10.3758129252
 20
7.5024669721
 30
0.0
 10
10.3743175794
 20
7.5433008707
 30
0.0
 10
10.3753739499
 20
7.5839721079
 30
0.0
 10
10.3783812685
 20
7.6176362003
 30
0.0
 10
10.3820573204
 20
7.6443211983
 30
0.0
 10
10.3865654933
 20
7.6707644994
 30
0.0
 10
10.3937658206
 20
7.7034295193
 30
0.0
 10
10.4030463605
 20
7.7354985927
 30
0.0
 10
10.411688226
 20
7.7606754029
 30
0.0
 10
10.4211161083
 20
7.7854701297
 30
0.0
 10
10.4290930447
 20
7.8036953695
 30
0.0
 10
10.4347996823
 20
7.8156415527
 30
0.0
  0
SPLINE
  5
375
100
AcDbEntity
  8
0
100
AcDbSpline
 62
7
  6
CONTINUOUS
 70
0
 71
3
 72
35
 73
31
 74
0
 42
0.0000001
 43
0.0000001
 44
0.0000000001
 40
0.0
 40
0.0
 40
0.0
 40
0.0
 40
0.0307163655
 40
0.0615241719
 40
0.0924222871
 40
0.1234070699
 40
0.1544747165
 40
0.1856207458
 40
0.216840029
 40
0.2481269094
 40
0.2794752053
 40
0.3108782749
 40
0.3423290702
 40
0.3738201863
 40
0.4368782754
 40
0.5000024476
 40
0.5631265375
 40
0.6261843838
 40
0.6576753195
 40
0.6891258972
 40
0.7205287145
 40
0.751876724
 40
0.7831632855
 40
0.8143822223
 40
0.8455278726
 40
0.8765951323
 40
0.9075794962
 40
0.9384771002
 40
0.9692847605
 40
1.0
 40
1.0
 40
1.0
 40
1.0
 10
11.3066940747
 20
7.1547685347
 30
0.0
 10
11.2969058392
 20
7.1559003701
 30
0.0
 10
11.2773481426
 20
7.158605974
 30
0.0
 10
11.2481798189
 20
7.1639685769
 30
0.0
 10
11.2191917072
 20
7.1706307146
 30
0.0
 10
11.1904432913
 20
7.1785789379
 30
0.0
 10
11.1619929471
 20
7.1877969671
 30
0.0
 10
11.133898572
 20
7.1982659838
 30
0.0
 10
11.1062172923
 20
7.2099646765
 30
0.0
 10
11.0790054427
 20
7.2228692361
 30
0.0
 10
11.0523183304
 20
7.2369534152
 30
0.0
 10
11.0262103588
 20
7.252188387
 30
0.0
 10
11.000734094
 20
7.2685435957
 30
0.0
 10
10.9676677433
 20
7.2918060425
 30
0.0
 10
10.9281760461
 20
7.3235132817
 30
0.0
 10
10.8841394357
 20
7.3654316082
 30
0.0
 10
10.8437818269
 20
7.4109027312
 30
0.0
 10
10.813470706
 20
7.4514756635
 30
0.0
 10
10.7913753063
 20
7.4853327409
 30
0.0
 10
10.7759183248
 20
7.5113635305
 30
0.0
 10
10.7616029472
 20
7.537986563
 30
0.0
 10
10.7484578836
 20
7.5651482417
 30
0.0
 10
10.7365100542
 20
7.5927931945
 30
0.0
 10
10.7257837351
 20
7.6208652198
 30
0.0
 10
10.716300762
 20
7.6493071971
 30
0.0
 10
10.7080804585
 20
7.6780612938
 30
0.0
 10
10.7011396317
 20
7.7070689717
 30
0.0
 10
10.6954924113
 20
7.7362714222
 30
0.0
 10
10.6911503751
 20
7.7656084542
 30
0.0
 10
10.6891284541
 20
7.785248196
 30
0.0
 10
10.6883386653
 20
7.795069587
 30
0.0
  0
SPLINE
  5
376
100
AcDbEntity
  8
0
100
AcDbSpline
 62
7
  6
CONTINUOUS
 70
0
 71
3
 72
52
 73
48
 74
0
 42
0.0000001
 43
0.0000001
 44
0.0000000001
 40
0.0
 40
0.0
 40
0.0
 40
0.0
 40
0.0055575385
 40
0.0111779654
 40
0.0169219129
 40
0.0228458065
 40
0.0290006049
 40
0.0354310191
 40
0.0421754984
 40
0.0492663608
 40
0.0567304501
 40
0.0645895722
 40
0.0728612975
 40
0.0815593507
 40
0.0906943324
 40
0.1002739614
 40
0.1103036706
 40
0.120786711
 40
0.131724639
 40
0.1431173184
 40
0.1549633281
 40
0.1672598946
 40
0.1800032447
 40
0.1931884924
 40
0.2068099532
 40
0.2208610037
 40
0.2353343665
 40
0.2502219557
 40
0.2812037941
 40
0.3137309028
 40
0.3477182693
 40
0.383073415
 40
0.4196972551
 40
0.4574848508
 40
0.4963260881
 40
0.5361063043
 40
0.5767068783
 40
0.6180057966
 40
0.6598782005
 40
0.7021969227
 40
0.7448330149
 40
0.7876562701
 40
0.8305357432
 40
0.8733402649
 40
0.9159389686
 40
0.9582017827
 40
1.0
 40
1.0
 40
1.0
 40
1.0
 10
11.3208313535
 20
9.8697988776
 30
0.0
 10
11.3208313605
 20
9.8716158863
 30
0.0
 10
11.3210348755
 20
9.8752736228
 30
0.0
 10
11.3219479003
 20
9.8807407194
 30
0.0
 10
11.3234674219
 20
9.8861955947
 30
0.0
 10
11.3255902664
 20
9.8916319851
 30
0.0
 10
11.3283131401
 20
9.897045401
 30
0.0
 10
11.331632195
 20
9.9024317932
 30
0.0
 10
11.3355438222
 20
9.9077873516
 30
0.0
 10
11.3400440345
 20
9.9131085899
 30
0.0
 10
11.3451289403
 20
9.9183917982
 30
0.0
 10
11.3507941624
 20
9.923633434
 30
0.0
 10
11.3570351933
 20
9.9288296222
 30
0.0
 10
11.3638469545
 20
9.9339766506
 30
0.0
 10
11.3712240937
 20
9.9390704992
 30
0.0
 10
11.3791606695
 20
9.9441073493
 30
0.0
 10
11.3876503973
 20
9.9490831252
 30
0.0
 10
11.3966864231
 20
9.9539939852
 30
0.0
 10
11.4062615198
 20
9.9588358749
 30
0.0
 10
11.4163679241
 20
9.9636049923
 30
0.0
 10
11.4269974886
 20
9.968297358
 30
0.0
 10
11.4381415649
 20
9.9729092527
 30
0.0
 10
11.4497911195
 20
9.9774368067
 30
0.0
 10
11.4619366508
 20
9.9818764127
 30
0.0
 10
11.474568278
 20
9.9862243377
 30
0.0
 10
11.487675678
 20
9.9904770978
 30
0.0
 10
11.5012481762
 20
9.9946311525
 30
0.0
 10
11.5202026185
 20
10.0001065802
 30
0.0
 10
11.5449857355
 20
10.0066609245
 30
0.0
 10
11.5760134276
 20
10.0139800695
 30
0.0
 10
11.6086104101
 20
10.020829651
 30
0.0
 10
11.6426700436
 20
10.027187028
 30
0.0
 10
11.6780811177
 20
10.0330311396
 30
0.0
 10
11.7147278146
 20
10.0383426488
 30
0.0
 10
11.752490231
 20
10.0431039847
 30
0.0
 10
11.7912447526
 20
10.0472994049
 30
0.0
 10
11.8308644791
 20
10.0509150432
 30
0.0
 10
11.8712196473
 20
10.0539389539
 30
0.0
 10
11.9121780628
 20
10.0563611494
 30
0.0
 10
11.9536055387
 20
10.0581736312
 30
0.0
 10
11.99536634
 20
10.0593704156
 30
0.0
 10
12.0373236312
 20
10.0599475517
 30
0.0
 10
12.0793399314
 20
10.0599031344
 30
0.0
 10
12.1212775541
 20
10.0592373112
 30
0.0
 10
12.1629991152
 20
10.0579522771
 30
0.0
 10
12.2043677751
 20
10.0560522828
 30
0.0
 10
12.2318008146
 20
10.0543688106
 30
0.0
 10
12.2454337834
 20
10.0534233611
 30
0.0
  0
SPLINE
  5
377
100
AcDbEntity
  8
0
100
AcDbSpline
 62
7
  6
CONTINUOUS
 70
0
 71
3
 72
24
 73
20
 74
0
 42
0.0000001
 43
0.0000001
 44
0.0000000001
 40
0.0
 40
0.0
 40
0.0
 40
0.0
 40
0.0307668917
 40
0.0616192749
 40
0.1235558593
 40
0.1857946447
 40
0.2482987927
 40
0.311024259
 40
0.3739210556
 40
0.4369346469
 40
0.5000074028
 40
0.5630801369
 40
0.6260936678
 40
0.6889903705
 40
0.7517157054
 40
0.8142196873
 40
0.8764582905
 40
0.9383946748
 40
1.0
 40
1.0
 40
1.0
 40
1.0
 10
10.7376817277
 20
7.7809990676
 30
0.0
 10
10.7387270421
 20
7.772250791
 30
0.0
 10
10.7411893065
 20
7.7547714754
 30
0.0
 10
10.74758383
 20
7.7199641828
 30
0.0
 10
10.7583238978
 20
7.6768314913
 30
0.0
 10
10.7754741662
 20
7.626137802
 30
0.0
 10
10.7967803617
 20
7.5767982308
 30
0.0
 10
10.8220865981
 20
7.5291735995
 30
0.0
 10
10.8512087008
 20
7.4836089789
 30
0.0
 10
10.8839348414
 20
7.4404354017
 30
0.0
 10
10.9200270444
 20
7.3999662038
 30
0.0
 10
10.9592232298
 20
7.362495418
 30
0.0
 10
11.0012386197
 20
7.3282951123
 30
0.0
 10
11.0457682594
 20
7.2976140247
 30
0.0
 10
11.0924888773
 20
7.2706751868
 30
0.0
 10
11.1410609875
 20
7.247674878
 30
0.0
 10
11.1911332158
 20
7.2287805801
 30
0.0
 10
11.2423369185
 20
7.2141310725
 30
0.0
 10
11.2770877795
 20
7.2072451873
 30
0.0
 10
11.2945217735
 20
7.2045473405
 30
0.0
  0
SPLINE
  5
378
100
AcDbEntity
  8
0
100
AcDbSpline
 62
7
  6
CONTINUOUS
 70
0
 71
3
 72
21
 73
17
 74
0
 42
0.0000001
 43
0.0000001
 44
0.0000000001
 40
0.0
 40
0.0
 40
0.0
 40
0.0
 40
0.0621501132
 40
0.1244384344
 40
0.1868477815
 40
0.2493598064
 40
0.3119551701
 40
0.3746137329
 40
0.5000011122
 40
0.6253883464
 40
0.6880467282
 40
0.75064184
 40
0.8131535453
 40
0.875562509
 40
0.9378503856
 40
1.0
 40
1.0
 40
1.0
 40
1.0
 10
11.2312691219
 20
7.364426041
 30
0.0
 10
11.2218790188
 20
7.3685860129
 30
0.0
 10
11.2032786644
 20
7.3773769347
 30
0.0
 10
11.1760273722
 20
7.3919180714
 30
0.0
 10
11.1494603254
 20
7.4077930073
 30
0.0
 10
11.1236484439
 20
7.4249593789
 30
0.0
 10
11.0986587869
 20
7.4433727134
 30
0.0
 10
11.0665218312
 20
7.4695224693
 30
0.0
 10
11.0287373371
 20
7.5050723725
 30
0.0
 10
10.9945245844
 20
7.5440717079
 30
0.0
 10
10.9695097039
 20
7.5770995979
 30
0.0
 10
10.9519777167
 20
7.6027151312
 30
0.0
 10
10.9357205837
 20
7.6291089448
 30
0.0
 10
10.92078042
 20
7.656212475
 30
0.0
 10
10.9071970926
 20
7.6839533703
 30
0.0
 10
10.8990592508
 20
7.7028484124
 30
0.0
 10
10.8952288085
 20
7.7123776003
 30
0.0
  0
SPLINE
  5
379
100
AcDbEntity
  8
0
100
AcDbSpline
 62
7
  6
CONTINUOUS
 70
0
 71
3
 72
23
 73
19
 74
0
 42
0.0000001
 43
0.0000001
 44
0.0000000001
 40
0.0
 40
0.0
 40
0.0
 40
0.0
 40
0.0620577958
 40
0.1242865485
 40
0.1866659169
 40
0.2491737142
 40
0.311786189
 40
0.3744783217
 40
0.4372241316
 40
0.4999969925
 40
0.5627699534
 40
0.6255160623
 40
0.6882086894
 40
0.7508218481
 40
0.8133305108
 40
0.8757109158
 40
0.9379408638
 40
1.0
 40
1.0
 40
1.0
 40
1.0
 10
11.2484670931
 20
7.329729138
 30
0.0
 10
11.2373737009
 20
7.3340107774
 30
0.0
 10
11.2153886775
 20
7.3432020439
 30
0.0
 10
11.1831803642
 20
7.3587950996
 30
0.0
 10
11.1517945833
 20
7.3761646573
 30
0.0
 10
11.1213368343
 20
7.3952524855
 30
0.0
 10
11.0919078298
 20
7.415995306
 30
0.0
 10
11.0636053273
 20
7.4383241894
 30
0.0
 10
11.0365232256
 20
7.4621650016
 30
0.0
 10
11.0107514117
 20
7.4874385902
 30
0.0
 10
10.9863754222
 20
7.5140610609
 30
0.0
 10
10.9634761722
 20
7.5419440528
 30
0.0
 10
10.9421296885
 20
7.57099502
 30
0.0
 10
10.9224068449
 20
7.6011175782
 30
0.0
 10
10.9043731841
 20
7.6322116658
 30
0.0
 10
10.8880884911
 20
7.6641744583
 30
0.0
 10
10.873607375
 20
7.6968985309
 30
0.0
 10
10.8651741707
 20
7.7191858561
 30
0.0
 10
10.8612748654
 20
7.7304196138
 30
0.0
  0
SPLINE
  5
37A
100
AcDbEntity
  8
0
100
AcDbSpline
 62
7
  6
CONTINUOUS
 70
0
 71
3
 72
39
 73
35
 74
0
 42
0.0000001
 43
0.0000001
 44
0.0000000001
 40
0.0
 40
0.0
 40
0.0
 40
0.0
 40
0.0311450264
 40
0.062443103
 40
0.0938883509
 40
0.1254709879
 40
0.1571788856
 40
0.1889972606
 40
0.2209091751
 40
0.2528958436
 40
0.2849370235
 40
0.3170114144
 40
0.3490970746
 40
0.381171845
 40
0.4132137769
 40
0.445201556
 40
0.4771149182
 40
0.508935051
 40
0.5406449742
 40
0.5722298939
 40
0.6036775233
 40
0.6349783634
 40
0.6661259345
 40
0.6971169551
 40
0.7279514584
 40
0.7586328417
 40
0.7891678438
 40
0.8195664441
 40
0.8498416857
 40
0.8800094177
 40
0.9100879638
 40
0.9400977202
 40
0.9700606954
 40
1.0
 40
1.0
 40
1.0
 40
1.0
 10
8.7125883055
 20
7.2311683791
 30
0.0
 10
8.7019033901
 20
7.2319093805
 30
0.0
 10
8.6805273391
 20
7.2341771124
 30
0.0
 10
8.6487224126
 20
7.2398896223
 30
0.0
 10
8.6172581464
 20
7.2478911064
 30
0.0
 10
8.5863044692
 20
7.258138585
 30
0.0
 10
8.5560258327
 20
7.2705770915
 30
0.0
 10
8.5265837461
 20
7.2851401146
 30
0.0
 10
8.4981350535
 20
7.3017498209
 30
0.0
 10
8.4708313476
 20
7.3203175325
 30
0.0
 10
8.4448181058
 20
7.3407441759
 30
0.0
 10
8.4202339395
 20
7.3629208077
 30
0.0
 10
8.3972098544
 20
7.386729188
 30
0.0
 10
8.3758685682
 20
7.4120424144
 30
0.0
 10
8.3563238613
 20
7.4387255888
 30
0.0
 10
8.3386799764
 20
7.4666365295
 30
0.0
 10
8.3230310676
 20
7.4956265202
 30
0.0
 10
8.3094607017
 20
7.5255410919
 30
0.0
 10
8.2980414139
 20
7.5562208364
 30
0.0
 10
8.2888343222
 20
7.587502244
 30
0.0
 10
8.2818887863
 20
7.6192185601
 30
0.0
 10
8.2772421481
 20
7.6512006675
 30
0.0
 10
8.2749195278
 20
7.6832779752
 30
0.0
 10
8.2749336775
 20
7.7152793172
 30
0.0
 10
8.2772848996
 20
7.7470338554
 30
0.0
 10
8.2819610282
 20
7.7783719841
 30
0.0
 10
8.288937472
 20
7.8091262312
 30
0.0
 10
8.2981773301
 20
7.839132157
 30
0.0
 10
8.3096315469
 20
7.8682292261
 30
0.0
 10
8.3232392042
 20
7.896261736
 30
0.0
 10
8.3389276326
 20
7.9230794638
 30
0.0
 10
8.3566135662
 20
7.9485392339
 30
0.0
 10
8.3762006784
 20
7.9725029479
 30
0.0
 10
8.3904627148
 20
7.9874020323
 30
0.0
 10
8.3978680994
 20
7.9945551179
 30
0.0
  0
SPLINE
  5
37B
100
AcDbEntity
  8
0
100
AcDbSpline
 62
7
  6
CONTINUOUS
 70
0
 71
3
 72
37
 73
33
 74
0
 42
0.0000001
 43
0.0000001
 44
0.0000000001
 40
0.0
 40
0.0
 40
0.0
 40
0.0
 40
0.0620664291
 40
0.093648496
 40
0.1255099386
 40
0.1898119472
 40
0.222175958
 40
0.2546117662
 40
0.2870809236
 40
0.3195499468
 40
0.3519895222
 40
0.3843737463
 40
0.4166794932
 40
0.4488859414
 40
0.4809742575
 40
0.5129274197
 40
0.5447301579
 40
0.5763689839
 40
0.6078322906
 40
0.6391104977
 40
0.670196226
 40
0.7010844841
 40
0.7317728528
 40
0.7622616531
 40
0.7925540885
 40
0.8226563464
 40
0.8525776542
 40
0.8823302772
 40
0.9119294539
 40
0.9413932636
 40
0.9707424197
 40
1.0
 40
1.0
 40
1.0
 40
1.0
 10
8.7734840211
 20
7.9876724558
 30
0.0
 10
8.7679168099
 20
7.9735554622
 30
0.0
 10
8.7608815529
 20
7.9516849165
 30
0.0
 10
8.7541657464
 20
7.9217289383
 30
0.0
 10
8.7491713355
 20
7.890881335
 30
0.0
 10
8.7469394729
 20
7.8594473522
 30
0.0
 10
8.7475149275
 20
7.8278734617
 30
0.0
 10
8.7493713051
 20
7.8041486941
 30
0.0
 10
8.752657507
 20
7.780554448
 30
0.0
 10
8.7573714451
 20
7.7572019804
 30
0.0
 10
8.7635032154
 20
7.7342024095
 30
0.0
 10
8.771034817
 20
7.7116642369
 30
0.0
 10
8.779940138
 20
7.6896938748
 30
0.0
 10
8.7901849785
 20
7.6683952094
 30
0.0
 10
8.8017271682
 20
7.6478692834
 30
0.0
 10
8.8145167604
 20
7.6282138401
 30
0.0
 10
8.8284963036
 20
7.6095228341
 30
0.0
 10
8.8436011824
 20
7.5918859142
 30
0.0
 10
8.8597600219
 20
7.5753879045
 30
0.0
 10
8.876895147
 20
7.5601083015
 30
0.0
 10
8.8949230881
 20
7.5461207999
 30
0.0
 10
8.9137551246
 20
7.5334928569
 30
0.0
 10
8.9332978576
 20
7.5222853009
 30
0.0
 10
8.953453804
 20
7.51255199
 30
0.0
 10
8.9741220028
 20
7.5043395191
 30
0.0
 10
8.9951986347
 20
7.4976869794
 30
0.0
 10
9.0165776262
 20
7.4926257633
 30
0.0
 10
9.0381513175
 20
7.4891794285
 30
0.0
 10
9.059810882
 20
7.4873635647
 30
0.0
 10
9.0814476463
 20
7.4871858629
 30
0.0
 10
9.1029510316
 20
7.4886456373
 30
0.0
 10
9.117147808
 20
7.4907082253
 30
0.0
 10
9.1241820973
 20
7.4920082252
 30
0.0
  0
SPLINE
  5
37C
100
AcDbEntity
  8
0
100
AcDbSpline
 62
7
  6
CONTINUOUS
 70
0
 71
3
 72
15
 73
11
 74
0
 42
0.0000001
 43
0.0000001
 44
0.0000000001
 40
0.0
 40
0.0
 40
0.0
 40
0.0
 40
0.1266577491
 40
0.2528152562
 40
0.3784752487
 40
0.5036525112
 40
0.6283650747
 40
0.7526386762
 40
0.8765046015
 40
1.0
 40
1.0
 40
1.0
 40
1.0
 10
8.9178316389
 20
7.4294182272
 30
0.0
 10
8.9261645154
 20
7.4288403403
 30
0.0
 10
8.9428341624
 20
7.4281596917
 30
0.0
 10
8.9678037699
 20
7.4285748582
 30
0.0
 10
8.9926111552
 20
7.4304268126
 30
0.0
 10
9.0171738492
 20
7.4337095292
 30
0.0
 10
9.0414116175
 20
7.4384124195
 30
0.0
 10
9.0652451471
 20
7.4445202367
 30
0.0
 10
9.0885952021
 20
7.4520126419
 30
0.0
 10
9.1038122588
 20
7.4579235916
 30
0.0
 10
9.1113114138
 20
7.4611005279
 30
0.0
  0
SPLINE
  5
37D
100
AcDbEntity
  8
0
100
AcDbSpline
 62
7
  6
CONTINUOUS
 70
0
 71
3
 72
41
 73
37
 74
0
 42
0.0000001
 43
0.0000001
 44
0.0000000001
 40
0.0
 40
0.0
 40
0.0
 40
0.0
 40
0.030923703
 40
0.0619781487
 40
0.0931588017
 40
0.1244598882
 40
0.1558734488
 40
0.1873900384
 40
0.2189986502
 40
0.2506869705
 40
0.2824415384
 40
0.3142479531
 40
0.3460910799
 40
0.3779552671
 40
0.4098245674
 40
0.4416829614
 40
0.4735145832
 40
0.5053039428
 40
0.5370361465
 40
0.5686971103
 40
0.6002737652
 40
0.6317542523
 40
0.6631281044
 40
0.6943864121
 40
0.7255219716
 40
0.7565294112
 40
0.7874052951
 40
0.8181481992
 40
0.8487587596
 40
0.8640170977
 40
0.8792435419
 40
0.9095996138
 40
0.939837611
 40
0.954916971
 40
0.96997023
 40
1.0
 40
1.0
 40
1.0
 40
1.0
 10
8.9178316389
 20
7.4294182272
 30
0.0
 10
8.908719833
 20
7.4300501331
 30
0.0
 10
8.8904921603
 20
7.4318850144
 30
0.0
 10
8.8633200467
 20
7.4363216519
 30
0.0
 10
8.8363594102
 20
7.442431527
 30
0.0
 10
8.8097163611
 20
7.4501905816
 30
0.0
 10
8.7834938967
 20
7.4595686594
 30
0.0
 10
8.7577939013
 20
7.4705291924
 30
0.0
 10
8.7327160711
 20
7.4830295571
 30
0.0
 10
8.7083577194
 20
7.4970211418
 30
0.0
 10
8.6848133538
 20
7.5124495774
 30
0.0
 10
8.6621743241
 20
7.5292549315
 30
0.0
 10
8.6405284689
 20
7.5473719458
 30
0.0
 10
8.6199597781
 20
7.5667302862
 30
0.0
 10
8.6005480692
 20
7.5872548147
 30
0.0
 10
8.5823686799
 20
7.6088658786
 30
0.0
 10
8.5654921782
 20
7.6314796179
 30
0.0
 10
8.5499840898
 20
7.6550082879
 30
0.0
 10
8.5359046454
 20
7.6793605971
 30
0.0
 10
8.5233085484
 20
7.7044420582
 30
0.0
 10
8.5122447625
 20
7.730155352
 30
0.0
 10
8.5027563228
 20
7.7564007007
 30
0.0
 10
8.4948801678
 20
7.7830762533
 30
0.0
 10
8.4886469948
 20
7.8100784709
 30
0.0
 10
8.4840811413
 20
7.8373025464
 30
0.0
 10
8.4812004762
 20
7.8646427267
 30
0.0
 10
8.4800163737
 20
7.8919930196
 30
0.0
 10
8.480533493
 20
7.9192464903
 30
0.0
 10
8.4823829158
 20
7.9418154019
 30
0.0
 10
8.4847101249
 20
7.9597126063
 30
0.0
 10
8.4875929956
 20
7.9774526237
 30
0.0
 10
8.4922415033
 20
7.9993760119
 30
0.0
 10
8.4982794039
 20
8.0209132411
 30
0.0
 10
8.5039235389
 20
8.0378306408
 30
0.0
 10
8.5100935068
 20
8.0544971315
 30
0.0
 10
8.5153268135
 20
8.0667551007
 30
0.0
 10
8.5190759807
 20
8.074793419
 30
0.0
  0
SPLINE
  5
37E
100
AcDbEntity
  8
0
100
AcDbSpline
 62
7
  6
CONTINUOUS
 70
0
 71
3
 72
21
 73
17
 74
0
 42
0.0000001
 43
0.0000001
 44
0.0000000001
 40
0.0
 40
0.0
 40
0.0
 40
0.0
 40
0.1271397244
 40
0.2535818735
 40
0.3165603008
 40
0.3793730165
 40
0.4420252948
 40
0.5045232095
 40
0.5668739094
 40
0.6290855381
 40
0.6911671481
 40
0.7531286847
 40
0.8149809095
 40
0.8767353208
 40
0.9384040938
 40
1.0
 40
1.0
 40
1.0
 40
1.0
 10
10.7342427153
 20
6.4506953918
 30
0.0
 10
10.7545451606
 20
6.4492874124
 30
0.0
 10
10.7951668634
 20
6.4480734506
 30
0.0
 10
10.8458320406
 20
6.4506089021
 30
0.0
 10
10.8859695566
 20
6.4550669417
 30
0.0
 10
10.915798078
 20
6.4596113287
 30
0.0
 10
10.9453406336
 20
6.4653536233
 30
0.0
 10
10.9745512261
 20
6.4722848526
 30
0.0
 10
11.0033837293
 20
6.4803940538
 30
0.0
 10
11.0317927647
 20
6.4896685221
 30
0.0
 10
11.0597335514
 20
6.5000937358
 30
0.0
 10
11.0871621202
 20
6.5116532262
 30
0.0
 10
11.1140352231
 20
6.5243287898
 30
0.0
 10
11.1403106434
 20
6.5381006619
 30
0.0
 10
11.1659464258
 20
6.5529467296
 30
0.0
 10
11.182593718
 20
6.5635510818
 30
0.0
 10
11.190795404
 20
6.5690232594
 30
0.0
  0
SPLINE
  5
37F
100
AcDbEntity
  8
0
100
AcDbSpline
 62
7
  6
CONTINUOUS
 70
0
 71
3
 72
46
 73
42
 74
0
 42
0.0000001
 43
0.0000001
 44
0.0000000001
 40
0.0
 40
0.0
 40
0.0
 40
0.0
 40
0.0055575944
 40
0.0111780892
 40
0.0169220862
 40
0.0228460546
 40
0.0290009104
 40
0.0354313943
 40
0.04217595
 40
0.0492668767
 40
0.0567310575
 40
0.0645902562
 40
0.0728620691
 40
0.0815602268
 40
0.0906952811
 40
0.1002750453
 40
0.1103048199
 40
0.1207880132
 40
0.131726022
 40
0.1431188492
 40
0.15496497
 40
0.1672616692
 40
0.193189203
 40
0.2208609184
 40
0.2502212754
 40
0.2812034483
 40
0.3137309001
 40
0.3477186186
 40
0.3830741291
 40
0.4196983525
 40
0.4574863528
 40
0.4963280074
 40
0.5361086469
 40
0.5767096482
 40
0.6180089984
 40
0.6598818413
 40
0.7022010101
 40
0.7448375534
 40
0.8305388008
 40
0.9159403354
 40
1.0
 40
1.0
 40
1.0
 40
1.0
 10
11.5862216226
 20
10.4778675303
 30
0.0
 10
11.5862216263
 20
10.4788335501
 30
0.0
 10
11.5863297712
 20
10.4807782069
 30
0.0
 10
11.5868152645
 20
10.4836847975
 30
0.0
 10
11.5876230582
 20
10.4865849232
 30
0.0
 10
11.5887517269
 20
10.4894751845
 30
0.0
 10
11.5901993267
 20
10.4923532623
 30
0.0
 10
11.591963925
 20
10.4952169564
 30
0.0
 10
11.5940435627
 20
10.4980642559
 30
0.0
 10
11.5964361073
 20
10.5008933266
 30
0.0
 10
11.5991395318
 20
10.5037021528
 30
0.0
 10
11.6021514638
 20
10.5064888987
 30
0.0
 10
11.6054695351
 20
10.5092514749
 30
0.0
 10
11.6090910436
 20
10.5119879004
 30
0.0
 10
11.6130131176
 20
10.5146960922
 30
0.0
 10
11.6172326475
 20
10.5173739187
 30
0.0
 10
11.6217462293
 20
10.5200193525
 30
0.0
 10
11.6265502865
 20
10.5226301895
 30
0.0
 10
11.631640915
 20
10.5252044381
 30
0.0
 10
11.637014035
 20
10.5277399255
 30
0.0
 10
11.6426652869
 20
10.5302346834
 30
0.0
 10
11.6507077247
 20
10.5335628479
 30
0.0
 10
11.6614334256
 20
10.5375920308
 30
0.0
 10
11.6751165443
 20
10.5421517882
 30
0.0
 10
11.6897860498
 20
10.546502837
 30
0.0
 10
11.7053941702
 20
10.550630815
 30
0.0
 10
11.7218902596
 20
10.5545220543
 30
0.0
 10
11.7392205529
 20
10.5581636683
 30
0.0
 10
11.7573285022
 20
10.5615435954
 30
0.0
 10
11.7761549438
 20
10.5646506436
 30
0.0
 10
11.7956383153
 20
10.5674745278
 30
0.0
 10
11.8157148641
 20
10.5700059093
 30
0.0
 10
11.8363188688
 20
10.5722364203
 30
0.0
 10
11.8573828603
 20
10.5741586888
 30
0.0
 10
11.8788378546
 20
10.575766367
 30
0.0
 10
11.9006135546
 20
10.5770541324
 30
0.0
 10
11.9226386845
 20
10.5780177752
 30
0.0
 10
11.9522909689
 20
10.5788674173
 30
0.0
 10
11.9894483734
 20
10.5791018824
 30
0.0
 10
12.0337946882
 20
10.5780725665
 30
0.0
 10
12.0632141353
 20
10.5765031161
 30
0.0
 10
12.0777903571
 20
10.5754922517
 30
0.0
  0
SPLINE
  5
380
100
AcDbEntity
  8
0
100
AcDbSpline
 62
7
  6
CONTINUOUS
 70
0
 71
3
 72
46
 73
42
 74
0
 42
0.0000001
 43
0.0000001
 44
0.0000000001
 40
0.0
 40
0.0
 40
0.0
 40
0.0
 40
0.0055575944
 40
0.0111780892
 40
0.0169220862
 40
0.0228460546
 40
0.0290009104
 40
0.0354313943
 40
0.04217595
 40
0.0492668767
 40
0.0567310575
 40
0.0645902562
 40
0.0728620691
 40
0.0815602268
 40
0.0906952811
 40
0.1002750453
 40
0.1103048199
 40
0.1207880132
 40
0.131726022
 40
0.1431188492
 40
0.15496497
 40
0.1672616692
 40
0.193189203
 40
0.2208609184
 40
0.2502212754
 40
0.2812034483
 40
0.3137309001
 40
0.3477186186
 40
0.3830741291
 40
0.4196983525
 40
0.4574863528
 40
0.4963280074
 40
0.5361086469
 40
0.5767096482
 40
0.6180089984
 40
0.6598818413
 40
0.7022010101
 40
0.7448375534
 40
0.8305388008
 40
0.9159403354
 40
1.0
 40
1.0
 40
1.0
 40
1.0
 10
9.4109566153
 20
10.6287226709
 30
0.0
 10
9.4109566191
 20
10.6296886907
 30
0.0
 10
9.411064764
 20
10.6316333475
 30
0.0
 10
9.4115502572
 20
10.6345399381
 30
0.0
 10
9.4123580509
 20
10.6374400639
 30
0.0
 10
9.4134867196
 20
10.6403303251
 30
0.0
 10
9.4149343194
 20
10.6432084029
 30
0.0
 10
9.4166989178
 20
10.646072097
 30
0.0
 10
9.4187785554
 20
10.6489193965
 30
0.0
 10
9.4211711
 20
10.6517484672
 30
0.0
 10
9.4238745245
 20
10.6545572935
 30
0.0
 10
9.4268864565
 20
10.6573440393
 30
0.0
 10
9.4302045279
 20
10.6601066155
 30
0.0
 10
9.4338260364
 20
10.6628430411
 30
0.0
 10
9.4377481104
 20
10.6655512328
 30
0.0
 10
9.4419676403
 20
10.6682290594
 30
0.0
 10
9.4464812221
 20
10.6708744931
 30
0.0
 10
9.4512852792
 20
10.6734853301
 30
0.0
 10
9.4563759077
 20
10.6760595787
 30
0.0
 10
9.4617490277
 20
10.6785950661
 30
0.0
 10
9.4674002796
 20
10.681089824
 30
0.0
 10
9.4754427175
 20
10.6844179886
 30
0.0
 10
9.4861684183
 20
10.6884471715
 30
0.0
 10
9.499851537
 20
10.6930069288
 30
0.0
 10
9.5145210425
 20
10.6973579776
 30
0.0
 10
9.530129163
 20
10.7014859557
 30
0.0
 10
9.5466252524
 20
10.705377195
 30
0.0
 10
9.5639555456
 20
10.709018809
 30
0.0
 10
9.582063495
 20
10.712398736
 30
0.0
 10
9.6008899366
 20
10.7155057842
 30
0.0
 10
9.620373308
 20
10.7183296684
 30
0.0
 10
9.6404498569
 20
10.7208610499
 30
0.0
 10
9.6610538616
 20
10.7230915609
 30
0.0
 10
9.682117853
 20
10.7250138294
 30
0.0
 10
9.7035728473
 20
10.7266215076
 30
0.0
 10
9.7253485473
 20
10.727909273
 30
0.0
 10
9.7473736773
 20
10.7288729158
 30
0.0
 10
9.7770259616
 20
10.7297225579
 30
0.0
 10
9.8141833661
 20
10.729957023
 30
0.0
 10
9.858529681
 20
10.7289277071
 30
0.0
 10
9.8879491281
 20
10.7273582567
 30
0.0
 10
9.9025253498
 20
10.7263473923
 30
0.0
  0
SPLINE
  5
381
100
AcDbEntity
  8
0
100
AcDbSpline
 62
7
  6
CONTINUOUS
 70
0
 71
3
 72
69
 73
65
 74
0
 42
0.0000001
 43
0.0000001
 44
0.0000000001
 40
0.0
 40
0.0
 40
0.0
 40
0.0
 40
0.0156749348
 40
0.0314027839
 40
0.0471814364
 40
0.0630099721
 40
0.0788860943
 40
0.0948073732
 40
0.1107709045
 40
0.1267734005
 40
0.1428112328
 40
0.1588804529
 40
0.1749768346
 40
0.1910959109
 40
0.2072330173
 40
0.2233833314
 40
0.2395419155
 40
0.2557037586
 40
0.2718638216
 40
0.2880170822
 40
0.3202749255
 40
0.3524475142
 40
0.3684949934
 40
0.3845082673
 40
0.4004836065
 40
0.4164176212
 40
0.4323072962
 40
0.4481500201
 40
0.4639436125
 40
0.4796863462
 40
0.49537697
 40
0.5110147255
 40
0.5265993589
 40
0.5421311273
 40
0.5576108011
 40
0.5730396628
 40
0.5884195007
 40
0.6037525947
 40
0.6190416973
 40
0.634290009
 40
0.649501151
 40
0.6646791309
 40
0.6798283035
 40
0.6949533259
 40
0.71005911
 40
0.725150772
 40
0.7402335794
 40
0.7553128946
 40
0.7703941172
 40
0.7854826259
 40
0.8005837208
 40
0.8157025686
 40
0.8308441477
 40
0.8460131958
 40
0.8612141607
 40
0.8764511552
 40
0.8917279166
 40
0.907047777
 40
0.9224136185
 40
0.9378278587
 40
0.9532924887
 40
0.9688086929
 40
0.9843780614
 40
1.0
 40
1.0
 40
1.0
 40
1.0
 10
8.6913651613
 20
7.1314624724
 30
0.0
 10
8.6828961959
 20
7.1320497971
 30
0.0
 10
8.6659556203
 20
7.1336419124
 30
0.0
 10
8.6406515155
 20
7.1372653239
 30
0.0
 10
8.6154692054
 20
7.1421197352
 30
0.0
 10
8.5904703843
 20
7.1481930171
 30
0.0
 10
8.5657148045
 20
7.1554707446
 30
0.0
 10
8.5412622126
 20
7.1639352711
 30
0.0
 10
8.5171714247
 20
7.1735661769
 30
0.0
 10
8.4935004307
 20
7.1843402285
 30
0.0
 10
8.4703062014
 20
7.1962314533
 30
0.0
 10
8.447644567
 20
7.2092112139
 30
0.0
 10
8.4255700794
 20
7.2232482549
 30
0.0
 10
8.4041358533
 20
7.2383087426
 30
0.0
 10
8.3833934676
 20
7.2543564047
 30
0.0
 10
8.3633928507
 20
7.2713525924
 30
0.0
 10
8.3441821254
 20
7.2892564397
 30
0.0
 10
8.3258076431
 20
7.3080247073
 30
0.0
 10
8.3083132413
 20
7.3276127502
 30
0.0
 10
8.2862308714
 20
7.3547427411
 30
0.0
 10
8.2610331689
 20
7.390456743
 30
0.0
 10
8.239256089
 20
7.4282885087
 30
0.0
 10
8.2240344491
 20
7.459581047
 30
0.0
 10
8.2137513488
 20
7.4834888337
 30
0.0
 10
8.2046187818
 20
7.5077932153
 30
0.0
 10
8.196658439
 20
7.5324362472
 30
0.0
 10
8.1898895918
 20
7.5573584523
 30
0.0
 10
8.1843285527
 20
7.5824998751
 30
0.0
 10
8.1799887695
 20
7.607799978
 30
0.0
 10
8.1768807667
 20
7.6331978503
 30
0.0
 10
8.1750120874
 20
7.6586323296
 30
0.0
 10
8.1743872647
 20
7.6840421592
 30
0.0
 10
8.1750078593
 20
7.7093661374
 30
0.0
 10
8.1768724424
 20
7.7345432599
 30
0.0
 10
8.17997661
 20
7.7595128622
 30
0.0
 10
8.1843129433
 20
7.7842147707
 30
0.0
 10
8.1898710308
 20
7.8085894543
 30
0.0
 10
8.1966375353
 20
7.8325781589
 30
0.0
 10
8.2045962107
 20
7.8561230491
 30
0.0
 10
8.2137279526
 20
7.87916734
 30
0.0
 10
8.2240107886
 20
7.9016554564
 30
0.0
 10
8.2354199506
 20
7.9235331669
 30
0.0
 10
8.2479279655
 20
7.9447477004
 30
0.0
 10
8.2615047099
 20
7.9652478762
 30
0.0
 10
8.2761174903
 20
7.9849842195
 30
0.0
 10
8.2917310719
 20
8.0039091191
 30
0.0
 10
8.3083077925
 20
8.0219769318
 30
0.0
 10
8.3258076756
 20
8.039144074
 30
0.0
 10
8.3441885178
 20
8.0553691325
 30
0.0
 10
8.3634059973
 20
8.0706129543
 30
0.0
 10
8.3834137402
 20
8.0848387942
 30
0.0
 10
8.4041634663
 20
8.0980123754
 30
0.0
 10
8.4256051177
 20
8.1101019539
 30
0.0
 10
8.4476869742
 20
8.1210783999
 30
0.0
 10
8.4703557804
 20
8.1309152575
 30
0.0
 10
8.4935568491
 20
8.1395888692
 30
0.0
 10
8.517234221
 20
8.1470783916
 30
0.0
 10
8.5413308043
 20
8.1533658214
 30
0.0
 10
8.565788499
 20
8.1584360519
 30
0.0
 10
8.5905483923
 20
8.162276918
 30
0.0
 10
8.6155506484
 20
8.1648791689
 30
0.0
 10
8.6407354727
 20
8.1662367874
 30
0.0
 10
8.6660410945
 20
8.1663463224
 30
0.0
 10
8.6829248291
 20
8.1655885068
 30
0.0
 10
8.6913651613
 20
8.1650031677
 30
0.0
  0
SPLINE
  5
382
100
AcDbEntity
  8
0
100
AcDbSpline
 62
7
  6
CONTINUOUS
 70
0
 71
3
 72
15
 73
11
 74
0
 42
0.0000001
 43
0.0000001
 44
0.0000000001
 40
0.0
 40
0.0
 40
0.0
 40
0.0
 40
0.1267521828
 40
0.2529687913
 40
0.3786582375
 40
0.5038353559
 40
0.6285236985
 40
0.7527540772
 40
0.8765645988
 40
1.0
 40
1.0
 40
1.0
 40
1.0
 10
10.9645914754
 20
6.7330826261
 30
0.0
 10
10.9789970955
 20
6.732083593
 30
0.0
 10
11.0078157521
 20
6.7309605753
 30
0.0
 10
11.0509695062
 20
6.7319227008
 30
0.0
 10
11.0938048018
 20
6.7355310978
 30
0.0
 10
11.1361602116
 20
6.7417728281
 30
0.0
 10
11.1778783721
 20
6.7506247498
 30
0.0
 10
11.2188043284
 20
6.7620544429
 30
0.0
 10
11.2587835208
 20
6.7760185924
 30
0.0
 10
11.2847468508
 20
6.7870006659
 30
0.0
 10
11.2975146895
 20
6.7928940659
 30
0.0
  0
SPLINE
  5
383
100
AcDbEntity
  8
0
100
AcDbSpline
 62
4
  6
CONTINUOUS
 70
0
 71
3
 72
263
 73
259
 74
0
 42
0.0000001
 43
0.0000001
 44
0.0000000001
 40
0.0
 40
0.0
 40
0.0
 40
0.0
 40
0.015625
 40
0.0234375
 40
0.03125
 40
0.0390625
 40
0.046875
 40
0.05078125
 40
0.0546875
 40
0.056640625
 40
0.05859375
 40
0.060546875
 40
0.0615234375
 40
0.0620117188
 40
0.0625
 40
0.0629882812
 40
0.0634765625
 40
0.064453125
 40
0.06640625
 40
0.068359375
 40
0.0703125
 40
0.07421875
 40
0.078125
 40
0.0859375
 40
0.09375
 40
0.1015625
 40
0.109375
 40
0.11328125
 40
0.1171875
 40
0.119140625
 40
0.12109375
 40
0.123046875
 40
0.1240234375
 40
0.1245117188
 40
0.125
 40
0.1254882812
 40
0.1259765625
 40
0.126953125
 40
0.12890625
 40
0.130859375
 40
0.1328125
 40
0.13671875
 40
0.140625
 40
0.1484375
 40
0.15625
 40
0.1640625
 40
0.171875
 40
0.17578125
 40
0.1796875
 40
0.181640625
 40
0.18359375
 40
0.185546875
 40
0.1865234375
 40
0.1870117188
 40
0.1875
 40
0.1879882812
 40
0.1884765625
 40
0.189453125
 40
0.19140625
 40
0.193359375
 40
0.1953125
 40
0.19921875
 40
0.203125
 40
0.2109375
 40
0.21875
 40
0.2265625
 40
0.234375
 40
0.23828125
 40
0.2421875
 40
0.244140625
 40
0.24609375
 40
0.248046875
 40
0.2490234375
 40
0.2495117188
 40
0.25
 40
0.2504882812
 40
0.2509765625
 40
0.251953125
 40
0.25390625
 40
0.255859375
 40
0.2578125
 40
0.26171875
 40
0.265625
 40
0.2734375
 40
0.28125
 40
0.2890625
 40
0.296875
 40
0.30078125
 40
0.3046875
 40
0.306640625
 40
0.30859375
 40
0.310546875
 40
0.3115234375
 40
0.3125
 40
0.3134765625
 40
0.314453125
 40
0.31640625
 40
0.318359375
 40
0.3203125
 40
0.32421875
 40
0.328125
 40
0.3359375
 40
0.34375
 40
0.3515625
 40
0.359375
 40
0.36328125
 40
0.3671875
 40
0.37109375
 40
0.373046875
 40
0.3740234375
 40
0.375
 40
0.3759765625
 40
0.376953125
 40
0.37890625
 40
0.3828125
 40
0.38671875
 40
0.390625
 40
0.3984375
 40
0.40625
 40
0.4140625
 40
0.421875
 40
0.42578125
 40
0.4296875
 40
0.43359375
 40
0.435546875
 40
0.4365234375
 40
0.4375
 40
0.4384765625
 40
0.439453125
 40
0.44140625
 40
0.4453125
 40
0.44921875
 40
0.453125
 40
0.4609375
 40
0.46875
 40
0.4765625
 40
0.484375
 40
0.4921875
 40
0.49609375
 40
0.498046875
 40
0.5
 40
0.501953125
 40
0.50390625
 40
0.5078125
 40
0.515625
 40
0.5234375
 40
0.53125
 40
0.5390625
 40
0.546875
 40
0.5546875
 40
0.55859375
 40
0.560546875
 40
0.5625
 40
0.564453125
 40
0.56640625
 40
0.5703125
 40
0.578125
 40
0.5859375
 40
0.59375
 40
0.6015625
 40
0.609375
 40
0.6171875
 40
0.62109375
 40
0.623046875
 40
0.625
 40
0.626953125
 40
0.62890625
 40
0.6328125
 40
0.640625
 40
0.6484375
 40
0.65625
 40
0.6640625
 40
0.671875
 40
0.6796875
 40
0.68359375
 40
0.685546875
 40
0.6875
 40
0.689453125
 40
0.69140625
 40
0.6953125
 40
0.703125
 40
0.7109375
 40
0.71875
 40
0.7265625
 40
0.734375
 40
0.73828125
 40
0.7421875
 40
0.74609375
 40
0.748046875
 40
0.7490234375
 40
0.75
 40
0.7509765625
 40
0.751953125
 40
0.75390625
 40
0.7578125
 40
0.76171875
 40
0.765625
 40
0.7734375
 40
0.78125
 40
0.7890625
 40
0.796875
 40
0.80078125
 40
0.8046875
 40
0.80859375
 40
0.810546875
 40
0.8115234375
 40
0.8125
 40
0.8134765625
 40
0.814453125
 40
0.81640625
 40
0.8203125
 40
0.82421875
 40
0.828125
 40
0.8359375
 40
0.84375
 40
0.8515625
 40
0.859375
 40
0.86328125
 40
0.8671875
 40
0.869140625
 40
0.87109375
 40
0.873046875
 40
0.8740234375
 40
0.8745117188
 40
0.875
 40
0.8754882812
 40
0.8759765625
 40
0.876953125
 40
0.87890625
 40
0.880859375
 40
0.8828125
 40
0.88671875
 40
0.890625
 40
0.8984375
 40
0.90625
 40
0.9140625
 40
0.921875
 40
0.92578125
 40
0.9296875
 40
0.931640625
 40
0.93359375
 40
0.935546875
 40
0.9365234375
 40
0.9370117188
 40
0.9375
 40
0.9379882812
 40
0.9384765625
 40
0.939453125
 40
0.94140625
 40
0.943359375
 40
0.9453125
 40
0.94921875
 40
0.953125
 40
0.9609375
 40
0.96875
 40
0.9765625
 40
0.984375
 40
1.0
 40
1.0
 40
1.0
 40
1.0
 10
10.0880446434
 20
9.5705453162
 30
0.0
 10
10.0875123209
 20
9.5697130832
 30
0.0
 10
10.0867138369
 20
9.5684647338
 30
0.0
 10
10.0856491926
 20
9.5668002678
 30
0.0
 10
10.0848507068
 20
9.5655519184
 30
0.0
 10
10.0840522308
 20
9.5643035688
 30
0.0
 10
10.0833868035
 20
9.563263278
 30
0.0
 10
10.0828545303
 20
9.5624310441
 30
0.0
 10
10.0825217034
 20
9.5619109007
 30
0.0
 10
10.0822557993
 20
9.5614947798
 30
0.0
 10
10.0820553929
 20
9.5611827059
 30
0.0
 10
10.0818914996
 20
9.5609225909
 30
0.0
 10
10.081770667
 20
9.5607406153
 30
0.0
 10
10.0817111559
 20
9.5606364654
 30
0.0
 10
10.081639659
 20
9.5605588147
 30
0.0
 10
10.0816708485
 20
9.5604793988
 30
0.0
 10
10.0816766164
 20
9.5603741266
 30
0.0
 10
10.0817033984
 20
9.5601896135
 30
0.0
 10
10.0817329336
 20
9.5599261733
 30
0.0
 10
10.0817721104
 20
9.5596099808
 30
0.0
 10
10.0818230417
 20
9.5591884133
 30
0.0
 10
10.0818871525
 20
9.5586614462
 30
0.0
 10
10.0819894801
 20
9.5578183032
 30
0.0
 10
10.0821174757
 20
9.5567643729
 30
0.0
 10
10.0822710311
 20
9.5554996571
 30
0.0
 10
10.0824246062
 20
9.5542349415
 30
0.0
 10
10.0825525527
 20
9.5531810109
 30
0.0
 10
10.0826549785
 20
9.5523378686
 30
0.0
 10
10.0827188395
 20
9.5518108995
 30
0.0
 10
10.0827702835
 20
9.5513893362
 30
0.0
 10
10.0828078941
 20
9.551073131
 30
0.0
 10
10.0828423293
 20
9.5508097306
 30
0.0
 10
10.0828603641
 20
9.5506251463
 30
0.0
 10
10.0828801473
 20
9.5505199882
 30
0.0
 10
10.0828682861
 20
9.5504402221
 30
0.0
 10
10.0829584804
 20
9.5503638866
 30
0.0
 10
10.0830431414
 20
9.5502609093
 30
0.0
 10
10.083207884
 20
9.5500812565
 30
0.0
 10
10.0834345592
 20
9.5498243183
 30
0.0
 10
10.0837102811
 20
9.5495161171
 30
0.0
 10
10.0840766139
 20
9.5491051387
 30
0.0
 10
10.0845349738
 20
9.5485914306
 30
0.0
 10
10.0852681015
 20
9.5477694892
 30
0.0
 10
10.0861845968
 20
9.5467420654
 30
0.0
 10
10.087284352
 20
9.5455091555
 30
0.0
 10
10.0883841268
 20
9.5442762465
 30
0.0
 10
10.0893005731
 20
9.5432488203
 30
0.0
 10
10.0900337988
 20
9.5424268837
 30
0.0
 10
10.0904919095
 20
9.5419131636
 30
0.0
 10
10.0908587538
 20
9.5415022097
 30
0.0
 10
10.091132913
 20
9.5411939335
 30
0.0
 10
10.0913644775
 20
9.54093723
 30
0.0
 10
10.0915204919
 20
9.5407571582
 30
0.0
 10
10.0916191376
 20
9.5406548524
 30
0.0
 10
10.0916663754
 20
9.5405764541
 30
0.0
 10
10.0918158519
 20
9.5405044355
 30
0.0
 10
10.0919794918
 20
9.5404061854
 30
0.0
 10
10.0922824774
 20
9.5402352844
 30
0.0
 10
10.0927066271
 20
9.5399905982
 30
0.0
 10
10.0932193249
 20
9.5396972067
 30
0.0
 10
10.0939016234
 20
9.5393059369
 30
0.0
 10
10.0947549411
 20
9.5388168776
 30
0.0
 10
10.0961200009
 20
9.538034367
 30
0.0
 10
10.0978264114
 20
9.5370562343
 30
0.0
 10
10.0998740652
 20
9.5358824723
 30
0.0
 10
10.1019217371
 20
9.5347087124
 30
0.0
 10
10.1036281024
 20
9.5337305744
 30
0.0
 10
10.1049932525
 20
9.5329480744
 30
0.0
 10
10.1058463405
 20
9.5324589882
 30
0.0
 10
10.1065291105
 20
9.5320677736
 30
0.0
 10
10.1070403677
 20
9.5317742137
 30
0.0
 10
10.1074690249
 20
9.5315300542
 30
0.0
 10
10.1077639639
 20
9.5313582129
 30
0.0
 10
10.1079404964
 20
9.5312614694
 30
0.0
 10
10.1080503711
 20
9.5311848229
 30
0.0
 10
10.1082463469
 20
9.5311238063
 30
0.0
 10
10.1084776149
 20
9.531036999
 30
0.0
 10
10.1088963269
 20
9.5308876263
 30
0.0
 10
10.1094871712
 20
9.5306729087
 30
0.0
 10
10.1101993158
 20
9.530415816
 30
0.0
 10
10.1111477481
 20
9.5300728272
 30
0.0
 10
10.112333663
 20
9.5296441592
 30
0.0
 10
10.1142309177
 20
9.5289582525
 30
0.0
 10
10.1166025566
 20
9.5281008818
 30
0.0
 10
10.1194484982
 20
9.5270720327
 30
0.0
 10
10.1222944272
 20
9.5260431804
 30
0.0
 10
10.1246660979
 20
9.5251858178
 30
0.0
 10
10.126563289
 20
9.5244998948
 30
0.0
 10
10.1277493654
 20
9.5240712682
 30
0.0
 10
10.1286974663
 20
9.5237281946
 30
0.0
 10
10.1294106235
 20
9.523471361
 30
0.0
 10
10.1299982994
 20
9.5232558327
 30
0.0
 10
10.1304832916
 20
9.5230867751
 30
0.0
 10
10.1308064544
 20
9.522950787
 30
0.0
 10
10.1312845167
 20
9.5228498959
 30
0.0
 10
10.1318678248
 20
9.5227031146
 30
0.0
 10
10.1326155242
 20
9.5225238442
 30
0.0
 10
10.1335048174
 20
9.5223069193
 30
0.0
 10
10.134693317
 20
9.522018315
 30
0.0
 10
10.1361779913
 20
9.5216573443
 30
0.0
 10
10.1385540008
 20
9.5210799114
 30
0.0
 10
10.1415238341
 20
9.5203580802
 30
0.0
 10
10.1450876951
 20
9.5194918947
 30
0.0
 10
10.148651598
 20
9.5186257256
 30
0.0
 10
10.1516213263
 20
9.5179038533
 30
0.0
 10
10.1539975459
 20
9.5173265025
 30
0.0
 10
10.1557785142
 20
9.5168930873
 30
0.0
 10
10.1572664604
 20
9.516533187
 30
0.0
 10
10.1583005536
 20
9.5162787466
 30
0.0
 10
10.1589031265
 20
9.5161372717
 30
0.0
 10
10.1593222026
 20
9.5160201239
 30
0.0
 10
10.159866862
 20
9.5159451826
 30
0.0
 10
10.1605492696
 20
9.5158305387
 30
0.0
 10
10.1617638924
 20
9.5156367713
 30
0.0
 10
10.1634883975
 20
9.5153563746
 30
0.0
 10
10.165562371
 20
9.5150214335
 30
0.0
 10
10.1683260732
 20
9.514574309
 30
0.0
 10
10.1717812516
 20
9.5140155888
 30
0.0
 10
10.1759272159
 20
9.5133450393
 30
0.0
 10
10.1800732982
 20
9.5126745342
 30
0.0
 10
10.1835281815
 20
9.5121157028
 30
0.0
 10
10.1862924738
 20
9.5116688007
 30
0.0
 10
10.1883646472
 20
9.5113331814
 30
0.0
 10
10.190094784
 20
9.5110549063
 30
0.0
 10
10.1912993534
 20
9.5108573514
 30
0.0
 10
10.191997869
 20
9.510748776
 30
0.0
 10
10.1924930499
 20
9.5106551943
 30
0.0
 10
10.193097959
 20
9.5106080567
 30
0.0
 10
10.1938662301
 20
9.5105290064
 30
0.0
 10
10.1952285373
 20
9.5103982163
 30
0.0
 10
10.1971653672
 20
9.510207427
 30
0.0
 10
10.199493554
 20
9.5099801694
 30
0.0
 10
10.2025964075
 20
9.5096765669
 30
0.0
 10
10.2064754641
 20
9.509297283
 30
0.0
 10
10.2111300748
 20
9.5088419786
 30
0.0
 10
10.2157849309
 20
9.5083869784
 30
0.0
 10
10.2204390623
 20
9.507930925
 30
0.0
 10
10.2243197165
 20
9.5075541378
 30
0.0
 10
10.2270318477
 20
9.5072840072
 30
0.0
 10
10.2285883907
 20
9.507139606
 30
0.0
 10
10.229736773
 20
9.5070032505
 30
0.0
 10
10.2309578783
 20
9.5069741337
 30
0.0
 10
10.2325606521
 20
9.5068979052
 30
0.0
 10
10.2353773253
 20
9.5067819343
 30
0.0
 10
10.2393949629
 20
9.5066071438
 30
0.0
 10
10.2442187828
 20
9.5064013227
 30
0.0
 10
10.2490418736
 20
9.50619438
 30
0.0
 10
10.2538652261
 20
9.505987996
 30
0.0
 10
10.2586882611
 20
9.5057804989
 30
0.0
 10
10.262708297
 20
9.5056108294
 30
0.0
 10
10.265520697
 20
9.5054857337
 30
0.0
 10
10.2671303166
 20
9.5054241235
 30
0.0
 10
10.2683303941
 20
9.5053501045
 30
0.0
 10
10.2695577532
 20
9.5053823942
 30
0.0
 10
10.271184716
 20
9.5053883654
 30
0.0
 10
10.2740363343
 20
9.5054160929
 30
0.0
 10
10.2781077586
 20
9.5054466648
 30
0.0
 10
10.2829944515
 20
9.5054872446
 30
0.0
 10
10.2878809153
 20
9.5055267125
 30
0.0
 10
10.2927673117
 20
9.5055667348
 30
0.0
 10
10.2976542066
 20
9.5056056511
 30
0.0
 10
10.3017250137
 20
9.5056413061
 30
0.0
 10
10.3045777318
 20
9.5056599764
 30
0.0
 10
10.3062029327
 20
9.5056804575
 30
0.0
 10
10.3074357036
 20
9.5056681779
 30
0.0
 10
10.3086154555
 20
9.5057615539
 30
0.0
 10
10.3102069518
 20
9.5058492013
 30
0.0
 10
10.3129834532
 20
9.5060197558
 30
0.0
 10
10.3169543935
 20
9.506254422
 30
0.0
 10
10.3217175712
 20
9.5065398911
 30
0.0
 10
10.3264813358
 20
9.5068242545
 30
0.0
 10
10.3312447037
 20
9.5071091712
 30
0.0
 10
10.3360090714
 20
9.5073929804
 30
0.0
 10
10.3399763758
 20
9.5076327186
 30
0.0
 10
10.3427593556
 20
9.5077942358
 30
0.0
 10
10.3443404732
 20
9.5078963613
 30
0.0
 10
10.345552105
 20
9.5079452654
 30
0.0
 10
10.3466651406
 20
9.5081000147
 30
0.0
 10
10.3481835794
 20
9.5082694272
 30
0.0
 10
10.3508248236
 20
9.5085831008
 30
0.0
 10
10.3546064092
 20
9.5090222109
 30
0.0
 10
10.3591407154
 20
9.509553001
 30
0.0
 10
10.3636760004
 20
9.5100827516
 30
0.0
 10
10.3682109666
 20
9.5106128019
 30
0.0
 10
10.3719903522
 20
9.5110543778
 30
0.0
 10
10.3750134271
 20
9.5114078071
 30
0.0
 10
10.3772818857
 20
9.5116724527
 30
0.0
 10
10.379168607
 20
9.5118943419
 30
0.0
 10
10.3804964956
 20
9.5120470134
 30
0.0
 10
10.3812440725
 20
9.5121383933
 30
0.0
 10
10.3818363522
 20
9.5121952686
 30
0.0
 10
10.3823078524
 20
9.512296713
 30
0.0
 10
10.3829786486
 20
9.5124164261
 30
0.0
 10
10.3841329131
 20
9.5126331672
 30
0.0
 10
10.3857921247
 20
9.5129390105
 30
0.0
 10
10.3877787858
 20
9.5133076433
 30
0.0
 10
10.3904292023
 20
9.5137985874
 30
0.0
 10
10.3937416923
 20
9.5144124631
 30
0.0
 10
10.3977169248
 20
9.515149025
 30
0.0
 10
10.4016920286
 20
9.5158856294
 30
0.0
 10
10.4050048401
 20
9.5164993989
 30
0.0
 10
10.4076546136
 20
9.5169905553
 30
0.0
 10
10.4096432359
 20
9.5173585406
 30
0.0
 10
10.4112963122
 20
9.5176664098
 30
0.0
 10
10.4124615291
 20
9.5178795343
 30
0.0
 10
10.4131147768
 20
9.5180050421
 30
0.0
 10
10.4136401802
 20
9.518088687
 30
0.0
 10
10.4140300086
 20
9.5182124142
 30
0.0
 10
10.4145970698
 20
9.5183634027
 30
0.0
 10
10.4155673936
 20
9.5186341466
 30
0.0
 10
10.4169650899
 20
9.5190175179
 30
0.0
 10
10.4186373946
 20
9.5194790213
 30
0.0
 10
10.4208688568
 20
9.5200938499
 30
0.0
 10
10.4236575929
 20
9.5208625605
 30
0.0
 10
10.4270043319
 20
9.5217849378
 30
0.0
 10
10.430350995
 20
9.5227073368
 30
0.0
 10
10.4331399208
 20
9.5234759932
 30
0.0
 10
10.4353710037
 20
9.5240909301
 30
0.0
 10
10.4367655548
 20
9.5244752409
 30
0.0
 10
10.4378809119
 20
9.5247827461
 30
0.0
 10
10.4387182065
 20
9.5250132202
 30
0.0
 10
10.4394134809
 20
9.5252057744
 30
0.0
 10
10.4399050225
 20
9.5253395958
 30
0.0
 10
10.4401783313
 20
9.5254175744
 30
0.0
 10
10.4404046436
 20
9.5254718068
 30
0.0
 10
10.4405494192
 20
9.5255422909
 30
0.0
 10
10.4407708943
 20
9.5256306008
 30
0.0
 10
10.4411452246
 20
9.5257877845
 30
0.0
 10
10.4416869099
 20
9.5260109517
 30
0.0
 10
10.442333967
 20
9.5262793434
 30
0.0
 10
10.4431977455
 20
9.5266369925
 30
0.0
 10
10.444277114
 20
9.5270841246
 30
0.0
 10
10.4460043018
 20
9.5277994965
 30
0.0
 10
10.4481632181
 20
9.528693725
 30
0.0
 10
10.4507539491
 20
9.5297667929
 30
0.0
 10
10.4533446637
 20
9.5308398639
 30
0.0
 10
10.4555036211
 20
9.531734085
 30
0.0
 10
10.4572307267
 20
9.5324494715
 30
0.0
 10
10.4583103041
 20
9.5328965665
 30
0.0
 10
10.4591736538
 20
9.5332542919
 30
0.0
 10
10.4598220209
 20
9.5335224506
 30
0.0
 10
10.4603596076
 20
9.5337463466
 30
0.0
 10
10.4607412546
 20
9.5339022292
 30
0.0
 10
10.4609510063
 20
9.5339926237
 30
0.0
 10
10.4611317925
 20
9.5340567048
 30
0.0
 10
10.4612228554
 20
9.5341349858
 30
0.0
 10
10.4613755691
 20
9.5342344073
 30
0.0
 10
10.4616282365
 20
9.5344107028
 30
0.0
 10
10.4619968134
 20
9.5346613469
 30
0.0
 10
10.4624358425
 20
9.5349626363
 30
0.0
 10
10.4630223544
 20
9.5353641751
 30
0.0
 10
10.4637551041
 20
9.5358661604
 30
0.0
 10
10.4649277217
 20
9.5366693024
 30
0.0
 10
10.4663934188
 20
9.5376732417
 30
0.0
 10
10.4681522874
 20
9.5388779637
 30
0.0
 10
10.4699111475
 20
9.5400826871
 30
0.0
 10
10.4722562972
 20
9.5416889845
 30
0.0
 10
10.4740151588
 20
9.5428937077
 30
0.0
 10
10.4751877334
 20
9.5436968564
 30
0.0
  0
SPLINE
  5
384
100
AcDbEntity
  8
0
100
AcDbSpline
 62
4
  6
CONTINUOUS
 70
0
 71
3
 72
263
 73
259
 74
0
 42
0.0000001
 43
0.0000001
 44
0.0000000001
 40
0.0
 40
0.0
 40
0.0
 40
0.0
 40
0.015625
 40
0.0234375
 40
0.03125
 40
0.0390625
 40
0.046875
 40
0.05078125
 40
0.0546875
 40
0.056640625
 40
0.05859375
 40
0.060546875
 40
0.0615234375
 40
0.0620117188
 40
0.0625
 40
0.0629882812
 40
0.0634765625
 40
0.064453125
 40
0.06640625
 40
0.068359375
 40
0.0703125
 40
0.07421875
 40
0.078125
 40
0.0859375
 40
0.09375
 40
0.1015625
 40
0.109375
 40
0.11328125
 40
0.1171875
 40
0.119140625
 40
0.12109375
 40
0.123046875
 40
0.1240234375
 40
0.1245117188
 40
0.125
 40
0.1254882812
 40
0.1259765625
 40
0.126953125
 40
0.12890625
 40
0.130859375
 40
0.1328125
 40
0.13671875
 40
0.140625
 40
0.1484375
 40
0.15625
 40
0.1640625
 40
0.171875
 40
0.17578125
 40
0.1796875
 40
0.181640625
 40
0.18359375
 40
0.185546875
 40
0.1865234375
 40
0.1870117188
 40
0.1875
 40
0.1879882812
 40
0.1884765625
 40
0.189453125
 40
0.19140625
 40
0.193359375
 40
0.1953125
 40
0.19921875
 40
0.203125
 40
0.2109375
 40
0.21875
 40
0.2265625
 40
0.234375
 40
0.23828125
 40
0.2421875
 40
0.244140625
 40
0.24609375
 40
0.248046875
 40
0.2490234375
 40
0.2495117188
 40
0.25
 40
0.2504882812
 40
0.2509765625
 40
0.251953125
 40
0.25390625
 40
0.255859375
 40
0.2578125
 40
0.26171875
 40
0.265625
 40
0.2734375
 40
0.28125
 40
0.2890625
 40
0.296875
 40
0.30078125
 40
0.3046875
 40
0.306640625
 40
0.30859375
 40
0.310546875
 40
0.3115234375
 40
0.3125
 40
0.3134765625
 40
0.314453125
 40
0.31640625
 40
0.318359375
 40
0.3203125
 40
0.32421875
 40
0.328125
 40
0.3359375
 40
0.34375
 40
0.3515625
 40
0.359375
 40
0.36328125
 40
0.3671875
 40
0.37109375
 40
0.373046875
 40
0.3740234375
 40
0.375
 40
0.3759765625
 40
0.376953125
 40
0.37890625
 40
0.3828125
 40
0.38671875
 40
0.390625
 40
0.3984375
 40
0.40625
 40
0.4140625
 40
0.421875
 40
0.42578125
 40
0.4296875
 40
0.43359375
 40
0.435546875
 40
0.4365234375
 40
0.4375
 40
0.4384765625
 40
0.439453125
 40
0.44140625
 40
0.4453125
 40
0.44921875
 40
0.453125
 40
0.4609375
 40
0.46875
 40
0.4765625
 40
0.484375
 40
0.4921875
 40
0.49609375
 40
0.498046875
 40
0.5
 40
0.501953125
 40
0.50390625
 40
0.5078125
 40
0.515625
 40
0.5234375
 40
0.53125
 40
0.5390625
 40
0.546875
 40
0.5546875
 40
0.55859375
 40
0.560546875
 40
0.5625
 40
0.564453125
 40
0.56640625
 40
0.5703125
 40
0.578125
 40
0.5859375
 40
0.59375
 40
0.6015625
 40
0.609375
 40
0.6171875
 40
0.62109375
 40
0.623046875
 40
0.625
 40
0.626953125
 40
0.62890625
 40
0.6328125
 40
0.640625
 40
0.6484375
 40
0.65625
 40
0.6640625
 40
0.671875
 40
0.6796875
 40
0.68359375
 40
0.685546875
 40
0.6875
 40
0.689453125
 40
0.69140625
 40
0.6953125
 40
0.703125
 40
0.7109375
 40
0.71875
 40
0.7265625
 40
0.734375
 40
0.73828125
 40
0.7421875
 40
0.74609375
 40
0.748046875
 40
0.7490234375
 40
0.75
 40
0.7509765625
 40
0.751953125
 40
0.75390625
 40
0.7578125
 40
0.76171875
 40
0.765625
 40
0.7734375
 40
0.78125
 40
0.7890625
 40
0.796875
 40
0.80078125
 40
0.8046875
 40
0.80859375
 40
0.810546875
 40
0.8115234375
 40
0.8125
 40
0.8134765625
 40
0.814453125
 40
0.81640625
 40
0.8203125
 40
0.82421875
 40
0.828125
 40
0.8359375
 40
0.84375
 40
0.8515625
 40
0.859375
 40
0.86328125
 40
0.8671875
 40
0.869140625
 40
0.87109375
 40
0.873046875
 40
0.8740234375
 40
0.8745117188
 40
0.875
 40
0.8754882812
 40
0.8759765625
 40
0.876953125
 40
0.87890625
 40
0.880859375
 40
0.8828125
 40
0.88671875
 40
0.890625
 40
0.8984375
 40
0.90625
 40
0.9140625
 40
0.921875
 40
0.92578125
 40
0.9296875
 40
0.931640625
 40
0.93359375
 40
0.935546875
 40
0.9365234375
 40
0.9370117188
 40
0.9375
 40
0.9379882812
 40
0.9384765625
 40
0.939453125
 40
0.94140625
 40
0.943359375
 40
0.9453125
 40
0.94921875
 40
0.953125
 40
0.9609375
 40
0.96875
 40
0.9765625
 40
0.984375
 40
1.0
 40
1.0
 40
1.0
 40
1.0
 10
10.4751877289
 20
9.5436968521
 30
0.0
 10
10.4757200514
 20
9.544529085
 30
0.0
 10
10.4765185354
 20
9.5457774345
 30
0.0
 10
10.4775831797
 20
9.5474419005
 30
0.0
 10
10.4783816655
 20
9.5486902499
 30
0.0
 10
10.4791801415
 20
9.5499385995
 30
0.0
 10
10.4798455688
 20
9.5509788903
 30
0.0
 10
10.480377842
 20
9.5518111241
 30
0.0
 10
10.4807106689
 20
9.5523312676
 30
0.0
 10
10.480976573
 20
9.5527473885
 30
0.0
 10
10.4811769794
 20
9.5530594624
 30
0.0
 10
10.4813408726
 20
9.5533195774
 30
0.0
 10
10.4814617053
 20
9.553501553
 30
0.0
 10
10.4815212164
 20
9.5536057029
 30
0.0
 10
10.4815927133
 20
9.5536833536
 30
0.0
 10
10.4815615238
 20
9.5537627695
 30
0.0
 10
10.4815557559
 20
9.5538680416
 30
0.0
 10
10.4815289739
 20
9.5540525548
 30
0.0
 10
10.4814994387
 20
9.554315995
 30
0.0
 10
10.4814602619
 20
9.5546321875
 30
0.0
 10
10.4814093306
 20
9.555053755
 30
0.0
 10
10.4813452198
 20
9.5555807221
 30
0.0
 10
10.4812428922
 20
9.5564238651
 30
0.0
 10
10.4811148966
 20
9.5574777954
 30
0.0
 10
10.4809613412
 20
9.5587425111
 30
0.0
 10
10.4808077661
 20
9.5600072267
 30
0.0
 10
10.4806798196
 20
9.5610611574
 30
0.0
 10
10.4805773938
 20
9.5619042996
 30
0.0
 10
10.4805135328
 20
9.5624312687
 30
0.0
 10
10.4804620888
 20
9.5628528321
 30
0.0
 10
10.4804244782
 20
9.5631690373
 30
0.0
 10
10.480390043
 20
9.5634324377
 30
0.0
 10
10.4803720082
 20
9.5636170219
 30
0.0
 10
10.480352225
 20
9.5637221801
 30
0.0
 10
10.4803640862
 20
9.5638019462
 30
0.0
 10
10.4802738919
 20
9.5638782817
 30
0.0
 10
10.4801892309
 20
9.563981259
 30
0.0
 10
10.4800244883
 20
9.5641609117
 30
0.0
 10
10.479797813
 20
9.56441785
 30
0.0
 10
10.4795220912
 20
9.5647260511
 30
0.0
 10
10.4791557584
 20
9.5651370296
 30
0.0
 10
10.4786973985
 20
9.5656507377
 30
0.0
 10
10.4779642708
 20
9.5664726791
 30
0.0
 10
10.4770477755
 20
9.5675001028
 30
0.0
 10
10.4759480203
 20
9.5687330128
 30
0.0
 10
10.4748482455
 20
9.5699659218
 30
0.0
 10
10.4739317992
 20
9.5709933479
 30
0.0
 10
10.4731985735
 20
9.5718152846
 30
0.0
 10
10.4727404628
 20
9.5723290047
 30
0.0
 10
10.4723736185
 20
9.5727399586
 30
0.0
 10
10.4720994593
 20
9.5730482347
 30
0.0
 10
10.4718678948
 20
9.5733049382
 30
0.0
 10
10.4717118804
 20
9.5734850101
 30
0.0
 10
10.4716132347
 20
9.5735873158
 30
0.0
 10
10.4715659969
 20
9.5736657141
 30
0.0
 10
10.4714165204
 20
9.5737377328
 30
0.0
 10
10.4712528805
 20
9.5738359829
 30
0.0
 10
10.4709498949
 20
9.5740068839
 30
0.0
 10
10.4705257452
 20
9.5742515701
 30
0.0
 10
10.4700130473
 20
9.5745449616
 30
0.0
 10
10.4693307489
 20
9.5749362313
 30
0.0
 10
10.4684774312
 20
9.5754252907
 30
0.0
 10
10.4671123714
 20
9.5762078012
 30
0.0
 10
10.4654059609
 20
9.577185934
 30
0.0
 10
10.4633583071
 20
9.578359696
 30
0.0
 10
10.4613106352
 20
9.5795334559
 30
0.0
 10
10.4596042699
 20
9.5805115939
 30
0.0
 10
10.4582391198
 20
9.5812940939
 30
0.0
 10
10.4573860318
 20
9.5817831801
 30
0.0
 10
10.4567032618
 20
9.5821743947
 30
0.0
 10
10.4561920046
 20
9.5824679545
 30
0.0
 10
10.4557633474
 20
9.5827121141
 30
0.0
 10
10.4554684084
 20
9.5828839553
 30
0.0
 10
10.4552918759
 20
9.5829806988
 30
0.0
 10
10.4551820012
 20
9.5830573454
 30
0.0
 10
10.4549860254
 20
9.583118362
 30
0.0
 10
10.4547547574
 20
9.5832051693
 30
0.0
 10
10.4543360454
 20
9.583354542
 30
0.0
 10
10.4537452011
 20
9.5835692596
 30
0.0
 10
10.4530330565
 20
9.5838263523
 30
0.0
 10
10.4520846242
 20
9.584169341
 30
0.0
 10
10.4508987093
 20
9.584598009
 30
0.0
 10
10.4490014546
 20
9.5852839158
 30
0.0
 10
10.4466298157
 20
9.5861412865
 30
0.0
 10
10.4437838741
 20
9.5871701355
 30
0.0
 10
10.4409379451
 20
9.5881989879
 30
0.0
 10
10.4385662744
 20
9.5890563504
 30
0.0
 10
10.4366690833
 20
9.5897422734
 30
0.0
 10
10.4354830069
 20
9.5901709001
 30
0.0
 10
10.434534906
 20
9.5905139737
 30
0.0
 10
10.4338217488
 20
9.5907708072
 30
0.0
 10
10.4332340729
 20
9.5909863356
 30
0.0
 10
10.4327490807
 20
9.5911553932
 30
0.0
 10
10.4324259179
 20
9.5912913813
 30
0.0
 10
10.4319478556
 20
9.5913922724
 30
0.0
 10
10.4313645475
 20
9.5915390537
 30
0.0
 10
10.4306168481
 20
9.5917183241
 30
0.0
 10
10.4297275549
 20
9.591935249
 30
0.0
 10
10.4285390553
 20
9.5922238533
 30
0.0
 10
10.427054381
 20
9.592584824
 30
0.0
 10
10.4246783715
 20
9.5931622569
 30
0.0
 10
10.4217085382
 20
9.5938840881
 30
0.0
 10
10.4181446772
 20
9.5947502736
 30
0.0
 10
10.4145807743
 20
9.5956164427
 30
0.0
 10
10.411611046
 20
9.5963383149
 30
0.0
 10
10.4092348264
 20
9.5969156658
 30
0.0
 10
10.4074538581
 20
9.597349081
 30
0.0
 10
10.4059659119
 20
9.5977089812
 30
0.0
 10
10.4049318187
 20
9.5979634217
 30
0.0
 10
10.4043292458
 20
9.5981048966
 30
0.0
 10
10.4039101697
 20
9.5982220444
 30
0.0
 10
10.4033655103
 20
9.5982969857
 30
0.0
 10
10.4026831027
 20
9.5984116295
 30
0.0
 10
10.4014684799
 20
9.598605397
 30
0.0
 10
10.3997439748
 20
9.5988857937
 30
0.0
 10
10.3976700013
 20
9.5992207348
 30
0.0
 10
10.3949062991
 20
9.5996678593
 30
0.0
 10
10.3914511207
 20
9.6002265795
 30
0.0
 10
10.3873051564
 20
9.600897129
 30
0.0
 10
10.3831590741
 20
9.6015676341
 30
0.0
 10
10.3797041908
 20
9.6021264655
 30
0.0
 10
10.3769398985
 20
9.6025733676
 30
0.0
 10
10.3748677251
 20
9.6029089869
 30
0.0
 10
10.3731375883
 20
9.603187262
 30
0.0
 10
10.3719330188
 20
9.6033848169
 30
0.0
 10
10.3712345033
 20
9.6034933922
 30
0.0
 10
10.3707393224
 20
9.6035869739
 30
0.0
 10
10.3701344133
 20
9.6036341115
 30
0.0
 10
10.3693661422
 20
9.6037131619
 30
0.0
 10
10.368003835
 20
9.603843952
 30
0.0
 10
10.3660670051
 20
9.6040347413
 30
0.0
 10
10.3637388183
 20
9.6042619988
 30
0.0
 10
10.3606359648
 20
9.6045656013
 30
0.0
 10
10.3567569082
 20
9.6049448852
 30
0.0
 10
10.3521022975
 20
9.6054001897
 30
0.0
 10
10.3474474414
 20
9.6058551898
 30
0.0
 10
10.34279331
 20
9.6063112432
 30
0.0
 10
10.3389126558
 20
9.6066880305
 30
0.0
 10
10.3362005246
 20
9.606958161
 30
0.0
 10
10.3346439816
 20
9.6071025623
 30
0.0
 10
10.3334955993
 20
9.6072389178
 30
0.0
 10
10.332274494
 20
9.6072680345
 30
0.0
 10
10.3306717202
 20
9.607344263
 30
0.0
 10
10.327855047
 20
9.607460234
 30
0.0
 10
10.3238374094
 20
9.6076350245
 30
0.0
 10
10.3190135895
 20
9.6078408456
 30
0.0
 10
10.3141904987
 20
9.6080477883
 30
0.0
 10
10.3093671462
 20
9.6082541723
 30
0.0
 10
10.3045441112
 20
9.6084616694
 30
0.0
 10
10.3005240753
 20
9.6086313388
 30
0.0
 10
10.2977116753
 20
9.6087564346
 30
0.0
 10
10.2961020557
 20
9.6088180448
 30
0.0
 10
10.2949019782
 20
9.6088920638
 30
0.0
 10
10.2936746191
 20
9.6088597741
 30
0.0
 10
10.2920476563
 20
9.6088538028
 30
0.0
 10
10.289196038
 20
9.6088260754
 30
0.0
 10
10.2851246137
 20
9.6087955034
 30
0.0
 10
10.2802379208
 20
9.6087549236
 30
0.0
 10
10.275351457
 20
9.6087154558
 30
0.0
 10
10.2704650606
 20
9.6086754335
 30
0.0
 10
10.2655781657
 20
9.6086365172
 30
0.0
 10
10.2615073586
 20
9.6086008621
 30
0.0
 10
10.2586546405
 20
9.6085821918
 30
0.0
 10
10.2570294396
 20
9.6085617107
 30
0.0
 10
10.2557966687
 20
9.6085739903
 30
0.0
 10
10.2546169168
 20
9.6084806144
 30
0.0
 10
10.2530254205
 20
9.608392967
 30
0.0
 10
10.2502489191
 20
9.6082224124
 30
0.0
 10
10.2462779788
 20
9.6079877463
 30
0.0
 10
10.2415148011
 20
9.6077022771
 30
0.0
 10
10.2367510365
 20
9.6074179137
 30
0.0
 10
10.2319876686
 20
9.6071329971
 30
0.0
 10
10.2272233009
 20
9.6068491879
 30
0.0
 10
10.2232559965
 20
9.6066094497
 30
0.0
 10
10.2204730167
 20
9.6064479325
 30
0.0
 10
10.2188918991
 20
9.6063458069
 30
0.0
 10
10.2176802673
 20
9.6062969029
 30
0.0
 10
10.2165672317
 20
9.6061421535
 30
0.0
 10
10.2150487929
 20
9.6059727411
 30
0.0
 10
10.2124075487
 20
9.6056590674
 30
0.0
 10
10.2086259631
 20
9.6052199573
 30
0.0
 10
10.2040916569
 20
9.6046891673
 30
0.0
 10
10.1995563719
 20
9.6041594167
 30
0.0
 10
10.1950214057
 20
9.6036293664
 30
0.0
 10
10.1912420201
 20
9.6031877905
 30
0.0
 10
10.1882189452
 20
9.6028343611
 30
0.0
 10
10.1859504866
 20
9.6025697155
 30
0.0
 10
10.1840637653
 20
9.6023478264
 30
0.0
 10
10.1827358767
 20
9.6021951548
 30
0.0
 10
10.1819882998
 20
9.6021037749
 30
0.0
 10
10.1813960201
 20
9.6020468997
 30
0.0
 10
10.1809245199
 20
9.6019454552
 30
0.0
 10
10.1802537237
 20
9.6018257422
 30
0.0
 10
10.1790994592
 20
9.6016090011
 30
0.0
 10
10.1774402476
 20
9.6013031578
 30
0.0
 10
10.1754535865
 20
9.6009345249
 30
0.0
 10
10.17280317
 20
9.6004435808
 30
0.0
 10
10.16949068
 20
9.5998297052
 30
0.0
 10
10.1655154475
 20
9.5990931433
 30
0.0
 10
10.1615403437
 20
9.5983565388
 30
0.0
 10
10.1582275322
 20
9.5977427694
 30
0.0
 10
10.1555777587
 20
9.5972516129
 30
0.0
 10
10.1535891364
 20
9.5968836277
 30
0.0
 10
10.1519360601
 20
9.5965757585
 30
0.0
 10
10.1507708432
 20
9.596362634
 30
0.0
 10
10.1501175955
 20
9.5962371262
 30
0.0
 10
10.1495921921
 20
9.5961534812
 30
0.0
 10
10.1492023637
 20
9.596029754
 30
0.0
 10
10.1486353025
 20
9.5958787656
 30
0.0
 10
10.1476649787
 20
9.5956080217
 30
0.0
 10
10.1462672824
 20
9.5952246503
 30
0.0
 10
10.1445949777
 20
9.594763147
 30
0.0
 10
10.1423635155
 20
9.5941483184
 30
0.0
 10
10.1395747794
 20
9.5933796078
 30
0.0
 10
10.1362280404
 20
9.5924572305
 30
0.0
 10
10.1328813773
 20
9.5915348315
 30
0.0
 10
10.1300924515
 20
9.5907661751
 30
0.0
 10
10.1278613686
 20
9.5901512381
 30
0.0
 10
10.1264668175
 20
9.5897669274
 30
0.0
 10
10.1253514604
 20
9.5894594222
 30
0.0
 10
10.1245141658
 20
9.5892289481
 30
0.0
 10
10.1238188914
 20
9.5890363938
 30
0.0
 10
10.1233273498
 20
9.5889025724
 30
0.0
 10
10.123054041
 20
9.5888245938
 30
0.0
 10
10.1228277287
 20
9.5887703614
 30
0.0
 10
10.1226829531
 20
9.5886998774
 30
0.0
 10
10.122461478
 20
9.5886115674
 30
0.0
 10
10.1220871477
 20
9.5884543838
 30
0.0
 10
10.1215454624
 20
9.5882312166
 30
0.0
 10
10.1208984053
 20
9.5879628249
 30
0.0
 10
10.1200346268
 20
9.5876051758
 30
0.0
 10
10.1189552583
 20
9.5871580436
 30
0.0
 10
10.1172280705
 20
9.5864426718
 30
0.0
 10
10.1150691542
 20
9.5855484433
 30
0.0
 10
10.1124784232
 20
9.5844753753
 30
0.0
 10
10.1098877086
 20
9.5834023044
 30
0.0
 10
10.1077287512
 20
9.5825080833
 30
0.0
 10
10.1060016456
 20
9.5817926968
 30
0.0
 10
10.1049220682
 20
9.5813456018
 30
0.0
 10
10.1040587185
 20
9.5809878764
 30
0.0
 10
10.1034103514
 20
9.5807197177
 30
0.0
 10
10.1028727647
 20
9.5804958217
 30
0.0
 10
10.1024911176
 20
9.580339939
 30
0.0
 10
10.102281366
 20
9.5802495445
 30
0.0
 10
10.1021005798
 20
9.5801854635
 30
0.0
 10
10.1020095169
 20
9.5801071825
 30
0.0
 10
10.1018568032
 20
9.5800077609
 30
0.0
 10
10.1016041358
 20
9.5798314655
 30
0.0
 10
10.1012355589
 20
9.5795808213
 30
0.0
 10
10.1007965298
 20
9.5792795319
 30
0.0
 10
10.1002100179
 20
9.5788779931
 30
0.0
 10
10.0994772682
 20
9.5783760078
 30
0.0
 10
10.0983046506
 20
9.5775728659
 30
0.0
 10
10.0968389535
 20
9.5765689266
 30
0.0
 10
10.0950800849
 20
9.5753642046
 30
0.0
 10
10.0933212248
 20
9.5741594812
 30
0.0
 10
10.0909760751
 20
9.5725531837
 30
0.0
 10
10.0892172135
 20
9.5713484606
 30
0.0
 10
10.0880446389
 20
9.5705453118
 30
0.0
  0
ENDSEC
  0
SECTION
  2
OBJECTS
  0
DICTIONARY
  5
C
100
AcDbDictionary
280
0
281
1
  3
ACAD_GROUP
350
D
  3
ACAD_MLINESTYLE
350
17
  3
ACAD_LAYOUT
350
1A
  3
ACAD_PLOTSETTINGS
350
19
  3
ACAD_PLOTSTYLENAME
350
E
  3
ACAD_IMAGE_DICT
350
       386
  3
ACAD_IMAGE_VARS
350
       387
  3
ACAD_TABLESTYLE
350
       388
  0
IMAGEDEF_REACTOR
  5
385
100
AcDbRasterImageDefReactor
 90
2
330
28E
  0
DICTIONARY
  5
D
102
{ACAD_REACTORS
330
C
102
}
100
AcDbDictionary
280
0
281
1
  0
ACDBDICTIONARYWDFLT
  5
E
102
{ACAD_REACTORS
330
C
102
}
100
AcDbDictionary
281
1
  3
Normal
350
F
100
AcDbDictionaryWithDefault
340
F
  0
DICTIONARY
  5
386
330
C
100
AcDbDictionary
281
1
  3
VFX_assy_2_img_1
350
       38B
  0
RASTERVARIABLES
  5
387
330
C
100
AcDbRasterVariables
 90
0
 70
0
 71
1
 72
5
  0
DICTIONARY
  5
17
102
{ACAD_REACTORS
330
C
102
}
100
AcDbDictionary
280
0
281
1
  3
Standard
350
18
  0
DICTIONARY
  5
388
330
C
100
AcDbDictionary
281
1
  3
Standard
350
       38C
  3
Standard1
350
       38D
  0
DICTIONARY
  5
19
102
{ACAD_REACTORS
330
C
102
}
100
AcDbDictionary
281
1
  0
DICTIONARY
  5
1A
102
{ACAD_REACTORS
330
C
102
}
100
AcDbDictionary
281
1
  3
Model
350
389
  3
Layout1
350
38A
  0
ACDBPLACEHOLDER
  5
F
102
{ACAD_REACTORS
330
E
102
}
  0
MLINESTYLE
  5
18
102
{ACAD_REACTORS
330
17
102
}
100
AcDbMlineStyle
  2
STANDARD
 70
0
  3

 62
256
 51
90.0
 52
90.0
 71
2
 49
0.5
 62
256
  6
BYLAYER
 49
-0.5
 62
256
  6
BYLAYER
  0
LAYOUT
  5
389
102
{ACAD_REACTORS
330
1A
102
}
100
AcDbPlotSettings
  1

  2
none_device
  4
ANSI_C_(22.00_x_17.00_Inches)
  6

 40
0.0
 41
0.0
 42
0.0
 43
0.0
 44
558.8
 45
431.8
 46
0.0
 47
0.0
 48
0.0
 49
0.0
140
0.0
141
0.0
142
1.0
143
1.0
 70
1024
 72
0
 73
0
 74
0
  7

 75
0
147
1.0
148
0.0
149
0.0
100
AcDbLayout
  1
Model
 70
0
 71
0
 10
0.0
 20
0.0
 11
22.0
 21
17.0
 12
0.0
 22
0.0
 32
0.0
 14
0.0
 24
0.0
 34
0.0
 15
0.0
 25
0.0
 35
0.0
146
0.0
 13
0.0
 23
0.0
 33
0.0
 16
1.0
 26
0.0
 36
0.0
 17
0.0
 27
1.0
 37
0.0
 76
0
330
207
345
0
346
0
  0
LAYOUT
  5
38A
102
{ACAD_REACTORS
330
1A
102
}
100
AcDbPlotSettings
  1

  2
none_device
  4
ANSI_C_(22.00_x_17.00_Inches)
  6

 40
0.0
 41
0.0
 42
0.0
 43
0.0
 44
558.8
 45
431.8
 46
0.0
 47
0.0
 48
0.0
 49
0.0
140
0.0
141
0.0
142
1.0
143
1.0
 70
0
 72
0
 73
0
 74
0
  7

 75
0
147
1.0
148
0.0
149
0.0
100
AcDbLayout
  1
Layout1
 70
0
 71
1
 10
0.0
 20
0.0
 11
22.0
 21
17.0
 12
0.0
 22
0.0
 32
0.0
 14
0.0
 24
0.0
 34
0.0
 15
0.0
 25
0.0
 35
0.0
146
0.0
 13
0.0
 23
0.0
 33
0.0
 16
1.0
 26
0.0
 36
0.0
 17
0.0
 27
1.0
 37
0.0
 76
0
330
208
345
0
346
0
  0
IMAGEDEF
  5
38B
102
{ACAD_REACTORS
330
386
330
385
102
}
100
AcDbRasterImageDef
 90
0
  1
VFX_assy_2_img_1.png
 10
369.0
 20
92.0
 11
0.0066666667
 21
0.0066666667
280
1
281
0
  0
TABLESTYLE
  5
38C
102
{ACAD_REACTORS
330
388
330
291
330
292
102
}
330
388
100
AcDbTableStyle
  3
Standard
 70
0
 71
0
 40
0.06
 41
0.06
280
1
281
1
  7
Standard
140
0.18
170
1
 62
0
 63
7
283
0
  7
Standard
140
0.18
170
1
 62
0
 63
7
283
0
  7
Standard
140
0.18
170
1
 62
0
 63
7
283
0
  0
TABLESTYLE
  5
38D
102
{ACAD_REACTORS
330
388
330
290
102
}
330
388
100
AcDbTableStyle
  3
Standard1
 70
1
 71
0
 40
0.06
 41
0.06
280
1
281
1
  7
Standard
140
0.18
170
1
 62
0
 63
7
283
0
  7
Standard
140
0.18
170
1
 62
0
 63
7
283
0
  7
Standard
140
0.18
170
1
 62
0
 63
7
283
0
  0
ENDSEC
  0
EOF
