999
DXF file: U9G_assy_2.dxf
999
Pro/ENGINEER 2014200 by Parametric Technology Corporation
  0
SECTION
  2
HEADER
  9
$ACADVER
  1
AC1021
  9
$DWGCODEPAGE
  3
ANSI_1252
  9
$EXTMAX
 10
22.0
 20
17.0
 30
0.0
  9
$EXTMIN
 10
0.0
 20
0.0
 30
0.0
  9
$LIMMIN
 10
0.0
 20
0.0
  9
$LIMMAX
 10
22.0
 20
17.0
  9
$VIEWCTR
 10
11.0
 20
8.5
  9
$VIEWSIZE
 40
17.0
  9
$CLAYER
  8
0
  9
$LTSCALE
 40
1.21
  9
$CELTYPE
  6
BYLAYER
  9
$DIMSCALE
 40
1.0
  9
$DIMASZ
 40
0.1875
  9
$DIMEXO
 40
0.0625
  9
$DIMDLI
 40
0.836
  9
$DIMEXE
 40
0.125
  9
$DIMCEN
 40
0.198
  9
$DIMLFAC
 40
1.0
  9
$DIMBLK
  1
_FILLED
  9
$DIMTXT
 40
0.1
  9
$DIMTOL
 70
0
  9
$DIMLIM
 70
0
  9
$DIMTFAC
 40
1.0
  9
$DIMGAP
 40
0.09
  9
$DIMDSEP
 70
46
  9
$AUNITS
 70
0
  9
$PDMODE
 70
3
  9
$PDSIZE
 40
0.3125
  9
$HANDSEED
  5
3DE
  9
$TILEMODE
 70
1
  9
$MEASUREMENT
 70
0
  9
$INSUNITS
 70
1
  0
ENDSEC
  0
SECTION
  2
CLASSES
  0
CLASS
  1
ACDBDICTIONARYWDFLT
  2
AcDbDictionaryWithDefault
  3
AutoCAD 2000
 90
0
 91
1
280
0
281
0
  0
CLASS
  1
ACDBPLACEHOLDER
  2
AcDbPlaceHolder
  3
AutoCAD 2000
 90
0
 91
1
280
0
281
0
  0
CLASS
  1
LAYOUT
  2
AcDbLayout
  3
AutoCAD 2000
 90
0
 91
0
280
0
281
0
  0
CLASS
  1
RASTERVARIABLES
  2
AcDbRasterVariables
  3
ISM
 90
0
 91
1
280
0
281
0
  0
CLASS
  1
IMAGEDEF
  2
AcDbRasterImageDef
  3
ISM
 90
0
 91
1
280
0
281
0
  0
CLASS
  1
IMAGEDEF_REACTOR
  2
AcDbRasterImageDefReactor
  3
ISM
 90
0
 91
1
280
0
281
0
  0
CLASS
  1
IMAGE
  2
AcDbRasterImage
  3
ISM
 90
127
 91
1
280
0
281
1
  0
CLASS
  1
TABLESTYLE
  2
AcDbTableStyle
  3
ObjectDBX Classes
 90
2047
 91
1
280
0
281
0
  0
CLASS
  1
ACAD_TABLE
  2
AcDbTable
  3
ObjectDBX Classes
 90
1025
 91
3
280
0
281
1
  0
ENDSEC
  0
SECTION
  2
TABLES
  0
TABLE
  2
VPORT
  5
8
100
AcDbSymbolTable
 70
2
  0
VPORT
  5
1F4
100
AcDbSymbolTableRecord
100
AcDbViewportTableRecord
  2
*ACTIVE
 70
0
 10
0.0
 20
0.0
 11
1.0
 21
1.0
 12
11.0
 22
8.5
 13
0.0
 23
0.0
 14
1.0
 24
1.0
 15
0.0
 25
0.0
 16
0.0
 26
0.0
 36
1.0
 17
0.0
 27
0.0
 37
0.0
 40
17.0
 41
1.2941176471
 42
50.0
 43
0.0
 44
0.0
 50
0.0
 51
0.0
 71
0
 72
100
 73
1
 74
1
 75
0
 76
0
 77
0
 78
0
  0
ENDTAB
  0
TABLE
  2
LTYPE
  5
5
100
AcDbSymbolTable
 70
6
  0
LTYPE
  5
14
100
AcDbSymbolTableRecord
100
AcDbLinetypeTableRecord
  2
BYBLOCK
 70
0
  3

 72
65
 73
0
 40
0.0
  0
LTYPE
  5
15
100
AcDbSymbolTableRecord
100
AcDbLinetypeTableRecord
  2
BYLAYER
 70
0
  3

 72
65
 73
0
 40
0.0
  0
LTYPE
  5
16
100
AcDbSymbolTableRecord
100
AcDbLinetypeTableRecord
  2
CONTINUOUS
 70
64
  3
Solid line
 72
65
 73
0
 40
0.0
  0
LTYPE
  5
1F5
100
AcDbSymbolTableRecord
100
AcDbLinetypeTableRecord
  2
CENTER
 70
64
  3
____ _ ____ _ ____ _ ____ _ ____ _ ____ _ ____
 72
65
 73
4
 40
0.6
 49
0.375
 74
0
 49
-0.075
 74
0
 49
0.075
 74
0
 49
-0.075
 74
0
  0
LTYPE
  5
1F6
100
AcDbSymbolTableRecord
100
AcDbLinetypeTableRecord
  2
HIDDEN
 70
64
  3
- - - - - - - - - - - - - - - - - - - -
 72
65
 73
2
 40
0.2
 49
0.1
 74
0
 49
-0.1
 74
0
  0
LTYPE
  5
1F7
100
AcDbSymbolTableRecord
100
AcDbLinetypeTableRecord
  2
PHANTOM
 70
64
  3
_____ _ _ _____ _ _ _____ _ _ _____
 72
65
 73
6
 40
0.8
 49
0.45
 74
0
 49
-0.05
 74
0
 49
0.1
 74
0
 49
-0.05
 74
0
 49
0.1
 74
0
 49
-0.05
 74
0
  0
LTYPE
  5
1F8
100
AcDbSymbolTableRecord
100
AcDbLinetypeTableRecord
  2
DOT
 70
64
  3
. . . . . . . . . . . . . . . . . . . .
 72
65
 73
2
 40
0.2
 49
0.1
 74
0
 49
-0.1
 74
0
  0
LTYPE
  5
1F9
100
AcDbSymbolTableRecord
100
AcDbLinetypeTableRecord
  2
DASHED
 70
64
  3
- - - - - - - - - - - - - - - - - - - -
 72
65
 73
2
 40
0.2
 49
0.1
 74
0
 49
-0.1
 74
0
  0
ENDTAB
  0
TABLE
  2
LAYER
  5
2
100
AcDbSymbolTable
 70
36
  0
LAYER
  5
10
100
AcDbSymbolTableRecord
100
AcDbLayerTableRecord
  2
0
 70
0
 62
7
  6
CONTINUOUS
370
-3
390
F
  0
LAYER
  5
1FA
100
AcDbSymbolTableRecord
100
AcDbLayerTableRecord
  2
DEFAULT_1
 70
0
 62
7
  6
CENTER
370
-3
390
F
  0
LAYER
  5
1FB
100
AcDbSymbolTableRecord
100
AcDbLayerTableRecord
  2
DEFAULT_2
 70
0
 62
8
  6
HIDDEN
370
-3
390
F
  0
LAYER
  5
1FC
100
AcDbSymbolTableRecord
100
AcDbLayerTableRecord
  2
DEFAULT_3
 70
0
 62
7
  6
PHANTOM
370
-3
390
F
  0
LAYER
  5
1FD
100
AcDbSymbolTableRecord
100
AcDbLayerTableRecord
  2
DATUM_PLANES
 70
0
 62
7
  6
CONTINUOUS
370
-3
390
F
  0
LAYER
  5
1FE
100
AcDbSymbolTableRecord
100
AcDbLayerTableRecord
  2
DIMENSIONS
 70
0
 62
7
  6
CONTINUOUS
370
-3
390
F
  0
LAYER
  5
1FF
100
AcDbSymbolTableRecord
100
AcDbLayerTableRecord
  2
DTM_500001
 70
0
 62
7
  6
CONTINUOUS
370
-3
390
F
  0
LAYER
  5
200
100
AcDbSymbolTableRecord
100
AcDbLayerTableRecord
  2
PARAMETERDIMENSIONS
 70
0
 62
7
  6
CONTINUOUS
370
-3
390
F
  0
LAYER
  5
201
100
AcDbSymbolTableRecord
100
AcDbLayerTableRecord
  2
PORT_AREAS
 70
0
 62
7
  6
CONTINUOUS
370
-3
390
F
  0
LAYER
  5
202
100
AcDbSymbolTableRecord
100
AcDbLayerTableRecord
  2
SUNNBOMCOSMETIC
 70
0
 62
7
  6
CONTINUOUS
370
-3
390
F
  0
LAYER
  5
203
100
AcDbSymbolTableRecord
100
AcDbLayerTableRecord
  2
SUNNBOMSTAMPING
 70
0
 62
7
  6
CONTINUOUS
370
-3
390
F
  0
LAYER
  5
204
100
AcDbSymbolTableRecord
100
AcDbLayerTableRecord
  2
THREADS
 70
0
 62
7
  6
CONTINUOUS
370
-3
390
F
  0
ENDTAB
  0
TABLE
  2
STYLE
  5
3
100
AcDbSymbolTable
 70
1
  0
STYLE
  5
11
100
AcDbSymbolTableRecord
100
AcDbTextStyleTableRecord
  2
STANDARD
 70
0
 40
0.0
 41
0.8
 50
0.0
 71
0
 42
0.2
  3
txt
  4

  0
STYLE
  5
205
100
AcDbSymbolTableRecord
100
AcDbTextStyleTableRecord
  2
TEXTSTYLE_1
 70
0
 40
0.0
 41
0.8
 50
0.0
 71
0
 42
0.2
  3
gdt
  4

  0
ENDTAB
  0
TABLE
  2
VIEW
  5
6
100
AcDbSymbolTable
 70
0
  0
ENDTAB
  0
TABLE
  2
UCS
  5
7
100
AcDbSymbolTable
 70
0
  0
ENDTAB
  0
TABLE
  2
APPID
  5
9
100
AcDbSymbolTable
 70
1
  0
APPID
  5
206
100
AcDbSymbolTableRecord
100
AcDbRegAppTableRecord
  2
ACAD
 70
0
  0
ENDTAB
  0
TABLE
  2
BLOCK_RECORD
  5
1
100
AcDbSymbolTable
 70
0
  0
BLOCK_RECORD
  5
207
100
AcDbSymbolTableRecord
100
AcDbBlockTableRecord
  2
*Model_Space
  0
BLOCK_RECORD
  5
208
100
AcDbSymbolTableRecord
100
AcDbBlockTableRecord
  2
*Paper_Space
  0
BLOCK_RECORD
  5
209
100
AcDbSymbolTableRecord
100
AcDbBlockTableRecord
  2
SUN_FIRST_THIRD_ANGLE_BL0
  0
BLOCK_RECORD
  5
20A
100
AcDbSymbolTableRecord
100
AcDbBlockTableRecord
  2
*T1
  0
BLOCK_RECORD
  5
20B
100
AcDbSymbolTableRecord
100
AcDbBlockTableRecord
  2
*T2
  0
BLOCK_RECORD
  5
20C
100
AcDbSymbolTableRecord
100
AcDbBlockTableRecord
  2
*T3
  0
ENDTAB
  0
TABLE
  2
DIMSTYLE
  5
A
100
AcDbSymbolTable
 70
1
100
AcDbDimStyleTable
 71
0
  0
DIMSTYLE
105
20D
100
AcDbSymbolTableRecord
100
AcDbDimStyleTableRecord
  2
STANDARD
 70
0
  3

  4

 40
1.0
 41
0.1875
 42
0.0625
 43
0.38
 44
0.125
 45
0.0
 46
0.0
 47
0.001
 48
0.001
140
0.1
141
0.09
142
0.0
143
25.4
144
1.0
145
0.0
146
1.0
147
0.09
 71
0.0
 72
0.0
 73
1
 74
1
 75
0
 76
0
 77
0
 78
4
170
0
171
2
172
0
173
0
174
0
175
0
176
0
177
0
178
0
270
2
271
3
272
3
273
2
274
2
275
0
280
0
281
0
282
0
283
1
284
4
285
0
286
0
287
3
288
0
340
11
278
46
  0
ENDTAB
  0
ENDSEC
  0
SECTION
  2
BLOCKS
  0
BLOCK
  5
20
100
AcDbEntity
  8
0
100
AcDbBlockBegin
  2
*Model_Space
 70
0
 10
0.0
 20
0.0
 30
0.0
  3
*Model_Space
  1

  0
ENDBLK
  5
21
100
AcDbEntity
  8
0
100
AcDbBlockEnd
  0
BLOCK
  5
1C
100
AcDbEntity
  8
0
100
AcDbBlockBegin
  2
*Paper_Space
 70
0
 10
0.0
 20
0.0
 30
0.0
  3
*Paper_Space
  1

  0
ENDBLK
  5
1D
100
AcDbEntity
  8
0
100
AcDbBlockEnd
  0
BLOCK
  5
20E
100
AcDbEntity
  8
0
100
AcDbBlockBegin
 62
2
  6
CONTINUOUS
  2
SUN_FIRST_THIRD_ANGLE_BL0
 70
64
 10
20.4816717061
 20
1.2289683772
  3
SUN_FIRST_THIRD_ANGLE_BL0
  1

  0
TEXT
  5
20F
100
AcDbEntity
  8
0
100
AcDbText
 62
2
  6
CONTINUOUS
 10
19.4750896608
 20
1.4136269581
  7
STANDARD
 40
0.08
  1
FIRST ANGLE
 41
0.8
 72
0
100
AcDbText
  0
TEXT
  5
210
100
AcDbEntity
  8
0
100
AcDbText
 62
2
  6
CONTINUOUS
 10
20.7842537513
 20
1.4047600029
  7
STANDARD
 40
0.08
  1
THIRD ANGLE
 41
0.8
 72
0
100
AcDbText
  0
LINE
  5
211
100
AcDbEntity
  8
0
100
AcDbLine
 62
7
  6
CONTINUOUS
 10
19.4767170086
 20
1.1727031207
 11
19.6334271527
 21
1.1717972817
  0
LINE
  5
212
100
AcDbEntity
  8
0
100
AcDbLine
 62
7
  6
CONTINUOUS
 10
19.6596964832
 20
1.1717972817
 11
19.6950230232
 21
1.171593082
  0
LINE
  5
213
100
AcDbEntity
  8
0
100
AcDbLine
 62
7
  6
CONTINUOUS
 10
19.7194818561
 20
1.1708914427
 11
19.8852396156
 21
1.1699333054
  0
LINE
  5
214
100
AcDbEntity
  8
0
100
AcDbLine
 62
7
  6
CONTINUOUS
 10
19.4758111696
 20
1.2723454088
 11
19.88525039
 21
1.3511534004
  0
LINE
  5
215
100
AcDbEntity
  8
0
100
AcDbLine
 62
7
  6
CONTINUOUS
 10
19.88525039
 20
1.3511534004
 11
19.8831348489
 21
0.9851647912
  0
LINE
  5
216
100
AcDbEntity
  8
0
100
AcDbLine
 62
7
  6
CONTINUOUS
 10
19.8831348489
 20
0.9851647912
 11
19.4767170086
 21
1.0658141206
  0
LINE
  5
217
100
AcDbEntity
  8
0
100
AcDbLine
 62
7
  6
CONTINUOUS
 10
19.4767170086
 20
1.0658141206
 11
19.4779056764
 21
1.2714536432
  0
CIRCLE
  5
218
100
AcDbEntity
  8
0
100
AcDbCircle
 62
7
  6
CONTINUOUS
 10
20.2068232291
 20
1.1717972817
 40
0.175742101
  0
CIRCLE
  5
219
100
AcDbEntity
  8
0
100
AcDbCircle
 62
7
  6
CONTINUOUS
 10
20.2068232291
 20
1.1717972817
 40
0.1005522074
  0
LINE
  5
21A
100
AcDbEntity
  8
0
100
AcDbLine
 62
7
  6
CONTINUOUS
 10
20.2077290681
 20
1.3756110529
 11
20.2071171714
 21
1.2379342989
  0
LINE
  5
21B
100
AcDbEntity
  8
0
100
AcDbLine
 62
7
  6
CONTINUOUS
 10
20.2077290681
 20
1.2016899681
 11
20.2074674401
 21
1.1428236749
  0
LINE
  5
21C
100
AcDbEntity
  8
0
100
AcDbLine
 62
7
  6
CONTINUOUS
 10
20.208634907
 20
1.101141841
 11
20.2080230104
 21
0.963465087
  0
LINE
  5
21D
100
AcDbEntity
  8
0
100
AcDbLine
 62
7
  6
CONTINUOUS
 10
20.0066328138
 20
1.1745147986
 11
20.1443095678
 21
1.1739029019
  0
LINE
  5
21E
100
AcDbEntity
  8
0
100
AcDbLine
 62
7
  6
CONTINUOUS
 10
20.1832714155
 20
1.1727031207
 11
20.238153505
 21
1.172335442
  0
LINE
  5
21F
100
AcDbEntity
  8
0
100
AcDbLine
 62
7
  6
CONTINUOUS
 10
20.2756669918
 20
1.1717972817
 11
20.407916871
 21
1.1712095044
  0
CIRCLE
  5
220
100
AcDbEntity
  8
0
100
AcDbCircle
 62
7
  6
CONTINUOUS
 10
20.7509457401
 20
1.1693297793
 40
0.1722024983
  0
CIRCLE
  5
221
100
AcDbEntity
  8
0
100
AcDbCircle
 62
7
  6
CONTINUOUS
 10
20.7509457401
 20
1.1693297793
 40
0.0985164967
  0
LINE
  5
222
100
AcDbEntity
  8
0
100
AcDbLine
 62
7
  6
CONTINUOUS
 10
20.7169767782
 20
1.170462078
 11
20.7825395137
 21
1.1682766535
  0
LINE
  5
223
100
AcDbEntity
  8
0
100
AcDbLine
 62
7
  6
CONTINUOUS
 10
20.8177513651
 20
1.1693297793
 11
20.947965719
 21
1.1693297793
  0
LINE
  5
224
100
AcDbEntity
  8
0
100
AcDbLine
 62
7
  6
CONTINUOUS
 10
20.6875370113
 20
1.170462078
 11
20.5573226574
 21
1.170462078
  0
LINE
  5
225
100
AcDbEntity
  8
0
100
AcDbLine
 62
7
  6
CONTINUOUS
 10
20.7486811426
 20
1.1987695462
 11
20.7486811426
 21
1.1432869085
  0
LINE
  5
226
100
AcDbEntity
  8
0
100
AcDbLine
 62
7
  6
CONTINUOUS
 10
20.7498134414
 20
1.1059210505
 11
20.7498134414
 21
0.9757066966
  0
LINE
  5
227
100
AcDbEntity
  8
0
100
AcDbLine
 62
7
  6
CONTINUOUS
 10
20.7486811426
 20
1.2338708068
 11
20.7486811426
 21
1.3640851607
  0
LINE
  5
228
100
AcDbEntity
  8
0
100
AcDbLine
 62
7
  6
CONTINUOUS
 10
21.0702539817
 20
1.2701043662
 11
21.4790138229
 21
1.3448360823
  0
LINE
  5
229
100
AcDbEntity
  8
0
100
AcDbLine
 62
7
  6
CONTINUOUS
 10
21.4790138229
 20
1.3448360823
 11
21.4790138229
 21
0.9779712941
  0
LINE
  5
22A
100
AcDbEntity
  8
0
100
AcDbLine
 62
7
  6
CONTINUOUS
 10
21.4790138229
 20
0.9779712941
 11
21.069121683
 21
1.0617614
  0
LINE
  5
22B
100
AcDbEntity
  8
0
100
AcDbLine
 62
7
  6
CONTINUOUS
 10
21.0702539817
 20
1.2701043662
 11
21.069121683
 21
1.0617614
  0
LINE
  5
22C
100
AcDbEntity
  8
0
100
AcDbLine
 62
7
  6
CONTINUOUS
 10
21.4790138229
 20
1.1693297793
 11
21.3159628059
 21
1.1693297793
  0
LINE
  5
22D
100
AcDbEntity
  8
0
100
AcDbLine
 62
7
  6
CONTINUOUS
 10
21.2876553377
 20
1.1693297793
 11
21.2502894796
 21
1.1693297793
  0
LINE
  5
22E
100
AcDbEntity
  8
0
100
AcDbLine
 62
7
  6
CONTINUOUS
 10
21.2208497126
 20
1.1659328831
 11
21.0713862804
 21
1.1659328831
  0
LINE
  5
22F
100
AcDbEntity
  8
0
100
AcDbLine
 62
7
  6
CONTINUOUS
 10
20.4796138713
 20
1.5284908897
 11
20.4766766948
 21
0.9294458646
  0
ENDBLK
  5
230
100
AcDbEntity
  8
0
  6
BYBLOCK
 62
0
100
AcDbBlockEnd
  0
BLOCK
  5
231
100
AcDbEntity
  8
0
100
AcDbBlockBegin
  2
*T1
 70
1
 10
0.0
 20
0.0
  3
*T1
  1

  0
LINE
  5
232
100
AcDbEntity
  8
0
100
AcDbLine
 62
2
  6
CONTINUOUS
 10
9.275
 20
0.0
 11
-0.0
 21
0.0
  0
LINE
  5
233
100
AcDbEntity
  8
0
100
AcDbLine
 62
2
  6
CONTINUOUS
 10
9.275
 20
0.0
 11
9.275
 21
1.25
  0
LINE
  5
234
100
AcDbEntity
  8
0
100
AcDbLine
 62
2
  6
CONTINUOUS
 10
9.275
 20
0.625
 11
-0.0
 21
0.625
  0
LINE
  5
235
100
AcDbEntity
  8
0
100
AcDbLine
 62
2
  6
CONTINUOUS
 10
9.275
 20
1.25
 11
-0.0
 21
1.25
  0
LINE
  5
236
100
AcDbEntity
  8
0
100
AcDbLine
 62
2
  6
CONTINUOUS
 10
6.8
 20
0.0
 11
6.8
 21
1.25
  0
LINE
  5
237
100
AcDbEntity
  8
0
100
AcDbLine
 62
2
  6
CONTINUOUS
 10
6.4
 20
0.0
 11
6.4
 21
0.625
  0
LINE
  5
238
100
AcDbEntity
  8
0
100
AcDbLine
 62
2
  6
CONTINUOUS
 10
5.9
 20
0.0
 11
5.9
 21
0.625
  0
LINE
  5
239
100
AcDbEntity
  8
0
100
AcDbLine
 62
2
  6
CONTINUOUS
 10
5.2
 20
0.0
 11
5.2
 21
0.625
  0
LINE
  5
23A
100
AcDbEntity
  8
0
100
AcDbLine
 62
2
  6
CONTINUOUS
 10
4.1
 20
0.0
 11
4.1
 21
1.25
  0
LINE
  5
23B
100
AcDbEntity
  8
0
100
AcDbLine
 62
2
  6
CONTINUOUS
 10
-0.0
 20
0.0
 11
-0.0
 21
1.25
  0
MTEXT
  5
23C
100
AcDbEntity
  8
0
100
AcDbMText
 62
2
  6
CONTINUOUS
  7
STANDARD
 71
2
 72
1
 10
6.6
 20
0.325
 30
0.0
 11
1.0
 21
0.0
 31
0.0
 44
0.9
  1
2
 40
0.125
 41
0.2
  0
MTEXT
  5
23D
100
AcDbEntity
  8
0
100
AcDbMText
 62
2
  6
CONTINUOUS
  7
STANDARD
 71
2
 72
1
 10
6.15
 20
0.325
 30
0.0
 11
1.0
 21
0.0
 31
0.0
 44
0.9
  1
C
 40
0.125
 41
0.2
  0
MTEXT
  5
23E
100
AcDbEntity
  8
0
100
AcDbMText
 62
2
  6
CONTINUOUS
  7
STANDARD
 71
2
 72
1
 10
5.55
 20
0.325
 30
0.0
 11
1.0
 21
0.0
 31
0.0
 44
0.9
  1
1.000
 40
0.125
 41
1.0
  0
MTEXT
  5
23F
100
AcDbEntity
  8
0
100
AcDbMText
 62
2
  6
CONTINUOUS
  7
STANDARD
 71
2
 72
1
 10
4.65
 20
0.325
 30
0.0
 11
1.0
 21
0.0
 31
0.0
 44
0.9
  1
Oct-10-19
 40
0.125
 41
1.8
  0
MTEXT
  5
240
100
AcDbEntity
  8
0
100
AcDbMText
 62
2
  6
CONTINUOUS
  7
STANDARD
 71
2
 72
1
 10
2.05
 20
0.4625
 30
0.0
 11
1.0
 21
0.0
 31
0.0
 44
0.9
  1
T-2A Motor mount Danfoss OMV\PCross pilot with shuttle
 40
0.125
 41
5.6
  0
MTEXT
  5
241
100
AcDbEntity
  8
0
100
AcDbMText
 62
2
  6
CONTINUOUS
  7
STANDARD
 71
1
 72
1
 10
6.45
 20
0.5625
 30
0.0
 11
1.0
 21
0.0
 31
0.0
 44
0.9
  1
SHEET
 40
0.06
 41
0.48
  0
MTEXT
  5
242
100
AcDbEntity
  8
0
100
AcDbMText
 62
2
  6
CONTINUOUS
  7
STANDARD
 71
1
 72
1
 10
5.95
 20
0.5625
 30
0.0
 11
1.0
 21
0.0
 31
0.0
 44
0.9
  1
DWG SIZE
 40
0.06
 41
0.768
  0
MTEXT
  5
243
100
AcDbEntity
  8
0
100
AcDbMText
 62
2
  6
CONTINUOUS
  7
STANDARD
 71
1
 72
1
 10
5.25
 20
0.5625
 30
0.0
 11
1.0
 21
0.0
 31
0.0
 44
0.9
  1
SCALE
 40
0.06
 41
0.48
  0
MTEXT
  5
244
100
AcDbEntity
  8
0
100
AcDbMText
 62
2
  6
CONTINUOUS
  7
STANDARD
 71
1
 72
1
 10
4.15
 20
0.5625
 30
0.0
 11
1.0
 21
0.0
 31
0.0
 44
0.9
  1
DATE
 40
0.06
 41
0.384
  0
MTEXT
  5
245
100
AcDbEntity
  8
0
100
AcDbMText
 62
2
  6
CONTINUOUS
  7
STANDARD
 71
1
 72
1
 10
0.05
 20
0.5625
 30
0.0
 11
1.0
 21
0.0
 31
0.0
 44
0.9
  1
DESCRIPTION
 40
0.06
 41
1.056
  0
MTEXT
  5
246
100
AcDbEntity
  8
0
100
AcDbMText
 62
2
  6
CONTINUOUS
  7
STANDARD
 71
2
 72
1
 10
5.45
 20
1.0375
 30
0.0
 11
1.0
 21
0.0
 31
0.0
 44
0.9
  1
ALL DIMENSIONS IN INCH\PVIEWS ARE THIRD ANGLE
 40
0.12
 41
4.224
  0
MTEXT
  5
247
100
AcDbEntity
  8
0
100
AcDbMText
 62
2
  6
CONTINUOUS
  7
STANDARD
 71
2
 72
1
 10
2.05
 20
0.95
 30
0.0
 11
1.0
 21
0.0
 31
0.0
 44
0.9
  1
U9G
 40
0.125
 41
0.6
  0
MTEXT
  5
248
100
AcDbEntity
  8
0
100
AcDbMText
 62
2
  6
CONTINUOUS
  7
STANDARD
 71
1
 72
1
 10
0.05
 20
1.1875
 30
0.0
 11
1.0
 21
0.0
 31
0.0
 44
0.9
  1
MODEL
 40
0.06
 41
0.48
  0
ENDBLK
  5
249
100
AcDbEntity
  8
0
  6
BYBLOCK
 62
0
100
AcDbBlockEnd
  0
BLOCK
  5
24A
100
AcDbEntity
  8
0
100
AcDbBlockBegin
  2
*T2
 70
1
 10
0.0
 20
0.0
  3
*T2
  1

  0
LINE
  5
24B
100
AcDbEntity
  8
0
100
AcDbLine
 62
2
  6
CONTINUOUS
 10
0.0
 20
0.0
 11
9.055
 21
0.0
  0
LINE
  5
24C
100
AcDbEntity
  8
0
100
AcDbLine
 62
2
  6
CONTINUOUS
 10
0.0
 20
0.0
 11
0.0
 21
-1.844
  0
LINE
  5
24D
100
AcDbEntity
  8
0
100
AcDbLine
 62
2
  6
CONTINUOUS
 10
0.0
 20
-0.344
 11
9.055
 21
-0.344
  0
LINE
  5
24E
100
AcDbEntity
  8
0
100
AcDbLine
 62
2
  6
CONTINUOUS
 10
0.0
 20
-0.594
 11
9.055
 21
-0.594
  0
LINE
  5
24F
100
AcDbEntity
  8
0
100
AcDbLine
 62
2
  6
CONTINUOUS
 10
0.0
 20
-0.844
 11
9.055
 21
-0.844
  0
LINE
  5
250
100
AcDbEntity
  8
0
100
AcDbLine
 62
2
  6
CONTINUOUS
 10
0.0
 20
-1.094
 11
9.055
 21
-1.094
  0
LINE
  5
251
100
AcDbEntity
  8
0
100
AcDbLine
 62
2
  6
CONTINUOUS
 10
0.0
 20
-1.344
 11
9.055
 21
-1.344
  0
LINE
  5
252
100
AcDbEntity
  8
0
100
AcDbLine
 62
2
  6
CONTINUOUS
 10
0.0
 20
-1.594
 11
9.055
 21
-1.594
  0
LINE
  5
253
100
AcDbEntity
  8
0
100
AcDbLine
 62
2
  6
CONTINUOUS
 10
0.0
 20
-1.844
 11
9.055
 21
-1.844
  0
LINE
  5
254
100
AcDbEntity
  8
0
100
AcDbLine
 62
2
  6
CONTINUOUS
 10
3.055
 20
0.0
 11
3.055
 21
-1.844
  0
LINE
  5
255
100
AcDbEntity
  8
0
100
AcDbLine
 62
2
  6
CONTINUOUS
 10
9.055
 20
0.0
 11
9.055
 21
-1.844
  0
MTEXT
  5
256
100
AcDbEntity
  8
0
100
AcDbMText
 62
2
  6
CONTINUOUS
  7
STANDARD
 71
2
 72
1
 10
1.5275
 20
-0.0995
 30
0.0
 11
1.0
 21
0.0
 31
0.0
 44
0.9
  1
Technical Data
 40
0.145
 41
3.248
  0
MTEXT
  5
257
100
AcDbEntity
  8
0
100
AcDbMText
 62
2
  6
CONTINUOUS
  7
STANDARD
 71
2
 72
1
 10
4.555
 20
-0.0995
 30
0.0
 11
1.0
 21
0.0
 31
0.0
 44
0.9
  1
U.S. Units
 40
0.145
 41
2.32
  0
MTEXT
  5
258
100
AcDbEntity
  8
0
100
AcDbMText
 62
2
  6
CONTINUOUS
  7
STANDARD
 71
2
 72
1
 10
7.555
 20
-0.0995
 30
0.0
 11
1.0
 21
0.0
 31
0.0
 44
0.9
  1
Metric Units
 40
0.145
 41
2.784
  0
MTEXT
  5
259
100
AcDbEntity
  8
0
100
AcDbMText
 62
2
  6
CONTINUOUS
  7
STANDARD
 71
2
 72
1
 10
1.5275
 20
-0.4065
 30
0.0
 11
1.0
 21
0.0
 31
0.0
 44
0.9
  1
Cavity
 40
0.125
 41
1.2
  0
MTEXT
  5
25A
100
AcDbEntity
  8
0
100
AcDbMText
 62
2
  6
CONTINUOUS
  7
STANDARD
 71
2
 72
1
 10
6.055
 20
-0.4065
 30
0.0
 11
1.0
 21
0.0
 31
0.0
 44
0.9
  1
T-2A
 40
0.125
 41
0.8
  0
MTEXT
  5
25B
100
AcDbEntity
  8
0
100
AcDbMText
 62
2
  6
CONTINUOUS
  7
STANDARD
 71
2
 72
1
 10
1.5275
 20
-0.6565
 30
0.0
 11
1.0
 21
0.0
 31
0.0
 44
0.9
  1
Body Features
 40
0.125
 41
2.6
  0
MTEXT
  5
25C
100
AcDbEntity
  8
0
100
AcDbMText
 62
2
  6
CONTINUOUS
  7
STANDARD
 71
2
 72
1
 10
6.055
 20
-0.6565
 30
0.0
 11
1.0
 21
0.0
 31
0.0
 44
0.9
  1
Cross pilot with shuttle
 40
0.125
 41
4.8
  0
MTEXT
  5
25D
100
AcDbEntity
  8
0
100
AcDbMText
 62
2
  6
CONTINUOUS
  7
STANDARD
 71
2
 72
1
 10
1.5275
 20
-0.9065
 30
0.0
 11
1.0
 21
0.0
 31
0.0
 44
0.9
  1
Body Type
 40
0.125
 41
1.8
  0
MTEXT
  5
25E
100
AcDbEntity
  8
0
100
AcDbMText
 62
2
  6
CONTINUOUS
  7
STANDARD
 71
2
 72
1
 10
6.055
 20
-0.9065
 30
0.0
 11
1.0
 21
0.0
 31
0.0
 44
0.9
  1
Motor mount
 40
0.125
 41
2.2
  0
MTEXT
  5
25F
100
AcDbEntity
  8
0
100
AcDbMText
 62
2
  6
CONTINUOUS
  7
STANDARD
 71
2
 72
1
 10
1.5275
 20
-1.1565
 30
0.0
 11
1.0
 21
0.0
 31
0.0
 44
0.9
  1
Interface
 40
0.125
 41
1.8
  0
MTEXT
  5
260
100
AcDbEntity
  8
0
100
AcDbMText
 62
2
  6
CONTINUOUS
  7
STANDARD
 71
2
 72
1
 10
6.055
 20
-1.1565
 30
0.0
 11
1.0
 21
0.0
 31
0.0
 44
0.9
  1
Danfoss OMV
 40
0.125
 41
2.2
  0
MTEXT
  5
261
100
AcDbEntity
  8
0
100
AcDbMText
 62
2
  6
CONTINUOUS
  7
STANDARD
 71
2
 72
1
 10
1.5275
 20
-1.4065
 30
0.0
 11
1.0
 21
0.0
 31
0.0
 44
0.9
  1
Open Cavity Quantity
 40
0.125
 41
4.0
  0
MTEXT
  5
262
100
AcDbEntity
  8
0
100
AcDbMText
 62
2
  6
CONTINUOUS
  7
STANDARD
 71
2
 72
1
 10
6.055
 20
-1.4065
 30
0.0
 11
1.0
 21
0.0
 31
0.0
 44
0.9
  1
2
 40
0.125
 41
0.2
  0
MTEXT
  5
263
100
AcDbEntity
  8
0
100
AcDbMText
 62
2
  6
CONTINUOUS
  7
STANDARD
 71
2
 72
1
 10
1.5275
 20
-1.6565
 30
0.0
 11
1.0
 21
0.0
 31
0.0
 44
0.9
  1
Weight
 40
0.125
 41
1.2
  0
MTEXT
  5
264
100
AcDbEntity
  8
0
100
AcDbMText
 62
2
  6
CONTINUOUS
  7
STANDARD
 71
2
 72
1
 10
4.555
 20
-1.6565
 30
0.0
 11
1.0
 21
0.0
 31
0.0
 44
0.9
  1
4.538 lb.
 40
0.125
 41
1.8
  0
MTEXT
  5
265
100
AcDbEntity
  8
0
100
AcDbMText
 62
2
  6
CONTINUOUS
  7
STANDARD
 71
2
 72
1
 10
7.555
 20
-1.6565
 30
0.0
 11
1.0
 21
0.0
 31
0.0
 44
0.9
  1
2,058 kg.
 40
0.125
 41
1.8
  0
ENDBLK
  5
266
100
AcDbEntity
  8
0
  6
BYBLOCK
 62
0
100
AcDbBlockEnd
  0
BLOCK
  5
267
100
AcDbEntity
  8
0
100
AcDbBlockBegin
  2
*T3
 70
1
 10
0.0
 20
0.0
  3
*T3
  1

  0
LINE
  5
268
100
AcDbEntity
  8
0
100
AcDbLine
 62
2
  6
CONTINUOUS
 10
0.0
 20
0.0
 11
4.6
 21
0.0
  0
LINE
  5
269
100
AcDbEntity
  8
0
100
AcDbLine
 62
2
  6
CONTINUOUS
 10
0.0
 20
0.0
 11
0.0
 21
-1.18775
  0
LINE
  5
26A
100
AcDbEntity
  8
0
100
AcDbLine
 62
2
  6
CONTINUOUS
 10
0.0
 20
-0.34375
 11
4.6
 21
-0.34375
  0
LINE
  5
26B
100
AcDbEntity
  8
0
100
AcDbLine
 62
2
  6
CONTINUOUS
 10
0.0
 20
-0.68775
 11
4.6
 21
-0.68775
  0
LINE
  5
26C
100
AcDbEntity
  8
0
100
AcDbLine
 62
2
  6
CONTINUOUS
 10
0.0
 20
-0.93775
 11
4.6
 21
-0.93775
  0
LINE
  5
26D
100
AcDbEntity
  8
0
100
AcDbLine
 62
2
  6
CONTINUOUS
 10
0.0
 20
-1.18775
 11
4.6
 21
-1.18775
  0
LINE
  5
26E
100
AcDbEntity
  8
0
100
AcDbLine
 62
2
  6
CONTINUOUS
 10
1.3
 20
-0.34375
 11
1.3
 21
-1.18775
  0
LINE
  5
26F
100
AcDbEntity
  8
0
100
AcDbLine
 62
2
  6
CONTINUOUS
 10
3.3
 20
-0.34375
 11
3.3
 21
-1.18775
  0
LINE
  5
270
100
AcDbEntity
  8
0
100
AcDbLine
 62
2
  6
CONTINUOUS
 10
4.6
 20
0.0
 11
4.6
 21
-1.18775
  0
MTEXT
  5
271
100
AcDbEntity
  8
0
100
AcDbMText
 62
2
  6
CONTINUOUS
  7
STANDARD
 71
2
 72
1
 10
2.3
 20
-0.099375
 30
0.0
 11
1.0
 21
0.0
 31
0.0
 44
0.9
  1
Port Headings
 40
0.145
 41
3.016
  0
MTEXT
  5
272
100
AcDbEntity
  8
0
100
AcDbMText
 62
2
  6
CONTINUOUS
  7
STANDARD
 71
2
 72
1
 10
0.65
 20
-0.44325
 30
0.0
 11
1.0
 21
0.0
 31
0.0
 44
0.9
  1
Product
 40
0.145
 41
1.624
  0
MTEXT
  5
273
100
AcDbEntity
  8
0
100
AcDbMText
 62
2
  6
CONTINUOUS
  7
STANDARD
 71
2
 72
1
 10
2.3
 20
-0.44325
 30
0.0
 11
1.0
 21
0.0
 31
0.0
 44
0.9
  1
Port
 40
0.145
 41
0.928
  0
MTEXT
  5
274
100
AcDbEntity
  8
0
100
AcDbMText
 62
2
  6
CONTINUOUS
  7
STANDARD
 71
2
 72
1
 10
3.95
 20
-0.44325
 30
0.0
 11
1.0
 21
0.0
 31
0.0
 44
0.9
  1
Size
 40
0.145
 41
0.928
  0
MTEXT
  5
275
100
AcDbEntity
  8
0
100
AcDbMText
 62
2
  6
CONTINUOUS
  7
STANDARD
 71
2
 72
1
 10
0.65
 20
-0.75025
 30
0.0
 11
1.0
 21
0.0
 31
0.0
 44
0.9
  1
U9G
 40
0.125
 41
0.6
  0
MTEXT
  5
276
100
AcDbEntity
  8
0
100
AcDbMText
 62
2
  6
CONTINUOUS
  7
STANDARD
 71
2
 72
1
 10
2.3
 20
-0.75025
 30
0.0
 11
1.0
 21
0.0
 31
0.0
 44
0.9
  1
Ports V1 & V2
 40
0.125
 41
2.6
  0
MTEXT
  5
277
100
AcDbEntity
  8
0
100
AcDbMText
 62
2
  6
CONTINUOUS
  7
STANDARD
 71
2
 72
1
 10
3.95
 20
-0.75025
 30
0.0
 11
1.0
 21
0.0
 31
0.0
 44
0.9
  1
3/4" BSPP
 40
0.125
 41
1.8
  0
MTEXT
  5
278
100
AcDbEntity
  8
0
100
AcDbMText
 62
2
  6
CONTINUOUS
  7
STANDARD
 71
2
 72
1
 10
0.65
 20
-1.00025
 30
0.0
 11
1.0
 21
0.0
 31
0.0
 44
0.9
  1
U9G
 40
0.125
 41
0.6
  0
MTEXT
  5
279
100
AcDbEntity
  8
0
100
AcDbMText
 62
2
  6
CONTINUOUS
  7
STANDARD
 71
2
 72
1
 10
2.3
 20
-1.00025
 30
0.0
 11
1.0
 21
0.0
 31
0.0
 44
0.9
  1
Brake Port
 40
0.125
 41
2.0
  0
MTEXT
  5
27A
100
AcDbEntity
  8
0
100
AcDbMText
 62
2
  6
CONTINUOUS
  7
STANDARD
 71
2
 72
1
 10
3.95
 20
-1.00025
 30
0.0
 11
1.0
 21
0.0
 31
0.0
 44
0.9
  1
1/4" BSPP
 40
0.125
 41
1.8
  0
ENDBLK
  5
27B
100
AcDbEntity
  8
0
  6
BYBLOCK
 62
0
100
AcDbBlockEnd
  0
ENDSEC
  0
SECTION
  2
ENTITIES
  0
IMAGE
  5
27C
100
AcDbEntity
  8
0
100
AcDbRasterImage
 62
7
  6
CONTINUOUS
 10
19.2297077316
 20
0.3094318264
 30
0.0
 11
0.0066666667
 21
0.0
 31
0.0
 12
0.0
 22
0.0066666667
 32
0.0
 13
369.0
 23
92.0
340
       3DB
 70
9
280
0
281
50
282
50
283
0
360
       3D5
 71
1
 91
2
 14
-0.5
 24
-0.5
 14
368.5
 24
91.5
  0
INSERT
  5
27D
100
AcDbEntity
  8
0
100
AcDbBlockReference
 62
2
  6
CONTINUOUS
  2
SUN_FIRST_THIRD_ANGLE_BL0
 10
20.4816717061
 20
1.2289683772
  0
ACAD_TABLE
  5
27E
100
AcDbEntity
  8
0
 62
2
  6
CONTINUOUS
100
AcDbBlockReference
  2
*T1
 10
12.42375
 20
0.30125
 30
0.0
100
AcDbTable
342
       3DD
343
20A
 11
1.0
 21
0.0
 31
0.0
 90
6
 91
4
 92
6
 93
20
 94
0
 95
0
 96
0
 70
1
 41
0.0
141
0.525
141
0.1
141
0.525
141
0.1
142
4.1
142
1.1
142
0.7
142
0.5
142
0.4
142
2.475
171
1
172
0
173
0
174
0
175
1
176
1
 91
33
178
0
145
0.0
301
CELL_VALUE
 90
4
  1
T-2A Motor mount Danfoss OMV\PCross pilot with shuttle
304
ACVALUE_END
170
2
140
0.125
171
1
172
0
173
0
174
0
175
1
176
1
 91
33
178
0
145
0.0
301
CELL_VALUE
 90
4
  1
Oct-10-19
304
ACVALUE_END
170
5
140
0.125
171
1
172
0
173
0
174
0
175
1
176
1
 91
33
178
0
145
0.0
301
CELL_VALUE
 90
4
  1
1.000
304
ACVALUE_END
170
5
140
0.125
171
1
172
0
173
0
174
0
175
1
176
1
 91
33
178
0
145
0.0
301
CELL_VALUE
 90
4
  1
C
304
ACVALUE_END
170
5
140
0.125
171
1
172
0
173
0
174
0
175
1
176
1
 91
33
178
0
145
0.0
301
CELL_VALUE
 90
4
  1
2
304
ACVALUE_END
170
5
140
0.125
171
1
172
0
173
0
174
0
175
1
176
1
 91
33
178
0
145
0.0
301
CELL_VALUE
 90
4
  1
 
304
ACVALUE_END
170
1
140
0.125
171
1
172
0
173
0
174
0
175
1
176
1
 91
33
178
0
145
0.0
301
CELL_VALUE
 90
4
  1
DESCRIPTION
304
ACVALUE_END
170
1
140
0.06
171
1
172
0
173
0
174
0
175
1
176
1
 91
33
178
0
145
0.0
301
CELL_VALUE
 90
4
  1
DATE
304
ACVALUE_END
170
1
140
0.06
171
1
172
0
173
0
174
0
175
1
176
1
 91
33
178
0
145
0.0
301
CELL_VALUE
 90
4
  1
SCALE
304
ACVALUE_END
170
1
140
0.06
171
1
172
0
173
0
174
0
175
1
176
1
 91
33
178
0
145
0.0
301
CELL_VALUE
 90
4
  1
DWG SIZE
304
ACVALUE_END
170
1
140
0.06
171
1
172
0
173
0
174
0
175
1
176
1
 91
33
178
0
145
0.0
301
CELL_VALUE
 90
4
  1
SHEET
304
ACVALUE_END
170
1
140
0.06
171
1
172
0
173
0
174
0
175
1
176
1
 91
33
178
0
145
0.0
301
CELL_VALUE
 90
4
  1
 
304
ACVALUE_END
170
1
140
0.125
171
1
172
0
173
0
174
0
175
1
176
1
 91
33
178
0
145
0.0
301
CELL_VALUE
 90
4
  1
U9G
304
ACVALUE_END
170
5
140
0.125
171
1
172
0
173
0
174
0
175
4
176
1
 91
33
178
0
145
0.0
301
CELL_VALUE
 90
4
  1
ALL DIMENSIONS IN INCH\PVIEWS ARE THIRD ANGLE
304
ACVALUE_END
170
5
140
0.12
171
1
172
0
173
1
174
0
175
1
176
1
 91
1
178
0
145
0.0
170
1
171
1
172
0
173
1
174
0
175
1
176
1
 91
1
178
0
145
0.0
170
1
171
1
172
0
173
1
174
0
175
1
176
1
 91
1
178
0
145
0.0
170
5
171
1
172
0
173
0
174
0
175
1
176
1
 91
33
178
0
145
0.0
301
CELL_VALUE
 90
4
  1
 
304
ACVALUE_END
170
1
140
0.125
171
1
172
0
173
0
174
0
175
1
176
1
 91
33
178
0
145
0.0
301
CELL_VALUE
 90
4
  1
MODEL
304
ACVALUE_END
170
1
140
0.06
171
1
172
0
173
0
174
0
175
1
176
1
 91
33
178
0
145
0.0
301
CELL_VALUE
 90
4
  1
 
304
ACVALUE_END
170
1
140
0.125
171
1
172
0
173
0
174
0
175
1
176
1
 91
33
178
0
145
0.0
301
CELL_VALUE
 90
4
  1
 
304
ACVALUE_END
170
1
140
0.125
171
1
172
0
173
0
174
0
175
1
176
1
 91
33
178
0
145
0.0
301
CELL_VALUE
 90
4
  1
 
304
ACVALUE_END
170
1
140
0.125
171
1
172
0
173
0
174
0
175
1
176
1
 91
33
178
0
145
0.0
301
CELL_VALUE
 90
4
  1
 
304
ACVALUE_END
170
1
140
0.125
171
1
172
0
173
0
174
0
175
1
176
1
 91
33
178
0
145
0.0
301
CELL_VALUE
 90
4
  1
 
304
ACVALUE_END
170
1
140
0.125
  0
ACAD_TABLE
  5
27F
100
AcDbEntity
  8
0
 62
2
  6
CONTINUOUS
100
AcDbBlockReference
  2
*T2
 10
12.4237499994
 20
16.47875
 30
0.0
100
AcDbTable
342
       3DC
343
20B
 11
1.0
 21
0.0
 31
0.0
 90
22
 91
7
 92
3
 93
16
 94
0
 95
0
 96
0
 41
0.028
141
0.344
141
0.25
141
0.25
141
0.25
141
0.25
141
0.25
141
0.25
142
3.055
142
3.0
142
3.0
171
1
172
0
173
0
174
0
175
1
176
1
 91
33
178
0
145
0.0
301
CELL_VALUE
 90
4
  1
Technical Data
304
ACVALUE_END
170
5
140
0.145
171
1
172
0
173
0
174
0
175
1
176
1
 91
33
178
0
145
0.0
301
CELL_VALUE
 90
4
  1
U.S. Units
304
ACVALUE_END
170
5
140
0.145
171
1
172
0
173
0
174
0
175
1
176
1
 91
33
178
0
145
0.0
301
CELL_VALUE
 90
4
  1
Metric Units
304
ACVALUE_END
170
5
140
0.145
171
1
172
0
173
0
174
0
175
1
176
1
 91
33
178
0
145
0.0
301
CELL_VALUE
 90
4
  1
Cavity
304
ACVALUE_END
170
5
140
0.125
171
1
172
0
173
0
174
0
175
2
176
1
 91
33
178
0
145
0.0
301
CELL_VALUE
 90
4
  1
T-2A
304
ACVALUE_END
170
5
140
0.125
171
1
172
0
173
1
174
0
175
1
176
1
 91
1
178
0
145
0.0
170
1
171
1
172
0
173
0
174
0
175
1
176
1
 91
33
178
0
145
0.0
301
CELL_VALUE
 90
4
  1
Body Features
304
ACVALUE_END
170
5
140
0.125
171
1
172
0
173
0
174
0
175
2
176
1
 91
33
178
0
145
0.0
301
CELL_VALUE
 90
4
  1
Cross pilot with shuttle
304
ACVALUE_END
170
5
140
0.125
171
1
172
0
173
1
174
0
175
1
176
1
 91
1
178
0
145
0.0
170
1
171
1
172
0
173
0
174
0
175
1
176
1
 91
33
178
0
145
0.0
301
CELL_VALUE
 90
4
  1
Body Type
304
ACVALUE_END
170
5
140
0.125
171
1
172
0
173
0
174
0
175
2
176
1
 91
33
178
0
145
0.0
301
CELL_VALUE
 90
4
  1
Motor mount
304
ACVALUE_END
170
5
140
0.125
171
1
172
0
173
1
174
0
175
1
176
1
 91
1
178
0
145
0.0
170
1
171
1
172
0
173
0
174
0
175
1
176
1
 91
33
178
0
145
0.0
301
CELL_VALUE
 90
4
  1
Interface
304
ACVALUE_END
170
5
140
0.125
171
1
172
0
173
0
174
0
175
2
176
1
 91
33
178
0
145
0.0
301
CELL_VALUE
 90
4
  1
Danfoss OMV
304
ACVALUE_END
170
5
140
0.125
171
1
172
0
173
1
174
0
175
1
176
1
 91
1
178
0
145
0.0
170
1
171
1
172
0
173
0
174
0
175
1
176
1
 91
33
178
0
145
0.0
301
CELL_VALUE
 90
4
  1
Open Cavity Quantity
304
ACVALUE_END
170
5
140
0.125
171
1
172
0
173
0
174
0
175
2
176
1
 91
33
178
0
145
0.0
301
CELL_VALUE
 90
4
  1
2
304
ACVALUE_END
170
5
140
0.125
171
1
172
0
173
1
174
0
175
1
176
1
 91
1
178
0
145
0.0
170
1
171
1
172
0
173
0
174
0
175
1
176
1
 91
33
178
0
145
0.0
301
CELL_VALUE
 90
4
  1
Weight
304
ACVALUE_END
170
5
140
0.125
171
1
172
0
173
0
174
0
175
1
176
1
 91
33
178
0
145
0.0
301
CELL_VALUE
 90
4
  1
4.538 lb.
304
ACVALUE_END
170
5
140
0.125
171
1
172
0
173
0
174
0
175
1
176
1
 91
33
178
0
145
0.0
301
CELL_VALUE
 90
4
  1
2,058 kg.
304
ACVALUE_END
170
5
140
0.125
  0
ACAD_TABLE
  5
280
100
AcDbEntity
  8
0
 62
2
  6
CONTINUOUS
100
AcDbBlockReference
  2
*T3
 10
0.52125
 20
1.709
 30
0.0
100
AcDbTable
342
       3DC
343
20C
 11
1.0
 21
0.0
 31
0.0
 90
22
 91
4
 92
3
 93
16
 94
0
 95
0
 96
0
 41
0.05
141
0.34375
141
0.344
141
0.25
141
0.25
142
1.3
142
2.0
142
1.3
171
1
172
0
173
0
174
0
175
3
176
1
 91
33
178
0
145
0.0
301
CELL_VALUE
 90
4
  1
Port Headings
304
ACVALUE_END
170
5
140
0.145
171
1
172
0
173
1
174
0
175
1
176
1
 91
1
178
0
145
0.0
170
1
171
1
172
0
173
1
174
0
175
1
176
1
 91
1
178
0
145
0.0
170
1
171
1
172
0
173
0
174
0
175
1
176
1
 91
33
178
0
145
0.0
301
CELL_VALUE
 90
4
  1
Product
304
ACVALUE_END
170
5
140
0.145
171
1
172
0
173
0
174
0
175
1
176
1
 91
33
178
0
145
0.0
301
CELL_VALUE
 90
4
  1
Port
304
ACVALUE_END
170
5
140
0.145
171
1
172
0
173
0
174
0
175
1
176
1
 91
33
178
0
145
0.0
301
CELL_VALUE
 90
4
  1
Size
304
ACVALUE_END
170
5
140
0.145
171
1
172
0
173
0
174
0
175
1
176
1
 91
33
178
0
145
0.0
301
CELL_VALUE
 90
4
  1
U9G
304
ACVALUE_END
170
5
140
0.125
171
1
172
0
173
0
174
0
175
1
176
1
 91
33
178
0
145
0.0
301
CELL_VALUE
 90
4
  1
Ports V1 & V2
304
ACVALUE_END
170
5
140
0.125
171
1
172
0
173
0
174
0
175
1
176
1
 91
33
178
0
145
0.0
301
CELL_VALUE
 90
4
  1
3/4" BSPP
304
ACVALUE_END
170
5
140
0.125
171
1
172
0
173
0
174
0
175
1
176
1
 91
33
178
0
145
0.0
301
CELL_VALUE
 90
4
  1
U9G
304
ACVALUE_END
170
5
140
0.125
171
1
172
0
173
0
174
0
175
1
176
1
 91
33
178
0
145
0.0
301
CELL_VALUE
 90
4
  1
Brake Port
304
ACVALUE_END
170
5
140
0.125
171
1
172
0
173
0
174
0
175
1
176
1
 91
33
178
0
145
0.0
301
CELL_VALUE
 90
4
  1
1/4" BSPP
304
ACVALUE_END
170
5
140
0.125
  0
MTEXT
  5
281
100
AcDbEntity
  8
0
100
AcDbMText
 62
2
  6
CONTINUOUS
  7
STANDARD
 71
1
 72
1
 10
0.52125
 20
5.75995
 30
0.0
 11
1.0
 21
0.0
 31
0.0
 44
0.6
  3
Notes\P \P1. Important: Carefully consider\P   the maximum system pressure. The\P   pressure rating of the manifold is\P   dependent on the manifold material,\P   with the port type/size a secondary\P   consideration. Manifolds\P   constructed of alu
  1
minum are not\P   rated for pressures higher than\P   3000 psi (210 bar), regardless of\P   the port type/size specified.
 40
0.1
 41
3.04
  0
LINE
  5
282
100
AcDbEntity
  8
0
100
AcDbLine
 62
7
  6
CONTINUOUS
 10
0.30125
 20
0.30125
 11
0.30125
 21
16.69875
  0
LINE
  5
283
100
AcDbEntity
  8
0
100
AcDbLine
 62
7
  6
CONTINUOUS
 10
0.30125
 20
0.30125
 11
21.69875
 21
0.30125
  0
LINE
  5
284
100
AcDbEntity
  8
0
100
AcDbLine
 62
7
  6
CONTINUOUS
 10
0.30125
 20
16.69875
 11
21.69875
 21
16.69875
  0
LINE
  5
285
100
AcDbEntity
  8
0
100
AcDbLine
 62
7
  6
CONTINUOUS
 10
21.69875
 20
0.30125
 11
21.69875
 21
16.69875
  0
LINE
  5
286
100
AcDbEntity
  8
0
100
AcDbLine
 62
7
  6
CONTINUOUS
 10
8.0788149417
 20
10.5360514448
 11
8.7098152435
 21
11.1455509688
  0
LINE
  5
287
100
AcDbEntity
  8
0
100
AcDbLine
 62
7
  6
CONTINUOUS
 10
8.0788149417
 20
10.5360514448
 11
8.0788149417
 21
6.1893849689
  0
LINE
  5
288
100
AcDbEntity
  8
0
100
AcDbLine
 62
4
  6
CONTINUOUS
 10
12.9700432194
 20
6.4910894872
 11
12.9389849604
 21
6.4828228428
  0
LINE
  5
289
100
AcDbEntity
  8
0
100
AcDbLine
 62
4
  6
CONTINUOUS
 10
12.9700432194
 20
6.534556151
 11
12.9389849604
 21
6.5262895066
  0
LINE
  5
28A
100
AcDbEntity
  8
0
100
AcDbLine
 62
4
  6
CONTINUOUS
 10
12.9545140899
 20
6.1066228569
 11
12.9467495251
 21
6.1063673067
  0
LINE
  5
28B
100
AcDbEntity
  8
0
100
AcDbLine
 62
7
  6
CONTINUOUS
 10
12.9084443593
 20
5.8544490312
 11
8.0788149417
 21
6.1893849689
  0
LINE
  5
28C
100
AcDbEntity
  8
0
100
AcDbLine
 62
4
  6
CONTINUOUS
 10
8.9698815457
 20
6.629870839
 11
9.0061037655
 21
6.5114477161
  0
LINE
  5
28D
100
AcDbEntity
  8
0
100
AcDbLine
 62
7
  6
CONTINUOUS
 10
13.3279729942
 20
6.0422666699
 11
13.7915837953
 21
6.0101151516
  0
LINE
  5
28E
100
AcDbEntity
  8
0
100
AcDbLine
 62
7
  6
CONTINUOUS
 10
13.0602182016
 20
6.1235705496
 11
13.2466742367
 21
6.1106397796
  0
LINE
  5
28F
100
AcDbEntity
  8
0
100
AcDbLine
 62
7
  6
CONTINUOUS
 10
13.2392627689
 20
6.1477233064
 11
13.70287357
 21
6.1155717882
  0
LINE
  5
290
100
AcDbEntity
  8
0
100
AcDbLine
 62
7
  6
CONTINUOUS
 10
13.2350907742
 20
6.1706616905
 11
13.6987015753
 21
6.1385101722
  0
LINE
  5
291
100
AcDbEntity
  8
0
100
AcDbLine
 62
4
  6
CONTINUOUS
 10
11.9908148588
 20
6.3044572987
 11
12.0487704105
 21
6.3004380676
  0
LINE
  5
292
100
AcDbEntity
  8
0
100
AcDbLine
 62
4
  6
CONTINUOUS
 10
9.1220148689
 20
6.6193203572
 11
9.1220148689
 21
6.5034092538
  0
LINE
  5
293
100
AcDbEntity
  8
0
100
AcDbLine
 62
4
  6
CONTINUOUS
 10
12.0125481907
 20
6.4188611905
 11
12.0270370786
 21
6.4178563827
  0
LINE
  5
294
100
AcDbEntity
  8
0
100
AcDbLine
 62
7
  6
CONTINUOUS
 10
13.2350907742
 20
6.552949969
 11
13.6987015753
 21
6.5207984508
  0
LINE
  5
295
100
AcDbEntity
  8
0
100
AcDbLine
 62
7
  6
CONTINUOUS
 10
13.2392627689
 20
6.5839480285
 11
13.70287357
 21
6.5517965103
  0
LINE
  5
296
100
AcDbEntity
  8
0
100
AcDbLine
 62
4
  6
CONTINUOUS
 10
12.9700432194
 20
6.3606894959
 11
12.9389849604
 21
6.3669117393
  0
LINE
  5
297
100
AcDbEntity
  8
0
100
AcDbLine
 62
4
  6
CONTINUOUS
 10
9.0061037655
 20
6.5114477161
 11
9.0423259853
 21
6.6248468
  0
LINE
  5
298
100
AcDbEntity
  8
0
100
AcDbLine
 62
7
  6
CONTINUOUS
 10
13.1089354933
 20
6.8218732841
 11
13.2944848521
 21
6.8090053924
  0
LINE
  5
299
100
AcDbEntity
  8
0
100
AcDbLine
 62
7
  6
CONTINUOUS
 10
13.3279729942
 20
6.8607796705
 11
13.7915837953
 21
6.8286281523
  0
LINE
  5
29A
100
AcDbEntity
  8
0
100
AcDbLine
 62
7
  6
CONTINUOUS
 10
13.3363169837
 20
6.8688393459
 11
13.7999277848
 21
6.8366878277
  0
LINE
  5
29B
100
AcDbEntity
  8
0
100
AcDbLine
 62
4
  6
CONTINUOUS
 10
12.0270370786
 20
6.4178563827
 11
12.0415259665
 21
6.4071923186
  0
LINE
  5
29C
100
AcDbEntity
  8
0
100
AcDbLine
 62
4
  6
CONTINUOUS
 10
12.0415259665
 20
6.4071923186
 11
12.0487704105
 21
6.3970306515
  0
LINE
  5
29D
100
AcDbEntity
  8
0
100
AcDbLine
 62
7
  6
CONTINUOUS
 10
13.5394446611
 20
10.8106150311
 11
12.9084443593
 21
10.201115507
  0
LINE
  5
29E
100
AcDbEntity
  8
0
100
AcDbLine
 62
4
  6
CONTINUOUS
 10
11.8676593114
 20
6.4289092684
 11
11.9038815312
 21
6.3104861455
  0
LINE
  5
29F
100
AcDbEntity
  8
0
100
AcDbLine
 62
4
  6
CONTINUOUS
 10
13.1075869459
 20
9.6027931123
 11
13.1009316043
 21
9.5963645456
  0
LINE
  5
2A0
100
AcDbEntity
  8
0
100
AcDbLine
 62
4
  6
CONTINUOUS
 10
13.0964947104
 20
9.5424027267
 11
13.0898393696
 21
9.5359741608
  0
LINE
  5
2A1
100
AcDbEntity
  8
0
100
AcDbLine
 62
4
  6
CONTINUOUS
 10
13.1075869459
 20
9.4786026759
 11
13.0898393696
 21
9.4614598326
  0
LINE
  5
2A2
100
AcDbEntity
  8
0
100
AcDbLine
 62
4
  6
CONTINUOUS
 10
13.109805393
 20
9.4365889232
 11
13.0876209217
 21
9.4151603682
  0
LINE
  5
2A3
100
AcDbEntity
  8
0
100
AcDbLine
 62
4
  6
CONTINUOUS
 10
13.0809655818
 20
9.4087318031
 11
13.078747134
 21
9.4065889469
  0
LINE
  5
2A4
100
AcDbEntity
  8
0
100
AcDbLine
 62
4
  6
CONTINUOUS
 10
13.2682025144
 20
9.5702703236
 11
13.2371442553
 21
9.5402703472
  0
LINE
  5
2A5
100
AcDbEntity
  8
0
100
AcDbLine
 62
4
  6
CONTINUOUS
 10
13.1910005557
 20
9.1617645625
 11
13.182126767
 21
9.1614725009
  0
LINE
  5
2A6
100
AcDbEntity
  8
0
100
AcDbLine
 62
4
  6
CONTINUOUS
 10
13.2682025144
 20
8.9051613539
 11
13.2371442553
 21
8.9082788337
  0
LINE
  5
2A7
100
AcDbEntity
  8
0
100
AcDbLine
 62
4
  6
CONTINUOUS
 10
13.1172002167
 20
8.9911265269
 11
13.0876209217
 21
8.9956725627
  0
LINE
  5
2A8
100
AcDbEntity
  8
0
100
AcDbLine
 62
4
  6
CONTINUOUS
 10
12.9467495251
 20
6.1063673067
 11
12.941573148
 21
6.115856198
  0
LINE
  5
2A9
100
AcDbEntity
  8
0
100
AcDbLine
 62
4
  6
CONTINUOUS
 10
12.941573148
 20
6.2317673014
 11
12.9441613375
 21
6.2270228567
  0
LINE
  5
2AA
100
AcDbEntity
  8
0
100
AcDbLine
 62
4
  6
CONTINUOUS
 10
12.9648668428
 20
6.1890672885
 11
12.9674550311
 21
6.1843228426
  0
LINE
  5
2AB
100
AcDbEntity
  8
0
100
AcDbLine
 62
4
  6
CONTINUOUS
 10
12.9648668428
 20
6.3049783919
 11
12.9674550311
 21
6.300233946
  0
LINE
  5
2AC
100
AcDbEntity
  8
0
100
AcDbLine
 62
4
  6
CONTINUOUS
 10
12.0487704105
 20
6.3970306515
 11
12.0487704105
 21
6.3777121388
  0
LINE
  5
2AD
100
AcDbEntity
  8
0
100
AcDbLine
 62
4
  6
CONTINUOUS
 10
13.2415811492
 20
9.4976396168
 11
13.26376562
 21
9.5190681714
  0
LINE
  5
2AE
100
AcDbEntity
  8
0
100
AcDbLine
 62
4
  6
CONTINUOUS
 10
13.1075869459
 20
9.3599317948
 11
13.078747134
 21
9.332074674
  0
LINE
  5
2AF
100
AcDbEntity
  8
0
100
AcDbLine
 62
4
  6
CONTINUOUS
 10
13.109805393
 20
9.328957208
 11
13.0876209217
 21
9.307528653
  0
LINE
  5
2B0
100
AcDbEntity
  8
0
100
AcDbLine
 62
4
  6
CONTINUOUS
 10
13.2682025144
 20
9.4653983307
 11
13.2371442553
 21
9.4353983544
  0
LINE
  5
2B1
100
AcDbEntity
  8
0
100
AcDbLine
 62
4
  6
CONTINUOUS
 10
13.0876209217
 20
9.2578524342
 11
13.1075869459
 21
9.2771381337
  0
LINE
  5
2B2
100
AcDbEntity
  8
0
100
AcDbLine
 62
4
  6
CONTINUOUS
 10
13.2415811492
 20
9.4065666227
 11
13.26376562
 21
9.4279951773
  0
LINE
  5
2B3
100
AcDbEntity
  8
0
100
AcDbLine
 62
4
  6
CONTINUOUS
 10
13.109805393
 20
9.2461635469
 11
13.0920578156
 21
9.2290207025
  0
LINE
  5
2B4
100
AcDbEntity
  8
0
100
AcDbLine
 62
4
  6
CONTINUOUS
 10
13.26376562
 20
9.3700396256
 11
13.2415811492
 21
9.348611071
  0
LINE
  5
2B5
100
AcDbEntity
  8
0
100
AcDbLine
 62
4
  6
CONTINUOUS
 10
13.1075869459
 20
9.1943445279
 11
13.1009316043
 21
9.1879159612
  0
LINE
  5
2B6
100
AcDbEntity
  8
0
100
AcDbLine
 62
4
  6
CONTINUOUS
 10
13.182126767
 20
9.2525455087
 11
13.1998743444
 21
9.2696883531
  0
LINE
  5
2B7
100
AcDbEntity
  8
0
100
AcDbLine
 62
4
  6
CONTINUOUS
 10
13.0898393696
 20
9.1413244093
 11
13.0942762635
 21
9.14561012
  0
LINE
  5
2B8
100
AcDbEntity
  8
0
100
AcDbLine
 62
4
  6
CONTINUOUS
 10
13.26376562
 20
9.2734470763
 11
13.2415811492
 21
9.2520185217
  0
LINE
  5
2B9
100
AcDbEntity
  8
0
100
AcDbLine
 62
4
  6
CONTINUOUS
 10
13.19543745
 20
9.2074470903
 11
13.1732529792
 21
9.1860185357
  0
LINE
  5
2BA
100
AcDbEntity
  8
0
100
AcDbLine
 62
4
  6
CONTINUOUS
 10
13.109805393
 20
9.1219731105
 11
13.0876209217
 21
9.1005445555
  0
LINE
  5
2BB
100
AcDbEntity
  8
0
100
AcDbLine
 62
4
  6
CONTINUOUS
 10
13.182126767
 20
9.1614725009
 11
13.1732529792
 21
9.1529010796
  0
LINE
  5
2BC
100
AcDbEntity
  8
0
100
AcDbLine
 62
4
  6
CONTINUOUS
 10
13.078747134
 20
9.0588556366
 11
13.109805393
 21
9.0888556129
  0
LINE
  5
2BD
100
AcDbEntity
  8
0
100
AcDbLine
 62
4
  6
CONTINUOUS
 10
13.1075869459
 20
9.0370365939
 11
13.0898393696
 21
9.0198937506
  0
LINE
  5
2BE
100
AcDbEntity
  8
0
100
AcDbLine
 62
4
  6
CONTINUOUS
 10
13.1732529792
 20
9.0949455278
 11
13.182126767
 21
9.1035169491
  0
LINE
  5
2BF
100
AcDbEntity
  8
0
100
AcDbLine
 62
4
  6
CONTINUOUS
 10
13.19543745
 20
9.0832566263
 11
13.1688160853
 21
9.057542361
  0
LINE
  5
2C0
100
AcDbEntity
  8
0
100
AcDbLine
 62
4
  6
CONTINUOUS
 10
13.2682025144
 20
9.1038661046
 11
13.2371442553
 21
9.0738661282
  0
LINE
  5
2C1
100
AcDbEntity
  8
0
100
AcDbLine
 62
4
  6
CONTINUOUS
 10
13.1688160853
 20
8.9995868093
 11
13.19543745
 21
9.0253010746
  0
LINE
  5
2C2
100
AcDbEntity
  8
0
100
AcDbLine
 62
4
  6
CONTINUOUS
 10
13.0898393696
 20
8.9150217854
 11
13.109805393
 21
8.9343074842
  0
LINE
  5
2C3
100
AcDbEntity
  8
0
100
AcDbLine
 62
4
  6
CONTINUOUS
 10
13.2682025144
 20
9.0376311923
 11
13.2371442553
 21
9.0076312159
  0
LINE
  5
2C4
100
AcDbEntity
  8
0
100
AcDbLine
 62
4
  6
CONTINUOUS
 10
13.109805393
 20
8.8846312931
 11
13.078747134
 21
8.8546313168
  0
LINE
  5
2C5
100
AcDbEntity
  8
0
100
AcDbLine
 62
4
  6
CONTINUOUS
 10
13.109805393
 20
8.7604408291
 11
13.078747134
 21
8.7304408527
  0
LINE
  5
2C6
100
AcDbEntity
  8
0
100
AcDbLine
 62
4
  6
CONTINUOUS
 10
13.2415811492
 20
8.8325306885
 11
13.26376562
 21
8.8539592431
  0
LINE
  5
2C7
100
AcDbEntity
  8
0
100
AcDbLine
 62
4
  6
CONTINUOUS
 10
13.109805393
 20
8.7024852774
 11
13.078747134
 21
8.672485301
  0
LINE
  5
2C8
100
AcDbEntity
  8
0
100
AcDbLine
 62
4
  6
CONTINUOUS
 10
13.1053684987
 20
8.6650821101
 11
13.078747134
 21
8.6393678449
  0
LINE
  5
2C9
100
AcDbEntity
  8
0
100
AcDbLine
 62
7
  6
CONTINUOUS
 10
13.2301814399
 20
6.1488227273
 11
13.2430849848
 21
6.1178207992
  0
LINE
  5
2CA
100
AcDbEntity
  8
0
100
AcDbLine
 62
4
  6
CONTINUOUS
 10
11.9980593028
 20
6.3329326707
 11
11.9908148588
 21
6.3044572987
  0
LINE
  5
2CB
100
AcDbEntity
  8
0
100
AcDbLine
 62
4
  6
CONTINUOUS
 10
11.9038815312
 20
6.3104861455
 11
11.940103751
 21
6.4238852294
  0
LINE
  5
2CC
100
AcDbEntity
  8
0
100
AcDbLine
 62
4
  6
CONTINUOUS
 10
13.2682025144
 20
8.8002894094
 11
13.2371442553
 21
8.770289433
  0
LINE
  5
2CD
100
AcDbEntity
  8
0
100
AcDbLine
 62
4
  6
CONTINUOUS
 10
13.078747134
 20
8.5814122932
 11
13.1053684987
 21
8.6071265584
  0
LINE
  5
2CE
100
AcDbEntity
  8
0
100
AcDbLine
 62
4
  6
CONTINUOUS
 10
13.1053684987
 20
8.5740091023
 11
13.1009316043
 21
8.5697233912
  0
LINE
  5
2CF
100
AcDbEntity
  8
0
100
AcDbLine
 62
4
  6
CONTINUOUS
 10
13.0876209217
 20
8.4989107066
 11
13.0831840278
 21
8.494624996
  0
LINE
  5
2D0
100
AcDbEntity
  8
0
100
AcDbLine
 62
4
  6
CONTINUOUS
 10
13.078747134
 20
9.4093487245
 11
13.0809655818
 21
9.4087318031
  0
LINE
  5
2D1
100
AcDbEntity
  8
0
100
AcDbLine
 62
4
  6
CONTINUOUS
 10
12.941573148
 20
6.115856198
 11
12.9389849604
 21
6.1278450885
  0
LINE
  5
2D2
100
AcDbEntity
  8
0
100
AcDbLine
 62
4
  6
CONTINUOUS
 10
12.9389849604
 20
6.2437561919
 11
12.941573148
 21
6.2317673014
  0
LINE
  5
2D3
100
AcDbEntity
  8
0
100
AcDbLine
 62
4
  6
CONTINUOUS
 10
12.9674550311
 20
6.1843228426
 11
12.9700432194
 21
6.1723339528
  0
LINE
  5
2D4
100
AcDbEntity
  8
0
100
AcDbLine
 62
4
  6
CONTINUOUS
 10
12.9674550311
 20
6.300233946
 11
12.9700432194
 21
6.2882450562
  0
LINE
  5
2D5
100
AcDbEntity
  8
0
100
AcDbLine
 62
4
  6
CONTINUOUS
 10
13.0876209217
 20
9.5752280798
 11
13.0898393696
 21
9.585650269
  0
LINE
  5
2D6
100
AcDbEntity
  8
0
100
AcDbLine
 62
4
  6
CONTINUOUS
 10
13.1075869459
 20
9.553117004
 11
13.109805393
 21
9.5635391925
  0
LINE
  5
2D7
100
AcDbEntity
  8
0
100
AcDbLine
 62
4
  6
CONTINUOUS
 10
13.109805393
 20
9.4890248644
 11
13.1075869459
 21
9.4786026759
  0
LINE
  5
2D8
100
AcDbEntity
  8
0
100
AcDbLine
 62
4
  6
CONTINUOUS
 10
13.0876209217
 20
9.1336619978
 11
13.0898393696
 21
9.1413244093
  0
LINE
  5
2D9
100
AcDbEntity
  8
0
100
AcDbLine
 62
4
  6
CONTINUOUS
 10
13.0920578156
 20
9.2290207025
 11
13.0876209217
 21
9.2164556589
  0
LINE
  5
2DA
100
AcDbEntity
  8
0
100
AcDbLine
 62
4
  6
CONTINUOUS
 10
13.0876209217
 20
8.9459963992
 11
13.109805393
 21
8.9922630636
  0
LINE
  5
2DB
100
AcDbEntity
  8
0
100
AcDbLine
 62
4
  6
CONTINUOUS
 10
13.2371442553
 20
8.9082788337
 11
13.2682025144
 21
8.97139628
  0
LINE
  5
2DC
100
AcDbEntity
  8
0
100
AcDbLine
 62
7
  6
CONTINUOUS
 10
12.9084443593
 20
10.201115507
 11
8.0788149417
 21
10.5360514448
  0
LINE
  5
2DD
100
AcDbEntity
  8
0
100
AcDbLine
 62
7
  6
CONTINUOUS
 10
12.9084443593
 20
10.201115507
 11
12.9084443593
 21
5.8544490312
  0
LINE
  5
2DE
100
AcDbEntity
  8
0
100
AcDbLine
 62
4
  6
CONTINUOUS
 10
12.9389849604
 20
6.2582450799
 11
12.9389849604
 21
6.2437561919
  0
LINE
  5
2DF
100
AcDbEntity
  8
0
100
AcDbLine
 62
4
  6
CONTINUOUS
 10
12.9389849604
 20
6.1278450885
 11
12.9389849604
 21
6.1423339764
  0
LINE
  5
2E0
100
AcDbEntity
  8
0
100
AcDbLine
 62
4
  6
CONTINUOUS
 10
12.9596904661
 20
6.3651783914
 11
12.9596904661
 21
6.4086450552
  0
LINE
  5
2E1
100
AcDbEntity
  8
0
100
AcDbLine
 62
4
  6
CONTINUOUS
 10
12.9700432194
 20
6.2882450562
 11
12.9700432194
 21
6.2737561683
  0
LINE
  5
2E2
100
AcDbEntity
  8
0
100
AcDbLine
 62
4
  6
CONTINUOUS
 10
12.9700432194
 20
6.1723339528
 11
12.9700432194
 21
6.1578450649
  0
LINE
  5
2E3
100
AcDbEntity
  8
0
100
AcDbLine
 62
4
  6
CONTINUOUS
 10
13.078747134
 20
8.5068980151
 11
13.078747134
 21
8.540015473
  0
LINE
  5
2E4
100
AcDbEntity
  8
0
100
AcDbLine
 62
4
  6
CONTINUOUS
 10
13.078747134
 20
9.4065889469
 11
13.078747134
 21
9.4093487245
  0
LINE
  5
2E5
100
AcDbEntity
  8
0
100
AcDbLine
 62
4
  6
CONTINUOUS
 10
13.0876209217
 20
9.2164556589
 11
13.0876209217
 21
9.1750588284
  0
LINE
  5
2E6
100
AcDbEntity
  8
0
100
AcDbLine
 62
4
  6
CONTINUOUS
 10
13.0876209217
 20
8.8632027381
 11
13.0876209217
 21
8.9045995686
  0
LINE
  5
2E7
100
AcDbEntity
  8
0
100
AcDbLine
 62
4
  6
CONTINUOUS
 10
13.0876209217
 20
9.0343096156
 11
13.0876209217
 21
9.0674270579
  0
LINE
  5
2E8
100
AcDbEntity
  8
0
100
AcDbLine
 62
4
  6
CONTINUOUS
 10
13.0876209217
 20
9.1005445555
 11
13.0876209217
 21
9.1336619978
  0
LINE
  5
2E9
100
AcDbEntity
  8
0
100
AcDbLine
 62
4
  6
CONTINUOUS
 10
13.0876209217
 20
9.4675963093
 11
13.0876209217
 21
9.5007138622
  0
LINE
  5
2EA
100
AcDbEntity
  8
0
100
AcDbLine
 62
4
  6
CONTINUOUS
 10
13.0876209217
 20
9.5421106375
 11
13.0876209217
 21
9.5752280798
  0
LINE
  5
2EB
100
AcDbEntity
  8
0
100
AcDbLine
 62
4
  6
CONTINUOUS
 10
13.0987131574
 20
9.2023318271
 11
13.0987131574
 21
9.2354492694
  0
LINE
  5
2EC
100
AcDbEntity
  8
0
100
AcDbLine
 62
4
  6
CONTINUOUS
 10
13.109805393
 20
9.5221424173
 11
13.109805393
 21
9.4890248644
  0
LINE
  5
2ED
100
AcDbEntity
  8
0
100
AcDbLine
 62
4
  6
CONTINUOUS
 10
13.109805393
 20
9.3869127597
 11
13.109805393
 21
9.3703540386
  0
LINE
  5
2EE
100
AcDbEntity
  8
0
100
AcDbLine
 62
4
  6
CONTINUOUS
 10
13.109805393
 20
9.2461635469
 11
13.109805393
 21
9.2130461046
  0
LINE
  5
2EF
100
AcDbEntity
  8
0
100
AcDbLine
 62
4
  6
CONTINUOUS
 10
13.109805393
 20
9.0888556129
 11
13.109805393
 21
9.0557381706
  0
LINE
  5
2F0
100
AcDbEntity
  8
0
100
AcDbLine
 62
4
  6
CONTINUOUS
 10
13.109805393
 20
8.5286186265
 11
13.109805393
 21
8.5617360853
  0
LINE
  5
2F1
100
AcDbEntity
  8
0
100
AcDbLine
 62
4
  6
CONTINUOUS
 10
13.109805393
 20
8.6279709976
 11
13.109805393
 21
8.6528091001
  0
LINE
  5
2F2
100
AcDbEntity
  8
0
100
AcDbLine
 62
4
  6
CONTINUOUS
 10
13.109805393
 20
9.2875603775
 11
13.109805393
 21
9.328957208
  0
LINE
  5
2F3
100
AcDbEntity
  8
0
100
AcDbLine
 62
4
  6
CONTINUOUS
 10
13.109805393
 20
9.5635391925
 11
13.109805393
 21
9.5966566349
  0
LINE
  5
2F4
100
AcDbEntity
  8
0
100
AcDbLine
 62
4
  6
CONTINUOUS
 10
13.1172002167
 20
8.9745678057
 11
13.1172002167
 21
8.9911265269
  0
LINE
  5
2F5
100
AcDbEntity
  8
0
100
AcDbLine
 62
4
  6
CONTINUOUS
 10
13.0994526397
 20
9.5866566425
 11
13.0979736751
 21
9.5521106299
  0
LINE
  5
2F6
100
AcDbEntity
  8
0
100
AcDbLine
 62
4
  6
CONTINUOUS
 10
13.109805393
 20
9.2130461046
 11
13.1075869459
 21
9.1943445279
  0
LINE
  5
2F7
100
AcDbEntity
  8
0
100
AcDbLine
 62
4
  6
CONTINUOUS
 10
13.109805393
 20
9.0557381706
 11
13.1075869459
 21
9.0370365939
  0
LINE
  5
2F8
100
AcDbEntity
  8
0
100
AcDbLine
 62
4
  6
CONTINUOUS
 10
13.2489759723
 20
9.6344925148
 11
13.2548918318
 21
9.6843634048
  0
LINE
  5
2F9
100
AcDbEntity
  8
0
100
AcDbLine
 62
4
  6
CONTINUOUS
 10
13.1009316043
 20
9.5963645456
 11
13.0994526397
 21
9.5866566425
  0
LINE
  5
2FA
100
AcDbEntity
  8
0
100
AcDbLine
 62
4
  6
CONTINUOUS
 10
13.0979736751
 20
9.5521106299
 11
13.0964947104
 21
9.5424027267
  0
LINE
  5
2FB
100
AcDbEntity
  8
0
100
AcDbLine
 62
4
  6
CONTINUOUS
 10
13.1009316043
 20
8.5697233912
 11
13.0876209217
 21
8.4989107066
  0
LINE
  5
2FC
100
AcDbEntity
  8
0
100
AcDbLine
 62
4
  6
CONTINUOUS
 10
13.109805393
 20
9.3703540386
 11
13.1075869459
 21
9.3599317948
  0
LINE
  5
2FD
100
AcDbEntity
  8
0
100
AcDbLine
 62
4
  6
CONTINUOUS
 10
13.1075869459
 20
9.2771381337
 11
13.109805393
 21
9.2875603775
  0
LINE
  5
2FE
100
AcDbEntity
  8
0
100
AcDbLine
 62
4
  6
CONTINUOUS
 10
13.0876209217
 20
8.9045995686
 11
13.0898393696
 21
8.9150217854
  0
LINE
  5
2FF
100
AcDbEntity
  8
0
100
AcDbLine
 62
4
  6
CONTINUOUS
 10
13.2371442553
 20
9.4767951849
 11
13.2415811492
 21
9.4976396168
  0
LINE
  5
300
100
AcDbEntity
  8
0
100
AcDbLine
 62
4
  6
CONTINUOUS
 10
13.1732529792
 20
9.1529010796
 11
13.1688160853
 21
9.1320566477
  0
LINE
  5
301
100
AcDbEntity
  8
0
100
AcDbLine
 62
4
  6
CONTINUOUS
 10
13.1998743444
 20
9.2282915364
 11
13.19543745
 21
9.2074470903
  0
LINE
  5
302
100
AcDbEntity
  8
0
100
AcDbLine
 62
4
  6
CONTINUOUS
 10
13.2371442553
 20
9.3857221909
 11
13.2415811492
 21
9.4065666227
  0
LINE
  5
303
100
AcDbEntity
  8
0
100
AcDbLine
 62
4
  6
CONTINUOUS
 10
13.182126767
 20
9.1035169491
 11
13.1865636618
 21
9.1243613888
  0
LINE
  5
304
100
AcDbEntity
  8
0
100
AcDbLine
 62
4
  6
CONTINUOUS
 10
13.078747134
 20
8.540015473
 11
13.0809655818
 21
8.5504376932
  0
LINE
  5
305
100
AcDbEntity
  8
0
100
AcDbLine
 62
4
  6
CONTINUOUS
 10
13.2682025144
 20
9.3908840579
 11
13.26376562
 21
9.3700396256
  0
LINE
  5
306
100
AcDbEntity
  8
0
100
AcDbLine
 62
4
  6
CONTINUOUS
 10
13.1053684987
 20
8.6071265584
 11
13.109805393
 21
8.6279709976
  0
LINE
  5
307
100
AcDbEntity
  8
0
100
AcDbLine
 62
4
  6
CONTINUOUS
 10
13.19543745
 20
9.0253010746
 11
13.1998743444
 21
9.0461455155
  0
LINE
  5
308
100
AcDbEntity
  8
0
100
AcDbLine
 62
4
  6
CONTINUOUS
 10
13.2682025144
 20
9.2942915085
 11
13.26376562
 21
9.2734470763
  0
LINE
  5
309
100
AcDbEntity
  8
0
100
AcDbLine
 62
4
  6
CONTINUOUS
 10
13.1075869459
 20
8.5181964061
 11
13.109805393
 21
8.5286186265
  0
LINE
  5
30A
100
AcDbEntity
  8
0
100
AcDbLine
 62
4
  6
CONTINUOUS
 10
13.2371442553
 20
8.8116862498
 11
13.2415811492
 21
8.8325306885
  0
LINE
  5
30B
100
AcDbEntity
  8
0
100
AcDbLine
 62
4
  6
CONTINUOUS
 10
13.078747134
 20
8.672485301
 11
13.109805393
 21
8.7604408291
  0
LINE
  5
30C
100
AcDbEntity
  8
0
100
AcDbLine
 62
4
  6
CONTINUOUS
 10
11.9908148588
 20
6.4010498826
 11
11.9980593028
 21
6.4102067419
  0
LINE
  5
30D
100
AcDbEntity
  8
0
100
AcDbLine
 62
4
  6
CONTINUOUS
 10
12.0125481907
 20
6.351246379
 11
11.9980593028
 21
6.3329326707
  0
LINE
  5
30E
100
AcDbEntity
  8
0
100
AcDbLine
 62
7
  6
CONTINUOUS
 10
13.8848157942
 20
6.7611336984
 11
13.8894577037
 21
6.7499810931
  0
LINE
  5
30F
100
AcDbEntity
  8
0
100
AcDbLine
 62
4
  6
CONTINUOUS
 10
13.0831840278
 20
8.494624996
 11
13.078747134
 21
8.5068980151
  0
LINE
  5
310
100
AcDbEntity
  8
0
100
AcDbLine
 62
4
  6
CONTINUOUS
 10
13.109805393
 20
8.5617360853
 11
13.1053684987
 21
8.5740091023
  0
LINE
  5
311
100
AcDbEntity
  8
0
100
AcDbLine
 62
4
  6
CONTINUOUS
 10
13.109805393
 20
8.6528091001
 11
13.1053684987
 21
8.6650821101
  0
LINE
  5
312
100
AcDbEntity
  8
0
100
AcDbLine
 62
4
  6
CONTINUOUS
 10
13.1688160853
 20
9.1320566477
 11
13.1688160853
 21
9.1072185453
  0
LINE
  5
313
100
AcDbEntity
  8
0
100
AcDbLine
 62
4
  6
CONTINUOUS
 10
13.1688160853
 20
9.19829156
 11
13.1688160853
 21
9.2396883768
  0
LINE
  5
314
100
AcDbEntity
  8
0
100
AcDbLine
 62
4
  6
CONTINUOUS
 10
13.182126767
 20
9.2277074132
 11
13.182126767
 21
9.2525455087
  0
LINE
  5
315
100
AcDbEntity
  8
0
100
AcDbLine
 62
4
  6
CONTINUOUS
 10
13.1865636618
 20
9.1243613888
 11
13.1865636618
 21
9.1602386433
  0
LINE
  5
316
100
AcDbEntity
  8
0
100
AcDbLine
 62
4
  6
CONTINUOUS
 10
13.1998743444
 20
9.2696883531
 11
13.1998743444
 21
9.2282915364
  0
LINE
  5
317
100
AcDbEntity
  8
0
100
AcDbLine
 62
4
  6
CONTINUOUS
 10
13.1998743444
 20
9.0461455155
 11
13.1998743444
 21
9.0709836093
  0
LINE
  5
318
100
AcDbEntity
  8
0
100
AcDbLine
 62
4
  6
CONTINUOUS
 10
13.2371442553
 20
8.770289433
 11
13.2371442553
 21
8.8116862498
  0
LINE
  5
319
100
AcDbEntity
  8
0
100
AcDbLine
 62
4
  6
CONTINUOUS
 10
13.2371442553
 20
8.974513746
 11
13.2371442553
 21
9.0407486583
  0
LINE
  5
31A
100
AcDbEntity
  8
0
100
AcDbLine
 62
4
  6
CONTINUOUS
 10
13.2371442553
 20
9.0738661282
 11
13.2371442553
 21
9.1235423194
  0
LINE
  5
31B
100
AcDbEntity
  8
0
100
AcDbLine
 62
4
  6
CONTINUOUS
 10
13.2371442553
 20
9.2642915322
 11
13.2371442553
 21
9.2974089745
  0
LINE
  5
31C
100
AcDbEntity
  8
0
100
AcDbLine
 62
4
  6
CONTINUOUS
 10
13.2371442553
 20
9.3608840815
 11
13.2371442553
 21
9.3857221909
  0
LINE
  5
31D
100
AcDbEntity
  8
0
100
AcDbLine
 62
4
  6
CONTINUOUS
 10
13.2371442553
 20
9.4353983544
 11
13.2371442553
 21
9.4767951849
  0
LINE
  5
31E
100
AcDbEntity
  8
0
100
AcDbLine
 62
4
  6
CONTINUOUS
 10
13.2371442553
 20
9.5402703472
 11
13.2371442553
 21
9.5899465107
  0
LINE
  5
31F
100
AcDbEntity
  8
0
100
AcDbLine
 62
4
  6
CONTINUOUS
 10
13.2495675705
 20
6.848022621
 11
13.2495675705
 21
6.9059781727
  0
LINE
  5
320
100
AcDbEntity
  8
0
100
AcDbLine
 62
4
  6
CONTINUOUS
 10
13.250454937
 20
9.5862449215
 11
13.250454937
 21
9.5531274792
  0
LINE
  5
321
100
AcDbEntity
  8
0
100
AcDbLine
 62
4
  6
CONTINUOUS
 10
13.250454937
 20
9.1198407301
 11
13.250454937
 21
9.0867232602
  0
LINE
  5
322
100
AcDbEntity
  8
0
100
AcDbLine
 62
4
  6
CONTINUOUS
 10
13.2593287257
 20
8.9076290837
 11
13.2593287257
 21
8.9517856919
  0
LINE
  5
323
100
AcDbEntity
  8
0
100
AcDbLine
 62
4
  6
CONTINUOUS
 10
13.2650967
 20
6.8630226092
 11
13.2650967
 21
6.899244829
  0
LINE
  5
324
100
AcDbEntity
  8
0
100
AcDbLine
 62
4
  6
CONTINUOUS
 10
13.2682025144
 20
9.5067951613
 11
13.2682025144
 21
9.4653983307
  0
LINE
  5
325
100
AcDbEntity
  8
0
100
AcDbLine
 62
4
  6
CONTINUOUS
 10
13.2682025144
 20
9.4157221672
 11
13.2682025144
 21
9.3908840579
  0
LINE
  5
326
100
AcDbEntity
  8
0
100
AcDbLine
 62
4
  6
CONTINUOUS
 10
13.2682025144
 20
9.3274089508
 11
13.2682025144
 21
9.2942915085
  0
LINE
  5
327
100
AcDbEntity
  8
0
100
AcDbLine
 62
4
  6
CONTINUOUS
 10
13.2682025144
 20
8.8416862261
 11
13.2682025144
 21
8.8002894094
  0
LINE
  5
328
100
AcDbEntity
  8
0
100
AcDbLine
 62
4
  6
CONTINUOUS
 10
13.2682025144
 20
9.1038661046
 11
13.2682025144
 21
9.1535422957
  0
LINE
  5
329
100
AcDbEntity
  8
0
100
AcDbLine
 62
4
  6
CONTINUOUS
 10
13.2682025144
 20
9.5702703236
 11
13.2682025144
 21
9.6199464871
  0
LINE
  5
32A
100
AcDbEntity
  8
0
100
AcDbLine
 62
4
  6
CONTINUOUS
 10
13.2806258296
 20
6.9359781491
 11
13.2806258296
 21
6.8780225974
  0
LINE
  5
32B
100
AcDbEntity
  8
0
100
AcDbLine
 62
4
  6
CONTINUOUS
 10
13.2548918318
 20
8.7211973573
 11
13.2608076908
 21
8.7710682503
  0
LINE
  5
32C
100
AcDbEntity
  8
0
100
AcDbLine
 62
4
  6
CONTINUOUS
 10
12.941573148
 20
6.2752339652
 11
12.9389849604
 21
6.2582450799
  0
LINE
  5
32D
100
AcDbEntity
  8
0
100
AcDbLine
 62
4
  6
CONTINUOUS
 10
12.9493377128
 20
6.2392672955
 11
12.9571022785
 21
6.2902339543
  0
LINE
  5
32E
100
AcDbEntity
  8
0
100
AcDbLine
 62
4
  6
CONTINUOUS
 10
12.9389849604
 20
6.1423339764
 11
12.941573148
 21
6.1593228618
  0
LINE
  5
32F
100
AcDbEntity
  8
0
100
AcDbLine
 62
4
  6
CONTINUOUS
 10
12.9700432194
 20
6.2737561683
 11
12.9674550311
 21
6.2567672823
  0
LINE
  5
330
100
AcDbEntity
  8
0
100
AcDbLine
 62
4
  6
CONTINUOUS
 10
12.9700432194
 20
6.1578450649
 11
12.9674550311
 21
6.1408561788
  0
LINE
  5
331
100
AcDbEntity
  8
0
100
AcDbLine
 62
4
  6
CONTINUOUS
 10
12.0487704105
 20
6.3777121388
 11
12.0415259665
 21
6.3685552795
  0
LINE
  5
332
100
AcDbEntity
  8
0
100
AcDbLine
 62
4
  6
CONTINUOUS
 10
11.9980593028
 20
6.4102067419
 11
12.0125481907
 21
6.4188611905
  0
LINE
  5
333
100
AcDbEntity
  8
0
100
AcDbLine
 62
4
  6
CONTINUOUS
 10
12.0415259665
 20
6.3685552795
 11
12.0125481907
 21
6.351246379
  0
LINE
  5
334
100
AcDbEntity
  8
0
100
AcDbLine
 62
4
  6
CONTINUOUS
 10
13.1688160853
 20
9.1072185453
 11
13.1732529792
 21
9.0949455278
  0
LINE
  5
335
100
AcDbEntity
  8
0
100
AcDbLine
 62
4
  6
CONTINUOUS
 10
13.26376562
 20
8.8539592431
 11
13.2682025144
 21
8.8416862261
  0
LINE
  5
336
100
AcDbEntity
  8
0
100
AcDbLine
 62
4
  6
CONTINUOUS
 10
13.1998743444
 20
9.0709836093
 11
13.19543745
 21
9.0832566263
  0
LINE
  5
337
100
AcDbEntity
  8
0
100
AcDbLine
 62
4
  6
CONTINUOUS
 10
13.1732529792
 20
9.1860185357
 11
13.1688160853
 21
9.19829156
  0
LINE
  5
338
100
AcDbEntity
  8
0
100
AcDbLine
 62
4
  6
CONTINUOUS
 10
13.1998743444
 20
9.1372185216
 11
13.1910005557
 21
9.1617645625
  0
LINE
  5
339
100
AcDbEntity
  8
0
100
AcDbLine
 62
4
  6
CONTINUOUS
 10
13.0898393696
 20
9.4614598326
 11
13.0876209217
 21
9.4675963093
  0
LINE
  5
33A
100
AcDbEntity
  8
0
100
AcDbLine
 62
4
  6
CONTINUOUS
 10
13.0898393696
 20
9.5359741608
 11
13.0876209217
 21
9.5421106375
  0
LINE
  5
33B
100
AcDbEntity
  8
0
100
AcDbLine
 62
4
  6
CONTINUOUS
 10
13.109805393
 20
9.5966566349
 11
13.1075869459
 21
9.6027931123
  0
LINE
  5
33C
100
AcDbEntity
  8
0
100
AcDbLine
 62
4
  6
CONTINUOUS
 10
13.2415811492
 20
9.2520185217
 11
13.2371442553
 21
9.2642915322
  0
LINE
  5
33D
100
AcDbEntity
  8
0
100
AcDbLine
 62
4
  6
CONTINUOUS
 10
13.2415811492
 20
9.348611071
 11
13.2371442553
 21
9.3608840815
  0
LINE
  5
33E
100
AcDbEntity
  8
0
100
AcDbLine
 62
4
  6
CONTINUOUS
 10
13.0898393696
 20
9.0198937506
 11
13.0876209217
 21
9.0343096156
  0
LINE
  5
33F
100
AcDbEntity
  8
0
100
AcDbLine
 62
4
  6
CONTINUOUS
 10
13.1009316043
 20
9.1879159612
 11
13.0987131574
 21
9.2023318271
  0
LINE
  5
340
100
AcDbEntity
  8
0
100
AcDbLine
 62
4
  6
CONTINUOUS
 10
13.2489759723
 20
8.7596396872
 11
13.2548918318
 21
8.7211973573
  0
LINE
  5
341
100
AcDbEntity
  8
0
100
AcDbLine
 62
7
  6
CONTINUOUS
 10
13.5394446611
 20
10.8106150311
 11
13.5394446611
 21
6.8547523937
  0
LINE
  5
342
100
AcDbEntity
  8
0
100
AcDbLine
 62
4
  6
CONTINUOUS
 10
12.9441613375
 20
6.2849784084
 11
12.941573148
 21
6.2752339652
  0
LINE
  5
343
100
AcDbEntity
  8
0
100
AcDbLine
 62
4
  6
CONTINUOUS
 10
12.9571022785
 20
6.2902339543
 11
12.9596904661
 21
6.2999783957
  0
LINE
  5
344
100
AcDbEntity
  8
0
100
AcDbLine
 62
4
  6
CONTINUOUS
 10
12.9467495251
 20
6.2295228541
 11
12.9493377128
 21
6.2392672955
  0
LINE
  5
345
100
AcDbEntity
  8
0
100
AcDbLine
 62
4
  6
CONTINUOUS
 10
12.9674550311
 20
6.2567672823
 11
12.9622786547
 21
6.2372783983
  0
LINE
  5
346
100
AcDbEntity
  8
0
100
AcDbLine
 62
4
  6
CONTINUOUS
 10
12.941573148
 20
6.1593228618
 11
12.9441613375
 21
6.169067305
  0
LINE
  5
347
100
AcDbEntity
  8
0
100
AcDbLine
 62
4
  6
CONTINUOUS
 10
12.9674550311
 20
6.1408561788
 11
12.9622786547
 21
6.1213672949
  0
LINE
  5
348
100
AcDbEntity
  8
0
100
AcDbLine
 62
4
  6
CONTINUOUS
 10
12.9389849604
 20
6.3669117393
 11
12.9700432194
 21
6.4331339355
  0
LINE
  5
349
100
AcDbEntity
  8
0
100
AcDbLine
 62
7
  6
CONTINUOUS
 10
8.7098152435
 20
11.1455509688
 11
13.5394446611
 21
10.8106150311
  0
LINE
  5
34A
100
AcDbEntity
  8
0
100
AcDbLine
 62
4
  6
CONTINUOUS
 10
13.26376562
 20
9.4279951773
 11
13.2682025144
 21
9.4157221672
  0
LINE
  5
34B
100
AcDbEntity
  8
0
100
AcDbLine
 62
4
  6
CONTINUOUS
 10
13.26376562
 20
9.5190681714
 11
13.2682025144
 21
9.5067951613
  0
LINE
  5
34C
100
AcDbEntity
  8
0
100
AcDbLine
 62
4
  6
CONTINUOUS
 10
13.2548918318
 20
9.6843634048
 11
13.2608076908
 21
9.6459210779
  0
LINE
  5
34D
100
AcDbEntity
  8
0
100
AcDbLine
 62
4
  6
CONTINUOUS
 10
13.2764774224
 20
6.8102542119
 11
13.2806258296
 21
6.8200670456
  0
LINE
  5
34E
100
AcDbEntity
  8
0
100
AcDbLine
 62
4
  6
CONTINUOUS
 10
12.9622786547
 20
6.1213672949
 11
12.9545140899
 21
6.1066228569
  0
LINE
  5
34F
100
AcDbEntity
  8
0
100
AcDbLine
 62
7
  6
CONTINUOUS
 10
13.2734975258
 20
6.7734217001
 11
13.2972305481
 21
6.8136606782
  0
LINE
  5
350
100
AcDbEntity
  8
0
100
AcDbLine
 62
4
  6
CONTINUOUS
 10
12.9389849604
 20
6.4828228428
 11
12.9700432194
 21
6.534556151
  0
LINE
  5
351
100
AcDbEntity
  8
0
100
AcDbLine
 62
4
  6
CONTINUOUS
 10
12.9389849604
 20
6.439356179
 11
12.9700432194
 21
6.4910894872
  0
LINE
  5
352
100
AcDbEntity
  8
0
100
AcDbLine
 62
4
  6
CONTINUOUS
 10
13.2806258296
 20
6.8780225974
 11
13.2495675705
 21
6.848022621
  0
LINE
  5
353
100
AcDbEntity
  8
0
100
AcDbLine
 62
4
  6
CONTINUOUS
 10
12.9596904661
 20
6.2999783957
 11
12.9648668428
 21
6.3049783919
  0
LINE
  5
354
100
AcDbEntity
  8
0
100
AcDbLine
 62
4
  6
CONTINUOUS
 10
12.9441613375
 20
6.2270228567
 11
12.9467495251
 21
6.2295228541
  0
LINE
  5
355
100
AcDbEntity
  8
0
100
AcDbLine
 62
7
  6
CONTINUOUS
 10
13.1785627025
 20
6.1153633306
 11
12.9084443593
 21
5.8544490312
  0
LINE
  5
356
100
AcDbEntity
  8
0
100
AcDbLine
 62
7
  6
CONTINUOUS
 10
13.825680625
 20
6.6769883191
 11
13.8250338624
 21
6.6763754817
  0
LINE
  5
357
100
AcDbEntity
  8
0
100
AcDbLine
 62
7
  6
CONTINUOUS
 10
13.8306702309
 20
6.0652938194
 11
13.8434807725
 21
6.0870138977
  0
ARC
  5
358
100
AcDbEntity
  8
0
100
AcDbCircle
 62
7
  6
CONTINUOUS
 10
14.7643356
 20
6.3629103714
 40
1.5410077177
100
AcDbArc
 50
171.7532152172
 51
172.9161571282
  0
ARC
  5
359
100
AcDbEntity
  8
0
100
AcDbCircle
 62
7
  6
CONTINUOUS
 10
15.2279464011
 20
6.3307588532
 40
1.5410077177
100
AcDbArc
 50
171.7532152172
 51
172.9161571282
  0
ARC
  5
35A
100
AcDbEntity
  8
0
100
AcDbCircle
 62
7
  6
CONTINUOUS
 10
13.3009418282
 20
7.9068089081
 40
1.107376893
100
AcDbArc
 50
190.6362783545
 51
192.2924293595
  0
ARC
  5
35B
100
AcDbEntity
  8
0
100
AcDbCircle
 62
7
  6
CONTINUOUS
 10
13.8678366124
 20
6.2738958502
 40
0.641111993
100
AcDbArc
 50
189.2663144827
 51
191.3500490877
  0
ARC
  5
35C
100
AcDbEntity
  8
0
100
AcDbCircle
 62
7
  6
CONTINUOUS
 10
14.3314474136
 20
6.241744332
 40
0.641111993
100
AcDbArc
 50
189.2663144827
 51
191.3500490877
  0
ARC
  5
35D
100
AcDbEntity
  8
0
100
AcDbCircle
 62
7
  6
CONTINUOUS
 10
8.9905467936
 20
7.584081506
 40
0.6050717786
100
AcDbArc
 50
134.5118990032
 51
135.097270051
  0
ARC
  5
35E
100
AcDbEntity
  8
0
100
AcDbCircle
 62
7
  6
CONTINUOUS
 10
11.8883244441
 20
7.3831199435
 40
0.6050717784
100
AcDbArc
 50
134.5118990032
 51
135.0972700511
  0
ARC
  5
35F
100
AcDbEntity
  8
0
100
AcDbCircle
 62
7
  6
CONTINUOUS
 10
12.1651888182
 20
7.5816500265
 40
0.2721286739
100
AcDbArc
 50
129.8417630681
 51
134.0066699942
  0
ARC
  5
360
100
AcDbEntity
  8
0
100
AcDbCircle
 62
7
  6
CONTINUOUS
 10
9.2674111676
 20
7.7826115892
 40
0.2721286739
100
AcDbArc
 50
129.8417630681
 51
134.0066699943
  0
ARC
  5
361
100
AcDbEntity
  8
0
100
AcDbCircle
 62
7
  6
CONTINUOUS
 10
12.2212860951
 20
7.5235739424
 40
0.2721264113
100
AcDbArc
 50
314.0073750688
 51
318.1182195604
  0
ARC
  5
362
100
AcDbEntity
  8
0
100
AcDbCircle
 62
7
  6
CONTINUOUS
 10
9.3235084445
 20
7.724535505
 40
0.2721264113
100
AcDbArc
 50
314.0073750689
 51
318.1182195603
  0
ARC
  5
363
100
AcDbEntity
  8
0
100
AcDbCircle
 62
7
  6
CONTINUOUS
 10
13.8096865678
 20
6.6409072851
 40
0.0145515344
100
AcDbArc
 50
86.0353663874
 51
88.6822069299
  0
ARC
  5
364
100
AcDbEntity
  8
0
100
AcDbCircle
 62
7
  6
CONTINUOUS
 10
13.7795283108
 20
6.2060545767
 40
0.014551141
100
AcDbArc
 50
263.0183053466
 51
266.0333471908
  0
SPLINE
  5
365
100
AcDbEntity
  8
0
100
AcDbSpline
 62
7
  6
CONTINUOUS
 70
0
 71
3
 72
54
 73
50
 74
0
 42
0.0000001
 43
0.0000001
 44
0.0000000001
 40
0.0
 40
0.0
 40
0.0
 40
0.0
 40
0.007652296
 40
0.0158945243
 40
0.0247438956
 40
0.0342116248
 40
0.04430416
 40
0.0550230072
 40
0.0663648762
 40
0.0783236418
 40
0.0908898714
 40
0.1040521576
 40
0.1177965513
 40
0.1321072212
 40
0.1469667427
 40
0.162355787
 40
0.1782540385
 40
0.1946393924
 40
0.2287774514
 40
0.2645735498
 40
0.3018152968
 40
0.3402777949
 40
0.3797259256
 40
0.4199165535
 40
0.4606004856
 40
0.5015246348
 40
0.5424340266
 40
0.5830737748
 40
0.6231911641
 40
0.6625376428
 40
0.7008708116
 40
0.7379566436
 40
0.7735715497
 40
0.8075047307
 40
0.8395606595
 40
0.8548290875
 40
0.8695632319
 40
0.8837444256
 40
0.8973555231
 40
0.910381036
 40
0.9228078122
 40
0.9346244516
 40
0.9458227003
 40
0.9563967838
 40
0.96634475
 40
0.9756687071
 40
0.9843756565
 40
0.9924791673
 40
1.0
 40
1.0
 40
1.0
 40
1.0
 10
13.8250338624
 20
6.6763754817
 30
0.0
 10
13.8240694683
 20
6.6754439484
 30
0.0
 10
13.8221446367
 20
6.6734270455
 30
0.0
 10
13.8193673771
 20
6.6700943962
 30
0.0
 10
13.8165999866
 20
6.6663500361
 30
0.0
 10
13.813847069
 20
6.6622004322
 30
0.0
 10
13.8111127509
 20
6.6576520447
 30
0.0
 10
13.8084014282
 20
6.6527120633
 30
0.0
 10
13.8057173401
 20
6.6473885021
 30
0.0
 10
13.8030651871
 20
6.6416899754
 30
0.0
 10
13.8004491242
 20
6.6356258886
 30
0.0
 10
13.7978736662
 20
6.6292061471
 30
0.0
 10
13.795342995
 20
6.6224413492
 30
0.0
 10
13.7928613407
 20
6.6153426567
 30
0.0
 10
13.7904329262
 20
6.6079218002
 30
0.0
 10
13.7880616603
 20
6.6001910845
 30
0.0
 10
13.7857516524
 20
6.5921632867
 30
0.0
 10
13.7827167663
 20
6.5809271927
 30
0.0
 10
13.779115624
 20
6.5662348869
 30
0.0
 10
13.7751526468
 20
6.5478764333
 30
0.0
 10
13.7715178921
 20
6.5286785682
 30
0.0
 10
13.7682357051
 20
6.5087686798
 30
0.0
 10
13.7653281103
 20
6.4882787579
 30
0.0
 10
13.7628145703
 20
6.4673447802
 30
0.0
 10
13.7607118922
 20
6.4461057003
 30
0.0
 10
13.7590340936
 20
6.4247025375
 30
0.0
 10
13.7577923312
 20
6.4032774091
 30
0.0
 10
13.756994822
 20
6.3819725772
 30
0.0
 10
13.7566467931
 20
6.3609294938
 30
0.0
 10
13.7567504365
 20
6.3402878564
 30
0.0
 10
13.7573048936
 20
6.3201846513
 30
0.0
 10
13.7583062573
 20
6.3007532556
 30
0.0
 10
13.7597475367
 20
6.2821224026
 30
0.0
 10
13.7616188403
 20
6.2644156399
 30
0.0
 10
13.7635557814
 20
6.2503072185
 30
0.0
 10
13.7653239313
 20
6.2395775849
 30
0.0
 10
13.7667275076
 20
6.2319635444
 30
0.0
 10
13.768227625
 20
6.2246641199
 30
0.0
 10
13.7698217753
 20
6.2176913605
 30
0.0
 10
13.7715073952
 20
6.2110567921
 30
0.0
 10
13.773281473
 20
6.2047713257
 30
0.0
 10
13.7751412836
 20
6.1988453139
 30
0.0
 10
13.7770835073
 20
6.1932884153
 30
0.0
 10
13.7791051168
 20
6.1881096926
 30
0.0
 10
13.7812027462
 20
6.1833174856
 30
0.0
 10
13.7833729817
 20
6.1789194529
 30
0.0
 10
13.7856127071
 20
6.1749225082
 30
0.0
 10
13.7879180986
 20
6.1713330745
 30
0.0
 10
13.7895564292
 20
6.1691358229
 30
0.0
 10
13.7903879041
 20
6.1681134633
 30
0.0
  0
LINE
  5
366
100
AcDbEntity
  8
0
100
AcDbLine
 62
7
  6
CONTINUOUS
 10
13.332144989
 20
6.8651055825
 11
13.3279729942
 21
6.8607796705
  0
LINE
  5
367
100
AcDbEntity
  8
0
100
AcDbLine
 62
7
  6
CONTINUOUS
 10
13.332144989
 20
6.8651055825
 11
13.3363169837
 21
6.8688393459
  0
LINE
  5
368
100
AcDbEntity
  8
0
100
AcDbLine
 62
7
  6
CONTINUOUS
 10
13.7915837953
 20
6.0101151516
 11
13.7957557901
 21
6.013848915
  0
LINE
  5
369
100
AcDbEntity
  8
0
100
AcDbLine
 62
7
  6
CONTINUOUS
 10
13.7957557901
 20
6.013848915
 11
13.7999277848
 21
6.0181748271
  0
SPLINE
  5
36A
100
AcDbEntity
  8
0
100
AcDbSpline
 62
7
  6
CONTINUOUS
 70
0
 71
3
 72
9
 73
5
 74
0
 42
0.0000001
 43
0.0000001
 44
0.0000000001
 40
0.0
 40
0.0
 40
0.0
 40
0.0
 40
0.5036789469
 40
1.0
 40
1.0
 40
1.0
 40
1.0
 10
13.3279729942
 20
6.8607796705
 30
0.0
 10
13.3224816165
 20
6.8530551148
 30
0.0
 10
13.3118516519
 20
6.8375225568
 30
0.0
 10
13.3018866534
 20
6.8215520995
 30
0.0
 10
13.2971409201
 20
6.813508666
 30
0.0
  0
SPLINE
  5
36B
100
AcDbEntity
  8
0
100
AcDbSpline
 62
7
  6
CONTINUOUS
 70
0
 71
3
 72
9
 73
5
 74
0
 42
0.0000001
 43
0.0000001
 44
0.0000000001
 40
0.0
 40
0.0
 40
0.0
 40
0.0
 40
0.5036789469
 40
1.0
 40
1.0
 40
1.0
 40
1.0
 10
13.7999277848
 20
6.0181748271
 30
0.0
 10
13.8054191625
 20
6.0258993828
 30
0.0
 10
13.8160491272
 20
6.0414319408
 30
0.0
 10
13.8260141257
 20
6.057402398
 30
0.0
 10
13.8307598589
 20
6.0654458315
 30
0.0
  0
SPLINE
  5
36C
100
AcDbEntity
  8
0
100
AcDbSpline
 62
7
  6
CONTINUOUS
 70
0
 71
3
 72
48
 73
44
 74
0
 42
0.0000001
 43
0.0000001
 44
0.0000000001
 40
0.0
 40
0.0
 40
0.0
 40
0.0
 40
0.0097389331
 40
0.0199692759
 40
0.0306880012
 40
0.0418900015
 40
0.0535689374
 40
0.0657169638
 40
0.0783248347
 40
0.0913824984
 40
0.1048785278
 40
0.1188008151
 40
0.147870313
 40
0.1784782009
 40
0.2104996873
 40
0.2438004739
 40
0.2782380488
 40
0.3136628595
 40
0.3499193674
 40
0.3868470433
 40
0.4242815132
 40
0.4620554849
 40
0.4999996819
 40
0.5379438951
 40
0.5757178797
 40
0.6131523917
 40
0.6500801357
 40
0.686336689
 40
0.7217615623
 40
0.7561992442
 40
0.7895001601
 40
0.8215217672
 40
0.8521297583
 40
0.88119937
 40
0.9086169206
 40
0.9216746511
 40
0.9342826454
 40
0.9464306875
 40
0.9581097709
 40
0.9693118403
 40
0.9800306133
 40
0.9902610501
 40
1.0
 40
1.0
 40
1.0
 40
1.0
 10
13.8434795942
 20
6.0870119445
 30
0.0
 10
13.8445960702
 20
6.0889048899
 30
0.0
 10
13.8468168315
 20
6.0928270205
 30
0.0
 10
13.850039901
 20
6.0989573227
 30
0.0
 10
13.8532331833
 20
6.1054729485
 30
0.0
 10
13.856393013
 20
6.1123660267
 30
0.0
 10
13.8595155259
 20
6.1196284726
 30
0.0
 10
13.8625969934
 20
6.127251657
 30
0.0
 10
13.865633828
 20
6.1352264994
 30
0.0
 10
13.8686222075
 20
6.1435435386
 30
0.0
 10
13.8715587441
 20
6.152192836
 30
0.0
 10
13.8754563063
 20
6.1643298069
 30
0.0
 10
13.8801595443
 20
6.1802611294
 30
0.0
 10
13.8854645379
 20
6.2002645552
 30
0.0
 10
13.8904831752
 20
6.2213244198
 30
0.0
 10
13.8951912513
 20
6.2433401518
 30
0.0
 10
13.8995660354
 20
6.2662067647
 30
0.0
 10
13.9035864232
 20
6.2898150658
 30
0.0
 10
13.9072330399
 20
6.3140522647
 30
0.0
 10
13.9104883589
 20
6.3388025106
 30
0.0
 10
13.9133367305
 20
6.3639474783
 30
0.0
 10
13.9157644746
 20
6.3893669414
 30
0.0
 10
13.9177599269
 20
6.4149393499
 30
0.0
 10
13.9193135322
 20
6.4405424037
 30
0.0
 10
13.9204178921
 20
6.4660536611
 30
0.0
 10
13.921067762
 20
6.4913511252
 30
0.0
 10
13.9212600922
 20
6.5163138284
 30
0.0
 10
13.9209940286
 20
6.540822414
 30
0.0
 10
13.9202709694
 20
6.5647597269
 30
0.0
 10
13.9190945403
 20
6.5880113873
 30
0.0
 10
13.917470564
 20
6.6104663491
 30
0.0
 10
13.9154070301
 20
6.6320174066
 30
0.0
 10
13.9129140905
 20
6.6525618565
 30
0.0
 10
13.9100039512
 20
6.6720016691
 30
0.0
 10
13.9071995553
 20
6.6874457154
 30
0.0
 10
13.9047439102
 20
6.6991706005
 30
0.0
 10
13.9028370122
 20
6.7074883665
 30
0.0
 10
13.9008372841
 20
6.7154639842
 30
0.0
 10
13.8987472065
 20
6.7230880002
 30
0.0
 10
13.896569115
 20
6.7303513246
 30
0.0
 10
13.8943057907
 20
6.7372454141
 30
0.0
 10
13.891959874
 20
6.7437620051
 30
0.0
 10
13.8903017474
 20
6.7479531548
 30
0.0
 10
13.8894572565
 20
6.7499820984
 30
0.0
  0
SPLINE
  5
36D
100
AcDbEntity
  8
0
100
AcDbSpline
 62
7
  6
CONTINUOUS
 70
0
 71
3
 72
23
 73
19
 74
0
 42
0.0000001
 43
0.0000001
 44
0.0000000001
 40
0.0
 40
0.0
 40
0.0
 40
0.0
 40
0.0431564952
 40
0.0883615305
 40
0.135868811
 40
0.1858947259
 40
0.2386072827
 40
0.294126757
 40
0.3525235726
 40
0.4138190087
 40
0.4779935037
 40
0.5449887634
 40
0.6147169638
 40
0.6870671637
 40
0.7619109932
 40
0.8391106358
 40
0.9185226417
 40
1.0
 40
1.0
 40
1.0
 40
1.0
 10
13.8848640652
 20
6.7610176911
 30
0.0
 10
13.8842259292
 20
6.7625515306
 30
0.0
 10
13.8827941633
 20
6.7656412235
 30
0.0
 10
13.8802497569
 20
6.7702155593
 30
0.0
 10
13.8772541224
 20
6.7748265937
 30
0.0
 10
13.8738018438
 20
6.7794711954
 30
0.0
 10
13.869892002
 20
6.784146981
 30
0.0
 10
13.8655274264
 20
6.7888508468
 30
0.0
 10
13.8607150312
 20
6.793579531
 30
0.0
 10
13.8554657871
 20
6.798329958
 30
0.0
 10
13.8497936703
 20
6.8030985805
 30
0.0
 10
13.8437157429
 20
6.8078822718
 30
0.0
 10
13.8372511736
 20
6.812677922
 30
0.0
 10
13.8304206346
 20
6.8174825685
 30
0.0
 10
13.8232458428
 20
6.8222937112
 30
0.0
 10
13.8157487471
 20
6.8271089734
 30
0.0
 10
13.8079513577
 20
6.8319263956
 30
0.0
 10
13.8026322708
 20
6.8350994431
 30
0.0
 10
13.7999277848
 20
6.8366878277
 30
0.0
  0
SPLINE
  5
36E
100
AcDbEntity
  8
0
100
AcDbSpline
 62
7
  6
CONTINUOUS
 70
0
 71
3
 72
23
 73
19
 74
0
 42
0.0000001
 43
0.0000001
 44
0.0000000001
 40
0.0
 40
0.0
 40
0.0
 40
0.0
 40
0.0431564952
 40
0.0883615305
 40
0.135868811
 40
0.1858947259
 40
0.2386072827
 40
0.294126757
 40
0.3525235726
 40
0.4138190087
 40
0.4779935037
 40
0.5449887634
 40
0.6147169638
 40
0.6870671637
 40
0.7619109932
 40
0.8391106358
 40
0.9185226417
 40
1.0
 40
1.0
 40
1.0
 40
1.0
 10
13.2430367139
 20
6.1179368065
 30
0.0
 10
13.2436748498
 20
6.1164029669
 30
0.0
 10
13.2451066157
 20
6.1133132741
 30
0.0
 10
13.2476510221
 20
6.1087389383
 30
0.0
 10
13.2506466566
 20
6.1041279038
 30
0.0
 10
13.2540989353
 20
6.0994833022
 30
0.0
 10
13.2580087771
 20
6.0948075165
 30
0.0
 10
13.2623733527
 20
6.0901036508
 30
0.0
 10
13.2671857479
 20
6.0853749666
 30
0.0
 10
13.2724349919
 20
6.0806245396
 30
0.0
 10
13.2781071087
 20
6.0758559171
 30
0.0
 10
13.2841850361
 20
6.0710722258
 30
0.0
 10
13.2906496055
 20
6.0662765756
 30
0.0
 10
13.2974801444
 20
6.0614719291
 30
0.0
 10
13.3046549362
 20
6.0566607864
 30
0.0
 10
13.3121520319
 20
6.0518455241
 30
0.0
 10
13.3199494214
 20
6.047028102
 30
0.0
 10
13.3252685082
 20
6.0438550545
 30
0.0
 10
13.3279729942
 20
6.0422666699
 30
0.0
  0
SPLINE
  5
36F
100
AcDbEntity
  8
0
100
AcDbSpline
 62
7
  6
CONTINUOUS
 70
0
 71
3
 72
82
 73
78
 74
0
 42
0.0000001
 43
0.0000001
 44
0.0000000001
 40
0.0
 40
0.0
 40
0.0
 40
0.0
 40
0.0042126141
 40
0.0086205856
 40
0.0132283213
 40
0.0180392969
 40
0.0230562542
 40
0.0282813092
 40
0.0393602922
 40
0.0512817504
 40
0.0640412942
 40
0.0776280187
 40
0.0920259451
 40
0.1072140907
 40
0.1231678577
 40
0.139858872
 40
0.1572559377
 40
0.1753249531
 40
0.194029389
 40
0.2133305816
 40
0.2331876847
 40
0.2535582625
 40
0.2743980137
 40
0.2956613989
 40
0.3173014364
 40
0.3615174099
 40
0.4066517702
 40
0.4522986339
 40
0.4980462199
 40
0.5434815783
 40
0.5881953554
 40
0.6101563442
 40
0.6317875238
 40
0.6530408102
 40
0.6738693543
 40
0.6942275511
 40
0.7140712102
 40
0.7333579061
 40
0.7520468321
 40
0.7700994422
 40
0.7874791255
 40
0.8041520352
 40
0.8200868636
 40
0.8352554743
 40
0.8496332437
 40
0.8631993776
 40
0.8759379721
 40
0.8878382196
 40
0.8988962844
 40
0.9041108821
 40
0.9091173096
 40
0.9139176833
 40
0.9185148694
 40
0.9229128306
 40
0.9271165654
 40
0.9311321803
 40
0.9349672214
 40
0.9386309288
 40
0.9421342356
 40
0.9454899989
 40
0.9487133417
 40
0.9518216401
 40
0.9548344804
 40
0.9577736258
 40
0.9606627395
 40
0.9635268073
 40
0.9663915367
 40
0.9692826113
 40
0.9722249193
 40
0.9752419796
 40
0.9783555023
 40
0.9815850507
 40
0.9849479557
 40
0.9884593561
 40
0.992131889
 40
0.9959758899
 40
1.0
 40
1.0
 40
1.0
 40
1.0
 10
13.8250338624
 20
6.7802125142
 30
0.0
 10
13.8242292249
 20
6.779435294
 30
0.0
 10
13.8226209638
 20
6.7778047494
 30
0.0
 10
13.8202636822
 20
6.7751988932
 30
0.0
 10
13.8179091726
 20
6.7723801606
 30
0.0
 10
13.8155591476
 20
6.7693504052
 30
0.0
 10
13.8132150293
 20
6.7661114763
 30
0.0
 10
13.8100369029
 20
6.7614246177
 30
0.0
 10
13.8060989969
 20
6.7550422317
 30
0.0
 10
13.8015065418
 20
6.7467265905
 30
0.0
 10
13.7969699506
 20
6.7376299568
 30
0.0
 10
13.7924999583
 20
6.7277739779
 30
0.0
 10
13.7881074339
 20
6.7171817656
 30
0.0
 10
13.7838027426
 20
6.7058785152
 30
0.0
 10
13.779596515
 20
6.6938911077
 30
0.0
 10
13.7754987471
 20
6.681248221
 30
0.0
 10
13.7715194802
 20
6.6679801113
 30
0.0
 10
13.7676683065
 20
6.6541186023
 30
0.0
 10
13.7639545255
 20
6.6396969747
 30
0.0
 10
13.7603872208
 20
6.6247498667
 30
0.0
 10
13.7569748849
 20
6.6093132194
 30
0.0
 10
13.7537259394
 20
6.5934241467
 30
0.0
 10
13.7506480863
 20
6.5771208897
 30
0.0
 10
13.7477488702
 20
6.5604426473
 30
0.0
 10
13.744104756
 20
6.5375952157
 30
0.0
 10
13.7400550862
 20
6.5083961434
 30
0.0
 10
13.7360394797
 20
6.4727679447
 30
0.0
 10
13.7328728758
 20
6.4366459347
 30
0.0
 10
13.7305857801
 20
6.4003775255
 30
0.0
 10
13.729200231
 20
6.3643115342
 30
0.0
 10
13.7288052185
 20
6.3345383623
 30
0.0
 10
13.7289582396
 20
6.3110875699
 30
0.0
 10
13.7293032244
 20
6.2938699748
 30
0.0
 10
13.7298782638
 20
6.2769594294
 30
0.0
 10
13.7306818926
 20
6.2603966084
 30
0.0
 10
13.7317121598
 20
6.2442213827
 30
0.0
 10
13.7329665838
 20
6.2284726642
 30
0.0
 10
13.7344420002
 20
6.2131883453
 30
0.0
 10
13.736134954
 20
6.1984051614
 30
0.0
 10
13.7380411284
 20
6.1841586517
 30
0.0
 10
13.7401560509
 20
6.1704830204
 30
0.0
 10
13.7424743985
 20
6.1574110778
 30
0.0
 10
13.7449906126
 20
6.144974135
 30
0.0
 10
13.7476985228
 20
6.1332019307
 30
0.0
 10
13.7505914757
 20
6.122122519
 30
0.0
 10
13.7536625859
 20
6.111762246
 30
0.0
 10
13.7569042251
 20
6.1021454404
 30
0.0
 10
13.7603089
 20
6.093294958
 30
0.0
 10
13.7633314272
 20
6.0864467933
 30
0.0
 10
13.7658347978
 20
6.0813798001
 30
0.0
 10
13.7677111232
 20
6.0778587268
 30
0.0
 10
13.7696219531
 20
6.0745441545
 30
0.0
 10
13.7715663168
 20
6.0714380939
 30
0.0
 10
13.7735430349
 20
6.0685423236
 30
0.0
 10
13.7755509737
 20
6.0658584979
 30
0.0
 10
13.7775890957
 20
6.0633882528
 30
0.0
 10
13.7796563604
 20
6.0611331073
 30
0.0
 10
13.7817516137
 20
6.0590943447
 30
0.0
 10
13.7838738026
 20
6.057273248
 30
0.0
 10
13.7860219589
 20
6.0556711804
 30
0.0
 10
13.788194937
 20
6.0542892756
 30
0.0
 10
13.7903915482
 20
6.0531286051
 30
0.0
 10
13.7926105684
 20
6.0521903576
 30
0.0
 10
13.7948505891
 20
6.0514756835
 30
0.0
 10
13.7971099224
 20
6.0509853028
 30
0.0
 10
13.7993867782
 20
6.0507198334
 30
0.0
 10
13.8016792287
 20
6.0506797693
 30
0.0
 10
13.803985273
 20
6.0508649708
 30
0.0
 10
13.8063030315
 20
6.0512749054
 30
0.0
 10
13.8086307731
 20
6.0519089796
 30
0.0
 10
13.8109669131
 20
6.052766486
 30
0.0
 10
13.8133101291
 20
6.0538463831
 30
0.0
 10
13.8156592058
 20
6.0551477315
 30
0.0
 10
13.8180128343
 20
6.05666964
 30
0.0
 10
13.8203697295
 20
6.0584108835
 30
0.0
 10
13.8227284658
 20
6.0603699532
 30
0.0
 10
13.8242652305
 20
6.0617871412
 30
0.0
 10
13.8250338624
 20
6.0625295827
 30
0.0
  0
SPLINE
  5
370
100
AcDbEntity
  8
0
100
AcDbSpline
 62
7
  6
CONTINUOUS
 70
0
 71
3
 72
14
 73
10
 74
0
 42
0.0000001
 43
0.0000001
 44
0.0000000001
 40
0.0
 40
0.0
 40
0.0
 40
0.0
 40
0.1072909574
 40
0.2194733844
 40
0.3366564288
 40
0.4589265438
 40
0.586352182
 40
0.7189866208
 40
1.0
 40
1.0
 40
1.0
 40
1.0
 10
13.8250338624
 20
6.0625295827
 30
0.0
 10
13.8258246242
 20
6.0632934
 30
0.0
 10
13.8274051911
 20
6.0648945348
 30
0.0
 10
13.8297227997
 20
6.0674510024
 30
0.0
 10
13.8320377867
 20
6.0702133007
 30
0.0
 10
13.8343485221
 20
6.0731796582
 30
0.0
 10
13.8366536461
 20
6.076348353
 30
0.0
 10
13.8397783287
 20
6.0809291624
 30
0.0
 10
13.8420166981
 20
6.0845316561
 30
0.0
 10
13.8434795942
 20
6.0870119445
 30
0.0
  0
SPLINE
  5
371
100
AcDbEntity
  8
0
100
AcDbSpline
 62
7
  6
CONTINUOUS
 70
0
 71
3
 72
70
 73
66
 74
0
 42
0.0000001
 43
0.0000001
 44
0.0000000001
 40
0.0
 40
0.0
 40
0.0
 40
0.0
 40
0.0086049324
 40
0.0180052307
 40
0.0282254804
 40
0.0392797495
 40
0.0511729237
 40
0.063900523
 40
0.0774520617
 40
0.0918113598
 40
0.1069581446
 40
0.122867706
 40
0.1395122875
 40
0.1568607528
 40
0.1748795425
 40
0.1935323838
 40
0.212781006
 40
0.2325849685
 40
0.2529021726
 40
0.2736888122
 40
0.3164872199
 40
0.3606050409
 40
0.4056504503
 40
0.4512208273
 40
0.4969076023
 40
0.5423008346
 40
0.5869939551
 40
0.6305884364
 40
0.6726985392
 40
0.6930817648
 40
0.7129574968
 40
0.7322835308
 40
0.7510190676
 40
0.7691256613
 40
0.7865666484
 40
0.8033081676
 40
0.8193186554
 40
0.8345699444
 40
0.8490368885
 40
0.8626985316
 40
0.8755380858
 40
0.8875443175
 40
0.8987120867
 40
0.9090442127
 40
0.9185531454
 40
0.9272639615
 40
0.9313333793
 40
0.9352205339
 40
0.9389339241
 40
0.9424837433
 40
0.9491393423
 40
0.952280112
 40
0.955318908
 40
0.9582766988
 40
0.961176353
 40
0.9640422513
 40
0.9668997471
 40
0.9697744089
 40
0.9726912864
 40
0.9756743013
 40
0.9787457299
 40
0.9852278793
 40
0.9886772019
 40
0.9922824423
 40
1.0
 40
1.0
 40
1.0
 40
1.0
 10
13.8250338624
 20
6.1663666152
 30
0.0
 10
13.8261999915
 20
6.1674930094
 30
0.0
 10
13.8285249832
 20
6.1699704349
 30
0.0
 10
13.8318526691
 20
6.1741240571
 30
0.0
 10
13.8351632526
 20
6.1788660231
 30
0.0
 10
13.8384493072
 20
6.1841848663
 30
0.0
 10
13.8417034859
 20
6.1900689411
 30
0.0
 10
13.8449184797
 20
6.1965046771
 30
0.0
 10
13.8480863899
 20
6.2034771936
 30
0.0
 10
13.8511999102
 20
6.2109700604
 30
0.0
 10
13.8542513878
 20
6.2189656619
 30
0.0
 10
13.857233675
 20
6.2274450354
 30
0.0
 10
13.8601394293
 20
6.2363880608
 30
0.0
 10
13.8629617993
 20
6.2457734376
 30
0.0
 10
13.8656938739
 20
6.2555788061
 30
0.0
 10
13.8683291733
 20
6.2657807645
 30
0.0
 10
13.8708612795
 20
6.2763549514
 30
0.0
 10
13.8732841519
 20
6.2872760949
 30
0.0
 10
13.8755919538
 20
6.298518106
 30
0.0
 10
13.8785367099
 20
6.3140504007
 30
0.0
 10
13.8818804811
 20
6.3340688513
 30
0.0
 10
13.8853171658
 20
6.35869656
 30
0.0
 10
13.888182626
 20
6.383922923
 30
0.0
 10
13.890449294
 20
6.4095067822
 30
0.0
 10
13.8920953942
 20
6.4352037158
 30
0.0
 10
13.8931052236
 20
6.4607681278
 30
0.0
 10
13.8934693111
 20
6.4859557875
 30
0.0
 10
13.8931844194
 20
6.5105258987
 30
0.0
 10
13.8924008006
 20
6.5305021775
 30
0.0
 10
13.8914406867
 20
6.5459925861
 30
0.0
 10
13.8905697179
 20
6.5571859879
 30
0.0
 10
13.8895424529
 20
6.5680543573
 30
0.0
 10
13.8883611655
 20
6.5785717582
 30
0.0
 10
13.887028925
 20
6.5887130475
 30
0.0
 10
13.8855487705
 20
6.5984540277
 30
0.0
 10
13.8839244884
 20
6.6077714579
 30
0.0
 10
13.882159833
 20
6.616643149
 30
0.0
 10
13.8802592667
 20
6.6250480142
 30
0.0
 10
13.8782272187
 20
6.6329661203
 30
0.0
 10
13.8760687641
 20
6.6403787788
 30
0.0
 10
13.8737889352
 20
6.6472685593
 30
0.0
 10
13.8713932913
 20
6.653619449
 30
0.0
 10
13.8688873252
 20
6.6594167691
 30
0.0
 10
13.8662767615
 20
6.6646475569
 30
0.0
 10
13.8635672901
 20
6.6692997845
 30
0.0
 10
13.8611797439
 20
6.6727614919
 30
0.0
 10
13.8592188037
 20
6.6752158573
 30
0.0
 10
13.8577608137
 20
6.6768630757
 30
0.0
 10
13.8562826471
 20
6.678357886
 30
0.0
 10
13.8543284626
 20
6.6801082242
 30
0.0
 10
13.8522930506
 20
6.6816026788
 30
0.0
 10
13.8501851832
 20
6.682792857
 30
0.0
 10
13.8486182963
 20
6.683511516
 30
0.0
 10
13.8470363269
 20
6.6840725655
 30
0.0
 10
13.84544028
 20
6.6844754234
 30
0.0
 10
13.8438313851
 20
6.6847194721
 30
0.0
 10
13.8422109945
 20
6.6848043404
 30
0.0
 10
13.8405805128
 20
6.6847301369
 30
0.0
 10
13.8389413085
 20
6.6844970918
 30
0.0
 10
13.837294553
 20
6.6841054625
 30
0.0
 10
13.8350507603
 20
6.6833594425
 30
0.0
 10
13.832830374
 20
6.6822974516
 30
0.0
 10
13.8306539351
 20
6.6809655167
 30
0.0
 10
13.8283766954
 20
6.6793623453
 30
0.0
 10
13.8267451308
 20
6.6779793535
 30
0.0
 10
13.8256806261
 20
6.6769887692
 30
0.0
  0
SPLINE
  5
372
100
AcDbEntity
  8
0
100
AcDbSpline
 62
7
  6
CONTINUOUS
 70
0
 71
3
 72
60
 73
56
 74
0
 42
0.0000001
 43
0.0000001
 44
0.0000000001
 40
0.0
 40
0.0
 40
0.0
 40
0.0
 40
0.0027165323
 40
0.0054534393
 40
0.0082306093
 40
0.0110669845
 40
0.0169824439
 40
0.0233277652
 40
0.0301995488
 40
0.0376706549
 40
0.0457931172
 40
0.0546033331
 40
0.0641243643
 40
0.0743698339
 40
0.0853450589
 40
0.0970492892
 40
0.1094764582
 40
0.1226160803
 40
0.1364542293
 40
0.1509734229
 40
0.1661538748
 40
0.1819727402
 40
0.198405546
 40
0.2154252781
 40
0.233003597
 40
0.2511101208
 40
0.2697132147
 40
0.2887797636
 40
0.3281638977
 40
0.3689760816
 40
0.4109143505
 40
0.4536656339
 40
0.4969089281
 40
0.5403185055
 40
0.5835670649
 40
0.6263287846
 40
0.6682826166
 40
0.7091152495
 40
0.748524584
 40
0.786222829
 40
0.8219402436
 40
0.8389784587
 40
0.8554303746
 40
0.8712694539
 40
0.8864705928
 40
0.9010114544
 40
0.9148716034
 40
0.928033928
 40
0.9404841342
 40
0.952211693
 40
0.9632102174
 40
0.9734787456
 40
0.9830234441
 40
0.9918569463
 40
1.0
 40
1.0
 40
1.0
 40
1.0
 10
13.8106926712
 20
6.6554239964
 30
0.0
 10
13.8111266076
 20
6.655393915
 30
0.0
 10
13.8119955182
 20
6.6552942558
 30
0.0
 10
13.8132877952
 20
6.6550274517
 30
0.0
 10
13.8145703336
 20
6.6546434203
 30
0.0
 10
13.8162897986
 20
6.6539665017
 30
0.0
 10
13.8184235471
 20
6.6528085379
 30
0.0
 10
13.8208895772
 20
6.6509767592
 30
0.0
 10
13.8232961333
 20
6.6486902807
 30
0.0
 10
13.8256400474
 20
6.6459546338
 30
0.0
 10
13.8279192046
 20
6.6427755127
 30
0.0
 10
13.8301299546
 20
6.6391585979
 30
0.0
 10
13.8322690295
 20
6.6351107152
 30
0.0
 10
13.8343323255
 20
6.6306393183
 30
0.0
 10
13.8363161471
 20
6.6257529896
 30
0.0
 10
13.8382165172
 20
6.620461132
 30
0.0
 10
13.8400296969
 20
6.6147741048
 30
0.0
 10
13.8417520894
 20
6.6087031137
 30
0.0
 10
13.843380105
 20
6.6022601847
 30
0.0
 10
13.8449106048
 20
6.5954581409
 30
0.0
 10
13.8463402807
 20
6.5883105511
 30
0.0
 10
13.847666444
 20
6.5808317103
 30
0.0
 10
13.8488861727
 20
6.5730366009
 30
0.0
 10
13.8499971919
 20
6.5649408428
 30
0.0
 10
13.8509970625
 20
6.5565606838
 30
0.0
 10
13.8518838848
 20
6.547912946
 30
0.0
 10
13.8526557788
 20
6.5390149892
 30
0.0
 10
13.8535391458
 20
6.5267082338
 30
0.0
 10
13.854336564
 20
6.5108318539
 30
0.0
 10
13.8548074159
 20
6.4912790293
 30
0.0
 10
13.8547979541
 20
6.4711814411
 30
0.0
 10
13.8543080851
 20
6.4507005671
 30
0.0
 10
13.853341584
 20
6.4300008496
 30
0.0
 10
13.8519061464
 20
6.4092485631
 30
0.0
 10
13.8500133019
 20
6.388610402
 30
0.0
 10
13.8476783195
 20
6.3682521275
 30
0.0
 10
13.8449200934
 20
6.3483372218
 30
0.0
 10
13.8417609866
 20
6.3290255472
 30
0.0
 10
13.838226685
 20
6.3104719555
 30
0.0
 10
13.8343459136
 20
6.2928253158
 30
0.0
 10
13.8307961
 20
6.278780322
 30
0.0
 10
13.8277946724
 20
6.2681122771
 30
0.0
 10
13.825512536
 20
6.260549894
 30
0.0
 10
13.8231687367
 20
6.2533149539
 30
0.0
 10
13.8207677538
 20
6.2464219557
 30
0.0
 10
13.818314667
 20
6.2398846519
 30
0.0
 10
13.8158142331
 20
6.2337161097
 30
0.0
 10
13.8132716353
 20
6.227928562
 30
0.0
 10
13.8106918608
 20
6.2225334937
 30
0.0
 10
13.8080801333
 20
6.2175415531
 30
0.0
 10
13.8054416858
 20
6.2129624538
 30
0.0
 10
13.8027814853
 20
6.2088050425
 30
0.0
 10
13.8001044953
 20
6.2050770212
 30
0.0
 10
13.7974158926
 20
6.2017861082
 30
0.0
 10
13.795545023
 20
6.1998092472
 30
0.0
 10
13.7946071971
 20
6.1989033769
 30
0.0
  0
SPLINE
  5
373
100
AcDbEntity
  8
0
100
AcDbSpline
 62
7
  6
CONTINUOUS
 70
0
 71
3
 72
24
 73
20
 74
0
 42
0.0000001
 43
0.0000001
 44
0.0000000001
 40
0.0
 40
0.0
 40
0.0
 40
0.0
 40
0.0742734793
 40
0.1440762525
 40
0.2097792464
 40
0.271849545
 40
0.3308542702
 40
0.3874690277
 40
0.44246948
 40
0.4967065375
 40
0.5510708484
 40
0.6064450017
 40
0.6636616822
 40
0.7234707779
 40
0.7545641414
 40
0.7865399444
 40
0.8533738994
 40
0.9244168915
 40
1.0
 40
1.0
 40
1.0
 40
1.0
 10
13.7903879041
 20
6.1681134633
 30
0.0
 10
13.7910203211
 20
6.16733586
 30
0.0
 10
13.7922960451
 20
6.1658661478
 30
0.0
 10
13.7943089151
 20
6.1638714151
 30
0.0
 10
13.7963580417
 20
6.1621598786
 30
0.0
 10
13.7984415938
 20
6.1607338561
 30
0.0
 10
13.8005580167
 20
6.1595959566
 30
0.0
 10
13.8027051669
 20
6.1587488605
 30
0.0
 10
13.8048801199
 20
6.1581947791
 30
0.0
 10
13.8070792812
 20
6.1579358746
 30
0.0
 10
13.8092982967
 20
6.1579728275
 30
0.0
 10
13.8115329527
 20
6.1583048657
 30
0.0
 10
13.8137793913
 20
6.1589306397
 30
0.0
 10
13.815634867
 20
6.1596852883
 30
0.0
 10
13.8171189625
 20
6.1604261825
 30
0.0
 10
13.8186476473
 20
6.1612855079
 30
0.0
 10
13.8205643037
 20
6.1625485363
 30
0.0
 10
13.8228337731
 20
6.164326875
 30
0.0
 10
13.8243002374
 20
6.1656579878
 30
0.0
 10
13.8250338624
 20
6.1663666152
 30
0.0
  0
SPLINE
  5
374
100
AcDbEntity
  8
0
100
AcDbSpline
 62
7
  6
CONTINUOUS
 70
0
 71
3
 72
16
 73
12
 74
0
 42
0.0000001
 43
0.0000001
 44
0.0000000001
 40
0.0
 40
0.0
 40
0.0
 40
0.0
 40
0.1081449679
 40
0.2181179763
 40
0.3316532928
 40
0.4503172522
 40
0.5120254073
 40
0.575505594
 40
0.7082719257
 40
0.849540775
 40
1.0
 40
1.0
 40
1.0
 40
1.0
 10
13.7785217231
 20
6.1915382933
 30
0.0
 10
13.7791768889
 20
6.1914928757
 30
0.0
 10
13.7805062332
 20
6.191491383
 30
0.0
 10
13.7825080032
 20
6.1917587132
 30
0.0
 10
13.7845211225
 20
6.1922942864
 30
0.0
 10
13.7861838784
 20
6.1929538225
 30
0.0
 10
13.7875136743
 20
6.1936065634
 30
0.0
 10
13.7888839311
 20
6.1943669515
 30
0.0
 10
13.7906021978
 20
6.1954899565
 30
0.0
 10
13.7926363557
 20
6.1970774477
 30
0.0
 10
13.7939500124
 20
6.1982685853
 30
0.0
 10
13.7946071971
 20
6.1989033769
 30
0.0
  0
LINE
  5
375
100
AcDbEntity
  8
0
100
AcDbLine
 62
7
  6
CONTINUOUS
 10
13.7957557901
 20
6.8329540643
 11
13.7915837953
 21
6.8286281523
  0
LINE
  5
376
100
AcDbEntity
  8
0
100
AcDbLine
 62
7
  6
CONTINUOUS
 10
13.7999277848
 20
6.8366878277
 11
13.7957557901
 21
6.8329540643
  0
SPLINE
  5
377
100
AcDbEntity
  8
0
100
AcDbSpline
 62
7
  6
CONTINUOUS
 70
0
 71
3
 72
9
 73
5
 74
0
 42
0.0000001
 43
0.0000001
 44
0.0000000001
 40
0.0
 40
0.0
 40
0.0
 40
0.0
 40
0.5136270418
 40
1.0
 40
1.0
 40
1.0
 40
1.0
 10
13.8894572565
 20
6.7499820984
 30
0.0
 10
13.888656674
 20
6.7519055493
 30
0.0
 10
13.8870350762
 20
6.7556246276
 30
0.0
 10
13.8852720923
 20
6.7592791706
 30
0.0
 10
13.884376004
 20
6.761036783
 30
0.0
  0
SPLINE
  5
378
100
AcDbEntity
  8
0
100
AcDbSpline
 62
7
  6
CONTINUOUS
 70
0
 71
3
 72
29
 73
25
 74
0
 42
0.0000001
 43
0.0000001
 44
0.0000000001
 40
0.0
 40
0.0
 40
0.0
 40
0.0
 40
0.0870734743
 40
0.1680640781
 40
0.2431670875
 40
0.3126708179
 40
0.37698417
 40
0.4073738403
 40
0.4366881623
 40
0.49246044
 40
0.5191805908
 40
0.545285973
 40
0.5709205513
 40
0.596237058
 40
0.6213943798
 40
0.6465547803
 40
0.6718804554
 40
0.6975298913
 40
0.7236551247
 40
0.7503995476
 40
0.8062343034
 40
0.8659936354
 40
0.930405079
 40
1.0
 40
1.0
 40
1.0
 40
1.0
 10
13.884376004
 20
6.761036783
 30
0.0
 10
13.8833636302
 20
6.7630224811
 30
0.0
 10
13.8813139672
 20
6.7668077674
 30
0.0
 10
13.8780291902
 20
6.7720997297
 30
0.0
 10
13.8746512896
 20
6.7767901283
 30
0.0
 10
13.8711849265
 20
6.7808707703
 30
0.0
 10
13.8681703719
 20
6.7838114807
 30
0.0
 10
13.8657195284
 20
6.7858319489
 30
0.0
 10
13.8633309223
 20
6.7875751568
 30
0.0
 10
13.8608627812
 20
6.7890445714
 30
0.0
 10
13.8583315185
 20
6.7901987872
 30
0.0
 10
13.8564445275
 20
6.7908924923
 30
0.0
 10
13.8545433573
 20
6.7914258138
 30
0.0
 10
13.8526288961
 20
6.7917984706
 30
0.0
 10
13.8507021931
 20
6.7920101445
 30
0.0
 10
13.8487643172
 20
6.7920605715
 30
0.0
 10
13.8468163801
 20
6.7919497856
 30
0.0
 10
13.8448594743
 20
6.7916780563
 30
0.0
 10
13.84289455
 20
6.7912456282
 30
0.0
 10
13.8402276002
 20
6.790443969
 30
0.0
 10
13.8368617603
 20
6.7890168785
 30
0.0
 10
13.8328713261
 20
6.786692792
 30
0.0
 10
13.828875705
 20
6.7837401808
 30
0.0
 10
13.8263151914
 20
6.7814501829
 30
0.0
 10
13.8250338624
 20
6.7802125142
 30
0.0
  0
SPLINE
  5
379
100
AcDbEntity
  8
0
100
AcDbSpline
 62
7
  6
CONTINUOUS
 70
0
 71
3
 72
23
 73
19
 74
0
 42
0.0000001
 43
0.0000001
 44
0.0000000001
 40
0.0
 40
0.0
 40
0.0
 40
0.0
 40
0.0586211128
 40
0.1174346959
 40
0.1765062528
 40
0.2359131643
 40
0.2957408914
 40
0.3560799366
 40
0.4170199247
 40
0.4786429489
 40
0.5410167937
 40
0.604189535
 40
0.6681865844
 40
0.733010508
 40
0.7986434974
 40
0.8650510799
 40
0.9321878389
 40
1.0
 40
1.0
 40
1.0
 40
1.0
 10
13.7915837953
 20
6.8286281523
 30
0.0
 10
13.7918756053
 20
6.8228333959
 30
0.0
 10
13.7922597935
 20
6.8112135487
 30
0.0
 10
13.7921769827
 20
6.7937394616
 30
0.0
 10
13.7913736013
 20
6.7762047972
 30
0.0
 10
13.7897890395
 20
6.7586218989
 30
0.0
 10
13.7873676888
 20
6.7410072237
 30
0.0
 10
13.7840628463
 20
6.7233817948
 30
0.0
 10
13.7798405691
 20
6.7057702788
 30
0.0
 10
13.774682933
 20
6.688199628
 30
0.0
 10
13.76858995
 20
6.6706971555
 30
0.0
 10
13.7615797501
 20
6.65328846
 30
0.0
 10
13.7536868766
 20
6.6359956309
 30
0.0
 10
13.7449591871
 20
6.6188360025
 30
0.0
 10
13.7354539956
 20
6.6018216628
 30
0.0
 10
13.7252340442
 20
6.5849594203
 30
0.0
 10
13.7143641369
 20
6.5682517269
 30
0.0
 10
13.7067624435
 20
6.5572668716
 30
0.0
 10
13.70287357
 20
6.5517965103
 30
0.0
  0
SPLINE
  5
37A
100
AcDbEntity
  8
0
100
AcDbSpline
 62
7
  6
CONTINUOUS
 70
0
 71
3
 72
22
 73
18
 74
0
 42
0.0000001
 43
0.0000001
 44
0.0000000001
 40
0.0
 40
0.0
 40
0.0
 40
0.0
 40
0.0635429418
 40
0.1269840831
 40
0.1903101448
 40
0.2535088917
 40
0.3165679054
 40
0.379476323
 40
0.4422254189
 40
0.5048095434
 40
0.5672267033
 40
0.6294788238
 40
0.691571562
 40
0.7535136719
 40
0.8153162412
 40
0.8769914434
 40
1.0
 40
1.0
 40
1.0
 40
1.0
 10
13.6987015753
 20
6.5207984508
 30
0.0
 10
13.7007993402
 20
6.5128678358
 30
0.0
 10
13.7048080038
 20
6.4969699502
 30
0.0
 10
13.7102030797
 20
6.4729977329
 30
0.0
 10
13.7149129214
 20
6.4489260748
 30
0.0
 10
13.7188748364
 20
6.424769481
 30
0.0
 10
13.7220296354
 20
6.4005480388
 30
0.0
 10
13.7243252767
 20
6.3762878838
 30
0.0
 10
13.7257207919
 20
6.3520203263
 30
0.0
 10
13.7261898489
 20
6.3277803791
 30
0.0
 10
13.7257232738
 20
6.3036045046
 30
0.0
 10
13.724330024
 20
6.2795280152
 30
0.0
 10
13.7220362529
 20
6.2555825223
 30
0.0
 10
13.7188828577
 20
6.231794124
 30
0.0
 10
13.7149217657
 20
6.2081817748
 30
0.0
 10
13.7086487441
 20
6.1769808335
 30
0.0
 10
13.7029065034
 20
6.1538237068
 30
0.0
 10
13.6987015753
 20
6.1385101722
 30
0.0
  0
SPLINE
  5
37B
100
AcDbEntity
  8
0
100
AcDbSpline
 62
7
  6
CONTINUOUS
 70
0
 71
3
 72
21
 73
17
 74
0
 42
0.0000001
 43
0.0000001
 44
0.0000000001
 40
0.0
 40
0.0
 40
0.0
 40
0.0
 40
0.1331470749
 40
0.1987083168
 40
0.2635761731
 40
0.3277556561
 40
0.3912646943
 40
0.4541342655
 40
0.5164072725
 40
0.5781359935
 40
0.6393791442
 40
0.7001990681
 40
0.7606583474
 40
0.820816806
 40
0.8807298152
 40
1.0
 40
1.0
 40
1.0
 40
1.0
 10
13.2971409201
 20
6.813508666
 30
0.0
 10
13.2917174131
 20
6.8043164895
 30
0.0
 10
13.2840091442
 20
6.7903620509
 30
0.0
 10
13.2747359649
 20
6.7713742999
 30
0.0
 10
13.2683923169
 20
6.7571188082
 30
0.0
 10
13.2626502258
 20
6.7427875298
 30
0.0
 10
13.2575285936
 20
6.7283925588
 30
0.0
 10
13.2530387026
 20
6.7139480154
 30
0.0
 10
13.2491835597
 20
6.6994688408
 30
0.0
 10
13.245958053
 20
6.6849701135
 30
0.0
 10
13.2433491882
 20
6.6704663466
 30
0.0
 10
13.2413366269
 20
6.6559708522
 30
0.0
 10
13.2398945126
 20
6.6414952868
 30
0.0
 10
13.2389928417
 20
6.6270490015
 30
0.0
 10
13.2384679175
 20
6.6078680651
 30
0.0
 10
13.2387819327
 20
6.5934964647
 30
0.0
 10
13.2392627689
 20
6.5839480285
 30
0.0
  0
SPLINE
  5
37C
100
AcDbEntity
  8
0
100
AcDbSpline
 62
7
  6
CONTINUOUS
 70
0
 71
3
 72
49
 73
45
 74
0
 42
0.0000001
 43
0.0000001
 44
0.0000000001
 40
0.0
 40
0.0
 40
0.0
 40
0.0
 40
0.0097390542
 40
0.0199695064
 40
0.0306883356
 40
0.0418904705
 40
0.0535694545
 40
0.0657175914
 40
0.0783255518
 40
0.0913832533
 40
0.104879393
 40
0.1188016913
 40
0.1478713282
 40
0.1784792758
 40
0.2105007645
 40
0.2438015465
 40
0.2782391287
 40
0.3136639243
 40
0.3499203451
 40
0.3868479223
 40
0.4242822997
 40
0.4620561674
 40
0.5000002331
 40
0.5379443009
 40
0.5757181664
 40
0.6131525242
 40
0.650080098
 40
0.6863365047
 40
0.7217612721
 40
0.7561988412
 40
0.7894995843
 40
0.8215210478
 40
0.8521289756
 40
0.8811985595
 40
0.8951208452
 40
0.9086169619
 40
0.9216746546
 40
0.9342825835
 40
0.9464306963
 40
0.9581096808
 40
0.9693117916
 40
0.9800305822
 40
0.9902609597
 40
1.0
 40
1.0
 40
1.0
 40
1.0
 10
13.2734976746
 20
6.7734219207
 30
0.0
 10
13.2724458238
 20
6.7716384973
 30
0.0
 10
13.2703536188
 20
6.767943293
 30
0.0
 10
13.2673171006
 20
6.7621677029
 30
0.0
 10
13.2643086357
 20
6.7560290927
 30
0.0
 10
13.2613317313
 20
6.7495348714
 30
0.0
 10
13.2583899254
 20
6.7426926855
 30
0.0
 10
13.2554868458
 20
6.7355106267
 30
0.0
 10
13.2526257973
 20
6.7279972742
 30
0.0
 10
13.2498103674
 20
6.7201615418
 30
0.0
 10
13.2470438481
 20
6.7120127759
 30
0.0
 10
13.2433718464
 20
6.7005781935
 30
0.0
 10
13.2389408985
 20
6.6855688429
 30
0.0
 10
13.2339429724
 20
6.6667230863
 30
0.0
 10
13.2292148341
 20
6.6468820639
 30
0.0
 10
13.2247792766
 20
6.6261405101
 30
0.0
 10
13.2206577473
 20
6.6045973205
 30
0.0
 10
13.2168701043
 20
6.5823553879
 30
0.0
 10
13.2134345709
 20
6.5595209841
 30
0.0
 10
13.2103676807
 20
6.5362032443
 30
0.0
 10
13.2076841952
 20
6.5125136304
 30
0.0
 10
13.2053970186
 20
6.4885654129
 30
0.0
 10
13.2035170912
 20
6.4644731161
 30
0.0
 10
13.2020534114
 20
6.440351953
 30
0.0
 10
13.2010129731
 20
6.4163172783
 30
0.0
 10
13.2004007484
 20
6.3924840279
 30
0.0
 10
13.2002195872
 20
6.3689661705
 30
0.0
 10
13.2004702563
 20
6.345876138
 30
0.0
 10
13.2011514494
 20
6.3233243032
 30
0.0
 10
13.2022597887
 20
6.3014184397
 30
0.0
 10
13.2037897997
 20
6.2802631898
 30
0.0
 10
13.205733898
 20
6.2599594657
 30
0.0
 10
13.2080825799
 20
6.2406042418
 30
0.0
 10
13.2103992853
 20
6.2251269613
 30
0.0
 10
13.2124577446
 20
6.2132949891
 30
0.0
 10
13.2140729649
 20
6.2048423615
 30
0.0
 10
13.2157798197
 20
6.1966930198
 30
0.0
 10
13.2175763686
 20
6.1888566777
 30
0.0
 10
13.2194602782
 20
6.1813426547
 30
0.0
 10
13.2214294512
 20
6.1741599019
 30
0.0
 10
13.2234814336
 20
6.1673169458
 30
0.0
 10
13.2256137317
 20
6.1608218477
 30
0.0
 10
13.2278239247
 20
6.1546824194
 30
0.0
 10
13.2293860317
 20
6.1507338096
 30
0.0
 10
13.2301816414
 20
6.1488222704
 30
0.0
  0
SPLINE
  5
37D
100
AcDbEntity
  8
0
100
AcDbSpline
 62
7
  6
CONTINUOUS
 70
0
 71
3
 72
22
 73
18
 74
0
 42
0.0000001
 43
0.0000001
 44
0.0000000001
 40
0.0
 40
0.0
 40
0.0
 40
0.0
 40
0.1230085566
 40
0.1846837589
 40
0.2464863281
 40
0.3084284381
 40
0.3705211762
 40
0.4327732967
 40
0.4951904566
 40
0.5577745812
 40
0.6205236771
 40
0.6834320946
 40
0.7464911083
 40
0.8096898553
 40
0.8730159169
 40
0.9364570582
 40
1.0
 40
1.0
 40
1.0
 40
1.0
 10
13.2350907742
 20
6.552949969
 30
0.0
 10
13.2308858461
 20
6.5376364345
 30
0.0
 10
13.2251436054
 20
6.5144793078
 30
0.0
 10
13.2188705838
 20
6.4832783665
 30
0.0
 10
13.2149094918
 20
6.4596660173
 30
0.0
 10
13.2117560966
 20
6.435877619
 30
0.0
 10
13.2094623255
 20
6.4119321261
 30
0.0
 10
13.2080690757
 20
6.3878556367
 30
0.0
 10
13.2076025006
 20
6.3636797622
 30
0.0
 10
13.2080715576
 20
6.339439815
 30
0.0
 10
13.2094670728
 20
6.3151722575
 30
0.0
 10
13.2117627141
 20
6.2909121025
 30
0.0
 10
13.2149175131
 20
6.2666906603
 30
0.0
 10
13.2188794281
 20
6.2425340665
 30
0.0
 10
13.2235892698
 20
6.2184624084
 30
0.0
 10
13.2289843457
 20
6.1944901911
 30
0.0
 10
13.2329930093
 20
6.1785923055
 30
0.0
 10
13.2350907742
 20
6.1706616905
 30
0.0
  0
SPLINE
  5
37E
100
AcDbEntity
  8
0
100
AcDbSpline
 62
7
  6
CONTINUOUS
 70
0
 71
3
 72
30
 73
26
 74
0
 42
0.0000001
 43
0.0000001
 44
0.0000000001
 40
0.0
 40
0.0
 40
0.0
 40
0.0
 40
0.0915795749
 40
0.1797257408
 40
0.2641051457
 40
0.3444024847
 40
0.4203421012
 40
0.4917188532
 40
0.5256625922
 40
0.5584375165
 40
0.5900510682
 40
0.620522291
 40
0.6498780411
 40
0.6781581328
 40
0.7316780426
 40
0.7815940308
 40
0.8053999215
 40
0.8285436077
 40
0.8511130663
 40
0.8731957344
 40
0.8948783936
 40
0.9162439938
 40
0.937371227
 40
0.9583328099
 40
1.0
 40
1.0
 40
1.0
 40
1.0
 10
13.70287357
 20
6.1155717882
 30
0.0
 10
13.7067134602
 20
6.1133165639
 30
0.0
 10
13.7142067577
 20
6.108817553
 30
0.0
 10
13.7250613552
 20
6.1019516448
 30
0.0
 10
13.7352672043
 20
6.0950941938
 30
0.0
 10
13.7447611762
 20
6.0882516105
 30
0.0
 10
13.7534821597
 20
6.081431387
 30
0.0
 10
13.7601674812
 20
6.0756807407
 30
0.0
 10
13.7650685683
 20
6.0710891047
 30
0.0
 10
13.7684577865
 20
6.0677150818
 30
0.0
 10
13.7716182618
 20
6.0643540473
 30
0.0
 10
13.7745475401
 20
6.0610075879
 30
0.0
 10
13.7772436821
 20
6.0576764003
 30
0.0
 10
13.7804681196
 20
6.0533368967
 30
0.0
 10
13.7839498497
 20
6.0479494351
 30
0.0
 10
13.7867779881
 20
6.0424322773
 30
0.0
 10
13.7885708531
 20
6.0380742752
 30
0.0
 10
13.7896789671
 20
6.0348785963
 30
0.0
 10
13.7905778757
 20
6.0317049292
 30
0.0
 10
13.7912739438
 20
6.0285534075
 30
0.0
 10
13.7917744498
 20
6.0254242818
 30
0.0
 10
13.7920867273
 20
6.0223175961
 30
0.0
 10
13.7922184165
 20
6.0192330789
 30
0.0
 10
13.7921640297
 20
6.0151591825
 30
0.0
 10
13.7918754405
 20
6.0121201739
 30
0.0
 10
13.7915837953
 20
6.0101151516
 30
0.0
  0
SPLINE
  5
37F
100
AcDbEntity
  8
0
100
AcDbSpline
 62
7
  6
CONTINUOUS
 70
0
 71
3
 72
15
 73
11
 74
0
 42
0.0000001
 43
0.0000001
 44
0.0000000001
 40
0.0
 40
0.0
 40
0.0
 40
0.0
 40
0.1196840791
 40
0.2397325473
 40
0.3606438408
 40
0.4829882744
 40
0.607400808
 40
0.7345620617
 40
0.8651874527
 40
1.0
 40
1.0
 40
1.0
 40
1.0
 10
13.2392627689
 20
6.1477233064
 30
0.0
 10
13.2390882005
 20
6.1465231709
 30
0.0
 10
13.2388098748
 20
6.1441081568
 30
0.0
 10
13.2386204769
 20
6.1404562136
 30
0.0
 10
13.2386723983
 20
6.1367724022
 30
0.0
 10
13.2389792112
 20
6.1330564767
 30
0.0
 10
13.2395543084
 20
6.1293082942
 30
0.0
 10
13.2404104055
 20
6.1255279349
 30
0.0
 10
13.2415597007
 20
6.1217161333
 30
0.0
 10
13.2425119805
 20
6.1191980687
 30
0.0
 10
13.2430367139
 20
6.1179368065
 30
0.0
  0
SPLINE
  5
380
100
AcDbEntity
  8
0
100
AcDbSpline
 62
7
  6
CONTINUOUS
 70
0
 71
3
 72
17
 73
13
 74
0
 42
0.0000001
 43
0.0000001
 44
0.0000000001
 40
0.0
 40
0.0
 40
0.0
 40
0.0
 40
0.1504734045
 40
0.2917303627
 40
0.4244677363
 40
0.4879386768
 40
0.549641363
 40
0.6683009281
 40
0.7818340625
 40
0.8918017795
 40
0.9460163297
 40
1.0
 40
1.0
 40
1.0
 40
1.0
 10
13.0947938945
 20
6.8125022362
 30
0.0
 10
13.0957904041
 20
6.8134647906
 30
0.0
 10
13.0977821193
 20
6.8152708453
 30
0.0
 10
13.1008660551
 20
6.8176776929
 30
0.0
 10
13.1034710021
 20
6.8193799418
 30
0.0
 10
13.1055482062
 20
6.8205326599
 30
0.0
 10
13.1075642348
 20
6.8215223056
 30
0.0
 10
13.1100852684
 20
6.8225222634
 30
0.0
 10
13.1131370243
 20
6.8233343888
 30
0.0
 10
13.1156795812
 20
6.8236738481
 30
0.0
 10
13.117688503
 20
6.8237383673
 30
0.0
 10
13.1186850453
 20
6.8237031428
 30
0.0
 10
13.1191809062
 20
6.8236687588
 30
0.0
  0
SPLINE
  5
381
100
AcDbEntity
  8
0
100
AcDbSpline
 62
7
  6
CONTINUOUS
 70
0
 71
3
 72
23
 73
19
 74
0
 42
0.0000001
 43
0.0000001
 44
0.0000000001
 40
0.0
 40
0.0
 40
0.0
 40
0.0
 40
0.0637767638
 40
0.1273450118
 40
0.1907019674
 40
0.2538561101
 40
0.3168132145
 40
0.3795820843
 40
0.4421733868
 40
0.5045993403
 40
0.5668738673
 40
0.6290123789
 40
0.6910316481
 40
0.752949645
 40
0.8147853545
 40
0.8765586015
 40
0.9382898522
 40
1.0
 40
1.0
 40
1.0
 40
1.0
 10
10.7940327052
 20
9.925640836
 30
0.0
 10
10.7940327052
 20
9.9198550771
 30
0.0
 10
10.7937557587
 20
9.9083005158
 30
0.0
 10
10.7925058498
 20
9.8910389785
 30
0.0
 10
10.7904247004
 20
9.8739142491
 30
0.0
 10
10.787517324
 20
9.8569665811
 30
0.0
 10
10.7837901953
 20
9.84023469
 30
0.0
 10
10.7792519456
 20
9.8237572549
 30
0.0
 10
10.7739130158
 20
9.8075722374
 30
0.0
 10
10.7677856524
 20
9.7917169634
 30
0.0
 10
10.7608839249
 20
9.7762280167
 30
0.0
 10
10.7532237514
 20
9.7611411084
 30
0.0
 10
10.7448227811
 20
9.746491036
 30
0.0
 10
10.7357003447
 20
9.7323115952
 30
0.0
 10
10.7258774657
 20
9.7186355498
 30
0.0
 10
10.7153767065
 20
9.7054943233
 30
0.0
 10
10.7042227068
 20
9.6929186295
 30
0.0
 10
10.6963668559
 20
9.6849297442
 30
0.0
 10
10.6923402674
 20
9.6810403616
 30
0.0
  0
SPLINE
  5
382
100
AcDbEntity
  8
0
100
AcDbSpline
 62
7
  6
CONTINUOUS
 70
0
 71
3
 72
23
 73
19
 74
0
 42
0.0000001
 43
0.0000001
 44
0.0000000001
 40
0.0
 40
0.0
 40
0.0
 40
0.0
 40
0.0637767638
 40
0.1273450118
 40
0.1907019674
 40
0.2538561101
 40
0.3168132145
 40
0.3795820843
 40
0.4421733868
 40
0.5045993403
 40
0.5668738673
 40
0.6290123789
 40
0.6910316481
 40
0.752949645
 40
0.8147853545
 40
0.8765586015
 40
0.9382898522
 40
1.0
 40
1.0
 40
1.0
 40
1.0
 10
9.0147971053
 20
9.022252036
 30
0.0
 10
9.0147971053
 20
9.0164662771
 30
0.0
 10
9.0145201587
 20
9.0049117158
 30
0.0
 10
9.0132702498
 20
8.9876501785
 30
0.0
 10
9.0111891004
 20
8.9705254491
 30
0.0
 10
9.008281724
 20
8.9535777811
 30
0.0
 10
9.0045545953
 20
8.9368458899
 30
0.0
 10
9.0000163457
 20
8.9203684549
 30
0.0
 10
8.9946774158
 20
8.9041834374
 30
0.0
 10
8.9885500524
 20
8.8883281634
 30
0.0
 10
8.9816483249
 20
8.8728392167
 30
0.0
 10
8.9739881514
 20
8.8577523084
 30
0.0
 10
8.9655871812
 20
8.843102236
 30
0.0
 10
8.9564647448
 20
8.8289227952
 30
0.0
 10
8.9466418658
 20
8.8152467498
 30
0.0
 10
8.9361411065
 20
8.8021055233
 30
0.0
 10
8.9249871068
 20
8.7895298295
 30
0.0
 10
8.917131256
 20
8.7815409442
 30
0.0
 10
8.9131046674
 20
8.7776515615
 30
0.0
  0
SPLINE
  5
383
100
AcDbEntity
  8
0
100
AcDbSpline
 62
7
  6
CONTINUOUS
 70
0
 71
3
 72
23
 73
19
 74
0
 42
0.0000001
 43
0.0000001
 44
0.0000000001
 40
0.0
 40
0.0
 40
0.0
 40
0.0
 40
0.0637767638
 40
0.1273450118
 40
0.1907019674
 40
0.2538561101
 40
0.3168132145
 40
0.3795820843
 40
0.4421733868
 40
0.5045993403
 40
0.5668738673
 40
0.6290123789
 40
0.6910316481
 40
0.752949645
 40
0.8147853545
 40
0.8765586015
 40
0.9382898522
 40
1.0
 40
1.0
 40
1.0
 40
1.0
 10
10.9157392966
 20
7.9776213518
 30
0.0
 10
10.9157392966
 20
7.971835593
 30
0.0
 10
10.91546235
 20
7.9602810316
 30
0.0
 10
10.9142124411
 20
7.9430194943
 30
0.0
 10
10.9121312917
 20
7.9258947649
 30
0.0
 10
10.9092239153
 20
7.9089470969
 30
0.0
 10
10.9054967866
 20
7.8922152058
 30
0.0
 10
10.9009585369
 20
7.8757377707
 30
0.0
 10
10.8956196071
 20
7.8595527532
 30
0.0
 10
10.8894922437
 20
7.8436974792
 30
0.0
 10
10.8825905162
 20
7.8282085325
 30
0.0
 10
10.8749303427
 20
7.8131216242
 30
0.0
 10
10.8665293725
 20
7.7984715518
 30
0.0
 10
10.857406936
 20
7.784292111
 30
0.0
 10
10.8475840571
 20
7.7706160656
 30
0.0
 10
10.8370832978
 20
7.7574748391
 30
0.0
 10
10.8259292981
 20
7.7448991453
 30
0.0
 10
10.8180734472
 20
7.73691026
 30
0.0
 10
10.8140468587
 20
7.7330208774
 30
0.0
  0
SPLINE
  5
384
100
AcDbEntity
  8
0
100
AcDbSpline
 62
7
  6
CONTINUOUS
 70
0
 71
3
 72
23
 73
19
 74
0
 42
0.0000001
 43
0.0000001
 44
0.0000000001
 40
0.0
 40
0.0
 40
0.0
 40
0.0
 40
0.0637767638
 40
0.1273450118
 40
0.1907019674
 40
0.2538561101
 40
0.3168132145
 40
0.3795820843
 40
0.4421733868
 40
0.5045993403
 40
0.5668738673
 40
0.6290123789
 40
0.6910316481
 40
0.752949645
 40
0.8147853545
 40
0.8765586015
 40
0.9382898522
 40
1.0
 40
1.0
 40
1.0
 40
1.0
 10
12.6969067234
 20
8.8808761504
 30
0.0
 10
12.6969067234
 20
8.8750903915
 30
0.0
 10
12.6966297769
 20
8.8635358302
 30
0.0
 10
12.695379868
 20
8.8462742929
 30
0.0
 10
12.6932987185
 20
8.8291495635
 30
0.0
 10
12.6903913422
 20
8.8122018955
 30
0.0
 10
12.6866642134
 20
8.7954700044
 30
0.0
 10
12.6821259638
 20
8.7789925693
 30
0.0
 10
12.676787034
 20
8.7628075518
 30
0.0
 10
12.6706596705
 20
8.7469522778
 30
0.0
 10
12.6637579431
 20
8.7314633311
 30
0.0
 10
12.6560977695
 20
8.7163764228
 30
0.0
 10
12.6476967993
 20
8.7017263504
 30
0.0
 10
12.6385743629
 20
8.6875469096
 30
0.0
 10
12.6287514839
 20
8.6738708642
 30
0.0
 10
12.6182507247
 20
8.6607296377
 30
0.0
 10
12.6070967249
 20
8.6481539439
 30
0.0
 10
12.5992408741
 20
8.6401650586
 30
0.0
 10
12.5952142855
 20
8.636275676
 30
0.0
  0
SPLINE
  5
385
100
AcDbEntity
  8
0
100
AcDbSpline
 62
7
  6
CONTINUOUS
 70
0
 71
3
 72
23
 73
19
 74
0
 42
0.0000001
 43
0.0000001
 44
0.0000000001
 40
0.0
 40
0.0
 40
0.0
 40
0.0
 40
0.0637776914
 40
0.1273445726
 40
0.19070205
 40
0.2538561286
 40
0.3168131755
 40
0.3795820937
 40
0.4421733816
 40
0.5045993375
 40
0.566873868
 40
0.6290123843
 40
0.691031656
 40
0.7529496505
 40
0.8147853588
 40
0.8765586069
 40
0.938289857
 40
1.0
 40
1.0
 40
1.0
 40
1.0
 10
12.6138369648
 20
7.2638815089
 30
0.0
 10
12.6138369648
 20
7.2531584591
 30
0.0
 10
12.6133237591
 20
7.2317441682
 30
0.0
 10
12.6110071813
 20
7.1997529156
 30
0.0
 10
12.6071502243
 20
7.1680153633
 30
0.0
 10
12.6017618689
 20
7.1366057578
 30
0.0
 10
12.5948543408
 20
7.1055961212
 30
0.0
 10
12.5864435562
 20
7.0750580567
 30
0.0
 10
12.5765488025
 20
7.045061939
 30
0.0
 10
12.5651928357
 20
7.0156769474
 30
0.0
 10
12.5524017706
 20
6.9869708512
 30
0.0
 10
12.5382050442
 20
6.9590098638
 30
0.0
 10
12.5226353538
 20
6.9318584876
 30
0.0
 10
12.505728552
 20
6.9055793443
 30
0.0
 10
12.4875236547
 20
6.8802331163
 30
0.0
 10
12.468062419
 20
6.855878076
 30
0.0
 10
12.4473904831
 20
6.8325711761
 30
0.0
 10
12.4328310997
 20
6.8177651095
 30
0.0
 10
12.4253685343
 20
6.8105568051
 30
0.0
  0
SPLINE
  5
386
100
AcDbEntity
  8
0
100
AcDbSpline
 62
7
  6
CONTINUOUS
 70
0
 71
3
 72
23
 73
19
 74
0
 42
0.0000001
 43
0.0000001
 44
0.0000000001
 40
0.0
 40
0.0
 40
0.0
 40
0.0
 40
0.0637776914
 40
0.1273445726
 40
0.19070205
 40
0.2538561286
 40
0.3168131755
 40
0.3795820937
 40
0.4421733816
 40
0.5045993375
 40
0.566873868
 40
0.6290123843
 40
0.691031656
 40
0.7529496505
 40
0.8147853588
 40
0.8765586069
 40
0.938289857
 40
1.0
 40
1.0
 40
1.0
 40
1.0
 10
9.7160593142
 20
7.4648430715
 30
0.0
 10
9.7160593142
 20
7.4541200218
 30
0.0
 10
9.7155461085
 20
7.4327057308
 30
0.0
 10
9.7132295308
 20
7.4007144783
 30
0.0
 10
9.7093725737
 20
7.368976926
 30
0.0
 10
9.7039842183
 20
7.3375673205
 30
0.0
 10
9.6970766902
 20
7.3065576838
 30
0.0
 10
9.6886659056
 20
7.2760196194
 30
0.0
 10
9.6787711519
 20
7.2460235017
 30
0.0
 10
9.6674151851
 20
7.21663851
 30
0.0
 10
9.65462412
 20
7.1879324139
 30
0.0
 10
9.6404273936
 20
7.1599714264
 30
0.0
 10
9.6248577032
 20
7.1328200502
 30
0.0
 10
9.6079509015
 20
7.1065409069
 30
0.0
 10
9.5897460041
 20
7.0811946789
 30
0.0
 10
9.5702847684
 20
7.0568396386
 30
0.0
 10
9.5496128326
 20
7.0335327387
 30
0.0
 10
9.5350534492
 20
7.0187266721
 30
0.0
 10
9.5275908838
 20
7.0115183677
 30
0.0
  0
SPLINE
  5
387
100
AcDbEntity
  8
0
100
AcDbSpline
 62
7
  6
CONTINUOUS
 70
0
 71
3
 72
15
 73
11
 74
0
 42
0.0000001
 43
0.0000001
 44
0.0000000001
 40
0.0
 40
0.0
 40
0.0
 40
0.0
 40
0.1262184348
 40
0.2519736515
 40
0.3773148174
 40
0.5022987407
 40
0.626988655
 40
0.7514531858
 40
0.8757651032
 40
1.0
 40
1.0
 40
1.0
 40
1.0
 10
10.7879132312
 20
9.9926601085
 30
0.0
 10
10.7866248999
 20
9.987715908
 30
0.0
 10
10.7837223871
 20
9.9779283041
 30
0.0
 10
10.7783993036
 20
9.9636004345
 30
0.0
 10
10.7721366966
 20
9.9497114995
 30
0.0
 10
10.7649609424
 20
9.936320568
 30
0.0
 10
10.7569020183
 20
9.9234836008
 30
0.0
 10
10.7479934739
 20
9.9112543106
 30
0.0
 10
10.7382732874
 20
9.8996846275
 30
0.0
 10
10.7312767916
 20
9.8924411972
 30
0.0
 10
10.7276596577
 20
9.8889473137
 30
0.0
  0
SPLINE
  5
388
100
AcDbEntity
  8
0
100
AcDbSpline
 62
7
  6
CONTINUOUS
 70
0
 71
3
 72
15
 73
11
 74
0
 42
0.0000001
 43
0.0000001
 44
0.0000000001
 40
0.0
 40
0.0
 40
0.0
 40
0.0
 40
0.1262184348
 40
0.2519736515
 40
0.3773148174
 40
0.5022987407
 40
0.626988655
 40
0.7514531858
 40
0.8757651032
 40
1.0
 40
1.0
 40
1.0
 40
1.0
 10
9.0086776312
 20
9.0892713085
 30
0.0
 10
9.0073892999
 20
9.084327108
 30
0.0
 10
9.0044867871
 20
9.0745395041
 30
0.0
 10
8.9991637036
 20
9.0602116345
 30
0.0
 10
8.9929010967
 20
9.0463226995
 30
0.0
 10
8.9857253424
 20
9.032931768
 30
0.0
 10
8.9776664183
 20
9.0200948008
 30
0.0
 10
8.9687578739
 20
9.0078655106
 30
0.0
 10
8.9590376875
 20
8.9962958275
 30
0.0
 10
8.9520411916
 20
8.9890523972
 30
0.0
 10
8.9484240578
 20
8.9855585136
 30
0.0
  0
SPLINE
  5
389
100
AcDbEntity
  8
0
100
AcDbSpline
 62
7
  6
CONTINUOUS
 70
0
 71
3
 72
15
 73
11
 74
0
 42
0.0000001
 43
0.0000001
 44
0.0000000001
 40
0.0
 40
0.0
 40
0.0
 40
0.0
 40
0.1262184348
 40
0.2519736515
 40
0.3773148174
 40
0.5022987407
 40
0.626988655
 40
0.7514531858
 40
0.8757651032
 40
1.0
 40
1.0
 40
1.0
 40
1.0
 10
10.9096198225
 20
8.0446406243
 30
0.0
 10
10.9083314912
 20
8.0396964238
 30
0.0
 10
10.9054289784
 20
8.0299088199
 30
0.0
 10
10.9001058949
 20
8.0155809503
 30
0.0
 10
10.893843288
 20
8.0016920153
 30
0.0
 10
10.8866675337
 20
7.9883010838
 30
0.0
 10
10.8786086096
 20
7.9754641166
 30
0.0
 10
10.8697000652
 20
7.9632348264
 30
0.0
 10
10.8599798788
 20
7.9516651433
 30
0.0
 10
10.8529833829
 20
7.944421713
 30
0.0
 10
10.8493662491
 20
7.9409278295
 30
0.0
  0
SPLINE
  5
38A
100
AcDbEntity
  8
0
100
AcDbSpline
 62
7
  6
CONTINUOUS
 70
0
 71
3
 72
15
 73
11
 74
0
 42
0.0000001
 43
0.0000001
 44
0.0000000001
 40
0.0
 40
0.0
 40
0.0
 40
0.0
 40
0.1262184348
 40
0.2519736515
 40
0.3773148174
 40
0.5022987407
 40
0.626988655
 40
0.7514531858
 40
0.8757651032
 40
1.0
 40
1.0
 40
1.0
 40
1.0
 10
12.6907872493
 20
8.9478954229
 30
0.0
 10
12.689498918
 20
8.9429512224
 30
0.0
 10
12.6865964053
 20
8.9331636185
 30
0.0
 10
12.6812733217
 20
8.9188357489
 30
0.0
 10
12.6750107148
 20
8.9049468139
 30
0.0
 10
12.6678349606
 20
8.8915558824
 30
0.0
 10
12.6597760364
 20
8.8787189152
 30
0.0
 10
12.6508674921
 20
8.866489625
 30
0.0
 10
12.6411473056
 20
8.8549199419
 30
0.0
 10
12.6341508098
 20
8.8476765116
 30
0.0
 10
12.6305336759
 20
8.8441826281
 30
0.0
  0
SPLINE
  5
38B
100
AcDbEntity
  8
0
100
AcDbSpline
 62
7
  6
CONTINUOUS
 70
0
 71
3
 72
15
 73
11
 74
0
 42
0.0000001
 43
0.0000001
 44
0.0000000001
 40
0.0
 40
0.0
 40
0.0
 40
0.0
 40
0.1231762782
 40
0.2468279519
 40
0.3709898385
 40
0.4956939593
 40
0.620963316
 40
0.7467994523
 40
0.8731706549
 40
1.0
 40
1.0
 40
1.0
 40
1.0
 10
11.9581049206
 20
7.6379929548
 30
0.0
 10
11.9581049206
 20
7.6445255498
 30
0.0
 10
11.9585855587
 20
7.6576208982
 30
0.0
 10
11.9607354374
 20
7.6771947919
 30
0.0
 10
11.9643035961
 20
7.6966436423
 30
0.0
 10
11.9692692751
 20
7.7158714251
 30
0.0
 10
11.9756015289
 20
7.7347866603
 30
0.0
 10
11.9832581963
 20
7.7533009689
 30
0.0
 10
11.9921833742
 20
7.7713288935
 30
0.0
 10
11.9989242023
 20
7.7829555062
 30
0.0
 10
12.0024806814
 20
7.7886647112
 30
0.0
  0
SPLINE
  5
38C
100
AcDbEntity
  8
0
100
AcDbSpline
 62
7
  6
CONTINUOUS
 70
0
 71
3
 72
15
 73
11
 74
0
 42
0.0000001
 43
0.0000001
 44
0.0000000001
 40
0.0
 40
0.0
 40
0.0
 40
0.0
 40
0.1242355179
 40
0.2485479892
 40
0.373012942
 40
0.4977030871
 40
0.6226869946
 40
0.7480278666
 40
0.8737824345
 40
1.0
 40
1.0
 40
1.0
 40
1.0
 10
10.3802863185
 20
10.2485745696
 30
0.0
 10
10.3839018617
 20
10.2520669167
 30
0.0
 10
10.3913799967
 20
10.2588053386
 30
0.0
 10
10.4032738999
 20
10.2681151851
 30
0.0
 10
10.4157983764
 20
10.2765917862
 30
0.0
 10
10.4289002848
 20
10.2841990291
 30
0.0
 10
10.4425248576
 20
10.2909052831
 30
0.0
 10
10.4566152083
 20
10.2966825538
 30
0.0
 10
10.4711114751
 20
10.3015065589
 30
0.0
 10
10.4809887552
 20
10.3040691777
 30
0.0
 10
10.4859721178
 20
10.3051860661
 30
0.0
  0
SPLINE
  5
38D
100
AcDbEntity
  8
0
100
AcDbSpline
 62
7
  6
CONTINUOUS
 70
0
 71
3
 72
39
 73
35
 74
0
 42
0.0000001
 43
0.0000001
 44
0.0000000001
 40
0.0
 40
0.0
 40
0.0
 40
0.0
 40
0.029942471
 40
0.0599093185
 40
0.089924325
 40
0.1200101043
 40
0.1501875632
 40
0.1804754155
 40
0.2108897611
 40
0.2414437393
 40
0.2721472649
 40
0.3030068482
 40
0.3340255005
 40
0.3652027199
 40
0.3965345553
 40
0.4280137416
 40
0.4596298994
 40
0.4913697937
 40
0.523217641
 40
0.5551554573
 40
0.5871634413
 40
0.619220384
 40
0.6513040994
 40
0.6833918697
 40
0.715460897
 40
0.7474887556
 40
0.7794538398
 40
0.8113357995
 40
0.8431159588
 40
0.874777715
 40
0.9063068673
 40
0.9376920959
 40
0.968924654
 40
1.0
 40
1.0
 40
1.0
 40
1.0
 10
10.1712807305
 20
10.220481701
 30
0.0
 10
10.1775018562
 20
10.226490842
 30
0.0
 10
10.1904332997
 20
10.2380241487
 30
0.0
 10
10.2111514772
 20
10.2537362393
 30
0.0
 10
10.2330847742
 20
10.2677818236
 30
0.0
 10
10.2561106339
 20
10.280082115
 30
0.0
 10
10.2801024641
 20
10.2905699131
 30
0.0
 10
10.3049278589
 20
10.2991875632
 30
0.0
 10
10.3304500188
 20
10.3058879044
 30
0.0
 10
10.356528333
 20
10.310634355
 30
0.0
 10
10.3830192162
 20
10.313401143
 30
0.0
 10
10.4097768946
 20
10.3141733976
 30
0.0
 10
10.4366542085
 20
10.3129472184
 30
0.0
 10
10.4635034163
 20
10.3097296776
 30
0.0
 10
10.4901769973
 20
10.304538765
 30
0.0
 10
10.5165284519
 20
10.2974032814
 30
0.0
 10
10.5424131025
 20
10.2883626895
 30
0.0
 10
10.5676888725
 20
10.2774668663
 30
0.0
 10
10.5922170544
 20
10.2647758285
 30
0.0
 10
10.615863059
 20
10.2503594007
 30
0.0
 10
10.6384971439
 20
10.2342968343
 30
0.0
 10
10.659995113
 20
10.2166763725
 30
0.0
 10
10.6802390041
 20
10.1975947868
 30
0.0
 10
10.6991177235
 20
10.1771568379
 30
0.0
 10
10.7165276426
 20
10.1554747003
 30
0.0
 10
10.7323731621
 20
10.132667355
 30
0.0
 10
10.7465672315
 20
10.1088599462
 30
0.0
 10
10.7590318195
 20
10.0841830971
 30
0.0
 10
10.7696983552
 20
10.058772225
 30
0.0
 10
10.778508095
 20
10.0327667499
 30
0.0
 10
10.7854124839
 20
10.0063095364
 30
0.0
 10
10.7903732758
 20
9.9795453721
 30
0.0
 10
10.7933630692
 20
9.9526231196
 30
0.0
 10
10.7940327052
 20
9.9346174901
 30
0.0
 10
10.7940327052
 20
9.925640836
 30
0.0
  0
SPLINE
  5
38E
100
AcDbEntity
  8
0
100
AcDbSpline
 62
7
  6
CONTINUOUS
 70
0
 71
3
 72
15
 73
11
 74
0
 42
0.0000001
 43
0.0000001
 44
0.0000000001
 40
0.0
 40
0.0
 40
0.0
 40
0.0
 40
0.1242355179
 40
0.2485479892
 40
0.373012942
 40
0.4977030871
 40
0.6226869946
 40
0.7480278666
 40
0.8737824345
 40
1.0
 40
1.0
 40
1.0
 40
1.0
 10
8.6010507186
 20
9.3451857696
 30
0.0
 10
8.6046662617
 20
9.3486781167
 30
0.0
 10
8.6121443968
 20
9.3554165386
 30
0.0
 10
8.6240382999
 20
9.3647263851
 30
0.0
 10
8.6365627764
 20
9.3732029862
 30
0.0
 10
8.6496646848
 20
9.3808102291
 30
0.0
 10
8.6632892577
 20
9.3875164831
 30
0.0
 10
8.6773796084
 20
9.3932937538
 30
0.0
 10
8.6918758751
 20
9.3981177588
 30
0.0
 10
8.7017531553
 20
9.4006803777
 30
0.0
 10
8.7067365178
 20
9.401797266
 30
0.0
  0
SPLINE
  5
38F
100
AcDbEntity
  8
0
100
AcDbSpline
 62
7
  6
CONTINUOUS
 70
0
 71
3
 72
39
 73
35
 74
0
 42
0.0000001
 43
0.0000001
 44
0.0000000001
 40
0.0
 40
0.0
 40
0.0
 40
0.0
 40
0.029942471
 40
0.0599093185
 40
0.089924325
 40
0.1200101043
 40
0.1501875632
 40
0.1804754155
 40
0.2108897611
 40
0.2414437393
 40
0.2721472649
 40
0.3030068482
 40
0.3340255005
 40
0.3652027199
 40
0.3965345553
 40
0.4280137416
 40
0.4596298994
 40
0.4913697937
 40
0.523217641
 40
0.5551554573
 40
0.5871634413
 40
0.619220384
 40
0.6513040994
 40
0.6833918697
 40
0.715460897
 40
0.7474887556
 40
0.7794538398
 40
0.8113357995
 40
0.8431159588
 40
0.874777715
 40
0.9063068673
 40
0.9376920959
 40
0.968924654
 40
1.0
 40
1.0
 40
1.0
 40
1.0
 10
8.3920451305
 20
9.317092901
 30
0.0
 10
8.3982662563
 20
9.323102042
 30
0.0
 10
8.4111976997
 20
9.3346353486
 30
0.0
 10
8.4319158772
 20
9.3503474393
 30
0.0
 10
8.4538491742
 20
9.3643930236
 30
0.0
 10
8.476875034
 20
9.376693315
 30
0.0
 10
8.5008668642
 20
9.387181113
 30
0.0
 10
8.525692259
 20
9.3957987632
 30
0.0
 10
8.5512144188
 20
9.4024991044
 30
0.0
 10
8.577292733
 20
9.407245555
 30
0.0
 10
8.6037836163
 20
9.410012343
 30
0.0
 10
8.6305412946
 20
9.4107845976
 30
0.0
 10
8.6574186086
 20
9.4095584184
 30
0.0
 10
8.6842678164
 20
9.4063408775
 30
0.0
 10
8.7109413973
 20
9.401149965
 30
0.0
 10
8.7372928519
 20
9.3940144814
 30
0.0
 10
8.7631775026
 20
9.3849738895
 30
0.0
 10
8.7884532726
 20
9.3740780663
 30
0.0
 10
8.8129814544
 20
9.3613870285
 30
0.0
 10
8.836627459
 20
9.3469706007
 30
0.0
 10
8.859261544
 20
9.3309080343
 30
0.0
 10
8.880759513
 20
9.3132875724
 30
0.0
 10
8.9010034041
 20
9.2942059868
 30
0.0
 10
8.9198821235
 20
9.2737680379
 30
0.0
 10
8.9372920426
 20
9.2520859002
 30
0.0
 10
8.9531375622
 20
9.229278555
 30
0.0
 10
8.9673316315
 20
9.2054711462
 30
0.0
 10
8.9797962195
 20
9.180794297
 30
0.0
 10
8.9904627552
 20
9.155383425
 30
0.0
 10
8.999272495
 20
9.1293779499
 30
0.0
 10
9.0061768839
 20
9.1029207364
 30
0.0
 10
9.0111376758
 20
9.076156572
 30
0.0
 10
9.0141274693
 20
9.0492343196
 30
0.0
 10
9.0147971053
 20
9.0312286901
 30
0.0
 10
9.0147971053
 20
9.022252036
 30
0.0
  0
SPLINE
  5
390
100
AcDbEntity
  8
0
100
AcDbSpline
 62
7
  6
CONTINUOUS
 70
0
 71
3
 72
15
 73
11
 74
0
 42
0.0000001
 43
0.0000001
 44
0.0000000001
 40
0.0
 40
0.0
 40
0.0
 40
0.0
 40
0.1242355179
 40
0.2485479892
 40
0.373012942
 40
0.4977030871
 40
0.6226869946
 40
0.7480278666
 40
0.8737824345
 40
1.0
 40
1.0
 40
1.0
 40
1.0
 10
10.5019929099
 20
8.3005550854
 30
0.0
 10
10.505608453
 20
8.3040474325
 30
0.0
 10
10.513086588
 20
8.3107858544
 30
0.0
 10
10.5249804912
 20
8.320095701
 30
0.0
 10
10.5375049677
 20
8.3285723021
 30
0.0
 10
10.5506068761
 20
8.336179545
 30
0.0
 10
10.5642314489
 20
8.3428857989
 30
0.0
 10
10.5783217996
 20
8.3486630696
 30
0.0
 10
10.5928180664
 20
8.3534870747
 30
0.0
 10
10.6026953465
 20
8.3560496936
 30
0.0
 10
10.6076787091
 20
8.3571665819
 30
0.0
  0
SPLINE
  5
391
100
AcDbEntity
  8
0
100
AcDbSpline
 62
7
  6
CONTINUOUS
 70
0
 71
3
 72
39
 73
35
 74
0
 42
0.0000001
 43
0.0000001
 44
0.0000000001
 40
0.0
 40
0.0
 40
0.0
 40
0.0
 40
0.029942471
 40
0.0599093185
 40
0.089924325
 40
0.1200101043
 40
0.1501875632
 40
0.1804754155
 40
0.2108897611
 40
0.2414437393
 40
0.2721472649
 40
0.3030068482
 40
0.3340255005
 40
0.3652027199
 40
0.3965345553
 40
0.4280137416
 40
0.4596298994
 40
0.4913697937
 40
0.523217641
 40
0.5551554573
 40
0.5871634413
 40
0.619220384
 40
0.6513040994
 40
0.6833918697
 40
0.715460897
 40
0.7474887556
 40
0.7794538398
 40
0.8113357995
 40
0.8431159588
 40
0.874777715
 40
0.9063068673
 40
0.9376920959
 40
0.968924654
 40
1.0
 40
1.0
 40
1.0
 40
1.0
 10
10.2929873218
 20
8.2724622169
 30
0.0
 10
10.2992084475
 20
8.2784713578
 30
0.0
 10
10.312139891
 20
8.2900046645
 30
0.0
 10
10.3328580685
 20
8.3057167551
 30
0.0
 10
10.3547913655
 20
8.3197623394
 30
0.0
 10
10.3778172252
 20
8.3320626308
 30
0.0
 10
10.4018090554
 20
8.3425504289
 30
0.0
 10
10.4266344502
 20
8.3511680791
 30
0.0
 10
10.4521566101
 20
8.3578684202
 30
0.0
 10
10.4782349243
 20
8.3626148708
 30
0.0
 10
10.5047258075
 20
8.3653816588
 30
0.0
 10
10.5314834859
 20
8.3661539134
 30
0.0
 10
10.5583607999
 20
8.3649277342
 30
0.0
 10
10.5852100076
 20
8.3617101934
 30
0.0
 10
10.6118835886
 20
8.3565192808
 30
0.0
 10
10.6382350432
 20
8.3493837972
 30
0.0
 10
10.6641196938
 20
8.3403432053
 30
0.0
 10
10.6893954639
 20
8.3294473821
 30
0.0
 10
10.7139236457
 20
8.3167563443
 30
0.0
 10
10.7375696503
 20
8.3023399165
 30
0.0
 10
10.7602037352
 20
8.2862773501
 30
0.0
 10
10.7817017043
 20
8.2686568883
 30
0.0
 10
10.8019455954
 20
8.2495753026
 30
0.0
 10
10.8208243148
 20
8.2291373537
 30
0.0
 10
10.8382342339
 20
8.2074552161
 30
0.0
 10
10.8540797534
 20
8.1846478708
 30
0.0
 10
10.8682738228
 20
8.160840462
 30
0.0
 10
10.8807384108
 20
8.1361636129
 30
0.0
 10
10.8914049465
 20
8.1107527408
 30
0.0
 10
10.9002146863
 20
8.0847472658
 30
0.0
 10
10.9071190752
 20
8.0582900522
 30
0.0
 10
10.9120798671
 20
8.0315258879
 30
0.0
 10
10.9150696605
 20
8.0046036354
 30
0.0
 10
10.9157392966
 20
7.9865980059
 30
0.0
 10
10.9157392966
 20
7.9776213518
 30
0.0
  0
SPLINE
  5
392
100
AcDbEntity
  8
0
100
AcDbSpline
 62
7
  6
CONTINUOUS
 70
0
 71
3
 72
15
 73
11
 74
0
 42
0.0000001
 43
0.0000001
 44
0.0000000001
 40
0.0
 40
0.0
 40
0.0
 40
0.0
 40
0.1242355179
 40
0.2485479892
 40
0.373012942
 40
0.4977030871
 40
0.6226869946
 40
0.7480278666
 40
0.8737824345
 40
1.0
 40
1.0
 40
1.0
 40
1.0
 10
12.2831603367
 20
9.203809884
 30
0.0
 10
12.2867758799
 20
9.2073022311
 30
0.0
 10
12.2942540149
 20
9.214040653
 30
0.0
 10
12.3061479181
 20
9.2233504995
 30
0.0
 10
12.3186723946
 20
9.2318271006
 30
0.0
 10
12.3317743029
 20
9.2394343435
 30
0.0
 10
12.3453988758
 20
9.2461405975
 30
0.0
 10
12.3594892265
 20
9.2519178682
 30
0.0
 10
12.3739854933
 20
9.2567418733
 30
0.0
 10
12.3838627734
 20
9.2593044921
 30
0.0
 10
12.3888461359
 20
9.2604213805
 30
0.0
  0
SPLINE
  5
393
100
AcDbEntity
  8
0
100
AcDbSpline
 62
7
  6
CONTINUOUS
 70
0
 71
3
 72
39
 73
35
 74
0
 42
0.0000001
 43
0.0000001
 44
0.0000000001
 40
0.0
 40
0.0
 40
0.0
 40
0.0
 40
0.029942471
 40
0.0599093185
 40
0.089924325
 40
0.1200101043
 40
0.1501875632
 40
0.1804754155
 40
0.2108897611
 40
0.2414437393
 40
0.2721472649
 40
0.3030068482
 40
0.3340255005
 40
0.3652027199
 40
0.3965345553
 40
0.4280137416
 40
0.4596298994
 40
0.4913697937
 40
0.523217641
 40
0.5551554573
 40
0.5871634413
 40
0.619220384
 40
0.6513040994
 40
0.6833918697
 40
0.715460897
 40
0.7474887556
 40
0.7794538398
 40
0.8113357995
 40
0.8431159588
 40
0.874777715
 40
0.9063068673
 40
0.9376920959
 40
0.968924654
 40
1.0
 40
1.0
 40
1.0
 40
1.0
 10
12.0741547487
 20
9.1757170154
 30
0.0
 10
12.0803758744
 20
9.1817261564
 30
0.0
 10
12.0933073179
 20
9.1932594631
 30
0.0
 10
12.1140254954
 20
9.2089715537
 30
0.0
 10
12.1359587923
 20
9.223017138
 30
0.0
 10
12.1589846521
 20
9.2353174294
 30
0.0
 10
12.1829764823
 20
9.2458052274
 30
0.0
 10
12.2078018771
 20
9.2544228776
 30
0.0
 10
12.233324037
 20
9.2611232188
 30
0.0
 10
12.2594023511
 20
9.2658696694
 30
0.0
 10
12.2858932344
 20
9.2686364574
 30
0.0
 10
12.3126509128
 20
9.269408712
 30
0.0
 10
12.3395282267
 20
9.2681825328
 30
0.0
 10
12.3663774345
 20
9.2649649919
 30
0.0
 10
12.3930510155
 20
9.2597740794
 30
0.0
 10
12.4194024701
 20
9.2526385958
 30
0.0
 10
12.4452871207
 20
9.2435980039
 30
0.0
 10
12.4705628907
 20
9.2327021807
 30
0.0
 10
12.4950910726
 20
9.2200111429
 30
0.0
 10
12.5187370772
 20
9.2055947151
 30
0.0
 10
12.5413711621
 20
9.1895321487
 30
0.0
 10
12.5628691311
 20
9.1719116869
 30
0.0
 10
12.5831130223
 20
9.1528301012
 30
0.0
 10
12.6019917416
 20
9.1323921523
 30
0.0
 10
12.6194016608
 20
9.1107100147
 30
0.0
 10
12.6352471803
 20
9.0879026694
 30
0.0
 10
12.6494412497
 20
9.0640952606
 30
0.0
 10
12.6619058377
 20
9.0394184115
 30
0.0
 10
12.6725723733
 20
9.0140075394
 30
0.0
 10
12.6813821132
 20
8.9880020643
 30
0.0
 10
12.6882865021
 20
8.9615448508
 30
0.0
 10
12.693247294
 20
8.9347806865
 30
0.0
 10
12.6962370874
 20
8.907858434
 30
0.0
 10
12.6969067234
 20
8.8898528045
 30
0.0
 10
12.6969067234
 20
8.8808761504
 30
0.0
  0
SPLINE
  5
394
100
AcDbEntity
  8
0
100
AcDbSpline
 62
7
  6
CONTINUOUS
 70
0
 71
3
 72
49
 73
45
 74
0
 42
0.0000001
 43
0.0000001
 44
0.0000000001
 40
0.0
 40
0.0
 40
0.0
 40
0.0
 40
0.0149718081
 40
0.0299466748
 40
0.0449276404
 40
0.059917709
 40
0.0749198276
 40
0.0899368702
 40
0.1049716217
 40
0.120026759
 40
0.1351048351
 40
0.1502082677
 40
0.1653393229
 40
0.1805001009
 40
0.1956925286
 40
0.2109183481
 40
0.2261791043
 40
0.2414761418
 40
0.256810598
 40
0.2721833946
 40
0.287595237
 40
0.3030466133
 40
0.3340634927
 40
0.3652389307
 40
0.3965689749
 40
0.4280463623
 40
0.4596607137
 40
0.4913987952
 40
0.5232448251
 40
0.5551808189
 40
0.5871869764
 40
0.6192420905
 40
0.6513239761
 40
0.6834099169
 40
0.7154771164
 40
0.7475031494
 40
0.779466411
 40
0.8113465537
 40
0.8431249023
 40
0.8747848503
 40
0.906312225
 40
0.9376956122
 40
0.9689264437
 40
1.0
 40
1.0
 40
1.0
 40
1.0
 10
11.4596684171
 20
7.8103184034
 30
0.0
 10
11.4654338745
 20
7.8158874228
 30
0.0
 10
11.4771886987
 20
7.8267986422
 30
0.0
 10
11.4954593817
 20
7.842453568
 30
0.0
 10
11.5143452301
 20
7.8573769832
 30
0.0
 10
11.5338199255
 20
7.8715479711
 30
0.0
 10
11.5538567763
 20
7.8849471003
 30
0.0
 10
11.574428141
 20
7.8975559693
 30
0.0
 10
11.5955057256
 20
7.9093572291
 30
0.0
 10
11.6170605438
 20
7.9203345992
 30
0.0
 10
11.639062899
 20
7.930473046
 30
0.0
 10
11.6614825143
 20
7.9397586339
 30
0.0
 10
11.6842885609
 20
7.9481785401
 30
0.0
 10
11.7074496342
 20
7.9557212478
 30
0.0
 10
11.7309338624
 20
7.9623764149
 30
0.0
 10
11.7547089507
 20
7.9681348395
 30
0.0
 10
11.77874218
 20
7.972988653
 30
0.0
 10
11.8030004745
 20
7.9769312337
 30
0.0
 10
11.8274505053
 20
7.9799571163
 30
0.0
 10
11.852058521
 20
7.9820621802
 30
0.0
 10
11.8767911052
 20
7.9832435621
 30
0.0
 10
11.9099262169
 20
7.9835855595
 30
0.0
 10
11.9514949223
 20
7.9816895077
 30
0.0
 10
12.0012543705
 20
7.9757263594
 30
0.0
 10
12.0506898061
 20
7.9661059862
 30
0.0
 10
12.0995278355
 20
7.9528816138
 30
0.0
 10
12.1475008422
 20
7.936126467
 30
0.0
 10
12.1943453696
 20
7.9159329462
 30
0.0
 10
12.2398043503
 20
7.8924122297
 30
0.0
 10
12.2836283809
 20
7.8656938169
 30
0.0
 10
12.3255769734
 20
7.8359245272
 30
0.0
 10
12.3654199621
 20
7.8032679316
 30
0.0
 10
12.4029387642
 20
7.7679034183
 30
0.0
 10
12.437927405
 20
7.7300250596
 30
0.0
 10
12.4701938696
 20
7.6898408025
 30
0.0
 10
12.4995609875
 20
7.6475711595
 30
0.0
 10
12.5258673602
 20
7.6034480275
 30
0.0
 10
12.5489684713
 20
7.5577135566
 30
0.0
 10
12.5687371884
 20
7.5106186912
 30
0.0
 10
12.5850646188
 20
7.462421806
 30
0.0
 10
12.5978607938
 20
7.4133877262
 30
0.0
 10
12.6070548348
 20
7.3637847291
 30
0.0
 10
12.6125958816
 20
7.3138887539
 30
0.0
 10
12.6138369648
 20
7.2805182552
 30
0.0
 10
12.6138369648
 20
7.2638815089
 30
0.0
  0
SPLINE
  5
395
100
AcDbEntity
  8
0
100
AcDbSpline
 62
7
  6
CONTINUOUS
 70
0
 71
3
 72
39
 73
35
 74
0
 42
0.0000001
 43
0.0000001
 44
0.0000000001
 40
0.0
 40
0.0
 40
0.0
 40
0.0
 40
0.029942471
 40
0.0599093185
 40
0.0899243251
 40
0.1200101042
 40
0.1501875626
 40
0.1804754144
 40
0.2108897595
 40
0.2414437366
 40
0.2721472604
 40
0.3030068427
 40
0.3340254953
 40
0.365202715
 40
0.3965345496
 40
0.4280137343
 40
0.4596298913
 40
0.491369786
 40
0.5232176335
 40
0.55515545
 40
0.587163434
 40
0.6192203769
 40
0.6513040926
 40
0.6833918636
 40
0.7154608918
 40
0.747488751
 40
0.7794538351
 40
0.8113357952
 40
0.8431159564
 40
0.874777711
 40
0.9063068724
 40
0.937692086
 40
0.9689246467
 40
1.0
 40
1.0
 40
1.0
 40
1.0
 10
11.62896916
 20
7.6749297782
 30
0.0
 10
11.636932187
 20
7.6826214985
 30
0.0
 10
11.6534844286
 20
7.6973841503
 30
0.0
 10
11.6800036811
 20
7.7174956642
 30
0.0
 10
11.7080783008
 20
7.7354740347
 30
0.0
 10
11.7375513987
 20
7.7512184357
 30
0.0
 10
11.7682609394
 20
7.7646428497
 30
0.0
 10
11.8000374498
 20
7.7756734624
 30
0.0
 10
11.8327058227
 20
7.7842499094
 30
0.0
 10
11.8660860694
 20
7.7903253963
 30
0.0
 10
11.8999944059
 20
7.7938669252
 30
0.0
 10
11.9342442446
 20
7.7948554467
 30
0.0
 10
11.9686472187
 20
7.7932859376
 30
0.0
 10
12.0030142159
 20
7.7891674812
 30
0.0
 10
12.0371564127
 20
7.7825231259
 30
0.0
 10
12.0708862955
 20
7.773389743
 30
0.0
 10
12.1040186673
 20
7.7618178037
 30
0.0
 10
12.1363716661
 20
7.7478711498
 30
0.0
 10
12.1677677535
 20
7.7316266231
 30
0.0
 10
12.1980346575
 20
7.7131736017
 30
0.0
 10
12.2270063028
 20
7.6926135182
 30
0.0
 10
12.2545237132
 20
7.6700593198
 30
0.0
 10
12.2804359123
 20
7.6456348918
 30
0.0
 10
12.3046006985
 20
7.6194743232
 30
0.0
 10
12.3268854207
 20
7.5917211905
 30
0.0
 10
12.3471676866
 20
7.5625277729
 30
0.0
 10
12.3653360875
 20
7.5320542706
 30
0.0
 10
12.3812907703
 20
7.500467895
 30
0.0
 10
12.3949439661
 20
7.4679419783
 30
0.0
 10
12.4062204571
 20
7.4346549612
 30
0.0
 10
12.4150580625
 20
7.4007897148
 30
0.0
 10
12.4214078772
 20
7.3665315741
 30
0.0
 10
12.4252348119
 20
7.3320710807
 30
0.0
 10
12.4260919501
 20
7.3090238636
 30
0.0
 10
12.4260919501
 20
7.2975337397
 30
0.0
  0
SPLINE
  5
396
100
AcDbEntity
  8
0
100
AcDbSpline
 62
7
  6
CONTINUOUS
 70
0
 71
3
 72
23
 73
19
 74
0
 42
0.0000001
 43
0.0000001
 44
0.0000000001
 40
0.0
 40
0.0
 40
0.0
 40
0.0
 40
0.0617101454
 40
0.1234413989
 40
0.1852146487
 40
0.247050356
 40
0.3089683484
 40
0.3709876189
 40
0.4331261353
 40
0.495400665
 40
0.5578266135
 40
0.620417907
 40
0.6831868089
 40
0.7461438636
 40
0.809298024
 40
0.8726551577
 40
0.9362228294
 40
1.0
 40
1.0
 40
1.0
 40
1.0
 10
12.2959258919
 20
6.9844454012
 30
0.0
 10
12.3010799088
 20
6.9894238166
 30
0.0
 10
12.3111354049
 20
6.9996495604
 30
0.0
 10
12.3254125005
 20
7.0157464412
 30
0.0
 10
12.3388534285
 20
7.0325672173
 30
0.0
 10
12.3514266666
 20
7.0500725596
 30
0.0
 10
12.3631033823
 20
7.0682222166
 30
0.0
 10
12.3738566248
 20
7.086974283
 30
0.0
 10
12.3836616126
 20
7.106285519
 30
0.0
 10
12.3924957746
 20
7.1261113672
 30
0.0
 10
12.4003387971
 20
7.1464060917
 30
0.0
 10
12.4071726366
 20
7.1671228889
 30
0.0
 10
12.4129815773
 20
7.188213984
 30
0.0
 10
12.4177522716
 20
7.2096307871
 30
0.0
 10
12.4214737161
 20
7.2313237949
 30
0.0
 10
12.4241375697
 20
7.2532433821
 30
0.0
 10
12.4257374789
 20
7.2753381252
 30
0.0
 10
12.4260919501
 20
7.2901279291
 30
0.0
 10
12.4260919501
 20
7.2975337397
 30
0.0
  0
SPLINE
  5
397
100
AcDbEntity
  8
0
100
AcDbSpline
 62
7
  6
CONTINUOUS
 70
0
 71
3
 72
49
 73
45
 74
0
 42
0.0000001
 43
0.0000001
 44
0.0000000001
 40
0.0
 40
0.0
 40
0.0
 40
0.0
 40
0.0149718081
 40
0.0299466748
 40
0.0449276404
 40
0.059917709
 40
0.0749198276
 40
0.0899368702
 40
0.1049716217
 40
0.120026759
 40
0.1351048351
 40
0.1502082677
 40
0.1653393229
 40
0.1805001009
 40
0.1956925286
 40
0.2109183481
 40
0.2261791043
 40
0.2414761418
 40
0.256810598
 40
0.2721833946
 40
0.287595237
 40
0.3030466133
 40
0.3340634927
 40
0.3652389307
 40
0.3965689749
 40
0.4280463623
 40
0.4596607137
 40
0.4913987952
 40
0.5232448251
 40
0.5551808189
 40
0.5871869764
 40
0.6192420905
 40
0.6513239761
 40
0.6834099169
 40
0.7154771164
 40
0.7475031494
 40
0.779466411
 40
0.8113465537
 40
0.8431249023
 40
0.8747848503
 40
0.906312225
 40
0.9376956122
 40
0.9689264437
 40
1.0
 40
1.0
 40
1.0
 40
1.0
 10
8.5618907666
 20
8.011279966
 30
0.0
 10
8.5676562239
 20
8.0168489854
 30
0.0
 10
8.5794110481
 20
8.0277602048
 30
0.0
 10
8.5976817311
 20
8.0434151306
 30
0.0
 10
8.6165675795
 20
8.0583385458
 30
0.0
 10
8.6360422749
 20
8.0725095338
 30
0.0
 10
8.6560791257
 20
8.0859086629
 30
0.0
 10
8.6766504905
 20
8.098517532
 30
0.0
 10
8.697728075
 20
8.1103187918
 30
0.0
 10
8.7192828932
 20
8.1212961619
 30
0.0
 10
8.7412852484
 20
8.1314346086
 30
0.0
 10
8.7637048637
 20
8.1407201965
 30
0.0
 10
8.7865109103
 20
8.1491401027
 30
0.0
 10
8.8096719836
 20
8.1566828105
 30
0.0
 10
8.8331562118
 20
8.1633379776
 30
0.0
 10
8.8569313001
 20
8.1690964021
 30
0.0
 10
8.8809645294
 20
8.1739502156
 30
0.0
 10
8.9052228239
 20
8.1778927963
 30
0.0
 10
8.9296728547
 20
8.1809186789
 30
0.0
 10
8.9542808704
 20
8.1830237429
 30
0.0
 10
8.9790134546
 20
8.1842051247
 30
0.0
 10
9.0121485663
 20
8.1845471221
 30
0.0
 10
9.0537172717
 20
8.1826510703
 30
0.0
 10
9.1034767199
 20
8.176687922
 30
0.0
 10
9.1529121556
 20
8.1670675489
 30
0.0
 10
9.2017501849
 20
8.1538431765
 30
0.0
 10
9.2497231917
 20
8.1370880296
 30
0.0
 10
9.2965677191
 20
8.1168945088
 30
0.0
 10
9.3420266997
 20
8.0933737923
 30
0.0
 10
9.3858507303
 20
8.0666553795
 30
0.0
 10
9.4277993228
 20
8.0368860898
 30
0.0
 10
9.4676423115
 20
8.0042294943
 30
0.0
 10
9.5051611136
 20
7.9688649809
 30
0.0
 10
9.5401497545
 20
7.9309866222
 30
0.0
 10
9.5724162191
 20
7.8908023652
 30
0.0
 10
9.601783337
 20
7.8485327222
 30
0.0
 10
9.6280897097
 20
7.8044095901
 30
0.0
 10
9.6511908208
 20
7.7586751193
 30
0.0
 10
9.6709595378
 20
7.7115802539
 30
0.0
 10
9.6872869682
 20
7.6633833686
 30
0.0
 10
9.7000831432
 20
7.6143492888
 30
0.0
 10
9.7092771843
 20
7.5647462917
 30
0.0
 10
9.714818231
 20
7.5148503165
 30
0.0
 10
9.7160593142
 20
7.4814798179
 30
0.0
 10
9.7160593142
 20
7.4648430715
 30
0.0
  0
SPLINE
  5
398
100
AcDbEntity
  8
0
100
AcDbSpline
 62
7
  6
CONTINUOUS
 70
0
 71
3
 72
39
 73
35
 74
0
 42
0.0000001
 43
0.0000001
 44
0.0000000001
 40
0.0
 40
0.0
 40
0.0
 40
0.0
 40
0.029942471
 40
0.0599093185
 40
0.0899243251
 40
0.1200101042
 40
0.1501875626
 40
0.1804754144
 40
0.2108897595
 40
0.2414437366
 40
0.2721472604
 40
0.3030068427
 40
0.3340254953
 40
0.365202715
 40
0.3965345496
 40
0.4280137343
 40
0.4596298913
 40
0.491369786
 40
0.5232176335
 40
0.55515545
 40
0.587163434
 40
0.6192203769
 40
0.6513040926
 40
0.6833918636
 40
0.7154608918
 40
0.747488751
 40
0.7794538351
 40
0.8113357952
 40
0.8431159564
 40
0.874777711
 40
0.9063068724
 40
0.937692086
 40
0.9689246467
 40
1.0
 40
1.0
 40
1.0
 40
1.0
 10
8.7311915094
 20
7.8758913408
 30
0.0
 10
8.7391545364
 20
7.8835830612
 30
0.0
 10
8.755706778
 20
7.8983457129
 30
0.0
 10
8.7822260306
 20
7.9184572269
 30
0.0
 10
8.8103006502
 20
7.9364355973
 30
0.0
 10
8.8397737481
 20
7.9521799983
 30
0.0
 10
8.8704832888
 20
7.9656044124
 30
0.0
 10
8.9022597992
 20
7.976635025
 30
0.0
 10
8.9349281721
 20
7.985211472
 30
0.0
 10
8.9683084188
 20
7.9912869589
 30
0.0
 10
9.0022167553
 20
7.9948284879
 30
0.0
 10
9.036466594
 20
7.9958170093
 30
0.0
 10
9.0708695682
 20
7.9942475003
 30
0.0
 10
9.1052365653
 20
7.9901290439
 30
0.0
 10
9.1393787621
 20
7.9834846885
 30
0.0
 10
9.1731086449
 20
7.9743513056
 30
0.0
 10
9.2062410167
 20
7.9627793663
 30
0.0
 10
9.2385940155
 20
7.9488327124
 30
0.0
 10
9.2699901029
 20
7.9325881857
 30
0.0
 10
9.300257007
 20
7.9141351643
 30
0.0
 10
9.3292286522
 20
7.8935750809
 30
0.0
 10
9.3567460627
 20
7.8710208825
 30
0.0
 10
9.3826582618
 20
7.8465964544
 30
0.0
 10
9.4068230479
 20
7.8204358858
 30
0.0
 10
9.4291077701
 20
7.7926827531
 30
0.0
 10
9.4493900361
 20
7.7634893356
 30
0.0
 10
9.467558437
 20
7.7330158333
 30
0.0
 10
9.4835131197
 20
7.7014294576
 30
0.0
 10
9.4971663155
 20
7.668903541
 30
0.0
 10
9.5084428066
 20
7.6356165238
 30
0.0
 10
9.5172804119
 20
7.6017512774
 30
0.0
 10
9.5236302267
 20
7.5674931367
 30
0.0
 10
9.5274571613
 20
7.5330326434
 30
0.0
 10
9.5283142995
 20
7.5099854262
 30
0.0
 10
9.5283142995
 20
7.4984953023
 30
0.0
  0
SPLINE
  5
399
100
AcDbEntity
  8
0
100
AcDbSpline
 62
7
  6
CONTINUOUS
 70
0
 71
3
 72
23
 73
19
 74
0
 42
0.0000001
 43
0.0000001
 44
0.0000000001
 40
0.0
 40
0.0
 40
0.0
 40
0.0
 40
0.0617101454
 40
0.1234413989
 40
0.1852146487
 40
0.247050356
 40
0.3089683484
 40
0.3709876189
 40
0.4331261353
 40
0.495400665
 40
0.5578266135
 40
0.620417907
 40
0.6831868089
 40
0.7461438636
 40
0.809298024
 40
0.8726551577
 40
0.9362228294
 40
1.0
 40
1.0
 40
1.0
 40
1.0
 10
9.3981482414
 20
7.1854069638
 30
0.0
 10
9.4033022582
 20
7.1903853792
 30
0.0
 10
9.4133577544
 20
7.200611123
 30
0.0
 10
9.4276348499
 20
7.2167080038
 30
0.0
 10
9.441075778
 20
7.23352878
 30
0.0
 10
9.453649016
 20
7.2510341222
 30
0.0
 10
9.4653257318
 20
7.2691837792
 30
0.0
 10
9.4760789743
 20
7.2879358456
 30
0.0
 10
9.485883962
 20
7.3072470817
 30
0.0
 10
9.494718124
 20
7.3270729298
 30
0.0
 10
9.5025611465
 20
7.3473676543
 30
0.0
 10
9.5093949861
 20
7.3680844515
 30
0.0
 10
9.5152039268
 20
7.3891755467
 30
0.0
 10
9.5199746211
 20
7.4105923497
 30
0.0
 10
9.5236960656
 20
7.4322853575
 30
0.0
 10
9.5263599191
 20
7.4542049447
 30
0.0
 10
9.5279598283
 20
7.4762996879
 30
0.0
 10
9.5283142995
 20
7.4910894917
 30
0.0
 10
9.5283142995
 20
7.4984953023
 30
0.0
  0
SPLINE
  5
39A
100
AcDbEntity
  8
0
100
AcDbSpline
 62
7
  6
CONTINUOUS
 70
0
 71
3
 72
21
 73
17
 74
0
 42
0.0000001
 43
0.0000001
 44
0.0000000001
 40
0.0
 40
0.0
 40
0.0
 40
0.0
 40
0.1574553987
 40
0.2306618671
 40
0.300491016
 40
0.4310225682
 40
0.4924828854
 40
0.5518301073
 40
0.6094528842
 40
0.665757432
 40
0.7211657383
 40
0.7761192484
 40
0.8310553135
 40
0.8864038819
 40
0.9425876441
 40
1.0
 40
1.0
 40
1.0
 40
1.0
 10
9.5219168394
 20
7.5736755531
 30
0.0
 10
9.5202366599
 20
7.5738499873
 30
0.0
 10
9.5177854028
 20
7.5742572208
 30
0.0
 10
9.5146806934
 20
7.5751348874
 30
0.0
 10
9.5119238611
 20
7.5761472888
 30
0.0
 10
9.5094059996
 20
7.5774290774
 30
0.0
 10
9.5071920139
 20
7.5789739841
 30
0.0
 10
9.505730625
 20
7.5802151612
 30
0.0
 10
9.504437515
 20
7.5815549629
 30
0.0
 10
9.5033140652
 20
7.5829867409
 30
0.0
 10
9.5023617102
 20
7.5845039527
 30
0.0
 10
9.5015815932
 20
7.5861001905
 30
0.0
 10
9.5009745668
 20
7.587769192
 30
0.0
 10
9.5005413034
 20
7.5895050264
 30
0.0
 10
9.5002821034
 20
7.5913017595
 30
0.0
 10
9.5002261449
 20
7.5925213123
 30
0.0
 10
9.5002260619
 20
7.5931372425
 30
0.0
  0
SPLINE
  5
39B
100
AcDbEntity
  8
0
100
AcDbSpline
 62
7
  6
CONTINUOUS
 70
0
 71
3
 72
66
 73
62
 74
0
 42
0.0000001
 43
0.0000001
 44
0.0000000001
 40
0.0
 40
0.0
 40
0.0
 40
0.0
 40
0.0027164831
 40
0.0054533362
 40
0.0082304531
 40
0.0110667909
 40
0.013980033
 40
0.0169863865
 40
0.0233315171
 40
0.02669792
 40
0.0302059105
 40
0.0376767845
 40
0.0457991388
 40
0.0546090923
 40
0.064129998
 40
0.0743752163
 40
0.0853502613
 40
0.097054292
 40
0.1094812194
 40
0.1226206562
 40
0.1364585492
 40
0.1509776
 40
0.1661577381
 40
0.1819764535
 40
0.1984089799
 40
0.2154285414
 40
0.2330065886
 40
0.2511129133
 40
0.269715773
 40
0.2887820895
 40
0.3082775532
 40
0.3281666936
 40
0.3689784329
 40
0.4109162814
 40
0.4536671486
 40
0.4969100345
 40
0.5403192165
 40
0.5835673737
 40
0.626328724
 40
0.6682821728
 40
0.7091144878
 40
0.7290157032
 40
0.7485243984
 40
0.7676050955
 40
0.7862234091
 40
0.8043462161
 40
0.8219417709
 40
0.8389797906
 40
0.855431638
 40
0.8712705233
 40
0.8864716185
 40
0.9010122805
 40
0.9148723878
 40
0.9280345868
 40
0.9404846517
 40
0.9522120616
 40
0.9632106634
 40
0.9734793613
 40
0.983023321
 40
0.9918561545
 40
1.0
 40
1.0
 40
1.0
 40
1.0
 10
13.0704068828
 20
6.1203579656
 30
0.0
 10
13.0697489841
 20
6.1204035857
 30
0.0
 10
13.068431622
 20
6.120554712
 30
0.0
 10
13.0664723402
 20
6.1209590957
 30
0.0
 10
13.064527872
 20
6.1215412004
 30
0.0
 10
13.0625996136
 20
6.1223003856
 30
0.0
 10
13.0606884606
 20
6.12323602
 30
0.0
 10
13.0581187957
 20
6.1247446827
 30
0.0
 10
13.0556313204
 20
6.1265916218
 30
0.0
 10
13.0532344763
 20
6.1287273638
 30
0.0
 10
13.0507666702
 20
6.1311871449
 30
0.0
 10
13.0477444023
 20
6.1347142918
 30
0.0
 10
13.0442892062
 20
6.1395339713
 30
0.0
 10
13.0409372146
 20
6.1450176146
 30
0.0
 10
13.0376942069
 20
6.1511546715
 30
0.0
 10
13.0345658717
 20
6.1579337905
 30
0.0
 10
13.0315581563
 20
6.1653420386
 30
0.0
 10
13.0286769208
 20
6.1733651146
 30
0.0
 10
13.0259278619
 20
6.181987322
 30
0.0
 10
13.0233165028
 20
6.1911916772
 30
0.0
 10
13.0208481399
 20
6.2009599468
 30
0.0
 10
13.0185277578
 20
6.211272687
 30
0.0
 10
13.0163600675
 20
6.2221093165
 30
0.0
 10
13.014349497
 20
6.2334481725
 30
0.0
 10
13.0125001311
 20
6.2452665457
 30
0.0
 10
13.0108157217
 20
6.2575407382
 30
0.0
 10
13.0092997091
 20
6.270246127
 30
0.0
 10
13.0079551871
 20
6.2833572059
 30
0.0
 10
13.006784874
 20
6.2968476392
 30
0.0
 10
13.005791163
 20
6.3106903168
 30
0.0
 10
13.0049760686
 20
6.3248574454
 30
0.0
 10
13.0041224297
 20
6.3443084245
 30
0.0
 10
13.0035226329
 20
6.3692216814
 30
0.0
 10
13.0035368896
 20
6.3996921372
 30
0.0
 10
13.0042795869
 20
6.4307438921
 30
0.0
 10
13.0057448946
 20
6.4621274053
 30
0.0
 10
13.0079211969
 20
6.4935906397
 30
0.0
 10
13.0107909792
 20
6.5248808402
 30
0.0
 10
13.0143310973
 20
6.5557467349
 30
0.0
 10
13.0185129485
 20
6.5859402978
 30
0.0
 10
13.0225378273
 20
6.6105454642
 30
0.0
 10
13.0260620373
 20
6.6297048758
 30
0.0
 10
13.0288205677
 20
6.6436345539
 30
0.0
 10
13.0317113835
 20
6.6572191277
 30
0.0
 10
13.0347286926
 20
6.6704313146
 30
0.0
 10
13.037866389
 20
6.6832445695
 30
0.0
 10
13.0411181247
 20
6.6956331679
 30
0.0
 10
13.0444773391
 20
6.707572239
 30
0.0
 10
13.0479372521
 20
6.7190378314
 30
0.0
 10
13.0514908538
 20
6.7300069738
 30
0.0
 10
13.055130965
 20
6.7404577059
 30
0.0
 10
13.0588502519
 20
6.75036913
 30
0.0
 10
13.0626411913
 20
6.7597214862
 30
0.0
 10
13.0664961406
 20
6.7684961803
 30
0.0
 10
13.0704073815
 20
6.7766758215
 30
0.0
 10
13.0743670919
 20
6.7842443093
 30
0.0
 10
13.0783674493
 20
6.791186877
 30
0.0
 10
13.0824006259
 20
6.7974900341
 30
0.0
 10
13.0864591652
 20
6.8031420098
 30
0.0
 10
13.0905352244
 20
6.8081315423
 30
0.0
 10
13.0933718742
 20
6.8111286699
 30
0.0
 10
13.0947938945
 20
6.8125022362
 30
0.0
  0
SPLINE
  5
39C
100
AcDbEntity
  8
0
100
AcDbSpline
 62
7
  6
CONTINUOUS
 70
0
 71
3
 72
54
 73
50
 74
0
 42
0.0000001
 43
0.0000001
 44
0.0000000001
 40
0.0
 40
0.0
 40
0.0
 40
0.0
 40
0.0070067051
 40
0.0138996074
 40
0.0207472528
 40
0.0276162813
 40
0.0345708256
 40
0.0416692243
 40
0.0489645933
 40
0.0565025755
 40
0.0643226764
 40
0.0724574674
 40
0.0809337455
 40
0.0897729788
 40
0.0989917201
 40
0.1086029035
 40
0.1186154807
 40
0.1290361265
 40
0.1398684174
 40
0.1511145251
 40
0.1627743582
 40
0.1748469033
 40
0.1873296191
 40
0.2002192805
 40
0.2271984752
 40
0.2557482106
 40
0.2858214609
 40
0.3173657827
 40
0.3503237557
 40
0.3846323194
 40
0.4202213955
 40
0.4570122615
 40
0.4949162575
 40
0.5338345316
 40
0.5736593036
 40
0.6142773092
 40
0.6555745429
 40
0.6974414139
 40
0.7397779555
 40
0.7611008658
 40
0.7825098989
 40
0.8039967408
 40
0.8255540631
 40
0.8688444083
 40
0.912356314
 40
0.9341940915
 40
0.9560804321
 40
0.9780166172
 40
1.0
 40
1.0
 40
1.0
 40
1.0
 10
12.3381682442
 20
7.4617194151
 30
0.0
 10
12.3381685044
 20
7.4604217639
 30
0.0
 10
12.3380584881
 20
7.4578459055
 30
0.0
 10
12.3375468477
 20
7.4540324801
 30
0.0
 10
12.3366904853
 20
7.4503071845
 30
0.0
 10
12.3354902749
 20
7.4466662204
 30
0.0
 10
12.3339477259
 20
7.4431061651
 30
0.0
 10
12.3320646454
 20
7.4396243057
 30
0.0
 10
12.3298433712
 20
7.4362185943
 30
0.0
 10
12.3272860235
 20
7.4328878404
 30
0.0
 10
12.3243951442
 20
7.4296316457
 30
0.0
 10
12.3211730705
 20
7.4264507333
 30
0.0
 10
12.3176223896
 20
7.4233468472
 30
0.0
 10
12.313745869
 20
7.4203227852
 30
0.0
 10
12.3095462638
 20
7.4173827044
 30
0.0
 10
12.3050269393
 20
7.4145314675
 30
0.0
 10
12.3001910294
 20
7.4117756643
 30
0.0
 10
12.2950425418
 20
7.4091222306
 30
0.0
 10
12.2895852257
 20
7.4065800363
 30
0.0
 10
12.2838237412
 20
7.4041581746
 30
0.0
 10
12.277762672
 20
7.4018675698
 30
0.0
 10
12.2714074281
 20
7.3997195577
 30
0.0
 10
12.2647635587
 20
7.3977269081
 30
0.0
 10
12.2553860388
 20
7.3952577992
 30
0.0
 10
12.2429738628
 20
7.3926580213
 30
0.0
 10
12.2272638636
 20
7.3904449596
 30
0.0
 10
12.2105955874
 20
7.3892343173
 30
0.0
 10
12.1930656213
 20
7.3891792012
 30
0.0
 10
12.1747926393
 20
7.390440321
 30
0.0
 10
12.1559227024
 20
7.393180594
 30
0.0
 10
12.1366326649
 20
7.3975574906
 30
0.0
 10
12.1171321274
 20
7.4037132596
 30
0.0
 10
12.0976622869
 20
7.4117635884
 30
0.0
 10
12.0784908476
 20
7.4217859805
 30
0.0
 10
12.059902385
 20
7.4338096469
 30
0.0
 10
12.042185608
 20
7.4478096858
 30
0.0
 10
12.0256189209
 20
7.4637071015
 30
0.0
 10
12.0104579594
 20
7.4813715158
 30
0.0
 10
11.9992042178
 20
7.4973904357
 30
0.0
 10
11.991098418
 20
7.5109058328
 30
0.0
 10
11.985476082
 20
7.521391793
 30
0.0
 10
11.9803436316
 20
7.5321740589
 30
0.0
 10
11.9741654621
 20
7.5469270149
 30
0.0
 10
11.9677415091
 20
7.5659731141
 30
0.0
 10
11.9631235803
 20
7.5855883781
 30
0.0
 10
11.9605260818
 20
7.6015393029
 30
0.0
 10
11.9591296687
 20
7.6136238672
 30
0.0
 10
11.9582910109
 20
7.6257863819
 30
0.0
 10
11.9581049206
 20
7.6339216027
 30
0.0
 10
11.9581049206
 20
7.6379929548
 30
0.0
  0
SPLINE
  5
39D
100
AcDbEntity
  8
0
100
AcDbSpline
 62
7
  6
CONTINUOUS
 70
0
 71
3
 72
21
 73
17
 74
0
 42
0.0000001
 43
0.0000001
 44
0.0000000001
 40
0.0
 40
0.0
 40
0.0
 40
0.0
 40
0.1273176366
 40
0.2537999756
 40
0.3167619475
 40
0.3795355041
 40
0.4421314991
 40
0.5045621439
 40
0.5668413432
 40
0.6289845283
 40
0.6910084528
 40
0.7529310935
 40
0.8147714495
 40
0.8765493365
 40
0.9382852194
 40
1.0
 40
1.0
 40
1.0
 40
1.0
 10
8.5332559173
 20
9.1821189385
 30
0.0
 10
8.5332559173
 20
9.1898184296
 30
0.0
 10
8.5339908845
 20
9.2051768079
 30
0.0
 10
8.5367666172
 20
9.2241630818
 30
0.0
 10
8.5400842349
 20
9.2390561539
 30
0.0
 10
8.543109724
 20
9.2500412892
 30
0.0
 10
8.5466690083
 20
9.2608312369
 30
0.0
 10
8.5507539324
 20
9.2714014111
 30
0.0
 10
8.5553550479
 20
9.2817273731
 30
0.0
 10
8.5604618085
 20
9.2917853097
 30
0.0
 10
8.5660624674
 20
9.301552002
 30
0.0
 10
8.5721440758
 20
9.3110049554
 30
0.0
 10
8.5786926257
 20
9.3201223285
 30
0.0
 10
8.5856931304
 20
9.3288831307
 30
0.0
 10
8.5931291168
 20
9.3372669194
 30
0.0
 10
8.5983663308
 20
9.3425928496
 30
0.0
 10
8.6010507186
 20
9.3451857696
 30
0.0
  0
SPLINE
  5
39E
100
AcDbEntity
  8
0
100
AcDbSpline
 62
7
  6
CONTINUOUS
 70
0
 71
3
 72
41
 73
37
 74
0
 42
0.0000001
 43
0.0000001
 44
0.0000000001
 40
0.0
 40
0.0
 40
0.0
 40
0.0
 40
0.02994217
 40
0.0599087163
 40
0.0899234211
 40
0.1200088983
 40
0.1501860545
 40
0.180473603
 40
0.2108876428
 40
0.2414413131
 40
0.272144529
 40
0.3030038014
 40
0.3340221415
 40
0.3651990472
 40
0.3965305674
 40
0.4280094369
 40
0.4596252771
 40
0.4913648532
 40
0.5232123811
 40
0.5551498769
 40
0.5871575393
 40
0.6192141597
 40
0.6512975533
 40
0.6833850024
 40
0.715453709
 40
0.7314764109
 40
0.7474860771
 40
0.7794508406
 40
0.8113324805
 40
0.8431123203
 40
0.8747737614
 40
0.9063025944
 40
0.9376875101
 40
0.9533255637
 40
0.9689249842
 40
1.0
 40
1.0
 40
1.0
 40
1.0
 10
12.4103461799
 20
7.3278469181
 30
0.0
 10
12.4051619084
 20
7.3228392973
 30
0.0
 10
12.3943857169
 20
7.3132281893
 30
0.0
 10
12.3771205801
 20
7.3001347539
 30
0.0
 10
12.3588428421
 20
7.2884300724
 30
0.0
 10
12.339654629
 20
7.2781798074
 30
0.0
 10
12.3196614348
 20
7.2694399619
 30
0.0
 10
12.2989736002
 20
7.2622585805
 30
0.0
 10
12.2777051295
 20
7.2566749518
 30
0.0
 10
12.2559731977
 20
7.2527195582
 30
0.0
 10
12.233897457
 20
7.2504138834
 30
0.0
 10
12.2115993854
 20
7.2497703225
 30
0.0
 10
12.1892016163
 20
7.2507921267
 30
0.0
 10
12.1668272683
 20
7.2534734015
 30
0.0
 10
12.144599275
 20
7.2577991511
 30
0.0
 10
12.1226397178
 20
7.2637453718
 30
0.0
 10
12.1010691641
 20
7.2712791889
 30
0.0
 10
12.0800060124
 20
7.2803590381
 30
0.0
 10
12.0595658526
 20
7.2909349055
 30
0.0
 10
12.0398608437
 20
7.3029485979
 30
0.0
 10
12.0209990942
 20
7.3163340794
 30
0.0
 10
12.0030841243
 20
7.3310177669
 30
0.0
 10
11.9862141279
 20
7.3469191745
 30
0.0
 10
11.9704821005
 20
7.3639504418
 30
0.0
 10
11.9583871853
 20
7.3790134216
 30
0.0
 10
11.9493632959
 20
7.391533815
 30
0.0
 10
11.9407933801
 20
7.404339096
 30
0.0
 10
11.9309404438
 20
7.4208651002
 30
0.0
 10
11.9205535235
 20
7.4414287977
 30
0.0
 10
11.9116646736
 20
7.462604597
 30
0.0
 10
11.9043232172
 20
7.4842759076
 30
0.0
 10
11.8985695972
 20
7.5063232195
 30
0.0
 10
11.8951201886
 20
7.524933554
 30
0.0
 10
11.8931851553
 20
7.5398867005
 30
0.0
 10
11.8918041817
 20
7.5548255488
 30
0.0
 10
11.8913860364
 20
7.5660669143
 30
0.0
 10
11.8913860364
 20
7.5735474575
 30
0.0
  0
SPLINE
  5
39F
100
AcDbEntity
  8
0
100
AcDbSpline
 62
7
  6
CONTINUOUS
 70
0
 71
3
 72
49
 73
45
 74
0
 42
0.0000001
 43
0.0000001
 44
0.0000000001
 40
0.0
 40
0.0
 40
0.0
 40
0.0
 40
0.0149718081
 40
0.0299466748
 40
0.0449276404
 40
0.059917709
 40
0.0749198276
 40
0.0899368702
 40
0.1049716217
 40
0.120026759
 40
0.1351048351
 40
0.1502082677
 40
0.1653393229
 40
0.1805001009
 40
0.1956925286
 40
0.2109183481
 40
0.2261791043
 40
0.2414761418
 40
0.256810598
 40
0.2721833946
 40
0.287595237
 40
0.3030466133
 40
0.3340634927
 40
0.3652389307
 40
0.3965689749
 40
0.4280463623
 40
0.4596607137
 40
0.4913987952
 40
0.5232448251
 40
0.5551808189
 40
0.5871869764
 40
0.6192420905
 40
0.6513239761
 40
0.6834099169
 40
0.7154771164
 40
0.7475031494
 40
0.779466411
 40
0.8113465537
 40
0.8431249023
 40
0.8747848503
 40
0.906312225
 40
0.9376956122
 40
0.9689264437
 40
1.0
 40
1.0
 40
1.0
 40
1.0
 10
9.5275908838
 20
7.0115183677
 30
0.0
 10
9.5218254265
 20
7.0059493483
 30
0.0
 10
9.5100706023
 20
6.9950381289
 30
0.0
 10
9.4917999193
 20
6.9793832031
 30
0.0
 10
9.4729140708
 20
6.9644597879
 30
0.0
 10
9.4534393754
 20
6.9502888
 30
0.0
 10
9.4334025246
 20
6.9368896708
 30
0.0
 10
9.4128311599
 20
6.9242808018
 30
0.0
 10
9.3917535753
 20
6.912479542
 30
0.0
 10
9.3701987571
 20
6.9015021719
 30
0.0
 10
9.3481964019
 20
6.8913637251
 30
0.0
 10
9.3257767866
 20
6.8820781372
 30
0.0
 10
9.30297074
 20
6.873658231
 30
0.0
 10
9.2798096667
 20
6.8661155233
 30
0.0
 10
9.2563254385
 20
6.8594603562
 30
0.0
 10
9.2325503502
 20
6.8537019316
 30
0.0
 10
9.208517121
 20
6.8488481181
 30
0.0
 10
9.1842588264
 20
6.8449055374
 30
0.0
 10
9.1598087956
 20
6.8418796548
 30
0.0
 10
9.1352007799
 20
6.8397745909
 30
0.0
 10
9.1104681957
 20
6.838593209
 30
0.0
 10
9.0773330841
 20
6.8382512116
 30
0.0
 10
9.0357643786
 20
6.8401472634
 30
0.0
 10
8.9860049305
 20
6.8461104117
 30
0.0
 10
8.9365694948
 20
6.8557307849
 30
0.0
 10
8.8877314654
 20
6.8689551573
 30
0.0
 10
8.8397584587
 20
6.8857103041
 30
0.0
 10
8.7929139313
 20
6.9059038249
 30
0.0
 10
8.7474549506
 20
6.9294245414
 30
0.0
 10
8.70363092
 20
6.9561429542
 30
0.0
 10
8.6616823275
 20
6.9859122439
 30
0.0
 10
8.6218393389
 20
7.0185688395
 30
0.0
 10
8.5843205368
 20
7.0539333528
 30
0.0
 10
8.5493318959
 20
7.0918117115
 30
0.0
 10
8.5170654313
 20
7.1319959686
 30
0.0
 10
8.4876983134
 20
7.1742656116
 30
0.0
 10
8.4613919407
 20
7.2183887436
 30
0.0
 10
8.4382908296
 20
7.2641232145
 30
0.0
 10
8.4185221125
 20
7.3112180799
 30
0.0
 10
8.4021946821
 20
7.3594149651
 30
0.0
 10
8.3893985071
 20
7.408449045
 30
0.0
 10
8.3802044661
 20
7.458052042
 30
0.0
 10
8.3746634193
 20
7.5079480172
 30
0.0
 10
8.3734223361
 20
7.5413185159
 30
0.0
 10
8.3734223361
 20
7.5579552622
 30
0.0
  0
SPLINE
  5
3A0
100
AcDbEntity
  8
0
100
AcDbSpline
 62
7
  6
CONTINUOUS
 70
0
 71
3
 72
41
 73
37
 74
0
 42
0.0000001
 43
0.0000001
 44
0.0000000001
 40
0.0
 40
0.0
 40
0.0
 40
0.0
 40
0.02994217
 40
0.0599087163
 40
0.0899234211
 40
0.1200088983
 40
0.1501860545
 40
0.180473603
 40
0.2108876428
 40
0.2414413131
 40
0.272144529
 40
0.3030038014
 40
0.3340221415
 40
0.3651990472
 40
0.3965305674
 40
0.4280094369
 40
0.4596252771
 40
0.4913648532
 40
0.5232123811
 40
0.5551498769
 40
0.5871575393
 40
0.6192141597
 40
0.6512975533
 40
0.6833850024
 40
0.715453709
 40
0.7314764109
 40
0.7474860771
 40
0.7794508406
 40
0.8113324805
 40
0.8431123203
 40
0.8747737614
 40
0.9063025944
 40
0.9376875101
 40
0.9533255637
 40
0.9689249842
 40
1.0
 40
1.0
 40
1.0
 40
1.0
 10
9.5125685293
 20
7.5288084807
 30
0.0
 10
9.5073842578
 20
7.52380086
 30
0.0
 10
9.4966080663
 20
7.514189752
 30
0.0
 10
9.4793429296
 20
7.5010963165
 30
0.0
 10
9.4610651915
 20
7.4893916351
 30
0.0
 10
9.4418769784
 20
7.4791413701
 30
0.0
 10
9.4218837842
 20
7.4704015246
 30
0.0
 10
9.4011959496
 20
7.4632201431
 30
0.0
 10
9.3799274789
 20
7.4576365145
 30
0.0
 10
9.3581955471
 20
7.4536811208
 30
0.0
 10
9.3361198064
 20
7.4513754461
 30
0.0
 10
9.3138217348
 20
7.4507318851
 30
0.0
 10
9.2914239657
 20
7.4517536894
 30
0.0
 10
9.2690496177
 20
7.4544349641
 30
0.0
 10
9.2468216244
 20
7.4587607137
 30
0.0
 10
9.2248620672
 20
7.4647069344
 30
0.0
 10
9.2032915135
 20
7.4722407515
 30
0.0
 10
9.1822283619
 20
7.4813206007
 30
0.0
 10
9.161788202
 20
7.4918964681
 30
0.0
 10
9.1420831931
 20
7.5039101605
 30
0.0
 10
9.1232214436
 20
7.517295642
 30
0.0
 10
9.1053064738
 20
7.5319793295
 30
0.0
 10
9.0884364773
 20
7.5478807371
 30
0.0
 10
9.0727044499
 20
7.5649120045
 30
0.0
 10
9.0606095348
 20
7.5799749842
 30
0.0
 10
9.0515856454
 20
7.5924953777
 30
0.0
 10
9.0430157296
 20
7.6053006587
 30
0.0
 10
9.0331627932
 20
7.6218266628
 30
0.0
 10
9.022775873
 20
7.6423903603
 30
0.0
 10
9.0138870231
 20
7.6635661597
 30
0.0
 10
9.0065455666
 20
7.6852374702
 30
0.0
 10
9.0007919467
 20
7.7072847821
 30
0.0
 10
8.997342538
 20
7.7258951166
 30
0.0
 10
8.9954075048
 20
7.7408482632
 30
0.0
 10
8.9940265311
 20
7.7557871114
 30
0.0
 10
8.9936083858
 20
7.767028477
 30
0.0
 10
8.9936083858
 20
7.7745090202
 30
0.0
  0
SPLINE
  5
3A1
100
AcDbEntity
  8
0
100
AcDbSpline
 62
7
  6
CONTINUOUS
 70
0
 71
3
 72
23
 73
19
 74
0
 42
0.0000001
 43
0.0000001
 44
0.0000000001
 40
0.0
 40
0.0
 40
0.0
 40
0.0
 40
0.0637767638
 40
0.1273450118
 40
0.1907019674
 40
0.2538561101
 40
0.3168132145
 40
0.3795820843
 40
0.4421733868
 40
0.5045993403
 40
0.5668738673
 40
0.6290123789
 40
0.6910316481
 40
0.752949645
 40
0.8147853545
 40
0.8765586015
 40
0.9382898522
 40
1.0
 40
1.0
 40
1.0
 40
1.0
 10
10.0695882926
 20
9.9758812266
 30
0.0
 10
10.0695882926
 20
9.9816669855
 30
0.0
 10
10.0698652391
 20
9.9932215468
 30
0.0
 10
10.0711151481
 20
10.0104830841
 30
0.0
 10
10.0731962975
 20
10.0276078135
 30
0.0
 10
10.0761036738
 20
10.0445554815
 30
0.0
 10
10.0798308026
 20
10.0612873726
 30
0.0
 10
10.0843690522
 20
10.0777648077
 30
0.0
 10
10.089707982
 20
10.0939498252
 30
0.0
 10
10.0958353455
 20
10.1098050992
 30
0.0
 10
10.102737073
 20
10.1252940459
 30
0.0
 10
10.1103972465
 20
10.1403809542
 30
0.0
 10
10.1187982167
 20
10.1550310266
 30
0.0
 10
10.1279206531
 20
10.1692104674
 30
0.0
 10
10.1377435321
 20
10.1828865128
 30
0.0
 10
10.1482442913
 20
10.1960277393
 30
0.0
 10
10.1593982911
 20
10.2086034331
 30
0.0
 10
10.1672541419
 20
10.2165923184
 30
0.0
 10
10.1712807305
 20
10.220481701
 30
0.0
  0
SPLINE
  5
3A2
100
AcDbEntity
  8
0
100
AcDbSpline
 62
7
  6
CONTINUOUS
 70
0
 71
3
 72
11
 73
7
 74
0
 42
0.0000001
 43
0.0000001
 44
0.0000000001
 40
0.0
 40
0.0
 40
0.0
 40
0.0
 40
0.2423407151
 40
0.4878194231
 40
0.7394471893
 40
1.0
 40
1.0
 40
1.0
 40
1.0
 10
13.1191809062
 20
6.8236687588
 30
0.0
 10
13.1200478768
 20
6.8236086412
 30
0.0
 10
13.1217875502
 20
6.8233836848
 30
0.0
 10
13.1243649885
 20
6.8227368985
 30
0.0
 10
13.1269141637
 20
6.8217814953
 30
0.0
 10
13.1285594974
 20
6.8209568465
 30
0.0
 10
13.1293738026
 20
6.8204986541
 30
0.0
  0
SPLINE
  5
3A3
100
AcDbEntity
  8
0
100
AcDbSpline
 62
7
  6
CONTINUOUS
 70
0
 71
3
 72
23
 73
19
 74
0
 42
0.0000001
 43
0.0000001
 44
0.0000000001
 40
0.0
 40
0.0
 40
0.0
 40
0.0
 40
0.0637776914
 40
0.1273445726
 40
0.19070205
 40
0.2538561286
 40
0.3168131755
 40
0.3795820937
 40
0.4421733816
 40
0.5045993375
 40
0.566873868
 40
0.6290123843
 40
0.691031656
 40
0.7529496505
 40
0.8147853588
 40
0.8765586069
 40
0.938289857
 40
1.0
 40
1.0
 40
1.0
 40
1.0
 10
11.2711999867
 20
7.3569936996
 30
0.0
 10
11.2711999867
 20
7.3677167493
 30
0.0
 10
11.2717131924
 20
7.3891310403
 30
0.0
 10
11.2740297702
 20
7.4211222929
 30
0.0
 10
11.2778867272
 20
7.4528598451
 30
0.0
 10
11.2832750826
 20
7.4842694506
 30
0.0
 10
11.2901826107
 20
7.5152790873
 30
0.0
 10
11.2985933953
 20
7.5458171517
 30
0.0
 10
11.308488149
 20
7.5758132694
 30
0.0
 10
11.3198441158
 20
7.6051982611
 30
0.0
 10
11.3326351809
 20
7.6339043572
 30
0.0
 10
11.3468319073
 20
7.6618653447
 30
0.0
 10
11.3624015977
 20
7.6890167209
 30
0.0
 10
11.3793083995
 20
7.7152958642
 30
0.0
 10
11.3975132968
 20
7.7406420922
 30
0.0
 10
11.4169745325
 20
7.7649971325
 30
0.0
 10
11.4376464683
 20
7.7883040324
 30
0.0
 10
11.4522058517
 20
7.803110099
 30
0.0
 10
11.4596684171
 20
7.8103184034
 30
0.0
  0
SPLINE
  5
3A4
100
AcDbEntity
  8
0
100
AcDbSpline
 62
7
  6
CONTINUOUS
 70
0
 71
3
 72
43
 73
39
 74
0
 42
0.0000001
 43
0.0000001
 44
0.0000000001
 40
0.0
 40
0.0
 40
0.0
 40
0.0
 40
0.0309223397
 40
0.0464388377
 40
0.0619897805
 40
0.093190363
 40
0.1245221229
 40
0.1559767916
 40
0.1875439951
 40
0.2192115049
 40
0.2509654385
 40
0.2827905057
 40
0.3146702645
 40
0.3465873928
 40
0.3785239694
 40
0.4104617622
 40
0.4423825197
 40
0.4742682627
 40
0.5061015729
 40
0.5378658755
 40
0.5695457117
 40
0.6011269984
 40
0.632597271
 40
0.6639459063
 40
0.6951643199
 40
0.7262461366
 40
0.7571873275
 40
0.7879863118
 40
0.8186440177
 40
0.8491639008
 40
0.8643761514
 40
0.8795563822
 40
0.9098209083
 40
0.9399726222
 40
0.9550124024
 40
0.9700289436
 40
0.9850241445
 40
1.0
 40
1.0
 40
1.0
 40
1.0
 10
10.3134573731
 20
8.1458616528
 30
0.0
 10
10.3134573731
 20
8.137812288
 30
0.0
 10
10.3138606946
 20
8.1257189333
 30
0.0
 10
10.3151942252
 20
8.1096355816
 30
0.0
 10
10.3170628816
 20
8.0935320778
 30
0.0
 10
10.3203953863
 20
8.0734655766
 30
0.0
 10
10.3259609772
 20
8.0496243428
 30
0.0
 10
10.3330730878
 20
8.0260978742
 30
0.0
 10
10.3417000958
 20
8.0029907324
 30
0.0
 10
10.3518037793
 20
7.9804048138
 30
0.0
 10
10.3633393974
 20
7.9584399164
 30
0.0
 10
10.3762559094
 20
7.9371930308
 30
0.0
 10
10.3904961951
 20
7.9167579901
 30
0.0
 10
10.4059973065
 20
7.8972250397
 30
0.0
 10
10.4226907448
 20
7.8786804475
 30
0.0
 10
10.4405027602
 20
7.8612061252
 30
0.0
 10
10.4593546759
 20
7.8448792698
 30
0.0
 10
10.479163232
 20
7.8297720248
 30
0.0
 10
10.4998409505
 20
7.8159511645
 30
0.0
 10
10.5212965177
 20
7.8034778002
 30
0.0
 10
10.5434351839
 20
7.792407112
 30
0.0
 10
10.5661591771
 20
7.7827881053
 30
0.0
 10
10.58936813
 20
7.7746633949
 30
0.0
 10
10.61295952
 20
7.7680690158
 30
0.0
 10
10.6368291107
 20
7.763034261
 30
0.0
 10
10.6608714293
 20
7.7595815543
 30
0.0
 10
10.6849801462
 20
7.7577263289
 30
0.0
 10
10.709048843
 20
7.7574770199
 30
0.0
 10
10.7329703554
 20
7.758834778
 30
0.0
 10
10.7527182527
 20
7.7613038433
 30
0.0
 10
10.7683329712
 20
7.7640750494
 30
0.0
 10
10.7837785479
 20
7.7673659831
 30
0.0
 10
10.8028039657
 20
7.7724579493
 30
0.0
 10
10.821396126
 20
7.7788456781
 30
0.0
 10
10.8359334814
 20
7.7847093307
 30
0.0
 10
10.8466512785
 20
7.7894757272
 30
0.0
 10
10.8571797263
 20
7.7946084664
 30
0.0
 10
10.8640692813
 20
7.7982733214
 30
0.0
 10
10.8674780879
 20
7.8001646637
 30
0.0
  0
SPLINE
  5
3A5
100
AcDbEntity
  8
0
100
AcDbSpline
 62
7
  6
CONTINUOUS
 70
0
 71
3
 72
23
 73
19
 74
0
 42
0.0000001
 43
0.0000001
 44
0.0000000001
 40
0.0
 40
0.0
 40
0.0
 40
0.0
 40
0.0637776914
 40
0.1273445726
 40
0.19070205
 40
0.2538561286
 40
0.3168131755
 40
0.3795820937
 40
0.4421733816
 40
0.5045993375
 40
0.566873868
 40
0.6290123843
 40
0.691031656
 40
0.7529496505
 40
0.8147853588
 40
0.8765586069
 40
0.938289857
 40
1.0
 40
1.0
 40
1.0
 40
1.0
 10
8.3734223361
 20
7.5579552622
 30
0.0
 10
8.3734223361
 20
7.568678312
 30
0.0
 10
8.3739355418
 20
7.5900926029
 30
0.0
 10
8.3762521196
 20
7.6220838555
 30
0.0
 10
8.3801090766
 20
7.6538214078
 30
0.0
 10
8.385497432
 20
7.6852310133
 30
0.0
 10
8.3924049601
 20
7.7162406499
 30
0.0
 10
8.4008157447
 20
7.7467787144
 30
0.0
 10
8.4107104984
 20
7.7767748321
 30
0.0
 10
8.4220664652
 20
7.8061598237
 30
0.0
 10
8.4348575304
 20
7.8348659199
 30
0.0
 10
8.4490542568
 20
7.8628269073
 30
0.0
 10
8.4646239472
 20
7.8899782835
 30
0.0
 10
8.4815307489
 20
7.9162574268
 30
0.0
 10
8.4997356462
 20
7.9416036548
 30
0.0
 10
8.5191968819
 20
7.9659586951
 30
0.0
 10
8.5398688178
 20
7.989265595
 30
0.0
 10
8.5544282012
 20
8.0040716616
 30
0.0
 10
8.5618907666
 20
8.011279966
 30
0.0
  0
SPLINE
  5
3A6
100
AcDbEntity
  8
0
100
AcDbSpline
 62
7
  6
CONTINUOUS
 70
0
 71
3
 72
15
 73
11
 74
0
 42
0.0000001
 43
0.0000001
 44
0.0000000001
 40
0.0
 40
0.0
 40
0.0
 40
0.0
 40
0.1268098014
 40
0.2530495495
 40
0.3787339289
 40
0.5038874621
 40
0.6285440036
 40
0.7527463531
 40
0.8765455422
 40
1.0
 40
1.0
 40
1.0
 40
1.0
 10
10.3134573731
 20
8.1458616528
 30
0.0
 10
10.3134573731
 20
8.1537247985
 30
0.0
 10
10.3139686587
 20
8.1694207074
 30
0.0
 10
10.3162785086
 20
8.1928075553
 30
0.0
 10
10.3201198877
 20
8.2158892776
 30
0.0
 10
10.3254766142
 20
8.2385661776
 30
0.0
 10
10.332325974
 20
8.2607417927
 30
0.0
 10
10.340639123
 20
8.2823217455
 30
0.0
 10
10.3503799966
 20
8.3032127033
 30
0.0
 10
10.3578090323
 20
8.3166406756
 30
0.0
 10
10.3617451604
 20
8.32320629
 30
0.0
  0
SPLINE
  5
3A7
100
AcDbEntity
  8
0
100
AcDbSpline
 62
7
  6
CONTINUOUS
 70
0
 71
3
 72
21
 73
17
 74
0
 42
0.0000001
 43
0.0000001
 44
0.0000000001
 40
0.0
 40
0.0
 40
0.0
 40
0.0
 40
0.1273176366
 40
0.2537999756
 40
0.3167619475
 40
0.3795355041
 40
0.4421314991
 40
0.5045621439
 40
0.5668413432
 40
0.6289845283
 40
0.6910084528
 40
0.7529310935
 40
0.8147714495
 40
0.8765493365
 40
0.9382852194
 40
1.0
 40
1.0
 40
1.0
 40
1.0
 10
10.4341981086
 20
8.1374882543
 30
0.0
 10
10.4341981086
 20
8.1451877455
 30
0.0
 10
10.4349330758
 20
8.1605461237
 30
0.0
 10
10.4377088085
 20
8.1795323976
 30
0.0
 10
10.4410264262
 20
8.1944254698
 30
0.0
 10
10.4440519153
 20
8.2054106051
 30
0.0
 10
10.4476111996
 20
8.2162005527
 30
0.0
 10
10.4516961237
 20
8.2267707269
 30
0.0
 10
10.4562972392
 20
8.2370966889
 30
0.0
 10
10.4614039998
 20
8.2471546256
 30
0.0
 10
10.4670046586
 20
8.2569213178
 30
0.0
 10
10.473086267
 20
8.2663742712
 30
0.0
 10
10.4796348169
 20
8.2754916443
 30
0.0
 10
10.4866353217
 20
8.2842524466
 30
0.0
 10
10.494071308
 20
8.2926362352
 30
0.0
 10
10.4993085221
 20
8.2979621655
 30
0.0
 10
10.5019929099
 20
8.3005550854
 30
0.0
  0
SPLINE
  5
3A8
100
AcDbEntity
  8
0
100
AcDbSpline
 62
7
  6
CONTINUOUS
 70
0
 71
3
 72
19
 73
15
 74
0
 42
0.0000001
 43
0.0000001
 44
0.0000000001
 40
0.0
 40
0.0
 40
0.0
 40
0.0
 40
0.0622126791
 40
0.1245407273
 40
0.1869694082
 40
0.2494831977
 40
0.3746711077
 40
0.499998929
 40
0.6253268895
 40
0.7505152134
 40
0.8130293087
 40
0.8754583593
 40
0.9377868365
 40
1.0
 40
1.0
 40
1.0
 40
1.0
 10
9.2983860053
 20
7.914530987
 30
0.0
 10
9.3003413444
 20
7.9101343547
 30
0.0
 10
9.3044508774
 20
7.9014182812
 30
0.0
 10
9.3111896624
 20
7.8886183134
 30
0.0
 10
9.3184952492
 20
7.8761055616
 30
0.0
 10
9.3289733674
 20
7.8598364729
 30
0.0
 10
9.3434060899
 20
7.8403557775
 30
0.0
 10
9.3626976962
 20
7.818562119
 30
0.0
 10
9.3838062959
 20
7.798523194
 30
0.0
 10
9.4027725801
 20
7.783420736
 30
0.0
 10
9.4186669394
 20
7.7723823121
 30
0.0
 10
9.4309177318
 20
7.7646453152
 30
0.0
 10
9.4434753204
 20
7.7574647697
 30
0.0
 10
9.4520430345
 20
7.7530541197
 30
0.0
 10
9.4563689298
 20
7.7509468189
 30
0.0
  0
SPLINE
  5
3A9
100
AcDbEntity
  8
0
100
AcDbSpline
 62
7
  6
CONTINUOUS
 70
0
 71
3
 72
23
 73
19
 74
0
 42
0.0000001
 43
0.0000001
 44
0.0000000001
 40
0.0
 40
0.0
 40
0.0
 40
0.0
 40
0.0637767638
 40
0.1273450118
 40
0.1907019674
 40
0.2538561101
 40
0.3168132145
 40
0.3795820843
 40
0.4421733868
 40
0.5045993403
 40
0.5668738673
 40
0.6290123789
 40
0.6910316481
 40
0.752949645
 40
0.8147853545
 40
0.8765586015
 40
0.9382898522
 40
1.0
 40
1.0
 40
1.0
 40
1.0
 10
8.2903526926
 20
9.0724924266
 30
0.0
 10
8.2903526926
 20
9.0782781854
 30
0.0
 10
8.2906296392
 20
9.0898327468
 30
0.0
 10
8.2918795481
 20
9.1070942841
 30
0.0
 10
8.2939606975
 20
9.1242190135
 30
0.0
 10
8.2968680739
 20
9.1411666815
 30
0.0
 10
8.3005952026
 20
9.1578985726
 30
0.0
 10
8.3051334523
 20
9.1743760077
 30
0.0
 10
8.3104723821
 20
9.1905610252
 30
0.0
 10
8.3165997455
 20
9.2064162992
 30
0.0
 10
8.323501473
 20
9.2219052459
 30
0.0
 10
8.3311616465
 20
9.2369921542
 30
0.0
 10
8.3395626168
 20
9.2516422266
 30
0.0
 10
8.3486850532
 20
9.2658216674
 30
0.0
 10
8.3585079321
 20
9.2794977128
 30
0.0
 10
8.3690086914
 20
9.2926389393
 30
0.0
 10
8.3801626911
 20
9.3052146331
 30
0.0
 10
8.388018542
 20
9.3132035184
 30
0.0
 10
8.3920451305
 20
9.317092901
 30
0.0
  0
SPLINE
  5
3AA
100
AcDbEntity
  8
0
100
AcDbSpline
 62
7
  6
CONTINUOUS
 70
0
 71
3
 72
43
 73
39
 74
0
 42
0.0000001
 43
0.0000001
 44
0.0000000001
 40
0.0
 40
0.0
 40
0.0
 40
0.0
 40
0.0309223397
 40
0.0464388377
 40
0.0619897805
 40
0.093190363
 40
0.1245221229
 40
0.1559767916
 40
0.1875439951
 40
0.2192115049
 40
0.2509654385
 40
0.2827905057
 40
0.3146702645
 40
0.3465873928
 40
0.3785239694
 40
0.4104617622
 40
0.4423825197
 40
0.4742682627
 40
0.5061015729
 40
0.5378658755
 40
0.5695457117
 40
0.6011269984
 40
0.632597271
 40
0.6639459063
 40
0.6951643199
 40
0.7262461366
 40
0.7571873275
 40
0.7879863118
 40
0.8186440177
 40
0.8491639008
 40
0.8643761514
 40
0.8795563822
 40
0.9098209083
 40
0.9399726222
 40
0.9550124024
 40
0.9700289436
 40
0.9850241445
 40
1.0
 40
1.0
 40
1.0
 40
1.0
 10
12.0946248
 20
9.0491164514
 30
0.0
 10
12.0946248
 20
9.0410670866
 30
0.0
 10
12.0950281215
 20
9.0289737319
 30
0.0
 10
12.096361652
 20
9.0128903801
 30
0.0
 10
12.0982303085
 20
8.9967868764
 30
0.0
 10
12.1015628132
 20
8.9767203752
 30
0.0
 10
12.107128404
 20
8.9528791414
 30
0.0
 10
12.1142405146
 20
8.9293526728
 30
0.0
 10
12.1228675227
 20
8.906245531
 30
0.0
 10
12.1329712061
 20
8.8836596124
 30
0.0
 10
12.1445068243
 20
8.861694715
 30
0.0
 10
12.1574233363
 20
8.8404478294
 30
0.0
 10
12.1716636219
 20
8.8200127887
 30
0.0
 10
12.1871647334
 20
8.8004798383
 30
0.0
 10
12.2038581716
 20
8.7819352461
 30
0.0
 10
12.2216701871
 20
8.7644609238
 30
0.0
 10
12.2405221028
 20
8.7481340683
 30
0.0
 10
12.2603306589
 20
8.7330268234
 30
0.0
 10
12.2810083773
 20
8.7192059631
 30
0.0
 10
12.3024639446
 20
8.7067325988
 30
0.0
 10
12.3246026108
 20
8.6956619105
 30
0.0
 10
12.3473266039
 20
8.6860429039
 30
0.0
 10
12.3705355569
 20
8.6779181935
 30
0.0
 10
12.3941269469
 20
8.6713238143
 30
0.0
 10
12.4179965375
 20
8.6662890596
 30
0.0
 10
12.4420388562
 20
8.6628363528
 30
0.0
 10
12.466147573
 20
8.6609811275
 30
0.0
 10
12.4902162698
 20
8.6607318185
 30
0.0
 10
12.5141377823
 20
8.6620895765
 30
0.0
 10
12.5338856795
 20
8.6645586419
 30
0.0
 10
12.5495003981
 20
8.667329848
 30
0.0
 10
12.5649459748
 20
8.6706207817
 30
0.0
 10
12.5839713926
 20
8.6757127479
 30
0.0
 10
12.6025635529
 20
8.6821004766
 30
0.0
 10
12.6171009082
 20
8.6879641293
 30
0.0
 10
12.6278187053
 20
8.6927305258
 30
0.0
 10
12.6383471531
 20
8.697863265
 30
0.0
 10
12.6452367081
 20
8.70152812
 30
0.0
 10
12.6486455147
 20
8.7034194623
 30
0.0
  0
SPLINE
  5
3AB
100
AcDbEntity
  8
0
100
AcDbSpline
 62
7
  6
CONTINUOUS
 70
0
 71
3
 72
15
 73
11
 74
0
 42
0.0000001
 43
0.0000001
 44
0.0000000001
 40
0.0
 40
0.0
 40
0.0
 40
0.0
 40
0.1268098014
 40
0.2530495495
 40
0.3787339289
 40
0.5038874621
 40
0.6285440036
 40
0.7527463531
 40
0.8765455422
 40
1.0
 40
1.0
 40
1.0
 40
1.0
 10
12.0946248
 20
9.0491164514
 30
0.0
 10
12.0946248
 20
9.0569795971
 30
0.0
 10
12.0951360856
 20
9.072675506
 30
0.0
 10
12.0974459354
 20
9.0960623539
 30
0.0
 10
12.1012873146
 20
9.1191440762
 30
0.0
 10
12.1066440411
 20
9.1418209762
 30
0.0
 10
12.1134934008
 20
9.1639965913
 30
0.0
 10
12.1218065498
 20
9.1855765441
 30
0.0
 10
12.1315474235
 20
9.2064675019
 30
0.0
 10
12.1389764591
 20
9.2198954742
 30
0.0
 10
12.1429125872
 20
9.2264610885
 30
0.0
  0
SPLINE
  5
3AC
100
AcDbEntity
  8
0
100
AcDbSpline
 62
7
  6
CONTINUOUS
 70
0
 71
3
 72
21
 73
17
 74
0
 42
0.0000001
 43
0.0000001
 44
0.0000000001
 40
0.0
 40
0.0
 40
0.0
 40
0.0
 40
0.1273176366
 40
0.2537999756
 40
0.3167619475
 40
0.3795355041
 40
0.4421314991
 40
0.5045621439
 40
0.5668413432
 40
0.6289845283
 40
0.6910084528
 40
0.7529310935
 40
0.8147714495
 40
0.8765493365
 40
0.9382852194
 40
1.0
 40
1.0
 40
1.0
 40
1.0
 10
12.2153655354
 20
9.0407430529
 30
0.0
 10
12.2153655354
 20
9.048442544
 30
0.0
 10
12.2161005027
 20
9.0638009223
 30
0.0
 10
12.2188762353
 20
9.0827871962
 30
0.0
 10
12.2221938531
 20
9.0976802683
 30
0.0
 10
12.2252193422
 20
9.1086654037
 30
0.0
 10
12.2287786265
 20
9.1194553513
 30
0.0
 10
12.2328635506
 20
9.1300255255
 30
0.0
 10
12.237464666
 20
9.1403514875
 30
0.0
 10
12.2425714267
 20
9.1504094241
 30
0.0
 10
12.2481720855
 20
9.1601761164
 30
0.0
 10
12.2542536939
 20
9.1696290698
 30
0.0
 10
12.2608022438
 20
9.1787464429
 30
0.0
 10
12.2678027485
 20
9.1875072451
 30
0.0
 10
12.2752387349
 20
9.1958910338
 30
0.0
 10
12.2804759489
 20
9.2012169641
 30
0.0
 10
12.2831603367
 20
9.203809884
 30
0.0
  0
SPLINE
  5
3AD
100
AcDbEntity
  8
0
100
AcDbSpline
 62
7
  6
CONTINUOUS
 70
0
 71
3
 72
47
 73
43
 74
0
 42
0.0000001
 43
0.0000001
 44
0.0000000001
 40
0.0
 40
0.0
 40
0.0
 40
0.0
 40
0.0310635133
 40
0.0622830855
 40
0.0936541496
 40
0.1251682955
 40
0.1568143665
 40
0.1885784895
 40
0.2204444021
 40
0.2523938031
 40
0.2844067343
 40
0.3164619855
 40
0.3485375149
 40
0.3806108839
 40
0.4126596965
 40
0.4446620376
 40
0.4765969046
 40
0.5084446265
 40
0.5401872667
 40
0.5718089946
 40
0.6032964296
 40
0.6346389475
 40
0.6658289322
 40
0.6968619807
 40
0.7277370481
 40
0.7584565153
 40
0.7737623048
 40
0.789031657
 40
0.8042658222
 40
0.8194662473
 40
0.8346345742
 40
0.8497726309
 40
0.8648824179
 40
0.8799661019
 40
0.895026004
 40
0.9100645832
 40
0.9250844252
 40
0.9400882287
 40
0.9550787862
 40
0.9700589696
 40
0.9850317145
 40
1.0
 40
1.0
 40
1.0
 40
1.0
 10
11.2794821895
 20
7.3649936936
 30
0.0
 10
11.2794821895
 20
7.3484816022
 30
0.0
 10
11.2807047014
 20
7.3153619456
 30
0.0
 10
11.2861632667
 20
7.2658377081
 30
0.0
 10
11.2952209693
 20
7.2165980283
 30
0.0
 10
11.3078284995
 20
7.1679127441
 30
0.0
 10
11.3239170655
 20
7.120044285
 30
0.0
 10
11.3433992661
 20
7.0732517317
 30
0.0
 10
11.3661694678
 20
7.0277880203
 30
0.0
 10
11.3921041952
 20
6.9838989006
 30
0.0
 10
11.4210630167
 20
6.9418216066
 30
0.0
 10
11.4528892616
 20
6.9017836327
 30
0.0
 10
11.4874106985
 20
6.8640013762
 30
0.0
 10
11.5244406536
 20
6.8286791218
 30
0.0
 10
11.563778965
 20
6.7960079468
 30
0.0
 10
11.6052129265
 20
6.7661645373
 30
0.0
 10
11.6485185875
 20
6.7393104201
 30
0.0
 10
11.6934619009
 20
6.7155910779
 30
0.0
 10
11.7397998828
 20
6.6951349871
 30
0.0
 10
11.7872820374
 20
6.6780531377
 30
0.0
 10
11.8356516278
 20
6.6644383926
 30
0.0
 10
11.8846470577
 20
6.6543648002
 30
0.0
 10
11.9340031265
 20
6.647887384
 30
0.0
 10
11.9834532048
 20
6.6450419153
 30
0.0
 10
12.0327276855
 20
6.6458439878
 30
0.0
 10
12.0734779693
 20
6.6495545801
 30
0.0
 10
12.1057130285
 20
6.65433827
 30
0.0
 10
12.1296532677
 20
6.6588217649
 30
0.0
 10
12.1533510121
 20
6.6641989338
 30
0.0
 10
12.1767745627
 20
6.6704626093
 30
0.0
 10
12.199892067
 20
6.6776042608
 30
0.0
 10
12.2226722333
 20
6.6856142015
 30
0.0
 10
12.2450841453
 20
6.6944816705
 30
0.0
 10
12.2670974407
 20
6.7041946119
 30
0.0
 10
12.2886822913
 20
6.7147398478
 30
0.0
 10
12.3098093966
 20
6.7261031729
 30
0.0
 10
12.3304501335
 20
6.7382691442
 30
0.0
 10
12.3505765428
 20
6.7512212603
 30
0.0
 10
12.370161265
 20
6.7649420173
 30
0.0
 10
12.3891778664
 20
6.7794128684
 30
0.0
 10
12.4076002397
 20
6.7946138326
 30
0.0
 10
12.4194708193
 20
6.805222582
 30
0.0
 10
12.4252976867
 20
6.8106405102
 30
0.0
  0
SPLINE
  5
3AE
100
AcDbEntity
  8
0
100
AcDbSpline
 62
7
  6
CONTINUOUS
 70
0
 71
3
 72
23
 73
19
 74
0
 42
0.0000001
 43
0.0000001
 44
0.0000000001
 40
0.0
 40
0.0
 40
0.0
 40
0.0
 40
0.0637608412
 40
0.1273161404
 40
0.1906664143
 40
0.2538177983
 40
0.3167760223
 40
0.379549446
 40
0.4421478628
 40
0.5045827587
 40
0.5668671442
 40
0.6290154515
 40
0.691043409
 40
0.7529678967
 40
0.8148067905
 40
0.8765787933
 40
0.9383032578
 40
1.0
 40
1.0
 40
1.0
 40
1.0
 10
11.2794821895
 20
7.3649936936
 30
0.0
 10
11.2794821895
 20
7.3754693511
 30
0.0
 10
11.2799720096
 20
7.3963902836
 30
0.0
 10
11.2821828443
 20
7.4276490959
 30
0.0
 10
11.2858640039
 20
7.4586690257
 30
0.0
 10
11.2910072345
 20
7.4893807562
 30
0.0
 10
11.2976014473
 20
7.5197171395
 30
0.0
 10
11.3056321227
 20
7.5496113063
 30
0.0
 10
11.3150816987
 20
7.5789975198
 30
0.0
 10
11.3259294375
 20
7.6078111037
 30
0.0
 10
11.3381515194
 20
7.6359886507
 30
0.0
 10
11.3517210983
 20
7.6634681442
 30
0.0
 10
11.3666083527
 20
7.6901890928
 30
0.0
 10
11.3827805743
 20
7.7160926858
 30
0.0
 10
11.400202154
 20
7.7411218423
 30
0.0
 10
11.4188349734
 20
7.7652216411
 30
0.0
 10
11.4386373173
 20
7.7883383153
 30
0.0
 10
11.4525929152
 20
7.8030635615
 30
0.0
 10
11.4597483492
 20
7.8102433308
 30
0.0
  0
SPLINE
  5
3AF
100
AcDbEntity
  8
0
100
AcDbSpline
 62
7
  6
CONTINUOUS
 70
0
 71
3
 72
69
 73
65
 74
0
 42
0.0000001
 43
0.0000001
 44
0.0000000001
 40
0.0
 40
0.0
 40
0.0
 40
0.0
 40
0.0155844784
 40
0.0311164857
 40
0.0465960402
 40
0.0620249415
 40
0.0774047696
 40
0.092737865
 40
0.1080269667
 40
0.1232752767
 40
0.1384864179
 40
0.1536643976
 40
0.1688135699
 40
0.1839385916
 40
0.1990443748
 40
0.214136036
 40
0.2292188428
 40
0.2442981574
 40
0.2593793793
 40
0.2744678872
 40
0.2895689816
 40
0.304687829
 40
0.3198294075
 40
0.3349984545
 40
0.3501994182
 40
0.3654364121
 40
0.3807131743
 40
0.3960330328
 40
0.4113988745
 40
0.4268131203
 40
0.4422777043
 40
0.4577940591
 40
0.473363106
 40
0.4889852529
 40
0.5046603949
 40
0.5203879209
 40
0.5361667237
 40
0.5519952147
 40
0.5678713436
 40
0.5837926221
 40
0.5997561506
 40
0.615758647
 40
0.6317964791
 40
0.6478656986
 40
0.6800725947
 40
0.7123515117
 40
0.728510095
 40
0.7446719373
 40
0.7608319997
 40
0.7769852595
 40
0.7931267534
 40
0.8092516204
 40
0.8253551441
 40
0.8414327955
 40
0.8574802739
 40
0.8734935466
 40
0.8894688842
 40
0.9054028993
 40
0.9212925758
 40
0.9371352889
 40
0.9529289196
 40
0.9686715342
 40
0.9843623985
 40
1.0
 40
1.0
 40
1.0
 40
1.0
 10
11.4436895897
 20
7.3536058718
 30
0.0
 10
11.4436895897
 20
7.361888426
 30
0.0
 10
11.4440949329
 20
7.3784285846
 30
0.0
 10
11.4459246204
 20
7.4031346056
 30
0.0
 10
11.4489708369
 20
7.4276376937
 30
0.0
 10
11.4532260559
 20
7.4518778125
 30
0.0
 10
11.4586802571
 20
7.475796922
 30
0.0
 10
11.4653202815
 20
7.4993372343
 30
0.0
 10
11.4731302211
 20
7.5224420261
 30
0.0
 10
11.4820912812
 20
7.5450555793
 30
0.0
 10
11.4921819022
 20
7.5671233623
 30
0.0
 10
11.5033777996
 20
7.5885921491
 30
0.0
 10
11.5156520185
 20
7.609410151
 30
0.0
 10
11.528975003
 20
7.6295271389
 30
0.0
 10
11.543314651
 20
7.6488945753
 30
0.0
 10
11.5586363844
 20
7.6674657428
 30
0.0
 10
11.5749032576
 20
7.6851958417
 30
0.0
 10
11.5920760417
 20
7.7020421013
 30
0.0
 10
11.6101133198
 20
7.7179638842
 30
0.0
 10
11.6289715898
 20
7.7329227799
 30
0.0
 10
11.6486053544
 20
7.7468827196
 30
0.0
 10
11.6689672378
 20
7.7598100623
 30
0.0
 10
11.6900081152
 20
7.7716736594
 30
0.0
 10
11.7116772288
 20
7.7824449323
 30
0.0
 10
11.7339223109
 20
7.7920979406
 30
0.0
 10
11.756689712
 20
7.8006094386
 30
0.0
 10
11.7799245199
 20
7.8079589607
 30
0.0
 10
11.8035707036
 20
7.8141288536
 30
0.0
 10
11.8275712526
 20
7.8191043056
 30
0.0
 10
11.8518683129
 20
7.8228733832
 30
0.0
 10
11.8764033258
 20
7.8254270577
 30
0.0
 10
11.9011171674
 20
7.8267592235
 30
0.0
 10
11.9259502893
 20
7.8268667444
 30
0.0
 10
11.9508428676
 20
7.8257494313
 30
0.0
 10
11.975734945
 20
7.8234100375
 30
0.0
 10
12.0005665736
 20
7.8198542524
 30
0.0
 10
12.0252779572
 20
7.8150906851
 30
0.0
 10
12.049809592
 20
7.8091308481
 30
0.0
 10
12.0741024218
 20
7.8019891528
 30
0.0
 10
12.0980979579
 20
7.7936828526
 30
0.0
 10
12.1217384784
 20
7.7842319615
 30
0.0
 10
12.1449669411
 20
7.7736593638
 30
0.0
 10
12.1677279554
 20
7.7619901663
 30
0.0
 10
12.197396757
 20
7.7449971423
 30
0.0
 10
12.2330357068
 20
7.7211586268
 30
0.0
 10
12.2663711453
 20
7.6941184216
 30
0.0
 10
12.2914940449
 20
7.6707043536
 30
0.0
 10
12.3095254631
 20
7.6522865582
 30
0.0
 10
12.3266925547
 20
7.6330650525
 30
0.0
 10
12.3429545114
 20
7.6130857046
 30
0.0
 10
12.3582720451
 20
7.5923967088
 30
0.0
 10
12.3726083075
 20
7.5710478277
 30
0.0
 10
12.3859287525
 20
7.5490904438
 30
0.0
 10
12.3982013021
 20
7.5265774048
 30
0.0
 10
12.4093964004
 20
7.503562901
 30
0.0
 10
12.4194870737
 20
7.4801023247
 30
0.0
 10
12.4284489987
 20
7.4562521423
 30
0.0
 10
12.4362605592
 20
7.4320697575
 30
0.0
 10
12.4429028866
 20
7.4076133868
 30
0.0
 10
12.4483599832
 20
7.3829418721
 30
0.0
 10
12.4526185887
 20
7.3581147423
 30
0.0
 10
12.4556685674
 20
7.3331913858
 30
0.0
 10
12.4575022759
 20
7.3082328231
 30
0.0
 10
12.4579117674
 20
7.2915801119
 30
0.0
 10
12.4579117674
 20
7.2832693248
 30
0.0
  0
SPLINE
  5
3B0
100
AcDbEntity
  8
0
100
AcDbSpline
 62
7
  6
CONTINUOUS
 70
0
 71
3
 72
23
 73
19
 74
0
 42
0.0000001
 43
0.0000001
 44
0.0000000001
 40
0.0
 40
0.0
 40
0.0
 40
0.0
 40
0.0637771706
 40
0.1273448423
 40
0.190701976
 40
0.2538561364
 40
0.3168131911
 40
0.379582093
 40
0.4421733865
 40
0.504599335
 40
0.5668738647
 40
0.6290123811
 40
0.6910316516
 40
0.752949644
 40
0.8147853513
 40
0.8765586011
 40
0.9382898546
 40
1.0
 40
1.0
 40
1.0
 40
1.0
 10
11.4988031019
 20
7.3618414397
 30
0.0
 10
11.4988031019
 20
7.3692472503
 30
0.0
 10
11.499157573
 20
7.3840370541
 30
0.0
 10
11.5007574823
 20
7.4061317973
 30
0.0
 10
11.5034213358
 20
7.4280513845
 30
0.0
 10
11.5071427803
 20
7.4497443923
 30
0.0
 10
11.5119134746
 20
7.4711611953
 30
0.0
 10
11.5177224153
 20
7.4922522905
 30
0.0
 10
11.5245562548
 20
7.5129690877
 30
0.0
 10
11.5323992774
 20
7.5332638122
 30
0.0
 10
11.5412334394
 20
7.5530896603
 30
0.0
 10
11.5510384271
 20
7.5724008964
 30
0.0
 10
11.5617916696
 20
7.5911529628
 30
0.0
 10
11.5734683853
 20
7.6093026198
 30
0.0
 10
11.5860416234
 20
7.626807962
 30
0.0
 10
11.5994825514
 20
7.6436287382
 30
0.0
 10
11.613759647
 20
7.659725619
 30
0.0
 10
11.6238151431
 20
7.6699513628
 30
0.0
 10
11.62896916
 20
7.6749297782
 30
0.0
  0
SPLINE
  5
3B1
100
AcDbEntity
  8
0
100
AcDbSpline
 62
7
  6
CONTINUOUS
 70
0
 71
3
 72
23
 73
19
 74
0
 42
0.0000001
 43
0.0000001
 44
0.0000000001
 40
0.0
 40
0.0
 40
0.0
 40
0.0
 40
0.0637764156
 40
0.1273451284
 40
0.1907019885
 40
0.2538560635
 40
0.3168132288
 40
0.3795820795
 40
0.4421733867
 40
0.5045993416
 40
0.5668738629
 40
0.6290123789
 40
0.691031653
 40
0.7529496458
 40
0.8147853519
 40
0.8765586031
 40
0.9382898573
 40
1.0
 40
1.0
 40
1.0
 40
1.0
 10
11.8913860364
 20
7.5735474575
 30
0.0
 10
11.8913860364
 20
7.5783688917
 30
0.0
 10
11.8916168355
 20
7.5879976908
 30
0.0
 10
11.8926584087
 20
7.6023822922
 30
0.0
 10
11.8943926949
 20
7.6166529083
 30
0.0
 10
11.8968155163
 20
7.63077594
 30
0.0
 10
11.8999214493
 20
7.6447191663
 30
0.0
 10
11.9037033087
 20
7.6584503538
 30
0.0
 10
11.908152395
 20
7.6719378588
 30
0.0
 10
11.9132585464
 20
7.6851505651
 30
0.0
 10
11.9190099707
 20
7.6980580099
 30
0.0
 10
11.9253934143
 20
7.7106304342
 30
0.0
 10
11.9323942105
 20
7.7228388187
 30
0.0
 10
11.9399962522
 20
7.7346549934
 30
0.0
 10
11.9481819543
 20
7.7460516996
 30
0.0
 10
11.9569325476
 20
7.7570027349
 30
0.0
 10
11.9662275473
 20
7.7674824605
 30
0.0
 10
11.9727740845
 20
7.7741398553
 30
0.0
 10
11.97612957
 20
7.7773810048
 30
0.0
  0
SPLINE
  5
3B2
100
AcDbEntity
  8
0
100
AcDbSpline
 62
7
  6
CONTINUOUS
 70
0
 71
3
 72
15
 73
11
 74
0
 42
0.0000001
 43
0.0000001
 44
0.0000000001
 40
0.0
 40
0.0
 40
0.0
 40
0.0
 40
0.1265795779
 40
0.2526764528
 40
0.3782970293
 40
0.5034581258
 40
0.6281797285
 40
0.7524885902
 40
0.8764164079
 40
1.0
 40
1.0
 40
1.0
 40
1.0
 10
11.7045640729
 20
7.5605912875
 30
0.0
 10
11.7045640729
 20
7.5691365043
 30
0.0
 10
11.7050359025
 20
7.5861982218
 30
0.0
 10
11.7071664943
 20
7.611660297
 30
0.0
 10
11.7107122592
 20
7.6368684007
 30
0.0
 10
11.7156622943
 20
7.6617440413
 30
0.0
 10
11.7220015629
 20
7.6862110999
 30
0.0
 10
11.7297107726
 20
7.7101945909
 30
0.0
 10
11.7387658766
 20
7.7336198367
 30
0.0
 10
11.7456914498
 20
7.7488385045
 30
0.0
 10
11.7493679878
 20
7.7563277021
 30
0.0
  0
SPLINE
  5
3B3
100
AcDbEntity
  8
0
100
AcDbSpline
 62
7
  6
CONTINUOUS
 70
0
 71
3
 72
69
 73
65
 74
0
 42
0.0000001
 43
0.0000001
 44
0.0000000001
 40
0.0
 40
0.0
 40
0.0
 40
0.0
 40
0.0156376015
 40
0.0313284658
 40
0.0470710804
 40
0.0628647111
 40
0.0787074242
 40
0.0945971007
 40
0.1105311158
 40
0.1265064534
 40
0.1425197261
 40
0.1585672045
 40
0.1746448559
 40
0.1907483796
 40
0.2068732466
 40
0.2230147405
 40
0.2391680003
 40
0.2553280627
 40
0.271489905
 40
0.2876484883
 40
0.3199274053
 40
0.3521343014
 40
0.3682035209
 40
0.384241353
 40
0.4002438494
 40
0.4162073779
 40
0.4321286564
 40
0.4480047853
 40
0.4638332763
 40
0.4796120791
 40
0.4953396051
 40
0.5110147471
 40
0.526636894
 40
0.5422059409
 40
0.5577222957
 40
0.5731868797
 40
0.5886011255
 40
0.6039669672
 40
0.6192868257
 40
0.6345635879
 40
0.6498005818
 40
0.6650015455
 40
0.6801705925
 40
0.695312171
 40
0.7104310184
 40
0.7255321128
 40
0.7406206207
 40
0.7557018426
 40
0.7707811572
 40
0.785863964
 40
0.8009556252
 40
0.8160614084
 40
0.8311864301
 40
0.8463356024
 40
0.8615135821
 40
0.8767247233
 40
0.8919730333
 40
0.907262135
 40
0.9225952304
 40
0.9379750585
 40
0.9534039598
 40
0.9688835143
 40
0.9844155216
 40
1.0
 40
1.0
 40
1.0
 40
1.0
 10
8.5459119391
 20
7.5545674344
 30
0.0
 10
8.5459119391
 20
7.5462566473
 30
0.0
 10
8.5463214306
 20
7.5296039362
 30
0.0
 10
8.5481551391
 20
7.5046453734
 30
0.0
 10
8.5512051178
 20
7.479722017
 30
0.0
 10
8.5554637234
 20
7.4548948871
 30
0.0
 10
8.5609208199
 20
7.4302233724
 30
0.0
 10
8.5675631473
 20
7.4057670017
 30
0.0
 10
8.5753747079
 20
7.3815846169
 30
0.0
 10
8.5843366329
 20
7.3577344345
 30
0.0
 10
8.5944273062
 20
7.3342738582
 30
0.0
 10
8.6056224044
 20
7.3112593544
 30
0.0
 10
8.617894954
 20
7.2887463154
 30
0.0
 10
8.631215399
 20
7.2667889315
 30
0.0
 10
8.6455516615
 20
7.2454400504
 30
0.0
 10
8.6608691951
 20
7.2247510547
 30
0.0
 10
8.6771311519
 20
7.2047717067
 30
0.0
 10
8.6942982434
 20
7.1855502011
 30
0.0
 10
8.7123296616
 20
7.1671324056
 30
0.0
 10
8.7374525612
 20
7.1437183376
 30
0.0
 10
8.7707879997
 20
7.1166781324
 30
0.0
 10
8.8064269495
 20
7.0928396169
 30
0.0
 10
8.8360957512
 20
7.0758465929
 30
0.0
 10
8.8588567655
 20
7.0641773954
 30
0.0
 10
8.8820852281
 20
7.0536047977
 30
0.0
 10
8.9057257486
 20
7.0441539066
 30
0.0
 10
8.9297212847
 20
7.0358476064
 30
0.0
 10
8.9540141145
 20
7.0287059111
 30
0.0
 10
8.9785457493
 20
7.0227460741
 30
0.0
 10
9.0032571329
 20
7.0179825068
 30
0.0
 10
9.0280887615
 20
7.0144267217
 30
0.0
 10
9.0529808389
 20
7.0120873279
 30
0.0
 10
9.0778734172
 20
7.0109700148
 30
0.0
 10
9.1027065392
 20
7.0110775358
 30
0.0
 10
9.1274203807
 20
7.0124097015
 30
0.0
 10
9.1519553937
 20
7.0149633761
 30
0.0
 10
9.176252454
 20
7.0187324536
 30
0.0
 10
9.2002530029
 20
7.0237079057
 30
0.0
 10
9.2238991866
 20
7.0298777985
 30
0.0
 10
9.2471339945
 20
7.0372273206
 30
0.0
 10
9.2699013956
 20
7.0457388186
 30
0.0
 10
9.2921464777
 20
7.0553918269
 30
0.0
 10
9.3138155913
 20
7.0661630998
 30
0.0
 10
9.3348564687
 20
7.078026697
 30
0.0
 10
9.3552183522
 20
7.0909540397
 30
0.0
 10
9.3748521167
 20
7.1049139793
 30
0.0
 10
9.3937103868
 20
7.1198728751
 30
0.0
 10
9.4117476648
 20
7.1357946579
 30
0.0
 10
9.428920449
 20
7.1526409175
 30
0.0
 10
9.4451873221
 20
7.1703710164
 30
0.0
 10
9.4605090555
 20
7.1889421839
 30
0.0
 10
9.4748487035
 20
7.2083096203
 30
0.0
 10
9.488171688
 20
7.2284266082
 30
0.0
 10
9.5004459069
 20
7.2492446101
 30
0.0
 10
9.5116418044
 20
7.2707133969
 30
0.0
 10
9.5217324254
 20
7.2927811799
 30
0.0
 10
9.5306934854
 20
7.3153947331
 30
0.0
 10
9.5385034251
 20
7.3384995249
 30
0.0
 10
9.5451434494
 20
7.3620398372
 30
0.0
 10
9.5505976506
 20
7.3859589467
 30
0.0
 10
9.5548528696
 20
7.4101990655
 30
0.0
 10
9.5578990862
 20
7.4347021536
 30
0.0
 10
9.5597287736
 20
7.4594081747
 30
0.0
 10
9.5601341168
 20
7.4759483333
 30
0.0
 10
9.5601341168
 20
7.4842308875
 30
0.0
  0
SPLINE
  5
3B4
100
AcDbEntity
  8
0
100
AcDbSpline
 62
7
  6
CONTINUOUS
 70
0
 71
3
 72
43
 73
39
 74
0
 42
0.0000001
 43
0.0000001
 44
0.0000000001
 40
0.0
 40
0.0
 40
0.0
 40
0.0
 40
0.0309223397
 40
0.0464388377
 40
0.0619897805
 40
0.093190363
 40
0.1245221229
 40
0.1559767916
 40
0.1875439951
 40
0.2192115049
 40
0.2509654385
 40
0.2827905057
 40
0.3146702645
 40
0.3465873928
 40
0.3785239694
 40
0.4104617622
 40
0.4423825197
 40
0.4742682627
 40
0.5061015729
 40
0.5378658755
 40
0.5695457117
 40
0.6011269984
 40
0.632597271
 40
0.6639459063
 40
0.6951643199
 40
0.7262461366
 40
0.7571873275
 40
0.7879863118
 40
0.8186440177
 40
0.8491639008
 40
0.8643761514
 40
0.8795563822
 40
0.9098209083
 40
0.9399726222
 40
0.9550124024
 40
0.9700289436
 40
0.9850241445
 40
1.0
 40
1.0
 40
1.0
 40
1.0
 10
10.1917507818
 20
10.093881137
 30
0.0
 10
10.1917507818
 20
10.0858317722
 30
0.0
 10
10.1921541033
 20
10.0737384175
 30
0.0
 10
10.1934876338
 20
10.0576550657
 30
0.0
 10
10.1953562903
 20
10.041551562
 30
0.0
 10
10.198688795
 20
10.0214850608
 30
0.0
 10
10.2042543859
 20
9.997643827
 30
0.0
 10
10.2113664964
 20
9.9741173584
 30
0.0
 10
10.2199935045
 20
9.9510102166
 30
0.0
 10
10.2300971879
 20
9.928424298
 30
0.0
 10
10.2416328061
 20
9.9064594006
 30
0.0
 10
10.2545493181
 20
9.885212515
 30
0.0
 10
10.2687896038
 20
9.8647774743
 30
0.0
 10
10.2842907152
 20
9.8452445239
 30
0.0
 10
10.3009841534
 20
9.8266999317
 30
0.0
 10
10.3187961689
 20
9.8092256094
 30
0.0
 10
10.3376480846
 20
9.7928987539
 30
0.0
 10
10.3574566407
 20
9.777791509
 30
0.0
 10
10.3781343592
 20
9.7639706487
 30
0.0
 10
10.3995899264
 20
9.7514972844
 30
0.0
 10
10.4217285926
 20
9.7404265961
 30
0.0
 10
10.4444525858
 20
9.7308075895
 30
0.0
 10
10.4676615387
 20
9.7226828791
 30
0.0
 10
10.4912529287
 20
9.7160885
 30
0.0
 10
10.5151225193
 20
9.7110537452
 30
0.0
 10
10.539164838
 20
9.7076010385
 30
0.0
 10
10.5632735549
 20
9.7057458131
 30
0.0
 10
10.5873422516
 20
9.7054965041
 30
0.0
 10
10.6112637641
 20
9.7068542621
 30
0.0
 10
10.6310116614
 20
9.7093233275
 30
0.0
 10
10.6466263799
 20
9.7120945336
 30
0.0
 10
10.6620719566
 20
9.7153854673
 30
0.0
 10
10.6810973744
 20
9.7204774335
 30
0.0
 10
10.6996895347
 20
9.7268651622
 30
0.0
 10
10.7142268901
 20
9.7327288149
 30
0.0
 10
10.7249446871
 20
9.7374952114
 30
0.0
 10
10.735473135
 20
9.7426279506
 30
0.0
 10
10.74236269
 20
9.7462928056
 30
0.0
 10
10.7457714966
 20
9.7481841479
 30
0.0
  0
SPLINE
  5
3B5
100
AcDbEntity
  8
0
100
AcDbSpline
 62
7
  6
CONTINUOUS
 70
0
 71
3
 72
69
 73
65
 74
0
 42
0.0000001
 43
0.0000001
 44
0.0000000001
 40
0.0
 40
0.0
 40
0.0
 40
0.0
 40
0.0156376015
 40
0.0313284658
 40
0.0470710804
 40
0.0628647111
 40
0.0787074242
 40
0.0945971007
 40
0.1105311158
 40
0.1265064534
 40
0.1425197261
 40
0.1585672045
 40
0.1746448559
 40
0.1907483796
 40
0.2068732466
 40
0.2230147405
 40
0.2391680003
 40
0.2553280627
 40
0.271489905
 40
0.2876484883
 40
0.3199274053
 40
0.3521343014
 40
0.3682035209
 40
0.384241353
 40
0.4002438494
 40
0.4162073779
 40
0.4321286564
 40
0.4480047853
 40
0.4638332763
 40
0.4796120791
 40
0.4953396051
 40
0.5110147471
 40
0.526636894
 40
0.5422059409
 40
0.5577222957
 40
0.5731868797
 40
0.5886011255
 40
0.6039669672
 40
0.6192868257
 40
0.6345635879
 40
0.6498005818
 40
0.6650015455
 40
0.6801705925
 40
0.695312171
 40
0.7104310184
 40
0.7255321128
 40
0.7406206207
 40
0.7557018426
 40
0.7707811572
 40
0.785863964
 40
0.8009556252
 40
0.8160614084
 40
0.8311864301
 40
0.8463356024
 40
0.8615135821
 40
0.8767247233
 40
0.8919730333
 40
0.907262135
 40
0.9225952304
 40
0.9379750585
 40
0.9534039598
 40
0.9688835143
 40
0.9844155216
 40
1.0
 40
1.0
 40
1.0
 40
1.0
 10
11.4436895897
 20
7.3536058718
 30
0.0
 10
11.4436895897
 20
7.3452950847
 30
0.0
 10
11.4440990812
 20
7.3286423735
 30
0.0
 10
11.4459327897
 20
7.3036838108
 30
0.0
 10
11.4489827684
 20
7.2787604543
 30
0.0
 10
11.4532413739
 20
7.2539333245
 30
0.0
 10
11.4586984705
 20
7.2292618098
 30
0.0
 10
11.4653407979
 20
7.2048054391
 30
0.0
 10
11.4731523584
 20
7.1806230543
 30
0.0
 10
11.4821142834
 20
7.1567728719
 30
0.0
 10
11.4922049567
 20
7.1333122956
 30
0.0
 10
11.503400055
 20
7.1102977918
 30
0.0
 10
11.5156726046
 20
7.0877847528
 30
0.0
 10
11.5289930496
 20
7.0658273689
 30
0.0
 10
11.543329312
 20
7.0444784878
 30
0.0
 10
11.5586468457
 20
7.023789492
 30
0.0
 10
11.5749088024
 20
7.0038101441
 30
0.0
 10
11.592075894
 20
6.9845886384
 30
0.0
 10
11.6101073121
 20
6.966170843
 30
0.0
 10
11.6352302118
 20
6.942756775
 30
0.0
 10
11.6685656503
 20
6.9157165698
 30
0.0
 10
11.7042046001
 20
6.8918780543
 30
0.0
 10
11.7338734017
 20
6.8748850303
 30
0.0
 10
11.756634416
 20
6.8632158328
 30
0.0
 10
11.7798628787
 20
6.8526432351
 30
0.0
 10
11.8035033992
 20
6.843192344
 30
0.0
 10
11.8274989353
 20
6.8348860438
 30
0.0
 10
11.8517917651
 20
6.8277443485
 30
0.0
 10
11.8763233999
 20
6.8217845115
 30
0.0
 10
11.9010347834
 20
6.8170209442
 30
0.0
 10
11.9258664121
 20
6.8134651591
 30
0.0
 10
11.9507584895
 20
6.8111257653
 30
0.0
 10
11.9756510678
 20
6.8100084522
 30
0.0
 10
12.0004841897
 20
6.8101159731
 30
0.0
 10
12.0251980313
 20
6.8114481389
 30
0.0
 10
12.0497330442
 20
6.8140018134
 30
0.0
 10
12.0740301045
 20
6.817770891
 30
0.0
 10
12.0980306535
 20
6.822746343
 30
0.0
 10
12.1216768372
 20
6.8289162359
 30
0.0
 10
12.1449116451
 20
6.836265758
 30
0.0
 10
12.1676790462
 20
6.844777256
 30
0.0
 10
12.1899241283
 20
6.8544302643
 30
0.0
 10
12.2115932418
 20
6.8652015372
 30
0.0
 10
12.2326341193
 20
6.8770651344
 30
0.0
 10
12.2529960027
 20
6.889992477
 30
0.0
 10
12.2726297673
 20
6.9039524167
 30
0.0
 10
12.2914880373
 20
6.9189113124
 30
0.0
 10
12.3095253154
 20
6.9348330953
 30
0.0
 10
12.3266980995
 20
6.9516793549
 30
0.0
 10
12.3429649727
 20
6.9694094538
 30
0.0
 10
12.3582867061
 20
6.9879806213
 30
0.0
 10
12.3726263541
 20
7.0073480577
 30
0.0
 10
12.3859493386
 20
7.0274650456
 30
0.0
 10
12.3982235575
 20
7.0482830475
 30
0.0
 10
12.4094194549
 20
7.0697518343
 30
0.0
 10
12.4195100759
 20
7.0918196173
 30
0.0
 10
12.428471136
 20
7.1144331705
 30
0.0
 10
12.4362810756
 20
7.1375379623
 30
0.0
 10
12.4429211
 20
7.1610782746
 30
0.0
 10
12.4483753012
 20
7.1849973841
 30
0.0
 10
12.4526305201
 20
7.2092375029
 30
0.0
 10
12.4556767367
 20
7.233740591
 30
0.0
 10
12.4575064242
 20
7.258446612
 30
0.0
 10
12.4579117674
 20
7.2749867706
 30
0.0
 10
12.4579117674
 20
7.2832693248
 30
0.0
  0
SPLINE
  5
3B6
100
AcDbEntity
  8
0
100
AcDbSpline
 62
7
  6
CONTINUOUS
 70
0
 71
3
 72
15
 73
11
 74
0
 42
0.0000001
 43
0.0000001
 44
0.0000000001
 40
0.0
 40
0.0
 40
0.0
 40
0.0
 40
0.1268098014
 40
0.2530495495
 40
0.3787339289
 40
0.5038874621
 40
0.6285440036
 40
0.7527463531
 40
0.8765455422
 40
1.0
 40
1.0
 40
1.0
 40
1.0
 10
10.1917507818
 20
10.093881137
 30
0.0
 10
10.1917507818
 20
10.1017442827
 30
0.0
 10
10.1922620674
 20
10.1174401916
 30
0.0
 10
10.1945719172
 20
10.1408270395
 30
0.0
 10
10.1984132964
 20
10.1639087618
 30
0.0
 10
10.2037700229
 20
10.1865856618
 30
0.0
 10
10.2106193827
 20
10.2087612769
 30
0.0
 10
10.2189325317
 20
10.2303412297
 30
0.0
 10
10.2286734053
 20
10.2512321875
 30
0.0
 10
10.2361024409
 20
10.2646601598
 30
0.0
 10
10.2400385691
 20
10.2712257741
 30
0.0
  0
SPLINE
  5
3B7
100
AcDbEntity
  8
0
100
AcDbSpline
 62
7
  6
CONTINUOUS
 70
0
 71
3
 72
42
 73
38
 74
0
 42
0.0000001
 43
0.0000001
 44
0.0000000001
 40
0.0
 40
0.0
 40
0.0
 40
0.0
 40
0.0299419663
 40
0.0449235352
 40
0.0599142051
 40
0.0899287052
 40
0.1200139767
 40
0.135092661
 40
0.150196701
 40
0.1804840414
 40
0.210897872
 40
0.2414513324
 40
0.2721543376
 40
0.3030133986
 40
0.3340315263
 40
0.3652082187
 40
0.3965395244
 40
0.4280181782
 40
0.4596338019
 40
0.4913731609
 40
0.5232204716
 40
0.55515775
 40
0.5871651943
 40
0.6192215961
 40
0.6513047701
 40
0.6833919991
 40
0.7154604852
 40
0.7474878032
 40
0.7794523473
 40
0.8113337692
 40
0.8431133916
 40
0.8747746171
 40
0.9063032365
 40
0.9376879249
 40
0.9533258257
 40
0.968925233
 40
1.0
 40
1.0
 40
1.0
 40
1.0
 10
10.7276596577
 20
9.8889473137
 30
0.0
 10
10.723512241
 20
9.884941216
 30
0.0
 10
10.7170466757
 20
9.879174781
 30
0.0
 10
10.7079917522
 20
9.8720199277
 30
0.0
 10
10.6986484943
 20
9.8652210806
 30
0.0
 10
10.6864570573
 20
9.8574138109
 30
0.0
 10
10.6736728507
 20
9.8505847192
 30
0.0
 10
10.6631292148
 20
9.8457264343
 30
0.0
 10
10.6523677379
 20
9.8412692864
 30
0.0
 10
10.6385612789
 20
9.8364765153
 30
0.0
 10
10.6215468897
 20
9.8320097819
 30
0.0
 10
10.6041612408
 20
9.8288454154
 30
0.0
 10
10.5865006763
 20
9.8270008847
 30
0.0
 10
10.5686622111
 20
9.8264860307
 30
0.0
 10
10.5507439973
 20
9.8273034747
 30
0.0
 10
10.5328445178
 20
9.8294484948
 30
0.0
 10
10.5150621229
 20
9.8329090948
 30
0.0
 10
10.497494476
 20
9.8376660691
 30
0.0
 10
10.4802380307
 20
9.8436931171
 30
0.0
 10
10.4633875061
 20
9.8509569913
 30
0.0
 10
10.4470353759
 20
9.8594176821
 30
0.0
 10
10.4312713663
 20
9.8690286375
 30
0.0
 10
10.4161819711
 20
9.87973702
 30
0.0
 10
10.4018499828
 20
9.8914839945
 30
0.0
 10
10.3883540442
 20
9.9042050499
 30
0.0
 10
10.3757682213
 20
9.9178303497
 30
0.0
 10
10.3641616016
 20
9.9322851114
 30
0.0
 10
10.3535979182
 20
9.9474900145
 30
0.0
 10
10.3441352031
 20
9.9633616252
 30
0.0
 10
10.3358254712
 20
9.9798128683
 30
0.0
 10
10.3287144375
 20
9.9967534302
 30
0.0
 10
10.3228412554
 20
10.0140904994
 30
0.0
 10
10.3182383649
 20
10.0317283426
 30
0.0
 10
10.3154788344
 20
10.0466166007
 30
0.0
 10
10.3139308147
 20
10.0585791258
 30
0.0
 10
10.3128260335
 20
10.0705302069
 30
0.0
 10
10.3124915173
 20
10.0795233107
 30
0.0
 10
10.3124915173
 20
10.0855077385
 30
0.0
  0
SPLINE
  5
3B8
100
AcDbEntity
  8
0
100
AcDbSpline
 62
7
  6
CONTINUOUS
 70
0
 71
3
 72
21
 73
17
 74
0
 42
0.0000001
 43
0.0000001
 44
0.0000000001
 40
0.0
 40
0.0
 40
0.0
 40
0.0
 40
0.1273176366
 40
0.2537999756
 40
0.3167619475
 40
0.3795355041
 40
0.4421314991
 40
0.5045621439
 40
0.5668413432
 40
0.6289845283
 40
0.6910084528
 40
0.7529310935
 40
0.8147714495
 40
0.8765493365
 40
0.9382852194
 40
1.0
 40
1.0
 40
1.0
 40
1.0
 10
10.3124915173
 20
10.0855077385
 30
0.0
 10
10.3124915173
 20
10.0932072297
 30
0.0
 10
10.3132264845
 20
10.1085656079
 30
0.0
 10
10.3160022171
 20
10.1275518818
 30
0.0
 10
10.3193198349
 20
10.1424449539
 30
0.0
 10
10.322345324
 20
10.1534300893
 30
0.0
 10
10.3259046083
 20
10.1642200369
 30
0.0
 10
10.3299895324
 20
10.1747902111
 30
0.0
 10
10.3345906478
 20
10.1851161731
 30
0.0
 10
10.3396974085
 20
10.1951741098
 30
0.0
 10
10.3452980673
 20
10.204940802
 30
0.0
 10
10.3513796757
 20
10.2143937554
 30
0.0
 10
10.3579282256
 20
10.2235111285
 30
0.0
 10
10.3649287303
 20
10.2322719308
 30
0.0
 10
10.3723647167
 20
10.2406557194
 30
0.0
 10
10.3776019307
 20
10.2459816497
 30
0.0
 10
10.3802863185
 20
10.2485745696
 30
0.0
  0
SPLINE
  5
3B9
100
AcDbEntity
  8
0
100
AcDbSpline
 62
7
  6
CONTINUOUS
 70
0
 71
3
 72
39
 73
35
 74
0
 42
0.0000001
 43
0.0000001
 44
0.0000000001
 40
0.0
 40
0.0
 40
0.0
 40
0.0
 40
0.0310753533
 40
0.062307914
 40
0.0936931276
 40
0.125222289
 40
0.1568840436
 40
0.1886642048
 40
0.2205461649
 40
0.252511249
 40
0.2845391082
 40
0.3166081364
 40
0.3486959074
 40
0.3807796231
 40
0.412836566
 40
0.44484455
 40
0.4767823665
 40
0.508630214
 40
0.5403701087
 40
0.5719862657
 40
0.6034654504
 40
0.634797285
 40
0.6659745047
 40
0.6969931573
 40
0.7278527396
 40
0.7585562634
 40
0.7891102405
 40
0.8195245856
 40
0.8498124374
 40
0.8799898958
 40
0.9100756749
 40
0.9400906815
 40
0.970057529
 40
1.0
 40
1.0
 40
1.0
 40
1.0
 10
8.6010254513
 20
7.5628030023
 30
0.0
 10
8.6010254513
 20
7.5513128784
 30
0.0
 10
8.6018825895
 20
7.5282656612
 30
0.0
 10
8.6057095241
 20
7.4938051679
 30
0.0
 10
8.6120593389
 20
7.4595470272
 30
0.0
 10
8.6208969442
 20
7.4256817808
 30
0.0
 10
8.6321734353
 20
7.3923947636
 30
0.0
 10
8.6458266311
 20
7.359868847
 30
0.0
 10
8.6617813138
 20
7.3282824714
 30
0.0
 10
8.6799497147
 20
7.2978089691
 30
0.0
 10
8.7002319806
 20
7.2686155515
 30
0.0
 10
8.7225167029
 20
7.2408624188
 30
0.0
 10
8.746681489
 20
7.2147018502
 30
0.0
 10
8.7725936881
 20
7.1902774222
 30
0.0
 10
8.8001110986
 20
7.1677232237
 30
0.0
 10
8.8290827438
 20
7.1471631403
 30
0.0
 10
8.8593496479
 20
7.1287101189
 30
0.0
 10
8.8907457352
 20
7.1124655922
 30
0.0
 10
8.9230987341
 20
7.0985189383
 30
0.0
 10
8.9562311059
 20
7.086946999
 30
0.0
 10
8.9899609887
 20
7.0778136161
 30
0.0
 10
9.0241031855
 20
7.0711692608
 30
0.0
 10
9.0584701826
 20
7.0670508043
 30
0.0
 10
9.0928731568
 20
7.0654812953
 30
0.0
 10
9.1271229955
 20
7.0664698168
 30
0.0
 10
9.161031332
 20
7.0700113457
 30
0.0
 10
9.1944115787
 20
7.0760868326
 30
0.0
 10
9.2270799516
 20
7.0846632796
 30
0.0
 10
9.258856462
 20
7.0956938923
 30
0.0
 10
9.2895660027
 20
7.1091183063
 30
0.0
 10
9.3190391006
 20
7.1248627073
 30
0.0
 10
9.3471137202
 20
7.1428410778
 30
0.0
 10
9.3736329728
 20
7.1629525917
 30
0.0
 10
9.3901852144
 20
7.1777152435
 30
0.0
 10
9.3981482414
 20
7.1854069638
 30
0.0
  0
SPLINE
  5
3BA
100
AcDbEntity
  8
0
100
AcDbSpline
 62
7
  6
CONTINUOUS
 70
0
 71
3
 72
39
 73
35
 74
0
 42
0.0000001
 43
0.0000001
 44
0.0000000001
 40
0.0
 40
0.0
 40
0.0
 40
0.0
 40
0.029942471
 40
0.0599093185
 40
0.089924325
 40
0.1200101043
 40
0.1501875632
 40
0.1804754155
 40
0.2108897611
 40
0.2414437393
 40
0.2721472649
 40
0.3030068482
 40
0.3340255005
 40
0.3652027199
 40
0.3965345553
 40
0.4280137416
 40
0.4596298994
 40
0.4913697937
 40
0.523217641
 40
0.5551554573
 40
0.5871634413
 40
0.619220384
 40
0.6513040994
 40
0.6833918697
 40
0.715460897
 40
0.7474887556
 40
0.7794538398
 40
0.8113357995
 40
0.8431159588
 40
0.874777715
 40
0.9063068673
 40
0.9376920959
 40
0.968924654
 40
1.0
 40
1.0
 40
1.0
 40
1.0
 10
10.6923402674
 20
9.6810403616
 30
0.0
 10
10.6861191416
 20
9.6750312206
 30
0.0
 10
10.6731876982
 20
9.6634979139
 30
0.0
 10
10.6524695207
 20
9.6477858233
 30
0.0
 10
10.6305362237
 20
9.633740239
 30
0.0
 10
10.6075103639
 20
9.6214399476
 30
0.0
 10
10.5835185337
 20
9.6109521496
 30
0.0
 10
10.5586931389
 20
9.6023344994
 30
0.0
 10
10.5331709791
 20
9.5956341582
 30
0.0
 10
10.5070926649
 20
9.5908877076
 30
0.0
 10
10.4806017816
 20
9.5881209196
 30
0.0
 10
10.4538441033
 20
9.587348665
 30
0.0
 10
10.4269667893
 20
9.5885748442
 30
0.0
 10
10.4001175815
 20
9.5917923851
 30
0.0
 10
10.3734440006
 20
9.5969832976
 30
0.0
 10
10.347092546
 20
9.6041187812
 30
0.0
 10
10.3212078953
 20
9.6131593731
 30
0.0
 10
10.2959321253
 20
9.6240551963
 30
0.0
 10
10.2714039434
 20
9.6367462341
 30
0.0
 10
10.2477579388
 20
9.6511626619
 30
0.0
 10
10.2251238539
 20
9.6672252283
 30
0.0
 10
10.2036258849
 20
9.6848456901
 30
0.0
 10
10.1833819937
 20
9.7039272758
 30
0.0
 10
10.1645032744
 20
9.7243652247
 30
0.0
 10
10.1470933552
 20
9.7460473623
 30
0.0
 10
10.1312478357
 20
9.7688547076
 30
0.0
 10
10.1170537663
 20
9.7926621164
 30
0.0
 10
10.1045891784
 20
9.8173389656
 30
0.0
 10
10.0939226427
 20
9.8427498376
 30
0.0
 10
10.0851129029
 20
9.8687553127
 30
0.0
 10
10.0782085139
 20
9.8952125262
 30
0.0
 10
10.0732477221
 20
9.9219766905
 30
0.0
 10
10.0702579286
 20
9.948898943
 30
0.0
 10
10.0695882926
 20
9.9669045725
 30
0.0
 10
10.0695882926
 20
9.9758812266
 30
0.0
  0
SPLINE
  5
3BB
100
AcDbEntity
  8
0
100
AcDbSpline
 62
7
  6
CONTINUOUS
 70
0
 71
3
 72
39
 73
35
 74
0
 42
0.0000001
 43
0.0000001
 44
0.0000000001
 40
0.0
 40
0.0
 40
0.0
 40
0.0
 40
0.0310753533
 40
0.062307914
 40
0.0936931276
 40
0.125222289
 40
0.1568840436
 40
0.1886642048
 40
0.2205461649
 40
0.252511249
 40
0.2845391082
 40
0.3166081364
 40
0.3486959074
 40
0.3807796231
 40
0.412836566
 40
0.44484455
 40
0.4767823665
 40
0.508630214
 40
0.5403701087
 40
0.5719862657
 40
0.6034654504
 40
0.634797285
 40
0.6659745047
 40
0.6969931573
 40
0.7278527396
 40
0.7585562634
 40
0.7891102405
 40
0.8195245856
 40
0.8498124374
 40
0.8799898958
 40
0.9100756749
 40
0.9400906815
 40
0.970057529
 40
1.0
 40
1.0
 40
1.0
 40
1.0
 10
11.4988031019
 20
7.3618414397
 30
0.0
 10
11.4988031019
 20
7.3503513158
 30
0.0
 10
11.49966024
 20
7.3273040986
 30
0.0
 10
11.5034871747
 20
7.2928436053
 30
0.0
 10
11.5098369895
 20
7.2585854645
 30
0.0
 10
11.5186745948
 20
7.2247202182
 30
0.0
 10
11.5299510858
 20
7.191433201
 30
0.0
 10
11.5436042817
 20
7.1589072844
 30
0.0
 10
11.5595589644
 20
7.1273209087
 30
0.0
 10
11.5777273653
 20
7.0968474064
 30
0.0
 10
11.5980096312
 20
7.0676539889
 30
0.0
 10
11.6202943535
 20
7.0399008561
 30
0.0
 10
11.6444591396
 20
7.0137402876
 30
0.0
 10
11.6703713387
 20
6.9893158595
 30
0.0
 10
11.6978887491
 20
6.9667616611
 30
0.0
 10
11.7268603944
 20
6.9462015777
 30
0.0
 10
11.7571272984
 20
6.9277485563
 30
0.0
 10
11.7885233858
 20
6.9115040296
 30
0.0
 10
11.8208763846
 20
6.8975573757
 30
0.0
 10
11.8540087565
 20
6.8859854363
 30
0.0
 10
11.8877386393
 20
6.8768520535
 30
0.0
 10
11.9218808361
 20
6.8702076981
 30
0.0
 10
11.9562478332
 20
6.8660892417
 30
0.0
 10
11.9906508074
 20
6.8645197326
 30
0.0
 10
12.0249006461
 20
6.8655082541
 30
0.0
 10
12.0588089825
 20
6.8690497831
 30
0.0
 10
12.0921892293
 20
6.87512527
 30
0.0
 10
12.1248576022
 20
6.8837017169
 30
0.0
 10
12.1566341126
 20
6.8947323296
 30
0.0
 10
12.1873436533
 20
6.9081567437
 30
0.0
 10
12.2168167511
 20
6.9239011447
 30
0.0
 10
12.2448913708
 20
6.9418795151
 30
0.0
 10
12.2714106234
 20
6.9619910291
 30
0.0
 10
12.2879628649
 20
6.9767536808
 30
0.0
 10
12.2959258919
 20
6.9844454012
 30
0.0
  0
SPLINE
  5
3BC
100
AcDbEntity
  8
0
100
AcDbSpline
 62
7
  6
CONTINUOUS
 70
0
 71
3
 72
42
 73
38
 74
0
 42
0.0000001
 43
0.0000001
 44
0.0000000001
 40
0.0
 40
0.0
 40
0.0
 40
0.0
 40
0.0299419663
 40
0.0449235352
 40
0.0599142051
 40
0.0899287052
 40
0.1200139767
 40
0.135092661
 40
0.150196701
 40
0.1804840414
 40
0.210897872
 40
0.2414513324
 40
0.2721543376
 40
0.3030133986
 40
0.3340315263
 40
0.3652082187
 40
0.3965395244
 40
0.4280181782
 40
0.4596338019
 40
0.4913731609
 40
0.5232204716
 40
0.55515775
 40
0.5871651943
 40
0.6192215961
 40
0.6513047701
 40
0.6833919991
 40
0.7154604852
 40
0.7474878032
 40
0.7794523473
 40
0.8113337692
 40
0.8431133916
 40
0.8747746171
 40
0.9063032365
 40
0.9376879249
 40
0.9533258257
 40
0.968925233
 40
1.0
 40
1.0
 40
1.0
 40
1.0
 10
8.9484240578
 20
8.9855585136
 30
0.0
 10
8.944276641
 20
8.981552416
 30
0.0
 10
8.9378110758
 20
8.975785981
 30
0.0
 10
8.9287561522
 20
8.9686311277
 30
0.0
 10
8.9194128943
 20
8.9618322805
 30
0.0
 10
8.9072214574
 20
8.9540250109
 30
0.0
 10
8.8944372507
 20
8.9471959192
 30
0.0
 10
8.8838936148
 20
8.9423376342
 30
0.0
 10
8.8731321379
 20
8.9378804864
 30
0.0
 10
8.859325679
 20
8.9330877153
 30
0.0
 10
8.8423112897
 20
8.9286209818
 30
0.0
 10
8.8249256408
 20
8.9254566154
 30
0.0
 10
8.8072650764
 20
8.9236120847
 30
0.0
 10
8.7894266111
 20
8.9230972306
 30
0.0
 10
8.7715083973
 20
8.9239146746
 30
0.0
 10
8.7536089179
 20
8.9260596948
 30
0.0
 10
8.7358265229
 20
8.9295202948
 30
0.0
 10
8.7182588761
 20
8.9342772691
 30
0.0
 10
8.7010024307
 20
8.9403043171
 30
0.0
 10
8.6841519061
 20
8.9475681913
 30
0.0
 10
8.667799776
 20
8.9560288821
 30
0.0
 10
8.6520357664
 20
8.9656398375
 30
0.0
 10
8.6369463711
 20
8.97634822
 30
0.0
 10
8.6226143828
 20
8.9880951945
 30
0.0
 10
8.6091184442
 20
9.0008162499
 30
0.0
 10
8.5965326214
 20
9.0144415497
 30
0.0
 10
8.5849260017
 20
9.0288963114
 30
0.0
 10
8.5743623182
 20
9.0441012144
 30
0.0
 10
8.5648996031
 20
9.0599728252
 30
0.0
 10
8.5565898713
 20
9.0764240683
 30
0.0
 10
8.5494788375
 20
9.0933646302
 30
0.0
 10
8.5436056555
 20
9.1107016994
 30
0.0
 10
8.5390027649
 20
9.1283395425
 30
0.0
 10
8.5362432344
 20
9.1432278007
 30
0.0
 10
8.5346952147
 20
9.1551903258
 30
0.0
 10
8.5335904335
 20
9.1671414068
 30
0.0
 10
8.5332559173
 20
9.1761345107
 30
0.0
 10
8.5332559173
 20
9.1821189385
 30
0.0
  0
SPLINE
  5
3BD
100
AcDbEntity
  8
0
100
AcDbSpline
 62
7
  6
CONTINUOUS
 70
0
 71
3
 72
42
 73
38
 74
0
 42
0.0000001
 43
0.0000001
 44
0.0000000001
 40
0.0
 40
0.0
 40
0.0
 40
0.0
 40
0.0308702015
 40
0.0463582807
 40
0.061879618
 40
0.0930175081
 40
0.1242821419
 40
0.1556661874
 40
0.1871603581
 40
0.2187537017
 40
0.2504337443
 40
0.2821867035
 40
0.3139977015
 40
0.3458509945
 40
0.3777302104
 40
0.4096185932
 40
0.4414992512
 40
0.473355407
 40
0.505170646
 40
0.5369291612
 40
0.5686159916
 40
0.6002172518
 40
0.6317203498
 40
0.6631141896
 40
0.6943893566
 40
0.7255382817
 40
0.7565553821
 40
0.7874371744
 40
0.8181823578
 40
0.8487918643
 40
0.8640486737
 40
0.8792729434
 40
0.9096228558
 40
0.9398532349
 40
0.9549286306
 40
0.9699779164
 40
1.0
 40
1.0
 40
1.0
 40
1.0
 10
8.8067864224
 20
7.7615528501
 30
0.0
 10
8.8067864224
 20
7.751641578
 30
0.0
 10
8.8072640875
 20
7.736752064
 30
0.0
 10
8.8088440181
 20
7.7169454085
 30
0.0
 10
8.8110579843
 20
7.6971124129
 30
0.0
 10
8.8150067765
 20
7.6723895867
 30
0.0
 10
8.8216042137
 20
7.6429904622
 30
0.0
 10
8.8300387024
 20
7.6139453058
 30
0.0
 10
8.8402755475
 20
7.5853735994
 30
0.0
 10
8.852272762
 20
7.557391973
 30
0.0
 10
8.8659811724
 20
7.5301148747
 30
0.0
 10
8.8813446314
 20
7.5036537983
 30
0.0
 10
8.8983002464
 20
7.4781169162
 30
0.0
 10
8.9167786354
 20
7.4536086184
 30
0.0
 10
8.9367042094
 20
7.4302290957
 30
0.0
 10
8.9579954794
 20
7.4080739319
 30
0.0
 10
8.9805653876
 20
7.3872337164
 30
0.0
 10
9.0043216607
 20
7.3677936766
 30
0.0
 10
9.0291671837
 20
7.349833332
 30
0.0
 10
9.0550003941
 20
7.333426171
 30
0.0
 10
9.0817156928
 20
7.3186393516
 30
0.0
 10
9.109203872
 20
7.3055334273
 30
0.0
 10
9.1373525572
 20
7.2941621006
 30
0.0
 10
9.1660466638
 20
7.2845720039
 30
0.0
 10
9.1951688559
 20
7.2768025064
 30
0.0
 10
9.2246000462
 20
7.2708855548
 30
0.0
 10
9.2542197844
 20
7.2668455271
 30
0.0
 10
9.283907091
 20
7.2646991749
 30
0.0
 10
9.3135396667
 20
7.264455379
 30
0.0
 10
9.3381165194
 20
7.2658405502
 30
0.0
 10
9.3576250565
 20
7.2678998736
 30
0.0
 10
9.3769733586
 20
7.2705840993
 30
0.0
 10
9.4009053034
 20
7.2751131235
 30
0.0
 10
9.4244391841
 20
7.2812035697
 30
0.0
 10
9.4429356066
 20
7.2869922522
 30
0.0
 10
9.4611642121
 20
7.2933739653
 30
0.0
 10
9.4745775943
 20
7.2988421302
 30
0.0
 10
9.4833751673
 20
7.3027807225
 30
0.0
  0
SPLINE
  5
3BE
100
AcDbEntity
  8
0
100
AcDbSpline
 62
7
  6
CONTINUOUS
 70
0
 71
3
 72
42
 73
38
 74
0
 42
0.0000001
 43
0.0000001
 44
0.0000000001
 40
0.0
 40
0.0
 40
0.0
 40
0.0
 40
0.0308702015
 40
0.0463582807
 40
0.061879618
 40
0.0930175081
 40
0.1242821419
 40
0.1556661874
 40
0.1871603581
 40
0.2187537017
 40
0.2504337443
 40
0.2821867035
 40
0.3139977015
 40
0.3458509945
 40
0.3777302104
 40
0.4096185932
 40
0.4414992512
 40
0.473355407
 40
0.505170646
 40
0.5369291612
 40
0.5686159916
 40
0.6002172518
 40
0.6317203498
 40
0.6631141896
 40
0.6943893566
 40
0.7255382817
 40
0.7565553821
 40
0.7874371744
 40
0.8181823578
 40
0.8487918643
 40
0.8640486737
 40
0.8792729434
 40
0.9096228558
 40
0.9398532349
 40
0.9549286306
 40
0.9699779164
 40
1.0
 40
1.0
 40
1.0
 40
1.0
 10
11.7045640729
 20
7.5605912875
 30
0.0
 10
11.7045640729
 20
7.5506800154
 30
0.0
 10
11.7050417381
 20
7.5357905013
 30
0.0
 10
11.7066216687
 20
7.5159838458
 30
0.0
 10
11.7088356348
 20
7.4961508502
 30
0.0
 10
11.7127844271
 20
7.4714280241
 30
0.0
 10
11.7193818643
 20
7.4420288996
 30
0.0
 10
11.727816353
 20
7.4129837431
 30
0.0
 10
11.7380531981
 20
7.3844120367
 30
0.0
 10
11.7500504126
 20
7.3564304104
 30
0.0
 10
11.763758823
 20
7.3291533121
 30
0.0
 10
11.779122282
 20
7.3026922356
 30
0.0
 10
11.796077897
 20
7.2771553535
 30
0.0
 10
11.814556286
 20
7.2526470557
 30
0.0
 10
11.8344818599
 20
7.2292675331
 30
0.0
 10
11.8557731299
 20
7.2071123693
 30
0.0
 10
11.8783430382
 20
7.1862721537
 30
0.0
 10
11.9020993113
 20
7.166832114
 30
0.0
 10
11.9269448343
 20
7.1488717694
 30
0.0
 10
11.9527780446
 20
7.1324646084
 30
0.0
 10
11.9794933434
 20
7.117677789
 30
0.0
 10
12.0069815226
 20
7.1045718646
 30
0.0
 10
12.0351302078
 20
7.093200538
 30
0.0
 10
12.0638243144
 20
7.0836104413
 30
0.0
 10
12.0929465065
 20
7.0758409438
 30
0.0
 10
12.1223776967
 20
7.0699239922
 30
0.0
 10
12.151997435
 20
7.0658839645
 30
0.0
 10
12.1816847416
 20
7.0637376123
 30
0.0
 10
12.2113173173
 20
7.0634938164
 30
0.0
 10
12.2358941699
 20
7.0648789876
 30
0.0
 10
12.2554027071
 20
7.066938311
 30
0.0
 10
12.2747510092
 20
7.0696225367
 30
0.0
 10
12.2986829539
 20
7.0741515609
 30
0.0
 10
12.3222168347
 20
7.0802420071
 30
0.0
 10
12.3407132572
 20
7.0860306895
 30
0.0
 10
12.3589418627
 20
7.0924124027
 30
0.0
 10
12.3723552448
 20
7.0978805676
 30
0.0
 10
12.3811528178
 20
7.1018191599
 30
0.0
  0
SPLINE
  5
3BF
100
AcDbEntity
  8
0
100
AcDbSpline
 62
7
  6
CONTINUOUS
 70
0
 71
3
 72
39
 73
35
 74
0
 42
0.0000001
 43
0.0000001
 44
0.0000000001
 40
0.0
 40
0.0
 40
0.0
 40
0.0
 40
0.029942471
 40
0.0599093185
 40
0.089924325
 40
0.1200101043
 40
0.1501875632
 40
0.1804754155
 40
0.2108897611
 40
0.2414437393
 40
0.2721472649
 40
0.3030068482
 40
0.3340255005
 40
0.3652027199
 40
0.3965345553
 40
0.4280137416
 40
0.4596298994
 40
0.4913697937
 40
0.523217641
 40
0.5551554573
 40
0.5871634413
 40
0.619220384
 40
0.6513040994
 40
0.6833918697
 40
0.715460897
 40
0.7474887556
 40
0.7794538398
 40
0.8113357995
 40
0.8431159588
 40
0.874777715
 40
0.9063068673
 40
0.9376920959
 40
0.968924654
 40
1.0
 40
1.0
 40
1.0
 40
1.0
 10
8.9131046674
 20
8.7776515615
 30
0.0
 10
8.9068835417
 20
8.7716424206
 30
0.0
 10
8.8939520982
 20
8.7601091139
 30
0.0
 10
8.8732339207
 20
8.7443970233
 30
0.0
 10
8.8513006237
 20
8.730351439
 30
0.0
 10
8.828274764
 20
8.7180511476
 30
0.0
 10
8.8042829338
 20
8.7075633495
 30
0.0
 10
8.779457539
 20
8.6989456993
 30
0.0
 10
8.7539353791
 20
8.6922453582
 30
0.0
 10
8.7278570649
 20
8.6874989076
 30
0.0
 10
8.7013661817
 20
8.6847321196
 30
0.0
 10
8.6746085033
 20
8.683959865
 30
0.0
 10
8.6477311893
 20
8.6851860442
 30
0.0
 10
8.6208819816
 20
8.688403585
 30
0.0
 10
8.5942084006
 20
8.6935944976
 30
0.0
 10
8.567856946
 20
8.7007299812
 30
0.0
 10
8.5419722954
 20
8.7097705731
 30
0.0
 10
8.5166965253
 20
8.7206663963
 30
0.0
 10
8.4921683435
 20
8.7333574341
 30
0.0
 10
8.4685223389
 20
8.7477738619
 30
0.0
 10
8.445888254
 20
8.7638364283
 30
0.0
 10
8.4243902849
 20
8.7814568901
 30
0.0
 10
8.4041463938
 20
8.8005384758
 30
0.0
 10
8.3852676744
 20
8.8209764247
 30
0.0
 10
8.3678577553
 20
8.8426585623
 30
0.0
 10
8.3520122358
 20
8.8654659076
 30
0.0
 10
8.3378181664
 20
8.8892733164
 30
0.0
 10
8.3253535784
 20
8.9139501655
 30
0.0
 10
8.3146870427
 20
8.9393610376
 30
0.0
 10
8.3058773029
 20
8.9653665127
 30
0.0
 10
8.298972914
 20
8.9918237262
 30
0.0
 10
8.2940121221
 20
9.0185878905
 30
0.0
 10
8.2910223287
 20
9.045510143
 30
0.0
 10
8.2903526926
 20
9.0635157725
 30
0.0
 10
8.2903526926
 20
9.0724924266
 30
0.0
  0
SPLINE
  5
3C0
100
AcDbEntity
  8
0
100
AcDbSpline
 62
7
  6
CONTINUOUS
 70
0
 71
3
 72
23
 73
19
 74
0
 42
0.0000001
 43
0.0000001
 44
0.0000000001
 40
0.0
 40
0.0
 40
0.0
 40
0.0
 40
0.0637767638
 40
0.1273450118
 40
0.1907019674
 40
0.2538561101
 40
0.3168132145
 40
0.3795820843
 40
0.4421733868
 40
0.5045993403
 40
0.5668738673
 40
0.6290123789
 40
0.6910316481
 40
0.752949645
 40
0.8147853545
 40
0.8765586015
 40
0.9382898522
 40
1.0
 40
1.0
 40
1.0
 40
1.0
 10
10.1912948839
 20
8.0278617424
 30
0.0
 10
10.1912948839
 20
8.0336475013
 30
0.0
 10
10.1915718305
 20
8.0452020626
 30
0.0
 10
10.1928217394
 20
8.0624635999
 30
0.0
 10
10.1949028888
 20
8.0795883294
 30
0.0
 10
10.1978102652
 20
8.0965359973
 30
0.0
 10
10.2015373939
 20
8.1132678885
 30
0.0
 10
10.2060756435
 20
8.1297453235
 30
0.0
 10
10.2114145734
 20
8.145930341
 30
0.0
 10
10.2175419368
 20
8.161785615
 30
0.0
 10
10.2244436643
 20
8.1772745617
 30
0.0
 10
10.2321038378
 20
8.19236147
 30
0.0
 10
10.240504808
 20
8.2070115424
 30
0.0
 10
10.2496272444
 20
8.2211909832
 30
0.0
 10
10.2594501234
 20
8.2348670286
 30
0.0
 10
10.2699508827
 20
8.2480082551
 30
0.0
 10
10.2811048824
 20
8.2605839489
 30
0.0
 10
10.2889607332
 20
8.2685728342
 30
0.0
 10
10.2929873218
 20
8.2724622169
 30
0.0
  0
SPLINE
  5
3C1
100
AcDbEntity
  8
0
100
AcDbSpline
 62
7
  6
CONTINUOUS
 70
0
 71
3
 72
42
 73
38
 74
0
 42
0.0000001
 43
0.0000001
 44
0.0000000001
 40
0.0
 40
0.0
 40
0.0
 40
0.0
 40
0.0299419663
 40
0.0449235352
 40
0.0599142051
 40
0.0899287052
 40
0.1200139767
 40
0.135092661
 40
0.150196701
 40
0.1804840414
 40
0.210897872
 40
0.2414513324
 40
0.2721543376
 40
0.3030133986
 40
0.3340315263
 40
0.3652082187
 40
0.3965395244
 40
0.4280181782
 40
0.4596338019
 40
0.4913731609
 40
0.5232204716
 40
0.55515775
 40
0.5871651943
 40
0.6192215961
 40
0.6513047701
 40
0.6833919991
 40
0.7154604852
 40
0.7474878032
 40
0.7794523473
 40
0.8113337692
 40
0.8431133916
 40
0.8747746171
 40
0.9063032365
 40
0.9376879249
 40
0.9533258257
 40
0.968925233
 40
1.0
 40
1.0
 40
1.0
 40
1.0
 10
10.8493662491
 20
7.9409278295
 30
0.0
 10
10.8452188323
 20
7.9369217318
 30
0.0
 10
10.838753267
 20
7.9311552968
 30
0.0
 10
10.8296983435
 20
7.9240004435
 30
0.0
 10
10.8203550856
 20
7.9172015964
 30
0.0
 10
10.8081636487
 20
7.9093943267
 30
0.0
 10
10.795379442
 20
7.902565235
 30
0.0
 10
10.7848358061
 20
7.8977069501
 30
0.0
 10
10.7740743292
 20
7.8932498022
 30
0.0
 10
10.7602678702
 20
7.8884570311
 30
0.0
 10
10.743253481
 20
7.8839902977
 30
0.0
 10
10.7258678321
 20
7.8808259312
 30
0.0
 10
10.7082072677
 20
7.8789814005
 30
0.0
 10
10.6903688024
 20
7.8784665465
 30
0.0
 10
10.6724505886
 20
7.8792839905
 30
0.0
 10
10.6545511092
 20
7.8814290106
 30
0.0
 10
10.6367687142
 20
7.8848896106
 30
0.0
 10
10.6192010674
 20
7.8896465849
 30
0.0
 10
10.601944622
 20
7.8956736329
 30
0.0
 10
10.5850940974
 20
7.9029375071
 30
0.0
 10
10.5687419672
 20
7.9113981979
 30
0.0
 10
10.5529779576
 20
7.9210091534
 30
0.0
 10
10.5378885624
 20
7.9317175358
 30
0.0
 10
10.5235565741
 20
7.9434645103
 30
0.0
 10
10.5100606355
 20
7.9561855657
 30
0.0
 10
10.4974748126
 20
7.9698108655
 30
0.0
 10
10.4858681929
 20
7.9842656272
 30
0.0
 10
10.4753045095
 20
7.9994705303
 30
0.0
 10
10.4658417944
 20
8.015342141
 30
0.0
 10
10.4575320625
 20
8.0317933841
 30
0.0
 10
10.4504210288
 20
8.048733946
 30
0.0
 10
10.4445478467
 20
8.0660710152
 30
0.0
 10
10.4399449562
 20
8.0837088584
 30
0.0
 10
10.4371854257
 20
8.0985971165
 30
0.0
 10
10.435637406
 20
8.1105596417
 30
0.0
 10
10.4345326248
 20
8.1225107227
 30
0.0
 10
10.4341981086
 20
8.1315038265
 30
0.0
 10
10.4341981086
 20
8.1374882543
 30
0.0
  0
SPLINE
  5
3C2
100
AcDbEntity
  8
0
100
AcDbSpline
 62
7
  6
CONTINUOUS
 70
0
 71
3
 72
11
 73
7
 74
0
 42
0.0000001
 43
0.0000001
 44
0.0000000001
 40
0.0
 40
0.0
 40
0.0
 40
0.0
 40
0.2600220325
 40
0.5115618571
 40
0.7572681015
 40
1.0
 40
1.0
 40
1.0
 40
1.0
 10
13.0806451752
 20
6.1219772802
 30
0.0
 10
13.0797990953
 20
6.1216557194
 30
0.0
 10
13.0781033471
 20
6.1211009895
 30
0.0
 10
13.0755217858
 20
6.1205441888
 30
0.0
 10
13.0729543304
 20
6.1202799068
 30
0.0
 10
13.0712497981
 20
6.1202995161
 30
0.0
 10
13.0704068828
 20
6.1203579656
 30
0.0
  0
SPLINE
  5
3C3
100
AcDbEntity
  8
0
100
AcDbSpline
 62
7
  6
CONTINUOUS
 70
0
 71
3
 72
39
 73
35
 74
0
 42
0.0000001
 43
0.0000001
 44
0.0000000001
 40
0.0
 40
0.0
 40
0.0
 40
0.0
 40
0.029942471
 40
0.0599093185
 40
0.089924325
 40
0.1200101043
 40
0.1501875632
 40
0.1804754155
 40
0.2108897611
 40
0.2414437393
 40
0.2721472649
 40
0.3030068482
 40
0.3340255005
 40
0.3652027199
 40
0.3965345553
 40
0.4280137416
 40
0.4596298994
 40
0.4913697937
 40
0.523217641
 40
0.5551554573
 40
0.5871634413
 40
0.619220384
 40
0.6513040994
 40
0.6833918697
 40
0.715460897
 40
0.7474887556
 40
0.7794538398
 40
0.8113357995
 40
0.8431159588
 40
0.874777715
 40
0.9063068673
 40
0.9376920959
 40
0.968924654
 40
1.0
 40
1.0
 40
1.0
 40
1.0
 10
10.8140468587
 20
7.7330208774
 30
0.0
 10
10.8078257329
 20
7.7270117364
 30
0.0
 10
10.7948942895
 20
7.7154784298
 30
0.0
 10
10.774176112
 20
7.6997663391
 30
0.0
 10
10.752242815
 20
7.6857207548
 30
0.0
 10
10.7292169553
 20
7.6734204634
 30
0.0
 10
10.705225125
 20
7.6629326654
 30
0.0
 10
10.6803997303
 20
7.6543150152
 30
0.0
 10
10.6548775704
 20
7.647614674
 30
0.0
 10
10.6287992562
 20
7.6428682234
 30
0.0
 10
10.6023083729
 20
7.6401014354
 30
0.0
 10
10.5755506946
 20
7.6393291808
 30
0.0
 10
10.5486733806
 20
7.64055536
 30
0.0
 10
10.5218241729
 20
7.6437729009
 30
0.0
 10
10.4951505919
 20
7.6489638134
 30
0.0
 10
10.4687991373
 20
7.656099297
 30
0.0
 10
10.4429144866
 20
7.6651398889
 30
0.0
 10
10.4176387166
 20
7.6760357121
 30
0.0
 10
10.3931105348
 20
7.6887267499
 30
0.0
 10
10.3694645302
 20
7.7031431777
 30
0.0
 10
10.3468304452
 20
7.7192057441
 30
0.0
 10
10.3253324762
 20
7.736826206
 30
0.0
 10
10.3050885851
 20
7.7559077916
 30
0.0
 10
10.2862098657
 20
7.7763457405
 30
0.0
 10
10.2687999466
 20
7.7980278782
 30
0.0
 10
10.2529544271
 20
7.8208352234
 30
0.0
 10
10.2387603577
 20
7.8446426322
 30
0.0
 10
10.2262957697
 20
7.8693194814
 30
0.0
 10
10.215629234
 20
7.8947303534
 30
0.0
 10
10.2068194942
 20
7.9207358285
 30
0.0
 10
10.1999151053
 20
7.947193042
 30
0.0
 10
10.1949543134
 20
7.9739572064
 30
0.0
 10
10.1919645199
 20
8.0008794588
 30
0.0
 10
10.1912948839
 20
8.0188850883
 30
0.0
 10
10.1912948839
 20
8.0278617424
 30
0.0
  0
SPLINE
  5
3C4
100
AcDbEntity
  8
0
100
AcDbSpline
 62
7
  6
CONTINUOUS
 70
0
 71
3
 72
42
 73
38
 74
0
 42
0.0000001
 43
0.0000001
 44
0.0000000001
 40
0.0
 40
0.0
 40
0.0
 40
0.0
 40
0.0299419663
 40
0.0449235352
 40
0.0599142051
 40
0.0899287052
 40
0.1200139767
 40
0.135092661
 40
0.150196701
 40
0.1804840414
 40
0.210897872
 40
0.2414513324
 40
0.2721543376
 40
0.3030133986
 40
0.3340315263
 40
0.3652082187
 40
0.3965395244
 40
0.4280181782
 40
0.4596338019
 40
0.4913731609
 40
0.5232204716
 40
0.55515775
 40
0.5871651943
 40
0.6192215961
 40
0.6513047701
 40
0.6833919991
 40
0.7154604852
 40
0.7474878032
 40
0.7794523473
 40
0.8113337692
 40
0.8431133916
 40
0.8747746171
 40
0.9063032365
 40
0.9376879249
 40
0.9533258257
 40
0.968925233
 40
1.0
 40
1.0
 40
1.0
 40
1.0
 10
12.6305336759
 20
8.8441826281
 30
0.0
 10
12.6263862591
 20
8.8401765304
 30
0.0
 10
12.6199206939
 20
8.8344100954
 30
0.0
 10
12.6108657703
 20
8.8272552421
 30
0.0
 10
12.6015225124
 20
8.8204563949
 30
0.0
 10
12.5893310755
 20
8.8126491253
 30
0.0
 10
12.5765468688
 20
8.8058200336
 30
0.0
 10
12.5660032329
 20
8.8009617487
 30
0.0
 10
12.5552417561
 20
8.7965046008
 30
0.0
 10
12.5414352971
 20
8.7917118297
 30
0.0
 10
12.5244209079
 20
8.7872450962
 30
0.0
 10
12.5070352589
 20
8.7840807298
 30
0.0
 10
12.4893746945
 20
8.7822361991
 30
0.0
 10
12.4715362293
 20
8.7817213451
 30
0.0
 10
12.4536180155
 20
8.7825387891
 30
0.0
 10
12.435718536
 20
8.7846838092
 30
0.0
 10
12.4179361411
 20
8.7881444092
 30
0.0
 10
12.4003684942
 20
8.7929013835
 30
0.0
 10
12.3831120488
 20
8.7989284315
 30
0.0
 10
12.3662615243
 20
8.8061923057
 30
0.0
 10
12.3499093941
 20
8.8146529965
 30
0.0
 10
12.3341453845
 20
8.8242639519
 30
0.0
 10
12.3190559892
 20
8.8349723344
 30
0.0
 10
12.3047240009
 20
8.8467193089
 30
0.0
 10
12.2912280623
 20
8.8594403643
 30
0.0
 10
12.2786422395
 20
8.8730656641
 30
0.0
 10
12.2670356198
 20
8.8875204258
 30
0.0
 10
12.2564719364
 20
8.9027253289
 30
0.0
 10
12.2470092212
 20
8.9185969396
 30
0.0
 10
12.2386994894
 20
8.9350481827
 30
0.0
 10
12.2315884557
 20
8.9519887446
 30
0.0
 10
12.2257152736
 20
8.9693258138
 30
0.0
 10
12.2211123831
 20
8.986963657
 30
0.0
 10
12.2183528525
 20
9.0018519151
 30
0.0
 10
12.2168048328
 20
9.0138144402
 30
0.0
 10
12.2157000516
 20
9.0257655213
 30
0.0
 10
12.2153655354
 20
9.0347586251
 30
0.0
 10
12.2153655354
 20
9.0407430529
 30
0.0
  0
SPLINE
  5
3C5
100
AcDbEntity
  8
0
100
AcDbSpline
 62
7
  6
CONTINUOUS
 70
0
 71
3
 72
34
 73
30
 74
0
 42
0.0000001
 43
0.0000001
 44
0.0000000001
 40
0.0
 40
0.0
 40
0.0
 40
0.0
 40
0.0935389797
 40
0.1846168588
 40
0.2726035833
 40
0.3568982354
 40
0.4369690855
 40
0.4752806469
 40
0.5123818005
 40
0.5482367736
 40
0.5828166903
 40
0.6161019346
 40
0.64807908
 40
0.6787438773
 40
0.7080980718
 40
0.7361518267
 40
0.7629213303
 40
0.7884305656
 40
0.8127096904
 40
0.8357965267
 40
0.8577355749
 40
0.8785792891
 40
0.8983879186
 40
0.9172301568
 40
0.9351840603
 40
0.9523364692
 40
0.9687845913
 40
0.9846341806
 40
1.0
 40
1.0
 40
1.0
 40
1.0
 10
12.2189529743
 20
7.6710469448
 30
0.0
 10
12.2221823304
 20
7.664207148
 30
0.0
 10
12.2288463548
 20
7.6508427398
 30
0.0
 10
12.239447088
 20
7.6315102726
 30
0.0
 10
12.2503216124
 20
7.613195811
 30
0.0
 10
12.2612457262
 20
7.5959575056
 30
0.0
 10
12.2703380103
 20
7.5823204835
 30
0.0
 10
12.2774448488
 20
7.571948836
 30
0.0
 10
12.2825788226
 20
7.564559858
 30
0.0
 10
12.2875735707
 20
7.5574417447
 30
0.0
 10
12.2924087192
 20
7.5505886434
 30
0.0
 10
12.2970658867
 20
7.5439937368
 30
0.0
 10
12.3015280883
 20
7.5376487227
 30
0.0
 10
12.3057803905
 20
7.5315447617
 30
0.0
 10
12.3098091277
 20
7.5256718758
 30
0.0
 10
12.3136025591
 20
7.5200198896
 30
0.0
 10
12.3171500327
 20
7.5145778713
 30
0.0
 10
12.3204426258
 20
7.5093349734
 30
0.0
 10
12.323472226
 20
7.5042798971
 30
0.0
 10
12.326232313
 20
7.4994017014
 30
0.0
 10
12.3287167773
 20
7.4946891911
 30
0.0
 10
12.3309210638
 20
7.490131781
 30
0.0
 10
12.3328405681
 20
7.4857187853
 30
0.0
 10
12.3344722116
 20
7.4814402966
 30
0.0
 10
12.3358125395
 20
7.4772865311
 30
0.0
 10
12.3368594092
 20
7.4732485663
 30
0.0
 10
12.3376103501
 20
7.469317842
 30
0.0
 10
12.3380637422
 20
7.4654870757
 30
0.0
 10
12.3381679951
 20
7.4629619396
 30
0.0
 10
12.3381682442
 20
7.4617194151
 30
0.0
  0
SPLINE
  5
3C6
100
AcDbEntity
  8
0
100
AcDbSpline
 62
7
  6
CONTINUOUS
 70
0
 71
3
 72
39
 73
35
 74
0
 42
0.0000001
 43
0.0000001
 44
0.0000000001
 40
0.0
 40
0.0
 40
0.0
 40
0.0
 40
0.029942471
 40
0.0599093185
 40
0.089924325
 40
0.1200101043
 40
0.1501875632
 40
0.1804754155
 40
0.2108897611
 40
0.2414437393
 40
0.2721472649
 40
0.3030068482
 40
0.3340255005
 40
0.3652027199
 40
0.3965345553
 40
0.4280137416
 40
0.4596298994
 40
0.4913697937
 40
0.523217641
 40
0.5551554573
 40
0.5871634413
 40
0.619220384
 40
0.6513040994
 40
0.6833918697
 40
0.715460897
 40
0.7474887556
 40
0.7794538398
 40
0.8113357995
 40
0.8431159588
 40
0.874777715
 40
0.9063068673
 40
0.9376920959
 40
0.968924654
 40
1.0
 40
1.0
 40
1.0
 40
1.0
 10
12.5952142855
 20
8.636275676
 30
0.0
 10
12.5889931598
 20
8.630266535
 30
0.0
 10
12.5760617163
 20
8.6187332283
 30
0.0
 10
12.5553435388
 20
8.6030211377
 30
0.0
 10
12.5334102419
 20
8.5889755534
 30
0.0
 10
12.5103843821
 20
8.576675262
 30
0.0
 10
12.4863925519
 20
8.5661874639
 30
0.0
 10
12.4615671571
 20
8.5575698138
 30
0.0
 10
12.4360449972
 20
8.5508694726
 30
0.0
 10
12.4099666831
 20
8.546123022
 30
0.0
 10
12.3834757998
 20
8.543356234
 30
0.0
 10
12.3567181214
 20
8.5425839794
 30
0.0
 10
12.3298408075
 20
8.5438101586
 30
0.0
 10
12.3029915997
 20
8.5470276994
 30
0.0
 10
12.2763180187
 20
8.552218612
 30
0.0
 10
12.2499665641
 20
8.5593540956
 30
0.0
 10
12.2240819135
 20
8.5683946875
 30
0.0
 10
12.1988061435
 20
8.5792905107
 30
0.0
 10
12.1742779616
 20
8.5919815485
 30
0.0
 10
12.150631957
 20
8.6063979763
 30
0.0
 10
12.1279978721
 20
8.6224605427
 30
0.0
 10
12.1064999031
 20
8.6400810045
 30
0.0
 10
12.0862560119
 20
8.6591625902
 30
0.0
 10
12.0673772926
 20
8.6796005391
 30
0.0
 10
12.0499673734
 20
8.7012826767
 30
0.0
 10
12.0341218539
 20
8.724090022
 30
0.0
 10
12.0199277845
 20
8.7478974308
 30
0.0
 10
12.0074631965
 20
8.7725742799
 30
0.0
 10
11.9967966609
 20
8.797985152
 30
0.0
 10
11.9879869211
 20
8.8239906271
 30
0.0
 10
11.9810825321
 20
8.8504478406
 30
0.0
 10
11.9761217403
 20
8.8772120049
 30
0.0
 10
11.9731319468
 20
8.9041342574
 30
0.0
 10
11.9724623108
 20
8.9221398869
 30
0.0
 10
11.9724623108
 20
8.931116541
 30
0.0
  0
SPLINE
  5
3C7
100
AcDbEntity
  8
0
100
AcDbSpline
 62
7
  6
CONTINUOUS
 70
0
 71
3
 72
43
 73
39
 74
0
 42
0.0000001
 43
0.0000001
 44
0.0000000001
 40
0.0
 40
0.0
 40
0.0
 40
0.0
 40
0.0309223397
 40
0.0464388377
 40
0.0619897805
 40
0.093190363
 40
0.1245221229
 40
0.1559767916
 40
0.1875439951
 40
0.2192115049
 40
0.2509654385
 40
0.2827905057
 40
0.3146702645
 40
0.3465873928
 40
0.3785239694
 40
0.4104617622
 40
0.4423825197
 40
0.4742682627
 40
0.5061015729
 40
0.5378658755
 40
0.5695457117
 40
0.6011269984
 40
0.632597271
 40
0.6639459063
 40
0.6951643199
 40
0.7262461366
 40
0.7571873275
 40
0.7879863118
 40
0.8186440177
 40
0.8491639008
 40
0.8643761514
 40
0.8795563822
 40
0.9098209083
 40
0.9399726222
 40
0.9550124024
 40
0.9700289436
 40
0.9850241445
 40
1.0
 40
1.0
 40
1.0
 40
1.0
 10
8.4125151819
 20
9.1904923369
 30
0.0
 10
8.4125151819
 20
9.1824429722
 30
0.0
 10
8.4129185033
 20
9.1703496175
 30
0.0
 10
8.4142520339
 20
9.1542662657
 30
0.0
 10
8.4161206904
 20
9.1381627619
 30
0.0
 10
8.419453195
 20
9.1180962608
 30
0.0
 10
8.4250187859
 20
9.094255027
 30
0.0
 10
8.4321308965
 20
9.0707285583
 30
0.0
 10
8.4407579045
 20
9.0476214166
 30
0.0
 10
8.450861588
 20
9.025035498
 30
0.0
 10
8.4623972061
 20
9.0030706006
 30
0.0
 10
8.4753137182
 20
8.981823715
 30
0.0
 10
8.4895540038
 20
8.9613886743
 30
0.0
 10
8.5050551152
 20
8.9418557239
 30
0.0
 10
8.5217485535
 20
8.9233111317
 30
0.0
 10
8.539560569
 20
8.9058368094
 30
0.0
 10
8.5584124846
 20
8.8895099539
 30
0.0
 10
8.5782210407
 20
8.874402709
 30
0.0
 10
8.5988987592
 20
8.8605818487
 30
0.0
 10
8.6203543264
 20
8.8481084844
 30
0.0
 10
8.6424929926
 20
8.8370377961
 30
0.0
 10
8.6652169858
 20
8.8274187895
 30
0.0
 10
8.6884259387
 20
8.8192940791
 30
0.0
 10
8.7120173287
 20
8.8126996999
 30
0.0
 10
8.7358869194
 20
8.8076649452
 30
0.0
 10
8.759929238
 20
8.8042122384
 30
0.0
 10
8.7840379549
 20
8.8023570131
 30
0.0
 10
8.8081066517
 20
8.8021077041
 30
0.0
 10
8.8320281642
 20
8.8034654621
 30
0.0
 10
8.8517760614
 20
8.8059345275
 30
0.0
 10
8.8673907799
 20
8.8087057336
 30
0.0
 10
8.8828363567
 20
8.8119966673
 30
0.0
 10
8.9018617745
 20
8.8170886335
 30
0.0
 10
8.9204539348
 20
8.8234763622
 30
0.0
 10
8.9349912901
 20
8.8293400149
 30
0.0
 10
8.9457090872
 20
8.8341064114
 30
0.0
 10
8.956237535
 20
8.8392391506
 30
0.0
 10
8.96312709
 20
8.8429040056
 30
0.0
 10
8.9665358966
 20
8.8447953479
 30
0.0
  0
SPLINE
  5
3C8
100
AcDbEntity
  8
0
100
AcDbSpline
 62
7
  6
CONTINUOUS
 70
0
 71
3
 72
15
 73
11
 74
0
 42
0.0000001
 43
0.0000001
 44
0.0000000001
 40
0.0
 40
0.0
 40
0.0
 40
0.0
 40
0.1003450798
 40
0.2059843382
 40
0.3179790947
 40
0.4372346582
 40
0.5644918035
 40
0.7003781419
 40
0.8454025351
 40
1.0
 40
1.0
 40
1.0
 40
1.0
 10
9.5002260619
 20
7.5931372425
 30
0.0
 10
9.500225933
 20
7.5940945457
 30
0.0
 10
9.500365668
 20
7.5960616462
 30
0.0
 10
9.5009639719
 20
7.5990426376
 30
0.0
 10
9.5019539248
 20
7.6021070433
 30
0.0
 10
9.5033333801
 20
7.605242428
 30
0.0
 10
9.5051010797
 20
7.6084387294
 30
0.0
 10
9.5072548004
 20
7.6116873354
 30
0.0
 10
9.5097930647
 20
7.6149804232
 30
0.0
 10
9.5116784311
 20
7.617131509
 30
0.0
 10
9.512680272
 20
7.618213903
 30
0.0
  0
SPLINE
  5
3C9
100
AcDbEntity
  8
0
100
AcDbSpline
 62
7
  6
CONTINUOUS
 70
0
 71
3
 72
23
 73
19
 74
0
 42
0.0000001
 43
0.0000001
 44
0.0000000001
 40
0.0
 40
0.0
 40
0.0
 40
0.0
 40
0.0637767638
 40
0.1273450118
 40
0.1907019674
 40
0.2538561101
 40
0.3168132145
 40
0.3795820843
 40
0.4421733868
 40
0.5045993403
 40
0.5668738673
 40
0.6290123789
 40
0.6910316481
 40
0.752949645
 40
0.8147853545
 40
0.8765586015
 40
0.9382898522
 40
1.0
 40
1.0
 40
1.0
 40
1.0
 10
11.9724623108
 20
8.931116541
 30
0.0
 10
11.9724623108
 20
8.9369022999
 30
0.0
 10
11.9727392573
 20
8.9484568612
 30
0.0
 10
11.9739891662
 20
8.9657183985
 30
0.0
 10
11.9760703157
 20
8.9828431279
 30
0.0
 10
11.978977692
 20
8.9997907959
 30
0.0
 10
11.9827048208
 20
9.016522687
 30
0.0
 10
11.9872430704
 20
9.0330001221
 30
0.0
 10
11.9925820002
 20
9.0491851396
 30
0.0
 10
11.9987093637
 20
9.0650404136
 30
0.0
 10
12.0056110911
 20
9.0805293603
 30
0.0
 10
12.0132712647
 20
9.0956162686
 30
0.0
 10
12.0216722349
 20
9.110266341
 30
0.0
 10
12.0307946713
 20
9.1244457818
 30
0.0
 10
12.0406175503
 20
9.1381218272
 30
0.0
 10
12.0511183095
 20
9.1512630537
 30
0.0
 10
12.0622723093
 20
9.1638387475
 30
0.0
 10
12.0701281601
 20
9.1718276328
 30
0.0
 10
12.0741547487
 20
9.1757170154
 30
0.0
  0
SPLINE
  5
3CA
100
AcDbEntity
  8
0
100
AcDbSpline
 62
7
  6
CONTINUOUS
 70
0
 71
3
 72
15
 73
11
 74
0
 42
0.0000001
 43
0.0000001
 44
0.0000000001
 40
0.0
 40
0.0
 40
0.0
 40
0.0
 40
0.1268098014
 40
0.2530495495
 40
0.3787339289
 40
0.5038874621
 40
0.6285440036
 40
0.7527463531
 40
0.8765455422
 40
1.0
 40
1.0
 40
1.0
 40
1.0
 10
8.4125151819
 20
9.1904923369
 30
0.0
 10
8.4125151819
 20
9.1983554827
 30
0.0
 10
8.4130264674
 20
9.2140513916
 30
0.0
 10
8.4153363173
 20
9.2374382394
 30
0.0
 10
8.4191776964
 20
9.2605199618
 30
0.0
 10
8.4245344229
 20
9.2831968618
 30
0.0
 10
8.4313837827
 20
9.3053724769
 30
0.0
 10
8.4396969317
 20
9.3269524297
 30
0.0
 10
8.4494378053
 20
9.3478433875
 30
0.0
 10
8.456866841
 20
9.3612713597
 30
0.0
 10
8.4608029691
 20
9.3678369741
 30
0.0
  0
SPLINE
  5
3CB
100
AcDbEntity
  8
0
100
AcDbSpline
 62
7
  6
CONTINUOUS
 70
0
 71
3
 72
49
 73
45
 74
0
 42
0.0000001
 43
0.0000001
 44
0.0000000001
 40
0.0
 40
0.0
 40
0.0
 40
0.0
 40
0.0149718081
 40
0.0299466748
 40
0.0449276404
 40
0.059917709
 40
0.0749198276
 40
0.0899368702
 40
0.1049716217
 40
0.120026759
 40
0.1351048351
 40
0.1502082677
 40
0.1653393229
 40
0.1805001009
 40
0.1956925286
 40
0.2109183481
 40
0.2261791043
 40
0.2414761418
 40
0.256810598
 40
0.2721833946
 40
0.287595237
 40
0.3030466133
 40
0.3340634927
 40
0.3652389307
 40
0.3965689749
 40
0.4280463623
 40
0.4596607137
 40
0.4913987952
 40
0.5232448251
 40
0.5551808189
 40
0.5871869764
 40
0.6192420905
 40
0.6513239761
 40
0.6834099169
 40
0.7154771164
 40
0.7475031494
 40
0.779466411
 40
0.8113465537
 40
0.8431249023
 40
0.8747848503
 40
0.906312225
 40
0.9376956122
 40
0.9689264437
 40
1.0
 40
1.0
 40
1.0
 40
1.0
 10
12.4253685343
 20
6.8105568051
 30
0.0
 10
12.419603077
 20
6.8049877857
 30
0.0
 10
12.4078482528
 20
6.7940765663
 30
0.0
 10
12.3895775698
 20
6.7784216405
 30
0.0
 10
12.3706917214
 20
6.7634982253
 30
0.0
 10
12.351217026
 20
6.7493272373
 30
0.0
 10
12.3311801752
 20
6.7359281082
 30
0.0
 10
12.3106088105
 20
6.7233192391
 30
0.0
 10
12.2895312259
 20
6.7115179793
 30
0.0
 10
12.2679764077
 20
6.7005406092
 30
0.0
 10
12.2459740525
 20
6.6904021625
 30
0.0
 10
12.2235544372
 20
6.6811165746
 30
0.0
 10
12.2007483906
 20
6.6726966684
 30
0.0
 10
12.1775873173
 20
6.6651539606
 30
0.0
 10
12.1541030891
 20
6.6584987935
 30
0.0
 10
12.1303280008
 20
6.652740369
 30
0.0
 10
12.1062947715
 20
6.6478865555
 30
0.0
 10
12.082036477
 20
6.6439439748
 30
0.0
 10
12.0575864462
 20
6.6409180922
 30
0.0
 10
12.0329784305
 20
6.6388130282
 30
0.0
 10
12.0082458463
 20
6.6376316464
 30
0.0
 10
11.9751107346
 20
6.637289649
 30
0.0
 10
11.9335420292
 20
6.6391857008
 30
0.0
 10
11.883782581
 20
6.6451488491
 30
0.0
 10
11.8343471453
 20
6.6547692222
 30
0.0
 10
11.785509116
 20
6.6679935946
 30
0.0
 10
11.7375361093
 20
6.6847487415
 30
0.0
 10
11.6906915818
 20
6.7049422623
 30
0.0
 10
11.6452326012
 20
6.7284629788
 30
0.0
 10
11.6014085706
 20
6.7551813916
 30
0.0
 10
11.5594599781
 20
6.7849506813
 30
0.0
 10
11.5196169894
 20
6.8176072768
 30
0.0
 10
11.4820981873
 20
6.8529717902
 30
0.0
 10
11.4471095465
 20
6.8908501489
 30
0.0
 10
11.4148430818
 20
6.9310344059
 30
0.0
 10
11.3854759639
 20
6.9733040489
 30
0.0
 10
11.3591695913
 20
7.017427181
 30
0.0
 10
11.3360684802
 20
7.0631616518
 30
0.0
 10
11.3162997631
 20
7.1102565172
 30
0.0
 10
11.2999723327
 20
7.1584534025
 30
0.0
 10
11.2871761577
 20
7.2074874823
 30
0.0
 10
11.2779821166
 20
7.2570904794
 30
0.0
 10
11.2724410699
 20
7.3069864546
 30
0.0
 10
11.2711999867
 20
7.3403569532
 30
0.0
 10
11.2711999867
 20
7.3569936996
 30
0.0
  0
SPLINE
  5
3CC
100
AcDbEntity
  8
0
100
AcDbSpline
 62
7
  6
CONTINUOUS
 70
0
 71
3
 72
15
 73
11
 74
0
 42
0.0000001
 43
0.0000001
 44
0.0000000001
 40
0.0
 40
0.0
 40
0.0
 40
0.0
 40
0.1250137279
 40
0.2501955392
 40
0.3754613121
 40
0.500721949
 40
0.6258901886
 40
0.7508799945
 40
0.8756090112
 40
1.0
 40
1.0
 40
1.0
 40
1.0
 10
12.2189529743
 20
7.6710469448
 30
0.0
 10
12.2230548964
 20
7.6645775725
 30
0.0
 10
12.2317155343
 20
7.6519100705
 30
0.0
 10
12.2459883086
 20
7.6338442326
 30
0.0
 10
12.2614799224
 20
7.616790092
 30
0.0
 10
12.2781057602
 20
7.6008412913
 30
0.0
 10
12.295775746
 20
7.5860840148
 30
0.0
 10
12.3143944644
 20
7.5725982109
 30
0.0
 10
12.3338596984
 20
7.5604576487
 30
0.0
 10
12.3473547185
 20
7.5532920689
 30
0.0
 10
12.354207655
 20
7.5499555046
 30
0.0
  0
SPLINE
  5
3CD
100
AcDbEntity
  8
0
100
AcDbSpline
 62
7
  6
CONTINUOUS
 70
0
 71
3
 72
47
 73
43
 74
0
 42
0.0000001
 43
0.0000001
 44
0.0000000001
 40
0.0
 40
0.0
 40
0.0
 40
0.0
 40
0.0310635133
 40
0.0622830855
 40
0.0936541496
 40
0.1251682955
 40
0.1568143665
 40
0.1885784895
 40
0.2204444021
 40
0.2523938031
 40
0.2844067343
 40
0.3164619855
 40
0.3485375149
 40
0.3806108839
 40
0.4126596965
 40
0.4446620376
 40
0.4765969046
 40
0.5084446265
 40
0.5401872667
 40
0.5718089946
 40
0.6032964296
 40
0.6346389475
 40
0.6658289322
 40
0.6968619807
 40
0.7277370481
 40
0.7584565153
 40
0.7737623048
 40
0.789031657
 40
0.8042658222
 40
0.8194662473
 40
0.8346345742
 40
0.8497726309
 40
0.8648824179
 40
0.8799661019
 40
0.895026004
 40
0.9100645832
 40
0.9250844252
 40
0.9400882287
 40
0.9550787862
 40
0.9700589696
 40
0.9850317145
 40
1.0
 40
1.0
 40
1.0
 40
1.0
 10
8.3817045389
 20
7.5659552563
 30
0.0
 10
8.3817045389
 20
7.5494431649
 30
0.0
 10
8.3829270509
 20
7.5163235082
 30
0.0
 10
8.3883856162
 20
7.4667992707
 30
0.0
 10
8.3974433188
 20
7.417559591
 30
0.0
 10
8.4100508489
 20
7.3688743067
 30
0.0
 10
8.4261394149
 20
7.3210058476
 30
0.0
 10
8.4456216155
 20
7.2742132943
 30
0.0
 10
8.4683918172
 20
7.2287495829
 30
0.0
 10
8.4943265446
 20
7.1848604632
 30
0.0
 10
8.5232853661
 20
7.1427831692
 30
0.0
 10
8.5551116111
 20
7.1027451954
 30
0.0
 10
8.5896330479
 20
7.0649629388
 30
0.0
 10
8.626663003
 20
7.0296406844
 30
0.0
 10
8.6660013145
 20
6.9969695095
 30
0.0
 10
8.707435276
 20
6.9671261
 30
0.0
 10
8.750740937
 20
6.9402719828
 30
0.0
 10
8.7956842503
 20
6.9165526405
 30
0.0
 10
8.8420222322
 20
6.8960965497
 30
0.0
 10
8.8895043868
 20
6.8790147003
 30
0.0
 10
8.9378739772
 20
6.8653999552
 30
0.0
 10
8.9868694071
 20
6.8553263628
 30
0.0
 10
9.036225476
 20
6.8488489467
 30
0.0
 10
9.0856755542
 20
6.846003478
 30
0.0
 10
9.134950035
 20
6.8468055505
 30
0.0
 10
9.1757003187
 20
6.8505161427
 30
0.0
 10
9.2079353779
 20
6.8552998326
 30
0.0
 10
9.2318756171
 20
6.8597833275
 30
0.0
 10
9.2555733615
 20
6.8651604964
 30
0.0
 10
9.2789969122
 20
6.871424172
 30
0.0
 10
9.3021144164
 20
6.8785658234
 30
0.0
 10
9.3248945828
 20
6.8865757641
 30
0.0
 10
9.3473064947
 20
6.8954432331
 30
0.0
 10
9.3693197901
 20
6.9051561745
 30
0.0
 10
9.3909046408
 20
6.9157014104
 30
0.0
 10
9.4120317461
 20
6.9270647355
 30
0.0
 10
9.4326724829
 20
6.9392307069
 30
0.0
 10
9.4527988923
 20
6.952182823
 30
0.0
 10
9.4723836144
 20
6.96590358
 30
0.0
 10
9.4914002159
 20
6.980374431
 30
0.0
 10
9.5098225892
 20
6.9955753953
 30
0.0
 10
9.5216931687
 20
7.0061841446
 30
0.0
 10
9.5275200361
 20
7.0116020729
 30
0.0
  0
SPLINE
  5
3CE
100
AcDbEntity
  8
0
100
AcDbSpline
 62
7
  6
CONTINUOUS
 70
0
 71
3
 72
23
 73
19
 74
0
 42
0.0000001
 43
0.0000001
 44
0.0000000001
 40
0.0
 40
0.0
 40
0.0
 40
0.0
 40
0.0637608412
 40
0.1273161404
 40
0.1906664143
 40
0.2538177983
 40
0.3167760223
 40
0.379549446
 40
0.4421478628
 40
0.5045827587
 40
0.5668671442
 40
0.6290154515
 40
0.691043409
 40
0.7529678967
 40
0.8148067905
 40
0.8765787933
 40
0.9383032578
 40
1.0
 40
1.0
 40
1.0
 40
1.0
 10
8.3817045389
 20
7.5659552563
 30
0.0
 10
8.3817045389
 20
7.5764309138
 30
0.0
 10
8.382194359
 20
7.5973518463
 30
0.0
 10
8.3844051938
 20
7.6286106586
 30
0.0
 10
8.3880863534
 20
7.6596305884
 30
0.0
 10
8.3932295839
 20
7.6903423188
 30
0.0
 10
8.3998237967
 20
7.7206787021
 30
0.0
 10
8.4078544722
 20
7.7505728689
 30
0.0
 10
8.4173040482
 20
7.7799590824
 30
0.0
 10
8.4281517869
 20
7.8087726663
 30
0.0
 10
8.4403738689
 20
7.8369502134
 30
0.0
 10
8.4539434477
 20
7.8644297068
 30
0.0
 10
8.4688307021
 20
7.8911506554
 30
0.0
 10
8.4850029237
 20
7.9170542484
 30
0.0
 10
8.5024245035
 20
7.9420834049
 30
0.0
 10
8.5210573229
 20
7.9661832037
 30
0.0
 10
8.5408596668
 20
7.9892998779
 30
0.0
 10
8.5548152646
 20
8.0040251241
 30
0.0
 10
8.5619706987
 20
8.0112048934
 30
0.0
  0
SPLINE
  5
3CF
100
AcDbEntity
  8
0
100
AcDbSpline
 62
7
  6
CONTINUOUS
 70
0
 71
3
 72
69
 73
65
 74
0
 42
0.0000001
 43
0.0000001
 44
0.0000000001
 40
0.0
 40
0.0
 40
0.0
 40
0.0
 40
0.0155844784
 40
0.0311164857
 40
0.0465960402
 40
0.0620249415
 40
0.0774047696
 40
0.092737865
 40
0.1080269667
 40
0.1232752767
 40
0.1384864179
 40
0.1536643976
 40
0.1688135699
 40
0.1839385916
 40
0.1990443748
 40
0.214136036
 40
0.2292188428
 40
0.2442981574
 40
0.2593793793
 40
0.2744678872
 40
0.2895689816
 40
0.304687829
 40
0.3198294075
 40
0.3349984545
 40
0.3501994182
 40
0.3654364121
 40
0.3807131743
 40
0.3960330328
 40
0.4113988745
 40
0.4268131203
 40
0.4422777043
 40
0.4577940591
 40
0.473363106
 40
0.4889852529
 40
0.5046603949
 40
0.5203879209
 40
0.5361667237
 40
0.5519952147
 40
0.5678713436
 40
0.5837926221
 40
0.5997561506
 40
0.615758647
 40
0.6317964791
 40
0.6478656986
 40
0.6800725947
 40
0.7123515117
 40
0.728510095
 40
0.7446719373
 40
0.7608319997
 40
0.7769852595
 40
0.7931267534
 40
0.8092516204
 40
0.8253551441
 40
0.8414327955
 40
0.8574802739
 40
0.8734935466
 40
0.8894688842
 40
0.9054028993
 40
0.9212925758
 40
0.9371352889
 40
0.9529289196
 40
0.9686715342
 40
0.9843623985
 40
1.0
 40
1.0
 40
1.0
 40
1.0
 10
8.5459119391
 20
7.5545674344
 30
0.0
 10
8.5459119391
 20
7.5628499886
 30
0.0
 10
8.5463172823
 20
7.5793901472
 30
0.0
 10
8.5481469698
 20
7.6040961683
 30
0.0
 10
8.5511931864
 20
7.6285992563
 30
0.0
 10
8.5554484053
 20
7.6528393751
 30
0.0
 10
8.5609026066
 20
7.6767584846
 30
0.0
 10
8.5675426309
 20
7.700298797
 30
0.0
 10
8.5753525706
 20
7.7234035887
 30
0.0
 10
8.5843136306
 20
7.7460171419
 30
0.0
 10
8.5944042516
 20
7.7680849249
 30
0.0
 10
8.605600149
 20
7.7895537117
 30
0.0
 10
8.6178743679
 20
7.8103717136
 30
0.0
 10
8.6311973525
 20
7.8304887015
 30
0.0
 10
8.6455370004
 20
7.849856138
 30
0.0
 10
8.6608587338
 20
7.8684273054
 30
0.0
 10
8.677125607
 20
7.8861574043
 30
0.0
 10
8.6942983911
 20
7.903003664
 30
0.0
 10
8.7123356692
 20
7.9189254468
 30
0.0
 10
8.7311939392
 20
7.9338843426
 30
0.0
 10
8.7508277038
 20
7.9478442822
 30
0.0
 10
8.7711895873
 20
7.9607716249
 30
0.0
 10
8.7922304647
 20
7.972635222
 30
0.0
 10
8.8138995782
 20
7.983406495
 30
0.0
 10
8.8361446603
 20
7.9930595033
 30
0.0
 10
8.8589120615
 20
8.0015710012
 30
0.0
 10
8.8821468694
 20
8.0089205233
 30
0.0
 10
8.905793053
 20
8.0150904162
 30
0.0
 10
8.929793602
 20
8.0200658682
 30
0.0
 10
8.9540906623
 20
8.0238349458
 30
0.0
 10
8.9786256753
 20
8.0263886203
 30
0.0
 10
9.0033395168
 20
8.0277207861
 30
0.0
 10
9.0281726388
 20
8.027828307
 30
0.0
 10
9.0530652171
 20
8.0267109939
 30
0.0
 10
9.0779572945
 20
8.0243716002
 30
0.0
 10
9.1027889231
 20
8.020815815
 30
0.0
 10
9.1275003067
 20
8.0160522477
 30
0.0
 10
9.1520319414
 20
8.0100924108
 30
0.0
 10
9.1763247712
 20
8.0029507155
 30
0.0
 10
9.2003203073
 20
7.9946444152
 30
0.0
 10
9.2239608278
 20
7.9851935241
 30
0.0
 10
9.2471892905
 20
7.9746209265
 30
0.0
 10
9.2699503048
 20
7.9629517289
 30
0.0
 10
9.2996191064
 20
7.9459587049
 30
0.0
 10
9.3352580562
 20
7.9221201895
 30
0.0
 10
9.3685934948
 20
7.8950799842
 30
0.0
 10
9.3937163944
 20
7.8716659162
 30
0.0
 10
9.4117478125
 20
7.8532481208
 30
0.0
 10
9.4289149041
 20
7.8340266151
 30
0.0
 10
9.4451768608
 20
7.8140472672
 30
0.0
 10
9.4604943945
 20
7.7933582714
 30
0.0
 10
9.4748306569
 20
7.7720093903
 30
0.0
 10
9.488151102
 20
7.7500520064
 30
0.0
 10
9.5004236515
 20
7.7275389674
 30
0.0
 10
9.5116187498
 20
7.7045244636
 30
0.0
 10
9.5217094231
 20
7.6810638873
 30
0.0
 10
9.5306713481
 20
7.6572137049
 30
0.0
 10
9.5384829086
 20
7.6330313201
 30
0.0
 10
9.545125236
 20
7.6085749494
 30
0.0
 10
9.5505823326
 20
7.5839034348
 30
0.0
 10
9.5548409382
 20
7.5590763049
 30
0.0
 10
9.5578909168
 20
7.5341529485
 30
0.0
 10
9.5597246254
 20
7.5091943857
 30
0.0
 10
9.5601341168
 20
7.4925416746
 30
0.0
 10
9.5601341168
 20
7.4842308875
 30
0.0
  0
SPLINE
  5
3D0
100
AcDbEntity
  8
0
100
AcDbSpline
 62
7
  6
CONTINUOUS
 70
0
 71
3
 72
23
 73
19
 74
0
 42
0.0000001
 43
0.0000001
 44
0.0000000001
 40
0.0
 40
0.0
 40
0.0
 40
0.0
 40
0.0637771706
 40
0.1273448423
 40
0.190701976
 40
0.2538561364
 40
0.3168131911
 40
0.379582093
 40
0.4421733865
 40
0.504599335
 40
0.5668738647
 40
0.6290123811
 40
0.6910316516
 40
0.752949644
 40
0.8147853513
 40
0.8765586011
 40
0.9382898546
 40
1.0
 40
1.0
 40
1.0
 40
1.0
 10
8.6010254513
 20
7.5628030023
 30
0.0
 10
8.6010254513
 20
7.5702088129
 30
0.0
 10
8.6013799225
 20
7.5849986167
 30
0.0
 10
8.6029798317
 20
7.6070933599
 30
0.0
 10
8.6056436852
 20
7.6290129471
 30
0.0
 10
8.6093651297
 20
7.6507059549
 30
0.0
 10
8.614135824
 20
7.6721227579
 30
0.0
 10
8.6199447647
 20
7.6932138531
 30
0.0
 10
8.6267786042
 20
7.7139306503
 30
0.0
 10
8.6346216268
 20
7.7342253748
 30
0.0
 10
8.6434557888
 20
7.7540512229
 30
0.0
 10
8.6532607765
 20
7.773362459
 30
0.0
 10
8.664014019
 20
7.7921145254
 30
0.0
 10
8.6756907348
 20
7.8102641824
 30
0.0
 10
8.6882639728
 20
7.8277695246
 30
0.0
 10
8.7017049009
 20
7.8445903008
 30
0.0
 10
8.7159819964
 20
7.8606871816
 30
0.0
 10
8.7260374926
 20
7.8709129254
 30
0.0
 10
8.7311915094
 20
7.8758913408
 30
0.0
  0
SPLINE
  5
3D1
100
AcDbEntity
  8
0
100
AcDbSpline
 62
7
  6
CONTINUOUS
 70
0
 71
3
 72
23
 73
19
 74
0
 42
0.0000001
 43
0.0000001
 44
0.0000000001
 40
0.0
 40
0.0
 40
0.0
 40
0.0
 40
0.0637764156
 40
0.1273451284
 40
0.1907019885
 40
0.2538560635
 40
0.3168132288
 40
0.3795820795
 40
0.4421733867
 40
0.5045993416
 40
0.5668738629
 40
0.6290123789
 40
0.691031653
 40
0.7529496458
 40
0.8147853519
 40
0.8765586031
 40
0.9382898573
 40
1.0
 40
1.0
 40
1.0
 40
1.0
 10
8.9936083858
 20
7.7745090202
 30
0.0
 10
8.9936083858
 20
7.7793304543
 30
0.0
 10
8.9938391849
 20
7.7889592535
 30
0.0
 10
8.9948807581
 20
7.8033438548
 30
0.0
 10
8.9966150444
 20
7.817614471
 30
0.0
 10
8.9990378658
 20
7.8317375026
 30
0.0
 10
9.0021437987
 20
7.8456807289
 30
0.0
 10
9.0059256581
 20
7.8594119164
 30
0.0
 10
9.0103747445
 20
7.8728994214
 30
0.0
 10
9.0154808958
 20
7.8861121277
 30
0.0
 10
9.0212323202
 20
7.8990195725
 30
0.0
 10
9.0276157637
 20
7.9115919968
 30
0.0
 10
9.0346165599
 20
7.9238003813
 30
0.0
 10
9.0422186017
 20
7.935616556
 30
0.0
 10
9.0504043038
 20
7.9470132622
 30
0.0
 10
9.0591548971
 20
7.9579642975
 30
0.0
 10
9.0684498968
 20
7.9684440232
 30
0.0
 10
9.0749964339
 20
7.9751014179
 30
0.0
 10
9.0783519195
 20
7.9783425674
 30
0.0
  0
SPLINE
  5
3D2
100
AcDbEntity
  8
0
100
AcDbSpline
 62
7
  6
CONTINUOUS
 70
0
 71
3
 72
15
 73
11
 74
0
 42
0.0000001
 43
0.0000001
 44
0.0000000001
 40
0.0
 40
0.0
 40
0.0
 40
0.0
 40
0.1265795779
 40
0.2526764528
 40
0.3782970293
 40
0.5034581258
 40
0.6281797285
 40
0.7524885902
 40
0.8764164079
 40
1.0
 40
1.0
 40
1.0
 40
1.0
 10
8.8067864224
 20
7.7615528501
 30
0.0
 10
8.8067864224
 20
7.7700980669
 30
0.0
 10
8.8072582519
 20
7.7871597844
 30
0.0
 10
8.8093888437
 20
7.8126218596
 30
0.0
 10
8.8129346086
 20
7.8378299633
 30
0.0
 10
8.8178846437
 20
7.8627056039
 30
0.0
 10
8.8242239124
 20
7.8871726625
 30
0.0
 10
8.831933122
 20
7.9111561535
 30
0.0
 10
8.840988226
 20
7.9345813993
 30
0.0
 10
8.8479137992
 20
7.9498000671
 30
0.0
 10
8.8515903373
 20
7.9572892647
 30
0.0
  0
SPLINE
  5
3D3
100
AcDbEntity
  8
0
100
AcDbSpline
 62
4
  6
CONTINUOUS
 70
0
 71
3
 72
283
 73
279
 74
0
 42
0.0000001
 43
0.0000001
 44
0.0000000001
 40
0.0
 40
0.0
 40
0.0
 40
0.0
 40
0.015625
 40
0.03125
 40
0.0390625
 40
0.046875
 40
0.05078125
 40
0.0546875
 40
0.05859375
 40
0.060546875
 40
0.0615234375
 40
0.0625
 40
0.0634765625
 40
0.064453125
 40
0.06640625
 40
0.0703125
 40
0.07421875
 40
0.078125
 40
0.0859375
 40
0.09375
 40
0.1015625
 40
0.109375
 40
0.11328125
 40
0.1171875
 40
0.119140625
 40
0.12109375
 40
0.123046875
 40
0.1240234375
 40
0.1245117188
 40
0.125
 40
0.1254882812
 40
0.1259765625
 40
0.126953125
 40
0.12890625
 40
0.130859375
 40
0.1328125
 40
0.13671875
 40
0.140625
 40
0.1484375
 40
0.15625
 40
0.1640625
 40
0.171875
 40
0.17578125
 40
0.1796875
 40
0.181640625
 40
0.18359375
 40
0.185546875
 40
0.1865234375
 40
0.1870117188
 40
0.1875
 40
0.1879882812
 40
0.1884765625
 40
0.189453125
 40
0.19140625
 40
0.193359375
 40
0.1953125
 40
0.19921875
 40
0.203125
 40
0.2109375
 40
0.21875
 40
0.2265625
 40
0.234375
 40
0.23828125
 40
0.2421875
 40
0.244140625
 40
0.24609375
 40
0.248046875
 40
0.2490234375
 40
0.2495117188
 40
0.25
 40
0.2504882812
 40
0.2509765625
 40
0.251953125
 40
0.25390625
 40
0.255859375
 40
0.2578125
 40
0.26171875
 40
0.265625
 40
0.2734375
 40
0.28125
 40
0.2890625
 40
0.296875
 40
0.30078125
 40
0.3046875
 40
0.306640625
 40
0.30859375
 40
0.310546875
 40
0.3115234375
 40
0.3120117188
 40
0.3125
 40
0.3129882812
 40
0.3134765625
 40
0.314453125
 40
0.31640625
 40
0.318359375
 40
0.3203125
 40
0.32421875
 40
0.328125
 40
0.3359375
 40
0.34375
 40
0.3515625
 40
0.359375
 40
0.36328125
 40
0.3671875
 40
0.369140625
 40
0.37109375
 40
0.373046875
 40
0.3740234375
 40
0.3745117188
 40
0.375
 40
0.3754882812
 40
0.3759765625
 40
0.376953125
 40
0.37890625
 40
0.380859375
 40
0.3828125
 40
0.38671875
 40
0.390625
 40
0.3984375
 40
0.40625
 40
0.4140625
 40
0.421875
 40
0.42578125
 40
0.4296875
 40
0.431640625
 40
0.43359375
 40
0.435546875
 40
0.4365234375
 40
0.4370117188
 40
0.4375
 40
0.4379882812
 40
0.4384765625
 40
0.439453125
 40
0.44140625
 40
0.443359375
 40
0.4453125
 40
0.44921875
 40
0.453125
 40
0.4609375
 40
0.46875
 40
0.4765625
 40
0.484375
 40
0.48828125
 40
0.4921875
 40
0.494140625
 40
0.49609375
 40
0.498046875
 40
0.4990234375
 40
0.4995117188
 40
0.5
 40
0.5004882812
 40
0.5009765625
 40
0.501953125
 40
0.50390625
 40
0.505859375
 40
0.5078125
 40
0.51171875
 40
0.515625
 40
0.5234375
 40
0.53125
 40
0.5390625
 40
0.546875
 40
0.55078125
 40
0.5546875
 40
0.556640625
 40
0.55859375
 40
0.560546875
 40
0.5615234375
 40
0.5620117188
 40
0.5625
 40
0.5629882812
 40
0.5634765625
 40
0.564453125
 40
0.56640625
 40
0.568359375
 40
0.5703125
 40
0.57421875
 40
0.578125
 40
0.5859375
 40
0.59375
 40
0.6015625
 40
0.609375
 40
0.61328125
 40
0.6171875
 40
0.619140625
 40
0.62109375
 40
0.623046875
 40
0.6240234375
 40
0.6245117188
 40
0.625
 40
0.6254882812
 40
0.6259765625
 40
0.626953125
 40
0.62890625
 40
0.630859375
 40
0.6328125
 40
0.63671875
 40
0.640625
 40
0.6484375
 40
0.65625
 40
0.6640625
 40
0.671875
 40
0.67578125
 40
0.6796875
 40
0.681640625
 40
0.68359375
 40
0.685546875
 40
0.6865234375
 40
0.6870117188
 40
0.6875
 40
0.6879882812
 40
0.6884765625
 40
0.689453125
 40
0.69140625
 40
0.693359375
 40
0.6953125
 40
0.69921875
 40
0.703125
 40
0.7109375
 40
0.71875
 40
0.7265625
 40
0.734375
 40
0.73828125
 40
0.7421875
 40
0.74609375
 40
0.748046875
 40
0.7490234375
 40
0.75
 40
0.7509765625
 40
0.751953125
 40
0.75390625
 40
0.7578125
 40
0.76171875
 40
0.765625
 40
0.7734375
 40
0.78125
 40
0.7890625
 40
0.796875
 40
0.80078125
 40
0.8046875
 40
0.80859375
 40
0.810546875
 40
0.8115234375
 40
0.8125
 40
0.8134765625
 40
0.814453125
 40
0.81640625
 40
0.8203125
 40
0.82421875
 40
0.828125
 40
0.8359375
 40
0.84375
 40
0.8515625
 40
0.859375
 40
0.8671875
 40
0.87109375
 40
0.873046875
 40
0.875
 40
0.876953125
 40
0.87890625
 40
0.8828125
 40
0.890625
 40
0.8984375
 40
0.90625
 40
0.9140625
 40
0.921875
 40
0.9296875
 40
0.93359375
 40
0.935546875
 40
0.9375
 40
0.939453125
 40
0.94140625
 40
0.9453125
 40
0.953125
 40
0.9609375
 40
0.96875
 40
0.984375
 40
1.0
 40
1.0
 40
1.0
 40
1.0
 10
13.1461435562
 20
8.6723438496
 30
0.0
 10
13.1460612391
 20
8.6753975243
 30
0.0
 10
13.1458966017
 20
8.6815048681
 30
0.0
 10
13.1456908216
 20
8.6891390764
 30
0.0
 10
13.1455261625
 20
8.6952463832
 30
0.0
 10
13.1454233299
 20
8.6990635853
 30
0.0
 10
13.145340882
 20
8.702117037
 30
0.0
 10
13.145279544
 20
8.7044079745
 30
0.0
 10
13.1452268452
 20
8.706314389
 30
0.0
 10
13.1451930641
 20
8.7076541781
 30
0.0
 10
13.1451689076
 20
8.7084114981
 30
0.0
 10
13.1451644611
 20
8.7090027954
 30
0.0
 10
13.1451077577
 20
8.7095050003
 30
0.0
 10
13.145050381
 20
8.7102056832
 30
0.0
 10
13.144941479
 20
8.7114173992
 30
0.0
 10
13.1447903448
 20
8.713155992
 30
0.0
 10
13.1446070833
 20
8.7152390632
 30
0.0
 10
13.1443633985
 20
8.7180176233
 30
0.0
 10
13.1440585646
 20
8.7214904347
 30
0.0
 10
13.1436928622
 20
8.7256579765
 30
0.0
 10
13.1433271312
 20
8.7298254677
 30
0.0
 10
13.1430223687
 20
8.7332984056
 30
0.0
 10
13.142778541
 20
8.7360767127
 30
0.0
 10
13.1426261863
 20
8.7378132485
 30
0.0
 10
13.1425042168
 20
8.7392022626
 30
0.0
 10
13.1424129743
 20
8.7402446106
 30
0.0
 10
13.1423361925
 20
8.741111365
 30
0.0
 10
13.1422839099
 20
8.7417217609
 30
0.0
 10
13.1422517472
 20
8.7420648316
 30
0.0
 10
13.1422340675
 20
8.7423382674
 30
0.0
 10
13.1421917619
 20
8.7425500357
 30
0.0
 10
13.1421439442
 20
8.7428539037
 30
0.0
 10
13.1420562611
 20
8.7433756506
 30
0.0
 10
13.1419330919
 20
8.7441262431
 30
0.0
 10
13.1417843932
 20
8.7450247113
 30
0.0
 10
13.1415864411
 20
8.7462234522
 30
0.0
 10
13.1413388939
 20
8.7477216101
 30
0.0
 10
13.1409428782
 20
8.7501188128
 30
0.0
 10
13.1404478379
 20
8.7531152643
 30
0.0
 10
13.139853799
 20
8.75671103
 30
0.0
 10
13.1392597555
 20
8.7603067829
 30
0.0
 10
13.1387647268
 20
8.7633032664
 30
0.0
 10
13.1383686879
 20
8.7657004051
 30
0.0
 10
13.1381211998
 20
8.7671987257
 30
0.0
 10
13.1379231262
 20
8.7683971328
 30
0.0
 10
13.1377747988
 20
8.7692966208
 30
0.0
 10
13.137650468
 20
8.7700440226
 30
0.0
 10
13.1375648585
 20
8.7705714654
 30
0.0
 10
13.1375137184
 20
8.7708662072
 30
0.0
 10
13.137481618
 20
8.7711060082
 30
0.0
 10
13.1374256091
 20
8.7712741578
 30
0.0
 10
13.1373592702
 20
8.77152335
 30
0.0
 10
13.1372392915
 20
8.7719477918
 30
0.0
 10
13.1370699247
 20
8.7725602253
 30
0.0
 10
13.1368658151
 20
8.7732925395
 30
0.0
 10
13.1365939727
 20
8.7742698687
 30
0.0
 10
13.1362540656
 20
8.7754912186
 30
0.0
 10
13.1357102725
 20
8.7774455526
 30
0.0
 10
13.135030511
 20
8.7798884098
 30
0.0
 10
13.1342148062
 20
8.7828198665
 30
0.0
 10
13.1333990975
 20
8.7857513073
 30
0.0
 10
13.132719346
 20
8.7881942044
 30
0.0
 10
13.1321755329
 20
8.7901484585
 30
0.0
 10
13.1318356764
 20
8.7913700113
 30
0.0
 10
13.1315637303
 20
8.7923469239
 30
0.0
 10
13.1313599373
 20
8.793080511
 30
0.0
 10
13.13118958
 20
8.793688962
 30
0.0
 10
13.1310713696
 20
8.7941205132
 30
0.0
 10
13.1310021974
 20
8.7943583144
 30
0.0
 10
13.1309548912
 20
8.7945614537
 30
0.0
 10
13.130890105
 20
8.7946698391
 30
0.0
 10
13.1308098207
 20
8.7948474041
 30
0.0
 10
13.1306664823
 20
8.7951427437
 30
0.0
 10
13.1304631984
 20
8.7955727083
 30
0.0
 10
13.130218622
 20
8.7960852199
 30
0.0
 10
13.1298927421
 20
8.7967697722
 30
0.0
 10
13.1294853163
 20
8.7976250504
 30
0.0
 10
13.1288334774
 20
8.7989937261
 30
0.0
 10
13.1280186642
 20
8.800704491
 30
0.0
 10
13.127040895
 20
8.8027574453
 30
0.0
 10
13.1260631226
 20
8.8048103813
 30
0.0
 10
13.1252483171
 20
8.8065211922
 30
0.0
 10
13.1245964628
 20
8.8078897759
 30
0.0
 10
13.1241890763
 20
8.8087452879
 30
0.0
 10
13.1238631156
 20
8.8094293603
 30
0.0
 10
13.1236187862
 20
8.809943338
 30
0.0
 10
13.1234147294
 20
8.8103687154
 30
0.0
 10
13.1232727708
 20
8.8106722439
 30
0.0
 10
13.1231902756
 20
8.8108366883
 30
0.0
 10
13.1231322806
 20
8.810985376
 30
0.0
 10
13.1230594682
 20
8.8110371464
 30
0.0
 10
13.1229675534
 20
8.8111399795
 30
0.0
 10
13.1228042945
 20
8.8113041865
 30
0.0
 10
13.1225723265
 20
8.8115470026
 30
0.0
 10
13.122293426
 20
8.8118348573
 30
0.0
 10
13.1219217468
 20
8.8122198946
 30
0.0
 10
13.1214570835
 20
8.8127007698
 30
0.0
 10
13.1207136581
 20
8.8134704057
 30
0.0
 10
13.119784364
 20
8.8144323691
 30
0.0
 10
13.1186692166
 20
8.8155867625
 30
0.0
 10
13.1175540669
 20
8.8167411369
 30
0.0
 10
13.1166247788
 20
8.817703148
 30
0.0
 10
13.1158813414
 20
8.8184726886
 30
0.0
 10
13.1154167086
 20
8.818953806
 30
0.0
 10
13.1150449667
 20
8.8193383461
 30
0.0
 10
13.1147662579
 20
8.8196277197
 30
0.0
 10
13.1145336902
 20
8.8198657834
 30
0.0
 10
13.1143715017
 20
8.8200384744
 30
0.0
 10
13.114277872
 20
8.820127714
 30
0.0
 10
13.1142103275
 20
8.8202212389
 30
0.0
 10
13.114132547
 20
8.8202131038
 30
0.0
 10
13.1140324101
 20
8.8202377172
 30
0.0
 10
13.113855507
 20
8.8202642692
 30
0.0
 10
13.1136036581
 20
8.8203108381
 30
0.0
 10
13.1133010671
 20
8.8203630237
 30
0.0
 10
13.1128977424
 20
8.8204338958
 30
0.0
 10
13.1123935421
 20
8.8205220438
 30
0.0
 10
13.1115868464
 20
8.8206633278
 30
0.0
 10
13.1105784683
 20
8.8208398473
 30
0.0
 10
13.1093684183
 20
8.8210517099
 30
0.0
 10
13.1081583667
 20
8.8212635526
 30
0.0
 10
13.1071499928
 20
8.8214401217
 30
0.0
 10
13.1063432886
 20
8.8215813066
 30
0.0
 10
13.1058391101
 20
8.8216697065
 30
0.0
 10
13.1054357405
 20
8.8217400615
 30
0.0
 10
13.1051332868
 20
8.8217938269
 30
0.0
 10
13.1048810084
 20
8.821835453
 30
0.0
 10
13.1047048719
 20
8.8218708287
 30
0.0
 10
13.1046035068
 20
8.8218813042
 30
0.0
 10
13.1045294989
 20
8.8219165963
 30
0.0
 10
13.1044477853
 20
8.8218470162
 30
0.0
 10
13.1043415216
 20
8.8217908234
 30
0.0
 10
13.1041543079
 20
8.8216754424
 30
0.0
 10
13.1038875144
 20
8.8215195229
 30
0.0
 10
13.103567082
 20
8.8213286055
 30
0.0
 10
13.1031399366
 20
8.8210753812
 30
0.0
 10
13.1026059714
 20
8.8207583946
 30
0.0
 10
13.1017516459
 20
8.8202514711
 30
0.0
 10
13.1006837325
 20
8.8196177287
 30
0.0
 10
13.0994022391
 20
8.818857278
 30
0.0
 10
13.0981207453
 20
8.8180968076
 30
0.0
 10
13.0970528332
 20
8.8174631141
 30
0.0
 10
13.0961985051
 20
8.8169560928
 30
0.0
 10
13.0956645464
 20
8.8166393548
 30
0.0
 10
13.0952373877
 20
8.8163856204
 30
0.0
 10
13.0949169959
 20
8.8161962615
 30
0.0
 10
13.0946500753
 20
8.8160354658
 30
0.0
 10
13.0944630885
 20
8.8159287897
 30
0.0
 10
13.0943564612
 20
8.8158586493
 30
0.0
 10
13.0942758646
 20
8.8158319116
 30
0.0
 10
13.0941976615
 20
8.815706295
 30
0.0
 10
13.0940925559
 20
8.8155732962
 30
0.0
 10
13.0939090101
 20
8.8153244787
 30
0.0
 10
13.0936465984
 20
8.8149774266
 30
0.0
 10
13.0933317914
 20
8.8145573679
 30
0.0
 10
13.0929120183
 20
8.8139985458
 30
0.0
 10
13.0923873124
 20
8.813299588
 30
0.0
 10
13.0915477771
 20
8.812181496
 30
0.0
 10
13.0904983599
 20
8.810783798
 30
0.0
 10
13.0892390584
 20
8.8091065982
 30
0.0
 10
13.0879797576
 20
8.8074293801
 30
0.0
 10
13.0869303387
 20
8.806031728
 30
0.0
 10
13.086090807
 20
8.8049135441
 30
0.0
 10
13.0855660918
 20
8.8042148199
 30
0.0
 10
13.0851463377
 20
8.8036555185
 30
0.0
 10
13.0848314728
 20
8.8032369239
 30
0.0
 10
13.0845692422
 20
8.8028852912
 30
0.0
 10
13.0843853731
 20
8.8026446508
 30
0.0
 10
13.0842807855
 20
8.8024985503
 30
0.0
 10
13.0842009913
 20
8.8024131778
 30
0.0
 10
13.0841263707
 20
8.8022352897
 30
0.0
 10
13.084025072
 20
8.8020303761
 30
0.0
 10
13.08384864
 20
8.8016567419
 30
0.0
 10
13.0835961548
 20
8.8011308394
 30
0.0
 10
13.0832933606
 20
8.8004963918
 30
0.0
 10
13.0828895694
 20
8.7996516368
 30
0.0
 10
13.0823848529
 20
8.7985952907
 30
0.0
 10
13.0815772938
 20
8.796905362
 30
0.0
 10
13.0805678494
 20
8.7947928733
 30
0.0
 10
13.0793565139
 20
8.7922579222
 30
0.0
 10
13.0781451799
 20
8.7897229544
 30
0.0
 10
13.0771357318
 20
8.7876105076
 30
0.0
 10
13.0763281801
 20
8.785920495
 30
0.0
 10
13.0758234449
 20
8.784864362
 30
0.0
 10
13.075419692
 20
8.7840191698
 30
0.0
 10
13.0751167807
 20
8.7833860579
 30
0.0
 10
13.0748646622
 20
8.7828559764
 30
0.0
 10
13.0746875755
 20
8.7824898024
 30
0.0
 10
13.0745873257
 20
8.7822729356
 30
0.0
 10
13.0745094831
 20
8.7821317639
 30
0.0
 10
13.0744417905
 20
8.7819084909
 30
0.0
 10
13.0743479933
 20
8.7816394315
 30
0.0
 10
13.0741854977
 20
8.7811552347
 30
0.0
 10
13.0739524987
 20
8.7804705007
 30
0.0
 10
13.0736732691
 20
8.7796458341
 30
0.0
 10
13.073300834
 20
8.7785473214
 30
0.0
 10
13.0728353342
 20
8.7771738235
 30
0.0
 10
13.0720905099
 20
8.7749764266
 30
0.0
 10
13.0711594882
 20
8.7722296114
 30
0.0
 10
13.070042258
 20
8.7689334646
 30
0.0
 10
13.0689250301
 20
8.7656373026
 30
0.0
 10
13.0679940028
 20
8.7628905256
 30
0.0
 10
13.0672491896
 20
8.7606930524
 30
0.0
 10
13.0667836616
 20
8.7593197482
 30
0.0
 10
13.0664112845
 20
8.7582208381
 30
0.0
 10
13.0661318777
 20
8.7573973858
 30
0.0
 10
13.0658994331
 20
8.7567088523
 30
0.0
 10
13.0657359479
 20
8.7562314383
 30
0.0
 10
13.0656437362
 20
8.755951511
 30
0.0
 10
13.0655711736
 20
8.7557616206
 30
0.0
 10
13.0655116219
 20
8.7554950699
 30
0.0
 10
13.0654276813
 20
8.755166409
 30
0.0
 10
13.0652828998
 20
8.7545787937
 30
0.0
 10
13.0650749636
 20
8.7537458569
 30
0.0
 10
13.0648259134
 20
8.7527435447
 30
0.0
 10
13.0644936811
 20
8.7514081022
 30
0.0
 10
13.0640784474
 20
8.7497384656
 30
0.0
 10
13.0634140416
 20
8.7470672338
 30
0.0
 10
13.0625835464
 20
8.7437281274
 30
0.0
 10
13.0615869419
 20
8.7397212396
 30
0.0
 10
13.0605903595
 20
8.7357142991
 30
0.0
 10
13.0597598089
 20
8.7323753242
 30
0.0
 10
13.0590955141
 20
8.7297038295
 30
0.0
 10
13.0585968953
 20
8.7277010676
 30
0.0
 10
13.0581826444
 20
8.7260293667
 30
0.0
 10
13.0578901868
 20
8.7248645387
 30
0.0
 10
13.0577269435
 20
8.7241905494
 30
0.0
 10
13.0575935941
 20
8.7237086451
 30
0.0
 10
13.0575019749
 20
8.7231365769
 30
0.0
 10
13.0573652599
 20
8.7224052694
 30
0.0
 10
13.0571327907
 20
8.7211108281
 30
0.0
 10
13.0567971461
 20
8.7192692872
 30
0.0
 10
13.0563958904
 20
8.7170561588
 30
0.0
 10
13.0558603523
 20
8.7141064668
 30
0.0
 10
13.055191113
 20
8.7104189567
 30
0.0
 10
13.0543879418
 20
8.7059941224
 30
0.0
 10
13.0535848137
 20
8.7015692088
 30
0.0
 10
13.0529154665
 20
8.6978818968
 30
0.0
 10
13.0523801442
 20
8.6949318085
 30
0.0
 10
13.0519782305
 20
8.6927198889
 30
0.0
 10
13.0516446441
 20
8.6908745665
 30
0.0
 10
13.0514085008
 20
8.6895868756
 30
0.0
 10
13.0512776727
 20
8.6888447523
 30
0.0
 10
13.0511679709
 20
8.688305907
 30
0.0
 10
13.0511025368
 20
8.6876992228
 30
0.0
 10
13.0509998502
 20
8.6869139736
 30
0.0
 10
13.0508273431
 20
8.6855287623
 30
0.0
 10
13.0505771429
 20
8.6835556532
 30
0.0
 10
13.0502785132
 20
8.6811854548
 30
0.0
 10
13.0498797756
 20
8.6780260534
 30
0.0
 10
13.0493815619
 20
8.6740764968
 30
0.0
 10
13.0487835522
 20
8.6693371972
 30
0.0
 10
13.0481858225
 20
8.6645977122
 30
0.0
 10
13.0475871264
 20
8.6598588006
 30
0.0
 10
13.0470912007
 20
8.6559079508
 30
0.0
 10
13.0467382013
 20
8.6531457943
 30
0.0
 10
13.046545622
 20
8.6515620518
 30
0.0
 10
13.0463754554
 20
8.6503893647
 30
0.0
 10
13.0463036503
 20
8.6491588824
 30
0.0
 10
13.0461736004
 20
8.6475383989
 30
0.0
 10
13.0459619994
 20
8.64469316
 30
0.0
 10
13.045651349
 20
8.6406334451
 30
0.0
 10
13.0452821722
 20
8.6357596787
 30
0.0
 10
13.0449119619
 20
8.6308864866
 30
0.0
 10
13.044542282
 20
8.6260131062
 30
0.0
 10
13.0441715137
 20
8.6211399046
 30
0.0
 10
13.0438657263
 20
8.6170784639
 30
0.0
 10
13.0436454603
 20
8.6142362999
 30
0.0
 10
13.043529292
 20
8.6126108903
 30
0.0
 10
13.0434148476
 20
8.6113955396
 30
0.0
 10
13.0434048271
 20
8.6101660209
 30
0.0
 10
13.0433550422
 20
8.6085316047
 30
0.0
 10
13.0432848893
 20
8.6056690737
 30
0.0
 10
13.0431757984
 20
8.6015809475
 30
0.0
 10
13.0430486872
 20
8.5966746808
 30
0.0
 10
13.0428778785
 20
8.5901331719
 30
0.0
 10
13.0426648259
 20
8.5819562236
 30
0.0
 10
13.0424942442
 20
8.5754146839
 30
0.0
 10
13.0424089708
 20
8.5721439117
 30
0.0
  0
SPLINE
  5
3D4
100
AcDbEntity
  8
0
100
AcDbSpline
 62
4
  6
CONTINUOUS
 70
0
 71
3
 72
283
 73
279
 74
0
 42
0.0000001
 43
0.0000001
 44
0.0000000001
 40
0.0
 40
0.0
 40
0.0
 40
0.0
 40
0.015625
 40
0.03125
 40
0.0390625
 40
0.046875
 40
0.05078125
 40
0.0546875
 40
0.05859375
 40
0.060546875
 40
0.0615234375
 40
0.0625
 40
0.0634765625
 40
0.064453125
 40
0.06640625
 40
0.0703125
 40
0.07421875
 40
0.078125
 40
0.0859375
 40
0.09375
 40
0.1015625
 40
0.109375
 40
0.11328125
 40
0.1171875
 40
0.119140625
 40
0.12109375
 40
0.123046875
 40
0.1240234375
 40
0.1245117188
 40
0.125
 40
0.1254882812
 40
0.1259765625
 40
0.126953125
 40
0.12890625
 40
0.130859375
 40
0.1328125
 40
0.13671875
 40
0.140625
 40
0.1484375
 40
0.15625
 40
0.1640625
 40
0.171875
 40
0.17578125
 40
0.1796875
 40
0.181640625
 40
0.18359375
 40
0.185546875
 40
0.1865234375
 40
0.1870117188
 40
0.1875
 40
0.1879882812
 40
0.1884765625
 40
0.189453125
 40
0.19140625
 40
0.193359375
 40
0.1953125
 40
0.19921875
 40
0.203125
 40
0.2109375
 40
0.21875
 40
0.2265625
 40
0.234375
 40
0.23828125
 40
0.2421875
 40
0.244140625
 40
0.24609375
 40
0.248046875
 40
0.2490234375
 40
0.2495117188
 40
0.25
 40
0.2504882812
 40
0.2509765625
 40
0.251953125
 40
0.25390625
 40
0.255859375
 40
0.2578125
 40
0.26171875
 40
0.265625
 40
0.2734375
 40
0.28125
 40
0.2890625
 40
0.296875
 40
0.30078125
 40
0.3046875
 40
0.306640625
 40
0.30859375
 40
0.310546875
 40
0.3115234375
 40
0.3120117188
 40
0.3125
 40
0.3129882812
 40
0.3134765625
 40
0.314453125
 40
0.31640625
 40
0.318359375
 40
0.3203125
 40
0.32421875
 40
0.328125
 40
0.3359375
 40
0.34375
 40
0.3515625
 40
0.359375
 40
0.36328125
 40
0.3671875
 40
0.369140625
 40
0.37109375
 40
0.373046875
 40
0.3740234375
 40
0.3745117188
 40
0.375
 40
0.3754882812
 40
0.3759765625
 40
0.376953125
 40
0.37890625
 40
0.380859375
 40
0.3828125
 40
0.38671875
 40
0.390625
 40
0.3984375
 40
0.40625
 40
0.4140625
 40
0.421875
 40
0.42578125
 40
0.4296875
 40
0.431640625
 40
0.43359375
 40
0.435546875
 40
0.4365234375
 40
0.4370117188
 40
0.4375
 40
0.4379882812
 40
0.4384765625
 40
0.439453125
 40
0.44140625
 40
0.443359375
 40
0.4453125
 40
0.44921875
 40
0.453125
 40
0.4609375
 40
0.46875
 40
0.4765625
 40
0.484375
 40
0.48828125
 40
0.4921875
 40
0.494140625
 40
0.49609375
 40
0.498046875
 40
0.4990234375
 40
0.4995117188
 40
0.5
 40
0.5004882812
 40
0.5009765625
 40
0.501953125
 40
0.50390625
 40
0.505859375
 40
0.5078125
 40
0.51171875
 40
0.515625
 40
0.5234375
 40
0.53125
 40
0.5390625
 40
0.546875
 40
0.55078125
 40
0.5546875
 40
0.556640625
 40
0.55859375
 40
0.560546875
 40
0.5615234375
 40
0.5620117188
 40
0.5625
 40
0.5629882812
 40
0.5634765625
 40
0.564453125
 40
0.56640625
 40
0.568359375
 40
0.5703125
 40
0.57421875
 40
0.578125
 40
0.5859375
 40
0.59375
 40
0.6015625
 40
0.609375
 40
0.61328125
 40
0.6171875
 40
0.619140625
 40
0.62109375
 40
0.623046875
 40
0.6240234375
 40
0.6245117188
 40
0.625
 40
0.6254882812
 40
0.6259765625
 40
0.626953125
 40
0.62890625
 40
0.630859375
 40
0.6328125
 40
0.63671875
 40
0.640625
 40
0.6484375
 40
0.65625
 40
0.6640625
 40
0.671875
 40
0.67578125
 40
0.6796875
 40
0.681640625
 40
0.68359375
 40
0.685546875
 40
0.6865234375
 40
0.6870117188
 40
0.6875
 40
0.6879882812
 40
0.6884765625
 40
0.689453125
 40
0.69140625
 40
0.693359375
 40
0.6953125
 40
0.69921875
 40
0.703125
 40
0.7109375
 40
0.71875
 40
0.7265625
 40
0.734375
 40
0.73828125
 40
0.7421875
 40
0.74609375
 40
0.748046875
 40
0.7490234375
 40
0.75
 40
0.7509765625
 40
0.751953125
 40
0.75390625
 40
0.7578125
 40
0.76171875
 40
0.765625
 40
0.7734375
 40
0.78125
 40
0.7890625
 40
0.796875
 40
0.80078125
 40
0.8046875
 40
0.80859375
 40
0.810546875
 40
0.8115234375
 40
0.8125
 40
0.8134765625
 40
0.814453125
 40
0.81640625
 40
0.8203125
 40
0.82421875
 40
0.828125
 40
0.8359375
 40
0.84375
 40
0.8515625
 40
0.859375
 40
0.8671875
 40
0.87109375
 40
0.873046875
 40
0.875
 40
0.876953125
 40
0.87890625
 40
0.8828125
 40
0.890625
 40
0.8984375
 40
0.90625
 40
0.9140625
 40
0.921875
 40
0.9296875
 40
0.93359375
 40
0.935546875
 40
0.9375
 40
0.939453125
 40
0.94140625
 40
0.9453125
 40
0.953125
 40
0.9609375
 40
0.96875
 40
0.984375
 40
1.0
 40
1.0
 40
1.0
 40
1.0
 10
13.0424089708
 20
8.5721439286
 30
0.0
 10
13.0424912879
 20
8.5690902538
 30
0.0
 10
13.0426559253
 20
8.56298291
 30
0.0
 10
13.0428617054
 20
8.5553487018
 30
0.0
 10
13.0430263645
 20
8.549241395
 30
0.0
 10
13.0431291971
 20
8.5454241929
 30
0.0
 10
13.043211645
 20
8.5423707412
 30
0.0
 10
13.043272983
 20
8.5400798036
 30
0.0
 10
13.0433256818
 20
8.5381733891
 30
0.0
 10
13.0433594629
 20
8.5368336001
 30
0.0
 10
13.0433836194
 20
8.5360762801
 30
0.0
 10
13.0433880659
 20
8.5354849828
 30
0.0
 10
13.0434447693
 20
8.5349827779
 30
0.0
 10
13.043502146
 20
8.534282095
 30
0.0
 10
13.043611048
 20
8.5330703789
 30
0.0
 10
13.0437621822
 20
8.5313317861
 30
0.0
 10
13.0439454437
 20
8.529248715
 30
0.0
 10
13.0441891285
 20
8.5264701549
 30
0.0
 10
13.0444939624
 20
8.5229973435
 30
0.0
 10
13.0448596648
 20
8.5188298017
 30
0.0
 10
13.0452253958
 20
8.5146623105
 30
0.0
 10
13.0455301583
 20
8.5111893725
 30
0.0
 10
13.045773986
 20
8.5084110655
 30
0.0
 10
13.0459263407
 20
8.5066745297
 30
0.0
 10
13.0460483102
 20
8.5052855156
 30
0.0
 10
13.0461395527
 20
8.5042431676
 30
0.0
 10
13.0462163345
 20
8.5033764131
 30
0.0
 10
13.0462686171
 20
8.5027660173
 30
0.0
 10
13.0463007798
 20
8.5024229466
 30
0.0
 10
13.0463184595
 20
8.5021495108
 30
0.0
 10
13.0463607651
 20
8.5019377425
 30
0.0
 10
13.0464085828
 20
8.5016338745
 30
0.0
 10
13.0464962659
 20
8.5011121275
 30
0.0
 10
13.0466194351
 20
8.5003615351
 30
0.0
 10
13.0467681338
 20
8.4994630669
 30
0.0
 10
13.0469660859
 20
8.498264326
 30
0.0
 10
13.0472136331
 20
8.496766168
 30
0.0
 10
13.0476096488
 20
8.4943689654
 30
0.0
 10
13.0481046891
 20
8.4913725139
 30
0.0
 10
13.048698728
 20
8.4877767482
 30
0.0
 10
13.0492927715
 20
8.4841809952
 30
0.0
 10
13.0497878002
 20
8.4811845118
 30
0.0
 10
13.0501838391
 20
8.4787873731
 30
0.0
 10
13.0504313272
 20
8.4772890525
 30
0.0
 10
13.0506294008
 20
8.4760906454
 30
0.0
 10
13.0507777282
 20
8.4751911574
 30
0.0
 10
13.050902059
 20
8.4744437556
 30
0.0
 10
13.0509876685
 20
8.4739163128
 30
0.0
 10
13.0510388086
 20
8.473621571
 30
0.0
 10
13.051070909
 20
8.47338177
 30
0.0
 10
13.0511269179
 20
8.4732136204
 30
0.0
 10
13.0511932568
 20
8.4729644282
 30
0.0
 10
13.0513132355
 20
8.4725399863
 30
0.0
 10
13.0514826023
 20
8.4719275529
 30
0.0
 10
13.0516867119
 20
8.4711952386
 30
0.0
 10
13.0519585543
 20
8.4702179094
 30
0.0
 10
13.0522984614
 20
8.4689965596
 30
0.0
 10
13.0528422545
 20
8.4670422256
 30
0.0
 10
13.053522016
 20
8.4645993684
 30
0.0
 10
13.0543377208
 20
8.4616679117
 30
0.0
 10
13.0551534295
 20
8.4587364709
 30
0.0
 10
13.055833181
 20
8.4562935738
 30
0.0
 10
13.0563769941
 20
8.4543393197
 30
0.0
 10
13.0567168506
 20
8.4531177668
 30
0.0
 10
13.0569887967
 20
8.4521408543
 30
0.0
 10
13.0571925897
 20
8.4514072671
 30
0.0
 10
13.057362947
 20
8.4507988162
 30
0.0
 10
13.0574811575
 20
8.4503672649
 30
0.0
 10
13.0575503296
 20
8.4501294638
 30
0.0
 10
13.0575976358
 20
8.4499263244
 30
0.0
 10
13.057662422
 20
8.4498179391
 30
0.0
 10
13.0577427063
 20
8.4496403741
 30
0.0
 10
13.0578860447
 20
8.4493450344
 30
0.0
 10
13.0580893286
 20
8.4489150698
 30
0.0
 10
13.058333905
 20
8.4484025583
 30
0.0
 10
13.0586597849
 20
8.447718006
 30
0.0
 10
13.0590672107
 20
8.4468627277
 30
0.0
 10
13.0597190496
 20
8.4454940521
 30
0.0
 10
13.0605338628
 20
8.4437832872
 30
0.0
 10
13.061511632
 20
8.4417303328
 30
0.0
 10
13.0624894044
 20
8.4396773969
 30
0.0
 10
13.0633042099
 20
8.4379665859
 30
0.0
 10
13.0639560642
 20
8.4365980023
 30
0.0
 10
13.0643634507
 20
8.4357424902
 30
0.0
 10
13.0646894114
 20
8.4350584178
 30
0.0
 10
13.0649337408
 20
8.4345444402
 30
0.0
 10
13.0651377976
 20
8.4341190627
 30
0.0
 10
13.0652797562
 20
8.4338155342
 30
0.0
 10
13.0653622514
 20
8.4336510898
 30
0.0
 10
13.0654202464
 20
8.4335024021
 30
0.0
 10
13.0654930588
 20
8.4334506317
 30
0.0
 10
13.0655849736
 20
8.4333477987
 30
0.0
 10
13.0657482325
 20
8.4331835917
 30
0.0
 10
13.0659802005
 20
8.4329407755
 30
0.0
 10
13.066259101
 20
8.4326529209
 30
0.0
 10
13.0666307802
 20
8.4322678835
 30
0.0
 10
13.0670954435
 20
8.4317870084
 30
0.0
 10
13.0678388689
 20
8.4310173725
 30
0.0
 10
13.068768163
 20
8.4300554091
 30
0.0
 10
13.0698833104
 20
8.4289010156
 30
0.0
 10
13.0709984601
 20
8.4277466412
 30
0.0
 10
13.0719277482
 20
8.4267846302
 30
0.0
 10
13.0726711856
 20
8.4260150896
 30
0.0
 10
13.0731358184
 20
8.4255339722
 30
0.0
 10
13.0735075603
 20
8.4251494321
 30
0.0
 10
13.0737862691
 20
8.4248600584
 30
0.0
 10
13.0740188368
 20
8.4246219947
 30
0.0
 10
13.0741810253
 20
8.4244493038
 30
0.0
 10
13.074274655
 20
8.4243600641
 30
0.0
 10
13.0743421995
 20
8.4242665393
 30
0.0
 10
13.07441998
 20
8.4242746743
 30
0.0
 10
13.0745201169
 20
8.4242500609
 30
0.0
 10
13.07469702
 20
8.424223509
 30
0.0
 10
13.0749488689
 20
8.42417694
 30
0.0
 10
13.0752514599
 20
8.4241247545
 30
0.0
 10
13.0756547846
 20
8.4240538823
 30
0.0
 10
13.0761589849
 20
8.4239657344
 30
0.0
 10
13.0769656806
 20
8.4238244504
 30
0.0
 10
13.0779740587
 20
8.4236479309
 30
0.0
 10
13.0791841087
 20
8.4234360683
 30
0.0
 10
13.0803941603
 20
8.4232242255
 30
0.0
 10
13.0814025342
 20
8.4230476564
 30
0.0
 10
13.0822092384
 20
8.4229064716
 30
0.0
 10
13.0827134169
 20
8.4228180717
 30
0.0
 10
13.0831167865
 20
8.4227477167
 30
0.0
 10
13.0834192402
 20
8.4226939513
 30
0.0
 10
13.0836715186
 20
8.4226523251
 30
0.0
 10
13.0838476551
 20
8.4226169494
 30
0.0
 10
13.0839490202
 20
8.4226064739
 30
0.0
 10
13.0840230281
 20
8.4225711819
 30
0.0
 10
13.0841047417
 20
8.4226407619
 30
0.0
 10
13.0842110054
 20
8.4226969548
 30
0.0
 10
13.0843982191
 20
8.4228123358
 30
0.0
 10
13.0846650126
 20
8.4229682553
 30
0.0
 10
13.084985445
 20
8.4231591726
 30
0.0
 10
13.0854125904
 20
8.423412397
 30
0.0
 10
13.0859465556
 20
8.4237293835
 30
0.0
 10
13.0868008811
 20
8.424236307
 30
0.0
 10
13.0878687945
 20
8.4248700494
 30
0.0
 10
13.0891502879
 20
8.4256305002
 30
0.0
 10
13.0904317817
 20
8.4263909705
 30
0.0
 10
13.0914996938
 20
8.427024664
 30
0.0
 10
13.0923540219
 20
8.4275316853
 30
0.0
 10
13.0928879806
 20
8.4278484233
 30
0.0
 10
13.0933151393
 20
8.4281021578
 30
0.0
 10
13.0936355311
 20
8.4282915167
 30
0.0
 10
13.0939024517
 20
8.4284523124
 30
0.0
 10
13.0940894385
 20
8.4285589885
 30
0.0
 10
13.0941960658
 20
8.4286291288
 30
0.0
 10
13.0942766624
 20
8.4286558665
 30
0.0
 10
13.0943548655
 20
8.4287814832
 30
0.0
 10
13.0944599711
 20
8.428914482
 30
0.0
 10
13.0946435169
 20
8.4291632994
 30
0.0
 10
13.0949059286
 20
8.4295103516
 30
0.0
 10
13.0952207356
 20
8.4299304102
 30
0.0
 10
13.0956405087
 20
8.4304892324
 30
0.0
 10
13.0961652146
 20
8.4311881901
 30
0.0
 10
13.0970047499
 20
8.4323062821
 30
0.0
 10
13.0980541671
 20
8.4337039801
 30
0.0
 10
13.0993134686
 20
8.4353811799
 30
0.0
 10
13.1005727694
 20
8.4370583981
 30
0.0
 10
13.1016221883
 20
8.4384560502
 30
0.0
 10
13.10246172
 20
8.439574234
 30
0.0
 10
13.1029864352
 20
8.4402729583
 30
0.0
 10
13.1034061893
 20
8.4408322597
 30
0.0
 10
13.1037210542
 20
8.4412508543
 30
0.0
 10
13.1039832848
 20
8.441602487
 30
0.0
 10
13.1041671539
 20
8.4418431274
 30
0.0
 10
13.1042717415
 20
8.4419892279
 30
0.0
 10
13.1043515357
 20
8.4420746004
 30
0.0
 10
13.1044261563
 20
8.4422524884
 30
0.0
 10
13.104527455
 20
8.442457402
 30
0.0
 10
13.104703887
 20
8.4428310363
 30
0.0
 10
13.1049563722
 20
8.4433569388
 30
0.0
 10
13.1052591664
 20
8.4439913864
 30
0.0
 10
13.1056629576
 20
8.4448361413
 30
0.0
 10
13.1061676741
 20
8.4458924874
 30
0.0
 10
13.1069752332
 20
8.4475824162
 30
0.0
 10
13.1079846776
 20
8.4496949048
 30
0.0
 10
13.1091960131
 20
8.4522298559
 30
0.0
 10
13.1104073471
 20
8.4547648238
 30
0.0
 10
13.1114167952
 20
8.4568772705
 30
0.0
 10
13.1122243469
 20
8.4585672831
 30
0.0
 10
13.1127290821
 20
8.4596234162
 30
0.0
 10
13.113132835
 20
8.4604686084
 30
0.0
 10
13.1134357463
 20
8.4611017203
 30
0.0
 10
13.1136878648
 20
8.4616318018
 30
0.0
 10
13.1138649515
 20
8.4619979758
 30
0.0
 10
13.1139652013
 20
8.4622148426
 30
0.0
 10
13.1140430439
 20
8.4623560143
 30
0.0
 10
13.1141107365
 20
8.4625792872
 30
0.0
 10
13.1142045337
 20
8.4628483466
 30
0.0
 10
13.1143670293
 20
8.4633325435
 30
0.0
 10
13.1146000283
 20
8.4640172775
 30
0.0
 10
13.1148792579
 20
8.4648419441
 30
0.0
 10
13.115251693
 20
8.4659404567
 30
0.0
 10
13.1157171928
 20
8.4673139546
 30
0.0
 10
13.1164620171
 20
8.4695113516
 30
0.0
 10
13.1173930388
 20
8.4722581667
 30
0.0
 10
13.118510269
 20
8.4755543135
 30
0.0
 10
13.1196274969
 20
8.4788504756
 30
0.0
 10
13.1205585242
 20
8.4815972526
 30
0.0
 10
13.1213033374
 20
8.4837947258
 30
0.0
 10
13.1217688654
 20
8.48516803
 30
0.0
 10
13.1221412425
 20
8.4862669401
 30
0.0
 10
13.1224206493
 20
8.4870903924
 30
0.0
 10
13.1226530939
 20
8.4877789259
 30
0.0
 10
13.1228165791
 20
8.4882563399
 30
0.0
 10
13.1229087908
 20
8.4885362671
 30
0.0
 10
13.1229813534
 20
8.4887261576
 30
0.0
 10
13.1230409051
 20
8.4889927082
 30
0.0
 10
13.1231248457
 20
8.4893213692
 30
0.0
 10
13.1232696272
 20
8.4899089844
 30
0.0
 10
13.1234775634
 20
8.4907419213
 30
0.0
 10
13.1237266136
 20
8.4917442335
 30
0.0
 10
13.1240588459
 20
8.493079676
 30
0.0
 10
13.1244740796
 20
8.4947493125
 30
0.0
 10
13.1251384854
 20
8.4974205443
 30
0.0
 10
13.1259689806
 20
8.5007596507
 30
0.0
 10
13.1269655851
 20
8.5047665386
 30
0.0
 10
13.1279621675
 20
8.508773479
 30
0.0
 10
13.1287927181
 20
8.5121124539
 30
0.0
 10
13.1294570129
 20
8.5147839487
 30
0.0
 10
13.1299556317
 20
8.5167867106
 30
0.0
 10
13.1303698826
 20
8.5184584115
 30
0.0
 10
13.1306623402
 20
8.5196232395
 30
0.0
 10
13.1308255835
 20
8.5202972287
 30
0.0
 10
13.1309589329
 20
8.5207791331
 30
0.0
 10
13.1310505521
 20
8.5213512013
 30
0.0
 10
13.1311872671
 20
8.5220825088
 30
0.0
 10
13.1314197363
 20
8.5233769501
 30
0.0
 10
13.1317553809
 20
8.525218491
 30
0.0
 10
13.1321566366
 20
8.5274316193
 30
0.0
 10
13.1326921747
 20
8.5303813114
 30
0.0
 10
13.133361414
 20
8.5340688215
 30
0.0
 10
13.1341645852
 20
8.5384936558
 30
0.0
 10
13.1349677133
 20
8.5429185694
 30
0.0
 10
13.1356370605
 20
8.5466058814
 30
0.0
 10
13.1361723828
 20
8.5495559697
 30
0.0
 10
13.1365742965
 20
8.5517678893
 30
0.0
 10
13.1369078829
 20
8.5536132117
 30
0.0
 10
13.1371440262
 20
8.5549009025
 30
0.0
 10
13.1372748543
 20
8.5556430259
 30
0.0
 10
13.1373845561
 20
8.5561818712
 30
0.0
 10
13.1374499902
 20
8.5567885554
 30
0.0
 10
13.1375526768
 20
8.5575738046
 30
0.0
 10
13.1377251839
 20
8.5589590158
 30
0.0
 10
13.1379753841
 20
8.560932125
 30
0.0
 10
13.1382740138
 20
8.5633023234
 30
0.0
 10
13.1386727514
 20
8.5664617248
 30
0.0
 10
13.1391709651
 20
8.5704112813
 30
0.0
 10
13.1397689748
 20
8.5751505809
 30
0.0
 10
13.1403667045
 20
8.579890066
 30
0.0
 10
13.1409654006
 20
8.5846289776
 30
0.0
 10
13.1414613263
 20
8.5885798274
 30
0.0
 10
13.1418143257
 20
8.5913419838
 30
0.0
 10
13.142006905
 20
8.5929257263
 30
0.0
 10
13.1421770716
 20
8.5940984135
 30
0.0
 10
13.1422488767
 20
8.5953288958
 30
0.0
 10
13.1423789266
 20
8.5969493792
 30
0.0
 10
13.1425905276
 20
8.5997946181
 30
0.0
 10
13.142901178
 20
8.6038543331
 30
0.0
 10
13.1432703548
 20
8.6087280994
 30
0.0
 10
13.1436405651
 20
8.6136012916
 30
0.0
 10
13.144010245
 20
8.618474672
 30
0.0
 10
13.1443810133
 20
8.6233478736
 30
0.0
 10
13.1446868007
 20
8.6274093143
 30
0.0
 10
13.1449070667
 20
8.6302514782
 30
0.0
 10
13.145023235
 20
8.6318768878
 30
0.0
 10
13.1451376794
 20
8.6330922386
 30
0.0
 10
13.1451476999
 20
8.6343217572
 30
0.0
 10
13.1451974848
 20
8.6359561735
 30
0.0
 10
13.1452676377
 20
8.6388187045
 30
0.0
 10
13.1453767286
 20
8.6429068307
 30
0.0
 10
13.1455038398
 20
8.6478130974
 30
0.0
 10
13.1456746485
 20
8.6543546063
 30
0.0
 10
13.1458877011
 20
8.6625315546
 30
0.0
 10
13.1460582828
 20
8.6690730943
 30
0.0
 10
13.1461435562
 20
8.6723438665
 30
0.0
  0
ENDSEC
  0
SECTION
  2
OBJECTS
  0
DICTIONARY
  5
C
100
AcDbDictionary
280
0
281
1
  3
ACAD_GROUP
350
D
  3
ACAD_MLINESTYLE
350
17
  3
ACAD_LAYOUT
350
1A
  3
ACAD_PLOTSETTINGS
350
19
  3
ACAD_PLOTSTYLENAME
350
E
  3
ACAD_IMAGE_DICT
350
       3D6
  3
ACAD_IMAGE_VARS
350
       3D7
  3
ACAD_TABLESTYLE
350
       3D8
  0
IMAGEDEF_REACTOR
  5
3D5
100
AcDbRasterImageDefReactor
 90
2
330
27C
  0
DICTIONARY
  5
D
102
{ACAD_REACTORS
330
C
102
}
100
AcDbDictionary
280
0
281
1
  0
ACDBDICTIONARYWDFLT
  5
E
102
{ACAD_REACTORS
330
C
102
}
100
AcDbDictionary
281
1
  3
Normal
350
F
100
AcDbDictionaryWithDefault
340
F
  0
DICTIONARY
  5
3D6
330
C
100
AcDbDictionary
281
1
  3
U9G_assy_2_img_1
350
       3DB
  0
RASTERVARIABLES
  5
3D7
330
C
100
AcDbRasterVariables
 90
0
 70
0
 71
1
 72
5
  0
DICTIONARY
  5
17
102
{ACAD_REACTORS
330
C
102
}
100
AcDbDictionary
280
0
281
1
  3
Standard
350
18
  0
DICTIONARY
  5
3D8
330
C
100
AcDbDictionary
281
1
  3
Standard
350
       3DC
  3
Standard1
350
       3DD
  0
DICTIONARY
  5
19
102
{ACAD_REACTORS
330
C
102
}
100
AcDbDictionary
281
1
  0
DICTIONARY
  5
1A
102
{ACAD_REACTORS
330
C
102
}
100
AcDbDictionary
281
1
  3
Model
350
3D9
  3
Layout1
350
3DA
  0
ACDBPLACEHOLDER
  5
F
102
{ACAD_REACTORS
330
E
102
}
  0
MLINESTYLE
  5
18
102
{ACAD_REACTORS
330
17
102
}
100
AcDbMlineStyle
  2
STANDARD
 70
0
  3

 62
256
 51
90.0
 52
90.0
 71
2
 49
0.5
 62
256
  6
BYLAYER
 49
-0.5
 62
256
  6
BYLAYER
  0
LAYOUT
  5
3D9
102
{ACAD_REACTORS
330
1A
102
}
100
AcDbPlotSettings
  1

  2
none_device
  4
ANSI_C_(22.00_x_17.00_Inches)
  6

 40
0.0
 41
0.0
 42
0.0
 43
0.0
 44
558.8
 45
431.8
 46
0.0
 47
0.0
 48
0.0
 49
0.0
140
0.0
141
0.0
142
1.0
143
1.0
 70
1024
 72
0
 73
0
 74
0
  7

 75
0
147
1.0
148
0.0
149
0.0
100
AcDbLayout
  1
Model
 70
0
 71
0
 10
0.0
 20
0.0
 11
22.0
 21
17.0
 12
0.0
 22
0.0
 32
0.0
 14
0.0
 24
0.0
 34
0.0
 15
0.0
 25
0.0
 35
0.0
146
0.0
 13
0.0
 23
0.0
 33
0.0
 16
1.0
 26
0.0
 36
0.0
 17
0.0
 27
1.0
 37
0.0
 76
0
330
207
345
0
346
0
  0
LAYOUT
  5
3DA
102
{ACAD_REACTORS
330
1A
102
}
100
AcDbPlotSettings
  1

  2
none_device
  4
ANSI_C_(22.00_x_17.00_Inches)
  6

 40
0.0
 41
0.0
 42
0.0
 43
0.0
 44
558.8
 45
431.8
 46
0.0
 47
0.0
 48
0.0
 49
0.0
140
0.0
141
0.0
142
1.0
143
1.0
 70
0
 72
0
 73
0
 74
0
  7

 75
0
147
1.0
148
0.0
149
0.0
100
AcDbLayout
  1
Layout1
 70
0
 71
1
 10
0.0
 20
0.0
 11
22.0
 21
17.0
 12
0.0
 22
0.0
 32
0.0
 14
0.0
 24
0.0
 34
0.0
 15
0.0
 25
0.0
 35
0.0
146
0.0
 13
0.0
 23
0.0
 33
0.0
 16
1.0
 26
0.0
 36
0.0
 17
0.0
 27
1.0
 37
0.0
 76
0
330
208
345
0
346
0
  0
IMAGEDEF
  5
3DB
102
{ACAD_REACTORS
330
3D6
330
3D5
102
}
100
AcDbRasterImageDef
 90
0
  1
U9G_assy_2_img_1.png
 10
369.0
 20
92.0
 11
0.0066666667
 21
0.0066666667
280
1
281
0
  0
TABLESTYLE
  5
3DC
102
{ACAD_REACTORS
330
3D8
330
27F
330
280
102
}
330
3D8
100
AcDbTableStyle
  3
Standard
 70
0
 71
0
 40
0.06
 41
0.06
280
1
281
1
  7
Standard
140
0.18
170
1
 62
0
 63
7
283
0
  7
Standard
140
0.18
170
1
 62
0
 63
7
283
0
  7
Standard
140
0.18
170
1
 62
0
 63
7
283
0
  0
TABLESTYLE
  5
3DD
102
{ACAD_REACTORS
330
3D8
330
27E
102
}
330
3D8
100
AcDbTableStyle
  3
Standard1
 70
1
 71
0
 40
0.06
 41
0.06
280
1
281
1
  7
Standard
140
0.18
170
1
 62
0
 63
7
283
0
  7
Standard
140
0.18
170
1
 62
0
 63
7
283
0
  7
Standard
140
0.18
170
1
 62
0
 63
7
283
0
  0
ENDSEC
  0
EOF
