999
DXF file: U9F_assy_2.dxf
999
Pro/ENGINEER 2014200 by Parametric Technology Corporation
  0
SECTION
  2
HEADER
  9
$ACADVER
  1
AC1021
  9
$DWGCODEPAGE
  3
ANSI_1252
  9
$EXTMAX
 10
22.0
 20
17.0
 30
0.0
  9
$EXTMIN
 10
0.0
 20
0.0
 30
0.0
  9
$LIMMIN
 10
0.0
 20
0.0
  9
$LIMMAX
 10
22.0
 20
17.0
  9
$VIEWCTR
 10
11.0
 20
8.5
  9
$VIEWSIZE
 40
17.0
  9
$CLAYER
  8
0
  9
$LTSCALE
 40
1.21
  9
$CELTYPE
  6
BYLAYER
  9
$DIMSCALE
 40
1.0
  9
$DIMASZ
 40
0.1875
  9
$DIMEXO
 40
0.0625
  9
$DIMDLI
 40
0.836
  9
$DIMEXE
 40
0.125
  9
$DIMCEN
 40
0.198
  9
$DIMLFAC
 40
1.0
  9
$DIMBLK
  1
_FILLED
  9
$DIMTXT
 40
0.1
  9
$DIMTOL
 70
0
  9
$DIMLIM
 70
0
  9
$DIMTFAC
 40
1.0
  9
$DIMGAP
 40
0.09
  9
$DIMDSEP
 70
46
  9
$AUNITS
 70
0
  9
$PDMODE
 70
3
  9
$PDSIZE
 40
0.3125
  9
$HANDSEED
  5
3E7
  9
$TILEMODE
 70
1
  9
$MEASUREMENT
 70
0
  9
$INSUNITS
 70
1
  0
ENDSEC
  0
SECTION
  2
CLASSES
  0
CLASS
  1
ACDBDICTIONARYWDFLT
  2
AcDbDictionaryWithDefault
  3
AutoCAD 2000
 90
0
 91
1
280
0
281
0
  0
CLASS
  1
ACDBPLACEHOLDER
  2
AcDbPlaceHolder
  3
AutoCAD 2000
 90
0
 91
1
280
0
281
0
  0
CLASS
  1
LAYOUT
  2
AcDbLayout
  3
AutoCAD 2000
 90
0
 91
0
280
0
281
0
  0
CLASS
  1
RASTERVARIABLES
  2
AcDbRasterVariables
  3
ISM
 90
0
 91
1
280
0
281
0
  0
CLASS
  1
IMAGEDEF
  2
AcDbRasterImageDef
  3
ISM
 90
0
 91
1
280
0
281
0
  0
CLASS
  1
IMAGEDEF_REACTOR
  2
AcDbRasterImageDefReactor
  3
ISM
 90
0
 91
1
280
0
281
0
  0
CLASS
  1
IMAGE
  2
AcDbRasterImage
  3
ISM
 90
127
 91
1
280
0
281
1
  0
CLASS
  1
TABLESTYLE
  2
AcDbTableStyle
  3
ObjectDBX Classes
 90
2047
 91
1
280
0
281
0
  0
CLASS
  1
ACAD_TABLE
  2
AcDbTable
  3
ObjectDBX Classes
 90
1025
 91
3
280
0
281
1
  0
ENDSEC
  0
SECTION
  2
TABLES
  0
TABLE
  2
VPORT
  5
8
100
AcDbSymbolTable
 70
2
  0
VPORT
  5
1F4
100
AcDbSymbolTableRecord
100
AcDbViewportTableRecord
  2
*ACTIVE
 70
0
 10
0.0
 20
0.0
 11
1.0
 21
1.0
 12
11.0
 22
8.5
 13
0.0
 23
0.0
 14
1.0
 24
1.0
 15
0.0
 25
0.0
 16
0.0
 26
0.0
 36
1.0
 17
0.0
 27
0.0
 37
0.0
 40
17.0
 41
1.2941176471
 42
50.0
 43
0.0
 44
0.0
 50
0.0
 51
0.0
 71
0
 72
100
 73
1
 74
1
 75
0
 76
0
 77
0
 78
0
  0
ENDTAB
  0
TABLE
  2
LTYPE
  5
5
100
AcDbSymbolTable
 70
6
  0
LTYPE
  5
14
100
AcDbSymbolTableRecord
100
AcDbLinetypeTableRecord
  2
BYBLOCK
 70
0
  3

 72
65
 73
0
 40
0.0
  0
LTYPE
  5
15
100
AcDbSymbolTableRecord
100
AcDbLinetypeTableRecord
  2
BYLAYER
 70
0
  3

 72
65
 73
0
 40
0.0
  0
LTYPE
  5
16
100
AcDbSymbolTableRecord
100
AcDbLinetypeTableRecord
  2
CONTINUOUS
 70
64
  3
Solid line
 72
65
 73
0
 40
0.0
  0
LTYPE
  5
1F5
100
AcDbSymbolTableRecord
100
AcDbLinetypeTableRecord
  2
CENTER
 70
64
  3
____ _ ____ _ ____ _ ____ _ ____ _ ____ _ ____
 72
65
 73
4
 40
0.6
 49
0.375
 74
0
 49
-0.075
 74
0
 49
0.075
 74
0
 49
-0.075
 74
0
  0
LTYPE
  5
1F6
100
AcDbSymbolTableRecord
100
AcDbLinetypeTableRecord
  2
HIDDEN
 70
64
  3
- - - - - - - - - - - - - - - - - - - -
 72
65
 73
2
 40
0.2
 49
0.1
 74
0
 49
-0.1
 74
0
  0
LTYPE
  5
1F7
100
AcDbSymbolTableRecord
100
AcDbLinetypeTableRecord
  2
PHANTOM
 70
64
  3
_____ _ _ _____ _ _ _____ _ _ _____
 72
65
 73
6
 40
0.8
 49
0.45
 74
0
 49
-0.05
 74
0
 49
0.1
 74
0
 49
-0.05
 74
0
 49
0.1
 74
0
 49
-0.05
 74
0
  0
LTYPE
  5
1F8
100
AcDbSymbolTableRecord
100
AcDbLinetypeTableRecord
  2
DOT
 70
64
  3
. . . . . . . . . . . . . . . . . . . .
 72
65
 73
2
 40
0.2
 49
0.1
 74
0
 49
-0.1
 74
0
  0
LTYPE
  5
1F9
100
AcDbSymbolTableRecord
100
AcDbLinetypeTableRecord
  2
DASHED
 70
64
  3
- - - - - - - - - - - - - - - - - - - -
 72
65
 73
2
 40
0.2
 49
0.1
 74
0
 49
-0.1
 74
0
  0
ENDTAB
  0
TABLE
  2
LAYER
  5
2
100
AcDbSymbolTable
 70
36
  0
LAYER
  5
10
100
AcDbSymbolTableRecord
100
AcDbLayerTableRecord
  2
0
 70
0
 62
7
  6
CONTINUOUS
370
-3
390
F
  0
LAYER
  5
1FA
100
AcDbSymbolTableRecord
100
AcDbLayerTableRecord
  2
DEFAULT_1
 70
0
 62
7
  6
CENTER
370
-3
390
F
  0
LAYER
  5
1FB
100
AcDbSymbolTableRecord
100
AcDbLayerTableRecord
  2
DEFAULT_2
 70
0
 62
8
  6
HIDDEN
370
-3
390
F
  0
LAYER
  5
1FC
100
AcDbSymbolTableRecord
100
AcDbLayerTableRecord
  2
DEFAULT_3
 70
0
 62
7
  6
PHANTOM
370
-3
390
F
  0
LAYER
  5
1FD
100
AcDbSymbolTableRecord
100
AcDbLayerTableRecord
  2
01___PRT_ALL_DTM_PLN
 70
0
 62
7
  6
CONTINUOUS
370
-3
390
F
  0
LAYER
  5
1FE
100
AcDbSymbolTableRecord
100
AcDbLayerTableRecord
  2
01___PRT_DEF_DTM_PLN
 70
0
 62
7
  6
CONTINUOUS
370
-3
390
F
  0
LAYER
  5
1FF
100
AcDbSymbolTableRecord
100
AcDbLayerTableRecord
  2
02___PRT_ALL_AXES
 70
0
 62
7
  6
CONTINUOUS
370
-3
390
F
  0
LAYER
  5
200
100
AcDbSymbolTableRecord
100
AcDbLayerTableRecord
  2
03___PRT_ALL_CURVES
 70
0
 62
7
  6
CONTINUOUS
370
-3
390
F
  0
LAYER
  5
201
100
AcDbSymbolTableRecord
100
AcDbLayerTableRecord
  2
04___PRT_ALL_DTM_PNT
 70
0
 62
7
  6
CONTINUOUS
370
-3
390
F
  0
LAYER
  5
202
100
AcDbSymbolTableRecord
100
AcDbLayerTableRecord
  2
05___PRT_ALL_DTM_CSYS
 70
0
 62
7
  6
CONTINUOUS
370
-3
390
F
  0
LAYER
  5
203
100
AcDbSymbolTableRecord
100
AcDbLayerTableRecord
  2
05___PRT_DEF_DTM_CSYS
 70
0
 62
7
  6
CONTINUOUS
370
-3
390
F
  0
LAYER
  5
204
100
AcDbSymbolTableRecord
100
AcDbLayerTableRecord
  2
06___PRT_ALL_SURFS
 70
0
 62
7
  6
CONTINUOUS
370
-3
390
F
  0
LAYER
  5
205
100
AcDbSymbolTableRecord
100
AcDbLayerTableRecord
  2
DATUM_PLANES
 70
0
 62
7
  6
CONTINUOUS
370
-3
390
F
  0
LAYER
  5
206
100
AcDbSymbolTableRecord
100
AcDbLayerTableRecord
  2
PORT_AREAS
 70
0
 62
7
  6
CONTINUOUS
370
-3
390
F
  0
LAYER
  5
207
100
AcDbSymbolTableRecord
100
AcDbLayerTableRecord
  2
SUNNBOMCOSMETIC
 70
0
 62
7
  6
CONTINUOUS
370
-3
390
F
  0
LAYER
  5
208
100
AcDbSymbolTableRecord
100
AcDbLayerTableRecord
  2
SUNNBOMSTAMPING
 70
0
 62
7
  6
CONTINUOUS
370
-3
390
F
  0
LAYER
  5
209
100
AcDbSymbolTableRecord
100
AcDbLayerTableRecord
  2
THREADS
 70
0
 62
7
  6
CONTINUOUS
370
-3
390
F
  0
ENDTAB
  0
TABLE
  2
STYLE
  5
3
100
AcDbSymbolTable
 70
1
  0
STYLE
  5
11
100
AcDbSymbolTableRecord
100
AcDbTextStyleTableRecord
  2
STANDARD
 70
0
 40
0.0
 41
0.8
 50
0.0
 71
0
 42
0.2
  3
txt
  4

  0
STYLE
  5
20A
100
AcDbSymbolTableRecord
100
AcDbTextStyleTableRecord
  2
TEXTSTYLE_1
 70
0
 40
0.0
 41
0.8
 50
0.0
 71
0
 42
0.2
  3
gdt
  4

  0
ENDTAB
  0
TABLE
  2
VIEW
  5
6
100
AcDbSymbolTable
 70
0
  0
ENDTAB
  0
TABLE
  2
UCS
  5
7
100
AcDbSymbolTable
 70
0
  0
ENDTAB
  0
TABLE
  2
APPID
  5
9
100
AcDbSymbolTable
 70
1
  0
APPID
  5
20B
100
AcDbSymbolTableRecord
100
AcDbRegAppTableRecord
  2
ACAD
 70
0
  0
ENDTAB
  0
TABLE
  2
BLOCK_RECORD
  5
1
100
AcDbSymbolTable
 70
0
  0
BLOCK_RECORD
  5
20C
100
AcDbSymbolTableRecord
100
AcDbBlockTableRecord
  2
*Model_Space
  0
BLOCK_RECORD
  5
20D
100
AcDbSymbolTableRecord
100
AcDbBlockTableRecord
  2
*Paper_Space
  0
BLOCK_RECORD
  5
20E
100
AcDbSymbolTableRecord
100
AcDbBlockTableRecord
  2
SUN_FIRST_THIRD_ANGLE_BL0
  0
BLOCK_RECORD
  5
20F
100
AcDbSymbolTableRecord
100
AcDbBlockTableRecord
  2
*T1
  0
BLOCK_RECORD
  5
210
100
AcDbSymbolTableRecord
100
AcDbBlockTableRecord
  2
*T2
  0
BLOCK_RECORD
  5
211
100
AcDbSymbolTableRecord
100
AcDbBlockTableRecord
  2
*T3
  0
ENDTAB
  0
TABLE
  2
DIMSTYLE
  5
A
100
AcDbSymbolTable
 70
1
100
AcDbDimStyleTable
 71
0
  0
DIMSTYLE
105
212
100
AcDbSymbolTableRecord
100
AcDbDimStyleTableRecord
  2
STANDARD
 70
0
  3

  4

 40
1.0
 41
0.1875
 42
0.0625
 43
0.38
 44
0.125
 45
0.0
 46
0.0
 47
0.001
 48
0.001
140
0.1
141
0.09
142
0.0
143
25.4
144
1.0
145
0.0
146
1.0
147
0.09
 71
0.0
 72
0.0
 73
1
 74
1
 75
0
 76
0
 77
0
 78
4
170
0
171
2
172
0
173
0
174
0
175
0
176
0
177
0
178
0
270
2
271
3
272
3
273
2
274
2
275
0
280
0
281
0
282
0
283
1
284
4
285
0
286
0
287
3
288
0
340
11
278
46
  0
ENDTAB
  0
ENDSEC
  0
SECTION
  2
BLOCKS
  0
BLOCK
  5
20
100
AcDbEntity
  8
0
100
AcDbBlockBegin
  2
*Model_Space
 70
0
 10
0.0
 20
0.0
 30
0.0
  3
*Model_Space
  1

  0
ENDBLK
  5
21
100
AcDbEntity
  8
0
100
AcDbBlockEnd
  0
BLOCK
  5
1C
100
AcDbEntity
  8
0
100
AcDbBlockBegin
  2
*Paper_Space
 70
0
 10
0.0
 20
0.0
 30
0.0
  3
*Paper_Space
  1

  0
ENDBLK
  5
1D
100
AcDbEntity
  8
0
100
AcDbBlockEnd
  0
BLOCK
  5
213
100
AcDbEntity
  8
0
100
AcDbBlockBegin
 62
2
  6
CONTINUOUS
  2
SUN_FIRST_THIRD_ANGLE_BL0
 70
64
 10
20.4816717061
 20
1.2289683772
  3
SUN_FIRST_THIRD_ANGLE_BL0
  1

  0
TEXT
  5
214
100
AcDbEntity
  8
0
100
AcDbText
 62
2
  6
CONTINUOUS
 10
19.4750896608
 20
1.4136269581
  7
STANDARD
 40
0.08
  1
FIRST ANGLE
 41
0.8
 72
0
100
AcDbText
  0
TEXT
  5
215
100
AcDbEntity
  8
0
100
AcDbText
 62
2
  6
CONTINUOUS
 10
20.7842537513
 20
1.4047600029
  7
STANDARD
 40
0.08
  1
THIRD ANGLE
 41
0.8
 72
0
100
AcDbText
  0
LINE
  5
216
100
AcDbEntity
  8
0
100
AcDbLine
 62
7
  6
CONTINUOUS
 10
19.4767170086
 20
1.1727031207
 11
19.6334271527
 21
1.1717972817
  0
LINE
  5
217
100
AcDbEntity
  8
0
100
AcDbLine
 62
7
  6
CONTINUOUS
 10
19.6596964832
 20
1.1717972817
 11
19.6950230232
 21
1.171593082
  0
LINE
  5
218
100
AcDbEntity
  8
0
100
AcDbLine
 62
7
  6
CONTINUOUS
 10
19.7194818561
 20
1.1708914427
 11
19.8852396156
 21
1.1699333054
  0
LINE
  5
219
100
AcDbEntity
  8
0
100
AcDbLine
 62
7
  6
CONTINUOUS
 10
19.4758111696
 20
1.2723454088
 11
19.88525039
 21
1.3511534004
  0
LINE
  5
21A
100
AcDbEntity
  8
0
100
AcDbLine
 62
7
  6
CONTINUOUS
 10
19.88525039
 20
1.3511534004
 11
19.8831348489
 21
0.9851647912
  0
LINE
  5
21B
100
AcDbEntity
  8
0
100
AcDbLine
 62
7
  6
CONTINUOUS
 10
19.8831348489
 20
0.9851647912
 11
19.4767170086
 21
1.0658141206
  0
LINE
  5
21C
100
AcDbEntity
  8
0
100
AcDbLine
 62
7
  6
CONTINUOUS
 10
19.4767170086
 20
1.0658141206
 11
19.4779056764
 21
1.2714536432
  0
CIRCLE
  5
21D
100
AcDbEntity
  8
0
100
AcDbCircle
 62
7
  6
CONTINUOUS
 10
20.2068232291
 20
1.1717972817
 40
0.175742101
  0
CIRCLE
  5
21E
100
AcDbEntity
  8
0
100
AcDbCircle
 62
7
  6
CONTINUOUS
 10
20.2068232291
 20
1.1717972817
 40
0.1005522074
  0
LINE
  5
21F
100
AcDbEntity
  8
0
100
AcDbLine
 62
7
  6
CONTINUOUS
 10
20.2077290681
 20
1.3756110529
 11
20.2071171714
 21
1.2379342989
  0
LINE
  5
220
100
AcDbEntity
  8
0
100
AcDbLine
 62
7
  6
CONTINUOUS
 10
20.2077290681
 20
1.2016899681
 11
20.2074674401
 21
1.1428236749
  0
LINE
  5
221
100
AcDbEntity
  8
0
100
AcDbLine
 62
7
  6
CONTINUOUS
 10
20.208634907
 20
1.101141841
 11
20.2080230104
 21
0.963465087
  0
LINE
  5
222
100
AcDbEntity
  8
0
100
AcDbLine
 62
7
  6
CONTINUOUS
 10
20.0066328138
 20
1.1745147986
 11
20.1443095678
 21
1.1739029019
  0
LINE
  5
223
100
AcDbEntity
  8
0
100
AcDbLine
 62
7
  6
CONTINUOUS
 10
20.1832714155
 20
1.1727031207
 11
20.238153505
 21
1.172335442
  0
LINE
  5
224
100
AcDbEntity
  8
0
100
AcDbLine
 62
7
  6
CONTINUOUS
 10
20.2756669918
 20
1.1717972817
 11
20.407916871
 21
1.1712095044
  0
CIRCLE
  5
225
100
AcDbEntity
  8
0
100
AcDbCircle
 62
7
  6
CONTINUOUS
 10
20.7509457401
 20
1.1693297793
 40
0.1722024983
  0
CIRCLE
  5
226
100
AcDbEntity
  8
0
100
AcDbCircle
 62
7
  6
CONTINUOUS
 10
20.7509457401
 20
1.1693297793
 40
0.0985164967
  0
LINE
  5
227
100
AcDbEntity
  8
0
100
AcDbLine
 62
7
  6
CONTINUOUS
 10
20.7169767782
 20
1.170462078
 11
20.7825395137
 21
1.1682766535
  0
LINE
  5
228
100
AcDbEntity
  8
0
100
AcDbLine
 62
7
  6
CONTINUOUS
 10
20.8177513651
 20
1.1693297793
 11
20.947965719
 21
1.1693297793
  0
LINE
  5
229
100
AcDbEntity
  8
0
100
AcDbLine
 62
7
  6
CONTINUOUS
 10
20.6875370113
 20
1.170462078
 11
20.5573226574
 21
1.170462078
  0
LINE
  5
22A
100
AcDbEntity
  8
0
100
AcDbLine
 62
7
  6
CONTINUOUS
 10
20.7486811426
 20
1.1987695462
 11
20.7486811426
 21
1.1432869085
  0
LINE
  5
22B
100
AcDbEntity
  8
0
100
AcDbLine
 62
7
  6
CONTINUOUS
 10
20.7498134414
 20
1.1059210505
 11
20.7498134414
 21
0.9757066966
  0
LINE
  5
22C
100
AcDbEntity
  8
0
100
AcDbLine
 62
7
  6
CONTINUOUS
 10
20.7486811426
 20
1.2338708068
 11
20.7486811426
 21
1.3640851607
  0
LINE
  5
22D
100
AcDbEntity
  8
0
100
AcDbLine
 62
7
  6
CONTINUOUS
 10
21.0702539817
 20
1.2701043662
 11
21.4790138229
 21
1.3448360823
  0
LINE
  5
22E
100
AcDbEntity
  8
0
100
AcDbLine
 62
7
  6
CONTINUOUS
 10
21.4790138229
 20
1.3448360823
 11
21.4790138229
 21
0.9779712941
  0
LINE
  5
22F
100
AcDbEntity
  8
0
100
AcDbLine
 62
7
  6
CONTINUOUS
 10
21.4790138229
 20
0.9779712941
 11
21.069121683
 21
1.0617614
  0
LINE
  5
230
100
AcDbEntity
  8
0
100
AcDbLine
 62
7
  6
CONTINUOUS
 10
21.0702539817
 20
1.2701043662
 11
21.069121683
 21
1.0617614
  0
LINE
  5
231
100
AcDbEntity
  8
0
100
AcDbLine
 62
7
  6
CONTINUOUS
 10
21.4790138229
 20
1.1693297793
 11
21.3159628059
 21
1.1693297793
  0
LINE
  5
232
100
AcDbEntity
  8
0
100
AcDbLine
 62
7
  6
CONTINUOUS
 10
21.2876553377
 20
1.1693297793
 11
21.2502894796
 21
1.1693297793
  0
LINE
  5
233
100
AcDbEntity
  8
0
100
AcDbLine
 62
7
  6
CONTINUOUS
 10
21.2208497126
 20
1.1659328831
 11
21.0713862804
 21
1.1659328831
  0
LINE
  5
234
100
AcDbEntity
  8
0
100
AcDbLine
 62
7
  6
CONTINUOUS
 10
20.4796138713
 20
1.5284908897
 11
20.4766766948
 21
0.9294458646
  0
ENDBLK
  5
235
100
AcDbEntity
  8
0
  6
BYBLOCK
 62
0
100
AcDbBlockEnd
  0
BLOCK
  5
236
100
AcDbEntity
  8
0
100
AcDbBlockBegin
  2
*T1
 70
1
 10
0.0
 20
0.0
  3
*T1
  1

  0
LINE
  5
237
100
AcDbEntity
  8
0
100
AcDbLine
 62
2
  6
CONTINUOUS
 10
9.275
 20
0.0
 11
-0.0
 21
0.0
  0
LINE
  5
238
100
AcDbEntity
  8
0
100
AcDbLine
 62
2
  6
CONTINUOUS
 10
9.275
 20
0.0
 11
9.275
 21
1.25
  0
LINE
  5
239
100
AcDbEntity
  8
0
100
AcDbLine
 62
2
  6
CONTINUOUS
 10
9.275
 20
0.625
 11
-0.0
 21
0.625
  0
LINE
  5
23A
100
AcDbEntity
  8
0
100
AcDbLine
 62
2
  6
CONTINUOUS
 10
9.275
 20
1.25
 11
-0.0
 21
1.25
  0
LINE
  5
23B
100
AcDbEntity
  8
0
100
AcDbLine
 62
2
  6
CONTINUOUS
 10
6.8
 20
0.0
 11
6.8
 21
1.25
  0
LINE
  5
23C
100
AcDbEntity
  8
0
100
AcDbLine
 62
2
  6
CONTINUOUS
 10
6.4
 20
0.0
 11
6.4
 21
0.625
  0
LINE
  5
23D
100
AcDbEntity
  8
0
100
AcDbLine
 62
2
  6
CONTINUOUS
 10
5.9
 20
0.0
 11
5.9
 21
0.625
  0
LINE
  5
23E
100
AcDbEntity
  8
0
100
AcDbLine
 62
2
  6
CONTINUOUS
 10
5.2
 20
0.0
 11
5.2
 21
0.625
  0
LINE
  5
23F
100
AcDbEntity
  8
0
100
AcDbLine
 62
2
  6
CONTINUOUS
 10
4.1
 20
0.0
 11
4.1
 21
1.25
  0
LINE
  5
240
100
AcDbEntity
  8
0
100
AcDbLine
 62
2
  6
CONTINUOUS
 10
-0.0
 20
0.0
 11
-0.0
 21
1.25
  0
MTEXT
  5
241
100
AcDbEntity
  8
0
100
AcDbMText
 62
2
  6
CONTINUOUS
  7
STANDARD
 71
2
 72
1
 10
6.6
 20
0.325
 30
0.0
 11
1.0
 21
0.0
 31
0.0
 44
0.9
  1
2
 40
0.125
 41
0.2
  0
MTEXT
  5
242
100
AcDbEntity
  8
0
100
AcDbMText
 62
2
  6
CONTINUOUS
  7
STANDARD
 71
2
 72
1
 10
6.15
 20
0.325
 30
0.0
 11
1.0
 21
0.0
 31
0.0
 44
0.9
  1
C
 40
0.125
 41
0.2
  0
MTEXT
  5
243
100
AcDbEntity
  8
0
100
AcDbMText
 62
2
  6
CONTINUOUS
  7
STANDARD
 71
2
 72
1
 10
5.55
 20
0.325
 30
0.0
 11
1.0
 21
0.0
 31
0.0
 44
0.9
  1
1.000
 40
0.125
 41
1.0
  0
MTEXT
  5
244
100
AcDbEntity
  8
0
100
AcDbMText
 62
2
  6
CONTINUOUS
  7
STANDARD
 71
2
 72
1
 10
4.65
 20
0.325
 30
0.0
 11
1.0
 21
0.0
 31
0.0
 44
0.9
  1
Sep-24-21
 40
0.125
 41
1.8
  0
MTEXT
  5
245
100
AcDbEntity
  8
0
100
AcDbMText
 62
2
  6
CONTINUOUS
  7
STANDARD
 71
2
 72
1
 10
2.05
 20
0.4625
 30
0.0
 11
1.0
 21
0.0
 31
0.0
 44
0.9
  1
T-2A Motor mount Danfoss OMV\PCross pilot with shuttle
 40
0.125
 41
5.6
  0
MTEXT
  5
246
100
AcDbEntity
  8
0
100
AcDbMText
 62
2
  6
CONTINUOUS
  7
STANDARD
 71
1
 72
1
 10
6.45
 20
0.5625
 30
0.0
 11
1.0
 21
0.0
 31
0.0
 44
0.9
  1
SHEET
 40
0.06
 41
0.48
  0
MTEXT
  5
247
100
AcDbEntity
  8
0
100
AcDbMText
 62
2
  6
CONTINUOUS
  7
STANDARD
 71
1
 72
1
 10
5.95
 20
0.5625
 30
0.0
 11
1.0
 21
0.0
 31
0.0
 44
0.9
  1
DWG SIZE
 40
0.06
 41
0.768
  0
MTEXT
  5
248
100
AcDbEntity
  8
0
100
AcDbMText
 62
2
  6
CONTINUOUS
  7
STANDARD
 71
1
 72
1
 10
5.25
 20
0.5625
 30
0.0
 11
1.0
 21
0.0
 31
0.0
 44
0.9
  1
SCALE
 40
0.06
 41
0.48
  0
MTEXT
  5
249
100
AcDbEntity
  8
0
100
AcDbMText
 62
2
  6
CONTINUOUS
  7
STANDARD
 71
1
 72
1
 10
4.15
 20
0.5625
 30
0.0
 11
1.0
 21
0.0
 31
0.0
 44
0.9
  1
DATE
 40
0.06
 41
0.384
  0
MTEXT
  5
24A
100
AcDbEntity
  8
0
100
AcDbMText
 62
2
  6
CONTINUOUS
  7
STANDARD
 71
1
 72
1
 10
0.05
 20
0.5625
 30
0.0
 11
1.0
 21
0.0
 31
0.0
 44
0.9
  1
DESCRIPTION
 40
0.06
 41
1.056
  0
MTEXT
  5
24B
100
AcDbEntity
  8
0
100
AcDbMText
 62
2
  6
CONTINUOUS
  7
STANDARD
 71
2
 72
1
 10
5.45
 20
1.0375
 30
0.0
 11
1.0
 21
0.0
 31
0.0
 44
0.9
  1
ALL DIMENSIONS IN INCH\PVIEWS ARE THIRD ANGLE
 40
0.12
 41
4.224
  0
MTEXT
  5
24C
100
AcDbEntity
  8
0
100
AcDbMText
 62
2
  6
CONTINUOUS
  7
STANDARD
 71
2
 72
1
 10
2.05
 20
0.95
 30
0.0
 11
1.0
 21
0.0
 31
0.0
 44
0.9
  1
U9F
 40
0.125
 41
0.6
  0
MTEXT
  5
24D
100
AcDbEntity
  8
0
100
AcDbMText
 62
2
  6
CONTINUOUS
  7
STANDARD
 71
1
 72
1
 10
0.05
 20
1.1875
 30
0.0
 11
1.0
 21
0.0
 31
0.0
 44
0.9
  1
MODEL
 40
0.06
 41
0.48
  0
ENDBLK
  5
24E
100
AcDbEntity
  8
0
  6
BYBLOCK
 62
0
100
AcDbBlockEnd
  0
BLOCK
  5
24F
100
AcDbEntity
  8
0
100
AcDbBlockBegin
  2
*T2
 70
1
 10
0.0
 20
0.0
  3
*T2
  1

  0
LINE
  5
250
100
AcDbEntity
  8
0
100
AcDbLine
 62
2
  6
CONTINUOUS
 10
0.0
 20
0.0
 11
9.055
 21
0.0
  0
LINE
  5
251
100
AcDbEntity
  8
0
100
AcDbLine
 62
2
  6
CONTINUOUS
 10
0.0
 20
0.0
 11
0.0
 21
-2.094
  0
LINE
  5
252
100
AcDbEntity
  8
0
100
AcDbLine
 62
2
  6
CONTINUOUS
 10
0.0
 20
-0.344
 11
9.055
 21
-0.344
  0
LINE
  5
253
100
AcDbEntity
  8
0
100
AcDbLine
 62
2
  6
CONTINUOUS
 10
0.0
 20
-0.594
 11
9.055
 21
-0.594
  0
LINE
  5
254
100
AcDbEntity
  8
0
100
AcDbLine
 62
2
  6
CONTINUOUS
 10
0.0
 20
-0.844
 11
9.055
 21
-0.844
  0
LINE
  5
255
100
AcDbEntity
  8
0
100
AcDbLine
 62
2
  6
CONTINUOUS
 10
0.0
 20
-1.094
 11
9.055
 21
-1.094
  0
LINE
  5
256
100
AcDbEntity
  8
0
100
AcDbLine
 62
2
  6
CONTINUOUS
 10
0.0
 20
-1.344
 11
9.055
 21
-1.344
  0
LINE
  5
257
100
AcDbEntity
  8
0
100
AcDbLine
 62
2
  6
CONTINUOUS
 10
0.0
 20
-1.594
 11
9.055
 21
-1.594
  0
LINE
  5
258
100
AcDbEntity
  8
0
100
AcDbLine
 62
2
  6
CONTINUOUS
 10
0.0
 20
-1.844
 11
9.055
 21
-1.844
  0
LINE
  5
259
100
AcDbEntity
  8
0
100
AcDbLine
 62
2
  6
CONTINUOUS
 10
0.0
 20
-2.094
 11
9.055
 21
-2.094
  0
LINE
  5
25A
100
AcDbEntity
  8
0
100
AcDbLine
 62
2
  6
CONTINUOUS
 10
3.055
 20
0.0
 11
3.055
 21
-2.094
  0
LINE
  5
25B
100
AcDbEntity
  8
0
100
AcDbLine
 62
2
  6
CONTINUOUS
 10
9.055
 20
0.0
 11
9.055
 21
-2.094
  0
MTEXT
  5
25C
100
AcDbEntity
  8
0
100
AcDbMText
 62
2
  6
CONTINUOUS
  7
STANDARD
 71
2
 72
1
 10
1.5275
 20
-0.0995
 30
0.0
 11
1.0
 21
0.0
 31
0.0
 44
0.9
  1
Technical Data
 40
0.145
 41
3.248
  0
MTEXT
  5
25D
100
AcDbEntity
  8
0
100
AcDbMText
 62
2
  6
CONTINUOUS
  7
STANDARD
 71
2
 72
1
 10
4.555
 20
-0.0995
 30
0.0
 11
1.0
 21
0.0
 31
0.0
 44
0.9
  1
U.S. Units
 40
0.145
 41
2.32
  0
MTEXT
  5
25E
100
AcDbEntity
  8
0
100
AcDbMText
 62
2
  6
CONTINUOUS
  7
STANDARD
 71
2
 72
1
 10
7.555
 20
-0.0995
 30
0.0
 11
1.0
 21
0.0
 31
0.0
 44
0.9
  1
Metric Units
 40
0.145
 41
2.784
  0
MTEXT
  5
25F
100
AcDbEntity
  8
0
100
AcDbMText
 62
2
  6
CONTINUOUS
  7
STANDARD
 71
2
 72
1
 10
1.5275
 20
-0.4065
 30
0.0
 11
1.0
 21
0.0
 31
0.0
 44
0.9
  1
Cavity
 40
0.125
 41
1.2
  0
MTEXT
  5
260
100
AcDbEntity
  8
0
100
AcDbMText
 62
2
  6
CONTINUOUS
  7
STANDARD
 71
2
 72
1
 10
6.055
 20
-0.4065
 30
0.0
 11
1.0
 21
0.0
 31
0.0
 44
0.9
  1
T-2A
 40
0.125
 41
0.8
  0
MTEXT
  5
261
100
AcDbEntity
  8
0
100
AcDbMText
 62
2
  6
CONTINUOUS
  7
STANDARD
 71
2
 72
1
 10
1.5275
 20
-0.6565
 30
0.0
 11
1.0
 21
0.0
 31
0.0
 44
0.9
  1
Body Features
 40
0.125
 41
2.6
  0
MTEXT
  5
262
100
AcDbEntity
  8
0
100
AcDbMText
 62
2
  6
CONTINUOUS
  7
STANDARD
 71
2
 72
1
 10
6.055
 20
-0.6565
 30
0.0
 11
1.0
 21
0.0
 31
0.0
 44
0.9
  1
Cross pilot with shuttle
 40
0.125
 41
4.8
  0
MTEXT
  5
263
100
AcDbEntity
  8
0
100
AcDbMText
 62
2
  6
CONTINUOUS
  7
STANDARD
 71
2
 72
1
 10
1.5275
 20
-0.9065
 30
0.0
 11
1.0
 21
0.0
 31
0.0
 44
0.9
  1
Body Type
 40
0.125
 41
1.8
  0
MTEXT
  5
264
100
AcDbEntity
  8
0
100
AcDbMText
 62
2
  6
CONTINUOUS
  7
STANDARD
 71
2
 72
1
 10
6.055
 20
-0.9065
 30
0.0
 11
1.0
 21
0.0
 31
0.0
 44
0.9
  1
Motor mount
 40
0.125
 41
2.2
  0
MTEXT
  5
265
100
AcDbEntity
  8
0
100
AcDbMText
 62
2
  6
CONTINUOUS
  7
STANDARD
 71
2
 72
1
 10
1.5275
 20
-1.1565
 30
0.0
 11
1.0
 21
0.0
 31
0.0
 44
0.9
  1
Interface
 40
0.125
 41
1.8
  0
MTEXT
  5
266
100
AcDbEntity
  8
0
100
AcDbMText
 62
2
  6
CONTINUOUS
  7
STANDARD
 71
2
 72
1
 10
6.055
 20
-1.1565
 30
0.0
 11
1.0
 21
0.0
 31
0.0
 44
0.9
  1
Danfoss OMV
 40
0.125
 41
2.2
  0
MTEXT
  5
267
100
AcDbEntity
  8
0
100
AcDbMText
 62
2
  6
CONTINUOUS
  7
STANDARD
 71
2
 72
1
 10
1.5275
 20
-1.4065
 30
0.0
 11
1.0
 21
0.0
 31
0.0
 44
0.9
  1
Open Cavity Quantity
 40
0.125
 41
4.0
  0
MTEXT
  5
268
100
AcDbEntity
  8
0
100
AcDbMText
 62
2
  6
CONTINUOUS
  7
STANDARD
 71
2
 72
1
 10
6.055
 20
-1.4065
 30
0.0
 11
1.0
 21
0.0
 31
0.0
 44
0.9
  1
2
 40
0.125
 41
0.2
  0
MTEXT
  5
269
100
AcDbEntity
  8
0
100
AcDbMText
 62
2
  6
CONTINUOUS
  7
STANDARD
 71
2
 72
1
 10
1.5275
 20
-1.6565
 30
0.0
 11
1.0
 21
0.0
 31
0.0
 44
0.9
  1
Weight
 40
0.125
 41
1.2
  0
MTEXT
  5
26A
100
AcDbEntity
  8
0
100
AcDbMText
 62
2
  6
CONTINUOUS
  7
STANDARD
 71
2
 72
1
 10
4.555
 20
-1.6565
 30
0.0
 11
1.0
 21
0.0
 31
0.0
 44
0.9
  1
4.524 lb.
 40
0.125
 41
1.8
  0
MTEXT
  5
26B
100
AcDbEntity
  8
0
100
AcDbMText
 62
2
  6
CONTINUOUS
  7
STANDARD
 71
2
 72
1
 10
7.555
 20
-1.6565
 30
0.0
 11
1.0
 21
0.0
 31
0.0
 44
0.9
  1
2,052 kg.
 40
0.125
 41
1.8
  0
MTEXT
  5
26C
100
AcDbEntity
  8
0
100
AcDbMText
 62
2
  6
CONTINUOUS
  7
STANDARD
 71
2
 72
1
 10
1.5275
 20
-1.9065
 30
0.0
 11
1.0
 21
0.0
 31
0.0
 44
0.9
  1
Includes integral cartridge(s)
 40
0.125
 41
6.0
  0
MTEXT
  5
26D
100
AcDbEntity
  8
0
100
AcDbMText
 62
2
  6
CONTINUOUS
  7
STANDARD
 71
2
 72
1
 10
6.055
 20
-1.9065
 30
0.0
 11
1.0
 21
0.0
 31
0.0
 44
0.9
  1
Yes (see Included Components)
 40
0.125
 41
5.8
  0
ENDBLK
  5
26E
100
AcDbEntity
  8
0
  6
BYBLOCK
 62
0
100
AcDbBlockEnd
  0
BLOCK
  5
26F
100
AcDbEntity
  8
0
100
AcDbBlockBegin
  2
*T3
 70
1
 10
0.0
 20
0.0
  3
*T3
  1

  0
LINE
  5
270
100
AcDbEntity
  8
0
100
AcDbLine
 62
2
  6
CONTINUOUS
 10
0.0
 20
0.0
 11
4.6
 21
0.0
  0
LINE
  5
271
100
AcDbEntity
  8
0
100
AcDbLine
 62
2
  6
CONTINUOUS
 10
0.0
 20
0.0
 11
0.0
 21
-1.18775
  0
LINE
  5
272
100
AcDbEntity
  8
0
100
AcDbLine
 62
2
  6
CONTINUOUS
 10
0.0
 20
-0.34375
 11
4.6
 21
-0.34375
  0
LINE
  5
273
100
AcDbEntity
  8
0
100
AcDbLine
 62
2
  6
CONTINUOUS
 10
0.0
 20
-0.68775
 11
4.6
 21
-0.68775
  0
LINE
  5
274
100
AcDbEntity
  8
0
100
AcDbLine
 62
2
  6
CONTINUOUS
 10
0.0
 20
-0.93775
 11
4.6
 21
-0.93775
  0
LINE
  5
275
100
AcDbEntity
  8
0
100
AcDbLine
 62
2
  6
CONTINUOUS
 10
0.0
 20
-1.18775
 11
4.6
 21
-1.18775
  0
LINE
  5
276
100
AcDbEntity
  8
0
100
AcDbLine
 62
2
  6
CONTINUOUS
 10
1.3
 20
-0.34375
 11
1.3
 21
-1.18775
  0
LINE
  5
277
100
AcDbEntity
  8
0
100
AcDbLine
 62
2
  6
CONTINUOUS
 10
3.3
 20
-0.34375
 11
3.3
 21
-1.18775
  0
LINE
  5
278
100
AcDbEntity
  8
0
100
AcDbLine
 62
2
  6
CONTINUOUS
 10
4.6
 20
0.0
 11
4.6
 21
-1.18775
  0
MTEXT
  5
279
100
AcDbEntity
  8
0
100
AcDbMText
 62
2
  6
CONTINUOUS
  7
STANDARD
 71
2
 72
1
 10
2.3
 20
-0.099375
 30
0.0
 11
1.0
 21
0.0
 31
0.0
 44
0.9
  1
Port Headings
 40
0.145
 41
3.016
  0
MTEXT
  5
27A
100
AcDbEntity
  8
0
100
AcDbMText
 62
2
  6
CONTINUOUS
  7
STANDARD
 71
2
 72
1
 10
0.65
 20
-0.44325
 30
0.0
 11
1.0
 21
0.0
 31
0.0
 44
0.9
  1
Product
 40
0.145
 41
1.624
  0
MTEXT
  5
27B
100
AcDbEntity
  8
0
100
AcDbMText
 62
2
  6
CONTINUOUS
  7
STANDARD
 71
2
 72
1
 10
2.3
 20
-0.44325
 30
0.0
 11
1.0
 21
0.0
 31
0.0
 44
0.9
  1
Port
 40
0.145
 41
0.928
  0
MTEXT
  5
27C
100
AcDbEntity
  8
0
100
AcDbMText
 62
2
  6
CONTINUOUS
  7
STANDARD
 71
2
 72
1
 10
3.95
 20
-0.44325
 30
0.0
 11
1.0
 21
0.0
 31
0.0
 44
0.9
  1
Size
 40
0.145
 41
0.928
  0
MTEXT
  5
27D
100
AcDbEntity
  8
0
100
AcDbMText
 62
2
  6
CONTINUOUS
  7
STANDARD
 71
2
 72
1
 10
0.65
 20
-0.75025
 30
0.0
 11
1.0
 21
0.0
 31
0.0
 44
0.9
  1
U9F
 40
0.125
 41
0.6
  0
MTEXT
  5
27E
100
AcDbEntity
  8
0
100
AcDbMText
 62
2
  6
CONTINUOUS
  7
STANDARD
 71
2
 72
1
 10
2.3
 20
-0.75025
 30
0.0
 11
1.0
 21
0.0
 31
0.0
 44
0.9
  1
Ports V1 & V2
 40
0.125
 41
2.6
  0
MTEXT
  5
27F
100
AcDbEntity
  8
0
100
AcDbMText
 62
2
  6
CONTINUOUS
  7
STANDARD
 71
2
 72
1
 10
3.95
 20
-0.75025
 30
0.0
 11
1.0
 21
0.0
 31
0.0
 44
0.9
  1
SAE 12
 40
0.125
 41
1.2
  0
MTEXT
  5
280
100
AcDbEntity
  8
0
100
AcDbMText
 62
2
  6
CONTINUOUS
  7
STANDARD
 71
2
 72
1
 10
0.65
 20
-1.00025
 30
0.0
 11
1.0
 21
0.0
 31
0.0
 44
0.9
  1
U9F
 40
0.125
 41
0.6
  0
MTEXT
  5
281
100
AcDbEntity
  8
0
100
AcDbMText
 62
2
  6
CONTINUOUS
  7
STANDARD
 71
2
 72
1
 10
2.3
 20
-1.00025
 30
0.0
 11
1.0
 21
0.0
 31
0.0
 44
0.9
  1
Brake Port
 40
0.125
 41
2.0
  0
MTEXT
  5
282
100
AcDbEntity
  8
0
100
AcDbMText
 62
2
  6
CONTINUOUS
  7
STANDARD
 71
2
 72
1
 10
3.95
 20
-1.00025
 30
0.0
 11
1.0
 21
0.0
 31
0.0
 44
0.9
  1
SAE 4
 40
0.125
 41
1.0
  0
ENDBLK
  5
283
100
AcDbEntity
  8
0
  6
BYBLOCK
 62
0
100
AcDbBlockEnd
  0
ENDSEC
  0
SECTION
  2
ENTITIES
  0
IMAGE
  5
284
100
AcDbEntity
  8
0
100
AcDbRasterImage
 62
7
  6
CONTINUOUS
 10
19.2297077316
 20
0.3094318264
 30
0.0
 11
0.0066666667
 21
0.0
 31
0.0
 12
0.0
 22
0.0066666667
 32
0.0
 13
369.0
 23
92.0
340
       3E4
 70
9
280
0
281
50
282
50
283
0
360
       3DE
 71
1
 91
2
 14
-0.5
 24
-0.5
 14
368.5
 24
91.5
  0
INSERT
  5
285
100
AcDbEntity
  8
0
100
AcDbBlockReference
 62
2
  6
CONTINUOUS
  2
SUN_FIRST_THIRD_ANGLE_BL0
 10
20.4816717061
 20
1.2289683772
  0
ACAD_TABLE
  5
286
100
AcDbEntity
  8
0
 62
2
  6
CONTINUOUS
100
AcDbBlockReference
  2
*T1
 10
12.42375
 20
0.30125
 30
0.0
100
AcDbTable
342
       3E6
343
20F
 11
1.0
 21
0.0
 31
0.0
 90
6
 91
4
 92
6
 93
20
 94
0
 95
0
 96
0
 70
1
 41
0.0
141
0.525
141
0.1
141
0.525
141
0.1
142
4.1
142
1.1
142
0.7
142
0.5
142
0.4
142
2.475
171
1
172
0
173
0
174
0
175
1
176
1
 91
33
178
0
145
0.0
301
CELL_VALUE
 90
4
  1
T-2A Motor mount Danfoss OMV\PCross pilot with shuttle
304
ACVALUE_END
170
2
140
0.125
171
1
172
0
173
0
174
0
175
1
176
1
 91
33
178
0
145
0.0
301
CELL_VALUE
 90
4
  1
Sep-24-21
304
ACVALUE_END
170
5
140
0.125
171
1
172
0
173
0
174
0
175
1
176
1
 91
33
178
0
145
0.0
301
CELL_VALUE
 90
4
  1
1.000
304
ACVALUE_END
170
5
140
0.125
171
1
172
0
173
0
174
0
175
1
176
1
 91
33
178
0
145
0.0
301
CELL_VALUE
 90
4
  1
C
304
ACVALUE_END
170
5
140
0.125
171
1
172
0
173
0
174
0
175
1
176
1
 91
33
178
0
145
0.0
301
CELL_VALUE
 90
4
  1
2
304
ACVALUE_END
170
5
140
0.125
171
1
172
0
173
0
174
0
175
1
176
1
 91
33
178
0
145
0.0
301
CELL_VALUE
 90
4
  1
 
304
ACVALUE_END
170
1
140
0.125
171
1
172
0
173
0
174
0
175
1
176
1
 91
33
178
0
145
0.0
301
CELL_VALUE
 90
4
  1
DESCRIPTION
304
ACVALUE_END
170
1
140
0.06
171
1
172
0
173
0
174
0
175
1
176
1
 91
33
178
0
145
0.0
301
CELL_VALUE
 90
4
  1
DATE
304
ACVALUE_END
170
1
140
0.06
171
1
172
0
173
0
174
0
175
1
176
1
 91
33
178
0
145
0.0
301
CELL_VALUE
 90
4
  1
SCALE
304
ACVALUE_END
170
1
140
0.06
171
1
172
0
173
0
174
0
175
1
176
1
 91
33
178
0
145
0.0
301
CELL_VALUE
 90
4
  1
DWG SIZE
304
ACVALUE_END
170
1
140
0.06
171
1
172
0
173
0
174
0
175
1
176
1
 91
33
178
0
145
0.0
301
CELL_VALUE
 90
4
  1
SHEET
304
ACVALUE_END
170
1
140
0.06
171
1
172
0
173
0
174
0
175
1
176
1
 91
33
178
0
145
0.0
301
CELL_VALUE
 90
4
  1
 
304
ACVALUE_END
170
1
140
0.125
171
1
172
0
173
0
174
0
175
1
176
1
 91
33
178
0
145
0.0
301
CELL_VALUE
 90
4
  1
U9F
304
ACVALUE_END
170
5
140
0.125
171
1
172
0
173
0
174
0
175
4
176
1
 91
33
178
0
145
0.0
301
CELL_VALUE
 90
4
  1
ALL DIMENSIONS IN INCH\PVIEWS ARE THIRD ANGLE
304
ACVALUE_END
170
5
140
0.12
171
1
172
0
173
1
174
0
175
1
176
1
 91
1
178
0
145
0.0
170
1
171
1
172
0
173
1
174
0
175
1
176
1
 91
1
178
0
145
0.0
170
1
171
1
172
0
173
1
174
0
175
1
176
1
 91
1
178
0
145
0.0
170
5
171
1
172
0
173
0
174
0
175
1
176
1
 91
33
178
0
145
0.0
301
CELL_VALUE
 90
4
  1
 
304
ACVALUE_END
170
1
140
0.125
171
1
172
0
173
0
174
0
175
1
176
1
 91
33
178
0
145
0.0
301
CELL_VALUE
 90
4
  1
MODEL
304
ACVALUE_END
170
1
140
0.06
171
1
172
0
173
0
174
0
175
1
176
1
 91
33
178
0
145
0.0
301
CELL_VALUE
 90
4
  1
 
304
ACVALUE_END
170
1
140
0.125
171
1
172
0
173
0
174
0
175
1
176
1
 91
33
178
0
145
0.0
301
CELL_VALUE
 90
4
  1
 
304
ACVALUE_END
170
1
140
0.125
171
1
172
0
173
0
174
0
175
1
176
1
 91
33
178
0
145
0.0
301
CELL_VALUE
 90
4
  1
 
304
ACVALUE_END
170
1
140
0.125
171
1
172
0
173
0
174
0
175
1
176
1
 91
33
178
0
145
0.0
301
CELL_VALUE
 90
4
  1
 
304
ACVALUE_END
170
1
140
0.125
171
1
172
0
173
0
174
0
175
1
176
1
 91
33
178
0
145
0.0
301
CELL_VALUE
 90
4
  1
 
304
ACVALUE_END
170
1
140
0.125
  0
ACAD_TABLE
  5
287
100
AcDbEntity
  8
0
 62
2
  6
CONTINUOUS
100
AcDbBlockReference
  2
*T2
 10
12.4237499994
 20
16.47875
 30
0.0
100
AcDbTable
342
       3E5
343
210
 11
1.0
 21
0.0
 31
0.0
 90
22
 91
8
 92
3
 93
16
 94
0
 95
0
 96
0
 41
0.028
141
0.344
141
0.25
141
0.25
141
0.25
141
0.25
141
0.25
141
0.25
141
0.25
142
3.055
142
3.0
142
3.0
171
1
172
0
173
0
174
0
175
1
176
1
 91
33
178
0
145
0.0
301
CELL_VALUE
 90
4
  1
Technical Data
304
ACVALUE_END
170
5
140
0.145
171
1
172
0
173
0
174
0
175
1
176
1
 91
33
178
0
145
0.0
301
CELL_VALUE
 90
4
  1
U.S. Units
304
ACVALUE_END
170
5
140
0.145
171
1
172
0
173
0
174
0
175
1
176
1
 91
33
178
0
145
0.0
301
CELL_VALUE
 90
4
  1
Metric Units
304
ACVALUE_END
170
5
140
0.145
171
1
172
0
173
0
174
0
175
1
176
1
 91
33
178
0
145
0.0
301
CELL_VALUE
 90
4
  1
Cavity
304
ACVALUE_END
170
5
140
0.125
171
1
172
0
173
0
174
0
175
2
176
1
 91
33
178
0
145
0.0
301
CELL_VALUE
 90
4
  1
T-2A
304
ACVALUE_END
170
5
140
0.125
171
1
172
0
173
1
174
0
175
1
176
1
 91
1
178
0
145
0.0
170
1
171
1
172
0
173
0
174
0
175
1
176
1
 91
33
178
0
145
0.0
301
CELL_VALUE
 90
4
  1
Body Features
304
ACVALUE_END
170
5
140
0.125
171
1
172
0
173
0
174
0
175
2
176
1
 91
33
178
0
145
0.0
301
CELL_VALUE
 90
4
  1
Cross pilot with shuttle
304
ACVALUE_END
170
5
140
0.125
171
1
172
0
173
1
174
0
175
1
176
1
 91
1
178
0
145
0.0
170
1
171
1
172
0
173
0
174
0
175
1
176
1
 91
33
178
0
145
0.0
301
CELL_VALUE
 90
4
  1
Body Type
304
ACVALUE_END
170
5
140
0.125
171
1
172
0
173
0
174
0
175
2
176
1
 91
33
178
0
145
0.0
301
CELL_VALUE
 90
4
  1
Motor mount
304
ACVALUE_END
170
5
140
0.125
171
1
172
0
173
1
174
0
175
1
176
1
 91
1
178
0
145
0.0
170
1
171
1
172
0
173
0
174
0
175
1
176
1
 91
33
178
0
145
0.0
301
CELL_VALUE
 90
4
  1
Interface
304
ACVALUE_END
170
5
140
0.125
171
1
172
0
173
0
174
0
175
2
176
1
 91
33
178
0
145
0.0
301
CELL_VALUE
 90
4
  1
Danfoss OMV
304
ACVALUE_END
170
5
140
0.125
171
1
172
0
173
1
174
0
175
1
176
1
 91
1
178
0
145
0.0
170
1
171
1
172
0
173
0
174
0
175
1
176
1
 91
33
178
0
145
0.0
301
CELL_VALUE
 90
4
  1
Open Cavity Quantity
304
ACVALUE_END
170
5
140
0.125
171
1
172
0
173
0
174
0
175
2
176
1
 91
33
178
0
145
0.0
301
CELL_VALUE
 90
4
  1
2
304
ACVALUE_END
170
5
140
0.125
171
1
172
0
173
1
174
0
175
1
176
1
 91
1
178
0
145
0.0
170
1
171
1
172
0
173
0
174
0
175
1
176
1
 91
33
178
0
145
0.0
301
CELL_VALUE
 90
4
  1
Weight
304
ACVALUE_END
170
5
140
0.125
171
1
172
0
173
0
174
0
175
1
176
1
 91
33
178
0
145
0.0
301
CELL_VALUE
 90
4
  1
4.524 lb.
304
ACVALUE_END
170
5
140
0.125
171
1
172
0
173
0
174
0
175
1
176
1
 91
33
178
0
145
0.0
301
CELL_VALUE
 90
4
  1
2,052 kg.
304
ACVALUE_END
170
5
140
0.125
171
1
172
0
173
0
174
0
175
1
176
1
 91
33
178
0
145
0.0
301
CELL_VALUE
 90
4
  1
Includes integral cartridge(s)
304
ACVALUE_END
170
5
140
0.125
171
1
172
0
173
0
174
0
175
2
176
1
 91
33
178
0
145
0.0
301
CELL_VALUE
 90
4
  1
Yes (see Included Components)
304
ACVALUE_END
170
5
140
0.125
171
1
172
0
173
1
174
0
175
1
176
1
 91
1
178
0
145
0.0
170
1
  0
ACAD_TABLE
  5
288
100
AcDbEntity
  8
0
 62
2
  6
CONTINUOUS
100
AcDbBlockReference
  2
*T3
 10
0.52125
 20
1.709
 30
0.0
100
AcDbTable
342
       3E5
343
211
 11
1.0
 21
0.0
 31
0.0
 90
22
 91
4
 92
3
 93
16
 94
0
 95
0
 96
0
 41
0.05
141
0.34375
141
0.344
141
0.25
141
0.25
142
1.3
142
2.0
142
1.3
171
1
172
0
173
0
174
0
175
3
176
1
 91
33
178
0
145
0.0
301
CELL_VALUE
 90
4
  1
Port Headings
304
ACVALUE_END
170
5
140
0.145
171
1
172
0
173
1
174
0
175
1
176
1
 91
1
178
0
145
0.0
170
1
171
1
172
0
173
1
174
0
175
1
176
1
 91
1
178
0
145
0.0
170
1
171
1
172
0
173
0
174
0
175
1
176
1
 91
33
178
0
145
0.0
301
CELL_VALUE
 90
4
  1
Product
304
ACVALUE_END
170
5
140
0.145
171
1
172
0
173
0
174
0
175
1
176
1
 91
33
178
0
145
0.0
301
CELL_VALUE
 90
4
  1
Port
304
ACVALUE_END
170
5
140
0.145
171
1
172
0
173
0
174
0
175
1
176
1
 91
33
178
0
145
0.0
301
CELL_VALUE
 90
4
  1
Size
304
ACVALUE_END
170
5
140
0.145
171
1
172
0
173
0
174
0
175
1
176
1
 91
33
178
0
145
0.0
301
CELL_VALUE
 90
4
  1
U9F
304
ACVALUE_END
170
5
140
0.125
171
1
172
0
173
0
174
0
175
1
176
1
 91
33
178
0
145
0.0
301
CELL_VALUE
 90
4
  1
Ports V1 & V2
304
ACVALUE_END
170
5
140
0.125
171
1
172
0
173
0
174
0
175
1
176
1
 91
33
178
0
145
0.0
301
CELL_VALUE
 90
4
  1
SAE 12
304
ACVALUE_END
170
5
140
0.125
171
1
172
0
173
0
174
0
175
1
176
1
 91
33
178
0
145
0.0
301
CELL_VALUE
 90
4
  1
U9F
304
ACVALUE_END
170
5
140
0.125
171
1
172
0
173
0
174
0
175
1
176
1
 91
33
178
0
145
0.0
301
CELL_VALUE
 90
4
  1
Brake Port
304
ACVALUE_END
170
5
140
0.125
171
1
172
0
173
0
174
0
175
1
176
1
 91
33
178
0
145
0.0
301
CELL_VALUE
 90
4
  1
SAE 4
304
ACVALUE_END
170
5
140
0.125
  0
MTEXT
  5
289
100
AcDbEntity
  8
0
100
AcDbMText
 62
2
  6
CONTINUOUS
  7
STANDARD
 71
1
 72
1
 10
0.52125
 20
5.75995
 30
0.0
 11
1.0
 21
0.0
 31
0.0
 44
0.6
  3
Notes\P \P1. Important: Carefully consider\P   the maximum system pressure. The\P   pressure rating of the manifold is\P   dependent on the manifold material,\P   with the port type/size a secondary\P   consideration. Manifolds\P   constructed of alu
  1
minum are not\P   rated for pressures higher than\P   3000 psi (210 bar), regardless of\P   the port type/size specified.
 40
0.1
 41
3.04
  0
LINE
  5
28A
100
AcDbEntity
  8
0
100
AcDbLine
 62
7
  6
CONTINUOUS
 10
0.30125
 20
0.30125
 11
0.30125
 21
16.69875
  0
LINE
  5
28B
100
AcDbEntity
  8
0
100
AcDbLine
 62
7
  6
CONTINUOUS
 10
0.30125
 20
0.30125
 11
21.69875
 21
0.30125
  0
LINE
  5
28C
100
AcDbEntity
  8
0
100
AcDbLine
 62
7
  6
CONTINUOUS
 10
0.30125
 20
16.69875
 11
21.69875
 21
16.69875
  0
LINE
  5
28D
100
AcDbEntity
  8
0
100
AcDbLine
 62
7
  6
CONTINUOUS
 10
21.69875
 20
0.30125
 11
21.69875
 21
16.69875
  0
LINE
  5
28E
100
AcDbEntity
  8
0
100
AcDbLine
 62
7
  6
CONTINUOUS
 10
8.0788149417
 20
10.5360514448
 11
8.7098152435
 21
11.1455509688
  0
LINE
  5
28F
100
AcDbEntity
  8
0
100
AcDbLine
 62
7
  6
CONTINUOUS
 10
8.0788149417
 20
10.5360514448
 11
8.0788149417
 21
6.1893849689
  0
LINE
  5
290
100
AcDbEntity
  8
0
100
AcDbLine
 62
4
  6
CONTINUOUS
 10
12.9700432194
 20
6.4910894872
 11
12.9389849604
 21
6.4828228428
  0
LINE
  5
291
100
AcDbEntity
  8
0
100
AcDbLine
 62
4
  6
CONTINUOUS
 10
12.9700432194
 20
6.534556151
 11
12.9389849604
 21
6.5262895066
  0
LINE
  5
292
100
AcDbEntity
  8
0
100
AcDbLine
 62
4
  6
CONTINUOUS
 10
12.9545140899
 20
6.1066228569
 11
12.9467495251
 21
6.1063673067
  0
LINE
  5
293
100
AcDbEntity
  8
0
100
AcDbLine
 62
7
  6
CONTINUOUS
 10
12.9084443593
 20
5.8544490312
 11
8.0788149417
 21
6.1893849689
  0
LINE
  5
294
100
AcDbEntity
  8
0
100
AcDbLine
 62
4
  6
CONTINUOUS
 10
9.0181778514
 20
6.5782250004
 11
9.0544000712
 21
6.4598018775
  0
LINE
  5
295
100
AcDbEntity
  8
0
100
AcDbLine
 62
7
  6
CONTINUOUS
 10
13.2806492777
 20
6.0438890617
 11
13.7445389176
 21
6.0117182059
  0
LINE
  5
296
100
AcDbEntity
  8
0
100
AcDbLine
 62
7
  6
CONTINUOUS
 10
13.2734231709
 20
6.0524792881
 11
13.7373128108
 21
6.0203084324
  0
LINE
  5
297
100
AcDbEntity
  8
0
100
AcDbLine
 62
7
  6
CONTINUOUS
 10
13.0614212637
 20
6.122985916
 11
13.2459919759
 21
6.1101858936
  0
LINE
  5
298
100
AcDbEntity
  8
0
100
AcDbLine
 62
4
  6
CONTINUOUS
 10
12.0391111069
 20
6.2528114641
 11
12.0970666586
 21
6.248792233
  0
LINE
  5
299
100
AcDbEntity
  8
0
100
AcDbLine
 62
4
  6
CONTINUOUS
 10
9.1703111746
 20
6.5676745186
 11
9.1703111746
 21
6.4517634152
  0
LINE
  5
29A
100
AcDbEntity
  8
0
100
AcDbLine
 62
4
  6
CONTINUOUS
 10
12.0608444388
 20
6.3672153559
 11
12.0753333267
 21
6.3662105481
  0
LINE
  5
29B
100
AcDbEntity
  8
0
100
AcDbLine
 62
7
  6
CONTINUOUS
 10
13.2222062984
 20
6.3340789462
 11
13.6860959383
 21
6.3019080904
  0
LINE
  5
29C
100
AcDbEntity
  8
0
100
AcDbLine
 62
7
  6
CONTINUOUS
 10
13.2222062984
 20
6.3652191664
 11
13.6860959383
 21
6.3330483106
  0
LINE
  5
29D
100
AcDbEntity
  8
0
100
AcDbLine
 62
7
  6
CONTINUOUS
 10
13.2734231709
 20
6.7457622299
 11
13.7373128108
 21
6.7135913741
  0
LINE
  5
29E
100
AcDbEntity
  8
0
100
AcDbLine
 62
7
  6
CONTINUOUS
 10
13.2806492777
 20
6.7683122237
 11
13.7445389176
 21
6.7361413679
  0
LINE
  5
29F
100
AcDbEntity
  8
0
100
AcDbLine
 62
4
  6
CONTINUOUS
 10
12.9700432194
 20
6.3606894959
 11
12.9389849604
 21
6.3669117393
  0
LINE
  5
2A0
100
AcDbEntity
  8
0
100
AcDbLine
 62
7
  6
CONTINUOUS
 10
13.1100959316
 20
6.8222940084
 11
13.2953384421
 21
6.8094473966
  0
LINE
  5
2A1
100
AcDbEntity
  8
0
100
AcDbLine
 62
7
  6
CONTINUOUS
 10
13.3830830226
 20
6.8672556292
 11
13.8469726625
 21
6.8350847734
  0
LINE
  5
2A2
100
AcDbEntity
  8
0
100
AcDbLine
 62
4
  6
CONTINUOUS
 10
9.0544000712
 20
6.4598018775
 11
9.090622291
 21
6.5732009614
  0
LINE
  5
2A3
100
AcDbEntity
  8
0
100
AcDbLine
 62
4
  6
CONTINUOUS
 10
12.0753333267
 20
6.3662105481
 11
12.0898222147
 21
6.355546484
  0
LINE
  5
2A4
100
AcDbEntity
  8
0
100
AcDbLine
 62
4
  6
CONTINUOUS
 10
12.0898222147
 20
6.355546484
 11
12.0970666586
 21
6.3453848169
  0
LINE
  5
2A5
100
AcDbEntity
  8
0
100
AcDbLine
 62
7
  6
CONTINUOUS
 10
13.5394446611
 20
10.8106150311
 11
12.9084443593
 21
10.201115507
  0
LINE
  5
2A6
100
AcDbEntity
  8
0
100
AcDbLine
 62
4
  6
CONTINUOUS
 10
11.9159555595
 20
6.3772634338
 11
11.9521777793
 21
6.2588403109
  0
LINE
  5
2A7
100
AcDbEntity
  8
0
100
AcDbLine
 62
4
  6
CONTINUOUS
 10
13.1075869459
 20
9.6027931123
 11
13.1009316043
 21
9.5963645456
  0
LINE
  5
2A8
100
AcDbEntity
  8
0
100
AcDbLine
 62
4
  6
CONTINUOUS
 10
13.0964947104
 20
9.5424027267
 11
13.0898393696
 21
9.5359741608
  0
LINE
  5
2A9
100
AcDbEntity
  8
0
100
AcDbLine
 62
4
  6
CONTINUOUS
 10
13.1075869459
 20
9.4786026759
 11
13.0898393696
 21
9.4614598326
  0
LINE
  5
2AA
100
AcDbEntity
  8
0
100
AcDbLine
 62
4
  6
CONTINUOUS
 10
13.109805393
 20
9.4365889232
 11
13.0876209217
 21
9.4151603682
  0
LINE
  5
2AB
100
AcDbEntity
  8
0
100
AcDbLine
 62
4
  6
CONTINUOUS
 10
13.0809655818
 20
9.4087318031
 11
13.078747134
 21
9.4065889469
  0
LINE
  5
2AC
100
AcDbEntity
  8
0
100
AcDbLine
 62
4
  6
CONTINUOUS
 10
13.2682025144
 20
9.5702703236
 11
13.2371442553
 21
9.5402703472
  0
LINE
  5
2AD
100
AcDbEntity
  8
0
100
AcDbLine
 62
4
  6
CONTINUOUS
 10
13.1910005557
 20
9.1659042244
 11
13.182126767
 21
9.1656121628
  0
LINE
  5
2AE
100
AcDbEntity
  8
0
100
AcDbLine
 62
4
  6
CONTINUOUS
 10
13.2682025144
 20
8.9051613539
 11
13.2371442553
 21
8.9082788337
  0
LINE
  5
2AF
100
AcDbEntity
  8
0
100
AcDbLine
 62
4
  6
CONTINUOUS
 10
13.1172002167
 20
8.9911265269
 11
13.0876209217
 21
8.9956725627
  0
LINE
  5
2B0
100
AcDbEntity
  8
0
100
AcDbLine
 62
4
  6
CONTINUOUS
 10
12.9467495251
 20
6.1063673067
 11
12.941573148
 21
6.115856198
  0
LINE
  5
2B1
100
AcDbEntity
  8
0
100
AcDbLine
 62
4
  6
CONTINUOUS
 10
12.941573148
 20
6.2317673014
 11
12.9441613375
 21
6.2270228567
  0
LINE
  5
2B2
100
AcDbEntity
  8
0
100
AcDbLine
 62
4
  6
CONTINUOUS
 10
12.9648668428
 20
6.1890672885
 11
12.9674550311
 21
6.1843228426
  0
LINE
  5
2B3
100
AcDbEntity
  8
0
100
AcDbLine
 62
4
  6
CONTINUOUS
 10
12.9648668428
 20
6.3049783919
 11
12.9674550311
 21
6.300233946
  0
LINE
  5
2B4
100
AcDbEntity
  8
0
100
AcDbLine
 62
4
  6
CONTINUOUS
 10
13.2415811492
 20
9.4976396168
 11
13.26376562
 21
9.5190681714
  0
LINE
  5
2B5
100
AcDbEntity
  8
0
100
AcDbLine
 62
4
  6
CONTINUOUS
 10
13.1075869459
 20
9.3599317948
 11
13.078747134
 21
9.332074674
  0
LINE
  5
2B6
100
AcDbEntity
  8
0
100
AcDbLine
 62
4
  6
CONTINUOUS
 10
13.109805393
 20
9.328957208
 11
13.0876209217
 21
9.307528653
  0
LINE
  5
2B7
100
AcDbEntity
  8
0
100
AcDbLine
 62
4
  6
CONTINUOUS
 10
13.2682025144
 20
9.4653983307
 11
13.2371442553
 21
9.4353983544
  0
LINE
  5
2B8
100
AcDbEntity
  8
0
100
AcDbLine
 62
4
  6
CONTINUOUS
 10
13.0876209217
 20
9.2578524342
 11
13.1075869459
 21
9.2771381337
  0
LINE
  5
2B9
100
AcDbEntity
  8
0
100
AcDbLine
 62
4
  6
CONTINUOUS
 10
13.2415811492
 20
9.4065666227
 11
13.26376562
 21
9.4279951773
  0
LINE
  5
2BA
100
AcDbEntity
  8
0
100
AcDbLine
 62
4
  6
CONTINUOUS
 10
13.109805393
 20
9.2461635469
 11
13.0920578156
 21
9.2290207025
  0
LINE
  5
2BB
100
AcDbEntity
  8
0
100
AcDbLine
 62
4
  6
CONTINUOUS
 10
13.26376562
 20
9.3700396256
 11
13.2415811492
 21
9.348611071
  0
LINE
  5
2BC
100
AcDbEntity
  8
0
100
AcDbLine
 62
4
  6
CONTINUOUS
 10
13.1075869459
 20
9.1943445279
 11
13.1009316043
 21
9.1879159612
  0
LINE
  5
2BD
100
AcDbEntity
  8
0
100
AcDbLine
 62
4
  6
CONTINUOUS
 10
13.0898393696
 20
9.1413244093
 11
13.0942762635
 21
9.14561012
  0
LINE
  5
2BE
100
AcDbEntity
  8
0
100
AcDbLine
 62
4
  6
CONTINUOUS
 10
13.1998743444
 20
9.2158724634
 11
13.1688160853
 21
9.185872487
  0
LINE
  5
2BF
100
AcDbEntity
  8
0
100
AcDbLine
 62
4
  6
CONTINUOUS
 10
13.26376562
 20
9.2734470763
 11
13.2415811492
 21
9.2520185217
  0
LINE
  5
2C0
100
AcDbEntity
  8
0
100
AcDbLine
 62
4
  6
CONTINUOUS
 10
13.109805393
 20
9.1219731105
 11
13.0876209217
 21
9.1005445555
  0
LINE
  5
2C1
100
AcDbEntity
  8
0
100
AcDbLine
 62
4
  6
CONTINUOUS
 10
13.182126767
 20
9.1656121628
 11
13.1732529792
 21
9.1570407415
  0
LINE
  5
2C2
100
AcDbEntity
  8
0
100
AcDbLine
 62
4
  6
CONTINUOUS
 10
13.078747134
 20
9.0588556366
 11
13.109805393
 21
9.0888556129
  0
LINE
  5
2C3
100
AcDbEntity
  8
0
100
AcDbLine
 62
4
  6
CONTINUOUS
 10
13.1075869459
 20
9.0370365939
 11
13.0898393696
 21
9.0198937506
  0
LINE
  5
2C4
100
AcDbEntity
  8
0
100
AcDbLine
 62
4
  6
CONTINUOUS
 10
13.1732529792
 20
9.0990851898
 11
13.182126767
 21
9.1076566111
  0
LINE
  5
2C5
100
AcDbEntity
  8
0
100
AcDbLine
 62
4
  6
CONTINUOUS
 10
12.0970666586
 20
6.3453848169
 11
12.0970666586
 21
6.3260663042
  0
LINE
  5
2C6
100
AcDbEntity
  8
0
100
AcDbLine
 62
4
  6
CONTINUOUS
 10
13.19543745
 20
9.0873962883
 11
13.1688160853
 21
9.061682023
  0
LINE
  5
2C7
100
AcDbEntity
  8
0
100
AcDbLine
 62
4
  6
CONTINUOUS
 10
13.2682025144
 20
9.1038661046
 11
13.2371442553
 21
9.0738661282
  0
LINE
  5
2C8
100
AcDbEntity
  8
0
100
AcDbLine
 62
4
  6
CONTINUOUS
 10
13.1688160853
 20
9.0037264713
 11
13.19543745
 21
9.0294407365
  0
LINE
  5
2C9
100
AcDbEntity
  8
0
100
AcDbLine
 62
4
  6
CONTINUOUS
 10
13.0898393696
 20
8.9150217854
 11
13.109805393
 21
8.9343074842
  0
LINE
  5
2CA
100
AcDbEntity
  8
0
100
AcDbLine
 62
4
  6
CONTINUOUS
 10
13.2682025144
 20
9.0376311923
 11
13.2371442553
 21
9.0076312159
  0
LINE
  5
2CB
100
AcDbEntity
  8
0
100
AcDbLine
 62
4
  6
CONTINUOUS
 10
13.109805393
 20
8.8846312931
 11
13.078747134
 21
8.8546313168
  0
LINE
  5
2CC
100
AcDbEntity
  8
0
100
AcDbLine
 62
4
  6
CONTINUOUS
 10
13.109805393
 20
8.7604408291
 11
13.078747134
 21
8.7304408527
  0
LINE
  5
2CD
100
AcDbEntity
  8
0
100
AcDbLine
 62
4
  6
CONTINUOUS
 10
13.2415811492
 20
8.8325306885
 11
13.26376562
 21
8.8539592431
  0
LINE
  5
2CE
100
AcDbEntity
  8
0
100
AcDbLine
 62
4
  6
CONTINUOUS
 10
13.109805393
 20
8.7024852774
 11
13.078747134
 21
8.672485301
  0
LINE
  5
2CF
100
AcDbEntity
  8
0
100
AcDbLine
 62
4
  6
CONTINUOUS
 10
13.1053684987
 20
8.6650821101
 11
13.078747134
 21
8.6393678449
  0
LINE
  5
2D0
100
AcDbEntity
  8
0
100
AcDbLine
 62
7
  6
CONTINUOUS
 10
13.2300947322
 20
6.1483804526
 11
13.2469832443
 21
6.1078042823
  0
LINE
  5
2D1
100
AcDbEntity
  8
0
100
AcDbLine
 62
4
  6
CONTINUOUS
 10
12.0463555509
 20
6.2812868361
 11
12.0391111069
 21
6.2528114641
  0
LINE
  5
2D2
100
AcDbEntity
  8
0
100
AcDbLine
 62
4
  6
CONTINUOUS
 10
11.9521777793
 20
6.2588403109
 11
11.9883999992
 21
6.3722393948
  0
LINE
  5
2D3
100
AcDbEntity
  8
0
100
AcDbLine
 62
4
  6
CONTINUOUS
 10
13.2682025144
 20
8.8002894094
 11
13.2371442553
 21
8.770289433
  0
LINE
  5
2D4
100
AcDbEntity
  8
0
100
AcDbLine
 62
4
  6
CONTINUOUS
 10
13.078747134
 20
8.5814122932
 11
13.1053684987
 21
8.6071265584
  0
LINE
  5
2D5
100
AcDbEntity
  8
0
100
AcDbLine
 62
4
  6
CONTINUOUS
 10
13.1053684987
 20
8.5740091023
 11
13.1009316043
 21
8.5697233912
  0
LINE
  5
2D6
100
AcDbEntity
  8
0
100
AcDbLine
 62
4
  6
CONTINUOUS
 10
13.0876209217
 20
8.4989107066
 11
13.0831840278
 21
8.494624996
  0
LINE
  5
2D7
100
AcDbEntity
  8
0
100
AcDbLine
 62
4
  6
CONTINUOUS
 10
13.078747134
 20
9.4093487245
 11
13.0809655818
 21
9.4087318031
  0
LINE
  5
2D8
100
AcDbEntity
  8
0
100
AcDbLine
 62
4
  6
CONTINUOUS
 10
12.941573148
 20
6.115856198
 11
12.9389849604
 21
6.1278450885
  0
LINE
  5
2D9
100
AcDbEntity
  8
0
100
AcDbLine
 62
4
  6
CONTINUOUS
 10
12.9389849604
 20
6.2437561919
 11
12.941573148
 21
6.2317673014
  0
LINE
  5
2DA
100
AcDbEntity
  8
0
100
AcDbLine
 62
4
  6
CONTINUOUS
 10
12.9674550311
 20
6.1843228426
 11
12.9700432194
 21
6.1723339528
  0
LINE
  5
2DB
100
AcDbEntity
  8
0
100
AcDbLine
 62
4
  6
CONTINUOUS
 10
12.9674550311
 20
6.300233946
 11
12.9700432194
 21
6.2882450562
  0
LINE
  5
2DC
100
AcDbEntity
  8
0
100
AcDbLine
 62
4
  6
CONTINUOUS
 10
13.0876209217
 20
9.5752280798
 11
13.0898393696
 21
9.585650269
  0
LINE
  5
2DD
100
AcDbEntity
  8
0
100
AcDbLine
 62
4
  6
CONTINUOUS
 10
13.1075869459
 20
9.553117004
 11
13.109805393
 21
9.5635391925
  0
LINE
  5
2DE
100
AcDbEntity
  8
0
100
AcDbLine
 62
4
  6
CONTINUOUS
 10
13.109805393
 20
9.4890248644
 11
13.1075869459
 21
9.4786026759
  0
LINE
  5
2DF
100
AcDbEntity
  8
0
100
AcDbLine
 62
4
  6
CONTINUOUS
 10
13.0876209217
 20
9.1336619978
 11
13.0898393696
 21
9.1413244093
  0
LINE
  5
2E0
100
AcDbEntity
  8
0
100
AcDbLine
 62
4
  6
CONTINUOUS
 10
13.0920578156
 20
9.2290207025
 11
13.0876209217
 21
9.2164556589
  0
LINE
  5
2E1
100
AcDbEntity
  8
0
100
AcDbLine
 62
4
  6
CONTINUOUS
 10
13.0876209217
 20
8.9459963992
 11
13.109805393
 21
8.9922630636
  0
LINE
  5
2E2
100
AcDbEntity
  8
0
100
AcDbLine
 62
4
  6
CONTINUOUS
 10
13.2371442553
 20
8.9082788337
 11
13.2682025144
 21
8.97139628
  0
LINE
  5
2E3
100
AcDbEntity
  8
0
100
AcDbLine
 62
7
  6
CONTINUOUS
 10
12.9084443593
 20
10.201115507
 11
8.0788149417
 21
10.5360514448
  0
LINE
  5
2E4
100
AcDbEntity
  8
0
100
AcDbLine
 62
7
  6
CONTINUOUS
 10
12.9084443593
 20
10.201115507
 11
12.9084443593
 21
5.8544490312
  0
LINE
  5
2E5
100
AcDbEntity
  8
0
100
AcDbLine
 62
4
  6
CONTINUOUS
 10
12.9389849604
 20
6.2582450799
 11
12.9389849604
 21
6.2437561919
  0
LINE
  5
2E6
100
AcDbEntity
  8
0
100
AcDbLine
 62
4
  6
CONTINUOUS
 10
12.9389849604
 20
6.1278450885
 11
12.9389849604
 21
6.1423339764
  0
LINE
  5
2E7
100
AcDbEntity
  8
0
100
AcDbLine
 62
4
  6
CONTINUOUS
 10
12.9596904661
 20
6.3651783914
 11
12.9596904661
 21
6.4086450552
  0
LINE
  5
2E8
100
AcDbEntity
  8
0
100
AcDbLine
 62
4
  6
CONTINUOUS
 10
12.9700432194
 20
6.2882450562
 11
12.9700432194
 21
6.2737561683
  0
LINE
  5
2E9
100
AcDbEntity
  8
0
100
AcDbLine
 62
4
  6
CONTINUOUS
 10
12.9700432194
 20
6.1723339528
 11
12.9700432194
 21
6.1578450649
  0
LINE
  5
2EA
100
AcDbEntity
  8
0
100
AcDbLine
 62
4
  6
CONTINUOUS
 10
13.078747134
 20
8.5068980151
 11
13.078747134
 21
8.540015473
  0
LINE
  5
2EB
100
AcDbEntity
  8
0
100
AcDbLine
 62
4
  6
CONTINUOUS
 10
13.078747134
 20
9.4065889469
 11
13.078747134
 21
9.4093487245
  0
LINE
  5
2EC
100
AcDbEntity
  8
0
100
AcDbLine
 62
4
  6
CONTINUOUS
 10
13.0876209217
 20
9.2164556589
 11
13.0876209217
 21
9.1750588284
  0
LINE
  5
2ED
100
AcDbEntity
  8
0
100
AcDbLine
 62
4
  6
CONTINUOUS
 10
13.0876209217
 20
8.8632027381
 11
13.0876209217
 21
8.9045995686
  0
LINE
  5
2EE
100
AcDbEntity
  8
0
100
AcDbLine
 62
4
  6
CONTINUOUS
 10
13.0876209217
 20
9.0343096156
 11
13.0876209217
 21
9.0674270579
  0
LINE
  5
2EF
100
AcDbEntity
  8
0
100
AcDbLine
 62
4
  6
CONTINUOUS
 10
13.0876209217
 20
9.1005445555
 11
13.0876209217
 21
9.1336619978
  0
LINE
  5
2F0
100
AcDbEntity
  8
0
100
AcDbLine
 62
4
  6
CONTINUOUS
 10
13.0876209217
 20
9.4675963093
 11
13.0876209217
 21
9.5007138622
  0
LINE
  5
2F1
100
AcDbEntity
  8
0
100
AcDbLine
 62
4
  6
CONTINUOUS
 10
13.0876209217
 20
9.5421106375
 11
13.0876209217
 21
9.5752280798
  0
LINE
  5
2F2
100
AcDbEntity
  8
0
100
AcDbLine
 62
4
  6
CONTINUOUS
 10
13.0987131574
 20
9.2023318271
 11
13.0987131574
 21
9.2354492694
  0
LINE
  5
2F3
100
AcDbEntity
  8
0
100
AcDbLine
 62
4
  6
CONTINUOUS
 10
13.109805393
 20
9.5221424173
 11
13.109805393
 21
9.4890248644
  0
LINE
  5
2F4
100
AcDbEntity
  8
0
100
AcDbLine
 62
4
  6
CONTINUOUS
 10
13.109805393
 20
9.3869127597
 11
13.109805393
 21
9.3703540386
  0
LINE
  5
2F5
100
AcDbEntity
  8
0
100
AcDbLine
 62
4
  6
CONTINUOUS
 10
13.109805393
 20
9.2461635469
 11
13.109805393
 21
9.2130461046
  0
LINE
  5
2F6
100
AcDbEntity
  8
0
100
AcDbLine
 62
4
  6
CONTINUOUS
 10
13.109805393
 20
9.0888556129
 11
13.109805393
 21
9.0557381706
  0
LINE
  5
2F7
100
AcDbEntity
  8
0
100
AcDbLine
 62
4
  6
CONTINUOUS
 10
13.109805393
 20
8.5286186265
 11
13.109805393
 21
8.5617360853
  0
LINE
  5
2F8
100
AcDbEntity
  8
0
100
AcDbLine
 62
4
  6
CONTINUOUS
 10
13.109805393
 20
8.6279709976
 11
13.109805393
 21
8.6528091001
  0
LINE
  5
2F9
100
AcDbEntity
  8
0
100
AcDbLine
 62
4
  6
CONTINUOUS
 10
13.109805393
 20
9.2875603775
 11
13.109805393
 21
9.328957208
  0
LINE
  5
2FA
100
AcDbEntity
  8
0
100
AcDbLine
 62
4
  6
CONTINUOUS
 10
13.109805393
 20
9.5635391925
 11
13.109805393
 21
9.5966566349
  0
LINE
  5
2FB
100
AcDbEntity
  8
0
100
AcDbLine
 62
4
  6
CONTINUOUS
 10
13.1172002167
 20
8.9745678057
 11
13.1172002167
 21
8.9911265269
  0
LINE
  5
2FC
100
AcDbEntity
  8
0
100
AcDbLine
 62
4
  6
CONTINUOUS
 10
13.0994526397
 20
9.5866566425
 11
13.0979736751
 21
9.5521106299
  0
LINE
  5
2FD
100
AcDbEntity
  8
0
100
AcDbLine
 62
4
  6
CONTINUOUS
 10
13.109805393
 20
9.2130461046
 11
13.1075869459
 21
9.1943445279
  0
LINE
  5
2FE
100
AcDbEntity
  8
0
100
AcDbLine
 62
4
  6
CONTINUOUS
 10
13.109805393
 20
9.0557381706
 11
13.1075869459
 21
9.0370365939
  0
LINE
  5
2FF
100
AcDbEntity
  8
0
100
AcDbLine
 62
4
  6
CONTINUOUS
 10
13.2489759723
 20
9.6344925148
 11
13.2548918318
 21
9.6843634048
  0
LINE
  5
300
100
AcDbEntity
  8
0
100
AcDbLine
 62
4
  6
CONTINUOUS
 10
13.1009316043
 20
9.5963645456
 11
13.0994526397
 21
9.5866566425
  0
LINE
  5
301
100
AcDbEntity
  8
0
100
AcDbLine
 62
4
  6
CONTINUOUS
 10
13.0979736751
 20
9.5521106299
 11
13.0964947104
 21
9.5424027267
  0
LINE
  5
302
100
AcDbEntity
  8
0
100
AcDbLine
 62
4
  6
CONTINUOUS
 10
13.1009316043
 20
8.5697233912
 11
13.0876209217
 21
8.4989107066
  0
LINE
  5
303
100
AcDbEntity
  8
0
100
AcDbLine
 62
4
  6
CONTINUOUS
 10
13.109805393
 20
9.3703540386
 11
13.1075869459
 21
9.3599317948
  0
LINE
  5
304
100
AcDbEntity
  8
0
100
AcDbLine
 62
4
  6
CONTINUOUS
 10
13.1075869459
 20
9.2771381337
 11
13.109805393
 21
9.2875603775
  0
LINE
  5
305
100
AcDbEntity
  8
0
100
AcDbLine
 62
4
  6
CONTINUOUS
 10
13.0876209217
 20
8.9045995686
 11
13.0898393696
 21
8.9150217854
  0
LINE
  5
306
100
AcDbEntity
  8
0
100
AcDbLine
 62
4
  6
CONTINUOUS
 10
13.2371442553
 20
9.4767951849
 11
13.2415811492
 21
9.4976396168
  0
LINE
  5
307
100
AcDbEntity
  8
0
100
AcDbLine
 62
4
  6
CONTINUOUS
 10
13.1732529792
 20
9.1570407415
 11
13.1688160853
 21
9.1361963097
  0
LINE
  5
308
100
AcDbEntity
  8
0
100
AcDbLine
 62
4
  6
CONTINUOUS
 10
13.2371442553
 20
9.3857221909
 11
13.2415811492
 21
9.4065666227
  0
LINE
  5
309
100
AcDbEntity
  8
0
100
AcDbLine
 62
4
  6
CONTINUOUS
 10
13.182126767
 20
9.1076566111
 11
13.1865636618
 21
9.1285010507
  0
LINE
  5
30A
100
AcDbEntity
  8
0
100
AcDbLine
 62
4
  6
CONTINUOUS
 10
13.078747134
 20
8.540015473
 11
13.0809655818
 21
8.5504376932
  0
LINE
  5
30B
100
AcDbEntity
  8
0
100
AcDbLine
 62
4
  6
CONTINUOUS
 10
13.2682025144
 20
9.3908840579
 11
13.26376562
 21
9.3700396256
  0
LINE
  5
30C
100
AcDbEntity
  8
0
100
AcDbLine
 62
4
  6
CONTINUOUS
 10
13.1053684987
 20
8.6071265584
 11
13.109805393
 21
8.6279709976
  0
LINE
  5
30D
100
AcDbEntity
  8
0
100
AcDbLine
 62
4
  6
CONTINUOUS
 10
13.19543745
 20
9.0294407365
 11
13.1998743444
 21
9.0502851774
  0
LINE
  5
30E
100
AcDbEntity
  8
0
100
AcDbLine
 62
4
  6
CONTINUOUS
 10
13.2682025144
 20
9.2942915085
 11
13.26376562
 21
9.2734470763
  0
LINE
  5
30F
100
AcDbEntity
  8
0
100
AcDbLine
 62
4
  6
CONTINUOUS
 10
13.1075869459
 20
8.5181964061
 11
13.109805393
 21
8.5286186265
  0
LINE
  5
310
100
AcDbEntity
  8
0
100
AcDbLine
 62
4
  6
CONTINUOUS
 10
13.2371442553
 20
8.8116862498
 11
13.2415811492
 21
8.8325306885
  0
LINE
  5
311
100
AcDbEntity
  8
0
100
AcDbLine
 62
4
  6
CONTINUOUS
 10
13.078747134
 20
8.672485301
 11
13.109805393
 21
8.7604408291
  0
LINE
  5
312
100
AcDbEntity
  8
0
100
AcDbLine
 62
7
  6
CONTINUOUS
 10
13.880638696
 20
6.7711695529
 11
13.8894577037
 21
6.7499810931
  0
LINE
  5
313
100
AcDbEntity
  8
0
100
AcDbLine
 62
4
  6
CONTINUOUS
 10
13.0831840278
 20
8.494624996
 11
13.078747134
 21
8.5068980151
  0
LINE
  5
314
100
AcDbEntity
  8
0
100
AcDbLine
 62
4
  6
CONTINUOUS
 10
13.109805393
 20
8.5617360853
 11
13.1053684987
 21
8.5740091023
  0
LINE
  5
315
100
AcDbEntity
  8
0
100
AcDbLine
 62
4
  6
CONTINUOUS
 10
13.109805393
 20
8.6528091001
 11
13.1053684987
 21
8.6650821101
  0
LINE
  5
316
100
AcDbEntity
  8
0
100
AcDbLine
 62
4
  6
CONTINUOUS
 10
13.1688160853
 20
9.1361963097
 11
13.1688160853
 21
9.1113582072
  0
LINE
  5
317
100
AcDbEntity
  8
0
100
AcDbLine
 62
4
  6
CONTINUOUS
 10
13.1688160853
 20
9.185872487
 11
13.1688160853
 21
9.2355486782
  0
LINE
  5
318
100
AcDbEntity
  8
0
100
AcDbLine
 62
4
  6
CONTINUOUS
 10
13.182126767
 20
9.2484058101
 11
13.182126767
 21
9.198729619
  0
LINE
  5
319
100
AcDbEntity
  8
0
100
AcDbLine
 62
4
  6
CONTINUOUS
 10
13.1865636618
 20
9.1285010507
 11
13.1865636618
 21
9.1643783053
  0
LINE
  5
31A
100
AcDbEntity
  8
0
100
AcDbLine
 62
4
  6
CONTINUOUS
 10
13.1998743444
 20
9.0502851774
 11
13.1998743444
 21
9.0751232713
  0
LINE
  5
31B
100
AcDbEntity
  8
0
100
AcDbLine
 62
4
  6
CONTINUOUS
 10
13.2371442553
 20
8.770289433
 11
13.2371442553
 21
8.8116862498
  0
LINE
  5
31C
100
AcDbEntity
  8
0
100
AcDbLine
 62
4
  6
CONTINUOUS
 10
13.2371442553
 20
8.974513746
 11
13.2371442553
 21
9.0407486583
  0
LINE
  5
31D
100
AcDbEntity
  8
0
100
AcDbLine
 62
4
  6
CONTINUOUS
 10
13.2371442553
 20
9.0738661282
 11
13.2371442553
 21
9.1235423194
  0
LINE
  5
31E
100
AcDbEntity
  8
0
100
AcDbLine
 62
4
  6
CONTINUOUS
 10
13.2371442553
 20
9.2642915322
 11
13.2371442553
 21
9.2974089745
  0
LINE
  5
31F
100
AcDbEntity
  8
0
100
AcDbLine
 62
4
  6
CONTINUOUS
 10
13.2371442553
 20
9.3608840815
 11
13.2371442553
 21
9.3857221909
  0
LINE
  5
320
100
AcDbEntity
  8
0
100
AcDbLine
 62
4
  6
CONTINUOUS
 10
13.2371442553
 20
9.4353983544
 11
13.2371442553
 21
9.4767951849
  0
LINE
  5
321
100
AcDbEntity
  8
0
100
AcDbLine
 62
4
  6
CONTINUOUS
 10
13.2371442553
 20
9.5402703472
 11
13.2371442553
 21
9.5899465107
  0
LINE
  5
322
100
AcDbEntity
  8
0
100
AcDbLine
 62
4
  6
CONTINUOUS
 10
13.2495675705
 20
6.848022621
 11
13.2495675705
 21
6.9059781727
  0
LINE
  5
323
100
AcDbEntity
  8
0
100
AcDbLine
 62
4
  6
CONTINUOUS
 10
13.250454937
 20
9.5862449215
 11
13.250454937
 21
9.5531274792
  0
LINE
  5
324
100
AcDbEntity
  8
0
100
AcDbLine
 62
4
  6
CONTINUOUS
 10
13.250454937
 20
9.1198407301
 11
13.250454937
 21
9.0867232602
  0
LINE
  5
325
100
AcDbEntity
  8
0
100
AcDbLine
 62
4
  6
CONTINUOUS
 10
13.2593287257
 20
8.9076290837
 11
13.2593287257
 21
8.9517856919
  0
LINE
  5
326
100
AcDbEntity
  8
0
100
AcDbLine
 62
4
  6
CONTINUOUS
 10
13.2650967
 20
6.8630226092
 11
13.2650967
 21
6.899244829
  0
LINE
  5
327
100
AcDbEntity
  8
0
100
AcDbLine
 62
4
  6
CONTINUOUS
 10
13.2682025144
 20
9.5067951613
 11
13.2682025144
 21
9.4653983307
  0
LINE
  5
328
100
AcDbEntity
  8
0
100
AcDbLine
 62
4
  6
CONTINUOUS
 10
13.2682025144
 20
9.4157221672
 11
13.2682025144
 21
9.3908840579
  0
LINE
  5
329
100
AcDbEntity
  8
0
100
AcDbLine
 62
4
  6
CONTINUOUS
 10
13.2682025144
 20
9.3274089508
 11
13.2682025144
 21
9.2942915085
  0
LINE
  5
32A
100
AcDbEntity
  8
0
100
AcDbLine
 62
4
  6
CONTINUOUS
 10
13.2682025144
 20
8.8416862261
 11
13.2682025144
 21
8.8002894094
  0
LINE
  5
32B
100
AcDbEntity
  8
0
100
AcDbLine
 62
4
  6
CONTINUOUS
 10
13.2682025144
 20
9.1038661046
 11
13.2682025144
 21
9.1535422957
  0
LINE
  5
32C
100
AcDbEntity
  8
0
100
AcDbLine
 62
4
  6
CONTINUOUS
 10
13.2682025144
 20
9.5702703236
 11
13.2682025144
 21
9.6199464871
  0
LINE
  5
32D
100
AcDbEntity
  8
0
100
AcDbLine
 62
4
  6
CONTINUOUS
 10
13.2806258296
 20
6.9359781491
 11
13.2806258296
 21
6.8780225974
  0
LINE
  5
32E
100
AcDbEntity
  8
0
100
AcDbLine
 62
4
  6
CONTINUOUS
 10
13.2548918318
 20
8.7211973573
 11
13.2608076908
 21
8.7710682503
  0
LINE
  5
32F
100
AcDbEntity
  8
0
100
AcDbLine
 62
4
  6
CONTINUOUS
 10
12.941573148
 20
6.2752339652
 11
12.9389849604
 21
6.2582450799
  0
LINE
  5
330
100
AcDbEntity
  8
0
100
AcDbLine
 62
4
  6
CONTINUOUS
 10
12.9493377128
 20
6.2392672955
 11
12.9571022785
 21
6.2902339543
  0
LINE
  5
331
100
AcDbEntity
  8
0
100
AcDbLine
 62
4
  6
CONTINUOUS
 10
12.9389849604
 20
6.1423339764
 11
12.941573148
 21
6.1593228618
  0
LINE
  5
332
100
AcDbEntity
  8
0
100
AcDbLine
 62
4
  6
CONTINUOUS
 10
12.9700432194
 20
6.2737561683
 11
12.9674550311
 21
6.2567672823
  0
LINE
  5
333
100
AcDbEntity
  8
0
100
AcDbLine
 62
4
  6
CONTINUOUS
 10
12.9700432194
 20
6.1578450649
 11
12.9674550311
 21
6.1408561788
  0
LINE
  5
334
100
AcDbEntity
  8
0
100
AcDbLine
 62
4
  6
CONTINUOUS
 10
12.0391111069
 20
6.349404048
 11
12.0463555509
 21
6.3585609073
  0
LINE
  5
335
100
AcDbEntity
  8
0
100
AcDbLine
 62
4
  6
CONTINUOUS
 10
12.0608444388
 20
6.2996005444
 11
12.0463555509
 21
6.2812868361
  0
LINE
  5
336
100
AcDbEntity
  8
0
100
AcDbLine
 62
4
  6
CONTINUOUS
 10
12.0970666586
 20
6.3260663042
 11
12.0898222147
 21
6.3169094449
  0
LINE
  5
337
100
AcDbEntity
  8
0
100
AcDbLine
 62
4
  6
CONTINUOUS
 10
12.0463555509
 20
6.3585609073
 11
12.0608444388
 21
6.3672153559
  0
LINE
  5
338
100
AcDbEntity
  8
0
100
AcDbLine
 62
4
  6
CONTINUOUS
 10
13.1688160853
 20
9.1113582072
 11
13.1732529792
 21
9.0990851898
  0
LINE
  5
339
100
AcDbEntity
  8
0
100
AcDbLine
 62
4
  6
CONTINUOUS
 10
13.26376562
 20
8.8539592431
 11
13.2682025144
 21
8.8416862261
  0
LINE
  5
33A
100
AcDbEntity
  8
0
100
AcDbLine
 62
4
  6
CONTINUOUS
 10
13.1998743444
 20
9.0751232713
 11
13.19543745
 21
9.0873962883
  0
LINE
  5
33B
100
AcDbEntity
  8
0
100
AcDbLine
 62
4
  6
CONTINUOUS
 10
13.1998743444
 20
9.1413581836
 11
13.1910005557
 21
9.1659042244
  0
LINE
  5
33C
100
AcDbEntity
  8
0
100
AcDbLine
 62
4
  6
CONTINUOUS
 10
13.0898393696
 20
9.4614598326
 11
13.0876209217
 21
9.4675963093
  0
LINE
  5
33D
100
AcDbEntity
  8
0
100
AcDbLine
 62
4
  6
CONTINUOUS
 10
13.0898393696
 20
9.5359741608
 11
13.0876209217
 21
9.5421106375
  0
LINE
  5
33E
100
AcDbEntity
  8
0
100
AcDbLine
 62
4
  6
CONTINUOUS
 10
13.109805393
 20
9.5966566349
 11
13.1075869459
 21
9.6027931123
  0
LINE
  5
33F
100
AcDbEntity
  8
0
100
AcDbLine
 62
4
  6
CONTINUOUS
 10
13.2415811492
 20
9.2520185217
 11
13.2371442553
 21
9.2642915322
  0
LINE
  5
340
100
AcDbEntity
  8
0
100
AcDbLine
 62
4
  6
CONTINUOUS
 10
13.2415811492
 20
9.348611071
 11
13.2371442553
 21
9.3608840815
  0
LINE
  5
341
100
AcDbEntity
  8
0
100
AcDbLine
 62
4
  6
CONTINUOUS
 10
13.0898393696
 20
9.0198937506
 11
13.0876209217
 21
9.0343096156
  0
LINE
  5
342
100
AcDbEntity
  8
0
100
AcDbLine
 62
4
  6
CONTINUOUS
 10
13.1009316043
 20
9.1879159612
 11
13.0987131574
 21
9.2023318271
  0
LINE
  5
343
100
AcDbEntity
  8
0
100
AcDbLine
 62
4
  6
CONTINUOUS
 10
13.2489759723
 20
8.7596396872
 11
13.2548918318
 21
8.7211973573
  0
LINE
  5
344
100
AcDbEntity
  8
0
100
AcDbLine
 62
7
  6
CONTINUOUS
 10
13.5394446611
 20
10.8106150311
 11
13.5394446611
 21
6.8564119127
  0
LINE
  5
345
100
AcDbEntity
  8
0
100
AcDbLine
 62
4
  6
CONTINUOUS
 10
12.9441613375
 20
6.2849784084
 11
12.941573148
 21
6.2752339652
  0
LINE
  5
346
100
AcDbEntity
  8
0
100
AcDbLine
 62
4
  6
CONTINUOUS
 10
12.9571022785
 20
6.2902339543
 11
12.9596904661
 21
6.2999783957
  0
LINE
  5
347
100
AcDbEntity
  8
0
100
AcDbLine
 62
4
  6
CONTINUOUS
 10
12.9467495251
 20
6.2295228541
 11
12.9493377128
 21
6.2392672955
  0
LINE
  5
348
100
AcDbEntity
  8
0
100
AcDbLine
 62
4
  6
CONTINUOUS
 10
12.9674550311
 20
6.2567672823
 11
12.9622786547
 21
6.2372783983
  0
LINE
  5
349
100
AcDbEntity
  8
0
100
AcDbLine
 62
4
  6
CONTINUOUS
 10
12.941573148
 20
6.1593228618
 11
12.9441613375
 21
6.169067305
  0
LINE
  5
34A
100
AcDbEntity
  8
0
100
AcDbLine
 62
4
  6
CONTINUOUS
 10
12.9674550311
 20
6.1408561788
 11
12.9622786547
 21
6.1213672949
  0
LINE
  5
34B
100
AcDbEntity
  8
0
100
AcDbLine
 62
4
  6
CONTINUOUS
 10
12.9389849604
 20
6.3669117393
 11
12.9700432194
 21
6.4331339355
  0
LINE
  5
34C
100
AcDbEntity
  8
0
100
AcDbLine
 62
4
  6
CONTINUOUS
 10
12.0898222147
 20
6.3169094449
 11
12.0608444388
 21
6.2996005444
  0
LINE
  5
34D
100
AcDbEntity
  8
0
100
AcDbLine
 62
7
  6
CONTINUOUS
 10
8.7098152435
 20
11.1455509688
 11
13.5394446611
 21
10.8106150311
  0
LINE
  5
34E
100
AcDbEntity
  8
0
100
AcDbLine
 62
4
  6
CONTINUOUS
 10
13.26376562
 20
9.4279951773
 11
13.2682025144
 21
9.4157221672
  0
LINE
  5
34F
100
AcDbEntity
  8
0
100
AcDbLine
 62
4
  6
CONTINUOUS
 10
13.26376562
 20
9.5190681714
 11
13.2682025144
 21
9.5067951613
  0
LINE
  5
350
100
AcDbEntity
  8
0
100
AcDbLine
 62
4
  6
CONTINUOUS
 10
13.2548918318
 20
9.6843634048
 11
13.2608076908
 21
9.6459210779
  0
LINE
  5
351
100
AcDbEntity
  8
0
100
AcDbLine
 62
4
  6
CONTINUOUS
 10
13.2766832716
 20
6.8107411371
 11
13.2806258296
 21
6.8200670456
  0
LINE
  5
352
100
AcDbEntity
  8
0
100
AcDbLine
 62
4
  6
CONTINUOUS
 10
12.9622786547
 20
6.1213672949
 11
12.9545140899
 21
6.1066228569
  0
LINE
  5
353
100
AcDbEntity
  8
0
100
AcDbLine
 62
7
  6
CONTINUOUS
 10
13.2734726982
 20
6.7738717097
 11
13.2895536083
 21
6.801136648
  0
LINE
  5
354
100
AcDbEntity
  8
0
100
AcDbLine
 62
4
  6
CONTINUOUS
 10
12.9389849604
 20
6.4828228428
 11
12.9700432194
 21
6.534556151
  0
LINE
  5
355
100
AcDbEntity
  8
0
100
AcDbLine
 62
4
  6
CONTINUOUS
 10
12.9389849604
 20
6.439356179
 11
12.9700432194
 21
6.4910894872
  0
LINE
  5
356
100
AcDbEntity
  8
0
100
AcDbLine
 62
4
  6
CONTINUOUS
 10
13.2806258296
 20
6.8780225974
 11
13.2495675705
 21
6.848022621
  0
LINE
  5
357
100
AcDbEntity
  8
0
100
AcDbLine
 62
4
  6
CONTINUOUS
 10
12.9596904661
 20
6.2999783957
 11
12.9648668428
 21
6.3049783919
  0
LINE
  5
358
100
AcDbEntity
  8
0
100
AcDbLine
 62
4
  6
CONTINUOUS
 10
12.9441613375
 20
6.2270228567
 11
12.9467495251
 21
6.2295228541
  0
LINE
  5
359
100
AcDbEntity
  8
0
100
AcDbLine
 62
7
  6
CONTINUOUS
 10
13.1780785796
 20
6.1148957037
 11
12.9084443593
 21
5.8544490312
  0
LINE
  5
35A
100
AcDbEntity
  8
0
100
AcDbLine
 62
7
  6
CONTINUOUS
 10
13.838068332
 20
6.0778371871
 11
13.8434807725
 21
6.0870138977
  0
ARC
  5
35B
100
AcDbEntity
  8
0
100
AcDbCircle
 62
7
  6
CONTINUOUS
 10
14.7758663949
 20
6.3495181583
 40
1.5537394302
100
AcDbArc
 50
179.4209989215
 51
179.9979987982
  0
ARC
  5
35C
100
AcDbEntity
  8
0
100
AcDbCircle
 62
7
  6
CONTINUOUS
 10
15.2397560348
 20
6.3173473025
 40
1.5537394302
100
AcDbArc
 50
179.4209989215
 51
179.9979987982
  0
ARC
  5
35D
100
AcDbEntity
  8
0
100
AcDbCircle
 62
7
  6
CONTINUOUS
 10
15.1950865474
 20
6.3173816676
 40
1.509069942
100
AcDbArc
 50
179.9992443218
 51
180.587505047
  0
ARC
  5
35E
100
AcDbEntity
  8
0
100
AcDbCircle
 62
7
  6
CONTINUOUS
 10
14.7232458817
 20
6.349511811
 40
1.5011189173
100
AcDbArc
 50
179.9976863782
 51
180.5890629905
  0
ARC
  5
35F
100
AcDbEntity
  8
0
100
AcDbCircle
 62
7
  6
CONTINUOUS
 10
12.023339855
 20
7.2433400383
 40
0.7025893731
100
AcDbArc
 50
313.0679499558
 51
313.506071734
  0
ARC
  5
360
100
AcDbEntity
  8
0
100
AcDbCircle
 62
7
  6
CONTINUOUS
 10
9.1255622044
 20
7.4443016009
 40
0.702589373
100
AcDbArc
 50
313.0679499558
 51
313.506071734
  0
ARC
  5
361
100
AcDbEntity
  8
0
100
AcDbCircle
 62
7
  6
CONTINUOUS
 10
13.9165857923
 20
6.5520946637
 40
0.6716883829
100
AcDbArc
 50
161.222035826
 51
163.2420288103
  0
ARC
  5
362
100
AcDbEntity
  8
0
100
AcDbCircle
 62
7
  6
CONTINUOUS
 10
14.3804754322
 20
6.5199238079
 40
0.6716883829
100
AcDbArc
 50
161.222035826
 51
163.2420288103
  0
ARC
  5
363
100
AcDbEntity
  8
0
100
AcDbCircle
 62
7
  6
CONTINUOUS
 10
9.0948466706
 20
7.5176901317
 40
0.5135807431
100
AcDbArc
 50
355.9024792894
 51
357.9767548453
  0
ARC
  5
364
100
AcDbEntity
  8
0
100
AcDbCircle
 62
7
  6
CONTINUOUS
 10
11.9926243212
 20
7.316728569
 40
0.5135807431
100
AcDbArc
 50
355.9024792893
 51
357.9767548454
  0
ARC
  5
365
100
AcDbEntity
  8
0
100
AcDbCircle
 62
7
  6
CONTINUOUS
 10
12.1705385067
 20
7.5847336925
 40
0.2736289932
100
AcDbArc
 50
115.501036192
 51
133.9816031813
  0
ARC
  5
366
100
AcDbEntity
  8
0
100
AcDbCircle
 62
7
  6
CONTINUOUS
 10
9.2727608562
 20
7.7856952552
 40
0.2736289932
100
AcDbArc
 50
115.501036192
 51
133.9816031813
  0
ARC
  5
367
100
AcDbEntity
  8
0
100
AcDbCircle
 62
7
  6
CONTINUOUS
 10
12.2245574848
 20
7.5288103686
 40
0.2736215173
100
AcDbArc
 50
314.0322757692
 51
332.4694805642
  0
ARC
  5
368
100
AcDbEntity
  8
0
100
AcDbCircle
 62
7
  6
CONTINUOUS
 10
9.3267798343
 20
7.7297719312
 40
0.2736215173
100
AcDbArc
 50
314.0322757692
 51
332.4694805642
  0
SPLINE
  5
369
100
AcDbEntity
  8
0
100
AcDbSpline
 62
7
  6
CONTINUOUS
 70
0
 71
3
 72
23
 73
19
 74
0
 42
0.0000001
 43
0.0000001
 44
0.0000000001
 40
0.0
 40
0.0
 40
0.0
 40
0.0
 40
0.0778949754
 40
0.1545469041
 40
0.2297386093
 40
0.303288812
 40
0.3750194043
 40
0.444752
 40
0.5123178795
 40
0.5775566211
 40
0.6403173581
 40
0.7004579673
 40
0.7578488294
 40
0.8123723763
 40
0.8639255349
 40
0.9124222534
 40
0.9577948079
 40
1.0
 40
1.0
 40
1.0
 40
1.0
 10
13.9211850583
 20
6.5142459773
 30
0.0
 10
13.9211850583
 20
6.5204543018
 30
0.0
 10
13.921099399
 20
6.5327720681
 30
0.0
 10
13.9207083907
 20
6.5510789663
 30
0.0
 10
13.920056515
 20
6.5690320017
 30
0.0
 10
13.9191457771
 20
6.5865810514
 30
0.0
 10
13.9179787575
 20
6.603678899
 30
0.0
 10
13.9165585668
 20
6.6202789992
 30
0.0
 10
13.9148892932
 20
6.6363358816
 30
0.0
 10
13.912975392
 20
6.6518057966
 30
0.0
 10
13.9108224013
 20
6.6666466235
 30
0.0
 10
13.9084360747
 20
6.6808179696
 30
0.0
 10
13.9058232063
 20
6.6942813134
 30
0.0
 10
13.9029909635
 20
6.7070001641
 30
0.0
 10
13.8999471699
 20
6.7189401004
 30
0.0
 10
13.8967003371
 20
6.7300691299
 30
0.0
 10
13.8932592535
 20
6.7403570564
 30
0.0
 10
13.8907507879
 20
6.7468743013
 30
0.0
 10
13.8894582183
 20
6.7499798528
 30
0.0
  0
SPLINE
  5
36A
100
AcDbEntity
  8
0
100
AcDbSpline
 62
7
  6
CONTINUOUS
 70
0
 71
3
 72
9
 73
5
 74
0
 42
0.0000001
 43
0.0000001
 44
0.0000000001
 40
0.0
 40
0.0
 40
0.0
 40
0.0
 40
0.4822103164
 40
1.0
 40
1.0
 40
1.0
 40
1.0
 10
13.2806492777
 20
6.0438890617
 30
0.0
 10
13.2793746964
 20
6.0451681441
 30
0.0
 10
13.2768544915
 20
6.0479447903
 30
0.0
 10
13.2745596327
 20
6.0509083089
 30
0.0
 10
13.2734231709
 20
6.0524792881
 30
0.0
  0
SPLINE
  5
36B
100
AcDbEntity
  8
0
100
AcDbSpline
 62
7
  6
CONTINUOUS
 70
0
 71
3
 72
9
 73
5
 74
0
 42
0.0000001
 43
0.0000001
 44
0.0000000001
 40
0.0
 40
0.0
 40
0.0
 40
0.0
 40
0.5177896836
 40
1.0
 40
1.0
 40
1.0
 40
1.0
 10
13.8541987694
 20
6.826494547
 30
0.0
 10
13.8530623075
 20
6.8280655262
 30
0.0
 10
13.8507674487
 20
6.8310290448
 30
0.0
 10
13.8482472438
 20
6.833805691
 30
0.0
 10
13.8469726625
 20
6.8350847734
 30
0.0
  0
SPLINE
  5
36C
100
AcDbEntity
  8
0
100
AcDbSpline
 62
7
  6
CONTINUOUS
 70
0
 71
3
 72
23
 73
19
 74
0
 42
0.0000001
 43
0.0000001
 44
0.0000000001
 40
0.0
 40
0.0
 40
0.0
 40
0.0
 40
0.0799539121
 40
0.1579985677
 40
0.2340023766
 40
0.3078369918
 40
0.3793803625
 40
0.4485181738
 40
0.5151516569
 40
0.5792012935
 40
0.6406157324
 40
0.6993728161
 40
0.7554911552
 40
0.8090268336
 40
0.8600822496
 40
0.9088009177
 40
0.9553669497
 40
1.0
 40
1.0
 40
1.0
 40
1.0
 10
13.7445389176
 20
6.0117182059
 30
0.0
 10
13.7473672887
 20
6.0129820197
 30
0.0
 10
13.7529392326
 20
6.015518374
 30
0.0
 10
13.7611313442
 20
6.0194043145
 30
0.0
 10
13.7690413174
 20
6.0233288798
 30
0.0
 10
13.7766486875
 20
6.0272930455
 30
0.0
 10
13.7839329313
 20
6.0312974787
 30
0.0
 10
13.7908737359
 20
6.0353425919
 30
0.0
 10
13.7974515513
 20
6.0394282331
 30
0.0
 10
13.8036479556
 20
6.0435541765
 30
0.0
 10
13.8094466672
 20
6.0477191834
 30
0.0
 10
13.8148333345
 20
6.051922396
 30
0.0
 10
13.8197971479
 20
6.0561615176
 30
0.0
 10
13.8243299336
 20
6.0604348938
 30
0.0
 10
13.8284277634
 20
6.0647395793
 30
0.0
 10
13.8320900831
 20
6.0690730077
 30
0.0
 10
13.8353199679
 20
6.0734316912
 30
0.0
 10
13.8372270429
 20
6.0764105698
 30
0.0
 10
13.8381054872
 20
6.0779001946
 30
0.0
  0
SPLINE
  5
36D
100
AcDbEntity
  8
0
100
AcDbSpline
 62
7
  6
CONTINUOUS
 70
0
 71
3
 72
23
 73
19
 74
0
 42
0.0000001
 43
0.0000001
 44
0.0000000001
 40
0.0
 40
0.0
 40
0.0
 40
0.0
 40
0.0799539121
 40
0.1579985677
 40
0.2340023766
 40
0.3078369918
 40
0.3793803625
 40
0.4485181738
 40
0.5151516569
 40
0.5792012935
 40
0.6406157324
 40
0.6993728161
 40
0.7554911552
 40
0.8090268336
 40
0.8600822496
 40
0.9088009177
 40
0.9553669497
 40
1.0
 40
1.0
 40
1.0
 40
1.0
 10
13.3830830226
 20
6.8672556292
 30
0.0
 10
13.3802546515
 20
6.8659918154
 30
0.0
 10
13.3746827076
 20
6.8634554611
 30
0.0
 10
13.366490596
 20
6.8595695206
 30
0.0
 10
13.3585806229
 20
6.8556449554
 30
0.0
 10
13.3509732528
 20
6.8516807896
 30
0.0
 10
13.343689009
 20
6.8476763564
 30
0.0
 10
13.3367482043
 20
6.8436312432
 30
0.0
 10
13.3301703889
 20
6.839545602
 30
0.0
 10
13.3239739846
 20
6.8354196586
 30
0.0
 10
13.3181752731
 20
6.8312546517
 30
0.0
 10
13.3127886058
 20
6.8270514391
 30
0.0
 10
13.3078247924
 20
6.8228123175
 30
0.0
 10
13.3032920066
 20
6.8185389413
 30
0.0
 10
13.2991941769
 20
6.8142342558
 30
0.0
 10
13.2955318571
 20
6.8099008274
 30
0.0
 10
13.2923019724
 20
6.8055421439
 30
0.0
 10
13.2903948974
 20
6.8025632653
 30
0.0
 10
13.2895164531
 20
6.8010736405
 30
0.0
  0
SPLINE
  5
36E
100
AcDbEntity
  8
0
100
AcDbSpline
 62
7
  6
CONTINUOUS
 70
0
 71
3
 72
9
 73
5
 74
0
 42
0.0000001
 43
0.0000001
 44
0.0000000001
 40
0.0
 40
0.0
 40
0.0
 40
0.0
 40
0.4956768744
 40
1.0
 40
1.0
 40
1.0
 40
1.0
 10
13.2469013722
 20
6.108001088
 30
0.0
 10
13.2508109386
 20
6.0986131905
 30
0.0
 10
13.2592387098
 20
6.0798958781
 30
0.0
 10
13.2685483981
 20
6.0616058028
 30
0.0
 10
13.2734231709
 20
6.0524792881
 30
0.0
  0
SPLINE
  5
36F
100
AcDbEntity
  8
0
100
AcDbSpline
 62
7
  6
CONTINUOUS
 70
0
 71
3
 72
9
 73
5
 74
0
 42
0.0000001
 43
0.0000001
 44
0.0000000001
 40
0.0
 40
0.0
 40
0.0
 40
0.0
 40
0.4956768744
 40
1.0
 40
1.0
 40
1.0
 40
1.0
 10
13.8807205681
 20
6.7709727472
 30
0.0
 10
13.8768110017
 20
6.7803606446
 30
0.0
 10
13.8683832305
 20
6.799077957
 30
0.0
 10
13.8590735421
 20
6.8173680324
 30
0.0
 10
13.8541987694
 20
6.826494547
 30
0.0
  0
SPLINE
  5
370
100
AcDbEntity
  8
0
100
AcDbSpline
 62
7
  6
CONTINUOUS
 70
0
 71
3
 72
29
 73
25
 74
0
 42
0.0000001
 43
0.0000001
 44
0.0000000001
 40
0.0
 40
0.0
 40
0.0
 40
0.0
 40
0.0188525602
 40
0.0388799625
 40
0.0600713024
 40
0.0824085828
 40
0.105869406
 40
0.1304258953
 40
0.1560468224
 40
0.1826967245
 40
0.2103372984
 40
0.2389270066
 40
0.2684217133
 40
0.2987748608
 40
0.3618570244
 40
0.4277606989
 40
0.4960437044
 40
0.5662415177
 40
0.6378722095
 40
0.7104407708
 40
0.7834443136
 40
0.8563749661
 40
0.9287281759
 40
1.0
 40
1.0
 40
1.0
 40
1.0
 10
13.8434797774
 20
6.0870122179
 30
0.0
 10
13.844877682
 20
6.0893823109
 30
0.0
 10
13.8476527114
 20
6.094334368
 30
0.0
 10
13.8516475351
 20
6.1021410594
 30
0.0
 10
13.8555934983
 20
6.1105380623
 30
0.0
 10
13.8594835556
 20
6.1195098082
 30
0.0
 10
13.863310215
 20
6.1290400348
 30
0.0
 10
13.8670666588
 20
6.1391111821
 30
0.0
 10
13.8707456563
 20
6.1497047797
 30
0.0
 10
13.874340561
 20
6.1608012755
 30
0.0
 10
13.8778445429
 20
6.1723802219
 30
0.0
 10
13.8812511575
 20
6.1844202195
 30
0.0
 10
13.884554075
 20
6.1968990428
 30
0.0
 10
13.8888667973
 20
6.2143159642
 30
0.0
 10
13.8939377391
 20
6.2370164335
 30
0.0
 10
13.8994429602
 20
6.2652809085
 30
0.0
 10
13.9044023706
 20
6.2946998496
 30
0.0
 10
13.9087789295
 20
6.325055619
 30
0.0
 10
13.9125399205
 20
6.356123798
 30
0.0
 10
13.9156573353
 20
6.3876745714
 30
0.0
 10
13.9181079343
 20
6.4194743754
 30
0.0
 10
13.9198736407
 20
6.4512881271
 30
0.0
 10
13.9209413167
 20
6.482879931
 30
0.0
 10
13.9211850583
 20
6.5038434737
 30
0.0
 10
13.9211850583
 20
6.5142459773
 30
0.0
  0
SPLINE
  5
371
100
AcDbEntity
  8
0
100
AcDbSpline
 62
7
  6
CONTINUOUS
 70
0
 71
3
 72
9
 73
5
 74
0
 42
0.0000001
 43
0.0000001
 44
0.0000000001
 40
0.0
 40
0.0
 40
0.0
 40
0.0
 40
0.5177896836
 40
1.0
 40
1.0
 40
1.0
 40
1.0
 10
13.7373128108
 20
6.0203084324
 30
0.0
 10
13.7384492726
 20
6.0187374531
 30
0.0
 10
13.7407441314
 20
6.0157739345
 30
0.0
 10
13.7432643364
 20
6.0129972883
 30
0.0
 10
13.7445389176
 20
6.0117182059
 30
0.0
  0
SPLINE
  5
372
100
AcDbEntity
  8
0
100
AcDbSpline
 62
7
  6
CONTINUOUS
 70
0
 71
3
 72
55
 73
51
 74
0
 42
0.0000001
 43
0.0000001
 44
0.0000000001
 40
0.0
 40
0.0
 40
0.0
 40
0.0
 40
0.0544606012
 40
0.1080339563
 40
0.1605637266
 40
0.2119190479
 40
0.2619708871
 40
0.310590429
 40
0.3576562962
 40
0.4030530409
 40
0.4466722383
 40
0.4884123758
 40
0.5281808135
 40
0.565894574
 40
0.6014810037
 40
0.6348809106
 40
0.6660488795
 40
0.6949582794
 40
0.7085646552
 40
0.7216067715
 40
0.7340881894
 40
0.7460147644
 40
0.7573953404
 40
0.7682414019
 40
0.7785675957
 40
0.7883929633
 40
0.7977410802
 40
0.8066404227
 40
0.8151254952
 40
0.8232376334
 40
0.83102496
 40
0.8385427168
 40
0.8458533261
 40
0.8530251343
 40
0.8601308129
 40
0.8672453342
 40
0.8744433165
 40
0.8817966073
 40
0.889372346
 40
0.8972312002
 40
0.9054267708
 40
0.9140056907
 40
0.9230075575
 40
0.9324652759
 40
0.9424062614
 40
0.9528530692
 40
0.9638233773
 40
0.9753311355
 40
0.98738736
 40
1.0
 40
1.0
 40
1.0
 40
1.0
 10
13.7288826665
 20
6.3284961196
 30
0.0
 10
13.7288826665
 20
6.3221802417
 30
0.0
 10
13.7289712987
 20
6.3096511814
 30
0.0
 10
13.7293760012
 20
6.2910341024
 30
0.0
 10
13.7300506699
 20
6.2727851346
 30
0.0
 10
13.7309931846
 20
6.2549569521
 30
0.0
 10
13.7322007466
 20
6.2375992363
 30
0.0
 10
13.7336700648
 20
6.2207609307
 30
0.0
 10
13.7353967244
 20
6.2044897624
 30
0.0
 10
13.7373759496
 20
6.1888316117
 30
0.0
 10
13.7396018618
 20
6.173830604
 30
0.0
 10
13.7420681947
 20
6.159528997
 30
0.0
 10
13.7447678231
 20
6.1459670095
 30
0.0
 10
13.7476929054
 20
6.133182664
 30
0.0
 10
13.7508352546
 20
6.1212117386
 30
0.0
 10
13.7541856185
 20
6.1100873887
 30
0.0
 10
13.7577348122
 20
6.0998406925
 30
0.0
 10
13.7609106449
 20
6.09190301
 30
0.0
 10
13.7635553383
 20
6.0860267809
 30
0.0
 10
13.7655420463
 20
6.0819459796
 30
0.0
 10
13.7675707974
 20
6.0781048262
 30
0.0
 10
13.7696403223
 20
6.0745060128
 30
0.0
 10
13.7717491099
 20
6.0711519347
 30
0.0
 10
13.7738957702
 20
6.0680448778
 30
0.0
 10
13.7760790517
 20
6.0651870817
 30
0.0
 10
13.7782975222
 20
6.0625804705
 30
0.0
 10
13.7805497832
 20
6.060226795
 30
0.0
 10
13.7828345998
 20
6.0581278505
 30
0.0
 10
13.7851507276
 20
6.0562853567
 30
0.0
 10
13.7874967349
 20
6.0547007428
 30
0.0
 10
13.7898712515
 20
6.0533755517
 30
0.0
 10
13.792272827
 20
6.0523115285
 30
0.0
 10
13.7946995804
 20
6.0515099936
 30
0.0
 10
13.7971493933
 20
6.0509720745
 30
0.0
 10
13.7996199036
 20
6.0506988273
 30
0.0
 10
13.8021084786
 20
6.0506907269
 30
0.0
 10
13.8046124908
 20
6.0509473777
 30
0.0
 10
13.8071295136
 20
6.0514681695
 30
0.0
 10
13.8096572897
 20
6.0522523071
 30
0.0
 10
13.8121939328
 20
6.0532983713
 30
0.0
 10
13.8147377867
 20
6.0546049833
 30
0.0
 10
13.8172872226
 20
6.0561709368
 30
0.0
 10
13.8198407004
 20
6.0579948414
 30
0.0
 10
13.8223967986
 20
6.0600750933
 30
0.0
 10
13.8249539561
 20
6.0624102047
 30
0.0
 10
13.8275104835
 20
6.0649986309
 30
0.0
 10
13.8300648491
 20
6.067838446
 30
0.0
 10
13.8326154195
 20
6.0709276766
 30
0.0
 10
13.8351603845
 20
6.0742642408
 30
0.0
 10
13.8368146791
 20
6.0765991042
 30
0.0
 10
13.8376414114
 20
6.0778057629
 30
0.0
  0
LINE
  5
373
100
AcDbEntity
  8
0
100
AcDbLine
 62
7
  6
CONTINUOUS
 10
13.8376414114
 20
6.0778057629
 11
13.8434797774
 21
6.0870122179
  0
SPLINE
  5
374
100
AcDbEntity
  8
0
100
AcDbSpline
 62
7
  6
CONTINUOUS
 70
0
 71
3
 72
23
 73
19
 74
0
 42
0.0000001
 43
0.0000001
 44
0.0000000001
 40
0.0
 40
0.0
 40
0.0
 40
0.0
 40
0.0431091689
 40
0.0866016053
 40
0.1309766141
 40
0.1768215521
 40
0.2247745167
 40
0.2754748706
 40
0.3295067277
 40
0.3873496908
 40
0.4493454685
 40
0.5156840828
 40
0.5864086894
 40
0.6614347262
 40
0.740577966
 40
0.8235849811
 40
0.9101632441
 40
1.0
 40
1.0
 40
1.0
 40
1.0
 10
13.8469726625
 20
6.8350847734
 30
0.0
 10
13.8469844272
 20
6.8329209725
 30
0.0
 10
13.8468054751
 20
6.828569707
 30
0.0
 10
13.8458666588
 20
6.8220509381
 30
0.0
 10
13.8441927522
 20
6.8155371724
 30
0.0
 10
13.8417232308
 20
6.8090408049
 30
0.0
 10
13.8384053319
 20
6.8025750821
 30
0.0
 10
13.8341976299
 20
6.7961535923
 30
0.0
 10
13.829072579
 20
6.7897883257
 30
0.0
 10
13.8230179657
 20
6.7834891739
 30
0.0
 10
13.8160376546
 20
6.7772639488
 30
0.0
 10
13.8081514921
 20
6.7711185917
 30
0.0
 10
13.7993940685
 20
6.7650572781
 30
0.0
 10
13.7898123072
 20
6.7590824075
 30
0.0
 10
13.7794621965
 20
6.7531946266
 30
0.0
 10
13.7684050519
 20
6.7473929887
 30
0.0
 10
13.7567044188
 20
6.7416752644
 30
0.0
 10
13.7486558985
 20
6.737980977
 30
0.0
 10
13.7445389176
 20
6.7361413679
 30
0.0
  0
SPLINE
  5
375
100
AcDbEntity
  8
0
100
AcDbSpline
 62
7
  6
CONTINUOUS
 70
0
 71
3
 72
22
 73
18
 74
0
 42
0.0000001
 43
0.0000001
 44
0.0000000001
 40
0.0
 40
0.0
 40
0.0
 40
0.0
 40
0.1231347621
 40
0.1848657605
 40
0.246717986
 40
0.3087023676
 40
0.3708287409
 40
0.4331045428
 40
0.4955342565
 40
0.5581189534
 40
0.6208560874
 40
0.6837396854
 40
0.7467609836
 40
0.809909444
 40
0.8731731833
 40
0.9365410292
 40
1.0
 40
1.0
 40
1.0
 40
1.0
 10
13.7373128108
 20
6.7135913741
 30
0.0
 10
13.7394269104
 20
6.6977668799
 30
0.0
 10
13.7420132894
 20
6.6739221443
 30
0.0
 10
13.7440479951
 20
6.6419946095
 30
0.0
 10
13.7448088991
 20
6.6179421718
 30
0.0
 10
13.7447460667
 20
6.5938262182
 30
0.0
 10
13.7438104849
 20
6.5696728058
 30
0.0
 10
13.7419651607
 20
6.5455135772
 30
0.0
 10
13.7391885045
 20
6.5213836111
 30
0.0
 10
13.7354764171
 20
6.497319271
 30
0.0
 10
13.7308428066
 20
6.4733555755
 30
0.0
 10
13.7253183563
 20
6.4495237645
 30
0.0
 10
13.7189478213
 20
6.4258493757
 30
0.0
 10
13.7117863668
 20
6.4023512267
 30
0.0
 10
13.7038953272
 20
6.3790410922
 30
0.0
 10
13.6953387401
 20
6.3559247831
 30
0.0
 10
13.6892369369
 20
6.3406529671
 30
0.0
 10
13.6860959383
 20
6.3330483106
 30
0.0
  0
SPLINE
  5
376
100
AcDbEntity
  8
0
100
AcDbSpline
 62
7
  6
CONTINUOUS
 70
0
 71
3
 72
22
 73
18
 74
0
 42
0.0000001
 43
0.0000001
 44
0.0000000001
 40
0.0
 40
0.0
 40
0.0
 40
0.0
 40
0.0634589708
 40
0.1268268167
 40
0.190090556
 40
0.2532390164
 40
0.3162603147
 40
0.3791439126
 40
0.4418810467
 40
0.5044657436
 40
0.5668954573
 40
0.6291712591
 40
0.6912976325
 40
0.7532820141
 40
0.8151342396
 40
0.8768652379
 40
1.0
 40
1.0
 40
1.0
 40
1.0
 10
13.2734231709
 20
6.7457622299
 30
0.0
 10
13.2702821723
 20
6.7381575733
 30
0.0
 10
13.2641803691
 20
6.7228857574
 30
0.0
 10
13.255623782
 20
6.6997694483
 30
0.0
 10
13.2477327424
 20
6.6764593138
 30
0.0
 10
13.2405712879
 20
6.6529611648
 30
0.0
 10
13.2342007529
 20
6.6292867759
 30
0.0
 10
13.2286763026
 20
6.6054549649
 30
0.0
 10
13.2240426921
 20
6.5814912694
 30
0.0
 10
13.2203306047
 20
6.5574269294
 30
0.0
 10
13.2175539485
 20
6.5332969632
 30
0.0
 10
13.2157086243
 20
6.5091377346
 30
0.0
 10
13.2147730425
 20
6.4849843222
 30
0.0
 10
13.2147102101
 20
6.4608683687
 30
0.0
 10
13.2154711141
 20
6.436815931
 30
0.0
 10
13.2175058198
 20
6.4048883962
 30
0.0
 10
13.2200921988
 20
6.3810436606
 30
0.0
 10
13.2222062984
 20
6.3652191664
 30
0.0
  0
SPLINE
  5
377
100
AcDbEntity
  8
0
100
AcDbSpline
 62
7
  6
CONTINUOUS
 70
0
 71
3
 72
23
 73
19
 74
0
 42
0.0000001
 43
0.0000001
 44
0.0000000001
 40
0.0
 40
0.0
 40
0.0
 40
0.0
 40
0.0680814948
 40
0.1354514848
 40
0.202052971
 40
0.2678386946
 40
0.332772636
 40
0.3968364341
 40
0.4600333437
 40
0.5223909125
 40
0.5839607487
 40
0.6448152184
 40
0.7050416456
 40
0.7647352286
 40
0.8239920576
 40
0.8829026588
 40
0.9415491001
 40
1.0
 40
1.0
 40
1.0
 40
1.0
 10
13.6860959383
 20
6.3019080904
 30
0.0
 10
13.6892235488
 20
6.2960526005
 30
0.0
 10
13.6952984826
 20
6.2843230573
 30
0.0
 10
13.7038547887
 20
6.2665732055
 30
0.0
 10
13.7117467158
 20
6.2487618145
 30
0.0
 10
13.7189104106
 20
6.2309001294
 30
0.0
 10
13.7252846164
 20
6.2130032845
 30
0.0
 10
13.730814043
 20
6.1950908278
 30
0.0
 10
13.7354535674
 20
6.17718617
 30
0.0
 10
13.7391719407
 20
6.1593155466
 30
0.0
 10
13.7419546061
 20
6.1415063691
 30
0.0
 10
13.7438050805
 20
6.1237852614
 30
0.0
 10
13.7447445751
 20
6.1061760852
 30
0.0
 10
13.744809947
 20
6.0886983013
 30
0.0
 10
13.7440503704
 20
6.0713660549
 30
0.0
 10
13.7425231565
 20
6.0541877578
 30
0.0
 10
13.7402899886
 20
6.037167182
 30
0.0
 10
13.738369708
 20
6.0259089547
 30
0.0
 10
13.7373128108
 20
6.0203084324
 30
0.0
  0
SPLINE
  5
378
100
AcDbEntity
  8
0
100
AcDbSpline
 62
7
  6
CONTINUOUS
 70
0
 71
3
 72
21
 73
17
 74
0
 42
0.0000001
 43
0.0000001
 44
0.0000000001
 40
0.0
 40
0.0
 40
0.0
 40
0.0
 40
0.1192298345
 40
0.179119619
 40
0.2392530977
 40
0.2996859259
 40
0.3604786898
 40
0.4216948267
 40
0.4833976053
 40
0.5456481574
 40
0.6085013995
 40
0.6720031548
 40
0.736188529
 40
0.8010795454
 40
0.8666852359
 40
1.0
 40
1.0
 40
1.0
 40
1.0
 10
13.2222062984
 20
6.3340789462
 30
0.0
 10
13.2205040508
 20
6.3250586971
 30
0.0
 10
13.2183299568
 20
6.3114293258
 30
0.0
 10
13.21631924
 20
6.2931167174
 30
0.0
 10
13.2152822413
 20
6.2792591037
 30
0.0
 10
13.2147502347
 20
6.2653032476
 30
0.0
 10
13.2147525458
 20
6.2512535492
 30
0.0
 10
13.2153153484
 20
6.2371170545
 30
0.0
 10
13.2164593482
 20
6.2229029247
 30
0.0
 10
13.2181998768
 20
6.2086223939
 30
0.0
 10
13.2205452472
 20
6.1942883306
 30
0.0
 10
13.2234955863
 20
6.1799144764
 30
0.0
 10
13.2270442559
 20
6.1655151731
 30
0.0
 10
13.2311772726
 20
6.1511040645
 30
0.0
 10
13.2374720735
 20
6.131790062
 30
0.0
 10
13.2429555045
 20
6.1174761543
 30
0.0
 10
13.2469013722
 20
6.108001088
 30
0.0
  0
SPLINE
  5
379
100
AcDbEntity
  8
0
100
AcDbSpline
 62
7
  6
CONTINUOUS
 70
0
 71
3
 72
30
 73
26
 74
0
 42
0.0000001
 43
0.0000001
 44
0.0000000001
 40
0.0
 40
0.0
 40
0.0
 40
0.0
 40
0.0188524881
 40
0.0388802907
 40
0.0600715525
 40
0.0824091464
 40
0.1058699294
 40
0.130426595
 40
0.1560475611
 40
0.1826974987
 40
0.2103381615
 40
0.2389277915
 40
0.2684226222
 40
0.2987756299
 40
0.3299382897
 40
0.3618593707
 40
0.4277629358
 40
0.4960457747
 40
0.566243363
 40
0.6378738
 40
0.7104420277
 40
0.7834453501
 40
0.8563754172
 40
0.9287288036
 40
1.0
 40
1.0
 40
1.0
 40
1.0
 10
13.2734727991
 20
6.7738718069
 30
0.0
 10
13.2721539319
 20
6.7716356984
 30
0.0
 10
13.2695357025
 20
6.7669635677
 30
0.0
 10
13.2657668976
 20
6.7595980514
 30
0.0
 10
13.2620438693
 20
6.7516756962
 30
0.0
 10
13.2583738775
 20
6.7432110223
 30
0.0
 10
13.2547634633
 20
6.7342195039
 30
0.0
 10
13.2512194684
 20
6.7247176148
 30
0.0
 10
13.2477484386
 20
6.7147228391
 30
0.0
 10
13.2443567818
 20
6.7042535938
 30
0.0
 10
13.2410509387
 20
6.6933291817
 30
0.0
 10
13.2378368691
 20
6.6819697895
 30
0.0
 10
13.2347207874
 20
6.67019639
 30
0.0
 10
13.2317082447
 20
6.6580307791
 30
0.0
 10
13.2288050631
 20
6.6454954329
 30
0.0
 10
13.225047045
 20
6.6281348817
 30
0.0
 10
13.2206736815
 20
6.6056801045
 30
0.0
 10
13.2159946303
 20
6.5779244294
 30
0.0
 10
13.211865537
 20
6.5492847103
 30
0.0
 10
13.2083171943
 20
6.5199729332
 30
0.0
 10
13.2053760345
 20
6.4902058292
 30
0.0
 10
13.2030640038
 20
6.4602038218
 30
0.0
 10
13.2013981113
 20
6.4301885863
 30
0.0
 10
13.2003908166
 20
6.4003828071
 30
0.0
 10
13.2001608484
 20
6.3806043946
 30
0.0
 10
13.2001608484
 20
6.3707900303
 30
0.0
  0
SPLINE
  5
37A
100
AcDbEntity
  8
0
100
AcDbSpline
 62
7
  6
CONTINUOUS
 70
0
 71
3
 72
15
 73
11
 74
0
 42
0.0000001
 43
0.0000001
 44
0.0000000001
 40
0.0
 40
0.0
 40
0.0
 40
0.0
 40
0.134872502
 40
0.2655437471
 40
0.3927334107
 40
0.5171576974
 40
0.6394968109
 40
0.7603850033
 40
0.8803886888
 40
1.0
 40
1.0
 40
1.0
 40
1.0
 10
13.2895164531
 20
6.8010736405
 30
0.0
 10
13.2887317075
 20
6.7997429056
 30
0.0
 10
13.2872720671
 20
6.7970712316
 30
0.0
 10
13.2853906431
 20
6.792981182
 30
0.0
 10
13.283843548
 20
6.7888807961
 30
0.0
 10
13.282616787
 20
6.7847731224
 30
0.0
 10
13.2816957388
 20
6.7806604012
 30
0.0
 10
13.2810646808
 20
6.7765447518
 30
0.0
 10
13.28070771
 20
6.7724281231
 30
0.0
 10
13.2806418287
 20
6.7696822837
 30
0.0
 10
13.2806492777
 20
6.7683122237
 30
0.0
  0
SPLINE
  5
37B
100
AcDbEntity
  8
0
100
AcDbSpline
 62
7
  6
CONTINUOUS
 70
0
 71
3
 72
23
 73
19
 74
0
 42
0.0000001
 43
0.0000001
 44
0.0000000001
 40
0.0
 40
0.0
 40
0.0
 40
0.0
 40
0.0422048562
 40
0.0875775257
 40
0.1360738506
 40
0.1876271774
 40
0.2421504397
 40
0.2995414188
 40
0.3596819421
 40
0.4224427219
 40
0.4876814714
 40
0.5552473683
 40
0.6249802365
 40
0.6967106868
 40
0.7702606895
 40
0.8454530136
 40
0.9221057941
 40
1.0
 40
1.0
 40
1.0
 40
1.0
 10
13.2300945088
 20
6.1483810327
 30
0.0
 10
13.2288750292
 20
6.1513110273
 30
0.0
 10
13.2265082422
 20
6.1574598243
 30
0.0
 10
13.2232617655
 20
6.1671662132
 30
0.0
 10
13.2201983329
 20
6.1776661285
 30
0.0
 10
13.217326671
 20
6.1889311437
 30
0.0
 10
13.2146544253
 20
6.2009310406
 30
0.0
 10
13.2121892909
 20
6.2136333599
 30
0.0
 10
13.2099378083
 20
6.2270036699
 30
0.0
 10
13.2079065124
 20
6.2410056181
 30
0.0
 10
13.2061007918
 20
6.2556011023
 30
0.0
 10
13.2045258425
 20
6.2707503906
 30
0.0
 10
13.2031859499
 20
6.2864121849
 30
0.0
 10
13.202084862
 20
6.3025435708
 30
0.0
 10
13.2012256124
 20
6.3191006838
 30
0.0
 10
13.2006105694
 20
6.3360390208
 30
0.0
 10
13.2002416756
 20
6.3533111766
 30
0.0
 10
13.2001608484
 20
6.3649326885
 30
0.0
 10
13.2001608484
 20
6.3707900303
 30
0.0
  0
SPLINE
  5
37C
100
AcDbEntity
  8
0
100
AcDbSpline
 62
7
  6
CONTINUOUS
 70
0
 71
3
 72
11
 73
7
 74
0
 42
0.0000001
 43
0.0000001
 44
0.0000000001
 40
0.0
 40
0.0
 40
0.0
 40
0.0
 40
0.2712281127
 40
0.5282146254
 40
0.7710695329
 40
1.0
 40
1.0
 40
1.0
 40
1.0
 10
13.8894582183
 20
6.7499798528
 30
0.0
 10
13.8886652601
 20
6.7518850287
 30
0.0
 10
13.8870591513
 20
6.7555700916
 30
0.0
 10
13.8845126637
 20
6.760856908
 30
0.0
 10
13.8818966514
 20
6.7657477331
 30
0.0
 10
13.8800543832
 20
6.7688305707
 30
0.0
 10
13.8791200112
 20
6.7703005318
 30
0.0
  0
SPLINE
  5
37D
100
AcDbEntity
  8
0
100
AcDbSpline
 62
7
  6
CONTINUOUS
 70
0
 71
3
 72
55
 73
51
 74
0
 42
0.0000001
 43
0.0000001
 44
0.0000000001
 40
0.0
 40
0.0
 40
0.0
 40
0.0
 40
0.009105436
 40
0.017660033
 40
0.0256893907
 40
0.0332269899
 40
0.0403154811
 40
0.04700882
 40
0.0533726716
 40
0.0594849784
 40
0.0654349455
 40
0.0713197711
 40
0.0772402463
 40
0.0832951485
 40
0.0895764625
 40
0.0961655731
 40
0.0995987454
 40
0.1031338465
 40
0.1105345794
 40
0.1184155056
 40
0.1268127722
 40
0.1357541204
 40
0.1452599255
 40
0.1553452266
 40
0.1660198851
 40
0.177289651
 40
0.1891573055
 40
0.20162218
 40
0.2146813756
 40
0.2283300189
 40
0.2425608301
 40
0.2573653062
 40
0.2727332916
 40
0.3051105774
 40
0.339587453
 40
0.3760402977
 40
0.4143308653
 40
0.4543085242
 40
0.4958119732
 40
0.5386705274
 40
0.5827052914
 40
0.6277306911
 40
0.6735556161
 40
0.7199844058
 40
0.7668179002
 40
0.8138551581
 40
0.8608938344
 40
0.9077300605
 40
0.9541681517
 40
1.0
 40
1.0
 40
1.0
 40
1.0
 10
13.8791200112
 20
6.7703005318
 30
0.0
 10
13.8782493471
 20
6.7716702671
 30
0.0
 10
13.8764919455
 20
6.7742842491
 30
0.0
 10
13.873711973
 20
6.7779266869
 30
0.0
 10
13.870874542
 20
6.781162164
 30
0.0
 10
13.8679822543
 20
6.7839869255
 30
0.0
 10
13.8650371296
 20
6.7863971552
 30
0.0
 10
13.862041713
 20
6.7883894766
 30
0.0
 10
13.8589984768
 20
6.7899600338
 30
0.0
 10
13.8559106542
 20
6.7911046144
 30
0.0
 10
13.8527828973
 20
6.7918199714
 30
0.0
 10
13.84962087
 20
6.7921031578
 30
0.0
 10
13.8464312068
 20
6.7919534654
 30
0.0
 10
13.8432201279
 20
6.7913724294
 30
0.0
 10
13.8399932118
 20
6.7903624053
 30
0.0
 10
13.837330834
 20
6.7891825173
 30
0.0
 10
13.8352011813
 20
6.7880387988
 30
0.0
 10
13.8330051431
 20
6.7867189057
 30
0.0
 10
13.8302531526
 20
6.784793597
 30
0.0
 10
13.8269967793
 20
6.7821023615
 30
0.0
 10
13.8237400277
 20
6.7789988659
 30
0.0
 10
13.8204862435
 20
6.7754867775
 30
0.0
 10
13.8172383667
 20
6.7715700971
 30
0.0
 10
13.8139999977
 20
6.7672529697
 30
0.0
 10
13.8107745036
 20
6.7625402227
 30
0.0
 10
13.807565321
 20
6.7574371145
 30
0.0
 10
13.8043762342
 20
6.7519492213
 30
0.0
 10
13.8012106434
 20
6.7460827965
 30
0.0
 10
13.7980721767
 20
6.739844424
 30
0.0
 10
13.7949645343
 20
6.7332411127
 30
0.0
 10
13.791891086
 20
6.7262804268
 30
0.0
 10
13.7888554457
 20
6.718970226
 30
0.0
 10
13.7847921668
 20
6.708586892
 30
0.0
 10
13.7798493715
 20
6.6947858361
 30
0.0
 10
13.7742206058
 20
6.6772498729
 30
0.0
 10
13.7688219965
 20
6.6585422956
 30
0.0
 10
13.7636784762
 20
6.6387486012
 30
0.0
 10
13.7588138719
 20
6.6179590766
 30
0.0
 10
13.7542507306
 20
6.5962687591
 30
0.0
 10
13.7500101833
 20
6.5737768912
 30
0.0
 10
13.7461117716
 20
6.5505864917
 30
0.0
 10
13.7425734931
 20
6.52680381
 30
0.0
 10
13.7394117082
 20
6.5025378206
 30
0.0
 10
13.7366409958
 20
6.4778997749
 30
0.0
 10
13.7342740527
 20
6.4530026201
 30
0.0
 10
13.7323217851
 20
6.4279604925
 30
0.0
 10
13.7307932362
 20
6.4028884532
 30
0.0
 10
13.7296952224
 20
6.3779007365
 30
0.0
 10
13.7290330183
 20
6.3531129208
 30
0.0
 10
13.7288826665
 20
6.3366655827
 30
0.0
 10
13.7288826665
 20
6.3284961196
 30
0.0
  0
SPLINE
  5
37E
100
AcDbEntity
  8
0
100
AcDbSpline
 62
7
  6
CONTINUOUS
 70
0
 71
3
 72
17
 73
13
 74
0
 42
0.0000001
 43
0.0000001
 44
0.0000000001
 40
0.0
 40
0.0
 40
0.0
 40
0.0
 40
0.1504734045
 40
0.2917303627
 40
0.4244677363
 40
0.4879386768
 40
0.549641363
 40
0.6683009281
 40
0.7818340625
 40
0.8918017795
 40
0.9460163297
 40
1.0
 40
1.0
 40
1.0
 40
1.0
 10
13.0947938945
 20
6.8125022362
 30
0.0
 10
13.0957904041
 20
6.8134647906
 30
0.0
 10
13.0977821193
 20
6.8152708453
 30
0.0
 10
13.1008660551
 20
6.8176776929
 30
0.0
 10
13.1034710021
 20
6.8193799418
 30
0.0
 10
13.1055482062
 20
6.8205326599
 30
0.0
 10
13.1075642348
 20
6.8215223056
 30
0.0
 10
13.1100852684
 20
6.8225222634
 30
0.0
 10
13.1131370243
 20
6.8233343888
 30
0.0
 10
13.1156795812
 20
6.8236738481
 30
0.0
 10
13.117688503
 20
6.8237383673
 30
0.0
 10
13.1186850453
 20
6.8237031428
 30
0.0
 10
13.1191809062
 20
6.8236687588
 30
0.0
  0
SPLINE
  5
37F
100
AcDbEntity
  8
0
100
AcDbSpline
 62
7
  6
CONTINUOUS
 70
0
 71
3
 72
23
 73
19
 74
0
 42
0.0000001
 43
0.0000001
 44
0.0000000001
 40
0.0
 40
0.0
 40
0.0
 40
0.0
 40
0.0637767638
 40
0.1273450118
 40
0.1907019674
 40
0.2538561101
 40
0.3168132145
 40
0.3795820843
 40
0.4421733868
 40
0.5045993403
 40
0.5668738673
 40
0.6290123789
 40
0.6910316481
 40
0.752949645
 40
0.8147853545
 40
0.8765586015
 40
0.9382898522
 40
1.0
 40
1.0
 40
1.0
 40
1.0
 10
10.7940327052
 20
9.925640836
 30
0.0
 10
10.7940327052
 20
9.9198550771
 30
0.0
 10
10.7937557587
 20
9.9083005158
 30
0.0
 10
10.7925058498
 20
9.8910389785
 30
0.0
 10
10.7904247004
 20
9.8739142491
 30
0.0
 10
10.787517324
 20
9.8569665811
 30
0.0
 10
10.7837901953
 20
9.84023469
 30
0.0
 10
10.7792519456
 20
9.8237572549
 30
0.0
 10
10.7739130158
 20
9.8075722374
 30
0.0
 10
10.7677856524
 20
9.7917169634
 30
0.0
 10
10.7608839249
 20
9.7762280167
 30
0.0
 10
10.7532237514
 20
9.7611411084
 30
0.0
 10
10.7448227811
 20
9.746491036
 30
0.0
 10
10.7357003447
 20
9.7323115952
 30
0.0
 10
10.7258774657
 20
9.7186355498
 30
0.0
 10
10.7153767065
 20
9.7054943233
 30
0.0
 10
10.7042227068
 20
9.6929186295
 30
0.0
 10
10.6963668559
 20
9.6849297442
 30
0.0
 10
10.6923402674
 20
9.6810403616
 30
0.0
  0
SPLINE
  5
380
100
AcDbEntity
  8
0
100
AcDbSpline
 62
7
  6
CONTINUOUS
 70
0
 71
3
 72
23
 73
19
 74
0
 42
0.0000001
 43
0.0000001
 44
0.0000000001
 40
0.0
 40
0.0
 40
0.0
 40
0.0
 40
0.0637767638
 40
0.1273450118
 40
0.1907019674
 40
0.2538561101
 40
0.3168132145
 40
0.3795820843
 40
0.4421733868
 40
0.5045993403
 40
0.5668738673
 40
0.6290123789
 40
0.6910316481
 40
0.752949645
 40
0.8147853545
 40
0.8765586015
 40
0.9382898522
 40
1.0
 40
1.0
 40
1.0
 40
1.0
 10
9.0147971053
 20
9.022252036
 30
0.0
 10
9.0147971053
 20
9.0164662771
 30
0.0
 10
9.0145201587
 20
9.0049117158
 30
0.0
 10
9.0132702498
 20
8.9876501785
 30
0.0
 10
9.0111891004
 20
8.9705254491
 30
0.0
 10
9.008281724
 20
8.9535777811
 30
0.0
 10
9.0045545953
 20
8.9368458899
 30
0.0
 10
9.0000163457
 20
8.9203684549
 30
0.0
 10
8.9946774158
 20
8.9041834374
 30
0.0
 10
8.9885500524
 20
8.8883281634
 30
0.0
 10
8.9816483249
 20
8.8728392167
 30
0.0
 10
8.9739881514
 20
8.8577523084
 30
0.0
 10
8.9655871812
 20
8.843102236
 30
0.0
 10
8.9564647448
 20
8.8289227952
 30
0.0
 10
8.9466418658
 20
8.8152467498
 30
0.0
 10
8.9361411065
 20
8.8021055233
 30
0.0
 10
8.9249871068
 20
8.7895298295
 30
0.0
 10
8.917131256
 20
8.7815409442
 30
0.0
 10
8.9131046674
 20
8.7776515615
 30
0.0
  0
SPLINE
  5
381
100
AcDbEntity
  8
0
100
AcDbSpline
 62
7
  6
CONTINUOUS
 70
0
 71
3
 72
23
 73
19
 74
0
 42
0.0000001
 43
0.0000001
 44
0.0000000001
 40
0.0
 40
0.0
 40
0.0
 40
0.0
 40
0.0637767638
 40
0.1273450118
 40
0.1907019674
 40
0.2538561101
 40
0.3168132145
 40
0.3795820843
 40
0.4421733868
 40
0.5045993403
 40
0.5668738673
 40
0.6290123789
 40
0.6910316481
 40
0.752949645
 40
0.8147853545
 40
0.8765586015
 40
0.9382898522
 40
1.0
 40
1.0
 40
1.0
 40
1.0
 10
10.9157392966
 20
7.9776213518
 30
0.0
 10
10.9157392966
 20
7.971835593
 30
0.0
 10
10.91546235
 20
7.9602810316
 30
0.0
 10
10.9142124411
 20
7.9430194943
 30
0.0
 10
10.9121312917
 20
7.9258947649
 30
0.0
 10
10.9092239153
 20
7.9089470969
 30
0.0
 10
10.9054967866
 20
7.8922152058
 30
0.0
 10
10.9009585369
 20
7.8757377707
 30
0.0
 10
10.8956196071
 20
7.8595527532
 30
0.0
 10
10.8894922437
 20
7.8436974792
 30
0.0
 10
10.8825905162
 20
7.8282085325
 30
0.0
 10
10.8749303427
 20
7.8131216242
 30
0.0
 10
10.8665293725
 20
7.7984715518
 30
0.0
 10
10.857406936
 20
7.784292111
 30
0.0
 10
10.8475840571
 20
7.7706160656
 30
0.0
 10
10.8370832978
 20
7.7574748391
 30
0.0
 10
10.8259292981
 20
7.7448991453
 30
0.0
 10
10.8180734472
 20
7.73691026
 30
0.0
 10
10.8140468587
 20
7.7330208774
 30
0.0
  0
SPLINE
  5
382
100
AcDbEntity
  8
0
100
AcDbSpline
 62
7
  6
CONTINUOUS
 70
0
 71
3
 72
23
 73
19
 74
0
 42
0.0000001
 43
0.0000001
 44
0.0000000001
 40
0.0
 40
0.0
 40
0.0
 40
0.0
 40
0.0637767638
 40
0.1273450118
 40
0.1907019674
 40
0.2538561101
 40
0.3168132145
 40
0.3795820843
 40
0.4421733868
 40
0.5045993403
 40
0.5668738673
 40
0.6290123789
 40
0.6910316481
 40
0.752949645
 40
0.8147853545
 40
0.8765586015
 40
0.9382898522
 40
1.0
 40
1.0
 40
1.0
 40
1.0
 10
12.6969067234
 20
8.8808761504
 30
0.0
 10
12.6969067234
 20
8.8750903915
 30
0.0
 10
12.6966297769
 20
8.8635358302
 30
0.0
 10
12.695379868
 20
8.8462742929
 30
0.0
 10
12.6932987185
 20
8.8291495635
 30
0.0
 10
12.6903913422
 20
8.8122018955
 30
0.0
 10
12.6866642134
 20
8.7954700044
 30
0.0
 10
12.6821259638
 20
8.7789925693
 30
0.0
 10
12.676787034
 20
8.7628075518
 30
0.0
 10
12.6706596705
 20
8.7469522778
 30
0.0
 10
12.6637579431
 20
8.7314633311
 30
0.0
 10
12.6560977695
 20
8.7163764228
 30
0.0
 10
12.6476967993
 20
8.7017263504
 30
0.0
 10
12.6385743629
 20
8.6875469096
 30
0.0
 10
12.6287514839
 20
8.6738708642
 30
0.0
 10
12.6182507247
 20
8.6607296377
 30
0.0
 10
12.6070967249
 20
8.6481539439
 30
0.0
 10
12.5992408741
 20
8.6401650586
 30
0.0
 10
12.5952142855
 20
8.636275676
 30
0.0
  0
SPLINE
  5
383
100
AcDbEntity
  8
0
100
AcDbSpline
 62
7
  6
CONTINUOUS
 70
0
 71
3
 72
25
 73
21
 74
0
 42
0.0000001
 43
0.0000001
 44
0.0000000001
 40
0.0
 40
0.0
 40
0.0
 40
0.0
 40
0.06377716
 40
0.127343222
 40
0.190700148
 40
0.2538535537
 40
0.3168099705
 40
0.3795782475
 40
0.4421688972
 40
0.5045942157
 40
0.5668681101
 40
0.629005993
 40
0.6910246336
 40
0.7219973337
 40
0.7529470518
 40
0.8147821333
 40
0.8765547559
 40
0.9074265679
 40
0.9382904805
 40
1.0
 40
1.0
 40
1.0
 40
1.0
 10
12.7220206637
 20
7.2563789439
 30
0.0
 10
12.7220206637
 20
7.2439277717
 30
0.0
 10
12.7214247563
 20
7.2190624182
 30
0.0
 10
12.7187348142
 20
7.1819155312
 30
0.0
 10
12.7142562749
 20
7.1450632575
 30
0.0
 10
12.7079994983
 20
7.108591753
 30
0.0
 10
12.6999787282
 20
7.0725846953
 30
0.0
 10
12.6902124229
 20
7.0371252106
 30
0.0
 10
12.6787229844
 20
7.002295012
 30
0.0
 10
12.665536858
 20
6.9681744626
 30
0.0
 10
12.6506842856
 20
6.934842116
 30
0.0
 10
12.63419977
 20
6.9023753634
 30
0.0
 10
12.6191267918
 20
6.8760904433
 30
0.0
 10
12.60629398
 20
6.8555741077
 30
0.0
 10
12.592961085
 20
6.8354220907
 30
0.0
 10
12.5753502505
 20
6.8109030262
 30
0.0
 10
12.5565146559
 20
6.7873312507
 30
0.0
 10
12.5407460357
 20
6.7690862982
 30
0.0
 10
12.5245224407
 20
6.7512621006
 30
0.0
 10
12.5118432463
 20
6.7383681904
 30
0.0
 10
12.5031780129
 20
6.7299982333
 30
0.0
  0
SPLINE
  5
384
100
AcDbEntity
  8
0
100
AcDbSpline
 62
7
  6
CONTINUOUS
 70
0
 71
3
 72
25
 73
21
 74
0
 42
0.0000001
 43
0.0000001
 44
0.0000000001
 40
0.0
 40
0.0
 40
0.0
 40
0.0
 40
0.06377716
 40
0.127343222
 40
0.190700148
 40
0.2538535537
 40
0.3168099705
 40
0.3795782475
 40
0.4421688972
 40
0.5045942157
 40
0.5668681101
 40
0.629005993
 40
0.6910246336
 40
0.7219973337
 40
0.7529470518
 40
0.8147821333
 40
0.8765547559
 40
0.9074265679
 40
0.9382904805
 40
1.0
 40
1.0
 40
1.0
 40
1.0
 10
9.8242430132
 20
7.4573405065
 30
0.0
 10
9.8242430132
 20
7.4448893343
 30
0.0
 10
9.8236471057
 20
7.4200239808
 30
0.0
 10
9.8209571637
 20
7.3828770938
 30
0.0
 10
9.8164786243
 20
7.3460248201
 30
0.0
 10
9.8102218478
 20
7.3095533156
 30
0.0
 10
9.8022010776
 20
7.2735462579
 30
0.0
 10
9.7924347724
 20
7.2380867733
 30
0.0
 10
9.7809453338
 20
7.2032565746
 30
0.0
 10
9.7677592074
 20
7.1691360253
 30
0.0
 10
9.752906635
 20
7.1358036787
 30
0.0
 10
9.7364221194
 20
7.103336926
 30
0.0
 10
9.7213491413
 20
7.0770520059
 30
0.0
 10
9.7085163294
 20
7.0565356703
 30
0.0
 10
9.6951834344
 20
7.0363836533
 30
0.0
 10
9.6775726
 20
7.0118645889
 30
0.0
 10
9.6587370053
 20
6.9882928133
 30
0.0
 10
9.6429683851
 20
6.9700478609
 30
0.0
 10
9.6267447902
 20
6.9522236633
 30
0.0
 10
9.6140655957
 20
6.939329753
 30
0.0
 10
9.6054003624
 20
6.9309597959
 30
0.0
  0
SPLINE
  5
385
100
AcDbEntity
  8
0
100
AcDbSpline
 62
7
  6
CONTINUOUS
 70
0
 71
3
 72
15
 73
11
 74
0
 42
0.0000001
 43
0.0000001
 44
0.0000000001
 40
0.0
 40
0.0
 40
0.0
 40
0.0
 40
0.1262184348
 40
0.2519736515
 40
0.3773148174
 40
0.5022987407
 40
0.626988655
 40
0.7514531858
 40
0.8757651032
 40
1.0
 40
1.0
 40
1.0
 40
1.0
 10
10.7879132312
 20
9.9926601085
 30
0.0
 10
10.7866248999
 20
9.987715908
 30
0.0
 10
10.7837223871
 20
9.9779283041
 30
0.0
 10
10.7783993036
 20
9.9636004345
 30
0.0
 10
10.7721366966
 20
9.9497114995
 30
0.0
 10
10.7649609424
 20
9.936320568
 30
0.0
 10
10.7569020183
 20
9.9234836008
 30
0.0
 10
10.7479934739
 20
9.9112543106
 30
0.0
 10
10.7382732874
 20
9.8996846275
 30
0.0
 10
10.7312767916
 20
9.8924411972
 30
0.0
 10
10.7276596577
 20
9.8889473137
 30
0.0
  0
SPLINE
  5
386
100
AcDbEntity
  8
0
100
AcDbSpline
 62
7
  6
CONTINUOUS
 70
0
 71
3
 72
15
 73
11
 74
0
 42
0.0000001
 43
0.0000001
 44
0.0000000001
 40
0.0
 40
0.0
 40
0.0
 40
0.0
 40
0.1262184348
 40
0.2519736515
 40
0.3773148174
 40
0.5022987407
 40
0.626988655
 40
0.7514531858
 40
0.8757651032
 40
1.0
 40
1.0
 40
1.0
 40
1.0
 10
9.0086776312
 20
9.0892713085
 30
0.0
 10
9.0073892999
 20
9.084327108
 30
0.0
 10
9.0044867871
 20
9.0745395041
 30
0.0
 10
8.9991637036
 20
9.0602116345
 30
0.0
 10
8.9929010967
 20
9.0463226995
 30
0.0
 10
8.9857253424
 20
9.032931768
 30
0.0
 10
8.9776664183
 20
9.0200948008
 30
0.0
 10
8.9687578739
 20
9.0078655106
 30
0.0
 10
8.9590376875
 20
8.9962958275
 30
0.0
 10
8.9520411916
 20
8.9890523972
 30
0.0
 10
8.9484240578
 20
8.9855585136
 30
0.0
  0
SPLINE
  5
387
100
AcDbEntity
  8
0
100
AcDbSpline
 62
7
  6
CONTINUOUS
 70
0
 71
3
 72
15
 73
11
 74
0
 42
0.0000001
 43
0.0000001
 44
0.0000000001
 40
0.0
 40
0.0
 40
0.0
 40
0.0
 40
0.1262184348
 40
0.2519736515
 40
0.3773148174
 40
0.5022987407
 40
0.626988655
 40
0.7514531858
 40
0.8757651032
 40
1.0
 40
1.0
 40
1.0
 40
1.0
 10
10.9096198225
 20
8.0446406243
 30
0.0
 10
10.9083314912
 20
8.0396964238
 30
0.0
 10
10.9054289784
 20
8.0299088199
 30
0.0
 10
10.9001058949
 20
8.0155809503
 30
0.0
 10
10.893843288
 20
8.0016920153
 30
0.0
 10
10.8866675337
 20
7.9883010838
 30
0.0
 10
10.8786086096
 20
7.9754641166
 30
0.0
 10
10.8697000652
 20
7.9632348264
 30
0.0
 10
10.8599798788
 20
7.9516651433
 30
0.0
 10
10.8529833829
 20
7.944421713
 30
0.0
 10
10.8493662491
 20
7.9409278295
 30
0.0
  0
SPLINE
  5
388
100
AcDbEntity
  8
0
100
AcDbSpline
 62
7
  6
CONTINUOUS
 70
0
 71
3
 72
15
 73
11
 74
0
 42
0.0000001
 43
0.0000001
 44
0.0000000001
 40
0.0
 40
0.0
 40
0.0
 40
0.0
 40
0.1262184348
 40
0.2519736515
 40
0.3773148174
 40
0.5022987407
 40
0.626988655
 40
0.7514531858
 40
0.8757651032
 40
1.0
 40
1.0
 40
1.0
 40
1.0
 10
12.6907872493
 20
8.9478954229
 30
0.0
 10
12.689498918
 20
8.9429512224
 30
0.0
 10
12.6865964053
 20
8.9331636185
 30
0.0
 10
12.6812733217
 20
8.9188357489
 30
0.0
 10
12.6750107148
 20
8.9049468139
 30
0.0
 10
12.6678349606
 20
8.8915558824
 30
0.0
 10
12.6597760364
 20
8.8787189152
 30
0.0
 10
12.6508674921
 20
8.866489625
 30
0.0
 10
12.6411473056
 20
8.8549199419
 30
0.0
 10
12.6341508098
 20
8.8476765116
 30
0.0
 10
12.6305336759
 20
8.8441826281
 30
0.0
  0
SPLINE
  5
389
100
AcDbEntity
  8
0
100
AcDbSpline
 62
7
  6
CONTINUOUS
 70
0
 71
3
 72
15
 73
11
 74
0
 42
0.0000001
 43
0.0000001
 44
0.0000000001
 40
0.0
 40
0.0
 40
0.0
 40
0.0
 40
0.122891236
 40
0.2463472483
 40
0.3704178646
 40
0.4951418748
 40
0.6205340797
 40
0.7465602979
 40
0.8731147981
 40
1.0
 40
1.0
 40
1.0
 40
1.0
 10
11.9581049206
 20
7.6379929548
 30
0.0
 10
11.9581049206
 20
7.6456916783
 30
0.0
 10
11.958772957
 20
7.6611325652
 30
0.0
 10
11.9617567578
 20
7.6841722164
 30
0.0
 10
11.9667010384
 20
7.7069908013
 30
0.0
 10
11.9735646349
 20
7.7294329012
 30
0.0
 10
11.9822852152
 20
7.7513515739
 30
0.0
 10
11.9927763636
 20
7.7726068548
 30
0.0
 10
12.0049228637
 20
7.7930670741
 30
0.0
 10
12.0140256441
 20
7.806095464
 30
0.0
 10
12.0188045451
 20
7.8124474423
 30
0.0
  0
SPLINE
  5
38A
100
AcDbEntity
  8
0
100
AcDbSpline
 62
7
  6
CONTINUOUS
 70
0
 71
3
 72
15
 73
11
 74
0
 42
0.0000001
 43
0.0000001
 44
0.0000000001
 40
0.0
 40
0.0
 40
0.0
 40
0.0
 40
0.1242355179
 40
0.2485479892
 40
0.373012942
 40
0.4977030871
 40
0.6226869946
 40
0.7480278666
 40
0.8737824345
 40
1.0
 40
1.0
 40
1.0
 40
1.0
 10
10.3802863185
 20
10.2485745696
 30
0.0
 10
10.3839018617
 20
10.2520669167
 30
0.0
 10
10.3913799967
 20
10.2588053386
 30
0.0
 10
10.4032738999
 20
10.2681151851
 30
0.0
 10
10.4157983764
 20
10.2765917862
 30
0.0
 10
10.4289002848
 20
10.2841990291
 30
0.0
 10
10.4425248576
 20
10.2909052831
 30
0.0
 10
10.4566152083
 20
10.2966825538
 30
0.0
 10
10.4711114751
 20
10.3015065589
 30
0.0
 10
10.4809887552
 20
10.3040691777
 30
0.0
 10
10.4859721178
 20
10.3051860661
 30
0.0
  0
SPLINE
  5
38B
100
AcDbEntity
  8
0
100
AcDbSpline
 62
7
  6
CONTINUOUS
 70
0
 71
3
 72
39
 73
35
 74
0
 42
0.0000001
 43
0.0000001
 44
0.0000000001
 40
0.0
 40
0.0
 40
0.0
 40
0.0
 40
0.029942471
 40
0.0599093185
 40
0.089924325
 40
0.1200101043
 40
0.1501875632
 40
0.1804754155
 40
0.2108897611
 40
0.2414437393
 40
0.2721472649
 40
0.3030068482
 40
0.3340255005
 40
0.3652027199
 40
0.3965345553
 40
0.4280137416
 40
0.4596298994
 40
0.4913697937
 40
0.523217641
 40
0.5551554573
 40
0.5871634413
 40
0.619220384
 40
0.6513040994
 40
0.6833918697
 40
0.715460897
 40
0.7474887556
 40
0.7794538398
 40
0.8113357995
 40
0.8431159588
 40
0.874777715
 40
0.9063068673
 40
0.9376920959
 40
0.968924654
 40
1.0
 40
1.0
 40
1.0
 40
1.0
 10
10.1712807305
 20
10.220481701
 30
0.0
 10
10.1775018562
 20
10.226490842
 30
0.0
 10
10.1904332997
 20
10.2380241487
 30
0.0
 10
10.2111514772
 20
10.2537362393
 30
0.0
 10
10.2330847742
 20
10.2677818236
 30
0.0
 10
10.2561106339
 20
10.280082115
 30
0.0
 10
10.2801024641
 20
10.2905699131
 30
0.0
 10
10.3049278589
 20
10.2991875632
 30
0.0
 10
10.3304500188
 20
10.3058879044
 30
0.0
 10
10.356528333
 20
10.310634355
 30
0.0
 10
10.3830192162
 20
10.313401143
 30
0.0
 10
10.4097768946
 20
10.3141733976
 30
0.0
 10
10.4366542085
 20
10.3129472184
 30
0.0
 10
10.4635034163
 20
10.3097296776
 30
0.0
 10
10.4901769973
 20
10.304538765
 30
0.0
 10
10.5165284519
 20
10.2974032814
 30
0.0
 10
10.5424131025
 20
10.2883626895
 30
0.0
 10
10.5676888725
 20
10.2774668663
 30
0.0
 10
10.5922170544
 20
10.2647758285
 30
0.0
 10
10.615863059
 20
10.2503594007
 30
0.0
 10
10.6384971439
 20
10.2342968343
 30
0.0
 10
10.659995113
 20
10.2166763725
 30
0.0
 10
10.6802390041
 20
10.1975947868
 30
0.0
 10
10.6991177235
 20
10.1771568379
 30
0.0
 10
10.7165276426
 20
10.1554747003
 30
0.0
 10
10.7323731621
 20
10.132667355
 30
0.0
 10
10.7465672315
 20
10.1088599462
 30
0.0
 10
10.7590318195
 20
10.0841830971
 30
0.0
 10
10.7696983552
 20
10.058772225
 30
0.0
 10
10.778508095
 20
10.0327667499
 30
0.0
 10
10.7854124839
 20
10.0063095364
 30
0.0
 10
10.7903732758
 20
9.9795453721
 30
0.0
 10
10.7933630692
 20
9.9526231196
 30
0.0
 10
10.7940327052
 20
9.9346174901
 30
0.0
 10
10.7940327052
 20
9.925640836
 30
0.0
  0
SPLINE
  5
38C
100
AcDbEntity
  8
0
100
AcDbSpline
 62
7
  6
CONTINUOUS
 70
0
 71
3
 72
15
 73
11
 74
0
 42
0.0000001
 43
0.0000001
 44
0.0000000001
 40
0.0
 40
0.0
 40
0.0
 40
0.0
 40
0.1242355179
 40
0.2485479892
 40
0.373012942
 40
0.4977030871
 40
0.6226869946
 40
0.7480278666
 40
0.8737824345
 40
1.0
 40
1.0
 40
1.0
 40
1.0
 10
8.6010507186
 20
9.3451857696
 30
0.0
 10
8.6046662617
 20
9.3486781167
 30
0.0
 10
8.6121443968
 20
9.3554165386
 30
0.0
 10
8.6240382999
 20
9.3647263851
 30
0.0
 10
8.6365627764
 20
9.3732029862
 30
0.0
 10
8.6496646848
 20
9.3808102291
 30
0.0
 10
8.6632892577
 20
9.3875164831
 30
0.0
 10
8.6773796084
 20
9.3932937538
 30
0.0
 10
8.6918758751
 20
9.3981177588
 30
0.0
 10
8.7017531553
 20
9.4006803777
 30
0.0
 10
8.7067365178
 20
9.401797266
 30
0.0
  0
SPLINE
  5
38D
100
AcDbEntity
  8
0
100
AcDbSpline
 62
7
  6
CONTINUOUS
 70
0
 71
3
 72
39
 73
35
 74
0
 42
0.0000001
 43
0.0000001
 44
0.0000000001
 40
0.0
 40
0.0
 40
0.0
 40
0.0
 40
0.029942471
 40
0.0599093185
 40
0.089924325
 40
0.1200101043
 40
0.1501875632
 40
0.1804754155
 40
0.2108897611
 40
0.2414437393
 40
0.2721472649
 40
0.3030068482
 40
0.3340255005
 40
0.3652027199
 40
0.3965345553
 40
0.4280137416
 40
0.4596298994
 40
0.4913697937
 40
0.523217641
 40
0.5551554573
 40
0.5871634413
 40
0.619220384
 40
0.6513040994
 40
0.6833918697
 40
0.715460897
 40
0.7474887556
 40
0.7794538398
 40
0.8113357995
 40
0.8431159588
 40
0.874777715
 40
0.9063068673
 40
0.9376920959
 40
0.968924654
 40
1.0
 40
1.0
 40
1.0
 40
1.0
 10
8.3920451305
 20
9.317092901
 30
0.0
 10
8.3982662563
 20
9.323102042
 30
0.0
 10
8.4111976997
 20
9.3346353486
 30
0.0
 10
8.4319158772
 20
9.3503474393
 30
0.0
 10
8.4538491742
 20
9.3643930236
 30
0.0
 10
8.476875034
 20
9.376693315
 30
0.0
 10
8.5008668642
 20
9.387181113
 30
0.0
 10
8.525692259
 20
9.3957987632
 30
0.0
 10
8.5512144188
 20
9.4024991044
 30
0.0
 10
8.577292733
 20
9.407245555
 30
0.0
 10
8.6037836163
 20
9.410012343
 30
0.0
 10
8.6305412946
 20
9.4107845976
 30
0.0
 10
8.6574186086
 20
9.4095584184
 30
0.0
 10
8.6842678164
 20
9.4063408775
 30
0.0
 10
8.7109413973
 20
9.401149965
 30
0.0
 10
8.7372928519
 20
9.3940144814
 30
0.0
 10
8.7631775026
 20
9.3849738895
 30
0.0
 10
8.7884532726
 20
9.3740780663
 30
0.0
 10
8.8129814544
 20
9.3613870285
 30
0.0
 10
8.836627459
 20
9.3469706007
 30
0.0
 10
8.859261544
 20
9.3309080343
 30
0.0
 10
8.880759513
 20
9.3132875724
 30
0.0
 10
8.9010034041
 20
9.2942059868
 30
0.0
 10
8.9198821235
 20
9.2737680379
 30
0.0
 10
8.9372920426
 20
9.2520859002
 30
0.0
 10
8.9531375622
 20
9.229278555
 30
0.0
 10
8.9673316315
 20
9.2054711462
 30
0.0
 10
8.9797962195
 20
9.180794297
 30
0.0
 10
8.9904627552
 20
9.155383425
 30
0.0
 10
8.999272495
 20
9.1293779499
 30
0.0
 10
9.0061768839
 20
9.1029207364
 30
0.0
 10
9.0111376758
 20
9.076156572
 30
0.0
 10
9.0141274693
 20
9.0492343196
 30
0.0
 10
9.0147971053
 20
9.0312286901
 30
0.0
 10
9.0147971053
 20
9.022252036
 30
0.0
  0
SPLINE
  5
38E
100
AcDbEntity
  8
0
100
AcDbSpline
 62
7
  6
CONTINUOUS
 70
0
 71
3
 72
15
 73
11
 74
0
 42
0.0000001
 43
0.0000001
 44
0.0000000001
 40
0.0
 40
0.0
 40
0.0
 40
0.0
 40
0.1242355179
 40
0.2485479892
 40
0.373012942
 40
0.4977030871
 40
0.6226869946
 40
0.7480278666
 40
0.8737824345
 40
1.0
 40
1.0
 40
1.0
 40
1.0
 10
10.5019929099
 20
8.3005550854
 30
0.0
 10
10.505608453
 20
8.3040474325
 30
0.0
 10
10.513086588
 20
8.3107858544
 30
0.0
 10
10.5249804912
 20
8.320095701
 30
0.0
 10
10.5375049677
 20
8.3285723021
 30
0.0
 10
10.5506068761
 20
8.336179545
 30
0.0
 10
10.5642314489
 20
8.3428857989
 30
0.0
 10
10.5783217996
 20
8.3486630696
 30
0.0
 10
10.5928180664
 20
8.3534870747
 30
0.0
 10
10.6026953465
 20
8.3560496936
 30
0.0
 10
10.6076787091
 20
8.3571665819
 30
0.0
  0
SPLINE
  5
38F
100
AcDbEntity
  8
0
100
AcDbSpline
 62
7
  6
CONTINUOUS
 70
0
 71
3
 72
39
 73
35
 74
0
 42
0.0000001
 43
0.0000001
 44
0.0000000001
 40
0.0
 40
0.0
 40
0.0
 40
0.0
 40
0.029942471
 40
0.0599093185
 40
0.089924325
 40
0.1200101043
 40
0.1501875632
 40
0.1804754155
 40
0.2108897611
 40
0.2414437393
 40
0.2721472649
 40
0.3030068482
 40
0.3340255005
 40
0.3652027199
 40
0.3965345553
 40
0.4280137416
 40
0.4596298994
 40
0.4913697937
 40
0.523217641
 40
0.5551554573
 40
0.5871634413
 40
0.619220384
 40
0.6513040994
 40
0.6833918697
 40
0.715460897
 40
0.7474887556
 40
0.7794538398
 40
0.8113357995
 40
0.8431159588
 40
0.874777715
 40
0.9063068673
 40
0.9376920959
 40
0.968924654
 40
1.0
 40
1.0
 40
1.0
 40
1.0
 10
10.2929873218
 20
8.2724622169
 30
0.0
 10
10.2992084475
 20
8.2784713578
 30
0.0
 10
10.312139891
 20
8.2900046645
 30
0.0
 10
10.3328580685
 20
8.3057167551
 30
0.0
 10
10.3547913655
 20
8.3197623394
 30
0.0
 10
10.3778172252
 20
8.3320626308
 30
0.0
 10
10.4018090554
 20
8.3425504289
 30
0.0
 10
10.4266344502
 20
8.3511680791
 30
0.0
 10
10.4521566101
 20
8.3578684202
 30
0.0
 10
10.4782349243
 20
8.3626148708
 30
0.0
 10
10.5047258075
 20
8.3653816588
 30
0.0
 10
10.5314834859
 20
8.3661539134
 30
0.0
 10
10.5583607999
 20
8.3649277342
 30
0.0
 10
10.5852100076
 20
8.3617101934
 30
0.0
 10
10.6118835886
 20
8.3565192808
 30
0.0
 10
10.6382350432
 20
8.3493837972
 30
0.0
 10
10.6641196938
 20
8.3403432053
 30
0.0
 10
10.6893954639
 20
8.3294473821
 30
0.0
 10
10.7139236457
 20
8.3167563443
 30
0.0
 10
10.7375696503
 20
8.3023399165
 30
0.0
 10
10.7602037352
 20
8.2862773501
 30
0.0
 10
10.7817017043
 20
8.2686568883
 30
0.0
 10
10.8019455954
 20
8.2495753026
 30
0.0
 10
10.8208243148
 20
8.2291373537
 30
0.0
 10
10.8382342339
 20
8.2074552161
 30
0.0
 10
10.8540797534
 20
8.1846478708
 30
0.0
 10
10.8682738228
 20
8.160840462
 30
0.0
 10
10.8807384108
 20
8.1361636129
 30
0.0
 10
10.8914049465
 20
8.1107527408
 30
0.0
 10
10.9002146863
 20
8.0847472658
 30
0.0
 10
10.9071190752
 20
8.0582900522
 30
0.0
 10
10.9120798671
 20
8.0315258879
 30
0.0
 10
10.9150696605
 20
8.0046036354
 30
0.0
 10
10.9157392966
 20
7.9865980059
 30
0.0
 10
10.9157392966
 20
7.9776213518
 30
0.0
  0
SPLINE
  5
390
100
AcDbEntity
  8
0
100
AcDbSpline
 62
7
  6
CONTINUOUS
 70
0
 71
3
 72
15
 73
11
 74
0
 42
0.0000001
 43
0.0000001
 44
0.0000000001
 40
0.0
 40
0.0
 40
0.0
 40
0.0
 40
0.1242355179
 40
0.2485479892
 40
0.373012942
 40
0.4977030871
 40
0.6226869946
 40
0.7480278666
 40
0.8737824345
 40
1.0
 40
1.0
 40
1.0
 40
1.0
 10
12.2831603367
 20
9.203809884
 30
0.0
 10
12.2867758799
 20
9.2073022311
 30
0.0
 10
12.2942540149
 20
9.214040653
 30
0.0
 10
12.3061479181
 20
9.2233504995
 30
0.0
 10
12.3186723946
 20
9.2318271006
 30
0.0
 10
12.3317743029
 20
9.2394343435
 30
0.0
 10
12.3453988758
 20
9.2461405975
 30
0.0
 10
12.3594892265
 20
9.2519178682
 30
0.0
 10
12.3739854933
 20
9.2567418733
 30
0.0
 10
12.3838627734
 20
9.2593044921
 30
0.0
 10
12.3888461359
 20
9.2604213805
 30
0.0
  0
SPLINE
  5
391
100
AcDbEntity
  8
0
100
AcDbSpline
 62
7
  6
CONTINUOUS
 70
0
 71
3
 72
39
 73
35
 74
0
 42
0.0000001
 43
0.0000001
 44
0.0000000001
 40
0.0
 40
0.0
 40
0.0
 40
0.0
 40
0.029942471
 40
0.0599093185
 40
0.089924325
 40
0.1200101043
 40
0.1501875632
 40
0.1804754155
 40
0.2108897611
 40
0.2414437393
 40
0.2721472649
 40
0.3030068482
 40
0.3340255005
 40
0.3652027199
 40
0.3965345553
 40
0.4280137416
 40
0.4596298994
 40
0.4913697937
 40
0.523217641
 40
0.5551554573
 40
0.5871634413
 40
0.619220384
 40
0.6513040994
 40
0.6833918697
 40
0.715460897
 40
0.7474887556
 40
0.7794538398
 40
0.8113357995
 40
0.8431159588
 40
0.874777715
 40
0.9063068673
 40
0.9376920959
 40
0.968924654
 40
1.0
 40
1.0
 40
1.0
 40
1.0
 10
12.0741547487
 20
9.1757170154
 30
0.0
 10
12.0803758744
 20
9.1817261564
 30
0.0
 10
12.0933073179
 20
9.1932594631
 30
0.0
 10
12.1140254954
 20
9.2089715537
 30
0.0
 10
12.1359587923
 20
9.223017138
 30
0.0
 10
12.1589846521
 20
9.2353174294
 30
0.0
 10
12.1829764823
 20
9.2458052274
 30
0.0
 10
12.2078018771
 20
9.2544228776
 30
0.0
 10
12.233324037
 20
9.2611232188
 30
0.0
 10
12.2594023511
 20
9.2658696694
 30
0.0
 10
12.2858932344
 20
9.2686364574
 30
0.0
 10
12.3126509128
 20
9.269408712
 30
0.0
 10
12.3395282267
 20
9.2681825328
 30
0.0
 10
12.3663774345
 20
9.2649649919
 30
0.0
 10
12.3930510155
 20
9.2597740794
 30
0.0
 10
12.4194024701
 20
9.2526385958
 30
0.0
 10
12.4452871207
 20
9.2435980039
 30
0.0
 10
12.4705628907
 20
9.2327021807
 30
0.0
 10
12.4950910726
 20
9.2200111429
 30
0.0
 10
12.5187370772
 20
9.2055947151
 30
0.0
 10
12.5413711621
 20
9.1895321487
 30
0.0
 10
12.5628691311
 20
9.1719116869
 30
0.0
 10
12.5831130223
 20
9.1528301012
 30
0.0
 10
12.6019917416
 20
9.1323921523
 30
0.0
 10
12.6194016608
 20
9.1107100147
 30
0.0
 10
12.6352471803
 20
9.0879026694
 30
0.0
 10
12.6494412497
 20
9.0640952606
 30
0.0
 10
12.6619058377
 20
9.0394184115
 30
0.0
 10
12.6725723733
 20
9.0140075394
 30
0.0
 10
12.6813821132
 20
8.9880020643
 30
0.0
 10
12.6882865021
 20
8.9615448508
 30
0.0
 10
12.693247294
 20
8.9347806865
 30
0.0
 10
12.6962370874
 20
8.907858434
 30
0.0
 10
12.6969067234
 20
8.8898528045
 30
0.0
 10
12.6969067234
 20
8.8808761504
 30
0.0
  0
SPLINE
  5
392
100
AcDbEntity
  8
0
100
AcDbSpline
 62
7
  6
CONTINUOUS
 70
0
 71
3
 72
51
 73
47
 74
0
 42
0.0000001
 43
0.0000001
 44
0.0000000001
 40
0.0
 40
0.0
 40
0.0
 40
0.0
 40
0.0149716485
 40
0.0299463565
 40
0.0449271644
 40
0.0599170744
 40
0.0749190346
 40
0.0899359198
 40
0.1049705137
 40
0.1200254925
 40
0.1351034109
 40
0.1502066862
 40
0.1653375828
 40
0.1804982023
 40
0.1956904722
 40
0.2109161327
 40
0.2261767296
 40
0.241473608
 40
0.2568079046
 40
0.2721805407
 40
0.2875922226
 40
0.303043438
 40
0.3185344523
 40
0.334065311
 40
0.3496358431
 40
0.3652456603
 40
0.3965753769
 40
0.4280524346
 40
0.4596664537
 40
0.4914042018
 40
0.5232498957
 40
0.555185552
 40
0.5871913712
 40
0.619246145
 40
0.65132769
 40
0.68341329
 40
0.7154801477
 40
0.7475058396
 40
0.7794687608
 40
0.8113485629
 40
0.8431265731
 40
0.8747861836
 40
0.9063132226
 40
0.9376962675
 40
0.9689267871
 40
1.0
 40
1.0
 40
1.0
 40
1.0
 10
11.3818589386
 20
7.8908769752
 30
0.0
 10
11.3885535081
 20
7.8973434208
 30
0.0
 10
11.402202701
 20
7.9100128747
 30
0.0
 10
11.4234177256
 20
7.9281905297
 30
0.0
 10
11.4453471066
 20
7.9455187199
 30
0.0
 10
11.4679602181
 20
7.9619732278
 30
0.0
 10
11.4912260317
 20
7.9775315501
 30
0.0
 10
11.5151125147
 20
7.9921722299
 30
0.0
 10
11.5395868113
 20
8.0058751133
 30
0.0
 10
11.5646152071
 20
8.0186214024
 30
0.0
 10
11.5901632618
 20
8.0303935706
 30
0.0
 10
11.6161958376
 20
8.0411753842
 30
0.0
 10
11.642677092
 20
8.0509520627
 30
0.0
 10
11.6695705786
 20
8.0597101969
 30
0.0
 10
11.6968393063
 20
8.0674377178
 30
0.0
 10
11.7244457562
 20
8.0741240056
 30
0.0
 10
11.7523519351
 20
8.0797599327
 30
0.0
 10
11.7805194576
 20
8.0843377567
 30
0.0
 10
11.8089095828
 20
8.0878511533
 30
0.0
 10
11.8374832506
 20
8.0902953634
 30
0.0
 10
11.8662011643
 20
8.091667062
 30
0.0
 10
11.8950238209
 20
8.0919643395
 30
0.0
 10
11.923911614
 20
8.0911868105
 30
0.0
 10
11.9528246929
 20
8.089335639
 30
0.0
 10
11.9817237787
 20
8.0864132572
 30
0.0
 10
12.0202259635
 20
8.0810882641
 30
0.0
 10
12.0681246355
 20
8.0717670751
 30
0.0
 10
12.1248316374
 20
8.0564116158
 30
0.0
 10
12.1805357416
 20
8.0369562522
 30
0.0
 10
12.2349290671
 20
8.0135084162
 30
0.0
 10
12.2877137096
 20
7.9861972903
 30
0.0
 10
12.338599871
 20
7.9551731228
 30
0.0
 10
12.3873083669
 20
7.9206064411
 30
0.0
 10
12.433571992
 20
7.8826872393
 30
0.0
 10
12.4771368036
 20
7.8416236556
 30
0.0
 10
12.5177638063
 20
7.7976412207
 30
0.0
 10
12.555229918
 20
7.7509812609
 30
0.0
 10
12.5893294321
 20
7.7018998533
 30
0.0
 10
12.6198750536
 20
7.6506663274
 30
0.0
 10
12.6466987919
 20
7.5975617473
 30
0.0
 10
12.6696532041
 20
7.5428775907
 30
0.0
 10
12.688611753
 20
7.4869138161
 30
0.0
 10
12.7034699657
 20
7.4299779383
 30
0.0
 10
12.7141456327
 20
7.3723814651
 30
0.0
 10
12.7205795777
 20
7.3144448009
 30
0.0
 10
12.7220206637
 20
7.2756966769
 30
0.0
 10
12.7220206637
 20
7.2563789439
 30
0.0
  0
SPLINE
  5
393
100
AcDbEntity
  8
0
100
AcDbSpline
 62
7
  6
CONTINUOUS
 70
0
 71
3
 72
39
 73
35
 74
0
 42
0.0000001
 43
0.0000001
 44
0.0000000001
 40
0.0
 40
0.0
 40
0.0
 40
0.0
 40
0.030615552
 40
0.0613368645
 40
0.0921623525
 40
0.1230894036
 40
0.1541144137
 40
0.1852328324
 40
0.216439215
 40
0.2477272815
 40
0.2790899826
 40
0.3105195705
 40
0.3420076753
 40
0.3735453862
 40
0.4051233366
 40
0.4367317922
 40
0.4683607406
 40
0.4999999826
 40
0.5316392255
 40
0.5632681757
 40
0.594876633
 40
0.6264545843
 40
0.6579922954
 40
0.6894804005
 40
0.7209099898
 40
0.7522726941
 40
0.7835607646
 40
0.8147671497
 40
0.8458855758
 40
0.8769105677
 40
0.9078376848
 40
0.9386630019
 40
0.9693846615
 40
1.0
 40
1.0
 40
1.0
 40
1.0
 10
11.931553064
 20
7.8748461798
 30
0.0
 10
11.9408510144
 20
7.8745237713
 30
0.0
 10
11.9594661073
 20
7.8734095163
 30
0.0
 10
11.9873154459
 20
7.8703445844
 30
0.0
 10
12.0150731789
 20
7.8658908981
 30
0.0
 10
12.0426685564
 20
7.8600597444
 30
0.0
 10
12.0700324258
 20
7.8528658539
 30
0.0
 10
12.097095907
 20
7.8443273842
 30
0.0
 10
12.1237909668
 20
7.8344658641
 30
0.0
 10
12.1500504802
 20
7.8233061416
 30
0.0
 10
12.1758084262
 20
7.8108763208
 30
0.0
 10
12.2010000449
 20
7.7972076916
 30
0.0
 10
12.2255619995
 20
7.78233465
 30
0.0
 10
12.2494325431
 20
7.7662946254
 30
0.0
 10
12.2725516686
 20
7.7491279761
 30
0.0
 10
12.2948612564
 20
7.7308778844
 30
0.0
 10
12.3163052197
 20
7.7115902497
 30
0.0
 10
12.336829644
 20
7.6913135738
 30
0.0
 10
12.3563829221
 20
7.67009884
 30
0.0
 10
12.374915881
 20
7.6479993845
 30
0.0
 10
12.3923819144
 20
7.6250707709
 30
0.0
 10
12.4087370996
 20
7.601370649
 30
0.0
 10
12.4239402991
 20
7.5769586031
 30
0.0
 10
12.4379532653
 20
7.5518960059
 30
0.0
 10
12.4507407351
 20
7.5262458642
 30
0.0
 10
12.4622705191
 20
7.5000726629
 30
0.0
 10
12.4725135795
 20
7.4734422041
 30
0.0
 10
12.4814441142
 20
7.4464214416
 30
0.0
 10
12.4890396111
 20
7.4190783301
 30
0.0
 10
12.4952809527
 20
7.3914815905
 30
0.0
 10
12.500152305
 20
7.3637007521
 30
0.0
 10
12.5036415026
 20
7.3358052916
 30
0.0
 10
12.5057394907
 20
7.3078664783
 30
0.0
 10
12.5062080536
 20
7.2892239142
 30
0.0
 10
12.5062080616
 20
7.2799204405
 30
0.0
  0
SPLINE
  5
394
100
AcDbEntity
  8
0
100
AcDbSpline
 62
7
  6
CONTINUOUS
 70
0
 71
3
 72
39
 73
35
 74
0
 42
0.0000001
 43
0.0000001
 44
0.0000000001
 40
0.0
 40
0.0
 40
0.0
 40
0.0
 40
0.029942471
 40
0.0599093185
 40
0.0899243251
 40
0.1200101042
 40
0.1501875626
 40
0.1804754144
 40
0.2108897595
 40
0.2414437366
 40
0.2721472604
 40
0.3030068427
 40
0.3340254953
 40
0.365202715
 40
0.3965345496
 40
0.4280137343
 40
0.4596298913
 40
0.491369786
 40
0.5232176335
 40
0.55515545
 40
0.587163434
 40
0.6192203769
 40
0.6513040926
 40
0.6833918636
 40
0.7154608918
 40
0.747488751
 40
0.7794538351
 40
0.8113357952
 40
0.8431159564
 40
0.874777711
 40
0.9063068724
 40
0.937692086
 40
0.9689246467
 40
1.0
 40
1.0
 40
1.0
 40
1.0
 10
11.6580443224
 20
7.717612677
 30
0.0
 10
11.6661815406
 20
7.7254726537
 30
0.0
 10
11.6830958624
 20
7.7405582385
 30
0.0
 10
11.7101952237
 20
7.7611096918
 30
0.0
 10
11.7388839756
 20
7.7794813391
 30
0.0
 10
11.7690017975
 20
7.7955701489
 30
0.0
 10
11.8003831094
 20
7.809288222
 30
0.0
 10
11.832854731
 20
7.8205601293
 30
0.0
 10
11.8662377245
 20
7.8293241861
 30
0.0
 10
11.9003481641
 20
7.8355325742
 30
0.0
 10
11.9349982455
 20
7.8391515742
 30
0.0
 10
11.9699972994
 20
7.8401617195
 30
0.0
 10
12.0051528386
 20
7.8385578775
 30
0.0
 10
12.0402716138
 20
7.8343493298
 30
0.0
 10
12.0751606712
 20
7.8275596292
 30
0.0
 10
12.1096283952
 20
7.8182264536
 30
0.0
 10
12.1434855376
 20
7.8064013781
 30
0.0
 10
12.1765462583
 20
7.7921496411
 30
0.0
 10
12.2086291351
 20
7.7755497654
 30
0.0
 10
12.2395581277
 20
7.7566930841
 30
0.0
 10
12.2691635276
 20
7.7356832489
 30
0.0
 10
12.2972828814
 20
7.7126356774
 30
0.0
 10
12.3237619099
 20
7.687676965
 30
0.0
 10
12.3484553007
 20
7.660944134
 30
0.0
 10
12.3712275013
 20
7.6325839015
 30
0.0
 10
12.3919534418
 20
7.6027518779
 30
0.0
 10
12.4105192765
 20
7.5716117677
 30
0.0
 10
12.4268229679
 20
7.5393344401
 30
0.0
 10
12.4407748274
 20
7.5060970191
 30
0.0
 10
12.4522979916
 20
7.4720818484
 30
0.0
 10
12.4613289196
 20
7.4374757998
 30
0.0
 10
12.4678176366
 20
7.4024682622
 30
0.0
 10
12.4717282854
 20
7.3672539456
 30
0.0
 10
12.4726041735
 20
7.3437025705
 30
0.0
 10
12.4726041735
 20
7.3319611001
 30
0.0
  0
SPLINE
  5
395
100
AcDbEntity
  8
0
100
AcDbSpline
 62
7
  6
CONTINUOUS
 70
0
 71
3
 72
23
 73
19
 74
0
 42
0.0000001
 43
0.0000001
 44
0.0000000001
 40
0.0
 40
0.0
 40
0.0
 40
0.0
 40
0.0617101454
 40
0.1234413989
 40
0.1852146487
 40
0.247050356
 40
0.3089683484
 40
0.3709876189
 40
0.4331261353
 40
0.495400665
 40
0.5578266135
 40
0.620417907
 40
0.6831868089
 40
0.7461438636
 40
0.809298024
 40
0.8726551577
 40
0.9362228294
 40
1.0
 40
1.0
 40
1.0
 40
1.0
 10
12.3395907328
 20
7.0120239543
 30
0.0
 10
12.3448574938
 20
7.0171112725
 30
0.0
 10
12.3551329539
 20
7.0275607045
 30
0.0
 10
12.3697223609
 20
7.0440097045
 30
0.0
 10
12.3834573093
 20
7.0611984351
 30
0.0
 10
12.3963055869
 20
7.0790867067
 30
0.0
 10
12.4082377308
 20
7.0976333875
 30
0.0
 10
12.4192262005
 20
7.1167956554
 30
0.0
 10
12.4292456723
 20
7.1365293247
 30
0.0
 10
12.4382730816
 20
7.1567888632
 30
0.0
 10
12.4462876703
 20
7.1775275349
 30
0.0
 10
12.4532710001
 20
7.198697512
 30
0.0
 10
12.4592070113
 20
7.2202499749
 30
0.0
 10
12.4640820646
 20
7.2421352705
 30
0.0
 10
12.4678849157
 20
7.2643028128
 30
0.0
 10
12.470607041
 20
7.286701891
 30
0.0
 10
12.4722419482
 20
7.3092799567
 30
0.0
 10
12.4726041735
 20
7.3243932874
 30
0.0
 10
12.4726041735
 20
7.3319611001
 30
0.0
  0
SPLINE
  5
396
100
AcDbEntity
  8
0
100
AcDbSpline
 62
7
  6
CONTINUOUS
 70
0
 71
3
 72
51
 73
47
 74
0
 42
0.0000001
 43
0.0000001
 44
0.0000000001
 40
0.0
 40
0.0
 40
0.0
 40
0.0
 40
0.0149716485
 40
0.0299463565
 40
0.0449271644
 40
0.0599170744
 40
0.0749190346
 40
0.0899359198
 40
0.1049705137
 40
0.1200254925
 40
0.1351034109
 40
0.1502066862
 40
0.1653375828
 40
0.1804982023
 40
0.1956904722
 40
0.2109161327
 40
0.2261767296
 40
0.241473608
 40
0.2568079046
 40
0.2721805407
 40
0.2875922226
 40
0.303043438
 40
0.3185344523
 40
0.334065311
 40
0.3496358431
 40
0.3652456603
 40
0.3965753769
 40
0.4280524346
 40
0.4596664537
 40
0.4914042018
 40
0.5232498957
 40
0.555185552
 40
0.5871913712
 40
0.619246145
 40
0.65132769
 40
0.68341329
 40
0.7154801477
 40
0.7475058396
 40
0.7794687608
 40
0.8113485629
 40
0.8431265731
 40
0.8747861836
 40
0.9063132226
 40
0.9376962675
 40
0.9689267871
 40
1.0
 40
1.0
 40
1.0
 40
1.0
 10
8.484081288
 20
8.0918385378
 30
0.0
 10
8.4907758575
 20
8.0983049834
 30
0.0
 10
8.5044250504
 20
8.1109744373
 30
0.0
 10
8.525640075
 20
8.1291520923
 30
0.0
 10
8.547569456
 20
8.1464802826
 30
0.0
 10
8.5701825676
 20
8.1629347905
 30
0.0
 10
8.5934483811
 20
8.1784931127
 30
0.0
 10
8.6173348641
 20
8.1931337925
 30
0.0
 10
8.6418091607
 20
8.206836676
 30
0.0
 10
8.6668375566
 20
8.2195829651
 30
0.0
 10
8.6923856112
 20
8.2313551332
 30
0.0
 10
8.718418187
 20
8.2421369468
 30
0.0
 10
8.7448994414
 20
8.2519136253
 30
0.0
 10
8.771792928
 20
8.2606717596
 30
0.0
 10
8.7990616557
 20
8.2683992804
 30
0.0
 10
8.8266681056
 20
8.2750855682
 30
0.0
 10
8.8545742845
 20
8.2807214953
 30
0.0
 10
8.882741807
 20
8.2852993193
 30
0.0
 10
8.9111319322
 20
8.2888127159
 30
0.0
 10
8.9397056001
 20
8.291256926
 30
0.0
 10
8.9684235137
 20
8.2926286247
 30
0.0
 10
8.9972461703
 20
8.2929259021
 30
0.0
 10
9.0261339634
 20
8.2921483731
 30
0.0
 10
9.0550470423
 20
8.2902972016
 30
0.0
 10
9.0839461282
 20
8.2873748199
 30
0.0
 10
9.1224483129
 20
8.2820498267
 30
0.0
 10
9.1703469849
 20
8.2727286377
 30
0.0
 10
9.2270539869
 20
8.2573731785
 30
0.0
 10
9.282758091
 20
8.2379178148
 30
0.0
 10
9.3371514165
 20
8.2144699788
 30
0.0
 10
9.389936059
 20
8.187158853
 30
0.0
 10
9.4408222204
 20
8.1561346854
 30
0.0
 10
9.4895307164
 20
8.1215680037
 30
0.0
 10
9.5357943415
 20
8.083648802
 30
0.0
 10
9.579359153
 20
8.0425852182
 30
0.0
 10
9.6199861557
 20
7.9986027833
 30
0.0
 10
9.6574522674
 20
7.9519428235
 30
0.0
 10
9.6915517815
 20
7.9028614159
 30
0.0
 10
9.7220974031
 20
7.85162789
 30
0.0
 10
9.7489211414
 20
7.7985233099
 30
0.0
 10
9.7718755535
 20
7.7438391533
 30
0.0
 10
9.7908341024
 20
7.6878753787
 30
0.0
 10
9.8056923151
 20
7.6309395009
 30
0.0
 10
9.8163679821
 20
7.5733430278
 30
0.0
 10
9.8228019271
 20
7.5154063635
 30
0.0
 10
9.8242430132
 20
7.4766582395
 30
0.0
 10
9.8242430132
 20
7.4573405065
 30
0.0
  0
SPLINE
  5
397
100
AcDbEntity
  8
0
100
AcDbSpline
 62
7
  6
CONTINUOUS
 70
0
 71
3
 72
39
 73
35
 74
0
 42
0.0000001
 43
0.0000001
 44
0.0000000001
 40
0.0
 40
0.0
 40
0.0
 40
0.0
 40
0.030615552
 40
0.0613368645
 40
0.0921623525
 40
0.1230894036
 40
0.1541144137
 40
0.1852328324
 40
0.216439215
 40
0.2477272815
 40
0.2790899826
 40
0.3105195705
 40
0.3420076753
 40
0.3735453862
 40
0.4051233366
 40
0.4367317922
 40
0.4683607406
 40
0.4999999826
 40
0.5316392255
 40
0.5632681757
 40
0.594876633
 40
0.6264545843
 40
0.6579922954
 40
0.6894804005
 40
0.7209099898
 40
0.7522726941
 40
0.7835607646
 40
0.8147671497
 40
0.8458855758
 40
0.8769105677
 40
0.9078376848
 40
0.9386630019
 40
0.9693846615
 40
1.0
 40
1.0
 40
1.0
 40
1.0
 10
9.0337754134
 20
8.0758077424
 30
0.0
 10
9.0430733638
 20
8.075485334
 30
0.0
 10
9.0616884568
 20
8.0743710789
 30
0.0
 10
9.0895377953
 20
8.071306147
 30
0.0
 10
9.1172955284
 20
8.0668524607
 30
0.0
 10
9.1448909058
 20
8.061021307
 30
0.0
 10
9.1722547752
 20
8.0538274166
 30
0.0
 10
9.1993182564
 20
8.0452889469
 30
0.0
 10
9.2260133162
 20
8.0354274267
 30
0.0
 10
9.2522728296
 20
8.0242677043
 30
0.0
 10
9.2780307756
 20
8.0118378834
 30
0.0
 10
9.3032223943
 20
7.9981692542
 30
0.0
 10
9.3277843489
 20
7.9832962126
 30
0.0
 10
9.3516548925
 20
7.967256188
 30
0.0
 10
9.374774018
 20
7.9500895387
 30
0.0
 10
9.3970836058
 20
7.931839447
 30
0.0
 10
9.4185275691
 20
7.9125518124
 30
0.0
 10
9.4390519934
 20
7.8922751364
 30
0.0
 10
9.4586052715
 20
7.8710604026
 30
0.0
 10
9.4771382305
 20
7.8489609471
 30
0.0
 10
9.4946042638
 20
7.8260323336
 30
0.0
 10
9.510959449
 20
7.8023322116
 30
0.0
 10
9.5261626485
 20
7.7779201658
 30
0.0
 10
9.5401756147
 20
7.7528575685
 30
0.0
 10
9.5529630846
 20
7.7272074268
 30
0.0
 10
9.5644928685
 20
7.7010342256
 30
0.0
 10
9.5747359289
 20
7.6744037667
 30
0.0
 10
9.5836664637
 20
7.6473830042
 30
0.0
 10
9.5912619605
 20
7.6200398928
 30
0.0
 10
9.5975033021
 20
7.5924431531
 30
0.0
 10
9.6023746544
 20
7.5646623147
 30
0.0
 10
9.6058638521
 20
7.5367668543
 30
0.0
 10
9.6079618401
 20
7.5088280409
 30
0.0
 10
9.608430403
 20
7.4901854768
 30
0.0
 10
9.608430411
 20
7.4808820032
 30
0.0
  0
SPLINE
  5
398
100
AcDbEntity
  8
0
100
AcDbSpline
 62
7
  6
CONTINUOUS
 70
0
 71
3
 72
39
 73
35
 74
0
 42
0.0000001
 43
0.0000001
 44
0.0000000001
 40
0.0
 40
0.0
 40
0.0
 40
0.0
 40
0.029942471
 40
0.0599093185
 40
0.0899243251
 40
0.1200101042
 40
0.1501875626
 40
0.1804754144
 40
0.2108897595
 40
0.2414437366
 40
0.2721472604
 40
0.3030068427
 40
0.3340254953
 40
0.365202715
 40
0.3965345496
 40
0.4280137343
 40
0.4596298913
 40
0.491369786
 40
0.5232176335
 40
0.55515545
 40
0.587163434
 40
0.6192203769
 40
0.6513040926
 40
0.6833918636
 40
0.7154608918
 40
0.747488751
 40
0.7794538351
 40
0.8113357952
 40
0.8431159564
 40
0.874777711
 40
0.9063068724
 40
0.937692086
 40
0.9689246467
 40
1.0
 40
1.0
 40
1.0
 40
1.0
 10
8.7602666718
 20
7.9185742396
 30
0.0
 10
8.76840389
 20
7.9264342164
 30
0.0
 10
8.7853182119
 20
7.9415198011
 30
0.0
 10
8.8124175731
 20
7.9620712544
 30
0.0
 10
8.8411063251
 20
7.9804429017
 30
0.0
 10
8.8712241469
 20
7.9965317115
 30
0.0
 10
8.9026054588
 20
8.0102497846
 30
0.0
 10
8.9350770804
 20
8.021521692
 30
0.0
 10
8.968460074
 20
8.0302857487
 30
0.0
 10
9.0025705136
 20
8.0364941369
 30
0.0
 10
9.0372205949
 20
8.0401131368
 30
0.0
 10
9.0722196489
 20
8.0411232822
 30
0.0
 10
9.1073751881
 20
8.0395194401
 30
0.0
 10
9.1424939633
 20
8.0353108924
 30
0.0
 10
9.1773830206
 20
8.0285211918
 30
0.0
 10
9.2118507446
 20
8.0191880162
 30
0.0
 10
9.2457078871
 20
8.0073629407
 30
0.0
 10
9.2787686077
 20
7.9931112037
 30
0.0
 10
9.3108514845
 20
7.976511328
 30
0.0
 10
9.3417804771
 20
7.9576546467
 30
0.0
 10
9.3713858771
 20
7.9366448115
 30
0.0
 10
9.3995052309
 20
7.91359724
 30
0.0
 10
9.4259842593
 20
7.8886385276
 30
0.0
 10
9.4506776502
 20
7.8619056966
 30
0.0
 10
9.4734498507
 20
7.8335454641
 30
0.0
 10
9.4941757912
 20
7.8037134405
 30
0.0
 10
9.5127416259
 20
7.7725733304
 30
0.0
 10
9.5290453173
 20
7.7402960028
 30
0.0
 10
9.5429971768
 20
7.7070585817
 30
0.0
 10
9.5545203411
 20
7.673043411
 30
0.0
 10
9.563551269
 20
7.6384373624
 30
0.0
 10
9.570039986
 20
7.6034298248
 30
0.0
 10
9.5739506348
 20
7.5682155082
 30
0.0
 10
9.5748265229
 20
7.5446641331
 30
0.0
 10
9.5748265229
 20
7.5329226628
 30
0.0
  0
SPLINE
  5
399
100
AcDbEntity
  8
0
100
AcDbSpline
 62
7
  6
CONTINUOUS
 70
0
 71
3
 72
23
 73
19
 74
0
 42
0.0000001
 43
0.0000001
 44
0.0000000001
 40
0.0
 40
0.0
 40
0.0
 40
0.0
 40
0.0617101454
 40
0.1234413989
 40
0.1852146487
 40
0.247050356
 40
0.3089683484
 40
0.3709876189
 40
0.4331261353
 40
0.495400665
 40
0.5578266135
 40
0.620417907
 40
0.6831868089
 40
0.7461438636
 40
0.809298024
 40
0.8726551577
 40
0.9362228294
 40
1.0
 40
1.0
 40
1.0
 40
1.0
 10
9.4418130822
 20
7.2129855169
 30
0.0
 10
9.4470798432
 20
7.2180728351
 30
0.0
 10
9.4573553034
 20
7.2285222671
 30
0.0
 10
9.4719447104
 20
7.2449712671
 30
0.0
 10
9.4856796587
 20
7.2621599978
 30
0.0
 10
9.4985279364
 20
7.2800482694
 30
0.0
 10
9.5104600803
 20
7.2985949501
 30
0.0
 10
9.5214485499
 20
7.317757218
 30
0.0
 10
9.5314680218
 20
7.3374908873
 30
0.0
 10
9.5404954311
 20
7.3577504259
 30
0.0
 10
9.5485100197
 20
7.3784890975
 30
0.0
 10
9.5554933495
 20
7.3996590746
 30
0.0
 10
9.5614293608
 20
7.4212115375
 30
0.0
 10
9.566304414
 20
7.4430968331
 30
0.0
 10
9.5701072651
 20
7.4652643754
 30
0.0
 10
9.5728293904
 20
7.4876634536
 30
0.0
 10
9.5744642977
 20
7.5102415193
 30
0.0
 10
9.5748265229
 20
7.5253548501
 30
0.0
 10
9.5748265229
 20
7.5329226628
 30
0.0
  0
SPLINE
  5
39A
100
AcDbEntity
  8
0
100
AcDbSpline
 62
7
  6
CONTINUOUS
 70
0
 71
3
 72
23
 73
19
 74
0
 42
0.0000001
 43
0.0000001
 44
0.0000000001
 40
0.0
 40
0.0
 40
0.0
 40
0.0
 40
0.1004472412
 40
0.1941366219
 40
0.2812506187
 40
0.3620191624
 40
0.4367189556
 40
0.5056808099
 40
0.5692871686
 40
0.6279807131
 40
0.68227913
 40
0.732777574
 40
0.7801664759
 40
0.8252286064
 40
0.8688271831
 40
0.9118813814
 40
0.9553111815
 40
1.0
 40
1.0
 40
1.0
 40
1.0
 10
9.5560176445
 20
7.5806136029
 30
0.0
 10
9.5539638288
 20
7.5796820422
 30
0.0
 10
9.549932419
 20
7.5780136522
 30
0.0
 10
9.543932132
 20
7.576028338
 30
0.0
 10
9.5382251274
 20
7.5746168462
 30
0.0
 10
9.5328421612
 20
7.5737462568
 30
0.0
 10
9.5278094804
 20
7.573381943
 30
0.0
 10
9.5231495744
 20
7.5734885873
 30
0.0
 10
9.518881394
 20
7.5740310412
 30
0.0
 10
9.5150208181
 20
7.5749746607
 30
0.0
 10
9.511581306
 20
7.5762860995
 30
0.0
 10
9.5085744852
 20
7.5779334184
 30
0.0
 10
9.5060109893
 20
7.5798860092
 30
0.0
 10
9.5039009709
 20
7.582114158
 30
0.0
 10
9.5022537403
 20
7.5845879309
 30
0.0
 10
9.5010768106
 20
7.5872772372
 30
0.0
 10
9.5003745502
 20
7.5901513055
 30
0.0
 10
9.5002261971
 20
7.5921339039
 30
0.0
 10
9.5002260619
 20
7.5931372425
 30
0.0
  0
SPLINE
  5
39B
100
AcDbEntity
  8
0
100
AcDbSpline
 62
7
  6
CONTINUOUS
 70
0
 71
3
 72
66
 73
62
 74
0
 42
0.0000001
 43
0.0000001
 44
0.0000000001
 40
0.0
 40
0.0
 40
0.0
 40
0.0
 40
0.0027164831
 40
0.0054533362
 40
0.0082304531
 40
0.0110667909
 40
0.013980033
 40
0.0169863865
 40
0.0233315171
 40
0.02669792
 40
0.0302059105
 40
0.0376767845
 40
0.0457991388
 40
0.0546090923
 40
0.064129998
 40
0.0743752163
 40
0.0853502613
 40
0.097054292
 40
0.1094812194
 40
0.1226206562
 40
0.1364585492
 40
0.1509776
 40
0.1661577381
 40
0.1819764535
 40
0.1984089799
 40
0.2154285414
 40
0.2330065886
 40
0.2511129133
 40
0.269715773
 40
0.2887820895
 40
0.3082775532
 40
0.3281666936
 40
0.3689784329
 40
0.4109162814
 40
0.4536671486
 40
0.4969100345
 40
0.5403192165
 40
0.5835673737
 40
0.626328724
 40
0.6682821728
 40
0.7091144878
 40
0.7290157032
 40
0.7485243984
 40
0.7676050955
 40
0.7862234091
 40
0.8043462161
 40
0.8219417709
 40
0.8389797906
 40
0.855431638
 40
0.8712705233
 40
0.8864716185
 40
0.9010122805
 40
0.9148723878
 40
0.9280345868
 40
0.9404846517
 40
0.9522120616
 40
0.9632106634
 40
0.9734793613
 40
0.983023321
 40
0.9918561545
 40
1.0
 40
1.0
 40
1.0
 40
1.0
 10
13.0704068828
 20
6.1203579656
 30
0.0
 10
13.0697489841
 20
6.1204035857
 30
0.0
 10
13.068431622
 20
6.120554712
 30
0.0
 10
13.0664723402
 20
6.1209590957
 30
0.0
 10
13.064527872
 20
6.1215412004
 30
0.0
 10
13.0625996136
 20
6.1223003856
 30
0.0
 10
13.0606884606
 20
6.12323602
 30
0.0
 10
13.0581187957
 20
6.1247446827
 30
0.0
 10
13.0556313204
 20
6.1265916218
 30
0.0
 10
13.0532344763
 20
6.1287273638
 30
0.0
 10
13.0507666702
 20
6.1311871449
 30
0.0
 10
13.0477444023
 20
6.1347142918
 30
0.0
 10
13.0442892062
 20
6.1395339713
 30
0.0
 10
13.0409372146
 20
6.1450176146
 30
0.0
 10
13.0376942069
 20
6.1511546715
 30
0.0
 10
13.0345658717
 20
6.1579337905
 30
0.0
 10
13.0315581563
 20
6.1653420386
 30
0.0
 10
13.0286769208
 20
6.1733651146
 30
0.0
 10
13.0259278619
 20
6.181987322
 30
0.0
 10
13.0233165028
 20
6.1911916772
 30
0.0
 10
13.0208481399
 20
6.2009599468
 30
0.0
 10
13.0185277578
 20
6.211272687
 30
0.0
 10
13.0163600675
 20
6.2221093165
 30
0.0
 10
13.014349497
 20
6.2334481725
 30
0.0
 10
13.0125001311
 20
6.2452665457
 30
0.0
 10
13.0108157217
 20
6.2575407382
 30
0.0
 10
13.0092997091
 20
6.270246127
 30
0.0
 10
13.0079551871
 20
6.2833572059
 30
0.0
 10
13.006784874
 20
6.2968476392
 30
0.0
 10
13.005791163
 20
6.3106903168
 30
0.0
 10
13.0049760686
 20
6.3248574454
 30
0.0
 10
13.0041224297
 20
6.3443084245
 30
0.0
 10
13.0035226329
 20
6.3692216814
 30
0.0
 10
13.0035368896
 20
6.3996921372
 30
0.0
 10
13.0042795869
 20
6.4307438921
 30
0.0
 10
13.0057448946
 20
6.4621274053
 30
0.0
 10
13.0079211969
 20
6.4935906397
 30
0.0
 10
13.0107909792
 20
6.5248808402
 30
0.0
 10
13.0143310973
 20
6.5557467349
 30
0.0
 10
13.0185129485
 20
6.5859402978
 30
0.0
 10
13.0225378273
 20
6.6105454642
 30
0.0
 10
13.0260620373
 20
6.6297048758
 30
0.0
 10
13.0288205677
 20
6.6436345539
 30
0.0
 10
13.0317113835
 20
6.6572191277
 30
0.0
 10
13.0347286926
 20
6.6704313146
 30
0.0
 10
13.037866389
 20
6.6832445695
 30
0.0
 10
13.0411181247
 20
6.6956331679
 30
0.0
 10
13.0444773391
 20
6.707572239
 30
0.0
 10
13.0479372521
 20
6.7190378314
 30
0.0
 10
13.0514908538
 20
6.7300069738
 30
0.0
 10
13.055130965
 20
6.7404577059
 30
0.0
 10
13.0588502519
 20
6.75036913
 30
0.0
 10
13.0626411913
 20
6.7597214862
 30
0.0
 10
13.0664961406
 20
6.7684961803
 30
0.0
 10
13.0704073815
 20
6.7766758215
 30
0.0
 10
13.0743670919
 20
6.7842443093
 30
0.0
 10
13.0783674493
 20
6.791186877
 30
0.0
 10
13.0824006259
 20
6.7974900341
 30
0.0
 10
13.0864591652
 20
6.8031420098
 30
0.0
 10
13.0905352244
 20
6.8081315423
 30
0.0
 10
13.0933718742
 20
6.8111286699
 30
0.0
 10
13.0947938945
 20
6.8125022362
 30
0.0
  0
SPLINE
  5
39C
100
AcDbEntity
  8
0
100
AcDbSpline
 62
7
  6
CONTINUOUS
 70
0
 71
3
 72
54
 73
50
 74
0
 42
0.0000001
 43
0.0000001
 44
0.0000000001
 40
0.0
 40
0.0
 40
0.0
 40
0.0
 40
0.0070067051
 40
0.0138996074
 40
0.0207472528
 40
0.0276162813
 40
0.0345708256
 40
0.0416692243
 40
0.0489645933
 40
0.0565025755
 40
0.0643226764
 40
0.0724574674
 40
0.0809337455
 40
0.0897729788
 40
0.0989917201
 40
0.1086029035
 40
0.1186154807
 40
0.1290361265
 40
0.1398684174
 40
0.1511145251
 40
0.1627743582
 40
0.1748469033
 40
0.1873296191
 40
0.2002192805
 40
0.2271984752
 40
0.2557482106
 40
0.2858214609
 40
0.3173657827
 40
0.3503237557
 40
0.3846323194
 40
0.4202213955
 40
0.4570122615
 40
0.4949162575
 40
0.5338345316
 40
0.5736593036
 40
0.6142773092
 40
0.6555745429
 40
0.6974414139
 40
0.7397779555
 40
0.7611008658
 40
0.7825098989
 40
0.8039967408
 40
0.8255540631
 40
0.8688444083
 40
0.912356314
 40
0.9341940915
 40
0.9560804321
 40
0.9780166172
 40
1.0
 40
1.0
 40
1.0
 40
1.0
 10
12.3381682442
 20
7.4617194151
 30
0.0
 10
12.3381685044
 20
7.4604217639
 30
0.0
 10
12.3380584881
 20
7.4578459055
 30
0.0
 10
12.3375468477
 20
7.4540324801
 30
0.0
 10
12.3366904853
 20
7.4503071845
 30
0.0
 10
12.3354902749
 20
7.4466662204
 30
0.0
 10
12.3339477259
 20
7.4431061651
 30
0.0
 10
12.3320646454
 20
7.4396243057
 30
0.0
 10
12.3298433712
 20
7.4362185943
 30
0.0
 10
12.3272860235
 20
7.4328878404
 30
0.0
 10
12.3243951442
 20
7.4296316457
 30
0.0
 10
12.3211730705
 20
7.4264507333
 30
0.0
 10
12.3176223896
 20
7.4233468472
 30
0.0
 10
12.313745869
 20
7.4203227852
 30
0.0
 10
12.3095462638
 20
7.4173827044
 30
0.0
 10
12.3050269393
 20
7.4145314675
 30
0.0
 10
12.3001910294
 20
7.4117756643
 30
0.0
 10
12.2950425418
 20
7.4091222306
 30
0.0
 10
12.2895852257
 20
7.4065800363
 30
0.0
 10
12.2838237412
 20
7.4041581746
 30
0.0
 10
12.277762672
 20
7.4018675698
 30
0.0
 10
12.2714074281
 20
7.3997195577
 30
0.0
 10
12.2647635587
 20
7.3977269081
 30
0.0
 10
12.2553860388
 20
7.3952577992
 30
0.0
 10
12.2429738628
 20
7.3926580213
 30
0.0
 10
12.2272638636
 20
7.3904449596
 30
0.0
 10
12.2105955874
 20
7.3892343173
 30
0.0
 10
12.1930656213
 20
7.3891792012
 30
0.0
 10
12.1747926393
 20
7.390440321
 30
0.0
 10
12.1559227024
 20
7.393180594
 30
0.0
 10
12.1366326649
 20
7.3975574906
 30
0.0
 10
12.1171321274
 20
7.4037132596
 30
0.0
 10
12.0976622869
 20
7.4117635884
 30
0.0
 10
12.0784908476
 20
7.4217859805
 30
0.0
 10
12.059902385
 20
7.4338096469
 30
0.0
 10
12.042185608
 20
7.4478096858
 30
0.0
 10
12.0256189209
 20
7.4637071015
 30
0.0
 10
12.0104579594
 20
7.4813715158
 30
0.0
 10
11.9992042178
 20
7.4973904357
 30
0.0
 10
11.991098418
 20
7.5109058328
 30
0.0
 10
11.985476082
 20
7.521391793
 30
0.0
 10
11.9803436316
 20
7.5321740589
 30
0.0
 10
11.9741654621
 20
7.5469270149
 30
0.0
 10
11.9677415091
 20
7.5659731141
 30
0.0
 10
11.9631235803
 20
7.5855883781
 30
0.0
 10
11.9605260818
 20
7.6015393029
 30
0.0
 10
11.9591296687
 20
7.6136238672
 30
0.0
 10
11.9582910109
 20
7.6257863819
 30
0.0
 10
11.9581049206
 20
7.6339216027
 30
0.0
 10
11.9581049206
 20
7.6379929548
 30
0.0
  0
SPLINE
  5
39D
100
AcDbEntity
  8
0
100
AcDbSpline
 62
7
  6
CONTINUOUS
 70
0
 71
3
 72
51
 73
47
 74
0
 42
0.0000001
 43
0.0000001
 44
0.0000000001
 40
0.0
 40
0.0
 40
0.0
 40
0.0
 40
0.0149716485
 40
0.0299463565
 40
0.0449271644
 40
0.0599170744
 40
0.0749190346
 40
0.0899359198
 40
0.1049705137
 40
0.1200254925
 40
0.1351034109
 40
0.1502066862
 40
0.1653375828
 40
0.1804982023
 40
0.1956904722
 40
0.2109161327
 40
0.2261767296
 40
0.241473608
 40
0.2568079046
 40
0.2721805407
 40
0.2875922226
 40
0.303043438
 40
0.3185344523
 40
0.334065311
 40
0.3496358431
 40
0.3652456603
 40
0.3965753769
 40
0.4280524346
 40
0.4596664537
 40
0.4914042018
 40
0.5232498957
 40
0.555185552
 40
0.5871913712
 40
0.619246145
 40
0.65132769
 40
0.68341329
 40
0.7154801477
 40
0.7475058396
 40
0.7794687608
 40
0.8113485629
 40
0.8431265731
 40
0.8747861836
 40
0.9063132226
 40
0.9376962675
 40
0.9689267871
 40
1.0
 40
1.0
 40
1.0
 40
1.0
 10
12.5031780129
 20
6.7299982333
 30
0.0
 10
12.4964834434
 20
6.7235317877
 30
0.0
 10
12.4828342505
 20
6.7108623338
 30
0.0
 10
12.4616192259
 20
6.6926846788
 30
0.0
 10
12.4396898449
 20
6.6753564885
 30
0.0
 10
12.4170767334
 20
6.6589019806
 30
0.0
 10
12.3938109198
 20
6.6433436584
 30
0.0
 10
12.3699244368
 20
6.6287029786
 30
0.0
 10
12.3454501402
 20
6.6150000951
 30
0.0
 10
12.3204217443
 20
6.602253806
 30
0.0
 10
12.2948736897
 20
6.5904816379
 30
0.0
 10
12.2688411139
 20
6.5796998243
 30
0.0
 10
12.2423598595
 20
6.5699231458
 30
0.0
 10
12.2154663729
 20
6.5611650115
 30
0.0
 10
12.1881976452
 20
6.5534374907
 30
0.0
 10
12.1605911953
 20
6.5467512029
 30
0.0
 10
12.1326850164
 20
6.5411152758
 30
0.0
 10
12.1045174939
 20
6.5365374518
 30
0.0
 10
12.0761273687
 20
6.5330240552
 30
0.0
 10
12.0475537009
 20
6.5305798451
 30
0.0
 10
12.0188357872
 20
6.5292081464
 30
0.0
 10
11.9900131306
 20
6.528910869
 30
0.0
 10
11.9611253375
 20
6.529688398
 30
0.0
 10
11.9322122586
 20
6.5315395695
 30
0.0
 10
11.9033131728
 20
6.5344619512
 30
0.0
 10
11.864810988
 20
6.5397869444
 30
0.0
 10
11.816912316
 20
6.5491081334
 30
0.0
 10
11.760205314
 20
6.5644635926
 30
0.0
 10
11.7045012099
 20
6.5839189563
 30
0.0
 10
11.6501078844
 20
6.6073667923
 30
0.0
 10
11.5973232419
 20
6.6346779181
 30
0.0
 10
11.5464370805
 20
6.6657020857
 30
0.0
 10
11.4977285845
 20
6.7002687674
 30
0.0
 10
11.4514649595
 20
6.7381879691
 30
0.0
 10
11.4079001479
 20
6.7792515529
 30
0.0
 10
11.3672731452
 20
6.8232339878
 30
0.0
 10
11.3298070335
 20
6.8698939476
 30
0.0
 10
11.2957075194
 20
6.9189753552
 30
0.0
 10
11.2651618978
 20
6.9702088811
 30
0.0
 10
11.2383381595
 20
7.0233134612
 30
0.0
 10
11.2153837474
 20
7.0779976178
 30
0.0
 10
11.1964251985
 20
7.1339613924
 30
0.0
 10
11.1815669858
 20
7.1908972702
 30
0.0
 10
11.1708913188
 20
7.2484937433
 30
0.0
 10
11.1644573738
 20
7.3064304076
 30
0.0
 10
11.1630162877
 20
7.3451785316
 30
0.0
 10
11.1630162877
 20
7.3644962646
 30
0.0
  0
SPLINE
  5
39E
100
AcDbEntity
  8
0
100
AcDbSpline
 62
7
  6
CONTINUOUS
 70
0
 71
3
 72
39
 73
35
 74
0
 42
0.0000001
 43
0.0000001
 44
0.0000000001
 40
0.0
 40
0.0
 40
0.0
 40
0.0
 40
0.0302060282
 40
0.0603373815
 40
0.0904231215
 40
0.1204937049
 40
0.1505800548
 40
0.1807126093
 40
0.2109203932
 40
0.2412301452
 40
0.2716655307
 40
0.3022464708
 40
0.3329886094
 40
0.3639029255
 40
0.3949954934
 40
0.4262673933
 40
0.4577147703
 40
0.4893290212
 40
0.5210970967
 40
0.5530019077
 40
0.5850228258
 40
0.6171362505
 40
0.6493162351
 40
0.6815351553
 40
0.7137644122
 40
0.7459751483
 40
0.7781389687
 40
0.8102286567
 40
0.8422188661
 40
0.8740867776
 40
0.9058127056
 40
0.9373807399
 40
0.9687786883
 40
1.0
 40
1.0
 40
1.0
 40
1.0
 10
9.5702105623
 20
7.5984339921
 30
0.0
 10
9.5663287177
 20
7.5912012974
 30
0.0
 10
9.5579336596
 20
7.5770871575
 30
0.0
 10
9.5435319926
 20
7.5571390331
 30
0.0
 10
9.52743608
 20
7.5385769618
 30
0.0
 10
9.5097588653
 20
7.5215322687
 30
0.0
 10
9.4906229234
 20
7.5061228516
 30
0.0
 10
9.4701614432
 20
7.492455865
 30
0.0
 10
9.4485167184
 20
7.480626058
 30
0.0
 10
9.42583926
 20
7.4707153734
 30
0.0
 10
9.4022867003
 20
7.4627922715
 30
0.0
 10
9.378022664
 20
7.4569112781
 30
0.0
 10
9.3532155775
 20
7.4531127014
 30
0.0
 10
9.3280374987
 20
7.4514223897
 30
0.0
 10
9.3026629281
 20
7.4518515454
 30
0.0
 10
9.2772675935
 20
7.4543966519
 30
0.0
 10
9.252027243
 20
7.4590396086
 30
0.0
 10
9.2271164565
 20
7.4657478731
 30
0.0
 10
9.2027074568
 20
7.4744746705
 30
0.0
 10
9.1789689169
 20
7.4851592889
 30
0.0
 10
9.1560648399
 20
7.4977275869
 30
0.0
 10
9.1341534512
 20
7.5120924962
 30
0.0
 10
9.1133861182
 20
7.528154599
 30
0.0
 10
9.0939062792
 20
7.5458027669
 30
0.0
 10
9.0758485165
 20
7.564914994
 30
0.0
 10
9.0593376415
 20
7.5853592179
 30
0.0
 10
9.044487837
 20
7.6069942059
 30
0.0
 10
9.0314018157
 20
7.6296704858
 30
0.0
 10
9.0201701862
 20
7.6532313993
 30
0.0
 10
9.0108708359
 20
7.6775142287
 30
0.0
 10
9.0035683598
 20
7.7023510359
 30
0.0
 10
8.9983136482
 20
7.7275707015
 30
0.0
 10
8.9951433011
 20
7.7529965972
 30
0.0
 10
8.9944323476
 20
7.7700217393
 30
0.0
 10
8.9944323476
 20
7.7785062135
 30
0.0
  0
SPLINE
  5
39F
100
AcDbEntity
  8
0
100
AcDbSpline
 62
7
  6
CONTINUOUS
 70
0
 71
3
 72
44
 73
40
 74
0
 42
0.0000001
 43
0.0000001
 44
0.0000000001
 40
0.0
 40
0.0
 40
0.0
 40
0.0
 40
0.0308954161
 40
0.0463971471
 40
0.0619328191
 40
0.0931010421
 40
0.1243981486
 40
0.155816392
 40
0.1873459579
 40
0.2189752859
 40
0.2506912277
 40
0.2665790637
 40
0.2824830161
 40
0.3143275458
 40
0.3462120511
 40
0.3781194119
 40
0.4100321562
 40
0.4419327295
 40
0.4738037645
 40
0.5056283482
 40
0.5373902853
 40
0.5690743527
 40
0.6006665437
 40
0.6321542979
 40
0.6635267136
 40
0.6947747405
 40
0.7258913463
 40
0.7568716577
 40
0.7877130684
 40
0.8184153135
 40
0.8489805058
 40
0.8642151405
 40
0.8794173909
 40
0.9097242618
 40
0.9399144254
 40
0.9549713486
 40
0.9700034387
 40
0.9850123909
 40
1.0
 40
1.0
 40
1.0
 40
1.0
 10
8.8134674246
 20
7.7785062031
 30
0.0
 10
8.8134674246
 20
7.7681833043
 30
0.0
 10
8.8139745246
 20
7.7526748542
 30
0.0
 10
8.8156515155
 20
7.7320471536
 30
0.0
 10
8.8180014841
 20
7.711392773
 30
0.0
 10
8.8221925877
 20
7.6856505297
 30
0.0
 10
8.8291935631
 20
7.6550520164
 30
0.0
 10
8.8381419732
 20
7.6248390496
 30
0.0
 10
8.8489996866
 20
7.5951405518
 30
0.0
 10
8.8617200678
 20
7.5660830793
 30
0.0
 10
8.8738218383
 20
7.5425168697
 30
0.0
 10
8.8843755309
 20
7.5241047458
 30
0.0
 10
8.8955112666
 20
7.5059882233
 30
0.0
 10
8.9104805192
 20
7.4839694032
 30
0.0
 10
8.9300359875
 20
7.4586730844
 30
0.0
 10
8.9511101583
 20
7.4345962828
 30
0.0
 10
8.9736131296
 20
7.4118418923
 30
0.0
 10
8.997449435
 20
7.3905063833
 30
0.0
 10
9.0225178266
 20
7.3706804357
 30
0.0
 10
9.0487118697
 20
7.3524482798
 30
0.0
 10
9.0759203453
 20
7.335887415
 30
0.0
 10
9.10402773
 20
7.3210682627
 30
0.0
 10
9.132914679
 20
7.3080538731
 30
0.0
 10
9.1624585272
 20
7.296899657
 30
0.0
 10
9.192533807
 20
7.2876531501
 30
0.0
 10
9.2230127672
 20
7.2803538085
 30
0.0
 10
9.2537659373
 20
7.2750328425
 30
0.0
 10
9.2846625703
 20
7.2717130646
 30
0.0
 10
9.3155715677
 20
7.2704088449
 30
0.0
 10
9.3463606412
 20
7.2711258271
 30
0.0
 10
9.3718402229
 20
7.2734082642
 30
0.0
 10
9.3920280832
 20
7.2762403068
 30
0.0
 10
9.4120249361
 20
7.279731151
 30
0.0
 10
9.4367103965
 20
7.2853337972
 30
0.0
 10
9.4609137401
 20
7.2925814856
 30
0.0
 10
9.4798898865
 20
7.2993406468
 30
0.0
 10
9.4939060931
 20
7.3048808629
 30
0.0
 10
9.5077022467
 20
7.3108897403
 30
0.0
 10
9.5167498565
 20
7.3152071467
 30
0.0
 10
9.5212314366
 20
7.31744158
 30
0.0
  0
SPLINE
  5
3A0
100
AcDbEntity
  8
0
100
AcDbSpline
 62
7
  6
CONTINUOUS
 70
0
 71
3
 72
15
 73
11
 74
0
 42
0.0000001
 43
0.0000001
 44
0.0000000001
 40
0.0
 40
0.0
 40
0.0
 40
0.0
 40
0.1268098014
 40
0.2530495495
 40
0.3787339289
 40
0.5038874621
 40
0.6285440036
 40
0.7527463531
 40
0.8765455422
 40
1.0
 40
1.0
 40
1.0
 40
1.0
 10
8.4125151819
 20
9.1904923369
 30
0.0
 10
8.4125151819
 20
9.1983554827
 30
0.0
 10
8.4130264674
 20
9.2140513916
 30
0.0
 10
8.4153363173
 20
9.2374382394
 30
0.0
 10
8.4191776964
 20
9.2605199618
 30
0.0
 10
8.4245344229
 20
9.2831968618
 30
0.0
 10
8.4313837827
 20
9.3053724769
 30
0.0
 10
8.4396969317
 20
9.3269524297
 30
0.0
 10
8.4494378053
 20
9.3478433875
 30
0.0
 10
8.456866841
 20
9.3612713597
 30
0.0
 10
8.4608029691
 20
9.3678369741
 30
0.0
  0
SPLINE
  5
3A1
100
AcDbEntity
  8
0
100
AcDbSpline
 62
7
  6
CONTINUOUS
 70
0
 71
3
 72
21
 73
17
 74
0
 42
0.0000001
 43
0.0000001
 44
0.0000000001
 40
0.0
 40
0.0
 40
0.0
 40
0.0
 40
0.1273176366
 40
0.2537999756
 40
0.3167619475
 40
0.3795355041
 40
0.4421314991
 40
0.5045621439
 40
0.5668413432
 40
0.6289845283
 40
0.6910084528
 40
0.7529310935
 40
0.8147714495
 40
0.8765493365
 40
0.9382852194
 40
1.0
 40
1.0
 40
1.0
 40
1.0
 10
8.5332559173
 20
9.1821189385
 30
0.0
 10
8.5332559173
 20
9.1898184296
 30
0.0
 10
8.5339908845
 20
9.2051768079
 30
0.0
 10
8.5367666172
 20
9.2241630818
 30
0.0
 10
8.5400842349
 20
9.2390561539
 30
0.0
 10
8.543109724
 20
9.2500412892
 30
0.0
 10
8.5466690083
 20
9.2608312369
 30
0.0
 10
8.5507539324
 20
9.2714014111
 30
0.0
 10
8.5553550479
 20
9.2817273731
 30
0.0
 10
8.5604618085
 20
9.2917853097
 30
0.0
 10
8.5660624674
 20
9.301552002
 30
0.0
 10
8.5721440758
 20
9.3110049554
 30
0.0
 10
8.5786926257
 20
9.3201223285
 30
0.0
 10
8.5856931304
 20
9.3288831307
 30
0.0
 10
8.5931291168
 20
9.3372669194
 30
0.0
 10
8.5983663308
 20
9.3425928496
 30
0.0
 10
8.6010507186
 20
9.3451857696
 30
0.0
  0
SPLINE
  5
3A2
100
AcDbEntity
  8
0
100
AcDbSpline
 62
7
  6
CONTINUOUS
 70
0
 71
3
 72
50
 73
46
 74
0
 42
0.0000001
 43
0.0000001
 44
0.0000000001
 40
0.0
 40
0.0
 40
0.0
 40
0.0
 40
0.031064449
 40
0.0622851522
 40
0.0936574647
 40
0.1251729925
 40
0.156820532
 40
0.1885861714
 40
0.2204536001
 40
0.2524044658
 40
0.2844187582
 40
0.3164752117
 40
0.3485517324
 40
0.380625833
 40
0.4126750733
 40
0.4446775003
 40
0.4766120842
 40
0.5084591356
 40
0.5402007102
 40
0.571820985
 40
0.603306598
 40
0.6346469583
 40
0.6658344977
 40
0.6813720807
 40
0.6968701109
 40
0.7123285748
 40
0.7277476717
 40
0.7431278176
 40
0.7584696458
 40
0.7737740016
 40
0.7890419395
 40
0.8042747226
 40
0.8194738134
 40
0.8346408656
 40
0.8497777202
 40
0.8648863937
 40
0.8799690655
 40
0.8950280684
 40
0.9100658766
 40
0.9250850883
 40
0.9400884123
 40
0.9550786537
 40
0.9700586958
 40
0.9850314818
 40
1.0
 40
1.0
 40
1.0
 40
1.0
 10
8.27352084
 20
7.5734578213
 30
0.0
 10
8.27352084
 20
7.5542647995
 30
0.0
 10
8.2749433364
 20
7.515767634
 30
0.0
 10
8.2812947214
 20
7.4582028757
 30
0.0
 10
8.2918339099
 20
7.4009698716
 30
0.0
 10
8.3065033177
 20
7.3443829243
 30
0.0
 10
8.3252227488
 20
7.2887476634
 30
0.0
 10
8.3478903985
 20
7.2343658812
 30
0.0
 10
8.374382954
 20
7.1815320848
 30
0.0
 10
8.4045565419
 20
7.1305324853
 30
0.0
 10
8.4382474956
 20
7.0816433729
 30
0.0
 10
8.4752730021
 20
7.0351295016
 30
0.0
 10
8.5154324291
 20
6.9912429028
 30
0.0
 10
8.5585081273
 20
6.9502213459
 30
0.0
 10
8.6042666846
 20
6.9122870927
 30
0.0
 10
8.6524602998
 20
6.877645881
 30
0.0
 10
8.7028278643
 20
6.846485498
 30
0.0
 10
8.7550965837
 20
6.8189750801
 30
0.0
 10
8.8089833816
 20
6.7952640668
 30
0.0
 10
8.8641961406
 20
6.7754812757
 30
0.0
 10
8.9204362972
 20
6.7597344941
 30
0.0
 10
8.9773969335
 20
6.7481096707
 30
0.0
 10
9.0252751021
 20
6.7419020034
 30
0.0
 10
9.0636211301
 20
6.7390576508
 30
0.0
 10
9.0923340788
 20
6.7379859962
 30
0.0
 10
9.1209934812
 20
6.7379751941
 30
0.0
 10
9.1495609109
 20
6.7390252588
 30
0.0
 10
9.1779974529
 20
6.7411348026
 30
0.0
 10
9.2062645379
 20
6.7443009249
 30
0.0
 10
9.2343237727
 20
6.7485193916
 30
0.0
 10
9.2621370501
 20
6.7537845267
 30
0.0
 10
9.289666611
 20
6.7600891376
 30
0.0
 10
9.3168750671
 20
6.7674247013
 30
0.0
 10
9.3437254461
 20
6.7757813335
 30
0.0
 10
9.3701812956
 20
6.7851476418
 30
0.0
 10
9.3962066847
 20
6.7955109183
 30
0.0
 10
9.4217662329
 20
6.8068571687
 30
0.0
 10
9.4468252325
 20
6.8191709558
 30
0.0
 10
9.4713496567
 20
6.832435541
 30
0.0
 10
9.4953061552
 20
6.8466329712
 30
0.0
 10
9.5186621895
 20
6.8617439691
 30
0.0
 10
9.5413860264
 20
6.8777479448
 30
0.0
 10
9.563446883
 20
6.8946233017
 30
0.0
 10
9.5848143404
 20
6.912346764
 30
0.0
 10
9.5985798171
 20
6.9247135962
 30
0.0
 10
9.6053360579
 20
6.9310288891
 30
0.0
  0
SPLINE
  5
3A3
100
AcDbEntity
  8
0
100
AcDbSpline
 62
7
  6
CONTINUOUS
 70
0
 71
3
 72
23
 73
19
 74
0
 42
0.0000001
 43
0.0000001
 44
0.0000000001
 40
0.0
 40
0.0
 40
0.0
 40
0.0
 40
0.063763354
 40
0.1273201177
 40
0.1906715333
 40
0.2538233104
 40
0.3167814208
 40
0.3795542594
 40
0.4421517197
 40
0.5045854028
 40
0.5668684379
 40
0.6290153911
 40
0.6910421318
 40
0.7529656886
 40
0.8148040904
 40
0.8765761956
 40
0.9383015105
 40
1.0
 40
1.0
 40
1.0
 40
1.0
 10
8.27352084
 20
7.5734578213
 30
0.0
 10
8.27352084
 20
7.5856615158
 30
0.0
 10
8.2740933149
 20
7.610033338
 30
0.0
 10
8.2766773052
 20
7.6464475492
 30
0.0
 10
8.2809797026
 20
7.6825820086
 30
0.0
 10
8.2869908765
 20
7.7183555106
 30
0.0
 10
8.2946977283
 20
7.7536892662
 30
0.0
 10
8.304083197
 20
7.7885049029
 30
0.0
 10
8.3151266088
 20
7.8227253543
 30
0.0
 10
8.3278035668
 20
7.8562748124
 30
0.0
 10
8.3420860688
 20
7.8890789564
 30
0.0
 10
8.3579425402
 20
7.9210651075
 30
0.0
 10
8.375337902
 20
7.9521623902
 30
0.0
 10
8.3942336789
 20
7.982301913
 30
0.0
 10
8.4145879868
 20
8.0114168256
 30
0.0
 10
8.436355983
 20
8.0394428339
 30
0.0
 10
8.4594886339
 20
8.0663169825
 30
0.0
 10
8.475789831
 20
8.0834294259
 30
0.0
 10
8.4841475743
 20
8.0917714148
 30
0.0
  0
SPLINE
  5
3A4
100
AcDbEntity
  8
0
100
AcDbSpline
 62
7
  6
CONTINUOUS
 70
0
 71
3
 72
41
 73
37
 74
0
 42
0.0000001
 43
0.0000001
 44
0.0000000001
 40
0.0
 40
0.0
 40
0.0
 40
0.0
 40
0.02994217
 40
0.0599087163
 40
0.0899234211
 40
0.1200088983
 40
0.1501860545
 40
0.180473603
 40
0.2108876428
 40
0.2414413131
 40
0.272144529
 40
0.3030038014
 40
0.3340221415
 40
0.3651990472
 40
0.3965305674
 40
0.4280094369
 40
0.4596252771
 40
0.4913648532
 40
0.5232123811
 40
0.5551498769
 40
0.5871575393
 40
0.6192141597
 40
0.6512975533
 40
0.6833850024
 40
0.715453709
 40
0.7314764109
 40
0.7474860771
 40
0.7794508406
 40
0.8113324805
 40
0.8431123203
 40
0.8747737614
 40
0.9063025944
 40
0.9376875101
 40
0.9533255637
 40
0.9689249842
 40
1.0
 40
1.0
 40
1.0
 40
1.0
 10
12.4147407358
 20
7.3320917334
 30
0.0
 10
12.4095564643
 20
7.3270841126
 30
0.0
 10
12.3987802728
 20
7.3174730046
 30
0.0
 10
12.381515136
 20
7.3043795691
 30
0.0
 10
12.363237398
 20
7.2926748877
 30
0.0
 10
12.3440491848
 20
7.2824246227
 30
0.0
 10
12.3240559907
 20
7.2736847772
 30
0.0
 10
12.303368156
 20
7.2665033958
 30
0.0
 10
12.2820996854
 20
7.2609197671
 30
0.0
 10
12.2603677536
 20
7.2569643735
 30
0.0
 10
12.2382920128
 20
7.2546586987
 30
0.0
 10
12.2159939413
 20
7.2540151378
 30
0.0
 10
12.1935961722
 20
7.255036942
 30
0.0
 10
12.1712218242
 20
7.2577182168
 30
0.0
 10
12.1489938308
 20
7.2620439664
 30
0.0
 10
12.1270342736
 20
7.267990187
 30
0.0
 10
12.10546372
 20
7.2755240042
 30
0.0
 10
12.0844005683
 20
7.2846038533
 30
0.0
 10
12.0639604085
 20
7.2951797207
 30
0.0
 10
12.0442553995
 20
7.3071934131
 30
0.0
 10
12.02539365
 20
7.3205788946
 30
0.0
 10
12.0074786802
 20
7.3352625821
 30
0.0
 10
11.9906086838
 20
7.3511639898
 30
0.0
 10
11.9748766564
 20
7.3681952571
 30
0.0
 10
11.9627817412
 20
7.3832582368
 30
0.0
 10
11.9537578518
 20
7.3957786303
 30
0.0
 10
11.945187936
 20
7.4085839113
 30
0.0
 10
11.9353349997
 20
7.4251099154
 30
0.0
 10
11.9249480794
 20
7.4456736129
 30
0.0
 10
11.9160592295
 20
7.4668494123
 30
0.0
 10
11.908717773
 20
7.4885207228
 30
0.0
 10
11.9029641531
 20
7.5105680348
 30
0.0
 10
11.8995147445
 20
7.5291783692
 30
0.0
 10
11.8975797112
 20
7.5441315158
 30
0.0
 10
11.8961987376
 20
7.559070364
 30
0.0
 10
11.8957805922
 20
7.5703117296
 30
0.0
 10
11.8957805922
 20
7.5777922728
 30
0.0
  0
SPLINE
  5
3A5
100
AcDbEntity
  8
0
100
AcDbSpline
 62
7
  6
CONTINUOUS
 70
0
 71
3
 72
39
 73
35
 74
0
 42
0.0000001
 43
0.0000001
 44
0.0000000001
 40
0.0
 40
0.0
 40
0.0
 40
0.0
 40
0.0318886912
 40
0.0636723716
 40
0.0953510004
 40
0.1269280717
 40
0.1584065932
 40
0.1897910512
 40
0.221086697
 40
0.2522996725
 40
0.2834369365
 40
0.314506194
 40
0.3455158305
 40
0.3764748288
 40
0.4073926837
 40
0.4382793081
 40
0.4691449336
 40
0.5000000062
 40
0.5308550794
 40
0.5617207061
 40
0.592607331
 40
0.6235251848
 40
0.654484181
 40
0.6854938156
 40
0.716563073
 40
0.7477003374
 40
0.7789133136
 40
0.8102089567
 40
0.8415934093
 40
0.8730719478
 40
0.9046489389
 40
0.9363278045
 40
0.9681109996
 40
1.0
 40
1.0
 40
1.0
 40
1.0
 10
8.497615645
 20
7.5579167938
 30
0.0
 10
8.497615645
 20
7.5667883633
 30
0.0
 10
8.4980402594
 20
7.5845052948
 30
0.0
 10
8.4999568346
 20
7.6109729465
 30
0.0
 10
8.5031478919
 20
7.637230747
 30
0.0
 10
8.5076058835
 20
7.6632171626
 30
0.0
 10
8.5133207727
 20
7.6888726946
 30
0.0
 10
8.5202793733
 20
7.7141380645
 30
0.0
 10
8.5284657387
 20
7.7389550533
 30
0.0
 10
8.5378610276
 20
7.7632664292
 30
0.0
 10
8.548443623
 20
7.7870161283
 30
0.0
 10
8.56018917
 20
7.8101493714
 30
0.0
 10
8.5730706269
 20
7.8326127932
 30
0.0
 10
8.5870583341
 20
7.8543545624
 30
0.0
 10
8.6021200559
 20
7.8753245177
 30
0.0
 10
8.6182210625
 20
7.8954742859
 30
0.0
 10
8.6353242281
 20
7.9147573821
 30
0.0
 10
8.6533901122
 20
7.9331293199
 30
0.0
 10
8.6723770509
 20
7.9505477141
 30
0.0
 10
8.6922412548
 20
7.9669723763
 30
0.0
 10
8.7129368888
 20
7.9823654371
 30
0.0
 10
8.7344161997
 20
7.996691415
 30
0.0
 10
8.7566296316
 20
8.0099172924
 30
0.0
 10
8.7795259392
 20
8.0220125925
 30
0.0
 10
8.8030523076
 20
8.0329494472
 30
0.0
 10
8.8271544714
 20
8.0427026653
 30
0.0
 10
8.8517768316
 20
8.0512498175
 30
0.0
 10
8.8768626032
 20
8.0585712548
 30
0.0
 10
8.902353938
 20
8.0646501547
 30
0.0
 10
8.9281920818
 20
8.0694725577
 30
0.0
 10
8.9543174183
 20
8.073027396
 30
0.0
 10
8.9806699448
 20
8.075306529
 30
0.0
 10
9.0071881298
 20
8.0763048005
 30
0.0
 10
9.0249090865
 20
8.0761151842
 30
0.0
 10
9.0337754134
 20
8.0758077424
 30
0.0
  0
SPLINE
  5
3A6
100
AcDbEntity
  8
0
100
AcDbSpline
 62
7
  6
CONTINUOUS
 70
0
 71
3
 72
39
 73
35
 74
0
 42
0.0000001
 43
0.0000001
 44
0.0000000001
 40
0.0
 40
0.0
 40
0.0
 40
0.0
 40
0.0319034957
 40
0.0637042803
 40
0.0954018083
 40
0.1269996755
 40
0.1585006325
 40
0.1899088971
 40
0.2212294389
 40
0.2524680403
 40
0.2836312747
 40
0.3147264211
 40
0.3457614126
 40
0.3767447631
 40
0.4076854874
 40
0.4385930152
 40
0.4694770989
 40
0.5003477203
 40
0.531214994
 40
0.5620890689
 40
0.5929800268
 40
0.6238977831
 40
0.6548519895
 40
0.6858519428
 40
0.7169064967
 40
0.7480239769
 40
0.7792121036
 40
0.8104779199
 40
0.8418277336
 40
0.8732670637
 40
0.9048005946
 40
0.9364321386
 40
0.9681646078
 40
1.0
 40
1.0
 40
1.0
 40
1.0
 10
8.569049674
 20
7.5899397829
 30
0.0
 10
8.569049674
 20
7.5980735396
 30
0.0
 10
8.5694311478
 20
7.6143175122
 30
0.0
 10
8.5711528561
 20
7.6385878031
 30
0.0
 10
8.5740196453
 20
7.662671788
 30
0.0
 10
8.5780249483
 20
7.6865152213
 30
0.0
 10
8.5831601472
 20
7.7100657421
 30
0.0
 10
8.5894138702
 20
7.7332710918
 30
0.0
 10
8.5967723206
 20
7.7560799484
 30
0.0
 10
8.6052192529
 20
7.7784418172
 30
0.0
 10
8.6147360116
 20
7.800307191
 30
0.0
 10
8.6253015894
 20
7.8216276469
 30
0.0
 10
8.6368926386
 20
7.8423559644
 30
0.0
 10
8.6494835052
 20
7.8624462493
 30
0.0
 10
8.6630463332
 20
7.8818540104
 30
0.0
 10
8.6775511149
 20
7.9005362623
 30
0.0
 10
8.6929657643
 20
7.9184516126
 30
0.0
 10
8.7092561565
 20
7.9355603801
 30
0.0
 10
8.7263862047
 20
7.951824692
 30
0.0
 10
8.7443179742
 20
7.967208537
 30
0.0
 10
8.763011757
 20
7.9816778528
 30
0.0
 10
8.7824261656
 20
7.9952005901
 30
0.0
 10
8.8025181947
 20
8.0077468272
 30
0.0
 10
8.8232433339
 20
8.0192888239
 30
0.0
 10
8.8445556842
 20
8.0298010554
 30
0.0
 10
8.8664080533
 20
8.0392602759
 30
0.0
 10
8.8887520618
 20
8.0476455582
 30
0.0
 10
8.9115382313
 20
8.0549383958
 30
0.0
 10
8.9347161091
 20
8.0611227072
 30
0.0
 10
8.9582344053
 20
8.0661848545
 30
0.0
 10
8.9820410221
 20
8.0701136753
 30
0.0
 10
9.0060834698
 20
8.0729005051
 30
0.0
 10
9.0303078389
 20
8.074539244
 30
0.0
 10
9.0465183159
 20
8.0748634558
 30
0.0
 10
9.0546346576
 20
8.0748343747
 30
0.0
  0
SPLINE
  5
3A7
100
AcDbEntity
  8
0
100
AcDbSpline
 62
7
  6
CONTINUOUS
 70
0
 71
3
 72
23
 73
19
 74
0
 42
0.0000001
 43
0.0000001
 44
0.0000000001
 40
0.0
 40
0.0
 40
0.0
 40
0.0
 40
0.0637767638
 40
0.1273450118
 40
0.1907019674
 40
0.2538561101
 40
0.3168132145
 40
0.3795820843
 40
0.4421733868
 40
0.5045993403
 40
0.5668738673
 40
0.6290123789
 40
0.6910316481
 40
0.752949645
 40
0.8147853545
 40
0.8765586015
 40
0.9382898522
 40
1.0
 40
1.0
 40
1.0
 40
1.0
 10
10.1912948839
 20
8.0278617424
 30
0.0
 10
10.1912948839
 20
8.0336475013
 30
0.0
 10
10.1915718305
 20
8.0452020626
 30
0.0
 10
10.1928217394
 20
8.0624635999
 30
0.0
 10
10.1949028888
 20
8.0795883294
 30
0.0
 10
10.1978102652
 20
8.0965359973
 30
0.0
 10
10.2015373939
 20
8.1132678885
 30
0.0
 10
10.2060756435
 20
8.1297453235
 30
0.0
 10
10.2114145734
 20
8.145930341
 30
0.0
 10
10.2175419368
 20
8.161785615
 30
0.0
 10
10.2244436643
 20
8.1772745617
 30
0.0
 10
10.2321038378
 20
8.19236147
 30
0.0
 10
10.240504808
 20
8.2070115424
 30
0.0
 10
10.2496272444
 20
8.2211909832
 30
0.0
 10
10.2594501234
 20
8.2348670286
 30
0.0
 10
10.2699508827
 20
8.2480082551
 30
0.0
 10
10.2811048824
 20
8.2605839489
 30
0.0
 10
10.2889607332
 20
8.2685728342
 30
0.0
 10
10.2929873218
 20
8.2724622169
 30
0.0
  0
SPLINE
  5
3A8
100
AcDbEntity
  8
0
100
AcDbSpline
 62
7
  6
CONTINUOUS
 70
0
 71
3
 72
51
 73
47
 74
0
 42
0.0000001
 43
0.0000001
 44
0.0000000001
 40
0.0
 40
0.0
 40
0.0
 40
0.0
 40
0.0149716485
 40
0.0299463565
 40
0.0449271644
 40
0.0599170744
 40
0.0749190346
 40
0.0899359198
 40
0.1049705137
 40
0.1200254925
 40
0.1351034109
 40
0.1502066862
 40
0.1653375828
 40
0.1804982023
 40
0.1956904722
 40
0.2109161327
 40
0.2261767296
 40
0.241473608
 40
0.2568079046
 40
0.2721805407
 40
0.2875922226
 40
0.303043438
 40
0.3185344523
 40
0.334065311
 40
0.3496358431
 40
0.3652456603
 40
0.3965753769
 40
0.4280524346
 40
0.4596664537
 40
0.4914042018
 40
0.5232498957
 40
0.555185552
 40
0.5871913712
 40
0.619246145
 40
0.65132769
 40
0.68341329
 40
0.7154801477
 40
0.7475058396
 40
0.7794687608
 40
0.8113485629
 40
0.8431265731
 40
0.8747861836
 40
0.9063132226
 40
0.9376962675
 40
0.9689267871
 40
1.0
 40
1.0
 40
1.0
 40
1.0
 10
9.6054003624
 20
6.9309597959
 30
0.0
 10
9.5987057928
 20
6.9244933503
 30
0.0
 10
9.5850565999
 20
6.9118238964
 30
0.0
 10
9.5638415753
 20
6.8936462414
 30
0.0
 10
9.5419121943
 20
6.8763180512
 30
0.0
 10
9.5192990828
 20
6.8598635433
 30
0.0
 10
9.4960332692
 20
6.844305221
 30
0.0
 10
9.4721467863
 20
6.8296645412
 30
0.0
 10
9.4476724897
 20
6.8159616578
 30
0.0
 10
9.4226440938
 20
6.8032153687
 30
0.0
 10
9.3970960391
 20
6.7914432005
 30
0.0
 10
9.3710634633
 20
6.7806613869
 30
0.0
 10
9.3445822089
 20
6.7708847084
 30
0.0
 10
9.3176887224
 20
6.7621265742
 30
0.0
 10
9.2904199946
 20
6.7543990533
 30
0.0
 10
9.2628135447
 20
6.7477127655
 30
0.0
 10
9.2349073659
 20
6.7420768384
 30
0.0
 10
9.2067398434
 20
6.7374990144
 30
0.0
 10
9.1783497182
 20
6.7339856178
 30
0.0
 10
9.1497760503
 20
6.7315414077
 30
0.0
 10
9.1210581367
 20
6.7301697091
 30
0.0
 10
9.09223548
 20
6.7298724316
 30
0.0
 10
9.0633476869
 20
6.7306499606
 30
0.0
 10
9.034434608
 20
6.7325011321
 30
0.0
 10
9.0055355222
 20
6.7354235139
 30
0.0
 10
8.9670333374
 20
6.740748507
 30
0.0
 10
8.9191346654
 20
6.750069696
 30
0.0
 10
8.8624276635
 20
6.7654251553
 30
0.0
 10
8.8067235593
 20
6.7848805189
 30
0.0
 10
8.7523302339
 20
6.8083283549
 30
0.0
 10
8.6995455913
 20
6.8356394808
 30
0.0
 10
8.6486594299
 20
6.8666636483
 30
0.0
 10
8.599950934
 20
6.90123033
 30
0.0
 10
8.5536873089
 20
6.9391495318
 30
0.0
 10
8.5101224973
 20
6.9802131155
 30
0.0
 10
8.4694954946
 20
7.0241955504
 30
0.0
 10
8.4320293829
 20
7.0708555102
 30
0.0
 10
8.3979298689
 20
7.1199369178
 30
0.0
 10
8.3673842473
 20
7.1711704437
 30
0.0
 10
8.340560509
 20
7.2242750238
 30
0.0
 10
8.3176060968
 20
7.2789591804
 30
0.0
 10
8.2986475479
 20
7.334922955
 30
0.0
 10
8.2837893352
 20
7.3918588328
 30
0.0
 10
8.2731136682
 20
7.449455306
 30
0.0
 10
8.2666797232
 20
7.5073919702
 30
0.0
 10
8.2652386372
 20
7.5461400942
 30
0.0
 10
8.2652386372
 20
7.5654578272
 30
0.0
  0
SPLINE
  5
3A9
100
AcDbEntity
  8
0
100
AcDbSpline
 62
7
  6
CONTINUOUS
 70
0
 71
3
 72
23
 73
19
 74
0
 42
0.0000001
 43
0.0000001
 44
0.0000000001
 40
0.0
 40
0.0
 40
0.0
 40
0.0
 40
0.0637771706
 40
0.1273448423
 40
0.190701976
 40
0.2538561364
 40
0.3168131911
 40
0.379582093
 40
0.4421733865
 40
0.504599335
 40
0.5668738647
 40
0.6290123811
 40
0.6910316516
 40
0.752949644
 40
0.8147853513
 40
0.8765586011
 40
0.9382898546
 40
1.0
 40
1.0
 40
1.0
 40
1.0
 10
8.6272532312
 20
7.5986370937
 30
0.0
 10
8.6272532312
 20
7.6062049065
 30
0.0
 10
8.6276154564
 20
7.6213182372
 30
0.0
 10
8.6292503636
 20
7.6438963029
 30
0.0
 10
8.6319724889
 20
7.6662953811
 30
0.0
 10
8.63577534
 20
7.6884629234
 30
0.0
 10
8.6406503933
 20
7.710348219
 30
0.0
 10
8.6465864045
 20
7.7319006819
 30
0.0
 10
8.6535697343
 20
7.753070659
 30
0.0
 10
8.661584323
 20
7.7738093306
 30
0.0
 10
8.6706117323
 20
7.7940688692
 30
0.0
 10
8.6806312041
 20
7.8138025385
 30
0.0
 10
8.6916196738
 20
7.8329648064
 30
0.0
 10
8.7035518177
 20
7.8515114872
 30
0.0
 10
8.7164000953
 20
7.8693997587
 30
0.0
 10
8.7301350437
 20
7.8865884894
 30
0.0
 10
8.7447244507
 20
7.9030374894
 30
0.0
 10
8.7549999108
 20
7.9134869214
 30
0.0
 10
8.7602666718
 20
7.9185742396
 30
0.0
  0
SPLINE
  5
3AA
100
AcDbEntity
  8
0
100
AcDbSpline
 62
7
  6
CONTINUOUS
 70
0
 71
3
 72
71
 73
67
 74
0
 42
0.0000001
 43
0.0000001
 44
0.0000000001
 40
0.0
 40
0.0
 40
0.0
 40
0.0
 40
0.0156373577
 40
0.0313279192
 40
0.0470702807
 40
0.0628636384
 40
0.078706081
 40
0.0945954868
 40
0.1105292294
 40
0.126504295
 40
0.1425172947
 40
0.1585644994
 40
0.1746418761
 40
0.1907451247
 40
0.2068697165
 40
0.2230109355
 40
0.2391639201
 40
0.2553237067
 40
0.2714852727
 40
0.2876435799
 40
0.3037936182
 40
0.3199304494
 40
0.3360492501
 40
0.3521453555
 40
0.3682143001
 40
0.3842518582
 40
0.4002540821
 40
0.4162173391
 40
0.4321383462
 40
0.4480142037
 40
0.4638424237
 40
0.4796209569
 40
0.4953482152
 40
0.5110230908
 40
0.5266449715
 40
0.5422137522
 40
0.5577298411
 40
0.5731941609
 40
0.5886081443
 40
0.6039737248
 40
0.6192933223
 40
0.6345698234
 40
0.6498065565
 40
0.6650072604
 40
0.6801760489
 40
0.6953173696
 40
0.7104359596
 40
0.7255367963
 40
0.7406250462
 40
0.7557060103
 40
0.7707850676
 40
0.7858676174
 40
0.8009590215
 40
0.8160645472
 40
0.8311893106
 40
0.8463382241
 40
0.8615159445
 40
0.8767268263
 40
0.8919748766
 40
0.9072637173
 40
0.9225965516
 40
0.9379761169
 40
0.9534047513
 40
0.968884057
 40
0.9844157643
 40
1.0
 40
1.0
 40
1.0
 40
1.0
 10
8.497615645
 20
7.5579167938
 30
0.0
 10
8.497615645
 20
7.5488144897
 30
0.0
 10
8.4980641301
 20
7.5305758128
 30
0.0
 10
8.5000724864
 20
7.5032402427
 30
0.0
 10
8.5034129306
 20
7.4759432458
 30
0.0
 10
8.5080771254
 20
7.4487516216
 30
0.0
 10
8.5140539475
 20
7.4217304414
 30
0.0
 10
8.521328874
 20
7.3949448919
 30
0.0
 10
8.5298843854
 20
7.3684594202
 30
0.0
 10
8.5396998266
 20
7.3423377914
 30
0.0
 10
8.5507515209
 20
7.3166428759
 30
0.0
 10
8.5630128254
 20
7.2914365176
 30
0.0
 10
8.5764541935
 20
7.2667793826
 30
0.0
 10
8.5910432471
 20
7.2427308162
 30
0.0
 10
8.6067448541
 20
7.2193487015
 30
0.0
 10
8.6235212073
 20
7.1966893191
 30
0.0
 10
8.6413319028
 20
7.1748072
 30
0.0
 10
8.6601340574
 20
7.1537550089
 30
0.0
 10
8.6798824079
 20
7.1335834164
 30
0.0
 10
8.7005294201
 20
7.1143409792
 30
0.0
 10
8.7220254011
 20
7.0960740239
 30
0.0
 10
8.7443186201
 20
7.0788265387
 30
0.0
 10
8.7673554169
 20
7.0626400485
 30
0.0
 10
8.7910803436
 20
7.0475535271
 30
0.0
 10
8.8154362998
 20
7.0336033088
 30
0.0
 10
8.8403646681
 20
7.0208230013
 30
0.0
 10
8.8658054529
 20
7.0092434042
 30
0.0
 10
8.8916974247
 20
6.998892439
 30
0.0
 10
8.9179782611
 20
6.9897950684
 30
0.0
 10
8.944584696
 20
6.9819732294
 30
0.0
 10
8.9714526788
 20
6.9754457998
 30
0.0
 10
8.9985175246
 20
6.9702285483
 30
0.0
 10
9.0257140683
 20
6.9663340979
 30
0.0
 10
9.0529768203
 20
6.9637718938
 30
0.0
 10
9.0802401215
 20
6.9625481806
 30
0.0
 10
9.1074383019
 20
6.962665961
 30
0.0
 10
9.1345058406
 20
6.9641250114
 30
0.0
 10
9.1613775219
 20
6.9669218817
 30
0.0
 10
9.1879885913
 20
6.9710499018
 30
0.0
 10
9.2142749106
 20
6.976499195
 30
0.0
 10
9.2401731108
 20
6.9832567041
 30
0.0
 10
9.2656207509
 20
6.9913062002
 30
0.0
 10
9.2905564708
 20
7.0006283271
 30
0.0
 10
9.3149201354
 20
7.01120066
 30
0.0
 10
9.338652981
 20
7.0229977551
 30
0.0
 10
9.3616977576
 20
7.0359912098
 30
0.0
 10
9.3839988673
 20
7.0501497312
 30
0.0
 10
9.4055025028
 20
7.065439205
 30
0.0
 10
9.426156792
 20
7.0818227643
 30
0.0
 10
9.4459119108
 20
7.0992609009
 30
0.0
 10
9.4647202062
 20
7.1177115579
 30
0.0
 10
9.4825363117
 20
7.1371302326
 30
0.0
 10
9.4993172579
 20
7.1574700837
 30
0.0
 10
9.5150225744
 20
7.1786820474
 30
0.0
 10
9.5296144088
 20
7.2007149422
 30
0.0
 10
9.5430576055
 20
7.2235156076
 30
0.0
 10
9.5553197853
 20
7.2470290371
 30
0.0
 10
9.5663714224
 20
7.2711985119
 30
0.0
 10
9.5761859162
 20
7.2959657374
 30
0.0
 10
9.5847396522
 20
7.3212709887
 30
0.0
 10
9.5920120563
 20
7.3470532365
 30
0.0
 10
9.5979857075
 20
7.3732503537
 30
0.0
 10
9.6026461932
 20
7.3997990608
 30
0.0
 10
9.6059825169
 20
7.4266357637
 30
0.0
 10
9.6079864693
 20
7.4536947405
 30
0.0
 10
9.608430411
 20
7.4718101457
 30
0.0
 10
9.608430411
 20
7.4808815281
 30
0.0
  0
SPLINE
  5
3AB
100
AcDbEntity
  8
0
100
AcDbSpline
 62
7
  6
CONTINUOUS
 70
0
 71
3
 72
41
 73
37
 74
0
 42
0.0000001
 43
0.0000001
 44
0.0000000001
 40
0.0
 40
0.0
 40
0.0
 40
0.0
 40
0.02994217
 40
0.0599087163
 40
0.0899234211
 40
0.1200088983
 40
0.1501860545
 40
0.180473603
 40
0.2108876428
 40
0.2414413131
 40
0.272144529
 40
0.3030038014
 40
0.3340221415
 40
0.3651990472
 40
0.3965305674
 40
0.4280094369
 40
0.4596252771
 40
0.4913648532
 40
0.5232123811
 40
0.5551498769
 40
0.5871575393
 40
0.6192141597
 40
0.6512975533
 40
0.6833850024
 40
0.715453709
 40
0.7314764109
 40
0.7474860771
 40
0.7794508406
 40
0.8113324805
 40
0.8431123203
 40
0.8747737614
 40
0.9063025944
 40
0.9376875101
 40
0.9533255637
 40
0.9689249842
 40
1.0
 40
1.0
 40
1.0
 40
1.0
 10
9.5169630852
 20
7.533053296
 30
0.0
 10
9.5117788137
 20
7.5280456752
 30
0.0
 10
9.5010026222
 20
7.5184345672
 30
0.0
 10
9.4837374854
 20
7.5053411317
 30
0.0
 10
9.4654597474
 20
7.4936364503
 30
0.0
 10
9.4462715343
 20
7.4833861853
 30
0.0
 10
9.4262783401
 20
7.4746463398
 30
0.0
 10
9.4055905055
 20
7.4674649584
 30
0.0
 10
9.3843220348
 20
7.4618813297
 30
0.0
 10
9.362590103
 20
7.4579259361
 30
0.0
 10
9.3405143623
 20
7.4556202613
 30
0.0
 10
9.3182162907
 20
7.4549767004
 30
0.0
 10
9.2958185216
 20
7.4559985046
 30
0.0
 10
9.2734441736
 20
7.4586797794
 30
0.0
 10
9.2512161803
 20
7.463005529
 30
0.0
 10
9.2292566231
 20
7.4689517497
 30
0.0
 10
9.2076860694
 20
7.4764855668
 30
0.0
 10
9.1866229177
 20
7.485565416
 30
0.0
 10
9.1661827579
 20
7.4961412834
 30
0.0
 10
9.146477749
 20
7.5081549758
 30
0.0
 10
9.1276159995
 20
7.5215404573
 30
0.0
 10
9.1097010296
 20
7.5362241448
 30
0.0
 10
9.0928310332
 20
7.5521255524
 30
0.0
 10
9.0770990058
 20
7.5691568197
 30
0.0
 10
9.0650040906
 20
7.5842197994
 30
0.0
 10
9.0559802012
 20
7.5967401929
 30
0.0
 10
9.0474102854
 20
7.6095454739
 30
0.0
 10
9.0375573491
 20
7.6260714781
 30
0.0
 10
9.0271704288
 20
7.6466351755
 30
0.0
 10
9.018281579
 20
7.6678109749
 30
0.0
 10
9.0109401225
 20
7.6894822855
 30
0.0
 10
9.0051865025
 20
7.7115295974
 30
0.0
 10
9.0017370939
 20
7.7301399319
 30
0.0
 10
8.9998020606
 20
7.7450930784
 30
0.0
 10
8.998421087
 20
7.7600319267
 30
0.0
 10
8.9980029417
 20
7.7712732922
 30
0.0
 10
8.9980029417
 20
7.7787538354
 30
0.0
  0
SPLINE
  5
3AC
100
AcDbEntity
  8
0
100
AcDbSpline
 62
7
  6
CONTINUOUS
 70
0
 71
3
 72
71
 73
67
 74
0
 42
0.0000001
 43
0.0000001
 44
0.0000000001
 40
0.0
 40
0.0
 40
0.0
 40
0.0
 40
0.0156354933
 40
0.0313231152
 40
0.0470613003
 40
0.0628494579
 40
0.078685753
 40
0.0945682045
 40
0.1104943589
 40
0.126461388
 40
0.1424661161
 40
0.1585050413
 40
0.1745743709
 40
0.1906700539
 40
0.2067878175
 40
0.2229232042
 40
0.2390716097
 40
0.2552283206
 40
0.2713885537
 40
0.2875474966
 40
0.3037003487
 40
0.3198423599
 40
0.33596887
 40
0.3520753476
 40
0.3681574293
 40
0.3842109573
 40
0.4002320157
 40
0.4162169634
 40
0.4321624674
 40
0.4480655346
 40
0.4639235406
 40
0.4797342552
 40
0.4954958646
 40
0.5112069911
 40
0.5268667106
 40
0.5424745661
 40
0.5580305755
 40
0.5735352363
 40
0.5889895245
 40
0.6043948913
 40
0.6197532548
 40
0.6350669856
 40
0.6503388869
 40
0.665572171
 40
0.6807704307
 40
0.6959376073
 40
0.7110779539
 40
0.7261959936
 40
0.7412964748
 40
0.7563843235
 40
0.7714645949
 40
0.7865424216
 40
0.8016229617
 40
0.8167113454
 40
0.8318126227
 40
0.8469317115
 40
0.8620733492
 40
0.8772420455
 40
0.8924420385
 40
0.9076772526
 40
0.9229512612
 40
0.9382672594
 40
0.9536280128
 40
0.969035908
 40
0.9844927836
 40
1.0
 40
1.0
 40
1.0
 40
1.0
 10
8.569049674
 20
7.5899397829
 30
0.0
 10
8.569049674
 20
7.5816160887
 30
0.0
 10
8.56945048
 20
7.564938241
 30
0.0
 10
8.5712454923
 20
7.539940149
 30
0.0
 10
8.574231377
 20
7.5149738333
 30
0.0
 10
8.5784009519
 20
7.490097721
 30
0.0
 10
8.5837447613
 20
7.465368624
 30
0.0
 10
8.5902504086
 20
7.4408435537
 30
0.0
 10
8.5979029051
 20
7.4165788706
 30
0.0
 10
8.6066845981
 20
7.3926303743
 30
0.0
 10
8.6165752552
 20
7.3690531271
 30
0.0
 10
8.6275521081
 20
7.3459013383
 30
0.0
 10
8.6395899044
 20
7.3232282451
 30
0.0
 10
8.6526609403
 20
7.3010859766
 30
0.0
 10
8.6667351259
 20
7.2795254309
 30
0.0
 10
8.6817800817
 20
7.2585961743
 30
0.0
 10
8.6977612055
 20
7.2383463254
 30
0.0
 10
8.7146417542
 20
7.2188224504
 30
0.0
 10
8.7323829151
 20
7.2000694471
 30
0.0
 10
8.7509438787
 20
7.1821304229
 30
0.0
 10
8.7702819645
 20
7.1650466239
 30
0.0
 10
8.7903527125
 20
7.1488573376
 30
0.0
 10
8.8111099842
 20
7.1335998056
 30
0.0
 10
8.8325060665
 20
7.1193091383
 30
0.0
 10
8.854491758
 20
7.1060181983
 30
0.0
 10
8.8770165088
 20
7.0937575594
 30
0.0
 10
8.900028534
 20
7.0825554376
 30
0.0
 10
8.9234749294
 20
7.072437626
 30
0.0
 10
8.947301793
 20
7.0634274421
 30
0.0
 10
8.9714543335
 20
7.0555456328
 30
0.0
 10
8.9958770091
 20
7.0488103506
 30
0.0
 10
9.0205136572
 20
7.0432371265
 30
0.0
 10
9.0453076195
 20
7.0388388288
 30
0.0
 10
9.0702018703
 20
7.0356256417
 30
0.0
 10
9.0951391429
 20
7.0336050071
 30
0.0
 10
9.1200620652
 20
7.0327816094
 30
0.0
 10
9.1449132939
 20
7.0331573939
 30
0.0
 10
9.169635642
 20
7.0347315543
 30
0.0
 10
9.1941722086
 20
7.0375005392
 30
0.0
 10
9.2184665097
 20
7.0414580411
 30
0.0
 10
9.2424626163
 20
7.0465949854
 30
0.0
 10
9.2661052774
 20
7.0528995944
 30
0.0
 10
9.2893400464
 20
7.0603574052
 30
0.0
 10
9.3121134043
 20
7.0689513035
 30
0.0
 10
9.3343728826
 20
7.0786615588
 30
0.0
 10
9.3560672053
 20
7.0894658292
 30
0.0
 10
9.3771463926
 20
7.1013392558
 30
0.0
 10
9.3975618748
 20
7.1142545179
 30
0.0
 10
9.4172666054
 20
7.128181893
 30
0.0
 10
9.4362151647
 20
7.1430893293
 30
0.0
 10
9.454363896
 20
7.1589424827
 30
0.0
 10
9.4716709916
 20
7.1757048244
 30
0.0
 10
9.4880965805
 20
7.1933377351
 30
0.0
 10
9.503602823
 20
7.2118005898
 30
0.0
 10
9.5181539913
 20
7.2310508564
 30
0.0
 10
9.5317165805
 20
7.2510441717
 30
0.0
 10
9.5442593852
 20
7.2717344531
 30
0.0
 10
9.5557535463
 20
7.2930740236
 30
0.0
 10
9.566172622
 20
7.3150137166
 30
0.0
 10
9.5754926413
 20
7.337502993
 30
0.0
 10
9.5836921796
 20
7.360490044
 30
0.0
 10
9.5907524141
 20
7.3839219253
 30
0.0
 10
9.5966571664
 20
7.4077446274
 30
0.0
 10
9.6013928719
 20
7.4319034895
 30
0.0
 10
9.6049486501
 20
7.4563420851
 30
0.0
 10
9.6065246602
 20
7.4727582915
 30
0.0
 10
9.6071146375
 20
7.4809925878
 30
0.0
  0
SPLINE
  5
3AD
100
AcDbEntity
  8
0
100
AcDbSpline
 62
7
  6
CONTINUOUS
 70
0
 71
3
 72
11
 73
7
 74
0
 42
0.0000001
 43
0.0000001
 44
0.0000000001
 40
0.0
 40
0.0
 40
0.0
 40
0.0
 40
0.2439806072
 40
0.4904145476
 40
0.7416781635
 40
1.0
 40
1.0
 40
1.0
 40
1.0
 10
13.1191809062
 20
6.8236687588
 30
0.0
 10
13.1199437617
 20
6.8236158608
 30
0.0
 10
13.1214727506
 20
6.8234292796
 30
0.0
 10
13.1237426076
 20
6.8229101989
 30
0.0
 10
13.1259915177
 20
6.8221521648
 30
0.0
 10
13.1274518551
 20
6.8214988486
 30
0.0
 10
13.1281756263
 20
6.8211359911
 30
0.0
  0
SPLINE
  5
3AE
100
AcDbEntity
  8
0
100
AcDbSpline
 62
7
  6
CONTINUOUS
 70
0
 71
3
 72
23
 73
19
 74
0
 42
0.0000001
 43
0.0000001
 44
0.0000000001
 40
0.0
 40
0.0
 40
0.0
 40
0.0
 40
0.0637767638
 40
0.1273450118
 40
0.1907019674
 40
0.2538561101
 40
0.3168132145
 40
0.3795820843
 40
0.4421733868
 40
0.5045993403
 40
0.5668738673
 40
0.6290123789
 40
0.6910316481
 40
0.752949645
 40
0.8147853545
 40
0.8765586015
 40
0.9382898522
 40
1.0
 40
1.0
 40
1.0
 40
1.0
 10
11.9724623108
 20
8.931116541
 30
0.0
 10
11.9724623108
 20
8.9369022999
 30
0.0
 10
11.9727392573
 20
8.9484568612
 30
0.0
 10
11.9739891662
 20
8.9657183985
 30
0.0
 10
11.9760703157
 20
8.9828431279
 30
0.0
 10
11.978977692
 20
8.9997907959
 30
0.0
 10
11.9827048208
 20
9.016522687
 30
0.0
 10
11.9872430704
 20
9.0330001221
 30
0.0
 10
11.9925820002
 20
9.0491851396
 30
0.0
 10
11.9987093637
 20
9.0650404136
 30
0.0
 10
12.0056110911
 20
9.0805293603
 30
0.0
 10
12.0132712647
 20
9.0956162686
 30
0.0
 10
12.0216722349
 20
9.110266341
 30
0.0
 10
12.0307946713
 20
9.1244457818
 30
0.0
 10
12.0406175503
 20
9.1381218272
 30
0.0
 10
12.0511183095
 20
9.1512630537
 30
0.0
 10
12.0622723093
 20
9.1638387475
 30
0.0
 10
12.0701281601
 20
9.1718276328
 30
0.0
 10
12.0741547487
 20
9.1757170154
 30
0.0
  0
SPLINE
  5
3AF
100
AcDbEntity
  8
0
100
AcDbSpline
 62
7
  6
CONTINUOUS
 70
0
 71
3
 72
39
 73
35
 74
0
 42
0.0000001
 43
0.0000001
 44
0.0000000001
 40
0.0
 40
0.0
 40
0.0
 40
0.0
 40
0.0310753533
 40
0.062307914
 40
0.0936931276
 40
0.125222289
 40
0.1568840436
 40
0.1886642048
 40
0.2205461649
 40
0.252511249
 40
0.2845391082
 40
0.3166081364
 40
0.3486959074
 40
0.3807796231
 40
0.412836566
 40
0.44484455
 40
0.4767823665
 40
0.508630214
 40
0.5403701087
 40
0.5719862657
 40
0.6034654504
 40
0.634797285
 40
0.6659745047
 40
0.6969931573
 40
0.7278527396
 40
0.7585562634
 40
0.7891102405
 40
0.8195245856
 40
0.8498124374
 40
0.8799898958
 40
0.9100756749
 40
0.9400906815
 40
0.970057529
 40
1.0
 40
1.0
 40
1.0
 40
1.0
 10
8.6272532312
 20
7.5986370937
 30
0.0
 10
8.6272532312
 20
7.5868956234
 30
0.0
 10
8.6281291192
 20
7.5633442483
 30
0.0
 10
8.6320397681
 20
7.5281299317
 30
0.0
 10
8.638528485
 20
7.4931223941
 30
0.0
 10
8.647559413
 20
7.4585163455
 30
0.0
 10
8.6590825773
 20
7.4245011748
 30
0.0
 10
8.6730344367
 20
7.3912637538
 30
0.0
 10
8.6893381282
 20
7.3589864262
 30
0.0
 10
8.7079039628
 20
7.327846316
 30
0.0
 10
8.7286299033
 20
7.2980142924
 30
0.0
 10
8.7514021039
 20
7.2696540599
 30
0.0
 10
8.7760954947
 20
7.2429212289
 30
0.0
 10
8.8025745232
 20
7.2179625165
 30
0.0
 10
8.830693877
 20
7.194914945
 30
0.0
 10
8.8602992769
 20
7.1739051098
 30
0.0
 10
8.8912282695
 20
7.1550484285
 30
0.0
 10
8.9233111463
 20
7.1384485528
 30
0.0
 10
8.956371867
 20
7.1241968158
 30
0.0
 10
8.9902290094
 20
7.1123717403
 30
0.0
 10
9.0246967334
 20
7.1030385647
 30
0.0
 10
9.0595857908
 20
7.0962488641
 30
0.0
 10
9.094704566
 20
7.0920403164
 30
0.0
 10
9.1298601052
 20
7.0904364743
 30
0.0
 10
9.1648591591
 20
7.0914466197
 30
0.0
 10
9.1995092405
 20
7.0950656197
 30
0.0
 10
9.2336196801
 20
7.1012740078
 30
0.0
 10
9.2670026736
 20
7.1100380646
 30
0.0
 10
9.2994742952
 20
7.1213099719
 30
0.0
 10
9.3308556071
 20
7.135028045
 30
0.0
 10
9.360973429
 20
7.1511168548
 30
0.0
 10
9.3896621809
 20
7.1694885021
 30
0.0
 10
9.4167615422
 20
7.1900399554
 30
0.0
 10
9.433675864
 20
7.2051255402
 30
0.0
 10
9.4418130822
 20
7.2129855169
 30
0.0
  0
SPLINE
  5
3B0
100
AcDbEntity
  8
0
100
AcDbSpline
 62
7
  6
CONTINUOUS
 70
0
 71
3
 72
23
 73
19
 74
0
 42
0.0000001
 43
0.0000001
 44
0.0000000001
 40
0.0
 40
0.0
 40
0.0
 40
0.0
 40
0.0637764156
 40
0.1273451284
 40
0.1907019885
 40
0.2538560635
 40
0.3168132288
 40
0.3795820795
 40
0.4421733867
 40
0.5045993416
 40
0.5668738629
 40
0.6290123789
 40
0.691031653
 40
0.7529496458
 40
0.8147853519
 40
0.8765586031
 40
0.9382898573
 40
1.0
 40
1.0
 40
1.0
 40
1.0
 10
8.9980029417
 20
7.7787538354
 30
0.0
 10
8.9980029417
 20
7.7835752696
 30
0.0
 10
8.9982337408
 20
7.7932040687
 30
0.0
 10
8.999275314
 20
7.8075886701
 30
0.0
 10
9.0010096002
 20
7.8218592862
 30
0.0
 10
9.0034324216
 20
7.8359823179
 30
0.0
 10
9.0065383546
 20
7.8499255442
 30
0.0
 10
9.010320214
 20
7.8636567317
 30
0.0
 10
9.0147693003
 20
7.8771442367
 30
0.0
 10
9.0198754517
 20
7.8903569429
 30
0.0
 10
9.025626876
 20
7.9032643878
 30
0.0
 10
9.0320103196
 20
7.9158368121
 30
0.0
 10
9.0390111158
 20
7.9280451966
 30
0.0
 10
9.0466131575
 20
7.9398613713
 30
0.0
 10
9.0547988596
 20
7.9512580775
 30
0.0
 10
9.0635494529
 20
7.9622091128
 30
0.0
 10
9.0728444527
 20
7.9726888384
 30
0.0
 10
9.0793909898
 20
7.9793462332
 30
0.0
 10
9.0827464753
 20
7.9825873827
 30
0.0
  0
SPLINE
  5
3B1
100
AcDbEntity
  8
0
100
AcDbSpline
 62
7
  6
CONTINUOUS
 70
0
 71
3
 72
43
 73
39
 74
0
 42
0.0000001
 43
0.0000001
 44
0.0000000001
 40
0.0
 40
0.0
 40
0.0
 40
0.0
 40
0.0309223397
 40
0.0464388377
 40
0.0619897805
 40
0.093190363
 40
0.1245221229
 40
0.1559767916
 40
0.1875439951
 40
0.2192115049
 40
0.2509654385
 40
0.2827905057
 40
0.3146702645
 40
0.3465873928
 40
0.3785239694
 40
0.4104617622
 40
0.4423825197
 40
0.4742682627
 40
0.5061015729
 40
0.5378658755
 40
0.5695457117
 40
0.6011269984
 40
0.632597271
 40
0.6639459063
 40
0.6951643199
 40
0.7262461366
 40
0.7571873275
 40
0.7879863118
 40
0.8186440177
 40
0.8491639008
 40
0.8643761514
 40
0.8795563822
 40
0.9098209083
 40
0.9399726222
 40
0.9550124024
 40
0.9700289436
 40
0.9850241445
 40
1.0
 40
1.0
 40
1.0
 40
1.0
 10
10.3134573731
 20
8.1458616528
 30
0.0
 10
10.3134573731
 20
8.137812288
 30
0.0
 10
10.3138606946
 20
8.1257189333
 30
0.0
 10
10.3151942252
 20
8.1096355816
 30
0.0
 10
10.3170628816
 20
8.0935320778
 30
0.0
 10
10.3203953863
 20
8.0734655766
 30
0.0
 10
10.3259609772
 20
8.0496243428
 30
0.0
 10
10.3330730878
 20
8.0260978742
 30
0.0
 10
10.3417000958
 20
8.0029907324
 30
0.0
 10
10.3518037793
 20
7.9804048138
 30
0.0
 10
10.3633393974
 20
7.9584399164
 30
0.0
 10
10.3762559094
 20
7.9371930308
 30
0.0
 10
10.3904961951
 20
7.9167579901
 30
0.0
 10
10.4059973065
 20
7.8972250397
 30
0.0
 10
10.4226907448
 20
7.8786804475
 30
0.0
 10
10.4405027602
 20
7.8612061252
 30
0.0
 10
10.4593546759
 20
7.8448792698
 30
0.0
 10
10.479163232
 20
7.8297720248
 30
0.0
 10
10.4998409505
 20
7.8159511645
 30
0.0
 10
10.5212965177
 20
7.8034778002
 30
0.0
 10
10.5434351839
 20
7.792407112
 30
0.0
 10
10.5661591771
 20
7.7827881053
 30
0.0
 10
10.58936813
 20
7.7746633949
 30
0.0
 10
10.61295952
 20
7.7680690158
 30
0.0
 10
10.6368291107
 20
7.763034261
 30
0.0
 10
10.6608714293
 20
7.7595815543
 30
0.0
 10
10.6849801462
 20
7.7577263289
 30
0.0
 10
10.709048843
 20
7.7574770199
 30
0.0
 10
10.7329703554
 20
7.758834778
 30
0.0
 10
10.7527182527
 20
7.7613038433
 30
0.0
 10
10.7683329712
 20
7.7640750494
 30
0.0
 10
10.7837785479
 20
7.7673659831
 30
0.0
 10
10.8028039657
 20
7.7724579493
 30
0.0
 10
10.821396126
 20
7.7788456781
 30
0.0
 10
10.8359334814
 20
7.7847093307
 30
0.0
 10
10.8466512785
 20
7.7894757272
 30
0.0
 10
10.8571797263
 20
7.7946084664
 30
0.0
 10
10.8640692813
 20
7.7982733214
 30
0.0
 10
10.8674780879
 20
7.8001646637
 30
0.0
  0
SPLINE
  5
3B2
100
AcDbEntity
  8
0
100
AcDbSpline
 62
7
  6
CONTINUOUS
 70
0
 71
3
 72
25
 73
21
 74
0
 42
0.0000001
 43
0.0000001
 44
0.0000000001
 40
0.0
 40
0.0
 40
0.0
 40
0.0
 40
0.06377716
 40
0.127343222
 40
0.190700148
 40
0.2538535537
 40
0.3168099705
 40
0.3795782475
 40
0.4421688972
 40
0.5045942157
 40
0.5668681101
 40
0.629005993
 40
0.6910246336
 40
0.7219973337
 40
0.7529470518
 40
0.8147821333
 40
0.8765547559
 40
0.9074265679
 40
0.9382904805
 40
1.0
 40
1.0
 40
1.0
 40
1.0
 10
11.1630162877
 20
7.3644962646
 30
0.0
 10
11.1630162877
 20
7.3769474368
 30
0.0
 10
11.1636121952
 20
7.4018127903
 30
0.0
 10
11.1663021373
 20
7.4389596773
 30
0.0
 10
11.1707806766
 20
7.475811951
 30
0.0
 10
11.1770374531
 20
7.5122834555
 30
0.0
 10
11.1850582233
 20
7.5482905132
 30
0.0
 10
11.1948245285
 20
7.5837499978
 30
0.0
 10
11.2063139671
 20
7.6185801965
 30
0.0
 10
11.2195000935
 20
7.6527007458
 30
0.0
 10
11.2343526659
 20
7.6860330924
 30
0.0
 10
11.2508371815
 20
7.7184998451
 30
0.0
 10
11.2659101597
 20
7.7447847652
 30
0.0
 10
11.2787429715
 20
7.7653011008
 30
0.0
 10
11.2920758665
 20
7.7854531178
 30
0.0
 10
11.3096867009
 20
7.8099721823
 30
0.0
 10
11.3285222956
 20
7.8335439578
 30
0.0
 10
11.3442909158
 20
7.8517889102
 30
0.0
 10
11.3605145108
 20
7.8696131078
 30
0.0
 10
11.3731937052
 20
7.8825070181
 30
0.0
 10
11.3818589386
 20
7.8908769752
 30
0.0
  0
SPLINE
  5
3B3
100
AcDbEntity
  8
0
100
AcDbSpline
 62
7
  6
CONTINUOUS
 70
0
 71
3
 72
11
 73
7
 74
0
 42
0.0000001
 43
0.0000001
 44
0.0000000001
 40
0.0
 40
0.0
 40
0.0
 40
0.0
 40
0.2580251652
 40
0.5092403406
 40
0.7558018939
 40
1.0
 40
1.0
 40
1.0
 40
1.0
 10
13.0794845217
 20
6.1215647935
 30
0.0
 10
13.0787322345
 20
6.1213160335
 30
0.0
 10
13.0772251543
 20
6.1208893388
 30
0.0
 10
13.0749390453
 20
6.1204689784
 30
0.0
 10
13.0726648486
 20
6.1202788561
 30
0.0
 10
13.0711549754
 20
6.1203060913
 30
0.0
 10
13.0704068828
 20
6.1203579656
 30
0.0
  0
SPLINE
  5
3B4
100
AcDbEntity
  8
0
100
AcDbSpline
 62
7
  6
CONTINUOUS
 70
0
 71
3
 72
15
 73
11
 74
0
 42
0.0000001
 43
0.0000001
 44
0.0000000001
 40
0.0
 40
0.0
 40
0.0
 40
0.0
 40
0.1268098014
 40
0.2530495495
 40
0.3787339289
 40
0.5038874621
 40
0.6285440036
 40
0.7527463531
 40
0.8765455422
 40
1.0
 40
1.0
 40
1.0
 40
1.0
 10
10.3134573731
 20
8.1458616528
 30
0.0
 10
10.3134573731
 20
8.1537247985
 30
0.0
 10
10.3139686587
 20
8.1694207074
 30
0.0
 10
10.3162785086
 20
8.1928075553
 30
0.0
 10
10.3201198877
 20
8.2158892776
 30
0.0
 10
10.3254766142
 20
8.2385661776
 30
0.0
 10
10.332325974
 20
8.2607417927
 30
0.0
 10
10.340639123
 20
8.2823217455
 30
0.0
 10
10.3503799966
 20
8.3032127033
 30
0.0
 10
10.3578090323
 20
8.3166406756
 30
0.0
 10
10.3617451604
 20
8.32320629
 30
0.0
  0
SPLINE
  5
3B5
100
AcDbEntity
  8
0
100
AcDbSpline
 62
7
  6
CONTINUOUS
 70
0
 71
3
 72
21
 73
17
 74
0
 42
0.0000001
 43
0.0000001
 44
0.0000000001
 40
0.0
 40
0.0
 40
0.0
 40
0.0
 40
0.1273176366
 40
0.2537999756
 40
0.3167619475
 40
0.3795355041
 40
0.4421314991
 40
0.5045621439
 40
0.5668413432
 40
0.6289845283
 40
0.6910084528
 40
0.7529310935
 40
0.8147714495
 40
0.8765493365
 40
0.9382852194
 40
1.0
 40
1.0
 40
1.0
 40
1.0
 10
10.4341981086
 20
8.1374882543
 30
0.0
 10
10.4341981086
 20
8.1451877455
 30
0.0
 10
10.4349330758
 20
8.1605461237
 30
0.0
 10
10.4377088085
 20
8.1795323976
 30
0.0
 10
10.4410264262
 20
8.1944254698
 30
0.0
 10
10.4440519153
 20
8.2054106051
 30
0.0
 10
10.4476111996
 20
8.2162005527
 30
0.0
 10
10.4516961237
 20
8.2267707269
 30
0.0
 10
10.4562972392
 20
8.2370966889
 30
0.0
 10
10.4614039998
 20
8.2471546256
 30
0.0
 10
10.4670046586
 20
8.2569213178
 30
0.0
 10
10.473086267
 20
8.2663742712
 30
0.0
 10
10.4796348169
 20
8.2754916443
 30
0.0
 10
10.4866353217
 20
8.2842524466
 30
0.0
 10
10.494071308
 20
8.2926362352
 30
0.0
 10
10.4993085221
 20
8.2979621655
 30
0.0
 10
10.5019929099
 20
8.3005550854
 30
0.0
  0
SPLINE
  5
3B6
100
AcDbEntity
  8
0
100
AcDbSpline
 62
7
  6
CONTINUOUS
 70
0
 71
3
 72
25
 73
21
 74
0
 42
0.0000001
 43
0.0000001
 44
0.0000000001
 40
0.0
 40
0.0
 40
0.0
 40
0.0
 40
0.06377716
 40
0.127343222
 40
0.190700148
 40
0.2538535537
 40
0.3168099705
 40
0.3795782475
 40
0.4421688972
 40
0.5045942157
 40
0.5668681101
 40
0.629005993
 40
0.6910246336
 40
0.7219973337
 40
0.7529470518
 40
0.8147821333
 40
0.8765547559
 40
0.9074265679
 40
0.9382904805
 40
1.0
 40
1.0
 40
1.0
 40
1.0
 10
8.2652386372
 20
7.5654578272
 30
0.0
 10
8.2652386372
 20
7.5779089994
 30
0.0
 10
8.2658345446
 20
7.6027743529
 30
0.0
 10
8.2685244867
 20
7.6399212399
 30
0.0
 10
8.273003026
 20
7.6767735136
 30
0.0
 10
8.2792598026
 20
7.7132450181
 30
0.0
 10
8.2872805727
 20
7.7492520758
 30
0.0
 10
8.297046878
 20
7.7847115605
 30
0.0
 10
8.3085363166
 20
7.8195417591
 30
0.0
 10
8.321722443
 20
7.8536623085
 30
0.0
 10
8.3365750153
 20
7.8869946551
 30
0.0
 10
8.353059531
 20
7.9194614077
 30
0.0
 10
8.3681325091
 20
7.9457463278
 30
0.0
 10
8.3809653209
 20
7.9662626634
 30
0.0
 10
8.3942982159
 20
7.9864146804
 30
0.0
 10
8.4119090504
 20
8.0109337449
 30
0.0
 10
8.430744645
 20
8.0345055204
 30
0.0
 10
8.4465132653
 20
8.0527504729
 30
0.0
 10
8.4627368602
 20
8.0705746705
 30
0.0
 10
8.4754160546
 20
8.0834685807
 30
0.0
 10
8.484081288
 20
8.0918385378
 30
0.0
  0
SPLINE
  5
3B7
100
AcDbEntity
  8
0
100
AcDbSpline
 62
7
  6
CONTINUOUS
 70
0
 71
3
 72
43
 73
39
 74
0
 42
0.0000001
 43
0.0000001
 44
0.0000000001
 40
0.0
 40
0.0
 40
0.0
 40
0.0
 40
0.0309223397
 40
0.0464388377
 40
0.0619897805
 40
0.093190363
 40
0.1245221229
 40
0.1559767916
 40
0.1875439951
 40
0.2192115049
 40
0.2509654385
 40
0.2827905057
 40
0.3146702645
 40
0.3465873928
 40
0.3785239694
 40
0.4104617622
 40
0.4423825197
 40
0.4742682627
 40
0.5061015729
 40
0.5378658755
 40
0.5695457117
 40
0.6011269984
 40
0.632597271
 40
0.6639459063
 40
0.6951643199
 40
0.7262461366
 40
0.7571873275
 40
0.7879863118
 40
0.8186440177
 40
0.8491639008
 40
0.8643761514
 40
0.8795563822
 40
0.9098209083
 40
0.9399726222
 40
0.9550124024
 40
0.9700289436
 40
0.9850241445
 40
1.0
 40
1.0
 40
1.0
 40
1.0
 10
12.0946248
 20
9.0491164514
 30
0.0
 10
12.0946248
 20
9.0410670866
 30
0.0
 10
12.0950281215
 20
9.0289737319
 30
0.0
 10
12.096361652
 20
9.0128903801
 30
0.0
 10
12.0982303085
 20
8.9967868764
 30
0.0
 10
12.1015628132
 20
8.9767203752
 30
0.0
 10
12.107128404
 20
8.9528791414
 30
0.0
 10
12.1142405146
 20
8.9293526728
 30
0.0
 10
12.1228675227
 20
8.906245531
 30
0.0
 10
12.1329712061
 20
8.8836596124
 30
0.0
 10
12.1445068243
 20
8.861694715
 30
0.0
 10
12.1574233363
 20
8.8404478294
 30
0.0
 10
12.1716636219
 20
8.8200127887
 30
0.0
 10
12.1871647334
 20
8.8004798383
 30
0.0
 10
12.2038581716
 20
8.7819352461
 30
0.0
 10
12.2216701871
 20
8.7644609238
 30
0.0
 10
12.2405221028
 20
8.7481340683
 30
0.0
 10
12.2603306589
 20
8.7330268234
 30
0.0
 10
12.2810083773
 20
8.7192059631
 30
0.0
 10
12.3024639446
 20
8.7067325988
 30
0.0
 10
12.3246026108
 20
8.6956619105
 30
0.0
 10
12.3473266039
 20
8.6860429039
 30
0.0
 10
12.3705355569
 20
8.6779181935
 30
0.0
 10
12.3941269469
 20
8.6713238143
 30
0.0
 10
12.4179965375
 20
8.6662890596
 30
0.0
 10
12.4420388562
 20
8.6628363528
 30
0.0
 10
12.466147573
 20
8.6609811275
 30
0.0
 10
12.4902162698
 20
8.6607318185
 30
0.0
 10
12.5141377823
 20
8.6620895765
 30
0.0
 10
12.5338856795
 20
8.6645586419
 30
0.0
 10
12.5495003981
 20
8.667329848
 30
0.0
 10
12.5649459748
 20
8.6706207817
 30
0.0
 10
12.5839713926
 20
8.6757127479
 30
0.0
 10
12.6025635529
 20
8.6821004766
 30
0.0
 10
12.6171009082
 20
8.6879641293
 30
0.0
 10
12.6278187053
 20
8.6927305258
 30
0.0
 10
12.6383471531
 20
8.697863265
 30
0.0
 10
12.6452367081
 20
8.70152812
 30
0.0
 10
12.6486455147
 20
8.7034194623
 30
0.0
  0
SPLINE
  5
3B8
100
AcDbEntity
  8
0
100
AcDbSpline
 62
7
  6
CONTINUOUS
 70
0
 71
3
 72
15
 73
11
 74
0
 42
0.0000001
 43
0.0000001
 44
0.0000000001
 40
0.0
 40
0.0
 40
0.0
 40
0.0
 40
0.1268098014
 40
0.2530495495
 40
0.3787339289
 40
0.5038874621
 40
0.6285440036
 40
0.7527463531
 40
0.8765455422
 40
1.0
 40
1.0
 40
1.0
 40
1.0
 10
12.0946248
 20
9.0491164514
 30
0.0
 10
12.0946248
 20
9.0569795971
 30
0.0
 10
12.0951360856
 20
9.072675506
 30
0.0
 10
12.0974459354
 20
9.0960623539
 30
0.0
 10
12.1012873146
 20
9.1191440762
 30
0.0
 10
12.1066440411
 20
9.1418209762
 30
0.0
 10
12.1134934008
 20
9.1639965913
 30
0.0
 10
12.1218065498
 20
9.1855765441
 30
0.0
 10
12.1315474235
 20
9.2064675019
 30
0.0
 10
12.1389764591
 20
9.2198954742
 30
0.0
 10
12.1429125872
 20
9.2264610885
 30
0.0
  0
SPLINE
  5
3B9
100
AcDbEntity
  8
0
100
AcDbSpline
 62
7
  6
CONTINUOUS
 70
0
 71
3
 72
21
 73
17
 74
0
 42
0.0000001
 43
0.0000001
 44
0.0000000001
 40
0.0
 40
0.0
 40
0.0
 40
0.0
 40
0.1273176366
 40
0.2537999756
 40
0.3167619475
 40
0.3795355041
 40
0.4421314991
 40
0.5045621439
 40
0.5668413432
 40
0.6289845283
 40
0.6910084528
 40
0.7529310935
 40
0.8147714495
 40
0.8765493365
 40
0.9382852194
 40
1.0
 40
1.0
 40
1.0
 40
1.0
 10
12.2153655354
 20
9.0407430529
 30
0.0
 10
12.2153655354
 20
9.048442544
 30
0.0
 10
12.2161005027
 20
9.0638009223
 30
0.0
 10
12.2188762353
 20
9.0827871962
 30
0.0
 10
12.2221938531
 20
9.0976802683
 30
0.0
 10
12.2252193422
 20
9.1086654037
 30
0.0
 10
12.2287786265
 20
9.1194553513
 30
0.0
 10
12.2328635506
 20
9.1300255255
 30
0.0
 10
12.237464666
 20
9.1403514875
 30
0.0
 10
12.2425714267
 20
9.1504094241
 30
0.0
 10
12.2481720855
 20
9.1601761164
 30
0.0
 10
12.2542536939
 20
9.1696290698
 30
0.0
 10
12.2608022438
 20
9.1787464429
 30
0.0
 10
12.2678027485
 20
9.1875072451
 30
0.0
 10
12.2752387349
 20
9.1958910338
 30
0.0
 10
12.2804759489
 20
9.2012169641
 30
0.0
 10
12.2831603367
 20
9.203809884
 30
0.0
  0
SPLINE
  5
3BA
100
AcDbEntity
  8
0
100
AcDbSpline
 62
7
  6
CONTINUOUS
 70
0
 71
3
 72
50
 73
46
 74
0
 42
0.0000001
 43
0.0000001
 44
0.0000000001
 40
0.0
 40
0.0
 40
0.0
 40
0.0
 40
0.031064449
 40
0.0622851522
 40
0.0936574647
 40
0.1251729925
 40
0.156820532
 40
0.1885861714
 40
0.2204536001
 40
0.2524044658
 40
0.2844187582
 40
0.3164752117
 40
0.3485517324
 40
0.380625833
 40
0.4126750733
 40
0.4446775003
 40
0.4766120842
 40
0.5084591356
 40
0.5402007102
 40
0.571820985
 40
0.603306598
 40
0.6346469583
 40
0.6658344977
 40
0.6813720807
 40
0.6968701109
 40
0.7123285748
 40
0.7277476717
 40
0.7431278176
 40
0.7584696458
 40
0.7737740016
 40
0.7890419395
 40
0.8042747226
 40
0.8194738134
 40
0.8346408656
 40
0.8497777202
 40
0.8648863937
 40
0.8799690655
 40
0.8950280684
 40
0.9100658766
 40
0.9250850883
 40
0.9400884123
 40
0.9550786537
 40
0.9700586958
 40
0.9850314818
 40
1.0
 40
1.0
 40
1.0
 40
1.0
 10
11.1712984905
 20
7.3724962586
 30
0.0
 10
11.1712984905
 20
7.3533032369
 30
0.0
 10
11.1727209869
 20
7.3148060714
 30
0.0
 10
11.179072372
 20
7.2572413131
 30
0.0
 10
11.1896115604
 20
7.2000083089
 30
0.0
 10
11.2042809683
 20
7.1434213617
 30
0.0
 10
11.2230003994
 20
7.0877861008
 30
0.0
 10
11.245668049
 20
7.0334043186
 30
0.0
 10
11.2721606045
 20
6.9805705222
 30
0.0
 10
11.3023341924
 20
6.9295709227
 30
0.0
 10
11.3360251462
 20
6.8806818103
 30
0.0
 10
11.3730506527
 20
6.834167939
 30
0.0
 10
11.4132100797
 20
6.7902813401
 30
0.0
 10
11.4562857779
 20
6.7492597833
 30
0.0
 10
11.5020443351
 20
6.7113255301
 30
0.0
 10
11.5502379504
 20
6.6766843184
 30
0.0
 10
11.6006055149
 20
6.6455239354
 30
0.0
 10
11.6528742343
 20
6.6180135174
 30
0.0
 10
11.7067610322
 20
6.5943025042
 30
0.0
 10
11.7619737911
 20
6.5745197131
 30
0.0
 10
11.8182139478
 20
6.5587729315
 30
0.0
 10
11.8751745841
 20
6.547148108
 30
0.0
 10
11.9230527527
 20
6.5409404408
 30
0.0
 10
11.9613987806
 20
6.5380960882
 30
0.0
 10
11.9901117294
 20
6.5370244336
 30
0.0
 10
12.0187711317
 20
6.5370136314
 30
0.0
 10
12.0473385614
 20
6.5380636962
 30
0.0
 10
12.0757751035
 20
6.54017324
 30
0.0
 10
12.1040421885
 20
6.5433393623
 30
0.0
 10
12.1321014233
 20
6.5475578289
 30
0.0
 10
12.1599147007
 20
6.5528229641
 30
0.0
 10
12.1874442615
 20
6.559127575
 30
0.0
 10
12.2146527176
 20
6.5664631387
 30
0.0
 10
12.2415030967
 20
6.5748197709
 30
0.0
 10
12.2679589461
 20
6.5841860792
 30
0.0
 10
12.2939843353
 20
6.5945493557
 30
0.0
 10
12.3195438834
 20
6.6058956061
 30
0.0
 10
12.3446028831
 20
6.6182093931
 30
0.0
 10
12.3691273073
 20
6.6314739784
 30
0.0
 10
12.3930838058
 20
6.6456714085
 30
0.0
 10
12.41643984
 20
6.6607824065
 30
0.0
 10
12.4391636769
 20
6.6767863821
 30
0.0
 10
12.4612245336
 20
6.6936617391
 30
0.0
 10
12.482591991
 20
6.7113852013
 30
0.0
 10
12.4963574677
 20
6.7237520336
 30
0.0
 10
12.5031137085
 20
6.7300673265
 30
0.0
  0
SPLINE
  5
3BB
100
AcDbEntity
  8
0
100
AcDbSpline
 62
7
  6
CONTINUOUS
 70
0
 71
3
 72
23
 73
19
 74
0
 42
0.0000001
 43
0.0000001
 44
0.0000000001
 40
0.0
 40
0.0
 40
0.0
 40
0.0
 40
0.063763354
 40
0.1273201177
 40
0.1906715333
 40
0.2538233104
 40
0.3167814208
 40
0.3795542594
 40
0.4421517197
 40
0.5045854028
 40
0.5668684379
 40
0.6290153911
 40
0.6910421318
 40
0.7529656886
 40
0.8148040904
 40
0.8765761956
 40
0.9383015105
 40
1.0
 40
1.0
 40
1.0
 40
1.0
 10
11.1712984905
 20
7.3724962586
 30
0.0
 10
11.1712984905
 20
7.3846999531
 30
0.0
 10
11.1718709655
 20
7.4090717754
 30
0.0
 10
11.1744549557
 20
7.4454859865
 30
0.0
 10
11.1787573532
 20
7.4816204459
 30
0.0
 10
11.184768527
 20
7.5173939479
 30
0.0
 10
11.1924753789
 20
7.5527277035
 30
0.0
 10
11.2018608476
 20
7.5875433402
 30
0.0
 10
11.2129042594
 20
7.6217637917
 30
0.0
 10
11.2255812174
 20
7.6553132498
 30
0.0
 10
11.2398637193
 20
7.6881173938
 30
0.0
 10
11.2557201908
 20
7.7201035449
 30
0.0
 10
11.2731155526
 20
7.7512008276
 30
0.0
 10
11.2920113295
 20
7.7813403504
 30
0.0
 10
11.3123656374
 20
7.810455263
 30
0.0
 10
11.3341336335
 20
7.8384812713
 30
0.0
 10
11.3572662845
 20
7.8653554199
 30
0.0
 10
11.3735674815
 20
7.8824678632
 30
0.0
 10
11.3819252249
 20
7.8908098522
 30
0.0
  0
SPLINE
  5
3BC
100
AcDbEntity
  8
0
100
AcDbSpline
 62
7
  6
CONTINUOUS
 70
0
 71
3
 72
23
 73
19
 74
0
 42
0.0000001
 43
0.0000001
 44
0.0000000001
 40
0.0
 40
0.0
 40
0.0
 40
0.0
 40
0.0616925101
 40
0.1236867087
 40
0.1859546046
 40
0.24846131
 40
0.3111662284
 40
0.3740240415
 40
0.4369858207
 40
0.5000001965
 40
0.5630145674
 40
0.6259763319
 40
0.6888341207
 40
0.7515390061
 40
0.8140456704
 40
0.8763135147
 40
0.9383076874
 40
1.0
 40
1.0
 40
1.0
 40
1.0
 10
9.2746811034
 20
7.994312558
 30
0.0
 10
9.2759652599
 20
7.986209043
 30
0.0
 10
9.2791828234
 20
7.9700570704
 30
0.0
 10
9.2858952642
 20
7.9462304128
 30
0.0
 10
9.2944635051
 20
7.9228897525
 30
0.0
 10
9.3048316611
 20
7.9001878427
 30
0.0
 10
9.3169325924
 20
7.8782707489
 30
0.0
 10
9.3306879336
 20
7.8572801342
 30
0.0
 10
9.3460087227
 20
7.837351498
 30
0.0
 10
9.3627959349
 20
7.8186135485
 30
0.0
 10
9.3809411237
 20
7.8011873247
 30
0.0
 10
9.4003270807
 20
7.7851854029
 30
0.0
 10
9.4208286038
 20
7.7707112056
 30
0.0
 10
9.4423133561
 20
7.757858334
 30
0.0
 10
9.4646424732
 20
7.7467100135
 30
0.0
 10
9.4876723068
 20
7.7373383977
 30
0.0
 10
9.5112521169
 20
7.7298046605
 30
0.0
 10
9.5272829076
 20
7.7260295175
 30
0.0
 10
9.5353370514
 20
7.724465437
 30
0.0
  0
SPLINE
  5
3BD
100
AcDbEntity
  8
0
100
AcDbSpline
 62
7
  6
CONTINUOUS
 70
0
 71
3
 72
39
 73
35
 74
0
 42
0.0000001
 43
0.0000001
 44
0.0000000001
 40
0.0
 40
0.0
 40
0.0
 40
0.0
 40
0.0318886912
 40
0.0636723716
 40
0.0953510004
 40
0.1269280717
 40
0.1584065932
 40
0.1897910512
 40
0.221086697
 40
0.2522996725
 40
0.2834369365
 40
0.314506194
 40
0.3455158305
 40
0.3764748288
 40
0.4073926837
 40
0.4382793081
 40
0.4691449336
 40
0.5000000062
 40
0.5308550794
 40
0.5617207061
 40
0.592607331
 40
0.6235251848
 40
0.654484181
 40
0.6854938156
 40
0.716563073
 40
0.7477003374
 40
0.7789133136
 40
0.8102089567
 40
0.8415934093
 40
0.8730719478
 40
0.9046489389
 40
0.9363278045
 40
0.9681109996
 40
1.0
 40
1.0
 40
1.0
 40
1.0
 10
11.3953932955
 20
7.3569552311
 30
0.0
 10
11.3953932955
 20
7.3658268007
 30
0.0
 10
11.39581791
 20
7.3835437322
 30
0.0
 10
11.3977344851
 20
7.4100113839
 30
0.0
 10
11.4009255424
 20
7.4362691844
 30
0.0
 10
11.405383534
 20
7.4622556
 30
0.0
 10
11.4110984233
 20
7.4879111319
 30
0.0
 10
11.4180570238
 20
7.5131765019
 30
0.0
 10
11.4262433893
 20
7.5379934906
 30
0.0
 10
11.4356386782
 20
7.5623048666
 30
0.0
 10
11.4462212736
 20
7.5860545656
 30
0.0
 10
11.4579668206
 20
7.6091878087
 30
0.0
 10
11.4708482774
 20
7.6316512306
 30
0.0
 10
11.4848359846
 20
7.6533929998
 30
0.0
 10
11.4998977065
 20
7.6743629551
 30
0.0
 10
11.5159987131
 20
7.6945127233
 30
0.0
 10
11.5331018787
 20
7.7137958195
 30
0.0
 10
11.5511677628
 20
7.7321677573
 30
0.0
 10
11.5701547014
 20
7.7495861515
 30
0.0
 10
11.5900189054
 20
7.7660108137
 30
0.0
 10
11.6107145394
 20
7.7814038745
 30
0.0
 10
11.6321938503
 20
7.7957298524
 30
0.0
 10
11.6544072821
 20
7.8089557298
 30
0.0
 10
11.6773035898
 20
7.8210510299
 30
0.0
 10
11.7008299582
 20
7.8319878846
 30
0.0
 10
11.724932122
 20
7.8417411026
 30
0.0
 10
11.7495544822
 20
7.8502882549
 30
0.0
 10
11.7746402538
 20
7.8576096922
 30
0.0
 10
11.8001315885
 20
7.863688592
 30
0.0
 10
11.8259697323
 20
7.8685109951
 30
0.0
 10
11.8520950689
 20
7.8720658334
 30
0.0
 10
11.8784475954
 20
7.8743449664
 30
0.0
 10
11.9049657804
 20
7.8753432379
 30
0.0
 10
11.9226867371
 20
7.8751536216
 30
0.0
 10
11.931553064
 20
7.8748461798
 30
0.0
  0
SPLINE
  5
3BE
100
AcDbEntity
  8
0
100
AcDbSpline
 62
7
  6
CONTINUOUS
 70
0
 71
3
 72
39
 73
35
 74
0
 42
0.0000001
 43
0.0000001
 44
0.0000000001
 40
0.0
 40
0.0
 40
0.0
 40
0.0
 40
0.0319034957
 40
0.0637042803
 40
0.0954018083
 40
0.1269996755
 40
0.1585006325
 40
0.1899088971
 40
0.2212294389
 40
0.2524680403
 40
0.2836312747
 40
0.3147264211
 40
0.3457614126
 40
0.3767447631
 40
0.4076854874
 40
0.4385930152
 40
0.4694770989
 40
0.5003477203
 40
0.531214994
 40
0.5620890689
 40
0.5929800268
 40
0.6238977831
 40
0.6548519895
 40
0.6858519428
 40
0.7169064967
 40
0.7480239769
 40
0.7792121036
 40
0.8104779199
 40
0.8418277336
 40
0.8732670637
 40
0.9048005946
 40
0.9364321386
 40
0.9681646078
 40
1.0
 40
1.0
 40
1.0
 40
1.0
 10
11.4668273246
 20
7.3889782202
 30
0.0
 10
11.4668273246
 20
7.397111977
 30
0.0
 10
11.4672087983
 20
7.4133559496
 30
0.0
 10
11.4689305067
 20
7.4376262405
 30
0.0
 10
11.4717972959
 20
7.4617102254
 30
0.0
 10
11.4758025988
 20
7.4855536587
 30
0.0
 10
11.4809377978
 20
7.5091041795
 30
0.0
 10
11.4871915208
 20
7.5323095292
 30
0.0
 10
11.4945499712
 20
7.5551183858
 30
0.0
 10
11.5029969035
 20
7.5774802546
 30
0.0
 10
11.5125136622
 20
7.5993456284
 30
0.0
 10
11.5230792399
 20
7.6206660843
 30
0.0
 10
11.5346702892
 20
7.6413944018
 30
0.0
 10
11.5472611557
 20
7.6614846867
 30
0.0
 10
11.5608239838
 20
7.6808924478
 30
0.0
 10
11.5753287655
 20
7.6995746997
 30
0.0
 10
11.5907434149
 20
7.71749005
 30
0.0
 10
11.6070338071
 20
7.7345988175
 30
0.0
 10
11.6241638553
 20
7.7508631294
 30
0.0
 10
11.6420956248
 20
7.7662469744
 30
0.0
 10
11.6607894076
 20
7.7807162902
 30
0.0
 10
11.6802038162
 20
7.7942390275
 30
0.0
 10
11.7002958452
 20
7.8067852646
 30
0.0
 10
11.7210209845
 20
7.8183272612
 30
0.0
 10
11.7423333347
 20
7.8288394928
 30
0.0
 10
11.7641857038
 20
7.8382987133
 30
0.0
 10
11.7865297123
 20
7.8466839956
 30
0.0
 10
11.8093158819
 20
7.8539768332
 30
0.0
 10
11.8324937597
 20
7.8601611446
 30
0.0
 10
11.8560120559
 20
7.8652232919
 30
0.0
 10
11.8798186727
 20
7.8691521126
 30
0.0
 10
11.9038611203
 20
7.8719389425
 30
0.0
 10
11.9280854895
 20
7.8735776814
 30
0.0
 10
11.9442959664
 20
7.8739018932
 30
0.0
 10
11.9524123082
 20
7.8738728121
 30
0.0
  0
SPLINE
  5
3BF
100
AcDbEntity
  8
0
100
AcDbSpline
 62
7
  6
CONTINUOUS
 70
0
 71
3
 72
23
 73
19
 74
0
 42
0.0000001
 43
0.0000001
 44
0.0000000001
 40
0.0
 40
0.0
 40
0.0
 40
0.0
 40
0.0637771706
 40
0.1273448423
 40
0.190701976
 40
0.2538561364
 40
0.3168131911
 40
0.379582093
 40
0.4421733865
 40
0.504599335
 40
0.5668738647
 40
0.6290123811
 40
0.6910316516
 40
0.752949644
 40
0.8147853513
 40
0.8765586011
 40
0.9382898546
 40
1.0
 40
1.0
 40
1.0
 40
1.0
 10
11.5250308817
 20
7.3976755311
 30
0.0
 10
11.5250308817
 20
7.4052433438
 30
0.0
 10
11.5253931069
 20
7.4203566746
 30
0.0
 10
11.5270280142
 20
7.4429347403
 30
0.0
 10
11.5297501395
 20
7.4653338185
 30
0.0
 10
11.5335529906
 20
7.4875013608
 30
0.0
 10
11.5384280438
 20
7.5093866564
 30
0.0
 10
11.5443640551
 20
7.5309391193
 30
0.0
 10
11.5513473849
 20
7.5521090964
 30
0.0
 10
11.5593619736
 20
7.572847768
 30
0.0
 10
11.5683893828
 20
7.5931073066
 30
0.0
 10
11.5784088547
 20
7.6128409759
 30
0.0
 10
11.5893973244
 20
7.6320032438
 30
0.0
 10
11.6013294682
 20
7.6505499245
 30
0.0
 10
11.6141777459
 20
7.6684381961
 30
0.0
 10
11.6279126942
 20
7.6856269268
 30
0.0
 10
11.6425021013
 20
7.7020759268
 30
0.0
 10
11.6527775614
 20
7.7125253587
 30
0.0
 10
11.6580443224
 20
7.717612677
 30
0.0
  0
SPLINE
  5
3C0
100
AcDbEntity
  8
0
100
AcDbSpline
 62
7
  6
CONTINUOUS
 70
0
 71
3
 72
27
 73
23
 74
0
 42
0.0000001
 43
0.0000001
 44
0.0000000001
 40
0.0
 40
0.0
 40
0.0
 40
0.0
 40
0.0639231132
 40
0.0957801292
 40
0.1275640601
 40
0.1909125283
 40
0.2539904171
 40
0.2854378617
 40
0.316824742
 40
0.3794193571
 40
0.4418102805
 40
0.5040280818
 40
0.5661066226
 40
0.6280824354
 40
0.6899940341
 40
0.7209430111
 40
0.7518909024
 40
0.813793821
 40
0.875752442
 40
0.9067696732
 40
0.9378152603
 40
1.0
 40
1.0
 40
1.0
 40
1.0
 10
11.8922099982
 20
7.5775446508
 30
0.0
 10
11.8922099982
 20
7.5842537339
 30
0.0
 10
11.8925420768
 20
7.5943106662
 30
0.0
 10
11.8936542363
 20
7.6076547522
 30
0.0
 10
11.8952061536
 20
7.620894624
 30
0.0
 10
11.8979712356
 20
7.6372814072
 30
0.0
 10
11.9018351311
 20
7.6534084405
 30
0.0
 10
11.9055719249
 20
7.6660866943
 30
0.0
 10
11.9097264389
 20
7.6785807537
 30
0.0
 10
11.9157091381
 20
7.693878949
 30
0.0
 10
11.9241266521
 20
7.7116498145
 30
0.0
 10
11.933740045
 20
7.728741783
 30
0.0
 10
11.9445072004
 20
7.7450794335
 30
0.0
 10
11.9563805848
 20
7.7605907916
 30
0.0
 10
11.9671566124
 20
7.7727748482
 30
0.0
 10
11.9762723693
 20
7.7820386367
 30
0.0
 10
11.9857100638
 20
7.7909729719
 30
0.0
 10
11.9980978416
 20
7.801509323
 30
0.0
 10
12.0112062954
 20
7.8111463825
 30
0.0
 10
12.0220894778
 20
7.8182917237
 30
0.0
 10
12.0332375698
 20
7.825061076
 30
0.0
 10
12.0418673457
 20
7.829695896
 30
0.0
 10
12.0477216896
 20
7.8325809561
 30
0.0
  0
SPLINE
  5
3C1
100
AcDbEntity
  8
0
100
AcDbSpline
 62
7
  6
CONTINUOUS
 70
0
 71
3
 72
42
 73
38
 74
0
 42
0.0000001
 43
0.0000001
 44
0.0000000001
 40
0.0
 40
0.0
 40
0.0
 40
0.0
 40
0.0299419663
 40
0.0449235352
 40
0.0599142051
 40
0.0899287052
 40
0.1200139767
 40
0.135092661
 40
0.150196701
 40
0.1804840414
 40
0.210897872
 40
0.2414513324
 40
0.2721543376
 40
0.3030133986
 40
0.3340315263
 40
0.3652082187
 40
0.3965395244
 40
0.4280181782
 40
0.4596338019
 40
0.4913731609
 40
0.5232204716
 40
0.55515775
 40
0.5871651943
 40
0.6192215961
 40
0.6513047701
 40
0.6833919991
 40
0.7154604852
 40
0.7474878032
 40
0.7794523473
 40
0.8113337692
 40
0.8431133916
 40
0.8747746171
 40
0.9063032365
 40
0.9376879249
 40
0.9533258257
 40
0.968925233
 40
1.0
 40
1.0
 40
1.0
 40
1.0
 10
10.7276596577
 20
9.8889473137
 30
0.0
 10
10.723512241
 20
9.884941216
 30
0.0
 10
10.7170466757
 20
9.879174781
 30
0.0
 10
10.7079917522
 20
9.8720199277
 30
0.0
 10
10.6986484943
 20
9.8652210806
 30
0.0
 10
10.6864570573
 20
9.8574138109
 30
0.0
 10
10.6736728507
 20
9.8505847192
 30
0.0
 10
10.6631292148
 20
9.8457264343
 30
0.0
 10
10.6523677379
 20
9.8412692864
 30
0.0
 10
10.6385612789
 20
9.8364765153
 30
0.0
 10
10.6215468897
 20
9.8320097819
 30
0.0
 10
10.6041612408
 20
9.8288454154
 30
0.0
 10
10.5865006763
 20
9.8270008847
 30
0.0
 10
10.5686622111
 20
9.8264860307
 30
0.0
 10
10.5507439973
 20
9.8273034747
 30
0.0
 10
10.5328445178
 20
9.8294484948
 30
0.0
 10
10.5150621229
 20
9.8329090948
 30
0.0
 10
10.497494476
 20
9.8376660691
 30
0.0
 10
10.4802380307
 20
9.8436931171
 30
0.0
 10
10.4633875061
 20
9.8509569913
 30
0.0
 10
10.4470353759
 20
9.8594176821
 30
0.0
 10
10.4312713663
 20
9.8690286375
 30
0.0
 10
10.4161819711
 20
9.87973702
 30
0.0
 10
10.4018499828
 20
9.8914839945
 30
0.0
 10
10.3883540442
 20
9.9042050499
 30
0.0
 10
10.3757682213
 20
9.9178303497
 30
0.0
 10
10.3641616016
 20
9.9322851114
 30
0.0
 10
10.3535979182
 20
9.9474900145
 30
0.0
 10
10.3441352031
 20
9.9633616252
 30
0.0
 10
10.3358254712
 20
9.9798128683
 30
0.0
 10
10.3287144375
 20
9.9967534302
 30
0.0
 10
10.3228412554
 20
10.0140904994
 30
0.0
 10
10.3182383649
 20
10.0317283426
 30
0.0
 10
10.3154788344
 20
10.0466166007
 30
0.0
 10
10.3139308147
 20
10.0585791258
 30
0.0
 10
10.3128260335
 20
10.0705302069
 30
0.0
 10
10.3124915173
 20
10.0795233107
 30
0.0
 10
10.3124915173
 20
10.0855077385
 30
0.0
  0
SPLINE
  5
3C2
100
AcDbEntity
  8
0
100
AcDbSpline
 62
7
  6
CONTINUOUS
 70
0
 71
3
 72
23
 73
19
 74
0
 42
0.0000001
 43
0.0000001
 44
0.0000000001
 40
0.0
 40
0.0
 40
0.0
 40
0.0
 40
0.0637764156
 40
0.1273451284
 40
0.1907019885
 40
0.2538560635
 40
0.3168132288
 40
0.3795820795
 40
0.4421733867
 40
0.5045993416
 40
0.5668738629
 40
0.6290123789
 40
0.691031653
 40
0.7529496458
 40
0.8147853519
 40
0.8765586031
 40
0.9382898573
 40
1.0
 40
1.0
 40
1.0
 40
1.0
 10
11.8957805922
 20
7.5777922728
 30
0.0
 10
11.8957805922
 20
7.582613707
 30
0.0
 10
11.8960113913
 20
7.5922425061
 30
0.0
 10
11.8970529646
 20
7.6066271074
 30
0.0
 10
11.8987872508
 20
7.6208977236
 30
0.0
 10
11.9012100722
 20
7.6350207553
 30
0.0
 10
11.9043160052
 20
7.6489639815
 30
0.0
 10
11.9080978646
 20
7.6626951691
 30
0.0
 10
11.9125469509
 20
7.6761826741
 30
0.0
 10
11.9176531022
 20
7.6893953803
 30
0.0
 10
11.9234045266
 20
7.7023028252
 30
0.0
 10
11.9297879702
 20
7.7148752495
 30
0.0
 10
11.9367887663
 20
7.7270836339
 30
0.0
 10
11.9443908081
 20
7.7388998087
 30
0.0
 10
11.9525765102
 20
7.7502965149
 30
0.0
 10
11.9613271035
 20
7.7612475502
 30
0.0
 10
11.9706221032
 20
7.7717272758
 30
0.0
 10
11.9771686404
 20
7.7783846705
 30
0.0
 10
11.9805241259
 20
7.78162582
 30
0.0
  0
SPLINE
  5
3C3
100
AcDbEntity
  8
0
100
AcDbSpline
 62
7
  6
CONTINUOUS
 70
0
 71
3
 72
23
 73
19
 74
0
 42
0.0000001
 43
0.0000001
 44
0.0000000001
 40
0.0
 40
0.0
 40
0.0
 40
0.0
 40
0.0637767638
 40
0.1273450118
 40
0.1907019674
 40
0.2538561101
 40
0.3168132145
 40
0.3795820843
 40
0.4421733868
 40
0.5045993403
 40
0.5668738673
 40
0.6290123789
 40
0.6910316481
 40
0.752949645
 40
0.8147853545
 40
0.8765586015
 40
0.9382898522
 40
1.0
 40
1.0
 40
1.0
 40
1.0
 10
10.0695882926
 20
9.9758812266
 30
0.0
 10
10.0695882926
 20
9.9816669855
 30
0.0
 10
10.0698652391
 20
9.9932215468
 30
0.0
 10
10.0711151481
 20
10.0104830841
 30
0.0
 10
10.0731962975
 20
10.0276078135
 30
0.0
 10
10.0761036738
 20
10.0445554815
 30
0.0
 10
10.0798308026
 20
10.0612873726
 30
0.0
 10
10.0843690522
 20
10.0777648077
 30
0.0
 10
10.089707982
 20
10.0939498252
 30
0.0
 10
10.0958353455
 20
10.1098050992
 30
0.0
 10
10.102737073
 20
10.1252940459
 30
0.0
 10
10.1103972465
 20
10.1403809542
 30
0.0
 10
10.1187982167
 20
10.1550310266
 30
0.0
 10
10.1279206531
 20
10.1692104674
 30
0.0
 10
10.1377435321
 20
10.1828865128
 30
0.0
 10
10.1482442913
 20
10.1960277393
 30
0.0
 10
10.1593982911
 20
10.2086034331
 30
0.0
 10
10.1672541419
 20
10.2165923184
 30
0.0
 10
10.1712807305
 20
10.220481701
 30
0.0
  0
SPLINE
  5
3C4
100
AcDbEntity
  8
0
100
AcDbSpline
 62
7
  6
CONTINUOUS
 70
0
 71
3
 72
43
 73
39
 74
0
 42
0.0000001
 43
0.0000001
 44
0.0000000001
 40
0.0
 40
0.0
 40
0.0
 40
0.0
 40
0.0309223397
 40
0.0464388377
 40
0.0619897805
 40
0.093190363
 40
0.1245221229
 40
0.1559767916
 40
0.1875439951
 40
0.2192115049
 40
0.2509654385
 40
0.2827905057
 40
0.3146702645
 40
0.3465873928
 40
0.3785239694
 40
0.4104617622
 40
0.4423825197
 40
0.4742682627
 40
0.5061015729
 40
0.5378658755
 40
0.5695457117
 40
0.6011269984
 40
0.632597271
 40
0.6639459063
 40
0.6951643199
 40
0.7262461366
 40
0.7571873275
 40
0.7879863118
 40
0.8186440177
 40
0.8491639008
 40
0.8643761514
 40
0.8795563822
 40
0.9098209083
 40
0.9399726222
 40
0.9550124024
 40
0.9700289436
 40
0.9850241445
 40
1.0
 40
1.0
 40
1.0
 40
1.0
 10
10.1917507818
 20
10.093881137
 30
0.0
 10
10.1917507818
 20
10.0858317722
 30
0.0
 10
10.1921541033
 20
10.0737384175
 30
0.0
 10
10.1934876338
 20
10.0576550657
 30
0.0
 10
10.1953562903
 20
10.041551562
 30
0.0
 10
10.198688795
 20
10.0214850608
 30
0.0
 10
10.2042543859
 20
9.997643827
 30
0.0
 10
10.2113664964
 20
9.9741173584
 30
0.0
 10
10.2199935045
 20
9.9510102166
 30
0.0
 10
10.2300971879
 20
9.928424298
 30
0.0
 10
10.2416328061
 20
9.9064594006
 30
0.0
 10
10.2545493181
 20
9.885212515
 30
0.0
 10
10.2687896038
 20
9.8647774743
 30
0.0
 10
10.2842907152
 20
9.8452445239
 30
0.0
 10
10.3009841534
 20
9.8266999317
 30
0.0
 10
10.3187961689
 20
9.8092256094
 30
0.0
 10
10.3376480846
 20
9.7928987539
 30
0.0
 10
10.3574566407
 20
9.777791509
 30
0.0
 10
10.3781343592
 20
9.7639706487
 30
0.0
 10
10.3995899264
 20
9.7514972844
 30
0.0
 10
10.4217285926
 20
9.7404265961
 30
0.0
 10
10.4444525858
 20
9.7308075895
 30
0.0
 10
10.4676615387
 20
9.7226828791
 30
0.0
 10
10.4912529287
 20
9.7160885
 30
0.0
 10
10.5151225193
 20
9.7110537452
 30
0.0
 10
10.539164838
 20
9.7076010385
 30
0.0
 10
10.5632735549
 20
9.7057458131
 30
0.0
 10
10.5873422516
 20
9.7054965041
 30
0.0
 10
10.6112637641
 20
9.7068542621
 30
0.0
 10
10.6310116614
 20
9.7093233275
 30
0.0
 10
10.6466263799
 20
9.7120945336
 30
0.0
 10
10.6620719566
 20
9.7153854673
 30
0.0
 10
10.6810973744
 20
9.7204774335
 30
0.0
 10
10.6996895347
 20
9.7268651622
 30
0.0
 10
10.7142268901
 20
9.7327288149
 30
0.0
 10
10.7249446871
 20
9.7374952114
 30
0.0
 10
10.735473135
 20
9.7426279506
 30
0.0
 10
10.74236269
 20
9.7462928056
 30
0.0
 10
10.7457714966
 20
9.7481841479
 30
0.0
  0
SPLINE
  5
3C5
100
AcDbEntity
  8
0
100
AcDbSpline
 62
7
  6
CONTINUOUS
 70
0
 71
3
 72
39
 73
35
 74
0
 42
0.0000001
 43
0.0000001
 44
0.0000000001
 40
0.0
 40
0.0
 40
0.0
 40
0.0
 40
0.029942471
 40
0.0599093185
 40
0.089924325
 40
0.1200101043
 40
0.1501875632
 40
0.1804754155
 40
0.2108897611
 40
0.2414437393
 40
0.2721472649
 40
0.3030068482
 40
0.3340255005
 40
0.3652027199
 40
0.3965345553
 40
0.4280137416
 40
0.4596298994
 40
0.4913697937
 40
0.523217641
 40
0.5551554573
 40
0.5871634413
 40
0.619220384
 40
0.6513040994
 40
0.6833918697
 40
0.715460897
 40
0.7474887556
 40
0.7794538398
 40
0.8113357995
 40
0.8431159588
 40
0.874777715
 40
0.9063068673
 40
0.9376920959
 40
0.968924654
 40
1.0
 40
1.0
 40
1.0
 40
1.0
 10
10.6923402674
 20
9.6810403616
 30
0.0
 10
10.6861191416
 20
9.6750312206
 30
0.0
 10
10.6731876982
 20
9.6634979139
 30
0.0
 10
10.6524695207
 20
9.6477858233
 30
0.0
 10
10.6305362237
 20
9.633740239
 30
0.0
 10
10.6075103639
 20
9.6214399476
 30
0.0
 10
10.5835185337
 20
9.6109521496
 30
0.0
 10
10.5586931389
 20
9.6023344994
 30
0.0
 10
10.5331709791
 20
9.5956341582
 30
0.0
 10
10.5070926649
 20
9.5908877076
 30
0.0
 10
10.4806017816
 20
9.5881209196
 30
0.0
 10
10.4538441033
 20
9.587348665
 30
0.0
 10
10.4269667893
 20
9.5885748442
 30
0.0
 10
10.4001175815
 20
9.5917923851
 30
0.0
 10
10.3734440006
 20
9.5969832976
 30
0.0
 10
10.347092546
 20
9.6041187812
 30
0.0
 10
10.3212078953
 20
9.6131593731
 30
0.0
 10
10.2959321253
 20
9.6240551963
 30
0.0
 10
10.2714039434
 20
9.6367462341
 30
0.0
 10
10.2477579388
 20
9.6511626619
 30
0.0
 10
10.2251238539
 20
9.6672252283
 30
0.0
 10
10.2036258849
 20
9.6848456901
 30
0.0
 10
10.1833819937
 20
9.7039272758
 30
0.0
 10
10.1645032744
 20
9.7243652247
 30
0.0
 10
10.1470933552
 20
9.7460473623
 30
0.0
 10
10.1312478357
 20
9.7688547076
 30
0.0
 10
10.1170537663
 20
9.7926621164
 30
0.0
 10
10.1045891784
 20
9.8173389656
 30
0.0
 10
10.0939226427
 20
9.8427498376
 30
0.0
 10
10.0851129029
 20
9.8687553127
 30
0.0
 10
10.0782085139
 20
9.8952125262
 30
0.0
 10
10.0732477221
 20
9.9219766905
 30
0.0
 10
10.0702579286
 20
9.948898943
 30
0.0
 10
10.0695882926
 20
9.9669045725
 30
0.0
 10
10.0695882926
 20
9.9758812266
 30
0.0
  0
SPLINE
  5
3C6
100
AcDbEntity
  8
0
100
AcDbSpline
 62
7
  6
CONTINUOUS
 70
0
 71
3
 72
15
 73
11
 74
0
 42
0.0000001
 43
0.0000001
 44
0.0000000001
 40
0.0
 40
0.0
 40
0.0
 40
0.0
 40
0.1266915796
 40
0.2528584779
 40
0.3785120423
 40
0.5036714489
 40
0.628363125
 40
0.7526206348
 40
0.8764841652
 40
1.0
 40
1.0
 40
1.0
 40
1.0
 10
11.7112450752
 20
7.5775446405
 30
0.0
 10
11.7112450752
 20
7.5870106756
 30
0.0
 10
11.7118116148
 20
7.6059085938
 30
0.0
 10
11.7143705248
 20
7.6340906205
 30
0.0
 10
11.7186276973
 20
7.6619519937
 30
0.0
 10
11.7245679309
 20
7.6893908284
 30
0.0
 10
11.7321698919
 20
7.7163083152
 30
0.0
 10
11.7414064684
 20
7.7426074852
 30
0.0
 10
11.7522437326
 20
7.7681920521
 30
0.0
 10
11.7605219274
 20
7.7847345438
 30
0.0
 10
11.764912652
 20
7.7928518962
 30
0.0
  0
SPLINE
  5
3C7
100
AcDbEntity
  8
0
100
AcDbSpline
 62
7
  6
CONTINUOUS
 70
0
 71
3
 72
34
 73
30
 74
0
 42
0.0000001
 43
0.0000001
 44
0.0000000001
 40
0.0
 40
0.0
 40
0.0
 40
0.0
 40
0.0935389797
 40
0.1846168588
 40
0.2726035833
 40
0.3568982354
 40
0.4369690855
 40
0.4752806469
 40
0.5123818005
 40
0.5482367736
 40
0.5828166903
 40
0.6161019346
 40
0.64807908
 40
0.6787438773
 40
0.7080980718
 40
0.7361518267
 40
0.7629213303
 40
0.7884305656
 40
0.8127096904
 40
0.8357965267
 40
0.8577355749
 40
0.8785792891
 40
0.8983879186
 40
0.9172301568
 40
0.9351840603
 40
0.9523364692
 40
0.9687845913
 40
0.9846341806
 40
1.0
 40
1.0
 40
1.0
 40
1.0
 10
12.2189529743
 20
7.6710469448
 30
0.0
 10
12.2221823304
 20
7.664207148
 30
0.0
 10
12.2288463548
 20
7.6508427398
 30
0.0
 10
12.239447088
 20
7.6315102726
 30
0.0
 10
12.2503216124
 20
7.613195811
 30
0.0
 10
12.2612457262
 20
7.5959575056
 30
0.0
 10
12.2703380103
 20
7.5823204835
 30
0.0
 10
12.2774448488
 20
7.571948836
 30
0.0
 10
12.2825788226
 20
7.564559858
 30
0.0
 10
12.2875735707
 20
7.5574417447
 30
0.0
 10
12.2924087192
 20
7.5505886434
 30
0.0
 10
12.2970658867
 20
7.5439937368
 30
0.0
 10
12.3015280883
 20
7.5376487227
 30
0.0
 10
12.3057803905
 20
7.5315447617
 30
0.0
 10
12.3098091277
 20
7.5256718758
 30
0.0
 10
12.3136025591
 20
7.5200198896
 30
0.0
 10
12.3171500327
 20
7.5145778713
 30
0.0
 10
12.3204426258
 20
7.5093349734
 30
0.0
 10
12.323472226
 20
7.5042798971
 30
0.0
 10
12.326232313
 20
7.4994017014
 30
0.0
 10
12.3287167773
 20
7.4946891911
 30
0.0
 10
12.3309210638
 20
7.490131781
 30
0.0
 10
12.3328405681
 20
7.4857187853
 30
0.0
 10
12.3344722116
 20
7.4814402966
 30
0.0
 10
12.3358125395
 20
7.4772865311
 30
0.0
 10
12.3368594092
 20
7.4732485663
 30
0.0
 10
12.3376103501
 20
7.469317842
 30
0.0
 10
12.3380637422
 20
7.4654870757
 30
0.0
 10
12.3381679951
 20
7.4629619396
 30
0.0
 10
12.3381682442
 20
7.4617194151
 30
0.0
  0
SPLINE
  5
3C8
100
AcDbEntity
  8
0
100
AcDbSpline
 62
7
  6
CONTINUOUS
 70
0
 71
3
 72
15
 73
11
 74
0
 42
0.0000001
 43
0.0000001
 44
0.0000000001
 40
0.0
 40
0.0
 40
0.0
 40
0.0
 40
0.1268098014
 40
0.2530495495
 40
0.3787339289
 40
0.5038874621
 40
0.6285440036
 40
0.7527463531
 40
0.8765455422
 40
1.0
 40
1.0
 40
1.0
 40
1.0
 10
10.1917507818
 20
10.093881137
 30
0.0
 10
10.1917507818
 20
10.1017442827
 30
0.0
 10
10.1922620674
 20
10.1174401916
 30
0.0
 10
10.1945719172
 20
10.1408270395
 30
0.0
 10
10.1984132964
 20
10.1639087618
 30
0.0
 10
10.2037700229
 20
10.1865856618
 30
0.0
 10
10.2106193827
 20
10.2087612769
 30
0.0
 10
10.2189325317
 20
10.2303412297
 30
0.0
 10
10.2286734053
 20
10.2512321875
 30
0.0
 10
10.2361024409
 20
10.2646601598
 30
0.0
 10
10.2400385691
 20
10.2712257741
 30
0.0
  0
SPLINE
  5
3C9
100
AcDbEntity
  8
0
100
AcDbSpline
 62
7
  6
CONTINUOUS
 70
0
 71
3
 72
21
 73
17
 74
0
 42
0.0000001
 43
0.0000001
 44
0.0000000001
 40
0.0
 40
0.0
 40
0.0
 40
0.0
 40
0.1273176366
 40
0.2537999756
 40
0.3167619475
 40
0.3795355041
 40
0.4421314991
 40
0.5045621439
 40
0.5668413432
 40
0.6289845283
 40
0.6910084528
 40
0.7529310935
 40
0.8147714495
 40
0.8765493365
 40
0.9382852194
 40
1.0
 40
1.0
 40
1.0
 40
1.0
 10
10.3124915173
 20
10.0855077385
 30
0.0
 10
10.3124915173
 20
10.0932072297
 30
0.0
 10
10.3132264845
 20
10.1085656079
 30
0.0
 10
10.3160022171
 20
10.1275518818
 30
0.0
 10
10.3193198349
 20
10.1424449539
 30
0.0
 10
10.322345324
 20
10.1534300893
 30
0.0
 10
10.3259046083
 20
10.1642200369
 30
0.0
 10
10.3299895324
 20
10.1747902111
 30
0.0
 10
10.3345906478
 20
10.1851161731
 30
0.0
 10
10.3396974085
 20
10.1951741098
 30
0.0
 10
10.3452980673
 20
10.204940802
 30
0.0
 10
10.3513796757
 20
10.2143937554
 30
0.0
 10
10.3579282256
 20
10.2235111285
 30
0.0
 10
10.3649287303
 20
10.2322719308
 30
0.0
 10
10.3723647167
 20
10.2406557194
 30
0.0
 10
10.3776019307
 20
10.2459816497
 30
0.0
 10
10.3802863185
 20
10.2485745696
 30
0.0
  0
SPLINE
  5
3CA
100
AcDbEntity
  8
0
100
AcDbSpline
 62
7
  6
CONTINUOUS
 70
0
 71
3
 72
42
 73
38
 74
0
 42
0.0000001
 43
0.0000001
 44
0.0000000001
 40
0.0
 40
0.0
 40
0.0
 40
0.0
 40
0.0299419663
 40
0.0449235352
 40
0.0599142051
 40
0.0899287052
 40
0.1200139767
 40
0.135092661
 40
0.150196701
 40
0.1804840414
 40
0.210897872
 40
0.2414513324
 40
0.2721543376
 40
0.3030133986
 40
0.3340315263
 40
0.3652082187
 40
0.3965395244
 40
0.4280181782
 40
0.4596338019
 40
0.4913731609
 40
0.5232204716
 40
0.55515775
 40
0.5871651943
 40
0.6192215961
 40
0.6513047701
 40
0.6833919991
 40
0.7154604852
 40
0.7474878032
 40
0.7794523473
 40
0.8113337692
 40
0.8431133916
 40
0.8747746171
 40
0.9063032365
 40
0.9376879249
 40
0.9533258257
 40
0.968925233
 40
1.0
 40
1.0
 40
1.0
 40
1.0
 10
8.9484240578
 20
8.9855585136
 30
0.0
 10
8.944276641
 20
8.981552416
 30
0.0
 10
8.9378110758
 20
8.975785981
 30
0.0
 10
8.9287561522
 20
8.9686311277
 30
0.0
 10
8.9194128943
 20
8.9618322805
 30
0.0
 10
8.9072214574
 20
8.9540250109
 30
0.0
 10
8.8944372507
 20
8.9471959192
 30
0.0
 10
8.8838936148
 20
8.9423376342
 30
0.0
 10
8.8731321379
 20
8.9378804864
 30
0.0
 10
8.859325679
 20
8.9330877153
 30
0.0
 10
8.8423112897
 20
8.9286209818
 30
0.0
 10
8.8249256408
 20
8.9254566154
 30
0.0
 10
8.8072650764
 20
8.9236120847
 30
0.0
 10
8.7894266111
 20
8.9230972306
 30
0.0
 10
8.7715083973
 20
8.9239146746
 30
0.0
 10
8.7536089179
 20
8.9260596948
 30
0.0
 10
8.7358265229
 20
8.9295202948
 30
0.0
 10
8.7182588761
 20
8.9342772691
 30
0.0
 10
8.7010024307
 20
8.9403043171
 30
0.0
 10
8.6841519061
 20
8.9475681913
 30
0.0
 10
8.667799776
 20
8.9560288821
 30
0.0
 10
8.6520357664
 20
8.9656398375
 30
0.0
 10
8.6369463711
 20
8.97634822
 30
0.0
 10
8.6226143828
 20
8.9880951945
 30
0.0
 10
8.6091184442
 20
9.0008162499
 30
0.0
 10
8.5965326214
 20
9.0144415497
 30
0.0
 10
8.5849260017
 20
9.0288963114
 30
0.0
 10
8.5743623182
 20
9.0441012144
 30
0.0
 10
8.5648996031
 20
9.0599728252
 30
0.0
 10
8.5565898713
 20
9.0764240683
 30
0.0
 10
8.5494788375
 20
9.0933646302
 30
0.0
 10
8.5436056555
 20
9.1107016994
 30
0.0
 10
8.5390027649
 20
9.1283395425
 30
0.0
 10
8.5362432344
 20
9.1432278007
 30
0.0
 10
8.5346952147
 20
9.1551903258
 30
0.0
 10
8.5335904335
 20
9.1671414068
 30
0.0
 10
8.5332559173
 20
9.1761345107
 30
0.0
 10
8.5332559173
 20
9.1821189385
 30
0.0
  0
SPLINE
  5
3CB
100
AcDbEntity
  8
0
100
AcDbSpline
 62
7
  6
CONTINUOUS
 70
0
 71
3
 72
39
 73
35
 74
0
 42
0.0000001
 43
0.0000001
 44
0.0000000001
 40
0.0
 40
0.0
 40
0.0
 40
0.0
 40
0.029942471
 40
0.0599093185
 40
0.089924325
 40
0.1200101043
 40
0.1501875632
 40
0.1804754155
 40
0.2108897611
 40
0.2414437393
 40
0.2721472649
 40
0.3030068482
 40
0.3340255005
 40
0.3652027199
 40
0.3965345553
 40
0.4280137416
 40
0.4596298994
 40
0.4913697937
 40
0.523217641
 40
0.5551554573
 40
0.5871634413
 40
0.619220384
 40
0.6513040994
 40
0.6833918697
 40
0.715460897
 40
0.7474887556
 40
0.7794538398
 40
0.8113357995
 40
0.8431159588
 40
0.874777715
 40
0.9063068673
 40
0.9376920959
 40
0.968924654
 40
1.0
 40
1.0
 40
1.0
 40
1.0
 10
8.9131046674
 20
8.7776515615
 30
0.0
 10
8.9068835417
 20
8.7716424206
 30
0.0
 10
8.8939520982
 20
8.7601091139
 30
0.0
 10
8.8732339207
 20
8.7443970233
 30
0.0
 10
8.8513006237
 20
8.730351439
 30
0.0
 10
8.828274764
 20
8.7180511476
 30
0.0
 10
8.8042829338
 20
8.7075633495
 30
0.0
 10
8.779457539
 20
8.6989456993
 30
0.0
 10
8.7539353791
 20
8.6922453582
 30
0.0
 10
8.7278570649
 20
8.6874989076
 30
0.0
 10
8.7013661817
 20
8.6847321196
 30
0.0
 10
8.6746085033
 20
8.683959865
 30
0.0
 10
8.6477311893
 20
8.6851860442
 30
0.0
 10
8.6208819816
 20
8.688403585
 30
0.0
 10
8.5942084006
 20
8.6935944976
 30
0.0
 10
8.567856946
 20
8.7007299812
 30
0.0
 10
8.5419722954
 20
8.7097705731
 30
0.0
 10
8.5166965253
 20
8.7206663963
 30
0.0
 10
8.4921683435
 20
8.7333574341
 30
0.0
 10
8.4685223389
 20
8.7477738619
 30
0.0
 10
8.445888254
 20
8.7638364283
 30
0.0
 10
8.4243902849
 20
8.7814568901
 30
0.0
 10
8.4041463938
 20
8.8005384758
 30
0.0
 10
8.3852676744
 20
8.8209764247
 30
0.0
 10
8.3678577553
 20
8.8426585623
 30
0.0
 10
8.3520122358
 20
8.8654659076
 30
0.0
 10
8.3378181664
 20
8.8892733164
 30
0.0
 10
8.3253535784
 20
8.9139501655
 30
0.0
 10
8.3146870427
 20
8.9393610376
 30
0.0
 10
8.3058773029
 20
8.9653665127
 30
0.0
 10
8.298972914
 20
8.9918237262
 30
0.0
 10
8.2940121221
 20
9.0185878905
 30
0.0
 10
8.2910223287
 20
9.045510143
 30
0.0
 10
8.2903526926
 20
9.0635157725
 30
0.0
 10
8.2903526926
 20
9.0724924266
 30
0.0
  0
SPLINE
  5
3CC
100
AcDbEntity
  8
0
100
AcDbSpline
 62
7
  6
CONTINUOUS
 70
0
 71
3
 72
23
 73
19
 74
0
 42
0.0000001
 43
0.0000001
 44
0.0000000001
 40
0.0
 40
0.0
 40
0.0
 40
0.0
 40
0.0365980179
 40
0.07536308
 40
0.1167533634
 40
0.1611486381
 40
0.208857565
 40
0.2601318926
 40
0.3151774047
 40
0.3741613502
 40
0.4372224934
 40
0.5044726886
 40
0.5760053665
 40
0.6518939231
 40
0.732198657
 40
0.8169641753
 40
0.9062242998
 40
1.0
 40
1.0
 40
1.0
 40
1.0
 10
9.5002260619
 20
7.5931372425
 30
0.0
 10
9.5002259196
 20
7.5941939202
 30
0.0
 10
9.5003968313
 20
7.5963724012
 30
0.0
 10
9.5011244869
 20
7.5996730671
 30
0.0
 10
9.5023267265
 20
7.6030709014
 30
0.0
 10
9.504000794
 20
7.6065499499
 30
0.0
 10
9.5061443435
 20
7.6100978278
 30
0.0
 10
9.5087548951
 20
7.613703698
 30
0.0
 10
9.5118296521
 20
7.6173588322
 30
0.0
 10
9.5153657583
 20
7.6210561485
 30
0.0
 10
9.5193594322
 20
7.6247909346
 30
0.0
 10
9.5238070603
 20
7.6285598667
 30
0.0
 10
9.5287037299
 20
7.6323624364
 30
0.0
 10
9.5340448533
 20
7.6361992008
 30
0.0
 10
9.5398243683
 20
7.6400738483
 30
0.0
 10
9.5460365052
 20
7.6439909231
 30
0.0
 10
9.5526739632
 20
7.6479581502
 30
0.0
 10
9.5572643228
 20
7.6505773844
 30
0.0
 10
9.5596267862
 20
7.6519000912
 30
0.0
  0
SPLINE
  5
3CD
100
AcDbEntity
  8
0
100
AcDbSpline
 62
7
  6
CONTINUOUS
 70
0
 71
3
 72
11
 73
7
 74
0
 42
0.0000001
 43
0.0000001
 44
0.0000000001
 40
0.0
 40
0.0
 40
0.0
 40
0.0
 40
0.2485273569
 40
0.498291786
 40
0.748904969
 40
1.0
 40
1.0
 40
1.0
 40
1.0
 10
12.2016446166
 20
7.7786651953
 30
0.0
 10
12.2025009529
 20
7.7696709052
 30
0.0
 10
12.2045491572
 20
7.7516676803
 30
0.0
 10
12.2085334765
 20
7.7247307293
 30
0.0
 10
12.2133402552
 20
7.6978342845
 30
0.0
 10
12.2170159885
 20
7.6799673768
 30
0.0
 10
12.2189529743
 20
7.6710469448
 30
0.0
  0
SPLINE
  5
3CE
100
AcDbEntity
  8
0
100
AcDbSpline
 62
7
  6
CONTINUOUS
 70
0
 71
3
 72
42
 73
38
 74
0
 42
0.0000001
 43
0.0000001
 44
0.0000000001
 40
0.0
 40
0.0
 40
0.0
 40
0.0
 40
0.0299419663
 40
0.0449235352
 40
0.0599142051
 40
0.0899287052
 40
0.1200139767
 40
0.135092661
 40
0.150196701
 40
0.1804840414
 40
0.210897872
 40
0.2414513324
 40
0.2721543376
 40
0.3030133986
 40
0.3340315263
 40
0.3652082187
 40
0.3965395244
 40
0.4280181782
 40
0.4596338019
 40
0.4913731609
 40
0.5232204716
 40
0.55515775
 40
0.5871651943
 40
0.6192215961
 40
0.6513047701
 40
0.6833919991
 40
0.7154604852
 40
0.7474878032
 40
0.7794523473
 40
0.8113337692
 40
0.8431133916
 40
0.8747746171
 40
0.9063032365
 40
0.9376879249
 40
0.9533258257
 40
0.968925233
 40
1.0
 40
1.0
 40
1.0
 40
1.0
 10
10.8493662491
 20
7.9409278295
 30
0.0
 10
10.8452188323
 20
7.9369217318
 30
0.0
 10
10.838753267
 20
7.9311552968
 30
0.0
 10
10.8296983435
 20
7.9240004435
 30
0.0
 10
10.8203550856
 20
7.9172015964
 30
0.0
 10
10.8081636487
 20
7.9093943267
 30
0.0
 10
10.795379442
 20
7.902565235
 30
0.0
 10
10.7848358061
 20
7.8977069501
 30
0.0
 10
10.7740743292
 20
7.8932498022
 30
0.0
 10
10.7602678702
 20
7.8884570311
 30
0.0
 10
10.743253481
 20
7.8839902977
 30
0.0
 10
10.7258678321
 20
7.8808259312
 30
0.0
 10
10.7082072677
 20
7.8789814005
 30
0.0
 10
10.6903688024
 20
7.8784665465
 30
0.0
 10
10.6724505886
 20
7.8792839905
 30
0.0
 10
10.6545511092
 20
7.8814290106
 30
0.0
 10
10.6367687142
 20
7.8848896106
 30
0.0
 10
10.6192010674
 20
7.8896465849
 30
0.0
 10
10.601944622
 20
7.8956736329
 30
0.0
 10
10.5850940974
 20
7.9029375071
 30
0.0
 10
10.5687419672
 20
7.9113981979
 30
0.0
 10
10.5529779576
 20
7.9210091534
 30
0.0
 10
10.5378885624
 20
7.9317175358
 30
0.0
 10
10.5235565741
 20
7.9434645103
 30
0.0
 10
10.5100606355
 20
7.9561855657
 30
0.0
 10
10.4974748126
 20
7.9698108655
 30
0.0
 10
10.4858681929
 20
7.9842656272
 30
0.0
 10
10.4753045095
 20
7.9994705303
 30
0.0
 10
10.4658417944
 20
8.015342141
 30
0.0
 10
10.4575320625
 20
8.0317933841
 30
0.0
 10
10.4504210288
 20
8.048733946
 30
0.0
 10
10.4445478467
 20
8.0660710152
 30
0.0
 10
10.4399449562
 20
8.0837088584
 30
0.0
 10
10.4371854257
 20
8.0985971165
 30
0.0
 10
10.435637406
 20
8.1105596417
 30
0.0
 10
10.4345326248
 20
8.1225107227
 30
0.0
 10
10.4341981086
 20
8.1315038265
 30
0.0
 10
10.4341981086
 20
8.1374882543
 30
0.0
  0
SPLINE
  5
3CF
100
AcDbEntity
  8
0
100
AcDbSpline
 62
7
  6
CONTINUOUS
 70
0
 71
3
 72
71
 73
67
 74
0
 42
0.0000001
 43
0.0000001
 44
0.0000000001
 40
0.0
 40
0.0
 40
0.0
 40
0.0
 40
0.0156373577
 40
0.0313279192
 40
0.0470702807
 40
0.0628636384
 40
0.078706081
 40
0.0945954868
 40
0.1105292294
 40
0.126504295
 40
0.1425172947
 40
0.1585644994
 40
0.1746418761
 40
0.1907451247
 40
0.2068697165
 40
0.2230109355
 40
0.2391639201
 40
0.2553237067
 40
0.2714852727
 40
0.2876435799
 40
0.3037936182
 40
0.3199304494
 40
0.3360492501
 40
0.3521453555
 40
0.3682143001
 40
0.3842518582
 40
0.4002540821
 40
0.4162173391
 40
0.4321383462
 40
0.4480142037
 40
0.4638424237
 40
0.4796209569
 40
0.4953482152
 40
0.5110230908
 40
0.5266449715
 40
0.5422137522
 40
0.5577298411
 40
0.5731941609
 40
0.5886081443
 40
0.6039737248
 40
0.6192933223
 40
0.6345698234
 40
0.6498065565
 40
0.6650072604
 40
0.6801760489
 40
0.6953173696
 40
0.7104359596
 40
0.7255367963
 40
0.7406250462
 40
0.7557060103
 40
0.7707850676
 40
0.7858676174
 40
0.8009590215
 40
0.8160645472
 40
0.8311893106
 40
0.8463382241
 40
0.8615159445
 40
0.8767268263
 40
0.8919748766
 40
0.9072637173
 40
0.9225965516
 40
0.9379761169
 40
0.9534047513
 40
0.968884057
 40
0.9844157643
 40
1.0
 40
1.0
 40
1.0
 40
1.0
 10
11.3953932955
 20
7.3569552311
 30
0.0
 10
11.3953932955
 20
7.3478529271
 30
0.0
 10
11.3958417806
 20
7.3296142502
 30
0.0
 10
11.3978501369
 20
7.3022786801
 30
0.0
 10
11.4011905811
 20
7.2749816832
 30
0.0
 10
11.405854776
 20
7.247790059
 30
0.0
 10
11.4118315981
 20
7.2207688788
 30
0.0
 10
11.4191065246
 20
7.1939833293
 30
0.0
 10
11.427662036
 20
7.1674978576
 30
0.0
 10
11.4374774772
 20
7.1413762288
 30
0.0
 10
11.4485291715
 20
7.1156813133
 30
0.0
 10
11.460790476
 20
7.0904749549
 30
0.0
 10
11.4742318441
 20
7.06581782
 30
0.0
 10
11.4888208977
 20
7.0417692535
 30
0.0
 10
11.5045225046
 20
7.0183871389
 30
0.0
 10
11.5212988578
 20
6.9957277565
 30
0.0
 10
11.5391095534
 20
6.9738456374
 30
0.0
 10
11.557911708
 20
6.9527934463
 30
0.0
 10
11.5776600584
 20
6.9326218537
 30
0.0
 10
11.5983070706
 20
6.9133794166
 30
0.0
 10
11.6198030517
 20
6.8951124613
 30
0.0
 10
11.6420962706
 20
6.8778649761
 30
0.0
 10
11.6651330675
 20
6.8616784859
 30
0.0
 10
11.6888579941
 20
6.8465919644
 30
0.0
 10
11.7132139504
 20
6.8326417462
 30
0.0
 10
11.7381423187
 20
6.8198614386
 30
0.0
 10
11.7635831035
 20
6.8082818416
 30
0.0
 10
11.7894750753
 20
6.7979308764
 30
0.0
 10
11.8157559117
 20
6.7888335057
 30
0.0
 10
11.8423623466
 20
6.7810116668
 30
0.0
 10
11.8692303294
 20
6.7744842371
 30
0.0
 10
11.8962951751
 20
6.7692669857
 30
0.0
 10
11.9234917189
 20
6.7653725352
 30
0.0
 10
11.9507544708
 20
6.7628103312
 30
0.0
 10
11.9780177721
 20
6.761586618
 30
0.0
 10
12.0052159525
 20
6.7617043983
 30
0.0
 10
12.0322834911
 20
6.7631634488
 30
0.0
 10
12.0591551724
 20
6.7659603191
 30
0.0
 10
12.0857662419
 20
6.7700883392
 30
0.0
 10
12.1120525611
 20
6.7755376324
 30
0.0
 10
12.1379507613
 20
6.7822951415
 30
0.0
 10
12.1633984015
 20
6.7903446376
 30
0.0
 10
12.1883341214
 20
6.7996667644
 30
0.0
 10
12.212697786
 20
6.8102390973
 30
0.0
 10
12.2364306316
 20
6.8220361925
 30
0.0
 10
12.2594754082
 20
6.8350296472
 30
0.0
 10
12.2817765178
 20
6.8491881686
 30
0.0
 10
12.3032801534
 20
6.8644776424
 30
0.0
 10
12.3239344426
 20
6.8808612017
 30
0.0
 10
12.3436895613
 20
6.8982993383
 30
0.0
 10
12.3624978568
 20
6.9167499953
 30
0.0
 10
12.3803139622
 20
6.9361686699
 30
0.0
 10
12.3970949085
 20
6.956508521
 30
0.0
 10
12.412800225
 20
6.9777204848
 30
0.0
 10
12.4273920594
 20
6.9997533796
 30
0.0
 10
12.4408352561
 20
7.022554045
 30
0.0
 10
12.4530974358
 20
7.0460674745
 30
0.0
 10
12.464149073
 20
7.0702369493
 30
0.0
 10
12.4739635668
 20
7.0950041748
 30
0.0
 10
12.4825173028
 20
7.1203094261
 30
0.0
 10
12.4897897069
 20
7.1460916739
 30
0.0
 10
12.495763358
 20
7.1722887911
 30
0.0
 10
12.5004238438
 20
7.1988374982
 30
0.0
 10
12.5037601674
 20
7.2256742011
 30
0.0
 10
12.5057641199
 20
7.2527331779
 30
0.0
 10
12.5062080616
 20
7.2708485831
 30
0.0
 10
12.5062080616
 20
7.2799199655
 30
0.0
  0
SPLINE
  5
3D0
100
AcDbEntity
  8
0
100
AcDbSpline
 62
7
  6
CONTINUOUS
 70
0
 71
3
 72
39
 73
35
 74
0
 42
0.0000001
 43
0.0000001
 44
0.0000000001
 40
0.0
 40
0.0
 40
0.0
 40
0.0
 40
0.029942471
 40
0.0599093185
 40
0.089924325
 40
0.1200101043
 40
0.1501875632
 40
0.1804754155
 40
0.2108897611
 40
0.2414437393
 40
0.2721472649
 40
0.3030068482
 40
0.3340255005
 40
0.3652027199
 40
0.3965345553
 40
0.4280137416
 40
0.4596298994
 40
0.4913697937
 40
0.523217641
 40
0.5551554573
 40
0.5871634413
 40
0.619220384
 40
0.6513040994
 40
0.6833918697
 40
0.715460897
 40
0.7474887556
 40
0.7794538398
 40
0.8113357995
 40
0.8431159588
 40
0.874777715
 40
0.9063068673
 40
0.9376920959
 40
0.968924654
 40
1.0
 40
1.0
 40
1.0
 40
1.0
 10
10.8140468587
 20
7.7330208774
 30
0.0
 10
10.8078257329
 20
7.7270117364
 30
0.0
 10
10.7948942895
 20
7.7154784298
 30
0.0
 10
10.774176112
 20
7.6997663391
 30
0.0
 10
10.752242815
 20
7.6857207548
 30
0.0
 10
10.7292169553
 20
7.6734204634
 30
0.0
 10
10.705225125
 20
7.6629326654
 30
0.0
 10
10.6803997303
 20
7.6543150152
 30
0.0
 10
10.6548775704
 20
7.647614674
 30
0.0
 10
10.6287992562
 20
7.6428682234
 30
0.0
 10
10.6023083729
 20
7.6401014354
 30
0.0
 10
10.5755506946
 20
7.6393291808
 30
0.0
 10
10.5486733806
 20
7.64055536
 30
0.0
 10
10.5218241729
 20
7.6437729009
 30
0.0
 10
10.4951505919
 20
7.6489638134
 30
0.0
 10
10.4687991373
 20
7.656099297
 30
0.0
 10
10.4429144866
 20
7.6651398889
 30
0.0
 10
10.4176387166
 20
7.6760357121
 30
0.0
 10
10.3931105348
 20
7.6887267499
 30
0.0
 10
10.3694645302
 20
7.7031431777
 30
0.0
 10
10.3468304452
 20
7.7192057441
 30
0.0
 10
10.3253324762
 20
7.736826206
 30
0.0
 10
10.3050885851
 20
7.7559077916
 30
0.0
 10
10.2862098657
 20
7.7763457405
 30
0.0
 10
10.2687999466
 20
7.7980278782
 30
0.0
 10
10.2529544271
 20
7.8208352234
 30
0.0
 10
10.2387603577
 20
7.8446426322
 30
0.0
 10
10.2262957697
 20
7.8693194814
 30
0.0
 10
10.215629234
 20
7.8947303534
 30
0.0
 10
10.2068194942
 20
7.9207358285
 30
0.0
 10
10.1999151053
 20
7.947193042
 30
0.0
 10
10.1949543134
 20
7.9739572064
 30
0.0
 10
10.1919645199
 20
8.0008794588
 30
0.0
 10
10.1912948839
 20
8.0188850883
 30
0.0
 10
10.1912948839
 20
8.0278617424
 30
0.0
  0
SPLINE
  5
3D1
100
AcDbEntity
  8
0
100
AcDbSpline
 62
7
  6
CONTINUOUS
 70
0
 71
3
 72
42
 73
38
 74
0
 42
0.0000001
 43
0.0000001
 44
0.0000000001
 40
0.0
 40
0.0
 40
0.0
 40
0.0
 40
0.0299419663
 40
0.0449235352
 40
0.0599142051
 40
0.0899287052
 40
0.1200139767
 40
0.135092661
 40
0.150196701
 40
0.1804840414
 40
0.210897872
 40
0.2414513324
 40
0.2721543376
 40
0.3030133986
 40
0.3340315263
 40
0.3652082187
 40
0.3965395244
 40
0.4280181782
 40
0.4596338019
 40
0.4913731609
 40
0.5232204716
 40
0.55515775
 40
0.5871651943
 40
0.6192215961
 40
0.6513047701
 40
0.6833919991
 40
0.7154604852
 40
0.7474878032
 40
0.7794523473
 40
0.8113337692
 40
0.8431133916
 40
0.8747746171
 40
0.9063032365
 40
0.9376879249
 40
0.9533258257
 40
0.968925233
 40
1.0
 40
1.0
 40
1.0
 40
1.0
 10
12.6305336759
 20
8.8441826281
 30
0.0
 10
12.6263862591
 20
8.8401765304
 30
0.0
 10
12.6199206939
 20
8.8344100954
 30
0.0
 10
12.6108657703
 20
8.8272552421
 30
0.0
 10
12.6015225124
 20
8.8204563949
 30
0.0
 10
12.5893310755
 20
8.8126491253
 30
0.0
 10
12.5765468688
 20
8.8058200336
 30
0.0
 10
12.5660032329
 20
8.8009617487
 30
0.0
 10
12.5552417561
 20
8.7965046008
 30
0.0
 10
12.5414352971
 20
8.7917118297
 30
0.0
 10
12.5244209079
 20
8.7872450962
 30
0.0
 10
12.5070352589
 20
8.7840807298
 30
0.0
 10
12.4893746945
 20
8.7822361991
 30
0.0
 10
12.4715362293
 20
8.7817213451
 30
0.0
 10
12.4536180155
 20
8.7825387891
 30
0.0
 10
12.435718536
 20
8.7846838092
 30
0.0
 10
12.4179361411
 20
8.7881444092
 30
0.0
 10
12.4003684942
 20
8.7929013835
 30
0.0
 10
12.3831120488
 20
8.7989284315
 30
0.0
 10
12.3662615243
 20
8.8061923057
 30
0.0
 10
12.3499093941
 20
8.8146529965
 30
0.0
 10
12.3341453845
 20
8.8242639519
 30
0.0
 10
12.3190559892
 20
8.8349723344
 30
0.0
 10
12.3047240009
 20
8.8467193089
 30
0.0
 10
12.2912280623
 20
8.8594403643
 30
0.0
 10
12.2786422395
 20
8.8730656641
 30
0.0
 10
12.2670356198
 20
8.8875204258
 30
0.0
 10
12.2564719364
 20
8.9027253289
 30
0.0
 10
12.2470092212
 20
8.9185969396
 30
0.0
 10
12.2386994894
 20
8.9350481827
 30
0.0
 10
12.2315884557
 20
8.9519887446
 30
0.0
 10
12.2257152736
 20
8.9693258138
 30
0.0
 10
12.2211123831
 20
8.986963657
 30
0.0
 10
12.2183528525
 20
9.0018519151
 30
0.0
 10
12.2168048328
 20
9.0138144402
 30
0.0
 10
12.2157000516
 20
9.0257655213
 30
0.0
 10
12.2153655354
 20
9.0347586251
 30
0.0
 10
12.2153655354
 20
9.0407430529
 30
0.0
  0
SPLINE
  5
3D2
100
AcDbEntity
  8
0
100
AcDbSpline
 62
7
  6
CONTINUOUS
 70
0
 71
3
 72
21
 73
17
 74
0
 42
0.0000001
 43
0.0000001
 44
0.0000000001
 40
0.0
 40
0.0
 40
0.0
 40
0.0
 40
0.0627637444
 40
0.1256003864
 40
0.1884824444
 40
0.2513897742
 40
0.377143175
 40
0.5027127397
 40
0.5653920355
 40
0.6279592144
 40
0.6903943164
 40
0.7526787907
 40
0.8147957067
 40
0.8767299452
 40
0.938468372
 40
1.0
 40
1.0
 40
1.0
 40
1.0
 10
12.2189529743
 20
7.6710469448
 30
0.0
 10
12.2219475577
 20
7.6663240189
 30
0.0
 10
12.2281802784
 20
7.6570224648
 30
0.0
 10
12.2382233122
 20
7.6435541652
 30
0.0
 10
12.2489393801
 20
7.6305972671
 30
0.0
 10
12.2640775707
 20
7.6140591495
 30
0.0
 10
12.2845178553
 20
7.5948524501
 30
0.0
 10
12.306767122
 20
7.5778068588
 30
0.0
 10
12.3254916825
 20
7.5655932355
 30
0.0
 10
12.3399490447
 20
7.5571743523
 30
0.0
 10
12.3547841958
 20
7.5495177337
 30
0.0
 10
12.369954618
 20
7.5426452252
 30
0.0
 10
12.3854162811
 20
7.5365768228
 30
0.0
 10
12.401124649
 20
7.5313300697
 30
0.0
 10
12.4170336799
 20
7.5269203012
 30
0.0
 10
12.4277627704
 20
7.5245426471
 30
0.0
 10
12.4331448237
 20
7.5234980184
 30
0.0
  0
SPLINE
  5
3D3
100
AcDbEntity
  8
0
100
AcDbSpline
 62
7
  6
CONTINUOUS
 70
0
 71
3
 72
39
 73
35
 74
0
 42
0.0000001
 43
0.0000001
 44
0.0000000001
 40
0.0
 40
0.0
 40
0.0
 40
0.0
 40
0.029942471
 40
0.0599093185
 40
0.089924325
 40
0.1200101043
 40
0.1501875632
 40
0.1804754155
 40
0.2108897611
 40
0.2414437393
 40
0.2721472649
 40
0.3030068482
 40
0.3340255005
 40
0.3652027199
 40
0.3965345553
 40
0.4280137416
 40
0.4596298994
 40
0.4913697937
 40
0.523217641
 40
0.5551554573
 40
0.5871634413
 40
0.619220384
 40
0.6513040994
 40
0.6833918697
 40
0.715460897
 40
0.7474887556
 40
0.7794538398
 40
0.8113357995
 40
0.8431159588
 40
0.874777715
 40
0.9063068673
 40
0.9376920959
 40
0.968924654
 40
1.0
 40
1.0
 40
1.0
 40
1.0
 10
12.5952142855
 20
8.636275676
 30
0.0
 10
12.5889931598
 20
8.630266535
 30
0.0
 10
12.5760617163
 20
8.6187332283
 30
0.0
 10
12.5553435388
 20
8.6030211377
 30
0.0
 10
12.5334102419
 20
8.5889755534
 30
0.0
 10
12.5103843821
 20
8.576675262
 30
0.0
 10
12.4863925519
 20
8.5661874639
 30
0.0
 10
12.4615671571
 20
8.5575698138
 30
0.0
 10
12.4360449972
 20
8.5508694726
 30
0.0
 10
12.4099666831
 20
8.546123022
 30
0.0
 10
12.3834757998
 20
8.543356234
 30
0.0
 10
12.3567181214
 20
8.5425839794
 30
0.0
 10
12.3298408075
 20
8.5438101586
 30
0.0
 10
12.3029915997
 20
8.5470276994
 30
0.0
 10
12.2763180187
 20
8.552218612
 30
0.0
 10
12.2499665641
 20
8.5593540956
 30
0.0
 10
12.2240819135
 20
8.5683946875
 30
0.0
 10
12.1988061435
 20
8.5792905107
 30
0.0
 10
12.1742779616
 20
8.5919815485
 30
0.0
 10
12.150631957
 20
8.6063979763
 30
0.0
 10
12.1279978721
 20
8.6224605427
 30
0.0
 10
12.1064999031
 20
8.6400810045
 30
0.0
 10
12.0862560119
 20
8.6591625902
 30
0.0
 10
12.0673772926
 20
8.6796005391
 30
0.0
 10
12.0499673734
 20
8.7012826767
 30
0.0
 10
12.0341218539
 20
8.724090022
 30
0.0
 10
12.0199277845
 20
8.7478974308
 30
0.0
 10
12.0074631965
 20
8.7725742799
 30
0.0
 10
11.9967966609
 20
8.797985152
 30
0.0
 10
11.9879869211
 20
8.8239906271
 30
0.0
 10
11.9810825321
 20
8.8504478406
 30
0.0
 10
11.9761217403
 20
8.8772120049
 30
0.0
 10
11.9731319468
 20
8.9041342574
 30
0.0
 10
11.9724623108
 20
8.9221398869
 30
0.0
 10
11.9724623108
 20
8.931116541
 30
0.0
  0
SPLINE
  5
3D4
100
AcDbEntity
  8
0
100
AcDbSpline
 62
7
  6
CONTINUOUS
 70
0
 71
3
 72
27
 73
23
 74
0
 42
0.0000001
 43
0.0000001
 44
0.0000000001
 40
0.0
 40
0.0
 40
0.0
 40
0.0
 40
0.0639231132
 40
0.0957801292
 40
0.1275640601
 40
0.1909125283
 40
0.2539904171
 40
0.2854378617
 40
0.316824742
 40
0.3794193571
 40
0.4418102805
 40
0.5040280818
 40
0.5661066226
 40
0.6280824354
 40
0.6899940341
 40
0.7209430111
 40
0.7518909024
 40
0.813793821
 40
0.875752442
 40
0.9067696732
 40
0.9378152603
 40
1.0
 40
1.0
 40
1.0
 40
1.0
 10
8.9944323476
 20
7.7785062135
 30
0.0
 10
8.9944323476
 20
7.7852152966
 30
0.0
 10
8.9947644262
 20
7.7952722289
 30
0.0
 10
8.9958765857
 20
7.8086163148
 30
0.0
 10
8.9974285031
 20
7.8218561866
 30
0.0
 10
9.0001935851
 20
7.8382429699
 30
0.0
 10
9.0040574806
 20
7.8543700031
 30
0.0
 10
9.0077942743
 20
7.8670482569
 30
0.0
 10
9.0119487883
 20
7.8795423163
 30
0.0
 10
9.0179314875
 20
7.8948405116
 30
0.0
 10
9.0263490016
 20
7.9126113771
 30
0.0
 10
9.0359623944
 20
7.9297033456
 30
0.0
 10
9.0467295499
 20
7.9460409962
 30
0.0
 10
9.0586029342
 20
7.9615523543
 30
0.0
 10
9.0693789618
 20
7.9737364109
 30
0.0
 10
9.0784947187
 20
7.9830001993
 30
0.0
 10
9.0879324133
 20
7.9919345345
 30
0.0
 10
9.100320191
 20
8.0024708856
 30
0.0
 10
9.1134286448
 20
8.0121079451
 30
0.0
 10
9.1243118272
 20
8.0192532863
 30
0.0
 10
9.1354599192
 20
8.0260226386
 30
0.0
 10
9.1440896951
 20
8.0306574586
 30
0.0
 10
9.1499440391
 20
8.0335425188
 30
0.0
  0
SPLINE
  5
3D5
100
AcDbEntity
  8
0
100
AcDbSpline
 62
7
  6
CONTINUOUS
 70
0
 71
3
 72
23
 73
19
 74
0
 42
0.0000001
 43
0.0000001
 44
0.0000000001
 40
0.0
 40
0.0
 40
0.0
 40
0.0
 40
0.0637767638
 40
0.1273450118
 40
0.1907019674
 40
0.2538561101
 40
0.3168132145
 40
0.3795820843
 40
0.4421733868
 40
0.5045993403
 40
0.5668738673
 40
0.6290123789
 40
0.6910316481
 40
0.752949645
 40
0.8147853545
 40
0.8765586015
 40
0.9382898522
 40
1.0
 40
1.0
 40
1.0
 40
1.0
 10
8.2903526926
 20
9.0724924266
 30
0.0
 10
8.2903526926
 20
9.0782781854
 30
0.0
 10
8.2906296392
 20
9.0898327468
 30
0.0
 10
8.2918795481
 20
9.1070942841
 30
0.0
 10
8.2939606975
 20
9.1242190135
 30
0.0
 10
8.2968680739
 20
9.1411666815
 30
0.0
 10
8.3005952026
 20
9.1578985726
 30
0.0
 10
8.3051334523
 20
9.1743760077
 30
0.0
 10
8.3104723821
 20
9.1905610252
 30
0.0
 10
8.3165997455
 20
9.2064162992
 30
0.0
 10
8.323501473
 20
9.2219052459
 30
0.0
 10
8.3311616465
 20
9.2369921542
 30
0.0
 10
8.3395626168
 20
9.2516422266
 30
0.0
 10
8.3486850532
 20
9.2658216674
 30
0.0
 10
8.3585079321
 20
9.2794977128
 30
0.0
 10
8.3690086914
 20
9.2926389393
 30
0.0
 10
8.3801626911
 20
9.3052146331
 30
0.0
 10
8.388018542
 20
9.3132035184
 30
0.0
 10
8.3920451305
 20
9.317092901
 30
0.0
  0
SPLINE
  5
3D6
100
AcDbEntity
  8
0
100
AcDbSpline
 62
7
  6
CONTINUOUS
 70
0
 71
3
 72
71
 73
67
 74
0
 42
0.0000001
 43
0.0000001
 44
0.0000000001
 40
0.0
 40
0.0
 40
0.0
 40
0.0
 40
0.0156354933
 40
0.0313231152
 40
0.0470613003
 40
0.0628494579
 40
0.078685753
 40
0.0945682045
 40
0.1104943589
 40
0.126461388
 40
0.1424661161
 40
0.1585050413
 40
0.1745743709
 40
0.1906700539
 40
0.2067878175
 40
0.2229232042
 40
0.2390716097
 40
0.2552283206
 40
0.2713885537
 40
0.2875474966
 40
0.3037003487
 40
0.3198423599
 40
0.33596887
 40
0.3520753476
 40
0.3681574293
 40
0.3842109573
 40
0.4002320157
 40
0.4162169634
 40
0.4321624674
 40
0.4480655346
 40
0.4639235406
 40
0.4797342552
 40
0.4954958646
 40
0.5112069911
 40
0.5268667106
 40
0.5424745661
 40
0.5580305755
 40
0.5735352363
 40
0.5889895245
 40
0.6043948913
 40
0.6197532548
 40
0.6350669856
 40
0.6503388869
 40
0.665572171
 40
0.6807704307
 40
0.6959376073
 40
0.7110779539
 40
0.7261959936
 40
0.7412964748
 40
0.7563843235
 40
0.7714645949
 40
0.7865424216
 40
0.8016229617
 40
0.8167113454
 40
0.8318126227
 40
0.8469317115
 40
0.8620733492
 40
0.8772420455
 40
0.8924420385
 40
0.9076772526
 40
0.9229512612
 40
0.9382672594
 40
0.9536280128
 40
0.969035908
 40
0.9844927836
 40
1.0
 40
1.0
 40
1.0
 40
1.0
 10
11.4668273246
 20
7.3889782202
 30
0.0
 10
11.4668273246
 20
7.3806545261
 30
0.0
 10
11.4672281305
 20
7.3639766784
 30
0.0
 10
11.4690231429
 20
7.3389785863
 30
0.0
 10
11.4720090276
 20
7.3140122707
 30
0.0
 10
11.4761786025
 20
7.2891361584
 30
0.0
 10
11.4815224119
 20
7.2644070613
 30
0.0
 10
11.4880280591
 20
7.2398819911
 30
0.0
 10
11.4956805557
 20
7.215617308
 30
0.0
 10
11.5044622486
 20
7.1916688117
 30
0.0
 10
11.5143529057
 20
7.1680915645
 30
0.0
 10
11.5253297586
 20
7.1449397757
 30
0.0
 10
11.537367555
 20
7.1222666825
 30
0.0
 10
11.5504385909
 20
7.100124414
 30
0.0
 10
11.5645127764
 20
7.0785638683
 30
0.0
 10
11.5795577323
 20
7.0576346117
 30
0.0
 10
11.5955388561
 20
7.0373847628
 30
0.0
 10
11.6124194048
 20
7.0178608878
 30
0.0
 10
11.6301605657
 20
6.9991078844
 30
0.0
 10
11.6487215293
 20
6.9811688603
 30
0.0
 10
11.6680596151
 20
6.9640850613
 30
0.0
 10
11.688130363
 20
6.947895775
 30
0.0
 10
11.7088876348
 20
6.932638243
 30
0.0
 10
11.7302837171
 20
6.9183475757
 30
0.0
 10
11.7522694085
 20
6.9050566357
 30
0.0
 10
11.7747941594
 20
6.8927959968
 30
0.0
 10
11.7978061846
 20
6.881593875
 30
0.0
 10
11.8212525799
 20
6.8714760634
 30
0.0
 10
11.8450794435
 20
6.8624658795
 30
0.0
 10
11.869231984
 20
6.8545840701
 30
0.0
 10
11.8936546596
 20
6.847848788
 30
0.0
 10
11.9182913078
 20
6.8422755639
 30
0.0
 10
11.94308527
 20
6.8378772662
 30
0.0
 10
11.9679795209
 20
6.8346640791
 30
0.0
 10
11.9929167934
 20
6.8326434445
 30
0.0
 10
12.0178397158
 20
6.8318200467
 30
0.0
 10
12.0426909445
 20
6.8321958313
 30
0.0
 10
12.0674132926
 20
6.8337699917
 30
0.0
 10
12.0919498592
 20
6.8365389766
 30
0.0
 10
12.1162441603
 20
6.8404964785
 30
0.0
 10
12.1402402668
 20
6.8456334228
 30
0.0
 10
12.163882928
 20
6.8519380318
 30
0.0
 10
12.187117697
 20
6.8593958426
 30
0.0
 10
12.2098910548
 20
6.8679897409
 30
0.0
 10
12.2321505332
 20
6.8776999962
 30
0.0
 10
12.2538448559
 20
6.8885042665
 30
0.0
 10
12.2749240431
 20
6.9003776932
 30
0.0
 10
12.2953395254
 20
6.9132929553
 30
0.0
 10
12.3150442559
 20
6.9272203304
 30
0.0
 10
12.3339928152
 20
6.9421277667
 30
0.0
 10
12.3521415465
 20
6.9579809201
 30
0.0
 10
12.3694486422
 20
6.9747432618
 30
0.0
 10
12.385874231
 20
6.9923761725
 30
0.0
 10
12.4013804736
 20
7.0108390272
 30
0.0
 10
12.4159316419
 20
7.0300892938
 30
0.0
 10
12.4294942311
 20
7.0500826091
 30
0.0
 10
12.4420370358
 20
7.0707728905
 30
0.0
 10
12.4535311969
 20
7.092112461
 30
0.0
 10
12.4639502725
 20
7.114052154
 30
0.0
 10
12.4732702918
 20
7.1365414304
 30
0.0
 10
12.4814698302
 20
7.1595284814
 30
0.0
 10
12.4885300646
 20
7.1829603627
 30
0.0
 10
12.494434817
 20
7.2067830647
 30
0.0
 10
12.4991705225
 20
7.2309419269
 30
0.0
 10
12.5027263006
 20
7.2553805225
 30
0.0
 10
12.5043023107
 20
7.2717967289
 30
0.0
 10
12.5048922881
 20
7.2800310252
 30
0.0
  0
SPLINE
  5
3D7
100
AcDbEntity
  8
0
100
AcDbSpline
 62
7
  6
CONTINUOUS
 70
0
 71
3
 72
15
 73
11
 74
0
 42
0.0000001
 43
0.0000001
 44
0.0000000001
 40
0.0
 40
0.0
 40
0.0
 40
0.0
 40
0.1266915796
 40
0.2528584779
 40
0.3785120423
 40
0.5036714489
 40
0.628363125
 40
0.7526206348
 40
0.8764841652
 40
1.0
 40
1.0
 40
1.0
 40
1.0
 10
8.8134674246
 20
7.7785062031
 30
0.0
 10
8.8134674246
 20
7.7879722382
 30
0.0
 10
8.8140339642
 20
7.8068701564
 30
0.0
 10
8.8165928742
 20
7.8350521831
 30
0.0
 10
8.8208500468
 20
7.8629135563
 30
0.0
 10
8.8267902803
 20
7.890352391
 30
0.0
 10
8.8343922413
 20
7.9172698778
 30
0.0
 10
8.8436288178
 20
7.9435690479
 30
0.0
 10
8.8544660821
 20
7.9691536147
 30
0.0
 10
8.8627442768
 20
7.9856961064
 30
0.0
 10
8.8671350014
 20
7.9938134588
 30
0.0
  0
SPLINE
  5
3D8
100
AcDbEntity
  8
0
100
AcDbSpline
 62
7
  6
CONTINUOUS
 70
0
 71
3
 72
43
 73
39
 74
0
 42
0.0000001
 43
0.0000001
 44
0.0000000001
 40
0.0
 40
0.0
 40
0.0
 40
0.0
 40
0.0309223397
 40
0.0464388377
 40
0.0619897805
 40
0.093190363
 40
0.1245221229
 40
0.1559767916
 40
0.1875439951
 40
0.2192115049
 40
0.2509654385
 40
0.2827905057
 40
0.3146702645
 40
0.3465873928
 40
0.3785239694
 40
0.4104617622
 40
0.4423825197
 40
0.4742682627
 40
0.5061015729
 40
0.5378658755
 40
0.5695457117
 40
0.6011269984
 40
0.632597271
 40
0.6639459063
 40
0.6951643199
 40
0.7262461366
 40
0.7571873275
 40
0.7879863118
 40
0.8186440177
 40
0.8491639008
 40
0.8643761514
 40
0.8795563822
 40
0.9098209083
 40
0.9399726222
 40
0.9550124024
 40
0.9700289436
 40
0.9850241445
 40
1.0
 40
1.0
 40
1.0
 40
1.0
 10
8.4125151819
 20
9.1904923369
 30
0.0
 10
8.4125151819
 20
9.1824429722
 30
0.0
 10
8.4129185033
 20
9.1703496175
 30
0.0
 10
8.4142520339
 20
9.1542662657
 30
0.0
 10
8.4161206904
 20
9.1381627619
 30
0.0
 10
8.419453195
 20
9.1180962608
 30
0.0
 10
8.4250187859
 20
9.094255027
 30
0.0
 10
8.4321308965
 20
9.0707285583
 30
0.0
 10
8.4407579045
 20
9.0476214166
 30
0.0
 10
8.450861588
 20
9.025035498
 30
0.0
 10
8.4623972061
 20
9.0030706006
 30
0.0
 10
8.4753137182
 20
8.981823715
 30
0.0
 10
8.4895540038
 20
8.9613886743
 30
0.0
 10
8.5050551152
 20
8.9418557239
 30
0.0
 10
8.5217485535
 20
8.9233111317
 30
0.0
 10
8.539560569
 20
8.9058368094
 30
0.0
 10
8.5584124846
 20
8.8895099539
 30
0.0
 10
8.5782210407
 20
8.874402709
 30
0.0
 10
8.5988987592
 20
8.8605818487
 30
0.0
 10
8.6203543264
 20
8.8481084844
 30
0.0
 10
8.6424929926
 20
8.8370377961
 30
0.0
 10
8.6652169858
 20
8.8274187895
 30
0.0
 10
8.6884259387
 20
8.8192940791
 30
0.0
 10
8.7120173287
 20
8.8126996999
 30
0.0
 10
8.7358869194
 20
8.8076649452
 30
0.0
 10
8.759929238
 20
8.8042122384
 30
0.0
 10
8.7840379549
 20
8.8023570131
 30
0.0
 10
8.8081066517
 20
8.8021077041
 30
0.0
 10
8.8320281642
 20
8.8034654621
 30
0.0
 10
8.8517760614
 20
8.8059345275
 30
0.0
 10
8.8673907799
 20
8.8087057336
 30
0.0
 10
8.8828363567
 20
8.8119966673
 30
0.0
 10
8.9018617745
 20
8.8170886335
 30
0.0
 10
8.9204539348
 20
8.8234763622
 30
0.0
 10
8.9349912901
 20
8.8293400149
 30
0.0
 10
8.9457090872
 20
8.8341064114
 30
0.0
 10
8.956237535
 20
8.8392391506
 30
0.0
 10
8.96312709
 20
8.8429040056
 30
0.0
 10
8.9665358966
 20
8.8447953479
 30
0.0
  0
SPLINE
  5
3D9
100
AcDbEntity
  8
0
100
AcDbSpline
 62
7
  6
CONTINUOUS
 70
0
 71
3
 72
39
 73
35
 74
0
 42
0.0000001
 43
0.0000001
 44
0.0000000001
 40
0.0
 40
0.0
 40
0.0
 40
0.0
 40
0.0310753533
 40
0.062307914
 40
0.0936931276
 40
0.125222289
 40
0.1568840436
 40
0.1886642048
 40
0.2205461649
 40
0.252511249
 40
0.2845391082
 40
0.3166081364
 40
0.3486959074
 40
0.3807796231
 40
0.412836566
 40
0.44484455
 40
0.4767823665
 40
0.508630214
 40
0.5403701087
 40
0.5719862657
 40
0.6034654504
 40
0.634797285
 40
0.6659745047
 40
0.6969931573
 40
0.7278527396
 40
0.7585562634
 40
0.7891102405
 40
0.8195245856
 40
0.8498124374
 40
0.8799898958
 40
0.9100756749
 40
0.9400906815
 40
0.970057529
 40
1.0
 40
1.0
 40
1.0
 40
1.0
 10
11.5250308817
 20
7.3976755311
 30
0.0
 10
11.5250308817
 20
7.3859340608
 30
0.0
 10
11.5259067698
 20
7.3623826857
 30
0.0
 10
11.5298174186
 20
7.3271683691
 30
0.0
 10
11.5363061356
 20
7.2921608315
 30
0.0
 10
11.5453370636
 20
7.2575547829
 30
0.0
 10
11.5568602278
 20
7.2235396122
 30
0.0
 10
11.5708120873
 20
7.1903021911
 30
0.0
 10
11.5871157787
 20
7.1580248635
 30
0.0
 10
11.6056816134
 20
7.1268847534
 30
0.0
 10
11.6264075539
 20
7.0970527298
 30
0.0
 10
11.6491797544
 20
7.0686924973
 30
0.0
 10
11.6738731453
 20
7.0419596663
 30
0.0
 10
11.7003521737
 20
7.0170009539
 30
0.0
 10
11.7284715275
 20
6.9939533824
 30
0.0
 10
11.7580769275
 20
6.9729435471
 30
0.0
 10
11.7890059201
 20
6.9540868659
 30
0.0
 10
11.8210887969
 20
6.9374869902
 30
0.0
 10
11.8541495175
 20
6.9232352532
 30
0.0
 10
11.88800666
 20
6.9114101777
 30
0.0
 10
11.922474384
 20
6.9020770021
 30
0.0
 10
11.9573634414
 20
6.8952873015
 30
0.0
 10
11.9924822165
 20
6.8910787538
 30
0.0
 10
12.0276377558
 20
6.8894749117
 30
0.0
 10
12.0626368097
 20
6.8904850571
 30
0.0
 10
12.097286891
 20
6.894104057
 30
0.0
 10
12.1313973306
 20
6.9003124452
 30
0.0
 10
12.1647803242
 20
6.9090765019
 30
0.0
 10
12.1972519458
 20
6.9203484093
 30
0.0
 10
12.2286332577
 20
6.9340664824
 30
0.0
 10
12.2587510796
 20
6.9501552922
 30
0.0
 10
12.2874398315
 20
6.9685269395
 30
0.0
 10
12.3145391928
 20
6.9890783928
 30
0.0
 10
12.3314535146
 20
7.0041639775
 30
0.0
 10
12.3395907328
 20
7.0120239543
 30
0.0
  0
SPLINE
  5
3DA
100
AcDbEntity
  8
0
100
AcDbSpline
 62
7
  6
CONTINUOUS
 70
0
 71
3
 72
39
 73
35
 74
0
 42
0.0000001
 43
0.0000001
 44
0.0000000001
 40
0.0
 40
0.0
 40
0.0
 40
0.0
 40
0.0302060282
 40
0.0603373815
 40
0.0904231215
 40
0.1204937049
 40
0.1505800548
 40
0.1807126093
 40
0.2109203932
 40
0.2412301452
 40
0.2716655307
 40
0.3022464708
 40
0.3329886094
 40
0.3639029255
 40
0.3949954934
 40
0.4262673933
 40
0.4577147703
 40
0.4893290212
 40
0.5210970967
 40
0.5530019077
 40
0.5850228258
 40
0.6171362505
 40
0.6493162351
 40
0.6815351553
 40
0.7137644122
 40
0.7459751483
 40
0.7781389687
 40
0.8102286567
 40
0.8422188661
 40
0.8740867776
 40
0.9058127056
 40
0.9373807399
 40
0.9687786883
 40
1.0
 40
1.0
 40
1.0
 40
1.0
 10
12.4679882129
 20
7.3974724295
 30
0.0
 10
12.4641063683
 20
7.3902397348
 30
0.0
 10
12.4557113102
 20
7.3761255948
 30
0.0
 10
12.4413096431
 20
7.3561774705
 30
0.0
 10
12.4252137306
 20
7.3376153991
 30
0.0
 10
12.4075365159
 20
7.320570706
 30
0.0
 10
12.3884005739
 20
7.305161289
 30
0.0
 10
12.3679390938
 20
7.2914943023
 30
0.0
 10
12.346294369
 20
7.2796644954
 30
0.0
 10
12.3236169105
 20
7.2697538108
 30
0.0
 10
12.3000643508
 20
7.2618307089
 30
0.0
 10
12.2758003145
 20
7.2559497154
 30
0.0
 10
12.2509932281
 20
7.2521511388
 30
0.0
 10
12.2258151493
 20
7.2504608271
 30
0.0
 10
12.2004405786
 20
7.2508899828
 30
0.0
 10
12.175045244
 20
7.2534350893
 30
0.0
 10
12.1498048936
 20
7.258078046
 30
0.0
 10
12.124894107
 20
7.2647863104
 30
0.0
 10
12.1004851073
 20
7.2735131078
 30
0.0
 10
12.0767465675
 20
7.2841977263
 30
0.0
 10
12.0538424904
 20
7.2967660243
 30
0.0
 10
12.0319311018
 20
7.3111309336
 30
0.0
 10
12.0111637688
 20
7.3271930364
 30
0.0
 10
11.9916839297
 20
7.3448412043
 30
0.0
 10
11.9736261671
 20
7.3639534314
 30
0.0
 10
11.957115292
 20
7.3843976553
 30
0.0
 10
11.9422654876
 20
7.4060326433
 30
0.0
 10
11.9291794662
 20
7.4287089231
 30
0.0
 10
11.9179478368
 20
7.4522698367
 30
0.0
 10
11.9086484865
 20
7.4765526661
 30
0.0
 10
11.9013460104
 20
7.5013894733
 30
0.0
 10
11.8960912988
 20
7.5266091389
 30
0.0
 10
11.8929209517
 20
7.5520350346
 30
0.0
 10
11.8922099982
 20
7.5690601767
 30
0.0
 10
11.8922099982
 20
7.5775446508
 30
0.0
  0
SPLINE
  5
3DB
100
AcDbEntity
  8
0
100
AcDbSpline
 62
7
  6
CONTINUOUS
 70
0
 71
3
 72
44
 73
40
 74
0
 42
0.0000001
 43
0.0000001
 44
0.0000000001
 40
0.0
 40
0.0
 40
0.0
 40
0.0
 40
0.0308954161
 40
0.0463971471
 40
0.0619328191
 40
0.0931010421
 40
0.1243981486
 40
0.155816392
 40
0.1873459579
 40
0.2189752859
 40
0.2506912277
 40
0.2665790637
 40
0.2824830161
 40
0.3143275458
 40
0.3462120511
 40
0.3781194119
 40
0.4100321562
 40
0.4419327295
 40
0.4738037645
 40
0.5056283482
 40
0.5373902853
 40
0.5690743527
 40
0.6006665437
 40
0.6321542979
 40
0.6635267136
 40
0.6947747405
 40
0.7258913463
 40
0.7568716577
 40
0.7877130684
 40
0.8184153135
 40
0.8489805058
 40
0.8642151405
 40
0.8794173909
 40
0.9097242618
 40
0.9399144254
 40
0.9549713486
 40
0.9700034387
 40
0.9850123909
 40
1.0
 40
1.0
 40
1.0
 40
1.0
 10
11.7112450752
 20
7.5775446405
 30
0.0
 10
11.7112450752
 20
7.5672217416
 30
0.0
 10
11.7117521752
 20
7.5517132916
 30
0.0
 10
11.7134291661
 20
7.531085591
 30
0.0
 10
11.7157791347
 20
7.5104312104
 30
0.0
 10
11.7199702383
 20
7.4846889671
 30
0.0
 10
11.7269712137
 20
7.4540904538
 30
0.0
 10
11.7359196237
 20
7.4238774869
 30
0.0
 10
11.7467773372
 20
7.3941789892
 30
0.0
 10
11.7594977184
 20
7.3651215167
 30
0.0
 10
11.7715994889
 20
7.3415553071
 30
0.0
 10
11.7821531815
 20
7.3231431831
 30
0.0
 10
11.7932889172
 20
7.3050266607
 30
0.0
 10
11.8082581698
 20
7.2830078406
 30
0.0
 10
11.8278136381
 20
7.2577115217
 30
0.0
 10
11.8488878089
 20
7.2336347202
 30
0.0
 10
11.8713907802
 20
7.2108803297
 30
0.0
 10
11.8952270855
 20
7.1895448207
 30
0.0
 10
11.9202954772
 20
7.169718873
 30
0.0
 10
11.9464895203
 20
7.1514867172
 30
0.0
 10
11.9736979958
 20
7.1349258524
 30
0.0
 10
12.0018053806
 20
7.1201067
 30
0.0
 10
12.0306923295
 20
7.1070923105
 30
0.0
 10
12.0602361778
 20
7.0959380944
 30
0.0
 10
12.0903114576
 20
7.0866915874
 30
0.0
 10
12.1207904177
 20
7.0793922458
 30
0.0
 10
12.1515435879
 20
7.0740712799
 30
0.0
 10
12.1824402209
 20
7.070751502
 30
0.0
 10
12.2133492182
 20
7.0694472822
 30
0.0
 10
12.2441382917
 20
7.0701642645
 30
0.0
 10
12.2696178734
 20
7.0724467016
 30
0.0
 10
12.2898057337
 20
7.0752787442
 30
0.0
 10
12.3098025867
 20
7.0787695884
 30
0.0
 10
12.3344880471
 20
7.0843722345
 30
0.0
 10
12.3586913906
 20
7.091619923
 30
0.0
 10
12.3776675371
 20
7.0983790841
 30
0.0
 10
12.3916837437
 20
7.1039193003
 30
0.0
 10
12.4054798972
 20
7.1099281777
 30
0.0
 10
12.414527507
 20
7.1142455841
 30
0.0
 10
12.4190090872
 20
7.1164800173
 30
0.0
  0
SPLINE
  5
3DC
100
AcDbEntity
  8
0
100
AcDbSpline
 62
4
  6
CONTINUOUS
 70
0
 71
3
 72
283
 73
279
 74
0
 42
0.0000001
 43
0.0000001
 44
0.0000000001
 40
0.0
 40
0.0
 40
0.0
 40
0.0
 40
0.015625
 40
0.03125
 40
0.0390625
 40
0.046875
 40
0.05078125
 40
0.0546875
 40
0.05859375
 40
0.060546875
 40
0.0615234375
 40
0.0625
 40
0.0634765625
 40
0.064453125
 40
0.06640625
 40
0.0703125
 40
0.07421875
 40
0.078125
 40
0.0859375
 40
0.09375
 40
0.1015625
 40
0.109375
 40
0.11328125
 40
0.1171875
 40
0.119140625
 40
0.12109375
 40
0.123046875
 40
0.1240234375
 40
0.1245117188
 40
0.125
 40
0.1254882812
 40
0.1259765625
 40
0.126953125
 40
0.12890625
 40
0.130859375
 40
0.1328125
 40
0.13671875
 40
0.140625
 40
0.1484375
 40
0.15625
 40
0.1640625
 40
0.171875
 40
0.17578125
 40
0.1796875
 40
0.181640625
 40
0.18359375
 40
0.185546875
 40
0.1865234375
 40
0.1870117188
 40
0.1875
 40
0.1879882812
 40
0.1884765625
 40
0.189453125
 40
0.19140625
 40
0.193359375
 40
0.1953125
 40
0.19921875
 40
0.203125
 40
0.2109375
 40
0.21875
 40
0.2265625
 40
0.234375
 40
0.23828125
 40
0.2421875
 40
0.244140625
 40
0.24609375
 40
0.248046875
 40
0.2490234375
 40
0.2495117188
 40
0.25
 40
0.2504882812
 40
0.2509765625
 40
0.251953125
 40
0.25390625
 40
0.255859375
 40
0.2578125
 40
0.26171875
 40
0.265625
 40
0.2734375
 40
0.28125
 40
0.2890625
 40
0.296875
 40
0.30078125
 40
0.3046875
 40
0.306640625
 40
0.30859375
 40
0.310546875
 40
0.3115234375
 40
0.3120117188
 40
0.3125
 40
0.3129882812
 40
0.3134765625
 40
0.314453125
 40
0.31640625
 40
0.318359375
 40
0.3203125
 40
0.32421875
 40
0.328125
 40
0.3359375
 40
0.34375
 40
0.3515625
 40
0.359375
 40
0.36328125
 40
0.3671875
 40
0.369140625
 40
0.37109375
 40
0.373046875
 40
0.3740234375
 40
0.3745117188
 40
0.375
 40
0.3754882812
 40
0.3759765625
 40
0.376953125
 40
0.37890625
 40
0.380859375
 40
0.3828125
 40
0.38671875
 40
0.390625
 40
0.3984375
 40
0.40625
 40
0.4140625
 40
0.421875
 40
0.42578125
 40
0.4296875
 40
0.431640625
 40
0.43359375
 40
0.435546875
 40
0.4365234375
 40
0.4370117188
 40
0.4375
 40
0.4379882812
 40
0.4384765625
 40
0.439453125
 40
0.44140625
 40
0.443359375
 40
0.4453125
 40
0.44921875
 40
0.453125
 40
0.4609375
 40
0.46875
 40
0.4765625
 40
0.484375
 40
0.48828125
 40
0.4921875
 40
0.494140625
 40
0.49609375
 40
0.498046875
 40
0.4990234375
 40
0.4995117188
 40
0.5
 40
0.5004882812
 40
0.5009765625
 40
0.501953125
 40
0.50390625
 40
0.505859375
 40
0.5078125
 40
0.51171875
 40
0.515625
 40
0.5234375
 40
0.53125
 40
0.5390625
 40
0.546875
 40
0.55078125
 40
0.5546875
 40
0.556640625
 40
0.55859375
 40
0.560546875
 40
0.5615234375
 40
0.5620117188
 40
0.5625
 40
0.5629882812
 40
0.5634765625
 40
0.564453125
 40
0.56640625
 40
0.568359375
 40
0.5703125
 40
0.57421875
 40
0.578125
 40
0.5859375
 40
0.59375
 40
0.6015625
 40
0.609375
 40
0.61328125
 40
0.6171875
 40
0.619140625
 40
0.62109375
 40
0.623046875
 40
0.6240234375
 40
0.6245117188
 40
0.625
 40
0.6254882812
 40
0.6259765625
 40
0.626953125
 40
0.62890625
 40
0.630859375
 40
0.6328125
 40
0.63671875
 40
0.640625
 40
0.6484375
 40
0.65625
 40
0.6640625
 40
0.671875
 40
0.67578125
 40
0.6796875
 40
0.681640625
 40
0.68359375
 40
0.685546875
 40
0.6865234375
 40
0.6870117188
 40
0.6875
 40
0.6879882812
 40
0.6884765625
 40
0.689453125
 40
0.69140625
 40
0.693359375
 40
0.6953125
 40
0.69921875
 40
0.703125
 40
0.7109375
 40
0.71875
 40
0.7265625
 40
0.734375
 40
0.73828125
 40
0.7421875
 40
0.74609375
 40
0.748046875
 40
0.7490234375
 40
0.75
 40
0.7509765625
 40
0.751953125
 40
0.75390625
 40
0.7578125
 40
0.76171875
 40
0.765625
 40
0.7734375
 40
0.78125
 40
0.7890625
 40
0.796875
 40
0.80078125
 40
0.8046875
 40
0.80859375
 40
0.810546875
 40
0.8115234375
 40
0.8125
 40
0.8134765625
 40
0.814453125
 40
0.81640625
 40
0.8203125
 40
0.82421875
 40
0.828125
 40
0.8359375
 40
0.84375
 40
0.8515625
 40
0.859375
 40
0.8671875
 40
0.87109375
 40
0.873046875
 40
0.875
 40
0.876953125
 40
0.87890625
 40
0.8828125
 40
0.890625
 40
0.8984375
 40
0.90625
 40
0.9140625
 40
0.921875
 40
0.9296875
 40
0.93359375
 40
0.935546875
 40
0.9375
 40
0.939453125
 40
0.94140625
 40
0.9453125
 40
0.953125
 40
0.9609375
 40
0.96875
 40
0.984375
 40
1.0
 40
1.0
 40
1.0
 40
1.0
 10
13.1461435562
 20
8.6723438496
 30
0.0
 10
13.1460612391
 20
8.6753975243
 30
0.0
 10
13.1458966017
 20
8.6815048681
 30
0.0
 10
13.1456908216
 20
8.6891390764
 30
0.0
 10
13.1455261625
 20
8.6952463832
 30
0.0
 10
13.1454233299
 20
8.6990635853
 30
0.0
 10
13.145340882
 20
8.702117037
 30
0.0
 10
13.145279544
 20
8.7044079745
 30
0.0
 10
13.1452268452
 20
8.706314389
 30
0.0
 10
13.1451930641
 20
8.7076541781
 30
0.0
 10
13.1451689076
 20
8.7084114981
 30
0.0
 10
13.1451644611
 20
8.7090027954
 30
0.0
 10
13.1451077577
 20
8.7095050003
 30
0.0
 10
13.145050381
 20
8.7102056832
 30
0.0
 10
13.144941479
 20
8.7114173992
 30
0.0
 10
13.1447903448
 20
8.713155992
 30
0.0
 10
13.1446070833
 20
8.7152390632
 30
0.0
 10
13.1443633985
 20
8.7180176233
 30
0.0
 10
13.1440585646
 20
8.7214904347
 30
0.0
 10
13.1436928622
 20
8.7256579765
 30
0.0
 10
13.1433271312
 20
8.7298254677
 30
0.0
 10
13.1430223687
 20
8.7332984056
 30
0.0
 10
13.142778541
 20
8.7360767127
 30
0.0
 10
13.1426261863
 20
8.7378132485
 30
0.0
 10
13.1425042168
 20
8.7392022626
 30
0.0
 10
13.1424129743
 20
8.7402446106
 30
0.0
 10
13.1423361925
 20
8.741111365
 30
0.0
 10
13.1422839099
 20
8.7417217609
 30
0.0
 10
13.1422517472
 20
8.7420648316
 30
0.0
 10
13.1422340675
 20
8.7423382674
 30
0.0
 10
13.1421917619
 20
8.7425500357
 30
0.0
 10
13.1421439442
 20
8.7428539037
 30
0.0
 10
13.1420562611
 20
8.7433756506
 30
0.0
 10
13.1419330919
 20
8.7441262431
 30
0.0
 10
13.1417843932
 20
8.7450247113
 30
0.0
 10
13.1415864411
 20
8.7462234522
 30
0.0
 10
13.1413388939
 20
8.7477216101
 30
0.0
 10
13.1409428782
 20
8.7501188128
 30
0.0
 10
13.1404478379
 20
8.7531152643
 30
0.0
 10
13.139853799
 20
8.75671103
 30
0.0
 10
13.1392597555
 20
8.7603067829
 30
0.0
 10
13.1387647268
 20
8.7633032664
 30
0.0
 10
13.1383686879
 20
8.7657004051
 30
0.0
 10
13.1381211998
 20
8.7671987257
 30
0.0
 10
13.1379231262
 20
8.7683971328
 30
0.0
 10
13.1377747988
 20
8.7692966208
 30
0.0
 10
13.137650468
 20
8.7700440226
 30
0.0
 10
13.1375648585
 20
8.7705714654
 30
0.0
 10
13.1375137184
 20
8.7708662072
 30
0.0
 10
13.137481618
 20
8.7711060082
 30
0.0
 10
13.1374256091
 20
8.7712741578
 30
0.0
 10
13.1373592702
 20
8.77152335
 30
0.0
 10
13.1372392915
 20
8.7719477918
 30
0.0
 10
13.1370699247
 20
8.7725602253
 30
0.0
 10
13.1368658151
 20
8.7732925395
 30
0.0
 10
13.1365939727
 20
8.7742698687
 30
0.0
 10
13.1362540656
 20
8.7754912186
 30
0.0
 10
13.1357102725
 20
8.7774455526
 30
0.0
 10
13.135030511
 20
8.7798884098
 30
0.0
 10
13.1342148062
 20
8.7828198665
 30
0.0
 10
13.1333990975
 20
8.7857513073
 30
0.0
 10
13.132719346
 20
8.7881942044
 30
0.0
 10
13.1321755329
 20
8.7901484585
 30
0.0
 10
13.1318356764
 20
8.7913700113
 30
0.0
 10
13.1315637303
 20
8.7923469239
 30
0.0
 10
13.1313599373
 20
8.793080511
 30
0.0
 10
13.13118958
 20
8.793688962
 30
0.0
 10
13.1310713696
 20
8.7941205132
 30
0.0
 10
13.1310021974
 20
8.7943583144
 30
0.0
 10
13.1309548912
 20
8.7945614537
 30
0.0
 10
13.130890105
 20
8.7946698391
 30
0.0
 10
13.1308098207
 20
8.7948474041
 30
0.0
 10
13.1306664823
 20
8.7951427437
 30
0.0
 10
13.1304631984
 20
8.7955727083
 30
0.0
 10
13.130218622
 20
8.7960852199
 30
0.0
 10
13.1298927421
 20
8.7967697722
 30
0.0
 10
13.1294853163
 20
8.7976250504
 30
0.0
 10
13.1288334774
 20
8.7989937261
 30
0.0
 10
13.1280186642
 20
8.800704491
 30
0.0
 10
13.127040895
 20
8.8027574453
 30
0.0
 10
13.1260631226
 20
8.8048103813
 30
0.0
 10
13.1252483171
 20
8.8065211922
 30
0.0
 10
13.1245964628
 20
8.8078897759
 30
0.0
 10
13.1241890763
 20
8.8087452879
 30
0.0
 10
13.1238631156
 20
8.8094293603
 30
0.0
 10
13.1236187862
 20
8.809943338
 30
0.0
 10
13.1234147294
 20
8.8103687154
 30
0.0
 10
13.1232727708
 20
8.8106722439
 30
0.0
 10
13.1231902756
 20
8.8108366883
 30
0.0
 10
13.1231322806
 20
8.810985376
 30
0.0
 10
13.1230594682
 20
8.8110371464
 30
0.0
 10
13.1229675534
 20
8.8111399795
 30
0.0
 10
13.1228042945
 20
8.8113041865
 30
0.0
 10
13.1225723265
 20
8.8115470026
 30
0.0
 10
13.122293426
 20
8.8118348573
 30
0.0
 10
13.1219217468
 20
8.8122198946
 30
0.0
 10
13.1214570835
 20
8.8127007698
 30
0.0
 10
13.1207136581
 20
8.8134704057
 30
0.0
 10
13.119784364
 20
8.8144323691
 30
0.0
 10
13.1186692166
 20
8.8155867625
 30
0.0
 10
13.1175540669
 20
8.8167411369
 30
0.0
 10
13.1166247788
 20
8.817703148
 30
0.0
 10
13.1158813414
 20
8.8184726886
 30
0.0
 10
13.1154167086
 20
8.818953806
 30
0.0
 10
13.1150449667
 20
8.8193383461
 30
0.0
 10
13.1147662579
 20
8.8196277197
 30
0.0
 10
13.1145336902
 20
8.8198657834
 30
0.0
 10
13.1143715017
 20
8.8200384744
 30
0.0
 10
13.114277872
 20
8.820127714
 30
0.0
 10
13.1142103275
 20
8.8202212389
 30
0.0
 10
13.114132547
 20
8.8202131038
 30
0.0
 10
13.1140324101
 20
8.8202377172
 30
0.0
 10
13.113855507
 20
8.8202642692
 30
0.0
 10
13.1136036581
 20
8.8203108381
 30
0.0
 10
13.1133010671
 20
8.8203630237
 30
0.0
 10
13.1128977424
 20
8.8204338958
 30
0.0
 10
13.1123935421
 20
8.8205220438
 30
0.0
 10
13.1115868464
 20
8.8206633278
 30
0.0
 10
13.1105784683
 20
8.8208398473
 30
0.0
 10
13.1093684183
 20
8.8210517099
 30
0.0
 10
13.1081583667
 20
8.8212635526
 30
0.0
 10
13.1071499928
 20
8.8214401217
 30
0.0
 10
13.1063432886
 20
8.8215813066
 30
0.0
 10
13.1058391101
 20
8.8216697065
 30
0.0
 10
13.1054357405
 20
8.8217400615
 30
0.0
 10
13.1051332868
 20
8.8217938269
 30
0.0
 10
13.1048810084
 20
8.821835453
 30
0.0
 10
13.1047048719
 20
8.8218708287
 30
0.0
 10
13.1046035068
 20
8.8218813042
 30
0.0
 10
13.1045294989
 20
8.8219165963
 30
0.0
 10
13.1044477853
 20
8.8218470162
 30
0.0
 10
13.1043415216
 20
8.8217908234
 30
0.0
 10
13.1041543079
 20
8.8216754424
 30
0.0
 10
13.1038875144
 20
8.8215195229
 30
0.0
 10
13.103567082
 20
8.8213286055
 30
0.0
 10
13.1031399366
 20
8.8210753812
 30
0.0
 10
13.1026059714
 20
8.8207583946
 30
0.0
 10
13.1017516459
 20
8.8202514711
 30
0.0
 10
13.1006837325
 20
8.8196177287
 30
0.0
 10
13.0994022391
 20
8.818857278
 30
0.0
 10
13.0981207453
 20
8.8180968076
 30
0.0
 10
13.0970528332
 20
8.8174631141
 30
0.0
 10
13.0961985051
 20
8.8169560928
 30
0.0
 10
13.0956645464
 20
8.8166393548
 30
0.0
 10
13.0952373877
 20
8.8163856204
 30
0.0
 10
13.0949169959
 20
8.8161962615
 30
0.0
 10
13.0946500753
 20
8.8160354658
 30
0.0
 10
13.0944630885
 20
8.8159287897
 30
0.0
 10
13.0943564612
 20
8.8158586493
 30
0.0
 10
13.0942758646
 20
8.8158319116
 30
0.0
 10
13.0941976615
 20
8.815706295
 30
0.0
 10
13.0940925559
 20
8.8155732962
 30
0.0
 10
13.0939090101
 20
8.8153244787
 30
0.0
 10
13.0936465984
 20
8.8149774266
 30
0.0
 10
13.0933317914
 20
8.8145573679
 30
0.0
 10
13.0929120183
 20
8.8139985458
 30
0.0
 10
13.0923873124
 20
8.813299588
 30
0.0
 10
13.0915477771
 20
8.812181496
 30
0.0
 10
13.0904983599
 20
8.810783798
 30
0.0
 10
13.0892390584
 20
8.8091065982
 30
0.0
 10
13.0879797576
 20
8.8074293801
 30
0.0
 10
13.0869303387
 20
8.806031728
 30
0.0
 10
13.086090807
 20
8.8049135441
 30
0.0
 10
13.0855660918
 20
8.8042148199
 30
0.0
 10
13.0851463377
 20
8.8036555185
 30
0.0
 10
13.0848314728
 20
8.8032369239
 30
0.0
 10
13.0845692422
 20
8.8028852912
 30
0.0
 10
13.0843853731
 20
8.8026446508
 30
0.0
 10
13.0842807855
 20
8.8024985503
 30
0.0
 10
13.0842009913
 20
8.8024131778
 30
0.0
 10
13.0841263707
 20
8.8022352897
 30
0.0
 10
13.084025072
 20
8.8020303761
 30
0.0
 10
13.08384864
 20
8.8016567419
 30
0.0
 10
13.0835961548
 20
8.8011308394
 30
0.0
 10
13.0832933606
 20
8.8004963918
 30
0.0
 10
13.0828895694
 20
8.7996516368
 30
0.0
 10
13.0823848529
 20
8.7985952907
 30
0.0
 10
13.0815772938
 20
8.796905362
 30
0.0
 10
13.0805678494
 20
8.7947928733
 30
0.0
 10
13.0793565139
 20
8.7922579222
 30
0.0
 10
13.0781451799
 20
8.7897229544
 30
0.0
 10
13.0771357318
 20
8.7876105076
 30
0.0
 10
13.0763281801
 20
8.785920495
 30
0.0
 10
13.0758234449
 20
8.784864362
 30
0.0
 10
13.075419692
 20
8.7840191698
 30
0.0
 10
13.0751167807
 20
8.7833860579
 30
0.0
 10
13.0748646622
 20
8.7828559764
 30
0.0
 10
13.0746875755
 20
8.7824898024
 30
0.0
 10
13.0745873257
 20
8.7822729356
 30
0.0
 10
13.0745094831
 20
8.7821317639
 30
0.0
 10
13.0744417905
 20
8.7819084909
 30
0.0
 10
13.0743479933
 20
8.7816394315
 30
0.0
 10
13.0741854977
 20
8.7811552347
 30
0.0
 10
13.0739524987
 20
8.7804705007
 30
0.0
 10
13.0736732691
 20
8.7796458341
 30
0.0
 10
13.073300834
 20
8.7785473214
 30
0.0
 10
13.0728353342
 20
8.7771738235
 30
0.0
 10
13.0720905099
 20
8.7749764266
 30
0.0
 10
13.0711594882
 20
8.7722296114
 30
0.0
 10
13.070042258
 20
8.7689334646
 30
0.0
 10
13.0689250301
 20
8.7656373026
 30
0.0
 10
13.0679940028
 20
8.7628905256
 30
0.0
 10
13.0672491896
 20
8.7606930524
 30
0.0
 10
13.0667836616
 20
8.7593197482
 30
0.0
 10
13.0664112845
 20
8.7582208381
 30
0.0
 10
13.0661318777
 20
8.7573973858
 30
0.0
 10
13.0658994331
 20
8.7567088523
 30
0.0
 10
13.0657359479
 20
8.7562314383
 30
0.0
 10
13.0656437362
 20
8.755951511
 30
0.0
 10
13.0655711736
 20
8.7557616206
 30
0.0
 10
13.0655116219
 20
8.7554950699
 30
0.0
 10
13.0654276813
 20
8.755166409
 30
0.0
 10
13.0652828998
 20
8.7545787937
 30
0.0
 10
13.0650749636
 20
8.7537458569
 30
0.0
 10
13.0648259134
 20
8.7527435447
 30
0.0
 10
13.0644936811
 20
8.7514081022
 30
0.0
 10
13.0640784474
 20
8.7497384656
 30
0.0
 10
13.0634140416
 20
8.7470672338
 30
0.0
 10
13.0625835464
 20
8.7437281274
 30
0.0
 10
13.0615869419
 20
8.7397212396
 30
0.0
 10
13.0605903595
 20
8.7357142991
 30
0.0
 10
13.0597598089
 20
8.7323753242
 30
0.0
 10
13.0590955141
 20
8.7297038295
 30
0.0
 10
13.0585968953
 20
8.7277010676
 30
0.0
 10
13.0581826444
 20
8.7260293667
 30
0.0
 10
13.0578901868
 20
8.7248645387
 30
0.0
 10
13.0577269435
 20
8.7241905494
 30
0.0
 10
13.0575935941
 20
8.7237086451
 30
0.0
 10
13.0575019749
 20
8.7231365769
 30
0.0
 10
13.0573652599
 20
8.7224052694
 30
0.0
 10
13.0571327907
 20
8.7211108281
 30
0.0
 10
13.0567971461
 20
8.7192692872
 30
0.0
 10
13.0563958904
 20
8.7170561588
 30
0.0
 10
13.0558603523
 20
8.7141064668
 30
0.0
 10
13.055191113
 20
8.7104189567
 30
0.0
 10
13.0543879418
 20
8.7059941224
 30
0.0
 10
13.0535848137
 20
8.7015692088
 30
0.0
 10
13.0529154665
 20
8.6978818968
 30
0.0
 10
13.0523801442
 20
8.6949318085
 30
0.0
 10
13.0519782305
 20
8.6927198889
 30
0.0
 10
13.0516446441
 20
8.6908745665
 30
0.0
 10
13.0514085008
 20
8.6895868756
 30
0.0
 10
13.0512776727
 20
8.6888447523
 30
0.0
 10
13.0511679709
 20
8.688305907
 30
0.0
 10
13.0511025368
 20
8.6876992228
 30
0.0
 10
13.0509998502
 20
8.6869139736
 30
0.0
 10
13.0508273431
 20
8.6855287623
 30
0.0
 10
13.0505771429
 20
8.6835556532
 30
0.0
 10
13.0502785132
 20
8.6811854548
 30
0.0
 10
13.0498797756
 20
8.6780260534
 30
0.0
 10
13.0493815619
 20
8.6740764968
 30
0.0
 10
13.0487835522
 20
8.6693371972
 30
0.0
 10
13.0481858225
 20
8.6645977122
 30
0.0
 10
13.0475871264
 20
8.6598588006
 30
0.0
 10
13.0470912007
 20
8.6559079508
 30
0.0
 10
13.0467382013
 20
8.6531457943
 30
0.0
 10
13.046545622
 20
8.6515620518
 30
0.0
 10
13.0463754554
 20
8.6503893647
 30
0.0
 10
13.0463036503
 20
8.6491588824
 30
0.0
 10
13.0461736004
 20
8.6475383989
 30
0.0
 10
13.0459619994
 20
8.64469316
 30
0.0
 10
13.045651349
 20
8.6406334451
 30
0.0
 10
13.0452821722
 20
8.6357596787
 30
0.0
 10
13.0449119619
 20
8.6308864866
 30
0.0
 10
13.044542282
 20
8.6260131062
 30
0.0
 10
13.0441715137
 20
8.6211399046
 30
0.0
 10
13.0438657263
 20
8.6170784639
 30
0.0
 10
13.0436454603
 20
8.6142362999
 30
0.0
 10
13.043529292
 20
8.6126108903
 30
0.0
 10
13.0434148476
 20
8.6113955396
 30
0.0
 10
13.0434048271
 20
8.6101660209
 30
0.0
 10
13.0433550422
 20
8.6085316047
 30
0.0
 10
13.0432848893
 20
8.6056690737
 30
0.0
 10
13.0431757984
 20
8.6015809475
 30
0.0
 10
13.0430486872
 20
8.5966746808
 30
0.0
 10
13.0428778785
 20
8.5901331719
 30
0.0
 10
13.0426648259
 20
8.5819562236
 30
0.0
 10
13.0424942442
 20
8.5754146839
 30
0.0
 10
13.0424089708
 20
8.5721439117
 30
0.0
  0
SPLINE
  5
3DD
100
AcDbEntity
  8
0
100
AcDbSpline
 62
4
  6
CONTINUOUS
 70
0
 71
3
 72
283
 73
279
 74
0
 42
0.0000001
 43
0.0000001
 44
0.0000000001
 40
0.0
 40
0.0
 40
0.0
 40
0.0
 40
0.015625
 40
0.03125
 40
0.0390625
 40
0.046875
 40
0.05078125
 40
0.0546875
 40
0.05859375
 40
0.060546875
 40
0.0615234375
 40
0.0625
 40
0.0634765625
 40
0.064453125
 40
0.06640625
 40
0.0703125
 40
0.07421875
 40
0.078125
 40
0.0859375
 40
0.09375
 40
0.1015625
 40
0.109375
 40
0.11328125
 40
0.1171875
 40
0.119140625
 40
0.12109375
 40
0.123046875
 40
0.1240234375
 40
0.1245117188
 40
0.125
 40
0.1254882812
 40
0.1259765625
 40
0.126953125
 40
0.12890625
 40
0.130859375
 40
0.1328125
 40
0.13671875
 40
0.140625
 40
0.1484375
 40
0.15625
 40
0.1640625
 40
0.171875
 40
0.17578125
 40
0.1796875
 40
0.181640625
 40
0.18359375
 40
0.185546875
 40
0.1865234375
 40
0.1870117188
 40
0.1875
 40
0.1879882812
 40
0.1884765625
 40
0.189453125
 40
0.19140625
 40
0.193359375
 40
0.1953125
 40
0.19921875
 40
0.203125
 40
0.2109375
 40
0.21875
 40
0.2265625
 40
0.234375
 40
0.23828125
 40
0.2421875
 40
0.244140625
 40
0.24609375
 40
0.248046875
 40
0.2490234375
 40
0.2495117188
 40
0.25
 40
0.2504882812
 40
0.2509765625
 40
0.251953125
 40
0.25390625
 40
0.255859375
 40
0.2578125
 40
0.26171875
 40
0.265625
 40
0.2734375
 40
0.28125
 40
0.2890625
 40
0.296875
 40
0.30078125
 40
0.3046875
 40
0.306640625
 40
0.30859375
 40
0.310546875
 40
0.3115234375
 40
0.3120117188
 40
0.3125
 40
0.3129882812
 40
0.3134765625
 40
0.314453125
 40
0.31640625
 40
0.318359375
 40
0.3203125
 40
0.32421875
 40
0.328125
 40
0.3359375
 40
0.34375
 40
0.3515625
 40
0.359375
 40
0.36328125
 40
0.3671875
 40
0.369140625
 40
0.37109375
 40
0.373046875
 40
0.3740234375
 40
0.3745117188
 40
0.375
 40
0.3754882812
 40
0.3759765625
 40
0.376953125
 40
0.37890625
 40
0.380859375
 40
0.3828125
 40
0.38671875
 40
0.390625
 40
0.3984375
 40
0.40625
 40
0.4140625
 40
0.421875
 40
0.42578125
 40
0.4296875
 40
0.431640625
 40
0.43359375
 40
0.435546875
 40
0.4365234375
 40
0.4370117188
 40
0.4375
 40
0.4379882812
 40
0.4384765625
 40
0.439453125
 40
0.44140625
 40
0.443359375
 40
0.4453125
 40
0.44921875
 40
0.453125
 40
0.4609375
 40
0.46875
 40
0.4765625
 40
0.484375
 40
0.48828125
 40
0.4921875
 40
0.494140625
 40
0.49609375
 40
0.498046875
 40
0.4990234375
 40
0.4995117188
 40
0.5
 40
0.5004882812
 40
0.5009765625
 40
0.501953125
 40
0.50390625
 40
0.505859375
 40
0.5078125
 40
0.51171875
 40
0.515625
 40
0.5234375
 40
0.53125
 40
0.5390625
 40
0.546875
 40
0.55078125
 40
0.5546875
 40
0.556640625
 40
0.55859375
 40
0.560546875
 40
0.5615234375
 40
0.5620117188
 40
0.5625
 40
0.5629882812
 40
0.5634765625
 40
0.564453125
 40
0.56640625
 40
0.568359375
 40
0.5703125
 40
0.57421875
 40
0.578125
 40
0.5859375
 40
0.59375
 40
0.6015625
 40
0.609375
 40
0.61328125
 40
0.6171875
 40
0.619140625
 40
0.62109375
 40
0.623046875
 40
0.6240234375
 40
0.6245117188
 40
0.625
 40
0.6254882812
 40
0.6259765625
 40
0.626953125
 40
0.62890625
 40
0.630859375
 40
0.6328125
 40
0.63671875
 40
0.640625
 40
0.6484375
 40
0.65625
 40
0.6640625
 40
0.671875
 40
0.67578125
 40
0.6796875
 40
0.681640625
 40
0.68359375
 40
0.685546875
 40
0.6865234375
 40
0.6870117188
 40
0.6875
 40
0.6879882812
 40
0.6884765625
 40
0.689453125
 40
0.69140625
 40
0.693359375
 40
0.6953125
 40
0.69921875
 40
0.703125
 40
0.7109375
 40
0.71875
 40
0.7265625
 40
0.734375
 40
0.73828125
 40
0.7421875
 40
0.74609375
 40
0.748046875
 40
0.7490234375
 40
0.75
 40
0.7509765625
 40
0.751953125
 40
0.75390625
 40
0.7578125
 40
0.76171875
 40
0.765625
 40
0.7734375
 40
0.78125
 40
0.7890625
 40
0.796875
 40
0.80078125
 40
0.8046875
 40
0.80859375
 40
0.810546875
 40
0.8115234375
 40
0.8125
 40
0.8134765625
 40
0.814453125
 40
0.81640625
 40
0.8203125
 40
0.82421875
 40
0.828125
 40
0.8359375
 40
0.84375
 40
0.8515625
 40
0.859375
 40
0.8671875
 40
0.87109375
 40
0.873046875
 40
0.875
 40
0.876953125
 40
0.87890625
 40
0.8828125
 40
0.890625
 40
0.8984375
 40
0.90625
 40
0.9140625
 40
0.921875
 40
0.9296875
 40
0.93359375
 40
0.935546875
 40
0.9375
 40
0.939453125
 40
0.94140625
 40
0.9453125
 40
0.953125
 40
0.9609375
 40
0.96875
 40
0.984375
 40
1.0
 40
1.0
 40
1.0
 40
1.0
 10
13.0424089708
 20
8.5721439286
 30
0.0
 10
13.0424912879
 20
8.5690902538
 30
0.0
 10
13.0426559253
 20
8.56298291
 30
0.0
 10
13.0428617054
 20
8.5553487018
 30
0.0
 10
13.0430263645
 20
8.549241395
 30
0.0
 10
13.0431291971
 20
8.5454241929
 30
0.0
 10
13.043211645
 20
8.5423707412
 30
0.0
 10
13.043272983
 20
8.5400798036
 30
0.0
 10
13.0433256818
 20
8.5381733891
 30
0.0
 10
13.0433594629
 20
8.5368336001
 30
0.0
 10
13.0433836194
 20
8.5360762801
 30
0.0
 10
13.0433880659
 20
8.5354849828
 30
0.0
 10
13.0434447693
 20
8.5349827779
 30
0.0
 10
13.043502146
 20
8.534282095
 30
0.0
 10
13.043611048
 20
8.5330703789
 30
0.0
 10
13.0437621822
 20
8.5313317861
 30
0.0
 10
13.0439454437
 20
8.529248715
 30
0.0
 10
13.0441891285
 20
8.5264701549
 30
0.0
 10
13.0444939624
 20
8.5229973435
 30
0.0
 10
13.0448596648
 20
8.5188298017
 30
0.0
 10
13.0452253958
 20
8.5146623105
 30
0.0
 10
13.0455301583
 20
8.5111893725
 30
0.0
 10
13.045773986
 20
8.5084110655
 30
0.0
 10
13.0459263407
 20
8.5066745297
 30
0.0
 10
13.0460483102
 20
8.5052855156
 30
0.0
 10
13.0461395527
 20
8.5042431676
 30
0.0
 10
13.0462163345
 20
8.5033764131
 30
0.0
 10
13.0462686171
 20
8.5027660173
 30
0.0
 10
13.0463007798
 20
8.5024229466
 30
0.0
 10
13.0463184595
 20
8.5021495108
 30
0.0
 10
13.0463607651
 20
8.5019377425
 30
0.0
 10
13.0464085828
 20
8.5016338745
 30
0.0
 10
13.0464962659
 20
8.5011121275
 30
0.0
 10
13.0466194351
 20
8.5003615351
 30
0.0
 10
13.0467681338
 20
8.4994630669
 30
0.0
 10
13.0469660859
 20
8.498264326
 30
0.0
 10
13.0472136331
 20
8.496766168
 30
0.0
 10
13.0476096488
 20
8.4943689654
 30
0.0
 10
13.0481046891
 20
8.4913725139
 30
0.0
 10
13.048698728
 20
8.4877767482
 30
0.0
 10
13.0492927715
 20
8.4841809952
 30
0.0
 10
13.0497878002
 20
8.4811845118
 30
0.0
 10
13.0501838391
 20
8.4787873731
 30
0.0
 10
13.0504313272
 20
8.4772890525
 30
0.0
 10
13.0506294008
 20
8.4760906454
 30
0.0
 10
13.0507777282
 20
8.4751911574
 30
0.0
 10
13.050902059
 20
8.4744437556
 30
0.0
 10
13.0509876685
 20
8.4739163128
 30
0.0
 10
13.0510388086
 20
8.473621571
 30
0.0
 10
13.051070909
 20
8.47338177
 30
0.0
 10
13.0511269179
 20
8.4732136204
 30
0.0
 10
13.0511932568
 20
8.4729644282
 30
0.0
 10
13.0513132355
 20
8.4725399863
 30
0.0
 10
13.0514826023
 20
8.4719275529
 30
0.0
 10
13.0516867119
 20
8.4711952386
 30
0.0
 10
13.0519585543
 20
8.4702179094
 30
0.0
 10
13.0522984614
 20
8.4689965596
 30
0.0
 10
13.0528422545
 20
8.4670422256
 30
0.0
 10
13.053522016
 20
8.4645993684
 30
0.0
 10
13.0543377208
 20
8.4616679117
 30
0.0
 10
13.0551534295
 20
8.4587364709
 30
0.0
 10
13.055833181
 20
8.4562935738
 30
0.0
 10
13.0563769941
 20
8.4543393197
 30
0.0
 10
13.0567168506
 20
8.4531177668
 30
0.0
 10
13.0569887967
 20
8.4521408543
 30
0.0
 10
13.0571925897
 20
8.4514072671
 30
0.0
 10
13.057362947
 20
8.4507988162
 30
0.0
 10
13.0574811575
 20
8.4503672649
 30
0.0
 10
13.0575503296
 20
8.4501294638
 30
0.0
 10
13.0575976358
 20
8.4499263244
 30
0.0
 10
13.057662422
 20
8.4498179391
 30
0.0
 10
13.0577427063
 20
8.4496403741
 30
0.0
 10
13.0578860447
 20
8.4493450344
 30
0.0
 10
13.0580893286
 20
8.4489150698
 30
0.0
 10
13.058333905
 20
8.4484025583
 30
0.0
 10
13.0586597849
 20
8.447718006
 30
0.0
 10
13.0590672107
 20
8.4468627277
 30
0.0
 10
13.0597190496
 20
8.4454940521
 30
0.0
 10
13.0605338628
 20
8.4437832872
 30
0.0
 10
13.061511632
 20
8.4417303328
 30
0.0
 10
13.0624894044
 20
8.4396773969
 30
0.0
 10
13.0633042099
 20
8.4379665859
 30
0.0
 10
13.0639560642
 20
8.4365980023
 30
0.0
 10
13.0643634507
 20
8.4357424902
 30
0.0
 10
13.0646894114
 20
8.4350584178
 30
0.0
 10
13.0649337408
 20
8.4345444402
 30
0.0
 10
13.0651377976
 20
8.4341190627
 30
0.0
 10
13.0652797562
 20
8.4338155342
 30
0.0
 10
13.0653622514
 20
8.4336510898
 30
0.0
 10
13.0654202464
 20
8.4335024021
 30
0.0
 10
13.0654930588
 20
8.4334506317
 30
0.0
 10
13.0655849736
 20
8.4333477987
 30
0.0
 10
13.0657482325
 20
8.4331835917
 30
0.0
 10
13.0659802005
 20
8.4329407755
 30
0.0
 10
13.066259101
 20
8.4326529209
 30
0.0
 10
13.0666307802
 20
8.4322678835
 30
0.0
 10
13.0670954435
 20
8.4317870084
 30
0.0
 10
13.0678388689
 20
8.4310173725
 30
0.0
 10
13.068768163
 20
8.4300554091
 30
0.0
 10
13.0698833104
 20
8.4289010156
 30
0.0
 10
13.0709984601
 20
8.4277466412
 30
0.0
 10
13.0719277482
 20
8.4267846302
 30
0.0
 10
13.0726711856
 20
8.4260150896
 30
0.0
 10
13.0731358184
 20
8.4255339722
 30
0.0
 10
13.0735075603
 20
8.4251494321
 30
0.0
 10
13.0737862691
 20
8.4248600584
 30
0.0
 10
13.0740188368
 20
8.4246219947
 30
0.0
 10
13.0741810253
 20
8.4244493038
 30
0.0
 10
13.074274655
 20
8.4243600641
 30
0.0
 10
13.0743421995
 20
8.4242665393
 30
0.0
 10
13.07441998
 20
8.4242746743
 30
0.0
 10
13.0745201169
 20
8.4242500609
 30
0.0
 10
13.07469702
 20
8.424223509
 30
0.0
 10
13.0749488689
 20
8.42417694
 30
0.0
 10
13.0752514599
 20
8.4241247545
 30
0.0
 10
13.0756547846
 20
8.4240538823
 30
0.0
 10
13.0761589849
 20
8.4239657344
 30
0.0
 10
13.0769656806
 20
8.4238244504
 30
0.0
 10
13.0779740587
 20
8.4236479309
 30
0.0
 10
13.0791841087
 20
8.4234360683
 30
0.0
 10
13.0803941603
 20
8.4232242255
 30
0.0
 10
13.0814025342
 20
8.4230476564
 30
0.0
 10
13.0822092384
 20
8.4229064716
 30
0.0
 10
13.0827134169
 20
8.4228180717
 30
0.0
 10
13.0831167865
 20
8.4227477167
 30
0.0
 10
13.0834192402
 20
8.4226939513
 30
0.0
 10
13.0836715186
 20
8.4226523251
 30
0.0
 10
13.0838476551
 20
8.4226169494
 30
0.0
 10
13.0839490202
 20
8.4226064739
 30
0.0
 10
13.0840230281
 20
8.4225711819
 30
0.0
 10
13.0841047417
 20
8.4226407619
 30
0.0
 10
13.0842110054
 20
8.4226969548
 30
0.0
 10
13.0843982191
 20
8.4228123358
 30
0.0
 10
13.0846650126
 20
8.4229682553
 30
0.0
 10
13.084985445
 20
8.4231591726
 30
0.0
 10
13.0854125904
 20
8.423412397
 30
0.0
 10
13.0859465556
 20
8.4237293835
 30
0.0
 10
13.0868008811
 20
8.424236307
 30
0.0
 10
13.0878687945
 20
8.4248700494
 30
0.0
 10
13.0891502879
 20
8.4256305002
 30
0.0
 10
13.0904317817
 20
8.4263909705
 30
0.0
 10
13.0914996938
 20
8.427024664
 30
0.0
 10
13.0923540219
 20
8.4275316853
 30
0.0
 10
13.0928879806
 20
8.4278484233
 30
0.0
 10
13.0933151393
 20
8.4281021578
 30
0.0
 10
13.0936355311
 20
8.4282915167
 30
0.0
 10
13.0939024517
 20
8.4284523124
 30
0.0
 10
13.0940894385
 20
8.4285589885
 30
0.0
 10
13.0941960658
 20
8.4286291288
 30
0.0
 10
13.0942766624
 20
8.4286558665
 30
0.0
 10
13.0943548655
 20
8.4287814832
 30
0.0
 10
13.0944599711
 20
8.428914482
 30
0.0
 10
13.0946435169
 20
8.4291632994
 30
0.0
 10
13.0949059286
 20
8.4295103516
 30
0.0
 10
13.0952207356
 20
8.4299304102
 30
0.0
 10
13.0956405087
 20
8.4304892324
 30
0.0
 10
13.0961652146
 20
8.4311881901
 30
0.0
 10
13.0970047499
 20
8.4323062821
 30
0.0
 10
13.0980541671
 20
8.4337039801
 30
0.0
 10
13.0993134686
 20
8.4353811799
 30
0.0
 10
13.1005727694
 20
8.4370583981
 30
0.0
 10
13.1016221883
 20
8.4384560502
 30
0.0
 10
13.10246172
 20
8.439574234
 30
0.0
 10
13.1029864352
 20
8.4402729583
 30
0.0
 10
13.1034061893
 20
8.4408322597
 30
0.0
 10
13.1037210542
 20
8.4412508543
 30
0.0
 10
13.1039832848
 20
8.441602487
 30
0.0
 10
13.1041671539
 20
8.4418431274
 30
0.0
 10
13.1042717415
 20
8.4419892279
 30
0.0
 10
13.1043515357
 20
8.4420746004
 30
0.0
 10
13.1044261563
 20
8.4422524884
 30
0.0
 10
13.104527455
 20
8.442457402
 30
0.0
 10
13.104703887
 20
8.4428310363
 30
0.0
 10
13.1049563722
 20
8.4433569388
 30
0.0
 10
13.1052591664
 20
8.4439913864
 30
0.0
 10
13.1056629576
 20
8.4448361413
 30
0.0
 10
13.1061676741
 20
8.4458924874
 30
0.0
 10
13.1069752332
 20
8.4475824162
 30
0.0
 10
13.1079846776
 20
8.4496949048
 30
0.0
 10
13.1091960131
 20
8.4522298559
 30
0.0
 10
13.1104073471
 20
8.4547648238
 30
0.0
 10
13.1114167952
 20
8.4568772705
 30
0.0
 10
13.1122243469
 20
8.4585672831
 30
0.0
 10
13.1127290821
 20
8.4596234162
 30
0.0
 10
13.113132835
 20
8.4604686084
 30
0.0
 10
13.1134357463
 20
8.4611017203
 30
0.0
 10
13.1136878648
 20
8.4616318018
 30
0.0
 10
13.1138649515
 20
8.4619979758
 30
0.0
 10
13.1139652013
 20
8.4622148426
 30
0.0
 10
13.1140430439
 20
8.4623560143
 30
0.0
 10
13.1141107365
 20
8.4625792872
 30
0.0
 10
13.1142045337
 20
8.4628483466
 30
0.0
 10
13.1143670293
 20
8.4633325435
 30
0.0
 10
13.1146000283
 20
8.4640172775
 30
0.0
 10
13.1148792579
 20
8.4648419441
 30
0.0
 10
13.115251693
 20
8.4659404567
 30
0.0
 10
13.1157171928
 20
8.4673139546
 30
0.0
 10
13.1164620171
 20
8.4695113516
 30
0.0
 10
13.1173930388
 20
8.4722581667
 30
0.0
 10
13.118510269
 20
8.4755543135
 30
0.0
 10
13.1196274969
 20
8.4788504756
 30
0.0
 10
13.1205585242
 20
8.4815972526
 30
0.0
 10
13.1213033374
 20
8.4837947258
 30
0.0
 10
13.1217688654
 20
8.48516803
 30
0.0
 10
13.1221412425
 20
8.4862669401
 30
0.0
 10
13.1224206493
 20
8.4870903924
 30
0.0
 10
13.1226530939
 20
8.4877789259
 30
0.0
 10
13.1228165791
 20
8.4882563399
 30
0.0
 10
13.1229087908
 20
8.4885362671
 30
0.0
 10
13.1229813534
 20
8.4887261576
 30
0.0
 10
13.1230409051
 20
8.4889927082
 30
0.0
 10
13.1231248457
 20
8.4893213692
 30
0.0
 10
13.1232696272
 20
8.4899089844
 30
0.0
 10
13.1234775634
 20
8.4907419213
 30
0.0
 10
13.1237266136
 20
8.4917442335
 30
0.0
 10
13.1240588459
 20
8.493079676
 30
0.0
 10
13.1244740796
 20
8.4947493125
 30
0.0
 10
13.1251384854
 20
8.4974205443
 30
0.0
 10
13.1259689806
 20
8.5007596507
 30
0.0
 10
13.1269655851
 20
8.5047665386
 30
0.0
 10
13.1279621675
 20
8.508773479
 30
0.0
 10
13.1287927181
 20
8.5121124539
 30
0.0
 10
13.1294570129
 20
8.5147839487
 30
0.0
 10
13.1299556317
 20
8.5167867106
 30
0.0
 10
13.1303698826
 20
8.5184584115
 30
0.0
 10
13.1306623402
 20
8.5196232395
 30
0.0
 10
13.1308255835
 20
8.5202972287
 30
0.0
 10
13.1309589329
 20
8.5207791331
 30
0.0
 10
13.1310505521
 20
8.5213512013
 30
0.0
 10
13.1311872671
 20
8.5220825088
 30
0.0
 10
13.1314197363
 20
8.5233769501
 30
0.0
 10
13.1317553809
 20
8.525218491
 30
0.0
 10
13.1321566366
 20
8.5274316193
 30
0.0
 10
13.1326921747
 20
8.5303813114
 30
0.0
 10
13.133361414
 20
8.5340688215
 30
0.0
 10
13.1341645852
 20
8.5384936558
 30
0.0
 10
13.1349677133
 20
8.5429185694
 30
0.0
 10
13.1356370605
 20
8.5466058814
 30
0.0
 10
13.1361723828
 20
8.5495559697
 30
0.0
 10
13.1365742965
 20
8.5517678893
 30
0.0
 10
13.1369078829
 20
8.5536132117
 30
0.0
 10
13.1371440262
 20
8.5549009025
 30
0.0
 10
13.1372748543
 20
8.5556430259
 30
0.0
 10
13.1373845561
 20
8.5561818712
 30
0.0
 10
13.1374499902
 20
8.5567885554
 30
0.0
 10
13.1375526768
 20
8.5575738046
 30
0.0
 10
13.1377251839
 20
8.5589590158
 30
0.0
 10
13.1379753841
 20
8.560932125
 30
0.0
 10
13.1382740138
 20
8.5633023234
 30
0.0
 10
13.1386727514
 20
8.5664617248
 30
0.0
 10
13.1391709651
 20
8.5704112813
 30
0.0
 10
13.1397689748
 20
8.5751505809
 30
0.0
 10
13.1403667045
 20
8.579890066
 30
0.0
 10
13.1409654006
 20
8.5846289776
 30
0.0
 10
13.1414613263
 20
8.5885798274
 30
0.0
 10
13.1418143257
 20
8.5913419838
 30
0.0
 10
13.142006905
 20
8.5929257263
 30
0.0
 10
13.1421770716
 20
8.5940984135
 30
0.0
 10
13.1422488767
 20
8.5953288958
 30
0.0
 10
13.1423789266
 20
8.5969493792
 30
0.0
 10
13.1425905276
 20
8.5997946181
 30
0.0
 10
13.142901178
 20
8.6038543331
 30
0.0
 10
13.1432703548
 20
8.6087280994
 30
0.0
 10
13.1436405651
 20
8.6136012916
 30
0.0
 10
13.144010245
 20
8.618474672
 30
0.0
 10
13.1443810133
 20
8.6233478736
 30
0.0
 10
13.1446868007
 20
8.6274093143
 30
0.0
 10
13.1449070667
 20
8.6302514782
 30
0.0
 10
13.145023235
 20
8.6318768878
 30
0.0
 10
13.1451376794
 20
8.6330922386
 30
0.0
 10
13.1451476999
 20
8.6343217572
 30
0.0
 10
13.1451974848
 20
8.6359561735
 30
0.0
 10
13.1452676377
 20
8.6388187045
 30
0.0
 10
13.1453767286
 20
8.6429068307
 30
0.0
 10
13.1455038398
 20
8.6478130974
 30
0.0
 10
13.1456746485
 20
8.6543546063
 30
0.0
 10
13.1458877011
 20
8.6625315546
 30
0.0
 10
13.1460582828
 20
8.6690730943
 30
0.0
 10
13.1461435562
 20
8.6723438665
 30
0.0
  0
ENDSEC
  0
SECTION
  2
OBJECTS
  0
DICTIONARY
  5
C
100
AcDbDictionary
280
0
281
1
  3
ACAD_GROUP
350
D
  3
ACAD_MLINESTYLE
350
17
  3
ACAD_LAYOUT
350
1A
  3
ACAD_PLOTSETTINGS
350
19
  3
ACAD_PLOTSTYLENAME
350
E
  3
ACAD_IMAGE_DICT
350
       3DF
  3
ACAD_IMAGE_VARS
350
       3E0
  3
ACAD_TABLESTYLE
350
       3E1
  0
IMAGEDEF_REACTOR
  5
3DE
100
AcDbRasterImageDefReactor
 90
2
330
284
  0
DICTIONARY
  5
D
102
{ACAD_REACTORS
330
C
102
}
100
AcDbDictionary
280
0
281
1
  0
ACDBDICTIONARYWDFLT
  5
E
102
{ACAD_REACTORS
330
C
102
}
100
AcDbDictionary
281
1
  3
Normal
350
F
100
AcDbDictionaryWithDefault
340
F
  0
DICTIONARY
  5
3DF
330
C
100
AcDbDictionary
281
1
  3
U9F_assy_2_img_1
350
       3E4
  0
RASTERVARIABLES
  5
3E0
330
C
100
AcDbRasterVariables
 90
0
 70
0
 71
1
 72
5
  0
DICTIONARY
  5
17
102
{ACAD_REACTORS
330
C
102
}
100
AcDbDictionary
280
0
281
1
  3
Standard
350
18
  0
DICTIONARY
  5
3E1
330
C
100
AcDbDictionary
281
1
  3
Standard
350
       3E5
  3
Standard1
350
       3E6
  0
DICTIONARY
  5
19
102
{ACAD_REACTORS
330
C
102
}
100
AcDbDictionary
281
1
  0
DICTIONARY
  5
1A
102
{ACAD_REACTORS
330
C
102
}
100
AcDbDictionary
281
1
  3
Model
350
3E2
  3
Layout1
350
3E3
  0
ACDBPLACEHOLDER
  5
F
102
{ACAD_REACTORS
330
E
102
}
  0
MLINESTYLE
  5
18
102
{ACAD_REACTORS
330
17
102
}
100
AcDbMlineStyle
  2
STANDARD
 70
0
  3

 62
256
 51
90.0
 52
90.0
 71
2
 49
0.5
 62
256
  6
BYLAYER
 49
-0.5
 62
256
  6
BYLAYER
  0
LAYOUT
  5
3E2
102
{ACAD_REACTORS
330
1A
102
}
100
AcDbPlotSettings
  1

  2
none_device
  4
ANSI_C_(22.00_x_17.00_Inches)
  6

 40
0.0
 41
0.0
 42
0.0
 43
0.0
 44
558.8
 45
431.8
 46
0.0
 47
0.0
 48
0.0
 49
0.0
140
0.0
141
0.0
142
1.0
143
1.0
 70
1024
 72
0
 73
0
 74
0
  7

 75
0
147
1.0
148
0.0
149
0.0
100
AcDbLayout
  1
Model
 70
0
 71
0
 10
0.0
 20
0.0
 11
22.0
 21
17.0
 12
0.0
 22
0.0
 32
0.0
 14
0.0
 24
0.0
 34
0.0
 15
0.0
 25
0.0
 35
0.0
146
0.0
 13
0.0
 23
0.0
 33
0.0
 16
1.0
 26
0.0
 36
0.0
 17
0.0
 27
1.0
 37
0.0
 76
0
330
20C
345
0
346
0
  0
LAYOUT
  5
3E3
102
{ACAD_REACTORS
330
1A
102
}
100
AcDbPlotSettings
  1

  2
none_device
  4
ANSI_C_(22.00_x_17.00_Inches)
  6

 40
0.0
 41
0.0
 42
0.0
 43
0.0
 44
558.8
 45
431.8
 46
0.0
 47
0.0
 48
0.0
 49
0.0
140
0.0
141
0.0
142
1.0
143
1.0
 70
0
 72
0
 73
0
 74
0
  7

 75
0
147
1.0
148
0.0
149
0.0
100
AcDbLayout
  1
Layout1
 70
0
 71
1
 10
0.0
 20
0.0
 11
22.0
 21
17.0
 12
0.0
 22
0.0
 32
0.0
 14
0.0
 24
0.0
 34
0.0
 15
0.0
 25
0.0
 35
0.0
146
0.0
 13
0.0
 23
0.0
 33
0.0
 16
1.0
 26
0.0
 36
0.0
 17
0.0
 27
1.0
 37
0.0
 76
0
330
20D
345
0
346
0
  0
IMAGEDEF
  5
3E4
102
{ACAD_REACTORS
330
3DF
330
3DE
102
}
100
AcDbRasterImageDef
 90
0
  1
U9F_assy_2_img_1.png
 10
369.0
 20
92.0
 11
0.0066666667
 21
0.0066666667
280
1
281
0
  0
TABLESTYLE
  5
3E5
102
{ACAD_REACTORS
330
3E1
330
287
330
288
102
}
330
3E1
100
AcDbTableStyle
  3
Standard
 70
0
 71
0
 40
0.06
 41
0.06
280
1
281
1
  7
Standard
140
0.18
170
1
 62
0
 63
7
283
0
  7
Standard
140
0.18
170
1
 62
0
 63
7
283
0
  7
Standard
140
0.18
170
1
 62
0
 63
7
283
0
  0
TABLESTYLE
  5
3E6
102
{ACAD_REACTORS
330
3E1
330
286
102
}
330
3E1
100
AcDbTableStyle
  3
Standard1
 70
1
 71
0
 40
0.06
 41
0.06
280
1
281
1
  7
Standard
140
0.18
170
1
 62
0
 63
7
283
0
  7
Standard
140
0.18
170
1
 62
0
 63
7
283
0
  7
Standard
140
0.18
170
1
 62
0
 63
7
283
0
  0
ENDSEC
  0
EOF
