999
DXF file: U8R_assy_2.dxf
999
Pro/ENGINEER 2014200 by Parametric Technology Corporation
  0
SECTION
  2
HEADER
  9
$ACADVER
  1
AC1021
  9
$DWGCODEPAGE
  3
ANSI_1252
  9
$EXTMAX
 10
22.0
 20
17.0
 30
0.0
  9
$EXTMIN
 10
0.0
 20
0.0
 30
0.0
  9
$LIMMIN
 10
0.0
 20
0.0
  9
$LIMMAX
 10
22.0
 20
17.0
  9
$VIEWCTR
 10
11.0
 20
8.5
  9
$VIEWSIZE
 40
17.0
  9
$CLAYER
  8
0
  9
$LTSCALE
 40
1.21
  9
$CELTYPE
  6
BYLAYER
  9
$DIMSCALE
 40
1.0
  9
$DIMASZ
 40
0.1875
  9
$DIMEXO
 40
0.0625
  9
$DIMDLI
 40
0.836
  9
$DIMEXE
 40
0.125
  9
$DIMCEN
 40
0.198
  9
$DIMLFAC
 40
1.0
  9
$DIMBLK
  1
_FILLED
  9
$DIMTXT
 40
0.1
  9
$DIMTOL
 70
0
  9
$DIMLIM
 70
0
  9
$DIMTFAC
 40
1.0
  9
$DIMGAP
 40
0.09
  9
$DIMDSEP
 70
46
  9
$AUNITS
 70
0
  9
$PDMODE
 70
3
  9
$PDSIZE
 40
0.3125
  9
$HANDSEED
  5
3D3
  9
$TILEMODE
 70
1
  9
$MEASUREMENT
 70
0
  9
$INSUNITS
 70
1
  0
ENDSEC
  0
SECTION
  2
CLASSES
  0
CLASS
  1
ACDBDICTIONARYWDFLT
  2
AcDbDictionaryWithDefault
  3
AutoCAD 2000
 90
0
 91
1
280
0
281
0
  0
CLASS
  1
ACDBPLACEHOLDER
  2
AcDbPlaceHolder
  3
AutoCAD 2000
 90
0
 91
1
280
0
281
0
  0
CLASS
  1
LAYOUT
  2
AcDbLayout
  3
AutoCAD 2000
 90
0
 91
0
280
0
281
0
  0
CLASS
  1
RASTERVARIABLES
  2
AcDbRasterVariables
  3
ISM
 90
0
 91
1
280
0
281
0
  0
CLASS
  1
IMAGEDEF
  2
AcDbRasterImageDef
  3
ISM
 90
0
 91
1
280
0
281
0
  0
CLASS
  1
IMAGEDEF_REACTOR
  2
AcDbRasterImageDefReactor
  3
ISM
 90
0
 91
1
280
0
281
0
  0
CLASS
  1
IMAGE
  2
AcDbRasterImage
  3
ISM
 90
127
 91
1
280
0
281
1
  0
CLASS
  1
TABLESTYLE
  2
AcDbTableStyle
  3
ObjectDBX Classes
 90
2047
 91
1
280
0
281
0
  0
CLASS
  1
ACAD_TABLE
  2
AcDbTable
  3
ObjectDBX Classes
 90
1025
 91
2
280
0
281
1
  0
ENDSEC
  0
SECTION
  2
TABLES
  0
TABLE
  2
VPORT
  5
8
100
AcDbSymbolTable
 70
2
  0
VPORT
  5
1F4
100
AcDbSymbolTableRecord
100
AcDbViewportTableRecord
  2
*ACTIVE
 70
0
 10
0.0
 20
0.0
 11
1.0
 21
1.0
 12
11.0
 22
8.5
 13
0.0
 23
0.0
 14
1.0
 24
1.0
 15
0.0
 25
0.0
 16
0.0
 26
0.0
 36
1.0
 17
0.0
 27
0.0
 37
0.0
 40
17.0
 41
1.2941176471
 42
50.0
 43
0.0
 44
0.0
 50
0.0
 51
0.0
 71
0
 72
100
 73
1
 74
1
 75
0
 76
0
 77
0
 78
0
  0
ENDTAB
  0
TABLE
  2
LTYPE
  5
5
100
AcDbSymbolTable
 70
6
  0
LTYPE
  5
14
100
AcDbSymbolTableRecord
100
AcDbLinetypeTableRecord
  2
BYBLOCK
 70
0
  3

 72
65
 73
0
 40
0.0
  0
LTYPE
  5
15
100
AcDbSymbolTableRecord
100
AcDbLinetypeTableRecord
  2
BYLAYER
 70
0
  3

 72
65
 73
0
 40
0.0
  0
LTYPE
  5
16
100
AcDbSymbolTableRecord
100
AcDbLinetypeTableRecord
  2
CONTINUOUS
 70
64
  3
Solid line
 72
65
 73
0
 40
0.0
  0
LTYPE
  5
1F5
100
AcDbSymbolTableRecord
100
AcDbLinetypeTableRecord
  2
CENTER
 70
64
  3
____ _ ____ _ ____ _ ____ _ ____ _ ____ _ ____
 72
65
 73
4
 40
0.6
 49
0.375
 74
0
 49
-0.075
 74
0
 49
0.075
 74
0
 49
-0.075
 74
0
  0
LTYPE
  5
1F6
100
AcDbSymbolTableRecord
100
AcDbLinetypeTableRecord
  2
HIDDEN
 70
64
  3
- - - - - - - - - - - - - - - - - - - -
 72
65
 73
2
 40
0.2
 49
0.1
 74
0
 49
-0.1
 74
0
  0
LTYPE
  5
1F7
100
AcDbSymbolTableRecord
100
AcDbLinetypeTableRecord
  2
PHANTOM
 70
64
  3
_____ _ _ _____ _ _ _____ _ _ _____
 72
65
 73
6
 40
0.8
 49
0.45
 74
0
 49
-0.05
 74
0
 49
0.1
 74
0
 49
-0.05
 74
0
 49
0.1
 74
0
 49
-0.05
 74
0
  0
LTYPE
  5
1F8
100
AcDbSymbolTableRecord
100
AcDbLinetypeTableRecord
  2
DOT
 70
64
  3
. . . . . . . . . . . . . . . . . . . .
 72
65
 73
2
 40
0.2
 49
0.1
 74
0
 49
-0.1
 74
0
  0
LTYPE
  5
1F9
100
AcDbSymbolTableRecord
100
AcDbLinetypeTableRecord
  2
DASHED
 70
64
  3
- - - - - - - - - - - - - - - - - - - -
 72
65
 73
2
 40
0.2
 49
0.1
 74
0
 49
-0.1
 74
0
  0
ENDTAB
  0
TABLE
  2
LAYER
  5
2
100
AcDbSymbolTable
 70
36
  0
LAYER
  5
10
100
AcDbSymbolTableRecord
100
AcDbLayerTableRecord
  2
0
 70
0
 62
7
  6
CONTINUOUS
370
-3
390
F
  0
LAYER
  5
1FA
100
AcDbSymbolTableRecord
100
AcDbLayerTableRecord
  2
DEFAULT_1
 70
0
 62
7
  6
CENTER
370
-3
390
F
  0
LAYER
  5
1FB
100
AcDbSymbolTableRecord
100
AcDbLayerTableRecord
  2
DEFAULT_2
 70
0
 62
8
  6
HIDDEN
370
-3
390
F
  0
LAYER
  5
1FC
100
AcDbSymbolTableRecord
100
AcDbLayerTableRecord
  2
DEFAULT_3
 70
0
 62
7
  6
PHANTOM
370
-3
390
F
  0
LAYER
  5
1FD
100
AcDbSymbolTableRecord
100
AcDbLayerTableRecord
  2
01___PRT_ALL_DTM_PLN
 70
0
 62
7
  6
CONTINUOUS
370
-3
390
F
  0
LAYER
  5
1FE
100
AcDbSymbolTableRecord
100
AcDbLayerTableRecord
  2
01___PRT_DEF_DTM_PLN
 70
0
 62
7
  6
CONTINUOUS
370
-3
390
F
  0
LAYER
  5
1FF
100
AcDbSymbolTableRecord
100
AcDbLayerTableRecord
  2
02___PRT_ALL_AXES
 70
0
 62
7
  6
CONTINUOUS
370
-3
390
F
  0
LAYER
  5
200
100
AcDbSymbolTableRecord
100
AcDbLayerTableRecord
  2
03___PRT_ALL_CURVES
 70
0
 62
7
  6
CONTINUOUS
370
-3
390
F
  0
LAYER
  5
201
100
AcDbSymbolTableRecord
100
AcDbLayerTableRecord
  2
04___PRT_ALL_DTM_PNT
 70
0
 62
7
  6
CONTINUOUS
370
-3
390
F
  0
LAYER
  5
202
100
AcDbSymbolTableRecord
100
AcDbLayerTableRecord
  2
05___PRT_ALL_DTM_CSYS
 70
0
 62
7
  6
CONTINUOUS
370
-3
390
F
  0
LAYER
  5
203
100
AcDbSymbolTableRecord
100
AcDbLayerTableRecord
  2
05___PRT_DEF_DTM_CSYS
 70
0
 62
7
  6
CONTINUOUS
370
-3
390
F
  0
LAYER
  5
204
100
AcDbSymbolTableRecord
100
AcDbLayerTableRecord
  2
06___PRT_ALL_SURFS
 70
0
 62
7
  6
CONTINUOUS
370
-3
390
F
  0
LAYER
  5
205
100
AcDbSymbolTableRecord
100
AcDbLayerTableRecord
  2
DATUM_PLANES
 70
0
 62
7
  6
CONTINUOUS
370
-3
390
F
  0
LAYER
  5
206
100
AcDbSymbolTableRecord
100
AcDbLayerTableRecord
  2
DIMENSIONS
 70
0
 62
7
  6
CONTINUOUS
370
-3
390
F
  0
LAYER
  5
207
100
AcDbSymbolTableRecord
100
AcDbLayerTableRecord
  2
DTM_500001
 70
0
 62
7
  6
CONTINUOUS
370
-3
390
F
  0
LAYER
  5
208
100
AcDbSymbolTableRecord
100
AcDbLayerTableRecord
  2
PARAMETERDIMENSIONS
 70
0
 62
7
  6
CONTINUOUS
370
-3
390
F
  0
LAYER
  5
209
100
AcDbSymbolTableRecord
100
AcDbLayerTableRecord
  2
PORT_AREAS
 70
0
 62
7
  6
CONTINUOUS
370
-3
390
F
  0
LAYER
  5
20A
100
AcDbSymbolTableRecord
100
AcDbLayerTableRecord
  2
SUNNBOMCOSMETIC
 70
0
 62
7
  6
CONTINUOUS
370
-3
390
F
  0
LAYER
  5
20B
100
AcDbSymbolTableRecord
100
AcDbLayerTableRecord
  2
SUNNBOMSTAMPING
 70
0
 62
7
  6
CONTINUOUS
370
-3
390
F
  0
LAYER
  5
20C
100
AcDbSymbolTableRecord
100
AcDbLayerTableRecord
  2
THREADS
 70
0
 62
7
  6
CONTINUOUS
370
-3
390
F
  0
ENDTAB
  0
TABLE
  2
STYLE
  5
3
100
AcDbSymbolTable
 70
1
  0
STYLE
  5
11
100
AcDbSymbolTableRecord
100
AcDbTextStyleTableRecord
  2
STANDARD
 70
0
 40
0.0
 41
0.8
 50
0.0
 71
0
 42
0.2
  3
txt
  4

  0
STYLE
  5
20D
100
AcDbSymbolTableRecord
100
AcDbTextStyleTableRecord
  2
TEXTSTYLE_1
 70
0
 40
0.0
 41
0.8
 50
0.0
 71
0
 42
0.2
  3
gdt
  4

  0
ENDTAB
  0
TABLE
  2
VIEW
  5
6
100
AcDbSymbolTable
 70
0
  0
ENDTAB
  0
TABLE
  2
UCS
  5
7
100
AcDbSymbolTable
 70
0
  0
ENDTAB
  0
TABLE
  2
APPID
  5
9
100
AcDbSymbolTable
 70
1
  0
APPID
  5
20E
100
AcDbSymbolTableRecord
100
AcDbRegAppTableRecord
  2
ACAD
 70
0
  0
ENDTAB
  0
TABLE
  2
BLOCK_RECORD
  5
1
100
AcDbSymbolTable
 70
0
  0
BLOCK_RECORD
  5
20F
100
AcDbSymbolTableRecord
100
AcDbBlockTableRecord
  2
*Model_Space
  0
BLOCK_RECORD
  5
210
100
AcDbSymbolTableRecord
100
AcDbBlockTableRecord
  2
*Paper_Space
  0
BLOCK_RECORD
  5
211
100
AcDbSymbolTableRecord
100
AcDbBlockTableRecord
  2
SUN_FIRST_THIRD_ANGLE_BL0
  0
BLOCK_RECORD
  5
212
100
AcDbSymbolTableRecord
100
AcDbBlockTableRecord
  2
*T1
  0
BLOCK_RECORD
  5
213
100
AcDbSymbolTableRecord
100
AcDbBlockTableRecord
  2
*T2
  0
ENDTAB
  0
TABLE
  2
DIMSTYLE
  5
A
100
AcDbSymbolTable
 70
1
100
AcDbDimStyleTable
 71
0
  0
DIMSTYLE
105
214
100
AcDbSymbolTableRecord
100
AcDbDimStyleTableRecord
  2
STANDARD
 70
0
  3

  4

 40
1.0
 41
0.1875
 42
0.0625
 43
0.38
 44
0.125
 45
0.0
 46
0.0
 47
0.001
 48
0.001
140
0.1
141
0.09
142
0.0
143
25.4
144
1.0
145
0.0
146
1.0
147
0.09
 71
0.0
 72
0.0
 73
1
 74
1
 75
0
 76
0
 77
0
 78
4
170
0
171
2
172
0
173
0
174
0
175
0
176
0
177
0
178
0
270
2
271
3
272
3
273
2
274
2
275
0
280
0
281
0
282
0
283
1
284
4
285
0
286
0
287
3
288
0
340
11
278
46
  0
ENDTAB
  0
ENDSEC
  0
SECTION
  2
BLOCKS
  0
BLOCK
  5
20
100
AcDbEntity
  8
0
100
AcDbBlockBegin
  2
*Model_Space
 70
0
 10
0.0
 20
0.0
 30
0.0
  3
*Model_Space
  1

  0
ENDBLK
  5
21
100
AcDbEntity
  8
0
100
AcDbBlockEnd
  0
BLOCK
  5
1C
100
AcDbEntity
  8
0
100
AcDbBlockBegin
  2
*Paper_Space
 70
0
 10
0.0
 20
0.0
 30
0.0
  3
*Paper_Space
  1

  0
ENDBLK
  5
1D
100
AcDbEntity
  8
0
100
AcDbBlockEnd
  0
BLOCK
  5
215
100
AcDbEntity
  8
0
100
AcDbBlockBegin
 62
2
  6
CONTINUOUS
  2
SUN_FIRST_THIRD_ANGLE_BL0
 70
64
 10
20.4816717061
 20
1.2289683772
  3
SUN_FIRST_THIRD_ANGLE_BL0
  1

  0
TEXT
  5
216
100
AcDbEntity
  8
0
100
AcDbText
 62
2
  6
CONTINUOUS
 10
19.4750896608
 20
1.4136269581
  7
STANDARD
 40
0.08
  1
FIRST ANGLE
 41
0.8
 72
0
100
AcDbText
  0
TEXT
  5
217
100
AcDbEntity
  8
0
100
AcDbText
 62
2
  6
CONTINUOUS
 10
20.7842537513
 20
1.4047600029
  7
STANDARD
 40
0.08
  1
THIRD ANGLE
 41
0.8
 72
0
100
AcDbText
  0
LINE
  5
218
100
AcDbEntity
  8
0
100
AcDbLine
 62
7
  6
CONTINUOUS
 10
19.4767170086
 20
1.1727031207
 11
19.6334271527
 21
1.1717972817
  0
LINE
  5
219
100
AcDbEntity
  8
0
100
AcDbLine
 62
7
  6
CONTINUOUS
 10
19.6596964832
 20
1.1717972817
 11
19.6950230232
 21
1.171593082
  0
LINE
  5
21A
100
AcDbEntity
  8
0
100
AcDbLine
 62
7
  6
CONTINUOUS
 10
19.7194818561
 20
1.1708914427
 11
19.8852396156
 21
1.1699333054
  0
LINE
  5
21B
100
AcDbEntity
  8
0
100
AcDbLine
 62
7
  6
CONTINUOUS
 10
19.4758111696
 20
1.2723454088
 11
19.88525039
 21
1.3511534004
  0
LINE
  5
21C
100
AcDbEntity
  8
0
100
AcDbLine
 62
7
  6
CONTINUOUS
 10
19.88525039
 20
1.3511534004
 11
19.8831348489
 21
0.9851647912
  0
LINE
  5
21D
100
AcDbEntity
  8
0
100
AcDbLine
 62
7
  6
CONTINUOUS
 10
19.8831348489
 20
0.9851647912
 11
19.4767170086
 21
1.0658141206
  0
LINE
  5
21E
100
AcDbEntity
  8
0
100
AcDbLine
 62
7
  6
CONTINUOUS
 10
19.4767170086
 20
1.0658141206
 11
19.4779056764
 21
1.2714536432
  0
CIRCLE
  5
21F
100
AcDbEntity
  8
0
100
AcDbCircle
 62
7
  6
CONTINUOUS
 10
20.2068232291
 20
1.1717972817
 40
0.175742101
  0
CIRCLE
  5
220
100
AcDbEntity
  8
0
100
AcDbCircle
 62
7
  6
CONTINUOUS
 10
20.2068232291
 20
1.1717972817
 40
0.1005522074
  0
LINE
  5
221
100
AcDbEntity
  8
0
100
AcDbLine
 62
7
  6
CONTINUOUS
 10
20.2077290681
 20
1.3756110529
 11
20.2071171714
 21
1.2379342989
  0
LINE
  5
222
100
AcDbEntity
  8
0
100
AcDbLine
 62
7
  6
CONTINUOUS
 10
20.2077290681
 20
1.2016899681
 11
20.2074674401
 21
1.1428236749
  0
LINE
  5
223
100
AcDbEntity
  8
0
100
AcDbLine
 62
7
  6
CONTINUOUS
 10
20.208634907
 20
1.101141841
 11
20.2080230104
 21
0.963465087
  0
LINE
  5
224
100
AcDbEntity
  8
0
100
AcDbLine
 62
7
  6
CONTINUOUS
 10
20.0066328138
 20
1.1745147986
 11
20.1443095678
 21
1.1739029019
  0
LINE
  5
225
100
AcDbEntity
  8
0
100
AcDbLine
 62
7
  6
CONTINUOUS
 10
20.1832714155
 20
1.1727031207
 11
20.238153505
 21
1.172335442
  0
LINE
  5
226
100
AcDbEntity
  8
0
100
AcDbLine
 62
7
  6
CONTINUOUS
 10
20.2756669918
 20
1.1717972817
 11
20.407916871
 21
1.1712095044
  0
CIRCLE
  5
227
100
AcDbEntity
  8
0
100
AcDbCircle
 62
7
  6
CONTINUOUS
 10
20.7509457401
 20
1.1693297793
 40
0.1722024983
  0
CIRCLE
  5
228
100
AcDbEntity
  8
0
100
AcDbCircle
 62
7
  6
CONTINUOUS
 10
20.7509457401
 20
1.1693297793
 40
0.0985164967
  0
LINE
  5
229
100
AcDbEntity
  8
0
100
AcDbLine
 62
7
  6
CONTINUOUS
 10
20.7169767782
 20
1.170462078
 11
20.7825395137
 21
1.1682766535
  0
LINE
  5
22A
100
AcDbEntity
  8
0
100
AcDbLine
 62
7
  6
CONTINUOUS
 10
20.8177513651
 20
1.1693297793
 11
20.947965719
 21
1.1693297793
  0
LINE
  5
22B
100
AcDbEntity
  8
0
100
AcDbLine
 62
7
  6
CONTINUOUS
 10
20.6875370113
 20
1.170462078
 11
20.5573226574
 21
1.170462078
  0
LINE
  5
22C
100
AcDbEntity
  8
0
100
AcDbLine
 62
7
  6
CONTINUOUS
 10
20.7486811426
 20
1.1987695462
 11
20.7486811426
 21
1.1432869085
  0
LINE
  5
22D
100
AcDbEntity
  8
0
100
AcDbLine
 62
7
  6
CONTINUOUS
 10
20.7498134414
 20
1.1059210505
 11
20.7498134414
 21
0.9757066966
  0
LINE
  5
22E
100
AcDbEntity
  8
0
100
AcDbLine
 62
7
  6
CONTINUOUS
 10
20.7486811426
 20
1.2338708068
 11
20.7486811426
 21
1.3640851607
  0
LINE
  5
22F
100
AcDbEntity
  8
0
100
AcDbLine
 62
7
  6
CONTINUOUS
 10
21.0702539817
 20
1.2701043662
 11
21.4790138229
 21
1.3448360823
  0
LINE
  5
230
100
AcDbEntity
  8
0
100
AcDbLine
 62
7
  6
CONTINUOUS
 10
21.4790138229
 20
1.3448360823
 11
21.4790138229
 21
0.9779712941
  0
LINE
  5
231
100
AcDbEntity
  8
0
100
AcDbLine
 62
7
  6
CONTINUOUS
 10
21.4790138229
 20
0.9779712941
 11
21.069121683
 21
1.0617614
  0
LINE
  5
232
100
AcDbEntity
  8
0
100
AcDbLine
 62
7
  6
CONTINUOUS
 10
21.0702539817
 20
1.2701043662
 11
21.069121683
 21
1.0617614
  0
LINE
  5
233
100
AcDbEntity
  8
0
100
AcDbLine
 62
7
  6
CONTINUOUS
 10
21.4790138229
 20
1.1693297793
 11
21.3159628059
 21
1.1693297793
  0
LINE
  5
234
100
AcDbEntity
  8
0
100
AcDbLine
 62
7
  6
CONTINUOUS
 10
21.2876553377
 20
1.1693297793
 11
21.2502894796
 21
1.1693297793
  0
LINE
  5
235
100
AcDbEntity
  8
0
100
AcDbLine
 62
7
  6
CONTINUOUS
 10
21.2208497126
 20
1.1659328831
 11
21.0713862804
 21
1.1659328831
  0
LINE
  5
236
100
AcDbEntity
  8
0
100
AcDbLine
 62
7
  6
CONTINUOUS
 10
20.4796138713
 20
1.5284908897
 11
20.4766766948
 21
0.9294458646
  0
ENDBLK
  5
237
100
AcDbEntity
  8
0
  6
BYBLOCK
 62
0
100
AcDbBlockEnd
  0
BLOCK
  5
238
100
AcDbEntity
  8
0
100
AcDbBlockBegin
  2
*T1
 70
1
 10
0.0
 20
0.0
  3
*T1
  1

  0
LINE
  5
239
100
AcDbEntity
  8
0
100
AcDbLine
 62
2
  6
CONTINUOUS
 10
9.275
 20
0.0
 11
-0.0
 21
0.0
  0
LINE
  5
23A
100
AcDbEntity
  8
0
100
AcDbLine
 62
2
  6
CONTINUOUS
 10
9.275
 20
0.0
 11
9.275
 21
1.25
  0
LINE
  5
23B
100
AcDbEntity
  8
0
100
AcDbLine
 62
2
  6
CONTINUOUS
 10
9.275
 20
0.625
 11
-0.0
 21
0.625
  0
LINE
  5
23C
100
AcDbEntity
  8
0
100
AcDbLine
 62
2
  6
CONTINUOUS
 10
9.275
 20
1.25
 11
-0.0
 21
1.25
  0
LINE
  5
23D
100
AcDbEntity
  8
0
100
AcDbLine
 62
2
  6
CONTINUOUS
 10
6.8
 20
0.0
 11
6.8
 21
1.25
  0
LINE
  5
23E
100
AcDbEntity
  8
0
100
AcDbLine
 62
2
  6
CONTINUOUS
 10
6.4
 20
0.0
 11
6.4
 21
0.625
  0
LINE
  5
23F
100
AcDbEntity
  8
0
100
AcDbLine
 62
2
  6
CONTINUOUS
 10
5.9
 20
0.0
 11
5.9
 21
0.625
  0
LINE
  5
240
100
AcDbEntity
  8
0
100
AcDbLine
 62
2
  6
CONTINUOUS
 10
5.2
 20
0.0
 11
5.2
 21
0.625
  0
LINE
  5
241
100
AcDbEntity
  8
0
100
AcDbLine
 62
2
  6
CONTINUOUS
 10
4.1
 20
0.0
 11
4.1
 21
1.25
  0
LINE
  5
242
100
AcDbEntity
  8
0
100
AcDbLine
 62
2
  6
CONTINUOUS
 10
-0.0
 20
0.0
 11
-0.0
 21
1.25
  0
MTEXT
  5
243
100
AcDbEntity
  8
0
100
AcDbMText
 62
2
  6
CONTINUOUS
  7
STANDARD
 71
2
 72
1
 10
6.6
 20
0.325
 30
0.0
 11
1.0
 21
0.0
 31
0.0
 44
0.9
  1
2
 40
0.125
 41
0.2
  0
MTEXT
  5
244
100
AcDbEntity
  8
0
100
AcDbMText
 62
2
  6
CONTINUOUS
  7
STANDARD
 71
2
 72
1
 10
6.15
 20
0.325
 30
0.0
 11
1.0
 21
0.0
 31
0.0
 44
0.9
  1
C
 40
0.125
 41
0.2
  0
MTEXT
  5
245
100
AcDbEntity
  8
0
100
AcDbMText
 62
2
  6
CONTINUOUS
  7
STANDARD
 71
2
 72
1
 10
5.55
 20
0.325
 30
0.0
 11
1.0
 21
0.0
 31
0.0
 44
0.9
  1
1.000
 40
0.125
 41
1.0
  0
MTEXT
  5
246
100
AcDbEntity
  8
0
100
AcDbMText
 62
2
  6
CONTINUOUS
  7
STANDARD
 71
2
 72
1
 10
4.65
 20
0.325
 30
0.0
 11
1.0
 21
0.0
 31
0.0
 44
0.9
  1
Oct-16-23
 40
0.125
 41
1.8
  0
MTEXT
  5
247
100
AcDbEntity
  8
0
100
AcDbMText
 62
2
  6
CONTINUOUS
  7
STANDARD
 71
2
 72
1
 10
2.05
 20
0.4625
 30
0.0
 11
1.0
 21
0.0
 31
0.0
 44
0.9
  1
T-11A Sandwich ISO 03\PReducer on  A with reverse flow check
 40
0.125
 41
7.4
  0
MTEXT
  5
248
100
AcDbEntity
  8
0
100
AcDbMText
 62
2
  6
CONTINUOUS
  7
STANDARD
 71
1
 72
1
 10
6.45
 20
0.5625
 30
0.0
 11
1.0
 21
0.0
 31
0.0
 44
0.9
  1
SHEET
 40
0.06
 41
0.48
  0
MTEXT
  5
249
100
AcDbEntity
  8
0
100
AcDbMText
 62
2
  6
CONTINUOUS
  7
STANDARD
 71
1
 72
1
 10
5.95
 20
0.5625
 30
0.0
 11
1.0
 21
0.0
 31
0.0
 44
0.9
  1
DWG SIZE
 40
0.06
 41
0.768
  0
MTEXT
  5
24A
100
AcDbEntity
  8
0
100
AcDbMText
 62
2
  6
CONTINUOUS
  7
STANDARD
 71
1
 72
1
 10
5.25
 20
0.5625
 30
0.0
 11
1.0
 21
0.0
 31
0.0
 44
0.9
  1
SCALE
 40
0.06
 41
0.48
  0
MTEXT
  5
24B
100
AcDbEntity
  8
0
100
AcDbMText
 62
2
  6
CONTINUOUS
  7
STANDARD
 71
1
 72
1
 10
4.15
 20
0.5625
 30
0.0
 11
1.0
 21
0.0
 31
0.0
 44
0.9
  1
DATE
 40
0.06
 41
0.384
  0
MTEXT
  5
24C
100
AcDbEntity
  8
0
100
AcDbMText
 62
2
  6
CONTINUOUS
  7
STANDARD
 71
1
 72
1
 10
0.05
 20
0.5625
 30
0.0
 11
1.0
 21
0.0
 31
0.0
 44
0.9
  1
DESCRIPTION
 40
0.06
 41
1.056
  0
MTEXT
  5
24D
100
AcDbEntity
  8
0
100
AcDbMText
 62
2
  6
CONTINUOUS
  7
STANDARD
 71
2
 72
1
 10
5.45
 20
1.0375
 30
0.0
 11
1.0
 21
0.0
 31
0.0
 44
0.9
  1
ALL DIMENSIONS IN INCH\PVIEWS ARE THIRD ANGLE
 40
0.12
 41
4.224
  0
MTEXT
  5
24E
100
AcDbEntity
  8
0
100
AcDbMText
 62
2
  6
CONTINUOUS
  7
STANDARD
 71
2
 72
1
 10
2.05
 20
0.95
 30
0.0
 11
1.0
 21
0.0
 31
0.0
 44
0.9
  1
U8R
 40
0.125
 41
0.6
  0
MTEXT
  5
24F
100
AcDbEntity
  8
0
100
AcDbMText
 62
2
  6
CONTINUOUS
  7
STANDARD
 71
1
 72
1
 10
0.05
 20
1.1875
 30
0.0
 11
1.0
 21
0.0
 31
0.0
 44
0.9
  1
MODEL
 40
0.06
 41
0.48
  0
ENDBLK
  5
250
100
AcDbEntity
  8
0
  6
BYBLOCK
 62
0
100
AcDbBlockEnd
  0
BLOCK
  5
251
100
AcDbEntity
  8
0
100
AcDbBlockBegin
  2
*T2
 70
1
 10
0.0
 20
0.0
  3
*T2
  1

  0
LINE
  5
252
100
AcDbEntity
  8
0
100
AcDbLine
 62
2
  6
CONTINUOUS
 10
0.0
 20
0.0
 11
9.055
 21
0.0
  0
LINE
  5
253
100
AcDbEntity
  8
0
100
AcDbLine
 62
2
  6
CONTINUOUS
 10
0.0
 20
0.0
 11
0.0
 21
-2.594
  0
LINE
  5
254
100
AcDbEntity
  8
0
100
AcDbLine
 62
2
  6
CONTINUOUS
 10
0.0
 20
-0.344
 11
9.055
 21
-0.344
  0
LINE
  5
255
100
AcDbEntity
  8
0
100
AcDbLine
 62
2
  6
CONTINUOUS
 10
0.0
 20
-0.594
 11
9.055
 21
-0.594
  0
LINE
  5
256
100
AcDbEntity
  8
0
100
AcDbLine
 62
2
  6
CONTINUOUS
 10
0.0
 20
-0.844
 11
9.055
 21
-0.844
  0
LINE
  5
257
100
AcDbEntity
  8
0
100
AcDbLine
 62
2
  6
CONTINUOUS
 10
0.0
 20
-1.094
 11
9.055
 21
-1.094
  0
LINE
  5
258
100
AcDbEntity
  8
0
100
AcDbLine
 62
2
  6
CONTINUOUS
 10
0.0
 20
-1.344
 11
9.055
 21
-1.344
  0
LINE
  5
259
100
AcDbEntity
  8
0
100
AcDbLine
 62
2
  6
CONTINUOUS
 10
0.0
 20
-1.594
 11
9.055
 21
-1.594
  0
LINE
  5
25A
100
AcDbEntity
  8
0
100
AcDbLine
 62
2
  6
CONTINUOUS
 10
0.0
 20
-1.844
 11
9.055
 21
-1.844
  0
LINE
  5
25B
100
AcDbEntity
  8
0
100
AcDbLine
 62
2
  6
CONTINUOUS
 10
0.0
 20
-2.094
 11
9.055
 21
-2.094
  0
LINE
  5
25C
100
AcDbEntity
  8
0
100
AcDbLine
 62
2
  6
CONTINUOUS
 10
0.0
 20
-2.344
 11
9.055
 21
-2.344
  0
LINE
  5
25D
100
AcDbEntity
  8
0
100
AcDbLine
 62
2
  6
CONTINUOUS
 10
0.0
 20
-2.594
 11
9.055
 21
-2.594
  0
LINE
  5
25E
100
AcDbEntity
  8
0
100
AcDbLine
 62
2
  6
CONTINUOUS
 10
3.055
 20
0.0
 11
3.055
 21
-2.594
  0
LINE
  5
25F
100
AcDbEntity
  8
0
100
AcDbLine
 62
2
  6
CONTINUOUS
 10
9.055
 20
0.0
 11
9.055
 21
-2.594
  0
MTEXT
  5
260
100
AcDbEntity
  8
0
100
AcDbMText
 62
2
  6
CONTINUOUS
  7
STANDARD
 71
2
 72
1
 10
1.5275
 20
-0.0995
 30
0.0
 11
1.0
 21
0.0
 31
0.0
 44
0.9
  1
Technical Data
 40
0.145
 41
3.248
  0
MTEXT
  5
261
100
AcDbEntity
  8
0
100
AcDbMText
 62
2
  6
CONTINUOUS
  7
STANDARD
 71
2
 72
1
 10
4.555
 20
-0.0995
 30
0.0
 11
1.0
 21
0.0
 31
0.0
 44
0.9
  1
U.S. Units
 40
0.145
 41
2.32
  0
MTEXT
  5
262
100
AcDbEntity
  8
0
100
AcDbMText
 62
2
  6
CONTINUOUS
  7
STANDARD
 71
2
 72
1
 10
7.555
 20
-0.0995
 30
0.0
 11
1.0
 21
0.0
 31
0.0
 44
0.9
  1
Metric Units
 40
0.145
 41
2.784
  0
MTEXT
  5
263
100
AcDbEntity
  8
0
100
AcDbMText
 62
2
  6
CONTINUOUS
  7
STANDARD
 71
2
 72
1
 10
1.5275
 20
-0.4065
 30
0.0
 11
1.0
 21
0.0
 31
0.0
 44
0.9
  1
Cavity
 40
0.125
 41
1.2
  0
MTEXT
  5
264
100
AcDbEntity
  8
0
100
AcDbMText
 62
2
  6
CONTINUOUS
  7
STANDARD
 71
2
 72
1
 10
6.055
 20
-0.4065
 30
0.0
 11
1.0
 21
0.0
 31
0.0
 44
0.9
  1
T-11A
 40
0.125
 41
1.0
  0
MTEXT
  5
265
100
AcDbEntity
  8
0
100
AcDbMText
 62
2
  6
CONTINUOUS
  7
STANDARD
 71
2
 72
1
 10
1.5275
 20
-0.6565
 30
0.0
 11
1.0
 21
0.0
 31
0.0
 44
0.9
  1
Body Features
 40
0.125
 41
2.6
  0
MTEXT
  5
266
100
AcDbEntity
  8
0
100
AcDbMText
 62
2
  6
CONTINUOUS
  7
STANDARD
 71
2
 72
1
 10
6.055
 20
-0.6565
 30
0.0
 11
1.0
 21
0.0
 31
0.0
 44
0.9
  1
Reducer on  A with reverse flow check
 40
0.125
 41
7.4
  0
MTEXT
  5
267
100
AcDbEntity
  8
0
100
AcDbMText
 62
2
  6
CONTINUOUS
  7
STANDARD
 71
2
 72
1
 10
1.5275
 20
-0.9065
 30
0.0
 11
1.0
 21
0.0
 31
0.0
 44
0.9
  1
Body Type
 40
0.125
 41
1.8
  0
MTEXT
  5
268
100
AcDbEntity
  8
0
100
AcDbMText
 62
2
  6
CONTINUOUS
  7
STANDARD
 71
2
 72
1
 10
6.055
 20
-0.9065
 30
0.0
 11
1.0
 21
0.0
 31
0.0
 44
0.9
  1
Sandwich
 40
0.125
 41
1.6
  0
MTEXT
  5
269
100
AcDbEntity
  8
0
100
AcDbMText
 62
2
  6
CONTINUOUS
  7
STANDARD
 71
2
 72
1
 10
1.5275
 20
-1.1565
 30
0.0
 11
1.0
 21
0.0
 31
0.0
 44
0.9
  1
Interface
 40
0.125
 41
1.8
  0
MTEXT
  5
26A
100
AcDbEntity
  8
0
100
AcDbMText
 62
2
  6
CONTINUOUS
  7
STANDARD
 71
2
 72
1
 10
6.055
 20
-1.1565
 30
0.0
 11
1.0
 21
0.0
 31
0.0
 44
0.9
  1
ISO 03
 40
0.125
 41
1.2
  0
MTEXT
  5
26B
100
AcDbEntity
  8
0
100
AcDbMText
 62
2
  6
CONTINUOUS
  7
STANDARD
 71
2
 72
1
 10
1.5275
 20
-1.4065
 30
0.0
 11
1.0
 21
0.0
 31
0.0
 44
0.9
  1
Open Cavity Quantity
 40
0.125
 41
4.0
  0
MTEXT
  5
26C
100
AcDbEntity
  8
0
100
AcDbMText
 62
2
  6
CONTINUOUS
  7
STANDARD
 71
2
 72
1
 10
6.055
 20
-1.4065
 30
0.0
 11
1.0
 21
0.0
 31
0.0
 44
0.9
  1
1
 40
0.125
 41
0.2
  0
MTEXT
  5
26D
100
AcDbEntity
  8
0
100
AcDbMText
 62
2
  6
CONTINUOUS
  7
STANDARD
 71
2
 72
1
 10
1.5275
 20
-1.6565
 30
0.0
 11
1.0
 21
0.0
 31
0.0
 44
0.9
  1
Stack Height
 40
0.125
 41
2.4
  0
MTEXT
  5
26E
100
AcDbEntity
  8
0
100
AcDbMText
 62
2
  6
CONTINUOUS
  7
STANDARD
 71
2
 72
1
 10
4.555
 20
-1.6565
 30
0.0
 11
1.0
 21
0.0
 31
0.0
 44
0.9
  1
1.97 in.
 40
0.125
 41
1.6
  0
MTEXT
  5
26F
100
AcDbEntity
  8
0
100
AcDbMText
 62
2
  6
CONTINUOUS
  7
STANDARD
 71
2
 72
1
 10
7.555
 20
-1.6565
 30
0.0
 11
1.0
 21
0.0
 31
0.0
 44
0.9
  1
50 mm
 40
0.125
 41
1.0
  0
MTEXT
  5
270
100
AcDbEntity
  8
0
100
AcDbMText
 62
2
  6
CONTINUOUS
  7
STANDARD
 71
2
 72
1
 10
1.5275
 20
-1.9065
 30
0.0
 11
1.0
 21
0.0
 31
0.0
 44
0.9
  1
Weight
 40
0.125
 41
1.2
  0
MTEXT
  5
271
100
AcDbEntity
  8
0
100
AcDbMText
 62
2
  6
CONTINUOUS
  7
STANDARD
 71
2
 72
1
 10
4.555
 20
-1.9065
 30
0.0
 11
1.0
 21
0.0
 31
0.0
 44
0.9
  1
1.391 lb.
 40
0.125
 41
1.8
  0
MTEXT
  5
272
100
AcDbEntity
  8
0
100
AcDbMText
 62
2
  6
CONTINUOUS
  7
STANDARD
 71
2
 72
1
 10
7.555
 20
-1.9065
 30
0.0
 11
1.0
 21
0.0
 31
0.0
 44
0.9
  1
0,631 kg.
 40
0.125
 41
1.8
  0
MTEXT
  5
273
100
AcDbEntity
  8
0
100
AcDbMText
 62
2
  6
CONTINUOUS
  7
STANDARD
 71
2
 72
1
 10
1.5275
 20
-2.1565
 30
0.0
 11
1.0
 21
0.0
 31
0.0
 44
0.9
  1
Seal Plate Included (see notes)
 40
0.125
 41
6.2
  0
MTEXT
  5
274
100
AcDbEntity
  8
0
100
AcDbMText
 62
2
  6
CONTINUOUS
  7
STANDARD
 71
2
 72
1
 10
6.055
 20
-2.1565
 30
0.0
 11
1.0
 21
0.0
 31
0.0
 44
0.9
  1
No
 40
0.125
 41
0.4
  0
MTEXT
  5
275
100
AcDbEntity
  8
0
100
AcDbMText
 62
2
  6
CONTINUOUS
  7
STANDARD
 71
2
 72
1
 10
1.5275
 20
-2.4065
 30
0.0
 11
1.0
 21
0.0
 31
0.0
 44
0.9
  1
Includes integral cartridge(s)
 40
0.125
 41
6.0
  0
MTEXT
  5
276
100
AcDbEntity
  8
0
100
AcDbMText
 62
2
  6
CONTINUOUS
  7
STANDARD
 71
2
 72
1
 10
6.055
 20
-2.4065
 30
0.0
 11
1.0
 21
0.0
 31
0.0
 44
0.9
  1
Yes (see Included Components)
 40
0.125
 41
5.8
  0
ENDBLK
  5
277
100
AcDbEntity
  8
0
  6
BYBLOCK
 62
0
100
AcDbBlockEnd
  0
ENDSEC
  0
SECTION
  2
ENTITIES
  0
IMAGE
  5
278
100
AcDbEntity
  8
0
100
AcDbRasterImage
 62
7
  6
CONTINUOUS
 10
19.2297077316
 20
0.3094318264
 30
0.0
 11
0.0066666667
 21
0.0
 31
0.0
 12
0.0
 22
0.0066666667
 32
0.0
 13
369.0
 23
92.0
340
       3D0
 70
9
280
0
281
50
282
50
283
0
360
       3CA
 71
1
 91
2
 14
-0.5
 24
-0.5
 14
368.5
 24
91.5
  0
INSERT
  5
279
100
AcDbEntity
  8
0
100
AcDbBlockReference
 62
2
  6
CONTINUOUS
  2
SUN_FIRST_THIRD_ANGLE_BL0
 10
20.4816717061
 20
1.2289683772
  0
ACAD_TABLE
  5
27A
100
AcDbEntity
  8
0
 62
2
  6
CONTINUOUS
100
AcDbBlockReference
  2
*T1
 10
12.42375
 20
0.30125
 30
0.0
100
AcDbTable
342
       3D2
343
212
 11
1.0
 21
0.0
 31
0.0
 90
6
 91
4
 92
6
 93
20
 94
0
 95
0
 96
0
 70
1
 41
0.0
141
0.525
141
0.1
141
0.525
141
0.1
142
4.1
142
1.1
142
0.7
142
0.5
142
0.4
142
2.475
171
1
172
0
173
0
174
0
175
1
176
1
 91
33
178
0
145
0.0
301
CELL_VALUE
 90
4
  1
T-11A Sandwich ISO 03\PReducer on  A with reverse flow check
304
ACVALUE_END
170
2
140
0.125
171
1
172
0
173
0
174
0
175
1
176
1
 91
33
178
0
145
0.0
301
CELL_VALUE
 90
4
  1
Oct-16-23
304
ACVALUE_END
170
5
140
0.125
171
1
172
0
173
0
174
0
175
1
176
1
 91
33
178
0
145
0.0
301
CELL_VALUE
 90
4
  1
1.000
304
ACVALUE_END
170
5
140
0.125
171
1
172
0
173
0
174
0
175
1
176
1
 91
33
178
0
145
0.0
301
CELL_VALUE
 90
4
  1
C
304
ACVALUE_END
170
5
140
0.125
171
1
172
0
173
0
174
0
175
1
176
1
 91
33
178
0
145
0.0
301
CELL_VALUE
 90
4
  1
2
304
ACVALUE_END
170
5
140
0.125
171
1
172
0
173
0
174
0
175
1
176
1
 91
33
178
0
145
0.0
301
CELL_VALUE
 90
4
  1
 
304
ACVALUE_END
170
1
140
0.125
171
1
172
0
173
0
174
0
175
1
176
1
 91
33
178
0
145
0.0
301
CELL_VALUE
 90
4
  1
DESCRIPTION
304
ACVALUE_END
170
1
140
0.06
171
1
172
0
173
0
174
0
175
1
176
1
 91
33
178
0
145
0.0
301
CELL_VALUE
 90
4
  1
DATE
304
ACVALUE_END
170
1
140
0.06
171
1
172
0
173
0
174
0
175
1
176
1
 91
33
178
0
145
0.0
301
CELL_VALUE
 90
4
  1
SCALE
304
ACVALUE_END
170
1
140
0.06
171
1
172
0
173
0
174
0
175
1
176
1
 91
33
178
0
145
0.0
301
CELL_VALUE
 90
4
  1
DWG SIZE
304
ACVALUE_END
170
1
140
0.06
171
1
172
0
173
0
174
0
175
1
176
1
 91
33
178
0
145
0.0
301
CELL_VALUE
 90
4
  1
SHEET
304
ACVALUE_END
170
1
140
0.06
171
1
172
0
173
0
174
0
175
1
176
1
 91
33
178
0
145
0.0
301
CELL_VALUE
 90
4
  1
 
304
ACVALUE_END
170
1
140
0.125
171
1
172
0
173
0
174
0
175
1
176
1
 91
33
178
0
145
0.0
301
CELL_VALUE
 90
4
  1
U8R
304
ACVALUE_END
170
5
140
0.125
171
1
172
0
173
0
174
0
175
4
176
1
 91
33
178
0
145
0.0
301
CELL_VALUE
 90
4
  1
ALL DIMENSIONS IN INCH\PVIEWS ARE THIRD ANGLE
304
ACVALUE_END
170
5
140
0.12
171
1
172
0
173
1
174
0
175
1
176
1
 91
1
178
0
145
0.0
170
1
171
1
172
0
173
1
174
0
175
1
176
1
 91
1
178
0
145
0.0
170
1
171
1
172
0
173
1
174
0
175
1
176
1
 91
1
178
0
145
0.0
170
5
171
1
172
0
173
0
174
0
175
1
176
1
 91
33
178
0
145
0.0
301
CELL_VALUE
 90
4
  1
 
304
ACVALUE_END
170
1
140
0.125
171
1
172
0
173
0
174
0
175
1
176
1
 91
33
178
0
145
0.0
301
CELL_VALUE
 90
4
  1
MODEL
304
ACVALUE_END
170
1
140
0.06
171
1
172
0
173
0
174
0
175
1
176
1
 91
33
178
0
145
0.0
301
CELL_VALUE
 90
4
  1
 
304
ACVALUE_END
170
1
140
0.125
171
1
172
0
173
0
174
0
175
1
176
1
 91
33
178
0
145
0.0
301
CELL_VALUE
 90
4
  1
 
304
ACVALUE_END
170
1
140
0.125
171
1
172
0
173
0
174
0
175
1
176
1
 91
33
178
0
145
0.0
301
CELL_VALUE
 90
4
  1
 
304
ACVALUE_END
170
1
140
0.125
171
1
172
0
173
0
174
0
175
1
176
1
 91
33
178
0
145
0.0
301
CELL_VALUE
 90
4
  1
 
304
ACVALUE_END
170
1
140
0.125
171
1
172
0
173
0
174
0
175
1
176
1
 91
33
178
0
145
0.0
301
CELL_VALUE
 90
4
  1
 
304
ACVALUE_END
170
1
140
0.125
  0
ACAD_TABLE
  5
27B
100
AcDbEntity
  8
0
 62
2
  6
CONTINUOUS
100
AcDbBlockReference
  2
*T2
 10
12.4237499994
 20
16.47875
 30
0.0
100
AcDbTable
342
       3D1
343
213
 11
1.0
 21
0.0
 31
0.0
 90
22
 91
10
 92
3
 93
16
 94
0
 95
0
 96
0
 41
0.028
141
0.344
141
0.25
141
0.25
141
0.25
141
0.25
141
0.25
141
0.25
141
0.25
141
0.25
141
0.25
142
3.055
142
3.0
142
3.0
171
1
172
0
173
0
174
0
175
1
176
1
 91
33
178
0
145
0.0
301
CELL_VALUE
 90
4
  1
Technical Data
304
ACVALUE_END
170
5
140
0.145
171
1
172
0
173
0
174
0
175
1
176
1
 91
33
178
0
145
0.0
301
CELL_VALUE
 90
4
  1
U.S. Units
304
ACVALUE_END
170
5
140
0.145
171
1
172
0
173
0
174
0
175
1
176
1
 91
33
178
0
145
0.0
301
CELL_VALUE
 90
4
  1
Metric Units
304
ACVALUE_END
170
5
140
0.145
171
1
172
0
173
0
174
0
175
1
176
1
 91
33
178
0
145
0.0
301
CELL_VALUE
 90
4
  1
Cavity
304
ACVALUE_END
170
5
140
0.125
171
1
172
0
173
0
174
0
175
2
176
1
 91
33
178
0
145
0.0
301
CELL_VALUE
 90
4
  1
T-11A
304
ACVALUE_END
170
5
140
0.125
171
1
172
0
173
1
174
0
175
1
176
1
 91
1
178
0
145
0.0
170
1
171
1
172
0
173
0
174
0
175
1
176
1
 91
33
178
0
145
0.0
301
CELL_VALUE
 90
4
  1
Body Features
304
ACVALUE_END
170
5
140
0.125
171
1
172
0
173
0
174
0
175
2
176
1
 91
33
178
0
145
0.0
301
CELL_VALUE
 90
4
  1
Reducer on  A with reverse flow check
304
ACVALUE_END
170
5
140
0.125
171
1
172
0
173
1
174
0
175
1
176
1
 91
1
178
0
145
0.0
170
1
171
1
172
0
173
0
174
0
175
1
176
1
 91
33
178
0
145
0.0
301
CELL_VALUE
 90
4
  1
Body Type
304
ACVALUE_END
170
5
140
0.125
171
1
172
0
173
0
174
0
175
2
176
1
 91
33
178
0
145
0.0
301
CELL_VALUE
 90
4
  1
Sandwich
304
ACVALUE_END
170
5
140
0.125
171
1
172
0
173
1
174
0
175
1
176
1
 91
1
178
0
145
0.0
170
1
171
1
172
0
173
0
174
0
175
1
176
1
 91
33
178
0
145
0.0
301
CELL_VALUE
 90
4
  1
Interface
304
ACVALUE_END
170
5
140
0.125
171
1
172
0
173
0
174
0
175
2
176
1
 91
33
178
0
145
0.0
301
CELL_VALUE
 90
4
  1
ISO 03
304
ACVALUE_END
170
5
140
0.125
171
1
172
0
173
1
174
0
175
1
176
1
 91
1
178
0
145
0.0
170
1
171
1
172
0
173
0
174
0
175
1
176
1
 91
33
178
0
145
0.0
301
CELL_VALUE
 90
4
  1
Open Cavity Quantity
304
ACVALUE_END
170
5
140
0.125
171
1
172
0
173
0
174
0
175
2
176
1
 91
33
178
0
145
0.0
301
CELL_VALUE
 90
4
  1
1
304
ACVALUE_END
170
5
140
0.125
171
1
172
0
173
1
174
0
175
1
176
1
 91
1
178
0
145
0.0
170
1
171
1
172
0
173
0
174
0
175
1
176
1
 91
33
178
0
145
0.0
301
CELL_VALUE
 90
4
  1
Stack Height
304
ACVALUE_END
170
5
140
0.125
171
1
172
0
173
0
174
0
175
1
176
1
 91
33
178
0
145
0.0
301
CELL_VALUE
 90
4
  1
1.97 in.
304
ACVALUE_END
170
5
140
0.125
171
1
172
0
173
0
174
0
175
1
176
1
 91
33
178
0
145
0.0
301
CELL_VALUE
 90
4
  1
50 mm
304
ACVALUE_END
170
5
140
0.125
171
1
172
0
173
0
174
0
175
1
176
1
 91
33
178
0
145
0.0
301
CELL_VALUE
 90
4
  1
Weight
304
ACVALUE_END
170
5
140
0.125
171
1
172
0
173
0
174
0
175
1
176
1
 91
33
178
0
145
0.0
301
CELL_VALUE
 90
4
  1
1.391 lb.
304
ACVALUE_END
170
5
140
0.125
171
1
172
0
173
0
174
0
175
1
176
1
 91
33
178
0
145
0.0
301
CELL_VALUE
 90
4
  1
0,631 kg.
304
ACVALUE_END
170
5
140
0.125
171
1
172
0
173
0
174
0
175
1
176
1
 91
33
178
0
145
0.0
301
CELL_VALUE
 90
4
  1
Seal Plate Included (see notes)
304
ACVALUE_END
170
5
140
0.125
171
1
172
0
173
0
174
0
175
2
176
1
 91
33
178
0
145
0.0
301
CELL_VALUE
 90
4
  1
No
304
ACVALUE_END
170
5
140
0.125
171
1
172
0
173
1
174
0
175
1
176
1
 91
1
178
0
145
0.0
170
1
171
1
172
0
173
0
174
0
175
1
176
1
 91
33
178
0
145
0.0
301
CELL_VALUE
 90
4
  1
Includes integral cartridge(s)
304
ACVALUE_END
170
5
140
0.125
171
1
172
0
173
0
174
0
175
2
176
1
 91
33
178
0
145
0.0
301
CELL_VALUE
 90
4
  1
Yes (see Included Components)
304
ACVALUE_END
170
5
140
0.125
171
1
172
0
173
1
174
0
175
1
176
1
 91
1
178
0
145
0.0
170
1
  0
MTEXT
  5
27C
100
AcDbEntity
  8
0
100
AcDbMText
 62
2
  6
CONTINUOUS
  7
STANDARD
 71
1
 72
1
 10
0.52125
 20
5.75995
 30
0.0
 11
1.0
 21
0.0
 31
0.0
 44
0.6
  3
Notes\P \P1. Important: Carefully consider\P   the maximum system pressure. The\P   pressure rating of the manifold is\P   dependent on the manifold material,\P   with the port type/size a secondary\P   consideration. Manifolds\P   constructed of alu
  3
minum are not\P   rated for pressures higher than\P   3000 psi (210 bar), regardless of\P   the port type/size specified.\P2. Seal retainer plate is not\P   required for this model.\P3. This drawing is for reference\P   only. It is generated by an\P 
  1
  automated process and does not fall\P   under Sun's document control\P   process.\P4. Items without balloons are\P   shipped loose.
 40
0.1
 41
3.04
  0
LINE
  5
27D
100
AcDbEntity
  8
0
100
AcDbLine
 62
7
  6
CONTINUOUS
 10
0.30125
 20
0.30125
 11
0.30125
 21
16.69875
  0
LINE
  5
27E
100
AcDbEntity
  8
0
100
AcDbLine
 62
7
  6
CONTINUOUS
 10
0.30125
 20
0.30125
 11
21.69875
 21
0.30125
  0
LINE
  5
27F
100
AcDbEntity
  8
0
100
AcDbLine
 62
7
  6
CONTINUOUS
 10
0.30125
 20
16.69875
 11
21.69875
 21
16.69875
  0
LINE
  5
280
100
AcDbEntity
  8
0
100
AcDbLine
 62
7
  6
CONTINUOUS
 10
21.69875
 20
0.30125
 11
21.69875
 21
16.69875
  0
LINE
  5
281
100
AcDbEntity
  8
0
100
AcDbLine
 62
7
  6
CONTINUOUS
 10
10.5827309999
 20
5.8783928865
 11
10.5990551911
 21
5.8703290486
  0
LINE
  5
282
100
AcDbEntity
  8
0
100
AcDbLine
 62
7
  6
CONTINUOUS
 10
10.0620591967
 20
10.7987098167
 11
10.3692771497
 21
11.0954595894
  0
LINE
  5
283
100
AcDbEntity
  8
0
100
AcDbLine
 62
7
  6
CONTINUOUS
 10
10.0920028991
 20
10.8265769163
 11
10.3992208521
 21
11.123326689
  0
LINE
  5
284
100
AcDbEntity
  8
0
100
AcDbLine
 62
7
  6
CONTINUOUS
 10
10.3692771497
 20
11.0954595894
 11
10.3702119398
 21
11.0963457324
  0
LINE
  5
285
100
AcDbEntity
  8
0
100
AcDbLine
 62
7
  6
CONTINUOUS
 10
10.3992208521
 20
11.123326689
 11
10.4000793966
 21
11.1241404063
  0
LINE
  5
286
100
AcDbEntity
  8
0
100
AcDbLine
 62
7
  6
CONTINUOUS
 10
10.3702119398
 20
11.0963457324
 11
10.3992134305
 21
11.123334664
  0
LINE
  5
287
100
AcDbEntity
  8
0
100
AcDbLine
 62
7
  6
CONTINUOUS
 10
10.3992208521
 20
11.123326689
 11
10.3692771497
 21
11.0954595894
  0
LINE
  5
288
100
AcDbEntity
  8
0
100
AcDbLine
 62
7
  6
CONTINUOUS
 10
10.0920028991
 20
10.8265769163
 11
10.0620591967
 21
10.7987098167
  0
LINE
  5
289
100
AcDbEntity
  8
0
100
AcDbLine
 62
7
  6
CONTINUOUS
 10
10.3355065438
 20
6.4310041231
 11
11.1806916919
 21
6.372390334
  0
LINE
  5
28A
100
AcDbEntity
  8
0
100
AcDbLine
 62
7
  6
CONTINUOUS
 10
10.32748316
 20
6.4531978314
 11
11.1726683081
 21
6.3945840423
  0
LINE
  5
28B
100
AcDbEntity
  8
0
100
AcDbLine
 62
7
  6
CONTINUOUS
 10
10.0632528056
 20
6.5209414213
 11
10.093119232
 21
6.4931475762
  0
LINE
  5
28C
100
AcDbEntity
  8
0
100
AcDbLine
 62
7
  6
CONTINUOUS
 10
9.9000077146
 20
9.4668631481
 11
10.049281403
 21
9.6110504674
  0
LINE
  5
28D
100
AcDbEntity
  8
0
100
AcDbLine
 62
7
  6
CONTINUOUS
 10
11.431028939
 20
10.8719768036
 11
11.4298637947
 21
10.8708724238
  0
LINE
  5
28E
100
AcDbEntity
  8
0
100
AcDbLine
 62
7
  6
CONTINUOUS
 10
11.908963008
 20
11.0186257148
 11
11.601745055
 21
10.7218759422
  0
LINE
  5
28F
100
AcDbEntity
  8
0
100
AcDbLine
 62
7
  6
CONTINUOUS
 10
11.5903780108
 20
7.1763021016
 11
9.9000077146
 21
7.2935296798
  0
LINE
  5
290
100
AcDbEntity
  8
0
100
AcDbLine
 62
7
  6
CONTINUOUS
 10
10.3355065438
 20
6.4310041231
 11
10.32748316
 21
6.4531978314
  0
LINE
  5
291
100
AcDbEntity
  8
0
100
AcDbLine
 62
7
  6
CONTINUOUS
 10
9.9000077146
 20
9.4668631481
 11
9.9000077146
 21
7.2935296798
  0
LINE
  5
292
100
AcDbEntity
  8
0
100
AcDbLine
 62
7
  6
CONTINUOUS
 10
10.049281403
 20
9.5352726737
 11
10.049281403
 21
10.7735896214
  0
LINE
  5
293
100
AcDbEntity
  8
0
100
AcDbLine
 62
7
  6
CONTINUOUS
 10
10.0495402219
 20
7.2831595652
 11
10.0495402219
 21
6.5469477596
  0
LINE
  5
294
100
AcDbEntity
  8
0
100
AcDbLine
 62
7
  6
CONTINUOUS
 10
10.335247725
 20
10.7175333896
 11
10.3272243412
 21
10.6798396932
  0
LINE
  5
295
100
AcDbEntity
  8
0
100
AcDbLine
 62
7
  6
CONTINUOUS
 10
11.9389067104
 20
10.9866054096
 11
11.6316887574
 21
10.6898556369
  0
LINE
  5
296
100
AcDbEntity
  8
0
100
AcDbLine
 62
7
  6
CONTINUOUS
 10
10.3272243412
 20
10.6798396932
 11
10.3272243412
 21
9.4415227455
  0
LINE
  5
297
100
AcDbEntity
  8
0
100
AcDbLine
 62
7
  6
CONTINUOUS
 10
10.32748316
 20
6.4531978314
 11
10.32748316
 21
7.263884157
  0
LINE
  5
298
100
AcDbEntity
  8
0
100
AcDbLine
 62
7
  6
CONTINUOUS
 10
10.5008061113
 20
6.4007752184
 11
10.5008061113
 21
5.9801759926
  0
LINE
  5
299
100
AcDbEntity
  8
0
100
AcDbLine
 62
7
  6
CONTINUOUS
 10
10.6138609232
 20
6.2915728425
 11
10.6138609232
 21
5.8709736167
  0
LINE
  5
29A
100
AcDbEntity
  8
0
100
AcDbLine
 62
7
  6
CONTINUOUS
 10
11.1806916919
 20
6.372390334
 11
11.1726683081
 21
6.3945840423
  0
LINE
  5
29B
100
AcDbEntity
  8
0
100
AcDbLine
 62
7
  6
CONTINUOUS
 10
10.6557411507
 20
6.2807334557
 11
10.6557411507
 21
5.86013423
  0
LINE
  5
29C
100
AcDbEntity
  8
0
100
AcDbLine
 62
7
  6
CONTINUOUS
 10
11.1804328731
 20
10.6589196005
 11
11.1724094893
 21
10.6212259041
  0
LINE
  5
29D
100
AcDbEntity
  8
0
100
AcDbLine
 62
7
  6
CONTINUOUS
 10
11.9389067104
 20
9.748288462
 11
11.6316887574
 21
9.4515386893
  0
LINE
  5
29E
100
AcDbEntity
  8
0
100
AcDbLine
 62
7
  6
CONTINUOUS
 10
12.0999922854
 20
9.8418851882
 11
11.5903780108
 21
9.3496355699
  0
LINE
  5
29F
100
AcDbEntity
  8
0
100
AcDbLine
 62
7
  6
CONTINUOUS
 10
10.8369359308
 20
8.5916523207
 11
10.839130337
 21
8.5906296143
  0
LINE
  5
2A0
100
AcDbEntity
  8
0
100
AcDbLine
 62
7
  6
CONTINUOUS
 10
11.0776671296
 20
6.2514727897
 11
11.0776671296
 21
5.830873564
  0
LINE
  5
2A1
100
AcDbEntity
  8
0
100
AcDbLine
 62
7
  6
CONTINUOUS
 10
11.1348765683
 20
6.2554402848
 11
11.1348765683
 21
5.834841059
  0
LINE
  5
2A2
100
AcDbEntity
  8
0
100
AcDbLine
 62
7
  6
CONTINUOUS
 10
11.1724094893
 20
10.6212259041
 11
11.1724094893
 21
9.3829089564
  0
LINE
  5
2A3
100
AcDbEntity
  8
0
100
AcDbLine
 62
7
  6
CONTINUOUS
 10
11.1726683081
 20
6.3945840423
 11
11.1726683081
 21
7.2052703679
  0
LINE
  5
2A4
100
AcDbEntity
  8
0
100
AcDbLine
 62
4
  6
CONTINUOUS
 10
12.0184643534
 20
9.2289782552
 11
12.0029352235
 21
9.2139782667
  0
LINE
  5
2A5
100
AcDbEntity
  8
0
100
AcDbLine
 62
4
  6
CONTINUOUS
 10
12.0029352235
 20
9.1560227137
 11
11.9874060936
 21
9.1410227252
  0
LINE
  5
2A6
100
AcDbEntity
  8
0
100
AcDbLine
 62
4
  6
CONTINUOUS
 10
11.9874060936
 20
9.1120449487
 11
12.0184643534
 21
9.1420449257
  0
LINE
  5
2A7
100
AcDbEntity
  8
0
100
AcDbLine
 62
4
  6
CONTINUOUS
 10
11.8290089688
 20
8.9117146919
 11
11.8600672285
 21
8.9417146689
  0
LINE
  5
2A8
100
AcDbEntity
  8
0
100
AcDbLine
 62
4
  6
CONTINUOUS
 10
12.0184643534
 20
9.0840893727
 11
11.9874060936
 21
9.0540893957
  0
LINE
  5
2A9
100
AcDbEntity
  8
0
100
AcDbLine
 62
4
  6
CONTINUOUS
 10
12.0184643534
 20
9.0551115962
 11
11.9874060936
 21
9.0251116192
  0
LINE
  5
2AA
100
AcDbEntity
  8
0
100
AcDbLine
 62
4
  6
CONTINUOUS
 10
11.8556303346
 20
8.879473412
 11
11.8334458632
 21
8.858044857
  0
LINE
  5
2AB
100
AcDbEntity
  8
0
100
AcDbLine
 62
4
  6
CONTINUOUS
 10
12.0184643534
 20
8.9971560432
 11
11.9874060936
 21
8.9671560662
  0
LINE
  5
2AC
100
AcDbEntity
  8
0
100
AcDbLine
 62
4
  6
CONTINUOUS
 10
11.8290089688
 20
8.806842745
 11
11.8600672285
 21
8.8037252652
  0
LINE
  5
2AD
100
AcDbEntity
  8
0
100
AcDbLine
 62
4
  6
CONTINUOUS
 10
11.6211774409
 20
8.6269292305
 11
11.6522357
 21
8.620706987
  0
LINE
  5
2AE
100
AcDbEntity
  8
0
100
AcDbLine
 62
4
  6
CONTINUOUS
 10
11.6211774409
 20
7.910695294
 11
11.6263538176
 21
7.9012064023
  0
LINE
  5
2AF
100
AcDbEntity
  8
0
100
AcDbLine
 62
4
  6
CONTINUOUS
 10
11.6392947581
 20
7.9281952796
 11
11.6418829476
 21
7.9234508349
  0
LINE
  5
2B0
100
AcDbEntity
  8
0
100
AcDbLine
 62
7
  6
CONTINUOUS
 10
11.4437477353
 20
6.3353819947
 11
11.4437477353
 21
5.9147827689
  0
LINE
  5
2B1
100
AcDbEntity
  8
0
100
AcDbLine
 62
7
  6
CONTINUOUS
 10
11.4590769464
 20
6.3501888765
 11
11.4590769464
 21
5.9295896507
  0
LINE
  5
2B2
100
AcDbEntity
  8
0
100
AcDbLine
 62
7
  6
CONTINUOUS
 10
11.5903780108
 20
9.3496355699
 11
11.5903780108
 21
7.1763021016
  0
LINE
  5
2B3
100
AcDbEntity
  8
0
100
AcDbLine
 62
4
  6
CONTINUOUS
 10
11.6522357
 20
8.620706987
 11
11.6211774409
 21
8.5544847908
  0
LINE
  5
2B4
100
AcDbEntity
  8
0
100
AcDbLine
 62
4
  6
CONTINUOUS
 10
11.9874060936
 20
8.8512449602
 11
12.0184643534
 21
8.8812449372
  0
LINE
  5
2B5
100
AcDbEntity
  8
0
100
AcDbLine
 62
4
  6
CONTINUOUS
 10
11.8290089688
 20
8.6743729037
 11
11.8600672285
 21
8.7043728807
  0
LINE
  5
2B6
100
AcDbEntity
  8
0
100
AcDbLine
 62
4
  6
CONTINUOUS
 10
11.9874060936
 20
8.7932894072
 11
12.0029352235
 21
8.8082893957
  0
LINE
  5
2B7
100
AcDbEntity
  8
0
100
AcDbLine
 62
4
  6
CONTINUOUS
 10
11.9283954001
 20
8.7124172812
 11
11.9017740347
 21
8.6867030153
  0
LINE
  5
2B8
100
AcDbEntity
  8
0
100
AcDbLine
 62
4
  6
CONTINUOUS
 10
11.8290089688
 20
8.6081379899
 11
11.8600672285
 21
8.6381379669
  0
LINE
  5
2B9
100
AcDbEntity
  8
0
100
AcDbLine
 62
4
  6
CONTINUOUS
 10
11.9874060936
 20
8.7459590389
 11
12.0029352235
 21
8.7609590274
  0
LINE
  5
2BA
100
AcDbEntity
  8
0
100
AcDbLine
 62
4
  6
CONTINUOUS
 10
11.9017740347
 20
8.6287474623
 11
11.9283954001
 21
8.6544617281
  0
LINE
  5
2BB
100
AcDbEntity
  8
0
100
AcDbLine
 62
4
  6
CONTINUOUS
 10
12.0029352235
 20
8.7030034744
 11
11.9718769638
 21
8.6730034973
  0
LINE
  5
2BC
100
AcDbEntity
  8
0
100
AcDbLine
 62
4
  6
CONTINUOUS
 10
11.9017740347
 20
8.5956300054
 11
11.9106478232
 21
8.6042014274
  0
LINE
  5
2BD
100
AcDbEntity
  8
0
100
AcDbLine
 62
4
  6
CONTINUOUS
 10
11.9173031642
 20
8.6051104173
 11
11.9239585061
 21
8.6115389844
  0
LINE
  5
2BE
100
AcDbEntity
  8
0
100
AcDbLine
 62
4
  6
CONTINUOUS
 10
11.9874060936
 20
8.6493664505
 11
12.0029352235
 21
8.664366439
  0
LINE
  5
2BF
100
AcDbEntity
  8
0
100
AcDbLine
 62
4
  6
CONTINUOUS
 10
11.6211774409
 20
8.2927189176
 11
11.6522357
 21
8.322718894
  0
LINE
  5
2C0
100
AcDbEntity
  8
0
100
AcDbLine
 62
4
  6
CONTINUOUS
 10
11.9239585061
 20
8.5646225767
 11
11.9173031642
 21
8.5581940097
  0
LINE
  5
2C1
100
AcDbEntity
  8
0
100
AcDbLine
 62
4
  6
CONTINUOUS
 10
11.9106478232
 20
8.5462458744
 11
11.9017740347
 21
8.5376744524
  0
LINE
  5
2C2
100
AcDbEntity
  8
0
100
AcDbLine
 62
4
  6
CONTINUOUS
 10
11.6418829476
 20
8.2547633507
 11
11.6392947581
 21
8.2595077955
  0
LINE
  5
2C3
100
AcDbEntity
  8
0
100
AcDbLine
 62
4
  6
CONTINUOUS
 10
11.6392947581
 20
8.2595077955
 11
11.6367065704
 21
8.271496686
  0
LINE
  5
2C4
100
AcDbEntity
  8
0
100
AcDbLine
 62
4
  6
CONTINUOUS
 10
11.6211774409
 20
7.9614064018
 11
11.6211774409
 21
7.910695294
  0
LINE
  5
2C5
100
AcDbEntity
  8
0
100
AcDbLine
 62
4
  6
CONTINUOUS
 10
11.6315301942
 20
8.622440335
 11
11.6315301942
 21
8.5789736712
  0
LINE
  5
2C6
100
AcDbEntity
  8
0
100
AcDbLine
 62
7
  6
CONTINUOUS
 10
11.6316887574
 20
10.6898556369
 11
11.6316887574
 21
9.4515386893
  0
LINE
  5
2C7
100
AcDbEntity
  8
0
100
AcDbLine
 62
7
  6
CONTINUOUS
 10
11.6319475763
 20
6.4632137752
 11
11.6319475763
 21
7.2164552209
  0
LINE
  5
2C8
100
AcDbEntity
  8
0
100
AcDbLine
 62
4
  6
CONTINUOUS
 10
11.6367065704
 20
8.271496686
 11
11.6367065704
 21
8.3077189058
  0
LINE
  5
2C9
100
AcDbEntity
  8
0
100
AcDbLine
 62
4
  6
CONTINUOUS
 10
11.6392947581
 20
7.9789063874
 11
11.6392947581
 21
7.9281952796
  0
LINE
  5
2CA
100
AcDbEntity
  8
0
100
AcDbLine
 62
4
  6
CONTINUOUS
 10
11.6522357
 20
8.322718894
 11
11.6522357
 21
8.2864966741
  0
LINE
  5
2CB
100
AcDbEntity
  8
0
100
AcDbLine
 62
4
  6
CONTINUOUS
 10
11.6522357
 20
7.9406952704
 11
11.6522357
 21
7.9914063781
  0
LINE
  5
2CC
100
AcDbEntity
  8
0
100
AcDbLine
 62
4
  6
CONTINUOUS
 10
11.8423196517
 20
8.9908067457
 11
11.8364037925
 21
8.9409358516
  0
LINE
  5
2CD
100
AcDbEntity
  8
0
100
AcDbLine
 62
4
  6
CONTINUOUS
 10
11.6522357
 20
8.2864966741
 11
11.6496475123
 21
8.2695077888
  0
LINE
  5
2CE
100
AcDbEntity
  8
0
100
AcDbLine
 62
4
  6
CONTINUOUS
 10
11.8600672285
 20
8.9003178512
 11
11.8556303346
 21
8.879473412
  0
LINE
  5
2CF
100
AcDbEntity
  8
0
100
AcDbLine
 62
4
  6
CONTINUOUS
 10
11.6496475123
 20
8.2695077888
 11
11.6470593229
 21
8.2597633456
  0
LINE
  5
2D0
100
AcDbEntity
  8
0
100
AcDbLine
 62
4
  6
CONTINUOUS
 10
11.6341183819
 20
7.9087063959
 11
11.6392947581
 21
7.9281952796
  0
LINE
  5
2D1
100
AcDbEntity
  8
0
100
AcDbLine
 62
4
  6
CONTINUOUS
 10
11.6496475123
 20
7.930950829
 11
11.6522357
 21
7.9406952704
  0
LINE
  5
2D2
100
AcDbEntity
  8
0
100
AcDbLine
 62
4
  6
CONTINUOUS
 10
11.8600672285
 20
8.8037252652
 11
11.8290089688
 21
8.7406078175
  0
LINE
  5
2D3
100
AcDbEntity
  8
0
100
AcDbLine
 62
4
  6
CONTINUOUS
 10
12.0184643534
 20
8.6214108745
 11
11.9874060936
 21
8.5914108975
  0
LINE
  5
2D4
100
AcDbEntity
  8
0
100
AcDbLine
 62
4
  6
CONTINUOUS
 10
11.6470593229
 20
8.2597633456
 11
11.6418829476
 21
8.2547633507
  0
LINE
  5
2D5
100
AcDbEntity
  8
0
100
AcDbLine
 62
4
  6
CONTINUOUS
 10
11.8973371403
 20
8.5002712843
 11
11.9283954001
 21
8.5302712614
  0
LINE
  5
2D6
100
AcDbEntity
  8
0
100
AcDbLine
 62
4
  6
CONTINUOUS
 10
11.8334458632
 20
8.4385570144
 11
11.8556303346
 21
8.4599855695
  0
LINE
  5
2D7
100
AcDbEntity
  8
0
100
AcDbLine
 62
4
  6
CONTINUOUS
 10
12.0029352235
 20
8.5677738507
 11
11.9874060936
 21
8.5527738622
  0
LINE
  5
2D8
100
AcDbEntity
  8
0
100
AcDbLine
 62
4
  6
CONTINUOUS
 10
11.9239585061
 20
8.4680299976
 11
11.9150847181
 21
8.4594585761
  0
LINE
  5
2D9
100
AcDbEntity
  8
0
100
AcDbLine
 62
4
  6
CONTINUOUS
 10
11.8334458632
 20
8.3419644629
 11
11.8556303346
 21
8.363393018
  0
LINE
  5
2DA
100
AcDbEntity
  8
0
100
AcDbLine
 62
4
  6
CONTINUOUS
 10
11.9874060936
 20
8.4561812738
 11
11.9977588469
 21
8.4661812661
  0
LINE
  5
2DB
100
AcDbEntity
  8
0
100
AcDbLine
 62
4
  6
CONTINUOUS
 10
11.8556303346
 20
8.305437465
 11
11.8334458632
 21
8.2840089099
  0
LINE
  5
2DC
100
AcDbEntity
  8
0
100
AcDbLine
 62
4
  6
CONTINUOUS
 10
11.8290089688
 20
8.2466057556
 11
11.8600672285
 21
8.2766057327
  0
LINE
  5
2DD
100
AcDbEntity
  8
0
100
AcDbLine
 62
4
  6
CONTINUOUS
 10
12.0029352235
 20
8.4132257093
 11
11.9874060936
 21
8.3982257208
  0
LINE
  5
2DE
100
AcDbEntity
  8
0
100
AcDbLine
 62
4
  6
CONTINUOUS
 10
12.0029352235
 20
8.374588674
 11
11.9874060936
 21
8.3595886854
  0
LINE
  5
2DF
100
AcDbEntity
  8
0
100
AcDbLine
 62
4
  6
CONTINUOUS
 10
11.8556303346
 20
8.2143644689
 11
11.8334458632
 21
8.1929359138
  0
LINE
  5
2E0
100
AcDbEntity
  8
0
100
AcDbLine
 62
4
  6
CONTINUOUS
 10
11.8334458632
 20
8.1929359138
 11
11.8290089688
 21
8.2052089242
  0
LINE
  5
2E1
100
AcDbEntity
  8
0
100
AcDbLine
 62
4
  6
CONTINUOUS
 10
11.8334458632
 20
8.2840089099
 11
11.8290089688
 21
8.2962819202
  0
LINE
  5
2E2
100
AcDbEntity
  8
0
100
AcDbLine
 62
4
  6
CONTINUOUS
 10
11.8556303346
 20
8.363393018
 11
11.8600672285
 21
8.3511200072
  0
LINE
  5
2E3
100
AcDbEntity
  8
0
100
AcDbLine
 62
4
  6
CONTINUOUS
 10
11.8556303346
 20
8.4599855695
 11
11.8600672285
 21
8.4477125587
  0
LINE
  5
2E4
100
AcDbEntity
  8
0
100
AcDbLine
 62
4
  6
CONTINUOUS
 10
11.8423196517
 20
8.0276406767
 11
11.8364037925
 21
8.0660830045
  0
LINE
  5
2E5
100
AcDbEntity
  8
0
100
AcDbLine
 62
4
  6
CONTINUOUS
 10
11.8290089688
 20
8.6081379899
 11
11.8290089688
 21
8.5584617976
  0
LINE
  5
2E6
100
AcDbEntity
  8
0
100
AcDbLine
 62
4
  6
CONTINUOUS
 10
11.8290089688
 20
8.1417337605
 11
11.8290089688
 21
8.0920575958
  0
LINE
  5
2E7
100
AcDbEntity
  8
0
100
AcDbLine
 62
4
  6
CONTINUOUS
 10
11.8290089688
 20
8.2052089242
 11
11.8290089688
 21
8.2466057556
  0
LINE
  5
2E8
100
AcDbEntity
  8
0
100
AcDbLine
 62
4
  6
CONTINUOUS
 10
11.8290089688
 20
8.2962819202
 11
11.8290089688
 21
8.3211200302
  0
LINE
  5
2E9
100
AcDbEntity
  8
0
100
AcDbLine
 62
4
  6
CONTINUOUS
 10
11.8290089688
 20
8.3845951386
 11
11.8290089688
 21
8.4177125817
  0
LINE
  5
2EA
100
AcDbEntity
  8
0
100
AcDbLine
 62
4
  6
CONTINUOUS
 10
11.8290089688
 20
8.8703178742
 11
11.8290089688
 21
8.9117146919
  0
LINE
  5
2EB
100
AcDbEntity
  8
0
100
AcDbLine
 62
4
  6
CONTINUOUS
 10
11.8378827577
 20
8.8043750151
 11
11.8378827577
 21
8.760218406
  0
LINE
  5
2EC
100
AcDbEntity
  8
0
100
AcDbLine
 62
4
  6
CONTINUOUS
 10
11.8467565466
 20
8.1257591622
 11
11.8467565466
 21
8.1588766052
  0
LINE
  5
2ED
100
AcDbEntity
  8
0
100
AcDbLine
 62
4
  6
CONTINUOUS
 10
11.8467565466
 20
8.592163364
 11
11.8467565466
 21
8.6252808347
  0
LINE
  5
2EE
100
AcDbEntity
  8
0
100
AcDbLine
 62
4
  6
CONTINUOUS
 10
11.8600672285
 20
8.9417146689
 11
11.8600672285
 21
8.9003178512
  0
LINE
  5
2EF
100
AcDbEntity
  8
0
100
AcDbLine
 62
4
  6
CONTINUOUS
 10
11.8600672285
 20
8.7374903514
 11
11.8600672285
 21
8.6712554376
  0
LINE
  5
2F0
100
AcDbEntity
  8
0
100
AcDbLine
 62
4
  6
CONTINUOUS
 10
11.8600672285
 20
8.6381379669
 11
11.8600672285
 21
8.5884617747
  0
LINE
  5
2F1
100
AcDbEntity
  8
0
100
AcDbLine
 62
4
  6
CONTINUOUS
 10
11.8600672285
 20
8.4477125587
 11
11.8600672285
 21
8.4145951156
  0
LINE
  5
2F2
100
AcDbEntity
  8
0
100
AcDbLine
 62
4
  6
CONTINUOUS
 10
11.8600672285
 20
8.3511200072
 11
11.8600672285
 21
8.3262818973
  0
LINE
  5
2F3
100
AcDbEntity
  8
0
100
AcDbLine
 62
4
  6
CONTINUOUS
 10
11.8600672285
 20
8.2766057327
 11
11.8600672285
 21
8.2352089012
  0
LINE
  5
2F4
100
AcDbEntity
  8
0
100
AcDbLine
 62
4
  6
CONTINUOUS
 10
11.8600672285
 20
8.1717337375
 11
11.8600672285
 21
8.1220575729
  0
LINE
  5
2F5
100
AcDbEntity
  8
0
100
AcDbLine
 62
4
  6
CONTINUOUS
 10
11.8973371403
 20
8.665858574
 11
11.8973371403
 21
8.6410204796
  0
LINE
  5
2F6
100
AcDbEntity
  8
0
100
AcDbLine
 62
4
  6
CONTINUOUS
 10
11.8973371403
 20
8.5499474628
 11
11.8973371403
 21
8.5747855658
  0
LINE
  5
2F7
100
AcDbEntity
  8
0
100
AcDbLine
 62
4
  6
CONTINUOUS
 10
11.9106478232
 20
8.471731586
 11
11.9106478232
 21
8.5131284175
  0
LINE
  5
2F8
100
AcDbEntity
  8
0
100
AcDbLine
 62
4
  6
CONTINUOUS
 10
11.9150847181
 20
8.5919284106
 11
11.9150847181
 21
8.5670903075
  0
LINE
  5
2F9
100
AcDbEntity
  8
0
100
AcDbLine
 62
4
  6
CONTINUOUS
 10
11.9283954001
 20
8.6047855428
 11
11.9283954001
 21
8.5799474398
  0
LINE
  5
2FA
100
AcDbEntity
  8
0
100
AcDbLine
 62
4
  6
CONTINUOUS
 10
11.9283954001
 20
8.5302712614
 11
11.9283954001
 21
8.4888744299
  0
LINE
  5
2FB
100
AcDbEntity
  8
0
100
AcDbLine
 62
7
  6
CONTINUOUS
 10
11.9389067104
 20
10.9866054096
 11
11.9389067104
 21
9.748288462
  0
LINE
  5
2FC
100
AcDbEntity
  8
0
100
AcDbLine
 62
7
  6
CONTINUOUS
 10
11.9391655293
 20
6.7599635479
 11
11.9391655293
 21
7.5132049935
  0
LINE
  5
2FD
100
AcDbEntity
  8
0
100
AcDbLine
 62
7
  6
CONTINUOUS
 10
11.9516845041
 20
9.7734086573
 11
11.9516845041
 21
11.011725605
  0
LINE
  5
2FE
100
AcDbEntity
  8
0
100
AcDbLine
 62
7
  6
CONTINUOUS
 10
11.9519433229
 20
7.5255473952
 11
11.9519433229
 21
6.7850837432
  0
LINE
  5
2FF
100
AcDbEntity
  8
0
100
AcDbLine
 62
4
  6
CONTINUOUS
 10
11.9718769638
 20
8.6730034973
 11
11.9718769638
 21
8.7116405327
  0
LINE
  5
300
100
AcDbEntity
  8
0
100
AcDbLine
 62
4
  6
CONTINUOUS
 10
11.9874060936
 20
8.3595886854
 11
11.9874060936
 21
8.3016331324
  0
LINE
  5
301
100
AcDbEntity
  8
0
100
AcDbLine
 62
4
  6
CONTINUOUS
 10
11.9874060936
 20
8.1857220264
 11
11.9874060936
 21
8.1277664734
  0
LINE
  5
302
100
AcDbEntity
  8
0
100
AcDbLine
 62
4
  6
CONTINUOUS
 10
11.9874060936
 20
8.0311738851
 11
11.9874060936
 21
8.0891294381
  0
LINE
  5
303
100
AcDbEntity
  8
0
100
AcDbLine
 62
4
  6
CONTINUOUS
 10
11.9874060936
 20
8.3982257208
 11
11.9874060936
 21
8.4561812738
  0
LINE
  5
304
100
AcDbEntity
  8
0
100
AcDbLine
 62
4
  6
CONTINUOUS
 10
11.9874060936
 20
8.5914108975
 11
11.9874060936
 21
8.6493664505
  0
LINE
  5
305
100
AcDbEntity
  8
0
100
AcDbLine
 62
4
  6
CONTINUOUS
 10
11.9874060936
 20
8.6880034858
 11
11.9874060936
 21
8.7459590389
  0
LINE
  5
306
100
AcDbEntity
  8
0
100
AcDbLine
 62
4
  6
CONTINUOUS
 10
11.9874060936
 20
9.0540893957
 11
11.9874060936
 21
9.1120449487
  0
LINE
  5
307
100
AcDbEntity
  8
0
100
AcDbLine
 62
4
  6
CONTINUOUS
 10
11.9874060936
 20
9.1410227252
 11
11.9874060936
 21
9.1989782782
  0
LINE
  5
308
100
AcDbEntity
  8
0
100
AcDbLine
 62
4
  6
CONTINUOUS
 10
11.8482355112
 20
8.0775115678
 11
11.8423196517
 21
8.0276406767
  0
LINE
  5
309
100
AcDbEntity
  8
0
100
AcDbLine
 62
4
  6
CONTINUOUS
 10
11.9150847181
 20
8.5919284106
 11
11.9173031642
 21
8.6051104173
  0
LINE
  5
30A
100
AcDbEntity
  8
0
100
AcDbLine
 62
4
  6
CONTINUOUS
 10
11.8290089688
 20
8.4177125817
 11
11.8334458632
 21
8.4385570144
  0
LINE
  5
30B
100
AcDbEntity
  8
0
100
AcDbLine
 62
4
  6
CONTINUOUS
 10
11.9017740347
 20
8.6867030153
 11
11.8973371403
 21
8.665858574
  0
LINE
  5
30C
100
AcDbEntity
  8
0
100
AcDbLine
 62
4
  6
CONTINUOUS
 10
11.8290089688
 20
8.3211200302
 11
11.8334458632
 21
8.3419644629
  0
LINE
  5
30D
100
AcDbEntity
  8
0
100
AcDbLine
 62
4
  6
CONTINUOUS
 10
11.8973371403
 20
8.5747855658
 11
11.9017740347
 21
8.5956300054
  0
LINE
  5
30E
100
AcDbEntity
  8
0
100
AcDbLine
 62
4
  6
CONTINUOUS
 10
11.8600672285
 20
8.3262818973
 11
11.8556303346
 21
8.305437465
  0
LINE
  5
30F
100
AcDbEntity
  8
0
100
AcDbLine
 62
4
  6
CONTINUOUS
 10
11.9150847181
 20
8.5670903075
 11
11.9106478232
 21
8.5462458744
  0
LINE
  5
310
100
AcDbEntity
  8
0
100
AcDbLine
 62
4
  6
CONTINUOUS
 10
11.8600672285
 20
8.2352089012
 11
11.8556303346
 21
8.2143644689
  0
LINE
  5
311
100
AcDbEntity
  8
0
100
AcDbLine
 62
4
  6
CONTINUOUS
 10
11.9283954001
 20
8.4888744299
 11
11.9239585061
 21
8.4680299976
  0
LINE
  5
312
100
AcDbEntity
  8
0
100
AcDbLine
 62
4
  6
CONTINUOUS
 10
11.9283954001
 20
8.5799474398
 11
11.9239585061
 21
8.5646225767
  0
LINE
  5
313
100
AcDbEntity
  8
0
100
AcDbLine
 62
4
  6
CONTINUOUS
 10
11.9106478232
 20
8.4882903213
 11
11.8973371403
 21
8.4423157313
  0
LINE
  5
314
100
AcDbEntity
  8
0
100
AcDbLine
 62
4
  6
CONTINUOUS
 10
11.6522357
 20
7.9914063781
 11
11.6211774409
 21
7.9614064018
  0
LINE
  5
315
100
AcDbEntity
  8
0
100
AcDbLine
 62
4
  6
CONTINUOUS
 10
11.9874060936
 20
8.3016331324
 11
12.0029352235
 21
8.3166331209
  0
LINE
  5
316
100
AcDbEntity
  8
0
100
AcDbLine
 62
4
  6
CONTINUOUS
 10
11.8290089688
 20
8.1417337605
 11
11.8600672285
 21
8.1717337375
  0
LINE
  5
317
100
AcDbEntity
  8
0
100
AcDbLine
 62
4
  6
CONTINUOUS
 10
11.9874060936
 20
8.2629960971
 11
12.0184643534
 21
8.2929960741
  0
LINE
  5
318
100
AcDbEntity
  8
0
100
AcDbLine
 62
4
  6
CONTINUOUS
 10
11.6418829476
 20
7.9234508349
 11
11.6496475123
 21
7.930950829
  0
LINE
  5
319
100
AcDbEntity
  8
0
100
AcDbLine
 62
4
  6
CONTINUOUS
 10
11.6263538176
 20
7.9012064023
 11
11.6341183819
 21
7.9087063959
  0
LINE
  5
31A
100
AcDbEntity
  8
0
100
AcDbLine
 62
4
  6
CONTINUOUS
 10
11.9874060936
 20
8.2243590618
 11
12.0029352235
 21
8.2393590503
  0
LINE
  5
31B
100
AcDbEntity
  8
0
100
AcDbLine
 62
4
  6
CONTINUOUS
 10
12.0029352235
 20
8.2007220149
 11
11.9874060936
 21
8.1857220264
  0
LINE
  5
31C
100
AcDbEntity
  8
0
100
AcDbLine
 62
4
  6
CONTINUOUS
 10
12.0029352235
 20
8.1041294266
 11
11.9951706586
 21
8.0966294323
  0
LINE
  5
31D
100
AcDbEntity
  8
0
100
AcDbLine
 62
7
  6
CONTINUOUS
 10
11.5903780108
 20
9.3496355699
 11
9.9000077146
 21
9.4668631481
  0
LINE
  5
31E
100
AcDbEntity
  8
0
100
AcDbLine
 62
7
  6
CONTINUOUS
 10
11.1724094893
 20
9.3829089564
 11
10.3272243412
 21
9.4415227455
  0
LINE
  5
31F
100
AcDbEntity
  8
0
100
AcDbLine
 62
4
  6
CONTINUOUS
 10
11.9239585061
 20
8.6115389844
 11
11.9283954001
 21
8.6047855428
  0
LINE
  5
320
100
AcDbEntity
  8
0
100
AcDbLine
 62
4
  6
CONTINUOUS
 10
11.9150847181
 20
8.4594585761
 11
11.9106478232
 21
8.471731586
  0
LINE
  5
321
100
AcDbEntity
  8
0
100
AcDbLine
 62
4
  6
CONTINUOUS
 10
11.9017740347
 20
8.5376744524
 11
11.8973371403
 21
8.5499474628
  0
LINE
  5
322
100
AcDbEntity
  8
0
100
AcDbLine
 62
4
  6
CONTINUOUS
 10
11.8973371403
 20
8.6410204796
 11
11.9017740347
 21
8.6287474623
  0
LINE
  5
323
100
AcDbEntity
  8
0
100
AcDbLine
 62
4
  6
CONTINUOUS
 10
11.9106478232
 20
8.6042014274
 11
11.9150847181
 21
8.5919284106
  0
LINE
  5
324
100
AcDbEntity
  8
0
100
AcDbLine
 62
4
  6
CONTINUOUS
 10
11.8334458632
 20
8.858044857
 11
11.8290089688
 21
8.8703178742
  0
LINE
  5
325
100
AcDbEntity
  8
0
100
AcDbLine
 62
4
  6
CONTINUOUS
 10
11.9173031642
 20
8.5581940097
 11
11.9150847181
 21
8.5670903075
  0
LINE
  5
326
100
AcDbEntity
  8
0
100
AcDbLine
 62
4
  6
CONTINUOUS
 10
11.8482355112
 20
8.9523644149
 11
11.8423196517
 21
8.9908067457
  0
LINE
  5
327
100
AcDbEntity
  8
0
100
AcDbLine
 62
4
  6
CONTINUOUS
 10
11.9951706586
 20
8.0966294323
 11
11.9951706586
 21
8.0386738793
  0
LINE
  5
328
100
AcDbEntity
  8
0
100
AcDbLine
 62
4
  6
CONTINUOUS
 10
11.9977588469
 20
8.4661812661
 11
11.9977588469
 21
8.4082257131
  0
LINE
  5
329
100
AcDbEntity
  8
0
100
AcDbLine
 62
4
  6
CONTINUOUS
 10
12.0029352235
 20
9.2139782667
 11
12.0029352235
 21
9.1560227137
  0
LINE
  5
32A
100
AcDbEntity
  8
0
100
AcDbLine
 62
4
  6
CONTINUOUS
 10
12.0029352235
 20
8.664366439
 11
12.0029352235
 21
8.606410886
  0
LINE
  5
32B
100
AcDbEntity
  8
0
100
AcDbLine
 62
4
  6
CONTINUOUS
 10
12.0029352235
 20
8.5677738507
 11
12.0029352235
 21
8.5098182977
  0
LINE
  5
32C
100
AcDbEntity
  8
0
100
AcDbLine
 62
4
  6
CONTINUOUS
 10
12.0029352235
 20
8.2007220149
 11
12.0029352235
 21
8.1427664619
  0
LINE
  5
32D
100
AcDbEntity
  8
0
100
AcDbLine
 62
4
  6
CONTINUOUS
 10
12.0029352235
 20
8.1041294266
 11
12.0029352235
 21
8.0461738736
  0
LINE
  5
32E
100
AcDbEntity
  8
0
100
AcDbLine
 62
4
  6
CONTINUOUS
 10
12.0029352235
 20
8.4132257093
 11
12.0029352235
 21
8.4518627446
  0
LINE
  5
32F
100
AcDbEntity
  8
0
100
AcDbLine
 62
4
  6
CONTINUOUS
 10
12.0029352235
 20
8.8082893957
 11
12.0029352235
 21
8.8662449487
  0
LINE
  5
330
100
AcDbEntity
  8
0
100
AcDbLine
 62
4
  6
CONTINUOUS
 10
12.0106997885
 20
8.2541034886
 11
12.0106997885
 21
8.2396146004
  0
LINE
  5
331
100
AcDbEntity
  8
0
100
AcDbLine
 62
4
  6
CONTINUOUS
 10
12.0184643534
 20
9.0551115962
 11
12.0184643534
 21
8.9971560432
  0
LINE
  5
332
100
AcDbEntity
  8
0
100
AcDbLine
 62
4
  6
CONTINUOUS
 10
12.0184643534
 20
9.1710227022
 11
12.0184643534
 21
9.2289782552
  0
LINE
  5
333
100
AcDbEntity
  8
0
100
AcDbLine
 62
7
  6
CONTINUOUS
 10
12.0999922854
 20
9.8418851882
 11
12.0999922854
 21
7.66855172
  0
LINE
  5
334
100
AcDbEntity
  8
0
100
AcDbLine
 62
4
  6
CONTINUOUS
 10
11.9951706586
 20
8.0386738793
 11
11.9874060936
 21
8.0311738851
  0
LINE
  5
335
100
AcDbEntity
  8
0
100
AcDbLine
 62
7
  6
CONTINUOUS
 10
10.5076037718
 20
6.4082387821
 11
10.5088227423
 21
6.4093943165
  0
LINE
  5
336
100
AcDbEntity
  8
0
100
AcDbLine
 62
7
  6
CONTINUOUS
 10
12.0999922854
 20
7.66855172
 11
11.5903780108
 21
7.1763021016
  0
LINE
  5
337
100
AcDbEntity
  8
0
100
AcDbLine
 62
7
  6
CONTINUOUS
 10
10.5184134592
 20
6.4183194854
 11
10.5088227381
 21
6.4093943126
  0
LINE
  5
338
100
AcDbEntity
  8
0
100
AcDbLine
 62
7
  6
CONTINUOUS
 10
11.9516845041
 20
9.8521703678
 11
12.0999922854
 21
9.8418851882
  0
LINE
  5
339
100
AcDbEntity
  8
0
100
AcDbLine
 62
7
  6
CONTINUOUS
 10
11.6319475763
 20
6.4632137752
 11
11.9391655293
 21
6.7599635479
  0
LINE
  5
33A
100
AcDbEntity
  8
0
100
AcDbLine
 62
7
  6
CONTINUOUS
 10
11.6310127862
 20
6.4623276322
 11
11.6319475763
 21
6.4632137752
  0
LINE
  5
33B
100
AcDbEntity
  8
0
100
AcDbLine
 62
7
  6
CONTINUOUS
 10
11.6310127862
 20
6.4623276322
 11
11.6011463597
 21
6.4345337871
  0
LINE
  5
33C
100
AcDbEntity
  8
0
100
AcDbLine
 62
7
  6
CONTINUOUS
 10
11.601745055
 20
10.7218759422
 11
11.6316887574
 21
10.6898556369
  0
LINE
  5
33D
100
AcDbEntity
  8
0
100
AcDbLine
 62
7
  6
CONTINUOUS
 10
11.1724094893
 20
10.6212259041
 11
10.3272243412
 21
10.6798396932
  0
LINE
  5
33E
100
AcDbEntity
  8
0
100
AcDbLine
 62
7
  6
CONTINUOUS
 10
11.1804328731
 20
10.6589196005
 11
10.335247725
 21
10.7175333896
  0
LINE
  5
33F
100
AcDbEntity
  8
0
100
AcDbLine
 62
7
  6
CONTINUOUS
 10
11.3859902194
 20
5.8827587691
 11
11.3608278666
 21
5.8703290486
  0
LINE
  5
340
100
AcDbEntity
  8
0
100
AcDbLine
 62
7
  6
CONTINUOUS
 10
11.9379719203
 20
11.0377319433
 11
11.9081054939
 21
11.0655257884
  0
LINE
  5
341
100
AcDbEntity
  8
0
100
AcDbLine
 62
7
  6
CONTINUOUS
 10
11.908963008
 20
11.0186257148
 11
11.9389067104
 21
10.9866054096
  0
LINE
  5
342
100
AcDbEntity
  8
0
100
AcDbLine
 62
7
  6
CONTINUOUS
 10
10.8205330341
 20
11.1862830306
 11
11.6657181821
 21
11.1276692415
  0
ARC
  5
343
100
AcDbEntity
  8
0
100
AcDbCircle
 62
7
  6
CONTINUOUS
 10
10.9877432275
 20
7.9625842834
 40
1.7134727463
100
AcDbArc
 50
273.0082929995
 51
274.9259690708
  0
ARC
  5
344
100
AcDbEntity
  8
0
100
AcDbCircle
 62
7
  6
CONTINUOUS
 10
10.9877432275
 20
7.5419850577
 40
1.7134727463
100
AcDbArc
 50
273.0082929995
 51
274.9259690708
  0
ARC
  5
345
100
AcDbEntity
  8
0
100
AcDbCircle
 62
7
  6
CONTINUOUS
 10
10.7355402157
 20
8.6911798452
 40
0.2178419798
100
AcDbArc
 50
136.4909486795
 51
138.6386504053
  0
ARC
  5
346
100
AcDbEntity
  8
0
100
AcDbCircle
 62
7
  6
CONTINUOUS
 10
11.1315697957
 20
8.3295047872
 40
0.2178419798
100
AcDbArc
 50
136.4909486795
 51
138.6386504052
  0
ARC
  5
347
100
AcDbEntity
  8
0
100
AcDbCircle
 62
7
  6
CONTINUOUS
 10
10.3404765203
 20
8.3843672922
 40
0.2178419798
100
AcDbArc
 50
136.4909486795
 51
138.6386504052
  0
ARC
  5
348
100
AcDbEntity
  8
0
100
AcDbCircle
 62
7
  6
CONTINUOUS
 10
10.7355402157
 20
8.0256570165
 40
0.2178419799
100
AcDbArc
 50
136.4909486795
 51
138.6386504052
  0
ARC
  5
349
100
AcDbEntity
  8
0
100
AcDbCircle
 62
7
  6
CONTINUOUS
 10
10.7802287322
 20
8.644914165
 40
0.2178344772
100
AcDbArc
 50
309.3751520602
 51
311.6337319757
  0
ARC
  5
34A
100
AcDbEntity
  8
0
100
AcDbCircle
 62
7
  6
CONTINUOUS
 10
11.1762583122
 20
8.2832391071
 40
0.2178344772
100
AcDbArc
 50
309.3751520603
 51
311.6337319757
  0
ARC
  5
34B
100
AcDbEntity
  8
0
100
AcDbCircle
 62
7
  6
CONTINUOUS
 10
10.3851650368
 20
8.338101612
 40
0.2178344771
100
AcDbArc
 50
309.3751520602
 51
311.6337319757
  0
ARC
  5
34C
100
AcDbEntity
  8
0
100
AcDbCircle
 62
7
  6
CONTINUOUS
 10
10.7802287322
 20
7.9793913363
 40
0.2178344771
100
AcDbArc
 50
309.3751520602
 51
311.6337319757
  0
ARC
  5
34D
100
AcDbEntity
  8
0
100
AcDbCircle
 62
7
  6
CONTINUOUS
 10
10.870798395
 20
8.6490054879
 40
0.0664124124
100
AcDbArc
 50
239.3807718262
 51
241.5208159806
  0
SPLINE
  5
34E
100
AcDbEntity
  8
0
100
AcDbSpline
 62
7
  6
CONTINUOUS
 70
0
 71
3
 72
59
 73
55
 74
0
 42
0.0000001
 43
0.0000001
 44
0.0000000001
 40
0.0
 40
0.0
 40
0.0
 40
0.0
 40
0.0312933912
 40
0.0470051607
 40
0.0627505931
 40
0.0785298576
 40
0.0943431212
 40
0.1101892587
 40
0.1260657201
 40
0.1578897329
 40
0.1738404341
 40
0.1898100501
 40
0.2217840878
 40
0.253792059
 40
0.2698037743
 40
0.285812874
 40
0.3018156403
 40
0.3178083847
 40
0.3337876153
 40
0.34974989
 40
0.3656919384
 40
0.3816107659
 40
0.3975035069
 40
0.4133676001
 40
0.4449921603
 40
0.4764786728
 40
0.4921716568
 40
0.5078272134
 40
0.5234450648
 40
0.5390253053
 40
0.554568483
 40
0.5700753712
 40
0.5855471686
 40
0.6009854438
 40
0.6163919561
 40
0.6317688982
 40
0.6624338107
 40
0.6930124274
 40
0.7082823377
 40
0.723540463
 40
0.7387902767
 40
0.7540353394
 40
0.7845155781
 40
0.8150205883
 40
0.830296371
 40
0.8455886936
 40
0.8609009075
 40
0.8762360632
 40
0.9069757575
 40
0.922394336
 40
0.9378453212
 40
0.9533320662
 40
0.9688571643
 40
1.0
 40
1.0
 40
1.0
 40
1.0
 10
10.1246015353
 20
8.3659448816
 30
0.0
 10
10.1246016314
 20
8.3584313956
 30
0.0
 10
10.1251584402
 20
8.3471356303
 30
0.0
 10
10.126989329
 20
8.3321771168
 30
0.0
 10
10.1289094631
 20
8.3209946072
 30
0.0
 10
10.13136778
 20
8.3098935587
 30
0.0
 10
10.1343585716
 20
8.2988988917
 30
0.0
 10
10.1378742795
 20
8.2880358592
 30
0.0
 10
10.1432516715
 20
8.2737528997
 30
0.0
 10
10.1496422589
 20
8.2598413479
 30
0.0
 10
10.1569868281
 20
8.2464089654
 30
0.0
 10
10.1649663818
 20
8.2333008561
 30
0.0
 10
10.1760778225
 20
8.2176118665
 30
0.0
 10
10.1885946716
 20
8.2030061383
 30
0.0
 10
10.1993825696
 20
8.1920473264
 30
0.0
 10
10.2078447131
 20
8.1842089595
 30
0.0
 10
10.216654982
 20
8.1767714472
 30
0.0
 10
10.2257934922
 20
8.1697527736
 30
0.0
 10
10.235238853
 20
8.1631698417
 30
0.0
 10
10.2449684289
 20
8.15703751
 30
0.0
 10
10.2549600875
 20
8.1513714116
 30
0.0
 10
10.2651901479
 20
8.1461849709
 30
0.0
 10
10.2756347106
 20
8.1414900847
 30
0.0
 10
10.2897972686
 20
8.1359093848
 30
0.0
 10
10.3079148824
 20
8.1302127958
 30
0.0
 10
10.3264541002
 20
8.1262796547
 30
0.0
 10
10.3414051148
 20
8.1242249063
 30
0.0
 10
10.352642744
 20
8.1232343454
 30
0.0
 10
10.3638880863
 20
8.1227947779
 30
0.0
 10
10.3751145833
 20
8.1229088332
 30
0.0
 10
10.3862950669
 20
8.1235772875
 30
0.0
 10
10.3974026259
 20
8.1247982093
 30
0.0
 10
10.4084101825
 20
8.1265706932
 30
0.0
 10
10.4192907824
 20
8.1288907275
 30
0.0
 10
10.430018289
 20
8.1317528708
 30
0.0
 10
10.4440657867
 20
8.1362799933
 30
0.0
 10
10.4611235486
 20
8.1432609398
 30
0.0
 10
10.4773469777
 20
8.1519545196
 30
0.0
 10
10.4897044133
 20
8.1598736784
 30
0.0
 10
10.4986407577
 20
8.1662815492
 30
0.0
 10
10.5072262967
 20
8.173142802
 30
0.0
 10
10.5181735417
 20
8.1828717004
 30
0.0
 10
10.5308846538
 20
8.1960900142
 30
0.0
 10
10.5421496781
 20
8.21056958
 30
0.0
 10
10.550227591
 20
8.222814127
 30
0.0
 10
10.555810198
 20
8.2323164404
 30
0.0
 10
10.5609005757
 20
8.2421074325
 30
0.0
 10
10.5670184776
 20
8.2555220966
 30
0.0
 10
10.5721016957
 20
8.2694167688
 30
0.0
 10
10.5761128961
 20
8.2836597023
 30
0.0
 10
10.5785853692
 20
8.2945167456
 30
0.0
 10
10.5805135633
 20
8.3055095494
 30
0.0
 10
10.5823533905
 20
8.3203231915
 30
0.0
 10
10.5829036391
 20
8.3315386771
 30
0.0
 10
10.5829037278
 20
8.339016015
 30
0.0
  0
SPLINE
  5
34F
100
AcDbEntity
  8
0
100
AcDbSpline
 62
7
  6
CONTINUOUS
 70
0
 71
3
 72
55
 73
51
 74
0
 42
0.0000001
 43
0.0000001
 44
0.0000000001
 40
0.0
 40
0.0
 40
0.0
 40
0.0
 40
0.0310511431
 40
0.046469542
 40
0.0618068656
 40
0.0922439947
 40
0.1224116362
 40
0.1374118855
 40
0.1523601539
 40
0.1821187326
 40
0.2117577038
 40
0.226557911
 40
0.2413530206
 40
0.2709518339
 40
0.3006320003
 40
0.3304567348
 40
0.360482795
 40
0.3755913109
 40
0.3907670899
 40
0.4213254823
 40
0.4521919519
 40
0.467749097
 40
0.4833864454
 40
0.5148885451
 40
0.5307594002
 40
0.5467035145
 40
0.562717463
 40
0.5787975149
 40
0.5949390091
 40
0.6111368482
 40
0.6436710552
 40
0.6600038223
 40
0.6763689733
 40
0.6927597044
 40
0.7091689526
 40
0.725589693
 40
0.7420147626
 40
0.758436849
 40
0.774848786
 40
0.807605299
 40
0.8239444644
 40
0.8402460798
 40
0.8565038931
 40
0.8727119311
 40
0.8888644466
 40
0.9049557354
 40
0.9369284522
 40
0.9528148548
 40
0.9686288622
 40
1.0
 40
1.0
 40
1.0
 40
1.0
 10
10.5129037231
 20
8.3390161454
 30
0.0
 10
10.5129036151
 20
8.3338367133
 30
0.0
 10
10.5125236843
 20
8.3260781009
 30
0.0
 10
10.5112515486
 20
8.3158441448
 30
0.0
 10
10.5094843495
 20
8.3057871681
 30
0.0
 10
10.5063505981
 20
8.2934897059
 30
0.0
 10
10.5019936386
 20
8.2816296981
 30
0.0
 10
10.4978136478
 20
8.2725105019
 30
0.0
 10
10.49319594
 20
8.2636819495
 30
0.0
 10
10.4865939558
 20
8.2531556907
 30
0.0
 10
10.478935472
 20
8.2434022276
 30
0.0
 10
10.4722346467
 20
8.2361356775
 30
0.0
 10
10.4651636653
 20
8.2292385003
 30
0.0
 10
10.4556433778
 20
8.2213233833
 30
0.0
 10
10.4432532123
 20
8.2130655789
 30
0.0
 10
10.4300027511
 20
8.2061190117
 30
0.0
 10
10.4183619038
 20
8.2014892161
 30
0.0
 10
10.4087517672
 20
8.1985019188
 30
0.0
 10
10.3989149198
 20
8.1959892546
 30
0.0
 10
10.3863067733
 20
8.1937782997
 30
0.0
 10
10.3734776416
 20
8.1928405148
 30
0.0
 10
10.3631219743
 20
8.1928512311
 30
0.0
 10
10.3526738108
 20
8.1933767597
 30
0.0
 10
10.3422240716
 20
8.1946742896
 30
0.0
 10
10.3318611034
 20
8.1967278327
 30
0.0
 10
10.3241149859
 20
8.1986507984
 30
0.0
 10
10.3164355913
 20
8.2009488444
 30
0.0
 10
10.3088422498
 20
8.2036179094
 30
0.0
 10
10.3013536037
 20
8.2066511575
 30
0.0
 10
10.291521404
 20
8.2111775858
 30
0.0
 10
10.2819871173
 20
8.216401406
 30
0.0
 10
10.2728244755
 20
8.2222752542
 30
0.0
 10
10.2661388986
 20
8.2270080262
 30
0.0
 10
10.2596666817
 20
8.2320489602
 30
0.0
 10
10.2534239428
 20
8.2373858376
 30
0.0
 10
10.2474272104
 20
8.2430060934
 30
0.0
 10
10.2416909398
 20
8.2488948271
 30
0.0
 10
10.2362293524
 20
8.2550375703
 30
0.0
 10
10.2293387123
 20
8.2635393275
 30
0.0
 10
10.2230434827
 20
8.2724929244
 30
0.0
 10
10.2173971213
 20
8.2818297708
 30
0.0
 10
10.2134999059
 20
8.288998401
 30
0.0
 10
10.2099470093
 20
8.2963192573
 30
0.0
 10
10.2067476986
 20
8.303774354
 30
0.0
 10
10.2039084322
 20
8.3113444727
 30
0.0
 10
10.2006188516
 20
8.3215414312
 30
0.0
 10
10.1980634621
 20
8.3319175759
 30
0.0
 10
10.1962682639
 20
8.3423891469
 30
0.0
 10
10.1949912457
 20
8.3528348124
 30
0.0
 10
10.1946016591
 20
8.3607121528
 30
0.0
 10
10.1946015408
 20
8.365944961
 30
0.0
  0
SPLINE
  5
350
100
AcDbEntity
  8
0
100
AcDbSpline
 62
7
  6
CONTINUOUS
 70
0
 71
3
 72
59
 73
55
 74
0
 42
0.0000001
 43
0.0000001
 44
0.0000000001
 40
0.0
 40
0.0
 40
0.0
 40
0.0
 40
0.0312933905
 40
0.0470051593
 40
0.0627505916
 40
0.0785298567
 40
0.0943431212
 40
0.11018926
 40
0.1260657227
 40
0.1578897383
 40
0.1738404407
 40
0.1898100577
 40
0.2217840973
 40
0.2537920702
 40
0.2698037859
 40
0.2858128856
 40
0.3018156519
 40
0.3178083963
 40
0.333787627
 40
0.3497499021
 40
0.3656919511
 40
0.3816107794
 40
0.3975035215
 40
0.4133676164
 40
0.4449921827
 40
0.4764787042
 40
0.4921716905
 40
0.507827246
 40
0.5234450933
 40
0.5390253273
 40
0.5545684969
 40
0.5700753773
 40
0.5855471689
 40
0.6009854404
 40
0.61639195
 40
0.6317688895
 40
0.6624337973
 40
0.6930124137
 40
0.7082823289
 40
0.7235404623
 40
0.7387902835
 40
0.7540353487
 40
0.784515582
 40
0.8150205946
 40
0.8302963816
 40
0.8455887087
 40
0.8609009271
 40
0.8762360868
 40
0.9069757879
 40
0.9223943692
 40
0.9378453536
 40
0.9533320928
 40
0.9688571808
 40
1.0
 40
1.0
 40
1.0
 40
1.0
 10
10.5829037268
 20
8.3390161137
 30
0.0
 10
10.5829036306
 20
8.3465295996
 30
0.0
 10
10.582346822
 20
8.3578253645
 30
0.0
 10
10.5805159331
 20
8.3727838777
 30
0.0
 10
10.5785957991
 20
8.3839663873
 30
0.0
 10
10.5761374822
 20
8.3950674361
 30
0.0
 10
10.5731466904
 20
8.4060621038
 30
0.0
 10
10.5696309821
 20
8.416925137
 30
0.0
 10
10.5642535896
 20
8.4312080978
 30
0.0
 10
10.5578630015
 20
8.4451196506
 30
0.0
 10
10.5505184315
 20
8.458552034
 30
0.0
 10
10.5425388771
 20
8.4716601441
 30
0.0
 10
10.5314274354
 20
8.4873491343
 30
0.0
 10
10.5189105849
 20
8.5019548626
 30
0.0
 10
10.5081226865
 20
8.5129136748
 30
0.0
 10
10.4996605426
 20
8.5207520415
 30
0.0
 10
10.4908502733
 20
8.5281895533
 30
0.0
 10
10.4817117631
 20
8.5352082269
 30
0.0
 10
10.4722664018
 20
8.5417911584
 30
0.0
 10
10.4625368253
 20
8.5479234897
 30
0.0
 10
10.4525451664
 20
8.5535895883
 30
0.0
 10
10.4423151051
 20
8.5587760285
 30
0.0
 10
10.4318705414
 20
8.5634709147
 30
0.0
 10
10.4177079812
 20
8.569051615
 30
0.0
 10
10.3995903632
 20
8.5747482043
 30
0.0
 10
10.3810511407
 20
8.5786813434
 30
0.0
 10
10.3661001237
 20
8.5807360921
 30
0.0
 10
10.354862495
 20
8.5817266517
 30
0.0
 10
10.3436171554
 20
8.582166217
 30
0.0
 10
10.332390663
 20
8.582052162
 30
0.0
 10
10.3212101847
 20
8.5813837073
 30
0.0
 10
10.3101026311
 20
8.5801627852
 30
0.0
 10
10.2990950786
 20
8.5783903017
 30
0.0
 10
10.2882144815
 20
8.5760702682
 30
0.0
 10
10.277486977
 20
8.5732081256
 30
0.0
 10
10.2634394814
 20
8.5686810042
 30
0.0
 10
10.2463817211
 20
8.5617000587
 30
0.0
 10
10.2301582911
 20
8.5530064806
 30
0.0
 10
10.2178008532
 20
8.5450873196
 30
0.0
 10
10.2088645051
 20
8.5386794455
 30
0.0
 10
10.2002789626
 20
8.5318181902
 30
0.0
 10
10.1893317158
 20
8.522089292
 30
0.0
 10
10.1766206049
 20
8.5088709771
 30
0.0
 10
10.1653555813
 20
8.4943914106
 30
0.0
 10
10.1572776666
 20
8.4821468615
 30
0.0
 10
10.1516950585
 20
8.472644545
 30
0.0
 10
10.1466046805
 20
8.4628535496
 30
0.0
 10
10.1404867768
 20
8.4494388823
 30
0.0
 10
10.1354035606
 20
8.4355442058
 30
0.0
 10
10.1313923599
 20
8.4213012702
 30
0.0
 10
10.1289198888
 20
8.4104442273
 30
0.0
 10
10.1269916964
 20
8.3994514274
 30
0.0
 10
10.1251518691
 20
8.3846377931
 30
0.0
 10
10.1246016229
 20
8.3734223137
 30
0.0
 10
10.1246015342
 20
8.3659449798
 30
0.0
  0
SPLINE
  5
351
100
AcDbEntity
  8
0
100
AcDbSpline
 62
7
  6
CONTINUOUS
 70
0
 71
3
 72
55
 73
51
 74
0
 42
0.0000001
 43
0.0000001
 44
0.0000000001
 40
0.0
 40
0.0
 40
0.0
 40
0.0
 40
0.0310511433
 40
0.0464695423
 40
0.0618068661
 40
0.0922439949
 40
0.1224116361
 40
0.1374118853
 40
0.1523601534
 40
0.1821187318
 40
0.2117577027
 40
0.2265579098
 40
0.2413530192
 40
0.2709518325
 40
0.300631999
 40
0.3304567339
 40
0.3604827947
 40
0.3755913108
 40
0.3907670901
 40
0.4213254826
 40
0.4521919517
 40
0.4677490961
 40
0.4833864435
 40
0.5148885409
 40
0.5307593952
 40
0.5467035089
 40
0.5627174576
 40
0.5787975103
 40
0.5949390057
 40
0.6111368461
 40
0.6436710556
 40
0.6600038234
 40
0.676368975
 40
0.6927597062
 40
0.7091689542
 40
0.7255896943
 40
0.7420147636
 40
0.7584368496
 40
0.7748487862
 40
0.8076052989
 40
0.8239444646
 40
0.8402460806
 40
0.8565038946
 40
0.8727119335
 40
0.8888644501
 40
0.9049557398
 40
0.9369284571
 40
0.9528148589
 40
0.9686288652
 40
1.0
 40
1.0
 40
1.0
 40
1.0
 10
10.194601539
 20
8.3659448499
 30
0.0
 10
10.194601647
 20
8.3711242819
 30
0.0
 10
10.1949815777
 20
8.3788828944
 30
0.0
 10
10.1962537135
 20
8.3891168506
 30
0.0
 10
10.1980209126
 20
8.3991738273
 30
0.0
 10
10.201154664
 20
8.4114712895
 30
0.0
 10
10.2055116234
 20
8.4233312971
 30
0.0
 10
10.2096916142
 20
8.4324504933
 30
0.0
 10
10.2143093219
 20
8.4412790455
 30
0.0
 10
10.220911306
 20
8.4518053043
 30
0.0
 10
10.2285697897
 20
8.4615587673
 30
0.0
 10
10.2352706149
 20
8.4688253173
 30
0.0
 10
10.2423415963
 20
8.4757224945
 30
0.0
 10
10.2518618837
 20
8.4836376116
 30
0.0
 10
10.2642520493
 20
8.4918954161
 30
0.0
 10
10.2775025106
 20
8.4988419834
 30
0.0
 10
10.2891433581
 20
8.5034717791
 30
0.0
 10
10.2987534949
 20
8.5064590764
 30
0.0
 10
10.3085903424
 20
8.5089717407
 30
0.0
 10
10.3211984889
 20
8.5111826956
 30
0.0
 10
10.3340276204
 20
8.5121204804
 30
0.0
 10
10.3443832873
 20
8.5121097641
 30
0.0
 10
10.3548314502
 20
8.5115842357
 30
0.0
 10
10.3652811886
 20
8.5102867059
 30
0.0
 10
10.3756441563
 20
8.5082331631
 30
0.0
 10
10.3833902737
 20
8.5063101976
 30
0.0
 10
10.3910696683
 20
8.5040121516
 30
0.0
 10
10.3986630102
 20
8.5013430865
 30
0.0
 10
10.4061516569
 20
8.4983098384
 30
0.0
 10
10.4159838574
 20
8.4937834098
 30
0.0
 10
10.4255181447
 20
8.4885595892
 30
0.0
 10
10.4346807871
 20
8.4826857408
 30
0.0
 10
10.4413663641
 20
8.4779529686
 30
0.0
 10
10.4478385811
 20
8.4729120344
 30
0.0
 10
10.4540813199
 20
8.4675751571
 30
0.0
 10
10.4600780522
 20
8.4619549013
 30
0.0
 10
10.4658143227
 20
8.4560661678
 30
0.0
 10
10.4712759099
 20
8.4499234247
 30
0.0
 10
10.4781665499
 20
8.4414216676
 30
0.0
 10
10.4844617794
 20
8.4324680707
 30
0.0
 10
10.4901081409
 20
8.4231312242
 30
0.0
 10
10.4940053563
 20
8.4159625938
 30
0.0
 10
10.4975582531
 20
8.4086417372
 30
0.0
 10
10.500757564
 20
8.40118664
 30
0.0
 10
10.5035968304
 20
8.3936165208
 30
0.0
 10
10.5068864111
 20
8.3834195619
 30
0.0
 10
10.5094418004
 20
8.373043417
 30
0.0
 10
10.5112369985
 20
8.3625718462
 30
0.0
 10
10.5125140166
 20
8.3521261815
 30
0.0
 10
10.512903603
 20
8.3442488418
 30
0.0
 10
10.5129037212
 20
8.3390160341
 30
0.0
  0
SPLINE
  5
352
100
AcDbEntity
  8
0
100
AcDbSpline
 62
7
  6
CONTINUOUS
 70
0
 71
3
 72
59
 73
55
 74
0
 42
0.0000001
 43
0.0000001
 44
0.0000000001
 40
0.0
 40
0.0
 40
0.0
 40
0.0
 40
0.0312933912
 40
0.0470051607
 40
0.0627505931
 40
0.0785298576
 40
0.0943431212
 40
0.1101892587
 40
0.1260657201
 40
0.1578897329
 40
0.1738404341
 40
0.1898100501
 40
0.2217840878
 40
0.253792059
 40
0.2698037743
 40
0.285812874
 40
0.3018156403
 40
0.3178083847
 40
0.3337876153
 40
0.34974989
 40
0.3656919384
 40
0.3816107659
 40
0.3975035069
 40
0.4133676001
 40
0.4449921603
 40
0.4764786728
 40
0.4921716568
 40
0.5078272134
 40
0.5234450648
 40
0.5390253053
 40
0.554568483
 40
0.5700753712
 40
0.5855471686
 40
0.6009854438
 40
0.6163919561
 40
0.6317688982
 40
0.6624338107
 40
0.6930124274
 40
0.7082823377
 40
0.723540463
 40
0.7387902767
 40
0.7540353394
 40
0.7845155781
 40
0.8150205883
 40
0.830296371
 40
0.8455886936
 40
0.8609009075
 40
0.8762360632
 40
0.9069757575
 40
0.922394336
 40
0.9378453212
 40
0.9533320662
 40
0.9688571643
 40
1.0
 40
1.0
 40
1.0
 40
1.0
 10
10.5196652306
 20
8.0072346058
 30
0.0
 10
10.5196653268
 20
7.9997211199
 30
0.0
 10
10.5202221356
 20
7.9884253546
 30
0.0
 10
10.5220530244
 20
7.9734668411
 30
0.0
 10
10.5239731584
 20
7.9622843314
 30
0.0
 10
10.5264314753
 20
7.951183283
 30
0.0
 10
10.529422267
 20
7.9401886159
 30
0.0
 10
10.5329379749
 20
7.9293255835
 30
0.0
 10
10.5383153669
 20
7.9150426239
 30
0.0
 10
10.5447059543
 20
7.9011310722
 30
0.0
 10
10.5520505235
 20
7.8876986897
 30
0.0
 10
10.5600300771
 20
7.8745905803
 30
0.0
 10
10.5711415178
 20
7.8589015908
 30
0.0
 10
10.583658367
 20
7.8442958626
 30
0.0
 10
10.5944462649
 20
7.8333370507
 30
0.0
 10
10.6029084084
 20
7.8254986838
 30
0.0
 10
10.6117186773
 20
7.8180611714
 30
0.0
 10
10.6208571875
 20
7.8110424979
 30
0.0
 10
10.6303025483
 20
7.804459566
 30
0.0
 10
10.6400321242
 20
7.7983272343
 30
0.0
 10
10.6500237829
 20
7.7926611359
 30
0.0
 10
10.6602538432
 20
7.7874746952
 30
0.0
 10
10.6706984059
 20
7.782779809
 30
0.0
 10
10.684860964
 20
7.7771991091
 30
0.0
 10
10.7029785777
 20
7.7715025201
 30
0.0
 10
10.7215177955
 20
7.7675693789
 30
0.0
 10
10.7364688101
 20
7.7655146306
 30
0.0
 10
10.7477064393
 20
7.7645240697
 30
0.0
 10
10.7589517817
 20
7.7640845021
 30
0.0
 10
10.7701782786
 20
7.7641985574
 30
0.0
 10
10.7813587623
 20
7.7648670118
 30
0.0
 10
10.7924663212
 20
7.7660879335
 30
0.0
 10
10.8034738778
 20
7.7678604175
 30
0.0
 10
10.8143544778
 20
7.7701804518
 30
0.0
 10
10.8250819843
 20
7.773042595
 30
0.0
 10
10.8391294821
 20
7.7775697176
 30
0.0
 10
10.856187244
 20
7.784550664
 30
0.0
 10
10.8724106731
 20
7.7932442438
 30
0.0
 10
10.8847681086
 20
7.8011634026
 30
0.0
 10
10.8937044531
 20
7.8075712735
 30
0.0
 10
10.902289992
 20
7.8144325262
 30
0.0
 10
10.9132372371
 20
7.8241614247
 30
0.0
 10
10.9259483492
 20
7.8373797385
 30
0.0
 10
10.9372133734
 20
7.8518593042
 30
0.0
 10
10.9452912864
 20
7.8641038512
 30
0.0
 10
10.9508738933
 20
7.8736061647
 30
0.0
 10
10.955964271
 20
7.8833971567
 30
0.0
 10
10.9620821729
 20
7.8968118208
 30
0.0
 10
10.967165391
 20
7.9107064931
 30
0.0
 10
10.9711765914
 20
7.9249494265
 30
0.0
 10
10.9736490645
 20
7.9358064699
 30
0.0
 10
10.9755772586
 20
7.9467992736
 30
0.0
 10
10.9774170858
 20
7.9616129158
 30
0.0
 10
10.9779673344
 20
7.9728284014
 30
0.0
 10
10.9779674232
 20
7.9803057393
 30
0.0
  0
SPLINE
  5
353
100
AcDbEntity
  8
0
100
AcDbSpline
 62
7
  6
CONTINUOUS
 70
0
 71
3
 72
55
 73
51
 74
0
 42
0.0000001
 43
0.0000001
 44
0.0000000001
 40
0.0
 40
0.0
 40
0.0
 40
0.0
 40
0.0310511431
 40
0.046469542
 40
0.0618068656
 40
0.0922439947
 40
0.1224116362
 40
0.1374118855
 40
0.1523601539
 40
0.1821187326
 40
0.2117577038
 40
0.226557911
 40
0.2413530206
 40
0.2709518339
 40
0.3006320003
 40
0.3304567348
 40
0.360482795
 40
0.3755913109
 40
0.3907670899
 40
0.4213254823
 40
0.4521919519
 40
0.467749097
 40
0.4833864454
 40
0.5148885451
 40
0.5307594002
 40
0.5467035145
 40
0.562717463
 40
0.5787975149
 40
0.5949390091
 40
0.6111368482
 40
0.6436710552
 40
0.6600038223
 40
0.6763689733
 40
0.6927597044
 40
0.7091689526
 40
0.725589693
 40
0.7420147626
 40
0.758436849
 40
0.774848786
 40
0.807605299
 40
0.8239444644
 40
0.8402460798
 40
0.8565038931
 40
0.8727119311
 40
0.8888644466
 40
0.9049557354
 40
0.9369284522
 40
0.9528148548
 40
0.9686288622
 40
1.0
 40
1.0
 40
1.0
 40
1.0
 10
10.9079674184
 20
7.9803058697
 30
0.0
 10
10.9079673104
 20
7.9751264376
 30
0.0
 10
10.9075873797
 20
7.9673678252
 30
0.0
 10
10.9063152439
 20
7.9571338691
 30
0.0
 10
10.9045480448
 20
7.9470768924
 30
0.0
 10
10.9014142934
 20
7.9347794302
 30
0.0
 10
10.897057334
 20
7.9229194224
 30
0.0
 10
10.8928773431
 20
7.9138002261
 30
0.0
 10
10.8882596353
 20
7.9049716738
 30
0.0
 10
10.8816576512
 20
7.8944454149
 30
0.0
 10
10.8739991673
 20
7.8846919519
 30
0.0
 10
10.8672983421
 20
7.8774254018
 30
0.0
 10
10.8602273607
 20
7.8705282246
 30
0.0
 10
10.8507070731
 20
7.8626131076
 30
0.0
 10
10.8383169076
 20
7.8543553031
 30
0.0
 10
10.8250664465
 20
7.847408736
 30
0.0
 10
10.8134255991
 20
7.8427789404
 30
0.0
 10
10.8038154625
 20
7.8397916431
 30
0.0
 10
10.7939786151
 20
7.8372789789
 30
0.0
 10
10.7813704686
 20
7.835068024
 30
0.0
 10
10.7685413369
 20
7.8341302391
 30
0.0
 10
10.7581856697
 20
7.8341409554
 30
0.0
 10
10.7477375061
 20
7.834666484
 30
0.0
 10
10.737287767
 20
7.8359640139
 30
0.0
 10
10.7269247988
 20
7.8380175569
 30
0.0
 10
10.7191786812
 20
7.8399405227
 30
0.0
 10
10.7114992867
 20
7.8422385687
 30
0.0
 10
10.7039059451
 20
7.8449076337
 30
0.0
 10
10.6964172991
 20
7.8479408818
 30
0.0
 10
10.6865850993
 20
7.8524673101
 30
0.0
 10
10.6770508127
 20
7.8576911303
 30
0.0
 10
10.6678881708
 20
7.8635649784
 30
0.0
 10
10.661202594
 20
7.8682977504
 30
0.0
 10
10.654730377
 20
7.8733386845
 30
0.0
 10
10.6484876382
 20
7.8786755618
 30
0.0
 10
10.6424909057
 20
7.8842958177
 30
0.0
 10
10.6367546351
 20
7.8901845513
 30
0.0
 10
10.6312930477
 20
7.8963272945
 30
0.0
 10
10.6244024077
 20
7.9048290518
 30
0.0
 10
10.6181071781
 20
7.9137826487
 30
0.0
 10
10.6124608166
 20
7.9231194951
 30
0.0
 10
10.6085636013
 20
7.9302881253
 30
0.0
 10
10.6050107046
 20
7.9376089815
 30
0.0
 10
10.6018113939
 20
7.9450640783
 30
0.0
 10
10.5989721275
 20
7.952634197
 30
0.0
 10
10.5956825469
 20
7.9628311555
 30
0.0
 10
10.5931271574
 20
7.9732073002
 30
0.0
 10
10.5913319592
 20
7.9836788711
 30
0.0
 10
10.590054941
 20
7.9941245367
 30
0.0
 10
10.5896653544
 20
8.0020018771
 30
0.0
 10
10.5896652362
 20
8.0072346853
 30
0.0
  0
SPLINE
  5
354
100
AcDbEntity
  8
0
100
AcDbSpline
 62
7
  6
CONTINUOUS
 70
0
 71
3
 72
59
 73
55
 74
0
 42
0.0000001
 43
0.0000001
 44
0.0000000001
 40
0.0
 40
0.0
 40
0.0
 40
0.0
 40
0.0312933905
 40
0.0470051593
 40
0.0627505916
 40
0.0785298567
 40
0.0943431212
 40
0.11018926
 40
0.1260657227
 40
0.1578897383
 40
0.1738404407
 40
0.1898100577
 40
0.2217840973
 40
0.2537920702
 40
0.2698037859
 40
0.2858128856
 40
0.3018156519
 40
0.3178083963
 40
0.333787627
 40
0.3497499021
 40
0.3656919511
 40
0.3816107794
 40
0.3975035215
 40
0.4133676164
 40
0.4449921827
 40
0.4764787042
 40
0.4921716905
 40
0.507827246
 40
0.5234450933
 40
0.5390253273
 40
0.5545684969
 40
0.5700753773
 40
0.5855471689
 40
0.6009854404
 40
0.61639195
 40
0.6317688895
 40
0.6624337973
 40
0.6930124137
 40
0.7082823289
 40
0.7235404623
 40
0.7387902835
 40
0.7540353487
 40
0.784515582
 40
0.8150205946
 40
0.8302963816
 40
0.8455887087
 40
0.8609009271
 40
0.8762360868
 40
0.9069757879
 40
0.9223943692
 40
0.9378453536
 40
0.9533320928
 40
0.9688571808
 40
1.0
 40
1.0
 40
1.0
 40
1.0
 10
10.9779674221
 20
7.980305838
 30
0.0
 10
10.977967326
 20
7.9878193238
 30
0.0
 10
10.9774105173
 20
7.9991150888
 30
0.0
 10
10.9755796284
 20
8.0140736019
 30
0.0
 10
10.9736594945
 20
8.0252561115
 30
0.0
 10
10.9712011776
 20
8.0363571604
 30
0.0
 10
10.9682103857
 20
8.047351828
 30
0.0
 10
10.9646946775
 20
8.0582148613
 30
0.0
 10
10.959317285
 20
8.072497822
 30
0.0
 10
10.9529266968
 20
8.0864093748
 30
0.0
 10
10.9455821269
 20
8.0998417583
 30
0.0
 10
10.9376025724
 20
8.1129498684
 30
0.0
 10
10.9264911307
 20
8.1286388586
 30
0.0
 10
10.9139742802
 20
8.1432445869
 30
0.0
 10
10.9031863818
 20
8.1542033991
 30
0.0
 10
10.894724238
 20
8.1620417657
 30
0.0
 10
10.8859139686
 20
8.1694792776
 30
0.0
 10
10.8767754584
 20
8.1764979511
 30
0.0
 10
10.8673300971
 20
8.1830808826
 30
0.0
 10
10.8576005207
 20
8.1892132139
 30
0.0
 10
10.8476088617
 20
8.1948793126
 30
0.0
 10
10.8373788004
 20
8.2000657528
 30
0.0
 10
10.8269342368
 20
8.204760639
 30
0.0
 10
10.8127716765
 20
8.2103413393
 30
0.0
 10
10.7946540586
 20
8.2160379286
 30
0.0
 10
10.7761148361
 20
8.2199710676
 30
0.0
 10
10.761163819
 20
8.2220258164
 30
0.0
 10
10.7499261904
 20
8.223016376
 30
0.0
 10
10.7386808508
 20
8.2234559413
 30
0.0
 10
10.7274543583
 20
8.2233418863
 30
0.0
 10
10.7162738801
 20
8.2226734316
 30
0.0
 10
10.7051663264
 20
8.2214525095
 30
0.0
 10
10.694158774
 20
8.219680026
 30
0.0
 10
10.6832781768
 20
8.2173599925
 30
0.0
 10
10.6725506723
 20
8.2144978499
 30
0.0
 10
10.6585031767
 20
8.2099707284
 30
0.0
 10
10.6414454164
 20
8.2029897829
 30
0.0
 10
10.6252219864
 20
8.1942962049
 30
0.0
 10
10.6128645486
 20
8.1863770439
 30
0.0
 10
10.6039282004
 20
8.1799691697
 30
0.0
 10
10.5953426579
 20
8.1731079145
 30
0.0
 10
10.5843954111
 20
8.1633790163
 30
0.0
 10
10.5716843002
 20
8.1501607014
 30
0.0
 10
10.5604192766
 20
8.1356811349
 30
0.0
 10
10.552341362
 20
8.1234365857
 30
0.0
 10
10.5467587538
 20
8.1139342693
 30
0.0
 10
10.5416683759
 20
8.1041432739
 30
0.0
 10
10.5355504721
 20
8.0907286065
 30
0.0
 10
10.5304672559
 20
8.07683393
 30
0.0
 10
10.5264560552
 20
8.0625909945
 30
0.0
 10
10.5239835842
 20
8.0517339516
 30
0.0
 10
10.5220553918
 20
8.0407411516
 30
0.0
 10
10.5202155644
 20
8.0259275173
 30
0.0
 10
10.5196653182
 20
8.014712038
 30
0.0
 10
10.5196652296
 20
8.0072347041
 30
0.0
  0
SPLINE
  5
355
100
AcDbEntity
  8
0
100
AcDbSpline
 62
7
  6
CONTINUOUS
 70
0
 71
3
 72
55
 73
51
 74
0
 42
0.0000001
 43
0.0000001
 44
0.0000000001
 40
0.0
 40
0.0
 40
0.0
 40
0.0
 40
0.0310511433
 40
0.0464695423
 40
0.0618068661
 40
0.0922439949
 40
0.1224116361
 40
0.1374118853
 40
0.1523601534
 40
0.1821187318
 40
0.2117577027
 40
0.2265579098
 40
0.2413530192
 40
0.2709518325
 40
0.300631999
 40
0.3304567339
 40
0.3604827947
 40
0.3755913108
 40
0.3907670901
 40
0.4213254826
 40
0.4521919517
 40
0.4677490961
 40
0.4833864435
 40
0.5148885409
 40
0.5307593952
 40
0.5467035089
 40
0.5627174576
 40
0.5787975103
 40
0.5949390057
 40
0.6111368461
 40
0.6436710556
 40
0.6600038234
 40
0.676368975
 40
0.6927597062
 40
0.7091689542
 40
0.7255896943
 40
0.7420147636
 40
0.7584368496
 40
0.7748487862
 40
0.8076052989
 40
0.8239444646
 40
0.8402460806
 40
0.8565038946
 40
0.8727119335
 40
0.8888644501
 40
0.9049557398
 40
0.9369284571
 40
0.9528148589
 40
0.9686288652
 40
1.0
 40
1.0
 40
1.0
 40
1.0
 10
10.5896652343
 20
8.0072345741
 30
0.0
 10
10.5896653423
 20
8.0124140062
 30
0.0
 10
10.5900452731
 20
8.0201726187
 30
0.0
 10
10.5913174089
 20
8.0304065749
 30
0.0
 10
10.5930846079
 20
8.0404635516
 30
0.0
 10
10.5962183593
 20
8.0527610137
 30
0.0
 10
10.6005753187
 20
8.0646210214
 30
0.0
 10
10.6047553096
 20
8.0737402176
 30
0.0
 10
10.6093730173
 20
8.0825687698
 30
0.0
 10
10.6159750013
 20
8.0930950286
 30
0.0
 10
10.6236334851
 20
8.1028484916
 30
0.0
 10
10.6303343102
 20
8.1101150416
 30
0.0
 10
10.6374052916
 20
8.1170122188
 30
0.0
 10
10.6469255791
 20
8.1249273359
 30
0.0
 10
10.6593157446
 20
8.1331851404
 30
0.0
 10
10.6725662059
 20
8.1401317077
 30
0.0
 10
10.6842070535
 20
8.1447615034
 30
0.0
 10
10.6938171902
 20
8.1477488007
 30
0.0
 10
10.7036540377
 20
8.150261465
 30
0.0
 10
10.7162621842
 20
8.1524724199
 30
0.0
 10
10.7290913157
 20
8.1534102047
 30
0.0
 10
10.7394469826
 20
8.1533994884
 30
0.0
 10
10.7498951455
 20
8.1528739599
 30
0.0
 10
10.760344884
 20
8.1515764301
 30
0.0
 10
10.7707078516
 20
8.1495228874
 30
0.0
 10
10.778453969
 20
8.1475999219
 30
0.0
 10
10.7861333637
 20
8.1453018759
 30
0.0
 10
10.7937267055
 20
8.1426328108
 30
0.0
 10
10.8012153522
 20
8.1395995626
 30
0.0
 10
10.8110475527
 20
8.1350731341
 30
0.0
 10
10.8205818401
 20
8.1298493135
 30
0.0
 10
10.8297444824
 20
8.123975465
 30
0.0
 10
10.8364300595
 20
8.1192426929
 30
0.0
 10
10.8429022765
 20
8.1142017587
 30
0.0
 10
10.8491450152
 20
8.1088648814
 30
0.0
 10
10.8551417476
 20
8.1032446256
 30
0.0
 10
10.860878018
 20
8.097355892
 30
0.0
 10
10.8663396053
 20
8.091213149
 30
0.0
 10
10.8732302452
 20
8.0827113919
 30
0.0
 10
10.8795254748
 20
8.073757795
 30
0.0
 10
10.8851718362
 20
8.0644209485
 30
0.0
 10
10.8890690517
 20
8.057252318
 30
0.0
 10
10.8926219485
 20
8.0499314615
 30
0.0
 10
10.8958212593
 20
8.0424763643
 30
0.0
 10
10.8986605257
 20
8.0349062451
 30
0.0
 10
10.9019501065
 20
8.0247092861
 30
0.0
 10
10.9045054957
 20
8.0143331413
 30
0.0
 10
10.9063006938
 20
8.0038615705
 30
0.0
 10
10.907577712
 20
7.9934159058
 30
0.0
 10
10.9079672983
 20
7.9855385661
 30
0.0
 10
10.9079674166
 20
7.9803057583
 30
0.0
  0
SPLINE
  5
356
100
AcDbEntity
  8
0
100
AcDbSpline
 62
7
  6
CONTINUOUS
 70
0
 71
3
 72
59
 73
55
 74
0
 42
0.0000001
 43
0.0000001
 44
0.0000000001
 40
0.0
 40
0.0
 40
0.0
 40
0.0
 40
0.0312933912
 40
0.0470051607
 40
0.0627505931
 40
0.0785298576
 40
0.0943431212
 40
0.1101892587
 40
0.1260657201
 40
0.1578897329
 40
0.1738404341
 40
0.1898100501
 40
0.2217840878
 40
0.253792059
 40
0.2698037743
 40
0.285812874
 40
0.3018156403
 40
0.3178083847
 40
0.3337876153
 40
0.34974989
 40
0.3656919384
 40
0.3816107659
 40
0.3975035069
 40
0.4133676001
 40
0.4449921603
 40
0.4764786728
 40
0.4921716568
 40
0.5078272134
 40
0.5234450648
 40
0.5390253053
 40
0.554568483
 40
0.5700753712
 40
0.5855471686
 40
0.6009854438
 40
0.6163919561
 40
0.6317688982
 40
0.6624338107
 40
0.6930124274
 40
0.7082823377
 40
0.723540463
 40
0.7387902767
 40
0.7540353394
 40
0.7845155781
 40
0.8150205883
 40
0.830296371
 40
0.8455886936
 40
0.8609009075
 40
0.8762360632
 40
0.9069757575
 40
0.922394336
 40
0.9378453212
 40
0.9533320662
 40
0.9688571643
 40
1.0
 40
1.0
 40
1.0
 40
1.0
 10
10.5196652306
 20
8.6727574346
 30
0.0
 10
10.5196653268
 20
8.6652439486
 30
0.0
 10
10.5202221356
 20
8.6539481833
 30
0.0
 10
10.5220530244
 20
8.6389896698
 30
0.0
 10
10.5239731584
 20
8.6278071602
 30
0.0
 10
10.5264314753
 20
8.6167061117
 30
0.0
 10
10.529422267
 20
8.6057114447
 30
0.0
 10
10.5329379749
 20
8.5948484122
 30
0.0
 10
10.5383153669
 20
8.5805654527
 30
0.0
 10
10.5447059543
 20
8.5666539009
 30
0.0
 10
10.5520505235
 20
8.5532215184
 30
0.0
 10
10.5600300771
 20
8.5401134091
 30
0.0
 10
10.5711415178
 20
8.5244244195
 30
0.0
 10
10.583658367
 20
8.5098186913
 30
0.0
 10
10.5944462649
 20
8.4988598794
 30
0.0
 10
10.6029084084
 20
8.4910215125
 30
0.0
 10
10.6117186773
 20
8.4835840002
 30
0.0
 10
10.6208571875
 20
8.4765653266
 30
0.0
 10
10.6303025483
 20
8.4699823947
 30
0.0
 10
10.6400321242
 20
8.463850063
 30
0.0
 10
10.6500237829
 20
8.4581839646
 30
0.0
 10
10.6602538432
 20
8.4529975239
 30
0.0
 10
10.6706984059
 20
8.4483026377
 30
0.0
 10
10.684860964
 20
8.4427219378
 30
0.0
 10
10.7029785777
 20
8.4370253488
 30
0.0
 10
10.7215177955
 20
8.4330922077
 30
0.0
 10
10.7364688101
 20
8.4310374593
 30
0.0
 10
10.7477064393
 20
8.4300468984
 30
0.0
 10
10.7589517817
 20
8.4296073309
 30
0.0
 10
10.7701782786
 20
8.4297213862
 30
0.0
 10
10.7813587623
 20
8.4303898405
 30
0.0
 10
10.7924663212
 20
8.4316107623
 30
0.0
 10
10.8034738778
 20
8.4333832462
 30
0.0
 10
10.8143544778
 20
8.4357032805
 30
0.0
 10
10.8250819843
 20
8.4385654238
 30
0.0
 10
10.8391294821
 20
8.4430925463
 30
0.0
 10
10.856187244
 20
8.4500734928
 30
0.0
 10
10.8724106731
 20
8.4587670726
 30
0.0
 10
10.8847681086
 20
8.4666862314
 30
0.0
 10
10.8937044531
 20
8.4730941022
 30
0.0
 10
10.902289992
 20
8.479955355
 30
0.0
 10
10.9132372371
 20
8.4896842534
 30
0.0
 10
10.9259483492
 20
8.5029025672
 30
0.0
 10
10.9372133734
 20
8.517382133
 30
0.0
 10
10.9452912864
 20
8.52962668
 30
0.0
 10
10.9508738933
 20
8.5391289934
 30
0.0
 10
10.955964271
 20
8.5489199855
 30
0.0
 10
10.9620821729
 20
8.5623346496
 30
0.0
 10
10.967165391
 20
8.5762293218
 30
0.0
 10
10.9711765914
 20
8.5904722553
 30
0.0
 10
10.9736490645
 20
8.6013292986
 30
0.0
 10
10.9755772586
 20
8.6123221024
 30
0.0
 10
10.9774170858
 20
8.6271357445
 30
0.0
 10
10.9779673344
 20
8.6383512301
 30
0.0
 10
10.9779674232
 20
8.645828568
 30
0.0
  0
SPLINE
  5
357
100
AcDbEntity
  8
0
100
AcDbSpline
 62
7
  6
CONTINUOUS
 70
0
 71
3
 72
55
 73
51
 74
0
 42
0.0000001
 43
0.0000001
 44
0.0000000001
 40
0.0
 40
0.0
 40
0.0
 40
0.0
 40
0.0310511431
 40
0.046469542
 40
0.0618068656
 40
0.0922439947
 40
0.1224116362
 40
0.1374118855
 40
0.1523601539
 40
0.1821187326
 40
0.2117577038
 40
0.226557911
 40
0.2413530206
 40
0.2709518339
 40
0.3006320003
 40
0.3304567348
 40
0.360482795
 40
0.3755913109
 40
0.3907670899
 40
0.4213254823
 40
0.4521919519
 40
0.467749097
 40
0.4833864454
 40
0.5148885451
 40
0.5307594002
 40
0.5467035145
 40
0.562717463
 40
0.5787975149
 40
0.5949390091
 40
0.6111368482
 40
0.6436710552
 40
0.6600038223
 40
0.6763689733
 40
0.6927597044
 40
0.7091689526
 40
0.725589693
 40
0.7420147626
 40
0.758436849
 40
0.774848786
 40
0.807605299
 40
0.8239444644
 40
0.8402460798
 40
0.8565038931
 40
0.8727119311
 40
0.8888644466
 40
0.9049557354
 40
0.9369284522
 40
0.9528148548
 40
0.9686288622
 40
1.0
 40
1.0
 40
1.0
 40
1.0
 10
10.9079674184
 20
8.6458286984
 30
0.0
 10
10.9079673104
 20
8.6406492663
 30
0.0
 10
10.9075873797
 20
8.6328906539
 30
0.0
 10
10.9063152439
 20
8.6226566978
 30
0.0
 10
10.9045480448
 20
8.6125997211
 30
0.0
 10
10.9014142934
 20
8.6003022589
 30
0.0
 10
10.897057334
 20
8.5884422511
 30
0.0
 10
10.8928773431
 20
8.5793230548
 30
0.0
 10
10.8882596353
 20
8.5704945025
 30
0.0
 10
10.8816576512
 20
8.5599682437
 30
0.0
 10
10.8739991673
 20
8.5502147806
 30
0.0
 10
10.8672983421
 20
8.5429482305
 30
0.0
 10
10.8602273607
 20
8.5360510533
 30
0.0
 10
10.8507070731
 20
8.5281359363
 30
0.0
 10
10.8383169076
 20
8.5198781319
 30
0.0
 10
10.8250664465
 20
8.5129315647
 30
0.0
 10
10.8134255991
 20
8.5083017691
 30
0.0
 10
10.8038154625
 20
8.5053144718
 30
0.0
 10
10.7939786151
 20
8.5028018076
 30
0.0
 10
10.7813704686
 20
8.5005908527
 30
0.0
 10
10.7685413369
 20
8.4996530678
 30
0.0
 10
10.7581856697
 20
8.4996637841
 30
0.0
 10
10.7477375061
 20
8.5001893127
 30
0.0
 10
10.737287767
 20
8.5014868426
 30
0.0
 10
10.7269247988
 20
8.5035403857
 30
0.0
 10
10.7191786812
 20
8.5054633514
 30
0.0
 10
10.7114992867
 20
8.5077613974
 30
0.0
 10
10.7039059451
 20
8.5104304624
 30
0.0
 10
10.6964172991
 20
8.5134637105
 30
0.0
 10
10.6865850993
 20
8.5179901388
 30
0.0
 10
10.6770508127
 20
8.523213959
 30
0.0
 10
10.6678881708
 20
8.5290878072
 30
0.0
 10
10.661202594
 20
8.5338205792
 30
0.0
 10
10.654730377
 20
8.5388615132
 30
0.0
 10
10.6484876382
 20
8.5441983906
 30
0.0
 10
10.6424909057
 20
8.5498186464
 30
0.0
 10
10.6367546351
 20
8.5557073801
 30
0.0
 10
10.6312930477
 20
8.5618501233
 30
0.0
 10
10.6244024077
 20
8.5703518805
 30
0.0
 10
10.6181071781
 20
8.5793054774
 30
0.0
 10
10.6124608166
 20
8.5886423238
 30
0.0
 10
10.6085636013
 20
8.595810954
 30
0.0
 10
10.6050107046
 20
8.6031318102
 30
0.0
 10
10.6018113939
 20
8.610586907
 30
0.0
 10
10.5989721275
 20
8.6181570257
 30
0.0
 10
10.5956825469
 20
8.6283539842
 30
0.0
 10
10.5931271574
 20
8.6387301289
 30
0.0
 10
10.5913319592
 20
8.6492016999
 30
0.0
 10
10.590054941
 20
8.6596473654
 30
0.0
 10
10.5896653544
 20
8.6675247058
 30
0.0
 10
10.5896652362
 20
8.672757514
 30
0.0
  0
SPLINE
  5
358
100
AcDbEntity
  8
0
100
AcDbSpline
 62
7
  6
CONTINUOUS
 70
0
 71
3
 72
59
 73
55
 74
0
 42
0.0000001
 43
0.0000001
 44
0.0000000001
 40
0.0
 40
0.0
 40
0.0
 40
0.0
 40
0.0312933905
 40
0.0470051593
 40
0.0627505916
 40
0.0785298567
 40
0.0943431212
 40
0.11018926
 40
0.1260657227
 40
0.1578897383
 40
0.1738404407
 40
0.1898100577
 40
0.2217840973
 40
0.2537920702
 40
0.2698037859
 40
0.2858128856
 40
0.3018156519
 40
0.3178083963
 40
0.333787627
 40
0.3497499021
 40
0.3656919511
 40
0.3816107794
 40
0.3975035215
 40
0.4133676164
 40
0.4449921827
 40
0.4764787042
 40
0.4921716905
 40
0.507827246
 40
0.5234450933
 40
0.5390253273
 40
0.5545684969
 40
0.5700753773
 40
0.5855471689
 40
0.6009854404
 40
0.61639195
 40
0.6317688895
 40
0.6624337973
 40
0.6930124137
 40
0.7082823289
 40
0.7235404623
 40
0.7387902835
 40
0.7540353487
 40
0.784515582
 40
0.8150205946
 40
0.8302963816
 40
0.8455887087
 40
0.8609009271
 40
0.8762360868
 40
0.9069757879
 40
0.9223943692
 40
0.9378453536
 40
0.9533320928
 40
0.9688571808
 40
1.0
 40
1.0
 40
1.0
 40
1.0
 10
10.9779674221
 20
8.6458286667
 30
0.0
 10
10.977967326
 20
8.6533421526
 30
0.0
 10
10.9774105173
 20
8.6646379175
 30
0.0
 10
10.9755796284
 20
8.6795964306
 30
0.0
 10
10.9736594945
 20
8.6907789403
 30
0.0
 10
10.9712011776
 20
8.7018799891
 30
0.0
 10
10.9682103857
 20
8.7128746568
 30
0.0
 10
10.9646946775
 20
8.72373769
 30
0.0
 10
10.959317285
 20
8.7380206508
 30
0.0
 10
10.9529266968
 20
8.7519322036
 30
0.0
 10
10.9455821269
 20
8.765364587
 30
0.0
 10
10.9376025724
 20
8.7784726971
 30
0.0
 10
10.9264911307
 20
8.7941616873
 30
0.0
 10
10.9139742802
 20
8.8087674156
 30
0.0
 10
10.9031863818
 20
8.8197262278
 30
0.0
 10
10.894724238
 20
8.8275645945
 30
0.0
 10
10.8859139686
 20
8.8350021063
 30
0.0
 10
10.8767754584
 20
8.8420207799
 30
0.0
 10
10.8673300971
 20
8.8486037114
 30
0.0
 10
10.8576005207
 20
8.8547360427
 30
0.0
 10
10.8476088617
 20
8.8604021413
 30
0.0
 10
10.8373788004
 20
8.8655885815
 30
0.0
 10
10.8269342368
 20
8.8702834677
 30
0.0
 10
10.8127716765
 20
8.875864168
 30
0.0
 10
10.7946540586
 20
8.8815607573
 30
0.0
 10
10.7761148361
 20
8.8854938964
 30
0.0
 10
10.761163819
 20
8.8875486451
 30
0.0
 10
10.7499261904
 20
8.8885392047
 30
0.0
 10
10.7386808508
 20
8.88897877
 30
0.0
 10
10.7274543583
 20
8.888864715
 30
0.0
 10
10.7162738801
 20
8.8881962603
 30
0.0
 10
10.7051663264
 20
8.8869753382
 30
0.0
 10
10.694158774
 20
8.8852028547
 30
0.0
 10
10.6832781768
 20
8.8828828212
 30
0.0
 10
10.6725506723
 20
8.8800206786
 30
0.0
 10
10.6585031767
 20
8.8754935572
 30
0.0
 10
10.6414454164
 20
8.8685126117
 30
0.0
 10
10.6252219864
 20
8.8598190336
 30
0.0
 10
10.6128645486
 20
8.8518998726
 30
0.0
 10
10.6039282004
 20
8.8454919985
 30
0.0
 10
10.5953426579
 20
8.8386307432
 30
0.0
 10
10.5843954111
 20
8.828901845
 30
0.0
 10
10.5716843002
 20
8.8156835301
 30
0.0
 10
10.5604192766
 20
8.8012039636
 30
0.0
 10
10.552341362
 20
8.7889594144
 30
0.0
 10
10.5467587538
 20
8.779457098
 30
0.0
 10
10.5416683759
 20
8.7696661026
 30
0.0
 10
10.5355504721
 20
8.7562514353
 30
0.0
 10
10.5304672559
 20
8.7423567588
 30
0.0
 10
10.5264560552
 20
8.7281138232
 30
0.0
 10
10.5239835842
 20
8.7172567803
 30
0.0
 10
10.5220553918
 20
8.7062639804
 30
0.0
 10
10.5202155644
 20
8.6914503461
 30
0.0
 10
10.5196653182
 20
8.6802348667
 30
0.0
 10
10.5196652296
 20
8.6727575328
 30
0.0
  0
SPLINE
  5
359
100
AcDbEntity
  8
0
100
AcDbSpline
 62
7
  6
CONTINUOUS
 70
0
 71
3
 72
55
 73
51
 74
0
 42
0.0000001
 43
0.0000001
 44
0.0000000001
 40
0.0
 40
0.0
 40
0.0
 40
0.0
 40
0.0310511433
 40
0.0464695423
 40
0.0618068661
 40
0.0922439949
 40
0.1224116361
 40
0.1374118853
 40
0.1523601534
 40
0.1821187318
 40
0.2117577027
 40
0.2265579098
 40
0.2413530192
 40
0.2709518325
 40
0.300631999
 40
0.3304567339
 40
0.3604827947
 40
0.3755913108
 40
0.3907670901
 40
0.4213254826
 40
0.4521919517
 40
0.4677490961
 40
0.4833864435
 40
0.5148885409
 40
0.5307593952
 40
0.5467035089
 40
0.5627174576
 40
0.5787975103
 40
0.5949390057
 40
0.6111368461
 40
0.6436710556
 40
0.6600038234
 40
0.676368975
 40
0.6927597062
 40
0.7091689542
 40
0.7255896943
 40
0.7420147636
 40
0.7584368496
 40
0.7748487862
 40
0.8076052989
 40
0.8239444646
 40
0.8402460806
 40
0.8565038946
 40
0.8727119335
 40
0.8888644501
 40
0.9049557398
 40
0.9369284571
 40
0.9528148589
 40
0.9686288652
 40
1.0
 40
1.0
 40
1.0
 40
1.0
 10
10.5896652343
 20
8.6727574029
 30
0.0
 10
10.5896653423
 20
8.6779368349
 30
0.0
 10
10.5900452731
 20
8.6856954474
 30
0.0
 10
10.5913174089
 20
8.6959294036
 30
0.0
 10
10.5930846079
 20
8.7059863803
 30
0.0
 10
10.5962183593
 20
8.7182838425
 30
0.0
 10
10.6005753187
 20
8.7301438501
 30
0.0
 10
10.6047553096
 20
8.7392630463
 30
0.0
 10
10.6093730173
 20
8.7480915985
 30
0.0
 10
10.6159750013
 20
8.7586178573
 30
0.0
 10
10.6236334851
 20
8.7683713203
 30
0.0
 10
10.6303343102
 20
8.7756378703
 30
0.0
 10
10.6374052916
 20
8.7825350475
 30
0.0
 10
10.6469255791
 20
8.7904501646
 30
0.0
 10
10.6593157446
 20
8.7987079691
 30
0.0
 10
10.6725662059
 20
8.8056545364
 30
0.0
 10
10.6842070535
 20
8.8102843321
 30
0.0
 10
10.6938171902
 20
8.8132716294
 30
0.0
 10
10.7036540377
 20
8.8157842937
 30
0.0
 10
10.7162621842
 20
8.8179952486
 30
0.0
 10
10.7290913157
 20
8.8189330334
 30
0.0
 10
10.7394469826
 20
8.8189223171
 30
0.0
 10
10.7498951455
 20
8.8183967887
 30
0.0
 10
10.760344884
 20
8.8170992589
 30
0.0
 10
10.7707078516
 20
8.8150457161
 30
0.0
 10
10.778453969
 20
8.8131227506
 30
0.0
 10
10.7861333637
 20
8.8108247046
 30
0.0
 10
10.7937267055
 20
8.8081556395
 30
0.0
 10
10.8012153522
 20
8.8051223914
 30
0.0
 10
10.8110475527
 20
8.8005959628
 30
0.0
 10
10.8205818401
 20
8.7953721422
 30
0.0
 10
10.8297444824
 20
8.7894982938
 30
0.0
 10
10.8364300595
 20
8.7847655216
 30
0.0
 10
10.8429022765
 20
8.7797245874
 30
0.0
 10
10.8491450152
 20
8.7743877101
 30
0.0
 10
10.8551417476
 20
8.7687674543
 30
0.0
 10
10.860878018
 20
8.7628787208
 30
0.0
 10
10.8663396053
 20
8.7567359777
 30
0.0
 10
10.8732302452
 20
8.7482342206
 30
0.0
 10
10.8795254748
 20
8.7392806237
 30
0.0
 10
10.8851718362
 20
8.7299437772
 30
0.0
 10
10.8890690517
 20
8.7227751468
 30
0.0
 10
10.8926219485
 20
8.7154542902
 30
0.0
 10
10.8958212593
 20
8.707999193
 30
0.0
 10
10.8986605257
 20
8.7004290738
 30
0.0
 10
10.9019501065
 20
8.6902321149
 30
0.0
 10
10.9045054957
 20
8.67985597
 30
0.0
 10
10.9063006938
 20
8.6693843992
 30
0.0
 10
10.907577712
 20
8.6589387345
 30
0.0
 10
10.9079672983
 20
8.6510613948
 30
0.0
 10
10.9079674166
 20
8.6458285871
 30
0.0
  0
SPLINE
  5
35A
100
AcDbEntity
  8
0
100
AcDbSpline
 62
7
  6
CONTINUOUS
 70
0
 71
3
 72
59
 73
55
 74
0
 42
0.0000001
 43
0.0000001
 44
0.0000000001
 40
0.0
 40
0.0
 40
0.0
 40
0.0
 40
0.0312933912
 40
0.0470051607
 40
0.0627505931
 40
0.0785298576
 40
0.0943431212
 40
0.1101892587
 40
0.1260657201
 40
0.1578897329
 40
0.1738404341
 40
0.1898100501
 40
0.2217840878
 40
0.253792059
 40
0.2698037743
 40
0.285812874
 40
0.3018156403
 40
0.3178083847
 40
0.3337876153
 40
0.34974989
 40
0.3656919384
 40
0.3816107659
 40
0.3975035069
 40
0.4133676001
 40
0.4449921603
 40
0.4764786728
 40
0.4921716568
 40
0.5078272134
 40
0.5234450648
 40
0.5390253053
 40
0.554568483
 40
0.5700753712
 40
0.5855471686
 40
0.6009854438
 40
0.6163919561
 40
0.6317688982
 40
0.6624338107
 40
0.6930124274
 40
0.7082823377
 40
0.723540463
 40
0.7387902767
 40
0.7540353394
 40
0.7845155781
 40
0.8150205883
 40
0.830296371
 40
0.8455886936
 40
0.8609009075
 40
0.8762360632
 40
0.9069757575
 40
0.922394336
 40
0.9378453212
 40
0.9533320662
 40
0.9688571643
 40
1.0
 40
1.0
 40
1.0
 40
1.0
 10
10.9156948106
 20
8.3110823766
 30
0.0
 10
10.9156949068
 20
8.3035688906
 30
0.0
 10
10.9162517156
 20
8.2922731253
 30
0.0
 10
10.9180826044
 20
8.2773146118
 30
0.0
 10
10.9200027384
 20
8.2661321022
 30
0.0
 10
10.9224610553
 20
8.2550310537
 30
0.0
 10
10.925451847
 20
8.2440363867
 30
0.0
 10
10.9289675549
 20
8.2331733543
 30
0.0
 10
10.9343449469
 20
8.2188903947
 30
0.0
 10
10.9407355343
 20
8.204978843
 30
0.0
 10
10.9480801035
 20
8.1915464605
 30
0.0
 10
10.9560596571
 20
8.1784383511
 30
0.0
 10
10.9671710978
 20
8.1627493616
 30
0.0
 10
10.979687947
 20
8.1481436333
 30
0.0
 10
10.9904758449
 20
8.1371848214
 30
0.0
 10
10.9989379884
 20
8.1293464546
 30
0.0
 10
11.0077482573
 20
8.1219089422
 30
0.0
 10
11.0168867675
 20
8.1148902687
 30
0.0
 10
11.0263321283
 20
8.1083073367
 30
0.0
 10
11.0360617042
 20
8.1021750051
 30
0.0
 10
11.0460533629
 20
8.0965089066
 30
0.0
 10
11.0562834232
 20
8.0913224659
 30
0.0
 10
11.0667279859
 20
8.0866275797
 30
0.0
 10
11.080890544
 20
8.0810468799
 30
0.0
 10
11.0990081577
 20
8.0753502908
 30
0.0
 10
11.1175473755
 20
8.0714171497
 30
0.0
 10
11.1324983901
 20
8.0693624013
 30
0.0
 10
11.1437360193
 20
8.0683718404
 30
0.0
 10
11.1549813617
 20
8.0679322729
 30
0.0
 10
11.1662078587
 20
8.0680463282
 30
0.0
 10
11.1773883423
 20
8.0687147826
 30
0.0
 10
11.1884959012
 20
8.0699357043
 30
0.0
 10
11.1995034578
 20
8.0717081883
 30
0.0
 10
11.2103840578
 20
8.0740282225
 30
0.0
 10
11.2211115643
 20
8.0768903658
 30
0.0
 10
11.2351590621
 20
8.0814174883
 30
0.0
 10
11.252216824
 20
8.0883984348
 30
0.0
 10
11.2684402531
 20
8.0970920146
 30
0.0
 10
11.2807976886
 20
8.1050111734
 30
0.0
 10
11.2897340331
 20
8.1114190442
 30
0.0
 10
11.2983195721
 20
8.118280297
 30
0.0
 10
11.3092668171
 20
8.1280091954
 30
0.0
 10
11.3219779292
 20
8.1412275092
 30
0.0
 10
11.3332429534
 20
8.155707075
 30
0.0
 10
11.3413208664
 20
8.167951622
 30
0.0
 10
11.3469034733
 20
8.1774539354
 30
0.0
 10
11.351993851
 20
8.1872449275
 30
0.0
 10
11.3581117529
 20
8.2006595916
 30
0.0
 10
11.363194971
 20
8.2145542638
 30
0.0
 10
11.3672061714
 20
8.2287971973
 30
0.0
 10
11.3696786445
 20
8.2396542406
 30
0.0
 10
11.3716068386
 20
8.2506470444
 30
0.0
 10
11.3734466658
 20
8.2654606865
 30
0.0
 10
11.3739969144
 20
8.2766761721
 30
0.0
 10
11.3739970032
 20
8.28415351
 30
0.0
  0
SPLINE
  5
35B
100
AcDbEntity
  8
0
100
AcDbSpline
 62
7
  6
CONTINUOUS
 70
0
 71
3
 72
55
 73
51
 74
0
 42
0.0000001
 43
0.0000001
 44
0.0000000001
 40
0.0
 40
0.0
 40
0.0
 40
0.0
 40
0.0310511431
 40
0.046469542
 40
0.0618068656
 40
0.0922439947
 40
0.1224116362
 40
0.1374118855
 40
0.1523601539
 40
0.1821187326
 40
0.2117577038
 40
0.226557911
 40
0.2413530206
 40
0.2709518339
 40
0.3006320003
 40
0.3304567348
 40
0.360482795
 40
0.3755913109
 40
0.3907670899
 40
0.4213254823
 40
0.4521919519
 40
0.467749097
 40
0.4833864454
 40
0.5148885451
 40
0.5307594002
 40
0.5467035145
 40
0.562717463
 40
0.5787975149
 40
0.5949390091
 40
0.6111368482
 40
0.6436710552
 40
0.6600038223
 40
0.6763689733
 40
0.6927597044
 40
0.7091689526
 40
0.725589693
 40
0.7420147626
 40
0.758436849
 40
0.774848786
 40
0.807605299
 40
0.8239444644
 40
0.8402460798
 40
0.8565038931
 40
0.8727119311
 40
0.8888644466
 40
0.9049557354
 40
0.9369284522
 40
0.9528148548
 40
0.9686288622
 40
1.0
 40
1.0
 40
1.0
 40
1.0
 10
11.3039969984
 20
8.2841536404
 30
0.0
 10
11.3039968904
 20
8.2789742084
 30
0.0
 10
11.3036169597
 20
8.271215596
 30
0.0
 10
11.3023448239
 20
8.2609816398
 30
0.0
 10
11.3005776248
 20
8.2509246631
 30
0.0
 10
11.2974438734
 20
8.2386272009
 30
0.0
 10
11.293086914
 20
8.2267671932
 30
0.0
 10
11.2889069231
 20
8.2176479969
 30
0.0
 10
11.2842892153
 20
8.2088194446
 30
0.0
 10
11.2776872312
 20
8.1982931857
 30
0.0
 10
11.2700287473
 20
8.1885397226
 30
0.0
 10
11.2633279221
 20
8.1812731725
 30
0.0
 10
11.2562569407
 20
8.1743759953
 30
0.0
 10
11.2467366531
 20
8.1664608783
 30
0.0
 10
11.2343464876
 20
8.1582030739
 30
0.0
 10
11.2210960265
 20
8.1512565067
 30
0.0
 10
11.2094551791
 20
8.1466267111
 30
0.0
 10
11.1998450425
 20
8.1436394139
 30
0.0
 10
11.1900081951
 20
8.1411267496
 30
0.0
 10
11.1774000486
 20
8.1389157947
 30
0.0
 10
11.1645709169
 20
8.1379780098
 30
0.0
 10
11.1542152497
 20
8.1379887262
 30
0.0
 10
11.1437670861
 20
8.1385142548
 30
0.0
 10
11.133317347
 20
8.1398117847
 30
0.0
 10
11.1229543788
 20
8.1418653277
 30
0.0
 10
11.1152082612
 20
8.1437882935
 30
0.0
 10
11.1075288667
 20
8.1460863394
 30
0.0
 10
11.0999355251
 20
8.1487554044
 30
0.0
 10
11.0924468791
 20
8.1517886526
 30
0.0
 10
11.0826146793
 20
8.1563150809
 30
0.0
 10
11.0730803927
 20
8.161538901
 30
0.0
 10
11.0639177508
 20
8.1674127492
 30
0.0
 10
11.057232174
 20
8.1721455212
 30
0.0
 10
11.050759957
 20
8.1771864553
 30
0.0
 10
11.0445172182
 20
8.1825233326
 30
0.0
 10
11.0385204857
 20
8.1881435885
 30
0.0
 10
11.0327842151
 20
8.1940323221
 30
0.0
 10
11.0273226277
 20
8.2001750653
 30
0.0
 10
11.0204319877
 20
8.2086768225
 30
0.0
 10
11.0141367581
 20
8.2176304194
 30
0.0
 10
11.0084903966
 20
8.2269672658
 30
0.0
 10
11.0045931813
 20
8.234135896
 30
0.0
 10
11.0010402846
 20
8.2414567523
 30
0.0
 10
10.997840974
 20
8.248911849
 30
0.0
 10
10.9950017076
 20
8.2564819677
 30
0.0
 10
10.9917121269
 20
8.2666789262
 30
0.0
 10
10.9891567374
 20
8.2770550709
 30
0.0
 10
10.9873615392
 20
8.2875266419
 30
0.0
 10
10.986084521
 20
8.2979723074
 30
0.0
 10
10.9856949344
 20
8.3058496478
 30
0.0
 10
10.9856948162
 20
8.3110824561
 30
0.0
  0
SPLINE
  5
35C
100
AcDbEntity
  8
0
100
AcDbSpline
 62
7
  6
CONTINUOUS
 70
0
 71
3
 72
59
 73
55
 74
0
 42
0.0000001
 43
0.0000001
 44
0.0000000001
 40
0.0
 40
0.0
 40
0.0
 40
0.0
 40
0.0312933905
 40
0.0470051593
 40
0.0627505916
 40
0.0785298567
 40
0.0943431212
 40
0.11018926
 40
0.1260657227
 40
0.1578897383
 40
0.1738404407
 40
0.1898100577
 40
0.2217840973
 40
0.2537920702
 40
0.2698037859
 40
0.2858128856
 40
0.3018156519
 40
0.3178083963
 40
0.333787627
 40
0.3497499021
 40
0.3656919511
 40
0.3816107794
 40
0.3975035215
 40
0.4133676164
 40
0.4449921827
 40
0.4764787042
 40
0.4921716905
 40
0.507827246
 40
0.5234450933
 40
0.5390253273
 40
0.5545684969
 40
0.5700753773
 40
0.5855471689
 40
0.6009854404
 40
0.61639195
 40
0.6317688895
 40
0.6624337973
 40
0.6930124137
 40
0.7082823289
 40
0.7235404623
 40
0.7387902835
 40
0.7540353487
 40
0.784515582
 40
0.8150205946
 40
0.8302963816
 40
0.8455887087
 40
0.8609009271
 40
0.8762360868
 40
0.9069757879
 40
0.9223943692
 40
0.9378453536
 40
0.9533320928
 40
0.9688571808
 40
1.0
 40
1.0
 40
1.0
 40
1.0
 10
11.3739970021
 20
8.2841536088
 30
0.0
 10
11.373996906
 20
8.2916670946
 30
0.0
 10
11.3734400973
 20
8.3029628595
 30
0.0
 10
11.3716092084
 20
8.3179213727
 30
0.0
 10
11.3696890745
 20
8.3291038823
 30
0.0
 10
11.3672307576
 20
8.3402049311
 30
0.0
 10
11.3642399657
 20
8.3511995988
 30
0.0
 10
11.3607242575
 20
8.362062632
 30
0.0
 10
11.355346865
 20
8.3763455928
 30
0.0
 10
11.3489562768
 20
8.3902571456
 30
0.0
 10
11.3416117069
 20
8.403689529
 30
0.0
 10
11.3336321524
 20
8.4167976392
 30
0.0
 10
11.3225207108
 20
8.4324866294
 30
0.0
 10
11.3100038602
 20
8.4470923577
 30
0.0
 10
11.2992159619
 20
8.4580511699
 30
0.0
 10
11.290753818
 20
8.4658895365
 30
0.0
 10
11.2819435486
 20
8.4733270483
 30
0.0
 10
11.2728050384
 20
8.4803457219
 30
0.0
 10
11.2633596771
 20
8.4869286534
 30
0.0
 10
11.2536301007
 20
8.4930609847
 30
0.0
 10
11.2436384417
 20
8.4987270833
 30
0.0
 10
11.2334083804
 20
8.5039135235
 30
0.0
 10
11.2229638168
 20
8.5086084097
 30
0.0
 10
11.2088012565
 20
8.51418911
 30
0.0
 10
11.1906836386
 20
8.5198856993
 30
0.0
 10
11.1721444161
 20
8.5238188384
 30
0.0
 10
11.157193399
 20
8.5258735871
 30
0.0
 10
11.1459557704
 20
8.5268641467
 30
0.0
 10
11.1347104308
 20
8.527303712
 30
0.0
 10
11.1234839383
 20
8.527189657
 30
0.0
 10
11.1123034601
 20
8.5265212023
 30
0.0
 10
11.1011959064
 20
8.5253002802
 30
0.0
 10
11.090188354
 20
8.5235277967
 30
0.0
 10
11.0793077568
 20
8.5212077632
 30
0.0
 10
11.0685802523
 20
8.5183456206
 30
0.0
 10
11.0545327567
 20
8.5138184992
 30
0.0
 10
11.0374749964
 20
8.5068375537
 30
0.0
 10
11.0212515664
 20
8.4981439756
 30
0.0
 10
11.0088941286
 20
8.4902248146
 30
0.0
 10
10.9999577804
 20
8.4838169405
 30
0.0
 10
10.9913722379
 20
8.4769556853
 30
0.0
 10
10.9804249911
 20
8.4672267871
 30
0.0
 10
10.9677138802
 20
8.4540084721
 30
0.0
 10
10.9564488566
 20
8.4395289056
 30
0.0
 10
10.948370942
 20
8.4272843565
 30
0.0
 10
10.9427883338
 20
8.41778204
 30
0.0
 10
10.9376979559
 20
8.4079910446
 30
0.0
 10
10.9315800521
 20
8.3945763773
 30
0.0
 10
10.9264968359
 20
8.3806817008
 30
0.0
 10
10.9224856352
 20
8.3664387653
 30
0.0
 10
10.9200131642
 20
8.3555817224
 30
0.0
 10
10.9180849718
 20
8.3445889224
 30
0.0
 10
10.9162451444
 20
8.3297752881
 30
0.0
 10
10.9156948982
 20
8.3185598088
 30
0.0
 10
10.9156948096
 20
8.3110824748
 30
0.0
  0
SPLINE
  5
35D
100
AcDbEntity
  8
0
100
AcDbSpline
 62
7
  6
CONTINUOUS
 70
0
 71
3
 72
55
 73
51
 74
0
 42
0.0000001
 43
0.0000001
 44
0.0000000001
 40
0.0
 40
0.0
 40
0.0
 40
0.0
 40
0.0310511433
 40
0.0464695423
 40
0.0618068661
 40
0.0922439949
 40
0.1224116361
 40
0.1374118853
 40
0.1523601534
 40
0.1821187318
 40
0.2117577027
 40
0.2265579098
 40
0.2413530192
 40
0.2709518325
 40
0.300631999
 40
0.3304567339
 40
0.3604827947
 40
0.3755913108
 40
0.3907670901
 40
0.4213254826
 40
0.4521919517
 40
0.4677490961
 40
0.4833864435
 40
0.5148885409
 40
0.5307593952
 40
0.5467035089
 40
0.5627174576
 40
0.5787975103
 40
0.5949390057
 40
0.6111368461
 40
0.6436710556
 40
0.6600038234
 40
0.676368975
 40
0.6927597062
 40
0.7091689542
 40
0.7255896943
 40
0.7420147636
 40
0.7584368496
 40
0.7748487862
 40
0.8076052989
 40
0.8239444646
 40
0.8402460806
 40
0.8565038946
 40
0.8727119335
 40
0.8888644501
 40
0.9049557398
 40
0.9369284571
 40
0.9528148589
 40
0.9686288652
 40
1.0
 40
1.0
 40
1.0
 40
1.0
 10
10.9856948143
 20
8.3110823449
 30
0.0
 10
10.9856949223
 20
8.316261777
 30
0.0
 10
10.9860748531
 20
8.3240203894
 30
0.0
 10
10.9873469889
 20
8.3342543456
 30
0.0
 10
10.9891141879
 20
8.3443113223
 30
0.0
 10
10.9922479394
 20
8.3566087845
 30
0.0
 10
10.9966048987
 20
8.3684687921
 30
0.0
 10
11.0007848896
 20
8.3775879883
 30
0.0
 10
11.0054025973
 20
8.3864165406
 30
0.0
 10
11.0120045814
 20
8.3969427993
 30
0.0
 10
11.0196630651
 20
8.4066962623
 30
0.0
 10
11.0263638902
 20
8.4139628124
 30
0.0
 10
11.0334348716
 20
8.4208599895
 30
0.0
 10
11.0429551591
 20
8.4287751066
 30
0.0
 10
11.0553453247
 20
8.4370329111
 30
0.0
 10
11.0685957859
 20
8.4439794784
 30
0.0
 10
11.0802366335
 20
8.4486092741
 30
0.0
 10
11.0898467702
 20
8.4515965715
 30
0.0
 10
11.0996836177
 20
8.4541092357
 30
0.0
 10
11.1122917642
 20
8.4563201906
 30
0.0
 10
11.1251208957
 20
8.4572579755
 30
0.0
 10
11.1354765626
 20
8.4572472591
 30
0.0
 10
11.1459247255
 20
8.4567217307
 30
0.0
 10
11.156374464
 20
8.4554242009
 30
0.0
 10
11.1667374316
 20
8.4533706581
 30
0.0
 10
11.174483549
 20
8.4514476926
 30
0.0
 10
11.1821629437
 20
8.4491496466
 30
0.0
 10
11.1897562855
 20
8.4464805815
 30
0.0
 10
11.1972449322
 20
8.4434473334
 30
0.0
 10
11.2070771327
 20
8.4389209048
 30
0.0
 10
11.2166114201
 20
8.4336970842
 30
0.0
 10
11.2257740624
 20
8.4278232358
 30
0.0
 10
11.2324596395
 20
8.4230904636
 30
0.0
 10
11.2389318565
 20
8.4180495294
 30
0.0
 10
11.2451745952
 20
8.4127126521
 30
0.0
 10
11.2511713276
 20
8.4070923963
 30
0.0
 10
11.256907598
 20
8.4012036628
 30
0.0
 10
11.2623691853
 20
8.3950609197
 30
0.0
 10
11.2692598252
 20
8.3865591626
 30
0.0
 10
11.2755550548
 20
8.3776055657
 30
0.0
 10
11.2812014162
 20
8.3682687192
 30
0.0
 10
11.2850986317
 20
8.3611000888
 30
0.0
 10
11.2886515285
 20
8.3537792322
 30
0.0
 10
11.2918508393
 20
8.346324135
 30
0.0
 10
11.2946901057
 20
8.3387540158
 30
0.0
 10
11.2979796865
 20
8.3285570569
 30
0.0
 10
11.3005350757
 20
8.318180912
 30
0.0
 10
11.3023302738
 20
8.3077093413
 30
0.0
 10
11.303607292
 20
8.2972636765
 30
0.0
 10
11.3039968784
 20
8.2893863368
 30
0.0
 10
11.3039969966
 20
8.2841535291
 30
0.0
  0
SPLINE
  5
35E
100
AcDbEntity
  8
0
100
AcDbSpline
 62
7
  6
CONTINUOUS
 70
0
 71
3
 72
11
 73
7
 74
0
 42
0.0000001
 43
0.0000001
 44
0.0000000001
 40
0.0
 40
0.0
 40
0.0
 40
0.0
 40
0.2602888324
 40
0.5135712263
 40
0.7600617157
 40
1.0
 40
1.0
 40
1.0
 40
1.0
 10
10.5076037718
 20
6.4082387821
 30
0.0
 10
10.5069733351
 20
6.407629827
 30
0.0
 10
10.50574727
 20
6.40640965
 30
0.0
 10
10.5039914044
 20
6.4045468068
 30
0.0
 10
10.50234468
 20
6.4026771786
 30
0.0
 10
10.5013062169
 20
6.4014098307
 30
0.0
 10
10.5008061113
 20
6.4007752184
 30
0.0
  0
SPLINE
  5
35F
100
AcDbEntity
  8
0
100
AcDbSpline
 62
7
  6
CONTINUOUS
 70
0
 71
3
 72
11
 73
7
 74
0
 42
0.0000001
 43
0.0000001
 44
0.0000000001
 40
0.0
 40
0.0
 40
0.0
 40
0.0
 40
0.2399382843
 40
0.4864287737
 40
0.7397111676
 40
1.0
 40
1.0
 40
1.0
 40
1.0
 10
11.4590769464
 20
5.9295896507
 30
0.0
 10
11.4585768408
 20
5.9289550384
 30
0.0
 10
11.4575383777
 20
5.9276876905
 30
0.0
 10
11.4558916533
 20
5.9258180623
 30
0.0
 10
11.4541357876
 20
5.9239552191
 30
0.0
 10
11.4529097225
 20
5.9227350421
 30
0.0
 10
11.4522792859
 20
5.922126087
 30
0.0
  0
SPLINE
  5
360
100
AcDbEntity
  8
0
100
AcDbSpline
 62
7
  6
CONTINUOUS
 70
0
 71
3
 72
11
 73
7
 74
0
 42
0.0000001
 43
0.0000001
 44
0.0000000001
 40
0.0
 40
0.0
 40
0.0
 40
0.0
 40
0.2399502312
 40
0.4865132022
 40
0.7398237866
 40
1.0
 40
1.0
 40
1.0
 40
1.0
 10
11.4522792859
 20
5.922126087
 30
0.0
 10
11.4516314107
 20
5.9215002876
 30
0.0
 10
11.4502982717
 20
5.9202515227
 30
0.0
 10
11.4482175397
 20
5.9184115219
 30
0.0
 10
11.4460294295
 20
5.9165799453
 30
0.0
 10
11.4445198018
 20
5.9153809574
 30
0.0
 10
11.4437477353
 20
5.9147827689
 30
0.0
  0
SPLINE
  5
361
100
AcDbEntity
  8
0
100
AcDbSpline
 62
7
  6
CONTINUOUS
 70
0
 71
3
 72
11
 73
7
 74
0
 42
0.0000001
 43
0.0000001
 44
0.0000000001
 40
0.0
 40
0.0
 40
0.0
 40
0.0
 40
0.2529398012
 40
0.5039896517
 40
0.7530425508
 40
1.0
 40
1.0
 40
1.0
 40
1.0
 10
11.4437477353
 20
5.9147827689
 30
0.0
 10
11.4389930642
 20
5.9118773337
 30
0.0
 10
11.429464093
 20
5.9061777704
 30
0.0
 10
11.4150534415
 20
5.8979575355
 30
0.0
 10
11.4005783214
 20
5.8901243003
 30
0.0
 10
11.390844418
 20
5.8851567874
 30
0.0
 10
11.3859668097
 20
5.8827472057
 30
0.0
  0
SPLINE
  5
362
100
AcDbEntity
  8
0
100
AcDbSpline
 62
7
  6
CONTINUOUS
 70
0
 71
3
 72
11
 73
7
 74
0
 42
0.0000001
 43
0.0000001
 44
0.0000000001
 40
0.0
 40
0.0
 40
0.0
 40
0.0
 40
0.2420990561
 40
0.4896902308
 40
0.7424326128
 40
1.0
 40
1.0
 40
1.0
 40
1.0
 10
11.4462085774
 20
6.3820257775
 30
0.0
 10
11.4473101808
 20
6.3794827328
 30
0.0
 10
11.4495025136
 20
6.3743233558
 30
0.0
 10
11.452728406
 20
6.3664602914
 30
0.0
 10
11.4559302824
 20
6.358396607
 30
0.0
 10
11.4580300216
 20
6.3529452104
 30
0.0
 10
11.4590769464
 20
6.3501888765
 30
0.0
  0
SPLINE
  5
363
100
AcDbEntity
  8
0
100
AcDbSpline
 62
7
  6
CONTINUOUS
 70
0
 71
3
 72
79
 73
75
 74
0
 42
0.0000001
 43
0.0000001
 44
0.0000000001
 40
0.0
 40
0.0
 40
0.0
 40
0.0
 40
0.0049346149
 40
0.0099877251
 40
0.0151590499
 40
0.0204481992
 40
0.0258546713
 40
0.0313778714
 40
0.0370171043
 40
0.0427715926
 40
0.0546226141
 40
0.066923307
 40
0.0796646949
 40
0.0928367656
 40
0.10642856
 40
0.1204282499
 40
0.1348232052
 40
0.1496000531
 40
0.1647447325
 40
0.1802425411
 40
0.1960781811
 40
0.2122357989
 40
0.2286990254
 40
0.2454510106
 40
0.26247446
 40
0.2797516671
 40
0.2972645466
 40
0.3149946648
 40
0.3329232712
 40
0.3510313283
 40
0.3692995407
 40
0.3877083857
 40
0.4062381408
 40
0.424868914
 40
0.443580671
 40
0.462353265
 40
0.4811664639
 40
0.4999999795
 40
0.5188334952
 40
0.5376466942
 40
0.5564192885
 40
0.5751310457
 40
0.5937618193
 40
0.6122915748
 40
0.6307004205
 40
0.6489686336
 40
0.6670766916
 40
0.685005299
 40
0.7027354182
 40
0.7202482986
 40
0.7375255067
 40
0.7545489571
 40
0.7713009434
 40
0.7877641713
 40
0.8039217908
 40
0.8197574325
 40
0.8352552428
 40
0.8503999238
 40
0.8651767734
 40
0.8795717301
 40
0.8935714217
 40
0.9071632179
 40
0.9203352906
 40
0.9330766807
 40
0.945377376
 40
0.9572283997
 40
0.9629828881
 40
0.9686221229
 40
0.9741453233
 40
0.979551797
 40
0.9848409473
 40
0.990012273
 40
0.9950653848
 40
1.0
 40
1.0
 40
1.0
 40
1.0
 10
11.360827911
 20
5.8703290708
 30
0.0
 10
11.3596831208
 20
5.8697635664
 30
0.0
 10
11.3573565061
 20
5.8686382033
 30
0.0
 10
11.3537990118
 20
5.8669856291
 30
0.0
 10
11.3501334825
 20
5.865348931
 30
0.0
 10
11.3463609858
 20
5.8637285912
 30
0.0
 10
11.3424826057
 20
5.8621250708
 30
0.0
 10
11.3384994608
 20
5.8605388393
 30
0.0
 10
11.3344126962
 20
5.8589703448
 30
0.0
 10
11.3287717915
 20
5.8568828366
 30
0.0
 10
11.3214679703
 20
5.8543241586
 30
0.0
 10
11.3123926178
 20
5.8513609673
 30
0.0
 10
11.3029332062
 20
5.8484791415
 30
0.0
 10
11.2931006626
 20
5.8456820251
 30
0.0
 10
11.2829063006
 20
5.8429728616
 30
0.0
 10
11.2723618738
 20
5.8403547943
 30
0.0
 10
11.2614795422
 20
5.8378308613
 30
0.0
 10
11.2502718619
 20
5.8354039914
 30
0.0
 10
11.2387517689
 20
5.8330770009
 30
0.0
 10
11.2269325638
 20
5.8308525898
 30
0.0
 10
11.2148278955
 20
5.8287333393
 30
0.0
 10
11.2024517451
 20
5.8267217081
 30
0.0
 10
11.1898184101
 20
5.8248200299
 30
0.0
 10
11.1769424865
 20
5.8230305103
 30
0.0
 10
11.1638388524
 20
5.821355225
 30
0.0
 10
11.1505226501
 20
5.8197961167
 30
0.0
 10
11.1370092689
 20
5.8183549935
 30
0.0
 10
11.1233143265
 20
5.8170335263
 30
0.0
 10
11.1094536515
 20
5.8158332474
 30
0.0
 10
11.0954432646
 20
5.8147555484
 30
0.0
 10
11.0812993601
 20
5.8138016787
 30
0.0
 10
11.0670382874
 20
5.8129727439
 30
0.0
 10
11.0526765312
 20
5.8122697049
 30
0.0
 10
11.0382306934
 20
5.8116933765
 30
0.0
 10
11.023717473
 20
5.8112444268
 30
0.0
 10
11.0091536473
 20
5.8109233762
 30
0.0
 10
10.994556052
 20
5.8107305966
 30
0.0
 10
10.9799415621
 20
5.8106663117
 30
0.0
 10
10.9653270722
 20
5.8107305959
 30
0.0
 10
10.9507294767
 20
5.8109233749
 30
0.0
 10
10.9361656508
 20
5.811244425
 30
0.0
 10
10.9216524302
 20
5.8116933742
 30
0.0
 10
10.9072065921
 20
5.812269702
 30
0.0
 10
10.8928448355
 20
5.8129727405
 30
0.0
 10
10.8785837623
 20
5.8138016747
 30
0.0
 10
10.8644398572
 20
5.8147555439
 30
0.0
 10
10.8504294696
 20
5.8158332422
 30
0.0
 10
10.8365687938
 20
5.8170335205
 30
0.0
 10
10.8228738506
 20
5.8183549871
 30
0.0
 10
10.8093604685
 20
5.8197961098
 30
0.0
 10
10.7960442654
 20
5.8213552176
 30
0.0
 10
10.7829406304
 20
5.8230305025
 30
0.0
 10
10.7700647058
 20
5.8248200216
 30
0.0
 10
10.7574313696
 20
5.8267216994
 30
0.0
 10
10.745055218
 20
5.82873333
 30
0.0
 10
10.7329505482
 20
5.8308525799
 30
0.0
 10
10.7211313416
 20
5.8330769904
 30
0.0
 10
10.7096112473
 20
5.8354039805
 30
0.0
 10
10.6984035656
 20
5.83783085
 30
0.0
 10
10.6875212326
 20
5.8403547827
 30
0.0
 10
10.6769768045
 20
5.8429728495
 30
0.0
 10
10.6667824409
 20
5.8456820127
 30
0.0
 10
10.6569498956
 20
5.8484791287
 30
0.0
 10
10.647490482
 20
5.851360954
 30
0.0
 10
10.6384151275
 20
5.854324145
 30
0.0
 10
10.6311113048
 20
5.856882822
 30
0.0
 10
10.6254703992
 20
5.8589703311
 30
0.0
 10
10.6213836335
 20
5.8605388245
 30
0.0
 10
10.6174004879
 20
5.8621250566
 30
0.0
 10
10.6135221067
 20
5.8637285763
 30
0.0
 10
10.609749609
 20
5.8653489162
 30
0.0
 10
10.6060840788
 20
5.8669856144
 30
0.0
 10
10.6025265833
 20
5.8686381878
 30
0.0
 10
10.6001999682
 20
5.8697635512
 30
0.0
 10
10.5990551779
 20
5.8703290556
 30
0.0
  0
SPLINE
  5
364
100
AcDbEntity
  8
0
100
AcDbSpline
 62
7
  6
CONTINUOUS
 70
0
 71
3
 72
34
 73
30
 74
0
 42
0.0000001
 43
0.0000001
 44
0.0000000001
 40
0.0
 40
0.0
 40
0.0
 40
0.0
 40
0.0217726103
 40
0.043998712
 40
0.0899309812
 40
0.1380396824
 40
0.1885283882
 40
0.2147207498
 40
0.2415663873
 40
0.2690791435
 40
0.2972700689
 40
0.3261474357
 40
0.3557167999
 40
0.3859810872
 40
0.4169407062
 40
0.4485936851
 40
0.4809358243
 40
0.5139608702
 40
0.5476607044
 40
0.5820255323
 40
0.6170440742
 40
0.6527037538
 40
0.6889908834
 40
0.7258908481
 40
0.7633882775
 40
0.8014672032
 40
0.8401112084
 40
0.9190266208
 40
1.0
 40
1.0
 40
1.0
 40
1.0
 10
10.5827556583
 20
5.878380706
 30
0.0
 10
10.5818925551
 20
5.8788070236
 30
0.0
 10
10.5801640602
 20
5.8797007263
 30
0.0
 10
10.5766987995
 20
5.8816519666
 30
0.0
 10
10.5723549014
 20
5.8844089909
 30
0.0
 10
10.5671914255
 20
5.8881805141
 30
0.0
 10
10.5629384068
 20
5.8917005812
 30
0.0
 10
10.5595349098
 20
5.8947619089
 30
0.0
 10
10.5569507651
 20
5.897213276
 30
0.0
 10
10.5543668536
 20
5.8997914919
 30
0.0
 10
10.5517835729
 20
5.9024959691
 30
0.0
 10
10.5492013618
 20
5.905325796
 30
0.0
 10
10.5466206385
 20
5.9082798063
 30
0.0
 10
10.5440418132
 20
5.9113565744
 30
0.0
 10
10.5414652812
 20
5.9145544344
 30
0.0
 10
10.538891421
 20
5.9178714948
 30
0.0
 10
10.5363205913
 20
5.9213056575
 30
0.0
 10
10.5337531287
 20
5.9248546371
 30
0.0
 10
10.5311893469
 20
5.9285159838
 30
0.0
 10
10.5286295349
 20
5.9322871042
 30
0.0
 10
10.5260739563
 20
5.9361652837
 30
0.0
 10
10.5235228484
 20
5.9401477075
 30
0.0
 10
10.5209764221
 20
5.9442314812
 30
0.0
 10
10.5184348614
 20
5.9484136521
 30
0.0
 10
10.5158983269
 20
5.9526912281
 30
0.0
 10
10.5133669469
 20
5.9570611958
 30
0.0
 10
10.5099751843
 20
5.963048707
 30
0.0
 10
10.5057535676
 20
5.9707452887
 30
0.0
 10
10.5024543002
 20
5.9769978063
 30
0.0
 10
10.5008061113
 20
5.9801759926
 30
0.0
  0
SPLINE
  5
365
100
AcDbEntity
  8
0
100
AcDbSpline
 62
7
  6
CONTINUOUS
 70
0
 71
3
 72
11
 73
7
 74
0
 42
0.0000001
 43
0.0000001
 44
0.0000000001
 40
0.0
 40
0.0
 40
0.0
 40
0.0
 40
0.2399382843
 40
0.4864287737
 40
0.7397111676
 40
1.0
 40
1.0
 40
1.0
 40
1.0
 10
11.4590769464
 20
6.3501888765
 30
0.0
 10
11.4585768408
 20
6.3495542642
 30
0.0
 10
11.4575383777
 20
6.3482869163
 30
0.0
 10
11.4558916533
 20
6.3464172881
 30
0.0
 10
11.4541357876
 20
6.3445544449
 30
0.0
 10
11.4529097225
 20
6.3433342678
 30
0.0
 10
11.4522792859
 20
6.3427253127
 30
0.0
  0
SPLINE
  5
366
100
AcDbEntity
  8
0
100
AcDbSpline
 62
7
  6
CONTINUOUS
 70
0
 71
3
 72
11
 73
7
 74
0
 42
0.0000001
 43
0.0000001
 44
0.0000000001
 40
0.0
 40
0.0
 40
0.0
 40
0.0
 40
0.2399786797
 40
0.4867532124
 40
0.7401537026
 40
1.0
 40
1.0
 40
1.0
 40
1.0
 10
10.6138609232
 20
6.2915728425
 30
0.0
 10
10.6171829378
 20
6.290601974
 30
0.0
 10
10.6239375489
 20
6.2886888306
 30
0.0
 10
10.6342522763
 20
6.2859393166
 30
0.0
 10
10.6448841557
 20
6.2832718059
 30
0.0
 10
10.6520883667
 20
6.2815707083
 30
0.0
 10
10.6557411507
 20
6.2807334557
 30
0.0
  0
SPLINE
  5
367
100
AcDbEntity
  8
0
100
AcDbSpline
 62
7
  6
CONTINUOUS
 70
0
 71
3
 72
11
 73
7
 74
0
 42
0.0000001
 43
0.0000001
 44
0.0000000001
 40
0.0
 40
0.0
 40
0.0
 40
0.0
 40
0.2601762134
 40
0.5134867978
 40
0.7600497688
 40
1.0
 40
1.0
 40
1.0
 40
1.0
 10
11.4437477353
 20
6.3353819947
 30
0.0
 10
11.4445198018
 20
6.3359801832
 30
0.0
 10
11.4460294295
 20
6.337179171
 30
0.0
 10
11.4482175397
 20
6.3390107476
 30
0.0
 10
11.4502982717
 20
6.3408507484
 30
0.0
 10
11.4516314107
 20
6.3420995133
 30
0.0
 10
11.4522792859
 20
6.3427253127
 30
0.0
  0
SPLINE
  5
368
100
AcDbEntity
  8
0
100
AcDbSpline
 62
7
  6
CONTINUOUS
 70
0
 71
3
 72
11
 73
7
 74
0
 42
0.0000001
 43
0.0000001
 44
0.0000000001
 40
0.0
 40
0.0
 40
0.0
 40
0.0
 40
0.2598462974
 40
0.5132467876
 40
0.7600213203
 40
1.0
 40
1.0
 40
1.0
 40
1.0
 10
10.6557411507
 20
5.86013423
 30
0.0
 10
10.6520883667
 20
5.8609714825
 30
0.0
 10
10.6448841557
 20
5.8626725801
 30
0.0
 10
10.6342522763
 20
5.8653400909
 30
0.0
 10
10.6239375489
 20
5.8680896049
 30
0.0
 10
10.6171829378
 20
5.8700027483
 30
0.0
 10
10.6138609232
 20
5.8709736167
 30
0.0
  0
SPLINE
  5
369
100
AcDbEntity
  8
0
100
AcDbSpline
 62
7
  6
CONTINUOUS
 70
0
 71
3
 72
34
 73
30
 74
0
 42
0.0000001
 43
0.0000001
 44
0.0000000001
 40
0.0
 40
0.0
 40
0.0
 40
0.0
 40
0.0614928409
 40
0.1230891667
 40
0.153930456
 40
0.1848018751
 40
0.2157048016
 40
0.2466405691
 40
0.2776104456
 40
0.308615611
 40
0.339657133
 40
0.3707359447
 40
0.4018528241
 40
0.433008375
 40
0.4642030116
 40
0.4954369474
 40
0.5267101883
 40
0.5580225326
 40
0.5893735753
 40
0.6207627182
 40
0.6521891835
 40
0.6836520324
 40
0.7151501852
 40
0.7466824453
 40
0.7782475226
 40
0.8098440566
 40
0.8731242422
 40
0.9365133522
 40
1.0
 40
1.0
 40
1.0
 40
1.0
 10
11.0776671296
 20
5.830873564
 30
0.0
 10
11.0690471322
 20
5.8292485642
 30
0.0
 10
11.0517520743
 20
5.8262064742
 30
0.0
 10
11.030029697
 20
5.8229788146
 30
0.0
 10
11.0125786547
 20
5.8207695134
 30
0.0
 10
10.9994480231
 20
5.8193058641
 30
0.0
 10
10.9862829359
 20
5.8180437511
 30
0.0
 10
10.973085383
 20
5.8169902911
 30
0.0
 10
10.9598577592
 20
5.8161522211
 30
0.0
 10
10.946602823
 20
5.8155357817
 30
0.0
 10
10.9333236953
 20
5.8151466109
 30
0.0
 10
10.920023833
 20
5.8149896387
 30
0.0
 10
10.9067069956
 20
5.8150689905
 30
0.0
 10
10.8933771997
 20
5.8153879007
 30
0.0
 10
10.8800386641
 20
5.8159486422
 30
0.0
 10
10.866695747
 20
5.8167524743
 30
0.0
 10
10.8533528771
 20
5.8177996133
 30
0.0
 10
10.8400144816
 20
5.8190892227
 30
0.0
 10
10.826684915
 20
5.820619433
 30
0.0
 10
10.81336839
 20
5.8223873814
 30
0.0
 10
10.8000689152
 20
5.8243892726
 30
0.0
 10
10.7867902413
 20
5.8266204566
 30
0.0
 10
10.7735358128
 20
5.8290755231
 30
0.0
 10
10.7603087476
 20
5.8317483977
 30
0.0
 10
10.7471117638
 20
5.834632468
 30
0.0
 10
10.7295512291
 20
5.8387518882
 30
0.0
 10
10.7076876987
 20
5.8443935202
 30
0.0
 10
10.6816144684
 20
5.8518853253
 30
0.0
 10
10.6643483218
 20
5.8573178295
 30
0.0
 10
10.6557411507
 20
5.86013423
 30
0.0
  0
SPLINE
  5
36A
100
AcDbEntity
  8
0
100
AcDbSpline
 62
7
  6
CONTINUOUS
 70
0
 71
3
 72
37
 73
33
 74
0
 42
0.0000001
 43
0.0000001
 44
0.0000000001
 40
0.0
 40
0.0
 40
0.0
 40
0.0
 40
0.0320287472
 40
0.0640311205
 40
0.0960043923
 40
0.1279455611
 40
0.159851441
 40
0.1917186505
 40
0.2235436484
 40
0.2553227761
 40
0.2870523307
 40
0.318728644
 40
0.3503481602
 40
0.381907556
 40
0.4134038501
 40
0.444834504
 40
0.4761975334
 40
0.5074915881
 40
0.5387160101
 40
0.5698708592
 40
0.6009569109
 40
0.6319756141
 40
0.6629290159
 40
0.6938196881
 40
0.7246506078
 40
0.755425049
 40
0.7861464927
 40
0.8168185117
 40
0.847444686
 40
0.8780285427
 40
0.9390791653
 40
1.0
 40
1.0
 40
1.0
 40
1.0
 10
11.0776671296
 20
6.2514727897
 30
0.0
 10
11.0735145622
 20
6.2536154568
 30
0.0
 10
11.0651769522
 20
6.2578299297
 30
0.0
 10
11.0525661617
 20
6.263926463
 30
0.0
 10
11.0398545194
 20
6.2697796634
 30
0.0
 10
11.0270416273
 20
6.275372912
 30
0.0
 10
11.0141278569
 20
6.2806889287
 30
0.0
 10
11.0011145583
 20
6.2857098744
 30
0.0
 10
10.98800419
 20
6.290417549
 30
0.0
 10
10.9748004586
 20
6.2947936354
 30
0.0
 10
10.9615084333
 20
6.2988199983
 30
0.0
 10
10.9481346301
 20
6.3024790302
 30
0.0
 10
10.9346870573
 20
6.3057540654
 30
0.0
 10
10.9211751958
 20
6.3086297996
 30
0.0
 10
10.9076099143
 20
6.3110927191
 30
0.0
 10
10.8940033203
 20
6.3131315624
 30
0.0
 10
10.8803685248
 20
6.3147376646
 30
0.0
 10
10.866719354
 20
6.3159052772
 30
0.0
 10
10.853070011
 20
6.3166318028
 30
0.0
 10
10.8394347054
 20
6.3169178312
 30
0.0
 10
10.8258272897
 20
6.3167671575
 30
0.0
 10
10.8122609148
 20
6.316186598
 30
0.0
 10
10.7987477353
 20
6.3151857115
 30
0.0
 10
10.7852986757
 20
6.3137764893
 30
0.0
 10
10.7719232711
 20
6.3119729141
 30
0.0
 10
10.7586295825
 20
6.3097905421
 30
0.0
 10
10.7454241685
 20
6.3072460824
 30
0.0
 10
10.7323121527
 20
6.3043569832
 30
0.0
 10
10.7192972136
 20
6.3011410433
 30
0.0
 10
10.7020881626
 20
6.2964443046
 30
0.0
 10
10.6808242436
 20
6.2898451622
 30
0.0
 10
10.6640569184
 20
6.2838708755
 30
0.0
 10
10.6557411507
 20
6.2807334557
 30
0.0
  0
SPLINE
  5
36B
100
AcDbEntity
  8
0
100
AcDbSpline
 62
7
  6
CONTINUOUS
 70
0
 71
3
 72
15
 73
11
 74
0
 42
0.0000001
 43
0.0000001
 44
0.0000000001
 40
0.0
 40
0.0
 40
0.0
 40
0.0
 40
0.1192556975
 40
0.2392875357
 40
0.3604859033
 40
0.483279967
 40
0.6081324973
 40
0.7355322617
 40
0.8659845135
 40
1.0
 40
1.0
 40
1.0
 40
1.0
 10
10.6138609232
 20
5.8709736167
 30
0.0
 10
10.6125786881
 20
5.8709781794
 30
0.0
 10
10.6100055589
 20
5.8710548571
 30
0.0
 10
10.6061414714
 20
5.8713814344
 30
0.0
 10
10.602263976
 20
5.8719303228
 30
0.0
 10
10.5983736497
 20
5.8727119417
 30
0.0
 10
10.5944710736
 20
5.8737364964
 30
0.0
 10
10.5905569908
 20
5.8750138496
 30
0.0
 10
10.5866324716
 20
5.8765532355
 30
0.0
 10
10.5840475938
 20
5.8777425728
 30
0.0
 10
10.5827556583
 20
5.878380706
 30
0.0
  0
SPLINE
  5
36C
100
AcDbEntity
  8
0
100
AcDbSpline
 62
7
  6
CONTINUOUS
 70
0
 71
3
 72
60
 73
56
 74
0
 42
0.0000001
 43
0.0000001
 44
0.0000000001
 40
0.0
 40
0.0
 40
0.0
 40
0.0
 40
0.0511308685
 40
0.1012482554
 40
0.1502799616
 40
0.1981504086
 40
0.2447814194
 40
0.2900930985
 40
0.334005102
 40
0.3554116938
 40
0.3764389177
 40
0.3970774048
 40
0.4173181471
 40
0.4371525703
 40
0.4565726459
 40
0.4755709803
 40
0.4941409094
 40
0.5122766399
 40
0.5299733374
 40
0.5472272329
 40
0.5640357845
 40
0.5803977617
 40
0.5963133463
 40
0.6117842975
 40
0.6268140312
 40
0.6414076931
 40
0.6555722996
 40
0.6693168061
 40
0.6826521282
 40
0.6955912233
 40
0.7081491259
 40
0.7203428892
 40
0.7321915704
 40
0.7437161865
 40
0.7549395494
 40
0.7658861172
 40
0.7765818254
 40
0.787053797
 40
0.7973300544
 40
0.8074392245
 40
0.817410158
 40
0.8272715672
 40
0.8370516875
 40
0.846777913
 40
0.8564764879
 40
0.8661722543
 40
0.8758884209
 40
0.8856464115
 40
0.8954657729
 40
0.9053641127
 40
0.915357115
 40
0.935676592
 40
0.9565180238
 40
0.9779450877
 40
1.0
 40
1.0
 40
1.0
 40
1.0
 10
10.6138609232
 20
6.2915728425
 30
0.0
 10
10.6127582375
 20
6.294475983
 30
0.0
 10
10.6105464512
 20
6.300214041
 30
0.0
 10
10.6071706868
 20
6.3086944983
 30
0.0
 10
10.6037682614
 20
6.3169505572
 30
0.0
 10
10.600339084
 20
6.3249657703
 30
0.0
 10
10.5968832751
 20
6.3327228933
 30
0.0
 10
10.5934012088
 20
6.3402039388
 30
0.0
 10
10.5904537344
 20
6.346242772
 30
0.0
 10
10.5880799843
 20
6.3509192247
 30
0.0
 10
10.5863086846
 20
6.3543159907
 30
0.0
 10
10.584531502
 20
6.35762955
 30
0.0
 10
10.582748636
 20
6.3608575463
 30
0.0
 10
10.5809603137
 20
6.3639976486
 30
0.0
 10
10.5791667897
 20
6.3670475702
 30
0.0
 10
10.5773683413
 20
6.3700050775
 30
0.0
 10
10.5755652658
 20
6.372868003
 30
0.0
 10
10.57375789
 20
6.3756342655
 30
0.0
 10
10.5719465602
 20
6.3783018781
 30
0.0
 10
10.5701316392
 20
6.3808689618
 30
0.0
 10
10.5683135163
 20
6.383333767
 30
0.0
 10
10.5664925961
 20
6.3856946807
 30
0.0
 10
10.5646692929
 20
6.3879502352
 30
0.0
 10
10.562844041
 20
6.3900991311
 30
0.0
 10
10.5610172846
 20
6.3921402408
 30
0.0
 10
10.5591894691
 20
6.3940726115
 30
0.0
 10
10.5573610498
 20
6.3958954833
 30
0.0
 10
10.5555324866
 20
6.3976082928
 30
0.0
 10
10.5537042324
 20
6.399210666
 30
0.0
 10
10.5518767389
 20
6.4007024286
 30
0.0
 10
10.5500504583
 20
6.4020836116
 30
0.0
 10
10.5482258294
 20
6.4033544335
 30
0.0
 10
10.546403282
 20
6.404515302
 30
0.0
 10
10.5445832435
 20
6.4055668222
 30
0.0
 10
10.5427661255
 20
6.406509771
 30
0.0
 10
10.5409523272
 20
6.4073450919
 30
0.0
 10
10.5391422427
 20
6.4080739058
 30
0.0
 10
10.5373362497
 20
6.4086974815
 30
0.0
 10
10.5355347109
 20
6.4092172269
 30
0.0
 10
10.5337379777
 20
6.4096346992
 30
0.0
 10
10.5319463804
 20
6.4099515741
 30
0.0
 10
10.5301602281
 20
6.4101696354
 30
0.0
 10
10.5283798072
 20
6.41029078
 30
0.0
 10
10.5266053747
 20
6.4103169849
 30
0.0
 10
10.5248371585
 20
6.4102502991
 30
0.0
 10
10.523075354
 20
6.4100928388
 30
0.0
 10
10.5213201251
 20
6.4098467574
 30
0.0
 10
10.5195716017
 20
6.409514242
 30
0.0
 10
10.5178298918
 20
6.4090975027
 30
0.0
 10
10.5160950425
 20
6.4085987383
 30
0.0
 10
10.5137785559
 20
6.4078231082
 30
0.0
 10
10.5108960404
 20
6.4066543998
 30
0.0
 10
10.5074863047
 20
6.4049670543
 30
0.0
 10
10.5041055839
 20
6.4030041061
 30
0.0
 10
10.5019030149
 20
6.4015440846
 30
0.0
 10
10.5008061113
 20
6.4007752184
 30
0.0
  0
SPLINE
  5
36D
100
AcDbEntity
  8
0
100
AcDbSpline
 62
7
  6
CONTINUOUS
 70
0
 71
3
 72
39
 73
35
 74
0
 42
0.0000001
 43
0.0000001
 44
0.0000000001
 40
0.0
 40
0.0
 40
0.0
 40
0.0
 40
0.0286511884
 40
0.0572782361
 40
0.0858921417
 40
0.1145060505
 40
0.1431355148
 40
0.1717986058
 40
0.2005159875
 40
0.2293108812
 40
0.2582089184
 40
0.2872378355
 40
0.3164269836
 40
0.3458067076
 40
0.3754075642
 40
0.4052594083
 40
0.4353904729
 40
0.4658264387
 40
0.4965896003
 40
0.5276982233
 40
0.5591660839
 40
0.5910022716
 40
0.6232112248
 40
0.6557929779
 40
0.6887435812
 40
0.7220556324
 40
0.7557188854
 40
0.7897208525
 40
0.8240473912
 40
0.8586832503
 40
0.8936125338
 40
0.9288190984
 40
0.9642868337
 40
1.0
 40
1.0
 40
1.0
 40
1.0
 10
11.4437477353
 20
6.3353819947
 30
0.0
 10
11.4407083392
 20
6.3364497259
 30
0.0
 10
11.4346043828
 20
6.3385064268
 30
0.0
 10
11.4253705008
 20
6.3413396807
 30
0.0
 10
11.4160623248
 20
6.3439034845
 30
0.0
 10
11.4066795722
 20
6.3461810574
 30
0.0
 10
11.3972224769
 20
6.3481551659
 30
0.0
 10
11.3876920221
 20
6.3498082557
 30
0.0
 10
11.3780900215
 20
6.3511226923
 30
0.0
 10
11.3684192337
 20
6.3520810437
 30
0.0
 10
11.3586834489
 20
6.3526664161
 30
0.0
 10
11.3488875553
 20
6.3528628302
 30
0.0
 10
11.339037568
 20
6.3526556558
 30
0.0
 10
11.3291406094
 20
6.3520320354
 30
0.0
 10
11.319204839
 20
6.3509812993
 30
0.0
 10
11.3092393198
 20
6.34949539
 30
0.0
 10
11.2992538372
 20
6.3475691435
 30
0.0
 10
11.2892586674
 20
6.3452005276
 30
0.0
 10
11.2792643077
 20
6.3423907731
 30
0.0
 10
11.2692812132
 20
6.339144303
 30
0.0
 10
11.2593195137
 20
6.3354686377
 30
0.0
 10
11.2493887741
 20
6.3313741106
 30
0.0
 10
11.2394977949
 20
6.3268735081
 30
0.0
 10
11.2296544407
 20
6.321981691
 30
0.0
 10
11.219865551
 20
6.3167151192
 30
0.0
 10
11.2101368841
 20
6.3110914148
 30
0.0
 10
11.2004731081
 20
6.305128943
 30
0.0
 10
11.1908778438
 20
6.2988464121
 30
0.0
 10
11.1813537269
 20
6.2922625416
 30
0.0
 10
11.1719024931
 20
6.2853957809
 30
0.0
 10
11.1625250807
 20
6.2782640861
 30
0.0
 10
11.1532217245
 20
6.2708847405
 30
0.0
 10
11.1439921049
 20
6.2632742767
 30
0.0
 10
11.1379076496
 20
6.2580740976
 30
0.0
 10
11.1348765683
 20
6.2554402848
 30
0.0
  0
SPLINE
  5
36E
100
AcDbEntity
  8
0
100
AcDbSpline
 62
7
  6
CONTINUOUS
 70
0
 71
3
 72
85
 73
81
 74
0
 42
0.0000001
 43
0.0000001
 44
0.0000000001
 40
0.0
 40
0.0
 40
0.0
 40
0.0
 40
0.0031074923
 40
0.0063154844
 40
0.0096294292
 40
0.0130541419
 40
0.0165938419
 40
0.0202522032
 40
0.0240324053
 40
0.0279371691
 40
0.0319688087
 40
0.0361292612
 40
0.0404201235
 40
0.0448426875
 40
0.0493979584
 40
0.0540866903
 40
0.0589094004
 40
0.0638663901
 40
0.0689577679
 40
0.0741834549
 40
0.0795432091
 40
0.0850366303
 40
0.0906631727
 40
0.0964221596
 40
0.1023127827
 40
0.1083341202
 40
0.1144851366
 40
0.1207646909
 40
0.1271715472
 40
0.1337043703
 40
0.1471419754
 40
0.1610653421
 40
0.1754608796
 40
0.190313875
 40
0.205608586
 40
0.2213283202
 40
0.23745551
 40
0.2539717769
 40
0.2708579936
 40
0.2880943379
 40
0.3056603452
 40
0.3235349593
 40
0.3416965793
 40
0.3601231069
 40
0.378791989
 40
0.3976802622
 40
0.4167645947
 40
0.4360213294
 40
0.4554265247
 40
0.4749559951
 40
0.4945853528
 40
0.5142900467
 40
0.5340454048
 40
0.5538266719
 40
0.5736090524
 40
0.5933677476
 40
0.6130779978
 40
0.6327151216
 40
0.6522545554
 40
0.6716718952
 40
0.6909429355
 40
0.7100437116
 40
0.7289505385
 40
0.7476400541
 40
0.7660892597
 40
0.7842755641
 40
0.8021768262
 40
0.8197713985
 40
0.8370381741
 40
0.8539566329
 40
0.870506894
 40
0.8866697644
 40
0.9024267967
 40
0.9177603472
 40
0.9326536428
 40
0.9470908527
 40
0.9610571679
 40
0.9745388928
 40
0.9875235487
 40
1.0
 40
1.0
 40
1.0
 40
1.0
 10
10.5590577772
 20
6.4154955915
 30
0.0
 10
10.5595226864
 20
6.4148196272
 30
0.0
 10
10.5605022661
 20
6.4134694319
 30
0.0
 10
10.5620898482
 20
6.4114827802
 30
0.0
 10
10.563817675
 20
6.409504216
 30
0.0
 10
10.5656851063
 20
6.4075344313
 30
0.0
 10
10.5676915191
 20
6.405574024
 30
0.0
 10
10.5698362338
 20
6.4036236188
 30
0.0
 10
10.5721185374
 20
6.4016838405
 30
0.0
 10
10.5745376666
 20
6.3997553087
 30
0.0
 10
10.5770928202
 20
6.3978386508
 30
0.0
 10
10.5797831491
 20
6.3959344903
 30
0.0
 10
10.5826077592
 20
6.394043449
 30
0.0
 10
10.5855657144
 20
6.3921661526
 30
0.0
 10
10.5886560292
 20
6.390303217
 30
0.0
 10
10.591877677
 20
6.3884552623
 30
0.0
 10
10.5952295844
 20
6.3866229017
 30
0.0
 10
10.5987106336
 20
6.3848067437
 30
0.0
 10
10.6023196647
 20
6.3830073975
 30
0.0
 10
10.6060554713
 20
6.3812254605
 30
0.0
 10
10.6099168063
 20
6.3794615316
 30
0.0
 10
10.6139023785
 20
6.3777162006
 30
0.0
 10
10.6180108543
 20
6.3759900512
 30
0.0
 10
10.6222408596
 20
6.3742836653
 30
0.0
 10
10.6265909772
 20
6.372597612
 30
0.0
 10
10.6310597505
 20
6.37093246
 30
0.0
 10
10.6356456824
 20
6.3692887675
 30
0.0
 10
10.6403472344
 20
6.3676670869
 30
0.0
 10
10.6451628351
 20
6.36606796
 30
0.0
 10
10.651795861
 20
6.3639466701
 30
0.0
 10
10.6603624391
 20
6.3613586179
 30
0.0
 10
10.670977144
 20
6.3583797923
 30
0.0
 10
10.6820066519
 20
6.3555034074
 30
0.0
 10
10.6934361541
 20
6.352733344
 30
0.0
 10
10.7052503482
 20
6.3500733399
 30
0.0
 10
10.7174333933
 20
6.3475269838
 30
0.0
 10
10.7299689511
 20
6.3450977111
 30
0.0
 10
10.7428402047
 20
6.3427887992
 30
0.0
 10
10.7560298826
 20
6.3406033629
 30
0.0
 10
10.7695202823
 20
6.3385443502
 30
0.0
 10
10.7832932945
 20
6.3366145377
 30
0.0
 10
10.7973304277
 20
6.3348165275
 30
0.0
 10
10.8116128343
 20
6.3331527438
 30
0.0
 10
10.8261213354
 20
6.3316254299
 30
0.0
 10
10.8408364475
 20
6.3302366449
 30
0.0
 10
10.8557384077
 20
6.3289882603
 30
0.0
 10
10.8708072016
 20
6.3278819587
 30
0.0
 10
10.8860225898
 20
6.3269192308
 30
0.0
 10
10.9013641354
 20
6.3261013744
 30
0.0
 10
10.9168112317
 20
6.3254294916
 30
0.0
 10
10.9323431294
 20
6.3249044875
 30
0.0
 10
10.9479389652
 20
6.3245270694
 30
0.0
 10
10.9635777895
 20
6.3242977458
 30
0.0
 10
10.9792385952
 20
6.3242168258
 30
0.0
 10
10.994900345
 20
6.3242844188
 30
0.0
 10
11.0105420008
 20
6.3245004333
 30
0.0
 10
11.0261425515
 20
6.3248645781
 30
0.0
 10
11.0416810411
 20
6.3253763627
 30
0.0
 10
11.0571365974
 20
6.3260350977
 30
0.0
 10
11.0724884599
 20
6.3268398956
 30
0.0
 10
11.0877160078
 20
6.3277896718
 30
0.0
 10
11.1027987879
 20
6.3288831461
 30
0.0
 10
11.117716542
 20
6.330118845
 30
0.0
 10
11.1324492342
 20
6.3314951033
 30
0.0
 10
11.1469770783
 20
6.333010066
 30
0.0
 10
11.1612805642
 20
6.3346616908
 30
0.0
 10
11.175340485
 20
6.3364477509
 30
0.0
 10
11.189137962
 20
6.3383658382
 30
0.0
 10
11.2026544708
 20
6.3404133665
 30
0.0
 10
11.2158718668
 20
6.3425875746
 30
0.0
 10
11.22877241
 20
6.3448855297
 30
0.0
 10
11.2413387894
 20
6.3473041318
 30
0.0
 10
11.2535541462
 20
6.3498401181
 30
0.0
 10
11.2654020975
 20
6.3524900671
 30
0.0
 10
11.2768667594
 20
6.3552504035
 30
0.0
 10
11.2879327721
 20
6.358117403
 30
0.0
 10
11.298585311
 20
6.3610871957
 30
0.0
 10
11.3088101469
 20
6.364155784
 30
0.0
 10
11.31859353
 20
6.3673190047
 30
0.0
 10
11.32494128
 20
6.3695328791
 30
0.0
 10
11.3280374583
 20
6.3706569193
 30
0.0
  0
SPLINE
  5
36F
100
AcDbEntity
  8
0
100
AcDbSpline
 62
7
  6
CONTINUOUS
 70
0
 71
3
 72
32
 73
28
 74
0
 42
0.0000001
 43
0.0000001
 44
0.0000000001
 40
0.0
 40
0.0
 40
0.0
 40
0.0
 40
0.0668467461
 40
0.1330343711
 40
0.1985498456
 40
0.2633895225
 40
0.2955589434
 40
0.3275629011
 40
0.3594039835
 40
0.3910854601
 40
0.4226112559
 40
0.4539859114
 40
0.4852145321
 40
0.5163027271
 40
0.54725654
 40
0.5780823734
 40
0.6087869096
 40
0.6393770305
 40
0.6698597382
 40
0.7002420785
 40
0.7305310697
 40
0.7607336373
 40
0.790856557
 40
0.8209064041
 40
0.880809966
 40
0.940493758
 40
1.0
 40
1.0
 40
1.0
 40
1.0
 10
11.3859668097
 20
5.8827472057
 30
0.0
 10
11.3807887677
 20
5.8801892072
 30
0.0
 10
11.3704125999
 20
5.8752407232
 30
0.0
 10
11.3547128416
 20
5.868321318
 30
0.0
 10
11.3389609577
 20
5.8619707068
 30
0.0
 10
11.3257650389
 20
5.8571617557
 30
0.0
 10
11.3151939663
 20
5.8536252057
 30
0.0
 10
11.3072803937
 20
5.8511356718
 30
0.0
 10
11.2993628583
 20
5.8488038958
 30
0.0
 10
11.2914430379
 20
5.8466311078
 30
0.0
 10
11.2835226689
 20
5.8446181134
 30
0.0
 10
11.2756034855
 20
5.8427652607
 30
0.0
 10
11.2676872124
 20
5.8410724433
 30
0.0
 10
11.2597755434
 20
5.8395391018
 30
0.0
 10
11.2518701247
 20
5.8381642342
 30
0.0
 10
11.2439725385
 20
5.8369464121
 30
0.0
 10
11.2360842886
 20
5.8358838028
 30
0.0
 10
11.2282067873
 20
5.8349741962
 30
0.0
 10
11.2203413456
 20
5.8342150358
 30
0.0
 10
11.2124891657
 20
5.8336034523
 30
0.0
 10
11.204651332
 20
5.8331363011
 30
0.0
 10
11.1968288198
 20
5.832810197
 30
0.0
 10
11.1890224513
 20
5.8326215586
 30
0.0
 10
11.1786479514
 20
5.8325483899
 30
0.0
 10
11.165719162
 20
5.832780633
 30
0.0
 10
11.1502626005
 20
5.8335472974
 30
0.0
 10
11.1399954896
 20
5.8343627892
 30
0.0
 10
11.1348765683
 20
5.834841059
 30
0.0
  0
SPLINE
  5
370
100
AcDbEntity
  8
0
100
AcDbSpline
 62
7
  6
CONTINUOUS
 70
0
 71
3
 72
20
 73
16
 74
0
 42
0.0000001
 43
0.0000001
 44
0.0000000001
 40
0.0
 40
0.0
 40
0.0
 40
0.0
 40
0.167791289
 40
0.321230862
 40
0.3927197966
 40
0.4608328722
 40
0.5256906367
 40
0.5874420075
 40
0.6462674693
 40
0.7023870406
 40
0.8075104824
 40
0.857266708
 40
0.9056376144
 40
0.9530598214
 40
1.0
 40
1.0
 40
1.0
 40
1.0
 10
10.7788320188
 20
11.0797584721
 30
0.0
 10
10.7779116845
 20
11.080269293
 30
0.0
 10
10.7761772042
 20
11.0812981972
 30
0.0
 10
10.7741507346
 20
11.0827041226
 30
0.0
 10
10.7727121386
 20
11.0838495526
 30
0.0
 10
10.7717473776
 20
11.0846955607
 30
0.0
 10
10.7708718602
 20
11.0855482854
 30
0.0
 10
10.7700862383
 20
11.0864071088
 30
0.0
 10
10.7693910686
 20
11.087271701
 30
0.0
 10
10.768603018
 20
11.088406033
 30
0.0
 10
10.7679716467
 20
11.0895778792
 30
0.0
 10
10.7675270034
 20
11.0907746133
 30
0.0
 10
10.7672926018
 20
11.0916586937
 30
0.0
 10
10.7671518383
 20
11.0925444832
 30
0.0
 10
10.7671204849
 20
11.0931369079
 30
0.0
 10
10.7671204885
 20
11.0934313745
 30
0.0
  0
SPLINE
  5
371
100
AcDbEntity
  8
0
100
AcDbSpline
 62
7
  6
CONTINUOUS
 70
0
 71
3
 72
15
 73
11
 74
0
 42
0.0000001
 43
0.0000001
 44
0.0000000001
 40
0.0
 40
0.0
 40
0.0
 40
0.0
 40
0.1273483281
 40
0.2538605602
 40
0.3795878981
 40
0.5046051042
 40
0.6290174419
 40
0.7529533761
 40
0.876560577
 40
1.0
 40
1.0
 40
1.0
 40
1.0
 10
10.2617469442
 20
9.1722830834
 30
0.0
 10
10.2617469442
 20
9.1689106946
 30
0.0
 10
10.261424949
 20
9.1621833957
 30
0.0
 10
10.2599687522
 20
9.1522218346
 30
0.0
 10
10.2575541363
 20
9.1425105721
 30
0.0
 10
10.25420291
 20
9.1331404266
 30
0.0
 10
10.2499458282
 20
9.1241978092
 30
0.0
 10
10.244821677
 20
9.1157653058
 30
0.0
 10
10.2388786495
 20
9.1079219219
 30
0.0
 10
10.2344038495
 20
9.1031307433
 30
0.0
 10
10.2320526946
 20
9.1008597056
 30
0.0
  0
SPLINE
  5
372
100
AcDbEntity
  8
0
100
AcDbSpline
 62
7
  6
CONTINUOUS
 70
0
 71
3
 72
15
 73
11
 74
0
 42
0.0000001
 43
0.0000001
 44
0.0000000001
 40
0.0
 40
0.0
 40
0.0
 40
0.0
 40
0.1273483281
 40
0.2538605602
 40
0.3795878981
 40
0.5046051042
 40
0.6290174419
 40
0.7529533761
 40
0.876560577
 40
1.0
 40
1.0
 40
1.0
 40
1.0
 10
10.2327691809
 20
7.6346067421
 30
0.0
 10
10.2327691809
 20
7.6312343533
 30
0.0
 10
10.2324471857
 20
7.6245070545
 30
0.0
 10
10.230990989
 20
7.6145454934
 30
0.0
 10
10.228576373
 20
7.6048342308
 30
0.0
 10
10.2252251467
 20
7.5954640853
 30
0.0
 10
10.2209680649
 20
7.5865214679
 30
0.0
 10
10.2158439138
 20
7.5780889645
 30
0.0
 10
10.2099008863
 20
7.5702455807
 30
0.0
 10
10.2054260862
 20
7.565454402
 30
0.0
 10
10.2030749313
 20
7.5631833643
 30
0.0
  0
SPLINE
  5
373
100
AcDbEntity
  8
0
100
AcDbSpline
 62
7
  6
CONTINUOUS
 70
0
 71
3
 72
15
 73
11
 74
0
 42
0.0000001
 43
0.0000001
 44
0.0000000001
 40
0.0
 40
0.0
 40
0.0
 40
0.0
 40
0.1273483281
 40
0.2538605602
 40
0.3795878981
 40
0.5046051042
 40
0.6290174419
 40
0.7529533761
 40
0.876560577
 40
1.0
 40
1.0
 40
1.0
 40
1.0
 10
11.4681884427
 20
7.5489301253
 30
0.0
 10
11.4681884427
 20
7.5455577365
 30
0.0
 10
11.4678664475
 20
7.5388304377
 30
0.0
 10
11.4664102508
 20
7.5288688765
 30
0.0
 10
11.4639956348
 20
7.519157614
 30
0.0
 10
11.4606444085
 20
7.5097874685
 30
0.0
 10
11.4563873267
 20
7.5008448511
 30
0.0
 10
11.4512631755
 20
7.4924123477
 30
0.0
 10
11.445320148
 20
7.4845689639
 30
0.0
 10
11.440845348
 20
7.4797777852
 30
0.0
 10
11.4384941931
 20
7.4775067475
 30
0.0
  0
SPLINE
  5
374
100
AcDbEntity
  8
0
100
AcDbSpline
 62
7
  6
CONTINUOUS
 70
0
 71
3
 72
15
 73
11
 74
0
 42
0.0000001
 43
0.0000001
 44
0.0000000001
 40
0.0
 40
0.0
 40
0.0
 40
0.0
 40
0.1273483281
 40
0.2538605602
 40
0.3795878981
 40
0.5046051042
 40
0.6290174419
 40
0.7529533761
 40
0.876560577
 40
1.0
 40
1.0
 40
1.0
 40
1.0
 10
11.4392105787
 20
9.090625703
 30
0.0
 10
11.4392105787
 20
9.0872533142
 30
0.0
 10
11.4388885835
 20
9.0805260153
 30
0.0
 10
11.4374323868
 20
9.0705644542
 30
0.0
 10
11.4350177708
 20
9.0608531917
 30
0.0
 10
11.4316665445
 20
9.0514830462
 30
0.0
 10
11.4274094627
 20
9.0425404288
 30
0.0
 10
11.4222853115
 20
9.0341079254
 30
0.0
 10
11.416342284
 20
9.0262645415
 30
0.0
 10
11.411867484
 20
9.0214733629
 30
0.0
 10
11.4095163291
 20
9.0192023252
 30
0.0
  0
SPLINE
  5
375
100
AcDbEntity
  8
0
100
AcDbSpline
 62
7
  6
CONTINUOUS
 70
0
 71
3
 72
15
 73
11
 74
0
 42
0.0000001
 43
0.0000001
 44
0.0000000001
 40
0.0
 40
0.0
 40
0.0
 40
0.0
 40
0.1273479682
 40
0.253860626
 40
0.3795879528
 40
0.5046051059
 40
0.6290174614
 40
0.7529533792
 40
0.8765605791
 40
1.0
 40
1.0
 40
1.0
 40
1.0
 10
11.4252047409
 20
7.8368592645
 30
0.0
 10
11.4252047409
 20
7.8348573908
 30
0.0
 10
11.4250136006
 20
7.8308640068
 30
0.0
 10
11.4241491949
 20
7.8249507356
 30
0.0
 10
11.4227158502
 20
7.8191860412
 30
0.0
 10
11.4207265218
 20
7.813623846
 30
0.0
 10
11.4181994706
 20
7.8083154363
 30
0.0
 10
11.4151577231
 20
7.8033098332
 30
0.0
 10
11.4116298873
 20
7.7986539345
 30
0.0
 10
11.4089736004
 20
7.7958098555
 30
0.0
 10
11.407577933
 20
7.7944617492
 30
0.0
  0
SPLINE
  5
376
100
AcDbEntity
  8
0
100
AcDbSpline
 62
7
  6
CONTINUOUS
 70
0
 71
3
 72
23
 73
19
 74
0
 42
0.0000001
 43
0.0000001
 44
0.0000000001
 40
0.0
 40
0.0
 40
0.0
 40
0.0
 40
0.0637766017
 40
0.1273450758
 40
0.1907019811
 40
0.2538560972
 40
0.3168132288
 40
0.3795820869
 40
0.442173391
 40
0.5045993435
 40
0.5668738649
 40
0.6290123754
 40
0.6910316459
 40
0.7529496407
 40
0.8147853465
 40
0.8765585942
 40
0.9382898499
 40
1.0
 40
1.0
 40
1.0
 40
1.0
 10
10.9866743336
 20
8.6390462564
 30
0.0
 10
10.9866743336
 20
8.6351890766
 30
0.0
 10
10.9864896968
 20
8.6274859979
 30
0.0
 10
10.9856564226
 20
8.6159782546
 30
0.0
 10
10.9842689772
 20
8.6045617093
 30
0.0
 10
10.9823307055
 20
8.5932632191
 30
0.0
 10
10.9798459299
 20
8.5821085791
 30
0.0
 10
10.9768204052
 20
8.571123576
 30
0.0
 10
10.9732610939
 20
8.5603335201
 30
0.0
 10
10.9691761401
 20
8.5497633012
 30
0.0
 10
10.9645749462
 20
8.5394373015
 30
0.0
 10
10.9594681266
 20
8.5293793261
 30
0.0
 10
10.9538674379
 20
8.5196125775
 30
0.0
 10
10.9477857478
 20
8.5101596004
 30
0.0
 10
10.9412371081
 20
8.501042215
 30
0.0
 10
10.9342365516
 20
8.4922813742
 30
0.0
 10
10.9268004983
 20
8.4838975576
 30
0.0
 10
10.9215632017
 20
8.4785716492
 30
0.0
 10
10.9188787925
 20
8.4759787208
 30
0.0
  0
SPLINE
  5
377
100
AcDbEntity
  8
0
100
AcDbSpline
 62
7
  6
CONTINUOUS
 70
0
 71
3
 72
23
 73
19
 74
0
 42
0.0000001
 43
0.0000001
 44
0.0000000001
 40
0.0
 40
0.0
 40
0.0
 40
0.0
 40
0.0637766017
 40
0.1273450758
 40
0.1907019811
 40
0.2538560972
 40
0.3168132288
 40
0.3795820869
 40
0.442173391
 40
0.5045993435
 40
0.5668738649
 40
0.6290123754
 40
0.6910316459
 40
0.7529496407
 40
0.8147853465
 40
0.8765585942
 40
0.9382898499
 40
1.0
 40
1.0
 40
1.0
 40
1.0
 10
11.3827039136
 20
8.2773711984
 30
0.0
 10
11.3827039136
 20
8.2735140186
 30
0.0
 10
11.3825192768
 20
8.2658109399
 30
0.0
 10
11.3816860026
 20
8.2543031966
 30
0.0
 10
11.3802985572
 20
8.2428866513
 30
0.0
 10
11.3783602855
 20
8.2315881612
 30
0.0
 10
11.3758755099
 20
8.2204335211
 30
0.0
 10
11.3728499852
 20
8.209448518
 30
0.0
 10
11.3692906739
 20
8.1986584621
 30
0.0
 10
11.3652057201
 20
8.1880882432
 30
0.0
 10
11.3606045262
 20
8.1777622435
 30
0.0
 10
11.3554977066
 20
8.1677042681
 30
0.0
 10
11.3498970179
 20
8.1579375195
 30
0.0
 10
11.3438153278
 20
8.1484845424
 30
0.0
 10
11.3372666881
 20
8.139367157
 30
0.0
 10
11.3302661316
 20
8.1306063162
 30
0.0
 10
11.3228300783
 20
8.1222224996
 30
0.0
 10
11.3175927817
 20
8.1168965912
 30
0.0
 10
11.3149083725
 20
8.1143036629
 30
0.0
  0
SPLINE
  5
378
100
AcDbEntity
  8
0
100
AcDbSpline
 62
7
  6
CONTINUOUS
 70
0
 71
3
 72
23
 73
19
 74
0
 42
0.0000001
 43
0.0000001
 44
0.0000000001
 40
0.0
 40
0.0
 40
0.0
 40
0.0
 40
0.0637766017
 40
0.1273450758
 40
0.1907019811
 40
0.2538560972
 40
0.3168132288
 40
0.3795820869
 40
0.442173391
 40
0.5045993435
 40
0.5668738649
 40
0.6290123754
 40
0.6910316459
 40
0.7529496407
 40
0.8147853465
 40
0.8765585942
 40
0.9382898499
 40
1.0
 40
1.0
 40
1.0
 40
1.0
 10
10.5916106383
 20
8.3322337034
 30
0.0
 10
10.5916106383
 20
8.3283765236
 30
0.0
 10
10.5914260015
 20
8.3206734449
 30
0.0
 10
10.5905927273
 20
8.3091657016
 30
0.0
 10
10.5892052818
 20
8.2977491563
 30
0.0
 10
10.5872670102
 20
8.2864506661
 30
0.0
 10
10.5847822346
 20
8.2752960261
 30
0.0
 10
10.5817567099
 20
8.264311023
 30
0.0
 10
10.5781973985
 20
8.2535209671
 30
0.0
 10
10.5741124448
 20
8.2429507482
 30
0.0
 10
10.5695112509
 20
8.2326247485
 30
0.0
 10
10.5644044312
 20
8.2225667731
 30
0.0
 10
10.5588037426
 20
8.2128000245
 30
0.0
 10
10.5527220525
 20
8.2033470474
 30
0.0
 10
10.5461734127
 20
8.194229662
 30
0.0
 10
10.5391728563
 20
8.1854688212
 30
0.0
 10
10.531736803
 20
8.1770850046
 30
0.0
 10
10.5264995063
 20
8.1717590962
 30
0.0
 10
10.5238150972
 20
8.1691661678
 30
0.0
  0
SPLINE
  5
379
100
AcDbEntity
  8
0
100
AcDbSpline
 62
7
  6
CONTINUOUS
 70
0
 71
3
 72
23
 73
19
 74
0
 42
0.0000001
 43
0.0000001
 44
0.0000000001
 40
0.0
 40
0.0
 40
0.0
 40
0.0
 40
0.0637766017
 40
0.1273450758
 40
0.1907019811
 40
0.2538560972
 40
0.3168132288
 40
0.3795820869
 40
0.442173391
 40
0.5045993435
 40
0.5668738649
 40
0.6290123754
 40
0.6910316459
 40
0.7529496407
 40
0.8147853465
 40
0.8765585942
 40
0.9382898499
 40
1.0
 40
1.0
 40
1.0
 40
1.0
 10
10.9866743336
 20
7.9735234277
 30
0.0
 10
10.9866743336
 20
7.9696662479
 30
0.0
 10
10.9864896968
 20
7.9619631692
 30
0.0
 10
10.9856564226
 20
7.9504554258
 30
0.0
 10
10.9842689772
 20
7.9390388806
 30
0.0
 10
10.9823307055
 20
7.9277403904
 30
0.0
 10
10.9798459299
 20
7.9165857504
 30
0.0
 10
10.9768204052
 20
7.9056007473
 30
0.0
 10
10.9732610939
 20
7.8948106914
 30
0.0
 10
10.9691761401
 20
7.8842404725
 30
0.0
 10
10.9645749462
 20
7.8739144728
 30
0.0
 10
10.9594681266
 20
7.8638564974
 30
0.0
 10
10.9538674379
 20
7.8540897487
 30
0.0
 10
10.9477857478
 20
7.8446367716
 30
0.0
 10
10.9412371081
 20
7.8355193863
 30
0.0
 10
10.9342365516
 20
7.8267585454
 30
0.0
 10
10.9268004983
 20
7.8183747289
 30
0.0
 10
10.9215632017
 20
7.8130488205
 30
0.0
 10
10.9188787925
 20
7.8104558921
 30
0.0
  0
SPLINE
  5
37A
100
AcDbEntity
  8
0
100
AcDbSpline
 62
7
  6
CONTINUOUS
 70
0
 71
3
 72
17
 73
13
 74
0
 42
0.0000001
 43
0.0000001
 44
0.0000000001
 40
0.0
 40
0.0
 40
0.0
 40
0.0
 40
0.1654013581
 40
0.3170797424
 40
0.4556112356
 40
0.5818967293
 40
0.6972702381
 40
0.8036121516
 40
0.8542031659
 40
0.9035258263
 40
0.9519826669
 40
1.0
 40
1.0
 40
1.0
 40
1.0
 10
10.8369725446
 20
8.591852882
 30
0.0
 10
10.8359454384
 20
8.5924617923
 30
0.0
 10
10.8340097944
 20
8.5936872445
 30
0.0
 10
10.8313624457
 20
8.5956445691
 30
0.0
 10
10.8291044107
 20
8.5976365861
 30
0.0
 10
10.8272413745
 20
8.5996601535
 30
0.0
 10
10.8257791033
 20
8.6017121002
 30
0.0
 10
10.8248854786
 20
8.6034738418
 30
0.0
 10
10.8243926762
 20
8.6048807956
 30
0.0
 10
10.8241325629
 20
8.6059215108
 30
0.0
 10
10.8239763168
 20
8.6069639594
 30
0.0
 10
10.8239415319
 20
8.607660899
 30
0.0
 10
10.8239415348
 20
8.6080075368
 30
0.0
  0
SPLINE
  5
37B
100
AcDbEntity
  8
0
100
AcDbSpline
 62
7
  6
CONTINUOUS
 70
0
 71
3
 72
15
 73
11
 74
0
 42
0.0000001
 43
0.0000001
 44
0.0000000001
 40
0.0
 40
0.0
 40
0.0
 40
0.0
 40
0.1285125777
 40
0.2563273362
 40
0.3832736505
 40
0.5091744244
 40
0.6338608184
 40
0.757205234
 40
0.879184985
 40
1.0
 40
1.0
 40
1.0
 40
1.0
 10
10.8052529577
 20
8.6173261911
 30
0.0
 10
10.8064638129
 20
8.6160557966
 30
0.0
 10
10.8089039842
 20
8.6135455862
 30
0.0
 10
10.8126368859
 20
8.6098758829
 30
0.0
 10
10.816439638
 20
8.606330405
 30
0.0
 10
10.8203198312
 20
8.602933921
 30
0.0
 10
10.8242878459
 20
8.5997173383
 30
0.0
 10
10.8283582517
 20
8.5967193566
 30
0.0
 10
10.8325508259
 20
8.5939890977
 30
0.0
 10
10.8354568017
 20
8.5923832484
 30
0.0
 10
10.8369357662
 20
8.5916519409
 30
0.0
  0
SPLINE
  5
37C
100
AcDbEntity
  8
0
100
AcDbSpline
 62
7
  6
CONTINUOUS
 70
0
 71
3
 72
21
 73
17
 74
0
 42
0.0000001
 43
0.0000001
 44
0.0000000001
 40
0.0
 40
0.0
 40
0.0
 40
0.0
 40
0.0646090579
 40
0.1282852121
 40
0.1911622057
 40
0.2533871358
 40
0.3151130901
 40
0.3764929957
 40
0.4376754101
 40
0.4988023007
 40
0.5600083041
 40
0.6214188945
 40
0.7452687502
 40
0.8079571535
 40
0.8712621942
 40
1.0
 40
1.0
 40
1.0
 40
1.0
 10
10.8729125448
 20
8.6939439986
 30
0.0
 10
10.8707487586
 20
8.6932031295
 30
0.0
 10
10.8665050404
 20
8.6915728617
 30
0.0
 10
10.8603777064
 20
8.6886876964
 30
0.0
 10
10.8545464796
 20
8.6854120953
 30
0.0
 10
10.849016319
 20
8.6817754362
 30
0.0
 10
10.8437877515
 20
8.67780468
 30
0.0
 10
10.8388588112
 20
8.673524209
 30
0.0
 10
10.8342258212
 20
8.668955647
 30
0.0
 10
10.8298842104
 20
8.6641180905
 30
0.0
 10
10.8258290735
 20
8.6590277331
 30
0.0
 10
10.8207851492
 20
8.6519043754
 30
0.0
 10
10.8163068815
 20
8.6443330874
 30
0.0
 10
10.812394545
 20
8.6363981376
 30
0.0
 10
10.8088092052
 20
8.6281212026
 30
0.0
 10
10.8065609606
 20
8.6216916579
 30
0.0
 10
10.8052529577
 20
8.6173261911
 30
0.0
  0
SPLINE
  5
37D
100
AcDbEntity
  8
0
100
AcDbSpline
 62
7
  6
CONTINUOUS
 70
0
 71
3
 72
11
 73
7
 74
0
 42
0.0000001
 43
0.0000001
 44
0.0000000001
 40
0.0
 40
0.0
 40
0.0
 40
0.0
 40
0.2374589018
 40
0.4828030463
 40
0.7368448793
 40
1.0
 40
1.0
 40
1.0
 40
1.0
 10
10.839130337
 20
8.5906296143
 30
0.0
 10
10.8385907934
 20
8.5879582176
 30
0.0
 10
10.8376120902
 20
8.5825021884
 30
0.0
 10
10.8364639926
 20
8.5741213876
 30
0.0
 10
10.835626422
 20
8.565407538
 30
0.0
 10
10.8352954513
 20
8.5594789462
 30
0.0
 10
10.835187665
 20
8.5564606142
 30
0.0
  0
SPLINE
  5
37E
100
AcDbEntity
  8
0
100
AcDbSpline
 62
7
  6
CONTINUOUS
 70
0
 71
3
 72
32
 73
28
 74
0
 42
0.0000001
 43
0.0000001
 44
0.0000000001
 40
0.0
 40
0.0
 40
0.0
 40
0.0
 40
0.0845017374
 40
0.167300855
 40
0.2480795303
 40
0.3265298693
 40
0.4023572177
 40
0.4752815404
 40
0.545039923
 40
0.5786558619
 40
0.6113908052
 40
0.6432178835
 40
0.6741118203
 40
0.704049142
 40
0.7330081882
 40
0.760969474
 40
0.7879156344
 40
0.8138319636
 40
0.8387063238
 40
0.8625298908
 40
0.8852970833
 40
0.9070065571
 40
0.9276612459
 40
0.94726967
 40
0.9658462264
 40
0.9834129037
 40
1.0
 40
1.0
 40
1.0
 40
1.0
 10
11.6657181821
 20
11.1276692415
 30
0.0
 10
11.6728391863
 20
11.1271753982
 30
0.0
 10
11.6869294105
 20
11.1260726788
 30
0.0
 10
11.7077888322
 20
11.1240506535
 30
0.0
 10
11.7280975759
 20
11.1216839382
 30
0.0
 10
11.7477703282
 20
11.11898258
 30
0.0
 10
11.7667246
 20
11.1159580804
 30
0.0
 10
11.7848808143
 20
11.1126232758
 30
0.0
 10
11.7994570502
 20
11.1095610265
 30
0.0
 10
11.8106565674
 20
11.10695865
 30
0.0
 10
11.818706457
 20
11.1049624494
 30
0.0
 10
11.826501997
 20
11.1028998803
 30
0.0
 10
11.834035023
 20
11.1007730909
 30
0.0
 10
11.8412976389
 20
11.0985843422
 30
0.0
 10
11.8482822385
 20
11.0963359209
 30
0.0
 10
11.8549815177
 20
11.0940302221
 30
0.0
 10
11.8613884718
 20
11.0916696396
 30
0.0
 10
11.8674964232
 20
11.0892566942
 30
0.0
 10
11.8732990022
 20
11.0867938695
 30
0.0
 10
11.8787901943
 20
11.084283795
 30
0.0
 10
11.8839642963
 20
11.0817290216
 30
0.0
 10
11.8888159905
 20
11.0791322616
 30
0.0
 10
11.8933402709
 20
11.0764960978
 30
0.0
 10
11.8975325325
 20
11.0738232935
 30
0.0
 10
11.9013885247
 20
11.0711163711
 30
0.0
 10
11.9049042077
 20
11.0683782153
 30
0.0
 10
11.9070797909
 20
11.0664802999
 30
0.0
 10
11.908105511
 20
11.065525759
 30
0.0
  0
SPLINE
  5
37F
100
AcDbEntity
  8
0
100
AcDbSpline
 62
7
  6
CONTINUOUS
 70
0
 71
3
 72
39
 73
35
 74
0
 42
0.0000001
 43
0.0000001
 44
0.0000000001
 40
0.0
 40
0.0
 40
0.0
 40
0.0
 40
0.0761045193
 40
0.1533639203
 40
0.2310946074
 40
0.3086064043
 40
0.385211887
 40
0.4229634241
 40
0.4602358098
 40
0.4969473753
 40
0.533018102
 40
0.5683699075
 40
0.6029269209
 40
0.6366157387
 40
0.6693657101
 40
0.7011092592
 40
0.7317822604
 40
0.7613243728
 40
0.7896794417
 40
0.8167959766
 40
0.8426277652
 40
0.8671345517
 40
0.8902828581
 40
0.9120470578
 40
0.9224052234
 40
0.9324121753
 40
0.9420676392
 40
0.9513721659
 40
0.9603273168
 40
0.9689355961
 40
0.9772009945
 40
0.9851289013
 40
0.9927259391
 40
1.0
 40
1.0
 40
1.0
 40
1.0
 10
11.1806916919
 20
6.372390334
 30
0.0
 10
11.1916148588
 20
6.3716328098
 30
0.0
 10
11.2136486732
 20
6.3704050617
 30
0.0
 10
11.2468855609
 20
6.3694121643
 30
0.0
 10
11.2803396217
 20
6.3692583343
 30
0.0
 10
11.3136927096
 20
6.3699451088
 30
0.0
 10
11.341271537
 20
6.3712183287
 30
0.0
 10
11.3630399254
 20
6.3726582332
 30
0.0
 10
11.3790652922
 20
6.3739365479
 30
0.0
 10
11.394830534
 20
6.375415323
 30
0.0
 10
11.4102981862
 20
6.3770910506
 30
0.0
 10
11.425431461
 20
6.3789597113
 30
0.0
 10
11.4401943862
 20
6.3810168268
 30
0.0
 10
11.4545518739
 20
6.383257469
 30
0.0
 10
11.4684698072
 20
6.3856762724
 30
0.0
 10
11.4819151281
 20
6.3882674461
 30
0.0
 10
11.4948559257
 20
6.3910247715
 30
0.0
 10
11.507261512
 20
6.3939416356
 30
0.0
 10
11.519102492
 20
6.3970110445
 30
0.0
 10
11.5303508514
 20
6.4002256484
 30
0.0
 10
11.5409800195
 20
6.4035777459
 30
0.0
 10
11.5509650332
 20
6.4070593175
 30
0.0
 10
11.5602823084
 20
6.4106620597
 30
0.0
 10
11.5675881545
 20
6.4138079637
 30
0.0
 10
11.5730743781
 20
6.4163859253
 30
0.0
 10
11.5769405745
 20
6.4183123864
 30
0.0
 10
11.5806241678
 20
6.420262647
 30
0.0
 10
11.5841229818
 20
6.4222356066
 30
0.0
 10
11.5874349772
 20
6.4242300431
 30
0.0
 10
11.5905582012
 20
6.4262448537
 30
0.0
 10
11.5934908666
 20
6.4282788745
 30
0.0
 10
11.5962313121
 20
6.4303309949
 30
0.0
 10
11.5987777808
 20
6.4323999776
 30
0.0
 10
11.6003793108
 20
6.4338200123
 30
0.0
 10
11.6011454518
 20
6.4345329494
 30
0.0
  0
SPLINE
  5
380
100
AcDbEntity
  8
0
100
AcDbSpline
 62
7
  6
CONTINUOUS
 70
0
 71
3
 72
18
 73
14
 74
0
 42
0.0000001
 43
0.0000001
 44
0.0000000001
 40
0.0
 40
0.0
 40
0.0
 40
0.0
 40
0.1480398292
 40
0.2876682556
 40
0.4195641674
 40
0.4828957087
 40
0.5446367957
 40
0.6638661732
 40
0.7785245117
 40
0.8345987502
 40
0.8900708087
 40
0.9451373958
 40
1.0
 40
1.0
 40
1.0
 40
1.0
 10
11.9391655293
 20
6.7599635479
 30
0.0
 10
11.9401933942
 20
6.7609563893
 30
0.0
 10
11.9421304804
 20
6.7629497939
 30
0.0
 10
11.9447349712
 20
6.7660564102
 30
0.0
 10
11.9466030828
 20
6.7687000226
 30
0.0
 10
11.9478896358
 20
6.7708219228
 30
0.0
 10
11.9490132258
 20
6.7728962603
 30
0.0
 10
11.9501808589
 20
6.7755064191
 30
0.0
 10
11.9510334859
 20
6.778179655
 30
0.0
 10
11.9515067117
 20
6.7803125627
 30
0.0
 10
11.9517585598
 20
6.7819021684
 30
0.0
 10
11.9519097112
 20
6.7834926556
 30
0.0
 10
11.9519433218
 20
6.7845541391
 30
0.0
 10
11.9519433176
 20
6.7850837432
 30
0.0
  0
SPLINE
  5
381
100
AcDbEntity
  8
0
100
AcDbSpline
 62
7
  6
CONTINUOUS
 70
0
 71
3
 72
11
 73
7
 74
0
 42
0.0000001
 43
0.0000001
 44
0.0000000001
 40
0.0
 40
0.0
 40
0.0
 40
0.0
 40
0.2424357427
 40
0.4879702401
 40
0.7395767998
 40
1.0
 40
1.0
 40
1.0
 40
1.0
 10
11.4104415152
 20
10.8680035044
 30
0.0
 10
11.4104415151
 20
10.866870774
 30
0.0
 10
11.4103064643
 20
10.864588622
 30
0.0
 10
11.4097004192
 20
10.861179262
 30
0.0
 10
11.4086924324
 20
10.857779096
 30
0.0
 10
11.4077722629
 20
10.8555655777
 30
0.0
 10
11.4072520412
 20
10.8544656205
 30
0.0
  0
SPLINE
  5
382
100
AcDbEntity
  8
0
100
AcDbSpline
 62
7
  6
CONTINUOUS
 70
0
 71
3
 72
61
 73
57
 74
0
 42
0.0000001
 43
0.0000001
 44
0.0000000001
 40
0.0
 40
0.0
 40
0.0
 40
0.0
 40
0.0077405056
 40
0.016054045
 40
0.0249601965
 40
0.0344716249
 40
0.0445948526
 40
0.0553316792
 40
0.0666798727
 40
0.0786338267
 40
0.0911850565
 40
0.1043225407
 40
0.1180330479
 40
0.1323014014
 40
0.147110671
 40
0.1624423155
 40
0.1782763555
 40
0.1945915063
 40
0.2113652743
 40
0.2285740403
 40
0.2461931772
 40
0.2641971348
 40
0.2825595019
 40
0.301253078
 40
0.3395209501
 40
0.378771041
 40
0.4187647941
 40
0.4592576453
 40
0.5000010365
 40
0.5407444178
 40
0.5812372413
 40
0.6212309494
 40
0.6604809738
 40
0.6987487694
 40
0.7174422989
 40
0.7358046076
 40
0.7538085114
 40
0.7714275977
 40
0.7886362982
 40
0.8054099914
 40
0.8217250777
 40
0.8375590536
 40
0.8528906154
 40
0.8676997981
 40
0.8819680792
 40
0.8956785099
 40
0.9088158977
 40
0.9213670344
 40
0.9333209115
 40
0.9446690175
 40
0.9554057427
 40
0.9655288794
 40
0.9750402132
 40
0.9839463305
 40
0.9922596961
 40
1.0
 40
1.0
 40
1.0
 40
1.0
 10
11.4298638992
 20
10.8708724163
 30
0.0
 10
11.4281073156
 20
10.8692377941
 30
0.0
 10
11.4243259591
 20
10.8659941938
 30
0.0
 10
11.4181227352
 20
10.8613616342
 30
0.0
 10
11.4112005175
 20
10.8567989186
 30
0.0
 10
11.4035706354
 20
10.852313249
 30
0.0
 10
11.3952448828
 20
10.8479114559
 30
0.0
 10
11.3862365773
 20
10.8436005594
 30
0.0
 10
11.3765601577
 20
10.8393874936
 30
0.0
 10
11.3662312501
 20
10.8352791348
 30
0.0
 10
11.3552666123
 20
10.831282235
 30
0.0
 10
11.3436841126
 20
10.8274033749
 30
0.0
 10
11.3315026808
 20
10.8236489585
 30
0.0
 10
11.3187422585
 20
10.8200252016
 30
0.0
 10
11.3054237673
 20
10.8165381159
 30
0.0
 10
11.2915690789
 20
10.8131934703
 30
0.0
 10
11.2772009644
 20
10.8099968058
 30
0.0
 10
11.2623430481
 20
10.8069534251
 30
0.0
 10
11.247019774
 20
10.8040683784
 30
0.0
 10
11.2312563688
 20
10.8013464376
 30
0.0
 10
11.2150787874
 20
10.7987921101
 30
0.0
 10
11.1985136763
 20
10.7964096399
 30
0.0
 10
11.1815882983
 20
10.7942029501
 30
0.0
 10
11.1583974419
 20
10.7914788457
 30
0.0
 10
11.128713738
 20
10.7885491437
 30
0.0
 10
11.0923860878
 20
10.7858110212
 30
0.0
 10
11.0553179582
 20
10.7838420686
 30
0.0
 10
11.0177535425
 20
10.7826554178
 30
0.0
 10
10.9799401294
 20
10.7822590042
 30
0.0
 10
10.9421267255
 20
10.782655475
 30
0.0
 10
10.9045623374
 20
10.7838421881
 30
0.0
 10
10.8674942536
 20
10.7858111915
 30
0.0
 10
10.8311666668
 20
10.7885493788
 30
0.0
 10
10.8014830259
 20
10.7914791202
 30
0.0
 10
10.7782922303
 20
10.7942032601
 30
0.0
 10
10.7613669062
 20
10.7964099833
 30
0.0
 10
10.7448018496
 20
10.7987924776
 30
0.0
 10
10.7286243244
 20
10.8013468234
 30
0.0
 10
10.7128609839
 20
10.8040687913
 30
0.0
 10
10.6975377802
 20
10.8069538685
 30
0.0
 10
10.6826799322
 20
10.8099972684
 30
0.0
 10
10.6683118884
 20
10.8131939488
 30
0.0
 10
10.6544572808
 20
10.8165386209
 30
0.0
 10
10.6411388741
 20
10.8200257331
 30
0.0
 10
10.6283785317
 20
10.8236495035
 30
0.0
 10
10.6161971835
 20
10.8274039337
 30
0.0
 10
10.6046147792
 20
10.831282819
 30
0.0
 10
10.5936502371
 20
10.83527974
 30
0.0
 10
10.5833214185
 20
10.8393881066
 30
0.0
 10
10.5736450935
 20
10.8436011838
 30
0.0
 10
10.5646368954
 20
10.8479121041
 30
0.0
 10
10.556311252
 20
10.8523139126
 30
0.0
 10
10.5486814477
 20
10.8567995804
 30
0.0
 10
10.5417593542
 20
10.8613623159
 30
0.0
 10
10.5355562825
 20
10.8659948643
 30
0.0
 10
10.5317750265
 20
10.8692384047
 30
0.0
 10
10.5300185169
 20
10.8708730146
 30
0.0
  0
SPLINE
  5
383
100
AcDbEntity
  8
0
100
AcDbSpline
 62
7
  6
CONTINUOUS
 70
0
 71
3
 72
11
 73
7
 74
0
 42
0.0000001
 43
0.0000001
 44
0.0000000001
 40
0.0
 40
0.0
 40
0.0
 40
0.0
 40
0.2424616472
 40
0.4880114483
 40
0.7396121191
 40
1.0
 40
1.0
 40
1.0
 40
1.0
 10
10.5494415424
 20
10.8680035044
 30
0.0
 10
10.5494415423
 20
10.8668728225
 30
0.0
 10
10.5495760989
 20
10.8645948563
 30
0.0
 10
10.5501799398
 20
10.8611916978
 30
0.0
 10
10.5511842597
 20
10.857797678
 30
0.0
 10
10.5521011458
 20
10.8555879889
 30
0.0
 10
10.5526195277
 20
10.8544899217
 30
0.0
  0
SPLINE
  5
384
100
AcDbEntity
  8
0
100
AcDbSpline
 62
7
  6
CONTINUOUS
 70
0
 71
3
 72
54
 73
50
 74
0
 42
0.0000001
 43
0.0000001
 44
0.0000000001
 40
0.0
 40
0.0
 40
0.0
 40
0.0
 40
0.0054809681
 40
0.011095678
 40
0.0169678263
 40
0.0232040887
 40
0.029891467
 40
0.0370976344
 40
0.0448735952
 40
0.0532561349
 40
0.0622709294
 40
0.0719343879
 40
0.0822557551
 40
0.0932382838
 40
0.1048803398
 40
0.1171763014
 40
0.1301169353
 40
0.143690235
 40
0.1578813611
 40
0.1726734104
 40
0.1880472204
 40
0.2039819484
 40
0.237440931
 40
0.2728537006
 40
0.3100016772
 40
0.3486492669
 40
0.3885468158
 40
0.4294333291
 40
0.4710390442
 40
0.5130879227
 40
0.5553000971
 40
0.5973942958
 40
0.6390902602
 40
0.6801111674
 40
0.7201860728
 40
0.7590523971
 40
0.7964584846
 40
0.8321662868
 40
0.8659542653
 40
0.8820651395
 40
0.89762218
 40
0.9126040026
 40
0.9269908541
 40
0.9407651377
 40
0.9539112728
 40
0.9664160626
 40
0.9782698436
 40
0.9894661738
 40
1.0
 40
1.0
 40
1.0
 40
1.0
 10
11.0171204726
 20
11.0934309739
 30
0.0
 10
11.017120467
 20
11.0929737514
 30
0.0
 10
11.0170438014
 20
11.0920464537
 30
0.0
 10
11.0167013411
 20
11.0906674469
 30
0.0
 10
11.0161334983
 20
11.0892969327
 30
0.0
 10
11.0153433553
 20
11.0879379217
 30
0.0
 10
11.0143336711
 20
11.0865920246
 30
0.0
 10
11.0131070221
 20
11.0852606826
 30
0.0
 10
11.0116657449
 20
11.0839454838
 30
0.0
 10
11.0100124076
 20
11.0826480802
 30
0.0
 10
11.0081497475
 20
11.0813704154
 30
0.0
 10
11.0060809162
 20
11.0801144469
 30
0.0
 10
11.0038094026
 20
11.0788822743
 30
0.0
 10
11.0013391035
 20
11.0776759889
 30
0.0
 10
10.9986742964
 20
11.076497678
 30
0.0
 10
10.9958196235
 20
11.0753494452
 30
0.0
 10
10.9927801032
 20
11.0742332897
 30
0.0
 10
10.9895610849
 20
11.0731512516
 30
0.0
 10
10.9861682687
 20
11.0721052171
 30
0.0
 10
10.9826076653
 20
11.0710971134
 30
0.0
 10
10.9788855962
 20
11.0701286916
 30
0.0
 10
10.9736304961
 20
11.0688722954
 30
0.0
 10
10.966704719
 20
11.0674212375
 30
0.0
 10
10.9579926716
 20
11.0658904796
 30
0.0
 10
10.9488111422
 20
11.0645543307
 30
0.0
 10
10.9392255311
 20
11.0634224814
 30
0.0
 10
10.9293040494
 20
11.0625031701
 30
0.0
 10
10.9191174015
 20
11.0618030693
 30
0.0
 10
10.908738206
 20
11.0613272588
 30
0.0
 10
10.8982404811
 20
11.061079188
 30
0.0
 10
10.8876991021
 20
11.061060655
 30
0.0
 10
10.8771892607
 20
11.0612717941
 30
0.0
 10
10.8667859201
 20
11.0617110754
 30
0.0
 10
10.856563274
 20
11.0623753146
 30
0.0
 10
10.8465942029
 20
11.0632596933
 30
0.0
 10
10.8369497566
 20
11.0643577927
 30
0.0
 10
10.8276985766
 20
11.0656616213
 30
0.0
 10
10.8189065693
 20
11.0671617228
 30
0.0
 10
10.8119075386
 20
11.0685878979
 30
0.0
 10
10.8065889395
 20
11.0698251721
 30
0.0
 10
10.8028162025
 20
11.0707804157
 30
0.0
 10
10.7992028295
 20
11.0717759081
 30
0.0
 10
10.7957552334
 20
11.0728099145
 30
0.0
 10
10.7924795319
 20
11.0738805573
 30
0.0
 10
10.7893815367
 20
11.07498592
 30
0.0
 10
10.7864667054
 20
11.0761240238
 30
0.0
 10
10.7837400823
 20
11.0772928757
 30
0.0
 10
10.7812066259
 20
11.0784903827
 30
0.0
 10
10.7796003374
 20
11.0793320258
 30
0.0
 10
10.7788320188
 20
11.0797584721
 30
0.0
  0
SPLINE
  5
385
100
AcDbEntity
  8
0
100
AcDbSpline
 62
7
  6
CONTINUOUS
 70
0
 71
3
 72
32
 73
28
 74
0
 42
0.0000001
 43
0.0000001
 44
0.0000000001
 40
0.0
 40
0.0
 40
0.0
 40
0.0
 40
0.0165870963
 40
0.0341537736
 40
0.05273033
 40
0.0723387541
 40
0.0929934429
 40
0.1147029167
 40
0.1374701092
 40
0.1612936762
 40
0.1861680364
 40
0.2120843656
 40
0.239030526
 40
0.2669918118
 40
0.295950858
 40
0.3258881797
 40
0.3567821165
 40
0.3886091948
 40
0.4213441381
 40
0.454960077
 40
0.5247184596
 40
0.5976427823
 40
0.6734701307
 40
0.7519204697
 40
0.832699145
 40
0.9154982626
 40
1.0
 40
1.0
 40
1.0
 40
1.0
 10
10.0931192149
 20
6.4931476056
 30
0.0
 10
10.0941449351
 20
6.4921930647
 30
0.0
 10
10.0963205183
 20
6.4902951493
 30
0.0
 10
10.0998362013
 20
6.4875569935
 30
0.0
 10
10.1036921935
 20
6.484850071
 30
0.0
 10
10.107884455
 20
6.4821772667
 30
0.0
 10
10.1124087354
 20
6.479541103
 30
0.0
 10
10.1172604296
 20
6.4769443429
 30
0.0
 10
10.1224345316
 20
6.4743895696
 30
0.0
 10
10.1279257238
 20
6.471879495
 30
0.0
 10
10.1337283028
 20
6.4694166703
 30
0.0
 10
10.1398362542
 20
6.467003725
 30
0.0
 10
10.1462432082
 20
6.4646431424
 30
0.0
 10
10.1529424874
 20
6.4623374436
 30
0.0
 10
10.159927087
 20
6.4600890224
 30
0.0
 10
10.167189703
 20
6.4579002736
 30
0.0
 10
10.174722729
 20
6.4557734842
 30
0.0
 10
10.182518269
 20
6.4537109152
 30
0.0
 10
10.1905681585
 20
6.4517147146
 30
0.0
 10
10.2017676757
 20
6.449112338
 30
0.0
 10
10.2163439117
 20
6.4460500888
 30
0.0
 10
10.234500126
 20
6.4427152842
 30
0.0
 10
10.2534543978
 20
6.4396907845
 30
0.0
 10
10.2731271501
 20
6.4369894264
 30
0.0
 10
10.2934358938
 20
6.4346227111
 30
0.0
 10
10.3142953155
 20
6.4326006858
 30
0.0
 10
10.3283855397
 20
6.4314979664
 30
0.0
 10
10.3355065438
 20
6.4310041231
 30
0.0
  0
SPLINE
  5
386
100
AcDbEntity
  8
0
100
AcDbSpline
 62
7
  6
CONTINUOUS
 70
0
 71
3
 72
18
 73
14
 74
0
 42
0.0000001
 43
0.0000001
 44
0.0000000001
 40
0.0
 40
0.0
 40
0.0
 40
0.0
 40
0.0548626221
 40
0.1099291996
 40
0.1654012684
 40
0.2214754896
 40
0.3361336267
 40
0.4553633642
 40
0.5171046005
 40
0.5804361693
 40
0.7123314363
 40
0.8519591016
 40
1.0
 40
1.0
 40
1.0
 40
1.0
 10
10.0492814141
 20
10.7735896214
 30
0.0
 10
10.0492814112
 20
10.7741192256
 30
0.0
 10
10.0493150138
 20
10.7751807093
 30
0.0
 10
10.0494661573
 20
10.7767711978
 30
0.0
 10
10.0497180149
 20
10.7783608021
 30
0.0
 10
10.0501912472
 20
10.7804937058
 30
0.0
 10
10.0510438514
 20
10.7831669509
 30
0.0
 10
10.0522115087
 20
10.7857771029
 30
0.0
 10
10.0533350927
 20
10.7878514492
 30
0.0
 10
10.0546216458
 20
10.7899733443
 30
0.0
 10
10.0564897492
 20
10.7926169459
 30
0.0
 10
10.0590942315
 20
10.7957235654
 30
0.0
 10
10.0610313243
 20
10.7977169681
 30
0.0
 10
10.0620591967
 20
10.7987098167
 30
0.0
  0
SPLINE
  5
387
100
AcDbEntity
  8
0
100
AcDbSpline
 62
7
  6
CONTINUOUS
 70
0
 71
3
 72
39
 73
35
 74
0
 42
0.0000001
 43
0.0000001
 44
0.0000000001
 40
0.0
 40
0.0
 40
0.0
 40
0.0
 40
0.0072740609
 40
0.0148710987
 40
0.0227990055
 40
0.0310644039
 40
0.0396726832
 40
0.0486278341
 40
0.0579323608
 40
0.0675878247
 40
0.0775947766
 40
0.0879529422
 40
0.1097171419
 40
0.1328654483
 40
0.1573722348
 40
0.1832040234
 40
0.2103205583
 40
0.2386756272
 40
0.2682177396
 40
0.2988907408
 40
0.3306342899
 40
0.3633842613
 40
0.3970730791
 40
0.4316300925
 40
0.466981898
 40
0.5030526247
 40
0.5397641902
 40
0.5770365759
 40
0.614788113
 40
0.6913935957
 40
0.7689053926
 40
0.8466360797
 40
0.9238954807
 40
1.0
 40
1.0
 40
1.0
 40
1.0
 10
10.4000792741
 20
11.1241404151
 30
0.0
 10
10.4008454152
 20
11.1248533522
 30
0.0
 10
10.4024469451
 20
11.1262733869
 30
0.0
 10
10.4049934138
 20
11.1283423697
 30
0.0
 10
10.4077338593
 20
11.13039449
 30
0.0
 10
10.4106665247
 20
11.1324285108
 30
0.0
 10
10.4137897488
 20
11.1344433215
 30
0.0
 10
10.4171017442
 20
11.136437758
 30
0.0
 10
10.4206005581
 20
11.1384107175
 30
0.0
 10
10.4242841514
 20
11.1403609781
 30
0.0
 10
10.4281503479
 20
11.1422874392
 30
0.0
 10
10.4336365714
 20
11.1448654009
 30
0.0
 10
10.4409424175
 20
11.1480113049
 30
0.0
 10
10.4502596928
 20
11.151614047
 30
0.0
 10
10.4602447064
 20
11.1550956187
 30
0.0
 10
10.4708738745
 20
11.1584477162
 30
0.0
 10
10.482122234
 20
11.1616623201
 30
0.0
 10
10.493963214
 20
11.164731729
 30
0.0
 10
10.5063688003
 20
11.167648593
 30
0.0
 10
10.5193095978
 20
11.1704059184
 30
0.0
 10
10.5327549188
 20
11.1729970922
 30
0.0
 10
10.546672852
 20
11.1754158956
 30
0.0
 10
10.5610303398
 20
11.1776565377
 30
0.0
 10
10.5757932649
 20
11.1797136532
 30
0.0
 10
10.5909265398
 20
11.181582314
 30
0.0
 10
10.606394192
 20
11.1832580415
 30
0.0
 10
10.6221594337
 20
11.1847368167
 30
0.0
 10
10.6381848005
 20
11.1860151314
 30
0.0
 10
10.6599531889
 20
11.1874550358
 30
0.0
 10
10.6875320164
 20
11.1887282558
 30
0.0
 10
10.7208851043
 20
11.1894150303
 30
0.0
 10
10.754339165
 20
11.1892612003
 30
0.0
 10
10.7875760528
 20
11.1882683029
 30
0.0
 10
10.8096098672
 20
11.1870405548
 30
0.0
 10
10.8205330341
 20
11.1862830306
 30
0.0
  0
SPLINE
  5
388
100
AcDbEntity
  8
0
100
AcDbSpline
 62
7
  6
CONTINUOUS
 70
0
 71
3
 72
18
 73
14
 74
0
 42
0.0000001
 43
0.0000001
 44
0.0000000001
 40
0.0
 40
0.0
 40
0.0
 40
0.0
 40
0.1492375281
 40
0.289655037
 40
0.421961834
 40
0.4853619434
 40
0.5470838486
 40
0.6660306073
 40
0.780131264
 40
0.8358489547
 40
0.8909261061
 40
0.94557164
 40
1.0
 40
1.0
 40
1.0
 40
1.0
 10
11.9379719161
 20
11.037731943
 30
0.0
 10
11.9390734097
 20
11.0367068806
 30
0.0
 10
11.9411492631
 20
11.0346487512
 30
0.0
 10
11.9439439808
 20
11.0314357153
 30
0.0
 10
11.9459503995
 20
11.028698418
 30
0.0
 10
11.9473323111
 20
11.0265002565
 30
0.0
 10
11.9485376118
 20
11.0243538816
 30
0.0
 10
11.9497908213
 20
11.0216522607
 30
0.0
 10
11.9507072014
 20
11.0188808433
 30
0.0
 10
11.9512156484
 20
11.0166697781
 30
0.0
 10
11.9514861022
 20
11.0150226067
 30
0.0
 10
11.9516483888
 20
11.0133744405
 30
0.0
 10
11.9516844901
 20
11.0122743737
 30
0.0
 10
11.951684493
 20
11.011725605
 30
0.0
  0
SPLINE
  5
389
100
AcDbEntity
  8
0
100
AcDbSpline
 62
7
  6
CONTINUOUS
 70
0
 71
3
 72
40
 73
36
 74
0
 42
0.0000001
 43
0.0000001
 44
0.0000000001
 40
0.0
 40
0.0
 40
0.0
 40
0.0
 40
0.0299422956
 40
0.059908968
 40
0.0899238
 40
0.1200094056
 40
0.1350882594
 40
0.1501924656
 40
0.1804801452
 40
0.2108943177
 40
0.241448122
 40
0.2721514726
 40
0.3030108797
 40
0.334029354
 40
0.3652063934
 40
0.3965380465
 40
0.4280170486
 40
0.4596330217
 40
0.4913727316
 40
0.5232203951
 40
0.5551580282
 40
0.5871658292
 40
0.6192225887
 40
0.6513061205
 40
0.6833937063
 40
0.715462548
 40
0.7474902197
 40
0.779455117
 40
0.8113368874
 40
0.8431168691
 40
0.8747784143
 40
0.9063074703
 40
0.9376922765
 40
0.9689251917
 40
1.0
 40
1.0
 40
1.0
 40
1.0
 10
10.0799034253
 20
9.2583766553
 30
0.0
 10
10.081719994
 20
9.2601313231
 30
0.0
 10
10.085495967
 20
9.2634990397
 30
0.0
 10
10.0915457175
 20
9.2680869877
 30
0.0
 10
10.0979500746
 20
9.2721882231
 30
0.0
 10
10.1035496612
 20
9.275179443
 30
0.0
 10
10.1081677652
 20
9.277307341
 30
0.0
 10
10.112881288
 20
9.2792595837
 30
0.0
 10
10.1189285169
 20
9.2813588016
 30
0.0
 10
10.1263808172
 20
9.2833152239
 30
0.0
 10
10.1339957295
 20
9.2847012038
 30
0.0
 10
10.1417310538
 20
9.2855090958
 30
0.0
 10
10.1495442975
 20
9.2857345892
 30
0.0
 10
10.1573924698
 20
9.285376537
 30
0.0
 10
10.1652324353
 20
9.2844370079
 30
0.0
 10
10.1730211171
 20
9.2829212569
 30
0.0
 10
10.1807157388
 20
9.280837696
 30
0.0
 10
10.1882740544
 20
9.2781978452
 30
0.0
 10
10.195654577
 20
9.2750162666
 30
0.0
 10
10.2028168038
 20
9.2713104843
 30
0.0
 10
10.2097214343
 20
9.2671008869
 30
0.0
 10
10.2163305838
 20
9.2624106166
 30
0.0
 10
10.2226079884
 20
9.257265442
 30
0.0
 10
10.2285192021
 20
9.2516936194
 30
0.0
 10
10.2340317845
 20
9.2457257381
 30
0.0
 10
10.2391154758
 20
9.2393945532
 30
0.0
 10
10.2437423616
 20
9.2327348077
 30
0.0
 10
10.2478870234
 20
9.2257830444
 30
0.0
 10
10.2515266816
 20
9.2185774067
 30
0.0
 10
10.2546413068
 20
9.2111574362
 30
0.0
 10
10.2572137632
 20
9.2035638382
 30
0.0
 10
10.2592298259
 20
9.195838346
 30
0.0
 10
10.2606784123
 20
9.1880231859
 30
0.0
 10
10.2615513965
 20
9.1801618914
 30
0.0
 10
10.2617469442
 20
9.1749042354
 30
0.0
 10
10.2617469442
 20
9.1722830834
 30
0.0
  0
SPLINE
  5
38A
100
AcDbEntity
  8
0
100
AcDbSpline
 62
7
  6
CONTINUOUS
 70
0
 71
3
 72
18
 73
14
 74
0
 42
0.0000001
 43
0.0000001
 44
0.0000000001
 40
0.0
 40
0.0
 40
0.0
 40
0.0
 40
0.0544283445
 40
0.1090738848
 40
0.1641509678
 40
0.2198686475
 40
0.3339693981
 40
0.4529160294
 40
0.5146381007
 40
0.5780380279
 40
0.7103448746
 40
0.8507621281
 40
1.0
 40
1.0
 40
1.0
 40
1.0
 10
10.0495402272
 20
6.5469477596
 30
0.0
 10
10.0495402315
 20
6.5463989909
 30
0.0
 10
10.0495763406
 20
6.545298924
 30
0.0
 10
10.0497386383
 20
6.54365076
 30
0.0
 10
10.0500090693
 20
6.5420035854
 30
0.0
 10
10.0505175207
 20
6.5397925197
 30
0.0
 10
10.0514339189
 20
6.5370211099
 30
0.0
 10
10.0526871051
 20
6.5343194752
 30
0.0
 10
10.05389243
 20
6.5321731151
 30
0.0
 10
10.055274319
 20
6.5299749386
 30
0.0
 10
10.0572807555
 20
6.5272376576
 30
0.0
 10
10.0600754534
 20
6.5240246025
 30
0.0
 10
10.0621513201
 20
6.5219664832
 30
0.0
 10
10.0632528203
 20
6.5209414223
 30
0.0
  0
SPLINE
  5
38B
100
AcDbEntity
  8
0
100
AcDbSpline
 62
7
  6
CONTINUOUS
 70
0
 71
3
 72
40
 73
36
 74
0
 42
0.0000001
 43
0.0000001
 44
0.0000000001
 40
0.0
 40
0.0
 40
0.0
 40
0.0
 40
0.0299422956
 40
0.059908968
 40
0.0899238
 40
0.1200094056
 40
0.1350882594
 40
0.1501924656
 40
0.1804801452
 40
0.2108943177
 40
0.241448122
 40
0.2721514726
 40
0.3030108797
 40
0.334029354
 40
0.3652063934
 40
0.3965380465
 40
0.4280170486
 40
0.4596330217
 40
0.4913727316
 40
0.5232203951
 40
0.5551580282
 40
0.5871658292
 40
0.6192225887
 40
0.6513061205
 40
0.6833937063
 40
0.715462548
 40
0.7474902197
 40
0.779455117
 40
0.8113368874
 40
0.8431168691
 40
0.8747784143
 40
0.9063074703
 40
0.9376922765
 40
0.9689251917
 40
1.0
 40
1.0
 40
1.0
 40
1.0
 10
10.0509256621
 20
7.720700314
 30
0.0
 10
10.0527422307
 20
7.7224549818
 30
0.0
 10
10.0565182037
 20
7.7258226984
 30
0.0
 10
10.0625679543
 20
7.7304106464
 30
0.0
 10
10.0689723113
 20
7.7345118819
 30
0.0
 10
10.074571898
 20
7.7375031017
 30
0.0
 10
10.0791900019
 20
7.7396309997
 30
0.0
 10
10.0839035248
 20
7.7415832425
 30
0.0
 10
10.0899507536
 20
7.7436824604
 30
0.0
 10
10.0974030539
 20
7.7456388826
 30
0.0
 10
10.1050179663
 20
7.7470248625
 30
0.0
 10
10.1127532905
 20
7.7478327545
 30
0.0
 10
10.1205665342
 20
7.748058248
 30
0.0
 10
10.1284147065
 20
7.7477001958
 30
0.0
 10
10.1362546721
 20
7.7467606667
 30
0.0
 10
10.1440433538
 20
7.7452449156
 30
0.0
 10
10.1517379756
 20
7.7431613548
 30
0.0
 10
10.1592962911
 20
7.7405215039
 30
0.0
 10
10.1666768138
 20
7.7373399254
 30
0.0
 10
10.1738390405
 20
7.733634143
 30
0.0
 10
10.180743671
 20
7.7294245456
 30
0.0
 10
10.1873528206
 20
7.7247342753
 30
0.0
 10
10.1936302251
 20
7.7195891007
 30
0.0
 10
10.1995414388
 20
7.7140172781
 30
0.0
 10
10.2050540213
 20
7.7080493969
 30
0.0
 10
10.2101377125
 20
7.7017182119
 30
0.0
 10
10.2147645984
 20
7.6950584665
 30
0.0
 10
10.2189092601
 20
7.6881067032
 30
0.0
 10
10.2225489184
 20
7.6809010654
 30
0.0
 10
10.2256635436
 20
7.673481095
 30
0.0
 10
10.228236
 20
7.6658874969
 30
0.0
 10
10.2302520627
 20
7.6581620047
 30
0.0
 10
10.2317006491
 20
7.6503468446
 30
0.0
 10
10.2325736332
 20
7.6424855502
 30
0.0
 10
10.2327691809
 20
7.6372278941
 30
0.0
 10
10.2327691809
 20
7.6346067421
 30
0.0
  0
SPLINE
  5
38C
100
AcDbEntity
  8
0
100
AcDbSpline
 62
7
  6
CONTINUOUS
 70
0
 71
3
 72
40
 73
36
 74
0
 42
0.0000001
 43
0.0000001
 44
0.0000000001
 40
0.0
 40
0.0
 40
0.0
 40
0.0
 40
0.0299422956
 40
0.059908968
 40
0.0899238
 40
0.1200094056
 40
0.1350882594
 40
0.1501924656
 40
0.1804801452
 40
0.2108943177
 40
0.241448122
 40
0.2721514726
 40
0.3030108797
 40
0.334029354
 40
0.3652063934
 40
0.3965380465
 40
0.4280170486
 40
0.4596330217
 40
0.4913727316
 40
0.5232203951
 40
0.5551580282
 40
0.5871658292
 40
0.6192225887
 40
0.6513061205
 40
0.6833937063
 40
0.715462548
 40
0.7474902197
 40
0.779455117
 40
0.8113368874
 40
0.8431168691
 40
0.8747784143
 40
0.9063074703
 40
0.9376922765
 40
0.9689251917
 40
1.0
 40
1.0
 40
1.0
 40
1.0
 10
11.2863449239
 20
7.6350236972
 30
0.0
 10
11.2881614925
 20
7.636778365
 30
0.0
 10
11.2919374655
 20
7.6401460816
 30
0.0
 10
11.2979872161
 20
7.6447340296
 30
0.0
 10
11.3043915731
 20
7.648835265
 30
0.0
 10
11.3099911597
 20
7.6518264849
 30
0.0
 10
11.3146092637
 20
7.6539543829
 30
0.0
 10
11.3193227866
 20
7.6559066257
 30
0.0
 10
11.3253700154
 20
7.6580058436
 30
0.0
 10
11.3328223157
 20
7.6599622658
 30
0.0
 10
11.3404372281
 20
7.6613482457
 30
0.0
 10
11.3481725523
 20
7.6621561377
 30
0.0
 10
11.355985796
 20
7.6623816312
 30
0.0
 10
11.3638339683
 20
7.662023579
 30
0.0
 10
11.3716739339
 20
7.6610840499
 30
0.0
 10
11.3794626156
 20
7.6595682988
 30
0.0
 10
11.3871572373
 20
7.657484738
 30
0.0
 10
11.3947155529
 20
7.6548448871
 30
0.0
 10
11.4020960756
 20
7.6516633086
 30
0.0
 10
11.4092583023
 20
7.6479575262
 30
0.0
 10
11.4161629328
 20
7.6437479288
 30
0.0
 10
11.4227720824
 20
7.6390576585
 30
0.0
 10
11.4290494869
 20
7.6339124839
 30
0.0
 10
11.4349607006
 20
7.6283406613
 30
0.0
 10
11.4404732831
 20
7.62237278
 30
0.0
 10
11.4455569743
 20
7.6160415951
 30
0.0
 10
11.4501838602
 20
7.6093818497
 30
0.0
 10
11.4543285219
 20
7.6024300864
 30
0.0
 10
11.4579681802
 20
7.5952244486
 30
0.0
 10
11.4610828054
 20
7.5878044782
 30
0.0
 10
11.4636552618
 20
7.5802108801
 30
0.0
 10
11.4656713244
 20
7.5724853879
 30
0.0
 10
11.4671199109
 20
7.5646702278
 30
0.0
 10
11.467992895
 20
7.5568089334
 30
0.0
 10
11.4681884427
 20
7.5515512773
 30
0.0
 10
11.4681884427
 20
7.5489301253
 30
0.0
  0
SPLINE
  5
38D
100
AcDbEntity
  8
0
100
AcDbSpline
 62
7
  6
CONTINUOUS
 70
0
 71
3
 72
40
 73
36
 74
0
 42
0.0000001
 43
0.0000001
 44
0.0000000001
 40
0.0
 40
0.0
 40
0.0
 40
0.0
 40
0.0299422956
 40
0.059908968
 40
0.0899238
 40
0.1200094056
 40
0.1350882594
 40
0.1501924656
 40
0.1804801452
 40
0.2108943177
 40
0.241448122
 40
0.2721514726
 40
0.3030108797
 40
0.334029354
 40
0.3652063934
 40
0.3965380465
 40
0.4280170486
 40
0.4596330217
 40
0.4913727316
 40
0.5232203951
 40
0.5551580282
 40
0.5871658292
 40
0.6192225887
 40
0.6513061205
 40
0.6833937063
 40
0.715462548
 40
0.7474902197
 40
0.779455117
 40
0.8113368874
 40
0.8431168691
 40
0.8747784143
 40
0.9063074703
 40
0.9376922765
 40
0.9689251917
 40
1.0
 40
1.0
 40
1.0
 40
1.0
 10
11.2573670598
 20
9.1767192749
 30
0.0
 10
11.2591836285
 20
9.1784739427
 30
0.0
 10
11.2629596015
 20
9.1818416593
 30
0.0
 10
11.2690093521
 20
9.1864296073
 30
0.0
 10
11.2754137091
 20
9.1905308427
 30
0.0
 10
11.2810132957
 20
9.1935220626
 30
0.0
 10
11.2856313997
 20
9.1956499606
 30
0.0
 10
11.2903449225
 20
9.1976022033
 30
0.0
 10
11.2963921514
 20
9.1997014212
 30
0.0
 10
11.3038444517
 20
9.2016578435
 30
0.0
 10
11.311459364
 20
9.2030438234
 30
0.0
 10
11.3191946883
 20
9.2038517154
 30
0.0
 10
11.327007932
 20
9.2040772088
 30
0.0
 10
11.3348561043
 20
9.2037191566
 30
0.0
 10
11.3426960698
 20
9.2027796275
 30
0.0
 10
11.3504847516
 20
9.2012638765
 30
0.0
 10
11.3581793733
 20
9.1991803156
 30
0.0
 10
11.3657376889
 20
9.1965404648
 30
0.0
 10
11.3731182116
 20
9.1933588862
 30
0.0
 10
11.3802804383
 20
9.1896531039
 30
0.0
 10
11.3871850688
 20
9.1854435065
 30
0.0
 10
11.3937942184
 20
9.1807532362
 30
0.0
 10
11.4000716229
 20
9.1756080616
 30
0.0
 10
11.4059828366
 20
9.170036239
 30
0.0
 10
11.411495419
 20
9.1640683577
 30
0.0
 10
11.4165791103
 20
9.1577371728
 30
0.0
 10
11.4212059961
 20
9.1510774273
 30
0.0
 10
11.4253506579
 20
9.144125664
 30
0.0
 10
11.4289903161
 20
9.1369200263
 30
0.0
 10
11.4321049414
 20
9.1295000558
 30
0.0
 10
11.4346773977
 20
9.1219064578
 30
0.0
 10
11.4366934604
 20
9.1141809656
 30
0.0
 10
11.4381420469
 20
9.1063658055
 30
0.0
 10
11.439015031
 20
9.098504511
 30
0.0
 10
11.4392105787
 20
9.093246855
 30
0.0
 10
11.4392105787
 20
9.090625703
 30
0.0
  0
SPLINE
  5
38E
100
AcDbEntity
  8
0
100
AcDbSpline
 62
7
  6
CONTINUOUS
 70
0
 71
3
 72
39
 73
35
 74
0
 42
0.0000001
 43
0.0000001
 44
0.0000000001
 40
0.0
 40
0.0
 40
0.0
 40
0.0
 40
0.0299424695
 40
0.0599093169
 40
0.0899243245
 40
0.1200101059
 40
0.1501875675
 40
0.1804754226
 40
0.2108897705
 40
0.2414437509
 40
0.2721472792
 40
0.3030068663
 40
0.3340255229
 40
0.3652027461
 40
0.3965345839
 40
0.428013771
 40
0.4596299292
 40
0.4913698241
 40
0.5232176721
 40
0.555155489
 40
0.5871634725
 40
0.6192204135
 40
0.6513041268
 40
0.6833918949
 40
0.7154609201
 40
0.7474887765
 40
0.7794538578
 40
0.8113358145
 40
0.8431159703
 40
0.8747777248
 40
0.9063068724
 40
0.9376921006
 40
0.9689246636
 40
1.0
 40
1.0
 40
1.0
 40
1.0
 10
10.5715069329
 20
8.1700845571
 30
0.0
 10
10.5756543515
 20
8.1740906376
 30
0.0
 10
10.5842753351
 20
8.1817794608
 30
0.0
 10
10.5980874616
 20
8.1922541362
 30
0.0
 10
10.6127096726
 20
8.201617796
 30
0.0
 10
10.6280602548
 20
8.2098179244
 30
0.0
 10
10.6440548127
 20
8.2168097227
 30
0.0
 10
10.6606050734
 20
8.2225547595
 30
0.0
 10
10.6776198361
 20
8.2270216018
 30
0.0
 10
10.6950053626
 20
8.2301858614
 30
0.0
 10
10.7126659324
 20
8.2320303482
 30
0.0
 10
10.7305043633
 20
8.2325451412
 30
0.0
 10
10.7484225478
 20
8.2317276398
 30
0.0
 10
10.7663219908
 20
8.229582566
 30
0.0
 10
10.7841043463
 20
8.2261219203
 30
0.0
 10
10.801671951
 20
8.2213649092
 30
0.0
 10
10.8189283532
 20
8.2153378336
 30
0.0
 10
10.8357788341
 20
8.2080739397
 30
0.0
 10
10.8521309202
 20
8.1996132346
 30
0.0
 10
10.8678948833
 20
8.1900022658
 30
0.0
 10
10.8829842315
 20
8.1792938747
 30
0.0
 10
10.8973161743
 20
8.1675468979
 30
0.0
 10
10.9108120707
 20
8.1548258473
 30
0.0
 10
10.9233978554
 20
8.1412005588
 30
0.0
 10
10.9350044409
 20
8.1267458131
 30
0.0
 10
10.9455680926
 20
8.1115409297
 30
0.0
 10
10.9550307747
 20
8.0956693371
 30
0.0
 10
10.9633404714
 20
8.0792181208
 30
0.0
 10
10.9704514761
 20
8.062277561
 30
0.0
 10
10.9763246208
 20
8.0449406014
 30
0.0
 10
10.9809275365
 20
8.027302484
 30
0.0
 10
10.9842347223
 20
8.0094597318
 30
0.0
 10
10.986227911
 20
7.991511589
 30
0.0
 10
10.9866743336
 20
7.9795078536
 30
0.0
 10
10.9866743336
 20
7.9735234277
 30
0.0
  0
SPLINE
  5
38F
100
AcDbEntity
  8
0
100
AcDbSpline
 62
7
  6
CONTINUOUS
 70
0
 71
3
 72
39
 73
35
 74
0
 42
0.0000001
 43
0.0000001
 44
0.0000000001
 40
0.0
 40
0.0
 40
0.0
 40
0.0
 40
0.0299424695
 40
0.0599093169
 40
0.0899243245
 40
0.1200101059
 40
0.1501875675
 40
0.1804754226
 40
0.2108897705
 40
0.2414437509
 40
0.2721472792
 40
0.3030068663
 40
0.3340255229
 40
0.3652027461
 40
0.3965345839
 40
0.428013771
 40
0.4596299292
 40
0.4913698241
 40
0.5232176721
 40
0.555155489
 40
0.5871634725
 40
0.6192204135
 40
0.6513041268
 40
0.6833918949
 40
0.7154609201
 40
0.7474887765
 40
0.7794538578
 40
0.8113358145
 40
0.8431159703
 40
0.8747777248
 40
0.9063068724
 40
0.9376921006
 40
0.9689246636
 40
1.0
 40
1.0
 40
1.0
 40
1.0
 10
10.1764432376
 20
8.5287948328
 30
0.0
 10
10.1805906561
 20
8.5328009134
 30
0.0
 10
10.1892116397
 20
8.5404897366
 30
0.0
 10
10.2030237663
 20
8.5509644119
 30
0.0
 10
10.2176459772
 20
8.5603280717
 30
0.0
 10
10.2329965594
 20
8.5685282001
 30
0.0
 10
10.2489911173
 20
8.5755199985
 30
0.0
 10
10.2655413781
 20
8.5812650353
 30
0.0
 10
10.2825561407
 20
8.5857318775
 30
0.0
 10
10.2999416672
 20
8.5888961371
 30
0.0
 10
10.317602237
 20
8.590740624
 30
0.0
 10
10.335440668
 20
8.5912554169
 30
0.0
 10
10.3533588525
 20
8.5904379156
 30
0.0
 10
10.3712582955
 20
8.5882928417
 30
0.0
 10
10.389040651
 20
8.584832196
 30
0.0
 10
10.4066082557
 20
8.5800751849
 30
0.0
 10
10.4238646578
 20
8.5740481093
 30
0.0
 10
10.4407151387
 20
8.5667842154
 30
0.0
 10
10.4570672249
 20
8.5583235103
 30
0.0
 10
10.4728311879
 20
8.5487125416
 30
0.0
 10
10.4879205361
 20
8.5380041504
 30
0.0
 10
10.502252479
 20
8.5262571737
 30
0.0
 10
10.5157483754
 20
8.5135361231
 30
0.0
 10
10.5283341601
 20
8.4999108346
 30
0.0
 10
10.5399407455
 20
8.4854560888
 30
0.0
 10
10.5505043972
 20
8.4702512055
 30
0.0
 10
10.5599670794
 20
8.4543796129
 30
0.0
 10
10.5682767761
 20
8.4379283965
 30
0.0
 10
10.5753877808
 20
8.4209878367
 30
0.0
 10
10.5812609255
 20
8.4036508771
 30
0.0
 10
10.5858638412
 20
8.3860127597
 30
0.0
 10
10.589171027
 20
8.3681700075
 30
0.0
 10
10.5911642157
 20
8.3502218647
 30
0.0
 10
10.5916106383
 20
8.3382181293
 30
0.0
 10
10.5916106383
 20
8.3322337034
 30
0.0
  0
SPLINE
  5
390
100
AcDbEntity
  8
0
100
AcDbSpline
 62
7
  6
CONTINUOUS
 70
0
 71
3
 72
39
 73
35
 74
0
 42
0.0000001
 43
0.0000001
 44
0.0000000001
 40
0.0
 40
0.0
 40
0.0
 40
0.0
 40
0.0299424695
 40
0.0599093169
 40
0.0899243245
 40
0.1200101059
 40
0.1501875675
 40
0.1804754226
 40
0.2108897705
 40
0.2414437509
 40
0.2721472792
 40
0.3030068663
 40
0.3340255229
 40
0.3652027461
 40
0.3965345839
 40
0.428013771
 40
0.4596299292
 40
0.4913698241
 40
0.5232176721
 40
0.555155489
 40
0.5871634725
 40
0.6192204135
 40
0.6513041268
 40
0.6833918949
 40
0.7154609201
 40
0.7474887765
 40
0.7794538578
 40
0.8113358145
 40
0.8431159703
 40
0.8747777248
 40
0.9063068724
 40
0.9376921006
 40
0.9689246636
 40
1.0
 40
1.0
 40
1.0
 40
1.0
 10
10.9675365129
 20
8.4739323278
 30
0.0
 10
10.9716839315
 20
8.4779384084
 30
0.0
 10
10.9803049151
 20
8.4856272316
 30
0.0
 10
10.9941170416
 20
8.4961019069
 30
0.0
 10
11.0087392526
 20
8.5054655668
 30
0.0
 10
11.0240898348
 20
8.5136656951
 30
0.0
 10
11.0400843927
 20
8.5206574935
 30
0.0
 10
11.0566346534
 20
8.5264025303
 30
0.0
 10
11.0736494161
 20
8.5308693725
 30
0.0
 10
11.0910349426
 20
8.5340336321
 30
0.0
 10
11.1086955124
 20
8.535878119
 30
0.0
 10
11.1265339433
 20
8.5363929119
 30
0.0
 10
11.1444521278
 20
8.5355754106
 30
0.0
 10
11.1623515708
 20
8.5334303368
 30
0.0
 10
11.1801339263
 20
8.529969691
 30
0.0
 10
11.197701531
 20
8.52521268
 30
0.0
 10
11.2149579332
 20
8.5191856043
 30
0.0
 10
11.2318084141
 20
8.5119217104
 30
0.0
 10
11.2481605002
 20
8.5034610053
 30
0.0
 10
11.2639244633
 20
8.4938500366
 30
0.0
 10
11.2790138115
 20
8.4831416454
 30
0.0
 10
11.2933457543
 20
8.4713946687
 30
0.0
 10
11.3068416507
 20
8.4586736181
 30
0.0
 10
11.3194274354
 20
8.4450483296
 30
0.0
 10
11.3310340209
 20
8.4305935838
 30
0.0
 10
11.3415976726
 20
8.4153887005
 30
0.0
 10
11.3510603547
 20
8.3995171079
 30
0.0
 10
11.3593700514
 20
8.3830658916
 30
0.0
 10
11.3664810561
 20
8.3661253317
 30
0.0
 10
11.3723542008
 20
8.3487883722
 30
0.0
 10
11.3769571165
 20
8.3311502547
 30
0.0
 10
11.3802643023
 20
8.3133075025
 30
0.0
 10
11.382257491
 20
8.2953593597
 30
0.0
 10
11.3827039136
 20
8.2833556244
 30
0.0
 10
11.3827039136
 20
8.2773711984
 30
0.0
  0
SPLINE
  5
391
100
AcDbEntity
  8
0
100
AcDbSpline
 62
7
  6
CONTINUOUS
 70
0
 71
3
 72
39
 73
35
 74
0
 42
0.0000001
 43
0.0000001
 44
0.0000000001
 40
0.0
 40
0.0
 40
0.0
 40
0.0
 40
0.0299424695
 40
0.0599093169
 40
0.0899243245
 40
0.1200101059
 40
0.1501875675
 40
0.1804754226
 40
0.2108897705
 40
0.2414437509
 40
0.2721472792
 40
0.3030068663
 40
0.3340255229
 40
0.3652027461
 40
0.3965345839
 40
0.428013771
 40
0.4596299292
 40
0.4913698241
 40
0.5232176721
 40
0.555155489
 40
0.5871634725
 40
0.6192204135
 40
0.6513041268
 40
0.6833918949
 40
0.7154609201
 40
0.7474887765
 40
0.7794538578
 40
0.8113358145
 40
0.8431159703
 40
0.8747777248
 40
0.9063068724
 40
0.9376921006
 40
0.9689246636
 40
1.0
 40
1.0
 40
1.0
 40
1.0
 10
10.5715069329
 20
8.8356073858
 30
0.0
 10
10.5756543515
 20
8.8396134664
 30
0.0
 10
10.5842753351
 20
8.8473022896
 30
0.0
 10
10.5980874616
 20
8.8577769649
 30
0.0
 10
10.6127096726
 20
8.8671406247
 30
0.0
 10
10.6280602548
 20
8.8753407531
 30
0.0
 10
10.6440548127
 20
8.8823325515
 30
0.0
 10
10.6606050734
 20
8.8880775883
 30
0.0
 10
10.6776198361
 20
8.8925444305
 30
0.0
 10
10.6950053626
 20
8.8957086901
 30
0.0
 10
10.7126659324
 20
8.897553177
 30
0.0
 10
10.7305043633
 20
8.8980679699
 30
0.0
 10
10.7484225478
 20
8.8972504686
 30
0.0
 10
10.7663219908
 20
8.8951053947
 30
0.0
 10
10.7841043463
 20
8.891644749
 30
0.0
 10
10.801671951
 20
8.8868877379
 30
0.0
 10
10.8189283532
 20
8.8808606623
 30
0.0
 10
10.8357788341
 20
8.8735967684
 30
0.0
 10
10.8521309202
 20
8.8651360633
 30
0.0
 10
10.8678948833
 20
8.8555250946
 30
0.0
 10
10.8829842315
 20
8.8448167034
 30
0.0
 10
10.8973161743
 20
8.8330697267
 30
0.0
 10
10.9108120707
 20
8.8203486761
 30
0.0
 10
10.9233978554
 20
8.8067233876
 30
0.0
 10
10.9350044409
 20
8.7922686418
 30
0.0
 10
10.9455680926
 20
8.7770637585
 30
0.0
 10
10.9550307747
 20
8.7611921659
 30
0.0
 10
10.9633404714
 20
8.7447409495
 30
0.0
 10
10.9704514761
 20
8.7278003897
 30
0.0
 10
10.9763246208
 20
8.7104634301
 30
0.0
 10
10.9809275365
 20
8.6928253127
 30
0.0
 10
10.9842347223
 20
8.6749825605
 30
0.0
 10
10.986227911
 20
8.6570344177
 30
0.0
 10
10.9866743336
 20
8.6450306823
 30
0.0
 10
10.9866743336
 20
8.6390462564
 30
0.0
  0
SPLINE
  5
392
100
AcDbEntity
  8
0
100
AcDbSpline
 62
7
  6
CONTINUOUS
 70
0
 71
3
 72
37
 73
33
 74
0
 42
0.0000001
 43
0.0000001
 44
0.0000000001
 40
0.0
 40
0.0
 40
0.0
 40
0.0
 40
0.0299447936
 40
0.0599139685
 40
0.0899313111
 40
0.1200194352
 40
0.1501992442
 40
0.180489451
 40
0.2109061585
 40
0.2414625113
 40
0.2721684281
 40
0.3030304183
 40
0.3340514866
 40
0.3652311292
 40
0.3965653974
 40
0.4280470303
 40
0.4596656502
 40
0.491408017
 40
0.5551595119
 40
0.6191908015
 40
0.6512770143
 40
0.6833672795
 40
0.7154387951
 40
0.7474691381
 40
0.7794367026
 40
0.8113211444
 40
0.8431037821
 40
0.8747679493
 40
0.9062997436
 40
0.9376868029
 40
0.9689230915
 40
1.0
 40
1.0
 40
1.0
 40
1.0
 10
11.317261184
 20
7.8879651142
 30
0.0
 10
11.3183395125
 20
7.8890066958
 30
0.0
 10
11.3205809671
 20
7.8910057919
 30
0.0
 10
11.3241721153
 20
7.8937292153
 30
0.0
 10
11.3279738855
 20
7.8961637771
 30
0.0
 10
11.3319650377
 20
7.8982958131
 30
0.0
 10
11.3361236249
 20
7.9001136793
 30
0.0
 10
11.3404266934
 20
7.9016073897
 30
0.0
 10
11.3448505311
 20
7.9027687738
 30
0.0
 10
11.3493707675
 20
7.9035914896
 30
0.0
 10
11.3539625167
 20
7.9040710628
 30
0.0
 10
11.3586005104
 20
7.9042049069
 30
0.0
 10
11.3632592403
 20
7.9039923541
 30
0.0
 10
11.3679130939
 20
7.9034346384
 30
0.0
 10
11.3725365184
 20
7.9025348705
 30
0.0
 10
11.377104061
 20
7.9012980794
 30
0.0
 10
11.381590872
 20
7.8997309536
 30
0.0
 10
11.3874392022
 20
7.8972099873
 30
0.0
 10
11.394423182
 20
7.8932779521
 30
0.0
 10
11.4008064472
 20
7.8884037771
 30
0.0
 10
11.4054804287
 20
7.8839979905
 30
0.0
 10
11.4087528716
 20
7.880455308
 30
0.0
 10
11.4117705433
 20
7.876697098
 30
0.0
 10
11.4145171038
 20
7.8727438204
 30
0.0
 10
11.4169774045
 20
7.8686172104
 30
0.0
 10
11.4191379353
 20
7.8643398953
 30
0.0
 10
11.4209867925
 20
7.8599353486
 30
0.0
 10
11.4225138181
 20
7.8554277312
 30
0.0
 10
11.4237105442
 20
7.8508418357
 30
0.0
 10
11.4245704638
 20
7.8462026829
 30
0.0
 10
11.4250886475
 20
7.8415361665
 30
0.0
 10
11.4252047409
 20
7.8384151735
 30
0.0
 10
11.4252047409
 20
7.8368592645
 30
0.0
  0
SPLINE
  5
393
100
AcDbEntity
  8
0
100
AcDbSpline
 62
7
  6
CONTINUOUS
 70
0
 71
3
 72
82
 73
78
 74
0
 42
0.0000001
 43
0.0000001
 44
0.0000000001
 40
0.0
 40
0.0
 40
0.0
 40
0.0
 40
0.0039801289
 40
0.0081240777
 40
0.0124359947
 40
0.0169193923
 40
0.0215772578
 40
0.0264119893
 40
0.0314252688
 40
0.0366182553
 40
0.0419916733
 40
0.0475457946
 40
0.0591950046
 40
0.0715620321
 40
0.0846377255
 40
0.0984090644
 40
0.1128596751
 40
0.1279702417
 40
0.1437188699
 40
0.1600813661
 40
0.1770314646
 40
0.1945410053
 40
0.2125801216
 40
0.2311174057
 40
0.2501200455
 40
0.2695539422
 40
0.2893838309
 40
0.3095734115
 40
0.3300854589
 40
0.3508819254
 40
0.371924038
 40
0.414586394
 40
0.4577527704
 40
0.5010976397
 40
0.5442937432
 40
0.5870152666
 40
0.6080978295
 40
0.6289418609
 40
0.6495084737
 40
0.669759483
 40
0.6896575037
 40
0.7091660542
 40
0.7282496745
 40
0.7468740528
 40
0.7650061314
 40
0.782614231
 40
0.7996681897
 40
0.8161395366
 40
0.8320016487
 40
0.8472299332
 40
0.8618020507
 40
0.8756982014
 40
0.8889014569
 40
0.9013981439
 40
0.9131783555
 40
0.9187981991
 40
0.9242373161
 40
0.9294958504
 40
0.9345743552
 40
0.939473865
 40
0.9441958514
 40
0.9487424003
 40
0.9531161957
 40
0.9573206058
 40
0.9613598403
 40
0.9652389406
 40
0.9689639839
 40
0.9725421609
 40
0.9759818646
 40
0.9792928908
 40
0.9824864526
 40
0.9855753083
 40
0.9885737874
 40
0.991497711
 40
0.9943643186
 40
0.9971920021
 40
1.0
 40
1.0
 40
1.0
 40
1.0
 10
10.564110436
 20
10.8968414886
 30
0.0
 10
10.5649630557
 20
10.8976650561
 30
0.0
 10
10.5667421116
 20
10.8993063778
 30
0.0
 10
10.5695667218
 20
10.901703671
 30
0.0
 10
10.5725987647
 20
10.9040838034
 30
0.0
 10
10.5758365764
 20
10.9064454486
 30
0.0
 10
10.5792785383
 20
10.9087875331
 30
0.0
 10
10.5829229949
 20
10.9111088947
 30
0.0
 10
10.5867681264
 20
10.9134084434
 30
0.0
 10
10.5908120126
 20
10.9156850138
 30
0.0
 10
10.5950526424
 20
10.917937461
 30
0.0
 10
10.6010621603
 20
10.9209551443
 30
0.0
 10
10.6090597648
 20
10.9246497419
 30
0.0
 10
10.6192583961
 20
10.928901705
 30
0.0
 10
10.6301854197
 20
10.933031284
 30
0.0
 10
10.6418188937
 20
10.9370301212
 30
0.0
 10
10.6541356134
 20
10.9408901071
 30
0.0
 10
10.6671108507
 20
10.9446034034
 30
0.0
 10
10.6807185214
 20
10.9481624535
 30
0.0
 10
10.6949312259
 20
10.951560008
 30
0.0
 10
10.7097203142
 20
10.9547891386
 30
0.0
 10
10.7250559406
 20
10.9578432716
 30
0.0
 10
10.7409071337
 20
10.9607161899
 30
0.0
 10
10.7572418703
 20
10.9634020425
 30
0.0
 10
10.7740271404
 20
10.9658953561
 30
0.0
 10
10.7912290102
 20
10.9681910533
 30
0.0
 10
10.8088126913
 20
10.9702844682
 30
0.0
 10
10.8267426217
 20
10.9721713434
 30
0.0
 10
10.8449825276
 20
10.9738478323
 30
0.0
 10
10.8634955415
 20
10.9753105424
 30
0.0
 10
10.8886080221
 20
10.9769793091
 30
0.0
 10
10.9204046489
 20
10.9785054978
 30
0.0
 10
10.9588690785
 20
10.9794413707
 30
0.0
 10
10.9975039634
 20
10.9794821258
 30
0.0
 10
11.0359967582
 20
10.9786274138
 30
0.0
 10
11.0678350952
 20
10.9771685902
 30
0.0
 10
11.0929949942
 20
10.9755532877
 30
0.0
 10
11.1115536508
 20
10.9741297792
 30
0.0
 10
11.1298459711
 20
10.9724919217
 30
0.0
 10
11.1478349819
 20
10.9706430278
 30
0.0
 10
11.1654842871
 20
10.9685868646
 30
0.0
 10
11.1827581894
 20
10.9663276101
 30
0.0
 10
11.1996217553
 20
10.9638698589
 30
0.0
 10
11.2160408937
 20
10.9612186203
 30
0.0
 10
11.2319824208
 20
10.9583792932
 30
0.0
 10
11.2474141247
 20
10.9553576585
 30
0.0
 10
11.2623048374
 20
10.9521598633
 30
0.0
 10
11.2766245084
 20
10.9487924272
 30
0.0
 10
11.290344267
 20
10.9452622132
 30
0.0
 10
11.3034364772
 20
10.9415764117
 30
0.0
 10
11.3158748079
 20
10.9377425192
 30
0.0
 10
11.3276342809
 20
10.9337683302
 30
0.0
 10
11.3386914253
 20
10.9296619103
 30
0.0
 10
11.3490240259
 20
10.925431575
 30
0.0
 10
11.3571365103
 20
10.9217546267
 30
0.0
 10
11.3632399616
 20
10.9187503548
 30
0.0
 10
11.3675516044
 20
10.9165069521
 30
0.0
 10
11.3716672726
 20
10.9142390398
 30
0.0
 10
11.3755849053
 20
10.9119477086
 30
0.0
 10
11.3793025659
 20
10.9096341465
 30
0.0
 10
11.3828183764
 20
10.907299444
 30
0.0
 10
11.3861306044
 20
10.904944782
 30
0.0
 10
11.3892376063
 20
10.9025713064
 30
0.0
 10
11.3921378108
 20
10.9001801243
 30
0.0
 10
11.3948298113
 20
10.8977724276
 30
0.0
 10
11.3973122245
 20
10.8953492997
 30
0.0
 10
11.3995838011
 20
10.8929118782
 30
0.0
 10
11.4016433912
 20
10.890461295
 30
0.0
 10
11.4034898377
 20
10.8879986064
 30
0.0
 10
11.4051221651
 20
10.8855249695
 30
0.0
 10
11.4065393596
 20
10.8830414728
 30
0.0
 10
11.4077404781
 20
10.8805492695
 30
0.0
 10
11.4087247096
 20
10.8780495924
 30
0.0
 10
11.4094911646
 20
10.8755437208
 30
0.0
 10
11.4100392152
 20
10.8730330163
 30
0.0
 10
11.410368295
 20
10.8705192318
 30
0.0
 10
11.4104415153
 20
10.8688398242
 30
0.0
 10
11.4104415152
 20
10.8680035044
 30
0.0
  0
SPLINE
  5
394
100
AcDbEntity
  8
0
100
AcDbSpline
 62
7
  6
CONTINUOUS
 70
0
 71
3
 72
40
 73
36
 74
0
 42
0.0000001
 43
0.0000001
 44
0.0000000001
 40
0.0
 40
0.0
 40
0.0
 40
0.0
 40
0.0958312793
 40
0.1891000446
 40
0.2345965891
 40
0.279241512
 40
0.3229681675
 40
0.3657118109
 40
0.4074099461
 40
0.4480024746
 40
0.4874320226
 40
0.5256441407
 40
0.5625874576
 40
0.5982141394
 40
0.6324802032
 40
0.6653457683
 40
0.6967756912
 40
0.7267401448
 40
0.7552151418
 40
0.7821835616
 40
0.8076363113
 40
0.8315735468
 40
0.8540066404
 40
0.8749606632
 40
0.8944772684
 40
0.9126187468
 40
0.9294730511
 40
0.9451593172
 40
0.9598338268
 40
0.9668558706
 40
0.9737029056
 40
0.980406309
 40
0.9869997194
 40
0.9935186515
 40
1.0
 40
1.0
 40
1.0
 40
1.0
 10
10.3272243412
 20
10.6798396932
 30
0.0
 10
10.3174570705
 20
10.6805170557
 30
0.0
 10
10.2981978624
 20
10.6820685121
 30
0.0
 10
10.2743569375
 20
10.6845564433
 30
0.0
 10
10.2557596284
 20
10.6868548825
 30
0.0
 10
10.2422087006
 20
10.6887093227
 30
0.0
 10
10.2289622667
 20
10.6907054288
 30
0.0
 10
10.2160424325
 20
10.6928398612
 30
0.0
 10
10.2034707906
 20
10.695109018
 30
0.0
 10
10.1912683435
 20
10.6975091025
 30
0.0
 10
10.1794554633
 20
10.7000360711
 30
0.0
 10
10.1680518619
 20
10.7026856624
 30
0.0
 10
10.1570765643
 20
10.7054534383
 30
0.0
 10
10.1465478601
 20
10.7083347406
 30
0.0
 10
10.1364832721
 20
10.7113247102
 30
0.0
 10
10.1268995377
 20
10.7144183415
 30
0.0
 10
10.1178125594
 20
10.7176104451
 30
0.0
 10
10.1092373688
 20
10.7208956566
 30
0.0
 10
10.101188116
 20
10.7242685106
 30
0.0
 10
10.0936780204
 20
10.7277234175
 30
0.0
 10
10.0867193247
 20
10.7312546713
 30
0.0
 10
10.0803233007
 20
10.7348565581
 30
0.0
 10
10.0745002116
 20
10.7385233783
 30
0.0
 10
10.0692592794
 20
10.7422494735
 30
0.0
 10
10.0646087592
 20
10.7460294443
 30
0.0
 10
10.0605560706
 20
10.7498581449
 30
0.0
 10
10.0571078472
 20
10.7537310684
 30
0.0
 10
10.0542707947
 20
10.757643307
 30
0.0
 10
10.0523942668
 20
10.7609821807
 30
0.0
 10
10.051224472
 20
10.763655616
 30
0.0
 10
10.0505162375
 20
10.7656364242
 30
0.0
 10
10.049964855
 20
10.7676211324
 30
0.0
 10
10.049570671
 20
10.7696089271
 30
0.0
 10
10.0493340661
 20
10.7715986628
 30
0.0
 10
10.0492814176
 20
10.7729274458
 30
0.0
 10
10.0492814141
 20
10.7735896214
 30
0.0
  0
SPLINE
  5
395
100
AcDbEntity
  8
0
100
AcDbSpline
 62
7
  6
CONTINUOUS
 70
0
 71
3
 72
20
 73
16
 74
0
 42
0.0000001
 43
0.0000001
 44
0.0000000001
 40
0.0
 40
0.0
 40
0.0
 40
0.0
 40
0.167791289
 40
0.321230862
 40
0.3927197966
 40
0.4608328722
 40
0.5256906367
 40
0.5874420075
 40
0.6462674693
 40
0.7023870406
 40
0.8075104824
 40
0.857266708
 40
0.9056376144
 40
0.9530598214
 40
1.0
 40
1.0
 40
1.0
 40
1.0
 10
11.0054089422
 20
11.1071038763
 30
0.0
 10
11.0063292765
 20
11.1065930553
 30
0.0
 10
11.0080637568
 20
11.1055641512
 30
0.0
 10
11.0100902265
 20
11.1041582258
 30
0.0
 10
11.0115288225
 20
11.1030127958
 30
0.0
 10
11.0124935834
 20
11.1021667877
 30
0.0
 10
11.0133691008
 20
11.101314063
 30
0.0
 10
11.0141547228
 20
11.1004552396
 30
0.0
 10
11.0148498924
 20
11.0995906474
 30
0.0
 10
11.0156379431
 20
11.0984563154
 30
0.0
 10
11.0162693143
 20
11.0972844692
 30
0.0
 10
11.0167139577
 20
11.0960877351
 30
0.0
 10
11.0169483593
 20
11.0952036547
 30
0.0
 10
11.0170891227
 20
11.0943178652
 30
0.0
 10
11.0171204761
 20
11.0937254405
 30
0.0
 10
11.0171204726
 20
11.0934309739
 30
0.0
  0
SPLINE
  5
396
100
AcDbEntity
  8
0
100
AcDbSpline
 62
7
  6
CONTINUOUS
 70
0
 71
3
 72
23
 73
19
 74
0
 42
0.0000001
 43
0.0000001
 44
0.0000000001
 40
0.0
 40
0.0
 40
0.0
 40
0.0
 40
0.0637766017
 40
0.1273450758
 40
0.1907019811
 40
0.2538560972
 40
0.3168132288
 40
0.3795820869
 40
0.442173391
 40
0.5045993435
 40
0.5668738649
 40
0.6290123754
 40
0.6910316459
 40
0.7529496407
 40
0.8147853465
 40
0.8765585942
 40
0.9382898499
 40
1.0
 40
1.0
 40
1.0
 40
1.0
 10
10.1086476965
 20
8.3657272972
 30
0.0
 10
10.1086476965
 20
8.369584477
 30
0.0
 10
10.1088323333
 20
8.3772875557
 30
0.0
 10
10.1096656075
 20
8.3887952991
 30
0.0
 10
10.1110530529
 20
8.4002118443
 30
0.0
 10
10.1129913246
 20
8.4115103345
 30
0.0
 10
10.1154761002
 20
8.4226649745
 30
0.0
 10
10.1185016249
 20
8.4336499776
 30
0.0
 10
10.1220609363
 20
8.4444400335
 30
0.0
 10
10.12614589
 20
8.4550102524
 30
0.0
 10
10.1307470839
 20
8.4653362521
 30
0.0
 10
10.1358539035
 20
8.4753942275
 30
0.0
 10
10.1414545922
 20
8.4851609762
 30
0.0
 10
10.1475362823
 20
8.4946139533
 30
0.0
 10
10.1540849221
 20
8.5037313386
 30
0.0
 10
10.1610854785
 20
8.5124921795
 30
0.0
 10
10.1685215318
 20
8.520875996
 30
0.0
 10
10.1737588284
 20
8.5262019044
 30
0.0
 10
10.1764432376
 20
8.5287948328
 30
0.0
  0
SPLINE
  5
397
100
AcDbEntity
  8
0
100
AcDbSpline
 62
7
  6
CONTINUOUS
 70
0
 71
3
 72
41
 73
37
 74
0
 42
0.0000001
 43
0.0000001
 44
0.0000000001
 40
0.0
 40
0.0
 40
0.0
 40
0.0
 40
0.0761045756
 40
0.1533640367
 40
0.2310947785
 40
0.3086066158
 40
0.3470661095
 40
0.3852137357
 40
0.4229652698
 40
0.4602376435
 40
0.496949187
 40
0.5330198809
 40
0.5683716418
 40
0.602928598
 40
0.6366173455
 40
0.6693672326
 40
0.7011106831
 40
0.7317835708
 40
0.7613255545
 40
0.7896804795
 40
0.8167968551
 40
0.8426284692
 40
0.8671350666
 40
0.8902831696
 40
0.9013399418
 40
0.9120482581
 40
0.9224063111
 40
0.9324131477
 40
0.9420684939
 40
0.9513729009
 40
0.9603279304
 40
0.968936087
 40
0.9772013622
 40
0.9851291457
 40
0.9927260607
 40
1.0
 40
1.0
 40
1.0
 40
1.0
 10
11.1726683081
 20
6.3945840423
 30
0.0
 10
11.1845759053
 20
6.3937582476
 30
0.0
 10
11.2085954693
 20
6.3924198552
 30
0.0
 10
11.2448278078
 20
6.3913374733
 30
0.0
 10
11.2812967156
 20
6.3911698316
 30
0.0
 10
11.3116739543
 20
6.3917952222
 30
0.0
 10
11.3358272747
 20
6.3927575907
 30
0.0
 10
11.3537387406
 20
6.3937045523
 30
0.0
 10
11.3714503122
 20
6.3948761841
 30
0.0
 10
11.388919896
 20
6.3962697042
 30
0.0
 10
11.4061059314
 20
6.3978817723
 30
0.0
 10
11.4229675458
 20
6.3997085384
 30
0.0
 10
11.4394646437
 20
6.4017456278
 30
0.0
 10
11.4555580081
 20
6.4039881565
 30
0.0
 10
11.4712093895
 20
6.4064307526
 30
0.0
 10
11.4863815955
 20
6.4090675669
 30
0.0
 10
11.5010385886
 20
6.4118922866
 30
0.0
 10
11.5151455819
 20
6.4148981323
 30
0.0
 10
11.5286691202
 20
6.4180778949
 30
0.0
 10
11.5415771641
 20
6.4214239502
 30
0.0
 10
11.5538391568
 20
6.4249282858
 30
0.0
 10
11.5654261942
 20
6.4285825057
 30
0.0
 10
11.5763108511
 20
6.4323778691
 30
0.0
 10
11.5849014747
 20
6.4356995448
 30
0.0
 10
11.5913962894
 20
6.4384277592
 30
0.0
 10
11.5960014172
 20
6.4404722031
 30
0.0
 10
11.6004125487
 20
6.442545084
 30
0.0
 10
11.604627107
 20
6.444645156
 30
0.0
 10
11.6086426071
 20
6.4467711934
 30
0.0
 10
11.612456672
 20
6.4489219697
 30
0.0
 10
11.6160670798
 20
6.4510961596
 30
0.0
 10
11.6194717015
 20
6.4532925592
 30
0.0
 10
11.6226685888
 20
6.4555099
 30
0.0
 10
11.6256559308
 20
6.4577469711
 30
0.0
 10
11.6284318122
 20
6.4600024239
 30
0.0
 10
11.6301776194
 20
6.4615504413
 30
0.0
 10
11.6310127783
 20
6.4623276327
 30
0.0
  0
SPLINE
  5
398
100
AcDbEntity
  8
0
100
AcDbSpline
 62
7
  6
CONTINUOUS
 70
0
 71
3
 72
23
 73
19
 74
0
 42
0.0000001
 43
0.0000001
 44
0.0000000001
 40
0.0
 40
0.0
 40
0.0
 40
0.0
 40
0.0637766017
 40
0.1273450758
 40
0.1907019811
 40
0.2538560972
 40
0.3168132288
 40
0.3795820869
 40
0.442173391
 40
0.5045993435
 40
0.5668738649
 40
0.6290123754
 40
0.6910316459
 40
0.7529496407
 40
0.8147853465
 40
0.8765585942
 40
0.9382898499
 40
1.0
 40
1.0
 40
1.0
 40
1.0
 10
10.5037113918
 20
8.6725398502
 30
0.0
 10
10.5037113918
 20
8.67639703
 30
0.0
 10
10.5038960286
 20
8.6841001087
 30
0.0
 10
10.5047293029
 20
8.6956078521
 30
0.0
 10
10.5061167483
 20
8.7070243973
 30
0.0
 10
10.50805502
 20
8.7183228875
 30
0.0
 10
10.5105397956
 20
8.7294775275
 30
0.0
 10
10.5135653203
 20
8.7404625306
 30
0.0
 10
10.5171246316
 20
8.7512525865
 30
0.0
 10
10.5212095853
 20
8.7618228054
 30
0.0
 10
10.5258107793
 20
8.7721488051
 30
0.0
 10
10.5309175989
 20
8.7822067805
 30
0.0
 10
10.5365182875
 20
8.7919735292
 30
0.0
 10
10.5425999776
 20
8.8014265063
 30
0.0
 10
10.5491486174
 20
8.8105438916
 30
0.0
 10
10.5561491739
 20
8.8193047325
 30
0.0
 10
10.5635852272
 20
8.827688549
 30
0.0
 10
10.5688225238
 20
8.8330144574
 30
0.0
 10
10.5715069329
 20
8.8356073858
 30
0.0
  0
SPLINE
  5
399
100
AcDbEntity
  8
0
100
AcDbSpline
 62
7
  6
CONTINUOUS
 70
0
 71
3
 72
23
 73
19
 74
0
 42
0.0000001
 43
0.0000001
 44
0.0000000001
 40
0.0
 40
0.0
 40
0.0
 40
0.0
 40
0.0637766017
 40
0.1273450758
 40
0.1907019811
 40
0.2538560972
 40
0.3168132288
 40
0.3795820869
 40
0.442173391
 40
0.5045993435
 40
0.5668738649
 40
0.6290123754
 40
0.6910316459
 40
0.7529496407
 40
0.8147853465
 40
0.8765585942
 40
0.9382898499
 40
1.0
 40
1.0
 40
1.0
 40
1.0
 10
10.5037113918
 20
8.0070170215
 30
0.0
 10
10.5037113918
 20
8.0108742013
 30
0.0
 10
10.5038960286
 20
8.01857728
 30
0.0
 10
10.5047293029
 20
8.0300850233
 30
0.0
 10
10.5061167483
 20
8.0415015686
 30
0.0
 10
10.50805502
 20
8.0528000588
 30
0.0
 10
10.5105397956
 20
8.0639546988
 30
0.0
 10
10.5135653203
 20
8.0749397019
 30
0.0
 10
10.5171246316
 20
8.0857297578
 30
0.0
 10
10.5212095853
 20
8.0962999767
 30
0.0
 10
10.5258107793
 20
8.1066259764
 30
0.0
 10
10.5309175989
 20
8.1166839518
 30
0.0
 10
10.5365182875
 20
8.1264507004
 30
0.0
 10
10.5425999776
 20
8.1359036775
 30
0.0
 10
10.5491486174
 20
8.1450210629
 30
0.0
 10
10.5561491739
 20
8.1537819037
 30
0.0
 10
10.5635852272
 20
8.1621657203
 30
0.0
 10
10.5688225238
 20
8.1674916287
 30
0.0
 10
10.5715069329
 20
8.1700845571
 30
0.0
  0
SPLINE
  5
39A
100
AcDbEntity
  8
0
100
AcDbSpline
 62
7
  6
CONTINUOUS
 70
0
 71
3
 72
23
 73
19
 74
0
 42
0.0000001
 43
0.0000001
 44
0.0000000001
 40
0.0
 40
0.0
 40
0.0
 40
0.0
 40
0.0637766017
 40
0.1273450758
 40
0.1907019811
 40
0.2538560972
 40
0.3168132288
 40
0.3795820869
 40
0.442173391
 40
0.5045993435
 40
0.5668738649
 40
0.6290123754
 40
0.6910316459
 40
0.7529496407
 40
0.8147853465
 40
0.8765585942
 40
0.9382898499
 40
1.0
 40
1.0
 40
1.0
 40
1.0
 10
10.8997409719
 20
8.3108647922
 30
0.0
 10
10.8997409719
 20
8.314721972
 30
0.0
 10
10.8999256086
 20
8.3224250507
 30
0.0
 10
10.9007588829
 20
8.3339327941
 30
0.0
 10
10.9021463283
 20
8.3453493393
 30
0.0
 10
10.9040846
 20
8.3566478295
 30
0.0
 10
10.9065693756
 20
8.3678024695
 30
0.0
 10
10.9095949003
 20
8.3787874727
 30
0.0
 10
10.9131542116
 20
8.3895775285
 30
0.0
 10
10.9172391653
 20
8.4001477475
 30
0.0
 10
10.9218403593
 20
8.4104737471
 30
0.0
 10
10.9269471789
 20
8.4205317226
 30
0.0
 10
10.9325478675
 20
8.4302984712
 30
0.0
 10
10.9386295576
 20
8.4397514483
 30
0.0
 10
10.9451781974
 20
8.4488688336
 30
0.0
 10
10.9521787539
 20
8.4576296745
 30
0.0
 10
10.9596148072
 20
8.466013491
 30
0.0
 10
10.9648521038
 20
8.4713393994
 30
0.0
 10
10.9675365129
 20
8.4739323278
 30
0.0
  0
SPLINE
  5
39B
100
AcDbEntity
  8
0
100
AcDbSpline
 62
7
  6
CONTINUOUS
 70
0
 71
3
 72
54
 73
50
 74
0
 42
0.0000001
 43
0.0000001
 44
0.0000000001
 40
0.0
 40
0.0
 40
0.0
 40
0.0
 40
0.052784991
 40
0.1048060923
 40
0.1559445044
 40
0.2060905216
 40
0.2551340321
 40
0.3029694639
 40
0.3494949945
 40
0.3946130603
 40
0.438230921
 40
0.4802611185
 40
0.5206221511
 40
0.559239105
 40
0.5960444107
 40
0.6309787921
 40
0.663992489
 40
0.6950468015
 40
0.709831479
 40
0.7241178387
 40
0.7379051855
 40
0.751193962
 40
0.7639858374
 40
0.7762841535
 40
0.7880937245
 40
0.7994213683
 40
0.8102760565
 40
0.8206690605
 40
0.830614617
 40
0.8401299511
 40
0.8492359035
 40
0.8579573592
 40
0.8663234793
 40
0.8743683592
 40
0.8821310443
 40
0.8896557027
 40
0.8969914552
 40
0.9041916844
 40
0.9113132101
 40
0.9184149027
 40
0.9255561887
 40
0.9327954181
 40
0.9401884307
 40
0.9477872381
 40
0.9637758035
 40
0.972256837
 40
0.9811038595
 40
0.9903441354
 40
1.0
 40
1.0
 40
1.0
 40
1.0
 10
10.335247725
 20
10.7175333896
 30
0.0
 10
10.3298461665
 20
10.717907989
 30
0.0
 10
10.3191260697
 20
10.7187239332
 30
0.0
 10
10.3031937798
 20
10.7201596168
 30
0.0
 10
10.2875529062
 20
10.7217956429
 30
0.0
 10
10.2722413552
 20
10.723627965
 30
0.0
 10
10.2572957838
 20
10.725652201
 30
0.0
 10
10.2427522226
 20
10.7278634238
 30
0.0
 10
10.2286456301
 20
10.7302562686
 30
0.0
 10
10.215009918
 20
10.7328249314
 30
0.0
 10
10.2018778548
 20
10.7355631791
 30
0.0
 10
10.1892809737
 20
10.738464374
 30
0.0
 10
10.1772494883
 20
10.7415214691
 30
0.0
 10
10.165812207
 20
10.7447270428
 30
0.0
 10
10.1549964848
 20
10.7480733204
 30
0.0
 10
10.144828062
 20
10.7515522071
 30
0.0
 10
10.1353312585
 20
10.7551552981
 30
0.0
 10
10.1278780839
 20
10.7583036379
 30
0.0
 10
10.122276301
 20
10.7608849776
 30
0.0
 10
10.1183257939
 20
10.7628148645
 30
0.0
 10
10.1145593651
 20
10.7647692179
 30
0.0
 10
10.1109792433
 20
10.7667468872
 30
0.0
 10
10.107587576
 20
10.7687467387
 30
0.0
 10
10.1043863456
 20
10.7707675394
 30
0.0
 10
10.1013774649
 20
10.7728081526
 30
0.0
 10
10.0985627059
 20
10.7748673856
 30
0.0
 10
10.0959437078
 20
10.7769440324
 30
0.0
 10
10.0935220575
 20
10.7790369798
 30
0.0
 10
10.0912991486
 20
10.7811450081
 30
0.0
 10
10.0892763403
 20
10.7832670069
 30
0.0
 10
10.0874548862
 20
10.7854018489
 30
0.0
 10
10.0858359014
 20
10.7875483733
 30
0.0
 10
10.0844205558
 20
10.7897055192
 30
0.0
 10
10.0832098321
 20
10.7918721004
 30
0.0
 10
10.0822047499
 20
10.7940469539
 30
0.0
 10
10.081406295
 20
10.7962288223
 30
0.0
 10
10.080815244
 20
10.7984162856
 30
0.0
 10
10.0804324271
 20
10.8006078356
 30
0.0
 10
10.0802582957
 20
10.8028017682
 30
0.0
 10
10.0802931039
 20
10.8049963073
 30
0.0
 10
10.0805368733
 20
10.8071896406
 30
0.0
 10
10.0809891328
 20
10.8093799956
 30
0.0
 10
10.0816494646
 20
10.8115658389
 30
0.0
 10
10.082825618
 20
10.8145214529
 30
0.0
 10
10.0844134806
 20
10.8174191713
 30
0.0
 10
10.0863528693
 20
10.8202348137
 30
0.0
 10
10.0880396543
 20
10.8223778532
 30
0.0
 10
10.0899283145
 20
10.8245084251
 30
0.0
 10
10.0912904985
 20
10.8258887901
 30
0.0
 10
10.0920028991
 20
10.8265769163
 30
0.0
  0
SPLINE
  5
39C
100
AcDbEntity
  8
0
100
AcDbSpline
 62
7
  6
CONTINUOUS
 70
0
 71
3
 72
22
 73
18
 74
0
 42
0.0000001
 43
0.0000001
 44
0.0000000001
 40
0.0
 40
0.0
 40
0.0
 40
0.0
 40
0.0407042986
 40
0.084187499
 40
0.1305443401
 40
0.1798444686
 40
0.2321333414
 40
0.2874308648
 40
0.3457394256
 40
0.4070450271
 40
0.4713214138
 40
0.5385292782
 40
0.6086201118
 40
0.6815352077
 40
0.7572086688
 40
0.8355662059
 40
1.0
 40
1.0
 40
1.0
 40
1.0
 10
10.829257091
 20
8.618457538
 30
0.0
 10
10.8297740179
 20
8.6189568511
 30
0.0
 10
10.8308829308
 20
8.6199488934
 30
0.0
 10
10.8326975843
 20
8.6213722254
 30
0.0
 10
10.8347146381
 20
8.6227768306
 30
0.0
 10
10.8369311946
 20
8.6241608606
 30
0.0
 10
10.8393444147
 20
8.6255225491
 30
0.0
 10
10.8419510673
 20
8.6268601595
 30
0.0
 10
10.8447476737
 20
8.6281718177
 30
0.0
 10
10.8477304321
 20
8.6294558039
 30
0.0
 10
10.8508953111
 20
8.6307103074
 30
0.0
 10
10.8542379895
 20
8.6319336567
 30
0.0
 10
10.8577539102
 20
8.6331241136
 30
0.0
 10
10.8614382476
 20
8.6342800752
 30
0.0
 10
10.8652859709
 20
8.6353999191
 30
0.0
 10
10.8707146209
 20
8.6368664381
 30
0.0
 10
10.8748834078
 20
8.6378704048
 30
0.0
 10
10.8777162192
 20
8.63850644
 30
0.0
  0
SPLINE
  5
39D
100
AcDbEntity
  8
0
100
AcDbSpline
 62
7
  6
CONTINUOUS
 70
0
 71
3
 72
40
 73
36
 74
0
 42
0.0000001
 43
0.0000001
 44
0.0000000001
 40
0.0
 40
0.0
 40
0.0
 40
0.0
 40
0.0071757996
 40
0.0146741187
 40
0.022503598
 40
0.0306714055
 40
0.0391834843
 40
0.0480444471
 40
0.0572573092
 40
0.0668239668
 40
0.0767453474
 40
0.087021406
 40
0.0976514315
 40
0.1086338464
 40
0.1316455029
 40
0.1560328777
 40
0.1817630977
 40
0.2087962065
 40
0.2370860329
 40
0.2665809568
 40
0.2972245239
 40
0.3289559428
 40
0.3617104926
 40
0.3954198975
 40
0.4300127148
 40
0.4654146563
 40
0.5015488811
 40
0.5383362596
 40
0.575695673
 40
0.6135442961
 40
0.6903692276
 40
0.7681257327
 40
0.8461158642
 40
0.9236387286
 40
1.0
 40
1.0
 40
1.0
 40
1.0
 10
11.601745055
 20
10.7218759422
 30
0.0
 10
11.6010004575
 20
10.7211567161
 30
0.0
 10
11.5994407655
 20
10.7197238932
 30
0.0
 10
11.5969532171
 20
10.7176362754
 30
0.0
 10
11.5942687268
 20
10.7155652088
 30
0.0
 10
11.5913890406
 20
10.7135120541
 30
0.0
 10
11.5883158625
 20
10.7114779136
 30
0.0
 10
11.5850509488
 20
10.7094639892
 30
0.0
 10
11.581596239
 20
10.707471401
 30
0.0
 10
11.5779537782
 20
10.7055013535
 30
0.0
 10
11.5741257299
 20
10.7035550442
 30
0.0
 10
11.5701143933
 20
10.7016335891
 30
0.0
 10
11.5659221341
 20
10.6997381636
 30
0.0
 10
11.5600020915
 20
10.6972076667
 30
0.0
 10
11.5521612686
 20
10.6941261072
 30
0.0
 10
11.542214204
 20
10.6906048684
 30
0.0
 10
11.5316114528
 20
10.6872134648
 30
0.0
 10
11.5203784064
 20
10.6839601096
 30
0.0
 10
11.5085418563
 20
10.6808526825
 30
0.0
 10
11.4961301545
 20
10.6778987201
 30
0.0
 10
11.4831730541
 20
10.6751053921
 30
0.0
 10
11.4697016516
 20
10.6724794828
 30
0.0
 10
11.4557483075
 20
10.6700273674
 30
0.0
 10
11.4413465658
 20
10.667754988
 30
0.0
 10
11.4265310617
 20
10.6656678551
 30
0.0
 10
11.4113374336
 20
10.6637710307
 30
0.0
 10
11.3958022363
 20
10.6620691174
 30
0.0
 10
11.3799628683
 20
10.660566243
 30
0.0
 10
11.3638574274
 20
10.6592660187
 30
0.0
 10
11.3419725142
 20
10.6577996748
 30
0.0
 10
11.3142380669
 20
10.6564996893
 30
0.0
 10
11.2806895166
 20
10.6557908916
 30
0.0
 10
11.2470329124
 20
10.6559328033
 30
0.0
 10
11.2135922169
 20
10.6569239795
 30
0.0
 10
11.1914229301
 20
10.6581574375
 30
0.0
 10
11.1804328731
 20
10.6589196005
 30
0.0
  0
SPLINE
  5
39E
100
AcDbEntity
  8
0
100
AcDbSpline
 62
7
  6
CONTINUOUS
 70
0
 71
3
 72
41
 73
37
 74
0
 42
0.0000001
 43
0.0000001
 44
0.0000000001
 40
0.0
 40
0.0
 40
0.0
 40
0.0
 40
0.0071758425
 40
0.0146741453
 40
0.0225035656
 40
0.0306713257
 40
0.0391834036
 40
0.0480443729
 40
0.0572572157
 40
0.0668238661
 40
0.0767452117
 40
0.087021259
 40
0.0976512753
 40
0.1086336553
 40
0.1316452786
 40
0.1560326285
 40
0.1817628121
 40
0.2087958578
 40
0.2370856249
 40
0.2665805114
 40
0.2972240455
 40
0.3289554128
 40
0.3617098907
 40
0.3954192316
 40
0.4300120033
 40
0.4654138991
 40
0.5015480605
 40
0.5383353682
 40
0.5756947176
 40
0.6135432851
 40
0.6517967846
 40
0.6903697386
 40
0.7681261117
 40
0.8461161118
 40
0.923638923
 40
1.0
 40
1.0
 40
1.0
 40
1.0
 10
11.6316887574
 20
10.6898556369
 30
0.0
 10
11.6308770534
 20
10.689071591
 30
0.0
 10
11.6291768034
 20
10.6875096403
 30
0.0
 10
11.6264650869
 20
10.6852338922
 30
0.0
 10
11.6235386855
 20
10.6829762038
 30
0.0
 10
11.6203995037
 20
10.6807380292
 30
0.0
 10
11.6170493804
 20
10.678520582
 30
0.0
 10
11.6134902416
 20
10.6763251666
 30
0.0
 10
11.609724207
 20
10.6741530041
 30
0.0
 10
11.6057534964
 20
10.6720054368
 30
0.0
 10
11.6015804842
 20
10.6698837241
 30
0.0
 10
11.5972076594
 20
10.6677891192
 30
0.0
 10
11.5926376089
 20
10.6657228876
 30
0.0
 10
11.5861840791
 20
10.6629643414
 30
0.0
 10
11.5776366671
 20
10.6596050897
 30
0.0
 10
11.5667932053
 20
10.6557665315
 30
0.0
 10
11.5552349721
 20
10.6520695105
 30
0.0
 10
11.5429896511
 20
10.6485229694
 30
0.0
 10
11.5300864393
 20
10.645135509
 30
0.0
 10
11.5165562378
 20
10.6419153494
 30
0.0
 10
11.5024314859
 20
10.6388703019
 30
0.0
 10
11.4877460905
 20
10.6360077565
 30
0.0
 10
11.4725353281
 20
10.6333346597
 30
0.0
 10
11.4568357578
 20
10.6308574986
 30
0.0
 10
11.4406851327
 20
10.6285822847
 30
0.0
 10
11.4241223071
 20
10.6265145308
 30
0.0
 10
11.4071871374
 20
10.6246592473
 30
0.0
 10
11.3899203823
 20
10.6230209305
 30
0.0
 10
11.3723636
 20
10.6216035488
 30
0.0
 10
11.3545590643
 20
10.6204105461
 30
0.0
 10
11.3365496065
 20
10.6194447856
 30
0.0
 10
11.3122579267
 20
10.6184607464
 30
0.0
 10
11.2817007802
 20
10.6178152734
 30
0.0
 10
11.2450112965
 20
10.6179699425
 30
0.0
 10
11.2085570118
 20
10.619050447
 30
0.0
 10
11.1843899187
 20
10.6203950585
 30
0.0
 10
11.1724094893
 20
10.6212259041
 30
0.0
  0
SPLINE
  5
39F
100
AcDbEntity
  8
0
100
AcDbSpline
 62
7
  6
CONTINUOUS
 70
0
 71
3
 72
96
 73
92
 74
0
 42
0.0000001
 43
0.0000001
 44
0.0000000001
 40
0.0
 40
0.0
 40
0.0
 40
0.0
 40
0.0041939212
 40
0.0085762269
 40
0.0131520052
 40
0.0179255503
 40
0.0229003895
 40
0.0280791136
 40
0.0334634798
 40
0.039054619
 40
0.0448530484
 40
0.0508588136
 40
0.0570714162
 40
0.0634899855
 40
0.0701132151
 40
0.0769394762
 40
0.0911924427
 40
0.1062302232
 40
0.1220294549
 40
0.1385631627
 40
0.1558011854
 40
0.173710526
 40
0.1922556446
 40
0.2113987132
 40
0.2310998404
 40
0.2513172756
 40
0.2720075971
 40
0.2931258893
 40
0.3146259101
 40
0.3364602548
 40
0.358580515
 40
0.380937433
 40
0.4034810543
 40
0.4261608786
 40
0.4489260088
 40
0.4717253002
 40
0.4945075089
 40
0.5172214402
 40
0.5398160978
 40
0.5622408322
 40
0.5844454903
 40
0.6063805658
 40
0.6279973504
 40
0.649248088
 40
0.6700861315
 40
0.6904661036
 40
0.7103440641
 40
0.7296776851
 40
0.7484264339
 40
0.7665517712
 40
0.7840173684
 40
0.8007893512
 40
0.8168365781
 40
0.8321309695
 40
0.8466479033
 40
0.8536084389
 40
0.8603672363
 40
0.8669224108
 40
0.8732724521
 40
0.8794161948
 40
0.8853528766
 40
0.891082198
 40
0.8966043145
 40
0.9019199826
 40
0.9070305141
 40
0.9119379754
 40
0.9166451634
 40
0.9211558052
 40
0.925474617
 40
0.9296074706
 40
0.9335615598
 40
0.9373455271
 40
0.9409697129
 40
0.9444462457
 40
0.9477892864
 40
0.9510150553
 40
0.9541419228
 40
0.9571902809
 40
0.9601823275
 40
0.9631416685
 40
0.9660927703
 40
0.969060322
 40
0.9720685748
 40
0.9751407156
 40
0.9782983924
 40
0.981561316
 40
0.9849471178
 40
0.9884713701
 40
0.9921476423
 40
0.9959874147
 40
1.0
 40
1.0
 40
1.0
 40
1.0
 10
10.5288541187
 20
10.9345428399
 30
0.0
 10
10.5298649761
 20
10.9355192533
 30
0.0
 10
10.5319823629
 20
10.9374644189
 30
0.0
 10
10.535359352
 20
10.9402984846
 30
0.0
 10
10.5390036828
 20
10.9431100239
 30
0.0
 10
10.5429129876
 20
10.945897297
 30
0.0
 10
10.5470850194
 20
10.9486587464
 30
0.0
 10
10.5515173335
 20
10.9513927967
 30
0.0
 10
10.5562073079
 20
10.9540978576
 30
0.0
 10
10.5611521659
 20
10.9567722838
 30
0.0
 10
10.5663489488
 20
10.9594145402
 30
0.0
 10
10.5717945841
 20
10.9620229989
 30
0.0
 10
10.5774858084
 20
10.9645961601
 30
0.0
 10
10.5834192341
 20
10.9671324237
 30
0.0
 10
10.5895913098
 20
10.9696303302
 30
0.0
 10
10.5982591513
 20
10.9729555867
 30
0.0
 10
10.609670812
 20
10.9769951431
 30
0.0
 10
10.6240645331
 20
10.9815991686
 30
0.0
 10
10.6393140845
 20
10.9860157905
 30
0.0
 10
10.6553828768
 20
10.9902343067
 30
0.0
 10
10.6722324905
 20
10.9942444813
 30
0.0
 10
10.6898225133
 20
10.9980365819
 30
0.0
 10
10.7081107278
 20
11.0016014048
 30
0.0
 10
10.7270532004
 20
11.0049302993
 30
0.0
 10
10.7466043997
 20
11.0080151893
 30
0.0
 10
10.7667173095
 20
11.0108485925
 30
0.0
 10
10.7873435465
 20
11.0134236387
 30
0.0
 10
10.8084334791
 20
11.0157340853
 30
0.0
 10
10.8299363492
 20
11.0177743335
 30
0.0
 10
10.851800397
 20
11.019539441
 30
0.0
 10
10.8739729873
 20
11.0210251324
 30
0.0
 10
10.8964007379
 20
11.0222278098
 30
0.0
 10
10.919029649
 20
11.0231445609
 30
0.0
 10
10.9418052337
 20
11.0237731659
 30
0.0
 10
10.9646726505
 20
11.0241121025
 30
0.0
 10
10.9875768349
 20
11.0241605499
 30
0.0
 10
11.0104626336
 20
11.0239183901
 30
0.0
 10
11.0332749375
 20
11.0233862093
 30
0.0
 10
11.0559588156
 20
11.0225652967
 30
0.0
 10
11.0784596479
 20
11.0214576403
 30
0.0
 10
11.1007232578
 20
11.0200659225
 30
0.0
 10
11.1226960431
 20
11.0183935139
 30
0.0
 10
11.1443251057
 20
11.016444465
 30
0.0
 10
11.1655583803
 20
11.0142234976
 30
0.0
 10
11.1863447609
 20
11.0117359928
 30
0.0
 10
11.2066342261
 20
11.0089879792
 30
0.0
 10
11.226377962
 20
11.005986119
 30
0.0
 10
11.2455284834
 20
11.0027376927
 30
0.0
 10
11.2640397513
 20
10.9992505808
 30
0.0
 10
11.281867287
 20
10.995533245
 30
0.0
 10
11.2989682906
 20
10.9915947074
 30
0.0
 10
11.3153017318
 20
10.9874445266
 30
0.0
 10
11.3308285329
 20
10.9830927762
 30
0.0
 10
11.3455114207
 20
10.9785499999
 30
0.0
 10
11.3571727088
 20
10.9745604616
 30
0.0
 10
11.3660461529
 20
10.9712735521
 30
0.0
 10
11.3723752901
 20
10.9688020924
 30
0.0
 10
11.3784682178
 20
10.9662912401
 30
0.0
 10
11.3843213016
 20
10.9637425046
 30
0.0
 10
11.3899310395
 20
10.9611574135
 30
0.0
 10
11.3952940787
 20
10.9585375018
 30
0.0
 10
11.4004072328
 20
10.9558843638
 30
0.0
 10
11.4052674428
 20
10.9531995325
 30
0.0
 10
11.4098718457
 20
10.9504846553
 30
0.0
 10
11.4142176873
 20
10.9477412682
 30
0.0
 10
11.418302426
 20
10.9449710345
 30
0.0
 10
11.4221236275
 20
10.9421755077
 30
0.0
 10
11.4256790559
 20
10.9393563201
 30
0.0
 10
11.4289666066
 20
10.9365150477
 30
0.0
 10
11.4319843187
 20
10.9336532553
 30
0.0
 10
11.4347304074
 20
10.9307725292
 30
0.0
 10
11.4372031386
 20
10.9278743568
 30
0.0
 10
11.4394009967
 20
10.9249603192
 30
0.0
 10
11.4413224155
 20
10.9220318717
 30
0.0
 10
11.4429660534
 20
10.9190906163
 30
0.0
 10
11.4443304828
 20
10.9161381132
 30
0.0
 10
11.44541447
 20
10.9131761148
 30
0.0
 10
11.4462168201
 20
10.9102064946
 30
0.0
 10
11.4467365334
 20
10.9072313441
 30
0.0
 10
11.4469729473
 20
10.9042529509
 30
0.0
 10
11.4469256359
 20
10.9012737363
 30
0.0
 10
11.446594777
 20
10.8982961571
 30
0.0
 10
11.4459807287
 20
10.8953226124
 30
0.0
 10
11.4450844108
 20
10.8923552995
 30
0.0
 10
11.4439067853
 20
10.8893962701
 30
0.0
 10
11.4424491512
 20
10.8864473368
 30
0.0
 10
11.4407127961
 20
10.8835101828
 30
0.0
 10
11.438699067
 20
10.880586369
 30
0.0
 10
11.4364093652
 20
10.8776773757
 30
0.0
 10
11.4338453503
 20
10.8747849207
 30
0.0
 10
11.4319960892
 20
10.872910999
 30
0.0
 10
11.431028939
 20
10.8719768036
 30
0.0
  0
SPLINE
  5
3A0
100
AcDbEntity
  8
0
100
AcDbSpline
 62
7
  6
CONTINUOUS
 70
0
 71
3
 72
23
 73
19
 74
0
 42
0.0000001
 43
0.0000001
 44
0.0000000001
 40
0.0
 40
0.0
 40
0.0
 40
0.0
 40
0.0749626534
 40
0.1455688963
 40
0.2121606022
 40
0.2751638685
 40
0.3350989783
 40
0.3925841093
 40
0.4483303009
 40
0.5031245534
 40
0.557799107
 40
0.6131921295
 40
0.6701070768
 40
0.7292791944
 40
0.7913530767
 40
0.8568775136
 40
0.9263076327
 40
1.0
 40
1.0
 40
1.0
 40
1.0
 10
10.5300185169
 20
10.8708730146
 30
0.0
 10
10.5286699798
 20
10.8721279648
 30
0.0
 10
10.5261260324
 20
10.8746474606
 30
0.0
 10
10.5226934565
 20
10.8785782272
 30
0.0
 10
10.5197663802
 20
10.882540135
 30
0.0
 10
10.5173491425
 20
10.8865297262
 30
0.0
 10
10.5154458276
 20
10.8905435021
 30
0.0
 10
10.5140606188
 20
10.8945773151
 30
0.0
 10
10.5131975333
 20
10.8986260173
 30
0.0
 10
10.5128595177
 20
10.9026831638
 30
0.0
 10
10.5130479841
 20
10.9067413945
 30
0.0
 10
10.5137621444
 20
10.9107931949
 30
0.0
 10
10.5149993479
 20
10.9148318334
 30
0.0
 10
10.5167559063
 20
10.9188517416
 30
0.0
 10
10.5190275137
 20
10.9228485756
 30
0.0
 10
10.5218101699
 20
10.9268187546
 30
0.0
 10
10.5250995328
 20
10.9307586161
 30
0.0
 10
10.5275516087
 20
10.9332847118
 30
0.0
 10
10.5288541187
 20
10.9345428399
 30
0.0
  0
SPLINE
  5
3A1
100
AcDbEntity
  8
0
100
AcDbSpline
 62
7
  6
CONTINUOUS
 70
0
 71
3
 72
15
 73
11
 74
0
 42
0.0000001
 43
0.0000001
 44
0.0000000001
 40
0.0
 40
0.0
 40
0.0
 40
0.0
 40
0.1273483281
 40
0.2538605602
 40
0.3795878981
 40
0.5046051042
 40
0.6290174419
 40
0.7529533761
 40
0.876560577
 40
1.0
 40
1.0
 40
1.0
 40
1.0
 10
10.0502091757
 20
9.1869532775
 30
0.0
 10
10.0502091757
 20
9.1903256663
 30
0.0
 10
10.0505311709
 20
9.1970529651
 30
0.0
 10
10.0519873677
 20
9.2070145262
 30
0.0
 10
10.0544019836
 20
9.2167257888
 30
0.0
 10
10.0577532099
 20
9.2260959343
 30
0.0
 10
10.0620102918
 20
9.2350385517
 30
0.0
 10
10.0671344429
 20
9.2434710551
 30
0.0
 10
10.0730774704
 20
9.2513144389
 30
0.0
 10
10.0775522704
 20
9.2561056176
 30
0.0
 10
10.0799034253
 20
9.2583766553
 30
0.0
  0
SPLINE
  5
3A2
100
AcDbEntity
  8
0
100
AcDbSpline
 62
7
  6
CONTINUOUS
 70
0
 71
3
 72
13
 73
9
 74
0
 42
0.0000001
 43
0.0000001
 44
0.0000000001
 40
0.0
 40
0.0
 40
0.0
 40
0.0
 40
0.1236077011
 40
0.2476467905
 40
0.496886408
 40
0.7477001805
 40
0.873685571
 40
1.0
 40
1.0
 40
1.0
 40
1.0
 10
10.5163935143
 20
8.6847898405
 30
0.0
 10
10.5163935143
 20
8.6807659051
 30
0.0
 10
10.5165951733
 20
8.6727024083
 30
0.0
 10
10.5178004085
 20
8.6565664452
 30
0.0
 10
10.5208115607
 20
8.6364388789
 30
0.0
 10
10.5257770556
 20
8.6166381468
 30
0.0
 10
10.5308931386
 20
8.6010741523
 30
0.0
 10
10.5338287979
 20
8.5933991986
 30
0.0
 10
10.5353885641
 20
8.5895944531
 30
0.0
  0
SPLINE
  5
3A3
100
AcDbEntity
  8
0
100
AcDbSpline
 62
7
  6
CONTINUOUS
 70
0
 71
3
 72
26
 73
22
 74
0
 42
0.0000001
 43
0.0000001
 44
0.0000000001
 40
0.0
 40
0.0
 40
0.0
 40
0.0
 40
0.0644300902
 40
0.0965607651
 40
0.1286289954
 40
0.1925609538
 40
0.2562192685
 40
0.3195936588
 40
0.3826787372
 40
0.4454741695
 40
0.5079847505
 40
0.5702203885
 40
0.6321959945
 40
0.6939312725
 40
0.7247208538
 40
0.7554597703
 40
0.8167910364
 40
0.8779662782
 40
0.9085109636
 40
0.939029918
 40
1.0
 40
1.0
 40
1.0
 40
1.0
 10
10.6785121542
 20
8.4454792623
 30
0.0
 10
10.6835492666
 20
8.4433771267
 30
0.0
 10
10.6912010018
 20
8.4404644413
 30
0.0
 10
10.7015601251
 20
8.437079694
 30
0.0
 10
10.7119821404
 20
8.4340402052
 30
0.0
 10
10.7251438357
 20
8.4308809451
 30
0.0
 10
10.7410971971
 20
8.4281308487
 30
0.0
 10
10.7571253585
 20
8.4264373092
 30
0.0
 10
10.7731573761
 20
8.4258080261
 30
0.0
 10
10.7891227522
 20
8.4262458708
 30
0.0
 10
10.8049510885
 20
8.4277490419
 30
0.0
 10
10.8205727504
 20
8.4303110961
 30
0.0
 10
10.8359184079
 20
8.4339206871
 30
0.0
 10
10.8484329413
 20
8.4377925995
 30
0.0
 10
10.858235725
 20
8.4413958624
 30
0.0
 10
10.8678752186
 20
8.4453258679
 30
0.0
 10
10.8796333865
 20
8.4508552817
 30
0.0
 10
10.8909590961
 20
8.4571902782
 30
0.0
 10
10.8997176372
 20
8.4627186851
 30
0.0
 10
10.9082602347
 20
8.4685436476
 30
0.0
 10
10.9144292902
 20
8.4732495161
 30
0.0
 10
10.9184219084
 20
8.4765262038
 30
0.0
  0
SPLINE
  5
3A4
100
AcDbEntity
  8
0
100
AcDbSpline
 62
7
  6
CONTINUOUS
 70
0
 71
3
 72
19
 73
15
 74
0
 42
0.0000001
 43
0.0000001
 44
0.0000000001
 40
0.0
 40
0.0
 40
0.0
 40
0.0
 40
0.1271980964
 40
0.25364089
 40
0.3793657871
 40
0.5044281658
 40
0.5667505243
 40
0.6289380249
 40
0.6910032821
 40
0.7529598757
 40
0.8148222765
 40
0.8766057472
 40
0.9383261825
 40
1.0
 40
1.0
 40
1.0
 40
1.0
 10
10.5163935143
 20
8.6847898405
 30
0.0
 10
10.5163935143
 20
8.6917358153
 30
0.0
 10
10.5169918202
 20
8.7055942605
 30
0.0
 10
10.5196970314
 20
8.7261590973
 30
0.0
 10
10.5241869155
 20
8.7462910576
 30
0.0
 10
10.5293960663
 20
8.7626028646
 30
0.0
 10
10.5344158616
 20
8.7752773975
 30
0.0
 10
10.5385956828
 20
8.7845729834
 30
0.0
 10
10.5431863891
 20
8.7936500839
 30
0.0
 10
10.5481795175
 20
8.8024919015
 30
0.0
 10
10.5535656587
 20
8.8110817782
 30
0.0
 10
10.5593347402
 20
8.8194037041
 30
0.0
 10
10.56547583
 20
8.8274417994
 30
0.0
 10
10.5698118896
 20
8.8326033051
 30
0.0
 10
10.5720373918
 20
8.8351310688
 30
0.0
  0
SPLINE
  5
3A5
100
AcDbEntity
  8
0
100
AcDbSpline
 62
7
  6
CONTINUOUS
 70
0
 71
3
 72
18
 73
14
 74
0
 42
0.0000001
 43
0.0000001
 44
0.0000000001
 40
0.0
 40
0.0
 40
0.0
 40
0.0
 40
0.1480418171
 40
0.2876687388
 40
0.4195635278
 40
0.4828951528
 40
0.5446365507
 40
0.6638665445
 40
0.7785244891
 40
0.8345987202
 40
0.8900707894
 40
0.9451373579
 40
1.0
 40
1.0
 40
1.0
 40
1.0
 10
10.564110436
 20
10.8968414886
 30
0.0
 10
10.5629304311
 20
10.8957016914
 30
0.0
 10
10.5607066425
 20
10.8934132679
 30
0.0
 10
10.5577167068
 20
10.8898468645
 30
0.0
 10
10.5555721294
 20
10.8868120223
 30
0.0
 10
10.5540951682
 20
10.8843760886
 30
0.0
 10
10.5528052967
 20
10.8819947319
 30
0.0
 10
10.5514648033
 20
10.8789982839
 30
0.0
 10
10.5504860385
 20
10.8759293896
 30
0.0
 10
10.5499427549
 20
10.8734808215
 30
0.0
 10
10.5496536182
 20
10.8716559558
 30
0.0
 10
10.5494801241
 20
10.8698300731
 30
0.0
 10
10.5494415425
 20
10.8686114903
 30
0.0
 10
10.5494415424
 20
10.8680035044
 30
0.0
  0
SPLINE
  5
3A6
100
AcDbEntity
  8
0
100
AcDbSpline
 62
7
  6
CONTINUOUS
 70
0
 71
3
 72
15
 73
11
 74
0
 42
0.0000001
 43
0.0000001
 44
0.0000000001
 40
0.0
 40
0.0
 40
0.0
 40
0.0
 40
0.1098905285
 40
0.221401194
 40
0.3360758811
 40
0.4553210128
 40
0.580374544
 40
0.712292488
 40
0.8519429292
 40
1.0
 40
1.0
 40
1.0
 40
1.0
 10
10.8239415348
 20
8.6080075368
 30
0.0
 10
10.8239415385
 20
8.6084487678
 30
0.0
 10
10.8239981963
 20
8.6093387331
 30
0.0
 10
10.8242522604
 20
8.6106672981
 30
0.0
 10
10.8246747277
 20
8.6119916734
 30
0.0
 10
10.8252643734
 20
8.613309895
 30
0.0
 10
10.8260199598
 20
8.6146206695
 30
0.0
 10
10.8269401905
 20
8.6159228762
 30
0.0
 10
10.8280237034
 20
8.6172152855
 30
0.0
 10
10.8288295108
 20
8.6180445273
 30
0.0
 10
10.829257091
 20
8.618457538
 30
0.0
  0
SPLINE
  5
3A7
100
AcDbEntity
  8
0
100
AcDbSpline
 62
7
  6
CONTINUOUS
 70
0
 71
3
 72
13
 73
9
 74
0
 42
0.0000001
 43
0.0000001
 44
0.0000000001
 40
0.0
 40
0.0
 40
0.0
 40
0.0
 40
0.1236077011
 40
0.2476467905
 40
0.496886408
 40
0.7477001805
 40
0.873685571
 40
1.0
 40
1.0
 40
1.0
 40
1.0
 10
10.9124230943
 20
8.3231147825
 30
0.0
 10
10.9124230943
 20
8.3190908471
 30
0.0
 10
10.9126247533
 20
8.3110273503
 30
0.0
 10
10.9138299885
 20
8.2948913872
 30
0.0
 10
10.9168411407
 20
8.2747638209
 30
0.0
 10
10.9218066356
 20
8.2549630888
 30
0.0
 10
10.9269227186
 20
8.2393990943
 30
0.0
 10
10.9298583779
 20
8.2317241406
 30
0.0
 10
10.9314181441
 20
8.2279193952
 30
0.0
  0
SPLINE
  5
3A8
100
AcDbEntity
  8
0
100
AcDbSpline
 62
7
  6
CONTINUOUS
 70
0
 71
3
 72
26
 73
22
 74
0
 42
0.0000001
 43
0.0000001
 44
0.0000000001
 40
0.0
 40
0.0
 40
0.0
 40
0.0
 40
0.0644300902
 40
0.0965607651
 40
0.1286289954
 40
0.1925609538
 40
0.2562192685
 40
0.3195936588
 40
0.3826787372
 40
0.4454741695
 40
0.5079847505
 40
0.5702203885
 40
0.6321959945
 40
0.6939312725
 40
0.7247208538
 40
0.7554597703
 40
0.8167910364
 40
0.8779662782
 40
0.9085109636
 40
0.939029918
 40
1.0
 40
1.0
 40
1.0
 40
1.0
 10
11.0745417342
 20
8.0838042044
 30
0.0
 10
11.0795788466
 20
8.0817020688
 30
0.0
 10
11.0872305818
 20
8.0787893833
 30
0.0
 10
11.0975897051
 20
8.075404636
 30
0.0
 10
11.1080117204
 20
8.0723651472
 30
0.0
 10
11.1211734157
 20
8.0692058871
 30
0.0
 10
11.1371267771
 20
8.0664557907
 30
0.0
 10
11.1531549385
 20
8.0647622512
 30
0.0
 10
11.1691869561
 20
8.0641329681
 30
0.0
 10
11.1851523322
 20
8.0645708128
 30
0.0
 10
11.2009806685
 20
8.0660739839
 30
0.0
 10
11.2166023304
 20
8.0686360382
 30
0.0
 10
11.231947988
 20
8.0722456291
 30
0.0
 10
11.2444625213
 20
8.0761175415
 30
0.0
 10
11.254265305
 20
8.0797208044
 30
0.0
 10
11.2639047986
 20
8.0836508099
 30
0.0
 10
11.2756629665
 20
8.0891802238
 30
0.0
 10
11.2869886761
 20
8.0955152202
 30
0.0
 10
11.2957472173
 20
8.1010436271
 30
0.0
 10
11.3042898147
 20
8.1068685896
 30
0.0
 10
11.3104588702
 20
8.1115744581
 30
0.0
 10
11.3144514884
 20
8.1148511459
 30
0.0
  0
SPLINE
  5
3A9
100
AcDbEntity
  8
0
100
AcDbSpline
 62
7
  6
CONTINUOUS
 70
0
 71
3
 72
19
 73
15
 74
0
 42
0.0000001
 43
0.0000001
 44
0.0000000001
 40
0.0
 40
0.0
 40
0.0
 40
0.0
 40
0.1271980964
 40
0.25364089
 40
0.3793657871
 40
0.5044281658
 40
0.5667505243
 40
0.6289380249
 40
0.6910032821
 40
0.7529598757
 40
0.8148222765
 40
0.8766057472
 40
0.9383261825
 40
1.0
 40
1.0
 40
1.0
 40
1.0
 10
10.9124230943
 20
8.3231147825
 30
0.0
 10
10.9124230943
 20
8.3300607574
 30
0.0
 10
10.9130214002
 20
8.3439192025
 30
0.0
 10
10.9157266114
 20
8.3644840393
 30
0.0
 10
10.9202164955
 20
8.3846159996
 30
0.0
 10
10.9254256463
 20
8.4009278066
 30
0.0
 10
10.9304454416
 20
8.4136023396
 30
0.0
 10
10.9346252628
 20
8.4228979255
 30
0.0
 10
10.9392159691
 20
8.4319750259
 30
0.0
 10
10.9442090975
 20
8.4408168435
 30
0.0
 10
10.9495952387
 20
8.4494067202
 30
0.0
 10
10.9553643202
 20
8.4577286461
 30
0.0
 10
10.96150541
 20
8.4657667414
 30
0.0
 10
10.9658414696
 20
8.4709282471
 30
0.0
 10
10.9680669718
 20
8.4734560108
 30
0.0
  0
SPLINE
  5
3AA
100
AcDbEntity
  8
0
100
AcDbSpline
 62
7
  6
CONTINUOUS
 70
0
 71
3
 72
54
 73
50
 74
0
 42
0.0000001
 43
0.0000001
 44
0.0000000001
 40
0.0
 40
0.0
 40
0.0
 40
0.0
 40
0.0054809681
 40
0.011095678
 40
0.0169678263
 40
0.0232040887
 40
0.029891467
 40
0.0370976344
 40
0.0448735952
 40
0.0532561349
 40
0.0622709294
 40
0.0719343879
 40
0.0822557551
 40
0.0932382838
 40
0.1048803398
 40
0.1171763014
 40
0.1301169353
 40
0.143690235
 40
0.1578813611
 40
0.1726734104
 40
0.1880472204
 40
0.2039819484
 40
0.237440931
 40
0.2728537006
 40
0.3100016772
 40
0.3486492669
 40
0.3885468158
 40
0.4294333291
 40
0.4710390442
 40
0.5130879227
 40
0.5553000971
 40
0.5973942958
 40
0.6390902602
 40
0.6801111674
 40
0.7201860728
 40
0.7590523971
 40
0.7964584846
 40
0.8321662868
 40
0.8659542653
 40
0.8820651395
 40
0.89762218
 40
0.9126040026
 40
0.9269908541
 40
0.9407651377
 40
0.9539112728
 40
0.9664160626
 40
0.9782698436
 40
0.9894661738
 40
1.0
 40
1.0
 40
1.0
 40
1.0
 10
10.7671204885
 20
11.0934313745
 30
0.0
 10
10.767120494
 20
11.093888597
 30
0.0
 10
10.7671971597
 20
11.0948158947
 30
0.0
 10
10.7675396199
 20
11.0961949015
 30
0.0
 10
10.7681074627
 20
11.0975654157
 30
0.0
 10
10.7688976057
 20
11.0989244267
 30
0.0
 10
10.7699072899
 20
11.1002703238
 30
0.0
 10
10.771133939
 20
11.1016016658
 30
0.0
 10
10.7725752162
 20
11.1029168646
 30
0.0
 10
10.7742285534
 20
11.1042142682
 30
0.0
 10
10.7760912135
 20
11.105491933
 30
0.0
 10
10.7781600448
 20
11.1067479015
 30
0.0
 10
10.7804315585
 20
11.1079800741
 30
0.0
 10
10.7829018575
 20
11.1091863595
 30
0.0
 10
10.7855666647
 20
11.1103646704
 30
0.0
 10
10.7884213375
 20
11.1115129032
 30
0.0
 10
10.7914608578
 20
11.1126290587
 30
0.0
 10
10.7946798762
 20
11.1137110968
 30
0.0
 10
10.7980726923
 20
11.1147571313
 30
0.0
 10
10.8016332957
 20
11.115765235
 30
0.0
 10
10.8053553649
 20
11.1167336568
 30
0.0
 10
10.810610465
 20
11.117990053
 30
0.0
 10
10.817536242
 20
11.1194411109
 30
0.0
 10
10.8262482894
 20
11.1209718688
 30
0.0
 10
10.8354298189
 20
11.1223080177
 30
0.0
 10
10.84501543
 20
11.123439867
 30
0.0
 10
10.8549369116
 20
11.1243591783
 30
0.0
 10
10.8651235595
 20
11.1250592791
 30
0.0
 10
10.875502755
 20
11.1255350896
 30
0.0
 10
10.8860004799
 20
11.1257831604
 30
0.0
 10
10.8965418589
 20
11.1258016934
 30
0.0
 10
10.9070517003
 20
11.1255905543
 30
0.0
 10
10.9174550409
 20
11.125151273
 30
0.0
 10
10.927677687
 20
11.1244870338
 30
0.0
 10
10.9376467581
 20
11.1236026551
 30
0.0
 10
10.9472912045
 20
11.1225045557
 30
0.0
 10
10.9565423844
 20
11.1212007271
 30
0.0
 10
10.9653343917
 20
11.1197006255
 30
0.0
 10
10.9723334225
 20
11.1182744505
 30
0.0
 10
10.9776520215
 20
11.1170371762
 30
0.0
 10
10.9814247585
 20
11.1160819327
 30
0.0
 10
10.9850381315
 20
11.1150864403
 30
0.0
 10
10.9884857276
 20
11.1140524339
 30
0.0
 10
10.9917614292
 20
11.1129817911
 30
0.0
 10
10.9948594243
 20
11.1118764284
 30
0.0
 10
10.9977742556
 20
11.1107383246
 30
0.0
 10
11.0005008788
 20
11.1095694727
 30
0.0
 10
11.0030343352
 20
11.1083719657
 30
0.0
 10
11.0046406236
 20
11.1075303226
 30
0.0
 10
11.0054089422
 20
11.1071038763
 30
0.0
  0
SPLINE
  5
3AB
100
AcDbEntity
  8
0
100
AcDbSpline
 62
7
  6
CONTINUOUS
 70
0
 71
3
 72
13
 73
9
 74
0
 42
0.0000001
 43
0.0000001
 44
0.0000000001
 40
0.0
 40
0.0
 40
0.0
 40
0.0
 40
0.1236077011
 40
0.2476467905
 40
0.496886408
 40
0.7477001805
 40
0.873685571
 40
1.0
 40
1.0
 40
1.0
 40
1.0
 10
10.1213298189
 20
8.3779772875
 30
0.0
 10
10.1213298189
 20
8.3739533521
 30
0.0
 10
10.1215314779
 20
8.3658898553
 30
0.0
 10
10.1227367132
 20
8.3497538922
 30
0.0
 10
10.1257478653
 20
8.3296263259
 30
0.0
 10
10.1307133603
 20
8.3098255938
 30
0.0
 10
10.1358294433
 20
8.2942615993
 30
0.0
 10
10.1387651025
 20
8.2865866456
 30
0.0
 10
10.1403248688
 20
8.2827819001
 30
0.0
  0
SPLINE
  5
3AC
100
AcDbEntity
  8
0
100
AcDbSpline
 62
7
  6
CONTINUOUS
 70
0
 71
3
 72
26
 73
22
 74
0
 42
0.0000001
 43
0.0000001
 44
0.0000000001
 40
0.0
 40
0.0
 40
0.0
 40
0.0
 40
0.0644300902
 40
0.0965607651
 40
0.1286289954
 40
0.1925609538
 40
0.2562192685
 40
0.3195936588
 40
0.3826787372
 40
0.4454741695
 40
0.5079847505
 40
0.5702203885
 40
0.6321959945
 40
0.6939312725
 40
0.7247208538
 40
0.7554597703
 40
0.8167910364
 40
0.8779662782
 40
0.9085109636
 40
0.939029918
 40
1.0
 40
1.0
 40
1.0
 40
1.0
 10
10.2834484588
 20
8.1386667093
 30
0.0
 10
10.2884855713
 20
8.1365645737
 30
0.0
 10
10.2961373065
 20
8.1336518883
 30
0.0
 10
10.3064964297
 20
8.130267141
 30
0.0
 10
10.316918445
 20
8.1272276522
 30
0.0
 10
10.3300801403
 20
8.1240683921
 30
0.0
 10
10.3460335017
 20
8.1213182957
 30
0.0
 10
10.3620616632
 20
8.1196247562
 30
0.0
 10
10.3780936808
 20
8.1189954731
 30
0.0
 10
10.3940590568
 20
8.1194333178
 30
0.0
 10
10.4098873932
 20
8.1209364889
 30
0.0
 10
10.425509055
 20
8.1234985432
 30
0.0
 10
10.4408547126
 20
8.1271081341
 30
0.0
 10
10.4533692459
 20
8.1309800465
 30
0.0
 10
10.4631720296
 20
8.1345833094
 30
0.0
 10
10.4728115232
 20
8.1385133149
 30
0.0
 10
10.4845696911
 20
8.1440427287
 30
0.0
 10
10.4958954008
 20
8.1503777252
 30
0.0
 10
10.5046539419
 20
8.1559061321
 30
0.0
 10
10.5131965393
 20
8.1617310946
 30
0.0
 10
10.5193655949
 20
8.1664369631
 30
0.0
 10
10.5233582131
 20
8.1697136508
 30
0.0
  0
SPLINE
  5
3AD
100
AcDbEntity
  8
0
100
AcDbSpline
 62
7
  6
CONTINUOUS
 70
0
 71
3
 72
19
 73
15
 74
0
 42
0.0000001
 43
0.0000001
 44
0.0000000001
 40
0.0
 40
0.0
 40
0.0
 40
0.0
 40
0.1271980964
 40
0.25364089
 40
0.3793657871
 40
0.5044281658
 40
0.5667505243
 40
0.6289380249
 40
0.6910032821
 40
0.7529598757
 40
0.8148222765
 40
0.8766057472
 40
0.9383261825
 40
1.0
 40
1.0
 40
1.0
 40
1.0
 10
10.1213298189
 20
8.3779772875
 30
0.0
 10
10.1213298189
 20
8.3849232623
 30
0.0
 10
10.1219281248
 20
8.3987817075
 30
0.0
 10
10.1246333361
 20
8.4193465443
 30
0.0
 10
10.1291232202
 20
8.4394785046
 30
0.0
 10
10.1343323709
 20
8.4557903116
 30
0.0
 10
10.1393521662
 20
8.4684648445
 30
0.0
 10
10.1435319874
 20
8.4777604304
 30
0.0
 10
10.1481226938
 20
8.4868375309
 30
0.0
 10
10.1531158221
 20
8.4956793485
 30
0.0
 10
10.1585019634
 20
8.5042692252
 30
0.0
 10
10.1642710448
 20
8.5125911511
 30
0.0
 10
10.1704121346
 20
8.5206292464
 30
0.0
 10
10.1747481942
 20
8.5257907521
 30
0.0
 10
10.1769736965
 20
8.5283185158
 30
0.0
  0
SPLINE
  5
3AE
100
AcDbEntity
  8
0
100
AcDbSpline
 62
7
  6
CONTINUOUS
 70
0
 71
3
 72
18
 73
14
 74
0
 42
0.0000001
 43
0.0000001
 44
0.0000000001
 40
0.0
 40
0.0
 40
0.0
 40
0.0
 40
0.054862568
 40
0.1099291209
 40
0.1654011893
 40
0.2214754292
 40
0.336133642
 40
0.4553634706
 40
0.5171047465
 40
0.5804363458
 40
0.712331634
 40
0.8519592464
 40
1.0
 40
1.0
 40
1.0
 40
1.0
 10
11.951684493
 20
9.773408393
 30
0.0
 10
11.9516844903
 20
9.7728787941
 30
0.0
 10
11.9516508773
 20
9.7718173212
 30
0.0
 10
11.9514997201
 20
9.7702268494
 30
0.0
 10
11.9512478511
 20
9.7686372619
 30
0.0
 10
11.9507746061
 20
9.7665043805
 30
0.0
 10
11.9499219915
 20
9.7638311639
 30
0.0
 10
11.9487543311
 20
9.7612210398
 30
0.0
 10
11.9476307486
 20
9.7591467155
 30
0.0
 10
11.9463442
 20
9.757024843
 30
0.0
 10
11.9444761079
 20
9.7543812698
 30
0.0
 10
11.9418716468
 20
9.7512746831
 30
0.0
 10
11.9399345725
 20
9.7492813005
 30
0.0
 10
11.9389067104
 20
9.748288462
 30
0.0
  0
SPLINE
  5
3AF
100
AcDbEntity
  8
0
100
AcDbSpline
 62
7
  6
CONTINUOUS
 70
0
 71
3
 72
18
 73
14
 74
0
 42
0.0000001
 43
0.0000001
 44
0.0000000001
 40
0.0
 40
0.0
 40
0.0
 40
0.0
 40
0.0548626221
 40
0.1099291996
 40
0.1654012684
 40
0.2214754896
 40
0.3361336267
 40
0.4553633642
 40
0.5171046005
 40
0.5804361693
 40
0.7123314363
 40
0.8519591016
 40
1.0
 40
1.0
 40
1.0
 40
1.0
 10
11.951684493
 20
11.011725605
 30
0.0
 10
11.9516844959
 20
11.0111960007
 30
0.0
 10
11.9516508933
 20
11.0101345171
 30
0.0
 10
11.9514997498
 20
11.0085440285
 30
0.0
 10
11.9512478922
 20
11.0069544243
 30
0.0
 10
11.9507746599
 20
11.0048215205
 30
0.0
 10
11.9499220557
 20
11.0021482754
 30
0.0
 10
11.9487543984
 20
10.9995381235
 30
0.0
 10
11.9476308144
 20
10.9974637772
 30
0.0
 10
11.9463442613
 20
10.995341882
 30
0.0
 10
11.9444761579
 20
10.9926982804
 30
0.0
 10
11.9418716756
 20
10.989591661
 30
0.0
 10
11.9399345829
 20
10.9875982582
 30
0.0
 10
11.9389067104
 20
10.9866054096
 30
0.0
  0
SPLINE
  5
3B0
100
AcDbEntity
  8
0
100
AcDbSpline
 62
7
  6
CONTINUOUS
 70
0
 71
3
 72
32
 73
28
 74
0
 42
0.0000001
 43
0.0000001
 44
0.0000000001
 40
0.0
 40
0.0
 40
0.0
 40
0.0
 40
0.0165871034
 40
0.0341537877
 40
0.0527303508
 40
0.0723387813
 40
0.0929934762
 40
0.1147029556
 40
0.1374701532
 40
0.1612937248
 40
0.186168089
 40
0.2120844216
 40
0.2390305848
 40
0.2669918729
 40
0.2959509208
 40
0.3258882436
 40
0.3567821809
 40
0.3886092592
 40
0.4213442018
 40
0.4549601395
 40
0.5247185182
 40
0.5976428349
 40
0.6734701755
 40
0.7519205052
 40
0.8326991697
 40
0.9154982754
 40
1.0
 40
1.0
 40
1.0
 40
1.0
 10
10.0632528203
 20
6.5209414223
 30
0.0
 10
10.0643709755
 20
6.5199008622
 30
0.0
 10
10.066742616
 20
6.5178319146
 30
0.0
 10
10.0705751216
 20
6.5148470077
 30
0.0
 10
10.0747786036
 20
6.5118961487
 30
0.0
 10
10.079348658
 20
6.5089824825
 30
0.0
 10
10.0842806513
 20
6.5061087588
 30
0.0
 10
10.0895695635
 20
6.5032779897
 30
0.0
 10
10.0952099373
 20
6.5004929909
 30
0.0
 10
10.101195976
 20
6.497756719
 30
0.0
 10
10.1075214624
 20
6.495071955
 30
0.0
 10
10.1141798399
 20
6.4924415652
 30
0.0
 10
10.1211641647
 20
6.489868257
 30
0.0
 10
10.1284671578
 20
6.4873547784
 30
0.0
 10
10.136081183
 20
6.4849037389
 30
0.0
 10
10.1439982781
 20
6.4825177495
 30
0.0
 10
10.1522101514
 20
6.4801993028
 30
0.0
 10
10.1607081952
 20
6.4779508638
 30
0.0
 10
10.1694835094
 20
6.4757747741
 30
0.0
 10
10.1816922831
 20
6.4729378825
 30
0.0
 10
10.1975820718
 20
6.4695996764
 30
0.0
 10
10.2173744518
 20
6.4659643533
 30
0.0
 10
10.2380368067
 20
6.4626672985
 30
0.0
 10
10.2594823882
 20
6.4597225054
 30
0.0
 10
10.2816212738
 20
6.4571425116
 30
0.0
 10
10.304360462
 20
6.4549382698
 30
0.0
 10
10.3197204399
 20
6.4537361779
 30
0.0
 10
10.32748316
 20
6.4531978314
 30
0.0
  0
SPLINE
  5
3B1
100
AcDbEntity
  8
0
100
AcDbSpline
 62
7
  6
CONTINUOUS
 70
0
 71
3
 72
23
 73
19
 74
0
 42
0.0000001
 43
0.0000001
 44
0.0000000001
 40
0.0
 40
0.0
 40
0.0
 40
0.0
 40
0.0749625009
 40
0.1455684839
 40
0.2121600745
 40
0.2751631548
 40
0.3350982506
 40
0.3925832742
 40
0.4483295117
 40
0.5031237972
 40
0.5577983643
 40
0.613191491
 40
0.670106811
 40
0.729278715
 40
0.7913522906
 40
0.8568775564
 40
0.9263090861
 40
1.0
 40
1.0
 40
1.0
 40
1.0
 10
11.908105511
 20
11.065525759
 30
0.0
 10
11.9090988561
 20
11.0646013465
 30
0.0
 10
11.9109727498
 20
11.0627454545
 30
0.0
 10
11.9135011976
 20
11.0598499893
 30
0.0
 10
11.9156573086
 20
11.0569316031
 30
0.0
 10
11.9174378396
 20
11.0539928058
 30
0.0
 10
11.9188398499
 20
11.051036216
 30
0.0
 10
11.9198601663
 20
11.0480648449
 30
0.0
 10
11.9204959347
 20
11.0450825233
 30
0.0
 10
11.9207448903
 20
11.042093973
 30
0.0
 10
11.9206060533
 20
11.0391046293
 30
0.0
 10
11.9200799997
 20
11.0361200104
 30
0.0
 10
11.919168607
 20
11.0331451112
 30
0.0
 10
11.9178747436
 20
11.0301839834
 30
0.0
 10
11.9162014202
 20
11.027239874
 30
0.0
 10
11.9141516706
 20
11.0243153556
 30
0.0
 10
11.91172865
 20
11.0214132146
 30
0.0
 10
11.9099224342
 20
11.0195524494
 30
0.0
 10
11.908963008
 20
11.0186257148
 30
0.0
  0
SPLINE
  5
3B2
100
AcDbEntity
  8
0
100
AcDbSpline
 62
7
  6
CONTINUOUS
 70
0
 71
3
 72
13
 73
9
 74
0
 42
0.0000001
 43
0.0000001
 44
0.0000000001
 40
0.0
 40
0.0
 40
0.0
 40
0.0
 40
0.1236077011
 40
0.2476467905
 40
0.496886408
 40
0.7477001805
 40
0.873685571
 40
1.0
 40
1.0
 40
1.0
 40
1.0
 10
10.5163935143
 20
8.0192670118
 30
0.0
 10
10.5163935143
 20
8.0152430764
 30
0.0
 10
10.5165951733
 20
8.0071795796
 30
0.0
 10
10.5178004085
 20
7.9910436165
 30
0.0
 10
10.5208115607
 20
7.9709160501
 30
0.0
 10
10.5257770556
 20
7.9511153181
 30
0.0
 10
10.5308931386
 20
7.9355513236
 30
0.0
 10
10.5338287979
 20
7.9278763699
 30
0.0
 10
10.5353885641
 20
7.9240716244
 30
0.0
  0
SPLINE
  5
3B3
100
AcDbEntity
  8
0
100
AcDbSpline
 62
7
  6
CONTINUOUS
 70
0
 71
3
 72
26
 73
22
 74
0
 42
0.0000001
 43
0.0000001
 44
0.0000000001
 40
0.0
 40
0.0
 40
0.0
 40
0.0
 40
0.0644300902
 40
0.0965607651
 40
0.1286289954
 40
0.1925609538
 40
0.2562192685
 40
0.3195936588
 40
0.3826787372
 40
0.4454741695
 40
0.5079847505
 40
0.5702203885
 40
0.6321959945
 40
0.6939312725
 40
0.7247208538
 40
0.7554597703
 40
0.8167910364
 40
0.8779662782
 40
0.9085109636
 40
0.939029918
 40
1.0
 40
1.0
 40
1.0
 40
1.0
 10
10.6785121542
 20
7.7799564336
 30
0.0
 10
10.6835492666
 20
7.777854298
 30
0.0
 10
10.6912010018
 20
7.7749416126
 30
0.0
 10
10.7015601251
 20
7.7715568652
 30
0.0
 10
10.7119821404
 20
7.7685173765
 30
0.0
 10
10.7251438357
 20
7.7653581163
 30
0.0
 10
10.7410971971
 20
7.7626080199
 30
0.0
 10
10.7571253585
 20
7.7609144805
 30
0.0
 10
10.7731573761
 20
7.7602851973
 30
0.0
 10
10.7891227522
 20
7.760723042
 30
0.0
 10
10.8049510885
 20
7.7622262132
 30
0.0
 10
10.8205727504
 20
7.7647882674
 30
0.0
 10
10.8359184079
 20
7.7683978583
 30
0.0
 10
10.8484329413
 20
7.7722697707
 30
0.0
 10
10.858235725
 20
7.7758730337
 30
0.0
 10
10.8678752186
 20
7.7798030392
 30
0.0
 10
10.8796333865
 20
7.785332453
 30
0.0
 10
10.8909590961
 20
7.7916674494
 30
0.0
 10
10.8997176372
 20
7.7971958563
 30
0.0
 10
10.9082602347
 20
7.8030208189
 30
0.0
 10
10.9144292902
 20
7.8077266874
 30
0.0
 10
10.9184219084
 20
7.8110033751
 30
0.0
  0
SPLINE
  5
3B4
100
AcDbEntity
  8
0
100
AcDbSpline
 62
7
  6
CONTINUOUS
 70
0
 71
3
 72
40
 73
36
 74
0
 42
0.0000001
 43
0.0000001
 44
0.0000000001
 40
0.0
 40
0.0
 40
0.0
 40
0.0
 40
0.0299422956
 40
0.059908968
 40
0.0899238
 40
0.1200094056
 40
0.1350882594
 40
0.1501924656
 40
0.1804801452
 40
0.2108943177
 40
0.241448122
 40
0.2721514726
 40
0.3030108797
 40
0.334029354
 40
0.3652063934
 40
0.3965380465
 40
0.4280170486
 40
0.4596330217
 40
0.4913727316
 40
0.5232203951
 40
0.5551580282
 40
0.5871658292
 40
0.6192225887
 40
0.6513061205
 40
0.6833937063
 40
0.715462548
 40
0.7474902197
 40
0.779455117
 40
0.8113368874
 40
0.8431168691
 40
0.8747784143
 40
0.9063074703
 40
0.9376922765
 40
0.9689251917
 40
1.0
 40
1.0
 40
1.0
 40
1.0
 10
10.2320526946
 20
9.1008597056
 30
0.0
 10
10.230236126
 20
9.0991050378
 30
0.0
 10
10.2264601529
 20
9.0957373212
 30
0.0
 10
10.2204104024
 20
9.0911493732
 30
0.0
 10
10.2140060454
 20
9.0870481377
 30
0.0
 10
10.2084064587
 20
9.0840569178
 30
0.0
 10
10.2037883547
 20
9.0819290199
 30
0.0
 10
10.1990748319
 20
9.0799767771
 30
0.0
 10
10.193027603
 20
9.0778775592
 30
0.0
 10
10.1855753027
 20
9.075921137
 30
0.0
 10
10.1779603904
 20
9.0745351571
 30
0.0
 10
10.1702250661
 20
9.073727265
 30
0.0
 10
10.1624118224
 20
9.0735017716
 30
0.0
 10
10.1545636502
 20
9.0738598238
 30
0.0
 10
10.1467236846
 20
9.0747993529
 30
0.0
 10
10.1389350028
 20
9.076315104
 30
0.0
 10
10.1312403811
 20
9.0783986648
 30
0.0
 10
10.1236820656
 20
9.0810385157
 30
0.0
 10
10.1163015429
 20
9.0842200942
 30
0.0
 10
10.1091393162
 20
9.0879258766
 30
0.0
 10
10.1022346857
 20
9.092135474
 30
0.0
 10
10.0956255361
 20
9.0968257443
 30
0.0
 10
10.0893481316
 20
9.1019709189
 30
0.0
 10
10.0834369179
 20
9.1075427415
 30
0.0
 10
10.0779243354
 20
9.1135106227
 30
0.0
 10
10.0728406441
 20
9.1198418077
 30
0.0
 10
10.0682137583
 20
9.1265015531
 30
0.0
 10
10.0640690966
 20
9.1334533164
 30
0.0
 10
10.0604294383
 20
9.1406589542
 30
0.0
 10
10.0573148131
 20
9.1480789246
 30
0.0
 10
10.0547423567
 20
9.1556725227
 30
0.0
 10
10.052726294
 20
9.1633980149
 30
0.0
 10
10.0512777076
 20
9.171213175
 30
0.0
 10
10.0504047234
 20
9.1790744694
 30
0.0
 10
10.0502091757
 20
9.1843321255
 30
0.0
 10
10.0502091757
 20
9.1869532775
 30
0.0
  0
SPLINE
  5
3B5
100
AcDbEntity
  8
0
100
AcDbSpline
 62
7
  6
CONTINUOUS
 70
0
 71
3
 72
15
 73
11
 74
0
 42
0.0000001
 43
0.0000001
 44
0.0000000001
 40
0.0
 40
0.0
 40
0.0
 40
0.0
 40
0.1273483281
 40
0.2538605602
 40
0.3795878981
 40
0.5046051042
 40
0.6290174419
 40
0.7529533761
 40
0.876560577
 40
1.0
 40
1.0
 40
1.0
 40
1.0
 10
10.0212314125
 20
7.6492769362
 30
0.0
 10
10.0212314125
 20
7.652649325
 30
0.0
 10
10.0215534077
 20
7.6593766239
 30
0.0
 10
10.0230096044
 20
7.669338185
 30
0.0
 10
10.0254242204
 20
7.6790494475
 30
0.0
 10
10.0287754467
 20
7.688419593
 30
0.0
 10
10.0330325285
 20
7.6973622104
 30
0.0
 10
10.0381566796
 20
7.7057947138
 30
0.0
 10
10.0440997071
 20
7.7136380977
 30
0.0
 10
10.0485745072
 20
7.7184292763
 30
0.0
 10
10.0509256621
 20
7.720700314
 30
0.0
  0
SPLINE
  5
3B6
100
AcDbEntity
  8
0
100
AcDbSpline
 62
7
  6
CONTINUOUS
 70
0
 71
3
 72
19
 73
15
 74
0
 42
0.0000001
 43
0.0000001
 44
0.0000000001
 40
0.0
 40
0.0
 40
0.0
 40
0.0
 40
0.1271980964
 40
0.25364089
 40
0.3793657871
 40
0.5044281658
 40
0.5667505243
 40
0.6289380249
 40
0.6910032821
 40
0.7529598757
 40
0.8148222765
 40
0.8766057472
 40
0.9383261825
 40
1.0
 40
1.0
 40
1.0
 40
1.0
 10
10.5163935143
 20
8.0192670118
 30
0.0
 10
10.5163935143
 20
8.0262129866
 30
0.0
 10
10.5169918202
 20
8.0400714318
 30
0.0
 10
10.5196970314
 20
8.0606362686
 30
0.0
 10
10.5241869155
 20
8.0807682289
 30
0.0
 10
10.5293960663
 20
8.0970800359
 30
0.0
 10
10.5344158616
 20
8.1097545688
 30
0.0
 10
10.5385956828
 20
8.1190501547
 30
0.0
 10
10.5431863891
 20
8.1281272552
 30
0.0
 10
10.5481795175
 20
8.1369690728
 30
0.0
 10
10.5535656587
 20
8.1455589495
 30
0.0
 10
10.5593347402
 20
8.1538808753
 30
0.0
 10
10.56547583
 20
8.1619189707
 30
0.0
 10
10.5698118896
 20
8.1670804763
 30
0.0
 10
10.5720373918
 20
8.16960824
 30
0.0
  0
SPLINE
  5
3B7
100
AcDbEntity
  8
0
100
AcDbSpline
 62
7
  6
CONTINUOUS
 70
0
 71
3
 72
40
 73
36
 74
0
 42
0.0000001
 43
0.0000001
 44
0.0000000001
 40
0.0
 40
0.0
 40
0.0
 40
0.0
 40
0.0299422956
 40
0.059908968
 40
0.0899238
 40
0.1200094056
 40
0.1350882594
 40
0.1501924656
 40
0.1804801452
 40
0.2108943177
 40
0.241448122
 40
0.2721514726
 40
0.3030108797
 40
0.334029354
 40
0.3652063934
 40
0.3965380465
 40
0.4280170486
 40
0.4596330217
 40
0.4913727316
 40
0.5232203951
 40
0.5551580282
 40
0.5871658292
 40
0.6192225887
 40
0.6513061205
 40
0.6833937063
 40
0.715462548
 40
0.7474902197
 40
0.779455117
 40
0.8113368874
 40
0.8431168691
 40
0.8747784143
 40
0.9063074703
 40
0.9376922765
 40
0.9689251917
 40
1.0
 40
1.0
 40
1.0
 40
1.0
 10
10.2030749313
 20
7.5631833643
 30
0.0
 10
10.2012583627
 20
7.5614286965
 30
0.0
 10
10.1974823897
 20
7.5580609799
 30
0.0
 10
10.1914326391
 20
7.5534730319
 30
0.0
 10
10.1850282821
 20
7.5493717965
 30
0.0
 10
10.1794286954
 20
7.5463805766
 30
0.0
 10
10.1748105915
 20
7.5442526786
 30
0.0
 10
10.1700970686
 20
7.5423004358
 30
0.0
 10
10.1640498398
 20
7.540201218
 30
0.0
 10
10.1565975395
 20
7.5382447957
 30
0.0
 10
10.1489826271
 20
7.5368588158
 30
0.0
 10
10.1412473029
 20
7.5360509238
 30
0.0
 10
10.1334340592
 20
7.5358254304
 30
0.0
 10
10.1255858869
 20
7.5361834826
 30
0.0
 10
10.1177459213
 20
7.5371230117
 30
0.0
 10
10.1099572396
 20
7.5386387627
 30
0.0
 10
10.1022626178
 20
7.5407223236
 30
0.0
 10
10.0947043023
 20
7.5433621744
 30
0.0
 10
10.0873237796
 20
7.5465437529
 30
0.0
 10
10.0801615529
 20
7.5502495353
 30
0.0
 10
10.0732569224
 20
7.5544591327
 30
0.0
 10
10.0666477728
 20
7.559149403
 30
0.0
 10
10.0603703683
 20
7.5642945776
 30
0.0
 10
10.0544591546
 20
7.5698664002
 30
0.0
 10
10.0489465721
 20
7.5758342815
 30
0.0
 10
10.0438628809
 20
7.5821654664
 30
0.0
 10
10.039235995
 20
7.5888252119
 30
0.0
 10
10.0350913333
 20
7.5957769752
 30
0.0
 10
10.031451675
 20
7.6029826129
 30
0.0
 10
10.0283370498
 20
7.6104025834
 30
0.0
 10
10.0257645934
 20
7.6179961814
 30
0.0
 10
10.0237485307
 20
7.6257216736
 30
0.0
 10
10.0222999443
 20
7.6335368337
 30
0.0
 10
10.0214269602
 20
7.6413981282
 30
0.0
 10
10.0212314125
 20
7.6466557842
 30
0.0
 10
10.0212314125
 20
7.6492769362
 30
0.0
  0
SPLINE
  5
3B8
100
AcDbEntity
  8
0
100
AcDbSpline
 62
7
  6
CONTINUOUS
 70
0
 71
3
 72
15
 73
11
 74
0
 42
0.0000001
 43
0.0000001
 44
0.0000000001
 40
0.0
 40
0.0
 40
0.0
 40
0.0
 40
0.1273483281
 40
0.2538605602
 40
0.3795878981
 40
0.5046051042
 40
0.6290174419
 40
0.7529533761
 40
0.876560577
 40
1.0
 40
1.0
 40
1.0
 40
1.0
 10
11.2566506742
 20
7.5636003194
 30
0.0
 10
11.2566506742
 20
7.5669727082
 30
0.0
 10
11.2569726695
 20
7.5737000071
 30
0.0
 10
11.2584288662
 20
7.5836615682
 30
0.0
 10
11.2608434822
 20
7.5933728307
 30
0.0
 10
11.2641947084
 20
7.6027429762
 30
0.0
 10
11.2684517903
 20
7.6116855936
 30
0.0
 10
11.2735759414
 20
7.620118097
 30
0.0
 10
11.2795189689
 20
7.6279614809
 30
0.0
 10
11.2839937689
 20
7.6327526595
 30
0.0
 10
11.2863449239
 20
7.6350236972
 30
0.0
  0
SPLINE
  5
3B9
100
AcDbEntity
  8
0
100
AcDbSpline
 62
7
  6
CONTINUOUS
 70
0
 71
3
 72
40
 73
36
 74
0
 42
0.0000001
 43
0.0000001
 44
0.0000000001
 40
0.0
 40
0.0
 40
0.0
 40
0.0
 40
0.0299422956
 40
0.059908968
 40
0.0899238
 40
0.1200094056
 40
0.1350882594
 40
0.1501924656
 40
0.1804801452
 40
0.2108943177
 40
0.241448122
 40
0.2721514726
 40
0.3030108797
 40
0.334029354
 40
0.3652063934
 40
0.3965380465
 40
0.4280170486
 40
0.4596330217
 40
0.4913727316
 40
0.5232203951
 40
0.5551580282
 40
0.5871658292
 40
0.6192225887
 40
0.6513061205
 40
0.6833937063
 40
0.715462548
 40
0.7474902197
 40
0.779455117
 40
0.8113368874
 40
0.8431168691
 40
0.8747784143
 40
0.9063074703
 40
0.9376922765
 40
0.9689251917
 40
1.0
 40
1.0
 40
1.0
 40
1.0
 10
11.4384941931
 20
7.4775067475
 30
0.0
 10
11.4366776245
 20
7.4757520797
 30
0.0
 10
11.4329016515
 20
7.4723843631
 30
0.0
 10
11.4268519009
 20
7.4677964151
 30
0.0
 10
11.4204475439
 20
7.4636951797
 30
0.0
 10
11.4148479572
 20
7.4607039598
 30
0.0
 10
11.4102298533
 20
7.4585760618
 30
0.0
 10
11.4055163304
 20
7.456623819
 30
0.0
 10
11.3994691016
 20
7.4545246012
 30
0.0
 10
11.3920168013
 20
7.4525681789
 30
0.0
 10
11.3844018889
 20
7.451182199
 30
0.0
 10
11.3766665647
 20
7.450374307
 30
0.0
 10
11.368853321
 20
7.4501488136
 30
0.0
 10
11.3610051487
 20
7.4505068658
 30
0.0
 10
11.3531651831
 20
7.4514463948
 30
0.0
 10
11.3453765014
 20
7.4529621459
 30
0.0
 10
11.3376818796
 20
7.4550457068
 30
0.0
 10
11.3301235641
 20
7.4576855576
 30
0.0
 10
11.3227430414
 20
7.4608671361
 30
0.0
 10
11.3155808147
 20
7.4645729185
 30
0.0
 10
11.3086761842
 20
7.4687825159
 30
0.0
 10
11.3020670346
 20
7.4734727862
 30
0.0
 10
11.2957896301
 20
7.4786179608
 30
0.0
 10
11.2898784164
 20
7.4841897834
 30
0.0
 10
11.2843658339
 20
7.4901576647
 30
0.0
 10
11.2792821426
 20
7.4964888496
 30
0.0
 10
11.2746552568
 20
7.5031485951
 30
0.0
 10
11.2705105951
 20
7.5101003584
 30
0.0
 10
11.2668709368
 20
7.5173059961
 30
0.0
 10
11.2637563116
 20
7.5247259666
 30
0.0
 10
11.2611838552
 20
7.5323195646
 30
0.0
 10
11.2591677925
 20
7.5400450568
 30
0.0
 10
11.2577192061
 20
7.5478602169
 30
0.0
 10
11.2568462219
 20
7.5557215114
 30
0.0
 10
11.2566506742
 20
7.5609791674
 30
0.0
 10
11.2566506742
 20
7.5636003194
 30
0.0
  0
SPLINE
  5
3BA
100
AcDbEntity
  8
0
100
AcDbSpline
 62
7
  6
CONTINUOUS
 70
0
 71
3
 72
40
 73
36
 74
0
 42
0.0000001
 43
0.0000001
 44
0.0000000001
 40
0.0
 40
0.0
 40
0.0
 40
0.0
 40
0.0299422956
 40
0.059908968
 40
0.0899238
 40
0.1200094056
 40
0.1350882594
 40
0.1501924656
 40
0.1804801452
 40
0.2108943177
 40
0.241448122
 40
0.2721514726
 40
0.3030108797
 40
0.334029354
 40
0.3652063934
 40
0.3965380465
 40
0.4280170486
 40
0.4596330217
 40
0.4913727316
 40
0.5232203951
 40
0.5551580282
 40
0.5871658292
 40
0.6192225887
 40
0.6513061205
 40
0.6833937063
 40
0.715462548
 40
0.7474902197
 40
0.779455117
 40
0.8113368874
 40
0.8431168691
 40
0.8747784143
 40
0.9063074703
 40
0.9376922765
 40
0.9689251917
 40
1.0
 40
1.0
 40
1.0
 40
1.0
 10
11.4095163291
 20
9.0192023252
 30
0.0
 10
11.4076997605
 20
9.0174476574
 30
0.0
 10
11.4039237875
 20
9.0140799408
 30
0.0
 10
11.3978740369
 20
9.0094919928
 30
0.0
 10
11.3914696799
 20
9.0053907573
 30
0.0
 10
11.3858700932
 20
9.0023995374
 30
0.0
 10
11.3812519893
 20
9.0002716395
 30
0.0
 10
11.3765384664
 20
8.9983193967
 30
0.0
 10
11.3704912375
 20
8.9962201788
 30
0.0
 10
11.3630389373
 20
8.9942637566
 30
0.0
 10
11.3554240249
 20
8.9928777767
 30
0.0
 10
11.3476887006
 20
8.9920698846
 30
0.0
 10
11.339875457
 20
8.9918443912
 30
0.0
 10
11.3320272847
 20
8.9922024434
 30
0.0
 10
11.3241873191
 20
8.9931419725
 30
0.0
 10
11.3163986373
 20
8.9946577236
 30
0.0
 10
11.3087040156
 20
8.9967412844
 30
0.0
 10
11.3011457001
 20
8.9993811353
 30
0.0
 10
11.2937651774
 20
9.0025627138
 30
0.0
 10
11.2866029507
 20
9.0062684962
 30
0.0
 10
11.2796983202
 20
9.0104780936
 30
0.0
 10
11.2730891706
 20
9.0151683639
 30
0.0
 10
11.2668117661
 20
9.0203135385
 30
0.0
 10
11.2609005524
 20
9.0258853611
 30
0.0
 10
11.2553879699
 20
9.0318532423
 30
0.0
 10
11.2503042786
 20
9.0381844273
 30
0.0
 10
11.2456773928
 20
9.0448441727
 30
0.0
 10
11.2415327311
 20
9.051795936
 30
0.0
 10
11.2378930728
 20
9.0590015738
 30
0.0
 10
11.2347784476
 20
9.0664215442
 30
0.0
 10
11.2322059912
 20
9.0740151423
 30
0.0
 10
11.2301899285
 20
9.0817406345
 30
0.0
 10
11.2287413421
 20
9.0895557946
 30
0.0
 10
11.2278683579
 20
9.097417089
 30
0.0
 10
11.2276728102
 20
9.1026747451
 30
0.0
 10
11.2276728102
 20
9.1052958971
 30
0.0
  0
SPLINE
  5
3BB
100
AcDbEntity
  8
0
100
AcDbSpline
 62
7
  6
CONTINUOUS
 70
0
 71
3
 72
15
 73
11
 74
0
 42
0.0000001
 43
0.0000001
 44
0.0000000001
 40
0.0
 40
0.0
 40
0.0
 40
0.0
 40
0.1273483281
 40
0.2538605602
 40
0.3795878981
 40
0.5046051042
 40
0.6290174419
 40
0.7529533761
 40
0.876560577
 40
1.0
 40
1.0
 40
1.0
 40
1.0
 10
11.2276728102
 20
9.1052958971
 30
0.0
 10
11.2276728102
 20
9.1086682859
 30
0.0
 10
11.2279948055
 20
9.1153955847
 30
0.0
 10
11.2294510022
 20
9.1253571458
 30
0.0
 10
11.2318656181
 20
9.1350684084
 30
0.0
 10
11.2352168444
 20
9.1444385539
 30
0.0
 10
11.2394739263
 20
9.1533811713
 30
0.0
 10
11.2445980774
 20
9.1618136747
 30
0.0
 10
11.2505411049
 20
9.1696570585
 30
0.0
 10
11.2550159049
 20
9.1744482372
 30
0.0
 10
11.2573670598
 20
9.1767192749
 30
0.0
  0
SPLINE
  5
3BC
100
AcDbEntity
  8
0
100
AcDbSpline
 62
7
  6
CONTINUOUS
 70
0
 71
3
 72
39
 73
35
 74
0
 42
0.0000001
 43
0.0000001
 44
0.0000000001
 40
0.0
 40
0.0
 40
0.0
 40
0.0
 40
0.0299424695
 40
0.0599093169
 40
0.0899243245
 40
0.1200101059
 40
0.1501875675
 40
0.1804754226
 40
0.2108897705
 40
0.2414437509
 40
0.2721472792
 40
0.3030068663
 40
0.3340255229
 40
0.3652027461
 40
0.3965345839
 40
0.428013771
 40
0.4596299292
 40
0.4913698241
 40
0.5232176721
 40
0.555155489
 40
0.5871634725
 40
0.6192204135
 40
0.6513041268
 40
0.6833918949
 40
0.7154609201
 40
0.7474887765
 40
0.7794538578
 40
0.8113358145
 40
0.8431159703
 40
0.8747777248
 40
0.9063068724
 40
0.9376921006
 40
0.9689246636
 40
1.0
 40
1.0
 40
1.0
 40
1.0
 10
10.9188787925
 20
7.8104558921
 30
0.0
 10
10.914731374
 20
7.8064498115
 30
0.0
 10
10.9061103904
 20
7.7987609883
 30
0.0
 10
10.8922982639
 20
7.788286313
 30
0.0
 10
10.8776760529
 20
7.7789226531
 30
0.0
 10
10.8623254707
 20
7.7707225248
 30
0.0
 10
10.8463309128
 20
7.7637307264
 30
0.0
 10
10.8297806521
 20
7.7579856896
 30
0.0
 10
10.8127658894
 20
7.7535188474
 30
0.0
 10
10.7953803629
 20
7.7503545878
 30
0.0
 10
10.7777197931
 20
7.7485101009
 30
0.0
 10
10.7598813621
 20
7.747995308
 30
0.0
 10
10.7419631776
 20
7.7488128093
 30
0.0
 10
10.7240637346
 20
7.7509578831
 30
0.0
 10
10.7062813792
 20
7.7544185289
 30
0.0
 10
10.6887137744
 20
7.75917554
 30
0.0
 10
10.6714573723
 20
7.7652026156
 30
0.0
 10
10.6546068914
 20
7.7724665095
 30
0.0
 10
10.6382548052
 20
7.7809272146
 30
0.0
 10
10.6224908422
 20
7.7905381833
 30
0.0
 10
10.607401494
 20
7.8012465745
 30
0.0
 10
10.5930695511
 20
7.8129935512
 30
0.0
 10
10.5795736547
 20
7.8257146018
 30
0.0
 10
10.56698787
 20
7.8393398903
 30
0.0
 10
10.5553812846
 20
7.8537946361
 30
0.0
 10
10.5448176329
 20
7.8689995194
 30
0.0
 10
10.5353549508
 20
7.884871112
 30
0.0
 10
10.5270452541
 20
7.9013223284
 30
0.0
 10
10.5199342493
 20
7.9182628882
 30
0.0
 10
10.5140611046
 20
7.9355998478
 30
0.0
 10
10.5094581889
 20
7.9532379652
 30
0.0
 10
10.5061510031
 20
7.9710807174
 30
0.0
 10
10.5041578144
 20
7.9890288602
 30
0.0
 10
10.5037113918
 20
8.0010325956
 30
0.0
 10
10.5037113918
 20
8.0070170215
 30
0.0
  0
SPLINE
  5
3BD
100
AcDbEntity
  8
0
100
AcDbSpline
 62
7
  6
CONTINUOUS
 70
0
 71
3
 72
15
 73
11
 74
0
 42
0.0000001
 43
0.0000001
 44
0.0000000001
 40
0.0
 40
0.0
 40
0.0
 40
0.0
 40
0.1273479682
 40
0.253860626
 40
0.3795879528
 40
0.5046051059
 40
0.6290174614
 40
0.7529533792
 40
0.8765605791
 40
1.0
 40
1.0
 40
1.0
 40
1.0
 10
11.2996343761
 20
7.8455675989
 30
0.0
 10
11.2996343761
 20
7.8475694726
 30
0.0
 10
11.2998255164
 20
7.8515628566
 30
0.0
 10
11.3006899221
 20
7.8574761278
 30
0.0
 10
11.3021232667
 20
7.8632408222
 30
0.0
 10
11.3041125952
 20
7.8688030174
 30
0.0
 10
11.3066396464
 20
7.8741114271
 30
0.0
 10
11.3096813939
 20
7.8791170302
 30
0.0
 10
11.3132092296
 20
7.8837729288
 30
0.0
 10
11.3158655166
 20
7.8866170079
 30
0.0
 10
11.317261184
 20
7.8879651142
 30
0.0
  0
SPLINE
  5
3BE
100
AcDbEntity
  8
0
100
AcDbSpline
 62
7
  6
CONTINUOUS
 70
0
 71
3
 72
39
 73
35
 74
0
 42
0.0000001
 43
0.0000001
 44
0.0000000001
 40
0.0
 40
0.0
 40
0.0
 40
0.0
 40
0.0299424695
 40
0.0599093169
 40
0.0899243245
 40
0.1200101059
 40
0.1501875675
 40
0.1804754226
 40
0.2108897705
 40
0.2414437509
 40
0.2721472792
 40
0.3030068663
 40
0.3340255229
 40
0.3652027461
 40
0.3965345839
 40
0.428013771
 40
0.4596299292
 40
0.4913698241
 40
0.5232176721
 40
0.555155489
 40
0.5871634725
 40
0.6192204135
 40
0.6513041268
 40
0.6833918949
 40
0.7154609201
 40
0.7474887765
 40
0.7794538578
 40
0.8113358145
 40
0.8431159703
 40
0.8747777248
 40
0.9063068724
 40
0.9376921006
 40
0.9689246636
 40
1.0
 40
1.0
 40
1.0
 40
1.0
 10
10.5238150972
 20
8.1691661678
 30
0.0
 10
10.5196676786
 20
8.1651600873
 30
0.0
 10
10.511046695
 20
8.1574712641
 30
0.0
 10
10.4972345685
 20
8.1469965887
 30
0.0
 10
10.4826123576
 20
8.1376329289
 30
0.0
 10
10.4672617754
 20
8.1294328005
 30
0.0
 10
10.4512672175
 20
8.1224410022
 30
0.0
 10
10.4347169567
 20
8.1166959654
 30
0.0
 10
10.417702194
 20
8.1122291231
 30
0.0
 10
10.4003166675
 20
8.1090648635
 30
0.0
 10
10.3826560977
 20
8.1072203767
 30
0.0
 10
10.3648176668
 20
8.1067055837
 30
0.0
 10
10.3468994823
 20
8.1075230851
 30
0.0
 10
10.3290000393
 20
8.1096681589
 30
0.0
 10
10.3112176838
 20
8.1131288046
 30
0.0
 10
10.2936500791
 20
8.1178858157
 30
0.0
 10
10.276393677
 20
8.1239128913
 30
0.0
 10
10.2595431961
 20
8.1311767852
 30
0.0
 10
10.2431911099
 20
8.1396374903
 30
0.0
 10
10.2274271469
 20
8.1492484591
 30
0.0
 10
10.2123377986
 20
8.1599568502
 30
0.0
 10
10.1980058558
 20
8.171703827
 30
0.0
 10
10.1845099594
 20
8.1844248776
 30
0.0
 10
10.1719241747
 20
8.1980501661
 30
0.0
 10
10.1603175893
 20
8.2125049118
 30
0.0
 10
10.1497539376
 20
8.2277097952
 30
0.0
 10
10.1402912554
 20
8.2435813878
 30
0.0
 10
10.1319815587
 20
8.2600326041
 30
0.0
 10
10.124870554
 20
8.2769731639
 30
0.0
 10
10.1189974093
 20
8.2943101235
 30
0.0
 10
10.1143944936
 20
8.3119482409
 30
0.0
 10
10.1110873078
 20
8.3297909931
 30
0.0
 10
10.1090941191
 20
8.3477391359
 30
0.0
 10
10.1086476965
 20
8.3597428713
 30
0.0
 10
10.1086476965
 20
8.3657272972
 30
0.0
  0
SPLINE
  5
3BF
100
AcDbEntity
  8
0
100
AcDbSpline
 62
7
  6
CONTINUOUS
 70
0
 71
3
 72
39
 73
35
 74
0
 42
0.0000001
 43
0.0000001
 44
0.0000000001
 40
0.0
 40
0.0
 40
0.0
 40
0.0
 40
0.0299424695
 40
0.0599093169
 40
0.0899243245
 40
0.1200101059
 40
0.1501875675
 40
0.1804754226
 40
0.2108897705
 40
0.2414437509
 40
0.2721472792
 40
0.3030068663
 40
0.3340255229
 40
0.3652027461
 40
0.3965345839
 40
0.428013771
 40
0.4596299292
 40
0.4913698241
 40
0.5232176721
 40
0.555155489
 40
0.5871634725
 40
0.6192204135
 40
0.6513041268
 40
0.6833918949
 40
0.7154609201
 40
0.7474887765
 40
0.7794538578
 40
0.8113358145
 40
0.8431159703
 40
0.8747777248
 40
0.9063068724
 40
0.9376921006
 40
0.9689246636
 40
1.0
 40
1.0
 40
1.0
 40
1.0
 10
11.3149083725
 20
8.1143036629
 30
0.0
 10
11.310760954
 20
8.1102975823
 30
0.0
 10
11.3021399704
 20
8.1026087591
 30
0.0
 10
11.2883278439
 20
8.0921340837
 30
0.0
 10
11.2737056329
 20
8.0827704239
 30
0.0
 10
11.2583550507
 20
8.0745702955
 30
0.0
 10
11.2423604928
 20
8.0675784972
 30
0.0
 10
11.2258102321
 20
8.0618334604
 30
0.0
 10
11.2087954694
 20
8.0573666181
 30
0.0
 10
11.1914099429
 20
8.0542023585
 30
0.0
 10
11.1737493731
 20
8.0523578717
 30
0.0
 10
11.1559109421
 20
8.0518430787
 30
0.0
 10
11.1379927576
 20
8.0526605801
 30
0.0
 10
11.1200933146
 20
8.0548056539
 30
0.0
 10
11.1023109592
 20
8.0582662997
 30
0.0
 10
11.0847433545
 20
8.0630233107
 30
0.0
 10
11.0674869523
 20
8.0690503863
 30
0.0
 10
11.0506364714
 20
8.0763142802
 30
0.0
 10
11.0342843852
 20
8.0847749853
 30
0.0
 10
11.0185204222
 20
8.0943859541
 30
0.0
 10
11.003431074
 20
8.1050943452
 30
0.0
 10
10.9890991311
 20
8.116841322
 30
0.0
 10
10.9756032347
 20
8.1295623726
 30
0.0
 10
10.96301745
 20
8.1431876611
 30
0.0
 10
10.9514108646
 20
8.1576424068
 30
0.0
 10
10.9408472129
 20
8.1728472902
 30
0.0
 10
10.9313845308
 20
8.1887188828
 30
0.0
 10
10.9230748341
 20
8.2051700991
 30
0.0
 10
10.9159638293
 20
8.2221106589
 30
0.0
 10
10.9100906846
 20
8.2394476185
 30
0.0
 10
10.9054877689
 20
8.257085736
 30
0.0
 10
10.9021805831
 20
8.2749284881
 30
0.0
 10
10.9001873944
 20
8.2928766309
 30
0.0
 10
10.8997409719
 20
8.3048803663
 30
0.0
 10
10.8997409719
 20
8.3108647922
 30
0.0
  0
SPLINE
  5
3C0
100
AcDbEntity
  8
0
100
AcDbSpline
 62
7
  6
CONTINUOUS
 70
0
 71
3
 72
40
 73
36
 74
0
 42
0.0000001
 43
0.0000001
 44
0.0000000001
 40
0.0
 40
0.0
 40
0.0
 40
0.0
 40
0.0958313936
 40
0.1891002636
 40
0.2345968559
 40
0.2792418231
 40
0.3229685191
 40
0.3657121987
 40
0.4074103657
 40
0.4480029213
 40
0.4874324913
 40
0.5256446262
 40
0.5625879545
 40
0.5982146421
 40
0.632480706
 40
0.6653462654
 40
0.6967761768
 40
0.726740613
 40
0.7552155871
 40
0.7821839784
 40
0.8076366943
 40
0.8315738914
 40
0.8540069425
 40
0.8749609194
 40
0.8944774765
 40
0.9126189061
 40
0.9294731629
 40
0.9451593854
 40
0.9598338584
 40
0.9668558876
 40
0.9737029112
 40
0.9804063068
 40
0.9869997133
 40
0.9935186461
 40
1.0
 40
1.0
 40
1.0
 40
1.0
 10
10.3272243412
 20
9.4415227455
 30
0.0
 10
10.3174570504
 20
9.4422001094
 30
0.0
 10
10.2981978035
 20
9.4437515694
 30
0.0
 10
10.274356831
 20
9.4462395073
 30
0.0
 10
10.2557594863
 20
9.4485379532
 30
0.0
 10
10.2422085336
 20
9.4503923989
 30
0.0
 10
10.2289620765
 20
9.452388511
 30
0.0
 10
10.2160422207
 20
9.45452295
 30
0.0
 10
10.2034705591
 20
9.4567921138
 30
0.0
 10
10.1912680941
 20
9.4591922059
 30
0.0
 10
10.1794551981
 20
9.4617191825
 30
0.0
 10
10.168051583
 20
9.4643687821
 30
0.0
 10
10.1570762739
 20
9.4671365668
 30
0.0
 10
10.1465475606
 20
9.4700178782
 30
0.0
 10
10.136482966
 20
9.4730078571
 30
0.0
 10
10.1268992274
 20
9.4761014981
 30
0.0
 10
10.1178122475
 20
9.4792936116
 30
0.0
 10
10.1092370579
 20
9.4825788332
 30
0.0
 10
10.1011878089
 20
9.4859516975
 30
0.0
 10
10.0936777198
 20
9.4894066148
 30
0.0
 10
10.0867190334
 20
9.492937879
 30
0.0
 10
10.0803230214
 20
9.4965397763
 30
0.0
 10
10.0744999472
 20
9.500206607
 30
0.0
 10
10.0692590327
 20
9.5039327127
 30
0.0
 10
10.0646085331
 20
9.507712694
 30
0.0
 10
10.0605558678
 20
9.5115414049
 30
0.0
 10
10.0571076706
 20
9.5154143388
 30
0.0
 10
10.0542706473
 20
9.5193265878
 30
0.0
 10
10.0523941467
 20
9.5226654697
 30
0.0
 10
10.0512243754
 20
9.5253389111
 30
0.0
 10
10.0505161588
 20
9.527319724
 30
0.0
 10
10.0499647949
 20
9.5293044367
 30
0.0
 10
10.0495706302
 20
9.531292236
 30
0.0
 10
10.0493340453
 20
9.533281976
 30
0.0
 10
10.0492814107
 20
9.5346107613
 30
0.0
 10
10.0492814141
 20
9.535272938
 30
0.0
  0
SPLINE
  5
3C1
100
AcDbEntity
  8
0
100
AcDbSpline
 62
7
  6
CONTINUOUS
 70
0
 71
3
 72
41
 73
37
 74
0
 42
0.0000001
 43
0.0000001
 44
0.0000000001
 40
0.0
 40
0.0
 40
0.0
 40
0.0
 40
0.0071758425
 40
0.0146741453
 40
0.0225035656
 40
0.0306713257
 40
0.0391834036
 40
0.0480443729
 40
0.0572572157
 40
0.0668238661
 40
0.0767452117
 40
0.087021259
 40
0.0976512753
 40
0.1086336553
 40
0.1316452786
 40
0.1560326285
 40
0.1817628121
 40
0.2087958578
 40
0.2370856249
 40
0.2665805114
 40
0.2972240455
 40
0.3289554128
 40
0.3617098907
 40
0.3954192316
 40
0.4300120033
 40
0.4654138991
 40
0.5015480605
 40
0.5383353682
 40
0.5756947176
 40
0.6135432851
 40
0.6517967846
 40
0.6903697386
 40
0.7681261117
 40
0.8461161118
 40
0.923638923
 40
1.0
 40
1.0
 40
1.0
 40
1.0
 10
11.6316887574
 20
9.4515386893
 30
0.0
 10
11.6308770534
 20
9.4507546433
 30
0.0
 10
11.6291768034
 20
9.4491926927
 30
0.0
 10
11.6264650869
 20
9.4469169445
 30
0.0
 10
11.6235386855
 20
9.4446592561
 30
0.0
 10
11.6203995037
 20
9.4424210815
 30
0.0
 10
11.6170493804
 20
9.4402036343
 30
0.0
 10
11.6134902416
 20
9.4380082189
 30
0.0
 10
11.609724207
 20
9.4358360564
 30
0.0
 10
11.6057534964
 20
9.4336884892
 30
0.0
 10
11.6015804842
 20
9.4315667765
 30
0.0
 10
11.5972076594
 20
9.4294721716
 30
0.0
 10
11.5926376089
 20
9.4274059399
 30
0.0
 10
11.5861840791
 20
9.4246473937
 30
0.0
 10
11.5776366671
 20
9.421288142
 30
0.0
 10
11.5667932053
 20
9.4174495838
 30
0.0
 10
11.5552349721
 20
9.4137525628
 30
0.0
 10
11.5429896511
 20
9.4102060217
 30
0.0
 10
11.5300864393
 20
9.4068185613
 30
0.0
 10
11.5165562378
 20
9.4035984018
 30
0.0
 10
11.5024314859
 20
9.4005533543
 30
0.0
 10
11.4877460905
 20
9.3976908088
 30
0.0
 10
11.4725353281
 20
9.3950177121
 30
0.0
 10
11.4568357578
 20
9.3925405509
 30
0.0
 10
11.4406851327
 20
9.390265337
 30
0.0
 10
11.4241223071
 20
9.3881975831
 30
0.0
 10
11.4071871374
 20
9.3863422997
 30
0.0
 10
11.3899203823
 20
9.3847039828
 30
0.0
 10
11.3723636
 20
9.3832866012
 30
0.0
 10
11.3545590643
 20
9.3820935984
 30
0.0
 10
11.3365496065
 20
9.3811278379
 30
0.0
 10
11.3122579267
 20
9.3801437988
 30
0.0
 10
11.2817007802
 20
9.3794983258
 30
0.0
 10
11.2450112965
 20
9.3796529949
 30
0.0
 10
11.2085570118
 20
9.3807334993
 30
0.0
 10
11.1843899187
 20
9.3820781108
 30
0.0
 10
11.1724094893
 20
9.3829089564
 30
0.0
  0
SPLINE
  5
3C2
100
AcDbEntity
  8
0
100
AcDbSpline
 62
7
  6
CONTINUOUS
 70
0
 71
3
 72
39
 73
35
 74
0
 42
0.0000001
 43
0.0000001
 44
0.0000000001
 40
0.0
 40
0.0
 40
0.0
 40
0.0
 40
0.0299424695
 40
0.0599093169
 40
0.0899243245
 40
0.1200101059
 40
0.1501875675
 40
0.1804754226
 40
0.2108897705
 40
0.2414437509
 40
0.2721472792
 40
0.3030068663
 40
0.3340255229
 40
0.3652027461
 40
0.3965345839
 40
0.428013771
 40
0.4596299292
 40
0.4913698241
 40
0.5232176721
 40
0.555155489
 40
0.5871634725
 40
0.6192204135
 40
0.6513041268
 40
0.6833918949
 40
0.7154609201
 40
0.7474887765
 40
0.7794538578
 40
0.8113358145
 40
0.8431159703
 40
0.8747777248
 40
0.9063068724
 40
0.9376921006
 40
0.9689246636
 40
1.0
 40
1.0
 40
1.0
 40
1.0
 10
10.9188787925
 20
8.4759787208
 30
0.0
 10
10.914731374
 20
8.4719726403
 30
0.0
 10
10.9061103904
 20
8.4642838171
 30
0.0
 10
10.8922982639
 20
8.4538091417
 30
0.0
 10
10.8776760529
 20
8.4444454819
 30
0.0
 10
10.8623254707
 20
8.4362453535
 30
0.0
 10
10.8463309128
 20
8.4292535552
 30
0.0
 10
10.8297806521
 20
8.4235085183
 30
0.0
 10
10.8127658894
 20
8.4190416761
 30
0.0
 10
10.7953803629
 20
8.4158774165
 30
0.0
 10
10.7777197931
 20
8.4140329297
 30
0.0
 10
10.7598813621
 20
8.4135181367
 30
0.0
 10
10.7419631776
 20
8.4143356381
 30
0.0
 10
10.7240637346
 20
8.4164807119
 30
0.0
 10
10.7062813792
 20
8.4199413576
 30
0.0
 10
10.6887137744
 20
8.4246983687
 30
0.0
 10
10.6714573723
 20
8.4307254443
 30
0.0
 10
10.6546068914
 20
8.4379893382
 30
0.0
 10
10.6382548052
 20
8.4464500433
 30
0.0
 10
10.6224908422
 20
8.4560610121
 30
0.0
 10
10.607401494
 20
8.4667694032
 30
0.0
 10
10.5930695511
 20
8.47851638
 30
0.0
 10
10.5795736547
 20
8.4912374306
 30
0.0
 10
10.56698787
 20
8.5048627191
 30
0.0
 10
10.5553812846
 20
8.5193174648
 30
0.0
 10
10.5448176329
 20
8.5345223482
 30
0.0
 10
10.5353549508
 20
8.5503939408
 30
0.0
 10
10.5270452541
 20
8.5668451571
 30
0.0
 10
10.5199342493
 20
8.5837857169
 30
0.0
 10
10.5140611046
 20
8.6011226765
 30
0.0
 10
10.5094581889
 20
8.6187607939
 30
0.0
 10
10.5061510031
 20
8.6366035461
 30
0.0
 10
10.5041578144
 20
8.6545516889
 30
0.0
 10
10.5037113918
 20
8.6665554243
 30
0.0
 10
10.5037113918
 20
8.6725398502
 30
0.0
  0
SPLINE
  5
3C3
100
AcDbEntity
  8
0
100
AcDbSpline
 62
7
  6
CONTINUOUS
 70
0
 71
3
 72
37
 73
33
 74
0
 42
0.0000001
 43
0.0000001
 44
0.0000000001
 40
0.0
 40
0.0
 40
0.0
 40
0.0
 40
0.0299447936
 40
0.0599139685
 40
0.0899313111
 40
0.1200194352
 40
0.1501992442
 40
0.180489451
 40
0.2109061585
 40
0.2414625113
 40
0.2721684281
 40
0.3030304183
 40
0.3340514866
 40
0.3652311292
 40
0.3965653974
 40
0.4280470303
 40
0.4596656502
 40
0.491408017
 40
0.5551595119
 40
0.6191908015
 40
0.6512770143
 40
0.6833672795
 40
0.7154387951
 40
0.7474691381
 40
0.7794367026
 40
0.8113211444
 40
0.8431037821
 40
0.8747679493
 40
0.9062997436
 40
0.9376868029
 40
0.9689230915
 40
1.0
 40
1.0
 40
1.0
 40
1.0
 10
11.407577933
 20
7.7944617492
 30
0.0
 10
11.4064996045
 20
7.7934201675
 30
0.0
 10
11.4042581498
 20
7.7914210715
 30
0.0
 10
11.4006670017
 20
7.7886976481
 30
0.0
 10
11.3968652315
 20
7.7862630863
 30
0.0
 10
11.3928740793
 20
7.7841310503
 30
0.0
 10
11.3887154921
 20
7.7823131841
 30
0.0
 10
11.3844124236
 20
7.7808194737
 30
0.0
 10
11.3799885859
 20
7.7796580896
 30
0.0
 10
11.3754683495
 20
7.7788353738
 30
0.0
 10
11.3708766003
 20
7.7783558005
 30
0.0
 10
11.3662386065
 20
7.7782219565
 30
0.0
 10
11.3615798766
 20
7.7784345093
 30
0.0
 10
11.3569260231
 20
7.778992225
 30
0.0
 10
11.3523025986
 20
7.7798919928
 30
0.0
 10
11.347735056
 20
7.781128784
 30
0.0
 10
11.3432482449
 20
7.7826959098
 30
0.0
 10
11.3373999148
 20
7.7852168761
 30
0.0
 10
11.330415935
 20
7.7891489113
 30
0.0
 10
11.3240326698
 20
7.7940230863
 30
0.0
 10
11.3193586882
 20
7.7984288729
 30
0.0
 10
11.3160862454
 20
7.8019715554
 30
0.0
 10
11.3130685737
 20
7.8057297654
 30
0.0
 10
11.3103220131
 20
7.8096830429
 30
0.0
 10
11.3078617124
 20
7.813809653
 30
0.0
 10
11.3057011817
 20
7.8180869681
 30
0.0
 10
11.3038523245
 20
7.8224915148
 30
0.0
 10
11.3023252989
 20
7.8269991322
 30
0.0
 10
11.3011285728
 20
7.8315850277
 30
0.0
 10
11.3002686532
 20
7.8362241805
 30
0.0
 10
11.2997504695
 20
7.8408906969
 30
0.0
 10
11.2996343761
 20
7.8440116899
 30
0.0
 10
11.2996343761
 20
7.8455675989
 30
0.0
  0
SPLINE
  5
3C4
100
AcDbEntity
  8
0
100
AcDbSpline
 62
4
  6
CONTINUOUS
 70
0
 71
3
 72
535
 73
531
 74
0
 42
0.0000001
 43
0.0000001
 44
0.0000000001
 40
0.0
 40
0.0
 40
0.0
 40
0.0
 40
0.0078125
 40
0.015625
 40
0.0234375
 40
0.03125
 40
0.0390625
 40
0.04296875
 40
0.046875
 40
0.05078125
 40
0.052734375
 40
0.0546875
 40
0.056640625
 40
0.05859375
 40
0.0595703125
 40
0.060546875
 40
0.0610351562
 40
0.0615234375
 40
0.0620117188
 40
0.0622558594
 40
0.0623779297
 40
0.0625
 40
0.0626220703
 40
0.0627441406
 40
0.0629882812
 40
0.0634765625
 40
0.0639648438
 40
0.064453125
 40
0.0654296875
 40
0.06640625
 40
0.068359375
 40
0.0703125
 40
0.072265625
 40
0.07421875
 40
0.078125
 40
0.08203125
 40
0.0859375
 40
0.09375
 40
0.1015625
 40
0.10546875
 40
0.109375
 40
0.11328125
 40
0.115234375
 40
0.1171875
 40
0.119140625
 40
0.12109375
 40
0.1220703125
 40
0.123046875
 40
0.1235351562
 40
0.1240234375
 40
0.1245117188
 40
0.1247558594
 40
0.1248779297
 40
0.125
 40
0.1251220703
 40
0.1252441406
 40
0.1254882812
 40
0.1259765625
 40
0.1264648438
 40
0.126953125
 40
0.1279296875
 40
0.12890625
 40
0.130859375
 40
0.1328125
 40
0.134765625
 40
0.13671875
 40
0.140625
 40
0.14453125
 40
0.1484375
 40
0.15625
 40
0.1640625
 40
0.16796875
 40
0.171875
 40
0.17578125
 40
0.177734375
 40
0.1796875
 40
0.181640625
 40
0.1826171875
 40
0.18359375
 40
0.1845703125
 40
0.185546875
 40
0.1860351562
 40
0.1865234375
 40
0.1870117188
 40
0.1872558594
 40
0.1873779297
 40
0.1875
 40
0.1876220703
 40
0.1877441406
 40
0.1879882812
 40
0.1884765625
 40
0.1889648438
 40
0.189453125
 40
0.1904296875
 40
0.19140625
 40
0.1923828125
 40
0.193359375
 40
0.1953125
 40
0.197265625
 40
0.19921875
 40
0.203125
 40
0.20703125
 40
0.2109375
 40
0.21875
 40
0.22265625
 40
0.2265625
 40
0.23046875
 40
0.234375
 40
0.23828125
 40
0.240234375
 40
0.2421875
 40
0.244140625
 40
0.2451171875
 40
0.24609375
 40
0.2470703125
 40
0.248046875
 40
0.2485351562
 40
0.2490234375
 40
0.2492675781
 40
0.2495117188
 40
0.2497558594
 40
0.2498779297
 40
0.2499389648
 40
0.25
 40
0.2500610352
 40
0.2501220703
 40
0.2502441406
 40
0.2504882812
 40
0.2507324219
 40
0.2509765625
 40
0.2514648438
 40
0.251953125
 40
0.2529296875
 40
0.25390625
 40
0.2548828125
 40
0.255859375
 40
0.2578125
 40
0.259765625
 40
0.26171875
 40
0.265625
 40
0.26953125
 40
0.2734375
 40
0.27734375
 40
0.28125
 40
0.28515625
 40
0.2890625
 40
0.29296875
 40
0.296875
 40
0.30078125
 40
0.302734375
 40
0.3046875
 40
0.306640625
 40
0.3076171875
 40
0.30859375
 40
0.3095703125
 40
0.310546875
 40
0.3110351562
 40
0.3115234375
 40
0.3117675781
 40
0.3120117188
 40
0.3122558594
 40
0.3123779297
 40
0.3124389648
 40
0.3125
 40
0.3125610352
 40
0.3126220703
 40
0.3127441406
 40
0.3129882812
 40
0.3132324219
 40
0.3134765625
 40
0.3139648438
 40
0.314453125
 40
0.3154296875
 40
0.31640625
 40
0.3173828125
 40
0.318359375
 40
0.3203125
 40
0.322265625
 40
0.32421875
 40
0.328125
 40
0.33203125
 40
0.3359375
 40
0.33984375
 40
0.34375
 40
0.34765625
 40
0.3515625
 40
0.35546875
 40
0.359375
 40
0.36328125
 40
0.365234375
 40
0.3671875
 40
0.369140625
 40
0.3701171875
 40
0.37109375
 40
0.3720703125
 40
0.373046875
 40
0.3735351562
 40
0.3740234375
 40
0.3742675781
 40
0.3745117188
 40
0.3747558594
 40
0.3748779297
 40
0.3749389648
 40
0.375
 40
0.3750610352
 40
0.3751220703
 40
0.3752441406
 40
0.3754882812
 40
0.3757324219
 40
0.3759765625
 40
0.3764648438
 40
0.376953125
 40
0.3779296875
 40
0.37890625
 40
0.3798828125
 40
0.380859375
 40
0.3828125
 40
0.384765625
 40
0.38671875
 40
0.390625
 40
0.39453125
 40
0.3984375
 40
0.40234375
 40
0.40625
 40
0.41015625
 40
0.4140625
 40
0.41796875
 40
0.421875
 40
0.42578125
 40
0.427734375
 40
0.4296875
 40
0.431640625
 40
0.4326171875
 40
0.43359375
 40
0.4345703125
 40
0.435546875
 40
0.4360351562
 40
0.4365234375
 40
0.4367675781
 40
0.4370117188
 40
0.4372558594
 40
0.4373779297
 40
0.4374389648
 40
0.4375
 40
0.4375610352
 40
0.4376220703
 40
0.4377441406
 40
0.4379882812
 40
0.4382324219
 40
0.4384765625
 40
0.4389648438
 40
0.439453125
 40
0.4404296875
 40
0.44140625
 40
0.4423828125
 40
0.443359375
 40
0.4453125
 40
0.447265625
 40
0.44921875
 40
0.453125
 40
0.45703125
 40
0.4609375
 40
0.46484375
 40
0.46875
 40
0.47265625
 40
0.4765625
 40
0.48046875
 40
0.484375
 40
0.48828125
 40
0.490234375
 40
0.4921875
 40
0.494140625
 40
0.4951171875
 40
0.49609375
 40
0.4970703125
 40
0.498046875
 40
0.4985351562
 40
0.4990234375
 40
0.4992675781
 40
0.4995117188
 40
0.4997558594
 40
0.4998779297
 40
0.4999389648
 40
0.5
 40
0.5000610352
 40
0.5001220703
 40
0.5002441406
 40
0.5004882812
 40
0.5007324219
 40
0.5009765625
 40
0.5014648438
 40
0.501953125
 40
0.5029296875
 40
0.50390625
 40
0.5048828125
 40
0.505859375
 40
0.5078125
 40
0.509765625
 40
0.51171875
 40
0.515625
 40
0.51953125
 40
0.5234375
 40
0.52734375
 40
0.53125
 40
0.5390625
 40
0.54296875
 40
0.546875
 40
0.55078125
 40
0.552734375
 40
0.5546875
 40
0.556640625
 40
0.5576171875
 40
0.55859375
 40
0.5595703125
 40
0.560546875
 40
0.5610351562
 40
0.5615234375
 40
0.5617675781
 40
0.5620117188
 40
0.5622558594
 40
0.5623779297
 40
0.5624389648
 40
0.5625
 40
0.5625610352
 40
0.5626220703
 40
0.5627441406
 40
0.5629882812
 40
0.5632324219
 40
0.5634765625
 40
0.5639648438
 40
0.564453125
 40
0.5654296875
 40
0.56640625
 40
0.5673828125
 40
0.568359375
 40
0.5703125
 40
0.572265625
 40
0.57421875
 40
0.578125
 40
0.58203125
 40
0.5859375
 40
0.58984375
 40
0.59375
 40
0.6015625
 40
0.60546875
 40
0.609375
 40
0.61328125
 40
0.615234375
 40
0.6171875
 40
0.619140625
 40
0.6201171875
 40
0.62109375
 40
0.6220703125
 40
0.623046875
 40
0.6235351562
 40
0.6240234375
 40
0.6242675781
 40
0.6245117188
 40
0.6247558594
 40
0.6248779297
 40
0.625
 40
0.6251220703
 40
0.6252441406
 40
0.6254882812
 40
0.6257324219
 40
0.6259765625
 40
0.6264648438
 40
0.626953125
 40
0.6279296875
 40
0.62890625
 40
0.6298828125
 40
0.630859375
 40
0.6328125
 40
0.634765625
 40
0.63671875
 40
0.640625
 40
0.64453125
 40
0.6484375
 40
0.65625
 40
0.6640625
 40
0.66796875
 40
0.671875
 40
0.67578125
 40
0.677734375
 40
0.6796875
 40
0.681640625
 40
0.6826171875
 40
0.68359375
 40
0.6845703125
 40
0.685546875
 40
0.6860351562
 40
0.6865234375
 40
0.6870117188
 40
0.6872558594
 40
0.6873779297
 40
0.6875
 40
0.6876220703
 40
0.6877441406
 40
0.6879882812
 40
0.6884765625
 40
0.6889648438
 40
0.689453125
 40
0.6904296875
 40
0.69140625
 40
0.6923828125
 40
0.693359375
 40
0.6953125
 40
0.697265625
 40
0.69921875
 40
0.703125
 40
0.70703125
 40
0.7109375
 40
0.71875
 40
0.7265625
 40
0.73046875
 40
0.734375
 40
0.73828125
 40
0.740234375
 40
0.7421875
 40
0.744140625
 40
0.74609375
 40
0.7470703125
 40
0.748046875
 40
0.7485351562
 40
0.7490234375
 40
0.7495117188
 40
0.7497558594
 40
0.7498779297
 40
0.75
 40
0.7501220703
 40
0.7502441406
 40
0.7504882812
 40
0.7509765625
 40
0.7514648438
 40
0.751953125
 40
0.7529296875
 40
0.75390625
 40
0.755859375
 40
0.7578125
 40
0.759765625
 40
0.76171875
 40
0.765625
 40
0.76953125
 40
0.7734375
 40
0.78125
 40
0.7890625
 40
0.79296875
 40
0.796875
 40
0.80078125
 40
0.802734375
 40
0.8046875
 40
0.806640625
 40
0.80859375
 40
0.8095703125
 40
0.810546875
 40
0.8110351562
 40
0.8115234375
 40
0.8120117188
 40
0.8122558594
 40
0.8125
 40
0.8127441406
 40
0.8129882812
 40
0.8134765625
 40
0.8139648438
 40
0.814453125
 40
0.8154296875
 40
0.81640625
 40
0.818359375
 40
0.8203125
 40
0.822265625
 40
0.82421875
 40
0.828125
 40
0.83203125
 40
0.8359375
 40
0.84375
 40
0.8515625
 40
0.85546875
 40
0.859375
 40
0.86328125
 40
0.8671875
 40
0.869140625
 40
0.87109375
 40
0.8720703125
 40
0.873046875
 40
0.8740234375
 40
0.8745117188
 40
0.8747558594
 40
0.875
 40
0.8752441406
 40
0.8754882812
 40
0.8759765625
 40
0.876953125
 40
0.8779296875
 40
0.87890625
 40
0.880859375
 40
0.8828125
 40
0.88671875
 40
0.890625
 40
0.89453125
 40
0.8984375
 40
0.90625
 40
0.9140625
 40
0.91796875
 40
0.921875
 40
0.92578125
 40
0.9296875
 40
0.931640625
 40
0.93359375
 40
0.9345703125
 40
0.935546875
 40
0.9365234375
 40
0.9370117188
 40
0.9372558594
 40
0.9375
 40
0.9377441406
 40
0.9379882812
 40
0.9384765625
 40
0.939453125
 40
0.9404296875
 40
0.94140625
 40
0.943359375
 40
0.9453125
 40
0.94921875
 40
0.953125
 40
0.95703125
 40
0.9609375
 40
0.96875
 40
0.9765625
 40
0.984375
 40
1.0
 40
1.0
 40
1.0
 40
1.0
 10
12.0495226132
 20
9.1430671262
 30
0.0
 10
12.0494856445
 20
9.1444385371
 30
0.0
 10
12.049411707
 20
9.1471813588
 30
0.0
 10
12.0493008008
 20
9.1512955913
 30
0.0
 10
12.0491898946
 20
9.1554098239
 30
0.0
 10
12.0490789884
 20
9.1595240564
 30
0.0
 10
12.0489865666
 20
9.1629525835
 30
0.0
 10
12.0489126291
 20
9.1656954052
 30
0.0
 10
12.048857176
 20
9.1677525215
 30
0.0
 10
12.0488109651
 20
9.1694667851
 30
0.0
 10
12.0487739963
 20
9.1708381959
 30
0.0
 10
12.0487462699
 20
9.1718667542
 30
0.0
 10
12.0487185429
 20
9.1728953116
 30
0.0
 10
12.0486954388
 20
9.1737524457
 30
0.0
 10
12.0486769517
 20
9.1744381464
 30
0.0
 10
12.0486654061
 20
9.1748667245
 30
0.0
 10
12.0486561492
 20
9.1752095521
 30
0.0
 10
12.0486492624
 20
9.1754667682
 30
0.0
 10
12.0486433457
 20
9.1756808117
 30
0.0
 10
12.0486395529
 20
9.1758312371
 30
0.0
 10
12.0486368407
 20
9.1759162656
 30
0.0
 10
12.0486363415
 20
9.1759826538
 30
0.0
 10
12.0486299751
 20
9.176039039
 30
0.0
 10
12.0486235331
 20
9.1761177085
 30
0.0
 10
12.0486113061
 20
9.1762537545
 30
0.0
 10
12.0485943374
 20
9.1764489558
 30
0.0
 10
12.0485737616
 20
9.1766828335
 30
0.0
 10
12.0485464018
 20
9.1769947976
 30
0.0
 10
12.0485121765
 20
9.1773847092
 30
0.0
 10
12.0484574303
 20
9.1780085921
 30
0.0
 10
12.0483889926
 20
9.1787884373
 30
0.0
 10
12.0483068695
 20
9.1797242551
 30
0.0
 10
12.0482247458
 20
9.180660072
 30
0.0
 10
12.0481152478
 20
9.1819078282
 30
0.0
 10
12.0479783752
 20
9.1834675233
 30
0.0
 10
12.0478141281
 20
9.1853391575
 30
0.0
 10
12.0475951319
 20
9.1878346698
 30
0.0
 10
12.0473213867
 20
9.1909540601
 30
0.0
 10
12.0470476416
 20
9.1940734504
 30
0.0
 10
12.0468286454
 20
9.1965689626
 30
0.0
 10
12.0466643983
 20
9.1984405968
 30
0.0
 10
12.0465275257
 20
9.200000292
 30
0.0
 10
12.0464180276
 20
9.201248048
 30
0.0
 10
12.0463359042
 20
9.2021838654
 30
0.0
 10
12.0462537802
 20
9.2031196815
 30
0.0
 10
12.0461853452
 20
9.2038995323
 30
0.0
 10
12.0461305935
 20
9.2045234037
 30
0.0
 10
12.0460963821
 20
9.2049133444
 30
0.0
 10
12.0460689938
 20
9.2052252487
 30
0.0
 10
12.0460485052
 20
9.2054593089
 30
0.0
 10
12.0460312638
 20
9.2056539394
 30
0.0
 10
12.0460195237
 20
9.2057910044
 30
0.0
 10
12.0460123015
 20
9.2058680412
 30
0.0
 10
12.0460083315
 20
9.2059294415
 30
0.0
 10
12.0459988317
 20
9.2059769942
 30
0.0
 10
12.0459880942
 20
9.2060452281
 30
0.0
 10
12.0459684049
 20
9.2061623868
 30
0.0
 10
12.0459407471
 20
9.206330933
 30
0.0
 10
12.0459073567
 20
9.2065326849
 30
0.0
 10
12.0458629064
 20
9.2068018632
 30
0.0
 10
12.0458073194
 20
9.2071382759
 30
0.0
 10
12.0457183938
 20
9.20767657
 30
0.0
 10
12.0456072321
 20
9.2083494259
 30
0.0
 10
12.04547384
 20
9.209156858
 30
0.0
 10
12.0453404474
 20
9.2099642888
 30
0.0
 10
12.0451625907
 20
9.2110408637
 30
0.0
 10
12.0449402699
 20
9.2123865821
 30
0.0
 10
12.0446734849
 20
9.2140014442
 30
0.0
 10
12.0443177716
 20
9.2161545937
 30
0.0
 10
12.0438731299
 20
9.2188460306
 30
0.0
 10
12.0434284883
 20
9.2215374675
 30
0.0
 10
12.0430727749
 20
9.223690617
 30
0.0
 10
12.0428059899
 20
9.2253054791
 30
0.0
 10
12.0425836691
 20
9.2266511976
 30
0.0
 10
12.0424058124
 20
9.2277277723
 30
0.0
 10
12.0422724199
 20
9.2285352033
 30
0.0
 10
12.0421612596
 20
9.2292080628
 30
0.0
 10
12.0420723311
 20
9.2297463496
 30
0.0
 10
12.0420056354
 20
9.2301500669
 30
0.0
 10
12.041938937
 20
9.230553776
 30
0.0
 10
12.0418833634
 20
9.2308902254
 30
0.0
 10
12.0418388858
 20
9.2311593288
 30
0.0
 10
12.0418055787
 20
9.2313613096
 30
0.0
 10
12.0417776601
 20
9.2315291394
 30
0.0
 10
12.0417584364
 20
9.2316475771
 30
0.0
 10
12.0417469529
 20
9.2317137617
 30
0.0
 10
12.0417397447
 20
9.2317676092
 30
0.0
 10
12.0417271679
 20
9.2318053673
 30
0.0
 10
12.0417122714
 20
9.2318613237
 30
0.0
 10
12.0416853301
 20
9.2319566325
 30
0.0
 10
12.0416472986
 20
9.232094155
 30
0.0
 10
12.0416014656
 20
9.2322585968
 30
0.0
 10
12.0415404232
 20
9.232478057
 30
0.0
 10
12.0414640967
 20
9.232752312
 30
0.0
 10
12.0413725149
 20
9.2330814482
 30
0.0
 10
12.0412809305
 20
9.2334105763
 30
0.0
 10
12.0411588189
 20
9.2338494166
 30
0.0
 10
12.041006179
 20
9.234397966
 30
0.0
 10
12.0408230113
 20
9.2350562257
 30
0.0
 10
12.0405787877
 20
9.2359339052
 30
0.0
 10
12.0402735081
 20
9.2370310045
 30
0.0
 10
12.0399071727
 20
9.2383475237
 30
0.0
 10
12.0394187254
 20
9.2401028827
 30
0.0
 10
12.0389302781
 20
9.2418582416
 30
0.0
 10
12.0384418309
 20
9.2436136006
 30
0.0
 10
12.0380754954
 20
9.2449301198
 30
0.0
 10
12.03770916
 20
9.246246639
 30
0.0
 10
12.0373428245
 20
9.2475631583
 30
0.0
 10
12.037037545
 20
9.2486602576
 30
0.0
 10
12.0367933213
 20
9.2495379371
 30
0.0
 10
12.0366101536
 20
9.2501961967
 30
0.0
 10
12.0364575138
 20
9.2507447464
 30
0.0
 10
12.036335402
 20
9.2511835861
 30
0.0
 10
12.0362438182
 20
9.2515127161
 30
0.0
 10
12.0361522342
 20
9.2518418451
 30
0.0
 10
12.0360759147
 20
9.2521161224
 30
0.0
 10
12.0360148579
 20
9.2523355372
 30
0.0
 10
12.0359767003
 20
9.2524726876
 30
0.0
 10
12.0359461675
 20
9.2525823709
 30
0.0
 10
12.0359232865
 20
9.2526647347
 30
0.0
 10
12.0359041596
 20
9.2527330488
 30
0.0
 10
12.0358908874
 20
9.2527815014
 30
0.0
 10
12.0358831211
 20
9.2528082007
 30
0.0
 10
12.0358778098
 20
9.2528310082
 30
0.0
 10
12.0358705359
 20
9.2528431772
 30
0.0
 10
12.0358615219
 20
9.2528631134
 30
0.0
 10
12.0358454286
 20
9.2528962728
 30
0.0
 10
12.0358226048
 20
9.2529445473
 30
0.0
 10
12.0357951448
 20
9.2530020897
 30
0.0
 10
12.0357585565
 20
9.2530789482
 30
0.0
 10
12.0357128126
 20
9.2531749749
 30
0.0
 10
12.0356396271
 20
9.2533286436
 30
0.0
 10
12.0355481436
 20
9.2535207205
 30
0.0
 10
12.0354383641
 20
9.2537512167
 30
0.0
 10
12.0353285844
 20
9.2539817118
 30
0.0
 10
12.0351822115
 20
9.254289039
 30
0.0
 10
12.0349992454
 20
9.2546731979
 30
0.0
 10
12.034779686
 20
9.2551341886
 30
0.0
 10
12.0344869403
 20
9.2557488429
 30
0.0
 10
12.0341210081
 20
9.2565171607
 30
0.0
 10
12.0336818894
 20
9.2574391422
 30
0.0
 10
12.0332427707
 20
9.2583611236
 30
0.0
 10
12.0328036521
 20
9.259283105
 30
0.0
 10
12.0323645334
 20
9.2602050864
 30
0.0
 10
12.0319254148
 20
9.2611270678
 30
0.0
 10
12.0314862961
 20
9.2620490492
 30
0.0
 10
12.0310471774
 20
9.2629710306
 30
0.0
 10
12.0306080588
 20
9.263893012
 30
0.0
 10
12.0302421266
 20
9.2646613298
 30
0.0
 10
12.0299493808
 20
9.2652759841
 30
0.0
 10
12.0297298215
 20
9.2657369748
 30
0.0
 10
12.0295468554
 20
9.2661211338
 30
0.0
 10
12.0294004825
 20
9.2664284608
 30
0.0
 10
12.0292907028
 20
9.2666589564
 30
0.0
 10
12.029180923
 20
9.2668894509
 30
0.0
 10
12.0290894404
 20
9.2670815329
 30
0.0
 10
12.0290162531
 20
9.2672351913
 30
0.0
 10
12.0289705136
 20
9.2673312443
 30
0.0
 10
12.0289339163
 20
9.2674080488
 30
0.0
 10
12.0289064841
 20
9.2674657559
 30
0.0
 10
12.0288835735
 20
9.2675135153
 30
0.0
 10
12.028867635
 20
9.2675475941
 30
0.0
 10
12.0288583728
 20
9.2675660572
 30
0.0
 10
12.0288518614
 20
9.2675827512
 30
0.0
 10
12.0288436864
 20
9.2675885637
 30
0.0
 10
12.0288333666
 20
9.2676001094
 30
0.0
 10
12.0288150366
 20
9.2676185458
 30
0.0
 10
12.0287889923
 20
9.2676458081
 30
0.0
 10
12.0287576786
 20
9.2676781271
 30
0.0
 10
12.0287159482
 20
9.2677213573
 30
0.0
 10
12.0286637779
 20
9.2677753478
 30
0.0
 10
12.0285803095
 20
9.267861759
 30
0.0
 10
12.0284759726
 20
9.2679697639
 30
0.0
 10
12.0283507689
 20
9.2680993738
 30
0.0
 10
12.028225565
 20
9.2682289825
 30
0.0
 10
12.0280586266
 20
9.2684017946
 30
0.0
 10
12.0278499536
 20
9.2686178095
 30
0.0
 10
12.0275995459
 20
9.2688770275
 30
0.0
 10
12.0272656691
 20
9.2692226515
 30
0.0
 10
12.026848323
 20
9.2696546815
 30
0.0
 10
12.0263475077
 20
9.2701731174
 30
0.0
 10
12.0258466924
 20
9.2706915534
 30
0.0
 10
12.0253458771
 20
9.2712099894
 30
0.0
 10
12.0248450618
 20
9.2717284253
 30
0.0
 10
12.0243442465
 20
9.2722468613
 30
0.0
 10
12.0238434312
 20
9.2727652972
 30
0.0
 10
12.0233426159
 20
9.2732837332
 30
0.0
 10
12.0228418007
 20
9.2738021692
 30
0.0
 10
12.0224244546
 20
9.2742341991
 30
0.0
 10
12.0220905777
 20
9.2745798231
 30
0.0
 10
12.0218401701
 20
9.2748390411
 30
0.0
 10
12.021631497
 20
9.2750550561
 30
0.0
 10
12.0214645586
 20
9.275227868
 30
0.0
 10
12.0213393548
 20
9.2753574772
 30
0.0
 10
12.0212141509
 20
9.2754870854
 30
0.0
 10
12.0211098146
 20
9.2755950955
 30
0.0
 10
12.0210263449
 20
9.2756814961
 30
0.0
 10
12.020974178
 20
9.2757355137
 30
0.0
 10
12.0209324405
 20
9.2757786882
 30
0.0
 10
12.0209011484
 20
9.2758111777
 30
0.0
 10
12.0208750367
 20
9.2758379064
 30
0.0
 10
12.0208568269
 20
9.2758572954
 30
0.0
 10
12.0208463146
 20
9.2758673148
 30
0.0
 10
12.020838731
 20
9.2758778153
 30
0.0
 10
12.0208299982
 20
9.275876902
 30
0.0
 10
12.0208187553
 20
9.2758796655
 30
0.0
 10
12.0207988934
 20
9.2758826466
 30
0.0
 10
12.0207706169
 20
9.2758878751
 30
0.0
 10
12.0207366434
 20
9.2758937343
 30
0.0
 10
12.0206913599
 20
9.2759016915
 30
0.0
 10
12.0206347506
 20
9.2759115884
 30
0.0
 10
12.0205441785
 20
9.2759274511
 30
0.0
 10
12.0204309624
 20
9.2759472699
 30
0.0
 10
12.0202951035
 20
9.2759710567
 30
0.0
 10
12.0201592444
 20
9.2759948423
 30
0.0
 10
12.0199780991
 20
9.2760265569
 30
0.0
 10
12.0197516674
 20
9.2760661999
 30
0.0
 10
12.0194799494
 20
9.2761137717
 30
0.0
 10
12.0191176587
 20
9.2761772006
 30
0.0
 10
12.0186647954
 20
9.2762564868
 30
0.0
 10
12.0181213594
 20
9.2763516303
 30
0.0
 10
12.0175779233
 20
9.2764467738
 30
0.0
 10
12.0170344873
 20
9.2765419172
 30
0.0
 10
12.0164910513
 20
9.2766370607
 30
0.0
 10
12.0159476153
 20
9.2767322041
 30
0.0
 10
12.0154041792
 20
9.2768273476
 30
0.0
 10
12.0148607432
 20
9.276922491
 30
0.0
 10
12.0143173072
 20
9.2770176345
 30
0.0
 10
12.0138644438
 20
9.2770969207
 30
0.0
 10
12.0135021531
 20
9.2771603497
 30
0.0
 10
12.0132304351
 20
9.2772079214
 30
0.0
 10
12.0130040035
 20
9.2772475645
 30
0.0
 10
12.0128228581
 20
9.2772792789
 30
0.0
 10
12.0126869991
 20
9.277303065
 30
0.0
 10
12.01255114
 20
9.27732685
 30
0.0
 10
12.0124379244
 20
9.2773466743
 30
0.0
 10
12.0123473513
 20
9.2773625259
 30
0.0
 10
12.0122907445
 20
9.2773724511
 30
0.0
 10
12.012245456
 20
9.2773803502
 30
0.0
 10
12.0122114978
 20
9.2773863867
 30
0.0
 10
12.0121831732
 20
9.2773910603
 30
0.0
 10
12.0121633974
 20
9.2773950322
 30
0.0
 10
12.0121520165
 20
9.2773962083
 30
0.0
 10
12.0121437073
 20
9.2774001707
 30
0.0
 10
12.0121345328
 20
9.2773923586
 30
0.0
 10
12.012122602
 20
9.2773860495
 30
0.0
 10
12.0121015825
 20
9.2773730951
 30
0.0
 10
12.0120716282
 20
9.2773555891
 30
0.0
 10
12.0120356515
 20
9.2773341538
 30
0.0
 10
12.0119876935
 20
9.2773057229
 30
0.0
 10
12.0119277424
 20
9.2772701331
 30
0.0
 10
12.0118318226
 20
9.277213218
 30
0.0
 10
12.0117119221
 20
9.2771420644
 30
0.0
 10
12.0115680419
 20
9.2770566842
 30
0.0
 10
12.0114241615
 20
9.2769713029
 30
0.0
 10
12.0112323211
 20
9.2768574615
 30
0.0
 10
12.0109925206
 20
9.2767151597
 30
0.0
 10
12.01070476
 20
9.2765443976
 30
0.0
 10
12.0103210792
 20
9.2763167147
 30
0.0
 10
12.0098414782
 20
9.2760321112
 30
0.0
 10
12.009265957
 20
9.2756905869
 30
0.0
 10
12.0086904358
 20
9.2753490626
 30
0.0
 10
12.0081149145
 20
9.2750075383
 30
0.0
 10
12.0075393933
 20
9.274666014
 30
0.0
 10
12.0069638721
 20
9.2743244897
 30
0.0
 10
12.0063883509
 20
9.2739829655
 30
0.0
 10
12.0058128296
 20
9.2736414412
 30
0.0
 10
12.0052373084
 20
9.2732999169
 30
0.0
 10
12.0047577074
 20
9.2730153133
 30
0.0
 10
12.0043740266
 20
9.2727876305
 30
0.0
 10
12.004086266
 20
9.2726168683
 30
0.0
 10
12.0038464655
 20
9.2724745666
 30
0.0
 10
12.0036546251
 20
9.2723607251
 30
0.0
 10
12.0035107448
 20
9.2722753442
 30
0.0
 10
12.0033668645
 20
9.2721899623
 30
0.0
 10
12.0032469642
 20
9.272118814
 30
0.0
 10
12.0031510441
 20
9.272061888
 30
0.0
 10
12.0030910936
 20
9.2720263261
 30
0.0
 10
12.0030431342
 20
9.2719978379
 30
0.0
 10
12.0030071621
 20
9.2719765776
 30
0.0
 10
12.0029771934
 20
9.2719585242
 30
0.0
 10
12.0029561994
 20
9.2719465471
 30
0.0
 10
12.0029442278
 20
9.271938672
 30
0.0
 10
12.0029351787
 20
9.27193567
 30
0.0
 10
12.0029263985
 20
9.2719215664
 30
0.0
 10
12.0029145977
 20
9.2719066339
 30
0.0
 10
12.00289399
 20
9.2718786978
 30
0.0
 10
12.0028645276
 20
9.2718397323
 30
0.0
 10
12.0028291825
 20
9.2717925701
 30
0.0
 10
12.0027820523
 20
9.2717298281
 30
0.0
 10
12.0027231407
 20
9.2716513523
 30
0.0
 10
12.0026288815
 20
9.271525818
 30
0.0
 10
12.0025110577
 20
9.2713688908
 30
0.0
 10
12.0023696691
 20
9.2711805823
 30
0.0
 10
12.0022282805
 20
9.2709922726
 30
0.0
 10
12.0020397623
 20
9.2707411935
 30
0.0
 10
12.0018041146
 20
9.2704273444
 30
0.0
 10
12.0015213374
 20
9.2700507256
 30
0.0
 10
12.0011443011
 20
9.2695485671
 30
0.0
 10
12.0006730057
 20
9.2689208691
 30
0.0
 10
12.0001074512
 20
9.2681676314
 30
0.0
 10
11.9995418968
 20
9.2674143938
 30
0.0
 10
11.9989763423
 20
9.2666611561
 30
0.0
 10
11.9982222697
 20
9.2656568392
 30
0.0
 10
11.9974681971
 20
9.2646525223
 30
0.0
 10
11.9967141244
 20
9.2636482054
 30
0.0
 10
11.99614857
 20
9.2628949678
 30
0.0
 10
11.9956772746
 20
9.2622672697
 30
0.0
 10
11.9953002383
 20
9.2617651113
 30
0.0
 10
11.9950174611
 20
9.2613884924
 30
0.0
 10
11.9947818134
 20
9.2610746435
 30
0.0
 10
11.9945932952
 20
9.2608235642
 30
0.0
 10
11.9944519066
 20
9.260635255
 30
0.0
 10
11.994310518
 20
9.2604469448
 30
0.0
 10
11.994192694
 20
9.2602900227
 30
0.0
 10
11.9940984352
 20
9.2601644781
 30
0.0
 10
11.9940395226
 20
9.2600860285
 30
0.0
 10
11.9939923945
 20
9.2600232327
 30
0.0
 10
11.9939570429
 20
9.2599762348
 30
0.0
 10
11.9939276009
 20
9.2599367551
 30
0.0
 10
11.9939069569
 20
9.2599097371
 30
0.0
 10
11.9938952142
 20
9.2598933336
 30
0.0
 10
11.9938862553
 20
9.2598837483
 30
0.0
 10
11.9938778773
 20
9.2598637759
 30
0.0
 10
11.9938665039
 20
9.2598407691
 30
0.0
 10
11.9938466949
 20
9.2597988192
 30
0.0
 10
11.993818347
 20
9.2597397732
 30
0.0
 10
11.9937843507
 20
9.2596685403
 30
0.0
 10
11.9937390148
 20
9.2595736951
 30
0.0
 10
11.9936823476
 20
9.2594550933
 30
0.0
 10
11.9935916785
 20
9.2592653558
 30
0.0
 10
11.9934783427
 20
9.2590281753
 30
0.0
 10
11.9933423395
 20
9.2587435623
 30
0.0
 10
11.9932063363
 20
9.2584589483
 30
0.0
 10
11.9930249987
 20
9.2580794634
 30
0.0
 10
11.9927983268
 20
9.2576051071
 30
0.0
 10
11.9925263205
 20
9.2570358796
 30
0.0
 10
11.9921636453
 20
9.2562769096
 30
0.0
 10
11.9917103015
 20
9.2553281971
 30
0.0
 10
11.9911662888
 20
9.2541897421
 30
0.0
 10
11.9906222761
 20
9.253051287
 30
0.0
 10
11.9900782634
 20
9.251912832
 30
0.0
 10
11.9893529132
 20
9.250394892
 30
0.0
 10
11.988627563
 20
9.248876952
 30
0.0
 10
11.9879022128
 20
9.247359012
 30
0.0
 10
11.9873582001
 20
9.246220557
 30
0.0
 10
11.9869048562
 20
9.2452718445
 30
0.0
 10
11.9865421811
 20
9.2445128744
 30
0.0
 10
11.9862701748
 20
9.243943647
 30
0.0
 10
11.9860435028
 20
9.2434692906
 30
0.0
 10
11.9858621652
 20
9.2430898058
 30
0.0
 10
11.9857261621
 20
9.2428051915
 30
0.0
 10
11.9855901587
 20
9.2425205797
 30
0.0
 10
11.9854768235
 20
9.2422833955
 30
0.0
 10
11.9853861532
 20
9.2420936654
 30
0.0
 10
11.9853294891
 20
9.2419750446
 30
0.0
 10
11.9852841467
 20
9.2418802385
 30
0.0
 10
11.9852501705
 20
9.2418088861
 30
0.0
 10
11.9852217595
 20
9.2417502141
 30
0.0
 10
11.9851992494
 20
9.2417015085
 30
0.0
 10
11.9851817695
 20
9.2416698102
 30
0.0
 10
11.9851665693
 20
9.2416196721
 30
0.0
 10
11.985145506
 20
9.2415592625
 30
0.0
 10
11.9851194502
 20
9.2414815406
 30
0.0
 10
11.9850880663
 20
9.2413892203
 30
0.0
 10
11.9850462619
 20
9.2412657961
 30
0.0
 10
11.9849939923
 20
9.2411116289
 30
0.0
 10
11.984910369
 20
9.2408648983
 30
0.0
 10
11.984805837
 20
9.2405565067
 30
0.0
 10
11.9846803999
 20
9.2401864275
 30
0.0
 10
11.9845549624
 20
9.2398163508
 30
0.0
 10
11.9843877126
 20
9.2393229143
 30
0.0
 10
11.9841786502
 20
9.238706119
 30
0.0
 10
11.9839277754
 20
9.2379659645
 30
0.0
 10
11.9835932757
 20
9.2369790918
 30
0.0
 10
11.983175151
 20
9.235745501
 30
0.0
 10
11.9826734014
 20
9.2342651921
 30
0.0
 10
11.9820044019
 20
9.2322914468
 30
0.0
 10
11.9811681526
 20
9.2298242652
 30
0.0
 10
11.9803319033
 20
9.2273570836
 30
0.0
 10
11.9796629038
 20
9.2253833383
 30
0.0
 10
11.9791611542
 20
9.2239030293
 30
0.0
 10
11.9787430295
 20
9.2226694385
 30
0.0
 10
11.9784085298
 20
9.2216825659
 30
0.0
 10
11.978157655
 20
9.2209424113
 30
0.0
 10
11.9779485926
 20
9.2203256162
 30
0.0
 10
11.9777813429
 20
9.2198321793
 30
0.0
 10
11.9776559052
 20
9.2194621038
 30
0.0
 10
11.9775304689
 20
9.2190920198
 30
0.0
 10
11.9774259341
 20
9.2187836432
 30
0.0
 10
11.9773423165
 20
9.218536882
 30
0.0
 10
11.9772795755
 20
9.218351975
 30
0.0
 10
11.9772273798
 20
9.2181973642
 30
0.0
 10
11.9771906691
 20
9.2180901604
 30
0.0
 10
11.9771699629
 20
9.2180273025
 30
0.0
 10
11.9771536689
 20
9.2179846625
 30
0.0
 10
11.9771402965
 20
9.2179248083
 30
0.0
 10
11.9771214475
 20
9.2178510072
 30
0.0
 10
11.9770889367
 20
9.2177190576
 30
0.0
 10
11.9770422445
 20
9.2175320209
 30
0.0
 10
11.97698632
 20
9.2173069508
 30
0.0
 10
11.9769117169
 20
9.217007076
 30
0.0
 10
11.9768184759
 20
9.2166321575
 30
0.0
 10
11.9767065811
 20
9.2161822874
 30
0.0
 10
11.9765946878
 20
9.2157324087
 30
0.0
 10
11.9764454962
 20
9.2151325735
 30
0.0
 10
11.9762590069
 20
9.2143827784
 30
0.0
 10
11.9760352196
 20
9.2134830247
 30
0.0
 10
11.9757368367
 20
9.212283353
 30
0.0
 10
11.9753638579
 20
9.2107837635
 30
0.0
 10
11.9749162835
 20
9.208984256
 30
0.0
 10
11.9743195175
 20
9.2065849127
 30
0.0
 10
11.9735735601
 20
9.2035857335
 30
0.0
 10
11.9728276027
 20
9.2005865543
 30
0.0
 10
11.9722308367
 20
9.198187211
 30
0.0
 10
11.9717832622
 20
9.1963877035
 30
0.0
 10
11.9714102835
 20
9.194888114
 30
0.0
 10
11.9711119006
 20
9.1936884423
 30
0.0
 10
11.9708881132
 20
9.1927886887
 30
0.0
 10
11.9706643264
 20
9.1918889342
 30
0.0
 10
11.9704778359
 20
9.1911391418
 30
0.0
 10
11.9703286467
 20
9.1905393011
 30
0.0
 10
11.9702353963
 20
9.1901644161
 30
0.0
 10
11.9701608122
 20
9.1898644728
 30
0.0
 10
11.9701048296
 20
9.1896396118
 30
0.0
 10
11.9700583194
 20
9.1894519208
 30
0.0
 10
11.9700254836
 20
9.1893211392
 30
0.0
 10
11.9700071554
 20
9.1892454668
 30
0.0
 10
11.9699921835
 20
9.1891913608
 30
0.0
 10
11.9699818969
 20
9.1891271315
 30
0.0
 10
11.9699665472
 20
9.1890450237
 30
0.0
 10
11.9699404466
 20
9.1888996897
 30
0.0
 10
11.969902762
 20
9.1886929298
 30
0.0
 10
11.9698577108
 20
9.1884444499
 30
0.0
 10
11.969797583
 20
9.1881132718
 30
0.0
 10
11.9697224437
 20
9.1876992552
 30
0.0
 10
11.9696022094
 20
9.1870368533
 30
0.0
 10
11.9694519205
 20
9.1862088425
 30
0.0
 10
11.969271572
 20
9.1852152331
 30
0.0
 10
11.9690912241
 20
9.1842216227
 30
0.0
 10
11.96885076
 20
9.1828968092
 30
0.0
 10
11.9685501799
 20
9.1812407923
 30
0.0
 10
11.9681894837
 20
9.1792535719
 30
0.0
 10
11.9677085555
 20
9.1766039448
 30
0.0
 10
11.9671073953
 20
9.173291911
 30
0.0
 10
11.9665062351
 20
9.1699798771
 30
0.0
 10
11.9660253069
 20
9.16733025
 30
0.0
 10
11.9656646108
 20
9.1653430297
 30
0.0
 10
11.9653640307
 20
9.1636870127
 30
0.0
 10
11.9651235665
 20
9.1623621993
 30
0.0
 10
11.9649432187
 20
9.1613685887
 30
0.0
 10
11.9647628696
 20
9.1603749801
 30
0.0
 10
11.9646125829
 20
9.1595469666
 30
0.0
 10
11.9644923441
 20
9.1588845701
 30
0.0
 10
11.9644172162
 20
9.1584705397
 30
0.0
 10
11.964357065
 20
9.1581393901
 30
0.0
 10
11.9643120853
 20
9.1578908232
 30
0.0
 10
11.9642741771
 20
9.1576843354
 30
0.0
 10
11.9642448039
 20
9.1575176843
 30
0.0
 10
11.9642201692
 20
9.1573966878
 30
0.0
 10
11.964205477
 20
9.1572604547
 30
0.0
 10
11.9641824143
 20
9.1570841328
 30
0.0
 10
11.9641547776
 20
9.1568619045
 30
0.0
 10
11.9641211034
 20
9.156596012
 30
0.0
 10
11.9640763828
 20
9.1562412158
 30
0.0
 10
11.9640204209
 20
9.155797814
 30
0.0
 10
11.963930916
 20
9.1550883189
 30
0.0
 10
11.9638190232
 20
9.1542014679
 30
0.0
 10
11.9636847569
 20
9.153137239
 30
0.0
 10
11.9635504892
 20
9.1520730122
 30
0.0
 10
11.9633714661
 20
9.1506540424
 30
0.0
 10
11.963147687
 20
9.1488803304
 30
0.0
 10
11.9628791522
 20
9.1467518759
 30
0.0
 10
11.9625211058
 20
9.1439139366
 30
0.0
 10
11.9620735478
 20
9.1403665125
 30
0.0
 10
11.9616259898
 20
9.1368190884
 30
0.0
 10
11.9612679435
 20
9.133981149
 30
0.0
 10
11.9609994084
 20
9.1318526946
 30
0.0
 10
11.9607308745
 20
9.1297242397
 30
0.0
 10
11.9605070929
 20
9.1279505291
 30
0.0
 10
11.960328075
 20
9.1265315564
 30
0.0
 10
11.960216172
 20
9.1256447082
 30
0.0
 10
11.960126688
 20
9.1249352072
 30
0.0
 10
11.9600594699
 20
9.1244031432
 30
0.0
 10
11.9600037894
 20
9.1239595599
 30
0.0
 10
11.9599641563
 20
9.1236494375
 30
0.0
 10
11.9599425343
 20
9.1234716221
 30
0.0
 10
11.9599234288
 20
9.1233399581
 30
0.0
 10
11.9599153669
 20
9.1232018051
 30
0.0
 10
11.9599007655
 20
9.1230198646
 30
0.0
 10
11.9598770078
 20
9.1227004142
 30
0.0
 10
11.9598421299
 20
9.1222446077
 30
0.0
 10
11.9598006781
 20
9.1216974039
 30
0.0
 10
11.9597452688
 20
9.1209678814
 30
0.0
 10
11.9596760552
 20
9.1200559499
 30
0.0
 10
11.9595652865
 20
9.1185968754
 30
0.0
 10
11.9594268349
 20
9.1167730268
 30
0.0
 10
11.959260689
 20
9.1145844108
 30
0.0
 10
11.9590945441
 20
9.1123957942
 30
0.0
 10
11.9588730173
 20
9.109477639
 30
0.0
 10
11.9585961089
 20
9.1058299448
 30
0.0
 10
11.9583192004
 20
9.1021822507
 30
0.0
 10
11.9580976737
 20
9.0992640954
 30
0.0
 10
11.9579315284
 20
9.097075479
 30
0.0
 10
11.9577653842
 20
9.0948868624
 30
0.0
 10
11.9576269273
 20
9.0930630157
 30
0.0
 10
11.9575161695
 20
9.0916039373
 30
0.0
 10
11.9574469281
 20
9.0906920157
 30
0.0
 10
11.9573915758
 20
9.0899624729
 30
0.0
 10
11.9573499498
 20
9.0894153309
 30
0.0
 10
11.9573156168
 20
9.0889593311
 30
0.0
 10
11.9572908865
 20
9.0886402258
 30
0.0
 10
11.9572778436
 20
9.0884577322
 30
0.0
 10
11.9572649943
 20
9.0883212782
 30
0.0
 10
11.9572638692
 20
9.0881832334
 30
0.0
 10
11.9572582796
 20
9.0879997286
 30
0.0
 10
11.9572504032
 20
9.0876783366
 30
0.0
 10
11.957238155
 20
9.0872193404
 30
0.0
 10
11.9572238835
 20
9.0866684871
 30
0.0
 10
11.9572047059
 20
9.0859340362
 30
0.0
 10
11.9571807849
 20
9.0850159657
 30
0.0
 10
11.9571424829
 20
9.0835470568
 30
0.0
 10
11.9570946151
 20
9.0817109193
 30
0.0
 10
11.9570371695
 20
9.0795075548
 30
0.0
 10
11.9569797251
 20
9.0773041902
 30
0.0
 10
11.9569031322
 20
9.0743663708
 30
0.0
 10
11.9568073911
 20
9.0706940965
 30
0.0
 10
11.9566925018
 20
9.0662873674
 30
0.0
 10
11.9565393161
 20
9.0604117285
 30
0.0
 10
11.9564244267
 20
9.0560049994
 30
0.0
 10
11.9563478339
 20
9.05306718
 30
0.0
  0
SPLINE
  5
3C5
100
AcDbEntity
  8
0
100
AcDbSpline
 62
4
  6
CONTINUOUS
 70
0
 71
3
 72
535
 73
531
 74
0
 42
0.0000001
 43
0.0000001
 44
0.0000000001
 40
0.0
 40
0.0
 40
0.0
 40
0.0
 40
0.0078125
 40
0.015625
 40
0.0234375
 40
0.03125
 40
0.0390625
 40
0.04296875
 40
0.046875
 40
0.05078125
 40
0.052734375
 40
0.0546875
 40
0.056640625
 40
0.05859375
 40
0.0595703125
 40
0.060546875
 40
0.0610351562
 40
0.0615234375
 40
0.0620117188
 40
0.0622558594
 40
0.0623779297
 40
0.0625
 40
0.0626220703
 40
0.0627441406
 40
0.0629882812
 40
0.0634765625
 40
0.0639648438
 40
0.064453125
 40
0.0654296875
 40
0.06640625
 40
0.068359375
 40
0.0703125
 40
0.072265625
 40
0.07421875
 40
0.078125
 40
0.08203125
 40
0.0859375
 40
0.09375
 40
0.1015625
 40
0.10546875
 40
0.109375
 40
0.11328125
 40
0.115234375
 40
0.1171875
 40
0.119140625
 40
0.12109375
 40
0.1220703125
 40
0.123046875
 40
0.1235351562
 40
0.1240234375
 40
0.1245117188
 40
0.1247558594
 40
0.1248779297
 40
0.125
 40
0.1251220703
 40
0.1252441406
 40
0.1254882812
 40
0.1259765625
 40
0.1264648438
 40
0.126953125
 40
0.1279296875
 40
0.12890625
 40
0.130859375
 40
0.1328125
 40
0.134765625
 40
0.13671875
 40
0.140625
 40
0.14453125
 40
0.1484375
 40
0.15625
 40
0.1640625
 40
0.16796875
 40
0.171875
 40
0.17578125
 40
0.177734375
 40
0.1796875
 40
0.181640625
 40
0.1826171875
 40
0.18359375
 40
0.1845703125
 40
0.185546875
 40
0.1860351562
 40
0.1865234375
 40
0.1870117188
 40
0.1872558594
 40
0.1873779297
 40
0.1875
 40
0.1876220703
 40
0.1877441406
 40
0.1879882812
 40
0.1884765625
 40
0.1889648438
 40
0.189453125
 40
0.1904296875
 40
0.19140625
 40
0.1923828125
 40
0.193359375
 40
0.1953125
 40
0.197265625
 40
0.19921875
 40
0.203125
 40
0.20703125
 40
0.2109375
 40
0.21875
 40
0.22265625
 40
0.2265625
 40
0.23046875
 40
0.234375
 40
0.23828125
 40
0.240234375
 40
0.2421875
 40
0.244140625
 40
0.2451171875
 40
0.24609375
 40
0.2470703125
 40
0.248046875
 40
0.2485351562
 40
0.2490234375
 40
0.2492675781
 40
0.2495117188
 40
0.2497558594
 40
0.2498779297
 40
0.2499389648
 40
0.25
 40
0.2500610352
 40
0.2501220703
 40
0.2502441406
 40
0.2504882812
 40
0.2507324219
 40
0.2509765625
 40
0.2514648438
 40
0.251953125
 40
0.2529296875
 40
0.25390625
 40
0.2548828125
 40
0.255859375
 40
0.2578125
 40
0.259765625
 40
0.26171875
 40
0.265625
 40
0.26953125
 40
0.2734375
 40
0.27734375
 40
0.28125
 40
0.28515625
 40
0.2890625
 40
0.29296875
 40
0.296875
 40
0.30078125
 40
0.302734375
 40
0.3046875
 40
0.306640625
 40
0.3076171875
 40
0.30859375
 40
0.3095703125
 40
0.310546875
 40
0.3110351562
 40
0.3115234375
 40
0.3117675781
 40
0.3120117188
 40
0.3122558594
 40
0.3123779297
 40
0.3124389648
 40
0.3125
 40
0.3125610352
 40
0.3126220703
 40
0.3127441406
 40
0.3129882812
 40
0.3132324219
 40
0.3134765625
 40
0.3139648438
 40
0.314453125
 40
0.3154296875
 40
0.31640625
 40
0.3173828125
 40
0.318359375
 40
0.3203125
 40
0.322265625
 40
0.32421875
 40
0.328125
 40
0.33203125
 40
0.3359375
 40
0.33984375
 40
0.34375
 40
0.34765625
 40
0.3515625
 40
0.35546875
 40
0.359375
 40
0.36328125
 40
0.365234375
 40
0.3671875
 40
0.369140625
 40
0.3701171875
 40
0.37109375
 40
0.3720703125
 40
0.373046875
 40
0.3735351562
 40
0.3740234375
 40
0.3742675781
 40
0.3745117188
 40
0.3747558594
 40
0.3748779297
 40
0.3749389648
 40
0.375
 40
0.3750610352
 40
0.3751220703
 40
0.3752441406
 40
0.3754882812
 40
0.3757324219
 40
0.3759765625
 40
0.3764648438
 40
0.376953125
 40
0.3779296875
 40
0.37890625
 40
0.3798828125
 40
0.380859375
 40
0.3828125
 40
0.384765625
 40
0.38671875
 40
0.390625
 40
0.39453125
 40
0.3984375
 40
0.40234375
 40
0.40625
 40
0.41015625
 40
0.4140625
 40
0.41796875
 40
0.421875
 40
0.42578125
 40
0.427734375
 40
0.4296875
 40
0.431640625
 40
0.4326171875
 40
0.43359375
 40
0.4345703125
 40
0.435546875
 40
0.4360351562
 40
0.4365234375
 40
0.4367675781
 40
0.4370117188
 40
0.4372558594
 40
0.4373779297
 40
0.4374389648
 40
0.4375
 40
0.4375610352
 40
0.4376220703
 40
0.4377441406
 40
0.4379882812
 40
0.4382324219
 40
0.4384765625
 40
0.4389648438
 40
0.439453125
 40
0.4404296875
 40
0.44140625
 40
0.4423828125
 40
0.443359375
 40
0.4453125
 40
0.447265625
 40
0.44921875
 40
0.453125
 40
0.45703125
 40
0.4609375
 40
0.46484375
 40
0.46875
 40
0.47265625
 40
0.4765625
 40
0.48046875
 40
0.484375
 40
0.48828125
 40
0.490234375
 40
0.4921875
 40
0.494140625
 40
0.4951171875
 40
0.49609375
 40
0.4970703125
 40
0.498046875
 40
0.4985351562
 40
0.4990234375
 40
0.4992675781
 40
0.4995117188
 40
0.4997558594
 40
0.4998779297
 40
0.4999389648
 40
0.5
 40
0.5000610352
 40
0.5001220703
 40
0.5002441406
 40
0.5004882812
 40
0.5007324219
 40
0.5009765625
 40
0.5014648438
 40
0.501953125
 40
0.5029296875
 40
0.50390625
 40
0.5048828125
 40
0.505859375
 40
0.5078125
 40
0.509765625
 40
0.51171875
 40
0.515625
 40
0.51953125
 40
0.5234375
 40
0.52734375
 40
0.53125
 40
0.5390625
 40
0.54296875
 40
0.546875
 40
0.55078125
 40
0.552734375
 40
0.5546875
 40
0.556640625
 40
0.5576171875
 40
0.55859375
 40
0.5595703125
 40
0.560546875
 40
0.5610351562
 40
0.5615234375
 40
0.5617675781
 40
0.5620117188
 40
0.5622558594
 40
0.5623779297
 40
0.5624389648
 40
0.5625
 40
0.5625610352
 40
0.5626220703
 40
0.5627441406
 40
0.5629882812
 40
0.5632324219
 40
0.5634765625
 40
0.5639648438
 40
0.564453125
 40
0.5654296875
 40
0.56640625
 40
0.5673828125
 40
0.568359375
 40
0.5703125
 40
0.572265625
 40
0.57421875
 40
0.578125
 40
0.58203125
 40
0.5859375
 40
0.58984375
 40
0.59375
 40
0.6015625
 40
0.60546875
 40
0.609375
 40
0.61328125
 40
0.615234375
 40
0.6171875
 40
0.619140625
 40
0.6201171875
 40
0.62109375
 40
0.6220703125
 40
0.623046875
 40
0.6235351562
 40
0.6240234375
 40
0.6242675781
 40
0.6245117188
 40
0.6247558594
 40
0.6248779297
 40
0.625
 40
0.6251220703
 40
0.6252441406
 40
0.6254882812
 40
0.6257324219
 40
0.6259765625
 40
0.6264648438
 40
0.626953125
 40
0.6279296875
 40
0.62890625
 40
0.6298828125
 40
0.630859375
 40
0.6328125
 40
0.634765625
 40
0.63671875
 40
0.640625
 40
0.64453125
 40
0.6484375
 40
0.65625
 40
0.6640625
 40
0.66796875
 40
0.671875
 40
0.67578125
 40
0.677734375
 40
0.6796875
 40
0.681640625
 40
0.6826171875
 40
0.68359375
 40
0.6845703125
 40
0.685546875
 40
0.6860351562
 40
0.6865234375
 40
0.6870117188
 40
0.6872558594
 40
0.6873779297
 40
0.6875
 40
0.6876220703
 40
0.6877441406
 40
0.6879882812
 40
0.6884765625
 40
0.6889648438
 40
0.689453125
 40
0.6904296875
 40
0.69140625
 40
0.6923828125
 40
0.693359375
 40
0.6953125
 40
0.697265625
 40
0.69921875
 40
0.703125
 40
0.70703125
 40
0.7109375
 40
0.71875
 40
0.7265625
 40
0.73046875
 40
0.734375
 40
0.73828125
 40
0.740234375
 40
0.7421875
 40
0.744140625
 40
0.74609375
 40
0.7470703125
 40
0.748046875
 40
0.7485351562
 40
0.7490234375
 40
0.7495117188
 40
0.7497558594
 40
0.7498779297
 40
0.75
 40
0.7501220703
 40
0.7502441406
 40
0.7504882812
 40
0.7509765625
 40
0.7514648438
 40
0.751953125
 40
0.7529296875
 40
0.75390625
 40
0.755859375
 40
0.7578125
 40
0.759765625
 40
0.76171875
 40
0.765625
 40
0.76953125
 40
0.7734375
 40
0.78125
 40
0.7890625
 40
0.79296875
 40
0.796875
 40
0.80078125
 40
0.802734375
 40
0.8046875
 40
0.806640625
 40
0.80859375
 40
0.8095703125
 40
0.810546875
 40
0.8110351562
 40
0.8115234375
 40
0.8120117188
 40
0.8122558594
 40
0.8125
 40
0.8127441406
 40
0.8129882812
 40
0.8134765625
 40
0.8139648438
 40
0.814453125
 40
0.8154296875
 40
0.81640625
 40
0.818359375
 40
0.8203125
 40
0.822265625
 40
0.82421875
 40
0.828125
 40
0.83203125
 40
0.8359375
 40
0.84375
 40
0.8515625
 40
0.85546875
 40
0.859375
 40
0.86328125
 40
0.8671875
 40
0.869140625
 40
0.87109375
 40
0.8720703125
 40
0.873046875
 40
0.8740234375
 40
0.8745117188
 40
0.8747558594
 40
0.875
 40
0.8752441406
 40
0.8754882812
 40
0.8759765625
 40
0.876953125
 40
0.8779296875
 40
0.87890625
 40
0.880859375
 40
0.8828125
 40
0.88671875
 40
0.890625
 40
0.89453125
 40
0.8984375
 40
0.90625
 40
0.9140625
 40
0.91796875
 40
0.921875
 40
0.92578125
 40
0.9296875
 40
0.931640625
 40
0.93359375
 40
0.9345703125
 40
0.935546875
 40
0.9365234375
 40
0.9370117188
 40
0.9372558594
 40
0.9375
 40
0.9377441406
 40
0.9379882812
 40
0.9384765625
 40
0.939453125
 40
0.9404296875
 40
0.94140625
 40
0.943359375
 40
0.9453125
 40
0.94921875
 40
0.953125
 40
0.95703125
 40
0.9609375
 40
0.96875
 40
0.9765625
 40
0.984375
 40
1.0
 40
1.0
 40
1.0
 40
1.0
 10
11.9563478339
 20
9.0530671952
 30
0.0
 10
11.9563848026
 20
9.0516957843
 30
0.0
 10
11.9564587401
 20
9.0489529626
 30
0.0
 10
11.9565696463
 20
9.0448387301
 30
0.0
 10
11.9566805525
 20
9.0407244976
 30
0.0
 10
11.9567914587
 20
9.036610265
 30
0.0
 10
11.9568838805
 20
9.0331817379
 30
0.0
 10
11.956957818
 20
9.0304389162
 30
0.0
 10
11.9570132711
 20
9.0283817999
 30
0.0
 10
11.957059482
 20
9.0266675363
 30
0.0
 10
11.9570964507
 20
9.0252961255
 30
0.0
 10
11.9571241772
 20
9.0242675672
 30
0.0
 10
11.9571519042
 20
9.0232390098
 30
0.0
 10
11.9571750082
 20
9.0223818757
 30
0.0
 10
11.9571934954
 20
9.0216961751
 30
0.0
 10
11.957205041
 20
9.021267597
 30
0.0
 10
11.9572142979
 20
9.0209247693
 30
0.0
 10
11.9572211846
 20
9.0206675533
 30
0.0
 10
11.9572271014
 20
9.0204535097
 30
0.0
 10
11.9572308942
 20
9.0203030843
 30
0.0
 10
11.9572336064
 20
9.0202180558
 30
0.0
 10
11.9572341056
 20
9.0201516677
 30
0.0
 10
11.957240472
 20
9.0200952824
 30
0.0
 10
11.957246914
 20
9.0200166129
 30
0.0
 10
11.957259141
 20
9.0198805669
 30
0.0
 10
11.9572761097
 20
9.0196853656
 30
0.0
 10
11.9572966854
 20
9.0194514879
 30
0.0
 10
11.9573240453
 20
9.0191395238
 30
0.0
 10
11.9573582706
 20
9.0187496122
 30
0.0
 10
11.9574130168
 20
9.0181257294
 30
0.0
 10
11.9574814545
 20
9.0173458841
 30
0.0
 10
11.9575635776
 20
9.0164100663
 30
0.0
 10
11.9576457013
 20
9.0154742494
 30
0.0
 10
11.9577551993
 20
9.0142264932
 30
0.0
 10
11.9578920719
 20
9.0126667981
 30
0.0
 10
11.958056319
 20
9.0107951639
 30
0.0
 10
11.9582753152
 20
9.0082996517
 30
0.0
 10
11.9585490603
 20
9.0051802614
 30
0.0
 10
11.9588228055
 20
9.002060871
 30
0.0
 10
11.9590418017
 20
8.9995653588
 30
0.0
 10
11.9592060488
 20
8.9976937246
 30
0.0
 10
11.9593429213
 20
8.9961340294
 30
0.0
 10
11.9594524195
 20
8.9948862734
 30
0.0
 10
11.9595345429
 20
8.993950456
 30
0.0
 10
11.9596166669
 20
8.99301464
 30
0.0
 10
11.9596851019
 20
8.9922347892
 30
0.0
 10
11.9597398536
 20
8.9916109177
 30
0.0
 10
11.959774065
 20
8.991220977
 30
0.0
 10
11.9598014533
 20
8.9909090727
 30
0.0
 10
11.9598219419
 20
8.9906750125
 30
0.0
 10
11.9598391833
 20
8.990480382
 30
0.0
 10
11.9598509234
 20
8.9903433171
 30
0.0
 10
11.9598581456
 20
8.9902662802
 30
0.0
 10
11.9598621156
 20
8.99020488
 30
0.0
 10
11.9598716153
 20
8.9901573272
 30
0.0
 10
11.9598823528
 20
8.9900890934
 30
0.0
 10
11.9599020422
 20
8.9899719346
 30
0.0
 10
11.9599296999
 20
8.9898033884
 30
0.0
 10
11.9599630904
 20
8.9896016366
 30
0.0
 10
11.9600075407
 20
8.9893324582
 30
0.0
 10
11.9600631276
 20
8.9889960455
 30
0.0
 10
11.9601520533
 20
8.9884577515
 30
0.0
 10
11.960263215
 20
8.9877848955
 30
0.0
 10
11.9603966071
 20
8.9869774634
 30
0.0
 10
11.9605299997
 20
8.9861700326
 30
0.0
 10
11.9607078563
 20
8.9850934578
 30
0.0
 10
11.9609301772
 20
8.9837477394
 30
0.0
 10
11.9611969622
 20
8.9821328772
 30
0.0
 10
11.9615526755
 20
8.9799797277
 30
0.0
 10
11.9619973172
 20
8.9772882908
 30
0.0
 10
11.9624419588
 20
8.974596854
 30
0.0
 10
11.9627976722
 20
8.9724437044
 30
0.0
 10
11.9630644571
 20
8.9708288423
 30
0.0
 10
11.963286778
 20
8.9694831239
 30
0.0
 10
11.9634646346
 20
8.9684065491
 30
0.0
 10
11.9635980272
 20
8.9675991181
 30
0.0
 10
11.9637091875
 20
8.9669262586
 30
0.0
 10
11.963798116
 20
8.9663879718
 30
0.0
 10
11.9638648117
 20
8.9659842546
 30
0.0
 10
11.9639315101
 20
8.9655805454
 30
0.0
 10
11.9639870837
 20
8.965244096
 30
0.0
 10
11.9640315613
 20
8.9649749926
 30
0.0
 10
11.9640648683
 20
8.9647730118
 30
0.0
 10
11.9640927869
 20
8.9646051821
 30
0.0
 10
11.9641120106
 20
8.9644867443
 30
0.0
 10
11.9641234942
 20
8.9644205598
 30
0.0
 10
11.9641307024
 20
8.9643667122
 30
0.0
 10
11.9641432792
 20
8.9643289541
 30
0.0
 10
11.9641581757
 20
8.9642729977
 30
0.0
 10
11.964185117
 20
8.9641776889
 30
0.0
 10
11.9642231485
 20
8.9640401665
 30
0.0
 10
11.9642689815
 20
8.9638757246
 30
0.0
 10
11.9643300239
 20
8.9636562645
 30
0.0
 10
11.9644063504
 20
8.9633820094
 30
0.0
 10
11.9644979321
 20
8.9630528732
 30
0.0
 10
11.9645895166
 20
8.9627237451
 30
0.0
 10
11.9647116282
 20
8.9622849048
 30
0.0
 10
11.9648642681
 20
8.9617363554
 30
0.0
 10
11.9650474358
 20
8.9610780957
 30
0.0
 10
11.9652916594
 20
8.9602004163
 30
0.0
 10
11.9655969389
 20
8.9591033169
 30
0.0
 10
11.9659632744
 20
8.9577867977
 30
0.0
 10
11.9664517217
 20
8.9560314387
 30
0.0
 10
11.9669401689
 20
8.9542760798
 30
0.0
 10
11.9674286162
 20
8.9525207208
 30
0.0
 10
11.9677949517
 20
8.9512042016
 30
0.0
 10
11.9681612871
 20
8.9498876824
 30
0.0
 10
11.9685276226
 20
8.9485711632
 30
0.0
 10
11.9688329021
 20
8.9474740638
 30
0.0
 10
11.9690771258
 20
8.9465963844
 30
0.0
 10
11.9692602935
 20
8.9459381248
 30
0.0
 10
11.9694129332
 20
8.945389575
 30
0.0
 10
11.9695350451
 20
8.9449507354
 30
0.0
 10
11.9696266289
 20
8.9446216054
 30
0.0
 10
11.9697182129
 20
8.9442924764
 30
0.0
 10
11.9697945323
 20
8.944018199
 30
0.0
 10
11.9698555892
 20
8.9437987843
 30
0.0
 10
11.9698937467
 20
8.9436616339
 30
0.0
 10
11.9699242796
 20
8.9435519506
 30
0.0
 10
11.9699471606
 20
8.9434695867
 30
0.0
 10
11.9699662875
 20
8.9434012726
 30
0.0
 10
11.9699795596
 20
8.94335282
 30
0.0
 10
11.969987326
 20
8.9433261208
 30
0.0
 10
11.9699926373
 20
8.9433033132
 30
0.0
 10
11.9699999112
 20
8.9432911442
 30
0.0
 10
11.9700089251
 20
8.943271208
 30
0.0
 10
11.9700250185
 20
8.9432380486
 30
0.0
 10
11.9700478423
 20
8.9431897742
 30
0.0
 10
11.9700753023
 20
8.9431322317
 30
0.0
 10
11.9701118906
 20
8.9430553733
 30
0.0
 10
11.9701576345
 20
8.9429593465
 30
0.0
 10
11.97023082
 20
8.9428056779
 30
0.0
 10
11.9703223035
 20
8.9426136009
 30
0.0
 10
11.970432083
 20
8.9423831047
 30
0.0
 10
11.9705418627
 20
8.9421526096
 30
0.0
 10
11.9706882356
 20
8.9418452824
 30
0.0
 10
11.9708712017
 20
8.9414611235
 30
0.0
 10
11.971090761
 20
8.9410001328
 30
0.0
 10
11.9713835068
 20
8.9403854785
 30
0.0
 10
11.971749439
 20
8.9396171607
 30
0.0
 10
11.9721885577
 20
8.9386951793
 30
0.0
 10
11.9726276763
 20
8.9377731979
 30
0.0
 10
11.973066795
 20
8.9368512165
 30
0.0
 10
11.9735059137
 20
8.9359292351
 30
0.0
 10
11.9739450323
 20
8.9350072537
 30
0.0
 10
11.974384151
 20
8.9340852723
 30
0.0
 10
11.9748232696
 20
8.9331632908
 30
0.0
 10
11.9752623883
 20
8.9322413094
 30
0.0
 10
11.9756283205
 20
8.9314729916
 30
0.0
 10
11.9759210663
 20
8.9308583373
 30
0.0
 10
11.9761406256
 20
8.9303973466
 30
0.0
 10
11.9763235917
 20
8.9300131877
 30
0.0
 10
11.9764699646
 20
8.9297058606
 30
0.0
 10
11.9765797442
 20
8.929475365
 30
0.0
 10
11.976689524
 20
8.9292448705
 30
0.0
 10
11.9767810067
 20
8.9290527885
 30
0.0
 10
11.9768541939
 20
8.9288991301
 30
0.0
 10
11.9768999334
 20
8.9288030771
 30
0.0
 10
11.9769365308
 20
8.9287262726
 30
0.0
 10
11.976963963
 20
8.9286685655
 30
0.0
 10
11.9769868736
 20
8.9286208061
 30
0.0
 10
11.977002812
 20
8.9285867273
 30
0.0
 10
11.9770120742
 20
8.9285682642
 30
0.0
 10
11.9770185857
 20
8.9285515702
 30
0.0
 10
11.9770267607
 20
8.9285457577
 30
0.0
 10
11.9770370805
 20
8.9285342121
 30
0.0
 10
11.9770554104
 20
8.9285157757
 30
0.0
 10
11.9770814548
 20
8.9284885134
 30
0.0
 10
11.9771127684
 20
8.9284561943
 30
0.0
 10
11.9771544989
 20
8.9284129641
 30
0.0
 10
11.9772066692
 20
8.9283589736
 30
0.0
 10
11.9772901376
 20
8.9282725624
 30
0.0
 10
11.9773944745
 20
8.9281645575
 30
0.0
 10
11.9775196782
 20
8.9280349477
 30
0.0
 10
11.977644882
 20
8.9279053389
 30
0.0
 10
11.9778118205
 20
8.9277325268
 30
0.0
 10
11.9780204935
 20
8.9275165119
 30
0.0
 10
11.9782709012
 20
8.9272572939
 30
0.0
 10
11.978604778
 20
8.9269116699
 30
0.0
 10
11.9790221241
 20
8.92647964
 30
0.0
 10
11.9795229394
 20
8.925961204
 30
0.0
 10
11.9800237547
 20
8.925442768
 30
0.0
 10
11.98052457
 20
8.9249243321
 30
0.0
 10
11.9810253853
 20
8.9244058961
 30
0.0
 10
11.9815262006
 20
8.9238874601
 30
0.0
 10
11.9820270158
 20
8.9233690242
 30
0.0
 10
11.9825278311
 20
8.9228505882
 30
0.0
 10
11.9830286464
 20
8.9223321523
 30
0.0
 10
11.9834459925
 20
8.9219001223
 30
0.0
 10
11.9837798694
 20
8.9215544983
 30
0.0
 10
11.984030277
 20
8.9212952803
 30
0.0
 10
11.98423895
 20
8.9210792653
 30
0.0
 10
11.9844058885
 20
8.9209064534
 30
0.0
 10
11.9845310923
 20
8.9207768442
 30
0.0
 10
11.9846562962
 20
8.9206472361
 30
0.0
 10
11.9847606324
 20
8.9205392259
 30
0.0
 10
11.9848441022
 20
8.9204528254
 30
0.0
 10
11.9848962691
 20
8.9203988077
 30
0.0
 10
11.9849380066
 20
8.9203556333
 30
0.0
 10
11.9849692987
 20
8.9203231437
 30
0.0
 10
11.9849954104
 20
8.920296415
 30
0.0
 10
11.9850136201
 20
8.9202770261
 30
0.0
 10
11.9850241325
 20
8.9202670066
 30
0.0
 10
11.9850317161
 20
8.9202565061
 30
0.0
 10
11.9850404489
 20
8.9202574195
 30
0.0
 10
11.9850516918
 20
8.920254656
 30
0.0
 10
11.9850715537
 20
8.9202516748
 30
0.0
 10
11.9850998301
 20
8.9202464463
 30
0.0
 10
11.9851338037
 20
8.9202405871
 30
0.0
 10
11.9851790871
 20
8.9202326299
 30
0.0
 10
11.9852356965
 20
8.9202227331
 30
0.0
 10
11.9853262686
 20
8.9202068704
 30
0.0
 10
11.9854394847
 20
8.9201870515
 30
0.0
 10
11.9855753436
 20
8.9201632648
 30
0.0
 10
11.9857112026
 20
8.9201394791
 30
0.0
 10
11.985892348
 20
8.9201077646
 30
0.0
 10
11.9861187796
 20
8.9200681215
 30
0.0
 10
11.9863904977
 20
8.9200205498
 30
0.0
 10
11.9867527883
 20
8.9199571208
 30
0.0
 10
11.9872056517
 20
8.9198778346
 30
0.0
 10
11.9877490877
 20
8.9197826911
 30
0.0
 10
11.9882925237
 20
8.9196875477
 30
0.0
 10
11.9888359598
 20
8.9195924042
 30
0.0
 10
11.9893793958
 20
8.9194972608
 30
0.0
 10
11.9899228318
 20
8.9194021173
 30
0.0
 10
11.9904662678
 20
8.9193069739
 30
0.0
 10
11.9910097039
 20
8.9192118304
 30
0.0
 10
11.9915531399
 20
8.919116687
 30
0.0
 10
11.9920060033
 20
8.9190374007
 30
0.0
 10
11.9923682939
 20
8.9189739718
 30
0.0
 10
11.992640012
 20
8.9189264001
 30
0.0
 10
11.9928664436
 20
8.9188867569
 30
0.0
 10
11.993047589
 20
8.9188550425
 30
0.0
 10
11.993183448
 20
8.9188312564
 30
0.0
 10
11.993319307
 20
8.9188074714
 30
0.0
 10
11.9934325227
 20
8.9187876471
 30
0.0
 10
11.9935230958
 20
8.9187717955
 30
0.0
 10
11.9935797026
 20
8.9187618704
 30
0.0
 10
11.9936249911
 20
8.9187539712
 30
0.0
 10
11.9936589493
 20
8.9187479347
 30
0.0
 10
11.9936872739
 20
8.9187432611
 30
0.0
 10
11.9937070497
 20
8.9187392893
 30
0.0
 10
11.9937184305
 20
8.9187381131
 30
0.0
 10
11.9937267398
 20
8.9187341507
 30
0.0
 10
11.9937359142
 20
8.9187419628
 30
0.0
 10
11.993747845
 20
8.9187482719
 30
0.0
 10
11.9937688646
 20
8.9187612264
 30
0.0
 10
11.9937988189
 20
8.9187787323
 30
0.0
 10
11.9938347956
 20
8.9188001676
 30
0.0
 10
11.9938827535
 20
8.9188285985
 30
0.0
 10
11.9939427047
 20
8.9188641883
 30
0.0
 10
11.9940386245
 20
8.9189211034
 30
0.0
 10
11.994158525
 20
8.918992257
 30
0.0
 10
11.9943024052
 20
8.9190776372
 30
0.0
 10
11.9944462855
 20
8.9191630185
 30
0.0
 10
11.9946381259
 20
8.9192768599
 30
0.0
 10
11.9948779264
 20
8.9194191617
 30
0.0
 10
11.9951656871
 20
8.9195899238
 30
0.0
 10
11.9955493679
 20
8.9198176067
 30
0.0
 10
11.9960289689
 20
8.9201022103
 30
0.0
 10
11.9966044901
 20
8.9204437346
 30
0.0
 10
11.9971800113
 20
8.9207852588
 30
0.0
 10
11.9977555325
 20
8.9211267831
 30
0.0
 10
11.9983310538
 20
8.9214683074
 30
0.0
 10
11.998906575
 20
8.9218098317
 30
0.0
 10
11.9994820962
 20
8.922151356
 30
0.0
 10
12.0000576174
 20
8.9224928803
 30
0.0
 10
12.0006331387
 20
8.9228344045
 30
0.0
 10
12.0011127397
 20
8.9231190081
 30
0.0
 10
12.0014964205
 20
8.923346691
 30
0.0
 10
12.0017841811
 20
8.9235174531
 30
0.0
 10
12.0020239816
 20
8.9236597549
 30
0.0
 10
12.002215822
 20
8.9237735964
 30
0.0
 10
12.0023597023
 20
8.9238589772
 30
0.0
 10
12.0025035826
 20
8.9239443591
 30
0.0
 10
12.0026234829
 20
8.9240155074
 30
0.0
 10
12.002719403
 20
8.9240724335
 30
0.0
 10
12.0027793535
 20
8.9241079954
 30
0.0
 10
12.0028273129
 20
8.9241364835
 30
0.0
 10
12.002863285
 20
8.9241577439
 30
0.0
 10
12.0028932536
 20
8.9241757973
 30
0.0
 10
12.0029142477
 20
8.9241877744
 30
0.0
 10
12.0029262193
 20
8.9241956494
 30
0.0
 10
12.0029352683
 20
8.9241986514
 30
0.0
 10
12.0029440486
 20
8.9242127551
 30
0.0
 10
12.0029558494
 20
8.9242276876
 30
0.0
 10
12.0029764571
 20
8.9242556237
 30
0.0
 10
12.0030059195
 20
8.9242945891
 30
0.0
 10
12.0030412646
 20
8.9243417514
 30
0.0
 10
12.0030883948
 20
8.9244044934
 30
0.0
 10
12.0031473064
 20
8.9244829692
 30
0.0
 10
12.0032415656
 20
8.9246085035
 30
0.0
 10
12.0033593894
 20
8.9247654306
 30
0.0
 10
12.003500778
 20
8.9249537392
 30
0.0
 10
12.0036421666
 20
8.9251420488
 30
0.0
 10
12.0038306848
 20
8.925393128
 30
0.0
 10
12.0040663325
 20
8.925706977
 30
0.0
 10
12.0043491097
 20
8.9260835958
 30
0.0
 10
12.004726146
 20
8.9265857543
 30
0.0
 10
12.0051974414
 20
8.9272134523
 30
0.0
 10
12.0057629959
 20
8.92796669
 30
0.0
 10
12.0063285503
 20
8.9287199277
 30
0.0
 10
12.0068941048
 20
8.9294731653
 30
0.0
 10
12.0076481774
 20
8.9304774822
 30
0.0
 10
12.00840225
 20
8.9314817991
 30
0.0
 10
12.0091563226
 20
8.932486116
 30
0.0
 10
12.0097218771
 20
8.9332393536
 30
0.0
 10
12.0101931725
 20
8.9338670517
 30
0.0
 10
12.0105702088
 20
8.9343692101
 30
0.0
 10
12.010852986
 20
8.934745829
 30
0.0
 10
12.0110886337
 20
8.935059678
 30
0.0
 10
12.0112771519
 20
8.9353107573
 30
0.0
 10
12.0114185405
 20
8.9354990665
 30
0.0
 10
12.0115599291
 20
8.9356873767
 30
0.0
 10
12.011677753
 20
8.9358442987
 30
0.0
 10
12.0117720118
 20
8.9359698433
 30
0.0
 10
12.0118309245
 20
8.9360482929
 30
0.0
 10
12.0118780526
 20
8.9361110887
 30
0.0
 10
12.0119134042
 20
8.9361580866
 30
0.0
 10
12.0119428462
 20
8.9361975664
 30
0.0
 10
12.0119634902
 20
8.9362245844
 30
0.0
 10
12.0119752328
 20
8.9362409879
 30
0.0
 10
12.0119841918
 20
8.9362505731
 30
0.0
 10
12.0119925698
 20
8.9362705456
 30
0.0
 10
12.0120039432
 20
8.9362935523
 30
0.0
 10
12.0120237522
 20
8.9363355023
 30
0.0
 10
12.0120521001
 20
8.9363945482
 30
0.0
 10
12.0120860964
 20
8.9364657811
 30
0.0
 10
12.0121314322
 20
8.9365606264
 30
0.0
 10
12.0121880995
 20
8.9366792281
 30
0.0
 10
12.0122787686
 20
8.9368689656
 30
0.0
 10
12.0123921044
 20
8.9371061462
 30
0.0
 10
12.0125281076
 20
8.9373907592
 30
0.0
 10
12.0126641108
 20
8.9376753731
 30
0.0
 10
12.0128454483
 20
8.9380548581
 30
0.0
 10
12.0130721203
 20
8.9385292143
 30
0.0
 10
12.0133441266
 20
8.9390984418
 30
0.0
 10
12.0137068017
 20
8.9398574119
 30
0.0
 10
12.0141601456
 20
8.9408061244
 30
0.0
 10
12.0147041583
 20
8.9419445794
 30
0.0
 10
12.015248171
 20
8.9430830344
 30
0.0
 10
12.0157921836
 20
8.9442214894
 30
0.0
 10
12.0165175339
 20
8.9457394294
 30
0.0
 10
12.0172428841
 20
8.9472573694
 30
0.0
 10
12.0179682343
 20
8.9487753095
 30
0.0
 10
12.018512247
 20
8.9499137645
 30
0.0
 10
12.0189655909
 20
8.950862477
 30
0.0
 10
12.019328266
 20
8.951621447
 30
0.0
 10
12.0196002723
 20
8.9521906745
 30
0.0
 10
12.0198269443
 20
8.9526650308
 30
0.0
 10
12.0200082818
 20
8.9530445157
 30
0.0
 10
12.0201442849
 20
8.9533291299
 30
0.0
 10
12.0202802883
 20
8.9536137417
 30
0.0
 10
12.0203936236
 20
8.953850926
 30
0.0
 10
12.0204842939
 20
8.954040656
 30
0.0
 10
12.0205409579
 20
8.9541592768
 30
0.0
 10
12.0205863004
 20
8.9542540829
 30
0.0
 10
12.0206202766
 20
8.9543254353
 30
0.0
 10
12.0206486875
 20
8.9543841074
 30
0.0
 10
12.0206711977
 20
8.954432813
 30
0.0
 10
12.0206886776
 20
8.9544645112
 30
0.0
 10
12.0207038778
 20
8.9545146493
 30
0.0
 10
12.020724941
 20
8.9545750589
 30
0.0
 10
12.0207509969
 20
8.9546527808
 30
0.0
 10
12.0207823808
 20
8.9547451012
 30
0.0
 10
12.0208241852
 20
8.9548685254
 30
0.0
 10
12.0208764547
 20
8.9550226925
 30
0.0
 10
12.0209600781
 20
8.9552694231
 30
0.0
 10
12.02106461
 20
8.9555778147
 30
0.0
 10
12.0211900472
 20
8.9559478939
 30
0.0
 10
12.0213154847
 20
8.9563179706
 30
0.0
 10
12.0214827345
 20
8.9568114071
 30
0.0
 10
12.0216917969
 20
8.9574282024
 30
0.0
 10
12.0219426717
 20
8.958168357
 30
0.0
 10
12.0222771714
 20
8.9591552296
 30
0.0
 10
12.0226952961
 20
8.9603888204
 30
0.0
 10
12.0231970457
 20
8.9618691294
 30
0.0
 10
12.0238660451
 20
8.9638428747
 30
0.0
 10
12.0247022945
 20
8.9663100563
 30
0.0
 10
12.0255385438
 20
8.9687772379
 30
0.0
 10
12.0262075433
 20
8.9707509832
 30
0.0
 10
12.0267092929
 20
8.9722312921
 30
0.0
 10
12.0271274175
 20
8.9734648829
 30
0.0
 10
12.0274619173
 20
8.9744517556
 30
0.0
 10
12.0277127921
 20
8.9751919101
 30
0.0
 10
12.0279218545
 20
8.9758087052
 30
0.0
 10
12.0280891042
 20
8.9763021422
 30
0.0
 10
12.0282145419
 20
8.9766722176
 30
0.0
 10
12.0283399782
 20
8.9770423016
 30
0.0
 10
12.0284445129
 20
8.9773506782
 30
0.0
 10
12.0285281305
 20
8.9775974395
 30
0.0
 10
12.0285908716
 20
8.9777823464
 30
0.0
 10
12.0286430673
 20
8.9779369572
 30
0.0
 10
12.028679778
 20
8.978044161
 30
0.0
 10
12.0287004842
 20
8.9781070189
 30
0.0
 10
12.0287167782
 20
8.978149659
 30
0.0
 10
12.0287301506
 20
8.9782095132
 30
0.0
 10
12.0287489995
 20
8.9782833143
 30
0.0
 10
12.0287815103
 20
8.9784152638
 30
0.0
 10
12.0288282026
 20
8.9786023005
 30
0.0
 10
12.0288841271
 20
8.9788273706
 30
0.0
 10
12.0289587301
 20
8.9791272454
 30
0.0
 10
12.0290519712
 20
8.979502164
 30
0.0
 10
12.029163866
 20
8.9799520341
 30
0.0
 10
12.0292757593
 20
8.9804019127
 30
0.0
 10
12.0294249509
 20
8.981001748
 30
0.0
 10
12.0296114402
 20
8.9817515431
 30
0.0
 10
12.0298352274
 20
8.9826512967
 30
0.0
 10
12.0301336104
 20
8.9838509684
 30
0.0
 10
12.0305065891
 20
8.985350558
 30
0.0
 10
12.0309541636
 20
8.9871500655
 30
0.0
 10
12.0315509296
 20
8.9895494088
 30
0.0
 10
12.032296887
 20
8.9925485879
 30
0.0
 10
12.0330428444
 20
8.9955477671
 30
0.0
 10
12.0336396104
 20
8.9979471104
 30
0.0
 10
12.0340871848
 20
8.9997466179
 30
0.0
 10
12.0344601636
 20
9.0012462075
 30
0.0
 10
12.0347585465
 20
9.0024458792
 30
0.0
 10
12.0349823338
 20
9.0033456327
 30
0.0
 10
12.0352061207
 20
9.0042453872
 30
0.0
 10
12.0353926112
 20
9.0049951796
 30
0.0
 10
12.0355418004
 20
9.0055950203
 30
0.0
 10
12.0356350508
 20
9.0059699054
 30
0.0
 10
12.0357096348
 20
9.0062698486
 30
0.0
 10
12.0357656175
 20
9.0064947096
 30
0.0
 10
12.0358121277
 20
9.0066824006
 30
0.0
 10
12.0358449635
 20
9.0068131822
 30
0.0
 10
12.0358632917
 20
9.0068888546
 30
0.0
 10
12.0358782636
 20
9.0069429607
 30
0.0
 10
12.0358885502
 20
9.0070071899
 30
0.0
 10
12.0359038999
 20
9.0070892978
 30
0.0
 10
12.0359300005
 20
9.0072346317
 30
0.0
 10
12.0359676851
 20
9.0074413916
 30
0.0
 10
12.0360127363
 20
9.0076898716
 30
0.0
 10
12.0360728641
 20
9.0080210496
 30
0.0
 10
12.0361480034
 20
9.0084350662
 30
0.0
 10
12.0362682377
 20
9.0090974681
 30
0.0
 10
12.0364185266
 20
9.009925479
 30
0.0
 10
12.036598875
 20
9.0109190884
 30
0.0
 10
12.036779223
 20
9.0119126987
 30
0.0
 10
12.0370196871
 20
9.0132375122
 30
0.0
 10
12.0373202672
 20
9.0148935292
 30
0.0
 10
12.0376809634
 20
9.0168807495
 30
0.0
 10
12.0381618915
 20
9.0195303766
 30
0.0
 10
12.0387630518
 20
9.0228424105
 30
0.0
 10
12.039364212
 20
9.0261544444
 30
0.0
 10
12.0398451402
 20
9.0288040715
 30
0.0
 10
12.0402058363
 20
9.0307912918
 30
0.0
 10
12.0405064164
 20
9.0324473088
 30
0.0
 10
12.0407468805
 20
9.0337721222
 30
0.0
 10
12.0409272283
 20
9.0347657328
 30
0.0
 10
12.0411075775
 20
9.0357593413
 30
0.0
 10
12.0412578642
 20
9.0365873548
 30
0.0
 10
12.041378103
 20
9.0372497513
 30
0.0
 10
12.0414532309
 20
9.0376637818
 30
0.0
 10
12.041513382
 20
9.0379949313
 30
0.0
 10
12.0415583618
 20
9.0382434983
 30
0.0
 10
12.0415962699
 20
9.038449986
 30
0.0
 10
12.0416256432
 20
9.0386166371
 30
0.0
 10
12.0416502779
 20
9.0387376337
 30
0.0
 10
12.0416649701
 20
9.0388738668
 30
0.0
 10
12.0416880328
 20
9.0390501886
 30
0.0
 10
12.0417156695
 20
9.039272417
 30
0.0
 10
12.0417493436
 20
9.0395383094
 30
0.0
 10
12.0417940643
 20
9.0398931056
 30
0.0
 10
12.0418500262
 20
9.0403365074
 30
0.0
 10
12.0419395311
 20
9.0410460025
 30
0.0
 10
12.0420514239
 20
9.0419328535
 30
0.0
 10
12.0421856902
 20
9.0429970824
 30
0.0
 10
12.0423199579
 20
9.0440613092
 30
0.0
 10
12.042498981
 20
9.045480279
 30
0.0
 10
12.04272276
 20
9.047253991
 30
0.0
 10
12.0429912948
 20
9.0493824455
 30
0.0
 10
12.0433493412
 20
9.0522203848
 30
0.0
 10
12.0437968992
 20
9.055767809
 30
0.0
 10
12.0442444573
 20
9.0593152331
 30
0.0
 10
12.0446025036
 20
9.0621531724
 30
0.0
 10
12.0448710386
 20
9.0642816268
 30
0.0
 10
12.0451395726
 20
9.0664100818
 30
0.0
 10
12.0453633542
 20
9.0681837923
 30
0.0
 10
12.0455423721
 20
9.0696027651
 30
0.0
 10
12.0456542751
 20
9.0704896132
 30
0.0
 10
12.045743759
 20
9.0711991143
 30
0.0
 10
12.0458109772
 20
9.0717311783
 30
0.0
 10
12.0458666577
 20
9.0721747616
 30
0.0
 10
12.0459062908
 20
9.072484884
 30
0.0
 10
12.0459279127
 20
9.0726626994
 30
0.0
 10
12.0459470183
 20
9.0727943633
 30
0.0
 10
12.0459550802
 20
9.0729325163
 30
0.0
 10
12.0459696816
 20
9.0731144568
 30
0.0
 10
12.0459934393
 20
9.0734339073
 30
0.0
 10
12.0460283171
 20
9.0738897137
 30
0.0
 10
12.0460697689
 20
9.0744369175
 30
0.0
 10
12.0461251783
 20
9.0751664401
 30
0.0
 10
12.0461943919
 20
9.0760783715
 30
0.0
 10
12.0463051606
 20
9.077537446
 30
0.0
 10
12.0464436122
 20
9.0793612946
 30
0.0
 10
12.0466097581
 20
9.0815499106
 30
0.0
 10
12.046775903
 20
9.0837385272
 30
0.0
 10
12.0469974298
 20
9.0866566825
 30
0.0
 10
12.0472743382
 20
9.0903043766
 30
0.0
 10
12.0475512467
 20
9.0939520707
 30
0.0
 10
12.0477727734
 20
9.096870226
 30
0.0
 10
12.0479389187
 20
9.0990588425
 30
0.0
 10
12.0481050628
 20
9.1012474591
 30
0.0
 10
12.0482435198
 20
9.1030713057
 30
0.0
 10
12.0483542776
 20
9.1045303842
 30
0.0
 10
12.048423519
 20
9.1054423057
 30
0.0
 10
12.0484788713
 20
9.1061718486
 30
0.0
 10
12.0485204973
 20
9.1067189905
 30
0.0
 10
12.0485548302
 20
9.1071749903
 30
0.0
 10
12.0485795606
 20
9.1074940956
 30
0.0
 10
12.0485926035
 20
9.1076765892
 30
0.0
 10
12.0486054528
 20
9.1078130433
 30
0.0
 10
12.0486065778
 20
9.107951088
 30
0.0
 10
12.0486121675
 20
9.1081345928
 30
0.0
 10
12.0486200439
 20
9.1084559848
 30
0.0
 10
12.0486322921
 20
9.108914981
 30
0.0
 10
12.0486465636
 20
9.1094658343
 30
0.0
 10
12.0486657412
 20
9.1102002852
 30
0.0
 10
12.0486896622
 20
9.1111183557
 30
0.0
 10
12.0487279642
 20
9.1125872647
 30
0.0
 10
12.048775832
 20
9.1144234022
 30
0.0
 10
12.0488332775
 20
9.1166267666
 30
0.0
 10
12.048890722
 20
9.1188301312
 30
0.0
 10
12.0489673149
 20
9.1217679506
 30
0.0
 10
12.049063056
 20
9.1254402249
 30
0.0
 10
12.0491779453
 20
9.129846954
 30
0.0
 10
12.049331131
 20
9.1357225929
 30
0.0
 10
12.0494460203
 20
9.140129322
 30
0.0
 10
12.0495226132
 20
9.1430671414
 30
0.0
  0
ELLIPSE
  5
3C6
100
AcDbEntity
  8
0
100
AcDbEllipse
 62
7
  6
CONTINUOUS
 10
10.7580207697
 20
8.0025101047
 30
0.0
 11
0.1272560978
 21
-0.044554499
 31
0.0
 40
0.8848236639
 41
0.0
 42
6.2831853072
  0
ELLIPSE
  5
3C7
100
AcDbEntity
  8
0
100
AcDbEllipse
 62
7
  6
CONTINUOUS
 10
10.3544656691
 20
8.3618092614
 30
0.0
 11
0.0968477605
 21
-0.0807546664
 31
0.0
 40
0.9309729594
 41
0.0
 42
6.2831853072
  0
ELLIPSE
  5
3C8
100
AcDbEntity
  8
0
100
AcDbEllipse
 62
7
  6
CONTINUOUS
 10
11.1622501859
 20
8.3057892149
 30
0.0
 11
0.0968477605
 21
-0.0807546664
 31
0.0
 40
0.9309729594
 41
0.0
 42
6.2831853072
  0
ELLIPSE
  5
3C9
100
AcDbEntity
  8
0
100
AcDbEllipse
 62
7
  6
CONTINUOUS
 10
10.7578749851
 20
8.6624414843
 30
0.0
 11
-0.0419578553
 21
0.125903168
 31
0.0
 40
0.8992307804
 41
0.0
 42
6.2831853072
  0
ENDSEC
  0
SECTION
  2
OBJECTS
  0
DICTIONARY
  5
C
100
AcDbDictionary
280
0
281
1
  3
ACAD_GROUP
350
D
  3
ACAD_MLINESTYLE
350
17
  3
ACAD_LAYOUT
350
1A
  3
ACAD_PLOTSETTINGS
350
19
  3
ACAD_PLOTSTYLENAME
350
E
  3
ACAD_IMAGE_DICT
350
       3CB
  3
ACAD_IMAGE_VARS
350
       3CC
  3
ACAD_TABLESTYLE
350
       3CD
  0
IMAGEDEF_REACTOR
  5
3CA
100
AcDbRasterImageDefReactor
 90
2
330
278
  0
DICTIONARY
  5
D
102
{ACAD_REACTORS
330
C
102
}
100
AcDbDictionary
280
0
281
1
  0
ACDBDICTIONARYWDFLT
  5
E
102
{ACAD_REACTORS
330
C
102
}
100
AcDbDictionary
281
1
  3
Normal
350
F
100
AcDbDictionaryWithDefault
340
F
  0
DICTIONARY
  5
3CB
330
C
100
AcDbDictionary
281
1
  3
U8R_assy_2_img_1
350
       3D0
  0
RASTERVARIABLES
  5
3CC
330
C
100
AcDbRasterVariables
 90
0
 70
0
 71
1
 72
5
  0
DICTIONARY
  5
17
102
{ACAD_REACTORS
330
C
102
}
100
AcDbDictionary
280
0
281
1
  3
Standard
350
18
  0
DICTIONARY
  5
3CD
330
C
100
AcDbDictionary
281
1
  3
Standard
350
       3D1
  3
Standard1
350
       3D2
  0
DICTIONARY
  5
19
102
{ACAD_REACTORS
330
C
102
}
100
AcDbDictionary
281
1
  0
DICTIONARY
  5
1A
102
{ACAD_REACTORS
330
C
102
}
100
AcDbDictionary
281
1
  3
Model
350
3CE
  3
Layout1
350
3CF
  0
ACDBPLACEHOLDER
  5
F
102
{ACAD_REACTORS
330
E
102
}
  0
MLINESTYLE
  5
18
102
{ACAD_REACTORS
330
17
102
}
100
AcDbMlineStyle
  2
STANDARD
 70
0
  3

 62
256
 51
90.0
 52
90.0
 71
2
 49
0.5
 62
256
  6
BYLAYER
 49
-0.5
 62
256
  6
BYLAYER
  0
LAYOUT
  5
3CE
102
{ACAD_REACTORS
330
1A
102
}
100
AcDbPlotSettings
  1

  2
none_device
  4
ANSI_C_(22.00_x_17.00_Inches)
  6

 40
0.0
 41
0.0
 42
0.0
 43
0.0
 44
558.8
 45
431.8
 46
0.0
 47
0.0
 48
0.0
 49
0.0
140
0.0
141
0.0
142
1.0
143
1.0
 70
1024
 72
0
 73
0
 74
0
  7

 75
0
147
1.0
148
0.0
149
0.0
100
AcDbLayout
  1
Model
 70
0
 71
0
 10
0.0
 20
0.0
 11
22.0
 21
17.0
 12
0.0
 22
0.0
 32
0.0
 14
0.0
 24
0.0
 34
0.0
 15
0.0
 25
0.0
 35
0.0
146
0.0
 13
0.0
 23
0.0
 33
0.0
 16
1.0
 26
0.0
 36
0.0
 17
0.0
 27
1.0
 37
0.0
 76
0
330
20F
345
0
346
0
  0
LAYOUT
  5
3CF
102
{ACAD_REACTORS
330
1A
102
}
100
AcDbPlotSettings
  1

  2
none_device
  4
ANSI_C_(22.00_x_17.00_Inches)
  6

 40
0.0
 41
0.0
 42
0.0
 43
0.0
 44
558.8
 45
431.8
 46
0.0
 47
0.0
 48
0.0
 49
0.0
140
0.0
141
0.0
142
1.0
143
1.0
 70
0
 72
0
 73
0
 74
0
  7

 75
0
147
1.0
148
0.0
149
0.0
100
AcDbLayout
  1
Layout1
 70
0
 71
1
 10
0.0
 20
0.0
 11
22.0
 21
17.0
 12
0.0
 22
0.0
 32
0.0
 14
0.0
 24
0.0
 34
0.0
 15
0.0
 25
0.0
 35
0.0
146
0.0
 13
0.0
 23
0.0
 33
0.0
 16
1.0
 26
0.0
 36
0.0
 17
0.0
 27
1.0
 37
0.0
 76
0
330
210
345
0
346
0
  0
IMAGEDEF
  5
3D0
102
{ACAD_REACTORS
330
3CB
330
3CA
102
}
100
AcDbRasterImageDef
 90
0
  1
U8R_assy_2_img_1.png
 10
369.0
 20
92.0
 11
0.0066666667
 21
0.0066666667
280
1
281
0
  0
TABLESTYLE
  5
3D1
102
{ACAD_REACTORS
330
3CD
330
27B
102
}
330
3CD
100
AcDbTableStyle
  3
Standard
 70
0
 71
0
 40
0.06
 41
0.06
280
1
281
1
  7
Standard
140
0.18
170
1
 62
0
 63
7
283
0
  7
Standard
140
0.18
170
1
 62
0
 63
7
283
0
  7
Standard
140
0.18
170
1
 62
0
 63
7
283
0
  0
TABLESTYLE
  5
3D2
102
{ACAD_REACTORS
330
3CD
330
27A
102
}
330
3CD
100
AcDbTableStyle
  3
Standard1
 70
1
 71
0
 40
0.06
 41
0.06
280
1
281
1
  7
Standard
140
0.18
170
1
 62
0
 63
7
283
0
  7
Standard
140
0.18
170
1
 62
0
 63
7
283
0
  7
Standard
140
0.18
170
1
 62
0
 63
7
283
0
  0
ENDSEC
  0
EOF
