999
DXF file: U8E_assy_2.dxf
999
Pro/ENGINEER 2014200 by Parametric Technology Corporation
  0
SECTION
  2
HEADER
  9
$ACADVER
  1
AC1021
  9
$DWGCODEPAGE
  3
ANSI_1252
  9
$EXTMAX
 10
22.0
 20
17.0
 30
0.0
  9
$EXTMIN
 10
0.0
 20
0.0
 30
0.0
  9
$LIMMIN
 10
0.0
 20
0.0
  9
$LIMMAX
 10
22.0
 20
17.0
  9
$VIEWCTR
 10
11.0
 20
8.5
  9
$VIEWSIZE
 40
17.0
  9
$CLAYER
  8
0
  9
$LTSCALE
 40
1.21
  9
$CELTYPE
  6
BYLAYER
  9
$DIMSCALE
 40
1.0
  9
$DIMASZ
 40
0.1875
  9
$DIMEXO
 40
0.0625
  9
$DIMDLI
 40
0.836
  9
$DIMEXE
 40
0.125
  9
$DIMCEN
 40
0.198
  9
$DIMLFAC
 40
1.0
  9
$DIMBLK
  1
_FILLED
  9
$DIMTXT
 40
0.1
  9
$DIMTOL
 70
0
  9
$DIMLIM
 70
0
  9
$DIMTFAC
 40
1.0
  9
$DIMGAP
 40
0.09
  9
$DIMDSEP
 70
46
  9
$AUNITS
 70
0
  9
$PDMODE
 70
3
  9
$PDSIZE
 40
0.3125
  9
$HANDSEED
  5
367
  9
$TILEMODE
 70
1
  9
$MEASUREMENT
 70
0
  9
$INSUNITS
 70
1
  0
ENDSEC
  0
SECTION
  2
CLASSES
  0
CLASS
  1
ACDBDICTIONARYWDFLT
  2
AcDbDictionaryWithDefault
  3
AutoCAD 2000
 90
0
 91
1
280
0
281
0
  0
CLASS
  1
ACDBPLACEHOLDER
  2
AcDbPlaceHolder
  3
AutoCAD 2000
 90
0
 91
1
280
0
281
0
  0
CLASS
  1
LAYOUT
  2
AcDbLayout
  3
AutoCAD 2000
 90
0
 91
0
280
0
281
0
  0
CLASS
  1
RASTERVARIABLES
  2
AcDbRasterVariables
  3
ISM
 90
0
 91
1
280
0
281
0
  0
CLASS
  1
IMAGEDEF
  2
AcDbRasterImageDef
  3
ISM
 90
0
 91
1
280
0
281
0
  0
CLASS
  1
IMAGEDEF_REACTOR
  2
AcDbRasterImageDefReactor
  3
ISM
 90
0
 91
1
280
0
281
0
  0
CLASS
  1
IMAGE
  2
AcDbRasterImage
  3
ISM
 90
127
 91
1
280
0
281
1
  0
CLASS
  1
TABLESTYLE
  2
AcDbTableStyle
  3
ObjectDBX Classes
 90
2047
 91
1
280
0
281
0
  0
CLASS
  1
ACAD_TABLE
  2
AcDbTable
  3
ObjectDBX Classes
 90
1025
 91
3
280
0
281
1
  0
ENDSEC
  0
SECTION
  2
TABLES
  0
TABLE
  2
VPORT
  5
8
100
AcDbSymbolTable
 70
2
  0
VPORT
  5
1F4
100
AcDbSymbolTableRecord
100
AcDbViewportTableRecord
  2
*ACTIVE
 70
0
 10
0.0
 20
0.0
 11
1.0
 21
1.0
 12
11.0
 22
8.5
 13
0.0
 23
0.0
 14
1.0
 24
1.0
 15
0.0
 25
0.0
 16
0.0
 26
0.0
 36
1.0
 17
0.0
 27
0.0
 37
0.0
 40
17.0
 41
1.2941176471
 42
50.0
 43
0.0
 44
0.0
 50
0.0
 51
0.0
 71
0
 72
100
 73
1
 74
1
 75
0
 76
0
 77
0
 78
0
  0
ENDTAB
  0
TABLE
  2
LTYPE
  5
5
100
AcDbSymbolTable
 70
6
  0
LTYPE
  5
14
100
AcDbSymbolTableRecord
100
AcDbLinetypeTableRecord
  2
BYBLOCK
 70
0
  3

 72
65
 73
0
 40
0.0
  0
LTYPE
  5
15
100
AcDbSymbolTableRecord
100
AcDbLinetypeTableRecord
  2
BYLAYER
 70
0
  3

 72
65
 73
0
 40
0.0
  0
LTYPE
  5
16
100
AcDbSymbolTableRecord
100
AcDbLinetypeTableRecord
  2
CONTINUOUS
 70
64
  3
Solid line
 72
65
 73
0
 40
0.0
  0
LTYPE
  5
1F5
100
AcDbSymbolTableRecord
100
AcDbLinetypeTableRecord
  2
CENTER
 70
64
  3
____ _ ____ _ ____ _ ____ _ ____ _ ____ _ ____
 72
65
 73
4
 40
0.6
 49
0.375
 74
0
 49
-0.075
 74
0
 49
0.075
 74
0
 49
-0.075
 74
0
  0
LTYPE
  5
1F6
100
AcDbSymbolTableRecord
100
AcDbLinetypeTableRecord
  2
HIDDEN
 70
64
  3
- - - - - - - - - - - - - - - - - - - -
 72
65
 73
2
 40
0.2
 49
0.1
 74
0
 49
-0.1
 74
0
  0
LTYPE
  5
1F7
100
AcDbSymbolTableRecord
100
AcDbLinetypeTableRecord
  2
PHANTOM
 70
64
  3
_____ _ _ _____ _ _ _____ _ _ _____
 72
65
 73
6
 40
0.8
 49
0.45
 74
0
 49
-0.05
 74
0
 49
0.1
 74
0
 49
-0.05
 74
0
 49
0.1
 74
0
 49
-0.05
 74
0
  0
LTYPE
  5
1F8
100
AcDbSymbolTableRecord
100
AcDbLinetypeTableRecord
  2
DOT
 70
64
  3
. . . . . . . . . . . . . . . . . . . .
 72
65
 73
2
 40
0.2
 49
0.1
 74
0
 49
-0.1
 74
0
  0
LTYPE
  5
1F9
100
AcDbSymbolTableRecord
100
AcDbLinetypeTableRecord
  2
DASHED
 70
64
  3
- - - - - - - - - - - - - - - - - - - -
 72
65
 73
2
 40
0.2
 49
0.1
 74
0
 49
-0.1
 74
0
  0
ENDTAB
  0
TABLE
  2
LAYER
  5
2
100
AcDbSymbolTable
 70
36
  0
LAYER
  5
10
100
AcDbSymbolTableRecord
100
AcDbLayerTableRecord
  2
0
 70
0
 62
7
  6
CONTINUOUS
370
-3
390
F
  0
LAYER
  5
1FA
100
AcDbSymbolTableRecord
100
AcDbLayerTableRecord
  2
DEFAULT_1
 70
0
 62
7
  6
CENTER
370
-3
390
F
  0
LAYER
  5
1FB
100
AcDbSymbolTableRecord
100
AcDbLayerTableRecord
  2
DEFAULT_2
 70
0
 62
8
  6
HIDDEN
370
-3
390
F
  0
LAYER
  5
1FC
100
AcDbSymbolTableRecord
100
AcDbLayerTableRecord
  2
DEFAULT_3
 70
0
 62
7
  6
PHANTOM
370
-3
390
F
  0
LAYER
  5
1FD
100
AcDbSymbolTableRecord
100
AcDbLayerTableRecord
  2
01___PRT_ALL_DTM_PLN
 70
0
 62
7
  6
CONTINUOUS
370
-3
390
F
  0
LAYER
  5
1FE
100
AcDbSymbolTableRecord
100
AcDbLayerTableRecord
  2
01___PRT_DEF_DTM_PLN
 70
0
 62
7
  6
CONTINUOUS
370
-3
390
F
  0
LAYER
  5
1FF
100
AcDbSymbolTableRecord
100
AcDbLayerTableRecord
  2
02___PRT_ALL_AXES
 70
0
 62
7
  6
CONTINUOUS
370
-3
390
F
  0
LAYER
  5
200
100
AcDbSymbolTableRecord
100
AcDbLayerTableRecord
  2
03___PRT_ALL_CURVES
 70
0
 62
7
  6
CONTINUOUS
370
-3
390
F
  0
LAYER
  5
201
100
AcDbSymbolTableRecord
100
AcDbLayerTableRecord
  2
04___PRT_ALL_DTM_PNT
 70
0
 62
7
  6
CONTINUOUS
370
-3
390
F
  0
LAYER
  5
202
100
AcDbSymbolTableRecord
100
AcDbLayerTableRecord
  2
05___PRT_ALL_DTM_CSYS
 70
0
 62
7
  6
CONTINUOUS
370
-3
390
F
  0
LAYER
  5
203
100
AcDbSymbolTableRecord
100
AcDbLayerTableRecord
  2
05___PRT_DEF_DTM_CSYS
 70
0
 62
7
  6
CONTINUOUS
370
-3
390
F
  0
LAYER
  5
204
100
AcDbSymbolTableRecord
100
AcDbLayerTableRecord
  2
06___PRT_ALL_SURFS
 70
0
 62
7
  6
CONTINUOUS
370
-3
390
F
  0
LAYER
  5
205
100
AcDbSymbolTableRecord
100
AcDbLayerTableRecord
  2
DATUM_PLANES
 70
0
 62
7
  6
CONTINUOUS
370
-3
390
F
  0
LAYER
  5
206
100
AcDbSymbolTableRecord
100
AcDbLayerTableRecord
  2
DIMENSIONS
 70
0
 62
7
  6
CONTINUOUS
370
-3
390
F
  0
LAYER
  5
207
100
AcDbSymbolTableRecord
100
AcDbLayerTableRecord
  2
DTM_500001
 70
0
 62
7
  6
CONTINUOUS
370
-3
390
F
  0
LAYER
  5
208
100
AcDbSymbolTableRecord
100
AcDbLayerTableRecord
  2
PARAMETERDIMENSIONS
 70
0
 62
7
  6
CONTINUOUS
370
-3
390
F
  0
LAYER
  5
209
100
AcDbSymbolTableRecord
100
AcDbLayerTableRecord
  2
PORT_AREAS
 70
0
 62
7
  6
CONTINUOUS
370
-3
390
F
  0
LAYER
  5
20A
100
AcDbSymbolTableRecord
100
AcDbLayerTableRecord
  2
SUNNBOMCOSMETIC
 70
0
 62
7
  6
CONTINUOUS
370
-3
390
F
  0
LAYER
  5
20B
100
AcDbSymbolTableRecord
100
AcDbLayerTableRecord
  2
SUNNBOMSTAMPING
 70
0
 62
7
  6
CONTINUOUS
370
-3
390
F
  0
LAYER
  5
20C
100
AcDbSymbolTableRecord
100
AcDbLayerTableRecord
  2
THREADS
 70
0
 62
7
  6
CONTINUOUS
370
-3
390
F
  0
ENDTAB
  0
TABLE
  2
STYLE
  5
3
100
AcDbSymbolTable
 70
1
  0
STYLE
  5
11
100
AcDbSymbolTableRecord
100
AcDbTextStyleTableRecord
  2
STANDARD
 70
0
 40
0.0
 41
0.8
 50
0.0
 71
0
 42
0.2
  3
txt
  4

  0
STYLE
  5
20D
100
AcDbSymbolTableRecord
100
AcDbTextStyleTableRecord
  2
TEXTSTYLE_1
 70
0
 40
0.0
 41
0.8
 50
0.0
 71
0
 42
0.2
  3
gdt
  4

  0
ENDTAB
  0
TABLE
  2
VIEW
  5
6
100
AcDbSymbolTable
 70
0
  0
ENDTAB
  0
TABLE
  2
UCS
  5
7
100
AcDbSymbolTable
 70
0
  0
ENDTAB
  0
TABLE
  2
APPID
  5
9
100
AcDbSymbolTable
 70
1
  0
APPID
  5
20E
100
AcDbSymbolTableRecord
100
AcDbRegAppTableRecord
  2
ACAD
 70
0
  0
ENDTAB
  0
TABLE
  2
BLOCK_RECORD
  5
1
100
AcDbSymbolTable
 70
0
  0
BLOCK_RECORD
  5
20F
100
AcDbSymbolTableRecord
100
AcDbBlockTableRecord
  2
*Model_Space
  0
BLOCK_RECORD
  5
210
100
AcDbSymbolTableRecord
100
AcDbBlockTableRecord
  2
*Paper_Space
  0
BLOCK_RECORD
  5
211
100
AcDbSymbolTableRecord
100
AcDbBlockTableRecord
  2
SUN_FIRST_THIRD_ANGLE_BL0
  0
BLOCK_RECORD
  5
212
100
AcDbSymbolTableRecord
100
AcDbBlockTableRecord
  2
*T1
  0
BLOCK_RECORD
  5
213
100
AcDbSymbolTableRecord
100
AcDbBlockTableRecord
  2
*T2
  0
BLOCK_RECORD
  5
214
100
AcDbSymbolTableRecord
100
AcDbBlockTableRecord
  2
*T3
  0
ENDTAB
  0
TABLE
  2
DIMSTYLE
  5
A
100
AcDbSymbolTable
 70
1
100
AcDbDimStyleTable
 71
0
  0
DIMSTYLE
105
215
100
AcDbSymbolTableRecord
100
AcDbDimStyleTableRecord
  2
STANDARD
 70
0
  3

  4

 40
1.0
 41
0.1875
 42
0.0625
 43
0.38
 44
0.125
 45
0.0
 46
0.0
 47
0.001
 48
0.001
140
0.1
141
0.09
142
0.0
143
25.4
144
1.0
145
0.0
146
1.0
147
0.09
 71
0.0
 72
0.0
 73
1
 74
1
 75
0
 76
0
 77
0
 78
4
170
0
171
2
172
0
173
0
174
0
175
0
176
0
177
0
178
0
270
2
271
3
272
3
273
2
274
2
275
0
280
0
281
0
282
0
283
1
284
4
285
0
286
0
287
3
288
0
340
11
278
46
  0
ENDTAB
  0
ENDSEC
  0
SECTION
  2
BLOCKS
  0
BLOCK
  5
20
100
AcDbEntity
  8
0
100
AcDbBlockBegin
  2
*Model_Space
 70
0
 10
0.0
 20
0.0
 30
0.0
  3
*Model_Space
  1

  0
ENDBLK
  5
21
100
AcDbEntity
  8
0
100
AcDbBlockEnd
  0
BLOCK
  5
1C
100
AcDbEntity
  8
0
100
AcDbBlockBegin
  2
*Paper_Space
 70
0
 10
0.0
 20
0.0
 30
0.0
  3
*Paper_Space
  1

  0
ENDBLK
  5
1D
100
AcDbEntity
  8
0
100
AcDbBlockEnd
  0
BLOCK
  5
216
100
AcDbEntity
  8
0
100
AcDbBlockBegin
 62
2
  6
CONTINUOUS
  2
SUN_FIRST_THIRD_ANGLE_BL0
 70
64
 10
20.4816717061
 20
1.2289683772
  3
SUN_FIRST_THIRD_ANGLE_BL0
  1

  0
TEXT
  5
217
100
AcDbEntity
  8
0
100
AcDbText
 62
2
  6
CONTINUOUS
 10
19.4750896608
 20
1.4136269581
  7
STANDARD
 40
0.08
  1
FIRST ANGLE
 41
0.8
 72
0
100
AcDbText
  0
TEXT
  5
218
100
AcDbEntity
  8
0
100
AcDbText
 62
2
  6
CONTINUOUS
 10
20.7842537513
 20
1.4047600029
  7
STANDARD
 40
0.08
  1
THIRD ANGLE
 41
0.8
 72
0
100
AcDbText
  0
LINE
  5
219
100
AcDbEntity
  8
0
100
AcDbLine
 62
7
  6
CONTINUOUS
 10
19.4767170086
 20
1.1727031207
 11
19.6334271527
 21
1.1717972817
  0
LINE
  5
21A
100
AcDbEntity
  8
0
100
AcDbLine
 62
7
  6
CONTINUOUS
 10
19.6596964832
 20
1.1717972817
 11
19.6950230232
 21
1.171593082
  0
LINE
  5
21B
100
AcDbEntity
  8
0
100
AcDbLine
 62
7
  6
CONTINUOUS
 10
19.7194818561
 20
1.1708914427
 11
19.8852396156
 21
1.1699333054
  0
LINE
  5
21C
100
AcDbEntity
  8
0
100
AcDbLine
 62
7
  6
CONTINUOUS
 10
19.4758111696
 20
1.2723454088
 11
19.88525039
 21
1.3511534004
  0
LINE
  5
21D
100
AcDbEntity
  8
0
100
AcDbLine
 62
7
  6
CONTINUOUS
 10
19.88525039
 20
1.3511534004
 11
19.8831348489
 21
0.9851647912
  0
LINE
  5
21E
100
AcDbEntity
  8
0
100
AcDbLine
 62
7
  6
CONTINUOUS
 10
19.8831348489
 20
0.9851647912
 11
19.4767170086
 21
1.0658141206
  0
LINE
  5
21F
100
AcDbEntity
  8
0
100
AcDbLine
 62
7
  6
CONTINUOUS
 10
19.4767170086
 20
1.0658141206
 11
19.4779056764
 21
1.2714536432
  0
CIRCLE
  5
220
100
AcDbEntity
  8
0
100
AcDbCircle
 62
7
  6
CONTINUOUS
 10
20.2068232291
 20
1.1717972817
 40
0.175742101
  0
CIRCLE
  5
221
100
AcDbEntity
  8
0
100
AcDbCircle
 62
7
  6
CONTINUOUS
 10
20.2068232291
 20
1.1717972817
 40
0.1005522074
  0
LINE
  5
222
100
AcDbEntity
  8
0
100
AcDbLine
 62
7
  6
CONTINUOUS
 10
20.2077290681
 20
1.3756110529
 11
20.2071171714
 21
1.2379342989
  0
LINE
  5
223
100
AcDbEntity
  8
0
100
AcDbLine
 62
7
  6
CONTINUOUS
 10
20.2077290681
 20
1.2016899681
 11
20.2074674401
 21
1.1428236749
  0
LINE
  5
224
100
AcDbEntity
  8
0
100
AcDbLine
 62
7
  6
CONTINUOUS
 10
20.208634907
 20
1.101141841
 11
20.2080230104
 21
0.963465087
  0
LINE
  5
225
100
AcDbEntity
  8
0
100
AcDbLine
 62
7
  6
CONTINUOUS
 10
20.0066328138
 20
1.1745147986
 11
20.1443095678
 21
1.1739029019
  0
LINE
  5
226
100
AcDbEntity
  8
0
100
AcDbLine
 62
7
  6
CONTINUOUS
 10
20.1832714155
 20
1.1727031207
 11
20.238153505
 21
1.172335442
  0
LINE
  5
227
100
AcDbEntity
  8
0
100
AcDbLine
 62
7
  6
CONTINUOUS
 10
20.2756669918
 20
1.1717972817
 11
20.407916871
 21
1.1712095044
  0
CIRCLE
  5
228
100
AcDbEntity
  8
0
100
AcDbCircle
 62
7
  6
CONTINUOUS
 10
20.7509457401
 20
1.1693297793
 40
0.1722024983
  0
CIRCLE
  5
229
100
AcDbEntity
  8
0
100
AcDbCircle
 62
7
  6
CONTINUOUS
 10
20.7509457401
 20
1.1693297793
 40
0.0985164967
  0
LINE
  5
22A
100
AcDbEntity
  8
0
100
AcDbLine
 62
7
  6
CONTINUOUS
 10
20.7169767782
 20
1.170462078
 11
20.7825395137
 21
1.1682766535
  0
LINE
  5
22B
100
AcDbEntity
  8
0
100
AcDbLine
 62
7
  6
CONTINUOUS
 10
20.8177513651
 20
1.1693297793
 11
20.947965719
 21
1.1693297793
  0
LINE
  5
22C
100
AcDbEntity
  8
0
100
AcDbLine
 62
7
  6
CONTINUOUS
 10
20.6875370113
 20
1.170462078
 11
20.5573226574
 21
1.170462078
  0
LINE
  5
22D
100
AcDbEntity
  8
0
100
AcDbLine
 62
7
  6
CONTINUOUS
 10
20.7486811426
 20
1.1987695462
 11
20.7486811426
 21
1.1432869085
  0
LINE
  5
22E
100
AcDbEntity
  8
0
100
AcDbLine
 62
7
  6
CONTINUOUS
 10
20.7498134414
 20
1.1059210505
 11
20.7498134414
 21
0.9757066966
  0
LINE
  5
22F
100
AcDbEntity
  8
0
100
AcDbLine
 62
7
  6
CONTINUOUS
 10
20.7486811426
 20
1.2338708068
 11
20.7486811426
 21
1.3640851607
  0
LINE
  5
230
100
AcDbEntity
  8
0
100
AcDbLine
 62
7
  6
CONTINUOUS
 10
21.0702539817
 20
1.2701043662
 11
21.4790138229
 21
1.3448360823
  0
LINE
  5
231
100
AcDbEntity
  8
0
100
AcDbLine
 62
7
  6
CONTINUOUS
 10
21.4790138229
 20
1.3448360823
 11
21.4790138229
 21
0.9779712941
  0
LINE
  5
232
100
AcDbEntity
  8
0
100
AcDbLine
 62
7
  6
CONTINUOUS
 10
21.4790138229
 20
0.9779712941
 11
21.069121683
 21
1.0617614
  0
LINE
  5
233
100
AcDbEntity
  8
0
100
AcDbLine
 62
7
  6
CONTINUOUS
 10
21.0702539817
 20
1.2701043662
 11
21.069121683
 21
1.0617614
  0
LINE
  5
234
100
AcDbEntity
  8
0
100
AcDbLine
 62
7
  6
CONTINUOUS
 10
21.4790138229
 20
1.1693297793
 11
21.3159628059
 21
1.1693297793
  0
LINE
  5
235
100
AcDbEntity
  8
0
100
AcDbLine
 62
7
  6
CONTINUOUS
 10
21.2876553377
 20
1.1693297793
 11
21.2502894796
 21
1.1693297793
  0
LINE
  5
236
100
AcDbEntity
  8
0
100
AcDbLine
 62
7
  6
CONTINUOUS
 10
21.2208497126
 20
1.1659328831
 11
21.0713862804
 21
1.1659328831
  0
LINE
  5
237
100
AcDbEntity
  8
0
100
AcDbLine
 62
7
  6
CONTINUOUS
 10
20.4796138713
 20
1.5284908897
 11
20.4766766948
 21
0.9294458646
  0
ENDBLK
  5
238
100
AcDbEntity
  8
0
  6
BYBLOCK
 62
0
100
AcDbBlockEnd
  0
BLOCK
  5
239
100
AcDbEntity
  8
0
100
AcDbBlockBegin
  2
*T1
 70
1
 10
0.0
 20
0.0
  3
*T1
  1

  0
LINE
  5
23A
100
AcDbEntity
  8
0
100
AcDbLine
 62
2
  6
CONTINUOUS
 10
9.275
 20
0.0
 11
-0.0
 21
0.0
  0
LINE
  5
23B
100
AcDbEntity
  8
0
100
AcDbLine
 62
2
  6
CONTINUOUS
 10
9.275
 20
0.0
 11
9.275
 21
1.25
  0
LINE
  5
23C
100
AcDbEntity
  8
0
100
AcDbLine
 62
2
  6
CONTINUOUS
 10
9.275
 20
0.625
 11
-0.0
 21
0.625
  0
LINE
  5
23D
100
AcDbEntity
  8
0
100
AcDbLine
 62
2
  6
CONTINUOUS
 10
9.275
 20
1.25
 11
-0.0
 21
1.25
  0
LINE
  5
23E
100
AcDbEntity
  8
0
100
AcDbLine
 62
2
  6
CONTINUOUS
 10
6.8
 20
0.0
 11
6.8
 21
1.25
  0
LINE
  5
23F
100
AcDbEntity
  8
0
100
AcDbLine
 62
2
  6
CONTINUOUS
 10
6.4
 20
0.0
 11
6.4
 21
0.625
  0
LINE
  5
240
100
AcDbEntity
  8
0
100
AcDbLine
 62
2
  6
CONTINUOUS
 10
5.9
 20
0.0
 11
5.9
 21
0.625
  0
LINE
  5
241
100
AcDbEntity
  8
0
100
AcDbLine
 62
2
  6
CONTINUOUS
 10
5.2
 20
0.0
 11
5.2
 21
0.625
  0
LINE
  5
242
100
AcDbEntity
  8
0
100
AcDbLine
 62
2
  6
CONTINUOUS
 10
4.1
 20
0.0
 11
4.1
 21
1.25
  0
LINE
  5
243
100
AcDbEntity
  8
0
100
AcDbLine
 62
2
  6
CONTINUOUS
 10
-0.0
 20
0.0
 11
-0.0
 21
1.25
  0
MTEXT
  5
244
100
AcDbEntity
  8
0
100
AcDbMText
 62
2
  6
CONTINUOUS
  7
STANDARD
 71
2
 72
1
 10
6.6
 20
0.325
 30
0.0
 11
1.0
 21
0.0
 31
0.0
 44
0.9
  1
2
 40
0.125
 41
0.2
  0
MTEXT
  5
245
100
AcDbEntity
  8
0
100
AcDbMText
 62
2
  6
CONTINUOUS
  7
STANDARD
 71
2
 72
1
 10
6.15
 20
0.325
 30
0.0
 11
1.0
 21
0.0
 31
0.0
 44
0.9
  1
C
 40
0.125
 41
0.2
  0
MTEXT
  5
246
100
AcDbEntity
  8
0
100
AcDbMText
 62
2
  6
CONTINUOUS
  7
STANDARD
 71
2
 72
1
 10
5.55
 20
0.325
 30
0.0
 11
1.0
 21
0.0
 31
0.0
 44
0.9
  1
2.000
 40
0.125
 41
1.0
  0
MTEXT
  5
247
100
AcDbEntity
  8
0
100
AcDbMText
 62
2
  6
CONTINUOUS
  7
STANDARD
 71
2
 72
1
 10
4.65
 20
0.325
 30
0.0
 11
1.0
 21
0.0
 31
0.0
 44
0.9
  1
Jan-31-20
 40
0.125
 41
1.8
  0
MTEXT
  5
248
100
AcDbEntity
  8
0
100
AcDbMText
 62
2
  6
CONTINUOUS
  7
STANDARD
 71
2
 72
1
 10
2.05
 20
0.4625
 30
0.0
 11
1.0
 21
0.0
 31
0.0
 44
0.9
  1
T-11A Motor mount Danfoss OMS\PCross pilot with shuttle
 40
0.125
 41
5.8
  0
MTEXT
  5
249
100
AcDbEntity
  8
0
100
AcDbMText
 62
2
  6
CONTINUOUS
  7
STANDARD
 71
1
 72
1
 10
6.45
 20
0.5625
 30
0.0
 11
1.0
 21
0.0
 31
0.0
 44
0.9
  1
SHEET
 40
0.06
 41
0.48
  0
MTEXT
  5
24A
100
AcDbEntity
  8
0
100
AcDbMText
 62
2
  6
CONTINUOUS
  7
STANDARD
 71
1
 72
1
 10
5.95
 20
0.5625
 30
0.0
 11
1.0
 21
0.0
 31
0.0
 44
0.9
  1
DWG SIZE
 40
0.06
 41
0.768
  0
MTEXT
  5
24B
100
AcDbEntity
  8
0
100
AcDbMText
 62
2
  6
CONTINUOUS
  7
STANDARD
 71
1
 72
1
 10
5.25
 20
0.5625
 30
0.0
 11
1.0
 21
0.0
 31
0.0
 44
0.9
  1
SCALE
 40
0.06
 41
0.48
  0
MTEXT
  5
24C
100
AcDbEntity
  8
0
100
AcDbMText
 62
2
  6
CONTINUOUS
  7
STANDARD
 71
1
 72
1
 10
4.15
 20
0.5625
 30
0.0
 11
1.0
 21
0.0
 31
0.0
 44
0.9
  1
DATE
 40
0.06
 41
0.384
  0
MTEXT
  5
24D
100
AcDbEntity
  8
0
100
AcDbMText
 62
2
  6
CONTINUOUS
  7
STANDARD
 71
1
 72
1
 10
0.05
 20
0.5625
 30
0.0
 11
1.0
 21
0.0
 31
0.0
 44
0.9
  1
DESCRIPTION
 40
0.06
 41
1.056
  0
MTEXT
  5
24E
100
AcDbEntity
  8
0
100
AcDbMText
 62
2
  6
CONTINUOUS
  7
STANDARD
 71
2
 72
1
 10
5.45
 20
1.0375
 30
0.0
 11
1.0
 21
0.0
 31
0.0
 44
0.9
  1
ALL DIMENSIONS IN INCH\PVIEWS ARE THIRD ANGLE
 40
0.12
 41
4.224
  0
MTEXT
  5
24F
100
AcDbEntity
  8
0
100
AcDbMText
 62
2
  6
CONTINUOUS
  7
STANDARD
 71
2
 72
1
 10
2.05
 20
0.95
 30
0.0
 11
1.0
 21
0.0
 31
0.0
 44
0.9
  1
U8E
 40
0.125
 41
0.6
  0
MTEXT
  5
250
100
AcDbEntity
  8
0
100
AcDbMText
 62
2
  6
CONTINUOUS
  7
STANDARD
 71
1
 72
1
 10
0.05
 20
1.1875
 30
0.0
 11
1.0
 21
0.0
 31
0.0
 44
0.9
  1
MODEL
 40
0.06
 41
0.48
  0
ENDBLK
  5
251
100
AcDbEntity
  8
0
  6
BYBLOCK
 62
0
100
AcDbBlockEnd
  0
BLOCK
  5
252
100
AcDbEntity
  8
0
100
AcDbBlockBegin
  2
*T2
 70
1
 10
0.0
 20
0.0
  3
*T2
  1

  0
LINE
  5
253
100
AcDbEntity
  8
0
100
AcDbLine
 62
2
  6
CONTINUOUS
 10
0.0
 20
0.0
 11
9.055
 21
0.0
  0
LINE
  5
254
100
AcDbEntity
  8
0
100
AcDbLine
 62
2
  6
CONTINUOUS
 10
0.0
 20
0.0
 11
0.0
 21
-2.594
  0
LINE
  5
255
100
AcDbEntity
  8
0
100
AcDbLine
 62
2
  6
CONTINUOUS
 10
0.0
 20
-0.344
 11
9.055
 21
-0.344
  0
LINE
  5
256
100
AcDbEntity
  8
0
100
AcDbLine
 62
2
  6
CONTINUOUS
 10
0.0
 20
-0.594
 11
9.055
 21
-0.594
  0
LINE
  5
257
100
AcDbEntity
  8
0
100
AcDbLine
 62
2
  6
CONTINUOUS
 10
0.0
 20
-0.844
 11
9.055
 21
-0.844
  0
LINE
  5
258
100
AcDbEntity
  8
0
100
AcDbLine
 62
2
  6
CONTINUOUS
 10
0.0
 20
-1.094
 11
9.055
 21
-1.094
  0
LINE
  5
259
100
AcDbEntity
  8
0
100
AcDbLine
 62
2
  6
CONTINUOUS
 10
0.0
 20
-1.344
 11
9.055
 21
-1.344
  0
LINE
  5
25A
100
AcDbEntity
  8
0
100
AcDbLine
 62
2
  6
CONTINUOUS
 10
0.0
 20
-1.594
 11
9.055
 21
-1.594
  0
LINE
  5
25B
100
AcDbEntity
  8
0
100
AcDbLine
 62
2
  6
CONTINUOUS
 10
0.0
 20
-1.844
 11
9.055
 21
-1.844
  0
LINE
  5
25C
100
AcDbEntity
  8
0
100
AcDbLine
 62
2
  6
CONTINUOUS
 10
0.0
 20
-2.094
 11
9.055
 21
-2.094
  0
LINE
  5
25D
100
AcDbEntity
  8
0
100
AcDbLine
 62
2
  6
CONTINUOUS
 10
0.0
 20
-2.344
 11
9.055
 21
-2.344
  0
LINE
  5
25E
100
AcDbEntity
  8
0
100
AcDbLine
 62
2
  6
CONTINUOUS
 10
0.0
 20
-2.594
 11
9.055
 21
-2.594
  0
LINE
  5
25F
100
AcDbEntity
  8
0
100
AcDbLine
 62
2
  6
CONTINUOUS
 10
3.055
 20
0.0
 11
3.055
 21
-2.594
  0
LINE
  5
260
100
AcDbEntity
  8
0
100
AcDbLine
 62
2
  6
CONTINUOUS
 10
9.055
 20
0.0
 11
9.055
 21
-2.594
  0
MTEXT
  5
261
100
AcDbEntity
  8
0
100
AcDbMText
 62
2
  6
CONTINUOUS
  7
STANDARD
 71
2
 72
1
 10
1.5275
 20
-0.0995
 30
0.0
 11
1.0
 21
0.0
 31
0.0
 44
0.9
  1
Technical Data
 40
0.145
 41
3.248
  0
MTEXT
  5
262
100
AcDbEntity
  8
0
100
AcDbMText
 62
2
  6
CONTINUOUS
  7
STANDARD
 71
2
 72
1
 10
4.555
 20
-0.0995
 30
0.0
 11
1.0
 21
0.0
 31
0.0
 44
0.9
  1
U.S. Units
 40
0.145
 41
2.32
  0
MTEXT
  5
263
100
AcDbEntity
  8
0
100
AcDbMText
 62
2
  6
CONTINUOUS
  7
STANDARD
 71
2
 72
1
 10
7.555
 20
-0.0995
 30
0.0
 11
1.0
 21
0.0
 31
0.0
 44
0.9
  1
Metric Units
 40
0.145
 41
2.784
  0
MTEXT
  5
264
100
AcDbEntity
  8
0
100
AcDbMText
 62
2
  6
CONTINUOUS
  7
STANDARD
 71
2
 72
1
 10
1.5275
 20
-0.4065
 30
0.0
 11
1.0
 21
0.0
 31
0.0
 44
0.9
  1
Cavity
 40
0.125
 41
1.2
  0
MTEXT
  5
265
100
AcDbEntity
  8
0
100
AcDbMText
 62
2
  6
CONTINUOUS
  7
STANDARD
 71
2
 72
1
 10
6.055
 20
-0.4065
 30
0.0
 11
1.0
 21
0.0
 31
0.0
 44
0.9
  1
T-11A
 40
0.125
 41
1.0
  0
MTEXT
  5
266
100
AcDbEntity
  8
0
100
AcDbMText
 62
2
  6
CONTINUOUS
  7
STANDARD
 71
2
 72
1
 10
1.5275
 20
-0.6565
 30
0.0
 11
1.0
 21
0.0
 31
0.0
 44
0.9
  1
Body Features
 40
0.125
 41
2.6
  0
MTEXT
  5
267
100
AcDbEntity
  8
0
100
AcDbMText
 62
2
  6
CONTINUOUS
  7
STANDARD
 71
2
 72
1
 10
6.055
 20
-0.6565
 30
0.0
 11
1.0
 21
0.0
 31
0.0
 44
0.9
  1
Cross pilot with shuttle
 40
0.125
 41
4.8
  0
MTEXT
  5
268
100
AcDbEntity
  8
0
100
AcDbMText
 62
2
  6
CONTINUOUS
  7
STANDARD
 71
2
 72
1
 10
1.5275
 20
-0.9065
 30
0.0
 11
1.0
 21
0.0
 31
0.0
 44
0.9
  1
Body Type
 40
0.125
 41
1.8
  0
MTEXT
  5
269
100
AcDbEntity
  8
0
100
AcDbMText
 62
2
  6
CONTINUOUS
  7
STANDARD
 71
2
 72
1
 10
6.055
 20
-0.9065
 30
0.0
 11
1.0
 21
0.0
 31
0.0
 44
0.9
  1
Motor mount
 40
0.125
 41
2.2
  0
MTEXT
  5
26A
100
AcDbEntity
  8
0
100
AcDbMText
 62
2
  6
CONTINUOUS
  7
STANDARD
 71
2
 72
1
 10
1.5275
 20
-1.1565
 30
0.0
 11
1.0
 21
0.0
 31
0.0
 44
0.9
  1
Interface
 40
0.125
 41
1.8
  0
MTEXT
  5
26B
100
AcDbEntity
  8
0
100
AcDbMText
 62
2
  6
CONTINUOUS
  7
STANDARD
 71
2
 72
1
 10
6.055
 20
-1.1565
 30
0.0
 11
1.0
 21
0.0
 31
0.0
 44
0.9
  1
Danfoss OMS
 40
0.125
 41
2.2
  0
MTEXT
  5
26C
100
AcDbEntity
  8
0
100
AcDbMText
 62
2
  6
CONTINUOUS
  7
STANDARD
 71
2
 72
1
 10
1.5275
 20
-1.4065
 30
0.0
 11
1.0
 21
0.0
 31
0.0
 44
0.9
  1
Open Cavity Quantity
 40
0.125
 41
4.0
  0
MTEXT
  5
26D
100
AcDbEntity
  8
0
100
AcDbMText
 62
2
  6
CONTINUOUS
  7
STANDARD
 71
2
 72
1
 10
6.055
 20
-1.4065
 30
0.0
 11
1.0
 21
0.0
 31
0.0
 44
0.9
  1
2
 40
0.125
 41
0.2
  0
MTEXT
  5
26E
100
AcDbEntity
  8
0
100
AcDbMText
 62
2
  6
CONTINUOUS
  7
STANDARD
 71
2
 72
1
 10
1.5275
 20
-1.6565
 30
0.0
 11
1.0
 21
0.0
 31
0.0
 44
0.9
  1
Weight
 40
0.125
 41
1.2
  0
MTEXT
  5
26F
100
AcDbEntity
  8
0
100
AcDbMText
 62
2
  6
CONTINUOUS
  7
STANDARD
 71
2
 72
1
 10
4.555
 20
-1.6565
 30
0.0
 11
1.0
 21
0.0
 31
0.0
 44
0.9
  1
2.082 lb.
 40
0.125
 41
1.8
  0
MTEXT
  5
270
100
AcDbEntity
  8
0
100
AcDbMText
 62
2
  6
CONTINUOUS
  7
STANDARD
 71
2
 72
1
 10
7.555
 20
-1.6565
 30
0.0
 11
1.0
 21
0.0
 31
0.0
 44
0.9
  1
0,944 kg.
 40
0.125
 41
1.8
  0
MTEXT
  5
271
100
AcDbEntity
  8
0
100
AcDbMText
 62
2
  6
CONTINUOUS
  7
STANDARD
 71
2
 72
1
 10
1.5275
 20
-1.9065
 30
0.0
 11
1.0
 21
0.0
 31
0.0
 44
0.9
  1
Mounting Hole Diameter
 40
0.125
 41
4.4
  0
MTEXT
  5
272
100
AcDbEntity
  8
0
100
AcDbMText
 62
2
  6
CONTINUOUS
  7
STANDARD
 71
2
 72
1
 10
4.555
 20
-1.9065
 30
0.0
 11
1.0
 21
0.0
 31
0.0
 44
0.9
  1
.42 in.
 40
0.125
 41
1.4
  0
MTEXT
  5
273
100
AcDbEntity
  8
0
100
AcDbMText
 62
2
  6
CONTINUOUS
  7
STANDARD
 71
2
 72
1
 10
7.555
 20
-1.9065
 30
0.0
 11
1.0
 21
0.0
 31
0.0
 44
0.9
  1
10,7 mm
 40
0.125
 41
1.4
  0
MTEXT
  5
274
100
AcDbEntity
  8
0
100
AcDbMText
 62
2
  6
CONTINUOUS
  7
STANDARD
 71
2
 72
1
 10
1.5275
 20
-2.1565
 30
0.0
 11
1.0
 21
0.0
 31
0.0
 44
0.9
  1
Mounting Hole Depth
 40
0.125
 41
3.8
  0
MTEXT
  5
275
100
AcDbEntity
  8
0
100
AcDbMText
 62
2
  6
CONTINUOUS
  7
STANDARD
 71
2
 72
1
 10
6.055
 20
-2.1565
 30
0.0
 11
1.0
 21
0.0
 31
0.0
 44
0.9
  1
Through
 40
0.125
 41
1.4
  0
MTEXT
  5
276
100
AcDbEntity
  8
0
100
AcDbMText
 62
2
  6
CONTINUOUS
  7
STANDARD
 71
2
 72
1
 10
1.5275
 20
-2.4065
 30
0.0
 11
1.0
 21
0.0
 31
0.0
 44
0.9
  1
Mounting Hole Quantity
 40
0.125
 41
4.4
  0
MTEXT
  5
277
100
AcDbEntity
  8
0
100
AcDbMText
 62
2
  6
CONTINUOUS
  7
STANDARD
 71
2
 72
1
 10
6.055
 20
-2.4065
 30
0.0
 11
1.0
 21
0.0
 31
0.0
 44
0.9
  1
2
 40
0.125
 41
0.2
  0
ENDBLK
  5
278
100
AcDbEntity
  8
0
  6
BYBLOCK
 62
0
100
AcDbBlockEnd
  0
BLOCK
  5
279
100
AcDbEntity
  8
0
100
AcDbBlockBegin
  2
*T3
 70
1
 10
0.0
 20
0.0
  3
*T3
  1

  0
LINE
  5
27A
100
AcDbEntity
  8
0
100
AcDbLine
 62
2
  6
CONTINUOUS
 10
0.0
 20
0.0
 11
4.6
 21
0.0
  0
LINE
  5
27B
100
AcDbEntity
  8
0
100
AcDbLine
 62
2
  6
CONTINUOUS
 10
0.0
 20
0.0
 11
0.0
 21
-0.93775
  0
LINE
  5
27C
100
AcDbEntity
  8
0
100
AcDbLine
 62
2
  6
CONTINUOUS
 10
0.0
 20
-0.34375
 11
4.6
 21
-0.34375
  0
LINE
  5
27D
100
AcDbEntity
  8
0
100
AcDbLine
 62
2
  6
CONTINUOUS
 10
0.0
 20
-0.68775
 11
4.6
 21
-0.68775
  0
LINE
  5
27E
100
AcDbEntity
  8
0
100
AcDbLine
 62
2
  6
CONTINUOUS
 10
0.0
 20
-0.93775
 11
4.6
 21
-0.93775
  0
LINE
  5
27F
100
AcDbEntity
  8
0
100
AcDbLine
 62
2
  6
CONTINUOUS
 10
1.3
 20
-0.34375
 11
1.3
 21
-0.93775
  0
LINE
  5
280
100
AcDbEntity
  8
0
100
AcDbLine
 62
2
  6
CONTINUOUS
 10
3.3
 20
-0.34375
 11
3.3
 21
-0.93775
  0
LINE
  5
281
100
AcDbEntity
  8
0
100
AcDbLine
 62
2
  6
CONTINUOUS
 10
4.6
 20
0.0
 11
4.6
 21
-0.93775
  0
MTEXT
  5
282
100
AcDbEntity
  8
0
100
AcDbMText
 62
2
  6
CONTINUOUS
  7
STANDARD
 71
2
 72
1
 10
2.3
 20
-0.099375
 30
0.0
 11
1.0
 21
0.0
 31
0.0
 44
0.9
  1
Port Headings
 40
0.145
 41
3.016
  0
MTEXT
  5
283
100
AcDbEntity
  8
0
100
AcDbMText
 62
2
  6
CONTINUOUS
  7
STANDARD
 71
2
 72
1
 10
0.65
 20
-0.44325
 30
0.0
 11
1.0
 21
0.0
 31
0.0
 44
0.9
  1
Product
 40
0.145
 41
1.624
  0
MTEXT
  5
284
100
AcDbEntity
  8
0
100
AcDbMText
 62
2
  6
CONTINUOUS
  7
STANDARD
 71
2
 72
1
 10
2.3
 20
-0.44325
 30
0.0
 11
1.0
 21
0.0
 31
0.0
 44
0.9
  1
Port
 40
0.145
 41
0.928
  0
MTEXT
  5
285
100
AcDbEntity
  8
0
100
AcDbMText
 62
2
  6
CONTINUOUS
  7
STANDARD
 71
2
 72
1
 10
3.95
 20
-0.44325
 30
0.0
 11
1.0
 21
0.0
 31
0.0
 44
0.9
  1
Size
 40
0.145
 41
0.928
  0
MTEXT
  5
286
100
AcDbEntity
  8
0
100
AcDbMText
 62
2
  6
CONTINUOUS
  7
STANDARD
 71
2
 72
1
 10
0.65
 20
-0.75025
 30
0.0
 11
1.0
 21
0.0
 31
0.0
 44
0.9
  1
U8E
 40
0.125
 41
0.6
  0
MTEXT
  5
287
100
AcDbEntity
  8
0
100
AcDbMText
 62
2
  6
CONTINUOUS
  7
STANDARD
 71
2
 72
1
 10
2.3
 20
-0.75025
 30
0.0
 11
1.0
 21
0.0
 31
0.0
 44
0.9
  1
Ports V1 & V2
 40
0.125
 41
2.6
  0
MTEXT
  5
288
100
AcDbEntity
  8
0
100
AcDbMText
 62
2
  6
CONTINUOUS
  7
STANDARD
 71
2
 72
1
 10
3.95
 20
-0.75025
 30
0.0
 11
1.0
 21
0.0
 31
0.0
 44
0.9
  1
SAE 10
 40
0.125
 41
1.2
  0
ENDBLK
  5
289
100
AcDbEntity
  8
0
  6
BYBLOCK
 62
0
100
AcDbBlockEnd
  0
ENDSEC
  0
SECTION
  2
ENTITIES
  0
IMAGE
  5
28A
100
AcDbEntity
  8
0
100
AcDbRasterImage
 62
7
  6
CONTINUOUS
 10
19.2297077316
 20
0.3094318264
 30
0.0
 11
0.0066666667
 21
0.0
 31
0.0
 12
0.0
 22
0.0066666667
 32
0.0
 13
369.0
 23
92.0
340
       364
 70
9
280
0
281
50
282
50
283
0
360
       35E
 71
1
 91
2
 14
-0.5
 24
-0.5
 14
368.5
 24
91.5
  0
INSERT
  5
28B
100
AcDbEntity
  8
0
100
AcDbBlockReference
 62
2
  6
CONTINUOUS
  2
SUN_FIRST_THIRD_ANGLE_BL0
 10
20.4816717061
 20
1.2289683772
  0
ACAD_TABLE
  5
28C
100
AcDbEntity
  8
0
 62
2
  6
CONTINUOUS
100
AcDbBlockReference
  2
*T1
 10
12.42375
 20
0.30125
 30
0.0
100
AcDbTable
342
       366
343
212
 11
1.0
 21
0.0
 31
0.0
 90
6
 91
4
 92
6
 93
20
 94
0
 95
0
 96
0
 70
1
 41
0.0
141
0.525
141
0.1
141
0.525
141
0.1
142
4.1
142
1.1
142
0.7
142
0.5
142
0.4
142
2.475
171
1
172
0
173
0
174
0
175
1
176
1
 91
33
178
0
145
0.0
301
CELL_VALUE
 90
4
  1
T-11A Motor mount Danfoss OMS\PCross pilot with shuttle
304
ACVALUE_END
170
2
140
0.125
171
1
172
0
173
0
174
0
175
1
176
1
 91
33
178
0
145
0.0
301
CELL_VALUE
 90
4
  1
Jan-31-20
304
ACVALUE_END
170
5
140
0.125
171
1
172
0
173
0
174
0
175
1
176
1
 91
33
178
0
145
0.0
301
CELL_VALUE
 90
4
  1
2.000
304
ACVALUE_END
170
5
140
0.125
171
1
172
0
173
0
174
0
175
1
176
1
 91
33
178
0
145
0.0
301
CELL_VALUE
 90
4
  1
C
304
ACVALUE_END
170
5
140
0.125
171
1
172
0
173
0
174
0
175
1
176
1
 91
33
178
0
145
0.0
301
CELL_VALUE
 90
4
  1
2
304
ACVALUE_END
170
5
140
0.125
171
1
172
0
173
0
174
0
175
1
176
1
 91
33
178
0
145
0.0
301
CELL_VALUE
 90
4
  1
 
304
ACVALUE_END
170
1
140
0.125
171
1
172
0
173
0
174
0
175
1
176
1
 91
33
178
0
145
0.0
301
CELL_VALUE
 90
4
  1
DESCRIPTION
304
ACVALUE_END
170
1
140
0.06
171
1
172
0
173
0
174
0
175
1
176
1
 91
33
178
0
145
0.0
301
CELL_VALUE
 90
4
  1
DATE
304
ACVALUE_END
170
1
140
0.06
171
1
172
0
173
0
174
0
175
1
176
1
 91
33
178
0
145
0.0
301
CELL_VALUE
 90
4
  1
SCALE
304
ACVALUE_END
170
1
140
0.06
171
1
172
0
173
0
174
0
175
1
176
1
 91
33
178
0
145
0.0
301
CELL_VALUE
 90
4
  1
DWG SIZE
304
ACVALUE_END
170
1
140
0.06
171
1
172
0
173
0
174
0
175
1
176
1
 91
33
178
0
145
0.0
301
CELL_VALUE
 90
4
  1
SHEET
304
ACVALUE_END
170
1
140
0.06
171
1
172
0
173
0
174
0
175
1
176
1
 91
33
178
0
145
0.0
301
CELL_VALUE
 90
4
  1
 
304
ACVALUE_END
170
1
140
0.125
171
1
172
0
173
0
174
0
175
1
176
1
 91
33
178
0
145
0.0
301
CELL_VALUE
 90
4
  1
U8E
304
ACVALUE_END
170
5
140
0.125
171
1
172
0
173
0
174
0
175
4
176
1
 91
33
178
0
145
0.0
301
CELL_VALUE
 90
4
  1
ALL DIMENSIONS IN INCH\PVIEWS ARE THIRD ANGLE
304
ACVALUE_END
170
5
140
0.12
171
1
172
0
173
1
174
0
175
1
176
1
 91
1
178
0
145
0.0
170
1
171
1
172
0
173
1
174
0
175
1
176
1
 91
1
178
0
145
0.0
170
1
171
1
172
0
173
1
174
0
175
1
176
1
 91
1
178
0
145
0.0
170
5
171
1
172
0
173
0
174
0
175
1
176
1
 91
33
178
0
145
0.0
301
CELL_VALUE
 90
4
  1
 
304
ACVALUE_END
170
1
140
0.125
171
1
172
0
173
0
174
0
175
1
176
1
 91
33
178
0
145
0.0
301
CELL_VALUE
 90
4
  1
MODEL
304
ACVALUE_END
170
1
140
0.06
171
1
172
0
173
0
174
0
175
1
176
1
 91
33
178
0
145
0.0
301
CELL_VALUE
 90
4
  1
 
304
ACVALUE_END
170
1
140
0.125
171
1
172
0
173
0
174
0
175
1
176
1
 91
33
178
0
145
0.0
301
CELL_VALUE
 90
4
  1
 
304
ACVALUE_END
170
1
140
0.125
171
1
172
0
173
0
174
0
175
1
176
1
 91
33
178
0
145
0.0
301
CELL_VALUE
 90
4
  1
 
304
ACVALUE_END
170
1
140
0.125
171
1
172
0
173
0
174
0
175
1
176
1
 91
33
178
0
145
0.0
301
CELL_VALUE
 90
4
  1
 
304
ACVALUE_END
170
1
140
0.125
171
1
172
0
173
0
174
0
175
1
176
1
 91
33
178
0
145
0.0
301
CELL_VALUE
 90
4
  1
 
304
ACVALUE_END
170
1
140
0.125
  0
ACAD_TABLE
  5
28D
100
AcDbEntity
  8
0
 62
2
  6
CONTINUOUS
100
AcDbBlockReference
  2
*T2
 10
12.4237499994
 20
16.47875
 30
0.0
100
AcDbTable
342
       365
343
213
 11
1.0
 21
0.0
 31
0.0
 90
22
 91
10
 92
3
 93
16
 94
0
 95
0
 96
0
 41
0.028
141
0.344
141
0.25
141
0.25
141
0.25
141
0.25
141
0.25
141
0.25
141
0.25
141
0.25
141
0.25
142
3.055
142
3.0
142
3.0
171
1
172
0
173
0
174
0
175
1
176
1
 91
33
178
0
145
0.0
301
CELL_VALUE
 90
4
  1
Technical Data
304
ACVALUE_END
170
5
140
0.145
171
1
172
0
173
0
174
0
175
1
176
1
 91
33
178
0
145
0.0
301
CELL_VALUE
 90
4
  1
U.S. Units
304
ACVALUE_END
170
5
140
0.145
171
1
172
0
173
0
174
0
175
1
176
1
 91
33
178
0
145
0.0
301
CELL_VALUE
 90
4
  1
Metric Units
304
ACVALUE_END
170
5
140
0.145
171
1
172
0
173
0
174
0
175
1
176
1
 91
33
178
0
145
0.0
301
CELL_VALUE
 90
4
  1
Cavity
304
ACVALUE_END
170
5
140
0.125
171
1
172
0
173
0
174
0
175
2
176
1
 91
33
178
0
145
0.0
301
CELL_VALUE
 90
4
  1
T-11A
304
ACVALUE_END
170
5
140
0.125
171
1
172
0
173
1
174
0
175
1
176
1
 91
1
178
0
145
0.0
170
1
171
1
172
0
173
0
174
0
175
1
176
1
 91
33
178
0
145
0.0
301
CELL_VALUE
 90
4
  1
Body Features
304
ACVALUE_END
170
5
140
0.125
171
1
172
0
173
0
174
0
175
2
176
1
 91
33
178
0
145
0.0
301
CELL_VALUE
 90
4
  1
Cross pilot with shuttle
304
ACVALUE_END
170
5
140
0.125
171
1
172
0
173
1
174
0
175
1
176
1
 91
1
178
0
145
0.0
170
1
171
1
172
0
173
0
174
0
175
1
176
1
 91
33
178
0
145
0.0
301
CELL_VALUE
 90
4
  1
Body Type
304
ACVALUE_END
170
5
140
0.125
171
1
172
0
173
0
174
0
175
2
176
1
 91
33
178
0
145
0.0
301
CELL_VALUE
 90
4
  1
Motor mount
304
ACVALUE_END
170
5
140
0.125
171
1
172
0
173
1
174
0
175
1
176
1
 91
1
178
0
145
0.0
170
1
171
1
172
0
173
0
174
0
175
1
176
1
 91
33
178
0
145
0.0
301
CELL_VALUE
 90
4
  1
Interface
304
ACVALUE_END
170
5
140
0.125
171
1
172
0
173
0
174
0
175
2
176
1
 91
33
178
0
145
0.0
301
CELL_VALUE
 90
4
  1
Danfoss OMS
304
ACVALUE_END
170
5
140
0.125
171
1
172
0
173
1
174
0
175
1
176
1
 91
1
178
0
145
0.0
170
1
171
1
172
0
173
0
174
0
175
1
176
1
 91
33
178
0
145
0.0
301
CELL_VALUE
 90
4
  1
Open Cavity Quantity
304
ACVALUE_END
170
5
140
0.125
171
1
172
0
173
0
174
0
175
2
176
1
 91
33
178
0
145
0.0
301
CELL_VALUE
 90
4
  1
2
304
ACVALUE_END
170
5
140
0.125
171
1
172
0
173
1
174
0
175
1
176
1
 91
1
178
0
145
0.0
170
1
171
1
172
0
173
0
174
0
175
1
176
1
 91
33
178
0
145
0.0
301
CELL_VALUE
 90
4
  1
Weight
304
ACVALUE_END
170
5
140
0.125
171
1
172
0
173
0
174
0
175
1
176
1
 91
33
178
0
145
0.0
301
CELL_VALUE
 90
4
  1
2.082 lb.
304
ACVALUE_END
170
5
140
0.125
171
1
172
0
173
0
174
0
175
1
176
1
 91
33
178
0
145
0.0
301
CELL_VALUE
 90
4
  1
0,944 kg.
304
ACVALUE_END
170
5
140
0.125
171
1
172
0
173
0
174
0
175
1
176
1
 91
33
178
0
145
0.0
301
CELL_VALUE
 90
4
  1
Mounting Hole Diameter
304
ACVALUE_END
170
5
140
0.125
171
1
172
0
173
0
174
0
175
1
176
1
 91
33
178
0
145
0.0
301
CELL_VALUE
 90
4
  1
.42 in.
304
ACVALUE_END
170
5
140
0.125
171
1
172
0
173
0
174
0
175
1
176
1
 91
33
178
0
145
0.0
301
CELL_VALUE
 90
4
  1
10,7 mm
304
ACVALUE_END
170
5
140
0.125
171
1
172
0
173
0
174
0
175
1
176
1
 91
33
178
0
145
0.0
301
CELL_VALUE
 90
4
  1
Mounting Hole Depth
304
ACVALUE_END
170
5
140
0.125
171
1
172
0
173
0
174
0
175
2
176
1
 91
33
178
0
145
0.0
301
CELL_VALUE
 90
4
  1
Through
304
ACVALUE_END
170
5
140
0.125
171
1
172
0
173
1
174
0
175
1
176
1
 91
1
178
0
145
0.0
170
1
171
1
172
0
173
0
174
0
175
1
176
1
 91
33
178
0
145
0.0
301
CELL_VALUE
 90
4
  1
Mounting Hole Quantity
304
ACVALUE_END
170
5
140
0.125
171
1
172
0
173
0
174
0
175
2
176
1
 91
33
178
0
145
0.0
301
CELL_VALUE
 90
4
  1
2
304
ACVALUE_END
170
5
140
0.125
171
1
172
0
173
1
174
0
175
1
176
1
 91
1
178
0
145
0.0
170
1
  0
ACAD_TABLE
  5
28E
100
AcDbEntity
  8
0
 62
2
  6
CONTINUOUS
100
AcDbBlockReference
  2
*T3
 10
0.52125
 20
1.459
 30
0.0
100
AcDbTable
342
       365
343
214
 11
1.0
 21
0.0
 31
0.0
 90
22
 91
3
 92
3
 93
16
 94
0
 95
0
 96
0
 41
0.05
141
0.34375
141
0.344
141
0.25
142
1.3
142
2.0
142
1.3
171
1
172
0
173
0
174
0
175
3
176
1
 91
33
178
0
145
0.0
301
CELL_VALUE
 90
4
  1
Port Headings
304
ACVALUE_END
170
5
140
0.145
171
1
172
0
173
1
174
0
175
1
176
1
 91
1
178
0
145
0.0
170
1
171
1
172
0
173
1
174
0
175
1
176
1
 91
1
178
0
145
0.0
170
1
171
1
172
0
173
0
174
0
175
1
176
1
 91
33
178
0
145
0.0
301
CELL_VALUE
 90
4
  1
Product
304
ACVALUE_END
170
5
140
0.145
171
1
172
0
173
0
174
0
175
1
176
1
 91
33
178
0
145
0.0
301
CELL_VALUE
 90
4
  1
Port
304
ACVALUE_END
170
5
140
0.145
171
1
172
0
173
0
174
0
175
1
176
1
 91
33
178
0
145
0.0
301
CELL_VALUE
 90
4
  1
Size
304
ACVALUE_END
170
5
140
0.145
171
1
172
0
173
0
174
0
175
1
176
1
 91
33
178
0
145
0.0
301
CELL_VALUE
 90
4
  1
U8E
304
ACVALUE_END
170
5
140
0.125
171
1
172
0
173
0
174
0
175
1
176
1
 91
33
178
0
145
0.0
301
CELL_VALUE
 90
4
  1
Ports V1 & V2
304
ACVALUE_END
170
5
140
0.125
171
1
172
0
173
0
174
0
175
1
176
1
 91
33
178
0
145
0.0
301
CELL_VALUE
 90
4
  1
SAE 10
304
ACVALUE_END
170
5
140
0.125
  0
MTEXT
  5
28F
100
AcDbEntity
  8
0
100
AcDbMText
 62
2
  6
CONTINUOUS
  7
STANDARD
 71
1
 72
1
 10
0.52125
 20
5.75995
 30
0.0
 11
1.0
 21
0.0
 31
0.0
 44
0.6
  3
Notes\P \P1. Important: Carefully consider\P   the maximum system pressure. The\P   pressure rating of the manifold is\P   dependent on the manifold material,\P   with the port type/size a secondary\P   consideration. Manifolds\P   constructed of alu
  1
minum are not\P   rated for pressures higher than\P   3000 psi (210 bar), regardless of\P   the port type/size specified.
 40
0.1
 41
3.04
  0
LINE
  5
290
100
AcDbEntity
  8
0
100
AcDbLine
 62
7
  6
CONTINUOUS
 10
0.30125
 20
0.30125
 11
0.30125
 21
16.69875
  0
LINE
  5
291
100
AcDbEntity
  8
0
100
AcDbLine
 62
7
  6
CONTINUOUS
 10
0.30125
 20
0.30125
 11
21.69875
 21
0.30125
  0
LINE
  5
292
100
AcDbEntity
  8
0
100
AcDbLine
 62
7
  6
CONTINUOUS
 10
0.30125
 20
16.69875
 11
21.69875
 21
16.69875
  0
LINE
  5
293
100
AcDbEntity
  8
0
100
AcDbLine
 62
7
  6
CONTINUOUS
 10
21.69875
 20
0.30125
 11
21.69875
 21
16.69875
  0
LINE
  5
294
100
AcDbEntity
  8
0
100
AcDbLine
 62
7
  6
CONTINUOUS
 10
7.8592810966
 20
12.1509352003
 11
6.597280493
 21
10.9319361522
  0
LINE
  5
295
100
AcDbEntity
  8
0
100
AcDbLine
 62
7
  6
CONTINUOUS
 10
6.597280493
 20
10.9319361522
 11
6.597280493
 21
5.3179751125
  0
LINE
  5
296
100
AcDbEntity
  8
0
100
AcDbLine
 62
4
  6
CONTINUOUS
 10
7.4424656519
 20
10.7574112373
 11
7.4424656519
 21
10.5255890305
  0
LINE
  5
297
100
AcDbEntity
  8
0
100
AcDbLine
 62
7
  6
CONTINUOUS
 10
6.597280493
 20
5.3179751125
 11
13.3587616776
 21
4.8490647997
  0
LINE
  5
298
100
AcDbEntity
  8
0
100
AcDbLine
 62
4
  6
CONTINUOUS
 10
7.9061100656
 20
10.725257388
 11
7.9061100656
 21
10.4934351812
  0
LINE
  5
299
100
AcDbEntity
  8
0
100
AcDbLine
 62
4
  6
CONTINUOUS
 10
8.2973100397
 20
10.4663053708
 11
8.3697544793
 21
10.6931035387
  0
LINE
  5
29A
100
AcDbEntity
  8
0
100
AcDbLine
 62
4
  6
CONTINUOUS
 10
8.1379322724
 20
10.7091804634
 11
8.1379322724
 21
10.4773582565
  0
LINE
  5
29B
100
AcDbEntity
  8
0
100
AcDbLine
 62
7
  6
CONTINUOUS
 10
14.1216479458
 20
5.7401647785
 11
15.0494272256
 21
5.6758230669
  0
LINE
  5
29C
100
AcDbEntity
  8
0
100
AcDbLine
 62
7
  6
CONTINUOUS
 10
14.1071957321
 20
5.7573452314
 11
15.0349750119
 21
5.6930035198
  0
LINE
  5
29D
100
AcDbEntity
  8
0
100
AcDbLine
 62
7
  6
CONTINUOUS
 10
13.6234724616
 20
5.9025000455
 11
14.0523333422
 21
5.8727584424
  0
LINE
  5
29E
100
AcDbEntity
  8
0
100
AcDbLine
 62
4
  6
CONTINUOUS
 10
10.9970727698
 20
6.1835505494
 11
11.1129838732
 21
6.1755120871
  0
LINE
  5
29F
100
AcDbEntity
  8
0
100
AcDbLine
 62
4
  6
CONTINUOUS
 10
8.833398893
 20
10.6609496894
 11
8.833398893
 21
10.4291274826
  0
LINE
  5
2A0
100
AcDbEntity
  8
0
100
AcDbLine
 62
4
  6
CONTINUOUS
 10
10.547917244
 20
6.2919736622
 11
10.6348505716
 21
6.2859448154
  0
LINE
  5
2A1
100
AcDbEntity
  8
0
100
AcDbLine
 62
4
  6
CONTINUOUS
 10
9.8524506234
 20
6.3788414683
 11
9.939383951
 21
6.3728126215
  0
LINE
  5
2A2
100
AcDbEntity
  8
0
100
AcDbLine
 62
4
  6
CONTINUOUS
 10
10.7797394509
 20
6.3145337697
 11
10.8666727784
 21
6.3085049229
  0
LINE
  5
2A3
100
AcDbEntity
  8
0
100
AcDbLine
 62
4
  6
CONTINUOUS
 10
9.5916506407
 20
6.5128391119
 11
9.73653952
 21
6.502791034
  0
LINE
  5
2A4
100
AcDbEntity
  8
0
100
AcDbLine
 62
4
  6
CONTINUOUS
 10
11.0405394336
 20
6.4123583329
 11
11.0695172094
 21
6.4103487173
  0
LINE
  5
2A5
100
AcDbEntity
  8
0
100
AcDbLine
 62
7
  6
CONTINUOUS
 10
14.0047619872
 20
6.3205445474
 11
14.932541267
 21
6.2562028358
  0
LINE
  5
2A6
100
AcDbEntity
  8
0
100
AcDbLine
 62
7
  6
CONTINUOUS
 10
14.0047619872
 20
6.3828249878
 11
14.932541267
 21
6.3184832762
  0
LINE
  5
2A7
100
AcDbEntity
  8
0
100
AcDbLine
 62
4
  6
CONTINUOUS
 10
8.3697544793
 20
10.6931035387
 11
8.442198919
 21
10.4562572929
  0
LINE
  5
2A8
100
AcDbEntity
  8
0
100
AcDbLine
 62
4
  6
CONTINUOUS
 10
11.0695172094
 20
6.4103487173
 11
11.0984949853
 21
6.3890205891
  0
LINE
  5
2A9
100
AcDbEntity
  8
0
100
AcDbLine
 62
4
  6
CONTINUOUS
 10
9.6640950803
 20
6.507815073
 11
9.6640950803
 21
6.2759928661
  0
LINE
  5
2AA
100
AcDbEntity
  8
0
100
AcDbLine
 62
7
  6
CONTINUOUS
 10
14.1071957321
 20
7.1439111149
 11
15.0349750119
 21
7.0795694033
  0
LINE
  5
2AB
100
AcDbEntity
  8
0
100
AcDbLine
 62
4
  6
CONTINUOUS
 10
11.0984949853
 20
6.3890205891
 11
11.1129838732
 21
6.3686972548
  0
LINE
  5
2AC
100
AcDbEntity
  8
0
100
AcDbLine
 62
4
  6
CONTINUOUS
 10
10.127739494
 20
6.4756612237
 11
10.127739494
 21
6.2438390168
  0
LINE
  5
2AD
100
AcDbEntity
  8
0
100
AcDbLine
 62
4
  6
CONTINUOUS
 10
13.8184239283
 20
8.4873811957
 11
13.7563074101
 21
8.4708479068
  0
LINE
  5
2AE
100
AcDbEntity
  8
0
100
AcDbLine
 62
4
  6
CONTINUOUS
 10
13.7873656692
 20
7.718447935
 11
13.7718365397
 21
7.7179368347
  0
LINE
  5
2AF
100
AcDbEntity
  8
0
100
AcDbLine
 62
7
  6
CONTINUOUS
 10
14.1216479458
 20
7.1890111024
 11
15.0494272256
 21
7.1246693908
  0
LINE
  5
2B0
100
AcDbEntity
  8
0
100
AcDbLine
 62
7
  6
CONTINUOUS
 10
13.7202962967
 20
7.3011526738
 11
14.1510262746
 21
7.2712814484
  0
LINE
  5
2B1
100
AcDbEntity
  8
0
100
AcDbLine
 62
7
  6
CONTINUOUS
 10
14.3265154356
 20
7.3868979135
 11
15.2542947154
 21
7.3225562019
  0
LINE
  5
2B2
100
AcDbEntity
  8
0
100
AcDbLine
 62
4
  6
CONTINUOUS
 10
10.5913839078
 20
6.4435073744
 11
10.6638283474
 21
6.2066611286
  0
LINE
  5
2B3
100
AcDbEntity
  8
0
100
AcDbLine
 62
4
  6
CONTINUOUS
 10
10.3595617009
 20
6.459584299
 11
10.3595617009
 21
6.2277620922
  0
LINE
  5
2B4
100
AcDbEntity
  8
0
100
AcDbLine
 62
4
  6
CONTINUOUS
 10
13.8184239283
 20
8.5743145233
 11
13.7563074101
 21
8.5577812344
  0
LINE
  5
2B5
100
AcDbEntity
  8
0
100
AcDbLine
 62
4
  6
CONTINUOUS
 10
11.1129838732
 20
6.3686972548
 11
11.1129838732
 21
6.3300602296
  0
LINE
  5
2B6
100
AcDbEntity
  8
0
100
AcDbLine
 62
4
  6
CONTINUOUS
 10
10.5189394681
 20
6.2167092065
 11
10.5913839078
 21
6.4435073744
  0
LINE
  5
2B7
100
AcDbEntity
  8
0
100
AcDbLine
 62
7
  6
CONTINUOUS
 10
14.6207622813
 20
11.6820248875
 11
13.3587616776
 21
10.4630258394
  0
LINE
  5
2B8
100
AcDbEntity
  8
0
100
AcDbLine
 62
4
  6
CONTINUOUS
 10
14.5327638786
 20
8.766862063
 11
14.5482930082
 21
8.7673731632
  0
LINE
  5
2B9
100
AcDbEntity
  8
0
100
AcDbLine
 62
4
  6
CONTINUOUS
 10
13.8184239283
 20
8.226581213
 11
13.7563074101
 21
8.2390256999
  0
LINE
  5
2BA
100
AcDbEntity
  8
0
100
AcDbLine
 62
4
  6
CONTINUOUS
 10
11.0115616577
 20
6.2405012933
 11
10.9970727698
 21
6.1835505494
  0
LINE
  5
2BB
100
AcDbEntity
  8
0
100
AcDbLine
 62
4
  6
CONTINUOUS
 10
10.9970727698
 20
6.3767357172
 11
11.0115616577
 21
6.3950494358
  0
LINE
  5
2BC
100
AcDbEntity
  8
0
100
AcDbLine
 62
4
  6
CONTINUOUS
 10
11.0405394336
 20
6.2771287099
 11
11.0115616577
 21
6.2405012933
  0
LINE
  5
2BD
100
AcDbEntity
  8
0
100
AcDbLine
 62
4
  6
CONTINUOUS
 10
11.1129838732
 20
6.3300602296
 11
11.0984949853
 21
6.3117465109
  0
LINE
  5
2BE
100
AcDbEntity
  8
0
100
AcDbLine
 62
4
  6
CONTINUOUS
 10
14.5379402548
 20
8.5835065156
 11
14.48617649
 21
8.605950995
  0
LINE
  5
2BF
100
AcDbEntity
  8
0
100
AcDbLine
 62
4
  6
CONTINUOUS
 10
11.0115616577
 20
6.3950494358
 11
11.0405394336
 21
6.4123583329
  0
LINE
  5
2C0
100
AcDbEntity
  8
0
100
AcDbLine
 62
4
  6
CONTINUOUS
 10
11.0984949853
 20
6.3117465109
 11
11.0405394336
 21
6.2771287099
  0
LINE
  5
2C1
100
AcDbEntity
  8
0
100
AcDbLine
 62
4
  6
CONTINUOUS
 10
8.3262878155
 20
10.5415698265
 11
8.4132211431
 21
10.5355409798
  0
LINE
  5
2C2
100
AcDbEntity
  8
0
100
AcDbLine
 62
4
  6
CONTINUOUS
 10
7.6308211949
 20
10.6284376326
 11
7.7177545225
 21
10.6224087859
  0
LINE
  5
2C3
100
AcDbEntity
  8
0
100
AcDbLine
 62
4
  6
CONTINUOUS
 10
8.5581100224
 20
10.564129934
 11
8.64504335
 21
10.5581010873
  0
LINE
  5
2C4
100
AcDbEntity
  8
0
100
AcDbLine
 62
7
  6
CONTINUOUS
 10
14.0205388546
 20
5.9491475604
 11
14.0543158789
 21
5.8679952196
  0
LINE
  5
2C5
100
AcDbEntity
  8
0
100
AcDbLine
 62
4
  6
CONTINUOUS
 10
14.4965292443
 20
8.8332843073
 11
14.5068819948
 21
8.843284297
  0
LINE
  5
2C6
100
AcDbEntity
  8
0
100
AcDbLine
 62
4
  6
CONTINUOUS
 10
13.6941908643
 20
8.0196479147
 11
13.7045436177
 21
8.0296479071
  0
LINE
  5
2C7
100
AcDbEntity
  8
0
100
AcDbLine
 62
4
  6
CONTINUOUS
 10
13.7977184216
 20
8.1051590127
 11
13.808071175
 21
8.1151590051
  0
LINE
  5
2C8
100
AcDbEntity
  8
0
100
AcDbLine
 62
4
  6
CONTINUOUS
 10
13.6631326071
 20
7.8737368367
 11
13.6683089824
 21
7.8787368315
  0
LINE
  5
2C9
100
AcDbEntity
  8
0
100
AcDbLine
 62
4
  6
CONTINUOUS
 10
13.7666601644
 20
7.9592479347
 11
13.7718365397
 21
7.9642479295
  0
LINE
  5
2CA
100
AcDbEntity
  8
0
100
AcDbLine
 62
4
  6
CONTINUOUS
 10
7.3700212122
 20
10.7624352763
 11
7.5149100915
 21
10.7523871984
  0
LINE
  5
2CB
100
AcDbEntity
  8
0
100
AcDbLine
 62
7
  6
CONTINUOUS
 10
13.3587616776
 20
10.4630258394
 11
6.597280493
 21
10.9319361522
  0
LINE
  5
2CC
100
AcDbEntity
  8
0
100
AcDbLine
 62
4
  6
CONTINUOUS
 10
13.6579562281
 20
7.8832257262
 11
13.6631326071
 21
7.8737368367
  0
LINE
  5
2CD
100
AcDbEntity
  8
0
100
AcDbLine
 62
4
  6
CONTINUOUS
 10
13.7718365397
 20
7.7179368347
 11
13.7614837854
 21
7.7369146173
  0
LINE
  5
2CE
100
AcDbEntity
  8
0
100
AcDbLine
 62
4
  6
CONTINUOUS
 10
13.7045436177
 20
8.0296479071
 11
13.7097199944
 21
8.0201590154
  0
LINE
  5
2CF
100
AcDbEntity
  8
0
100
AcDbLine
 62
4
  6
CONTINUOUS
 10
13.7614837854
 20
7.9687368241
 11
13.7666601644
 21
7.9592479347
  0
LINE
  5
2D0
100
AcDbEntity
  8
0
100
AcDbLine
 62
4
  6
CONTINUOUS
 10
13.808071175
 20
7.8833367982
 11
13.8132475516
 21
7.8738479065
  0
LINE
  5
2D1
100
AcDbEntity
  8
0
100
AcDbLine
 62
4
  6
CONTINUOUS
 10
13.808071175
 20
8.1151590051
 11
13.8132475516
 21
8.1056701133
  0
LINE
  5
2D2
100
AcDbEntity
  8
0
100
AcDbLine
 62
7
  6
CONTINUOUS
 10
13.3587616776
 20
4.8490647997
 11
13.3587616776
 21
10.4630258394
  0
LINE
  5
2D3
100
AcDbEntity
  8
0
100
AcDbLine
 62
4
  6
CONTINUOUS
 10
13.6527798529
 20
7.936181283
 11
13.6527798529
 21
7.9072035071
  0
LINE
  5
2D4
100
AcDbEntity
  8
0
100
AcDbLine
 62
4
  6
CONTINUOUS
 10
13.714896371
 20
7.9961812357
 11
13.714896371
 21
7.9672034598
  0
LINE
  5
2D5
100
AcDbEntity
  8
0
100
AcDbLine
 62
4
  6
CONTINUOUS
 10
13.6579562281
 20
7.9701590537
 11
13.6527798529
 21
7.936181283
  0
LINE
  5
2D6
100
AcDbEntity
  8
0
100
AcDbLine
 62
4
  6
CONTINUOUS
 10
13.6631326071
 20
7.9896479401
 11
13.6579562281
 21
7.9701590537
  0
LINE
  5
2D7
100
AcDbEntity
  8
0
100
AcDbLine
 62
4
  6
CONTINUOUS
 10
13.7563074101
 20
8.2390256999
 11
13.8184239283
 21
8.3714700923
  0
LINE
  5
2D8
100
AcDbEntity
  8
0
100
AcDbLine
 62
4
  6
CONTINUOUS
 10
13.7563074101
 20
8.4708479068
 11
13.8184239283
 21
8.5743145233
  0
LINE
  5
2D9
100
AcDbEntity
  8
0
100
AcDbLine
 62
4
  6
CONTINUOUS
 10
13.7563074101
 20
8.3839145792
 11
13.8184239283
 21
8.4873811957
  0
LINE
  5
2DA
100
AcDbEntity
  8
0
100
AcDbLine
 62
4
  6
CONTINUOUS
 10
14.48617649
 20
8.605950995
 11
14.5482930082
 21
8.6659509477
  0
LINE
  5
2DB
100
AcDbEntity
  8
0
100
AcDbLine
 62
4
  6
CONTINUOUS
 10
14.5482930082
 20
8.5210620684
 11
14.48617649
 21
8.4610621157
  0
LINE
  5
2DC
100
AcDbEntity
  8
0
100
AcDbLine
 62
4
  6
CONTINUOUS
 10
13.6527798529
 20
7.9072035071
 11
13.6579562281
 21
7.8832257262
  0
LINE
  5
2DD
100
AcDbEntity
  8
0
100
AcDbLine
 62
4
  6
CONTINUOUS
 10
13.7614837854
 20
7.7369146173
 11
13.7563074101
 21
7.7608923983
  0
LINE
  5
2DE
100
AcDbEntity
  8
0
100
AcDbLine
 62
4
  6
CONTINUOUS
 10
13.7097199944
 20
8.0201590154
 11
13.714896371
 21
7.9961812357
  0
LINE
  5
2DF
100
AcDbEntity
  8
0
100
AcDbLine
 62
4
  6
CONTINUOUS
 10
13.7563074101
 20
7.9927146051
 11
13.7614837854
 21
7.9687368241
  0
LINE
  5
2E0
100
AcDbEntity
  8
0
100
AcDbLine
 62
4
  6
CONTINUOUS
 10
13.8132475516
 20
7.8738479065
 11
13.8184239283
 21
7.8498701268
  0
LINE
  5
2E1
100
AcDbEntity
  8
0
100
AcDbLine
 62
4
  6
CONTINUOUS
 10
13.8132475516
 20
8.1056701133
 11
13.8184239283
 21
8.0816923337
  0
LINE
  5
2E2
100
AcDbEntity
  8
0
100
AcDbLine
 62
4
  6
CONTINUOUS
 10
13.7563074101
 20
8.021692381
 11
13.7563074101
 21
7.9927146051
  0
LINE
  5
2E3
100
AcDbEntity
  8
0
100
AcDbLine
 62
4
  6
CONTINUOUS
 10
13.7563074101
 20
7.7608923983
 11
13.7563074101
 21
7.7898701741
  0
LINE
  5
2E4
100
AcDbEntity
  8
0
100
AcDbLine
 62
4
  6
CONTINUOUS
 10
13.7977184216
 20
8.235559004
 11
13.7977184216
 21
8.3224923316
  0
LINE
  5
2E5
100
AcDbEntity
  8
0
100
AcDbLine
 62
4
  6
CONTINUOUS
 10
13.8184239283
 20
8.0816923337
 11
13.8184239283
 21
8.0527145578
  0
LINE
  5
2E6
100
AcDbEntity
  8
0
100
AcDbLine
 62
4
  6
CONTINUOUS
 10
13.8184239283
 20
7.8498701268
 11
13.8184239283
 21
7.820892351
  0
LINE
  5
2E7
100
AcDbEntity
  8
0
100
AcDbLine
 62
4
  6
CONTINUOUS
 10
13.6734853577
 20
7.8982257143
 11
13.6890144891
 21
8.0001590319
  0
LINE
  5
2E8
100
AcDbEntity
  8
0
100
AcDbLine
 62
4
  6
CONTINUOUS
 10
13.714896371
 20
7.9672034598
 11
13.7097199944
 21
7.9332256878
  0
LINE
  5
2E9
100
AcDbEntity
  8
0
100
AcDbLine
 62
4
  6
CONTINUOUS
 10
13.7614837854
 20
8.0556701517
 11
13.7563074101
 21
8.021692381
  0
LINE
  5
2EA
100
AcDbEntity
  8
0
100
AcDbLine
 62
4
  6
CONTINUOUS
 10
13.777012915
 20
7.9837368123
 11
13.7925420464
 21
8.0856701299
  0
LINE
  5
2EB
100
AcDbEntity
  8
0
100
AcDbLine
 62
4
  6
CONTINUOUS
 10
13.7563074101
 20
7.7898701741
 11
13.7614837854
 21
7.8238479449
  0
LINE
  5
2EC
100
AcDbEntity
  8
0
100
AcDbLine
 62
4
  6
CONTINUOUS
 10
13.8184239283
 20
8.0527145578
 11
13.8132475516
 21
8.0187367858
  0
LINE
  5
2ED
100
AcDbEntity
  8
0
100
AcDbLine
 62
4
  6
CONTINUOUS
 10
13.8184239283
 20
7.820892351
 11
13.8132475516
 21
7.7869145789
  0
LINE
  5
2EE
100
AcDbEntity
  8
0
100
AcDbLine
 62
4
  6
CONTINUOUS
 10
13.6890144891
 20
8.0001590319
 11
13.6941908643
 21
8.0196479147
  0
LINE
  5
2EF
100
AcDbEntity
  8
0
100
AcDbLine
 62
4
  6
CONTINUOUS
 10
13.6683089824
 20
7.8787368315
 11
13.6734853577
 21
7.8982257143
  0
LINE
  5
2F0
100
AcDbEntity
  8
0
100
AcDbLine
 62
4
  6
CONTINUOUS
 10
13.7097199944
 20
7.9332256878
 11
13.6993672415
 21
7.89424792
  0
LINE
  5
2F1
100
AcDbEntity
  8
0
100
AcDbLine
 62
4
  6
CONTINUOUS
 10
13.7666601644
 20
8.0751590381
 11
13.7614837854
 21
8.0556701517
  0
LINE
  5
2F2
100
AcDbEntity
  8
0
100
AcDbLine
 62
4
  6
CONTINUOUS
 10
13.7925420464
 20
8.0856701299
 11
13.7977184216
 21
8.1051590127
  0
LINE
  5
2F3
100
AcDbEntity
  8
0
100
AcDbLine
 62
4
  6
CONTINUOUS
 10
13.7718365397
 20
7.9642479295
 11
13.777012915
 21
7.9837368123
  0
LINE
  5
2F4
100
AcDbEntity
  8
0
100
AcDbLine
 62
4
  6
CONTINUOUS
 10
13.8132475516
 20
8.0187367858
 11
13.8028947988
 21
7.9797590179
  0
LINE
  5
2F5
100
AcDbEntity
  8
0
100
AcDbLine
 62
4
  6
CONTINUOUS
 10
13.7614837854
 20
7.8238479449
 11
13.7666601644
 21
7.8433368312
  0
LINE
  5
2F6
100
AcDbEntity
  8
0
100
AcDbLine
 62
4
  6
CONTINUOUS
 10
13.8132475516
 20
7.7869145789
 11
13.8028947988
 21
7.7479368111
  0
LINE
  5
2F7
100
AcDbEntity
  8
0
100
AcDbLine
 62
4
  6
CONTINUOUS
 10
13.8028947988
 20
7.7479368111
 11
13.7873656692
 21
7.718447935
  0
LINE
  5
2F8
100
AcDbEntity
  8
0
100
AcDbLine
 62
4
  6
CONTINUOUS
 10
14.48617649
 20
8.7798176502
 11
14.4913528653
 21
8.8137954209
  0
LINE
  5
2F9
100
AcDbEntity
  8
0
100
AcDbLine
 62
4
  6
CONTINUOUS
 10
14.4913528653
 20
8.8137954209
 11
14.4965292443
 21
8.8332843073
  0
LINE
  5
2FA
100
AcDbEntity
  8
0
100
AcDbLine
 62
4
  6
CONTINUOUS
 10
14.48617649
 20
8.4610621157
 11
14.5379402548
 21
8.5835065156
  0
LINE
  5
2FB
100
AcDbEntity
  8
0
100
AcDbLine
 62
7
  6
CONTINUOUS
 10
14.1072947867
 20
7.2001300746
 11
14.1394566069
 21
7.2546599511
  0
LINE
  5
2FC
100
AcDbEntity
  8
0
100
AcDbLine
 62
7
  6
CONTINUOUS
 10
14.6207622813
 20
11.6820248875
 11
7.8592810966
 21
12.1509352003
  0
LINE
  5
2FD
100
AcDbEntity
  8
0
100
AcDbLine
 62
4
  6
CONTINUOUS
 10
14.4965292443
 20
8.7173732038
 11
14.4913528653
 21
8.7268620933
  0
LINE
  5
2FE
100
AcDbEntity
  8
0
100
AcDbLine
 62
4
  6
CONTINUOUS
 10
14.5224111262
 20
8.7858398473
 11
14.5327638786
 21
8.766862063
  0
LINE
  5
2FF
100
AcDbEntity
  8
0
100
AcDbLine
 62
4
  6
CONTINUOUS
 10
14.5068819948
 20
8.843284297
 11
14.5120583738
 21
8.8337954075
  0
LINE
  5
300
100
AcDbEntity
  8
0
100
AcDbLine
 62
4
  6
CONTINUOUS
 10
14.4913528653
 20
8.7268620933
 11
14.48617649
 21
8.7508398743
  0
LINE
  5
301
100
AcDbEntity
  8
0
100
AcDbLine
 62
4
  6
CONTINUOUS
 10
14.48617649
 20
8.7508398743
 11
14.48617649
 21
8.7798176502
  0
LINE
  5
302
100
AcDbEntity
  8
0
100
AcDbLine
 62
4
  6
CONTINUOUS
 10
14.5482930082
 20
8.7673731632
 11
14.5482930082
 21
8.8832842666
  0
LINE
  5
303
100
AcDbEntity
  8
0
100
AcDbLine
 62
7
  6
CONTINUOUS
 10
14.6207622813
 20
7.3664918255
 11
14.6207622813
 21
11.6820248875
  0
LINE
  5
304
100
AcDbEntity
  8
0
100
AcDbLine
 62
7
  6
CONTINUOUS
 10
15.3216267823
 20
7.1947257608
 11
15.3392647977
 21
7.1523488413
  0
LINE
  5
305
100
AcDbEntity
  8
0
100
AcDbLine
 62
4
  6
CONTINUOUS
 10
14.5120583738
 20
8.8337954075
 11
14.5224111262
 21
8.7858398473
  0
LINE
  5
306
100
AcDbEntity
  8
0
100
AcDbLine
 62
7
  6
CONTINUOUS
 10
14.2706018175
 20
5.7298347924
 11
13.3587616776
 21
4.8490647997
  0
LINE
  5
307
100
AcDbEntity
  8
0
100
AcDbLine
 62
7
  6
CONTINUOUS
 10
15.2364860543
 20
5.8080610294
 11
15.2473109354
 21
5.8264144504
  0
ARC
  5
308
100
AcDbEntity
  8
0
100
AcDbCircle
 62
7
  6
CONTINUOUS
 10
17.1120821798
 20
6.3514229718
 40
3.1074788602
100
AcDbArc
 50
179.4209989214
 51
179.9979987983
  0
ARC
  5
309
100
AcDbEntity
  8
0
100
AcDbCircle
 62
7
  6
CONTINUOUS
 10
18.0398614594
 20
6.2870812602
 40
3.1074788599
100
AcDbArc
 50
179.4209989214
 51
179.9979987983
  0
ARC
  5
30A
100
AcDbEntity
  8
0
100
AcDbCircle
 62
7
  6
CONTINUOUS
 10
17.950522485
 20
6.2871499904
 40
3.0181398838
100
AcDbArc
 50
179.9992443217
 51
180.587505047
  0
ARC
  5
30B
100
AcDbEntity
  8
0
100
AcDbCircle
 62
7
  6
CONTINUOUS
 10
17.0068411532
 20
6.3514102771
 40
3.0022378341
100
AcDbArc
 50
179.9976863782
 51
180.5890629906
  0
ARC
  5
30C
100
AcDbEntity
  8
0
100
AcDbCircle
 62
7
  6
CONTINUOUS
 10
15.3935209748
 20
6.7565759825
 40
1.3433767659
100
AcDbArc
 50
161.222035826
 51
163.2420288103
  0
ARC
  5
30D
100
AcDbEntity
  8
0
100
AcDbCircle
 62
7
  6
CONTINUOUS
 10
16.3213002547
 20
6.6922342709
 40
1.3433767659
100
AcDbArc
 50
161.222035826
 51
163.2420288103
  0
SPLINE
  5
30E
100
AcDbEntity
  8
0
100
AcDbSpline
 62
7
  6
CONTINUOUS
 70
0
 71
3
 72
26
 73
22
 74
0
 42
0.0000001
 43
0.0000001
 44
0.0000000001
 40
0.0
 40
0.0
 40
0.0
 40
0.0
 40
0.0778943819
 40
0.1545457266
 40
0.2297368588
 40
0.3032865012
 40
0.3750165469
 40
0.4447486113
 40
0.512313976
 40
0.5775522205
 40
0.6403124793
 40
0.7004526304
 40
0.7578430551
 40
0.8123661866
 40
0.8639189524
 40
0.8885547862
 40
0.9124173387
 40
0.9354984572
 40
0.9577920368
 40
0.9792936294
 40
1.0
 40
1.0
 40
1.0
 40
1.0
 10
15.402719507
 20
6.6808786097
 30
0.0
 10
15.402719507
 20
6.6932952588
 30
0.0
 10
15.4025481882
 20
6.7179307913
 30
0.0
 10
15.4017661717
 20
6.7545445878
 30
0.0
 10
15.4004624202
 20
6.7904506584
 30
0.0
 10
15.3986409445
 20
6.8255487579
 30
0.0
 10
15.3963069054
 20
6.8597444532
 30
0.0
 10
15.393466524
 20
6.8929446534
 30
0.0
 10
15.3901279767
 20
6.9250584187
 30
0.0
 10
15.3863001742
 20
6.9559982473
 30
0.0
 10
15.3819941937
 20
6.9856799057
 30
0.0
 10
15.3772215373
 20
7.014022582
 30
0.0
 10
15.3719958116
 20
7.0409493249
 30
0.0
 10
15.3663312875
 20
7.0663868349
 30
0.0
 10
15.3611835209
 20
7.0865810508
 30
0.0
 10
15.3568413715
 20
7.1019278651
 30
0.0
 10
15.353534335
 20
7.1128488691
 30
0.0
 10
15.350129636
 20
7.1233480356
 30
0.0
 10
15.3466296333
 20
7.13341832
 30
0.0
 10
15.3430368657
 20
7.1430528875
 30
0.0
 10
15.3405341367
 20
7.1492990963
 30
0.0
 10
15.3392658269
 20
7.1523463607
 30
0.0
  0
SPLINE
  5
30F
100
AcDbEntity
  8
0
100
AcDbSpline
 62
7
  6
CONTINUOUS
 70
0
 71
3
 72
9
 73
5
 74
0
 42
0.0000001
 43
0.0000001
 44
0.0000000001
 40
0.0
 40
0.0
 40
0.0
 40
0.0
 40
0.4822103164
 40
1.0
 40
1.0
 40
1.0
 40
1.0
 10
14.1216479458
 20
5.7401647785
 30
0.0
 10
14.1190987832
 20
5.7427229434
 30
0.0
 10
14.1140583734
 20
5.7482762356
 30
0.0
 10
14.1094686557
 20
5.7542032729
 30
0.0
 10
14.1071957321
 20
5.7573452314
 30
0.0
  0
SPLINE
  5
310
100
AcDbEntity
  8
0
100
AcDbSpline
 62
7
  6
CONTINUOUS
 70
0
 71
3
 72
9
 73
5
 74
0
 42
0.0000001
 43
0.0000001
 44
0.0000000001
 40
0.0
 40
0.0
 40
0.0
 40
0.0
 40
0.5177896836
 40
1.0
 40
1.0
 40
1.0
 40
1.0
 10
15.2687469291
 20
7.305375749
 30
0.0
 10
15.2664740054
 20
7.3085177075
 30
0.0
 10
15.2618842878
 20
7.3144447448
 30
0.0
 10
15.2568438779
 20
7.3199980371
 30
0.0
 10
15.2542947154
 20
7.3225562019
 30
0.0
  0
SPLINE
  5
311
100
AcDbEntity
  8
0
100
AcDbSpline
 62
7
  6
CONTINUOUS
 70
0
 71
3
 72
23
 73
19
 74
0
 42
0.0000001
 43
0.0000001
 44
0.0000000001
 40
0.0
 40
0.0
 40
0.0
 40
0.0
 40
0.0799539121
 40
0.1579985677
 40
0.2340023766
 40
0.3078369918
 40
0.3793803625
 40
0.4485181738
 40
0.5151516569
 40
0.5792012935
 40
0.6406157324
 40
0.6993728161
 40
0.7554911552
 40
0.8090268336
 40
0.8600822496
 40
0.9088009177
 40
0.9553669497
 40
1.0
 40
1.0
 40
1.0
 40
1.0
 10
15.0494272256
 20
5.6758230669
 30
0.0
 10
15.0550839677
 20
5.6783506946
 30
0.0
 10
15.0662278555
 20
5.6834234031
 30
0.0
 10
15.0826120788
 20
5.6911952841
 30
0.0
 10
15.0984320251
 20
5.6990444146
 30
0.0
 10
15.1136467653
 20
5.7069727462
 30
0.0
 10
15.1282152529
 20
5.7149816125
 30
0.0
 10
15.1420968622
 20
5.7230718389
 30
0.0
 10
15.155252493
 20
5.7312431214
 30
0.0
 10
15.1676453016
 20
5.7394950081
 30
0.0
 10
15.1792427247
 20
5.7478250219
 30
0.0
 10
15.1900160593
 20
5.7562314471
 30
0.0
 10
15.1999436861
 20
5.7647096903
 30
0.0
 10
15.2090092576
 20
5.7732564428
 30
0.0
 10
15.217204917
 20
5.7818658138
 30
0.0
 10
15.2245295566
 20
5.7905326705
 30
0.0
 10
15.2309893261
 20
5.7992500375
 30
0.0
 10
15.2348034761
 20
5.8052077948
 30
0.0
 10
15.2365603647
 20
5.8081870443
 30
0.0
  0
SPLINE
  5
312
100
AcDbEntity
  8
0
100
AcDbSpline
 62
7
  6
CONTINUOUS
 70
0
 71
3
 72
23
 73
19
 74
0
 42
0.0000001
 43
0.0000001
 44
0.0000000001
 40
0.0
 40
0.0
 40
0.0
 40
0.0
 40
0.0799539121
 40
0.1579985677
 40
0.2340023766
 40
0.3078369918
 40
0.3793803625
 40
0.4485181738
 40
0.5151516569
 40
0.5792012935
 40
0.6406157324
 40
0.6993728161
 40
0.7554911552
 40
0.8090268336
 40
0.8600822496
 40
0.9088009177
 40
0.9553669497
 40
1.0
 40
1.0
 40
1.0
 40
1.0
 10
14.3265154356
 20
7.3868979135
 30
0.0
 10
14.3208586934
 20
7.3843702859
 30
0.0
 10
14.3097148056
 20
7.3792975774
 30
0.0
 10
14.2933305824
 20
7.3715256964
 30
0.0
 10
14.277510636
 20
7.3636765658
 30
0.0
 10
14.2622958959
 20
7.3557482342
 30
0.0
 10
14.2477274083
 20
7.347739368
 30
0.0
 10
14.233845799
 20
7.3396491416
 30
0.0
 10
14.2206901681
 20
7.331477859
 30
0.0
 10
14.2082973596
 20
7.3232259724
 30
0.0
 10
14.1966999365
 20
7.3148959585
 30
0.0
 10
14.1859266019
 20
7.3064895333
 30
0.0
 10
14.1759989751
 20
7.2980112902
 30
0.0
 10
14.1669334036
 20
7.2894645377
 30
0.0
 10
14.1587377441
 20
7.2808551667
 30
0.0
 10
14.1514131046
 20
7.27218831
 30
0.0
 10
14.144953335
 20
7.263470943
 30
0.0
 10
14.1411391851
 20
7.2575131857
 30
0.0
 10
14.1393822965
 20
7.2545339362
 30
0.0
  0
SPLINE
  5
313
100
AcDbEntity
  8
0
100
AcDbSpline
 62
7
  6
CONTINUOUS
 70
0
 71
3
 72
10
 73
6
 74
0
 42
0.0000001
 43
0.0000001
 44
0.0000000001
 40
0.0
 40
0.0
 40
0.0
 40
0.0
 40
0.4956618789
 40
0.7468179391
 40
1.0
 40
1.0
 40
1.0
 40
1.0
 10
14.0541521346
 20
5.868388831
 30
0.0
 10
14.0619712675
 20
5.8496130361
 30
0.0
 10
14.0745603263
 20
5.8216534561
 30
0.0
 10
14.0927319513
 20
5.7848609557
 30
0.0
 10
14.102301083
 20
5.7665089583
 30
0.0
 10
14.1071957321
 20
5.7573452314
 30
0.0
  0
SPLINE
  5
314
100
AcDbEntity
  8
0
100
AcDbSpline
 62
7
  6
CONTINUOUS
 70
0
 71
3
 72
10
 73
6
 74
0
 42
0.0000001
 43
0.0000001
 44
0.0000000001
 40
0.0
 40
0.0
 40
0.0
 40
0.0
 40
0.4956618789
 40
0.7468179391
 40
1.0
 40
1.0
 40
1.0
 40
1.0
 10
15.3217905265
 20
7.1943321494
 30
0.0
 10
15.3139713937
 20
7.2131079443
 30
0.0
 10
15.3013823349
 20
7.2410675244
 30
0.0
 10
15.2832107099
 20
7.2778600248
 30
0.0
 10
15.2736415781
 20
7.2962120222
 30
0.0
 10
15.2687469291
 20
7.305375749
 30
0.0
  0
SPLINE
  5
315
100
AcDbEntity
  8
0
100
AcDbSpline
 62
7
  6
CONTINUOUS
 70
0
 71
3
 72
32
 73
28
 74
0
 42
0.0000001
 43
0.0000001
 44
0.0000000001
 40
0.0
 40
0.0
 40
0.0
 40
0.0
 40
0.0188524806
 40
0.0388797984
 40
0.0600710488
 40
0.082408235
 40
0.1058689591
 40
0.1304253447
 40
0.1560461638
 40
0.1826959533
 40
0.2103364106
 40
0.2389259981
 40
0.2684205803
 40
0.2987735997
 40
0.3299360386
 40
0.3618571397
 40
0.3944838806
 40
0.4277619767
 40
0.496044694
 40
0.566242211
 40
0.6378726004
 40
0.7104408555
 40
0.7834440901
 40
0.8563744347
 40
0.9287273391
 40
0.9645337785
 40
1.0
 40
1.0
 40
1.0
 40
1.0
 10
15.2473089451
 20
5.826411091
 30
0.0
 10
15.2501047544
 20
5.831151277
 30
0.0
 10
15.255654813
 20
5.8410553912
 30
0.0
 10
15.2636444605
 20
5.8566687739
 30
0.0
 10
15.271536387
 20
5.8734627797
 30
0.0
 10
15.2793165015
 20
5.8914062715
 30
0.0
 10
15.2869698204
 20
5.9104667246
 30
0.0
 10
15.2944827081
 20
5.9306090193
 30
0.0
 10
15.3018407027
 20
5.9517962145
 30
0.0
 10
15.3090305129
 20
5.9739892064
 30
0.0
 10
15.3160384736
 20
5.9971470978
 30
0.0
 10
15.3228517155
 20
6.0212270985
 30
0.0
 10
15.3294575003
 20
6.0461847236
 30
0.0
 10
15.3358434871
 20
6.0719738121
 30
0.0
 10
15.341997947
 20
6.0985466519
 30
0.0
 10
15.3479091833
 20
6.1258540596
 30
0.0
 10
15.3535665606
 20
6.1538455245
 30
0.0
 10
15.3608186851
 20
6.192340246
 30
0.0
 10
15.369154112
 20
6.2417864903
 30
0.0
 10
15.3779072544
 20
6.3024978547
 30
0.0
 10
15.3854292311
 20
6.3646342647
 30
0.0
 10
15.3916640567
 20
6.4277357828
 30
0.0
 10
15.3965652763
 20
6.4913354532
 30
0.0
 10
15.4000966074
 20
6.5549627362
 30
0.0
 10
15.4018825053
 20
6.6077994674
 30
0.0
 10
15.4025988191
 20
6.6497200486
 30
0.0
 10
15.402719507
 20
6.6705255968
 30
0.0
 10
15.402719507
 20
6.6808786097
 30
0.0
  0
SPLINE
  5
316
100
AcDbEntity
  8
0
100
AcDbSpline
 62
7
  6
CONTINUOUS
 70
0
 71
3
 72
9
 73
5
 74
0
 42
0.0000001
 43
0.0000001
 44
0.0000000001
 40
0.0
 40
0.0
 40
0.0
 40
0.0
 40
0.5177896836
 40
1.0
 40
1.0
 40
1.0
 40
1.0
 10
15.0349750119
 20
5.6930035198
 30
0.0
 10
15.0372479356
 20
5.6898615613
 30
0.0
 10
15.0418376532
 20
5.683934524
 30
0.0
 10
15.0468780631
 20
5.6783812318
 30
0.0
 10
15.0494272256
 20
5.6758230669
 30
0.0
  0
SPLINE
  5
317
100
AcDbEntity
  8
0
100
AcDbSpline
 62
7
  6
CONTINUOUS
 70
0
 71
3
 72
60
 73
56
 74
0
 42
0.0000001
 43
0.0000001
 44
0.0000000001
 40
0.0
 40
0.0
 40
0.0
 40
0.0
 40
0.054460156
 40
0.1080330731
 40
0.1605624138
 40
0.2119173153
 40
0.2619687453
 40
0.3105878897
 40
0.3576533721
 40
0.4030497456
 40
0.4466685865
 40
0.4884083826
 40
0.5281764953
 40
0.5472953165
 40
0.5658910194
 40
0.5839546511
 40
0.601478435
 40
0.6184555238
 40
0.6348796131
 40
0.6507454189
 40
0.6660492268
 40
0.6807882525
 40
0.6949607733
 40
0.7085670379
 40
0.7216090476
 40
0.7340903634
 40
0.7460168409
 40
0.7573973239
 40
0.7682432967
 40
0.7785694061
 40
0.7883946933
 40
0.7977427338
 40
0.8066420036
 40
0.8151270066
 40
0.8232390785
 40
0.8310263415
 40
0.8385440368
 40
0.8458545864
 40
0.8530263359
 40
0.8601319564
 40
0.8672464196
 40
0.8744443431
 40
0.8817975737
 40
0.8893732505
 40
0.8972320404
 40
0.905427544
 40
0.9140063938
 40
0.923008187
 40
0.9324658281
 40
0.9424067323
 40
0.9528534547
 40
0.963823673
 40
0.9753313372
 40
0.9873874631
 40
1.0
 40
1.0
 40
1.0
 40
1.0
 10
15.0181147234
 20
6.3093788943
 30
0.0
 10
15.0181147234
 20
6.2967471386
 30
0.0
 10
15.0182919877
 20
6.2716890179
 30
0.0
 10
15.0191013928
 20
6.2344548598
 30
0.0
 10
15.0204507302
 20
6.1979569243
 30
0.0
 10
15.0223357595
 20
6.1623005594
 30
0.0
 10
15.0247508835
 20
6.1275851275
 30
0.0
 10
15.0276895201
 20
6.0939085172
 30
0.0
 10
15.0311428384
 20
6.0613661775
 30
0.0
 10
15.0351012923
 20
6.0300498868
 30
0.0
 10
15.0395531047
 20
6.0000478336
 30
0.0
 10
15.0444858119
 20
5.9714447517
 30
0.0
 10
15.0490428401
 20
5.9485508423
 30
0.0
 10
15.0529320684
 20
5.931004436
 30
0.0
 10
15.0559218091
 20
5.9184166222
 30
0.0
 10
15.0590207052
 20
5.9062365996
 30
0.0
 10
15.0622265206
 20
5.894472911
 30
0.0
 10
15.0655368575
 20
5.8831337766
 30
0.0
 10
15.068949454
 20
5.8722272267
 30
0.0
 10
15.0724620287
 20
5.8617609816
 30
0.0
 10
15.076071912
 20
5.8517422889
 30
0.0
 10
15.0797765407
 20
5.842178147
 30
0.0
 10
15.0835735235
 20
5.8330753547
 30
0.0
 10
15.0874601095
 20
5.8244402105
 30
0.0
 10
15.0914334723
 20
5.816278616
 30
0.0
 10
15.0954909879
 20
5.8085963072
 30
0.0
 10
15.0996300342
 20
5.8013986807
 30
0.0
 10
15.1038476103
 20
5.7946905245
 30
0.0
 10
15.1081409307
 20
5.7884764107
 30
0.0
 10
15.1125074938
 20
5.7827608185
 30
0.0
 10
15.1169444347
 20
5.7775475961
 30
0.0
 10
15.1214489568
 20
5.7728402451
 30
0.0
 10
15.12601859
 20
5.768642356
 30
0.0
 10
15.1306508456
 20
5.7649573685
 30
0.0
 10
15.1353428602
 20
5.7617881408
 30
0.0
 10
15.1400918933
 20
5.7591377585
 30
0.0
 10
15.1448950444
 20
5.7570097122
 30
0.0
 10
15.1497485511
 20
5.7554066424
 30
0.0
 10
15.1546481769
 20
5.7543308042
 30
0.0
 10
15.1595891975
 20
5.7537843098
 30
0.0
 10
15.1645663475
 20
5.7537681089
 30
0.0
 10
15.1695743719
 20
5.7542814106
 30
0.0
 10
15.1746084175
 20
5.7553229941
 30
0.0
 10
15.1796639698
 20
5.7568912694
 30
0.0
 10
15.184737256
 20
5.7589833978
 30
0.0
 10
15.1898249638
 20
5.7615966218
 30
0.0
 10
15.1949238355
 20
5.7647285287
 30
0.0
 10
15.2000307912
 20
5.768376338
 30
0.0
 10
15.2051429876
 20
5.7725368417
 30
0.0
 10
15.2102573024
 20
5.7772070645
 30
0.0
 10
15.2153703572
 20
5.782383917
 30
0.0
 10
15.2204790886
 20
5.7880635471
 30
0.0
 10
15.2255802293
 20
5.7942420082
 30
0.0
 10
15.2306701594
 20
5.8009151367
 30
0.0
 10
15.2339787486
 20
5.8055848636
 30
0.0
 10
15.2356322131
 20
5.8079981809
 30
0.0
  0
SPLINE
  5
318
100
AcDbEntity
  8
0
100
AcDbSpline
 62
7
  6
CONTINUOUS
 70
0
 71
3
 72
9
 73
5
 74
0
 42
0.0000001
 43
0.0000001
 44
0.0000000001
 40
0.0
 40
0.0
 40
0.0
 40
0.0
 40
0.4879299599
 40
1.0
 40
1.0
 40
1.0
 40
1.0
 10
15.2356322131
 20
5.8079981809
 30
0.0
 10
15.2376368097
 20
5.8109239938
 30
0.0
 10
15.2416310638
 20
5.8169990931
 30
0.0
 10
15.2454180018
 20
5.8232050701
 30
0.0
 10
15.2473089451
 20
5.826411091
 30
0.0
  0
SPLINE
  5
319
100
AcDbEntity
  8
0
100
AcDbSpline
 62
7
  6
CONTINUOUS
 70
0
 71
3
 72
32
 73
28
 74
0
 42
0.0000001
 43
0.0000001
 44
0.0000000001
 40
0.0
 40
0.0
 40
0.0
 40
0.0
 40
0.0215376698
 40
0.043117551
 40
0.0647921
 40
0.0866205444
 40
0.1086685533
 40
0.1310077916
 40
0.1537137488
 40
0.176865752
 40
0.2005447526
 40
0.224831394
 40
0.2755265935
 40
0.3295529576
 40
0.3873900401
 40
0.4493795151
 40
0.4820009272
 40
0.5157192494
 40
0.5505358852
 40
0.5864427148
 40
0.6234263991
 40
0.661465708
 40
0.700535023
 40
0.7406043398
 40
0.8236029161
 40
0.9101723773
 40
1.0
 40
1.0
 40
1.0
 40
1.0
 10
15.2542947154
 20
7.3225562019
 30
0.0
 10
15.254306472
 20
7.3203938792
 30
0.0
 10
15.2542294903
 20
7.3160636981
 30
0.0
 10
15.2537970345
 20
7.3095704657
 30
0.0
 10
15.253032052
 20
7.303078198
 30
0.0
 10
15.251919022
 20
7.2965886056
 30
0.0
 10
15.2504424219
 20
7.2901033026
 30
0.0
 10
15.2485867913
 20
7.283624284
 30
0.0
 10
15.2463377614
 20
7.2771535323
 30
0.0
 10
15.2436810227
 20
7.2706935241
 30
0.0
 10
15.2406034687
 20
7.2642466241
 30
0.0
 10
15.2358565116
 20
7.2555480047
 30
0.0
 10
15.2287443937
 20
7.2446932435
 30
0.0
 10
15.218494599
 20
7.231963445
 30
0.0
 10
15.206385411
 20
7.219365119
 30
0.0
 10
15.1949523965
 20
7.2091685993
 30
0.0
 10
15.1849275551
 20
7.201072815
 30
0.0
 10
15.1768324948
 20
7.1949371232
 30
0.0
 10
15.1682983033
 20
7.1888423423
 30
0.0
 10
15.1593364005
 20
7.1827888922
 30
0.0
 10
15.1499591347
 20
7.1767783751
 30
0.0
 10
15.1401806673
 20
7.170810822
 30
0.0
 10
15.1300156362
 20
7.1648868213
 30
0.0
 10
15.1158004925
 20
7.1569533293
 30
0.0
 10
15.0971593559
 20
7.1471726167
 30
0.0
 10
15.0737582698
 20
7.1357371887
 30
0.0
 10
15.0576611874
 20
7.1283486092
 30
0.0
 10
15.0494272256
 20
7.1246693908
 30
0.0
  0
SPLINE
  5
31A
100
AcDbEntity
  8
0
100
AcDbSpline
 62
7
  6
CONTINUOUS
 70
0
 71
3
 72
26
 73
22
 74
0
 42
0.0000001
 43
0.0000001
 44
0.0000000001
 40
0.0
 40
0.0
 40
0.0
 40
0.0
 40
0.1231333723
 40
0.1848636738
 40
0.2467152012
 40
0.3086988831
 40
0.3708245552
 40
0.4019444326
 40
0.4331024549
 40
0.4642989676
 40
0.4955343482
 40
0.5268084985
 40
0.5581212017
 40
0.5894720745
 40
0.6208603669
 40
0.6837432551
 40
0.746763842
 40
0.8099115896
 40
0.8731746149
 40
0.9365417455
 40
1.0
 40
1.0
 40
1.0
 40
1.0
 10
15.0349750119
 20
7.0795694033
 30
0.0
 10
15.0392032111
 20
7.0479204149
 30
0.0
 10
15.0443759673
 20
7.0002309344
 30
0.0
 10
15.0484453836
 20
6.9363758895
 30
0.0
 10
15.0499671763
 20
6.8882709397
 30
0.0
 10
15.0498415691
 20
6.8400393127
 30
0.0
 10
15.0482830015
 20
6.7998063745
 30
0.0
 10
15.0461285657
 20
6.7676172423
 30
0.0
 10
15.0440509844
 20
6.7434657052
 30
0.0
 10
15.0415087039
 20
6.7193285922
 30
0.0
 10
15.0384983131
 20
6.6952150109
 30
0.0
 10
15.0350216347
 20
6.6711337956
 30
0.0
 10
15.0310792806
 20
6.6470941058
 30
0.0
 10
15.0266770206
 20
6.6231042375
 30
0.0
 10
15.0201989476
 20
6.5911777319
 30
0.0
 10
15.0109860866
 20
6.551433961
 30
0.0
 10
14.9982450373
 20
6.5040854665
 30
0.0
 10
14.9839221227
 20
6.4570890923
 30
0.0
 10
14.968140045
 20
6.4104688438
 30
0.0
 10
14.9510268704
 20
6.36423622
 30
0.0
 10
14.9388232641
 20
6.3336925894
 30
0.0
 10
14.932541267
 20
6.3184832762
 30
0.0
  0
SPLINE
  5
31B
100
AcDbEntity
  8
0
100
AcDbSpline
 62
7
  6
CONTINUOUS
 70
0
 71
3
 72
26
 73
22
 74
0
 42
0.0000001
 43
0.0000001
 44
0.0000000001
 40
0.0
 40
0.0
 40
0.0
 40
0.0
 40
0.0634582545
 40
0.1268253851
 40
0.1900884104
 40
0.253236158
 40
0.3162567449
 40
0.3791396331
 40
0.4105279256
 40
0.4418787983
 40
0.4731915015
 40
0.5044656518
 40
0.5357010324
 40
0.5668975452
 40
0.5980555675
 40
0.6291754448
 40
0.6913011169
 40
0.7532847989
 40
0.8151363262
 40
0.8768666278
 40
1.0
 40
1.0
 40
1.0
 40
1.0
 10
14.1071957321
 20
7.1439111149
 30
0.0
 10
14.1009137349
 20
7.1287018018
 30
0.0
 10
14.0887101287
 20
7.0981581711
 30
0.0
 10
14.071596954
 20
7.0519255473
 30
0.0
 10
14.0558148764
 20
7.0053052988
 30
0.0
 10
14.0414919617
 20
6.9583089247
 30
0.0
 10
14.0287509124
 20
6.9109604301
 30
0.0
 10
14.0195380515
 20
6.8712166592
 30
0.0
 10
14.0130599784
 20
6.8392901536
 30
0.0
 10
14.0086577184
 20
6.8153002853
 30
0.0
 10
14.0047153643
 20
6.7912605955
 30
0.0
 10
14.0012386859
 20
6.7671793803
 30
0.0
 10
13.9982282951
 20
6.7430657989
 30
0.0
 10
13.9956860146
 20
6.718928686
 30
0.0
 10
13.9936084334
 20
6.6947771489
 30
0.0
 10
13.9914539975
 20
6.6625880166
 30
0.0
 10
13.9898954299
 20
6.6223550784
 30
0.0
 10
13.9897698227
 20
6.5741234515
 30
0.0
 10
13.9912916154
 20
6.5260185017
 30
0.0
 10
13.9953610317
 20
6.4621634568
 30
0.0
 10
14.0005337879
 20
6.4144739763
 30
0.0
 10
14.0047619872
 20
6.3828249878
 30
0.0
  0
SPLINE
  5
31C
100
AcDbEntity
  8
0
100
AcDbSpline
 62
7
  6
CONTINUOUS
 70
0
 71
3
 72
26
 73
22
 74
0
 42
0.0000001
 43
0.0000001
 44
0.0000000001
 40
0.0
 40
0.0
 40
0.0
 40
0.0
 40
0.0680805018
 40
0.1354495093
 40
0.2020500241
 40
0.2678347882
 40
0.3327677825
 40
0.3968306463
 40
0.4600266342
 40
0.4913095775
 40
0.5223880352
 40
0.5532694198
 40
0.5839618994
 40
0.6144754101
 40
0.6448203987
 40
0.7050459476
 40
0.7647386599
 40
0.8239946247
 40
0.8829043666
 40
0.9415499526
 40
1.0
 40
1.0
 40
1.0
 40
1.0
 10
14.932541267
 20
6.2562028358
 30
0.0
 10
14.9387964879
 20
6.2444918561
 30
0.0
 10
14.9509463554
 20
6.2210327691
 30
0.0
 10
14.968058968
 20
6.1855330679
 30
0.0
 10
14.9838428213
 20
6.1499102778
 30
0.0
 10
14.9981702135
 20
6.1141869373
 30
0.0
 10
15.0109186157
 20
6.0783931389
 30
0.0
 10
15.0219775038
 20
6.0425686227
 30
0.0
 10
15.0297358185
 20
6.0126264338
 30
0.0
 10
15.0350117226
 20
5.9887136416
 30
0.0
 10
15.0384900245
 20
5.9708635066
 30
0.0
 10
15.0415019178
 20
5.9530456023
 30
0.0
 10
15.0440456715
 20
5.9352661361
 30
0.0
 10
15.0461245927
 20
5.9175315606
 30
0.0
 10
15.0482764738
 20
5.8940142673
 30
0.0
 10
15.0498386049
 20
5.8647385441
 30
0.0
 10
15.0499692673
 20
5.8297833323
 30
0.0
 10
15.0484501356
 20
5.7951187452
 30
0.0
 10
15.0453957021
 20
5.760762176
 30
0.0
 10
15.0409293678
 20
5.7267210177
 30
0.0
 10
15.0370888062
 20
5.7042045646
 30
0.0
 10
15.0349750119
 20
5.6930035198
 30
0.0
  0
SPLINE
  5
31D
100
AcDbEntity
  8
0
100
AcDbSpline
 62
7
  6
CONTINUOUS
 70
0
 71
3
 72
25
 73
21
 74
0
 42
0.0000001
 43
0.0000001
 44
0.0000000001
 40
0.0
 40
0.0
 40
0.0
 40
0.0
 40
0.0595450565
 40
0.1192408766
 40
0.1791292779
 40
0.2392613676
 40
0.2996928001
 40
0.3604841597
 40
0.4216988827
 40
0.4524863391
 40
0.4834034426
 40
0.5456525569
 40
0.6085043473
 40
0.640172502
 40
0.6720077737
 40
0.7040141447
 40
0.7361946223
 40
0.8010841399
 40
0.8666883151
 40
1.0
 40
1.0
 40
1.0
 40
1.0
 10
14.0047619872
 20
6.3205445474
 30
0.0
 10
14.0030616951
 20
6.3115346608
 30
0.0
 10
13.9999116992
 20
6.2934427063
 30
0.0
 10
13.9960089097
 20
6.2661329501
 30
0.0
 10
13.9929878047
 20
6.2386198215
 30
0.0
 10
13.9909138867
 20
6.210904944
 30
0.0
 10
13.9898498709
 20
6.1829930943
 30
0.0
 10
13.9898544231
 20
6.1548938971
 30
0.0
 10
13.9907908512
 20
6.1313780719
 30
0.0
 10
13.9921166376
 20
6.1124959687
 30
0.0
 10
13.9938418719
 20
6.0934861866
 30
0.0
 10
13.996749027
 20
6.0696314221
 30
0.0
 10
14.0006484118
 20
6.0458015507
 30
0.0
 10
14.0043667543
 20
6.0267025384
 30
0.0
 10
14.0074641257
 20
6.0123245147
 30
0.0
 10
14.0108606271
 20
5.9979331698
 30
0.0
 10
14.0157965547
 20
5.9786792665
 30
0.0
 10
14.0227040086
 20
5.9545946477
 30
0.0
 10
14.0352934925
 20
5.9159668628
 30
0.0
 10
14.0462603993
 20
5.8873389638
 30
0.0
 10
14.0541521346
 20
5.868388831
 30
0.0
  0
SPLINE
  5
31E
100
AcDbEntity
  8
0
100
AcDbSpline
 62
7
  6
CONTINUOUS
 70
0
 71
3
 72
33
 73
29
 74
0
 42
0.0000001
 43
0.0000001
 44
0.0000000001
 40
0.0
 40
0.0
 40
0.0
 40
0.0
 40
0.0188524151
 40
0.0388801401
 40
0.0600713199
 40
0.0824088273
 40
0.1058695194
 40
0.13042609
 40
0.1560469568
 40
0.1826967912
 40
0.210337347
 40
0.2389268664
 40
0.2684215828
 40
0.298774473
 40
0.3299370121
 40
0.3618579694
 40
0.3944847558
 40
0.4277627193
 40
0.4616358067
 40
0.4960465887
 40
0.5662439052
 40
0.6378740647
 40
0.7104420114
 40
0.7834450511
 40
0.8563748359
 40
0.9287279421
 40
0.9645343828
 40
1.0
 40
1.0
 40
1.0
 40
1.0
 10
14.1072949885
 20
7.2001302689
 30
0.0
 10
14.1046572541
 20
7.1956580518
 30
0.0
 10
14.0994207953
 20
7.1863137906
 30
0.0
 10
14.0918831855
 20
7.171582758
 30
0.0
 10
14.084437129
 20
7.1557380476
 30
0.0
 10
14.0770971453
 20
7.1388086998
 30
0.0
 10
14.0698763169
 20
7.1208256629
 30
0.0
 10
14.062788327
 20
7.1018218847
 30
0.0
 10
14.0558462676
 20
7.0818323332
 30
0.0
 10
14.0490629539
 20
7.0608938428
 30
0.0
 10
14.042451268
 20
7.0390450185
 30
0.0
 10
14.036023128
 20
7.0163262338
 30
0.0
 10
14.0297909675
 20
6.9927794362
 30
0.0
 10
14.0237658707
 20
6.9684482091
 30
0.0
 10
14.0179595519
 20
6.943377537
 30
0.0
 10
14.0123823605
 20
6.9176138428
 30
0.0
 10
14.0070450216
 20
6.8912047887
 30
0.0
 10
14.0019572231
 20
6.8641992961
 30
0.0
 10
13.9971285003
 20
6.8366473267
 30
0.0
 10
13.9910072933
 20
6.7990018327
 30
0.0
 10
13.9840804846
 20
6.7509559636
 30
0.0
 10
13.9769837722
 20
6.6923325494
 30
0.0
 10
13.9711014652
 20
6.6327983168
 30
0.0
 10
13.9664773808
 20
6.572794257
 30
0.0
 10
13.9631456753
 20
6.5127639901
 30
0.0
 10
13.9614607667
 20
6.4629142315
 30
0.0
 10
13.9607849611
 20
6.4233635424
 30
0.0
 10
13.9606710872
 20
6.4037343035
 30
0.0
 10
13.9606710872
 20
6.3939667157
 30
0.0
  0
SPLINE
  5
31F
100
AcDbEntity
  8
0
100
AcDbSpline
 62
7
  6
CONTINUOUS
 70
0
 71
3
 72
15
 73
11
 74
0
 42
0.0000001
 43
0.0000001
 44
0.0000000001
 40
0.0
 40
0.0
 40
0.0
 40
0.0
 40
0.134872502
 40
0.2655437471
 40
0.3927334107
 40
0.5171576974
 40
0.6394968109
 40
0.7603850033
 40
0.8803886888
 40
1.0
 40
1.0
 40
1.0
 40
1.0
 10
14.1393822965
 20
7.2545339362
 30
0.0
 10
14.1378128052
 20
7.2518724663
 30
0.0
 10
14.1348935245
 20
7.2465291183
 30
0.0
 10
14.1311306766
 20
7.2383490191
 30
0.0
 10
14.1280364863
 20
7.2301482473
 30
0.0
 10
14.1255829643
 20
7.2219329
 30
0.0
 10
14.123740868
 20
7.2137074576
 30
0.0
 10
14.1224787519
 20
7.2054761587
 30
0.0
 10
14.1217648103
 20
7.1972429013
 30
0.0
 10
14.1216330477
 20
7.1917512226
 30
0.0
 10
14.1216479458
 20
7.1890111024
 30
0.0
  0
SPLINE
  5
320
100
AcDbEntity
  8
0
100
AcDbSpline
 62
7
  6
CONTINUOUS
 70
0
 71
3
 72
26
 73
22
 74
0
 42
0.0000001
 43
0.0000001
 44
0.0000000001
 40
0.0
 40
0.0
 40
0.0
 40
0.0
 40
0.0207063337
 40
0.0422076254
 40
0.0645011301
 40
0.0875824401
 40
0.111444826
 40
0.1360804326
 40
0.1876333667
 40
0.2421562135
 40
0.2995467554
 40
0.3596868206
 40
0.4224471222
 40
0.4876853746
 40
0.5552507568
 40
0.6249830937
 40
0.6967129975
 40
0.7702624398
 40
0.845454191
 40
0.9221063876
 40
1.0
 40
1.0
 40
1.0
 40
1.0
 10
14.0205384079
 20
5.9491487205
 30
0.0
 10
14.0193418089
 20
5.9520237407
 30
0.0
 10
14.0169805375
 20
5.9579168238
 30
0.0
 10
14.0135907552
 20
5.9670066968
 30
0.0
 10
14.0102885694
 20
5.9765077242
 30
0.0
 10
14.0070764074
 20
5.9864134463
 30
0.0
 10
14.0039562252
 20
5.9967170861
 30
0.0
 10
13.9998594178
 20
6.0111963617
 30
0.0
 10
13.9950027596
 20
6.0302490817
 30
0.0
 10
13.9896582331
 20
6.054248696
 30
0.0
 10
13.9847279744
 20
6.0796533865
 30
0.0
 10
13.9802250064
 20
6.1063939917
 30
0.0
 10
13.9761624154
 20
6.1343978923
 30
0.0
 10
13.972550974
 20
6.1635888594
 30
0.0
 10
13.9694010753
 20
6.1938874365
 30
0.0
 10
13.9667212901
 20
6.2252110249
 30
0.0
 10
13.9645191143
 20
6.2574737968
 30
0.0
 10
13.9628006152
 20
6.2905880228
 30
0.0
 10
13.9615705291
 20
6.3244646967
 30
0.0
 10
13.9608327414
 20
6.3590090083
 30
0.0
 10
13.9606710872
 20
6.3822520321
 30
0.0
 10
13.9606710872
 20
6.3939667157
 30
0.0
  0
SPLINE
  5
321
100
AcDbEntity
  8
0
100
AcDbSpline
 62
7
  6
CONTINUOUS
 70
0
 71
3
 72
11
 73
7
 74
0
 42
0.0000001
 43
0.0000001
 44
0.0000000001
 40
0.0
 40
0.0
 40
0.0
 40
0.0
 40
0.2712281127
 40
0.5282146254
 40
0.7710695329
 40
1.0
 40
1.0
 40
1.0
 40
1.0
 10
15.3392658269
 20
7.1523463607
 30
0.0
 10
15.3376799105
 20
7.1561567126
 30
0.0
 10
15.334467693
 20
7.1635268383
 30
0.0
 10
15.3293747177
 20
7.1741004711
 30
0.0
 10
15.3241426932
 20
7.1838821213
 30
0.0
 10
15.3204581568
 20
7.1900477965
 30
0.0
 10
15.3185894127
 20
7.1929877187
 30
0.0
  0
SPLINE
  5
322
100
AcDbEntity
  8
0
100
AcDbSpline
 62
7
  6
CONTINUOUS
 70
0
 71
3
 72
63
 73
59
 74
0
 42
0.0000001
 43
0.0000001
 44
0.0000000001
 40
0.0
 40
0.0
 40
0.0
 40
0.0
 40
0.0091052599
 40
0.0176596915
 40
0.025688894
 40
0.0332263474
 40
0.0403147015
 40
0.0470079109
 40
0.0533716395
 40
0.0564552966
 40
0.0594868385
 40
0.062477733
 40
0.0654399534
 40
0.0683858574
 40
0.0713280421
 40
0.0742791574
 40
0.0772517142
 40
0.0802579308
 40
0.0833095966
 40
0.0895907891
 40
0.0961797723
 40
0.0996128782
 40
0.103147911
 40
0.1105485008
 40
0.1184292746
 40
0.1268263788
 40
0.1357675541
 40
0.1452731753
 40
0.1553582814
 40
0.1660327336
 40
0.1773022815
 40
0.1891697065
 40
0.2016343399
 40
0.2146932831
 40
0.2283416624
 40
0.2425721983
 40
0.2573763882
 40
0.2727440764
 40
0.2886634755
 40
0.3051220334
 40
0.3221056731
 40
0.3395993157
 40
0.3575872395
 40
0.3760523636
 40
0.4143421907
 40
0.4543190766
 40
0.495821723
 40
0.5386794484
 40
0.5827133609
 40
0.6277378899
 40
0.6735619287
 40
0.7199898206
 40
0.7668224094
 40
0.8138587577
 40
0.8608965244
 40
0.9077318448
 40
0.954169038
 40
1.0
 40
1.0
 40
1.0
 40
1.0
 10
15.3185894127
 20
7.1929877187
 30
0.0
 10
15.3168480845
 20
7.1957271892
 30
0.0
 10
15.3133332805
 20
7.2009551535
 30
0.0
 10
15.307773339
 20
7.2082400281
 30
0.0
 10
15.302098465
 20
7.2147109858
 30
0.0
 10
15.2963139304
 20
7.2203604969
 30
0.0
 10
15.2904235421
 20
7.225180997
 30
0.0
 10
15.2844331857
 20
7.2291655
 30
0.0
 10
15.279306923
 20
7.2318107578
 30
0.0
 10
15.2751806316
 20
7.2334803407
 30
0.0
 10
15.2720986257
 20
7.2345073997
 30
0.0
 10
15.2689984327
 20
7.2353216904
 30
0.0
 10
15.265880968
 20
7.2359229096
 30
0.0
 10
15.2627472863
 20
7.2363106854
 30
0.0
 10
15.2595984603
 20
7.23648474
 30
0.0
 10
15.2564355939
 20
7.2364451639
 30
0.0
 10
15.2532597929
 20
7.2361920961
 30
0.0
 10
15.2500720209
 20
7.2357256457
 30
0.0
 10
15.2457665888
 20
7.234811059
 30
0.0
 10
15.2403354188
 20
7.2331114298
 30
0.0
 10
15.2350111105
 20
7.2307516945
 30
0.0
 10
15.2307517427
 20
7.2284642518
 30
0.0
 10
15.2263596828
 20
7.2258244671
 30
0.0
 10
15.2208556932
 20
7.2219738488
 30
0.0
 10
15.2143429497
 20
7.2165913782
 30
0.0
 10
15.2078294456
 20
7.210384387
 30
0.0
 10
15.2013218774
 20
7.2033602102
 30
0.0
 10
15.1948261238
 20
7.1955268493
 30
0.0
 10
15.1883493858
 20
7.1868925945
 30
0.0
 10
15.1818983975
 20
7.1774671005
 30
0.0
 10
15.1754800324
 20
7.1672608841
 30
0.0
 10
15.1691018586
 20
7.1562850978
 30
0.0
 10
15.1627706772
 20
7.1445522481
 30
0.0
 10
15.1564937431
 20
7.132075503
 30
0.0
 10
15.1502784616
 20
7.118868881
 30
0.0
 10
15.1441315519
 20
7.1049475068
 30
0.0
 10
15.1380603226
 20
7.0903271145
 30
0.0
 10
15.132071756
 20
7.0750243658
 30
0.0
 10
15.1261724708
 20
7.0590567902
 30
0.0
 10
15.1203695864
 20
7.0424425394
 30
0.0
 10
15.1146695871
 20
7.0252006625
 30
0.0
 10
15.1090789613
 20
7.0073509021
 30
0.0
 10
15.1036043869
 20
6.988913608
 30
0.0
 10
15.0963803542
 20
6.9632646433
 30
0.0
 10
15.0877063793
 20
6.9298837179
 30
0.0
 10
15.0779771238
 20
6.8883048479
 30
0.0
 10
15.0688508545
 20
6.8449241621
 30
0.0
 10
15.0603697562
 20
6.7999404406
 30
0.0
 10
15.0525729338
 20
6.7535596376
 30
0.0
 10
15.0454963765
 20
6.7059942753
 30
0.0
 10
15.0391728067
 20
6.6574622963
 30
0.0
 10
15.033631382
 20
6.608186205
 30
0.0
 10
15.0288974958
 20
6.5583918953
 30
0.0
 10
15.0249929606
 20
6.5083076401
 30
0.0
 10
15.0219358627
 20
6.4581635615
 30
0.0
 10
15.0197398351
 20
6.408188128
 30
0.0
 10
15.0184154269
 20
6.3586124967
 30
0.0
 10
15.0181147234
 20
6.3257178206
 30
0.0
 10
15.0181147234
 20
6.3093788943
 30
0.0
  0
SPLINE
  5
323
100
AcDbEntity
  8
0
100
AcDbSpline
 62
7
  6
CONTINUOUS
 70
0
 71
3
 72
23
 73
19
 74
0
 42
0.0000001
 43
0.0000001
 44
0.0000000001
 40
0.0
 40
0.0
 40
0.0
 40
0.0
 40
0.0637764154
 40
0.1273451281
 40
0.190701988
 40
0.253856063
 40
0.3168132283
 40
0.3795820791
 40
0.4421733864
 40
0.5045993414
 40
0.5668738629
 40
0.629012379
 40
0.6910316532
 40
0.7529496461
 40
0.8147853522
 40
0.8765586034
 40
0.9382898574
 40
1.0
 40
1.0
 40
1.0
 40
1.0
 10
7.9940093675
 20
7.4118314312
 30
0.0
 10
7.9940093675
 20
7.4053205684
 30
0.0
 10
7.9936976966
 20
7.392317842
 30
0.0
 10
7.992291157
 20
7.3728928821
 30
0.0
 10
7.9899491782
 20
7.3536218477
 30
0.0
 10
7.9866774022
 20
7.3345501112
 30
0.0
 10
7.9824831528
 20
7.3157211838
 30
0.0
 10
7.9773761329
 20
7.2971785932
 30
0.0
 10
7.9713680902
 20
7.2789650712
 30
0.0
 10
7.9644727476
 20
7.2611226372
 30
0.0
 10
7.9567060286
 20
7.2436924279
 30
0.0
 10
7.9480858314
 20
7.2267146299
 30
0.0
 10
7.9386319617
 20
7.2102284308
 30
0.0
 10
7.9283661704
 20
7.1942718713
 30
0.0
 10
7.9173122045
 20
7.1788817617
 30
0.0
 10
7.9054954099
 20
7.1640934856
 30
0.0
 10
7.8929434492
 20
7.1499416655
 30
0.0
 10
7.8841030102
 20
7.1409515202
 30
0.0
 10
7.879571765
 20
7.1365746721
 30
0.0
  0
SPLINE
  5
324
100
AcDbEntity
  8
0
100
AcDbSpline
 62
7
  6
CONTINUOUS
 70
0
 71
3
 72
23
 73
19
 74
0
 42
0.0000001
 43
0.0000001
 44
0.0000000001
 40
0.0
 40
0.0
 40
0.0
 40
0.0
 40
0.0637764154
 40
0.1273451281
 40
0.190701988
 40
0.253856063
 40
0.3168132283
 40
0.3795820791
 40
0.4421733864
 40
0.5045993414
 40
0.5668738629
 40
0.629012379
 40
0.6910316532
 40
0.7529496461
 40
0.8147853522
 40
0.8765586034
 40
0.9382898574
 40
1.0
 40
1.0
 40
1.0
 40
1.0
 10
11.1892919295
 20
9.6243709258
 30
0.0
 10
11.1892919295
 20
9.617860063
 30
0.0
 10
11.1889802586
 20
9.6048573366
 30
0.0
 10
11.187573719
 20
9.5854323767
 30
0.0
 10
11.1852317402
 20
9.5661613423
 30
0.0
 10
11.1819599642
 20
9.5470896058
 30
0.0
 10
11.1777657148
 20
9.5282606784
 30
0.0
 10
11.1726586949
 20
9.5097180878
 30
0.0
 10
11.1666506522
 20
9.4915045658
 30
0.0
 10
11.1597553096
 20
9.4736621318
 30
0.0
 10
11.1519885906
 20
9.4562319225
 30
0.0
 10
11.1433683934
 20
9.4392541244
 30
0.0
 10
11.1339145237
 20
9.4227679254
 30
0.0
 10
11.1236487324
 20
9.4068113659
 30
0.0
 10
11.1125947665
 20
9.3914212563
 30
0.0
 10
11.1007779719
 20
9.3766329802
 30
0.0
 10
11.0882260112
 20
9.3624811601
 30
0.0
 10
11.0793855722
 20
9.3534910148
 30
0.0
 10
11.074854327
 20
9.3491141667
 30
0.0
  0
SPLINE
  5
325
100
AcDbEntity
  8
0
100
AcDbSpline
 62
7
  6
CONTINUOUS
 70
0
 71
3
 72
25
 73
21
 74
0
 42
0.0000001
 43
0.0000001
 44
0.0000000001
 40
0.0
 40
0.0
 40
0.0
 40
0.0
 40
0.0637770869
 40
0.0955893273
 40
0.1273480361
 40
0.190704913
 40
0.2538583931
 40
0.2853631206
 40
0.3168196509
 40
0.3795879741
 40
0.4421786688
 40
0.504604033
 40
0.5668779732
 40
0.6290159006
 40
0.6910345844
 40
0.7529519921
 40
0.8147871143
 40
0.8765597769
 40
0.9382904419
 40
1.0
 40
1.0
 40
1.0
 40
1.0
 10
11.2163381306
 20
7.5689367918
 30
0.0
 10
11.2163381306
 20
7.5535079433
 30
0.0
 10
11.2157837527
 20
7.5303779861
 30
0.0
 10
11.2139289937
 20
7.4996238793
 30
0.0
 10
11.21133788
 20
7.4690244726
 30
0.0
 10
11.2067169838
 20
7.4309999618
 30
0.0
 10
11.2002506669
 20
7.3933074723
 30
0.0
 10
11.1939830937
 20
7.3634459203
 30
0.0
 10
11.1870009
 20
7.3338391431
 30
0.0
 10
11.1769230869
 20
7.2972480366
 30
0.0
 10
11.1626861165
 20
7.2540885792
 30
0.0
 10
11.1463465732
 20
7.2118079025
 30
0.0
 10
11.127942169
 20
7.1705041973
 30
0.0
 10
11.1075152229
 20
7.1302725526
 30
0.0
 10
11.0851127911
 20
7.0912058264
 30
0.0
 10
11.0607864575
 20
7.0533941088
 30
0.0
 10
11.0345923607
 20
7.0169247162
 30
0.0
 10
11.0065905827
 20
6.9818814927
 30
0.0
 10
10.9768467901
 20
6.9483463849
 30
0.0
 10
10.955898037
 20
6.927042692
 30
0.0
 10
10.9451605328
 20
6.916671031
 30
0.0
  0
SPLINE
  5
326
100
AcDbEntity
  8
0
100
AcDbSpline
 62
7
  6
CONTINUOUS
 70
0
 71
3
 72
18
 73
14
 74
0
 42
0.0000001
 43
0.0000001
 44
0.0000000001
 40
0.0
 40
0.0
 40
0.0
 40
0.0
 40
0.1504650554
 40
0.2917103189
 40
0.4244370158
 40
0.5495623864
 40
0.6682138754
 40
0.7255498027
 40
0.7817912593
 40
0.8371402339
 40
0.8918093597
 40
0.9460200467
 40
1.0
 40
1.0
 40
1.0
 40
1.0
 10
13.6900497746
 20
7.2815443331
 30
0.0
 10
13.69204286
 20
7.2834695059
 30
0.0
 10
13.6960262955
 20
7.2870816645
 30
0.0
 10
13.7021945594
 20
7.2918955602
 30
0.0
 10
13.7083556494
 20
7.2959216161
 30
0.0
 10
13.714503067
 20
7.2991532436
 30
0.0
 10
13.7196698908
 20
7.3012024381
 30
0.0
 10
13.7237721256
 20
7.3024199748
 30
0.0
 10
13.7268051226
 20
7.3031216739
 30
0.0
 10
13.7298280371
 20
7.3036218355
 30
0.0
 10
13.732840045
 20
7.3039202271
 30
0.0
 10
13.7358399485
 20
7.304016602
 30
0.0
 10
13.7378329941
 20
7.3039460859
 30
0.0
 10
13.738824735
 20
7.3038773064
 30
0.0
  0
SPLINE
  5
327
100
AcDbEntity
  8
0
100
AcDbSpline
 62
7
  6
CONTINUOUS
 70
0
 71
3
 72
23
 73
19
 74
0
 42
0.0000001
 43
0.0000001
 44
0.0000000001
 40
0.0
 40
0.0
 40
0.0
 40
0.0
 40
0.0431615569
 40
0.0881096834
 40
0.1351711398
 40
0.1846217799
 40
0.2366818899
 40
0.2915129385
 40
0.349227159
 40
0.4098936085
 40
0.4735450068
 40
0.5401826108
 40
0.6097809029
 40
0.6822934356
 40
0.7576554878
 40
0.8357885122
 40
0.916602992
 40
1.0
 40
1.0
 40
1.0
 40
1.0
 10
10.217397372
 20
7.233561756
 30
0.0
 10
10.2180331127
 20
7.2341758344
 30
0.0
 10
10.2194006686
 20
7.2353588536
 30
0.0
 10
10.2216676272
 20
7.23695425
 30
0.0
 10
10.2241820813
 20
7.2384002997
 30
0.0
 10
10.2269379893
 20
7.2396966891
 30
0.0
 10
10.2299299692
 20
7.2408435057
 30
0.0
 10
10.2331517591
 20
7.2418421683
 30
0.0
 10
10.236596932
 20
7.2426939337
 30
0.0
 10
10.240258455
 20
7.2434012796
 30
0.0
 10
10.2441290606
 20
7.2439668448
 30
0.0
 10
10.2482011206
 20
7.2443940245
 30
0.0
 10
10.2524667891
 20
7.2446866874
 30
0.0
 10
10.2569180483
 20
7.2448489753
 30
0.0
 10
10.2615467784
 20
7.2448857602
 30
0.0
 10
10.2663448396
 20
7.24480183
 30
0.0
 10
10.2713040835
 20
7.2446026781
 30
0.0
 10
10.2746610175
 20
7.2443997773
 30
0.0
 10
10.2763647771
 20
7.2442815861
 30
0.0
  0
SPLINE
  5
328
100
AcDbEntity
  8
0
100
AcDbSpline
 62
7
  6
CONTINUOUS
 70
0
 71
3
 72
72
 73
68
 74
0
 42
0.0000001
 43
0.0000001
 44
0.0000000001
 40
0.0
 40
0.0
 40
0.0
 40
0.0
 40
0.0036409003
 40
0.0076585651
 40
0.0120467627
 40
0.0167973936
 40
0.0219006673
 40
0.0273445699
 40
0.0331159421
 40
0.0392004372
 40
0.0455830142
 40
0.0522479304
 40
0.0663603395
 40
0.0814090313
 40
0.0972679292
 40
0.1138177378
 40
0.1309486164
 40
0.1485615808
 40
0.1665690217
 40
0.2034697043
 40
0.2411625655
 40
0.2792957503
 40
0.3176239205
 40
0.3559787839
 40
0.3942458647
 40
0.4323467754
 40
0.4702257638
 40
0.5078397737
 40
0.5451507819
 40
0.5821195546
 40
0.6187001549
 40
0.6548345891
 40
0.6904470177
 40
0.7254370583
 40
0.7426604336
 40
0.7596755403
 40
0.7764585758
 40
0.7929831275
 40
0.8092183776
 40
0.8251295096
 40
0.8406772906
 40
0.8558169885
 40
0.870499132
 40
0.8846690756
 40
0.8982671522
 40
0.9048326535
 40
0.9112313663
 40
0.9174550664
 40
0.9234956017
 40
0.9293451985
 40
0.9349962692
 40
0.9404420575
 40
0.9456765761
 40
0.9506951654
 40
0.955494863
 40
0.960074874
 40
0.9644373164
 40
0.968587792
 40
0.9725363859
 40
0.9762983562
 40
0.9798951742
 40
0.9833549206
 40
0.9867125703
 40
0.9900091653
 40
0.9932907463
 40
0.9966054851
 40
1.0
 40
1.0
 40
1.0
 40
1.0
 10
10.9460033161
 20
7.1830327621
 30
0.0
 10
10.9452741973
 20
7.1823284875
 30
0.0
 10
10.9437073835
 20
7.1808812024
 30
0.0
 10
10.9411664293
 20
7.178691028
 30
0.0
 10
10.9383239675
 20
7.1763797873
 30
0.0
 10
10.935186843
 20
7.1739538738
 30
0.0
 10
10.9317626952
 20
7.171420286
 30
0.0
 10
10.9280600241
 20
7.1687867383
 30
0.0
 10
10.9240881739
 20
7.166061532
 30
0.0
 10
10.9198570402
 20
7.1632533851
 30
0.0
 10
10.9153770448
 20
7.160371309
 30
0.0
 10
10.9089630235
 20
7.1563654903
 30
0.0
 10
10.9004011985
 20
7.1512455197
 30
0.0
 10
10.8894953482
 20
7.1450644291
 30
0.0
 10
10.8778569104
 20
7.1388061629
 30
0.0
 10
10.8655692632
 20
7.132537967
 30
0.0
 10
10.8527107048
 20
7.1263213656
 30
0.0
 10
10.8393534513
 20
7.1202113098
 30
0.0
 10
10.8208152698
 20
7.1122057816
 30
0.0
 10
10.796818125
 20
7.1027548055
 30
0.0
 10
10.7671319413
 20
7.0925359055
 30
0.0
 10
10.7366382369
 20
7.0835360586
 30
0.0
 10
10.7055886762
 20
7.075883344
 30
0.0
 10
10.674182744
 20
7.0696611264
 30
0.0
 10
10.6425828407
 20
7.0649214362
 30
0.0
 10
10.6109257114
 20
7.0616948767
 30
0.0
 10
10.5793317316
 20
7.0599976126
 30
0.0
 10
10.5479122886
 20
7.0598360691
 30
0.0
 10
10.5167758612
 20
7.061209801
 30
0.0
 10
10.4860332822
 20
7.0641129777
 30
0.0
 10
10.4558027575
 20
7.0685345784
 30
0.0
 10
10.4262144979
 20
7.074457549
 30
0.0
 10
10.3974171864
 20
7.0818562395
 30
0.0
 10
10.3740966513
 20
7.0892598264
 30
0.0
 10
10.3559983972
 20
7.0958981379
 30
0.0
 10
10.3428128685
 20
7.1011902721
 30
0.0
 10
10.3299760501
 20
7.1068107787
 30
0.0
 10
10.3175220698
 20
7.1127469849
 30
0.0
 10
10.305488226
 20
7.1189832807
 30
0.0
 10
10.2939153364
 20
7.1255009519
 30
0.0
 10
10.2828481083
 20
7.132277731
 30
0.0
 10
10.2723350583
 20
7.1392867913
 30
0.0
 10
10.2624288303
 20
7.1464965851
 30
0.0
 10
10.2531864295
 20
7.1538698426
 30
0.0
 10
10.2460055713
 20
7.1601866423
 30
0.0
 10
10.2406534464
 20
7.1652916765
 30
0.0
 10
10.2368924073
 20
7.1690869095
 30
0.0
 10
10.2333459787
 20
7.1728858504
 30
0.0
 10
10.2300228118
 20
7.1766807032
 30
0.0
 10
10.2269317604
 20
7.180463259
 30
0.0
 10
10.2240814205
 20
7.184224739
 30
0.0
 10
10.2214806982
 20
7.1879561883
 30
0.0
 10
10.2191379901
 20
7.1916480651
 30
0.0
 10
10.2170618888
 20
7.1952907649
 30
0.0
 10
10.2152603751
 20
7.1988742565
 30
0.0
 10
10.2137413972
 20
7.2023885412
 30
0.0
 10
10.212512247
 20
7.2058234299
 30
0.0
 10
10.2115800139
 20
7.2091688873
 30
0.0
 10
10.2109510833
 20
7.2124148875
 30
0.0
 10
10.210631595
 20
7.2155516149
 30
0.0
 10
10.2106268768
 20
7.2185692899
 30
0.0
 10
10.2109419561
 20
7.221458107
 30
0.0
 10
10.2115803408
 20
7.2242081242
 30
0.0
 10
10.2125445894
 20
7.2268092167
 30
0.0
 10
10.213834763
 20
7.2292518861
 30
0.0
 10
10.215448772
 20
7.2315266073
 30
0.0
 10
10.2167175938
 20
7.2329051407
 30
0.0
 10
10.217397372
 20
7.233561756
 30
0.0
  0
SPLINE
  5
329
100
AcDbEntity
  8
0
100
AcDbSpline
 62
7
  6
CONTINUOUS
 70
0
 71
3
 72
42
 73
38
 74
0
 42
0.0000001
 43
0.0000001
 44
0.0000000001
 40
0.0
 40
0.0
 40
0.0
 40
0.0
 40
0.0149723971
 40
0.029947854
 40
0.0449294092
 40
0.0599200692
 40
0.0749227779
 40
0.0899404136
 40
0.1200256609
 40
0.1502025864
 40
0.1804899033
 40
0.2109037105
 40
0.2414571471
 40
0.2721601282
 40
0.3030191646
 40
0.3340372675
 40
0.3652139349
 40
0.3965452155
 40
0.4280238444
 40
0.459639443
 40
0.4913787765
 40
0.5232260611
 40
0.5551633129
 40
0.5871707307
 40
0.6192271064
 40
0.6513102549
 40
0.683397459
 40
0.7154659208
 40
0.7474932143
 40
0.7794577337
 40
0.8113391302
 40
0.8431187274
 40
0.8747799267
 40
0.906308519
 40
0.9376931951
 40
0.9689252215
 40
1.0
 40
1.0
 40
1.0
 40
1.0
 10
7.2932055243
 20
7.7436253765
 30
0.0
 10
7.2967062774
 20
7.7470068454
 30
0.0
 10
7.303843731
 20
7.7536320719
 30
0.0
 10
7.3149376169
 20
7.7631375878
 30
0.0
 10
7.3264049981
 20
7.7721989949
 30
0.0
 10
7.3382299042
 20
7.7808034554
 30
0.0
 10
7.3503963269
 20
7.788939388
 30
0.0
 10
7.3670586056
 20
7.7991523369
 30
0.0
 10
7.3886679013
 20
7.8106962151
 30
0.0
 10
7.415666059
 20
7.8224980724
 30
0.0
 10
7.4436030869
 20
7.8321959339
 30
0.0
 10
7.4723239834
 20
7.8397360405
 30
0.0
 10
7.5016707984
 20
7.8450774184
 30
0.0
 10
7.5314818773
 20
7.8481910048
 30
0.0
 10
7.5615931965
 20
7.8490600751
 30
0.0
 10
7.5918391465
 20
7.847680235
 30
0.0
 10
7.6220534693
 20
7.8440594457
 30
0.0
 10
7.6520701549
 20
7.8382179571
 30
0.0
 10
7.6817243447
 20
7.8301881838
 30
0.0
 10
7.7108532242
 20
7.8200145198
 30
0.0
 10
7.7392969083
 20
7.8077530934
 30
0.0
 10
7.7668993037
 20
7.7934714443
 30
0.0
 10
7.7935089537
 20
7.7772481528
 30
0.0
 10
7.8189798576
 20
7.7591724083
 30
0.0
 10
7.8431722617
 20
7.7393435227
 30
0.0
 10
7.8659534161
 20
7.717870389
 30
0.0
 10
7.8871982953
 20
7.6948708891
 30
0.0
 10
7.9067902763
 20
7.6704712527
 30
0.0
 10
7.9246217733
 20
7.644805373
 30
0.0
 10
7.9405948319
 20
7.6180140856
 30
0.0
 10
7.9546216519
 20
7.5902443918
 30
0.0
 10
7.9666250764
 20
7.561648682
 30
0.0
 10
7.9765389851
 20
7.5323838451
 30
0.0
 10
7.9843087391
 20
7.5026106502
 30
0.0
 10
7.9898912915
 20
7.4724920252
 30
0.0
 10
7.993255803
 20
7.4421955021
 30
0.0
 10
7.9940093675
 20
7.4219331577
 30
0.0
 10
7.9940093675
 20
7.4118314312
 30
0.0
  0
SPLINE
  5
32A
100
AcDbEntity
  8
0
100
AcDbSpline
 62
7
  6
CONTINUOUS
 70
0
 71
3
 72
42
 73
38
 74
0
 42
0.0000001
 43
0.0000001
 44
0.0000000001
 40
0.0
 40
0.0
 40
0.0
 40
0.0
 40
0.0149723971
 40
0.029947854
 40
0.0449294092
 40
0.0599200692
 40
0.0749227779
 40
0.0899404136
 40
0.1200256609
 40
0.1502025864
 40
0.1804899033
 40
0.2109037105
 40
0.2414571471
 40
0.2721601282
 40
0.3030191646
 40
0.3340372675
 40
0.3652139349
 40
0.3965452155
 40
0.4280238444
 40
0.459639443
 40
0.4913787765
 40
0.5232260611
 40
0.5551633129
 40
0.5871707307
 40
0.6192271064
 40
0.6513102549
 40
0.683397459
 40
0.7154659208
 40
0.7474932143
 40
0.7794577337
 40
0.8113391302
 40
0.8431187274
 40
0.8747799267
 40
0.906308519
 40
0.9376931951
 40
0.9689252215
 40
1.0
 40
1.0
 40
1.0
 40
1.0
 10
10.4884880863
 20
9.9561648711
 30
0.0
 10
10.4919888394
 20
9.95954634
 30
0.0
 10
10.499126293
 20
9.9661715665
 30
0.0
 10
10.5102201789
 20
9.9756770824
 30
0.0
 10
10.5216875601
 20
9.9847384895
 30
0.0
 10
10.5335124661
 20
9.99334295
 30
0.0
 10
10.5456788889
 20
10.0014788826
 30
0.0
 10
10.5623411676
 20
10.0116918315
 30
0.0
 10
10.5839504633
 20
10.0232357097
 30
0.0
 10
10.610948621
 20
10.035037567
 30
0.0
 10
10.6388856489
 20
10.0447354285
 30
0.0
 10
10.6676065454
 20
10.0522755351
 30
0.0
 10
10.6969533604
 20
10.057616913
 30
0.0
 10
10.7267644393
 20
10.0607304994
 30
0.0
 10
10.7568757585
 20
10.0615995697
 30
0.0
 10
10.7871217085
 20
10.0602197296
 30
0.0
 10
10.8173360313
 20
10.0565989403
 30
0.0
 10
10.8473527169
 20
10.0507574517
 30
0.0
 10
10.8770069067
 20
10.0427276784
 30
0.0
 10
10.9061357862
 20
10.0325540144
 30
0.0
 10
10.9345794703
 20
10.020292588
 30
0.0
 10
10.9621818657
 20
10.0060109389
 30
0.0
 10
10.9887915157
 20
9.9897876474
 30
0.0
 10
11.0142624196
 20
9.9717119029
 30
0.0
 10
11.0384548237
 20
9.9518830173
 30
0.0
 10
11.0612359781
 20
9.9304098836
 30
0.0
 10
11.0824808573
 20
9.9074103837
 30
0.0
 10
11.1020728383
 20
9.8830107473
 30
0.0
 10
11.1199043353
 20
9.8573448676
 30
0.0
 10
11.1358773939
 20
9.8305535802
 30
0.0
 10
11.1499042139
 20
9.8027838864
 30
0.0
 10
11.1619076384
 20
9.7741881766
 30
0.0
 10
11.1718215471
 20
9.7449233397
 30
0.0
 10
11.1795913011
 20
9.7151501448
 30
0.0
 10
11.1851738535
 20
9.6850315198
 30
0.0
 10
11.188538365
 20
9.6547349967
 30
0.0
 10
11.1892919295
 20
9.6344726523
 30
0.0
 10
11.1892919295
 20
9.6243709258
 30
0.0
  0
SPLINE
  5
32B
100
AcDbEntity
  8
0
100
AcDbSpline
 62
7
  6
CONTINUOUS
 70
0
 71
3
 72
61
 73
57
 74
0
 42
0.0000001
 43
0.0000001
 44
0.0000000001
 40
0.0
 40
0.0
 40
0.0
 40
0.0
 40
0.0149708984
 40
0.029944855
 40
0.0449249107
 40
0.0599140691
 40
0.0749152763
 40
0.0899314074
 40
0.1049652468
 40
0.1200194694
 40
0.1350966309
 40
0.1501991478
 40
0.1653292837
 40
0.1804891425
 40
0.1956806493
 40
0.2109055439
 40
0.2261653752
 40
0.2414614852
 40
0.2567950103
 40
0.2721668752
 40
0.2875777828
 40
0.3030282214
 40
0.3185184581
 40
0.3340485364
 40
0.3496182867
 40
0.3652273198
 40
0.3808750335
 40
0.3965606226
 40
0.4122830749
 40
0.4280411858
 40
0.4438335653
 40
0.4596586398
 40
0.4755146706
 40
0.4913997581
 40
0.5073118513
 40
0.5232487659
 40
0.55518282
 40
0.5871870335
 40
0.6192401996
 40
0.6513201355
 40
0.6834041262
 40
0.7154693762
 40
0.7474934624
 40
0.7794547812
 40
0.7954079268
 40
0.8113378816
 40
0.8272423704
 40
0.8431192429
 40
0.8589664924
 40
0.8747822665
 40
0.890564873
 40
0.9063127814
 40
0.922024664
 40
0.9376994175
 40
0.9689283122
 40
1.0
 40
1.0
 40
1.0
 40
1.0
 10
7.5190462967
 20
10.0956833552
 30
0.0
 10
7.5261888407
 20
10.1025825
 30
0.0
 10
7.5407513065
 20
10.1160998065
 30
0.0
 10
7.5633859603
 20
10.1354938021
 30
0.0
 10
7.5867826772
 20
10.1539816052
 30
0.0
 10
7.610908925
 20
10.1715372091
 30
0.0
 10
7.6357315661
 20
10.1881366347
 30
0.0
 10
7.6612163709
 20
10.2037570773
 30
0.0
 10
7.6873283565
 20
10.218376919
 30
0.0
 10
7.7140315088
 20
10.2319761762
 30
0.0
 10
7.7412890915
 20
10.2445361392
 30
0.0
 10
7.7690636372
 20
10.2560394325
 30
0.0
 10
7.7973168597
 20
10.2664704019
 30
0.0
 10
7.826009919
 20
10.2758146254
 30
0.0
 10
7.8551033385
 20
10.2840592339
 30
0.0
 10
7.8845570531
 20
10.2911930441
 30
0.0
 10
7.9143305774
 20
10.2972061193
 30
0.0
 10
7.9443829344
 20
10.3020902679
 30
0.0
 10
7.9746727767
 20
10.3058388748
 30
0.0
 10
8.0051584582
 20
10.3084466461
 30
0.0
 10
8.0357980335
 20
10.3099101527
 30
0.0
 10
8.0665493696
 20
10.3102274013
 30
0.0
 10
8.097370173
 20
10.3093978556
 30
0.0
 10
8.1282180645
 20
10.3074228437
 30
0.0
 10
8.1590506254
 20
10.3043050187
 30
0.0
 10
8.1898254514
 20
10.3000486456
 30
0.0
 10
8.2205002522
 20
10.2946597403
 30
0.0
 10
8.2510328318
 20
10.2881455934
 30
0.0
 10
8.2813812195
 20
10.2805152259
 30
0.0
 10
8.3115037197
 20
10.2717792305
 30
0.0
 10
8.3413588804
 20
10.2619494806
 30
0.0
 10
8.3709056886
 20
10.2510396281
 30
0.0
 10
8.4001035674
 20
10.2390646721
 30
0.0
 10
8.4289122173
 20
10.2260410422
 30
0.0
 10
8.4572925269
 20
10.2119865302
 30
0.0
 10
8.4945301332
 20
10.1918875705
 30
0.0
 10
8.5398084469
 20
10.1642827441
 30
0.0
 10
8.5917751652
 20
10.1274036537
 30
0.0
 10
8.6411348456
 20
10.0869469336
 30
0.0
 10
8.6876148105
 20
10.0431356658
 30
0.0
 10
8.7309603509
 20
9.9962101923
 30
0.0
 10
8.7709336898
 20
9.9464276809
 30
0.0
 10
8.8073144501
 20
9.8940631545
 30
0.0
 10
8.834492012
 20
9.8484783048
 30
0.0
 10
8.854244907
 20
9.81100999
 30
0.0
 10
8.868038867
 20
9.7824627434
 30
0.0
 10
8.8808003125
 20
9.7534949026
 30
0.0
 10
8.8925118197
 20
9.7241458051
 30
0.0
 10
8.9031573472
 20
9.6944559626
 30
0.0
 10
8.9127222158
 20
9.6644661399
 30
0.0
 10
8.9211931727
 20
9.6342175203
 30
0.0
 10
8.9285587066
 20
9.6037518499
 30
0.0
 10
8.9348085971
 20
9.5731104896
 30
0.0
 10
8.9416335911
 20
9.5321332777
 30
0.0
 10
8.94734802
 20
9.4806795269
 30
0.0
 10
8.9488853078
 20
9.4393396112
 30
0.0
 10
8.9488853078
 20
9.4187292044
 30
0.0
  0
SPLINE
  5
32C
100
AcDbEntity
  8
0
100
AcDbSpline
 62
7
  6
CONTINUOUS
 70
0
 71
3
 72
27
 73
23
 74
0
 42
0.0000001
 43
0.0000001
 44
0.0000000001
 40
0.0
 40
0.0
 40
0.0
 40
0.0
 40
0.0617089333
 40
0.0925725513
 40
0.1234440718
 40
0.1852161073
 40
0.2470506024
 40
0.2780000284
 40
0.3089724349
 40
0.3709904895
 40
0.4331277838
 40
0.4954010884
 40
0.5578258131
 40
0.620415875
 40
0.683183558
 40
0.7146397534
 40
0.7461441712
 40
0.8092970733
 40
0.8726530866
 40
0.9044115983
 40
0.93622387
 40
1.0
 40
1.0
 40
1.0
 40
1.0
 10
8.7153999475
 20
8.8571269906
 30
0.0
 10
8.7246449956
 20
8.8660569916
 30
0.0
 10
8.7381724927
 20
8.879813745
 30
0.0
 10
8.7554816676
 20
8.8988305709
 30
0.0
 10
8.7723053035
 20
8.9182964123
 30
0.0
 10
8.7924012159
 20
8.9434454282
 30
0.0
 10
8.8111903989
 20
8.9696051351
 30
0.0
 10
8.8254153803
 20
8.991105594
 30
0.0
 10
8.8391068519
 20
9.0129947264
 30
0.0
 10
8.8551883399
 20
9.0410384539
 30
0.0
 10
8.8727758282
 20
9.0756776509
 30
0.0
 10
8.8886221778
 20
9.1112403209
 30
0.0
 10
8.9026906205
 20
9.1476440493
 30
0.0
 10
8.9149487446
 20
9.18480445
 30
0.0
 10
8.923625824
 20
9.2163094753
 30
0.0
 10
8.9296374665
 20
9.2418010011
 30
0.0
 10
8.9350339351
 20
9.2675118771
 30
0.0
 10
8.9406014122
 20
9.2999651918
 30
0.0
 10
8.9445800555
 20
9.3327043877
 30
0.0
 10
8.946811041
 20
9.3590506138
 30
0.0
 10
8.9484079547
 20
9.3855300226
 30
0.0
 10
8.9488853078
 20
9.4054449876
 30
0.0
 10
8.9488853078
 20
9.4187292044
 30
0.0
  0
SPLINE
  5
32D
100
AcDbEntity
  8
0
100
AcDbSpline
 62
7
  6
CONTINUOUS
 70
0
 71
3
 72
24
 73
20
 74
0
 42
0.0000001
 43
0.0000001
 44
0.0000000001
 40
0.0
 40
0.0
 40
0.0
 40
0.0
 40
0.0901452954
 40
0.1751905308
 40
0.2553017628
 40
0.3306719641
 40
0.4015356246
 40
0.4681627591
 40
0.5308751627
 40
0.5608866845
 40
0.590064642
 40
0.6461307413
 40
0.6995921497
 40
0.7510087895
 40
0.8010002573
 40
0.8502262191
 40
0.8993609061
 40
0.9490750147
 40
1.0
 40
1.0
 40
1.0
 40
1.0
 10
8.9472671488
 20
9.3693144867
 30
0.0
 10
8.9458584158
 20
9.3694664265
 30
0.0
 10
8.9431270577
 20
9.3698268204
 30
0.0
 10
8.9391800543
 20
9.3705613513
 30
0.0
 10
8.9355067701
 20
9.3714652684
 30
0.0
 10
8.9321095705
 20
9.3725302019
 30
0.0
 10
8.92899021
 20
9.3737479846
 30
0.0
 10
8.9261502402
 20
9.375110552
 30
0.0
 10
8.9239862474
 20
9.3763786222
 30
0.0
 10
8.9224035007
 20
9.3774596838
 30
0.0
 10
8.9209574571
 20
9.3785518418
 30
0.0
 10
8.9193160624
 20
9.3799931198
 30
0.0
 10
8.9176032085
 20
9.3818618534
 30
0.0
 10
8.9161743806
 20
9.3838398424
 30
0.0
 10
8.91503065
 20
9.3859200003
 30
0.0
 10
8.9141725575
 20
9.3880949854
 30
0.0
 10
8.9136001505
 20
9.3903574748
 30
0.0
 10
8.9133125505
 20
9.3926997554
 30
0.0
 10
8.913309723
 20
9.3942858036
 30
0.0
 10
8.9133526641
 20
9.3950850895
 30
0.0
  0
SPLINE
  5
32E
100
AcDbEntity
  8
0
100
AcDbSpline
 62
7
  6
CONTINUOUS
 70
0
 71
3
 72
69
 73
65
 74
0
 42
0.0000001
 43
0.0000001
 44
0.0000000001
 40
0.0
 40
0.0
 40
0.0
 40
0.0
 40
0.0149703074
 40
0.0299436729
 40
0.0449231368
 40
0.0599117028
 40
0.0749123176
 40
0.0899278549
 40
0.1049610993
 40
0.1200147275
 40
0.1350912922
 40
0.1501932108
 40
0.1653227493
 40
0.1804820076
 40
0.1956729124
 40
0.2108972056
 40
0.2261564321
 40
0.2414519362
 40
0.2567848553
 40
0.272156111
 40
0.2875664084
 40
0.3030162359
 40
0.318505859
 40
0.3340353229
 40
0.3496044568
 40
0.3652128724
 40
0.3808599674
 40
0.396544935
 40
0.4122667661
 40
0.4280242541
 40
0.4438160079
 40
0.4596404579
 40
0.4754958618
 40
0.4913803204
 40
0.507291786
 40
0.5232280705
 40
0.5391868616
 40
0.5551657342
 40
0.5711621595
 40
0.5871735223
 40
0.6192254231
 40
0.6513040928
 40
0.6673487776
 40
0.6833916203
 40
0.6994297749
 40
0.715460417
 40
0.7314807599
 40
0.7474880696
 40
0.7634796755
 40
0.7794529858
 40
0.7954055023
 40
0.8113348296
 40
0.8272386898
 40
0.8431149365
 40
0.8589615622
 40
0.8747767104
 40
0.8905586935
 40
0.9063059878
 40
0.9220172443
 40
0.9376913619
 40
0.9533273188
 40
0.9689242712
 40
0.9844823665
 40
1.0
 40
1.0
 40
1.0
 40
1.0
 10
9.5556639614
 20
8.3551769278
 30
0.0
 10
9.5639595834
 20
8.3631899053
 30
0.0
 10
9.5808729995
 20
8.3788895016
 30
0.0
 10
9.607161752
 20
8.4014145747
 30
0.0
 10
9.6343356346
 20
8.4228871146
 30
0.0
 10
9.6623567791
 20
8.4432770253
 30
0.0
 10
9.6911867802
 20
8.4625563478
 30
0.0
 10
9.7207858662
 20
8.4806986054
 30
0.0
 10
9.751113326
 20
8.4976788353
 30
0.0
 10
9.7821274529
 20
8.5134736125
 30
0.0
 10
9.8137855179
 20
8.5280613056
 30
0.0
 10
9.8460439573
 20
8.5414218638
 30
0.0
 10
9.8788584128
 20
8.5535368367
 30
0.0
 10
9.9121836981
 20
8.5643896536
 30
0.0
 10
9.9459739544
 20
8.5739654336
 30
0.0
 10
9.9801827151
 20
8.5822509365
 30
0.0
 10
10.0147628991
 20
8.589234841
 30
0.0
 10
10.0496669274
 20
8.5949076183
 30
0.0
 10
10.0848468002
 20
8.5992614088
 30
0.0
 10
10.1202541206
 20
8.6022902686
 30
0.0
 10
10.1558401845
 20
8.6039901328
 30
0.0
 10
10.191556055
 20
8.6043586238
 30
0.0
 10
10.2273526106
 20
8.6033952423
 30
0.0
 10
10.2631806284
 20
8.6011014287
 30
0.0
 10
10.2989908432
 20
8.5974803184
 30
0.0
 10
10.3347340077
 20
8.5925368628
 30
0.0
 10
10.3703609898
 20
8.5862779787
 30
0.0
 10
10.4058228088
 20
8.5787122748
 30
0.0
 10
10.4410706932
 20
8.5698500986
 30
0.0
 10
10.4760562068
 20
8.5597037451
 30
0.0
 10
10.5107312612
 20
8.5482871869
 30
0.0
 10
10.545048161
 20
8.5356160517
 30
0.0
 10
10.5789597572
 20
8.5217078468
 30
0.0
 10
10.6124194504
 20
8.506581734
 30
0.0
 10
10.6453812135
 20
8.4902584375
 30
0.0
 10
10.6777997496
 20
8.4727604579
 30
0.0
 10
10.7096305555
 20
8.4541118811
 30
0.0
 10
10.740829734
 20
8.4343383741
 30
0.0
 10
10.7713548044
 20
8.4134667952
 30
0.0
 10
10.8111092705
 20
8.3842058331
 30
0.0
 10
10.8589037563
 20
8.3450325247
 30
0.0
 10
10.9038909576
 20
8.3026278118
 30
0.0
 10
10.9380633331
 20
8.2668930852
 30
0.0
 10
10.9627517698
 20
8.2392197777
 30
0.0
 10
10.986460467
 20
8.2107172176
 30
0.0
 10
11.0091571583
 20
8.181424174
 30
0.0
 10
11.0308106034
 20
8.1513810611
 30
0.0
 10
11.051391069
 20
8.1206291487
 30
0.0
 10
11.0708701737
 20
8.0892106621
 30
0.0
 10
11.0892211907
 20
8.0571688216
 30
0.0
 10
11.1064189144
 20
8.0245476819
 30
0.0
 10
11.1224396132
 20
7.9913920387
 30
0.0
 10
11.1372612843
 20
7.9577474843
 30
0.0
 10
11.1508635907
 20
7.9236602841
 30
0.0
 10
11.163227745
 20
7.8891772629
 30
0.0
 10
11.1743367359
 20
7.854345824
 30
0.0
 10
11.1841753418
 20
7.8192138687
 30
0.0
 10
11.1927299581
 20
7.7838296796
 30
0.0
 10
11.1999887901
 20
7.7482418763
 30
0.0
 10
11.2059418767
 20
7.712499405
 30
0.0
 10
11.2105809961
 20
7.6766515406
 30
0.0
 10
11.2138997938
 20
7.6407469922
 30
0.0
 10
11.2158934601
 20
7.604836297
 30
0.0
 10
11.2163381306
 20
7.5808921243
 30
0.0
 10
11.2163381306
 20
7.5689367918
 30
0.0
  0
SPLINE
  5
32F
100
AcDbEntity
  8
0
100
AcDbSpline
 62
7
  6
CONTINUOUS
 70
0
 71
3
 72
37
 73
33
 74
0
 42
0.0000001
 43
0.0000001
 44
0.0000000001
 40
0.0
 40
0.0
 40
0.0
 40
0.0
 40
0.0305752864
 40
0.0611556388
 40
0.0917461034
 40
0.1223516713
 40
0.1529772599
 40
0.1836276915
 40
0.2143076584
 40
0.2450217173
 40
0.2757742492
 40
0.306569453
 40
0.3374113199
 40
0.3683036098
 40
0.3992498503
 40
0.4302532978
 40
0.4613169484
 40
0.4924435045
 40
0.5236353754
 40
0.5548946688
 40
0.5862231688
 40
0.6176223544
 40
0.6490933651
 40
0.6806370261
 40
0.7122538269
 40
0.7439439285
 40
0.8075343571
 40
0.8714119601
 40
0.9034597091
 40
0.9355750234
 40
0.9677558841
 40
1.0
 40
1.0
 40
1.0
 40
1.0
 10
9.7565394031
 20
8.3559520771
 30
0.0
 10
9.7629718542
 20
8.3621653271
 30
0.0
 10
9.7760614585
 20
8.3743637118
 30
0.0
 10
9.7963399445
 20
8.391948401
 30
0.0
 10
9.8172415234
 20
8.4088023816
 30
0.0
 10
9.8387426726
 20
8.4249063678
 30
0.0
 10
9.8608193318
 20
8.4402426759
 30
0.0
 10
9.8834469789
 20
8.4547939699
 30
0.0
 10
9.9066002568
 20
8.4685441858
 30
0.0
 10
9.9302533771
 20
8.4814778993
 30
0.0
 10
9.9543799424
 20
8.4935806731
 30
0.0
 10
9.9789529751
 20
8.5048391219
 30
0.0
 10
10.0039451344
 20
8.5152405017
 30
0.0
 10
10.0293284348
 20
8.5247734474
 30
0.0
 10
10.055074633
 20
8.5334271137
 30
0.0
 10
10.0811549408
 20
8.5411920208
 30
0.0
 10
10.1075402814
 20
8.5480594494
 30
0.0
 10
10.1342012194
 20
8.5540217111
 30
0.0
 10
10.161107981
 20
8.5590723106
 30
0.0
 10
10.1882305836
 20
8.5632054099
 30
0.0
 10
10.2155387344
 20
8.5664166583
 30
0.0
 10
10.2430019887
 20
8.5687022696
 30
0.0
 10
10.2705897212
 20
8.5700598545
 30
0.0
 10
10.2982710711
 20
8.5704878792
 30
0.0
 10
10.3260155112
 20
8.5699857749
 30
0.0
 10
10.3630892748
 20
8.5680752455
 30
0.0
 10
10.4094396666
 20
8.563358792
 30
0.0
 10
10.4554812849
 20
8.5555832932
 30
0.0
 10
10.4920662303
 20
8.5475474294
 30
0.0
 10
10.5193844798
 20
8.5406089491
 30
0.0
 10
10.5465184171
 20
8.5327741079
 30
0.0
 10
10.564448636
 20
8.5269641759
 30
0.0
 10
10.5733729163
 20
8.5239133946
 30
0.0
  0
SPLINE
  5
330
100
AcDbEntity
  8
0
100
AcDbSpline
 62
7
  6
CONTINUOUS
 70
0
 71
3
 72
11
 73
7
 74
0
 42
0.0000001
 43
0.0000001
 44
0.0000000001
 40
0.0
 40
0.0
 40
0.0
 40
0.0
 40
0.2518176679
 40
0.5024667489
 40
0.7518740043
 40
1.0
 40
1.0
 40
1.0
 40
1.0
 10
11.1485026135
 20
7.9297478758
 30
0.0
 10
11.1547517817
 20
7.9093225046
 30
0.0
 10
11.1657442297
 20
7.8680973406
 30
0.0
 10
11.1776173386
 20
7.8053789809
 30
0.0
 10
11.1847750182
 20
7.7422637871
 30
0.0
 10
11.1863784143
 20
7.7000447472
 30
0.0
 10
11.1863784143
 20
7.6789979263
 30
0.0
  0
SPLINE
  5
331
100
AcDbEntity
  8
0
100
AcDbSpline
 62
7
  6
CONTINUOUS
 70
0
 71
3
 72
27
 73
23
 74
0
 42
0.0000001
 43
0.0000001
 44
0.0000000001
 40
0.0
 40
0.0
 40
0.0
 40
0.0
 40
0.0617089333
 40
0.0925725513
 40
0.1234440718
 40
0.1852161073
 40
0.2470506024
 40
0.2780000284
 40
0.3089724349
 40
0.3709904895
 40
0.4331277838
 40
0.4954010884
 40
0.5578258131
 40
0.620415875
 40
0.683183558
 40
0.7146397534
 40
0.7461441712
 40
0.8092970733
 40
0.8726530866
 40
0.9044115983
 40
0.93622387
 40
1.0
 40
1.0
 40
1.0
 40
1.0
 10
10.952893054
 20
7.1173957125
 30
0.0
 10
10.9621381021
 20
7.1263257135
 30
0.0
 10
10.9756655991
 20
7.1400824669
 30
0.0
 10
10.992974774
 20
7.1590992928
 30
0.0
 10
11.0097984099
 20
7.1785651342
 30
0.0
 10
11.0298943223
 20
7.2037141501
 30
0.0
 10
11.0486835053
 20
7.229873857
 30
0.0
 10
11.0629084867
 20
7.2513743159
 30
0.0
 10
11.0765999583
 20
7.2732634483
 30
0.0
 10
11.0926814464
 20
7.3013071758
 30
0.0
 10
11.1102689346
 20
7.3359463729
 30
0.0
 10
11.1261152842
 20
7.3715090428
 30
0.0
 10
11.140183727
 20
7.4079127712
 30
0.0
 10
11.1524418511
 20
7.4450731719
 30
0.0
 10
11.1611189304
 20
7.4765781972
 30
0.0
 10
11.1671305729
 20
7.502069723
 30
0.0
 10
11.1725270415
 20
7.5277805991
 30
0.0
 10
11.1780945186
 20
7.5602339137
 30
0.0
 10
11.1820731619
 20
7.5929731096
 30
0.0
 10
11.1843041474
 20
7.6193193357
 30
0.0
 10
11.1859010611
 20
7.6457987445
 30
0.0
 10
11.1863784143
 20
7.6657137095
 30
0.0
 10
11.1863784143
 20
7.6789979263
 30
0.0
  0
SPLINE
  5
332
100
AcDbEntity
  8
0
100
AcDbSpline
 62
7
  6
CONTINUOUS
 70
0
 71
3
 72
92
 73
88
 74
0
 42
0.0000001
 43
0.0000001
 44
0.0000000001
 40
0.0
 40
0.0
 40
0.0
 40
0.0
 40
0.002716413
 40
0.005453204
 40
0.0082302563
 40
0.0110665301
 40
0.0139797261
 40
0.0169860122
 40
0.0200999583
 40
0.02333446
 40
0.0267007857
 40
0.0302087255
 40
0.0338666155
 40
0.0376815537
 40
0.0416595131
 40
0.0458054067
 40
0.0501233136
 40
0.054616482
 40
0.0592874564
 40
0.0641382115
 40
0.0691701035
 40
0.0743840454
 40
0.0797805121
 40
0.0853595378
 40
0.0911208668
 40
0.097063869
 40
0.1031876267
 40
0.1094909946
 40
0.1226301535
 40
0.1364677311
 40
0.1509864616
 40
0.1661662676
 40
0.1819846085
 40
0.1984167397
 40
0.2154359112
 40
0.2330135422
 40
0.2511194139
 40
0.2697218173
 40
0.2887876738
 40
0.3082826466
 40
0.3281712824
 40
0.3484171242
 40
0.3689828102
 40
0.3898301682
 40
0.4109203361
 40
0.4322138632
 40
0.4536708037
 40
0.4752508108
 40
0.4969132456
 40
0.5186172743
 40
0.5403219609
 40
0.5619863665
 40
0.5835696522
 40
0.605031173
 40
0.6263305713
 40
0.647427884
 40
0.6682836439
 40
0.6888589711
 40
0.70911567
 40
0.7290163457
 40
0.7485245123
 40
0.7676046866
 40
0.7862224953
 40
0.8043448091
 40
0.8219398755
 40
0.8389774307
 40
0.8554288411
 40
0.8712672847
 40
0.8864679516
 40
0.9010082324
 40
0.9148679702
 40
0.9215372641
 40
0.9280301732
 40
0.9343450243
 40
0.9404803528
 40
0.9464349986
 40
0.9522080056
 40
0.9577987511
 40
0.9632069496
 40
0.9684326099
 40
0.9734761806
 40
0.9783384973
 40
0.9830209146
 40
0.987525457
 40
0.9918546871
 40
0.9960116506
 40
1.0
 40
1.0
 40
1.0
 40
1.0
 10
13.6412748141
 20
5.8972558639
 30
0.0
 10
13.6399590191
 20
5.8973471173
 30
0.0
 10
13.6373242926
 20
5.8976493758
 30
0.0
 10
13.6334057592
 20
5.8984583192
 30
0.0
 10
13.6295168397
 20
5.8996225662
 30
0.0
 10
13.6256602869
 20
5.9011409931
 30
0.0
 10
13.6218381526
 20
5.9030123577
 30
0.0
 10
13.6180523137
 20
5.9052350408
 30
0.0
 10
13.6143045815
 20
5.9078075814
 30
0.0
 10
13.6105966082
 20
5.9107283096
 30
0.0
 10
13.6069299435
 20
5.9139954738
 30
0.0
 10
13.6033062632
 20
5.9176073826
 30
0.0
 10
13.599727064
 20
5.9215620678
 30
0.0
 10
13.5961939606
 20
5.9258575546
 30
0.0
 10
13.5927085989
 20
5.9304917284
 30
0.0
 10
13.5892724983
 20
5.9354622425
 30
0.0
 10
13.5858873567
 20
5.940766702
 30
0.0
 10
13.5825547533
 20
5.9464024724
 30
0.0
 10
13.5792762616
 20
5.9523667654
 30
0.0
 10
13.5760535613
 20
5.9586566731
 30
0.0
 10
13.5728881513
 20
5.9652690476
 30
0.0
 10
13.5697816332
 20
5.9722006274
 30
0.0
 10
13.5667355737
 20
5.9794479754
 30
0.0
 10
13.5637514219
 20
5.9870074643
 30
0.0
 10
13.5608307424
 20
5.9948753484
 30
0.0
 10
13.5579749651
 20
6.0030476845
 30
0.0
 10
13.55518548
 20
6.0115203991
 30
0.0
 10
13.5515055853
 20
6.0233766789
 30
0.0
 10
13.5470945318
 20
6.038925062
 30
0.0
 10
13.5421578197
 20
6.0584615471
 30
0.0
 10
13.5375170967
 20
6.0790871216
 30
0.0
 10
13.5331817666
 20
6.1007604283
 30
0.0
 10
13.5291606502
 20
6.1234381801
 30
0.0
 10
13.5254619391
 20
6.1470749558
 30
0.0
 10
13.5220931705
 20
6.1716233755
 30
0.0
 10
13.5190611858
 20
6.197034177
 30
0.0
 10
13.5163721559
 20
6.2232563428
 30
0.0
 10
13.5140315615
 20
6.2502372125
 30
0.0
 10
13.5120441795
 20
6.2779225796
 30
0.0
 10
13.5104140437
 20
6.3062568007
 30
0.0
 10
13.5091444752
 20
6.335182918
 30
0.0
 10
13.5082380711
 20
6.364642783
 30
0.0
 10
13.5076967001
 20
6.3945771642
 30
0.0
 10
13.5075214669
 20
6.4249258665
 30
0.0
 10
13.5077127438
 20
6.455627857
 30
0.0
 10
13.5082701692
 20
6.4866213936
 30
0.0
 10
13.5091926503
 20
6.517844144
 30
0.0
 10
13.5104783334
 20
6.549233311
 30
0.0
 10
13.5121246355
 20
6.5807257619
 30
0.0
 10
13.5141282524
 20
6.6122581566
 30
0.0
 10
13.5164851688
 20
6.643767073
 30
0.0
 10
13.519190635
 20
6.6751891374
 30
0.0
 10
13.5222391976
 20
6.7064611527
 30
0.0
 10
13.5256247179
 20
6.7375202232
 30
0.0
 10
13.5293403877
 20
6.7683038808
 30
0.0
 10
13.5333787139
 20
6.7987502167
 30
0.0
 10
13.5377315474
 20
6.8287980072
 30
0.0
 10
13.5423901111
 20
6.8583868298
 30
0.0
 10
13.5473450209
 20
6.8874571852
 30
0.0
 10
13.5525862791
 20
6.9159506279
 30
0.0
 10
13.5581032989
 20
6.9438098859
 30
0.0
 10
13.563884944
 20
6.9709789664
 30
0.0
 10
13.5699195516
 20
6.9974032678
 30
0.0
 10
13.5761949369
 20
7.0230297062
 30
0.0
 10
13.5826984114
 20
7.0478068291
 30
0.0
 10
13.5894168337
 20
7.0716849062
 30
0.0
 10
13.5963366356
 20
7.0946160359
 30
0.0
 10
13.6034438385
 20
7.1165542435
 30
0.0
 10
13.6107240663
 20
7.1374556673
 30
0.0
 10
13.6181626106
 20
7.1572783758
 30
0.0
 10
13.6245600812
 20
7.1730613991
 30
0.0
 10
13.6297544667
 20
7.1851103577
 30
0.0
 10
13.6336305101
 20
7.1937370829
 30
0.0
 10
13.6375348206
 20
7.2020655889
 30
0.0
 10
13.6414655093
 20
7.2100916956
 30
0.0
 10
13.6454205258
 20
7.2178114112
 30
0.0
 10
13.6493979425
 20
7.2252208599
 30
0.0
 10
13.6533957625
 20
7.232316348
 30
0.0
 10
13.6574119503
 20
7.2390943633
 30
0.0
 10
13.6614445803
 20
7.24555149
 30
0.0
 10
13.6654915666
 20
7.2516845398
 30
0.0
 10
13.6695509072
 20
7.25749046
 30
0.0
 10
13.6736206779
 20
7.2629663785
 30
0.0
 10
13.6776988756
 20
7.2681096842
 30
0.0
 10
13.6817836364
 20
7.2729178053
 30
0.0
 10
13.6858726795
 20
7.2773881348
 30
0.0
 10
13.6886569059
 20
7.2801989251
 30
0.0
 10
13.6900497746
 20
7.2815443331
 30
0.0
  0
SPLINE
  5
333
100
AcDbEntity
  8
0
100
AcDbSpline
 62
7
  6
CONTINUOUS
 70
0
 71
3
 72
38
 73
34
 74
0
 42
0.0000001
 43
0.0000001
 44
0.0000000001
 40
0.0
 40
0.0
 40
0.0
 40
0.0
 40
0.0830433957
 40
0.1213095859
 40
0.157413262
 40
0.1913742689
 40
0.2232252124
 40
0.2530153437
 40
0.2808167475
 40
0.3067290698
 40
0.3308859386
 40
0.353463651
 40
0.3746906025
 40
0.3948536255
 40
0.4142976506
 40
0.433417623
 40
0.4526392411
 40
0.4723891765
 40
0.4930677166
 40
0.5150309075
 40
0.5385824596
 40
0.5639701307
 40
0.5913910651
 40
0.6210035063
 40
0.6529347528
 40
0.6872844405
 40
0.724127578
 40
0.7635237279
 40
0.8055208291
 40
0.8501536398
 40
0.8974389981
 40
0.9473862192
 40
1.0
 40
1.0
 40
1.0
 40
1.0
 10
10.9432164444
 20
7.1980352659
 30
0.0
 10
10.9438833083
 20
7.1979890526
 30
0.0
 10
10.9448564253
 20
7.1979013078
 30
0.0
 10
10.9461123323
 20
7.1977319198
 30
0.0
 10
10.9469723818
 20
7.1975868197
 30
0.0
 10
10.9477757771
 20
7.1974196551
 30
0.0
 10
10.9485218518
 20
7.1972298395
 30
0.0
 10
10.9492099541
 20
7.1970167656
 30
0.0
 10
10.9498394892
 20
7.1967798701
 30
0.0
 10
10.9504099006
 20
7.1965185679
 30
0.0
 10
10.9509206221
 20
7.1962322014
 30
0.0
 10
10.9513710256
 20
7.1959200241
 30
0.0
 10
10.9517603684
 20
7.1955812561
 30
0.0
 10
10.9520878207
 20
7.1952152527
 30
0.0
 10
10.9523523484
 20
7.194821509
 30
0.0
 10
10.9525528421
 20
7.1943998493
 30
0.0
 10
10.9526883437
 20
7.1939504746
 30
0.0
 10
10.9527584717
 20
7.1934738299
 30
0.0
 10
10.9527632274
 20
7.192970214
 30
0.0
 10
10.9527027463
 20
7.1924396419
 30
0.0
 10
10.9525771107
 20
7.1918819247
 30
0.0
 10
10.9523864071
 20
7.1912967856
 30
0.0
 10
10.9521306677
 20
7.190683944
 30
0.0
 10
10.9518098211
 20
7.1900431722
 30
0.0
 10
10.9514237585
 20
7.1893743048
 30
0.0
 10
10.9509724157
 20
7.1886772539
 30
0.0
 10
10.950455802
 20
7.1879519924
 30
0.0
 10
10.9498739356
 20
7.1871985623
 30
0.0
 10
10.9492268611
 20
7.18641705
 30
0.0
 10
10.9485147177
 20
7.1856076327
 30
0.0
 10
10.9477377705
 20
7.1847705606
 30
0.0
 10
10.9468963481
 20
7.183906177
 30
0.0
 10
10.9463079334
 20
7.1833269999
 30
0.0
 10
10.9460033161
 20
7.1830327621
 30
0.0
  0
SPLINE
  5
334
100
AcDbEntity
  8
0
100
AcDbSpline
 62
7
  6
CONTINUOUS
 70
0
 71
3
 72
61
 73
57
 74
0
 42
0.0000001
 43
0.0000001
 44
0.0000000001
 40
0.0
 40
0.0
 40
0.0
 40
0.0
 40
0.0310716878
 40
0.0623005825
 40
0.077975336
 40
0.0936872186
 40
0.109435127
 40
0.1252177335
 40
0.1410335076
 40
0.1568807571
 40
0.1727576296
 40
0.1886621184
 40
0.2045920732
 40
0.2205452188
 40
0.2525065376
 40
0.2845306238
 40
0.3165958738
 40
0.3486798645
 40
0.3807598004
 40
0.4128129665
 40
0.44481718
 40
0.4767512341
 40
0.4926881487
 40
0.5086002419
 40
0.5244853294
 40
0.5403413602
 40
0.5561664347
 40
0.5719588142
 40
0.5877169251
 40
0.6034393774
 40
0.6191249665
 40
0.6347726802
 40
0.6503817133
 40
0.6659514636
 40
0.6814815419
 40
0.6969717786
 40
0.7124222172
 40
0.7278331248
 40
0.7432049897
 40
0.7585385148
 40
0.7738346248
 40
0.7890944561
 40
0.8043193507
 40
0.8195108575
 40
0.8346707163
 40
0.8498008522
 40
0.8649033691
 40
0.8799805306
 40
0.8950347532
 40
0.9100685926
 40
0.9250847237
 40
0.9400859309
 40
0.9550750893
 40
0.970055145
 40
0.9850291016
 40
1.0
 40
1.0
 40
1.0
 40
1.0
 10
7.2855609364
 20
9.5340811414
 30
0.0
 10
7.2855609364
 20
9.5134707345
 30
0.0
 10
7.2870982242
 20
9.4721308189
 30
0.0
 10
7.2928126531
 20
9.4206770681
 30
0.0
 10
7.2996376471
 20
9.3796998562
 30
0.0
 10
7.3058875376
 20
9.3490584959
 30
0.0
 10
7.3132530715
 20
9.3185928255
 30
0.0
 10
7.3217240284
 20
9.2883442059
 30
0.0
 10
7.331288897
 20
9.2583543831
 30
0.0
 10
7.3419344245
 20
9.2286645407
 30
0.0
 10
7.3536459317
 20
9.1993154432
 30
0.0
 10
7.3664073772
 20
9.1703476023
 30
0.0
 10
7.3802013372
 20
9.1418003558
 30
0.0
 10
7.3999542322
 20
9.104332041
 30
0.0
 10
7.4271317941
 20
9.0587471913
 30
0.0
 10
7.4635125545
 20
9.0063826648
 30
0.0
 10
7.5034858933
 20
8.9566001535
 30
0.0
 10
7.5468314337
 20
8.9096746799
 30
0.0
 10
7.5933113986
 20
8.8658634121
 30
0.0
 10
7.6426710791
 20
8.825406692
 30
0.0
 10
7.6946377974
 20
8.7885276017
 30
0.0
 10
7.7399161111
 20
8.7609227752
 30
0.0
 10
7.7771537173
 20
8.7408238155
 30
0.0
 10
7.8055340269
 20
8.7267693036
 30
0.0
 10
7.8343426769
 20
8.7137456736
 30
0.0
 10
7.8635405556
 20
8.7017707176
 30
0.0
 10
7.8930873638
 20
8.6908608652
 30
0.0
 10
7.9229425245
 20
8.6810311153
 30
0.0
 10
7.9530650247
 20
8.6722951199
 30
0.0
 10
7.9834134124
 20
8.6646647524
 30
0.0
 10
8.0139459921
 20
8.6581506055
 30
0.0
 10
8.0446207928
 20
8.6527617001
 30
0.0
 10
8.0753956188
 20
8.648505327
 30
0.0
 10
8.1062281797
 20
8.6453875021
 30
0.0
 10
8.1370760713
 20
8.6434124902
 30
0.0
 10
8.1678968746
 20
8.6425829445
 30
0.0
 10
8.1986482107
 20
8.6429001931
 30
0.0
 10
8.229287786
 20
8.6443636996
 30
0.0
 10
8.2597734675
 20
8.6469714709
 30
0.0
 10
8.2900633098
 20
8.6507200779
 30
0.0
 10
8.3201156668
 20
8.6556042265
 30
0.0
 10
8.3498891911
 20
8.6616173016
 30
0.0
 10
8.3793429058
 20
8.6687511118
 30
0.0
 10
8.4084363253
 20
8.6769957203
 30
0.0
 10
8.4371293845
 20
8.6863399438
 30
0.0
 10
8.465382607
 20
8.6967709132
 30
0.0
 10
8.4931571528
 20
8.7082742065
 30
0.0
 10
8.5204147354
 20
8.7208341695
 30
0.0
 10
8.5471178877
 20
8.7344334268
 30
0.0
 10
8.5732298733
 20
8.7490532684
 30
0.0
 10
8.5987146781
 20
8.764673711
 30
0.0
 10
8.6235373192
 20
8.7812731367
 30
0.0
 10
8.647663567
 20
8.7988287406
 30
0.0
 10
8.6710602839
 20
8.8173165436
 30
0.0
 10
8.6936949377
 20
8.8367105393
 30
0.0
 10
8.7082574035
 20
8.8502278458
 30
0.0
 10
8.7153999475
 20
8.8571269906
 30
0.0
  0
SPLINE
  5
335
100
AcDbEntity
  8
0
100
AcDbSpline
 62
7
  6
CONTINUOUS
 70
0
 71
3
 72
42
 73
38
 74
0
 42
0.0000001
 43
0.0000001
 44
0.0000000001
 40
0.0
 40
0.0
 40
0.0
 40
0.0
 40
0.0309185844
 40
0.0619774683
 40
0.0931734486
 40
0.1245002274
 40
0.1559496639
 40
0.1875114596
 40
0.2191734868
 40
0.2509219734
 40
0.282741746
 40
0.3146164838
 40
0.3465289867
 40
0.3784614525
 40
0.410395762
 40
0.4423137665
 40
0.474197576
 40
0.5060298453
 40
0.5377940535
 40
0.5694747739
 40
0.6010579313
 40
0.6325310428
 40
0.6638834388
 40
0.6951064603
 40
0.7261936286
 40
0.7571407841
 40
0.787946188
 40
0.8186105862
 40
0.8491372296
 40
0.8795318502
 40
0.90980259
 40
0.9248969433
 40
0.9399644213
 40
0.9550066582
 40
0.9700254056
 40
0.985022531
 40
1.0
 40
1.0
 40
1.0
 40
1.0
 10
9.8854090533
 20
8.1183579469
 30
0.0
 10
9.8854090533
 20
8.1004864163
 30
0.0
 10
9.8866005484
 20
8.0646512225
 30
0.0
 10
9.8919257223
 20
8.0110224244
 30
0.0
 10
9.9007688697
 20
7.957619232
 30
0.0
 10
9.9130909443
 20
7.9046792985
 30
0.0
 10
9.9288373489
 20
7.8524344614
 30
0.0
 10
9.9479386549
 20
7.8011143943
 30
0.0
 10
9.9703106783
 20
7.7509444255
 30
0.0
 10
9.9958549438
 20
7.702144883
 30
0.0
 10
10.0244590655
 20
7.6549300342
 30
0.0
 10
10.055997268
 20
7.6095071868
 30
0.0
 10
10.0903309371
 20
7.5660757836
 30
0.0
 10
10.1273092244
 20
7.5248265364
 30
0.0
 10
10.1667697051
 20
7.4859405973
 30
0.0
 10
10.2085390841
 20
7.4495887691
 30
0.0
 10
10.2524339524
 20
7.4159307651
 30
0.0
 10
10.2982615712
 20
7.3851144931
 30
0.0
 10
10.345820721
 20
7.3572754184
 30
0.0
 10
10.3949025816
 20
7.3325359802
 30
0.0
 10
10.4452916376
 20
7.3110050541
 30
0.0
 10
10.4967666132
 20
7.2927774752
 30
0.0
 10
10.5491014329
 20
7.2779336191
 30
0.0
 10
10.6020662018
 20
7.2665390493
 30
0.0
 10
10.655428203
 20
7.2586442031
 30
0.0
 10
10.7089529005
 20
7.2542841619
 30
0.0
 10
10.7624050122
 20
7.2534785176
 30
0.0
 10
10.8155493465
 20
7.2562312052
 30
0.0
 10
10.8681525222
 20
7.2625307067
 30
0.0
 10
10.9199814229
 20
7.2723492048
 30
0.0
 10
10.9623832035
 20
7.2834406755
 30
0.0
 10
10.9956785454
 20
7.2940241015
 30
0.0
 10
11.0202952752
 20
7.3028001867
 30
0.0
 10
11.0445505791
 20
7.3124118918
 30
0.0
 10
11.0684182552
 20
7.322848779
 30
0.0
 10
11.0918715985
 20
7.334099065
 30
0.0
 10
11.1072239851
 20
7.3421387925
 30
0.0
 10
11.1148213134
 20
7.3462895506
 30
0.0
  0
SPLINE
  5
336
100
AcDbEntity
  8
0
100
AcDbSpline
 62
7
  6
CONTINUOUS
 70
0
 71
3
 72
42
 73
38
 74
0
 42
0.0000001
 43
0.0000001
 44
0.0000000001
 40
0.0
 40
0.0
 40
0.0
 40
0.0
 40
0.0309185844
 40
0.0619774683
 40
0.0931734486
 40
0.1245002274
 40
0.1559496639
 40
0.1875114596
 40
0.2191734868
 40
0.2509219734
 40
0.282741746
 40
0.3146164838
 40
0.3465289867
 40
0.3784614525
 40
0.410395762
 40
0.4423137665
 40
0.474197576
 40
0.5060298453
 40
0.5377940535
 40
0.5694747739
 40
0.6010579313
 40
0.6325310428
 40
0.6638834388
 40
0.6951064603
 40
0.7261936286
 40
0.7571407841
 40
0.787946188
 40
0.8186105862
 40
0.8491372296
 40
0.8795318502
 40
0.90980259
 40
0.9248969433
 40
0.9399644213
 40
0.9550066582
 40
0.9700254056
 40
0.985022531
 40
1.0
 40
1.0
 40
1.0
 40
1.0
 10
7.6479159468
 20
9.858089225
 30
0.0
 10
7.6479159468
 20
9.8402176944
 30
0.0
 10
7.649107442
 20
9.8043825005
 30
0.0
 10
7.6544326159
 20
9.7507537025
 30
0.0
 10
7.6632757633
 20
9.6973505101
 30
0.0
 10
7.6755978379
 20
9.6444105766
 30
0.0
 10
7.6913442425
 20
9.5921657395
 30
0.0
 10
7.7104455485
 20
9.5408456723
 30
0.0
 10
7.7328175718
 20
9.4906757035
 30
0.0
 10
7.7583618374
 20
9.4418761611
 30
0.0
 10
7.7869659591
 20
9.3946613122
 30
0.0
 10
7.8185041616
 20
9.3492384649
 30
0.0
 10
7.8528378307
 20
9.3058070616
 30
0.0
 10
7.889816118
 20
9.2645578145
 30
0.0
 10
7.9292765987
 20
9.2256718754
 30
0.0
 10
7.9710459776
 20
9.1893200472
 30
0.0
 10
8.014940846
 20
9.1556620432
 30
0.0
 10
8.0607684648
 20
9.1248457712
 30
0.0
 10
8.1083276145
 20
9.0970066965
 30
0.0
 10
8.1574094752
 20
9.0722672583
 30
0.0
 10
8.2077985311
 20
9.0507363322
 30
0.0
 10
8.2592735068
 20
9.0325087533
 30
0.0
 10
8.3116083265
 20
9.0176648972
 30
0.0
 10
8.3645730954
 20
9.0062703273
 30
0.0
 10
8.4179350965
 20
8.9983754811
 30
0.0
 10
8.4714597941
 20
8.9940154399
 30
0.0
 10
8.5249119057
 20
8.9932097956
 30
0.0
 10
8.5780562401
 20
8.9959624833
 30
0.0
 10
8.6306594157
 20
9.0022619847
 30
0.0
 10
8.6824883165
 20
9.0120804828
 30
0.0
 10
8.7248900971
 20
9.0231719535
 30
0.0
 10
8.758185439
 20
9.0337553796
 30
0.0
 10
8.7828021688
 20
9.0425314647
 30
0.0
 10
8.8070574727
 20
9.0521431699
 30
0.0
 10
8.8309251487
 20
9.0625800571
 30
0.0
 10
8.8543784921
 20
9.0738303431
 30
0.0
 10
8.8697308786
 20
9.0818700706
 30
0.0
 10
8.877328207
 20
9.0860208287
 30
0.0
  0
SPLINE
  5
337
100
AcDbEntity
  8
0
100
AcDbSpline
 62
7
  6
CONTINUOUS
 70
0
 71
3
 72
44
 73
40
 74
0
 42
0.0000001
 43
0.0000001
 44
0.0000000001
 40
0.0
 40
0.0
 40
0.0
 40
0.0
 40
0.0309342883
 40
0.0620105384
 40
0.0932254365
 40
0.1245724661
 40
0.1560431992
 40
0.1876269887
 40
0.2193113015
 40
0.2510819189
 40
0.2829231911
 40
0.3148183058
 40
0.3467495692
 40
0.3786986981
 40
0.4106471186
 40
0.4425762682
 40
0.4744678978
 40
0.5063043703
 40
0.5380689524
 40
0.5697460948
 40
0.6013216985
 40
0.6327833639
 40
0.6641206174
 40
0.6953251125
 40
0.7263907994
 40
0.7573140604
 40
0.7880938072
 40
0.8187315354
 40
0.8492313331
 40
0.8644337587
 40
0.8796044014
 40
0.894744477
 40
0.9098553417
 40
0.9249384978
 40
0.939995575
 40
0.9550283333
 40
0.9700386495
 40
0.9850285086
 40
1.0
 40
1.0
 40
1.0
 40
1.0
 10
7.6776144251
 20
9.8657757538
 30
0.0
 10
7.6776144251
 20
9.848150201
 30
0.0
 10
7.678803295
 20
9.8128070725
 30
0.0
 10
7.6841162169
 20
9.7599189906
 30
0.0
 10
7.6929383221
 20
9.7072615038
 30
0.0
 10
7.705229741
 20
9.6550744305
 30
0.0
 10
7.7209347393
 20
9.6035916608
 30
0.0
 10
7.7399824474
 20
9.5530448148
 30
0.0
 10
7.7622869608
 20
9.5036610213
 30
0.0
 10
7.7877477925
 20
9.4556622255
 30
0.0
 10
7.8162502995
 20
9.409264106
 30
0.0
 10
7.8476662257
 20
9.364675152
 30
0.0
 10
7.8818542687
 20
9.3220957278
 30
0.0
 10
7.9186607117
 20
9.2817171841
 30
0.0
 10
7.9579201083
 20
9.2437210066
 30
0.0
 10
7.9994560194
 20
9.2082780087
 30
0.0
 10
8.0430817796
 20
9.1755475445
 30
0.0
 10
8.0886013511
 20
9.1456768189
 30
0.0
 10
8.1358101953
 20
9.1188002313
 30
0.0
 10
8.1844961817
 20
9.0950387763
 30
0.0
 10
8.2344405296
 20
9.0744995
 30
0.0
 10
8.2854187794
 20
9.0572750239
 30
0.0
 10
8.3372017865
 20
9.0434431075
 30
0.0
 10
8.3895567284
 20
9.0330662853
 30
0.0
 10
8.4422481984
 20
9.0261916149
 30
0.0
 10
8.4950390574
 20
9.0228504089
 30
0.0
 10
8.5476921985
 20
9.0230582383
 30
0.0
 10
8.5999689757
 20
9.0268142689
 30
0.0
 10
8.643076127
 20
9.0328953007
 30
0.0
 10
8.6771284244
 20
9.0395134857
 30
0.0
 10
8.7024029535
 20
9.045341042
 30
0.0
 10
8.727408775
 20
9.0520308356
 30
0.0
 10
8.7521180864
 20
9.0595755029
 30
0.0
 10
8.7765030125
 20
9.0679663593
 30
0.0
 10
8.8005360493
 20
9.0771941966
 30
0.0
 10
8.8241901685
 20
9.0872484153
 30
0.0
 10
8.847438775
 20
9.0981178983
 30
0.0
 10
8.8702553302
 20
9.1097901464
 30
0.0
 10
8.8851705504
 20
9.1181032799
 30
0.0
 10
8.8925463749
 20
9.1223886459
 30
0.0
  0
SPLINE
  5
338
100
AcDbEntity
  8
0
100
AcDbSpline
 62
7
  6
CONTINUOUS
 70
0
 71
3
 72
44
 73
40
 74
0
 42
0.0000001
 43
0.0000001
 44
0.0000000001
 40
0.0
 40
0.0
 40
0.0
 40
0.0
 40
0.0309342883
 40
0.0620105384
 40
0.0932254365
 40
0.1245724661
 40
0.1560431992
 40
0.1876269887
 40
0.2193113015
 40
0.2510819189
 40
0.2829231911
 40
0.3148183058
 40
0.3467495692
 40
0.3786986981
 40
0.4106471186
 40
0.4425762682
 40
0.4744678978
 40
0.5063043703
 40
0.5380689524
 40
0.5697460948
 40
0.6013216985
 40
0.6327833639
 40
0.6641206174
 40
0.6953251125
 40
0.7263907994
 40
0.7573140604
 40
0.7880938072
 40
0.8187315354
 40
0.8492313331
 40
0.8644337587
 40
0.8796044014
 40
0.894744477
 40
0.9098553417
 40
0.9249384978
 40
0.939995575
 40
0.9550283333
 40
0.9700386495
 40
0.9850285086
 40
1.0
 40
1.0
 40
1.0
 40
1.0
 10
9.9151075315
 20
8.1260444757
 30
0.0
 10
9.9151075315
 20
8.1084189229
 30
0.0
 10
9.9162964015
 20
8.0730757945
 30
0.0
 10
9.9216093233
 20
8.0201877125
 30
0.0
 10
9.9304314286
 20
7.9675302257
 30
0.0
 10
9.9427228474
 20
7.9153431525
 30
0.0
 10
9.9584278458
 20
7.8638603827
 30
0.0
 10
9.9774755538
 20
7.8133135367
 30
0.0
 10
9.9997800672
 20
7.7639297432
 30
0.0
 10
10.0252408989
 20
7.7159309474
 30
0.0
 10
10.0537434059
 20
7.6695328279
 30
0.0
 10
10.0851593322
 20
7.6249438739
 30
0.0
 10
10.1193473751
 20
7.5823644497
 30
0.0
 10
10.1561538181
 20
7.541985906
 30
0.0
 10
10.1954132147
 20
7.5039897285
 30
0.0
 10
10.2369491258
 20
7.4685467306
 30
0.0
 10
10.280574886
 20
7.4358162665
 30
0.0
 10
10.3260944575
 20
7.4059455408
 30
0.0
 10
10.3733033017
 20
7.3790689533
 30
0.0
 10
10.4219892882
 20
7.3553074982
 30
0.0
 10
10.471933636
 20
7.3347682219
 30
0.0
 10
10.5229118858
 20
7.3175437459
 30
0.0
 10
10.5746948929
 20
7.3037118294
 30
0.0
 10
10.6270498349
 20
7.2933350072
 30
0.0
 10
10.6797413048
 20
7.2864603369
 30
0.0
 10
10.7325321638
 20
7.2831191308
 30
0.0
 10
10.785185305
 20
7.2833269602
 30
0.0
 10
10.8374620821
 20
7.2870829909
 30
0.0
 10
10.8805692334
 20
7.2931640226
 30
0.0
 10
10.9146215309
 20
7.2997822076
 30
0.0
 10
10.93989606
 20
7.3056097639
 30
0.0
 10
10.9649018815
 20
7.3122995576
 30
0.0
 10
10.9896111928
 20
7.3198442248
 30
0.0
 10
11.0139961189
 20
7.3282350813
 30
0.0
 10
11.0380291557
 20
7.3374629185
 30
0.0
 10
11.061683275
 20
7.3475171372
 30
0.0
 10
11.0849318814
 20
7.3583866203
 30
0.0
 10
11.1077484367
 20
7.3700588683
 30
0.0
 10
11.1226636568
 20
7.3783720018
 30
0.0
 10
11.1300394814
 20
7.3826573678
 30
0.0
  0
SPLINE
  5
339
100
AcDbEntity
  8
0
100
AcDbSpline
 62
7
  6
CONTINUOUS
 70
0
 71
3
 72
69
 73
65
 74
0
 42
0.0000001
 43
0.0000001
 44
0.0000000001
 40
0.0
 40
0.0
 40
0.0
 40
0.0
 40
0.0149703074
 40
0.0299436729
 40
0.0449231368
 40
0.0599117028
 40
0.0749123176
 40
0.0899278549
 40
0.1049610993
 40
0.1200147275
 40
0.1350912922
 40
0.1501932108
 40
0.1653227493
 40
0.1804820076
 40
0.1956729124
 40
0.2108972056
 40
0.2261564321
 40
0.2414519362
 40
0.2567848553
 40
0.272156111
 40
0.2875664084
 40
0.3030162359
 40
0.318505859
 40
0.3340353229
 40
0.3496044568
 40
0.3652128724
 40
0.3808599674
 40
0.396544935
 40
0.4122667661
 40
0.4280242541
 40
0.4438160079
 40
0.4596404579
 40
0.4754958618
 40
0.4913803204
 40
0.507291786
 40
0.5232280705
 40
0.5391868616
 40
0.5551657342
 40
0.5711621595
 40
0.5871735223
 40
0.6192254231
 40
0.6513040928
 40
0.6673487776
 40
0.6833916203
 40
0.6994297749
 40
0.715460417
 40
0.7314807599
 40
0.7474880696
 40
0.7634796755
 40
0.7794529858
 40
0.7954055023
 40
0.8113348296
 40
0.8272386898
 40
0.8431149365
 40
0.8589615622
 40
0.8747767104
 40
0.8905586935
 40
0.9063059878
 40
0.9220172443
 40
0.9376913619
 40
0.9533273188
 40
0.9689242712
 40
0.9844823665
 40
1.0
 40
1.0
 40
1.0
 40
1.0
 10
10.9451605328
 20
6.916671031
 30
0.0
 10
10.9368649108
 20
6.9086580534
 30
0.0
 10
10.9199514947
 20
6.8929584571
 30
0.0
 10
10.8936627422
 20
6.8704333841
 30
0.0
 10
10.8664888595
 20
6.8489608442
 30
0.0
 10
10.8384677151
 20
6.8285709335
 30
0.0
 10
10.809637714
 20
6.8092916109
 30
0.0
 10
10.780038628
 20
6.7911493533
 30
0.0
 10
10.7497111682
 20
6.7741691234
 30
0.0
 10
10.7186970413
 20
6.7583743463
 30
0.0
 10
10.6870389763
 20
6.7437866531
 30
0.0
 10
10.6547805369
 20
6.730426095
 30
0.0
 10
10.6219660814
 20
6.718311122
 30
0.0
 10
10.5886407961
 20
6.7074583051
 30
0.0
 10
10.5548505398
 20
6.6978825251
 30
0.0
 10
10.5206417791
 20
6.6895970223
 30
0.0
 10
10.4860615951
 20
6.6826131177
 30
0.0
 10
10.4511575668
 20
6.6769403404
 30
0.0
 10
10.415977694
 20
6.67258655
 30
0.0
 10
10.3805703736
 20
6.6695576902
 30
0.0
 10
10.3449843097
 20
6.667857826
 30
0.0
 10
10.3092684392
 20
6.667489335
 30
0.0
 10
10.2734718836
 20
6.6684527165
 30
0.0
 10
10.2376438658
 20
6.67074653
 30
0.0
 10
10.201833651
 20
6.6743676404
 30
0.0
 10
10.1660904865
 20
6.679311096
 30
0.0
 10
10.1304635044
 20
6.68556998
 30
0.0
 10
10.0950016853
 20
6.693135684
 30
0.0
 10
10.059753801
 20
6.7019978602
 30
0.0
 10
10.0247682874
 20
6.7121442136
 30
0.0
 10
9.990093233
 20
6.7235607719
 30
0.0
 10
9.9557763332
 20
6.7362319071
 30
0.0
 10
9.921864737
 20
6.750140112
 30
0.0
 10
9.8884050438
 20
6.7652662248
 30
0.0
 10
9.8554432806
 20
6.7815895213
 30
0.0
 10
9.8230247446
 20
6.7990875008
 30
0.0
 10
9.7911939387
 20
6.8177360777
 30
0.0
 10
9.7599947602
 20
6.8375095846
 30
0.0
 10
9.7294696898
 20
6.8583811636
 30
0.0
 10
9.6897152237
 20
6.8876421257
 30
0.0
 10
9.6419207379
 20
6.9268154341
 30
0.0
 10
9.5969335366
 20
6.9692201469
 30
0.0
 10
9.5627611611
 20
7.0049548736
 30
0.0
 10
9.5380727244
 20
7.0326281811
 30
0.0
 10
9.5143640272
 20
7.0611307411
 30
0.0
 10
9.4916673359
 20
7.0904237848
 30
0.0
 10
9.4700138908
 20
7.1204668977
 30
0.0
 10
9.4494334252
 20
7.15121881
 30
0.0
 10
9.4299543205
 20
7.1826372967
 30
0.0
 10
9.4116033035
 20
7.2146791371
 30
0.0
 10
9.3944055798
 20
7.2473002769
 30
0.0
 10
9.378384881
 20
7.2804559201
 30
0.0
 10
9.3635632099
 20
7.3141004744
 30
0.0
 10
9.3499609035
 20
7.3481876747
 30
0.0
 10
9.3375967492
 20
7.3826706958
 30
0.0
 10
9.3264877583
 20
7.4175021348
 30
0.0
 10
9.3166491524
 20
7.4526340901
 30
0.0
 10
9.3080945361
 20
7.4880182792
 30
0.0
 10
9.3008357041
 20
7.5236060824
 30
0.0
 10
9.2948826175
 20
7.5593485537
 30
0.0
 10
9.2902434981
 20
7.5951964182
 30
0.0
 10
9.2869247004
 20
7.6311009666
 30
0.0
 10
9.2849310341
 20
7.6670116617
 30
0.0
 10
9.2844863636
 20
7.6909558344
 30
0.0
 10
9.2844863636
 20
7.7029111669
 30
0.0
  0
SPLINE
  5
33A
100
AcDbEntity
  8
0
100
AcDbSpline
 62
7
  6
CONTINUOUS
 70
0
 71
3
 72
43
 73
39
 74
0
 42
0.0000001
 43
0.0000001
 44
0.0000000001
 40
0.0
 40
0.0
 40
0.0
 40
0.0
 40
0.0308800783
 40
0.0618964803
 40
0.0930462418
 40
0.1243235797
 40
0.1557210111
 40
0.1872290445
 40
0.2188364903
 40
0.250530613
 40
0.2822973484
 40
0.3141215259
 40
0.3459871049
 40
0.3778774205
 40
0.4097754364
 40
0.4416640007
 40
0.4735261034
 40
0.5053451323
 40
0.5371051248
 40
0.5687910127
 40
0.6003888573
 40
0.631886072
 40
0.6632716295
 40
0.6945362492
 40
0.7256725634
 40
0.7566752577
 40
0.7875411822
 40
0.8182694322
 40
0.8335843093
 40
0.8488654824
 40
0.8641134794
 40
0.8793289781
 40
0.9096616685
 40
0.9398758358
 40
0.9549437292
 40
0.9699859856
 40
0.9850041828
 40
1.0
 40
1.0
 40
1.0
 40
1.0
 10
7.7489518658
 20
9.9346824343
 30
0.0
 10
7.7489518658
 20
9.9177476186
 30
0.0
 10
7.7500492266
 20
9.883793336
 30
0.0
 10
7.754954816
 20
9.8329697199
 30
0.0
 10
7.7631027044
 20
9.7823417525
 30
0.0
 10
7.7744588955
 20
9.7321223614
 30
0.0
 10
7.78897584
 20
9.682519381
 30
0.0
 10
7.8065930523
 20
9.6337388899
 30
0.0
 10
7.82723715
 20
9.5859833001
 30
0.0
 10
7.850822251
 20
9.5394508112
 30
0.0
 10
7.8772502976
 20
9.494334517
 30
0.0
 10
7.9064114744
 20
9.4508216356
 30
0.0
 10
7.9381846499
 20
9.4090927269
 30
0.0
 10
7.972437885
 20
9.3693209547
 30
0.0
 10
8.0090289793
 20
9.3316713755
 30
0.0
 10
8.0478060564
 20
9.2963002592
 30
0.0
 10
8.0886081896
 20
9.2633544455
 30
0.0
 10
8.1312660641
 20
9.2329707393
 30
0.0
 10
8.1756026728
 20
9.2052753462
 30
0.0
 10
8.2214340446
 20
9.1803833517
 30
0.0
 10
8.2685699997
 20
9.1583982466
 30
0.0
 10
8.3168149307
 20
9.1394114906
 30
0.0
 10
8.365968596
 20
9.1235021315
 30
0.0
 10
8.4158269899
 20
9.1107364852
 30
0.0
 10
8.4661830111
 20
9.1011678438
 30
0.0
 10
8.5168279374
 20
9.0948362907
 30
0.0
 10
8.5675499704
 20
9.0917683736
 30
0.0
 10
8.6097592917
 20
9.0919428861
 30
0.0
 10
8.6433475485
 20
9.0937257276
 30
0.0
 10
8.6684010062
 20
9.0958787563
 30
0.0
 10
8.6933161275
 20
9.098847175
 30
0.0
 10
8.7262798892
 20
9.1038819207
 30
0.0
 10
8.7670221235
 20
9.1121920135
 30
0.0
 10
8.8070411337
 20
9.123182685
 30
0.0
 10
8.8384639725
 20
9.1335453157
 30
0.0
 10
8.8616971222
 20
9.142087163
 30
0.0
 10
8.8845904901
 20
9.1513960075
 30
0.0
 10
8.8996219742
 20
9.1581120899
 30
0.0
 10
8.9070720963
 20
9.1615943974
 30
0.0
  0
SPLINE
  5
33B
100
AcDbEntity
  8
0
100
AcDbSpline
 62
7
  6
CONTINUOUS
 70
0
 71
3
 72
41
 73
37
 74
0
 42
0.0000001
 43
0.0000001
 44
0.0000000001
 40
0.0
 40
0.0
 40
0.0
 40
0.0
 40
0.0309282606
 40
0.0619978458
 40
0.0932054389
 40
0.124544626
 40
0.1560071017
 40
0.1875823542
 40
0.2192580174
 40
0.2510200526
 40
0.2828530038
 40
0.3147402573
 40
0.3466643184
 40
0.3786070977
 40
0.4105502045
 40
0.4424752429
 40
0.474364108
 40
0.5061992795
 40
0.5379641078
 40
0.5696430907
 40
0.601222136
 40
0.6326888072
 40
0.6640325485
 40
0.6952448835
 40
0.7263195854
 40
0.7572528138
 40
0.7880432138
 40
0.8186919745
 40
0.8492028428
 40
0.8795820901
 40
0.9098384297
 40
0.9399828847
 40
0.9550195132
 40
0.9700332659
 40
0.9850260827
 40
1.0
 40
1.0
 40
1.0
 40
1.0
 10
7.846931443
 20
9.9493234439
 30
0.0
 10
7.846931443
 20
9.9335041094
 30
0.0
 10
7.8479934979
 20
9.9017832509
 30
0.0
 10
7.8527398763
 20
9.8543140266
 30
0.0
 10
7.8606215024
 20
9.8070488188
 30
0.0
 10
7.8716030822
 20
9.7602009115
 30
0.0
 10
7.8856352756
 20
9.7139783147
 30
0.0
 10
7.9026553503
 20
9.6685870589
 30
0.0
 10
7.9225872411
 20
9.624229216
 30
0.0
 10
7.9453419858
 20
9.5811022981
 30
0.0
 10
7.9708180866
 20
9.5393983066
 30
0.0
 10
7.9989019734
 20
9.4993029113
 30
0.0
 10
8.0294684972
 20
9.4609946197
 30
0.0
 10
8.0623814867
 20
9.4246439915
 30
0.0
 10
8.0974943562
 20
9.3904128892
 30
0.0
 10
8.1346507519
 20
9.3584537629
 30
0.0
 10
8.1736852421
 20
9.3289089776
 30
0.0
 10
8.2144240475
 20
9.3019101837
 30
0.0
 10
8.2566858065
 20
9.2775777345
 30
0.0
 10
8.3002823749
 20
9.2560201531
 30
0.0
 10
8.3450196543
 20
9.2373336508
 30
0.0
 10
8.390698446
 20
9.2216016977
 30
0.0
 10
8.4371153258
 20
9.2088946396
 30
0.0
 10
8.484063544
 20
9.1992693907
 30
0.0
 10
8.5313339345
 20
9.192769174
 30
0.0
 10
8.5787158393
 20
9.1894233216
 30
0.0
 10
8.6259980258
 20
9.1892471284
 30
0.0
 10
8.6729696641
 20
9.1922417896
 30
0.0
 10
8.7194210981
 20
9.1983943071
 30
0.0
 10
8.7651453853
 20
9.2076777996
 30
0.0
 10
8.8099369675
 20
9.2200506012
 30
0.0
 10
8.8463551631
 20
9.2329030199
 30
0.0
 10
8.874813456
 20
9.2446670516
 30
0.0
 10
8.8957863943
 20
9.2542148667
 30
0.0
 10
8.9163797771
 20
9.2644829822
 30
0.0
 10
8.9298492439
 20
9.2718057959
 30
0.0
 10
8.9365120117
 20
9.2755829307
 30
0.0
  0
SPLINE
  5
33C
100
AcDbEntity
  8
0
100
AcDbSpline
 62
7
  6
CONTINUOUS
 70
0
 71
3
 72
43
 73
39
 74
0
 42
0.0000001
 43
0.0000001
 44
0.0000000001
 40
0.0
 40
0.0
 40
0.0
 40
0.0
 40
0.0308800783
 40
0.0618964803
 40
0.0930462418
 40
0.1243235797
 40
0.1557210111
 40
0.1872290445
 40
0.2188364903
 40
0.250530613
 40
0.2822973484
 40
0.3141215259
 40
0.3459871049
 40
0.3778774205
 40
0.4097754364
 40
0.4416640007
 40
0.4735261034
 40
0.5053451323
 40
0.5371051248
 40
0.5687910127
 40
0.6003888573
 40
0.631886072
 40
0.6632716295
 40
0.6945362492
 40
0.7256725634
 40
0.7566752577
 40
0.7875411822
 40
0.8182694322
 40
0.8335843093
 40
0.8488654824
 40
0.8641134794
 40
0.8793289781
 40
0.9096616685
 40
0.9398758358
 40
0.9549437292
 40
0.9699859856
 40
0.9850041828
 40
1.0
 40
1.0
 40
1.0
 40
1.0
 10
9.9864449722
 20
8.1949511562
 30
0.0
 10
9.9864449722
 20
8.1780163405
 30
0.0
 10
9.987542333
 20
8.1440620579
 30
0.0
 10
9.9924479224
 20
8.0932384419
 30
0.0
 10
10.0005958109
 20
8.0426104745
 30
0.0
 10
10.0119520019
 20
7.9923910833
 30
0.0
 10
10.0264689464
 20
7.9427881029
 30
0.0
 10
10.0440861587
 20
7.8940076118
 30
0.0
 10
10.0647302564
 20
7.846252022
 30
0.0
 10
10.0883153575
 20
7.7997195332
 30
0.0
 10
10.1147434041
 20
7.7546032389
 30
0.0
 10
10.1439045808
 20
7.7110903575
 30
0.0
 10
10.1756777563
 20
7.6693614488
 30
0.0
 10
10.2099309914
 20
7.6295896766
 30
0.0
 10
10.2465220857
 20
7.5919400974
 30
0.0
 10
10.2852991628
 20
7.5565689811
 30
0.0
 10
10.3261012961
 20
7.5236231675
 30
0.0
 10
10.3687591705
 20
7.4932394612
 30
0.0
 10
10.4130957792
 20
7.4655440682
 30
0.0
 10
10.458927151
 20
7.4406520736
 30
0.0
 10
10.5060631061
 20
7.4186669685
 30
0.0
 10
10.5543080372
 20
7.3996802125
 30
0.0
 10
10.6034617025
 20
7.3837708535
 30
0.0
 10
10.6533200963
 20
7.3710052071
 30
0.0
 10
10.7036761176
 20
7.3614365657
 30
0.0
 10
10.7543210438
 20
7.3551050127
 30
0.0
 10
10.8050430768
 20
7.3520370955
 30
0.0
 10
10.8472523982
 20
7.352211608
 30
0.0
 10
10.8808406549
 20
7.3539944495
 30
0.0
 10
10.9058941126
 20
7.3561474782
 30
0.0
 10
10.930809234
 20
7.3591158969
 30
0.0
 10
10.9637729957
 20
7.3641506426
 30
0.0
 10
11.0045152299
 20
7.3724607355
 30
0.0
 10
11.0445342401
 20
7.3834514069
 30
0.0
 10
11.0759570789
 20
7.3938140376
 30
0.0
 10
11.0991902286
 20
7.4023558849
 30
0.0
 10
11.1220835966
 20
7.4116647294
 30
0.0
 10
11.1371150806
 20
7.4183808118
 30
0.0
 10
11.1445652028
 20
7.4218631193
 30
0.0
  0
SPLINE
  5
33D
100
AcDbEntity
  8
0
100
AcDbSpline
 62
7
  6
CONTINUOUS
 70
0
 71
3
 72
75
 73
71
 74
0
 42
0.0000001
 43
0.0000001
 44
0.0000000001
 40
0.0
 40
0.0
 40
0.0
 40
0.0
 40
0.0155842192
 40
0.0233572755
 40
0.0311169608
 40
0.046596236
 40
0.0620247854
 40
0.0697211414
 40
0.0774055104
 40
0.0927382729
 40
0.1080270414
 40
0.123275021
 40
0.1384858323
 40
0.1536634824
 40
0.1688123253
 40
0.1839370178
 40
0.1990424723
 40
0.2141338055
 40
0.2292162847
 40
0.2442952718
 40
0.2593761658
 40
0.2744643456
 40
0.2895651118
 40
0.304683631
 40
0.3198248809
 40
0.3349935985
 40
0.3501942316
 40
0.3654308936
 40
0.3807073232
 40
0.3960268487
 40
0.4113923571
 40
0.4268062686
 40
0.4422705168
 40
0.4577865339
 40
0.4733552422
 40
0.4889770495
 40
0.5046518511
 40
0.5203790354
 40
0.5361574949
 40
0.5519856415
 40
0.5678614254
 40
0.5837823585
 40
0.5997455407
 40
0.6157476895
 40
0.6317851725
 40
0.6478540421
 40
0.6639500724
 40
0.6800687979
 40
0.6962055534
 40
0.7123555163
 40
0.7285137483
 40
0.7446752392
 40
0.7608349505
 40
0.7769878595
 40
0.7931290025
 40
0.8092535185
 40
0.8253566919
 40
0.8414339942
 40
0.8574811246
 40
0.8654926466
 40
0.8734951387
 40
0.8894701295
 40
0.9054037966
 40
0.9212931282
 40
0.9371354993
 40
0.9529287706
 40
0.9686711003
 40
0.9765233353
 40
0.9843626592
 40
1.0
 40
1.0
 40
1.0
 40
1.0
 10
7.196154515
 20
9.5207212115
 30
0.0
 10
7.196154515
 20
9.5354563457
 30
0.0
 10
7.196695895
 20
9.5575461705
 30
0.0
 10
7.1985072871
 20
9.5869141121
 30
0.0
 10
7.2010376571
 20
9.6161298502
 30
0.0
 10
7.2055500051
 20
9.6524272607
 30
0.0
 10
7.2118640176
 20
9.6883945127
 30
0.0
 10
7.2179832803
 20
9.7168780182
 30
0.0
 10
7.224799524
 20
9.745109569
 30
0.0
 10
7.2346366369
 20
9.7799845851
 30
0.0
 10
7.2485307843
 20
9.8210886956
 30
0.0
 10
7.2644729382
 20
9.8613194086
 30
0.0
 10
7.2824246221
 20
9.9005790227
 30
0.0
 10
7.3023426721
 20
9.9387730215
 30
0.0
 10
7.3241791153
 20
9.9758092243
 30
0.0
 10
7.3478813497
 20
10.0115982985
 30
0.0
 10
7.3733922564
 20
10.0460538989
 30
0.0
 10
7.4006503411
 20
10.0790929003
 30
0.0
 10
7.4295898819
 20
10.1106355953
 30
0.0
 10
7.4601410889
 20
10.1406058908
 30
0.0
 10
7.4922302742
 20
10.1689314939
 30
0.0
 10
7.5257800313
 20
10.1955440886
 30
0.0
 10
7.5607094257
 20
10.2203795012
 30
0.0
 10
7.5969341864
 20
10.2433778653
 30
0.0
 10
7.6343669172
 20
10.2644837627
 30
0.0
 10
7.6729173137
 20
10.2836463532
 30
0.0
 10
7.7124923829
 20
10.3008194977
 30
0.0
 10
7.7529966705
 20
10.3159618671
 30
0.0
 10
7.7943324938
 20
10.3290370408
 30
0.0
 10
7.8364001786
 20
10.3400135916
 30
0.0
 10
7.8790983015
 20
10.34886516
 30
0.0
 10
7.9223239354
 20
10.3555705125
 30
0.0
 10
7.9659728967
 20
10.3601135997
 30
0.0
 10
8.009939999
 20
10.36248359
 30
0.0
 10
8.0541193072
 20
10.3626748862
 30
0.0
 10
8.098404392
 20
10.360687138
 30
0.0
 10
8.1426885854
 20
10.3565252397
 30
0.0
 10
8.186865236
 20
10.3501993171
 30
0.0
 10
8.2308279645
 20
10.3417247003
 30
0.0
 10
8.2744709182
 20
10.3311218864
 30
0.0
 10
8.3176890236
 20
10.3184164872
 30
0.0
 10
8.3603782393
 20
10.303639173
 30
0.0
 10
8.4024358072
 20
10.2868255997
 30
0.0
 10
8.4437604956
 20
10.2680163134
 30
0.0
 10
8.4842528419
 20
10.2472566548
 30
0.0
 10
8.52381539
 20
10.2245966491
 30
0.0
 10
8.5623529232
 20
10.200090886
 30
0.0
 10
8.5997726919
 20
10.1737983889
 30
0.0
 10
8.6359846353
 20
10.1457824729
 30
0.0
 10
8.6709015964
 20
10.1161105931
 30
0.0
 10
8.7044395332
 20
10.0848541853
 30
0.0
 10
8.7365177242
 20
10.0520884991
 30
0.0
 10
8.7670589565
 20
10.0178924077
 30
0.0
 10
8.795989709
 20
9.9823482254
 30
0.0
 10
8.8232403364
 20
9.9455414925
 30
0.0
 10
8.8487452057
 20
9.907560836
 30
0.0
 10
8.8724429662
 20
9.8684975138
 30
0.0
 10
8.8942762778
 20
9.8284461062
 30
0.0
 10
8.9108828595
 20
9.7943068231
 30
0.0
 10
8.9231840654
 20
9.7665979166
 30
0.0
 10
8.934809582
 20
9.7386726886
 30
0.0
 10
8.9480885966
 20
9.7033335458
 30
0.0
 10
8.9619855738
 20
9.6603122713
 30
0.0
 10
8.9738026328
 20
9.6168031513
 30
0.0
 10
8.9835110715
 20
9.5729113005
 30
0.0
 10
8.9910873539
 20
9.5287429413
 30
0.0
 10
8.9956128779
 20
9.4917612819
 30
0.0
 10
8.9981486389
 20
9.462145744
 30
0.0
 10
8.9999581664
 20
9.4325770148
 30
0.0
 10
9.0005041557
 20
9.4103745005
 30
0.0
 10
9.0005041557
 20
9.3955891389
 30
0.0
  0
SPLINE
  5
33E
100
AcDbEntity
  8
0
100
AcDbSpline
 62
7
  6
CONTINUOUS
 70
0
 71
3
 72
27
 73
23
 74
0
 42
0.0000001
 43
0.0000001
 44
0.0000000001
 40
0.0
 40
0.0
 40
0.0
 40
0.0
 40
0.06377613
 40
0.0955884017
 40
0.1273469134
 40
0.1907029267
 40
0.2538558288
 40
0.2853602466
 40
0.316816442
 40
0.379584125
 40
0.4421741869
 40
0.5045989116
 40
0.5668722162
 40
0.6290095105
 40
0.6910275651
 40
0.7219999716
 40
0.7529493976
 40
0.8147838927
 40
0.8765559282
 40
0.9074274487
 40
0.9382910667
 40
1.0
 40
1.0
 40
1.0
 40
1.0
 10
7.2855609364
 20
9.5340811414
 30
0.0
 10
7.2855609364
 20
9.5473653582
 30
0.0
 10
7.2860382896
 20
9.5672803232
 30
0.0
 10
7.2876352032
 20
9.5937597319
 30
0.0
 10
7.2898661887
 20
9.6201059581
 30
0.0
 10
7.2938448321
 20
9.652845154
 30
0.0
 10
7.2994123091
 20
9.6852984686
 30
0.0
 10
7.3048087777
 20
9.7110093447
 30
0.0
 10
7.3108204203
 20
9.7365008705
 30
0.0
 10
7.3194974996
 20
9.7680058958
 30
0.0
 10
7.3317556237
 20
9.8051662965
 30
0.0
 10
7.3458240665
 20
9.8415700249
 30
0.0
 10
7.3616704161
 20
9.8771326948
 30
0.0
 10
7.3792579043
 20
9.9117718919
 30
0.0
 10
7.3953393923
 20
9.9398156194
 30
0.0
 10
7.4090308639
 20
9.9617047518
 30
0.0
 10
7.4232558453
 20
9.9832052107
 30
0.0
 10
7.4420450284
 20
10.0093649176
 30
0.0
 10
7.4621409407
 20
10.0345139335
 30
0.0
 10
7.4789645766
 20
10.0539797749
 30
0.0
 10
7.4962737515
 20
10.0729966008
 30
0.0
 10
7.5098012486
 20
10.0867533542
 30
0.0
 10
7.5190462967
 20
10.0956833552
 30
0.0
  0
SPLINE
  5
33F
100
AcDbEntity
  8
0
100
AcDbSpline
 62
7
  6
CONTINUOUS
 70
0
 71
3
 72
37
 73
33
 74
0
 42
0.0000001
 43
0.0000001
 44
0.0000000001
 40
0.0
 40
0.0
 40
0.0
 40
0.0
 40
0.0308192103
 40
0.0617149131
 40
0.092684368
 40
0.1237242549
 40
0.1548308522
 40
0.1860000653
 40
0.2172274142
 40
0.2485080878
 40
0.2798369668
 40
0.3112086458
 40
0.3426174814
 40
0.3740576144
 40
0.4055230027
 40
0.437007468
 40
0.4999976156
 40
0.5629878482
 40
0.5944724177
 40
0.6259379554
 40
0.6573782741
 40
0.6887873364
 40
0.7201592829
 40
0.7514884611
 40
0.7827694722
 40
0.8139971926
 40
0.8451668031
 40
0.8762738328
 40
0.9073141716
 40
0.9382841012
 40
0.9691803303
 40
1.0
 40
1.0
 40
1.0
 40
1.0
 10
8.3135276492
 20
10.2707345023
 30
0.0
 10
8.3151001672
 20
10.2613807223
 30
0.0
 10
8.3186128476
 20
10.242709047
 30
0.0
 10
8.3249643668
 20
10.2148934132
 30
0.0
 10
8.3323955819
 20
10.1872758273
 30
0.0
 10
8.3408946477
 20
10.1599001621
 30
0.0
 10
8.3504481744
 20
10.1328092243
 30
0.0
 10
8.3610412618
 20
10.1060456219
 30
0.0
 10
8.3726571862
 20
10.0796513219
 30
0.0
 10
8.3852776633
 20
10.0536677342
 30
0.0
 10
8.3988829906
 20
10.0281356978
 30
0.0
 10
8.4134516977
 20
10.0030952441
 30
0.0
 10
8.4289609188
 20
9.9785856363
 30
0.0
 10
8.4453863215
 20
9.9546455047
 30
0.0
 10
8.4627023325
 20
9.9313120069
 30
0.0
 10
8.4869420349
 20
9.9010575612
 30
0.0
 10
8.5193263947
 20
9.864941281
 30
0.0
 10
8.5542905331
 20
9.8313162254
 30
0.0
 10
8.5836806435
 20
9.8060353219
 30
0.0
 10
8.6063956876
 20
9.7879154141
 30
0.0
 10
8.6297481724
 20
9.7706644658
 30
0.0
 10
8.6537016997
 20
9.7543091178
 30
0.0
 10
8.6782186336
 20
9.7388752026
 30
0.0
 10
8.7032605386
 20
9.7243869711
 30
0.0
 10
8.7287880437
 20
9.7108670741
 30
0.0
 10
8.7547611346
 20
9.6983368288
 30
0.0
 10
8.7811390449
 20
9.6868159362
 30
0.0
 10
8.8078803405
 20
9.6763223902
 30
0.0
 10
8.8349430518
 20
9.6668727925
 30
0.0
 10
8.8622848404
 20
9.6584819614
 30
0.0
 10
8.8898622052
 20
9.6511630857
 30
0.0
 10
8.9084001847
 20
9.6470007314
 30
0.0
 10
8.9176934955
 20
9.6451025561
 30
0.0
  0
SPLINE
  5
340
100
AcDbEntity
  8
0
100
AcDbSpline
 62
7
  6
CONTINUOUS
 70
0
 71
3
 72
45
 73
41
 74
0
 42
0.0000001
 43
0.0000001
 44
0.0000000001
 40
0.0
 40
0.0
 40
0.0
 40
0.0
 40
0.0308890026
 40
0.0619152783
 40
0.0930758094
 40
0.1243646905
 40
0.1557742852
 40
0.1872949123
 40
0.2189151619
 40
0.2506220548
 40
0.2824012654
 40
0.3142373514
 40
0.3461139976
 40
0.3780142691
 40
0.4099208714
 40
0.4418164135
 40
0.473683673
 40
0.5055058582
 40
0.537266867
 40
0.5689515373
 40
0.6005458879
 40
0.6320373455
 40
0.6634149545
 40
0.694669568
 40
0.7257940141
 40
0.7567832366
 40
0.7876344047
 40
0.8183469893
 40
0.8336538591
 40
0.8489269615
 40
0.8641668877
 40
0.8793743744
 40
0.8945503016
 40
0.9096956842
 40
0.9248116782
 40
0.9398995637
 40
0.9549607535
 40
0.969996775
 40
0.9850092736
 40
1.0
 40
1.0
 40
1.0
 40
1.0
 10
7.6228018738
 20
9.8598308918
 30
0.0
 10
7.6228018738
 20
9.8417948545
 30
0.0
 10
7.6239786722
 20
9.8056319491
 30
0.0
 10
7.6292390867
 20
9.7515048435
 30
0.0
 10
7.6379759324
 20
9.697590666
 30
0.0
 10
7.6501522532
 20
9.6441192868
 30
0.0
 10
7.6657163622
 20
9.5913150487
 30
0.0
 10
7.6846025159
 20
9.5394003513
 30
0.0
 10
7.7067309638
 20
9.4885935784
 30
0.0
 10
7.7320083813
 20
9.439108497
 30
0.0
 10
7.7603282302
 20
9.3911532825
 30
0.0
 10
7.7915712103
 20
9.3449296725
 30
0.0
 10
7.8256057538
 20
9.3006321147
 30
0.0
 10
7.8622885874
 20
9.2584469651
 30
0.0
 10
7.9014653293
 20
9.2185517091
 30
0.0
 10
7.9429711344
 20
9.1811142214
 30
0.0
 10
7.9866313817
 20
9.1462920658
 30
0.0
 10
8.0322624029
 20
9.1142318369
 30
0.0
 10
8.0796722476
 20
9.0850685468
 30
0.0
 10
8.1286614843
 20
9.0589250625
 30
0.0
 10
8.1790240233
 20
9.0359115774
 30
0.0
 10
8.2305479851
 20
9.0161251551
 30
0.0
 10
8.2830165704
 20
8.9996493244
 30
0.0
 10
8.3362090111
 20
8.9865537277
 30
0.0
 10
8.3899013061
 20
8.9768938102
 30
0.0
 10
8.4438678299
 20
8.9707106319
 30
0.0
 10
8.4978797642
 20
8.9680304921
 30
0.0
 10
8.5427939669
 20
8.9687271486
 30
0.0
 10
8.5785127402
 20
8.9710456875
 30
0.0
 10
8.6051441435
 20
8.9736584395
 30
0.0
 10
8.6316165946
 20
8.9771443459
 30
0.0
 10
8.6579025753
 20
8.981499605
 30
0.0
 10
8.6839742786
 20
8.9867196906
 30
0.0
 10
8.7098042395
 20
8.9927991562
 30
0.0
 10
8.7353652558
 20
8.9997314757
 30
0.0
 10
8.7606303364
 20
9.0075095586
 30
0.0
 10
8.7855728965
 20
9.0161249597
 30
0.0
 10
8.8101666521
 20
9.0255689152
 30
0.0
 10
8.8343854009
 20
9.0358310563
 30
0.0
 10
8.8502759318
 20
9.0432163877
 30
0.0
 10
8.8581490138
 20
9.0470413901
 30
0.0
  0
SPLINE
  5
341
100
AcDbEntity
  8
0
100
AcDbSpline
 62
7
  6
CONTINUOUS
 70
0
 71
3
 72
15
 73
11
 74
0
 42
0.0000001
 43
0.0000001
 44
0.0000000001
 40
0.0
 40
0.0
 40
0.0
 40
0.0
 40
0.1266651338
 40
0.2528152093
 40
0.3784613677
 40
0.5036214343
 40
0.6283205084
 40
0.7525902893
 40
0.8764688332
 40
1.0
 40
1.0
 40
1.0
 40
1.0
 10
7.6228018738
 20
9.8598308918
 30
0.0
 10
7.6228018738
 20
9.8761351591
 30
0.0
 10
7.6237593698
 20
9.9086857672
 30
0.0
 10
7.6280839445
 20
9.9572364286
 30
0.0
 10
7.6352791156
 20
10.0052515489
 30
0.0
 10
7.6453201846
 20
10.0525621228
 30
0.0
 10
7.6581724037
 20
10.0990041155
 30
0.0
 10
7.6737916525
 20
10.1444164827
 30
0.0
 10
7.6921227172
 20
10.1886391505
 30
0.0
 10
7.7061295567
 20
10.2172670229
 30
0.0
 10
7.7135604098
 20
10.2313247582
 30
0.0
  0
SPLINE
  5
342
100
AcDbEntity
  8
0
100
AcDbSpline
 62
7
  6
CONTINUOUS
 70
0
 71
3
 72
26
 73
22
 74
0
 42
0.0000001
 43
0.0000001
 44
0.0000000001
 40
0.0
 40
0.0
 40
0.0
 40
0.0
 40
0.061832717
 40
0.1239181452
 40
0.1862299315
 40
0.2487373358
 40
0.311405855
 40
0.3741979096
 40
0.4370735769
 40
0.4999913549
 40
0.5629089493
 40
0.6257840699
 40
0.688575226
 40
0.751242511
 40
0.8137483675
 40
0.8449344314
 40
0.8760675096
 40
0.907143896
 40
0.9381601487
 40
0.9691131262
 40
1.0
 40
1.0
 40
1.0
 40
1.0
 10
8.3754562488
 20
10.2485593136
 30
0.0
 10
8.379044523
 20
10.2326710987
 30
0.0
 10
8.3873565528
 20
10.2010713516
 30
0.0
 10
8.4031106263
 20
10.154572596
 30
0.0
 10
8.4220979386
 20
10.1091029064
 30
0.0
 10
8.4442187083
 20
10.064901756
 30
0.0
 10
8.4693578535
 20
10.022198077
 30
0.0
 10
8.497384425
 20
9.9812140679
 30
0.0
 10
8.5281526041
 20
9.9421627203
 30
0.0
 10
8.5615023225
 20
9.905247063
 30
0.0
 10
8.5972601595
 20
9.8706589942
 30
0.0
 10
8.6352401012
 20
9.8385784241
 30
0.0
 10
8.6752450965
 20
9.8091720611
 30
0.0
 10
8.7170658077
 20
9.7825935874
 30
0.0
 10
8.7532812723
 20
9.7628992621
 30
0.0
 10
8.7829416848
 20
9.7486919619
 30
0.0
 10
8.8054868595
 20
9.7388296229
 30
0.0
 10
8.8283165854
 20
9.7297664752
 30
0.0
 10
8.8514016357
 20
9.721514304
 30
0.0
 10
8.8747114249
 20
9.7140838562
 30
0.0
 10
8.8903990572
 20
9.7096794869
 30
0.0
 10
8.8982699493
 20
9.7076178429
 30
0.0
  0
SPLINE
  5
343
100
AcDbEntity
  8
0
100
AcDbSpline
 62
7
  6
CONTINUOUS
 70
0
 71
3
 72
21
 73
17
 74
0
 42
0.0000001
 43
0.0000001
 44
0.0000000001
 40
0.0
 40
0.0
 40
0.0
 40
0.0
 40
0.1267816759
 40
0.252998316
 40
0.3159080975
 40
0.3786830657
 40
0.441326255
 40
0.5038416702
 40
0.5662337343
 40
0.6285073131
 40
0.6906678726
 40
0.7527213708
 40
0.814674239
 40
0.8765333643
 40
0.9383060476
 40
1.0
 40
1.0
 40
1.0
 40
1.0
 10
7.6479159468
 20
9.858089225
 30
0.0
 10
7.6479159468
 20
9.8754149397
 30
0.0
 10
7.6490305983
 20
9.9099991215
 30
0.0
 10
7.6532327213
 20
9.952997808
 30
0.0
 10
7.6582683273
 20
9.9870572084
 30
0.0
 10
7.662871862
 20
10.0123835937
 30
0.0
 10
7.6683011828
 20
10.0374905455
 30
0.0
 10
7.6745507862
 20
10.0623521226
 30
0.0
 10
7.6816139467
 20
10.0869423822
 30
0.0
 10
7.6894835628
 20
10.1112356085
 30
0.0
 10
7.6981511808
 20
10.1352065166
 30
0.0
 10
7.7076079863
 20
10.1588300241
 30
0.0
 10
7.7178439448
 20
10.1820815131
 30
0.0
 10
7.7288485292
 20
10.2049367686
 30
0.0
 10
7.7406100439
 20
10.2273716056
 30
0.0
 10
7.7489529307
 20
10.2420418375
 30
0.0
 10
7.7532458967
 20
10.2492979802
 30
0.0
  0
SPLINE
  5
344
100
AcDbEntity
  8
0
100
AcDbSpline
 62
7
  6
CONTINUOUS
 70
0
 71
3
 72
11
 73
7
 74
0
 42
0.0000001
 43
0.0000001
 44
0.0000000001
 40
0.0
 40
0.0
 40
0.0
 40
0.0
 40
0.258326321
 40
0.5095899689
 40
0.7560223336
 40
1.0
 40
1.0
 40
1.0
 40
1.0
 10
13.6597950807
 20
5.8997912158
 30
0.0
 10
13.6582609142
 20
5.899271991
 30
0.0
 10
13.6551872154
 20
5.8983805702
 30
0.0
 10
13.6505221973
 20
5.8974994759
 30
0.0
 10
13.645881689
 20
5.8970975209
 30
0.0
 10
13.6428008342
 20
5.897150031
 30
0.0
 10
13.6412748141
 20
5.8972558639
 30
0.0
  0
SPLINE
  5
345
100
AcDbEntity
  8
0
100
AcDbSpline
 62
7
  6
CONTINUOUS
 70
0
 71
3
 72
41
 73
37
 74
0
 42
0.0000001
 43
0.0000001
 44
0.0000000001
 40
0.0
 40
0.0
 40
0.0
 40
0.0
 40
0.0309282606
 40
0.0619978458
 40
0.0932054389
 40
0.124544626
 40
0.1560071017
 40
0.1875823542
 40
0.2192580174
 40
0.2510200526
 40
0.2828530038
 40
0.3147402573
 40
0.3466643184
 40
0.3786070977
 40
0.4105502045
 40
0.4424752429
 40
0.474364108
 40
0.5061992795
 40
0.5379641078
 40
0.5696430907
 40
0.601222136
 40
0.6326888072
 40
0.6640325485
 40
0.6952448835
 40
0.7263195854
 40
0.7572528138
 40
0.7880432138
 40
0.8186919745
 40
0.8492028428
 40
0.8795820901
 40
0.9098384297
 40
0.9399828847
 40
0.9550195132
 40
0.9700332659
 40
0.9850260827
 40
1.0
 40
1.0
 40
1.0
 40
1.0
 10
10.0844245494
 20
8.2095921659
 30
0.0
 10
10.0844245494
 20
8.1937728313
 30
0.0
 10
10.0854866044
 20
8.1620519728
 30
0.0
 10
10.0902329827
 20
8.1145827485
 30
0.0
 10
10.0981146089
 20
8.0673175407
 30
0.0
 10
10.1090961886
 20
8.0204696334
 30
0.0
 10
10.1231283821
 20
7.9742470367
 30
0.0
 10
10.1401484567
 20
7.9288557808
 30
0.0
 10
10.1600803475
 20
7.884497938
 30
0.0
 10
10.1828350923
 20
7.84137102
 30
0.0
 10
10.2083111931
 20
7.7996670286
 30
0.0
 10
10.2363950798
 20
7.7595716332
 30
0.0
 10
10.2669616036
 20
7.7212633416
 30
0.0
 10
10.2998745932
 20
7.6849127134
 30
0.0
 10
10.3349874627
 20
7.6506816111
 30
0.0
 10
10.3721438583
 20
7.6187224848
 30
0.0
 10
10.4111783486
 20
7.5891776996
 30
0.0
 10
10.4519171539
 20
7.5621789056
 30
0.0
 10
10.4941789129
 20
7.5378464564
 30
0.0
 10
10.5377754813
 20
7.516288875
 30
0.0
 10
10.5825127607
 20
7.4976023727
 30
0.0
 10
10.6281915524
 20
7.4818704197
 30
0.0
 10
10.6746084322
 20
7.4691633616
 30
0.0
 10
10.7215566504
 20
7.4595381127
 30
0.0
 10
10.7688270409
 20
7.4530378959
 30
0.0
 10
10.8162089457
 20
7.4496920435
 30
0.0
 10
10.8634911322
 20
7.4495158503
 30
0.0
 10
10.9104627705
 20
7.4525105116
 30
0.0
 10
10.9569142046
 20
7.458663029
 30
0.0
 10
11.0026384918
 20
7.4679465215
 30
0.0
 10
11.0474300739
 20
7.4803193231
 30
0.0
 10
11.0838482695
 20
7.4931717418
 30
0.0
 10
11.1123065624
 20
7.5049357735
 30
0.0
 10
11.1332795008
 20
7.5144835886
 30
0.0
 10
11.1538728835
 20
7.5247517042
 30
0.0
 10
11.1673423504
 20
7.5320745178
 30
0.0
 10
11.1740051181
 20
7.5358516526
 30
0.0
  0
SPLINE
  5
346
100
AcDbEntity
  8
0
100
AcDbSpline
 62
7
  6
CONTINUOUS
 70
0
 71
3
 72
21
 73
17
 74
0
 42
0.0000001
 43
0.0000001
 44
0.0000000001
 40
0.0
 40
0.0
 40
0.0
 40
0.0
 40
0.1268510846
 40
0.2531086869
 40
0.316030068
 40
0.3788104207
 40
0.4414534861
 40
0.503963855
 40
0.5663465668
 40
0.6286072867
 40
0.690752304
 40
0.7527884892
 40
0.8147232204
 40
0.8765644023
 40
0.9383204
 40
1.0
 40
1.0
 40
1.0
 40
1.0
 10
7.6776144251
 20
9.8657757538
 30
0.0
 10
7.6776144251
 20
9.883513073
 30
0.0
 10
7.6788127314
 20
9.9189160005
 30
0.0
 10
7.6833312482
 20
9.9629107992
 30
0.0
 10
7.6887447593
 20
9.9977294464
 30
0.0
 10
7.6936927787
 20
10.0236019238
 30
0.0
 10
7.6995270694
 20
10.049229896
 30
0.0
 10
7.7062411382
 20
10.0745841634
 30
0.0
 10
7.7138271228
 20
10.0996355017
 30
0.0
 10
7.7222763673
 20
10.1243550747
 30
0.0
 10
7.7315792046
 20
10.1487143919
 30
0.0
 10
7.7417247975
 20
10.1726854771
 30
0.0
 10
7.7527016648
 20
10.1962406155
 30
0.0
 10
7.7644970383
 20
10.2193528792
 30
0.0
 10
7.7770972706
 20
10.2419952014
 30
0.0
 10
7.7860299355
 20
10.2567687876
 30
0.0
 10
7.7906249029
 20
10.2640673327
 30
0.0
  0
SPLINE
  5
347
100
AcDbEntity
  8
0
100
AcDbSpline
 62
7
  6
CONTINUOUS
 70
0
 71
3
 72
26
 73
22
 74
0
 42
0.0000001
 43
0.0000001
 44
0.0000000001
 40
0.0
 40
0.0
 40
0.0
 40
0.0
 40
0.0637251585
 40
0.1272546756
 40
0.190587962
 40
0.2537310104
 40
0.2852346383
 40
0.3166927486
 40
0.379472149
 40
0.4420819223
 40
0.5045320747
 40
0.566833988
 40
0.6290003034
 40
0.6910448367
 40
0.7220282255
 40
0.7529868307
 40
0.8148333553
 40
0.876605392
 40
0.9074710612
 40
0.9383246276
 40
1.0
 40
1.0
 40
1.0
 40
1.0
 10
9.3528145274
 20
7.768911109
 30
0.0
 10
9.3528145274
 20
7.7832955118
 30
0.0
 10
9.3534564307
 20
7.8120243661
 30
0.0
 10
9.3563533309
 20
7.8549613689
 30
0.0
 10
9.3611773065
 20
7.8975931043
 30
0.0
 10
9.3667994295
 20
7.9328209051
 30
0.0
 10
9.3722506186
 20
7.9607613702
 30
0.0
 10
9.3783250965
 20
7.988488928
 30
0.0
 10
9.3870959252
 20
8.0228039226
 30
0.0
 10
9.3994935397
 20
8.0633667125
 30
0.0
 10
9.4137321454
 20
8.1032065872
 30
0.0
 10
9.4297832352
 20
8.1422433152
 30
0.0
 10
9.4476144509
 20
8.1803982943
 30
0.0
 10
9.4639358589
 20
8.2114112519
 30
0.0
 10
9.4778442652
 20
8.2357001772
 30
0.0
 10
9.4923025477
 20
8.2596136859
 30
0.0
 10
9.5114168217
 20
8.2888211884
 30
0.0
 10
9.5318905164
 20
8.3170665173
 30
0.0
 10
9.5490506358
 20
8.3390367271
 30
0.0
 10
9.5667172944
 20
8.3605727882
 30
0.0
 10
9.580542303
 20
8.3762425261
 30
0.0
 10
9.5900004042
 20
8.3864581234
 30
0.0
  0
SPLINE
  5
348
100
AcDbEntity
  8
0
100
AcDbSpline
 62
7
  6
CONTINUOUS
 70
0
 71
3
 72
23
 73
19
 74
0
 42
0.0000001
 43
0.0000001
 44
0.0000000001
 40
0.0
 40
0.0
 40
0.0
 40
0.0
 40
0.0419264578
 40
0.0856262346
 40
0.1314316403
 40
0.1796274549
 40
0.2304517811
 40
0.2840996924
 40
0.3407342726
 40
0.4004874414
 40
0.4634653623
 40
0.5297556862
 40
0.5994269484
 40
0.6725330487
 40
0.7491168033
 40
0.8292090684
 40
0.9128319243
 40
1.0
 40
1.0
 40
1.0
 40
1.0
 10
8.9133526641
 20
9.3950850895
 30
0.0
 10
8.9133959008
 20
9.3958898744
 30
0.0
 10
8.9135761201
 20
9.3975296325
 30
0.0
 10
8.9141057943
 20
9.4000037681
 30
0.0
 10
8.9148977811
 20
9.4025331681
 30
0.0
 10
8.9159500952
 20
9.4051137174
 30
0.0
 10
8.917260855
 20
9.4077422389
 30
0.0
 10
8.9188285037
 20
9.4104155501
 30
0.0
 10
8.9206511389
 20
9.4131309361
 30
0.0
 10
8.9227270308
 20
9.4158858264
 30
0.0
 10
8.9250545256
 20
9.4186777515
 30
0.0
 10
8.9276315436
 20
9.4215047536
 30
0.0
 10
8.930456214
 20
9.4243648886
 30
0.0
 10
8.9335265483
 20
9.4272564272
 30
0.0
 10
8.9368401892
 20
9.4301781691
 30
0.0
 10
8.9403949934
 20
9.4331288341
 30
0.0
 10
8.9441885354
 20
9.4361074825
 30
0.0
 10
8.9468203183
 20
9.4380708256
 30
0.0
 10
8.948174372
 20
9.4390578586
 30
0.0
  0
SPLINE
  5
349
100
AcDbEntity
  8
0
100
AcDbSpline
 62
7
  6
CONTINUOUS
 70
0
 71
3
 72
27
 73
23
 74
0
 42
0.0000001
 43
0.0000001
 44
0.0000000001
 40
0.0
 40
0.0
 40
0.0
 40
0.0
 40
0.06377613
 40
0.0955884017
 40
0.1273469134
 40
0.1907029267
 40
0.2538558288
 40
0.2853602466
 40
0.316816442
 40
0.379584125
 40
0.4421741869
 40
0.5045989116
 40
0.5668722162
 40
0.6290095105
 40
0.6910275651
 40
0.7219999716
 40
0.7529493976
 40
0.8147838927
 40
0.8765559282
 40
0.9074274487
 40
0.9382910667
 40
1.0
 40
1.0
 40
1.0
 40
1.0
 10
9.5230540428
 20
7.7943498633
 30
0.0
 10
9.5230540428
 20
7.8076340801
 30
0.0
 10
9.523531396
 20
7.8275490451
 30
0.0
 10
9.5251283097
 20
7.8540284539
 30
0.0
 10
9.5273592952
 20
7.88037468
 30
0.0
 10
9.5313379385
 20
7.9131138759
 30
0.0
 10
9.5369054156
 20
7.9455671906
 30
0.0
 10
9.5423018841
 20
7.9712780666
 30
0.0
 10
9.5483135267
 20
7.9967695924
 30
0.0
 10
9.556990606
 20
8.0282746177
 30
0.0
 10
9.5692487301
 20
8.0654350184
 30
0.0
 10
9.5833171729
 20
8.1018387468
 30
0.0
 10
9.5991635225
 20
8.1374014168
 30
0.0
 10
9.6167510107
 20
8.1720406138
 30
0.0
 10
9.6328324988
 20
8.2000843413
 30
0.0
 10
9.6465239703
 20
8.2219734737
 30
0.0
 10
9.6607489517
 20
8.2434739326
 30
0.0
 10
9.6795381348
 20
8.2696336395
 30
0.0
 10
9.6996340471
 20
8.2947826554
 30
0.0
 10
9.716457683
 20
8.3142484968
 30
0.0
 10
9.7337668579
 20
8.3332653227
 30
0.0
 10
9.747294355
 20
8.3470220761
 30
0.0
 10
9.7565394031
 20
8.3559520771
 30
0.0
  0
SPLINE
  5
34A
100
AcDbEntity
  8
0
100
AcDbSpline
 62
7
  6
CONTINUOUS
 70
0
 71
3
 72
15
 73
11
 74
0
 42
0.0000001
 43
0.0000001
 44
0.0000000001
 40
0.0
 40
0.0
 40
0.0
 40
0.0
 40
0.1266253638
 40
0.2527505347
 40
0.3783850934
 40
0.5035458395
 40
0.6282556328
 40
0.7525436811
 40
0.8764449888
 40
1.0
 40
1.0
 40
1.0
 40
1.0
 10
7.7489518658
 20
9.9346824343
 30
0.0
 10
7.7489518658
 20
9.9496623089
 30
0.0
 10
7.7498068234
 20
9.979570143
 30
0.0
 10
7.7536679477
 20
10.0241905155
 30
0.0
 10
7.7600927843
 20
10.0683411411
 30
0.0
 10
7.7690604459
 20
10.1118752378
 30
0.0
 10
7.780541662
 20
10.1546503099
 30
0.0
 10
7.7944991963
 20
10.1965262849
 30
0.0
 10
7.8108864368
 20
10.2373638045
 30
0.0
 10
7.8234137468
 20
10.2638455635
 30
0.0
 10
7.8300617092
 20
10.2768628997
 30
0.0
  0
SPLINE
  5
34B
100
AcDbEntity
  8
0
100
AcDbSpline
 62
7
  6
CONTINUOUS
 70
0
 71
3
 72
23
 73
19
 74
0
 42
0.0000001
 43
0.0000001
 44
0.0000000001
 40
0.0
 40
0.0
 40
0.0
 40
0.0
 40
0.0637764154
 40
0.1273451281
 40
0.190701988
 40
0.253856063
 40
0.3168132283
 40
0.3795820791
 40
0.4421733864
 40
0.5045993414
 40
0.5668738629
 40
0.629012379
 40
0.6910316532
 40
0.7529496461
 40
0.8147853522
 40
0.8765586034
 40
0.9382898574
 40
1.0
 40
1.0
 40
1.0
 40
1.0
 10
7.1787679218
 20
7.4683686174
 30
0.0
 10
7.1787679218
 20
7.4748794802
 30
0.0
 10
7.1790795928
 20
7.4878822066
 30
0.0
 10
7.1804861324
 20
7.5073071665
 30
0.0
 10
7.1828281111
 20
7.5265782009
 30
0.0
 10
7.1860998872
 20
7.5456499374
 30
0.0
 10
7.1902941366
 20
7.5644788648
 30
0.0
 10
7.1954011565
 20
7.5830214554
 30
0.0
 10
7.2014091991
 20
7.6012349774
 30
0.0
 10
7.2083045418
 20
7.6190774114
 30
0.0
 10
7.2160712607
 20
7.6365076207
 30
0.0
 10
7.2246914579
 20
7.6534854188
 30
0.0
 10
7.2341453276
 20
7.6699716178
 30
0.0
 10
7.244411119
 20
7.6859281773
 30
0.0
 10
7.2554650849
 20
7.7013182869
 30
0.0
 10
7.2672818794
 20
7.716106563
 30
0.0
 10
7.2798338401
 20
7.7302583831
 30
0.0
 10
7.2886742791
 20
7.7392485284
 30
0.0
 10
7.2932055243
 20
7.7436253765
 30
0.0
  0
SPLINE
  5
34C
100
AcDbEntity
  8
0
100
AcDbSpline
 62
7
  6
CONTINUOUS
 70
0
 71
3
 72
37
 73
33
 74
0
 42
0.0000001
 43
0.0000001
 44
0.0000000001
 40
0.0
 40
0.0
 40
0.0
 40
0.0
 40
0.0308192103
 40
0.0617149131
 40
0.092684368
 40
0.1237242549
 40
0.1548308522
 40
0.1860000653
 40
0.2172274142
 40
0.2485080878
 40
0.2798369668
 40
0.3112086458
 40
0.3426174814
 40
0.3740576144
 40
0.4055230027
 40
0.437007468
 40
0.4999976156
 40
0.5629878482
 40
0.5944724177
 40
0.6259379554
 40
0.6573782741
 40
0.6887873364
 40
0.7201592829
 40
0.7514884611
 40
0.7827694722
 40
0.8139971926
 40
0.8451668031
 40
0.8762738328
 40
0.9073141716
 40
0.9382841012
 40
0.9691803303
 40
1.0
 40
1.0
 40
1.0
 40
1.0
 10
10.5510207556
 20
8.5310032242
 30
0.0
 10
10.5525932736
 20
8.5216494442
 30
0.0
 10
10.556105954
 20
8.502977769
 30
0.0
 10
10.5624574732
 20
8.4751621351
 30
0.0
 10
10.5698886883
 20
8.4475445493
 30
0.0
 10
10.5783877541
 20
8.420168884
 30
0.0
 10
10.5879412808
 20
8.3930779462
 30
0.0
 10
10.5985343682
 20
8.3663143438
 30
0.0
 10
10.6101502926
 20
8.3399200438
 30
0.0
 10
10.6227707698
 20
8.3139364562
 30
0.0
 10
10.636376097
 20
8.2884044197
 30
0.0
 10
10.6509448041
 20
8.2633639661
 30
0.0
 10
10.6664540252
 20
8.2388543583
 30
0.0
 10
10.6828794279
 20
8.2149142266
 30
0.0
 10
10.7001954389
 20
8.1915807288
 30
0.0
 10
10.7244351413
 20
8.1613262831
 30
0.0
 10
10.7568195012
 20
8.125210003
 30
0.0
 10
10.7917836395
 20
8.0915849474
 30
0.0
 10
10.8211737499
 20
8.0663040439
 30
0.0
 10
10.843888794
 20
8.0481841361
 30
0.0
 10
10.8672412788
 20
8.0309331877
 30
0.0
 10
10.8911948061
 20
8.0145778398
 30
0.0
 10
10.91571174
 20
7.9991439245
 30
0.0
 10
10.940753645
 20
7.984655693
 30
0.0
 10
10.9662811501
 20
7.971135796
 30
0.0
 10
10.992254241
 20
7.9586055508
 30
0.0
 10
11.0186321514
 20
7.9470846582
 30
0.0
 10
11.0453734469
 20
7.9365911121
 30
0.0
 10
11.0724361582
 20
7.9271415144
 30
0.0
 10
11.0997779468
 20
7.9187506833
 30
0.0
 10
11.1273553117
 20
7.9114318077
 30
0.0
 10
11.1458932912
 20
7.9072694533
 30
0.0
 10
11.155186602
 20
7.905371278
 30
0.0
  0
SPLINE
  5
34D
100
AcDbEntity
  8
0
100
AcDbSpline
 62
7
  6
CONTINUOUS
 70
0
 71
3
 72
25
 73
21
 74
0
 42
0.0000001
 43
0.0000001
 44
0.0000000001
 40
0.0
 40
0.0
 40
0.0
 40
0.0
 40
0.0618432121
 40
0.1239352037
 40
0.1862498751
 40
0.2487568892
 40
0.3114222821
 40
0.374209124
 40
0.4370782259
 40
0.4999888747
 40
0.5628995909
 40
0.6257688943
 40
0.6885560694
 40
0.7512219203
 40
0.8137295072
 40
0.8760448545
 40
0.9071253362
 40
0.9381467182
 40
0.9691058813
 40
1.0
 40
1.0
 40
1.0
 40
1.0
 10
10.6137220289
 20
8.5054460032
 30
0.0
 10
10.617355112
 20
8.4897242107
 30
0.0
 10
10.6257335478
 20
8.4584598439
 30
0.0
 10
10.6415194197
 20
8.4124608127
 30
0.0
 10
10.6604719183
 20
8.3674832739
 30
0.0
 10
10.6824933641
 20
8.323759575
 30
0.0
 10
10.7074713956
 20
8.2815118457
 30
0.0
 10
10.7352783986
 20
8.2409557085
 30
0.0
 10
10.7657724637
 20
8.2022979007
 30
0.0
 10
10.7987979921
 20
8.1657355558
 30
0.0
 10
10.8341865037
 20
8.1314551167
 30
0.0
 10
10.8717575526
 20
8.0996314269
 30
0.0
 10
10.9113194658
 20
8.0704268975
 30
0.0
 10
10.952670929
 20
8.0439904631
 30
0.0
 10
10.995599694
 20
8.0204576766
 30
0.0
 10
11.0325433557
 20
8.0033498833
 30
0.0
 10
11.0626654719
 20
7.9912323793
 30
0.0
 10
11.0854942626
 20
7.9829450071
 30
0.0
 10
11.1085475782
 20
7.975462206
 30
0.0
 10
11.1240644299
 20
7.9710114106
 30
0.0
 10
11.1318502481
 20
7.9689236197
 30
0.0
  0
SPLINE
  5
34E
100
AcDbEntity
  8
0
100
AcDbSpline
 62
7
  6
CONTINUOUS
 70
0
 71
3
 72
11
 73
7
 74
0
 42
0.0000001
 43
0.0000001
 44
0.0000000001
 40
0.0
 40
0.0
 40
0.0
 40
0.0
 40
0.2440845802
 40
0.4905798698
 40
0.7418200883
 40
1.0
 40
1.0
 40
1.0
 40
1.0
 10
13.738824735
 20
7.3038773064
 30
0.0
 10
13.7403363914
 20
7.3037724696
 30
0.0
 10
13.7433659949
 20
7.3034042415
 30
0.0
 10
13.7478641147
 20
7.3023821017
 30
0.0
 10
13.7523212905
 20
7.3008910489
 30
0.0
 10
13.7552166709
 20
7.2996060795
 30
0.0
 10
13.7566518187
 20
7.2988924323
 30
0.0
  0
SPLINE
  5
34F
100
AcDbEntity
  8
0
100
AcDbSpline
 62
7
  6
CONTINUOUS
 70
0
 71
3
 72
45
 73
41
 74
0
 42
0.0000001
 43
0.0000001
 44
0.0000000001
 40
0.0
 40
0.0
 40
0.0
 40
0.0
 40
0.0308890026
 40
0.0619152783
 40
0.0930758094
 40
0.1243646905
 40
0.1557742852
 40
0.1872949123
 40
0.2189151619
 40
0.2506220548
 40
0.2824012654
 40
0.3142373514
 40
0.3461139976
 40
0.3780142691
 40
0.4099208714
 40
0.4418164135
 40
0.473683673
 40
0.5055058582
 40
0.537266867
 40
0.5689515373
 40
0.6005458879
 40
0.6320373455
 40
0.6634149545
 40
0.694669568
 40
0.7257940141
 40
0.7567832366
 40
0.7876344047
 40
0.8183469893
 40
0.8336538591
 40
0.8489269615
 40
0.8641668877
 40
0.8793743744
 40
0.8945503016
 40
0.9096956842
 40
0.9248116782
 40
0.9398995637
 40
0.9549607535
 40
0.969996775
 40
0.9850092736
 40
1.0
 40
1.0
 40
1.0
 40
1.0
 10
9.8602949803
 20
8.1200996138
 30
0.0
 10
9.8602949803
 20
8.1020635764
 30
0.0
 10
9.8614717786
 20
8.065900671
 30
0.0
 10
9.8667321932
 20
8.0117735654
 30
0.0
 10
9.8754690388
 20
7.957859388
 30
0.0
 10
9.8876453597
 20
7.9043880087
 30
0.0
 10
9.9032094686
 20
7.8515837706
 30
0.0
 10
9.9220956223
 20
7.7996690732
 30
0.0
 10
9.9442240702
 20
7.7488623003
 30
0.0
 10
9.9695014877
 20
7.6993772189
 30
0.0
 10
9.9978213366
 20
7.6514220045
 30
0.0
 10
10.0290643167
 20
7.6051983944
 30
0.0
 10
10.0630988602
 20
7.5609008366
 30
0.0
 10
10.0997816938
 20
7.518715687
 30
0.0
 10
10.1389584357
 20
7.478820431
 30
0.0
 10
10.1804642408
 20
7.4413829434
 30
0.0
 10
10.2241244881
 20
7.4065607878
 30
0.0
 10
10.2697555093
 20
7.3745005588
 30
0.0
 10
10.3171653541
 20
7.3453372687
 30
0.0
 10
10.3661545907
 20
7.3191937844
 30
0.0
 10
10.4165171297
 20
7.2961802993
 30
0.0
 10
10.4680410915
 20
7.276393877
 30
0.0
 10
10.5205096768
 20
7.2599180463
 30
0.0
 10
10.5737021176
 20
7.2468224497
 30
0.0
 10
10.6273944125
 20
7.2371625321
 30
0.0
 10
10.6813609363
 20
7.2309793538
 30
0.0
 10
10.7353728706
 20
7.228299214
 30
0.0
 10
10.7802870733
 20
7.2289958705
 30
0.0
 10
10.8160058467
 20
7.2313144094
 30
0.0
 10
10.8426372499
 20
7.2339271614
 30
0.0
 10
10.869109701
 20
7.2374130678
 30
0.0
 10
10.8953956817
 20
7.241768327
 30
0.0
 10
10.9214673851
 20
7.2469884125
 30
0.0
 10
10.947297346
 20
7.2530678782
 30
0.0
 10
10.9728583622
 20
7.2600001977
 30
0.0
 10
10.9981234428
 20
7.2677782805
 30
0.0
 10
11.0230660029
 20
7.2763936817
 30
0.0
 10
11.0476597585
 20
7.2858376371
 30
0.0
 10
11.0718785073
 20
7.2960997782
 30
0.0
 10
11.0877690382
 20
7.3034851096
 30
0.0
 10
11.0956421203
 20
7.307310112
 30
0.0
  0
SPLINE
  5
350
100
AcDbEntity
  8
0
100
AcDbSpline
 62
7
  6
CONTINUOUS
 70
0
 71
3
 72
15
 73
11
 74
0
 42
0.0000001
 43
0.0000001
 44
0.0000000001
 40
0.0
 40
0.0
 40
0.0
 40
0.0
 40
0.1266651338
 40
0.2528152093
 40
0.3784613677
 40
0.5036214343
 40
0.6283205084
 40
0.7525902893
 40
0.8764688332
 40
1.0
 40
1.0
 40
1.0
 40
1.0
 10
9.8602949803
 20
8.1200996138
 30
0.0
 10
9.8602949803
 20
8.136403881
 30
0.0
 10
9.8612524762
 20
8.1689544891
 30
0.0
 10
9.8655770509
 20
8.2175051505
 30
0.0
 10
9.8727722221
 20
8.2655202708
 30
0.0
 10
9.882813291
 20
8.3128308448
 30
0.0
 10
9.8956655102
 20
8.3592728374
 30
0.0
 10
9.9112847589
 20
8.4046852046
 30
0.0
 10
9.9296158236
 20
8.4489078725
 30
0.0
 10
9.9436226631
 20
8.4775357449
 30
0.0
 10
9.9510535163
 20
8.4915934802
 30
0.0
  0
SPLINE
  5
351
100
AcDbEntity
  8
0
100
AcDbSpline
 62
7
  6
CONTINUOUS
 70
0
 71
3
 72
21
 73
17
 74
0
 42
0.0000001
 43
0.0000001
 44
0.0000000001
 40
0.0
 40
0.0
 40
0.0
 40
0.0
 40
0.1267816759
 40
0.252998316
 40
0.3159080975
 40
0.3786830657
 40
0.441326255
 40
0.5038416702
 40
0.5662337343
 40
0.6285073131
 40
0.6906678726
 40
0.7527213708
 40
0.814674239
 40
0.8765333643
 40
0.9383060476
 40
1.0
 40
1.0
 40
1.0
 40
1.0
 10
9.8854090533
 20
8.1183579469
 30
0.0
 10
9.8854090533
 20
8.1356836616
 30
0.0
 10
9.8865237048
 20
8.1702678434
 30
0.0
 10
9.8907258278
 20
8.2132665299
 30
0.0
 10
9.8957614337
 20
8.2473259304
 30
0.0
 10
9.9003649684
 20
8.2726523156
 30
0.0
 10
9.9057942892
 20
8.2977592674
 30
0.0
 10
9.9120438926
 20
8.3226208445
 30
0.0
 10
9.9191070531
 20
8.3472111041
 30
0.0
 10
9.9269766692
 20
8.3715043305
 30
0.0
 10
9.9356442873
 20
8.3954752385
 30
0.0
 10
9.9451010927
 20
8.4190987461
 30
0.0
 10
9.9553370513
 20
8.442350235
 30
0.0
 10
9.9663416356
 20
8.4652054905
 30
0.0
 10
9.9781031503
 20
8.4876403276
 30
0.0
 10
9.9864460371
 20
8.5023105595
 30
0.0
 10
9.9907390031
 20
8.5095667021
 30
0.0
  0
SPLINE
  5
352
100
AcDbEntity
  8
0
100
AcDbSpline
 62
7
  6
CONTINUOUS
 70
0
 71
3
 72
23
 73
19
 74
0
 42
0.0000001
 43
0.0000001
 44
0.0000000001
 40
0.0
 40
0.0
 40
0.0
 40
0.0
 40
0.0637764154
 40
0.1273451281
 40
0.190701988
 40
0.253856063
 40
0.3168132283
 40
0.3795820791
 40
0.4421733864
 40
0.5045993414
 40
0.5668738629
 40
0.629012379
 40
0.6910316532
 40
0.7529496461
 40
0.8147853522
 40
0.8765586034
 40
0.9382898574
 40
1.0
 40
1.0
 40
1.0
 40
1.0
 10
10.3740504838
 20
9.680908112
 30
0.0
 10
10.3740504838
 20
9.6874189748
 30
0.0
 10
10.3743621548
 20
9.7004217012
 30
0.0
 10
10.3757686944
 20
9.7198466611
 30
0.0
 10
10.3781106731
 20
9.7391176955
 30
0.0
 10
10.3813824492
 20
9.758189432
 30
0.0
 10
10.3855766986
 20
9.7770183594
 30
0.0
 10
10.3906837185
 20
9.79556095
 30
0.0
 10
10.3966917611
 20
9.813774472
 30
0.0
 10
10.4035871038
 20
9.831616906
 30
0.0
 10
10.4113538227
 20
9.8490471153
 30
0.0
 10
10.4199740199
 20
9.8660249134
 30
0.0
 10
10.4294278896
 20
9.8825111124
 30
0.0
 10
10.439693681
 20
9.8984676719
 30
0.0
 10
10.4507476469
 20
9.9138577815
 30
0.0
 10
10.4625644414
 20
9.9286460576
 30
0.0
 10
10.4751164021
 20
9.9427978777
 30
0.0
 10
10.4839568411
 20
9.951788023
 30
0.0
 10
10.4884880863
 20
9.9561648711
 30
0.0
  0
SPLINE
  5
353
100
AcDbEntity
  8
0
100
AcDbSpline
 62
7
  6
CONTINUOUS
 70
0
 71
3
 72
21
 73
17
 74
0
 42
0.0000001
 43
0.0000001
 44
0.0000000001
 40
0.0
 40
0.0
 40
0.0
 40
0.0
 40
0.1268510846
 40
0.2531086869
 40
0.316030068
 40
0.3788104207
 40
0.4414534861
 40
0.503963855
 40
0.5663465668
 40
0.6286072867
 40
0.690752304
 40
0.7527884892
 40
0.8147232204
 40
0.8765644023
 40
0.9383204
 40
1.0
 40
1.0
 40
1.0
 40
1.0
 10
9.9151075315
 20
8.1260444757
 30
0.0
 10
9.9151075315
 20
8.1437817949
 30
0.0
 10
9.9163058379
 20
8.1791847224
 30
0.0
 10
9.9208243546
 20
8.2231795211
 30
0.0
 10
9.9262378657
 20
8.2579981683
 30
0.0
 10
9.9311858851
 20
8.2838706458
 30
0.0
 10
9.9370201758
 20
8.309498618
 30
0.0
 10
9.9437342446
 20
8.3348528854
 30
0.0
 10
9.9513202292
 20
8.3599042237
 30
0.0
 10
9.9597694737
 20
8.3846237966
 30
0.0
 10
9.969072311
 20
8.4089831139
 30
0.0
 10
9.979217904
 20
8.432954199
 30
0.0
 10
9.9901947712
 20
8.4565093375
 30
0.0
 10
10.0019901448
 20
8.4796216012
 30
0.0
 10
10.014590377
 20
8.5022639234
 30
0.0
 10
10.0235230419
 20
8.5170375096
 30
0.0
 10
10.0281180093
 20
8.5243360547
 30
0.0
  0
SPLINE
  5
354
100
AcDbEntity
  8
0
100
AcDbSpline
 62
7
  6
CONTINUOUS
 70
0
 71
3
 72
42
 73
38
 74
0
 42
0.0000001
 43
0.0000001
 44
0.0000000001
 40
0.0
 40
0.0
 40
0.0
 40
0.0
 40
0.0149723971
 40
0.029947854
 40
0.0449294092
 40
0.0599200692
 40
0.0749227779
 40
0.0899404136
 40
0.1200256609
 40
0.1502025864
 40
0.1804899033
 40
0.2109037105
 40
0.2414571471
 40
0.2721601282
 40
0.3030191646
 40
0.3340372675
 40
0.3652139349
 40
0.3965452155
 40
0.4280238444
 40
0.459639443
 40
0.4913787765
 40
0.5232260611
 40
0.5551633129
 40
0.5871707307
 40
0.6192271064
 40
0.6513102549
 40
0.683397459
 40
0.7154659208
 40
0.7474932143
 40
0.7794577337
 40
0.8113391302
 40
0.8431187274
 40
0.8747799267
 40
0.906308519
 40
0.9376931951
 40
0.9689252215
 40
1.0
 40
1.0
 40
1.0
 40
1.0
 10
7.879571765
 20
7.1365746721
 30
0.0
 10
7.8760710119
 20
7.1331932033
 30
0.0
 10
7.8689335584
 20
7.1265679768
 30
0.0
 10
7.8578396725
 20
7.1170624608
 30
0.0
 10
7.8463722913
 20
7.1080010537
 30
0.0
 10
7.8345473852
 20
7.0993965932
 30
0.0
 10
7.8223809624
 20
7.0912606606
 30
0.0
 10
7.8057186838
 20
7.0810477117
 30
0.0
 10
7.784109388
 20
7.0695038335
 30
0.0
 10
7.7571112304
 20
7.0577019762
 30
0.0
 10
7.7291742025
 20
7.0480041147
 30
0.0
 10
7.700453306
 20
7.0404640081
 30
0.0
 10
7.6711064909
 20
7.0351226302
 30
0.0
 10
7.641295412
 20
7.0320090439
 30
0.0
 10
7.6111840928
 20
7.0311399736
 30
0.0
 10
7.5809381428
 20
7.0325198136
 30
0.0
 10
7.5507238201
 20
7.0361406029
 30
0.0
 10
7.5207071344
 20
7.0419820915
 30
0.0
 10
7.4910529447
 20
7.0500118648
 30
0.0
 10
7.4619240652
 20
7.0601855288
 30
0.0
 10
7.433480381
 20
7.0724469552
 30
0.0
 10
7.4058779856
 20
7.0867286043
 30
0.0
 10
7.3792683357
 20
7.1029518958
 30
0.0
 10
7.3537974317
 20
7.1210276403
 30
0.0
 10
7.3296050277
 20
7.1408565259
 30
0.0
 10
7.3068238732
 20
7.1623296596
 30
0.0
 10
7.2855789941
 20
7.1853291595
 30
0.0
 10
7.2659870131
 20
7.2097287959
 30
0.0
 10
7.2481555161
 20
7.2353946756
 30
0.0
 10
7.2321824574
 20
7.262185963
 30
0.0
 10
7.2181556374
 20
7.2899556568
 30
0.0
 10
7.2061522129
 20
7.3185513666
 30
0.0
 10
7.1962383043
 20
7.3478162035
 30
0.0
 10
7.1884685503
 20
7.3775893984
 30
0.0
 10
7.1828859979
 20
7.4077080234
 30
0.0
 10
7.1795214864
 20
7.4380045465
 30
0.0
 10
7.1787679218
 20
7.4582668909
 30
0.0
 10
7.1787679218
 20
7.4683686174
 30
0.0
  0
SPLINE
  5
355
100
AcDbEntity
  8
0
100
AcDbSpline
 62
7
  6
CONTINUOUS
 70
0
 71
3
 72
57
 73
53
 74
0
 42
0.0000001
 43
0.0000001
 44
0.0000000001
 40
0.0
 40
0.0
 40
0.0
 40
0.0
 40
0.0135745628
 40
0.0277629924
 40
0.0425136206
 40
0.0577750198
 40
0.0734968495
 40
0.0896313361
 40
0.1061329931
 40
0.1229594592
 40
0.1400715447
 40
0.1574328156
 40
0.1750103518
 40
0.1927734782
 40
0.2106948892
 40
0.2287491728
 40
0.265167708
 40
0.3018705502
 40
0.3387264591
 40
0.3756259438
 40
0.4124762743
 40
0.4491969473
 40
0.4857159802
 40
0.5219668294
 40
0.5578854142
 40
0.5934073295
 40
0.6284653645
 40
0.6629869361
 40
0.6968911299
 40
0.7300859246
 40
0.762465137
 40
0.7939047507
 40
0.8242586204
 40
0.8533540548
 40
0.8673674959
 40
0.8809873149
 40
0.8941820803
 40
0.9069184731
 40
0.9191599689
 40
0.9308680009
 40
0.9420009969
 40
0.9525152841
 40
0.9623649701
 40
0.9715025959
 40
0.9757894384
 40
0.9798802814
 40
0.983769239
 40
0.9874506461
 40
0.9909191002
 40
0.9941696002
 40
0.9971977369
 40
1.0
 40
1.0
 40
1.0
 40
1.0
 10
10.2763647771
 20
7.2442815861
 30
0.0
 10
10.2793990872
 20
7.2440710935
 30
0.0
 10
10.2855983517
 20
7.2435427025
 30
0.0
 10
10.295067035
 20
7.2424936481
 30
0.0
 10
10.3048864732
 20
7.2411988783
 30
0.0
 10
10.3150221788
 20
7.2396872668
 30
0.0
 10
10.3254421516
 20
7.2379871531
 30
0.0
 10
10.3361166064
 20
7.2361256005
 30
0.0
 10
10.3470181959
 20
7.2341285095
 30
0.0
 10
10.3581218362
 20
7.2320202954
 30
0.0
 10
10.3694045737
 20
7.2298236093
 30
0.0
 10
10.3808456408
 20
7.2275599092
 30
0.0
 10
10.3924259371
 20
7.2252484489
 30
0.0
 10
10.4041283616
 20
7.2229076677
 30
0.0
 10
10.41593709
 20
7.2205537007
 30
0.0
 10
10.431850475
 20
7.2174090745
 30
0.0
 10
10.4519074528
 20
7.2135252654
 30
0.0
 10
10.4761377689
 20
7.2090366411
 30
0.0
 10
10.5005202828
 20
7.2047844288
 30
0.0
 10
10.5249868407
 20
7.2008319582
 30
0.0
 10
10.5494769525
 20
7.1972297004
 30
0.0
 10
10.5739354193
 20
7.1940172911
 30
0.0
 10
10.5983103283
 20
7.1912249632
 30
0.0
 10
10.622551366
 20
7.188874668
 30
0.0
 10
10.6466082669
 20
7.1869804537
 30
0.0
 10
10.6704294532
 20
7.1855493421
 30
0.0
 10
10.6939606903
 20
7.1845815345
 30
0.0
 10
10.7171436985
 20
7.1840703909
 30
0.0
 10
10.7399147046
 20
7.1840017532
 30
0.0
 10
10.7622029296
 20
7.1843537669
 30
0.0
 10
10.7839289208
 20
7.1850959924
 30
0.0
 10
10.8050026021
 20
7.1861882594
 30
0.0
 10
10.8253210569
 20
7.1875789505
 30
0.0
 10
10.8417249848
 20
7.1889496924
 30
0.0
 10
10.8543809865
 20
7.1901313627
 30
0.0
 10
10.8634846076
 20
7.1910337098
 30
0.0
 10
10.8722991532
 20
7.1919502525
 30
0.0
 10
10.8808030554
 20
7.192867443
 30
0.0
 10
10.8889734755
 20
7.1937696658
 30
0.0
 10
10.8967858774
 20
7.1946407222
 30
0.0
 10
10.9042143681
 20
7.1954624838
 30
0.0
 10
10.9112314721
 20
7.196215922
 30
0.0
 10
10.9178083506
 20
7.1968805056
 30
0.0
 10
10.9230021183
 20
7.1973519716
 30
0.0
 10
10.9269146411
 20
7.1976601218
 30
0.0
 10
10.9296566915
 20
7.1978496477
 30
0.0
 10
10.9322653385
 20
7.1979996086
 30
0.0
 10
10.9347365311
 20
7.1981069997
 30
0.0
 10
10.937066214
 20
7.1981687775
 30
0.0
 10
10.9392503618
 20
7.1981819004
 30
0.0
 10
10.9412849488
 20
7.1981433313
 30
0.0
 10
10.9425900539
 20
7.1980786744
 30
0.0
 10
10.9432164444
 20
7.1980352659
 30
0.0
  0
SPLINE
  5
356
100
AcDbEntity
  8
0
100
AcDbSpline
 62
7
  6
CONTINUOUS
 70
0
 71
3
 72
15
 73
11
 74
0
 42
0.0000001
 43
0.0000001
 44
0.0000000001
 40
0.0
 40
0.0
 40
0.0
 40
0.0
 40
0.1266253638
 40
0.2527505347
 40
0.3783850934
 40
0.5035458395
 40
0.6282556328
 40
0.7525436811
 40
0.8764449888
 40
1.0
 40
1.0
 40
1.0
 40
1.0
 10
9.9864449722
 20
8.1949511562
 30
0.0
 10
9.9864449722
 20
8.2099310309
 30
0.0
 10
9.9872999298
 20
8.239838865
 30
0.0
 10
9.9911610541
 20
8.2844592374
 30
0.0
 10
9.9975858907
 20
8.328609863
 30
0.0
 10
10.0065535524
 20
8.3721439597
 30
0.0
 10
10.0180347684
 20
8.4149190318
 30
0.0
 10
10.0319923027
 20
8.4567950068
 30
0.0
 10
10.0483795433
 20
8.4976325264
 30
0.0
 10
10.0609068532
 20
8.5241142854
 30
0.0
 10
10.0675548157
 20
8.5371316217
 30
0.0
  0
SPLINE
  5
357
100
AcDbEntity
  8
0
100
AcDbSpline
 62
7
  6
CONTINUOUS
 70
0
 71
3
 72
75
 73
71
 74
0
 42
0.0000001
 43
0.0000001
 44
0.0000000001
 40
0.0
 40
0.0
 40
0.0
 40
0.0
 40
0.0155842192
 40
0.0233572755
 40
0.0311169608
 40
0.046596236
 40
0.0620247854
 40
0.0697211414
 40
0.0774055104
 40
0.0927382729
 40
0.1080270414
 40
0.123275021
 40
0.1384858323
 40
0.1536634824
 40
0.1688123253
 40
0.1839370178
 40
0.1990424723
 40
0.2141338055
 40
0.2292162847
 40
0.2442952718
 40
0.2593761658
 40
0.2744643456
 40
0.2895651118
 40
0.304683631
 40
0.3198248809
 40
0.3349935985
 40
0.3501942316
 40
0.3654308936
 40
0.3807073232
 40
0.3960268487
 40
0.4113923571
 40
0.4268062686
 40
0.4422705168
 40
0.4577865339
 40
0.4733552422
 40
0.4889770495
 40
0.5046518511
 40
0.5203790354
 40
0.5361574949
 40
0.5519856415
 40
0.5678614254
 40
0.5837823585
 40
0.5997455407
 40
0.6157476895
 40
0.6317851725
 40
0.6478540421
 40
0.6639500724
 40
0.6800687979
 40
0.6962055534
 40
0.7123555163
 40
0.7285137483
 40
0.7446752392
 40
0.7608349505
 40
0.7769878595
 40
0.7931290025
 40
0.8092535185
 40
0.8253566919
 40
0.8414339942
 40
0.8574811246
 40
0.8654926466
 40
0.8734951387
 40
0.8894701295
 40
0.9054037966
 40
0.9212931282
 40
0.9371354993
 40
0.9529287706
 40
0.9686711003
 40
0.9765233353
 40
0.9843626592
 40
1.0
 40
1.0
 40
1.0
 40
1.0
 10
9.0005041557
 20
9.3955891389
 30
0.0
 10
9.0005041557
 20
9.3808540046
 30
0.0
 10
8.9999627756
 20
9.3587641798
 30
0.0
 10
8.9981513836
 20
9.3293962383
 30
0.0
 10
8.9956210135
 20
9.3001805001
 30
0.0
 10
8.9911086655
 20
9.2638830896
 30
0.0
 10
8.984794653
 20
9.2279158377
 30
0.0
 10
8.9786753903
 20
9.1994323321
 30
0.0
 10
8.9718591467
 20
9.1712007814
 30
0.0
 10
8.9620220337
 20
9.1363257653
 30
0.0
 10
8.9481278863
 20
9.0952216548
 30
0.0
 10
8.9321857324
 20
9.0549909417
 30
0.0
 10
8.9142340486
 20
9.0157313277
 30
0.0
 10
8.8943159985
 20
8.9775373289
 30
0.0
 10
8.8724795553
 20
8.9405011261
 30
0.0
 10
8.8487773209
 20
8.9047120519
 30
0.0
 10
8.8232664143
 20
8.8702564515
 30
0.0
 10
8.7960083295
 20
8.8372174501
 30
0.0
 10
8.7670687887
 20
8.8056747551
 30
0.0
 10
8.7365175817
 20
8.7757044595
 30
0.0
 10
8.7044283964
 20
8.7473788565
 30
0.0
 10
8.6708786393
 20
8.7207662618
 30
0.0
 10
8.6359492449
 20
8.6959308492
 30
0.0
 10
8.5997244843
 20
8.6729324851
 30
0.0
 10
8.5622917534
 20
8.6518265877
 30
0.0
 10
8.5237413569
 20
8.6326639971
 30
0.0
 10
8.4841662877
 20
8.6154908527
 30
0.0
 10
8.4436620001
 20
8.6003484832
 30
0.0
 10
8.4023261768
 20
8.5872733096
 30
0.0
 10
8.360258492
 20
8.5762967587
 30
0.0
 10
8.3175603691
 20
8.5674451904
 30
0.0
 10
8.2743347352
 20
8.5607398379
 30
0.0
 10
8.2306857739
 20
8.5561967507
 30
0.0
 10
8.1867186716
 20
8.5538267604
 30
0.0
 10
8.1425393634
 20
8.5536354642
 30
0.0
 10
8.0982542786
 20
8.5556232124
 30
0.0
 10
8.0539700852
 20
8.5597851106
 30
0.0
 10
8.0097934346
 20
8.5661110333
 30
0.0
 10
7.9658307061
 20
8.57458565
 30
0.0
 10
7.9221877524
 20
8.5851884639
 30
0.0
 10
7.878969647
 20
8.5978938631
 30
0.0
 10
7.8362804313
 20
8.6126711773
 30
0.0
 10
7.7942228635
 20
8.6294847507
 30
0.0
 10
7.7528981751
 20
8.648294037
 30
0.0
 10
7.7124058288
 20
8.6690536956
 30
0.0
 10
7.6728432807
 20
8.6917137013
 30
0.0
 10
7.6343057474
 20
8.7162194643
 30
0.0
 10
7.5968859787
 20
8.7425119615
 30
0.0
 10
7.5606740353
 20
8.7705278774
 30
0.0
 10
7.5257570742
 20
8.8001997573
 30
0.0
 10
7.4922191375
 20
8.8314561651
 30
0.0
 10
7.4601409464
 20
8.8642218513
 30
0.0
 10
7.4295997141
 20
8.8984179427
 30
0.0
 10
7.4006689616
 20
8.9339621249
 30
0.0
 10
7.3734183343
 20
8.9707688579
 30
0.0
 10
7.3479134649
 20
9.0087495144
 30
0.0
 10
7.3242157044
 20
9.0478128366
 30
0.0
 10
7.3023823928
 20
9.0878642441
 30
0.0
 10
7.2857758111
 20
9.1220035273
 30
0.0
 10
7.2734746053
 20
9.1497124337
 30
0.0
 10
7.2618490886
 20
9.1776376618
 30
0.0
 10
7.248570074
 20
9.2129768046
 30
0.0
 10
7.2346730968
 20
9.255998079
 30
0.0
 10
7.2228560379
 20
9.2995071991
 30
0.0
 10
7.2131475991
 20
9.3433990499
 30
0.0
 10
7.2055713167
 20
9.3875674091
 30
0.0
 10
7.2010457927
 20
9.4245490685
 30
0.0
 10
7.1985100317
 20
9.4541646063
 30
0.0
 10
7.1967005043
 20
9.4837333356
 30
0.0
 10
7.196154515
 20
9.5059358498
 30
0.0
 10
7.196154515
 20
9.5207212115
 30
0.0
  0
SPLINE
  5
358
100
AcDbEntity
  8
0
100
AcDbSpline
 62
7
  6
CONTINUOUS
 70
0
 71
3
 72
21
 73
17
 74
0
 42
0.0000001
 43
0.0000001
 44
0.0000000001
 40
0.0
 40
0.0
 40
0.0
 40
0.0
 40
0.1268205729
 40
0.253060411
 40
0.3159767419
 40
0.3787549081
 40
0.4413981627
 40
0.5039108488
 40
0.5662977797
 40
0.6285642276
 40
0.6907161143
 40
0.7527598855
 40
0.8147025036
 40
0.8765514026
 40
0.938314466
 40
1.0
 40
1.0
 40
1.0
 40
1.0
 10
10.0844245494
 20
8.2095921659
 30
0.0
 10
10.0844245494
 20
8.2252471519
 30
0.0
 10
10.0854597878
 20
8.2564949621
 30
0.0
 10
10.0893629757
 20
8.2953349024
 30
0.0
 10
10.0940398378
 20
8.32608566
 30
0.0
 10
10.098314866
 20
8.3489427629
 30
0.0
 10
10.103356183
 20
8.3715919278
 30
0.0
 10
10.1091583465
 20
8.3940084281
 30
0.0
 10
10.1157147879
 20
8.4161675429
 30
0.0
 10
10.1230185293
 20
8.4380447827
 30
0.0
 10
10.1310612674
 20
8.4596160939
 30
0.0
 10
10.1398344019
 20
8.4808576017
 30
0.0
 10
10.1493280235
 20
8.5017459483
 30
0.0
 10
10.1595319103
 20
8.5222580981
 30
0.0
 10
10.1704344881
 20
8.5423711707
 30
0.0
 10
10.1781657032
 20
8.5555074366
 30
0.0
 10
10.1821431948
 20
8.5620006239
 30
0.0
  0
SPLINE
  5
359
100
AcDbEntity
  8
0
100
AcDbSpline
 62
7
  6
CONTINUOUS
 70
0
 71
3
 72
21
 73
17
 74
0
 42
0.0000001
 43
0.0000001
 44
0.0000000001
 40
0.0
 40
0.0
 40
0.0
 40
0.0
 40
0.1268205729
 40
0.253060411
 40
0.3159767419
 40
0.3787549081
 40
0.4413981627
 40
0.5039108488
 40
0.5662977797
 40
0.6285642276
 40
0.6907161143
 40
0.7527598855
 40
0.8147025036
 40
0.8765514026
 40
0.938314466
 40
1.0
 40
1.0
 40
1.0
 40
1.0
 10
7.846931443
 20
9.9493234439
 30
0.0
 10
7.846931443
 20
9.96497843
 30
0.0
 10
7.8479666814
 20
9.9962262401
 30
0.0
 10
7.8518698692
 20
10.0350661805
 30
0.0
 10
7.8565467314
 20
10.0658169381
 30
0.0
 10
7.8608217596
 20
10.088674041
 30
0.0
 10
7.8658630765
 20
10.1113232059
 30
0.0
 10
7.8716652401
 20
10.1337397062
 30
0.0
 10
7.8782216814
 20
10.1558988209
 30
0.0
 10
7.8855254229
 20
10.1777760608
 30
0.0
 10
7.8935681609
 20
10.199347372
 30
0.0
 10
7.9023412955
 20
10.2205888797
 30
0.0
 10
7.9118349171
 20
10.2414772263
 30
0.0
 10
7.9220388039
 20
10.2619893761
 30
0.0
 10
7.9329413816
 20
10.2821024488
 30
0.0
 10
7.9406725968
 20
10.2952387146
 30
0.0
 10
7.9446500883
 20
10.301731902
 30
0.0
  0
SPLINE
  5
35A
100
AcDbEntity
  8
0
100
AcDbSpline
 62
7
  6
CONTINUOUS
 70
0
 71
3
 72
25
 73
21
 74
0
 42
0.0000001
 43
0.0000001
 44
0.0000000001
 40
0.0
 40
0.0
 40
0.0
 40
0.0
 40
0.0637770869
 40
0.0955893273
 40
0.1273480361
 40
0.190704913
 40
0.2538583931
 40
0.2853631206
 40
0.3168196509
 40
0.3795879741
 40
0.4421786688
 40
0.504604033
 40
0.5668779732
 40
0.6290159006
 40
0.6910345844
 40
0.7529519921
 40
0.8147871143
 40
0.8765597769
 40
0.9382904419
 40
1.0
 40
1.0
 40
1.0
 40
1.0
 10
9.2844863636
 20
7.7029111669
 30
0.0
 10
9.2844863636
 20
7.7183400155
 30
0.0
 10
9.2850407414
 20
7.7414699726
 30
0.0
 10
9.2868955005
 20
7.7722240794
 30
0.0
 10
9.2894866142
 20
7.8028234862
 30
0.0
 10
9.2941075104
 20
7.8408479969
 30
0.0
 10
9.3005738273
 20
7.8785404864
 30
0.0
 10
9.3068414005
 20
7.9084020385
 30
0.0
 10
9.3138235942
 20
7.9380088156
 30
0.0
 10
9.3239014072
 20
7.9745999221
 30
0.0
 10
9.3381383777
 20
8.0177593795
 30
0.0
 10
9.354477921
 20
8.0600400562
 30
0.0
 10
9.3728823252
 20
8.1013437615
 30
0.0
 10
9.3933092713
 20
8.1415754062
 30
0.0
 10
9.4157117031
 20
8.1806421324
 30
0.0
 10
9.4400380366
 20
8.2184538499
 30
0.0
 10
9.4662321335
 20
8.2549232426
 30
0.0
 10
9.4942339115
 20
8.2899664661
 30
0.0
 10
9.5239777041
 20
8.3235015739
 30
0.0
 10
9.5449264572
 20
8.3448052668
 30
0.0
 10
9.5556639614
 20
8.3551769278
 30
0.0
  0
SPLINE
  5
35B
100
AcDbEntity
  8
0
100
AcDbSpline
 62
7
  6
CONTINUOUS
 70
0
 71
3
 72
42
 73
38
 74
0
 42
0.0000001
 43
0.0000001
 44
0.0000000001
 40
0.0
 40
0.0
 40
0.0
 40
0.0
 40
0.0149723971
 40
0.029947854
 40
0.0449294092
 40
0.0599200692
 40
0.0749227779
 40
0.0899404136
 40
0.1200256609
 40
0.1502025864
 40
0.1804899033
 40
0.2109037105
 40
0.2414571471
 40
0.2721601282
 40
0.3030191646
 40
0.3340372675
 40
0.3652139349
 40
0.3965452155
 40
0.4280238444
 40
0.459639443
 40
0.4913787765
 40
0.5232260611
 40
0.5551633129
 40
0.5871707307
 40
0.6192271064
 40
0.6513102549
 40
0.683397459
 40
0.7154659208
 40
0.7474932143
 40
0.7794577337
 40
0.8113391302
 40
0.8431187274
 40
0.8747799267
 40
0.906308519
 40
0.9376931951
 40
0.9689252215
 40
1.0
 40
1.0
 40
1.0
 40
1.0
 10
11.074854327
 20
9.3491141667
 30
0.0
 10
11.0713535739
 20
9.3457326979
 30
0.0
 10
11.0642161204
 20
9.3391074714
 30
0.0
 10
11.0531222345
 20
9.3296019554
 30
0.0
 10
11.0416548533
 20
9.3205405483
 30
0.0
 10
11.0298299472
 20
9.3119360878
 30
0.0
 10
11.0176635244
 20
9.3038001552
 30
0.0
 10
11.0010012458
 20
9.2935872063
 30
0.0
 10
10.97939195
 20
9.2820433281
 30
0.0
 10
10.9523937924
 20
9.2702414708
 30
0.0
 10
10.9244567645
 20
9.2605436093
 30
0.0
 10
10.895735868
 20
9.2530035027
 30
0.0
 10
10.8663890529
 20
9.2476621248
 30
0.0
 10
10.836577974
 20
9.2445485384
 30
0.0
 10
10.8064666548
 20
9.2436794681
 30
0.0
 10
10.7762207048
 20
9.2450593082
 30
0.0
 10
10.7460063821
 20
9.2486800975
 30
0.0
 10
10.7159896964
 20
9.2545215861
 30
0.0
 10
10.6863355067
 20
9.2625513594
 30
0.0
 10
10.6572066272
 20
9.2727250234
 30
0.0
 10
10.628762943
 20
9.2849864498
 30
0.0
 10
10.6011605476
 20
9.2992680989
 30
0.0
 10
10.5745508977
 20
9.3154913904
 30
0.0
 10
10.5490799937
 20
9.3335671349
 30
0.0
 10
10.5248875897
 20
9.3533960205
 30
0.0
 10
10.5021064352
 20
9.3748691542
 30
0.0
 10
10.480861556
 20
9.3978686541
 30
0.0
 10
10.4612695751
 20
9.4222682905
 30
0.0
 10
10.4434380781
 20
9.4479341702
 30
0.0
 10
10.4274650194
 20
9.4747254576
 30
0.0
 10
10.4134381994
 20
9.5024951514
 30
0.0
 10
10.4014347749
 20
9.5310908612
 30
0.0
 10
10.3915208663
 20
9.5603556981
 30
0.0
 10
10.3837511123
 20
9.590128893
 30
0.0
 10
10.3781685599
 20
9.620247518
 30
0.0
 10
10.3748040484
 20
9.6505440411
 30
0.0
 10
10.3740504838
 20
9.6708063855
 30
0.0
 10
10.3740504838
 20
9.680908112
 30
0.0
  0
SPLINE
  5
35C
100
AcDbEntity
  8
0
100
AcDbSpline
 62
7
  6
CONTINUOUS
 70
0
 71
3
 72
61
 73
57
 74
0
 42
0.0000001
 43
0.0000001
 44
0.0000000001
 40
0.0
 40
0.0
 40
0.0
 40
0.0
 40
0.0310716878
 40
0.0623005825
 40
0.077975336
 40
0.0936872186
 40
0.109435127
 40
0.1252177335
 40
0.1410335076
 40
0.1568807571
 40
0.1727576296
 40
0.1886621184
 40
0.2045920732
 40
0.2205452188
 40
0.2525065376
 40
0.2845306238
 40
0.3165958738
 40
0.3486798645
 40
0.3807598004
 40
0.4128129665
 40
0.44481718
 40
0.4767512341
 40
0.4926881487
 40
0.5086002419
 40
0.5244853294
 40
0.5403413602
 40
0.5561664347
 40
0.5719588142
 40
0.5877169251
 40
0.6034393774
 40
0.6191249665
 40
0.6347726802
 40
0.6503817133
 40
0.6659514636
 40
0.6814815419
 40
0.6969717786
 40
0.7124222172
 40
0.7278331248
 40
0.7432049897
 40
0.7585385148
 40
0.7738346248
 40
0.7890944561
 40
0.8043193507
 40
0.8195108575
 40
0.8346707163
 40
0.8498008522
 40
0.8649033691
 40
0.8799805306
 40
0.8950347532
 40
0.9100685926
 40
0.9250847237
 40
0.9400859309
 40
0.9550750893
 40
0.970055145
 40
0.9850291016
 40
1.0
 40
1.0
 40
1.0
 40
1.0
 10
9.5230540428
 20
7.7943498633
 30
0.0
 10
9.5230540428
 20
7.7737394565
 30
0.0
 10
9.5245913307
 20
7.7323995408
 30
0.0
 10
9.5303057596
 20
7.68094579
 30
0.0
 10
9.5371307536
 20
7.6399685781
 30
0.0
 10
9.543380644
 20
7.6093272178
 30
0.0
 10
9.550746178
 20
7.5788615474
 30
0.0
 10
9.5592171348
 20
7.5486129278
 30
0.0
 10
9.5687820034
 20
7.5186231051
 30
0.0
 10
9.5794275309
 20
7.4889332626
 30
0.0
 10
9.5911390382
 20
7.4595841651
 30
0.0
 10
9.6039004837
 20
7.4306163243
 30
0.0
 10
9.6176944436
 20
7.4020690777
 30
0.0
 10
9.6374473387
 20
7.3646007629
 30
0.0
 10
9.6646249005
 20
7.3190159132
 30
0.0
 10
9.7010056609
 20
7.2666513868
 30
0.0
 10
9.7409789997
 20
7.2168688754
 30
0.0
 10
9.7843245401
 20
7.1699434018
 30
0.0
 10
9.8308045051
 20
7.1261321341
 30
0.0
 10
9.8801641855
 20
7.085675414
 30
0.0
 10
9.9321309038
 20
7.0487963236
 30
0.0
 10
9.9774092175
 20
7.0211914972
 30
0.0
 10
10.0146468237
 20
7.0010925375
 30
0.0
 10
10.0430271333
 20
6.9870380255
 30
0.0
 10
10.0718357833
 20
6.9740143956
 30
0.0
 10
10.1010336621
 20
6.9620394396
 30
0.0
 10
10.1305804703
 20
6.9511295871
 30
0.0
 10
10.1604356309
 20
6.9412998372
 30
0.0
 10
10.1905581312
 20
6.9325638418
 30
0.0
 10
10.2209065188
 20
6.9249334743
 30
0.0
 10
10.2514390985
 20
6.9184193274
 30
0.0
 10
10.2821138993
 20
6.9130304221
 30
0.0
 10
10.3128887253
 20
6.908774049
 30
0.0
 10
10.3437212862
 20
6.905656224
 30
0.0
 10
10.3745691777
 20
6.9036812121
 30
0.0
 10
10.4053899811
 20
6.9028516664
 30
0.0
 10
10.4361413171
 20
6.903168915
 30
0.0
 10
10.4667808924
 20
6.9046324216
 30
0.0
 10
10.497266574
 20
6.9072401929
 30
0.0
 10
10.5275564162
 20
6.9109887998
 30
0.0
 10
10.5576087732
 20
6.9158729484
 30
0.0
 10
10.5873822975
 20
6.9218860236
 30
0.0
 10
10.6168360122
 20
6.9290198338
 30
0.0
 10
10.6459294317
 20
6.9372644423
 30
0.0
 10
10.674622491
 20
6.9466086658
 30
0.0
 10
10.7028757135
 20
6.9570396352
 30
0.0
 10
10.7306502592
 20
6.9685429285
 30
0.0
 10
10.7579078419
 20
6.9811028915
 30
0.0
 10
10.7846109941
 20
6.9947021487
 30
0.0
 10
10.8107229797
 20
7.0093219904
 30
0.0
 10
10.8362077846
 20
7.024942433
 30
0.0
 10
10.8610304256
 20
7.0415418586
 30
0.0
 10
10.8851566735
 20
7.0590974625
 30
0.0
 10
10.9085533903
 20
7.0775852656
 30
0.0
 10
10.9311880442
 20
7.0969792612
 30
0.0
 10
10.9457505099
 20
7.1104965677
 30
0.0
 10
10.952893054
 20
7.1173957125
 30
0.0
  0
SPLINE
  5
35D
100
AcDbEntity
  8
0
100
AcDbSpline
 62
7
  6
CONTINUOUS
 70
0
 71
3
 72
67
 73
63
 74
0
 42
0.0000001
 43
0.0000001
 44
0.0000000001
 40
0.0
 40
0.0
 40
0.0
 40
0.0
 40
0.0155027403
 40
0.031045145
 40
0.0466254796
 40
0.0622439396
 40
0.077899796
 40
0.0935920478
 40
0.1093196689
 40
0.1250814033
 40
0.1408758193
 40
0.1567013329
 40
0.1725562015
 40
0.1884385407
 40
0.2043463302
 40
0.2202774251
 40
0.2362295702
 40
0.2522004062
 40
0.2681874844
 40
0.2841882798
 40
0.3162159975
 40
0.348266876
 40
0.3803191708
 40
0.4123511101
 40
0.4283550439
 40
0.4443459273
 40
0.4603212173
 40
0.4762784434
 40
0.4922152222
 40
0.5081292709
 40
0.524018414
 40
0.5398805982
 40
0.5557139037
 40
0.5715165492
 40
0.5872869067
 40
0.6030235102
 40
0.6187250581
 40
0.6343904288
 40
0.6500186838
 40
0.6656090706
 40
0.6811610345
 40
0.6966742194
 40
0.712148468
 40
0.7275838314
 40
0.7429805652
 40
0.7583391284
 40
0.7736601889
 40
0.7889446158
 40
0.8041934759
 40
0.8194080349
 40
0.8345897462
 40
0.8497402446
 40
0.8648613429
 40
0.8799550178
 40
0.8950234001
 40
0.9100687677
 40
0.9250935288
 40
0.9401002087
 40
0.9550914401
 40
0.9700699433
 40
0.9850385121
 40
1.0
 40
1.0
 40
1.0
 40
1.0
 10
9.3528145274
 20
7.768911109
 30
0.0
 10
9.3528145274
 20
7.7572180813
 30
0.0
 10
9.3532398987
 20
7.7337999239
 30
0.0
 10
9.3551471282
 20
7.6986769233
 30
0.0
 10
9.3583222152
 20
7.6635577063
 30
0.0
 10
9.3627607705
 20
7.6284896456
 30
0.0
 10
9.3684568818
 20
7.5935182647
 30
0.0
 10
9.3754031199
 20
7.5586896824
 30
0.0
 10
9.3835903634
 20
7.5240497535
 30
0.0
 10
9.393007715
 20
7.4896439806
 30
0.0
 10
9.4036428219
 20
7.455517624
 30
0.0
 10
9.4154817438
 20
7.4217155909
 30
0.0
 10
9.428508778
 20
7.388282289
 30
0.0
 10
9.4427068367
 20
7.3552617033
 30
0.0
 10
9.4580572855
 20
7.3226972794
 30
0.0
 10
9.4745398091
 20
7.2906317941
 30
0.0
 10
9.4921328151
 20
7.2591074145
 30
0.0
 10
9.5108130962
 20
7.2281657265
 30
0.0
 10
9.5305563207
 20
7.1978469373
 30
0.0
 10
9.5582685316
 20
7.158297923
 30
0.0
 10
9.5954329068
 20
7.1106208353
 30
0.0
 10
9.6438137557
 20
7.0565423261
 30
0.0
 10
9.6957423822
 20
7.0058563257
 30
0.0
 10
9.7417650114
 20
6.9666515981
 30
0.0
 10
9.7800789691
 20
6.9372416558
 30
0.0
 10
9.8095177447
 20
6.9161939921
 30
0.0
 10
9.8396260772
 20
6.8961800894
 30
0.0
 10
9.870364849
 20
6.8772260204
 30
0.0
 10
9.9016934934
 20
6.8593567599
 30
0.0
 10
9.9335708224
 20
6.8425957453
 30
0.0
 10
9.9659549688
 20
6.8269651489
 30
0.0
 10
9.9988033103
 20
6.8124854621
 30
0.0
 10
10.0320726415
 20
6.7991757091
 30
0.0
 10
10.0657192578
 20
6.7870535256
 30
0.0
 10
10.0996988749
 20
6.7761347776
 30
0.0
 10
10.1339668067
 20
6.766433826
 30
0.0
 10
10.168478017
 20
6.7579635653
 30
0.0
 10
10.2031870881
 20
6.750735047
 30
0.0
 10
10.238048375
 20
6.744757801
 30
0.0
 10
10.2730160417
 20
6.7400398226
 30
0.0
 10
10.3080440748
 20
6.73658722
 30
0.0
 10
10.3430864055
 20
6.7344045789
 30
0.0
 10
10.378096939
 20
6.7334948951
 30
0.0
 10
10.4130296119
 20
6.7338592627
 30
0.0
 10
10.4478384704
 20
6.7354972674
 30
0.0
 10
10.4824777077
 20
6.7384068639
 30
0.0
 10
10.5169017555
 20
6.7425841207
 30
0.0
 10
10.5510653134
 20
6.7480236243
 30
0.0
 10
10.5849234081
 20
6.7547183076
 30
0.0
 10
10.6184315049
 20
6.76265926
 30
0.0
 10
10.6515454893
 20
6.7718361287
 30
0.0
 10
10.6842217584
 20
6.782236903
 30
0.0
 10
10.7164173383
 20
6.7938477991
 30
0.0
 10
10.7480898202
 20
6.8066536418
 30
0.0
 10
10.7791974942
 20
6.8206376155
 30
0.0
 10
10.8096994564
 20
6.8357812269
 30
0.0
 10
10.8395555027
 20
6.85206465
 30
0.0
 10
10.8687263285
 20
6.8694664706
 30
0.0
 10
10.8971735452
 20
6.8879636731
 30
0.0
 10
10.9248597757
 20
6.9075321291
 30
0.0
 10
10.9517480547
 20
6.9281456379
 30
0.0
 10
10.9691223266
 20
6.9425700865
 30
0.0
 10
10.977663074
 20
6.9499458583
 30
0.0
  0
ENDSEC
  0
SECTION
  2
OBJECTS
  0
DICTIONARY
  5
C
100
AcDbDictionary
280
0
281
1
  3
ACAD_GROUP
350
D
  3
ACAD_MLINESTYLE
350
17
  3
ACAD_LAYOUT
350
1A
  3
ACAD_PLOTSETTINGS
350
19
  3
ACAD_PLOTSTYLENAME
350
E
  3
ACAD_IMAGE_DICT
350
       35F
  3
ACAD_IMAGE_VARS
350
       360
  3
ACAD_TABLESTYLE
350
       361
  0
IMAGEDEF_REACTOR
  5
35E
100
AcDbRasterImageDefReactor
 90
2
330
28A
  0
DICTIONARY
  5
D
102
{ACAD_REACTORS
330
C
102
}
100
AcDbDictionary
280
0
281
1
  0
ACDBDICTIONARYWDFLT
  5
E
102
{ACAD_REACTORS
330
C
102
}
100
AcDbDictionary
281
1
  3
Normal
350
F
100
AcDbDictionaryWithDefault
340
F
  0
DICTIONARY
  5
35F
330
C
100
AcDbDictionary
281
1
  3
U8E_assy_2_img_1
350
       364
  0
RASTERVARIABLES
  5
360
330
C
100
AcDbRasterVariables
 90
0
 70
0
 71
1
 72
5
  0
DICTIONARY
  5
17
102
{ACAD_REACTORS
330
C
102
}
100
AcDbDictionary
280
0
281
1
  3
Standard
350
18
  0
DICTIONARY
  5
361
330
C
100
AcDbDictionary
281
1
  3
Standard
350
       365
  3
Standard1
350
       366
  0
DICTIONARY
  5
19
102
{ACAD_REACTORS
330
C
102
}
100
AcDbDictionary
281
1
  0
DICTIONARY
  5
1A
102
{ACAD_REACTORS
330
C
102
}
100
AcDbDictionary
281
1
  3
Model
350
362
  3
Layout1
350
363
  0
ACDBPLACEHOLDER
  5
F
102
{ACAD_REACTORS
330
E
102
}
  0
MLINESTYLE
  5
18
102
{ACAD_REACTORS
330
17
102
}
100
AcDbMlineStyle
  2
STANDARD
 70
0
  3

 62
256
 51
90.0
 52
90.0
 71
2
 49
0.5
 62
256
  6
BYLAYER
 49
-0.5
 62
256
  6
BYLAYER
  0
LAYOUT
  5
362
102
{ACAD_REACTORS
330
1A
102
}
100
AcDbPlotSettings
  1

  2
none_device
  4
ANSI_C_(22.00_x_17.00_Inches)
  6

 40
0.0
 41
0.0
 42
0.0
 43
0.0
 44
558.8
 45
431.8
 46
0.0
 47
0.0
 48
0.0
 49
0.0
140
0.0
141
0.0
142
1.0
143
1.0
 70
1024
 72
0
 73
0
 74
0
  7

 75
0
147
1.0
148
0.0
149
0.0
100
AcDbLayout
  1
Model
 70
0
 71
0
 10
0.0
 20
0.0
 11
22.0
 21
17.0
 12
0.0
 22
0.0
 32
0.0
 14
0.0
 24
0.0
 34
0.0
 15
0.0
 25
0.0
 35
0.0
146
0.0
 13
0.0
 23
0.0
 33
0.0
 16
1.0
 26
0.0
 36
0.0
 17
0.0
 27
1.0
 37
0.0
 76
0
330
20F
345
0
346
0
  0
LAYOUT
  5
363
102
{ACAD_REACTORS
330
1A
102
}
100
AcDbPlotSettings
  1

  2
none_device
  4
ANSI_C_(22.00_x_17.00_Inches)
  6

 40
0.0
 41
0.0
 42
0.0
 43
0.0
 44
558.8
 45
431.8
 46
0.0
 47
0.0
 48
0.0
 49
0.0
140
0.0
141
0.0
142
1.0
143
1.0
 70
0
 72
0
 73
0
 74
0
  7

 75
0
147
1.0
148
0.0
149
0.0
100
AcDbLayout
  1
Layout1
 70
0
 71
1
 10
0.0
 20
0.0
 11
22.0
 21
17.0
 12
0.0
 22
0.0
 32
0.0
 14
0.0
 24
0.0
 34
0.0
 15
0.0
 25
0.0
 35
0.0
146
0.0
 13
0.0
 23
0.0
 33
0.0
 16
1.0
 26
0.0
 36
0.0
 17
0.0
 27
1.0
 37
0.0
 76
0
330
210
345
0
346
0
  0
IMAGEDEF
  5
364
102
{ACAD_REACTORS
330
35F
330
35E
102
}
100
AcDbRasterImageDef
 90
0
  1
U8E_assy_2_img_1.png
 10
369.0
 20
92.0
 11
0.0066666667
 21
0.0066666667
280
1
281
0
  0
TABLESTYLE
  5
365
102
{ACAD_REACTORS
330
361
330
28D
330
28E
102
}
330
361
100
AcDbTableStyle
  3
Standard
 70
0
 71
0
 40
0.06
 41
0.06
280
1
281
1
  7
Standard
140
0.18
170
1
 62
0
 63
7
283
0
  7
Standard
140
0.18
170
1
 62
0
 63
7
283
0
  7
Standard
140
0.18
170
1
 62
0
 63
7
283
0
  0
TABLESTYLE
  5
366
102
{ACAD_REACTORS
330
361
330
28C
102
}
330
361
100
AcDbTableStyle
  3
Standard1
 70
1
 71
0
 40
0.06
 41
0.06
280
1
281
1
  7
Standard
140
0.18
170
1
 62
0
 63
7
283
0
  7
Standard
140
0.18
170
1
 62
0
 63
7
283
0
  7
Standard
140
0.18
170
1
 62
0
 63
7
283
0
  0
ENDSEC
  0
EOF
