999
DXF file: U8B_assy_2.dxf
999
Pro/ENGINEER 2014200 by Parametric Technology Corporation
  0
SECTION
  2
HEADER
  9
$ACADVER
  1
AC1021
  9
$DWGCODEPAGE
  3
ANSI_1252
  9
$EXTMAX
 10
22.0
 20
17.0
 30
0.0
  9
$EXTMIN
 10
0.0
 20
0.0
 30
0.0
  9
$LIMMIN
 10
0.0
 20
0.0
  9
$LIMMAX
 10
22.0
 20
17.0
  9
$VIEWCTR
 10
11.0
 20
8.5
  9
$VIEWSIZE
 40
17.0
  9
$CLAYER
  8
0
  9
$LTSCALE
 40
1.21
  9
$CELTYPE
  6
BYLAYER
  9
$DIMSCALE
 40
1.0
  9
$DIMASZ
 40
0.1875
  9
$DIMEXO
 40
0.0625
  9
$DIMDLI
 40
0.836
  9
$DIMEXE
 40
0.125
  9
$DIMCEN
 40
0.198
  9
$DIMLFAC
 40
1.0
  9
$DIMBLK
  1
_FILLED
  9
$DIMTXT
 40
0.1
  9
$DIMTOL
 70
0
  9
$DIMLIM
 70
0
  9
$DIMTFAC
 40
1.0
  9
$DIMGAP
 40
0.09
  9
$DIMDSEP
 70
46
  9
$AUNITS
 70
0
  9
$PDMODE
 70
3
  9
$PDSIZE
 40
0.3125
  9
$HANDSEED
  5
330
  9
$TILEMODE
 70
1
  9
$MEASUREMENT
 70
0
  9
$INSUNITS
 70
1
  0
ENDSEC
  0
SECTION
  2
CLASSES
  0
CLASS
  1
ACDBDICTIONARYWDFLT
  2
AcDbDictionaryWithDefault
  3
AutoCAD 2000
 90
0
 91
1
280
0
281
0
  0
CLASS
  1
ACDBPLACEHOLDER
  2
AcDbPlaceHolder
  3
AutoCAD 2000
 90
0
 91
1
280
0
281
0
  0
CLASS
  1
LAYOUT
  2
AcDbLayout
  3
AutoCAD 2000
 90
0
 91
0
280
0
281
0
  0
CLASS
  1
RASTERVARIABLES
  2
AcDbRasterVariables
  3
ISM
 90
0
 91
1
280
0
281
0
  0
CLASS
  1
IMAGEDEF
  2
AcDbRasterImageDef
  3
ISM
 90
0
 91
1
280
0
281
0
  0
CLASS
  1
IMAGEDEF_REACTOR
  2
AcDbRasterImageDefReactor
  3
ISM
 90
0
 91
1
280
0
281
0
  0
CLASS
  1
IMAGE
  2
AcDbRasterImage
  3
ISM
 90
127
 91
1
280
0
281
1
  0
CLASS
  1
TABLESTYLE
  2
AcDbTableStyle
  3
ObjectDBX Classes
 90
2047
 91
1
280
0
281
0
  0
CLASS
  1
ACAD_TABLE
  2
AcDbTable
  3
ObjectDBX Classes
 90
1025
 91
2
280
0
281
1
  0
ENDSEC
  0
SECTION
  2
TABLES
  0
TABLE
  2
VPORT
  5
8
100
AcDbSymbolTable
 70
2
  0
VPORT
  5
1F4
100
AcDbSymbolTableRecord
100
AcDbViewportTableRecord
  2
*ACTIVE
 70
0
 10
0.0
 20
0.0
 11
1.0
 21
1.0
 12
11.0
 22
8.5
 13
0.0
 23
0.0
 14
1.0
 24
1.0
 15
0.0
 25
0.0
 16
0.0
 26
0.0
 36
1.0
 17
0.0
 27
0.0
 37
0.0
 40
17.0
 41
1.2941176471
 42
50.0
 43
0.0
 44
0.0
 50
0.0
 51
0.0
 71
0
 72
100
 73
1
 74
1
 75
0
 76
0
 77
0
 78
0
  0
ENDTAB
  0
TABLE
  2
LTYPE
  5
5
100
AcDbSymbolTable
 70
6
  0
LTYPE
  5
14
100
AcDbSymbolTableRecord
100
AcDbLinetypeTableRecord
  2
BYBLOCK
 70
0
  3

 72
65
 73
0
 40
0.0
  0
LTYPE
  5
15
100
AcDbSymbolTableRecord
100
AcDbLinetypeTableRecord
  2
BYLAYER
 70
0
  3

 72
65
 73
0
 40
0.0
  0
LTYPE
  5
16
100
AcDbSymbolTableRecord
100
AcDbLinetypeTableRecord
  2
CONTINUOUS
 70
64
  3
Solid line
 72
65
 73
0
 40
0.0
  0
LTYPE
  5
1F5
100
AcDbSymbolTableRecord
100
AcDbLinetypeTableRecord
  2
CENTER
 70
64
  3
____ _ ____ _ ____ _ ____ _ ____ _ ____ _ ____
 72
65
 73
4
 40
0.6
 49
0.375
 74
0
 49
-0.075
 74
0
 49
0.075
 74
0
 49
-0.075
 74
0
  0
LTYPE
  5
1F6
100
AcDbSymbolTableRecord
100
AcDbLinetypeTableRecord
  2
HIDDEN
 70
64
  3
- - - - - - - - - - - - - - - - - - - -
 72
65
 73
2
 40
0.2
 49
0.1
 74
0
 49
-0.1
 74
0
  0
LTYPE
  5
1F7
100
AcDbSymbolTableRecord
100
AcDbLinetypeTableRecord
  2
PHANTOM
 70
64
  3
_____ _ _ _____ _ _ _____ _ _ _____
 72
65
 73
6
 40
0.8
 49
0.45
 74
0
 49
-0.05
 74
0
 49
0.1
 74
0
 49
-0.05
 74
0
 49
0.1
 74
0
 49
-0.05
 74
0
  0
LTYPE
  5
1F8
100
AcDbSymbolTableRecord
100
AcDbLinetypeTableRecord
  2
DOT
 70
64
  3
. . . . . . . . . . . . . . . . . . . .
 72
65
 73
2
 40
0.2
 49
0.1
 74
0
 49
-0.1
 74
0
  0
LTYPE
  5
1F9
100
AcDbSymbolTableRecord
100
AcDbLinetypeTableRecord
  2
DASHED
 70
64
  3
- - - - - - - - - - - - - - - - - - - -
 72
65
 73
2
 40
0.2
 49
0.1
 74
0
 49
-0.1
 74
0
  0
ENDTAB
  0
TABLE
  2
LAYER
  5
2
100
AcDbSymbolTable
 70
36
  0
LAYER
  5
10
100
AcDbSymbolTableRecord
100
AcDbLayerTableRecord
  2
0
 70
0
 62
7
  6
CONTINUOUS
370
-3
390
F
  0
LAYER
  5
1FA
100
AcDbSymbolTableRecord
100
AcDbLayerTableRecord
  2
DEFAULT_1
 70
0
 62
7
  6
CENTER
370
-3
390
F
  0
LAYER
  5
1FB
100
AcDbSymbolTableRecord
100
AcDbLayerTableRecord
  2
DEFAULT_2
 70
0
 62
8
  6
HIDDEN
370
-3
390
F
  0
LAYER
  5
1FC
100
AcDbSymbolTableRecord
100
AcDbLayerTableRecord
  2
DEFAULT_3
 70
0
 62
7
  6
PHANTOM
370
-3
390
F
  0
LAYER
  5
1FD
100
AcDbSymbolTableRecord
100
AcDbLayerTableRecord
  2
01___PRT_ALL_DTM_PLN
 70
0
 62
7
  6
CONTINUOUS
370
-3
390
F
  0
LAYER
  5
1FE
100
AcDbSymbolTableRecord
100
AcDbLayerTableRecord
  2
01___PRT_DEF_DTM_PLN
 70
0
 62
7
  6
CONTINUOUS
370
-3
390
F
  0
LAYER
  5
1FF
100
AcDbSymbolTableRecord
100
AcDbLayerTableRecord
  2
02___PRT_ALL_AXES
 70
0
 62
7
  6
CONTINUOUS
370
-3
390
F
  0
LAYER
  5
200
100
AcDbSymbolTableRecord
100
AcDbLayerTableRecord
  2
03___PRT_ALL_CURVES
 70
0
 62
7
  6
CONTINUOUS
370
-3
390
F
  0
LAYER
  5
201
100
AcDbSymbolTableRecord
100
AcDbLayerTableRecord
  2
04___PRT_ALL_DTM_PNT
 70
0
 62
7
  6
CONTINUOUS
370
-3
390
F
  0
LAYER
  5
202
100
AcDbSymbolTableRecord
100
AcDbLayerTableRecord
  2
05___PRT_ALL_DTM_CSYS
 70
0
 62
7
  6
CONTINUOUS
370
-3
390
F
  0
LAYER
  5
203
100
AcDbSymbolTableRecord
100
AcDbLayerTableRecord
  2
05___PRT_DEF_DTM_CSYS
 70
0
 62
7
  6
CONTINUOUS
370
-3
390
F
  0
LAYER
  5
204
100
AcDbSymbolTableRecord
100
AcDbLayerTableRecord
  2
06___PRT_ALL_SURFS
 70
0
 62
7
  6
CONTINUOUS
370
-3
390
F
  0
LAYER
  5
205
100
AcDbSymbolTableRecord
100
AcDbLayerTableRecord
  2
DATUM_PLANES
 70
0
 62
7
  6
CONTINUOUS
370
-3
390
F
  0
LAYER
  5
206
100
AcDbSymbolTableRecord
100
AcDbLayerTableRecord
  2
DIMENSIONS
 70
0
 62
7
  6
CONTINUOUS
370
-3
390
F
  0
LAYER
  5
207
100
AcDbSymbolTableRecord
100
AcDbLayerTableRecord
  2
PARAMETERDIMENSIONS
 70
0
 62
7
  6
CONTINUOUS
370
-3
390
F
  0
LAYER
  5
208
100
AcDbSymbolTableRecord
100
AcDbLayerTableRecord
  2
PORT_AREAS
 70
0
 62
7
  6
CONTINUOUS
370
-3
390
F
  0
LAYER
  5
209
100
AcDbSymbolTableRecord
100
AcDbLayerTableRecord
  2
SUNNBOMCOSMETIC
 70
0
 62
7
  6
CONTINUOUS
370
-3
390
F
  0
LAYER
  5
20A
100
AcDbSymbolTableRecord
100
AcDbLayerTableRecord
  2
SUNNBOMSTAMPING
 70
0
 62
7
  6
CONTINUOUS
370
-3
390
F
  0
LAYER
  5
20B
100
AcDbSymbolTableRecord
100
AcDbLayerTableRecord
  2
THREADS
 70
0
 62
7
  6
CONTINUOUS
370
-3
390
F
  0
ENDTAB
  0
TABLE
  2
STYLE
  5
3
100
AcDbSymbolTable
 70
1
  0
STYLE
  5
11
100
AcDbSymbolTableRecord
100
AcDbTextStyleTableRecord
  2
STANDARD
 70
0
 40
0.0
 41
0.8
 50
0.0
 71
0
 42
0.2
  3
txt
  4

  0
STYLE
  5
20C
100
AcDbSymbolTableRecord
100
AcDbTextStyleTableRecord
  2
TEXTSTYLE_1
 70
0
 40
0.0
 41
0.8
 50
0.0
 71
0
 42
0.2
  3
gdt
  4

  0
ENDTAB
  0
TABLE
  2
VIEW
  5
6
100
AcDbSymbolTable
 70
0
  0
ENDTAB
  0
TABLE
  2
UCS
  5
7
100
AcDbSymbolTable
 70
0
  0
ENDTAB
  0
TABLE
  2
APPID
  5
9
100
AcDbSymbolTable
 70
1
  0
APPID
  5
20D
100
AcDbSymbolTableRecord
100
AcDbRegAppTableRecord
  2
ACAD
 70
0
  0
ENDTAB
  0
TABLE
  2
BLOCK_RECORD
  5
1
100
AcDbSymbolTable
 70
0
  0
BLOCK_RECORD
  5
20E
100
AcDbSymbolTableRecord
100
AcDbBlockTableRecord
  2
*Model_Space
  0
BLOCK_RECORD
  5
20F
100
AcDbSymbolTableRecord
100
AcDbBlockTableRecord
  2
*Paper_Space
  0
BLOCK_RECORD
  5
210
100
AcDbSymbolTableRecord
100
AcDbBlockTableRecord
  2
SUN_FIRST_THIRD_ANGLE_BL0
  0
BLOCK_RECORD
  5
211
100
AcDbSymbolTableRecord
100
AcDbBlockTableRecord
  2
*T1
  0
BLOCK_RECORD
  5
212
100
AcDbSymbolTableRecord
100
AcDbBlockTableRecord
  2
*T2
  0
ENDTAB
  0
TABLE
  2
DIMSTYLE
  5
A
100
AcDbSymbolTable
 70
1
100
AcDbDimStyleTable
 71
0
  0
DIMSTYLE
105
213
100
AcDbSymbolTableRecord
100
AcDbDimStyleTableRecord
  2
STANDARD
 70
0
  3

  4

 40
1.0
 41
0.1875
 42
0.0625
 43
0.38
 44
0.125
 45
0.0
 46
0.0
 47
0.001
 48
0.001
140
0.1
141
0.09
142
0.0
143
25.4
144
1.0
145
0.0
146
1.0
147
0.09
 71
0.0
 72
0.0
 73
1
 74
1
 75
0
 76
0
 77
0
 78
4
170
0
171
2
172
0
173
0
174
0
175
0
176
0
177
0
178
0
270
2
271
3
272
3
273
2
274
2
275
0
280
0
281
0
282
0
283
1
284
4
285
0
286
0
287
3
288
0
340
11
278
46
  0
ENDTAB
  0
ENDSEC
  0
SECTION
  2
BLOCKS
  0
BLOCK
  5
20
100
AcDbEntity
  8
0
100
AcDbBlockBegin
  2
*Model_Space
 70
0
 10
0.0
 20
0.0
 30
0.0
  3
*Model_Space
  1

  0
ENDBLK
  5
21
100
AcDbEntity
  8
0
100
AcDbBlockEnd
  0
BLOCK
  5
1C
100
AcDbEntity
  8
0
100
AcDbBlockBegin
  2
*Paper_Space
 70
0
 10
0.0
 20
0.0
 30
0.0
  3
*Paper_Space
  1

  0
ENDBLK
  5
1D
100
AcDbEntity
  8
0
100
AcDbBlockEnd
  0
BLOCK
  5
214
100
AcDbEntity
  8
0
100
AcDbBlockBegin
 62
2
  6
CONTINUOUS
  2
SUN_FIRST_THIRD_ANGLE_BL0
 70
64
 10
20.4816717061
 20
1.2289683772
  3
SUN_FIRST_THIRD_ANGLE_BL0
  1

  0
TEXT
  5
215
100
AcDbEntity
  8
0
100
AcDbText
 62
2
  6
CONTINUOUS
 10
19.4750896608
 20
1.4136269581
  7
STANDARD
 40
0.08
  1
FIRST ANGLE
 41
0.8
 72
0
100
AcDbText
  0
TEXT
  5
216
100
AcDbEntity
  8
0
100
AcDbText
 62
2
  6
CONTINUOUS
 10
20.7842537513
 20
1.4047600029
  7
STANDARD
 40
0.08
  1
THIRD ANGLE
 41
0.8
 72
0
100
AcDbText
  0
LINE
  5
217
100
AcDbEntity
  8
0
100
AcDbLine
 62
7
  6
CONTINUOUS
 10
19.4767170086
 20
1.1727031207
 11
19.6334271527
 21
1.1717972817
  0
LINE
  5
218
100
AcDbEntity
  8
0
100
AcDbLine
 62
7
  6
CONTINUOUS
 10
19.6596964832
 20
1.1717972817
 11
19.6950230232
 21
1.171593082
  0
LINE
  5
219
100
AcDbEntity
  8
0
100
AcDbLine
 62
7
  6
CONTINUOUS
 10
19.7194818561
 20
1.1708914427
 11
19.8852396156
 21
1.1699333054
  0
LINE
  5
21A
100
AcDbEntity
  8
0
100
AcDbLine
 62
7
  6
CONTINUOUS
 10
19.4758111696
 20
1.2723454088
 11
19.88525039
 21
1.3511534004
  0
LINE
  5
21B
100
AcDbEntity
  8
0
100
AcDbLine
 62
7
  6
CONTINUOUS
 10
19.88525039
 20
1.3511534004
 11
19.8831348489
 21
0.9851647912
  0
LINE
  5
21C
100
AcDbEntity
  8
0
100
AcDbLine
 62
7
  6
CONTINUOUS
 10
19.8831348489
 20
0.9851647912
 11
19.4767170086
 21
1.0658141206
  0
LINE
  5
21D
100
AcDbEntity
  8
0
100
AcDbLine
 62
7
  6
CONTINUOUS
 10
19.4767170086
 20
1.0658141206
 11
19.4779056764
 21
1.2714536432
  0
CIRCLE
  5
21E
100
AcDbEntity
  8
0
100
AcDbCircle
 62
7
  6
CONTINUOUS
 10
20.2068232291
 20
1.1717972817
 40
0.175742101
  0
CIRCLE
  5
21F
100
AcDbEntity
  8
0
100
AcDbCircle
 62
7
  6
CONTINUOUS
 10
20.2068232291
 20
1.1717972817
 40
0.1005522074
  0
LINE
  5
220
100
AcDbEntity
  8
0
100
AcDbLine
 62
7
  6
CONTINUOUS
 10
20.2077290681
 20
1.3756110529
 11
20.2071171714
 21
1.2379342989
  0
LINE
  5
221
100
AcDbEntity
  8
0
100
AcDbLine
 62
7
  6
CONTINUOUS
 10
20.2077290681
 20
1.2016899681
 11
20.2074674401
 21
1.1428236749
  0
LINE
  5
222
100
AcDbEntity
  8
0
100
AcDbLine
 62
7
  6
CONTINUOUS
 10
20.208634907
 20
1.101141841
 11
20.2080230104
 21
0.963465087
  0
LINE
  5
223
100
AcDbEntity
  8
0
100
AcDbLine
 62
7
  6
CONTINUOUS
 10
20.0066328138
 20
1.1745147986
 11
20.1443095678
 21
1.1739029019
  0
LINE
  5
224
100
AcDbEntity
  8
0
100
AcDbLine
 62
7
  6
CONTINUOUS
 10
20.1832714155
 20
1.1727031207
 11
20.238153505
 21
1.172335442
  0
LINE
  5
225
100
AcDbEntity
  8
0
100
AcDbLine
 62
7
  6
CONTINUOUS
 10
20.2756669918
 20
1.1717972817
 11
20.407916871
 21
1.1712095044
  0
CIRCLE
  5
226
100
AcDbEntity
  8
0
100
AcDbCircle
 62
7
  6
CONTINUOUS
 10
20.7509457401
 20
1.1693297793
 40
0.1722024983
  0
CIRCLE
  5
227
100
AcDbEntity
  8
0
100
AcDbCircle
 62
7
  6
CONTINUOUS
 10
20.7509457401
 20
1.1693297793
 40
0.0985164967
  0
LINE
  5
228
100
AcDbEntity
  8
0
100
AcDbLine
 62
7
  6
CONTINUOUS
 10
20.7169767782
 20
1.170462078
 11
20.7825395137
 21
1.1682766535
  0
LINE
  5
229
100
AcDbEntity
  8
0
100
AcDbLine
 62
7
  6
CONTINUOUS
 10
20.8177513651
 20
1.1693297793
 11
20.947965719
 21
1.1693297793
  0
LINE
  5
22A
100
AcDbEntity
  8
0
100
AcDbLine
 62
7
  6
CONTINUOUS
 10
20.6875370113
 20
1.170462078
 11
20.5573226574
 21
1.170462078
  0
LINE
  5
22B
100
AcDbEntity
  8
0
100
AcDbLine
 62
7
  6
CONTINUOUS
 10
20.7486811426
 20
1.1987695462
 11
20.7486811426
 21
1.1432869085
  0
LINE
  5
22C
100
AcDbEntity
  8
0
100
AcDbLine
 62
7
  6
CONTINUOUS
 10
20.7498134414
 20
1.1059210505
 11
20.7498134414
 21
0.9757066966
  0
LINE
  5
22D
100
AcDbEntity
  8
0
100
AcDbLine
 62
7
  6
CONTINUOUS
 10
20.7486811426
 20
1.2338708068
 11
20.7486811426
 21
1.3640851607
  0
LINE
  5
22E
100
AcDbEntity
  8
0
100
AcDbLine
 62
7
  6
CONTINUOUS
 10
21.0702539817
 20
1.2701043662
 11
21.4790138229
 21
1.3448360823
  0
LINE
  5
22F
100
AcDbEntity
  8
0
100
AcDbLine
 62
7
  6
CONTINUOUS
 10
21.4790138229
 20
1.3448360823
 11
21.4790138229
 21
0.9779712941
  0
LINE
  5
230
100
AcDbEntity
  8
0
100
AcDbLine
 62
7
  6
CONTINUOUS
 10
21.4790138229
 20
0.9779712941
 11
21.069121683
 21
1.0617614
  0
LINE
  5
231
100
AcDbEntity
  8
0
100
AcDbLine
 62
7
  6
CONTINUOUS
 10
21.0702539817
 20
1.2701043662
 11
21.069121683
 21
1.0617614
  0
LINE
  5
232
100
AcDbEntity
  8
0
100
AcDbLine
 62
7
  6
CONTINUOUS
 10
21.4790138229
 20
1.1693297793
 11
21.3159628059
 21
1.1693297793
  0
LINE
  5
233
100
AcDbEntity
  8
0
100
AcDbLine
 62
7
  6
CONTINUOUS
 10
21.2876553377
 20
1.1693297793
 11
21.2502894796
 21
1.1693297793
  0
LINE
  5
234
100
AcDbEntity
  8
0
100
AcDbLine
 62
7
  6
CONTINUOUS
 10
21.2208497126
 20
1.1659328831
 11
21.0713862804
 21
1.1659328831
  0
LINE
  5
235
100
AcDbEntity
  8
0
100
AcDbLine
 62
7
  6
CONTINUOUS
 10
20.4796138713
 20
1.5284908897
 11
20.4766766948
 21
0.9294458646
  0
ENDBLK
  5
236
100
AcDbEntity
  8
0
  6
BYBLOCK
 62
0
100
AcDbBlockEnd
  0
BLOCK
  5
237
100
AcDbEntity
  8
0
100
AcDbBlockBegin
  2
*T1
 70
1
 10
0.0
 20
0.0
  3
*T1
  1

  0
LINE
  5
238
100
AcDbEntity
  8
0
100
AcDbLine
 62
2
  6
CONTINUOUS
 10
9.275
 20
0.0
 11
-0.0
 21
0.0
  0
LINE
  5
239
100
AcDbEntity
  8
0
100
AcDbLine
 62
2
  6
CONTINUOUS
 10
9.275
 20
0.0
 11
9.275
 21
1.25
  0
LINE
  5
23A
100
AcDbEntity
  8
0
100
AcDbLine
 62
2
  6
CONTINUOUS
 10
9.275
 20
0.625
 11
-0.0
 21
0.625
  0
LINE
  5
23B
100
AcDbEntity
  8
0
100
AcDbLine
 62
2
  6
CONTINUOUS
 10
9.275
 20
1.25
 11
-0.0
 21
1.25
  0
LINE
  5
23C
100
AcDbEntity
  8
0
100
AcDbLine
 62
2
  6
CONTINUOUS
 10
6.8
 20
0.0
 11
6.8
 21
1.25
  0
LINE
  5
23D
100
AcDbEntity
  8
0
100
AcDbLine
 62
2
  6
CONTINUOUS
 10
6.4
 20
0.0
 11
6.4
 21
0.625
  0
LINE
  5
23E
100
AcDbEntity
  8
0
100
AcDbLine
 62
2
  6
CONTINUOUS
 10
5.9
 20
0.0
 11
5.9
 21
0.625
  0
LINE
  5
23F
100
AcDbEntity
  8
0
100
AcDbLine
 62
2
  6
CONTINUOUS
 10
5.2
 20
0.0
 11
5.2
 21
0.625
  0
LINE
  5
240
100
AcDbEntity
  8
0
100
AcDbLine
 62
2
  6
CONTINUOUS
 10
4.1
 20
0.0
 11
4.1
 21
1.25
  0
LINE
  5
241
100
AcDbEntity
  8
0
100
AcDbLine
 62
2
  6
CONTINUOUS
 10
-0.0
 20
0.0
 11
-0.0
 21
1.25
  0
MTEXT
  5
242
100
AcDbEntity
  8
0
100
AcDbMText
 62
2
  6
CONTINUOUS
  7
STANDARD
 71
2
 72
1
 10
6.6
 20
0.325
 30
0.0
 11
1.0
 21
0.0
 31
0.0
 44
0.9
  1
2
 40
0.125
 41
0.2
  0
MTEXT
  5
243
100
AcDbEntity
  8
0
100
AcDbMText
 62
2
  6
CONTINUOUS
  7
STANDARD
 71
2
 72
1
 10
6.15
 20
0.325
 30
0.0
 11
1.0
 21
0.0
 31
0.0
 44
0.9
  1
C
 40
0.125
 41
0.2
  0
MTEXT
  5
244
100
AcDbEntity
  8
0
100
AcDbMText
 62
2
  6
CONTINUOUS
  7
STANDARD
 71
2
 72
1
 10
5.55
 20
0.325
 30
0.0
 11
1.0
 21
0.0
 31
0.0
 44
0.9
  1
1.000
 40
0.125
 41
1.0
  0
MTEXT
  5
245
100
AcDbEntity
  8
0
100
AcDbMText
 62
2
  6
CONTINUOUS
  7
STANDARD
 71
2
 72
1
 10
4.65
 20
0.325
 30
0.0
 11
1.0
 21
0.0
 31
0.0
 44
0.9
  1
Jan-22-20
 40
0.125
 41
1.8
  0
MTEXT
  5
246
100
AcDbEntity
  8
0
100
AcDbMText
 62
2
  6
CONTINUOUS
  7
STANDARD
 71
2
 72
1
 10
2.05
 20
0.4625
 30
0.0
 11
1.0
 21
0.0
 31
0.0
 44
0.9
  1
T-17A Sandwich ISO 05 - X&Y\POn A  with reverse flow check
 40
0.125
 41
5.8
  0
MTEXT
  5
247
100
AcDbEntity
  8
0
100
AcDbMText
 62
2
  6
CONTINUOUS
  7
STANDARD
 71
1
 72
1
 10
6.45
 20
0.5625
 30
0.0
 11
1.0
 21
0.0
 31
0.0
 44
0.9
  1
SHEET
 40
0.06
 41
0.48
  0
MTEXT
  5
248
100
AcDbEntity
  8
0
100
AcDbMText
 62
2
  6
CONTINUOUS
  7
STANDARD
 71
1
 72
1
 10
5.95
 20
0.5625
 30
0.0
 11
1.0
 21
0.0
 31
0.0
 44
0.9
  1
DWG SIZE
 40
0.06
 41
0.768
  0
MTEXT
  5
249
100
AcDbEntity
  8
0
100
AcDbMText
 62
2
  6
CONTINUOUS
  7
STANDARD
 71
1
 72
1
 10
5.25
 20
0.5625
 30
0.0
 11
1.0
 21
0.0
 31
0.0
 44
0.9
  1
SCALE
 40
0.06
 41
0.48
  0
MTEXT
  5
24A
100
AcDbEntity
  8
0
100
AcDbMText
 62
2
  6
CONTINUOUS
  7
STANDARD
 71
1
 72
1
 10
4.15
 20
0.5625
 30
0.0
 11
1.0
 21
0.0
 31
0.0
 44
0.9
  1
DATE
 40
0.06
 41
0.384
  0
MTEXT
  5
24B
100
AcDbEntity
  8
0
100
AcDbMText
 62
2
  6
CONTINUOUS
  7
STANDARD
 71
1
 72
1
 10
0.05
 20
0.5625
 30
0.0
 11
1.0
 21
0.0
 31
0.0
 44
0.9
  1
DESCRIPTION
 40
0.06
 41
1.056
  0
MTEXT
  5
24C
100
AcDbEntity
  8
0
100
AcDbMText
 62
2
  6
CONTINUOUS
  7
STANDARD
 71
2
 72
1
 10
5.45
 20
1.0375
 30
0.0
 11
1.0
 21
0.0
 31
0.0
 44
0.9
  1
ALL DIMENSIONS IN INCH\PVIEWS ARE THIRD ANGLE
 40
0.12
 41
4.224
  0
MTEXT
  5
24D
100
AcDbEntity
  8
0
100
AcDbMText
 62
2
  6
CONTINUOUS
  7
STANDARD
 71
2
 72
1
 10
2.05
 20
0.95
 30
0.0
 11
1.0
 21
0.0
 31
0.0
 44
0.9
  1
U8B
 40
0.125
 41
0.6
  0
MTEXT
  5
24E
100
AcDbEntity
  8
0
100
AcDbMText
 62
2
  6
CONTINUOUS
  7
STANDARD
 71
1
 72
1
 10
0.05
 20
1.1875
 30
0.0
 11
1.0
 21
0.0
 31
0.0
 44
0.9
  1
MODEL
 40
0.06
 41
0.48
  0
ENDBLK
  5
24F
100
AcDbEntity
  8
0
  6
BYBLOCK
 62
0
100
AcDbBlockEnd
  0
BLOCK
  5
250
100
AcDbEntity
  8
0
100
AcDbBlockBegin
  2
*T2
 70
1
 10
0.0
 20
0.0
  3
*T2
  1

  0
LINE
  5
251
100
AcDbEntity
  8
0
100
AcDbLine
 62
2
  6
CONTINUOUS
 10
0.0
 20
0.0
 11
9.055
 21
0.0
  0
LINE
  5
252
100
AcDbEntity
  8
0
100
AcDbLine
 62
2
  6
CONTINUOUS
 10
0.0
 20
0.0
 11
0.0
 21
-2.344
  0
LINE
  5
253
100
AcDbEntity
  8
0
100
AcDbLine
 62
2
  6
CONTINUOUS
 10
0.0
 20
-0.344
 11
9.055
 21
-0.344
  0
LINE
  5
254
100
AcDbEntity
  8
0
100
AcDbLine
 62
2
  6
CONTINUOUS
 10
0.0
 20
-0.594
 11
9.055
 21
-0.594
  0
LINE
  5
255
100
AcDbEntity
  8
0
100
AcDbLine
 62
2
  6
CONTINUOUS
 10
0.0
 20
-0.844
 11
9.055
 21
-0.844
  0
LINE
  5
256
100
AcDbEntity
  8
0
100
AcDbLine
 62
2
  6
CONTINUOUS
 10
0.0
 20
-1.094
 11
9.055
 21
-1.094
  0
LINE
  5
257
100
AcDbEntity
  8
0
100
AcDbLine
 62
2
  6
CONTINUOUS
 10
0.0
 20
-1.344
 11
9.055
 21
-1.344
  0
LINE
  5
258
100
AcDbEntity
  8
0
100
AcDbLine
 62
2
  6
CONTINUOUS
 10
0.0
 20
-1.594
 11
9.055
 21
-1.594
  0
LINE
  5
259
100
AcDbEntity
  8
0
100
AcDbLine
 62
2
  6
CONTINUOUS
 10
0.0
 20
-1.844
 11
9.055
 21
-1.844
  0
LINE
  5
25A
100
AcDbEntity
  8
0
100
AcDbLine
 62
2
  6
CONTINUOUS
 10
0.0
 20
-2.094
 11
9.055
 21
-2.094
  0
LINE
  5
25B
100
AcDbEntity
  8
0
100
AcDbLine
 62
2
  6
CONTINUOUS
 10
0.0
 20
-2.344
 11
9.055
 21
-2.344
  0
LINE
  5
25C
100
AcDbEntity
  8
0
100
AcDbLine
 62
2
  6
CONTINUOUS
 10
3.055
 20
0.0
 11
3.055
 21
-2.344
  0
LINE
  5
25D
100
AcDbEntity
  8
0
100
AcDbLine
 62
2
  6
CONTINUOUS
 10
9.055
 20
0.0
 11
9.055
 21
-2.344
  0
MTEXT
  5
25E
100
AcDbEntity
  8
0
100
AcDbMText
 62
2
  6
CONTINUOUS
  7
STANDARD
 71
2
 72
1
 10
1.5275
 20
-0.0995
 30
0.0
 11
1.0
 21
0.0
 31
0.0
 44
0.9
  1
Technical Data
 40
0.145
 41
3.248
  0
MTEXT
  5
25F
100
AcDbEntity
  8
0
100
AcDbMText
 62
2
  6
CONTINUOUS
  7
STANDARD
 71
2
 72
1
 10
4.555
 20
-0.0995
 30
0.0
 11
1.0
 21
0.0
 31
0.0
 44
0.9
  1
U.S. Units
 40
0.145
 41
2.32
  0
MTEXT
  5
260
100
AcDbEntity
  8
0
100
AcDbMText
 62
2
  6
CONTINUOUS
  7
STANDARD
 71
2
 72
1
 10
7.555
 20
-0.0995
 30
0.0
 11
1.0
 21
0.0
 31
0.0
 44
0.9
  1
Metric Units
 40
0.145
 41
2.784
  0
MTEXT
  5
261
100
AcDbEntity
  8
0
100
AcDbMText
 62
2
  6
CONTINUOUS
  7
STANDARD
 71
2
 72
1
 10
1.5275
 20
-0.4065
 30
0.0
 11
1.0
 21
0.0
 31
0.0
 44
0.9
  1
Cavity
 40
0.125
 41
1.2
  0
MTEXT
  5
262
100
AcDbEntity
  8
0
100
AcDbMText
 62
2
  6
CONTINUOUS
  7
STANDARD
 71
2
 72
1
 10
6.055
 20
-0.4065
 30
0.0
 11
1.0
 21
0.0
 31
0.0
 44
0.9
  1
T-17A
 40
0.125
 41
1.0
  0
MTEXT
  5
263
100
AcDbEntity
  8
0
100
AcDbMText
 62
2
  6
CONTINUOUS
  7
STANDARD
 71
2
 72
1
 10
1.5275
 20
-0.6565
 30
0.0
 11
1.0
 21
0.0
 31
0.0
 44
0.9
  1
Body Features
 40
0.125
 41
2.6
  0
MTEXT
  5
264
100
AcDbEntity
  8
0
100
AcDbMText
 62
2
  6
CONTINUOUS
  7
STANDARD
 71
2
 72
1
 10
6.055
 20
-0.6565
 30
0.0
 11
1.0
 21
0.0
 31
0.0
 44
0.9
  1
On A  with reverse flow check
 40
0.125
 41
5.8
  0
MTEXT
  5
265
100
AcDbEntity
  8
0
100
AcDbMText
 62
2
  6
CONTINUOUS
  7
STANDARD
 71
2
 72
1
 10
1.5275
 20
-0.9065
 30
0.0
 11
1.0
 21
0.0
 31
0.0
 44
0.9
  1
Body Type
 40
0.125
 41
1.8
  0
MTEXT
  5
266
100
AcDbEntity
  8
0
100
AcDbMText
 62
2
  6
CONTINUOUS
  7
STANDARD
 71
2
 72
1
 10
6.055
 20
-0.9065
 30
0.0
 11
1.0
 21
0.0
 31
0.0
 44
0.9
  1
Sandwich
 40
0.125
 41
1.6
  0
MTEXT
  5
267
100
AcDbEntity
  8
0
100
AcDbMText
 62
2
  6
CONTINUOUS
  7
STANDARD
 71
2
 72
1
 10
1.5275
 20
-1.1565
 30
0.0
 11
1.0
 21
0.0
 31
0.0
 44
0.9
  1
Interface
 40
0.125
 41
1.8
  0
MTEXT
  5
268
100
AcDbEntity
  8
0
100
AcDbMText
 62
2
  6
CONTINUOUS
  7
STANDARD
 71
2
 72
1
 10
6.055
 20
-1.1565
 30
0.0
 11
1.0
 21
0.0
 31
0.0
 44
0.9
  1
ISO 05 - X&Y
 40
0.125
 41
2.4
  0
MTEXT
  5
269
100
AcDbEntity
  8
0
100
AcDbMText
 62
2
  6
CONTINUOUS
  7
STANDARD
 71
2
 72
1
 10
1.5275
 20
-1.4065
 30
0.0
 11
1.0
 21
0.0
 31
0.0
 44
0.9
  1
Open Cavity Quantity
 40
0.125
 41
4.0
  0
MTEXT
  5
26A
100
AcDbEntity
  8
0
100
AcDbMText
 62
2
  6
CONTINUOUS
  7
STANDARD
 71
2
 72
1
 10
6.055
 20
-1.4065
 30
0.0
 11
1.0
 21
0.0
 31
0.0
 44
0.9
  1
1
 40
0.125
 41
0.2
  0
MTEXT
  5
26B
100
AcDbEntity
  8
0
100
AcDbMText
 62
2
  6
CONTINUOUS
  7
STANDARD
 71
2
 72
1
 10
1.5275
 20
-1.6565
 30
0.0
 11
1.0
 21
0.0
 31
0.0
 44
0.9
  1
Stack Height
 40
0.125
 41
2.4
  0
MTEXT
  5
26C
100
AcDbEntity
  8
0
100
AcDbMText
 62
2
  6
CONTINUOUS
  7
STANDARD
 71
2
 72
1
 10
4.555
 20
-1.6565
 30
0.0
 11
1.0
 21
0.0
 31
0.0
 44
0.9
  1
3.99 in.
 40
0.125
 41
1.6
  0
MTEXT
  5
26D
100
AcDbEntity
  8
0
100
AcDbMText
 62
2
  6
CONTINUOUS
  7
STANDARD
 71
2
 72
1
 10
7.555
 20
-1.6565
 30
0.0
 11
1.0
 21
0.0
 31
0.0
 44
0.9
  1
101 mm
 40
0.125
 41
1.2
  0
MTEXT
  5
26E
100
AcDbEntity
  8
0
100
AcDbMText
 62
2
  6
CONTINUOUS
  7
STANDARD
 71
2
 72
1
 10
1.5275
 20
-1.9065
 30
0.0
 11
1.0
 21
0.0
 31
0.0
 44
0.9
  1
Weight
 40
0.125
 41
1.2
  0
MTEXT
  5
26F
100
AcDbEntity
  8
0
100
AcDbMText
 62
2
  6
CONTINUOUS
  7
STANDARD
 71
2
 72
1
 10
4.555
 20
-1.9065
 30
0.0
 11
1.0
 21
0.0
 31
0.0
 44
0.9
  1
4.393 lb.
 40
0.125
 41
1.8
  0
MTEXT
  5
270
100
AcDbEntity
  8
0
100
AcDbMText
 62
2
  6
CONTINUOUS
  7
STANDARD
 71
2
 72
1
 10
7.555
 20
-1.9065
 30
0.0
 11
1.0
 21
0.0
 31
0.0
 44
0.9
  1
1,993 kg.
 40
0.125
 41
1.8
  0
MTEXT
  5
271
100
AcDbEntity
  8
0
100
AcDbMText
 62
2
  6
CONTINUOUS
  7
STANDARD
 71
2
 72
1
 10
1.5275
 20
-2.1565
 30
0.0
 11
1.0
 21
0.0
 31
0.0
 44
0.9
  1
Seal Plate Included (see notes)
 40
0.125
 41
6.2
  0
MTEXT
  5
272
100
AcDbEntity
  8
0
100
AcDbMText
 62
2
  6
CONTINUOUS
  7
STANDARD
 71
2
 72
1
 10
6.055
 20
-2.1565
 30
0.0
 11
1.0
 21
0.0
 31
0.0
 44
0.9
  1
No
 40
0.125
 41
0.4
  0
ENDBLK
  5
273
100
AcDbEntity
  8
0
  6
BYBLOCK
 62
0
100
AcDbBlockEnd
  0
ENDSEC
  0
SECTION
  2
ENTITIES
  0
IMAGE
  5
274
100
AcDbEntity
  8
0
100
AcDbRasterImage
 62
7
  6
CONTINUOUS
 10
19.2297077316
 20
0.3094318264
 30
0.0
 11
0.0066666667
 21
0.0
 31
0.0
 12
0.0
 22
0.0066666667
 32
0.0
 13
369.0
 23
92.0
340
       32D
 70
9
280
0
281
50
282
50
283
0
360
       327
 71
1
 91
2
 14
-0.5
 24
-0.5
 14
368.5
 24
91.5
  0
INSERT
  5
275
100
AcDbEntity
  8
0
100
AcDbBlockReference
 62
2
  6
CONTINUOUS
  2
SUN_FIRST_THIRD_ANGLE_BL0
 10
20.4816717061
 20
1.2289683772
  0
ACAD_TABLE
  5
276
100
AcDbEntity
  8
0
 62
2
  6
CONTINUOUS
100
AcDbBlockReference
  2
*T1
 10
12.42375
 20
0.30125
 30
0.0
100
AcDbTable
342
       32F
343
211
 11
1.0
 21
0.0
 31
0.0
 90
6
 91
4
 92
6
 93
20
 94
0
 95
0
 96
0
 70
1
 41
0.0
141
0.525
141
0.1
141
0.525
141
0.1
142
4.1
142
1.1
142
0.7
142
0.5
142
0.4
142
2.475
171
1
172
0
173
0
174
0
175
1
176
1
 91
33
178
0
145
0.0
301
CELL_VALUE
 90
4
  1
T-17A Sandwich ISO 05 - X&Y\POn A  with reverse flow check
304
ACVALUE_END
170
2
140
0.125
171
1
172
0
173
0
174
0
175
1
176
1
 91
33
178
0
145
0.0
301
CELL_VALUE
 90
4
  1
Jan-22-20
304
ACVALUE_END
170
5
140
0.125
171
1
172
0
173
0
174
0
175
1
176
1
 91
33
178
0
145
0.0
301
CELL_VALUE
 90
4
  1
1.000
304
ACVALUE_END
170
5
140
0.125
171
1
172
0
173
0
174
0
175
1
176
1
 91
33
178
0
145
0.0
301
CELL_VALUE
 90
4
  1
C
304
ACVALUE_END
170
5
140
0.125
171
1
172
0
173
0
174
0
175
1
176
1
 91
33
178
0
145
0.0
301
CELL_VALUE
 90
4
  1
2
304
ACVALUE_END
170
5
140
0.125
171
1
172
0
173
0
174
0
175
1
176
1
 91
33
178
0
145
0.0
301
CELL_VALUE
 90
4
  1
 
304
ACVALUE_END
170
1
140
0.125
171
1
172
0
173
0
174
0
175
1
176
1
 91
33
178
0
145
0.0
301
CELL_VALUE
 90
4
  1
DESCRIPTION
304
ACVALUE_END
170
1
140
0.06
171
1
172
0
173
0
174
0
175
1
176
1
 91
33
178
0
145
0.0
301
CELL_VALUE
 90
4
  1
DATE
304
ACVALUE_END
170
1
140
0.06
171
1
172
0
173
0
174
0
175
1
176
1
 91
33
178
0
145
0.0
301
CELL_VALUE
 90
4
  1
SCALE
304
ACVALUE_END
170
1
140
0.06
171
1
172
0
173
0
174
0
175
1
176
1
 91
33
178
0
145
0.0
301
CELL_VALUE
 90
4
  1
DWG SIZE
304
ACVALUE_END
170
1
140
0.06
171
1
172
0
173
0
174
0
175
1
176
1
 91
33
178
0
145
0.0
301
CELL_VALUE
 90
4
  1
SHEET
304
ACVALUE_END
170
1
140
0.06
171
1
172
0
173
0
174
0
175
1
176
1
 91
33
178
0
145
0.0
301
CELL_VALUE
 90
4
  1
 
304
ACVALUE_END
170
1
140
0.125
171
1
172
0
173
0
174
0
175
1
176
1
 91
33
178
0
145
0.0
301
CELL_VALUE
 90
4
  1
U8B
304
ACVALUE_END
170
5
140
0.125
171
1
172
0
173
0
174
0
175
4
176
1
 91
33
178
0
145
0.0
301
CELL_VALUE
 90
4
  1
ALL DIMENSIONS IN INCH\PVIEWS ARE THIRD ANGLE
304
ACVALUE_END
170
5
140
0.12
171
1
172
0
173
1
174
0
175
1
176
1
 91
1
178
0
145
0.0
170
1
171
1
172
0
173
1
174
0
175
1
176
1
 91
1
178
0
145
0.0
170
1
171
1
172
0
173
1
174
0
175
1
176
1
 91
1
178
0
145
0.0
170
5
171
1
172
0
173
0
174
0
175
1
176
1
 91
33
178
0
145
0.0
301
CELL_VALUE
 90
4
  1
 
304
ACVALUE_END
170
1
140
0.125
171
1
172
0
173
0
174
0
175
1
176
1
 91
33
178
0
145
0.0
301
CELL_VALUE
 90
4
  1
MODEL
304
ACVALUE_END
170
1
140
0.06
171
1
172
0
173
0
174
0
175
1
176
1
 91
33
178
0
145
0.0
301
CELL_VALUE
 90
4
  1
 
304
ACVALUE_END
170
1
140
0.125
171
1
172
0
173
0
174
0
175
1
176
1
 91
33
178
0
145
0.0
301
CELL_VALUE
 90
4
  1
 
304
ACVALUE_END
170
1
140
0.125
171
1
172
0
173
0
174
0
175
1
176
1
 91
33
178
0
145
0.0
301
CELL_VALUE
 90
4
  1
 
304
ACVALUE_END
170
1
140
0.125
171
1
172
0
173
0
174
0
175
1
176
1
 91
33
178
0
145
0.0
301
CELL_VALUE
 90
4
  1
 
304
ACVALUE_END
170
1
140
0.125
171
1
172
0
173
0
174
0
175
1
176
1
 91
33
178
0
145
0.0
301
CELL_VALUE
 90
4
  1
 
304
ACVALUE_END
170
1
140
0.125
  0
ACAD_TABLE
  5
277
100
AcDbEntity
  8
0
 62
2
  6
CONTINUOUS
100
AcDbBlockReference
  2
*T2
 10
12.4237499994
 20
16.47875
 30
0.0
100
AcDbTable
342
       32E
343
212
 11
1.0
 21
0.0
 31
0.0
 90
22
 91
9
 92
3
 93
16
 94
0
 95
0
 96
0
 41
0.028
141
0.344
141
0.25
141
0.25
141
0.25
141
0.25
141
0.25
141
0.25
141
0.25
141
0.25
142
3.055
142
3.0
142
3.0
171
1
172
0
173
0
174
0
175
1
176
1
 91
33
178
0
145
0.0
301
CELL_VALUE
 90
4
  1
Technical Data
304
ACVALUE_END
170
5
140
0.145
171
1
172
0
173
0
174
0
175
1
176
1
 91
33
178
0
145
0.0
301
CELL_VALUE
 90
4
  1
U.S. Units
304
ACVALUE_END
170
5
140
0.145
171
1
172
0
173
0
174
0
175
1
176
1
 91
33
178
0
145
0.0
301
CELL_VALUE
 90
4
  1
Metric Units
304
ACVALUE_END
170
5
140
0.145
171
1
172
0
173
0
174
0
175
1
176
1
 91
33
178
0
145
0.0
301
CELL_VALUE
 90
4
  1
Cavity
304
ACVALUE_END
170
5
140
0.125
171
1
172
0
173
0
174
0
175
2
176
1
 91
33
178
0
145
0.0
301
CELL_VALUE
 90
4
  1
T-17A
304
ACVALUE_END
170
5
140
0.125
171
1
172
0
173
1
174
0
175
1
176
1
 91
1
178
0
145
0.0
170
1
171
1
172
0
173
0
174
0
175
1
176
1
 91
33
178
0
145
0.0
301
CELL_VALUE
 90
4
  1
Body Features
304
ACVALUE_END
170
5
140
0.125
171
1
172
0
173
0
174
0
175
2
176
1
 91
33
178
0
145
0.0
301
CELL_VALUE
 90
4
  1
On A  with reverse flow check
304
ACVALUE_END
170
5
140
0.125
171
1
172
0
173
1
174
0
175
1
176
1
 91
1
178
0
145
0.0
170
1
171
1
172
0
173
0
174
0
175
1
176
1
 91
33
178
0
145
0.0
301
CELL_VALUE
 90
4
  1
Body Type
304
ACVALUE_END
170
5
140
0.125
171
1
172
0
173
0
174
0
175
2
176
1
 91
33
178
0
145
0.0
301
CELL_VALUE
 90
4
  1
Sandwich
304
ACVALUE_END
170
5
140
0.125
171
1
172
0
173
1
174
0
175
1
176
1
 91
1
178
0
145
0.0
170
1
171
1
172
0
173
0
174
0
175
1
176
1
 91
33
178
0
145
0.0
301
CELL_VALUE
 90
4
  1
Interface
304
ACVALUE_END
170
5
140
0.125
171
1
172
0
173
0
174
0
175
2
176
1
 91
33
178
0
145
0.0
301
CELL_VALUE
 90
4
  1
ISO 05 - X&Y
304
ACVALUE_END
170
5
140
0.125
171
1
172
0
173
1
174
0
175
1
176
1
 91
1
178
0
145
0.0
170
1
171
1
172
0
173
0
174
0
175
1
176
1
 91
33
178
0
145
0.0
301
CELL_VALUE
 90
4
  1
Open Cavity Quantity
304
ACVALUE_END
170
5
140
0.125
171
1
172
0
173
0
174
0
175
2
176
1
 91
33
178
0
145
0.0
301
CELL_VALUE
 90
4
  1
1
304
ACVALUE_END
170
5
140
0.125
171
1
172
0
173
1
174
0
175
1
176
1
 91
1
178
0
145
0.0
170
1
171
1
172
0
173
0
174
0
175
1
176
1
 91
33
178
0
145
0.0
301
CELL_VALUE
 90
4
  1
Stack Height
304
ACVALUE_END
170
5
140
0.125
171
1
172
0
173
0
174
0
175
1
176
1
 91
33
178
0
145
0.0
301
CELL_VALUE
 90
4
  1
3.99 in.
304
ACVALUE_END
170
5
140
0.125
171
1
172
0
173
0
174
0
175
1
176
1
 91
33
178
0
145
0.0
301
CELL_VALUE
 90
4
  1
101 mm
304
ACVALUE_END
170
5
140
0.125
171
1
172
0
173
0
174
0
175
1
176
1
 91
33
178
0
145
0.0
301
CELL_VALUE
 90
4
  1
Weight
304
ACVALUE_END
170
5
140
0.125
171
1
172
0
173
0
174
0
175
1
176
1
 91
33
178
0
145
0.0
301
CELL_VALUE
 90
4
  1
4.393 lb.
304
ACVALUE_END
170
5
140
0.125
171
1
172
0
173
0
174
0
175
1
176
1
 91
33
178
0
145
0.0
301
CELL_VALUE
 90
4
  1
1,993 kg.
304
ACVALUE_END
170
5
140
0.125
171
1
172
0
173
0
174
0
175
1
176
1
 91
33
178
0
145
0.0
301
CELL_VALUE
 90
4
  1
Seal Plate Included (see notes)
304
ACVALUE_END
170
5
140
0.125
171
1
172
0
173
0
174
0
175
2
176
1
 91
33
178
0
145
0.0
301
CELL_VALUE
 90
4
  1
No
304
ACVALUE_END
170
5
140
0.125
171
1
172
0
173
1
174
0
175
1
176
1
 91
1
178
0
145
0.0
170
1
  0
MTEXT
  5
278
100
AcDbEntity
  8
0
100
AcDbMText
 62
2
  6
CONTINUOUS
  7
STANDARD
 71
1
 72
1
 10
0.52125
 20
5.75995
 30
0.0
 11
1.0
 21
0.0
 31
0.0
 44
0.6
  3
Notes\P \P1. Stack height value in technical\P   data table includes seal retainer\P   plate.\P2. This installation requires a\P   retainer and seal kit which are\P   purchased separately. See "Related\P   Accessories" section.\P3. Important: Careful
  3
ly consider\P   the maximum system pressure. The\P   pressure rating of the manifold is\P   dependent on the manifold material,\P   with the port type/size a secondary\P   consideration. Manifolds\P   constructed of aluminum are not\P   rated for pre
  1
ssures higher than\P   3000 psi (210 bar), regardless of\P   the port type/size specified.
 40
0.1
 41
3.04
  0
LINE
  5
279
100
AcDbEntity
  8
0
100
AcDbLine
 62
7
  6
CONTINUOUS
 10
0.30125
 20
0.30125
 11
0.30125
 21
16.69875
  0
LINE
  5
27A
100
AcDbEntity
  8
0
100
AcDbLine
 62
7
  6
CONTINUOUS
 10
0.30125
 20
0.30125
 11
21.69875
 21
0.30125
  0
LINE
  5
27B
100
AcDbEntity
  8
0
100
AcDbLine
 62
7
  6
CONTINUOUS
 10
0.30125
 20
16.69875
 11
21.69875
 21
16.69875
  0
LINE
  5
27C
100
AcDbEntity
  8
0
100
AcDbLine
 62
7
  6
CONTINUOUS
 10
21.69875
 20
0.30125
 11
21.69875
 21
16.69875
  0
LINE
  5
27D
100
AcDbEntity
  8
0
100
AcDbLine
 62
7
  6
CONTINUOUS
 10
8.0458241495
 20
9.3365720054
 11
8.0458241495
 21
6.9217572966
  0
LINE
  5
27E
100
AcDbEntity
  8
0
100
AcDbLine
 62
7
  6
CONTINUOUS
 10
7.9417151596
 20
9.1866756085
 11
7.9321994944
 21
9.1705419431
  0
LINE
  5
27F
100
AcDbEntity
  8
0
100
AcDbLine
 62
7
  6
CONTINUOUS
 10
7.877459252
 20
8.1465982421
 11
7.8635125582
 21
8.1801064291
  0
LINE
  5
280
100
AcDbEntity
  8
0
100
AcDbLine
 62
7
  6
CONTINUOUS
 10
9.0650526986
 20
10.3210712422
 11
8.0458241495
 21
9.3365720054
  0
LINE
  5
281
100
AcDbEntity
  8
0
100
AcDbLine
 62
7
  6
CONTINUOUS
 10
13.1889867279
 20
6.9997809675
 11
13.1510196417
 21
6.9941075763
  0
LINE
  5
282
100
AcDbEntity
  8
0
100
AcDbLine
 62
7
  6
CONTINUOUS
 10
8.0458241495
 20
6.9217572966
 11
11.547305247
 21
6.6789287578
  0
LINE
  5
283
100
AcDbEntity
  8
0
100
AcDbLine
 62
7
  6
CONTINUOUS
 10
11.6225593806
 20
6.8246868225
 11
13.2221326787
 21
6.7137560375
  0
LINE
  5
284
100
AcDbEntity
  8
0
100
AcDbLine
 62
7
  6
CONTINUOUS
 10
13.1510196417
 20
6.9941075763
 11
11.5514463436
 21
7.1050383613
  0
LINE
  5
285
100
AcDbEntity
  8
0
100
AcDbLine
 62
7
  6
CONTINUOUS
 10
11.1282910624
 20
7.3684303205
 11
11.1251958312
 21
7.3685902721
  0
LINE
  5
286
100
AcDbEntity
  8
0
100
AcDbLine
 62
7
  6
CONTINUOUS
 10
11.1221005848
 20
7.5567502353
 11
11.1251958005
 21
7.556590284
  0
LINE
  5
287
100
AcDbEntity
  8
0
100
AcDbLine
 62
7
  6
CONTINUOUS
 10
8.0458241495
 20
8.0433645961
 11
7.9281048185
 21
8.0515284595
  0
LINE
  5
288
100
AcDbEntity
  8
0
100
AcDbLine
 62
7
  6
CONTINUOUS
 10
8.0458241495
 20
8.057371257
 11
7.9155924623
 21
8.0664028551
  0
LINE
  5
289
100
AcDbEntity
  8
0
100
AcDbLine
 62
7
  6
CONTINUOUS
 10
13.1889867279
 20
8.5694105283
 11
13.1510196417
 21
8.563737137
  0
LINE
  5
28A
100
AcDbEntity
  8
0
100
AcDbLine
 62
4
  6
CONTINUOUS
 10
13.4066533611
 20
8.1450470495
 11
13.3988887954
 21
8.1447914985
  0
LINE
  5
28B
100
AcDbEntity
  8
0
100
AcDbLine
 62
7
  6
CONTINUOUS
 10
8.0458241495
 20
8.4683872255
 11
7.8398826176
 21
8.4826693193
  0
LINE
  5
28C
100
AcDbEntity
  8
0
100
AcDbLine
 62
7
  6
CONTINUOUS
 10
12.5665337961
 20
10.0782427034
 11
11.547305247
 21
9.0937434666
  0
LINE
  5
28D
100
AcDbEntity
  8
0
100
AcDbLine
 62
7
  6
CONTINUOUS
 10
11.6485034054
 20
9.1306400565
 11
12.4653356376
 21
9.9196394521
  0
LINE
  5
28E
100
AcDbEntity
  8
0
100
AcDbLine
 62
7
  6
CONTINUOUS
 10
8.0458241495
 20
8.5223080342
 11
7.8398826176
 21
8.5365901279
  0
LINE
  5
28F
100
AcDbEntity
  8
0
100
AcDbLine
 62
7
  6
CONTINUOUS
 10
13.1510196417
 20
8.563737137
 11
11.5514463436
 21
8.674667922
  0
LINE
  5
290
100
AcDbEntity
  8
0
100
AcDbLine
 62
4
  6
CONTINUOUS
 10
13.4195943021
 20
8.229991479
 11
13.388536043
 21
8.2362137224
  0
LINE
  5
291
100
AcDbEntity
  8
0
100
AcDbLine
 62
7
  6
CONTINUOUS
 10
8.0458241495
 20
9.0900851913
 11
7.9155924623
 21
9.0991167894
  0
LINE
  5
292
100
AcDbEntity
  8
0
100
AcDbLine
 62
7
  6
CONTINUOUS
 10
8.0458241495
 20
9.1299993391
 11
7.9281048185
 21
9.1381632024
  0
LINE
  5
293
100
AcDbEntity
  8
0
100
AcDbLine
 62
7
  6
CONTINUOUS
 10
11.547305247
 20
6.6789287578
 11
11.547305247
 21
9.0937434666
  0
LINE
  5
294
100
AcDbEntity
  8
0
100
AcDbLine
 62
7
  6
CONTINUOUS
 10
11.5514463436
 20
7.1050383613
 11
11.5514463436
 21
8.674667922
  0
LINE
  5
295
100
AcDbEntity
  8
0
100
AcDbLine
 62
7
  6
CONTINUOUS
 10
11.547305247
 20
9.0937434666
 11
8.0458241495
 21
9.3365720054
  0
LINE
  5
296
100
AcDbEntity
  8
0
100
AcDbLine
 62
7
  6
CONTINUOUS
 10
13.2480767035
 20
9.0197092715
 11
11.6485034054
 21
9.1306400565
  0
LINE
  5
297
100
AcDbEntity
  8
0
100
AcDbLine
 62
7
  6
CONTINUOUS
 10
14.0321358673
 20
9.0036786265
 11
13.9941787107
 21
9.0063109642
  0
LINE
  5
298
100
AcDbEntity
  8
0
100
AcDbLine
 62
4
  6
CONTINUOUS
 10
13.3988887954
 20
8.1447914985
 11
13.388536043
 21
8.1492803949
  0
LINE
  5
299
100
AcDbEntity
  8
0
100
AcDbLine
 62
7
  6
CONTINUOUS
 10
14.0461822048
 20
9.1080433805
 11
13.994724043
 21
9.1116120161
  0
LINE
  5
29A
100
AcDbEntity
  8
0
100
AcDbLine
 62
7
  6
CONTINUOUS
 10
13.2480767035
 20
9.0197092715
 11
14.0649089357
 21
9.8087086671
  0
LINE
  5
29B
100
AcDbEntity
  8
0
100
AcDbLine
 62
7
  6
CONTINUOUS
 10
13.2780204059
 20
8.9876889663
 11
14.0948526381
 21
9.7766883619
  0
LINE
  5
29C
100
AcDbEntity
  8
0
100
AcDbLine
 62
4
  6
CONTINUOUS
 10
13.4195943021
 20
8.1503025954
 11
13.4066533611
 21
8.1450470495
  0
LINE
  5
29D
100
AcDbEntity
  8
0
100
AcDbLine
 62
7
  6
CONTINUOUS
 10
12.5665337961
 20
9.9262998209
 11
12.5665337961
 21
10.0782427034
  0
LINE
  5
29E
100
AcDbEntity
  8
0
100
AcDbLine
 62
7
  6
CONTINUOUS
 10
11.6931377972
 20
6.8197921927
 11
11.547305247
 21
6.6789287578
  0
LINE
  5
29F
100
AcDbEntity
  8
0
100
AcDbLine
 62
7
  6
CONTINUOUS
 10
14.0192850353
 20
9.1868674935
 11
14.0190150311
 21
9.1866126391
  0
LINE
  5
2A0
100
AcDbEntity
  8
0
100
AcDbLine
 62
7
  6
CONTINUOUS
 10
14.0649089357
 20
9.8087086671
 11
12.4653356376
 21
9.9196394521
  0
LINE
  5
2A1
100
AcDbEntity
  8
0
100
AcDbLine
 62
7
  6
CONTINUOUS
 10
12.4912796625
 20
9.9315187127
 11
14.0908529606
 21
9.8205879277
  0
LINE
  5
2A2
100
AcDbEntity
  8
0
100
AcDbLine
 62
7
  6
CONTINUOUS
 10
12.5665337961
 20
10.0782427034
 11
9.0650526986
 21
10.3210712422
  0
LINE
  5
2A3
100
AcDbEntity
  8
0
100
AcDbLine
 62
7
  6
CONTINUOUS
 10
14.0190150311
 20
8.8243904328
 11
14.0183620038
 21
8.8237729536
  0
LINE
  5
2A4
100
AcDbEntity
  8
0
100
AcDbLine
 62
7
  6
CONTINUOUS
 10
14.0183663594
 20
8.8237752905
 11
14.0028724539
 21
8.8093552007
  0
LINE
  5
2A5
100
AcDbEntity
  8
0
100
AcDbLine
 62
7
  6
CONTINUOUS
 10
13.1510196417
 20
6.9941075763
 11
13.1510196417
 21
8.563737137
  0
LINE
  5
2A6
100
AcDbEntity
  8
0
100
AcDbLine
 62
7
  6
CONTINUOUS
 10
13.1889867279
 20
6.9997809675
 11
13.1889867279
 21
8.5694105283
  0
LINE
  5
2A7
100
AcDbEntity
  8
0
100
AcDbLine
 62
4
  6
CONTINUOUS
 10
13.388536043
 20
8.0043915156
 11
13.4195943021
 21
8.0343914919
  0
LINE
  5
2A8
100
AcDbEntity
  8
0
100
AcDbLine
 62
4
  6
CONTINUOUS
 10
13.388536043
 20
7.7725693087
 11
13.4195943021
 21
7.8025692851
  0
LINE
  5
2A9
100
AcDbEntity
  8
0
100
AcDbLine
 62
7
  6
CONTINUOUS
 10
13.2780204059
 20
8.9876889663
 11
13.2480767035
 21
9.0197092715
  0
LINE
  5
2AA
100
AcDbEntity
  8
0
100
AcDbLine
 62
4
  6
CONTINUOUS
 10
13.388536043
 20
8.1492803949
 11
13.388536043
 21
8.0913248431
  0
LINE
  5
2AB
100
AcDbEntity
  8
0
100
AcDbLine
 62
4
  6
CONTINUOUS
 10
13.388536043
 20
7.7363470889
 11
13.388536043
 21
7.8087915285
  0
LINE
  5
2AC
100
AcDbEntity
  8
0
100
AcDbLine
 62
4
  6
CONTINUOUS
 10
13.4040651725
 20
7.8817470684
 11
13.4040651725
 21
7.9252137322
  0
LINE
  5
2AD
100
AcDbEntity
  8
0
100
AcDbLine
 62
4
  6
CONTINUOUS
 10
13.4092415487
 20
8.2344803745
 11
13.4092415487
 21
8.2779470383
  0
LINE
  5
2AE
100
AcDbEntity
  8
0
100
AcDbLine
 62
4
  6
CONTINUOUS
 10
13.388536043
 20
8.2362137224
 11
13.4195943021
 21
8.3024359186
  0
LINE
  5
2AF
100
AcDbEntity
  8
0
100
AcDbLine
 62
7
  6
CONTINUOUS
 10
14.0948526381
 20
7.5425017933
 11
13.2780204059
 21
6.7535023977
  0
LINE
  5
2B0
100
AcDbEntity
  8
0
100
AcDbLine
 62
7
  6
CONTINUOUS
 10
13.2780204059
 20
6.7535023977
 11
13.2771788958
 21
6.7527045759
  0
LINE
  5
2B1
100
AcDbEntity
  8
0
100
AcDbLine
 62
7
  6
CONTINUOUS
 10
13.2471605005
 20
6.7247664532
 11
13.2771799423
 21
6.7527053773
  0
LINE
  5
2B2
100
AcDbEntity
  8
0
100
AcDbLine
 62
7
  6
CONTINUOUS
 10
14.0538574233
 20
9.3355408766
 11
14.040502339
 21
9.3519616507
  0
LINE
  5
2B3
100
AcDbEntity
  8
0
100
AcDbLine
 62
7
  6
CONTINUOUS
 10
14.1838863162
 20
9.5304097921
 11
14.1838863162
 21
7.9607802314
  0
LINE
  5
2B4
100
AcDbEntity
  8
0
100
AcDbLine
 62
7
  6
CONTINUOUS
 10
14.0948526381
 20
9.7766883619
 11
14.0649089357
 21
9.8087086671
  0
LINE
  5
2B5
100
AcDbEntity
  8
0
100
AcDbLine
 62
7
  6
CONTINUOUS
 10
14.1141213541
 20
9.8062281582
 11
14.1399968299
 21
9.7744129084
  0
ARC
  5
2B6
100
AcDbEntity
  8
0
100
AcDbCircle
 62
7
  6
CONTINUOUS
 10
10.1565585691
 20
8.5094393865
 40
2.3168350453
100
AcDbArc
 50
179.328541535
 51
179.9990932774
  0
ARC
  5
2B7
100
AcDbEntity
  8
0
100
AcDbCircle
 62
7
  6
CONTINUOUS
 10
10.0775782035
 20
8.5093535076
 40
2.2378546828
100
AcDbArc
 50
179.9968625215
 51
180.6832112997
  0
ARC
  5
2B8
100
AcDbEntity
  8
0
100
AcDbCircle
 62
7
  6
CONTINUOUS
 10
8.8779233571
 20
8.8122674913
 40
1.0041729287
100
AcDbArc
 50
161.0622054474
 51
163.401859189
  0
ARC
  5
2B9
100
AcDbEntity
  8
0
100
AcDbCircle
 62
7
  6
CONTINUOUS
 10
8.5768239406
 20
8.4380005949
 40
0.7576452018
100
AcDbArc
 50
199.8738264202
 51
202.6148349527
  0
ARC
  5
2BA
100
AcDbEntity
  8
0
100
AcDbCircle
 62
7
  6
CONTINUOUS
 10
9.7111119979
 20
8.2773677286
 40
0.6383736503
100
AcDbArc
 50
339.309329427
 51
339.4989377032
  0
ARC
  5
2BB
100
AcDbEntity
  8
0
100
AcDbCircle
 62
7
  6
CONTINUOUS
 10
9.7751593373
 20
8.2537331396
 40
0.570105362
100
AcDbArc
 50
339.469465527
 51
340.8343596248
  0
ARC
  5
2BC
100
AcDbEntity
  8
0
100
AcDbCircle
 62
7
  6
CONTINUOUS
 10
9.7212726559
 20
8.0849397072
 40
0.5323175504
100
AcDbArc
 50
319.5056943951
 51
319.7858110961
  0
ARC
  5
2BD
100
AcDbEntity
  8
0
100
AcDbCircle
 62
7
  6
CONTINUOUS
 10
14.0227933997
 20
8.9903970861
 40
0.0232929656
100
AcDbArc
 50
214.6639418077
 51
216.7740184535
  0
ARC
  5
2BE
100
AcDbEntity
  8
0
100
AcDbCircle
 62
7
  6
CONTINUOUS
 10
14.0207177937
 20
8.9888547904
 40
0.020707089
100
AcDbArc
 50
216.793940302
 51
219.0901123125
  0
SPLINE
  5
2BF
100
AcDbEntity
  8
0
100
AcDbSpline
 62
7
  6
CONTINUOUS
 70
0
 71
3
 72
43
 73
39
 74
0
 42
0.0000001
 43
0.0000001
 44
0.0000000001
 40
0.0
 40
0.0
 40
0.0
 40
0.0
 40
0.0075793067
 40
0.015737416
 40
0.0244899853
 40
0.0338466779
 40
0.0438125727
 40
0.0543882963
 40
0.0655709146
 40
0.0773551839
 40
0.1026953073
 40
0.1303160383
 40
0.1600910892
 40
0.191870642
 40
0.2254834594
 40
0.2607439394
 40
0.2974482099
 40
0.3353840644
 40
0.4140379596
 40
0.4948335329
 40
0.575826967
 40
0.615789383
 40
0.655072753
 40
0.6934425035
 40
0.7306713506
 40
0.7665400635
 40
0.800843067
 40
0.8333846229
 40
0.8639898274
 40
0.8924971034
 40
0.9187735154
 40
0.9427079776
 40
0.9537746404
 40
0.9642328073
 40
0.9740798652
 40
0.9833172141
 40
0.9919528344
 40
1.0
 40
1.0
 40
1.0
 40
1.0
 10
14.0190150311
 20
9.1866126391
 30
0.0
 10
14.0186219149
 20
9.1862329179
 30
0.0
 10
14.0178371325
 20
9.1854115167
 30
0.0
 10
14.0167038757
 20
9.1840557183
 30
0.0
 10
14.0155739539
 20
9.1825342746
 30
0.0
 10
14.0144494684
 20
9.1808498261
 30
0.0
 10
14.0133325595
 20
9.1790049192
 30
0.0
 10
14.0122249924
 20
9.1770026105
 30
0.0
 10
14.0111283129
 20
9.1748461809
 30
0.0
 10
14.0096468178
 20
9.1716928631
 30
0.0
 10
14.0078448987
 20
9.1673831541
 30
0.0
 10
14.0058011355
 20
9.1617760459
 30
0.0
 10
14.0038405499
 20
9.1556499988
 30
0.0
 10
14.0019759798
 20
9.1490441761
 30
0.0
 10
14.0002192859
 20
9.1420006047
 30
0.0
 10
13.9985823705
 20
9.1345643229
 30
0.0
 10
13.9970752327
 20
9.1267829427
 30
0.0
 10
13.9952307564
 20
9.1158826845
 30
0.0
 10
13.9933285487
 20
9.1017716229
 30
0.0
 10
13.9917155659
 20
9.0845035945
 30
0.0
 10
13.9909385374
 20
9.0699712799
 30
0.0
 10
13.9906750984
 20
9.0584183958
 30
0.0
 10
13.9906597453
 20
9.0499362168
 30
0.0
 10
13.9908258112
 20
9.0416528032
 30
0.0
 10
13.9911718149
 20
9.0336213368
 30
0.0
 10
13.9916959689
 20
9.0258933552
 30
0.0
 10
13.9923940408
 20
9.0185184725
 30
0.0
 10
13.9932622349
 20
9.0115438534
 30
0.0
 10
13.9942937936
 20
9.0050141213
 30
0.0
 10
13.9954828174
 20
8.998970689
 30
0.0
 10
13.9968205014
 20
8.993451999
 30
0.0
 10
13.9980831559
 20
8.9892144788
 30
0.0
 10
13.9991714731
 20
8.9861216303
 30
0.0
 10
13.9999979929
 20
8.9840151395
 30
0.0
 10
14.0008549339
 20
8.982064021
 30
0.0
 10
14.0017412241
 20
8.9802714002
 30
0.0
 10
14.0026552492
 20
8.9786399753
 30
0.0
 10
14.0033047488
 20
8.9776261708
 30
0.0
 10
14.0036348855
 20
8.9771489322
 30
0.0
  0
SPLINE
  5
2C0
100
AcDbEntity
  8
0
100
AcDbSpline
 62
7
  6
CONTINUOUS
 70
0
 71
3
 72
11
 73
7
 74
0
 42
0.0000001
 43
0.0000001
 44
0.0000000001
 40
0.0
 40
0.0
 40
0.0
 40
0.0
 40
0.2725415833
 40
0.5318756758
 40
0.7753491514
 40
1.0
 40
1.0
 40
1.0
 40
1.0
 10
14.0321358673
 20
9.1852726926
 30
0.0
 10
14.0303655878
 20
9.1847559955
 30
0.0
 10
14.0269212577
 20
9.1837111671
 30
0.0
 10
14.0219443066
 20
9.1820486823
 30
0.0
 10
14.0173336881
 20
9.1803215317
 30
0.0
 10
14.0144221626
 20
9.1790686954
 30
0.0
 10
14.0130472316
 20
9.1784204316
 30
0.0
  0
SPLINE
  5
2C1
100
AcDbEntity
  8
0
100
AcDbSpline
 62
7
  6
CONTINUOUS
 70
0
 71
3
 72
10
 73
6
 74
0
 42
0.0000001
 43
0.0000001
 44
0.0000000001
 40
0.0
 40
0.0
 40
0.0
 40
0.0
 40
0.2742472634
 40
0.5313857087
 40
1.0
 40
1.0
 40
1.0
 40
1.0
 10
14.002872454
 20
8.8093552409
 30
0.0
 10
14.0020551381
 20
8.808594659
 30
0.0
 10
14.0004206203
 20
8.8071731339
 30
0.0
 10
13.9971469714
 20
8.8047510057
 30
0.0
 10
13.9945401728
 20
8.8033045064
 30
0.0
 10
13.9927734158
 20
8.8025847734
 30
0.0
  0
SPLINE
  5
2C2
100
AcDbEntity
  8
0
100
AcDbSpline
 62
7
  6
CONTINUOUS
 70
0
 71
3
 72
52
 73
48
 74
0
 42
0.0000001
 43
0.0000001
 44
0.0000000001
 40
0.0
 40
0.0
 40
0.0
 40
0.0
 40
0.0075207344
 40
0.0156241858
 40
0.0243316716
 40
0.0336557033
 40
0.0436034124
 40
0.054177763
 40
0.0653763812
 40
0.0771930412
 40
0.0896195436
 40
0.1026455035
 40
0.1162568404
 40
0.1304378619
 40
0.1604394309
 40
0.1924952583
 40
0.2264289105
 40
0.2620436705
 40
0.2991298945
 40
0.3374629427
 40
0.3768096521
 40
0.4169269968
 40
0.4575668907
 40
0.4984762595
 40
0.5394005102
 40
0.5800843657
 40
0.6202751276
 40
0.6597231079
 40
0.6981858351
 40
0.7354273254
 40
0.7712236588
 40
0.8053614694
 40
0.8376440574
 40
0.8530328843
 40
0.8678925196
 40
0.8822035392
 40
0.8959477652
 40
0.9091100049
 40
0.9216765498
 40
0.933634922
 40
0.9449758256
 40
0.9556943482
 40
0.9657881061
 40
0.9752577793
 40
0.9841084693
 40
0.9923503893
 40
1.0
 40
1.0
 40
1.0
 40
1.0
 10
14.0538582777
 20
9.3355395042
 30
0.0
 10
14.0546944518
 20
9.3345113451
 30
0.0
 10
14.0563421125
 20
9.3323016792
 30
0.0
 10
14.0586606924
 20
9.3286918421
 30
0.0
 10
14.0609128541
 20
9.3246719355
 30
0.0
 10
14.0630954729
 20
9.3202489035
 30
0.0
 10
14.0652051761
 20
9.3154295412
 30
0.0
 10
14.0672381433
 20
9.3102212953
 30
0.0
 10
14.0691913129
 20
9.3046326983
 30
0.0
 10
14.0710616861
 20
9.2986730241
 30
0.0
 10
14.0728460144
 20
9.2923518848
 30
0.0
 10
14.0745409855
 20
9.2856795201
 30
0.0
 10
14.0761441878
 20
9.2786670699
 30
0.0
 10
14.07819443
 20
9.2686908124
 30
0.0
 10
14.080489072
 20
9.2554503315
 30
0.0
 10
14.0827906755
 20
9.2386898128
 30
0.0
 10
14.0846722168
 20
9.2208822676
 30
0.0
 10
14.0861219561
 20
9.2021455852
 30
0.0
 10
14.0871286913
 20
9.182603815
 30
0.0
 10
14.0876865147
 20
9.1623863984
 30
0.0
 10
14.0877905365
 20
9.1416275543
 30
0.0
 10
14.0874406396
 20
9.1204649416
 30
0.0
 10
14.086638517
 20
9.0990391408
 30
0.0
 10
14.0853896702
 20
9.0774923366
 30
0.0
 10
14.0837023951
 20
9.0559676531
 30
0.0
 10
14.0815876163
 20
9.0346079793
 30
0.0
 10
14.0790599899
 20
9.0135551426
 30
0.0
 10
14.0761356365
 20
8.9929488924
 30
0.0
 10
14.0728350761
 20
8.9729259439
 30
0.0
 10
14.0691793861
 20
8.9536191426
 30
0.0
 10
14.0651941976
 20
8.9351563126
 30
0.0
 10
14.060905209
 20
8.9176599517
 30
0.0
 10
14.0570438409
 20
8.9037678454
 30
0.0
 10
14.0538124485
 20
8.8932329524
 30
0.0
 10
14.0513702267
 20
8.8857699148
 30
0.0
 10
14.0488746042
 20
8.8786308244
 30
0.0
 10
14.0463293847
 20
8.8718276589
 30
0.0
 10
14.0437391661
 20
8.8653715091
 30
0.0
 10
14.0411084225
 20
8.8592729448
 30
0.0
 10
14.0384413737
 20
8.8535421915
 30
0.0
 10
14.0357422005
 20
8.8481886597
 30
0.0
 10
14.0330154804
 20
8.8432206501
 30
0.0
 10
14.0302654925
 20
8.8386459396
 30
0.0
 10
14.0274962092
 20
8.8344723067
 30
0.0
 10
14.024712476
 20
8.830706516
 30
0.0
 10
14.02191982
 20
8.8273550345
 30
0.0
 10
14.0199845603
 20
8.8253269261
 30
0.0
 10
14.0190150311
 20
8.8243904328
 30
0.0
  0
SPLINE
  5
2C3
100
AcDbEntity
  8
0
100
AcDbSpline
 62
7
  6
CONTINUOUS
 70
0
 71
3
 72
10
 73
6
 74
0
 42
0.0000001
 43
0.0000001
 44
0.0000000001
 40
0.0
 40
0.0
 40
0.0
 40
0.0
 40
0.467804714
 40
0.7250766303
 40
1.0
 40
1.0
 40
1.0
 40
1.0
 10
14.0312220887
 20
9.3601824624
 30
0.0
 10
14.0329128294
 20
9.3592261306
 30
0.0
 10
14.0353541039
 20
9.3574151104
 30
0.0
 10
14.0383276454
 20
9.3545149247
 30
0.0
 10
14.0397819978
 20
9.3528469861
 30
0.0
 10
14.040502299
 20
9.3519613586
 30
0.0
  0
SPLINE
  5
2C4
100
AcDbEntity
  8
0
100
AcDbSpline
 62
7
  6
CONTINUOUS
 70
0
 71
3
 72
20
 73
16
 74
0
 42
0.0000001
 43
0.0000001
 44
0.0000000001
 40
0.0
 40
0.0
 40
0.0
 40
0.0
 40
0.1279576444
 40
0.1917806282
 40
0.2554383146
 40
0.3820829438
 40
0.4450588685
 40
0.5077435858
 40
0.5701251026
 40
0.6322109476
 40
0.6940157485
 40
0.75557502
 40
0.8169179634
 40
0.8780932185
 40
1.0
 40
1.0
 40
1.0
 40
1.0
 10
14.0461822048
 20
9.1080433805
 30
0.0
 10
14.0435989025
 20
9.1041285025
 30
0.0
 10
14.0399172027
 20
9.0981291426
 30
0.0
 10
14.0355545535
 20
9.0898404825
 30
0.0
 10
14.0316335535
 20
9.081387946
 30
0.0
 10
14.0284489529
 20
9.0726353253
 30
0.0
 10
14.0262074855
 20
9.0636556218
 30
0.0
 10
14.0250279363
 20
9.0568577282
 30
0.0
 10
14.0243701356
 20
9.0500226389
 30
0.0
 10
14.0242219556
 20
9.0431901271
 30
0.0
 10
14.0245657989
 20
9.0363954912
 30
0.0
 10
14.0253578627
 20
9.029666804
 30
0.0
 10
14.0265556132
 20
9.0230224995
 30
0.0
 10
14.028622688
 20
9.0143013032
 30
0.0
 10
14.0306397032
 20
9.0078892988
 30
0.0
 10
14.0321358673
 20
9.0036786265
 30
0.0
  0
SPLINE
  5
2C5
100
AcDbEntity
  8
0
100
AcDbSpline
 62
7
  6
CONTINUOUS
 70
0
 71
3
 72
23
 73
19
 74
0
 42
0.0000001
 43
0.0000001
 44
0.0000000001
 40
0.0
 40
0.0
 40
0.0
 40
0.0
 40
0.114410013
 40
0.1714388058
 40
0.2285138174
 40
0.2858716518
 40
0.3437940818
 40
0.4026189877
 40
0.4626690718
 40
0.5242296999
 40
0.5874722307
 40
0.6197545295
 40
0.6524722484
 40
0.7191568816
 40
0.7874155163
 40
0.8570974724
 40
0.9280163351
 40
1.0
 40
1.0
 40
1.0
 40
1.0
 10
14.0321358673
 20
9.1852726926
 30
0.0
 10
14.0306486722
 20
9.1824206429
 30
0.0
 10
14.0286312838
 20
9.1780266956
 30
0.0
 10
14.0265569062
 20
9.1719414107
 30
0.0
 10
14.025356995
 20
9.1672668806
 30
0.0
 10
14.0245638892
 20
9.1624799571
 30
0.0
 10
14.0242211184
 20
9.1575893344
 30
0.0
 10
14.024373066
 20
9.1526127299
 30
0.0
 10
14.0250370512
 20
9.1475750035
 30
0.0
 10
14.0262234595
 20
9.1425073035
 30
0.0
 10
14.0276177969
 20
9.1383106749
 30
0.0
 10
14.0289640325
 20
9.1349652382
 30
0.0
 10
14.0304775275
 20
9.1315856806
 30
0.0
 10
14.032636259
 20
9.1273910396
 30
0.0
 10
14.0355827944
 20
9.1224466356
 30
0.0
 10
14.0388508916
 20
9.1175655063
 30
0.0
 10
14.0423945658
 20
9.1127508361
 30
0.0
 10
14.044897156
 20
9.1096067663
 30
0.0
 10
14.0461822048
 20
9.1080433805
 30
0.0
  0
SPLINE
  5
2C6
100
AcDbEntity
  8
0
100
AcDbSpline
 62
7
  6
CONTINUOUS
 70
0
 71
3
 72
23
 73
19
 74
0
 42
0.0000001
 43
0.0000001
 44
0.0000000001
 40
0.0
 40
0.0
 40
0.0
 40
0.0
 40
0.0763131026
 40
0.1485921424
 40
0.2171095861
 40
0.2821978533
 40
0.3442581066
 40
0.4037741751
 40
0.461317992
 40
0.517526008
 40
0.5730826003
 40
0.6286983086
 40
0.6850820087
 40
0.742908198
 40
0.8027962409
 40
0.8652986807
 40
0.9308968576
 40
1.0
 40
1.0
 40
1.0
 40
1.0
 10
14.0183619996
 20
8.8237712717
 30
0.0
 10
14.017709902
 20
8.8231645943
 30
0.0
 10
14.0164061094
 20
8.8220190721
 30
0.0
 10
14.0143961171
 20
8.8204729464
 30
0.0
 10
14.0123882405
 20
8.8191486163
 30
0.0
 10
14.0103842462
 20
8.8180478634
 30
0.0
 10
14.0083857129
 20
8.8171725712
 30
0.0
 10
14.0063942787
 20
8.8165246366
 30
0.0
 10
14.0044119418
 20
8.8161049664
 30
0.0
 10
14.0024407647
 20
8.8159144282
 30
0.0
 10
14.0004831335
 20
8.8159536456
 30
0.0
 10
13.9985416409
 20
8.8162228865
 30
0.0
 10
13.9966189568
 20
8.8167218281
 30
0.0
 10
13.994717335
 20
8.81744894
 30
0.0
 10
13.9928386595
 20
8.8184026511
 30
0.0
 10
13.9909844677
 20
8.8195814765
 30
0.0
 10
13.9891562533
 20
8.8209839744
 30
0.0
 10
13.9879877448
 20
8.8220383302
 30
0.0
 10
13.9874080887
 20
8.8225991073
 30
0.0
  0
SPLINE
  5
2C7
100
AcDbEntity
  8
0
100
AcDbSpline
 62
7
  6
CONTINUOUS
 70
0
 71
3
 72
18
 73
14
 74
0
 42
0.0000001
 43
0.0000001
 44
0.0000000001
 40
0.0
 40
0.0
 40
0.0
 40
0.0
 40
0.0425224165
 40
0.0879895544
 40
0.1364479599
 40
0.1879079741
 40
0.242332731
 40
0.2996292779
 40
0.4223401297
 40
0.5549588681
 40
0.696246145
 40
0.8449609596
 40
1.0
 40
1.0
 40
1.0
 40
1.0
 10
14.0040431799
 20
8.9910850232
 30
0.0
 10
14.004359449
 20
8.9913905157
 30
0.0
 10
14.0050388668
 20
8.991997096
 30
0.0
 10
14.0061508765
 20
8.99286688
 30
0.0
 10
14.0073857522
 20
8.9937256272
 30
0.0
 10
14.0087396248
 20
8.9945718665
 30
0.0
 10
14.0102077334
 20
8.9954046855
 30
0.0
 10
14.0123590826
 20
8.996523031
 30
0.0
 10
14.0152980068
 20
8.9978744042
 30
0.0
 10
14.0191033271
 20
8.9994072313
 30
0.0
 10
14.0232156632
 20
9.0008887621
 30
0.0
 10
14.0275895406
 20
9.0023216221
 30
0.0
 10
14.0305968471
 20
9.0032294278
 30
0.0
 10
14.0321358673
 20
9.0036786265
 30
0.0
  0
SPLINE
  5
2C8
100
AcDbEntity
  8
0
100
AcDbSpline
 62
7
  6
CONTINUOUS
 70
0
 71
3
 72
15
 73
11
 74
0
 42
0.0000001
 43
0.0000001
 44
0.0000000001
 40
0.0
 40
0.0
 40
0.0
 40
0.0
 40
0.1184199586
 40
0.2335456869
 40
0.3474463534
 40
0.4628114041
 40
0.5827314659
 40
0.7104618824
 40
0.8488173292
 40
1.0
 40
1.0
 40
1.0
 40
1.0
 10
14.0013031701
 20
8.9812078098
 30
0.0
 10
14.0011561713
 20
8.981613185
 30
0.0
 10
14.0009114367
 20
8.982430331
 30
0.0
 10
14.0007153388
 20
8.9836845775
 30
0.0
 10
14.0007143712
 20
8.9849440866
 30
0.0
 10
14.0009241683
 20
8.9862041706
 30
0.0
 10
14.0013568196
 20
8.9874595321
 30
0.0
 10
14.0020229565
 20
8.9887033608
 30
0.0
 10
14.002924034
 20
8.9899319143
 30
0.0
 10
14.0036472271
 20
8.9907025621
 30
0.0
 10
14.0040431799
 20
8.9910850232
 30
0.0
  0
SPLINE
  5
2C9
100
AcDbEntity
  8
0
100
AcDbSpline
 62
7
  6
CONTINUOUS
 70
0
 71
3
 72
23
 73
19
 74
0
 42
0.0000001
 43
0.0000001
 44
0.0000000001
 40
0.0
 40
0.0
 40
0.0
 40
0.0
 40
0.0692830398
 40
0.1350469054
 40
0.197679822
 40
0.2576494332
 40
0.3155150651
 40
0.3719056675
 40
0.4275022679
 40
0.4830172353
 40
0.5391673933
 40
0.5966407294
 40
0.6560724733
 40
0.7180319617
 40
0.7830168308
 40
0.8514523566
 40
0.9236863416
 40
1.0
 40
1.0
 40
1.0
 40
1.0
 10
14.0232384006
 20
9.3408910245
 30
0.0
 10
14.0238925465
 20
9.3413724718
 30
0.0
 10
14.0252007589
 20
9.3422672029
 30
0.0
 10
14.0272134174
 20
9.3434212103
 30
0.0
 10
14.0292210075
 20
9.3443485403
 30
0.0
 10
14.0312218322
 20
9.345047045
 30
0.0
 10
14.0332139291
 20
9.3455156891
 30
0.0
 10
14.0351952408
 20
9.3457535847
 30
0.0
 10
14.0371634123
 20
9.3457600237
 30
0.0
 10
14.0391158477
 20
9.3455346757
 30
0.0
 10
14.0410498207
 20
9.345077658
 30
0.0
 10
14.0429629455
 20
9.3443903765
 30
0.0
 10
14.0448532612
 20
9.3434744454
 30
0.0
 10
14.04671913
 20
9.3423314109
 30
0.0
 10
14.0485591437
 20
9.3409626793
 30
0.0
 10
14.0503718587
 20
9.339369493
 30
0.0
 10
14.0521561591
 20
9.3375537899
 30
0.0
 10
14.0532938016
 20
9.3362335837
 30
0.0
 10
14.0538582777
 20
9.3355395042
 30
0.0
  0
SPLINE
  5
2CA
100
AcDbEntity
  8
0
100
AcDbSpline
 62
7
  6
CONTINUOUS
 70
0
 71
3
 72
54
 73
50
 74
0
 42
0.0000001
 43
0.0000001
 44
0.0000000001
 40
0.0
 40
0.0
 40
0.0
 40
0.0
 40
0.0086007063
 40
0.0180013121
 40
0.0282245273
 40
0.0392821733
 40
0.0511770453
 40
0.0639043917
 40
0.0774547827
 40
0.091814537
 40
0.1069621383
 40
0.1228720285
 40
0.1568645699
 40
0.1935351672
 40
0.2325880819
 40
0.2736916608
 40
0.3164919208
 40
0.3606110468
 40
0.4056583164
 40
0.4512303841
 40
0.4969192133
 40
0.5423143242
 40
0.5870098801
 40
0.6306063328
 40
0.6727191713
 40
0.712979107
 40
0.7510419255
 40
0.7865904611
 40
0.819342584
 40
0.8345952089
 40
0.849064206
 40
0.8627269912
 40
0.8755674627
 40
0.8875754386
 40
0.898745099
 40
0.9090779845
 40
0.918588093
 40
0.9273007512
 40
0.9352559376
 40
0.9425164512
 40
0.9491731625
 40
0.9553482378
 40
0.9611992437
 40
0.9669155621
 40
0.9727007343
 40
0.9787514506
 40
0.985237
 40
0.9922877177
 40
1.0
 40
1.0
 40
1.0
 40
1.0
 10
14.0190150311
 20
8.9750748706
 30
0.0
 10
14.0194984407
 20
8.9755418084
 30
0.0
 10
14.0204623763
 20
8.9765692199
 30
0.0
 10
14.0218423609
 20
8.9782919331
 30
0.0
 10
14.0232160283
 20
8.9802588421
 30
0.0
 10
14.0245794085
 20
8.9824652463
 30
0.0
 10
14.0259291851
 20
8.9849060076
 30
0.0
 10
14.0272625685
 20
8.9875752361
 30
0.0
 10
14.0285764872
 20
8.9904669597
 30
0.0
 10
14.0298676634
 20
8.9935746633
 30
0.0
 10
14.0311332978
 20
8.9968909281
 30
0.0
 10
14.0328201003
 20
9.0016867229
 30
0.0
 10
14.0348298357
 20
9.008149116
 30
0.0
 10
14.0370440903
 20
9.0164339225
 30
0.0
 10
14.039088692
 20
9.0253331813
 30
0.0
 10
14.0409446283
 20
9.0347620886
 30
0.0
 10
14.042593019
 20
9.0446309509
 30
0.0
 10
14.0440185936
 20
9.0548455936
 30
0.0
 10
14.0452070852
 20
9.0653084864
 30
0.0
 10
14.0461472772
 20
9.0759197162
 30
0.0
 10
14.0468301747
 20
9.0865778387
 30
0.0
 10
14.0472489689
 20
9.0971810718
 30
0.0
 10
14.0474002443
 20
9.1076280224
 30
0.0
 10
14.0472820048
 20
9.1178189736
 30
0.0
 10
14.0468963215
 20
9.1276565691
 30
0.0
 10
14.0462464567
 20
9.1370470127
 30
0.0
 10
14.0453395822
 20
9.1459009577
 30
0.0
 10
14.0441844128
 20
9.1541341014
 30
0.0
 10
14.0429984579
 20
9.160557548
 30
0.0
 10
14.0419217619
 20
9.1653198904
 30
0.0
 10
14.0410791144
 20
9.1686043013
 30
0.0
 10
14.0401838795
 20
9.1716789969
 30
0.0
 10
14.0392382433
 20
9.1745367894
 30
0.0
 10
14.0382447039
 20
9.1771711829
 30
0.0
 10
14.0372055163
 20
9.1795760504
 30
0.0
 10
14.0361226787
 20
9.1817457392
 30
0.0
 10
14.0349988501
 20
9.1836756425
 30
0.0
 10
14.0338363267
 20
9.1853617411
 30
0.0
 10
14.0326366391
 20
9.1868000874
 30
0.0
 10
14.0314012432
 20
9.187987212
 30
0.0
 10
14.0301316085
 20
9.1889200265
 30
0.0
 10
14.0288288291
 20
9.1895941157
 30
0.0
 10
14.0274954266
 20
9.1900031115
 30
0.0
 10
14.0261376677
 20
9.1901424157
 30
0.0
 10
14.0247637858
 20
9.1900108134
 30
0.0
 10
14.0233814379
 20
9.1896105949
 30
0.0
 10
14.0219955652
 20
9.1889470973
 30
0.0
 10
14.0206085327
 20
9.1880263898
 30
0.0
 10
14.0197263111
 20
9.1872791019
 30
0.0
 10
14.0192850382
 20
9.1868686237
 30
0.0
  0
SPLINE
  5
2CB
100
AcDbEntity
  8
0
100
AcDbSpline
 62
7
  6
CONTINUOUS
 70
0
 71
3
 72
21
 73
17
 74
0
 42
0.0000001
 43
0.0000001
 44
0.0000000001
 40
0.0
 40
0.0
 40
0.0
 40
0.0
 40
0.1439903856
 40
0.2097046377
 40
0.2717890401
 40
0.3308081086
 40
0.3874323522
 40
0.4424387743
 40
0.4966836257
 40
0.5510596797
 40
0.6064537761
 40
0.6637059519
 40
0.7235674236
 40
0.7866664477
 40
0.8535213386
 40
1.0
 40
1.0
 40
1.0
 40
1.0
 10
14.0046458782
 20
8.9757981037
 30
0.0
 10
14.005154278
 20
8.9751730721
 30
0.0
 10
14.0059534462
 20
8.9743055887
 30
0.0
 10
14.0071220685
 20
8.9733296774
 30
0.0
 10
14.0079862496
 20
8.9727382955
 30
0.0
 10
14.0088639127
 20
8.9722662898
 30
0.0
 10
14.0097543466
 20
8.9719149377
 30
0.0
 10
14.0106563323
 20
8.9716853311
 30
0.0
 10
14.0115683248
 20
8.9715780198
 30
0.0
 10
14.0124886327
 20
8.9715932973
 30
0.0
 10
14.0134155692
 20
8.9717310353
 30
0.0
 10
14.0143476018
 20
8.9719908584
 30
0.0
 10
14.0152833418
 20
8.9723719281
 30
0.0
 10
14.0162218829
 20
8.9728728303
 30
0.0
 10
14.0175147888
 20
8.9737248748
 30
0.0
 10
14.0184255214
 20
8.9745054479
 30
0.0
 10
14.0190150311
 20
8.9750748706
 30
0.0
  0
SPLINE
  5
2CC
100
AcDbEntity
  8
0
100
AcDbSpline
 62
7
  6
CONTINUOUS
 70
0
 71
3
 72
29
 73
25
 74
0
 42
0.0000001
 43
0.0000001
 44
0.0000000001
 40
0.0
 40
0.0
 40
0.0
 40
0.0
 40
0.0712694795
 40
0.1436247345
 40
0.2165533993
 40
0.2895567269
 40
0.3621246814
 40
0.433754896
 40
0.503952326
 40
0.5722350301
 40
0.638138593
 40
0.7012208551
 40
0.7315740076
 40
0.7610689842
 40
0.7896587401
 40
0.8172996717
 40
0.8439498268
 40
0.8695710206
 40
0.8941280784
 40
0.9175890721
 40
0.9399271287
 40
0.9611187394
 40
0.9811468825
 40
1.0
 40
1.0
 40
1.0
 40
1.0
 10
7.8161136838
 20
8.5322813665
 30
0.0
 10
7.8161136838
 20
8.5478214156
 30
0.0
 10
7.8164778752
 20
8.5791393092
 30
0.0
 10
7.8180727374
 20
8.6263346018
 30
0.0
 10
7.8207106317
 20
8.6738619229
 30
0.0
 10
7.8243714376
 20
8.7213678455
 30
0.0
 10
7.8290284862
 20
8.7685020638
 30
0.0
 10
7.8346469522
 20
8.8149152915
 30
0.0
 10
7.8411850501
 20
8.8602643003
 30
0.0
 10
7.8485938566
 20
8.9042138463
 30
0.0
 10
7.8568180552
 20
8.9464388174
 30
0.0
 10
7.8643933903
 20
8.9803516762
 30
0.0
 10
7.8708362208
 20
9.0063713466
 30
0.0
 10
7.8757702911
 20
9.0250139095
 30
0.0
 10
7.8808595303
 20
9.0430009126
 30
0.0
 10
7.8860940183
 20
9.0602991989
 30
0.0
 10
7.8914644301
 20
9.0768767686
 30
0.0
 10
7.8969605611
 20
9.0927030629
 30
0.0
 10
7.9025720968
 20
9.1077489535
 30
0.0
 10
7.9082889989
 20
9.1219866869
 30
0.0
 10
7.9141000604
 20
9.1353902621
 30
0.0
 10
7.9199951831
 20
9.1479351163
 30
0.0
 10
7.9259629064
 20
9.159598232
 30
0.0
 10
7.9301085206
 20
9.1669966018
 30
0.0
 10
7.9321968909
 20
9.1705374808
 30
0.0
  0
SPLINE
  5
2CD
100
AcDbEntity
  8
0
100
AcDbSpline
 62
7
  6
CONTINUOUS
 70
0
 71
3
 72
9
 73
5
 74
0
 42
0.0000001
 43
0.0000001
 44
0.0000000001
 40
0.0
 40
0.0
 40
0.0
 40
0.0
 40
0.4794076852
 40
1.0
 40
1.0
 40
1.0
 40
1.0
 10
7.9281048185
 20
8.0515284595
 30
0.0
 10
7.9258784672
 20
8.0536990094
 30
0.0
 10
7.9214841211
 20
8.0584859551
 30
0.0
 10
7.917542249
 20
8.0636462812
 30
0.0
 10
7.9155924623
 20
8.0664028551
 30
0.0
  0
SPLINE
  5
2CE
100
AcDbEntity
  8
0
100
AcDbSpline
 62
7
  6
CONTINUOUS
 70
0
 71
3
 72
9
 73
5
 74
0
 42
0.0000001
 43
0.0000001
 44
0.0000000001
 40
0.0
 40
0.0
 40
0.0
 40
0.0
 40
0.5041850575
 40
1.0
 40
1.0
 40
1.0
 40
1.0
 10
7.9155924623
 20
8.0664028551
 30
0.0
 10
7.9085943762
 20
8.0796015149
 30
0.0
 10
7.8952183274
 20
8.1060512906
 30
0.0
 10
7.883079213
 20
8.1330969597
 30
0.0
 10
7.8774335594
 20
8.1466599926
 30
0.0
  0
SPLINE
  5
2CF
100
AcDbEntity
  8
0
100
AcDbSpline
 62
7
  6
CONTINUOUS
 70
0
 71
3
 72
23
 73
19
 74
0
 42
0.0000001
 43
0.0000001
 44
0.0000000001
 40
0.0
 40
0.0
 40
0.0
 40
0.0
 40
0.0422049582
 40
0.0875770255
 40
0.1360736519
 40
0.1876263295
 40
0.2421500124
 40
0.2995404153
 40
0.3596814437
 40
0.4224416151
 40
0.4876806874
 40
0.5552466654
 40
0.624980201
 40
0.6967094848
 40
0.7702589702
 40
0.8454538736
 40
0.9221090702
 40
1.0
 40
1.0
 40
1.0
 40
1.0
 10
7.8635127956
 20
8.1801058591
 30
0.0
 10
7.8615817415
 20
8.1847453754
 30
0.0
 10
7.8578341945
 20
8.1944817434
 30
0.0
 10
7.8526932085
 20
8.2098512813
 30
0.0
 10
7.8478426482
 20
8.2264774298
 30
0.0
 10
7.8432951425
 20
8.2443150419
 30
0.0
 10
7.8390640305
 20
8.2633163561
 30
0.0
 10
7.835160249
 20
8.2834299363
 30
0.0
 10
7.8315953898
 20
8.3046012432
 30
0.0
 10
7.828378612
 20
8.3267727391
 30
0.0
 10
7.8255195317
 20
8.3498840963
 30
0.0
 10
7.8230254463
 20
8.3738724825
 30
0.0
 10
7.820903953
 20
8.3986722616
 30
0.0
 10
7.8191602496
 20
8.4242155204
 30
0.0
 10
7.8177997299
 20
8.450433146
 30
0.0
 10
7.8168257834
 20
8.4772548445
 30
0.0
 10
7.816241722
 20
8.5046048064
 30
0.0
 10
7.8161136838
 20
8.5230068944
 30
0.0
 10
7.8161136838
 20
8.5322813665
 30
0.0
  0
SPLINE
  5
2D0
100
AcDbEntity
  8
0
100
AcDbSpline
 62
7
  6
CONTINUOUS
 70
0
 71
3
 72
18
 73
14
 74
0
 42
0.0000001
 43
0.0000001
 44
0.0000000001
 40
0.0
 40
0.0
 40
0.0
 40
0.0
 40
0.0471015429
 40
0.0958385325
 40
0.1463717074
 40
0.1988411177
 40
0.2533717216
 40
0.3100560686
 40
0.430134895
 40
0.5593823366
 40
0.697719534
 40
0.8447809064
 40
1.0
 40
1.0
 40
1.0
 40
1.0
 10
7.9413806179
 20
9.1861080373
 30
0.0
 10
7.9424516423
 20
9.1879261672
 30
0.0
 10
7.9447414727
 20
9.1915614692
 30
0.0
 10
7.9485455527
 20
9.1969065481
 30
0.0
 10
7.9527802554
 20
9.2022283093
 30
0.0
 10
7.9574491126
 20
9.2075244173
 30
0.0
 10
7.9625551101
 20
9.2127913038
 30
0.0
 10
7.9700884439
 20
9.2199100273
 30
0.0
 10
7.9806270472
 20
9.2287006157
 30
0.0
 10
7.9946970211
 20
9.2388996232
 30
0.0
 10
8.0103373096
 20
9.2489377283
 30
0.0
 10
8.0274359209
 20
9.2588126207
 30
0.0
 10
8.0394190274
 20
9.2651277975
 30
0.0
 10
8.0456206558
 20
9.2682734168
 30
0.0
  0
SPLINE
  5
2D1
100
AcDbEntity
  8
0
100
AcDbSpline
 62
7
  6
CONTINUOUS
 70
0
 71
3
 72
11
 73
7
 74
0
 42
0.0000001
 43
0.0000001
 44
0.0000000001
 40
0.0
 40
0.0
 40
0.0
 40
0.0
 40
0.2456411742
 40
0.4929215352
 40
0.7436662094
 40
1.0
 40
1.0
 40
1.0
 40
1.0
 10
7.9281048185
 20
9.1381632024
 30
0.0
 10
7.9281197599
 20
9.1408090582
 30
0.0
 10
7.9283535887
 20
9.1461198996
 30
0.0
 10
7.9293658147
 20
9.154075492
 30
0.0
 10
7.9310910842
 20
9.1620262257
 30
0.0
 10
7.9327278145
 20
9.167246442
 30
0.0
 10
7.9336711115
 20
9.1698413816
 30
0.0
  0
SPLINE
  5
2D2
100
AcDbEntity
  8
0
100
AcDbSpline
 62
7
  6
CONTINUOUS
 70
0
 71
3
 72
9
 73
5
 74
0
 42
0.0000001
 43
0.0000001
 44
0.0000000001
 40
0.0
 40
0.0
 40
0.0
 40
0.0
 40
0.4899846731
 40
1.0
 40
1.0
 40
1.0
 40
1.0
 10
7.9336711115
 20
9.1698413816
 30
0.0
 10
7.9346766349
 20
9.1726075014
 30
0.0
 10
7.9369994393
 20
9.1781576994
 30
0.0
 10
7.9398256894
 20
9.1834684505
 30
0.0
 10
7.9413806179
 20
9.1861080373
 30
0.0
  0
SPLINE
  5
2D3
100
AcDbEntity
  8
0
100
AcDbSpline
 62
7
  6
CONTINUOUS
 70
0
 71
3
 72
15
 73
11
 74
0
 42
0.0000001
 43
0.0000001
 44
0.0000000001
 40
0.0
 40
0.0
 40
0.0
 40
0.0
 40
0.1321990855
 40
0.2618403048
 40
0.3890452197
 40
0.5140751808
 40
0.6372930342
 40
0.7591033803
 40
0.8798948361
 40
1.0
 40
1.0
 40
1.0
 40
1.0
 10
7.8643014205
 20
8.1804391261
 30
0.0
 10
7.8597126311
 20
8.1931660492
 30
0.0
 10
7.8513505762
 20
8.2186449496
 30
0.0
 10
7.8414189708
 20
8.2572308848
 30
0.0
 10
7.8343583533
 20
8.2957028398
 30
0.0
 10
7.8301990315
 20
8.3339346639
 30
0.0
 10
7.8288543625
 20
8.3718140496
 30
0.0
 10
7.8301390998
 20
8.409257601
 30
0.0
 10
7.8338027156
 20
8.4462174249
 30
0.0
 10
7.8376539633
 20
8.4705818033
 30
0.0
 10
7.8398826176
 20
8.4826693193
 30
0.0
  0
SPLINE
  5
2D4
100
AcDbEntity
  8
0
100
AcDbSpline
 62
7
  6
CONTINUOUS
 70
0
 71
3
 72
21
 73
17
 74
0
 42
0.0000001
 43
0.0000001
 44
0.0000000001
 40
0.0
 40
0.0
 40
0.0
 40
0.0
 40
0.1231553579
 40
0.1848958394
 40
0.2467570542
 40
0.3087492493
 40
0.3708816145
 40
0.4331617231
 40
0.495593527
 40
0.5581779949
 40
0.6209127295
 40
0.6837916681
 40
0.7468067323
 40
0.8099475791
 40
0.8732024288
 40
1.0
 40
1.0
 40
1.0
 40
1.0
 10
7.8398826176
 20
8.5365901279
 30
0.0
 10
7.8368270918
 20
8.559987582
 30
0.0
 10
7.8331057444
 20
8.595240093
 30
0.0
 10
7.8302178761
 20
8.6424353553
 30
0.0
 10
7.829172547
 20
8.677985818
 30
0.0
 10
7.8293311922
 20
8.7136267752
 30
0.0
 10
7.8307625599
 20
8.7493204603
 30
0.0
 10
7.8335199173
 20
8.7850212135
 30
0.0
 10
7.8376336401
 20
8.8206786285
 30
0.0
 10
7.843108593
 20
8.8562406145
 30
0.0
 10
7.8499258349
 20
8.8916567464
 30
0.0
 10
7.8580419126
 20
8.9268820564
 30
0.0
 10
7.8673923472
 20
8.9618796514
 30
0.0
 10
7.8778995438
 20
8.9966222711
 30
0.0
 10
7.8933455349
 20
9.0426141944
 30
0.0
 10
7.9063803402
 20
9.0766371703
 30
0.0
 10
7.9155924623
 20
9.0991167894
 30
0.0
  0
SPLINE
  5
2D5
100
AcDbEntity
  8
0
100
AcDbSpline
 62
7
  6
CONTINUOUS
 70
0
 71
3
 72
40
 73
36
 74
0
 42
0.0000001
 43
0.0000001
 44
0.0000000001
 40
0.0
 40
0.0
 40
0.0
 40
0.0
 40
0.0311444623
 40
0.0624429464
 40
0.0938877347
 40
0.1254702907
 40
0.1571779705
 40
0.188996169
 40
0.2209078941
 40
0.2528943766
 40
0.2849353707
 40
0.3170095775
 40
0.3490950548
 40
0.3811696427
 40
0.4132113916
 40
0.4451989867
 40
0.4771121643
 40
0.5089321125
 40
0.5406418522
 40
0.5722265907
 40
0.603674042
 40
0.6349747068
 40
0.6661221049
 40
0.6971129533
 40
0.727947284
 40
0.7586284939
 40
0.7891633219
 40
0.8195617482
 40
0.8498368162
 40
0.8800043756
 40
0.9100827498
 40
0.9400923353
 40
0.9550810224
 40
0.9700608656
 40
1.0
 40
1.0
 40
1.0
 40
1.0
 10
8.7702685621
 20
7.3395080078
 30
0.0
 10
8.7735824922
 20
7.339278186
 30
0.0
 10
8.7802123818
 20
7.3385748183
 30
0.0
 10
8.7900768131
 20
7.3368031075
 30
0.0
 10
8.7998356187
 20
7.3343213631
 30
0.0
 10
8.8094360163
 20
7.3311430969
 30
0.0
 10
8.8188270648
 20
7.327285229
 30
0.0
 10
8.8279586506
 20
7.3227684564
 30
0.0
 10
8.8367821325
 20
7.3176168895
 30
0.0
 10
8.8452504943
 20
7.3118580441
 30
0.0
 10
8.8533186158
 20
7.3055226443
 30
0.0
 10
8.8609435064
 20
7.2986444797
 30
0.0
 10
8.8680845312
 20
7.2912602195
 30
0.0
 10
8.8747036268
 20
7.2834092221
 30
0.0
 10
8.8807655046
 20
7.2751333281
 30
0.0
 10
8.886237834
 20
7.2664766369
 30
0.0
 10
8.8910914139
 20
7.2574852742
 30
0.0
 10
8.8953003274
 20
7.2482071494
 30
0.0
 10
8.8988420787
 20
7.2386917037
 30
0.0
 10
8.9016977139
 20
7.22898965
 30
0.0
 10
8.9038519221
 20
7.2191527064
 30
0.0
 10
8.9052931192
 20
7.2092333246
 30
0.0
 10
8.9060135116
 20
7.1992844139
 30
0.0
 10
8.9060091415
 20
7.1893590625
 30
0.0
 10
8.9052799144
 20
7.1795102578
 30
0.0
 10
8.9038296066
 20
7.1697906037
 30
0.0
 10
8.901665848
 20
7.160252043
 30
0.0
 10
8.8988000829
 20
7.1509455719
 30
0.0
 10
8.8952475402
 20
7.1419209967
 30
0.0
 10
8.8910270631
 20
7.1332265452
 30
0.0
 10
8.8861613699
 20
7.1249090474
 30
0.0
 10
8.8815878115
 20
7.1183251855
 30
0.0
 10
8.8776356404
 20
7.1132928224
 30
0.0
 10
8.8734949567
 20
7.1084246594
 30
0.0
 10
8.8701775308
 20
7.1049589592
 30
0.0
 10
8.8678807179
 20
7.1027404017
 30
0.0
  0
SPLINE
  5
2D6
100
AcDbEntity
  8
0
100
AcDbSpline
 62
7
  6
CONTINUOUS
 70
0
 71
3
 72
40
 73
36
 74
0
 42
0.0000001
 43
0.0000001
 44
0.0000000001
 40
0.0
 40
0.0
 40
0.0
 40
0.0
 40
0.0311444623
 40
0.0624429464
 40
0.0938877347
 40
0.1254702907
 40
0.1571779705
 40
0.188996169
 40
0.2209078941
 40
0.2528943766
 40
0.2849353707
 40
0.3170095775
 40
0.3490950548
 40
0.3811696427
 40
0.4132113916
 40
0.4451989867
 40
0.4771121643
 40
0.5089321125
 40
0.5406418522
 40
0.5722265907
 40
0.603674042
 40
0.6349747068
 40
0.6661221049
 40
0.6971129533
 40
0.727947284
 40
0.7586284939
 40
0.7891633219
 40
0.8195617482
 40
0.8498368162
 40
0.8800043756
 40
0.9100827498
 40
0.9400923353
 40
0.9550810224
 40
0.9700608656
 40
1.0
 40
1.0
 40
1.0
 40
1.0
 10
10.8228610646
 20
7.1971602343
 30
0.0
 10
10.8261749946
 20
7.1969304125
 30
0.0
 10
10.8328048843
 20
7.1962270448
 30
0.0
 10
10.8426693156
 20
7.194455334
 30
0.0
 10
10.8524281212
 20
7.1919735896
 30
0.0
 10
10.8620285188
 20
7.1887953234
 30
0.0
 10
10.8714195673
 20
7.1849374554
 30
0.0
 10
10.8805511531
 20
7.1804206828
 30
0.0
 10
10.889374635
 20
7.1752691159
 30
0.0
 10
10.8978429968
 20
7.1695102705
 30
0.0
 10
10.9059111183
 20
7.1631748708
 30
0.0
 10
10.9135360089
 20
7.1562967062
 30
0.0
 10
10.9206770337
 20
7.148912446
 30
0.0
 10
10.9272961293
 20
7.1410614486
 30
0.0
 10
10.9333580071
 20
7.1327855546
 30
0.0
 10
10.9388303365
 20
7.1241288634
 30
0.0
 10
10.9436839164
 20
7.1151375006
 30
0.0
 10
10.9478928299
 20
7.1058593758
 30
0.0
 10
10.9514345812
 20
7.0963439302
 30
0.0
 10
10.9542902163
 20
7.0866418765
 30
0.0
 10
10.9564444246
 20
7.0768049329
 30
0.0
 10
10.9578856216
 20
7.0668855511
 30
0.0
 10
10.9586060141
 20
7.0569366403
 30
0.0
 10
10.9586016439
 20
7.047011289
 30
0.0
 10
10.9578724169
 20
7.0371624843
 30
0.0
 10
10.956422109
 20
7.0274428301
 30
0.0
 10
10.9542583505
 20
7.0179042695
 30
0.0
 10
10.9513925854
 20
7.0085977983
 30
0.0
 10
10.9478400427
 20
6.9995732231
 30
0.0
 10
10.9436195656
 20
6.9908787716
 30
0.0
 10
10.9387538724
 20
6.9825612739
 30
0.0
 10
10.9341803139
 20
6.975977412
 30
0.0
 10
10.9302281429
 20
6.9709450489
 30
0.0
 10
10.9260874591
 20
6.9660768859
 30
0.0
 10
10.9227700333
 20
6.9626111857
 30
0.0
 10
10.9204732204
 20
6.9603926282
 30
0.0
  0
SPLINE
  5
2D7
100
AcDbEntity
  8
0
100
AcDbSpline
 62
7
  6
CONTINUOUS
 70
0
 71
3
 72
40
 73
36
 74
0
 42
0.0000001
 43
0.0000001
 44
0.0000000001
 40
0.0
 40
0.0
 40
0.0
 40
0.0
 40
0.0311444623
 40
0.0624429464
 40
0.0938877347
 40
0.1254702907
 40
0.1571779705
 40
0.188996169
 40
0.2209078941
 40
0.2528943766
 40
0.2849353707
 40
0.3170095775
 40
0.3490950548
 40
0.3811696427
 40
0.4132113916
 40
0.4451989867
 40
0.4771121643
 40
0.5089321125
 40
0.5406418522
 40
0.5722265907
 40
0.603674042
 40
0.6349747068
 40
0.6661221049
 40
0.6971129533
 40
0.727947284
 40
0.7586284939
 40
0.7891633219
 40
0.8195617482
 40
0.8498368162
 40
0.8800043756
 40
0.9100827498
 40
0.9400923353
 40
0.9550810224
 40
0.9700608656
 40
1.0
 40
1.0
 40
1.0
 40
1.0
 10
10.8228610646
 20
8.9474178263
 30
0.0
 10
10.8261749946
 20
8.9471880045
 30
0.0
 10
10.8328048843
 20
8.9464846368
 30
0.0
 10
10.8426693156
 20
8.944712926
 30
0.0
 10
10.8524281212
 20
8.9422311816
 30
0.0
 10
10.8620285188
 20
8.9390529154
 30
0.0
 10
10.8714195673
 20
8.9351950475
 30
0.0
 10
10.8805511531
 20
8.9306782749
 30
0.0
 10
10.889374635
 20
8.9255267079
 30
0.0
 10
10.8978429968
 20
8.9197678625
 30
0.0
 10
10.9059111183
 20
8.9134324628
 30
0.0
 10
10.9135360089
 20
8.9065542982
 30
0.0
 10
10.9206770337
 20
8.899170038
 30
0.0
 10
10.9272961293
 20
8.8913190406
 30
0.0
 10
10.9333580071
 20
8.8830431466
 30
0.0
 10
10.9388303365
 20
8.8743864554
 30
0.0
 10
10.9436839164
 20
8.8653950926
 30
0.0
 10
10.9478928299
 20
8.8561169679
 30
0.0
 10
10.9514345812
 20
8.8466015222
 30
0.0
 10
10.9542902163
 20
8.8368994685
 30
0.0
 10
10.9564444246
 20
8.8270625249
 30
0.0
 10
10.9578856216
 20
8.8171431431
 30
0.0
 10
10.9586060141
 20
8.8071942324
 30
0.0
 10
10.9586016439
 20
8.797268881
 30
0.0
 10
10.9578724169
 20
8.7874200763
 30
0.0
 10
10.956422109
 20
8.7777004222
 30
0.0
 10
10.9542583505
 20
8.7681618615
 30
0.0
 10
10.9513925854
 20
8.7588553903
 30
0.0
 10
10.9478400427
 20
8.7498308151
 30
0.0
 10
10.9436195656
 20
8.7411363637
 30
0.0
 10
10.9387538724
 20
8.7328188659
 30
0.0
 10
10.9341803139
 20
8.726235004
 30
0.0
 10
10.9302281429
 20
8.7212026409
 30
0.0
 10
10.9260874591
 20
8.7163344779
 30
0.0
 10
10.9227700333
 20
8.7128687777
 30
0.0
 10
10.9204732204
 20
8.7106502202
 30
0.0
  0
SPLINE
  5
2D8
100
AcDbEntity
  8
0
100
AcDbSpline
 62
7
  6
CONTINUOUS
 70
0
 71
3
 72
40
 73
36
 74
0
 42
0.0000001
 43
0.0000001
 44
0.0000000001
 40
0.0
 40
0.0
 40
0.0
 40
0.0
 40
0.0311444623
 40
0.0624429464
 40
0.0938877347
 40
0.1254702907
 40
0.1571779705
 40
0.188996169
 40
0.2209078941
 40
0.2528943766
 40
0.2849353707
 40
0.3170095775
 40
0.3490950548
 40
0.3811696427
 40
0.4132113916
 40
0.4451989867
 40
0.4771121643
 40
0.5089321125
 40
0.5406418522
 40
0.5722265907
 40
0.603674042
 40
0.6349747068
 40
0.6661221049
 40
0.6971129533
 40
0.727947284
 40
0.7586284939
 40
0.7891633219
 40
0.8195617482
 40
0.8498368162
 40
0.8800043756
 40
0.9100827498
 40
0.9400923353
 40
0.9550810224
 40
0.9700608656
 40
1.0
 40
1.0
 40
1.0
 40
1.0
 10
8.7702685621
 20
9.0897655998
 30
0.0
 10
8.7735824922
 20
9.089535778
 30
0.0
 10
8.7802123818
 20
9.0888324103
 30
0.0
 10
8.7900768131
 20
9.0870606995
 30
0.0
 10
8.7998356187
 20
9.0845789551
 30
0.0
 10
8.8094360163
 20
9.0814006889
 30
0.0
 10
8.8188270648
 20
9.077542821
 30
0.0
 10
8.8279586506
 20
9.0730260484
 30
0.0
 10
8.8367821325
 20
9.0678744815
 30
0.0
 10
8.8452504943
 20
9.0621156361
 30
0.0
 10
8.8533186158
 20
9.0557802363
 30
0.0
 10
8.8609435064
 20
9.0489020718
 30
0.0
 10
8.8680845312
 20
9.0415178116
 30
0.0
 10
8.8747036268
 20
9.0336668141
 30
0.0
 10
8.8807655046
 20
9.0253909202
 30
0.0
 10
8.886237834
 20
9.0167342289
 30
0.0
 10
8.8910914139
 20
9.0077428662
 30
0.0
 10
8.8953003274
 20
8.9984647414
 30
0.0
 10
8.8988420787
 20
8.9889492957
 30
0.0
 10
8.9016977139
 20
8.979247242
 30
0.0
 10
8.9038519221
 20
8.9694102984
 30
0.0
 10
8.9052931192
 20
8.9594909166
 30
0.0
 10
8.9060135116
 20
8.9495420059
 30
0.0
 10
8.9060091415
 20
8.9396166546
 30
0.0
 10
8.9052799144
 20
8.9297678499
 30
0.0
 10
8.9038296066
 20
8.9200481957
 30
0.0
 10
8.901665848
 20
8.9105096351
 30
0.0
 10
8.8988000829
 20
8.9012031639
 30
0.0
 10
8.8952475402
 20
8.8921785887
 30
0.0
 10
8.8910270631
 20
8.8834841372
 30
0.0
 10
8.8861613699
 20
8.8751666394
 30
0.0
 10
8.8815878115
 20
8.8685827775
 30
0.0
 10
8.8776356404
 20
8.8635504144
 30
0.0
 10
8.8734949567
 20
8.8586822514
 30
0.0
 10
8.8701775308
 20
8.8552165512
 30
0.0
 10
8.8678807179
 20
8.8529979937
 30
0.0
  0
SPLINE
  5
2D9
100
AcDbEntity
  8
0
100
AcDbSpline
 62
7
  6
CONTINUOUS
 70
0
 71
3
 72
39
 73
35
 74
0
 42
0.0000001
 43
0.0000001
 44
0.0000000001
 40
0.0
 40
0.0
 40
0.0
 40
0.0
 40
0.0302232125
 40
0.0603536532
 40
0.090424925
 40
0.1204707428
 40
0.1505251781
 40
0.1806203151
 40
0.2107852057
 40
0.2410449656
 40
0.2714202815
 40
0.3019272441
 40
0.3325774501
 40
0.3633782847
 40
0.3943333108
 40
0.4254427035
 40
0.4567036842
 40
0.4881109245
 40
0.519656903
 40
0.5513322075
 40
0.5831257808
 40
0.6150251143
 40
0.647016396
 40
0.6790846196
 40
0.7112136661
 40
0.7433863664
 40
0.7755845598
 40
0.8077891603
 40
0.8399802472
 40
0.8721371976
 40
0.9042388803
 40
0.9362639345
 40
0.9681911543
 40
1.0
 40
1.0
 40
1.0
 40
1.0
 10
10.5060373748
 20
8.4122054739
 30
0.0
 10
10.508270006
 20
8.4168385334
 30
0.0
 10
10.5131675308
 20
8.4258863027
 30
0.0
 10
10.521753644
 20
8.4386816914
 30
0.0
 10
10.5314930226
 20
8.4505852034
 30
0.0
 10
10.5422974771
 20
8.4615117266
 30
0.0
 10
10.5540705168
 20
8.4713923545
 30
0.0
 10
10.5667094271
 20
8.4801721722
 30
0.0
 10
10.5801082736
 20
8.4878105596
 30
0.0
 10
10.5941603612
 20
8.4942800197
 30
0.0
 10
10.6087602826
 20
8.499564844
 30
0.0
 10
10.6238054393
 20
8.5036595045
 30
0.0
 10
10.6391970713
 20
8.506567025
 30
0.0
 10
10.654840855
 20
8.5082974167
 30
0.0
 10
10.6706471417
 20
8.5088662664
 30
0.0
 10
10.6865309166
 20
8.5082935176
 30
0.0
 10
10.702411552
 20
8.5066024616
 30
0.0
 10
10.718212419
 20
8.5038189385
 30
0.0
 10
10.7338604075
 20
8.4999707368
 30
0.0
 10
10.7492853965
 20
8.4950871738
 30
0.0
 10
10.7644197034
 20
8.4891988398
 30
0.0
 10
10.7791975368
 20
8.4823374893
 30
0.0
 10
10.7935544685
 20
8.4745360638
 30
0.0
 10
10.8074269408
 20
8.4658288346
 30
0.0
 10
10.8207518209
 20
8.4562516574
 30
0.0
 10
10.8334660166
 20
8.4458423296
 30
0.0
 10
10.8455061675
 20
8.4346410466
 30
0.0
 10
10.8568084317
 20
8.4226909473
 30
0.0
 10
10.8673083855
 20
8.4100387557
 30
0.0
 10
10.8769410805
 20
8.3967354497
 30
0.0
 10
10.8856412228
 20
8.3828371574
 30
0.0
 10
10.8933437629
 20
8.3684054402
 30
0.0
 10
10.8999839868
 20
8.3535099446
 30
0.0
 10
10.9036693546
 20
8.3432970535
 30
0.0
 10
10.9053132493
 20
8.3381399581
 30
0.0
  0
SPLINE
  5
2DA
100
AcDbEntity
  8
0
100
AcDbSpline
 62
7
  6
CONTINUOUS
 70
0
 71
3
 72
31
 73
27
 74
0
 42
0.0000001
 43
0.0000001
 44
0.0000000001
 40
0.0
 40
0.0
 40
0.0
 40
0.0
 40
0.0324890259
 40
0.0649316333
 40
0.0973133406
 40
0.1296282907
 40
0.194008375
 40
0.2580371829
 40
0.2899167858
 40
0.3216959655
 40
0.3533727153
 40
0.3849459851
 40
0.4477651494
 40
0.5101821637
 40
0.5722217122
 40
0.6339202261
 40
0.6646639139
 40
0.6953402252
 40
0.7259560044
 40
0.7565184957
 40
0.8174979755
 40
0.8783570481
 40
0.9087690981
 40
0.9391749771
 40
0.9695826349
 40
1.0
 40
1.0
 40
1.0
 40
1.0
 10
9.0619393968
 20
8.5406055696
 30
0.0
 10
9.0637068824
 20
8.537958763
 30
0.0
 10
9.0671154074
 20
8.532584938
 30
0.0
 10
9.0718379908
 20
8.5243000348
 30
0.0
 10
9.0761561689
 20
8.5158159912
 30
0.0
 10
9.0813536676
 20
8.5042846153
 30
0.0
 10
9.0867973096
 20
8.4894838523
 30
0.0
 10
9.0908007892
 20
8.4742744741
 30
0.0
 10
9.0931149132
 20
8.4619777975
 30
0.0
 10
9.0944048897
 20
8.452724365
 30
0.0
 10
9.095251484
 20
8.4434500164
 30
0.0
 10
9.0957901056
 20
8.4311079318
 30
0.0
 10
9.0953696672
 20
8.4157272814
 30
0.0
 10
9.0931376868
 20
8.3974907021
 30
0.0
 10
9.0892275531
 20
8.3796517319
 30
0.0
 10
9.0846135656
 20
8.3652137961
 30
0.0
 10
9.0801485492
 20
8.3540059175
 30
0.0
 10
9.0764262777
 20
8.3457904539
 30
0.0
 10
9.0723368201
 20
8.3377714329
 30
0.0
 10
9.0664139942
 20
8.3273690064
 30
0.0
 10
9.058141194
 20
8.3149144582
 30
0.0
 10
9.0487786715
 20
8.3032763157
 30
0.0
 10
9.0406922586
 20
8.2945144194
 30
0.0
 10
9.0343392416
 20
8.288224712
 30
0.0
 10
9.0277098728
 20
8.2822267706
 30
0.0
 10
9.0231149152
 20
8.2784295397
 30
0.0
 10
9.0207761498
 20
8.2765831573
 30
0.0
  0
SPLINE
  5
2DB
100
AcDbEntity
  8
0
100
AcDbSpline
 62
7
  6
CONTINUOUS
 70
0
 71
3
 72
15
 73
11
 74
0
 42
0.0000001
 43
0.0000001
 44
0.0000000001
 40
0.0
 40
0.0
 40
0.0
 40
0.0
 40
0.1234973226
 40
0.247471582
 40
0.3718941098
 40
0.4967553746
 40
0.6220279368
 40
0.7476824282
 40
0.8736856017
 40
1.0
 40
1.0
 40
1.0
 40
1.0
 10
9.4039159592
 20
7.7636109456
 30
0.0
 10
9.4005210283
 20
7.7638463849
 30
0.0
 10
9.3937297392
 20
7.7645080793
 30
0.0
 10
9.3835956477
 20
7.766063692
 30
0.0
 10
9.3735247094
 20
7.7681786536
 30
0.0
 10
9.3635484816
 20
7.7708443067
 30
0.0
 10
9.3536969009
 20
7.774050163
 30
0.0
 10
9.3439991478
 20
7.7777833799
 30
0.0
 10
9.3344835115
 20
7.7820290255
 30
0.0
 10
9.3282851944
 20
7.7851870072
 30
0.0
 10
9.3252249329
 20
7.7868453668
 30
0.0
  0
SPLINE
  5
2DC
100
AcDbEntity
  8
0
100
AcDbSpline
 62
7
  6
CONTINUOUS
 70
0
 71
3
 72
11
 73
7
 74
0
 42
0.0000001
 43
0.0000001
 44
0.0000000001
 40
0.0
 40
0.0
 40
0.0
 40
0.0
 40
0.2488983671
 40
0.4983756461
 40
0.7486744491
 40
1.0
 40
1.0
 40
1.0
 40
1.0
 10
9.9240659444
 20
7.212735281
 30
0.0
 10
9.9198547078
 20
7.2094936842
 30
0.0
 10
9.9111203907
 20
7.2033850561
 30
0.0
 10
9.8972237493
 20
7.1954420468
 30
0.0
 10
9.8826199189
 20
7.1887643444
 30
0.0
 10
9.872504154
 20
7.1851946443
 30
0.0
 10
9.8673698699
 20
7.1836341637
 30
0.0
  0
SPLINE
  5
2DD
100
AcDbEntity
  8
0
100
AcDbSpline
 62
7
  6
CONTINUOUS
 70
0
 71
3
 72
40
 73
36
 74
0
 42
0.0000001
 43
0.0000001
 44
0.0000000001
 40
0.0
 40
0.0
 40
0.0
 40
0.0
 40
0.0312902348
 40
0.0627550058
 40
0.0943838054
 40
0.1261640521
 40
0.1580778813
 40
0.1901046261
 40
0.2222206381
 40
0.2544002133
 40
0.286616187
 40
0.3188406535
 40
0.3510456501
 40
0.3832038354
 40
0.4152891381
 40
0.447277373
 40
0.47914681
 40
0.5108786917
 40
0.5424576922
 40
0.5738723095
 40
0.6051151835
 40
0.6361833313
 40
0.6670782895
 40
0.6978061552
 40
0.7283775145
 40
0.7588072533
 40
0.789114243
 40
0.8193209003
 40
0.849452624
 40
0.8795371201
 40
0.9096036309
 40
0.9396820913
 40
0.954738763
 40
0.9698095047
 40
1.0
 40
1.0
 40
1.0
 40
1.0
 10
8.3471930404
 20
7.4154117272
 30
0.0
 10
8.3496896336
 20
7.4152385878
 30
0.0
 10
8.3546847351
 20
7.4146838679
 30
0.0
 10
8.3621023119
 20
7.4132406843
 30
0.0
 10
8.3694176612
 20
7.4111940687
 30
0.0
 10
8.3765801217
 20
7.4085587479
 30
0.0
 10
8.3835411908
 20
7.4053533064
 30
0.0
 10
8.3902536924
 20
7.4016004126
 30
0.0
 10
8.3966724576
 20
7.3973263776
 30
0.0
 10
8.4027545469
 20
7.3925610191
 30
0.0
 10
8.4084595468
 20
7.3873373488
 30
0.0
 10
8.4137498136
 20
7.3816913088
 30
0.0
 10
8.4185906859
 20
7.375661472
 30
0.0
 10
8.4229506668
 20
7.3692887463
 30
0.0
 10
8.4268015741
 20
7.362616074
 30
0.0
 10
8.430118669
 20
7.3556881362
 30
0.0
 10
8.4328807516
 20
7.3485510572
 30
0.0
 10
8.4350702391
 20
7.3412521181
 30
0.0
 10
8.4366732252
 20
7.3338394772
 30
0.0
 10
8.4376795252
 20
7.3263618973
 30
0.0
 10
8.4380827083
 20
7.3188684785
 30
0.0
 10
8.4378801202
 20
7.3114083956
 30
0.0
 10
8.4370728961
 20
7.304030637
 30
0.0
 10
8.4356659654
 20
7.2967837438
 30
0.0
 10
8.4336680473
 20
7.2897155453
 30
0.0
 10
8.4310916371
 20
7.28287289
 30
0.0
 10
8.4279529828
 20
7.2763013693
 30
0.0
 10
8.4242720281
 20
7.2700450296
 30
0.0
 10
8.4200723808
 20
7.2641461037
 30
0.0
 10
8.4153811041
 20
7.2586446348
 30
0.0
 10
8.4102290475
 20
7.2535784733
 30
0.0
 10
8.405580226
 20
7.249748958
 30
0.0
 10
8.4016689111
 20
7.2469379558
 30
0.0
 10
8.3976307572
 20
7.2442965276
 30
0.0
 10
8.3944721943
 20
7.242515528
 30
0.0
 10
8.3923191431
 20
7.2414224491
 30
0.0
  0
SPLINE
  5
2DE
100
AcDbEntity
  8
0
100
AcDbSpline
 62
7
  6
CONTINUOUS
 70
0
 71
3
 72
42
 73
38
 74
0
 42
0.0000001
 43
0.0000001
 44
0.0000000001
 40
0.0
 40
0.0
 40
0.0
 40
0.0
 40
0.0314061474
 40
0.0471947016
 40
0.0630342964
 40
0.0948491917
 40
0.1268353385
 40
0.1428877811
 40
0.1589709441
 40
0.1912021527
 40
0.2234992559
 40
0.255822219
 40
0.2881312794
 40
0.3203883085
 40
0.3525579682
 40
0.3846086578
 40
0.4005847009
 40
0.4165212395
 40
0.4482577688
 40
0.4798097701
 40
0.5111667316
 40
0.5423243473
 40
0.5732847067
 40
0.6040563905
 40
0.6346544509
 40
0.6651002448
 40
0.6954210762
 40
0.7256496031
 40
0.7558229681
 40
0.7859816247
 40
0.8161678599
 40
0.8464240464
 40
0.8767907031
 40
0.9073044576
 40
0.9379962955
 40
0.9688889084
 40
1.0
 40
1.0
 40
1.0
 40
1.0
 10
11.1251958005
 20
7.556590284
 30
0.0
 10
11.1281967589
 20
7.5563821668
 30
0.0
 10
11.1326945641
 20
7.5558382572
 30
0.0
 10
11.1386188639
 20
7.5546651268
 30
0.0
 10
11.1445160489
 20
7.5531892601
 30
0.0
 10
11.1517708274
 20
7.5507901622
 30
0.0
 10
11.158776983
 20
7.5476907674
 30
0.0
 10
11.1642035359
 20
7.5448100827
 30
0.0
 10
11.1695077664
 20
7.5416636934
 30
0.0
 10
11.1758643698
 20
7.5372592458
 30
0.0
 10
11.1829777018
 20
7.5312847476
 30
0.0
 10
11.189520932
 20
7.5246801212
 30
0.0
 10
11.1954376068
 20
7.5175142525
 30
0.0
 10
11.2006793814
 20
7.5098587523
 30
0.0
 10
11.2052048404
 20
7.5017881028
 30
0.0
 10
11.2083547398
 20
7.4947700731
 30
0.0
 10
11.2104842049
 20
7.489023601
 30
0.0
 10
11.2123457648
 20
7.4832164527
 30
0.0
 10
11.2141753004
 20
7.4758404928
 30
0.0
 10
11.2155586694
 20
7.4668690099
 30
0.0
 10
11.2161180952
 20
7.4578637788
 30
0.0
 10
11.2158494647
 20
7.4489017353
 30
0.0
 10
11.2147543456
 20
7.4400589678
 30
0.0
 10
11.2128398131
 20
7.4314113116
 30
0.0
 10
11.2101186639
 20
7.4230340419
 30
0.0
 10
11.2066096533
 20
7.4150017203
 30
0.0
 10
11.2023378325
 20
7.4073878682
 30
0.0
 10
11.1973349285
 20
7.400264512
 30
0.0
 10
11.1916397344
 20
7.3937015542
 30
0.0
 10
11.1852984525
 20
7.3877659608
 30
0.0
 10
11.1783649273
 20
7.3825207664
 30
0.0
 10
11.1709007145
 20
7.3780239195
 30
0.0
 10
11.1629748667
 20
7.3743270283
 30
0.0
 10
11.1546635961
 20
7.371474009
 30
0.0
 10
11.1460490206
 20
7.369499983
 30
0.0
 10
11.1372196839
 20
7.3684297449
 30
0.0
 10
11.1312692448
 20
7.3683289424
 30
0.0
 10
11.1282910636
 20
7.3684302851
 30
0.0
  0
SPLINE
  5
2DF
100
AcDbEntity
  8
0
100
AcDbSpline
 62
7
  6
CONTINUOUS
 70
0
 71
3
 72
39
 73
35
 74
0
 42
0.0000001
 43
0.0000001
 44
0.0000000001
 40
0.0
 40
0.0
 40
0.0
 40
0.0
 40
0.0310619821
 40
0.0622719635
 40
0.0936195027
 40
0.1250995533
 40
0.1567004699
 40
0.1884096281
 40
0.2202123639
 40
0.2520923016
 40
0.284031796
 40
0.3160121659
 40
0.3480140766
 40
0.3800178784
 40
0.4120039295
 40
0.4439529237
 40
0.4758462413
 40
0.507666271
 40
0.5393966971
 40
0.5710227722
 40
0.6025315975
 40
0.6339123709
 40
0.6651565792
 40
0.6962581611
 40
0.7272136541
 40
0.7580223094
 40
0.7886861315
 40
0.8192098714
 40
0.8496009772
 40
0.8798695104
 40
0.9100279855
 40
0.940091148
 40
0.9700757016
 40
1.0
 40
1.0
 40
1.0
 40
1.0
 10
11.2449707107
 20
8.7827787989
 30
0.0
 10
11.2470665219
 20
8.7826334539
 30
0.0
 10
11.2512594378
 20
8.7821964907
 30
0.0
 10
11.2575022237
 20
8.7811107296
 30
0.0
 10
11.2636848903
 20
8.7795980761
 30
0.0
 10
11.2697772541
 20
8.7776662418
 30
0.0
 10
11.2757503512
 20
8.7753244936
 30
0.0
 10
11.2815755566
 20
8.772584349
 30
0.0
 10
11.2872251132
 20
8.7694591823
 30
0.0
 10
11.2926721359
 20
8.7659641875
 30
0.0
 10
11.2978907652
 20
8.7621163051
 30
0.0
 10
11.3028562916
 20
8.7579341327
 30
0.0
 10
11.3075453023
 20
8.7534378595
 30
0.0
 10
11.3119357416
 20
8.7486490988
 30
0.0
 10
11.3160070089
 20
8.7435907897
 30
0.0
 10
11.3197400379
 20
8.7382870804
 30
0.0
 10
11.3231174356
 20
8.7327632494
 30
0.0
 10
11.3261234987
 20
8.7270455375
 30
0.0
 10
11.328744269
 20
8.7211610283
 30
0.0
 10
11.3309675727
 20
8.7151375242
 30
0.0
 10
11.3327831271
 20
8.7090034454
 30
0.0
 10
11.3341825523
 20
8.7027876849
 30
0.0
 10
11.3351593684
 20
8.6965194761
 30
0.0
 10
11.3357090147
 20
8.6902282754
 30
0.0
 10
11.3358289065
 20
8.6839436435
 30
0.0
 10
11.3355184663
 20
8.6776951118
 30
0.0
 10
11.334779064
 20
8.6715120555
 30
0.0
 10
11.333614024
 20
8.6654235761
 30
0.0
 10
11.3320286286
 20
8.6594583823
 30
0.0
 10
11.3300301571
 20
8.6536446329
 30
0.0
 10
11.3276278154
 20
8.648009866
 30
0.0
 10
11.3248326021
 20
8.6425807315
 30
0.0
 10
11.3216576985
 20
8.6373834228
 30
0.0
 10
11.3192952927
 20
8.6340861975
 30
0.0
 10
11.3180567679
 20
8.6324855029
 30
0.0
  0
SPLINE
  5
2E0
100
AcDbEntity
  8
0
100
AcDbSpline
 62
7
  6
CONTINUOUS
 70
0
 71
3
 72
40
 73
36
 74
0
 42
0.0000001
 43
0.0000001
 44
0.0000000001
 40
0.0
 40
0.0
 40
0.0
 40
0.0
 40
0.0312902349
 40
0.0627550059
 40
0.0943838055
 40
0.1261640522
 40
0.1580778814
 40
0.1901046262
 40
0.2222206382
 40
0.2544002134
 40
0.2866161872
 40
0.3188406536
 40
0.3510456503
 40
0.3832038355
 40
0.4152891383
 40
0.4472773731
 40
0.4791468101
 40
0.5108786918
 40
0.5424576923
 40
0.5738723096
 40
0.6051151835
 40
0.6361833313
 40
0.6670782896
 40
0.6978061552
 40
0.7283775145
 40
0.7588072533
 40
0.789114243
 40
0.8193209003
 40
0.849452624
 40
0.8795371201
 40
0.9096036309
 40
0.9396820913
 40
0.954738763
 40
0.9698095047
 40
1.0
 40
1.0
 40
1.0
 40
1.0
 10
8.4688996905
 20
7.7392498576
 30
0.0
 10
8.4713962837
 20
7.7390767183
 30
0.0
 10
8.4763913851
 20
7.7385219982
 30
0.0
 10
8.4838089619
 20
7.7370788145
 30
0.0
 10
8.4911243111
 20
7.7350321988
 30
0.0
 10
8.4982867716
 20
7.7323968779
 30
0.0
 10
8.5052478406
 20
7.7291914364
 30
0.0
 10
8.5119603421
 20
7.7254385425
 30
0.0
 10
8.5183791073
 20
7.7211645075
 30
0.0
 10
8.5244611965
 20
7.7163991489
 30
0.0
 10
8.5301661963
 20
7.7111754786
 30
0.0
 10
8.535456463
 20
7.7055294386
 30
0.0
 10
8.5402973353
 20
7.6994996018
 30
0.0
 10
8.5446573161
 20
7.6931268761
 30
0.0
 10
8.5485082233
 20
7.6864542038
 30
0.0
 10
8.5518253181
 20
7.679526266
 30
0.0
 10
8.5545874007
 20
7.672389187
 30
0.0
 10
8.5567768882
 20
7.665090248
 30
0.0
 10
8.5583798742
 20
7.6576776071
 30
0.0
 10
8.5593861741
 20
7.6502000272
 30
0.0
 10
8.5597893572
 20
7.6427066084
 30
0.0
 10
8.5595867691
 20
7.6352465256
 30
0.0
 10
8.5587795449
 20
7.6278687671
 30
0.0
 10
8.5573726142
 20
7.6206218738
 30
0.0
 10
8.5553746961
 20
7.6135536754
 30
0.0
 10
8.5527982858
 20
7.6067110202
 30
0.0
 10
8.5496596316
 20
7.6001394995
 30
0.0
 10
8.5459786769
 20
7.5938831599
 30
0.0
 10
8.5417790295
 20
7.587984234
 30
0.0
 10
8.5370877529
 20
7.5824827651
 30
0.0
 10
8.5319356964
 20
7.5774166036
 30
0.0
 10
8.5272868749
 20
7.5735870884
 30
0.0
 10
8.52337556
 20
7.5707760863
 30
0.0
 10
8.5193374061
 20
7.5681346581
 30
0.0
 10
8.5161788432
 20
7.5663536584
 30
0.0
 10
8.514025792
 20
7.5652605796
 30
0.0
  0
SPLINE
  5
2E1
100
AcDbEntity
  8
0
100
AcDbSpline
 62
7
  6
CONTINUOUS
 70
0
 71
3
 72
47
 73
43
 74
0
 42
0.0000001
 43
0.0000001
 44
0.0000000001
 40
0.0
 40
0.0
 40
0.0
 40
0.0
 40
0.037940295
 40
0.0762766839
 40
0.1149216096
 40
0.1537872553
 40
0.192784775
 40
0.2318251059
 40
0.270819
 40
0.3096773644
 40
0.3483114932
 40
0.3866333348
 40
0.4245557502
 40
0.4619927755
 40
0.4988598868
 40
0.5350742679
 40
0.5705550838
 40
0.6052237615
 40
0.6390042793
 40
0.671823471
 40
0.7036113479
 40
0.7343014464
 40
0.7638312093
 40
0.7921424162
 40
0.8191816784
 40
0.8449010268
 40
0.8572527725
 40
0.869259393
 40
0.8809168044
 40
0.8922213562
 40
0.903170035
 40
0.9137603418
 40
0.9239905302
 40
0.9338594952
 40
0.9433670255
 40
0.9525137373
 40
0.9613013268
 40
0.9697325808
 40
0.9778116236
 40
0.985544033
 40
0.992937086
 40
1.0
 40
1.0
 40
1.0
 40
1.0
 10
13.4840401958
 20
8.0700784925
 30
0.0
 10
13.4840401958
 20
8.0830826925
 30
0.0
 10
13.4842140809
 20
8.1092271602
 30
0.0
 10
13.484984744
 20
8.148610516
 30
0.0
 10
13.4862649676
 20
8.188297983
 30
0.0
 10
13.4880516292
 20
8.228192674
 30
0.0
 10
13.4903404047
 20
8.2681974543
 30
0.0
 10
13.4931257132
 20
8.3082147921
 30
0.0
 10
13.4964007711
 20
8.3481471761
 30
0.0
 10
13.5001575881
 20
8.3878972847
 30
0.0
 10
13.5043869959
 20
8.427368249
 30
0.0
 10
13.5090786663
 20
8.4664638816
 30
0.0
 10
13.5142211384
 20
8.5050889153
 30
0.0
 10
13.5198018449
 20
8.5431492357
 30
0.0
 10
13.525807143
 20
8.5805521128
 30
0.0
 10
13.5322223467
 20
8.6172064289
 30
0.0
 10
13.5390317626
 20
8.6530229034
 30
0.0
 10
13.546218727
 20
8.6879143137
 30
0.0
 10
13.5537656463
 20
8.7217957119
 30
0.0
 10
13.5616540393
 20
8.7545846376
 30
0.0
 10
13.5698645817
 20
8.7862013238
 30
0.0
 10
13.5783771538
 20
8.816568909
 30
0.0
 10
13.5871708905
 20
8.8456136062
 30
0.0
 10
13.5962242357
 20
8.8732650048
 30
0.0
 10
13.6055150016
 20
8.89945589
 30
0.0
 10
13.6135405756
 20
8.9202833176
 30
0.0
 10
13.6200750226
 20
8.9361558282
 30
0.0
 10
13.6249549558
 20
8.9474955088
 30
0.0
 10
13.6298770571
 20
8.9584244853
 30
0.0
 10
13.6348384347
 20
8.9689361232
 30
0.0
 10
13.6398359839
 20
8.9790240716
 30
0.0
 10
13.6448667509
 20
8.9886822025
 30
0.0
 10
13.6499276014
 20
8.997904705
 30
0.0
 10
13.6550155528
 20
9.0066859868
 30
0.0
 10
13.6601274591
 20
9.0150207877
 30
0.0
 10
13.6652603163
 20
9.022904072
 30
0.0
 10
13.6704109962
 20
9.0303311379
 30
0.0
 10
13.6755764901
 20
9.0372975267
 30
0.0
 10
13.6807537104
 20
9.0437990831
 30
0.0
 10
13.6859397128
 20
9.0498319775
 30
0.0
 10
13.6911313353
 20
9.0553924334
 30
0.0
 10
13.6946736648
 20
9.0588600207
 30
0.0
 10
13.696445763
 20
9.06050931
 30
0.0
  0
SPLINE
  5
2E2
100
AcDbEntity
  8
0
100
AcDbSpline
 62
7
  6
CONTINUOUS
 70
0
 71
3
 72
49
 73
45
 74
0
 42
0.0000001
 43
0.0000001
 44
0.0000000001
 40
0.0
 40
0.0
 40
0.0
 40
0.0
 40
0.0417737612
 40
0.0840374079
 40
0.1266587819
 40
0.1695070054
 40
0.212448701
 40
0.2553507859
 40
0.2980801061
 40
0.3405042538
 40
0.3824920091
 40
0.4239138924
 40
0.4646426962
 40
0.5045540236
 40
0.5435268394
 40
0.5814440363
 40
0.6181930245
 40
0.6536663548
 40
0.6877623909
 40
0.7203860578
 40
0.7514496892
 40
0.780874012
 40
0.8085893537
 40
0.8345371708
 40
0.8468342306
 40
0.8586736215
 40
0.8700521874
 40
0.8809680228
 40
0.8914205004
 40
0.9014107098
 40
0.9109413387
 40
0.9200173299
 40
0.9286458445
 40
0.9368369538
 40
0.9446039307
 40
0.9519638612
 40
0.9589383571
 40
0.9655540688
 40
0.9718436438
 40
0.9778460661
 40
0.9836072911
 40
0.989180004
 40
0.9946230597
 40
1.0
 40
1.0
 40
1.0
 40
1.0
 10
13.971654865
 20
8.9940973445
 30
0.0
 10
13.971654865
 20
9.0003656505
 30
0.0
 10
13.9717526643
 20
9.0129759686
 30
0.0
 10
13.9721849763
 20
9.0319773257
 30
0.0
 10
13.9729025453
 20
9.0511314207
 30
0.0
 10
13.9739029652
 20
9.0703746848
 30
0.0
 10
13.9751829684
 20
9.0896435898
 30
0.0
 10
13.9767383032
 20
9.108874328
 30
0.0
 10
13.9785638272
 20
9.1280032981
 30
0.0
 10
13.9806534858
 20
9.1469672102
 30
0.0
 10
13.9830003486
 20
9.1657033314
 30
0.0
 10
13.9855966235
 20
9.1841496865
 30
0.0
 10
13.9884336852
 20
9.2022452674
 30
0.0
 10
13.9915021043
 20
9.2199302369
 30
0.0
 10
13.9947916773
 20
9.2371461289
 30
0.0
 10
13.9982914597
 20
9.2538360454
 30
0.0
 10
14.0019898015
 20
9.2699448495
 30
0.0
 10
14.005874385
 20
9.285419355
 30
0.0
 10
14.009932266
 20
9.3002085097
 30
0.0
 10
14.0141499165
 20
9.3142635877
 30
0.0
 10
14.0185132715
 20
9.3275383382
 30
0.0
 10
14.0230077841
 20
9.3399892704
 30
0.0
 10
14.0276184946
 20
9.3515754566
 30
0.0
 10
14.0316131658
 20
9.3606342256
 30
0.0
 10
14.0348650395
 20
9.3674101829
 30
0.0
 10
14.0372797054
 20
9.3721614684
 30
0.0
 10
14.0397119281
 20
9.3766696647
 30
0.0
 10
14.0421597151
 20
9.3809311048
 30
0.0
 10
14.0446211135
 20
9.3849422938
 30
0.0
 10
14.0470940532
 20
9.3887000093
 30
0.0
 10
14.0495766263
 20
9.3922011724
 30
0.0
 10
14.0520667778
 20
9.395443005
 30
0.0
 10
14.0545626216
 20
9.3984228689
 30
0.0
 10
14.0570622038
 20
9.4011383965
 30
0.0
 10
14.059563665
 20
9.4035873995
 30
0.0
 10
14.06206522
 20
9.4057678467
 30
0.0
 10
14.0645650687
 20
9.4076779473
 30
0.0
 10
14.0670615929
 20
9.409315877
 30
0.0
 10
14.0695530403
 20
9.4106800762
 30
0.0
 10
14.0720377772
 20
9.4117687786
 30
0.0
 10
14.0745138391
 20
9.4125804589
 30
0.0
 10
14.0769792133
 20
9.4131134773
 30
0.0
 10
14.0794308954
 20
9.4133665662
 30
0.0
 10
14.0810586084
 20
9.4133480276
 30
0.0
 10
14.0818635052
 20
9.4132922142
 30
0.0
  0
SPLINE
  5
2E3
100
AcDbEntity
  8
0
100
AcDbSpline
 62
7
  6
CONTINUOUS
 70
0
 71
3
 72
15
 73
11
 74
0
 42
0.0000001
 43
0.0000001
 44
0.0000000001
 40
0.0
 40
0.0
 40
0.0
 40
0.0
 40
0.1227516226
 40
0.246108477
 40
0.3701071816
 40
0.4947703097
 40
0.6201045525
 40
0.7461028801
 40
0.8727458677
 40
1.0
 40
1.0
 40
1.0
 40
1.0
 10
10.3977039258
 20
7.8559071496
 30
0.0
 10
10.3986372499
 20
7.8599704875
 30
0.0
 10
10.4002043899
 20
7.8681903583
 30
0.0
 10
10.401645544
 20
7.8806885029
 30
0.0
 10
10.4021824194
 20
7.8933233554
 30
0.0
 10
10.4018203219
 20
7.906031049
 30
0.0
 10
10.4005707609
 20
7.9187501947
 30
0.0
 10
10.3984505409
 20
7.9314213697
 30
0.0
 10
10.3954814449
 20
7.9439869578
 30
0.0
 10
10.3929585628
 20
7.952240261
 30
0.0
 10
10.3915657713
 20
7.9563317706
 30
0.0
  0
SPLINE
  5
2E4
100
AcDbEntity
  8
0
100
AcDbSpline
 62
7
  6
CONTINUOUS
 70
0
 71
3
 72
37
 73
33
 74
0
 42
0.0000001
 43
0.0000001
 44
0.0000000001
 40
0.0
 40
0.0
 40
0.0
 40
0.0
 40
0.0760189178
 40
0.1532636611
 40
0.2310397298
 40
0.3086445608
 40
0.3853780616
 40
0.4605501846
 40
0.4973406979
 40
0.5334908402
 40
0.5689208038
 40
0.6035530159
 40
0.6373123916
 40
0.6701265632
 40
0.7019262312
 40
0.732645583
 40
0.7622225511
 40
0.7905991985
 40
0.8177223189
 40
0.8435439591
 40
0.8680219988
 40
0.8911210382
 40
0.9128135855
 40
0.9330814124
 40
0.9426790379
 40
0.9519188858
 40
0.9608021119
 40
0.9693311776
 40
0.9775099159
 40
0.9853433145
 40
0.9928374837
 40
1.0
 40
1.0
 40
1.0
 40
1.0
 10
14.1838863162
 20
7.9607802314
 30
0.0
 10
14.1838863162
 20
7.9497848686
 30
0.0
 10
14.183592291
 20
7.9276158929
 30
0.0
 10
14.1823092683
 20
7.8942197477
 30
0.0
 10
14.1801914884
 20
7.8606361198
 30
0.0
 10
14.1772592904
 20
7.8271880135
 30
0.0
 10
14.1735409389
 20
7.794197161
 30
0.0
 10
14.1697910278
 20
7.7671595298
 30
0.0
 10
14.1664166778
 20
7.746003361
 30
0.0
 10
14.1637320583
 20
7.7305597092
 30
0.0
 10
14.1608820697
 20
7.7154632875
 30
0.0
 10
14.1578735806
 20
7.7007503948
 30
0.0
 10
14.1547138848
 20
7.6864564283
 30
0.0
 10
14.1514106169
 20
7.6726157676
 30
0.0
 10
14.147971761
 20
7.6592616891
 30
0.0
 10
14.1444056599
 20
7.6464262684
 30
0.0
 10
14.1407209518
 20
7.6341403174
 30
0.0
 10
14.136926543
 20
7.6224333078
 30
0.0
 10
14.1330316281
 20
7.6113332717
 30
0.0
 10
14.1290456463
 20
7.6008667173
 30
0.0
 10
14.1249782278
 20
7.5910586053
 30
0.0
 10
14.1208391477
 20
7.5819321551
 30
0.0
 10
14.1166383816
 20
7.5735090876
 30
0.0
 10
14.1130320108
 20
7.5669785057
 30
0.0
 10
14.1101164003
 20
7.5621310606
 30
0.0
 10
14.1079604004
 20
7.5587499472
 30
0.0
 10
14.1057965222
 20
7.5555589286
 30
0.0
 10
14.1036259839
 20
7.5525598657
 30
0.0
 10
14.1014500576
 20
7.5497544679
 30
0.0
 10
14.0992699241
 20
7.5471444339
 30
0.0
 10
14.0970870726
 20
7.5447314453
 30
0.0
 10
14.0955977752
 20
7.5432215405
 30
0.0
 10
14.0948526381
 20
7.5425017933
 30
0.0
  0
SPLINE
  5
2E5
100
AcDbEntity
  8
0
100
AcDbSpline
 62
7
  6
CONTINUOUS
 70
0
 71
3
 72
15
 73
11
 74
0
 42
0.0000001
 43
0.0000001
 44
0.0000000001
 40
0.0
 40
0.0
 40
0.0
 40
0.0
 40
0.1233171305
 40
0.2468171932
 40
0.3706749987
 40
0.4950495698
 40
0.6200773368
 40
0.7458670832
 40
0.8724927373
 40
1.0
 40
1.0
 40
1.0
 40
1.0
 10
8.6726564063
 20
7.3048504407
 30
0.0
 10
8.6758092613
 20
7.3078958738
 30
0.0
 10
8.6824533352
 20
7.3136563039
 30
0.0
 10
8.6932971052
 20
7.3211836394
 30
0.0
 10
8.7049165776
 20
7.3275290839
 30
0.0
 10
8.7171928075
 20
7.3326274409
 30
0.0
 10
8.7300019772
 20
7.3364280468
 30
0.0
 10
8.7432150453
 20
7.3388929262
 30
0.0
 10
8.7566971339
 20
7.3399980984
 30
0.0
 10
8.7657469674
 20
7.3398215815
 30
0.0
 10
8.7702685621
 20
7.3395080078
 30
0.0
  0
SPLINE
  5
2E6
100
AcDbEntity
  8
0
100
AcDbSpline
 62
7
  6
CONTINUOUS
 70
0
 71
3
 72
15
 73
11
 74
0
 42
0.0000001
 43
0.0000001
 44
0.0000000001
 40
0.0
 40
0.0
 40
0.0
 40
0.0
 40
0.1233171305
 40
0.2468171932
 40
0.3706749987
 40
0.4950495698
 40
0.6200773368
 40
0.7458670832
 40
0.8724927373
 40
1.0
 40
1.0
 40
1.0
 40
1.0
 10
10.7252489088
 20
7.1625026672
 30
0.0
 10
10.7284017638
 20
7.1655481003
 30
0.0
 10
10.7350458376
 20
7.1713085304
 30
0.0
 10
10.7458896077
 20
7.1788358658
 30
0.0
 10
10.7575090801
 20
7.1851813103
 30
0.0
 10
10.7697853099
 20
7.1902796673
 30
0.0
 10
10.7825944797
 20
7.1940802733
 30
0.0
 10
10.7958075477
 20
7.1965451527
 30
0.0
 10
10.8092896364
 20
7.1976503249
 30
0.0
 10
10.8183394699
 20
7.197473808
 30
0.0
 10
10.8228610646
 20
7.1971602343
 30
0.0
  0
SPLINE
  5
2E7
100
AcDbEntity
  8
0
100
AcDbSpline
 62
7
  6
CONTINUOUS
 70
0
 71
3
 72
15
 73
11
 74
0
 42
0.0000001
 43
0.0000001
 44
0.0000000001
 40
0.0
 40
0.0
 40
0.0
 40
0.0
 40
0.1233171305
 40
0.2468171932
 40
0.3706749987
 40
0.4950495698
 40
0.6200773368
 40
0.7458670832
 40
0.8724927373
 40
1.0
 40
1.0
 40
1.0
 40
1.0
 10
10.7252489088
 20
8.9127602592
 30
0.0
 10
10.7284017638
 20
8.9158056923
 30
0.0
 10
10.7350458376
 20
8.9215661224
 30
0.0
 10
10.7458896077
 20
8.9290934578
 30
0.0
 10
10.7575090801
 20
8.9354389023
 30
0.0
 10
10.7697853099
 20
8.9405372594
 30
0.0
 10
10.7825944797
 20
8.9443378653
 30
0.0
 10
10.7958075477
 20
8.9468027447
 30
0.0
 10
10.8092896364
 20
8.9479079169
 30
0.0
 10
10.8183394699
 20
8.9477314
 30
0.0
 10
10.8228610646
 20
8.9474178263
 30
0.0
  0
SPLINE
  5
2E8
100
AcDbEntity
  8
0
100
AcDbSpline
 62
7
  6
CONTINUOUS
 70
0
 71
3
 72
15
 73
11
 74
0
 42
0.0000001
 43
0.0000001
 44
0.0000000001
 40
0.0
 40
0.0
 40
0.0
 40
0.0
 40
0.1233171305
 40
0.2468171932
 40
0.3706749987
 40
0.4950495698
 40
0.6200773368
 40
0.7458670832
 40
0.8724927373
 40
1.0
 40
1.0
 40
1.0
 40
1.0
 10
8.6726564063
 20
9.0551080327
 30
0.0
 10
8.6758092613
 20
9.0581534658
 30
0.0
 10
8.6824533352
 20
9.0639138959
 30
0.0
 10
8.6932971052
 20
9.0714412314
 30
0.0
 10
8.7049165776
 20
9.0777866759
 30
0.0
 10
8.7171928075
 20
9.0828850329
 30
0.0
 10
8.7300019772
 20
9.0866856388
 30
0.0
 10
8.7432150453
 20
9.0891505183
 30
0.0
 10
8.7566971339
 20
9.0902556904
 30
0.0
 10
8.7657469674
 20
9.0900791735
 30
0.0
 10
8.7702685621
 20
9.0897655998
 30
0.0
  0
SPLINE
  5
2E9
100
AcDbEntity
  8
0
100
AcDbSpline
 62
7
  6
CONTINUOUS
 70
0
 71
3
 72
17
 73
13
 74
0
 42
0.0000001
 43
0.0000001
 44
0.0000000001
 40
0.0
 40
0.0
 40
0.0
 40
0.0
 40
0.1276519598
 40
0.2546095664
 40
0.380806506
 40
0.5061991356
 40
0.5686058702
 40
0.630808602
 40
0.6928107342
 40
0.7546179627
 40
0.8776383619
 40
1.0
 40
1.0
 40
1.0
 40
1.0
 10
10.4989274091
 20
8.2762042251
 30
0.0
 10
10.4971249753
 20
8.281858677
 30
0.0
 10
10.4939950541
 20
8.2932917881
 30
0.0
 10
10.490799648
 20
8.3107275944
 30
0.0
 10
10.4891769029
 20
8.3282757985
 30
0.0
 10
10.4891776393
 20
8.3428975298
 30
0.0
 10
10.4900101572
 20
8.3544945108
 30
0.0
 10
10.4910495122
 20
8.3631115165
 30
0.0
 10
10.4925059163
 20
8.3716397405
 30
0.0
 10
10.4949984493
 20
8.3828454888
 30
0.0
 10
10.4991477937
 20
8.3965378666
 30
0.0
 10
10.5035677703
 20
8.4070806576
 30
0.0
 10
10.5060373748
 20
8.4122054739
 30
0.0
  0
SPLINE
  5
2EA
100
AcDbEntity
  8
0
100
AcDbSpline
 62
7
  6
CONTINUOUS
 70
0
 71
3
 72
33
 73
29
 74
0
 42
0.0000001
 43
0.0000001
 44
0.0000000001
 40
0.0
 40
0.0
 40
0.0
 40
0.0
 40
0.0300671512
 40
0.060164005
 40
0.090300147
 40
0.1204848068
 40
0.1810149971
 40
0.2418383818
 40
0.2723872693
 40
0.3030291785
 40
0.3337691764
 40
0.3646114411
 40
0.4265953742
 40
0.4890152566
 40
0.5518687087
 40
0.615134508
 40
0.6469207547
 40
0.6787933911
 40
0.710744287
 40
0.7427641938
 40
0.7748427462
 40
0.8069686084
 40
0.8391296001
 40
0.871312949
 40
0.9035054355
 40
0.9356926635
 40
0.9678632055
 40
1.0
 40
1.0
 40
1.0
 40
1.0
 10
8.7612424454
 20
8.5889629793
 30
0.0
 10
8.7639289885
 20
8.5910839214
 30
0.0
 10
8.7694146709
 20
8.5951907388
 30
0.0
 10
8.7779515475
 20
8.6009250298
 30
0.0
 10
8.7867815403
 20
8.6062238296
 30
0.0
 10
8.7989272012
 20
8.6126963293
 30
0.0
 10
8.8147537881
 20
8.6196396709
 30
0.0
 10
8.8312403224
 20
8.624960675
 30
0.0
 10
8.8447483098
 20
8.6282174468
 30
0.0
 10
8.8550374859
 20
8.6301549566
 30
0.0
 10
8.8654444496
 20
8.6315752899
 30
0.0
 10
8.8794651813
 20
8.6327722224
 30
0.0
 10
8.8971705534
 20
8.6329356343
 30
0.0
 10
8.918433373
 20
8.6309702823
 30
0.0
 10
8.9395301517
 20
8.6268260108
 30
0.0
 10
8.9567552274
 20
8.6215652402
 30
0.0
 10
8.970212273
 20
8.6162890783
 30
0.0
 10
8.9801310272
 20
8.6117950458
 30
0.0
 10
8.9898262586
 20
8.6067795438
 30
0.0
 10
8.999266935
 20
8.6012531003
 30
0.0
 10
9.0084217206
 20
8.5952285925
 30
0.0
 10
9.0172598013
 20
8.5887211627
 30
0.0
 10
9.0257509385
 20
8.5817482214
 30
0.0
 10
9.0338657613
 20
8.574329402
 30
0.0
 10
9.0415759065
 20
8.566486638
 30
0.0
 10
9.0488548008
 20
8.5582438401
 30
0.0
 10
9.0556766488
 20
8.5496274327
 30
0.0
 10
9.0599077032
 20
8.5436480272
 30
0.0
 10
9.0619393968
 20
8.5406055696
 30
0.0
  0
SPLINE
  5
2EB
100
AcDbEntity
  8
0
100
AcDbSpline
 62
7
  6
CONTINUOUS
 70
0
 71
3
 72
23
 73
19
 74
0
 42
0.0000001
 43
0.0000001
 44
0.0000000001
 40
0.0
 40
0.0
 40
0.0
 40
0.0
 40
0.063621655
 40
0.1269605193
 40
0.190029271
 40
0.2528457347
 40
0.3154331079
 40
0.3778200826
 40
0.4400407558
 40
0.5021343138
 40
0.5641444636
 40
0.626118579
 40
0.6881066092
 40
0.7501596518
 40
0.8123286348
 40
0.8746621233
 40
0.9372061235
 40
1.0
 40
1.0
 40
1.0
 40
1.0
 10
10.260367371
 20
7.7279323408
 30
0.0
 10
10.2644956698
 20
7.728770127
 30
0.0
 10
10.272685083
 20
7.730694849
 30
0.0
 10
10.2847359645
 20
7.7343400876
 30
0.0
 10
10.2964779261
 20
7.7387355725
 30
0.0
 10
10.3078590299
 20
7.7438762109
 30
0.0
 10
10.3188271391
 20
7.7497534544
 30
0.0
 10
10.3293292923
 20
7.7563546698
 30
0.0
 10
10.3393124297
 20
7.7636627582
 30
0.0
 10
10.3487239007
 20
7.7716557547
 30
0.0
 10
10.3575121654
 20
7.7803065204
 30
0.0
 10
10.3656275716
 20
7.7895825378
 30
0.0
 10
10.3730231876
 20
7.7994458444
 30
0.0
 10
10.3796557082
 20
7.8098531579
 30
0.0
 10
10.3854862294
 20
7.8207560642
 30
0.0
 10
10.3904812443
 20
7.8321018839
 30
0.0
 10
10.3946127811
 20
7.8438328643
 30
0.0
 10
10.3967731943
 20
7.8518550232
 30
0.0
 10
10.3977039258
 20
7.8559071496
 30
0.0
  0
SPLINE
  5
2EC
100
AcDbEntity
  8
0
100
AcDbSpline
 62
7
  6
CONTINUOUS
 70
0
 71
3
 72
39
 73
35
 74
0
 42
0.0000001
 43
0.0000001
 44
0.0000000001
 40
0.0
 40
0.0
 40
0.0
 40
0.0
 40
0.0322366683
 40
0.0645602744
 40
0.0969378148
 40
0.1293364473
 40
0.1617245612
 40
0.1940725934
 40
0.2263536092
 40
0.2585436706
 40
0.2906220371
 40
0.3225712746
 40
0.354377297
 40
0.3860293728
 40
0.4175201245
 40
0.4488455379
 40
0.4800049935
 40
0.5110013236
 40
0.5418408927
 40
0.5725336903
 40
0.6030934218
 40
0.633537569
 40
0.6638873881
 40
0.6941677984
 40
0.7244071158
 40
0.7546365751
 40
0.7848895834
 40
0.815200676
 40
0.8456042321
 40
0.8761329341
 40
0.9068160767
 40
0.9376779218
 40
0.9687356221
 40
1.0
 40
1.0
 40
1.0
 40
1.0
 10
9.4826069855
 20
8.163341082
 30
0.0
 10
9.4878798413
 20
8.1604837149
 30
0.0
 10
9.4981945071
 20
8.1542956015
 30
0.0
 10
9.5128277535
 20
8.1437203236
 30
0.0
 10
9.5265513587
 20
8.1319415746
 30
0.0
 10
9.5392750435
 20
8.1190739762
 30
0.0
 10
9.5509239863
 20
8.1052339006
 30
0.0
 10
9.5614352626
 20
8.0905388864
 30
0.0
 10
9.5707573077
 20
8.0751057835
 30
0.0
 10
9.5788484064
 20
8.0590498448
 30
0.0
 10
9.5856754248
 20
8.0424841116
 30
0.0
 10
9.5912125936
 20
8.0255191921
 30
0.0
 10
9.5954404556
 20
8.0082633049
 30
0.0
 10
9.5983449905
 20
7.9908225371
 30
0.0
 10
9.5999169408
 20
7.9733012544
 30
0.0
 10
9.6001513456
 20
7.9558026112
 30
0.0
 10
9.5990472876
 20
7.9384291174
 30
0.0
 10
9.5966078537
 20
7.9212832194
 30
0.0
 10
9.5928403127
 20
7.9044678566
 30
0.0
 10
9.587756512
 20
7.888086954
 30
0.0
 10
9.5813734888
 20
7.8722458048
 30
0.0
 10
9.5737142963
 20
7.8570512933
 30
0.0
 10
9.5648090317
 20
7.8426118981
 30
0.0
 10
9.5546960392
 20
7.8290374103
 30
0.0
 10
9.5434232431
 20
7.8164382948
 30
0.0
 10
9.5310495345
 20
7.8049246312
 30
0.0
 10
9.5176461183
 20
7.7946045736
 30
0.0
 10
9.503297675
 20
7.7855822653
 30
0.0
 10
9.4881031221
 20
7.7779553255
 30
0.0
 10
9.4721757586
 20
7.7718119355
 30
0.0
 10
9.455642967
 20
7.7672277142
 30
0.0
 10
9.4386440962
 20
7.7642626565
 30
0.0
 10
9.421331257
 20
7.7629579205
 30
0.0
 10
9.4097184337
 20
7.7632085427
 30
0.0
 10
9.4039159592
 20
7.7636109456
 30
0.0
  0
SPLINE
  5
2ED
100
AcDbEntity
  8
0
100
AcDbSpline
 62
7
  6
CONTINUOUS
 70
0
 71
3
 72
43
 73
39
 74
0
 42
0.0000001
 43
0.0000001
 44
0.0000000001
 40
0.0
 40
0.0
 40
0.0
 40
0.0
 40
0.0152491056
 40
0.03053893
 40
0.0458715602
 40
0.0612487219
 40
0.0921338085
 40
0.1232083162
 40
0.1388205816
 40
0.1544797144
 40
0.1701848157
 40
0.1859346521
 40
0.217554925
 40
0.2493316931
 40
0.2812446635
 40
0.3132699958
 40
0.3453810325
 40
0.3775490462
 40
0.40974399
 40
0.4419352443
 40
0.4740923525
 40
0.5061857485
 40
0.5381874741
 40
0.5700718823
 40
0.6018163227
 40
0.6334018006
 40
0.664813598
 40
0.6960418335
 40
0.727081937
 40
0.7579350053
 40
0.7886080076
 40
0.8191138087
 40
0.8494709713
 40
0.8797033157
 40
0.9098392165
 40
0.9399108084
 40
0.9699521955
 40
1.0
 40
1.0
 40
1.0
 40
1.0
 10
9.724793901
 20
7.5646387717
 30
0.0
 10
9.7275044499
 20
7.5654625981
 30
0.0
 10
9.7329721251
 20
7.5669860347
 30
0.0
 10
9.7412812522
 20
7.5688917021
 30
0.0
 10
9.7496928952
 20
7.5704177904
 30
0.0
 10
9.7610369057
 20
7.5719453907
 30
0.0
 10
9.7753940973
 20
7.5728918651
 30
0.0
 10
9.7898213671
 20
7.5725547308
 30
0.0
 10
9.8013611408
 20
7.5715244962
 30
0.0
 10
9.8100146836
 20
7.5703707084
 30
0.0
 10
9.8186354905
 20
7.5688400791
 30
0.0
 10
9.8300777629
 20
7.5662988779
 30
0.0
 10
9.8442176648
 20
7.5621964173
 30
0.0
 10
9.8607690281
 20
7.5558493478
 30
0.0
 10
9.8768075339
 20
7.5481239197
 30
0.0
 10
9.8922143315
 20
7.5390827277
 30
0.0
 10
9.9068771461
 20
7.5287967241
 30
0.0
 10
9.9206893826
 20
7.517344872
 30
0.0
 10
9.9335509079
 20
7.5048134963
 30
0.0
 10
9.9453683507
 20
7.4912957796
 30
0.0
 10
9.9560554703
 20
7.476891228
 30
0.0
 10
9.9655335139
 20
7.4617051996
 30
0.0
 10
9.9737315977
 20
7.4458484427
 30
0.0
 10
9.9805871041
 20
7.4294366313
 30
0.0
 10
9.9860461424
 20
7.4125898941
 30
0.0
 10
9.9900640139
 20
7.3954322851
 30
0.0
 10
9.9926056929
 20
7.3780911989
 30
0.0
 10
9.9936463484
 20
7.3606967163
 30
0.0
 10
9.9931718595
 20
7.3433808555
 30
0.0
 10
9.9911793434
 20
7.326276716
 30
0.0
 10
9.9876776416
 20
7.3095174942
 30
0.0
 10
9.982687665
 20
7.2932353852
 30
0.0
 10
9.9762426965
 20
7.2775603836
 30
0.0
 10
9.9683884587
 20
7.262618952
 30
0.0
 10
9.9591833107
 20
7.2485327307
 30
0.0
 10
9.9486972686
 20
7.2354167231
 30
0.0
 10
9.9370141026
 20
7.2233795617
 30
0.0
 10
9.9284894843
 20
7.2161402981
 30
0.0
 10
9.9240659444
 20
7.212735281
 30
0.0
  0
SPLINE
  5
2EE
100
AcDbEntity
  8
0
100
AcDbSpline
 62
7
  6
CONTINUOUS
 70
0
 71
3
 72
15
 73
11
 74
0
 42
0.0000001
 43
0.0000001
 44
0.0000000001
 40
0.0
 40
0.0
 40
0.0
 40
0.0
 40
0.1233759673
 40
0.2471266851
 40
0.3713069081
 40
0.4959646915
 40
0.6211386061
 40
0.7468543559
 40
0.8731463839
 40
1.0
 40
1.0
 40
1.0
 40
1.0
 10
8.3020669196
 20
7.4064431998
 30
0.0
 10
8.3037743778
 20
7.4073100563
 30
0.0
 10
8.3072557185
 20
7.4089286592
 30
0.0
 10
8.3126402344
 20
7.4109947789
 30
0.0
 10
8.318172633
 20
7.4126939256
 30
0.0
 10
8.3238290784
 20
7.414018322
 30
0.0
 10
8.3295854447
 20
7.4149620159
 30
0.0
 10
8.3354173126
 20
7.415520876
 30
0.0
 10
8.3412991618
 20
7.4156921867
 30
0.0
 10
8.3452288788
 20
7.4155479422
 30
0.0
 10
8.3471930404
 20
7.4154117272
 30
0.0
  0
SPLINE
  5
2EF
100
AcDbEntity
  8
0
100
AcDbSpline
 62
7
  6
CONTINUOUS
 70
0
 71
3
 72
19
 73
15
 74
0
 42
0.0000001
 43
0.0000001
 44
0.0000000001
 40
0.0
 40
0.0
 40
0.0
 40
0.0
 40
0.0618296904
 40
0.1236186706
 40
0.1853980152
 40
0.2471990307
 40
0.3090527984
 40
0.3709895899
 40
0.4330385042
 40
0.495227053
 40
0.6200630944
 40
0.7457305078
 40
0.8723511875
 40
1.0
 40
1.0
 40
1.0
 40
1.0
 10
11.1718846536
 20
8.7507843688
 30
0.0
 10
11.1729324327
 20
8.7521385399
 30
0.0
 10
11.1751122924
 20
8.754781452
 30
0.0
 10
11.1786222584
 20
8.7585326608
 30
0.0
 10
11.1823595963
 20
8.7620565433
 30
0.0
 10
11.1863114577
 20
8.76534076
 30
0.0
 10
11.190464568
 20
8.7683739176
 30
0.0
 10
11.1948047376
 20
8.7711454314
 30
0.0
 10
11.1993173951
 20
8.773645767
 30
0.0
 10
11.2055497177
 20
8.7766092997
 30
0.0
 10
11.2137034014
 20
8.7795945116
 30
0.0
 10
11.2239000547
 20
8.7819659811
 30
0.0
 10
11.2343842398
 20
8.7831012998
 30
0.0
 10
11.2414443096
 20
8.7830233556
 30
0.0
 10
11.2449707107
 20
8.7827787989
 30
0.0
  0
SPLINE
  5
2F0
100
AcDbEntity
  8
0
100
AcDbSpline
 62
7
  6
CONTINUOUS
 70
0
 71
3
 72
15
 73
11
 74
0
 42
0.0000001
 43
0.0000001
 44
0.0000000001
 40
0.0
 40
0.0
 40
0.0
 40
0.0
 40
0.1233759673
 40
0.247126685
 40
0.371306908
 40
0.4959646914
 40
0.621138606
 40
0.7468543559
 40
0.8731463839
 40
1.0
 40
1.0
 40
1.0
 40
1.0
 10
8.4237735685
 20
7.7302813302
 30
0.0
 10
8.4254810267
 20
7.7311481868
 30
0.0
 10
8.4289623675
 20
7.7327667897
 30
0.0
 10
8.4343468836
 20
7.7348329094
 30
0.0
 10
8.4398792823
 20
7.7365320562
 30
0.0
 10
8.4455357278
 20
7.7378564526
 30
0.0
 10
8.4512920943
 20
7.7388001464
 30
0.0
 10
8.4571239624
 20
7.7393590065
 30
0.0
 10
8.4630058117
 20
7.7395303172
 30
0.0
 10
8.4669355289
 20
7.7393860726
 30
0.0
 10
8.4688996905
 20
7.7392498576
 30
0.0
  0
SPLINE
  5
2F1
100
AcDbEntity
  8
0
100
AcDbSpline
 62
7
  6
CONTINUOUS
 70
0
 71
3
 72
16
 73
12
 74
0
 42
0.0000001
 43
0.0000001
 44
0.0000000001
 40
0.0
 40
0.0
 40
0.0
 40
0.0
 40
0.1090377553
 40
0.2197963417
 40
0.3339121648
 40
0.4528686552
 40
0.5145941926
 40
0.5779975528
 40
0.7103106241
 40
0.8507397478
 40
1.0
 40
1.0
 40
1.0
 40
1.0
 10
14.0908529606
 20
9.8205879276
 30
0.0
 10
14.0918726469
 20
9.8205172145
 30
0.0
 10
14.0939211657
 20
9.8202390634
 30
0.0
 10
14.0969503224
 20
9.8194192779
 30
0.0
 10
14.0999413949
 20
9.8181981311
 30
0.0
 10
14.102368868
 20
9.816865263
 30
0.0
 10
14.1042842892
 20
9.8156122739
 30
0.0
 10
14.1062368584
 20
9.814192496
 30
0.0
 10
14.108650901
 20
9.8121601284
 30
0.0
 10
14.1114577949
 20
9.8093672816
 30
0.0
 10
14.1132385048
 20
9.8073136454
 30
0.0
 10
14.1141213528
 20
9.806228149
 30
0.0
  0
SPLINE
  5
2F2
100
AcDbEntity
  8
0
100
AcDbSpline
 62
7
  6
CONTINUOUS
 70
0
 71
3
 72
16
 73
12
 74
0
 42
0.0000001
 43
0.0000001
 44
0.0000000001
 40
0.0
 40
0.0
 40
0.0
 40
0.0
 40
0.1492574257
 40
0.2896951922
 40
0.4220082203
 40
0.4854098015
 40
0.5471338535
 40
0.6660890714
 40
0.7802048588
 40
0.8909629277
 40
1.0
 40
1.0
 40
1.0
 40
1.0
 10
13.2471605005
 20
6.7247664627
 30
0.0
 10
13.2461362808
 20
6.7238132454
 30
0.0
 10
13.2440890774
 20
6.7220250628
 30
0.0
 10
13.2409235308
 20
6.7196463265
 30
0.0
 10
13.2382519959
 20
6.7179666128
 30
0.0
 10
13.2361221515
 20
6.7168299917
 30
0.0
 10
13.2340521435
 20
6.7158534198
 30
0.0
 10
13.2314639395
 20
6.7148684252
 30
0.0
 10
13.2283329599
 20
6.7140718301
 30
0.0
 10
13.22521965
 20
6.7136780294
 30
0.0
 10
13.2231523586
 20
6.7136853251
 30
0.0
 10
13.2221326787
 20
6.7137560377
 30
0.0
  0
SPLINE
  5
2F3
100
AcDbEntity
  8
0
100
AcDbSpline
 62
7
  6
CONTINUOUS
 70
0
 71
3
 72
30
 73
26
 74
0
 42
0.0000001
 43
0.0000001
 44
0.0000000001
 40
0.0
 40
0.0
 40
0.0
 40
0.0
 40
0.0162145972
 40
0.03342788
 40
0.0516724759
 40
0.0709718344
 40
0.0913415609
 40
0.1127909188
 40
0.1353233928
 40
0.1589380145
 40
0.1836293549
 40
0.209388774
 40
0.2362040358
 40
0.264060506
 40
0.2929405622
 40
0.3228247062
 40
0.3855135462
 40
0.4519326276
 40
0.5218585144
 40
0.5950448892
 40
0.6712254083
 40
0.7501165047
 40
0.8314189031
 40
0.9148215097
 40
1.0
 40
1.0
 40
1.0
 40
1.0
 10
14.1399972208
 20
9.7744124178
 30
0.0
 10
14.1408533055
 20
9.7733598059
 30
0.0
 10
14.1425461197
 20
9.7711304396
 30
0.0
 10
14.1449602901
 20
9.7675410425
 30
0.0
 10
14.1473213876
 20
9.763612207
 30
0.0
 10
14.1496269745
 20
9.7593480934
 30
0.0
 10
14.1518748546
 20
9.7547529753
 30
0.0
 10
14.154062693
 20
9.7498315451
 30
0.0
 10
14.1561883133
 20
9.7445888683
 30
0.0
 10
14.1582494345
 20
9.7390303436
 30
0.0
 10
14.1602439876
 20
9.7331617502
 30
0.0
 10
14.1621697871
 20
9.7269891819
 30
0.0
 10
14.1640248994
 20
9.7205190903
 30
0.0
 10
14.1658072625
 20
9.7137582348
 30
0.0
 10
14.1675151137
 20
9.7067136923
 30
0.0
 10
14.1697256274
 20
9.6967936919
 30
0.0
 10
14.1722757289
 20
9.6837337163
 30
0.0
 10
14.1749656503
 20
9.6672955958
 30
0.0
 10
14.177320437
 20
9.6499194597
 30
0.0
 10
14.1793299673
 20
9.6316783336
 30
0.0
 10
14.1809855525
 20
9.6126487357
 30
0.0
 10
14.1822800314
 20
9.5929106938
 30
0.0
 10
14.183207818
 20
9.5725471538
 30
0.0
 10
14.1837648586
 20
9.5516439588
 30
0.0
 10
14.1838863162
 20
9.5375372666
 30
0.0
 10
14.1838863162
 20
9.5304097921
 30
0.0
  0
SPLINE
  5
2F4
100
AcDbEntity
  8
0
100
AcDbSpline
 62
7
  6
CONTINUOUS
 70
0
 71
3
 72
34
 73
30
 74
0
 42
0.0000001
 43
0.0000001
 44
0.0000000001
 40
0.0
 40
0.0
 40
0.0
 40
0.0
 40
0.0162143269
 40
0.0334273436
 40
0.0516716574
 40
0.0709707408
 40
0.0913402154
 40
0.1127892626
 40
0.1353215282
 40
0.1589358258
 40
0.1836269709
 40
0.2093860903
 40
0.2362011477
 40
0.2640573424
 40
0.2929372112
 40
0.3228210774
 40
0.3536871322
 40
0.385511585
 40
0.4182689609
 40
0.4519320413
 40
0.4864721137
 40
0.5218590723
 40
0.5580613947
 40
0.5950463972
 40
0.6712266109
 40
0.7501173057
 40
0.8314197157
 40
0.9148212275
 40
1.0
 40
1.0
 40
1.0
 40
1.0
 10
13.5877677786
 20
7.4934078452
 30
0.0
 10
13.5857445268
 20
7.4958955281
 30
0.0
 10
13.5817436981
 20
7.5011642413
 30
0.0
 10
13.5760380694
 20
7.509647225
 30
0.0
 10
13.5704578412
 20
7.518932418
 30
0.0
 10
13.5650088135
 20
7.5290100212
 30
0.0
 10
13.5596961956
 20
7.5398699282
 30
0.0
 10
13.5545254121
 20
7.5515010279
 30
0.0
 10
13.5495017778
 20
7.5638913908
 30
0.0
 10
13.544630456
 20
7.5770282062
 30
0.0
 10
13.5399165871
 20
7.5908978649
 30
0.0
 10
13.5353650951
 20
7.6054859252
 30
0.0
 10
13.5309807653
 20
7.6207771643
 30
0.0
 10
13.5267682705
 20
7.6367555991
 30
0.0
 10
13.5227320203
 20
7.6534044863
 30
0.0
 10
13.5188763167
 20
7.6707063688
 30
0.0
 10
13.5152052509
 20
7.688643083
 30
0.0
 10
13.511722683
 20
7.7071957818
 30
0.0
 10
13.5084323473
 20
7.7263449637
 30
0.0
 10
13.5053377059
 20
7.7460704851
 30
0.0
 10
13.5024420391
 20
7.7663515919
 30
0.0
 10
13.4997484536
 20
7.7871669318
 30
0.0
 10
13.4972597369
 20
7.8084946138
 30
0.0
 10
13.4941880416
 20
7.8378742477
 30
0.0
 10
13.4908959024
 20
7.875716065
 30
0.0
 10
13.4878364792
 20
7.9223646206
 30
0.0
 10
13.4856437841
 20
7.9704914777
 30
0.0
 10
13.4843272379
 20
8.0198938431
 30
0.0
 10
13.4840401958
 20
8.0532333895
 30
0.0
 10
13.4840401958
 20
8.0700784925
 30
0.0
  0
SPLINE
  5
2F5
100
AcDbEntity
  8
0
100
AcDbSpline
 62
7
  6
CONTINUOUS
 70
0
 71
3
 72
17
 73
13
 74
0
 42
0.0000001
 43
0.0000001
 44
0.0000000001
 40
0.0
 40
0.0
 40
0.0
 40
0.0
 40
0.0855442279
 40
0.1771178738
 40
0.2259547966
 40
0.2772469194
 40
0.3313568861
 40
0.3886745399
 40
0.514517914
 40
0.6575428983
 40
0.8190609147
 40
1.0
 40
1.0
 40
1.0
 40
1.0
 10
13.5980111631
 20
7.4961388433
 30
0.0
 10
13.5973657151
 20
7.4961836053
 30
0.0
 10
13.5960329874
 20
7.4963415251
 30
0.0
 10
13.594361504
 20
7.4967109133
 30
0.0
 10
13.5929709249
 20
7.4971228996
 30
0.0
 10
13.5918683976
 20
7.4975053755
 30
0.0
 10
13.5907249178
 20
7.4979615903
 30
0.0
 10
13.5890892744
 20
7.4987012134
 30
0.0
 10
13.5869121964
 20
7.4998683778
 30
0.0
 10
13.5841709286
 20
7.5016293691
 30
0.0
 10
13.5812336627
 20
7.5038378545
 30
0.0
 10
13.5792733482
 20
7.5055340222
 30
0.0
 10
13.5782650184
 20
7.5064592591
 30
0.0
  0
SPLINE
  5
2F6
100
AcDbEntity
  8
0
100
AcDbSpline
 62
7
  6
CONTINUOUS
 70
0
 71
3
 72
37
 73
33
 74
0
 42
0.0000001
 43
0.0000001
 44
0.0000000001
 40
0.0
 40
0.0
 40
0.0
 40
0.0
 40
0.0063161244
 40
0.0126711457
 40
0.0191032048
 40
0.0256489923
 40
0.0392092523
 40
0.0536075707
 40
0.0690448396
 40
0.0856783189
 40
0.1036268182
 40
0.1229770616
 40
0.1437901856
 40
0.1661064488
 40
0.1899495672
 40
0.2153299516
 40
0.2422467168
 40
0.2706900061
 40
0.3006420941
 40
0.3320784573
 40
0.3649689672
 40
0.3992781128
 40
0.4349658997
 40
0.4719882735
 40
0.5102972344
 40
0.5498415765
 40
0.5905668526
 40
0.6324157309
 40
0.7192402861
 40
0.8098104776
 40
0.9035852492
 40
1.0
 40
1.0
 40
1.0
 40
1.0
 10
14.0353724795
 20
8.7429023462
 30
0.0
 10
14.0348045747
 20
8.742941726
 30
0.0
 10
14.0336679499
 20
8.7430672209
 30
0.0
 10
14.0319757587
 20
8.7433942801
 30
0.0
 10
14.0302948255
 20
8.7438602319
 30
0.0
 10
14.0280440436
 20
8.7446754783
 30
0.0
 10
14.0252472526
 20
8.7460613887
 30
0.0
 10
14.0219968663
 20
8.7482543737
 30
0.0
 10
14.0188144547
 20
8.7509898427
 30
0.0
 10
14.0157035415
 20
8.7542616013
 30
0.0
 10
14.0126669617
 20
8.7580639019
 30
0.0
 10
14.0097081765
 20
8.762390668
 30
0.0
 10
14.0068310734
 20
8.7672352994
 30
0.0
 10
14.0040397081
 20
8.7725903174
 30
0.0
 10
14.001338284
 20
8.7784473858
 30
0.0
 10
13.9987310811
 20
8.7847972771
 30
0.0
 10
13.9962222256
 20
8.7916298404
 30
0.0
 10
13.9938158416
 20
8.798934089
 30
0.0
 10
13.9915158859
 20
8.8066981879
 30
0.0
 10
13.9893261279
 20
8.8149094941
 30
0.0
 10
13.9872502486
 20
8.823554602
 30
0.0
 10
13.9852916648
 20
8.8326193494
 30
0.0
 10
13.9834536408
 20
8.8420888652
 30
0.0
 10
13.9817392658
 20
8.8519475934
 30
0.0
 10
13.980151354
 20
8.8621793193
 30
0.0
 10
13.9786925908
 20
8.8727671984
 30
0.0
 10
13.9773653696
 20
8.8836938115
 30
0.0
 10
13.9757544048
 20
8.8988768769
 30
0.0
 10
13.9740981063
 20
8.9185703962
 30
0.0
 10
13.9726870947
 20
8.9429724718
 30
0.0
 10
13.9718389448
 20
8.9682652097
 30
0.0
 10
13.971654865
 20
8.9854075414
 30
0.0
 10
13.971654865
 20
8.9940973445
 30
0.0
  0
SPLINE
  5
2F7
100
AcDbEntity
  8
0
100
AcDbSpline
 62
7
  6
CONTINUOUS
 70
0
 71
3
 72
17
 73
13
 74
0
 42
0.0000001
 43
0.0000001
 44
0.0000000001
 40
0.0
 40
0.0
 40
0.0
 40
0.0
 40
0.1810370482
 40
0.3426285844
 40
0.4856980175
 40
0.611553378
 40
0.668862398
 40
0.722955598
 40
0.774224108
 40
0.823032046
 40
0.9145357066
 40
1.0
 40
1.0
 40
1.0
 40
1.0
 10
13.6851794979
 20
9.0488582514
 30
0.0
 10
13.6863090172
 20
9.0496391673
 30
0.0
 10
13.6884907523
 20
9.0510552955
 30
0.0
 10
13.6917138613
 20
9.0528459932
 30
0.0
 10
13.6946803038
 20
9.0542184485
 30
0.0
 10
13.6970040613
 20
9.0550781872
 30
0.0
 10
13.6987306871
 20
9.0555874767
 30
0.0
 10
13.699929115
 20
9.0558829149
 30
0.0
 10
13.7010765604
 20
9.0561106359
 30
0.0
 10
13.7025138246
 20
9.056327789
 30
0.0
 10
13.7042238304
 20
9.056463694
 30
0.0
 10
13.7055683393
 20
9.0564362105
 30
0.0
 10
13.7062150428
 20
9.0563913615
 30
0.0
  0
SPLINE
  5
2F8
100
AcDbEntity
  8
0
100
AcDbSpline
 62
7
  6
CONTINUOUS
 70
0
 71
3
 72
11
 73
7
 74
0
 42
0.0000001
 43
0.0000001
 44
0.0000000001
 40
0.0
 40
0.0
 40
0.0
 40
0.0
 40
0.2488983678
 40
0.4983756464
 40
0.7486744497
 40
1.0
 40
1.0
 40
1.0
 40
1.0
 10
9.6680978481
 20
7.5355376724
 30
0.0
 10
9.6723090828
 20
7.5387792678
 30
0.0
 10
9.6810433989
 20
7.5448878894
 30
0.0
 10
9.6949400341
 20
7.5528308952
 30
0.0
 10
9.7095438587
 20
7.5595085933
 30
0.0
 10
9.7196596191
 20
7.5630782918
 30
0.0
 10
9.724793901
 20
7.5646387717
 30
0.0
  0
SPLINE
  5
2F9
100
AcDbEntity
  8
0
100
AcDbSpline
 62
7
  6
CONTINUOUS
 70
0
 71
3
 72
40
 73
36
 74
0
 42
0.0000001
 43
0.0000001
 44
0.0000000001
 40
0.0
 40
0.0
 40
0.0
 40
0.0
 40
0.0311444623
 40
0.0624429464
 40
0.0938877347
 40
0.1254702907
 40
0.1571779705
 40
0.188996169
 40
0.2209078941
 40
0.2528943766
 40
0.2849353707
 40
0.3170095775
 40
0.3490950548
 40
0.3811696427
 40
0.4132113916
 40
0.4451989867
 40
0.4771121643
 40
0.5089321125
 40
0.5406418522
 40
0.5722265907
 40
0.603674042
 40
0.6349747068
 40
0.6661221049
 40
0.6971129533
 40
0.727947284
 40
0.7586284939
 40
0.7891633219
 40
0.8195617482
 40
0.8498368162
 40
0.8800043756
 40
0.9100827498
 40
0.9400923353
 40
0.9550810224
 40
0.9700608656
 40
1.0
 40
1.0
 40
1.0
 40
1.0
 10
10.8228610646
 20
8.675992653
 30
0.0
 10
10.8195471346
 20
8.6762224749
 30
0.0
 10
10.812917245
 20
8.6769258426
 30
0.0
 10
10.8030528136
 20
8.6786975534
 30
0.0
 10
10.7932940081
 20
8.6811792978
 30
0.0
 10
10.7836936105
 20
8.684357564
 30
0.0
 10
10.774302562
 20
8.6882154319
 30
0.0
 10
10.7651709762
 20
8.6927322045
 30
0.0
 10
10.7563474943
 20
8.6978837714
 30
0.0
 10
10.7478791325
 20
8.7036426168
 30
0.0
 10
10.739811011
 20
8.7099780166
 30
0.0
 10
10.7321861204
 20
8.7168561811
 30
0.0
 10
10.7250450956
 20
8.7242404413
 30
0.0
 10
10.7184259999
 20
8.7320914388
 30
0.0
 10
10.7123641222
 20
8.7403673327
 30
0.0
 10
10.7068917928
 20
8.749024024
 30
0.0
 10
10.7020382128
 20
8.7580153867
 30
0.0
 10
10.6978292994
 20
8.7672935115
 30
0.0
 10
10.6942875481
 20
8.7768089572
 30
0.0
 10
10.6914319129
 20
8.7865110109
 30
0.0
 10
10.6892777047
 20
8.7963479545
 30
0.0
 10
10.6878365076
 20
8.8062673363
 30
0.0
 10
10.6871161151
 20
8.816216247
 30
0.0
 10
10.6871204853
 20
8.8261415983
 30
0.0
 10
10.6878497123
 20
8.835990403
 30
0.0
 10
10.6893000202
 20
8.8457100572
 30
0.0
 10
10.6914637787
 20
8.8552486178
 30
0.0
 10
10.6943295439
 20
8.864555089
 30
0.0
 10
10.6978820865
 20
8.8735796642
 30
0.0
 10
10.7021025637
 20
8.8822741157
 30
0.0
 10
10.7069682569
 20
8.8905916135
 30
0.0
 10
10.7115418153
 20
8.8971754754
 30
0.0
 10
10.7154939863
 20
8.9022078385
 30
0.0
 10
10.7196346701
 20
8.9070760015
 30
0.0
 10
10.722952096
 20
8.9105417017
 30
0.0
 10
10.7252489088
 20
8.9127602592
 30
0.0
  0
SPLINE
  5
2FA
100
AcDbEntity
  8
0
100
AcDbSpline
 62
7
  6
CONTINUOUS
 70
0
 71
3
 72
15
 73
11
 74
0
 42
0.0000001
 43
0.0000001
 44
0.0000000001
 40
0.0
 40
0.0
 40
0.0
 40
0.0
 40
0.1233171305
 40
0.2468171932
 40
0.3706749987
 40
0.4950495698
 40
0.6200773368
 40
0.7458670832
 40
0.8724927373
 40
1.0
 40
1.0
 40
1.0
 40
1.0
 10
8.8678807179
 20
7.1027404017
 30
0.0
 10
8.8647278629
 20
7.0996949686
 30
0.0
 10
8.8580837891
 20
7.0939345385
 30
0.0
 10
8.8472400191
 20
7.086407203
 30
0.0
 10
8.8356205467
 20
7.0800617585
 30
0.0
 10
8.8233443168
 20
7.0749634015
 30
0.0
 10
8.8105351471
 20
7.0711627956
 30
0.0
 10
8.797322079
 20
7.0686979161
 30
0.0
 10
8.7838399904
 20
7.067592744
 30
0.0
 10
8.7747901569
 20
7.0677692609
 30
0.0
 10
8.7702685621
 20
7.0680828346
 30
0.0
  0
SPLINE
  5
2FB
100
AcDbEntity
  8
0
100
AcDbSpline
 62
7
  6
CONTINUOUS
 70
0
 71
3
 72
15
 73
11
 74
0
 42
0.0000001
 43
0.0000001
 44
0.0000000001
 40
0.0
 40
0.0
 40
0.0
 40
0.0
 40
0.1233171305
 40
0.2468171932
 40
0.3706749987
 40
0.4950495698
 40
0.6200773368
 40
0.7458670832
 40
0.8724927373
 40
1.0
 40
1.0
 40
1.0
 40
1.0
 10
10.9204732204
 20
6.9603926282
 30
0.0
 10
10.9173203654
 20
6.957347195
 30
0.0
 10
10.9106762916
 20
6.951586765
 30
0.0
 10
10.8998325216
 20
6.9440594295
 30
0.0
 10
10.8882130492
 20
6.937713985
 30
0.0
 10
10.8759368193
 20
6.932615628
 30
0.0
 10
10.8631276496
 20
6.928815022
 30
0.0
 10
10.8499145815
 20
6.9263501426
 30
0.0
 10
10.8364324929
 20
6.9252449705
 30
0.0
 10
10.8273826593
 20
6.9254214874
 30
0.0
 10
10.8228610646
 20
6.925735061
 30
0.0
  0
SPLINE
  5
2FC
100
AcDbEntity
  8
0
100
AcDbSpline
 62
7
  6
CONTINUOUS
 70
0
 71
3
 72
15
 73
11
 74
0
 42
0.0000001
 43
0.0000001
 44
0.0000000001
 40
0.0
 40
0.0
 40
0.0
 40
0.0
 40
0.1233171305
 40
0.2468171932
 40
0.3706749987
 40
0.4950495698
 40
0.6200773368
 40
0.7458670832
 40
0.8724927373
 40
1.0
 40
1.0
 40
1.0
 40
1.0
 10
10.9204732204
 20
8.7106502202
 30
0.0
 10
10.9173203654
 20
8.707604787
 30
0.0
 10
10.9106762916
 20
8.701844357
 30
0.0
 10
10.8998325216
 20
8.6943170215
 30
0.0
 10
10.8882130492
 20
8.687971577
 30
0.0
 10
10.8759368193
 20
8.68287322
 30
0.0
 10
10.8631276496
 20
8.679072614
 30
0.0
 10
10.8499145815
 20
8.6766077346
 30
0.0
 10
10.8364324929
 20
8.6755025625
 30
0.0
 10
10.8273826593
 20
8.6756790794
 30
0.0
 10
10.8228610646
 20
8.675992653
 30
0.0
  0
SPLINE
  5
2FD
100
AcDbEntity
  8
0
100
AcDbSpline
 62
7
  6
CONTINUOUS
 70
0
 71
3
 72
37
 73
33
 74
0
 42
0.0000001
 43
0.0000001
 44
0.0000000001
 40
0.0
 40
0.0
 40
0.0
 40
0.0
 40
0.0760188415
 40
0.1532636881
 40
0.2310397316
 40
0.3086445611
 40
0.3853780575
 40
0.4605501949
 40
0.4973407038
 40
0.5334908265
 40
0.5689208013
 40
0.6035530356
 40
0.6373123921
 40
0.6701265432
 40
0.7019262376
 40
0.7326456062
 40
0.762222541
 40
0.7905991829
 40
0.8177223328
 40
0.843543977
 40
0.8680219827
 40
0.8911210325
 40
0.9128136039
 40
0.9330814081
 40
0.9426790343
 40
0.9519188834
 40
0.9608021526
 40
0.9693312087
 40
0.977509893
 40
0.9853432393
 40
0.9928374113
 40
1.0
 40
1.0
 40
1.0
 40
1.0
 10
11.5514463436
 20
8.674667922
 30
0.0
 10
11.5514463436
 20
8.686654134
 30
0.0
 10
11.5517668664
 20
8.7108208995
 30
0.0
 10
11.5531655048
 20
8.7472265816
 30
0.0
 10
11.5554741395
 20
8.7838366528
 30
0.0
 10
11.5586705649
 20
8.8202989741
 30
0.0
 10
11.5627240162
 20
8.8562628391
 30
0.0
 10
11.56681184
 20
8.8857370041
 30
0.0
 10
11.5704902777
 20
8.908799686
 30
0.0
 10
11.5734168353
 20
8.9256350584
 30
0.0
 10
11.5765236479
 20
8.9420919168
 30
0.0
 10
11.5798032417
 20
8.9581306849
 30
0.0
 10
11.5832476862
 20
8.9737127658
 30
0.0
 10
11.5868486396
 20
8.9888006914
 30
0.0
 10
11.5905973826
 20
9.003358196
 30
0.0
 10
11.5944848415
 20
9.0173503005
 30
0.0
 10
11.5985016144
 20
9.0307434083
 30
0.0
 10
11.6026379617
 20
9.0435054082
 30
0.0
 10
11.6068838629
 20
9.0556057462
 30
0.0
 10
11.6112290448
 20
9.0670155083
 30
0.0
 10
11.6156630164
 20
9.0777074823
 30
0.0
 10
11.6201750894
 20
9.0876563766
 30
0.0
 10
11.6247544072
 20
9.0968385049
 30
0.0
 10
11.6286857758
 20
9.1039575959
 30
0.0
 10
11.6318641228
 20
9.1092418755
 30
0.0
 10
11.6342144288
 20
9.1129276808
 30
0.0
 10
11.6365733041
 20
9.1164062711
 30
0.0
 10
11.638939444
 20
9.119675594
 30
0.0
 10
11.6413114463
 20
9.1227337885
 30
0.0
 10
11.6436880265
 20
9.1255790235
 30
0.0
 10
11.6460675937
 20
9.128209462
 30
0.0
 10
11.6476911112
 20
9.1298554405
 30
0.0
 10
11.6485034054
 20
9.1306400565
 30
0.0
  0
SPLINE
  5
2FE
100
AcDbEntity
  8
0
100
AcDbSpline
 62
7
  6
CONTINUOUS
 70
0
 71
3
 72
17
 73
13
 74
0
 42
0.0000001
 43
0.0000001
 44
0.0000000001
 40
0.0
 40
0.0
 40
0.0
 40
0.0
 40
0.1504727749
 40
0.2917301711
 40
0.4244679502
 40
0.487938881
 40
0.5496414896
 40
0.6683008156
 40
0.7818340527
 40
0.8918017756
 40
0.9460163312
 40
1.0
 40
1.0
 40
1.0
 40
1.0
 10
12.4653356376
 20
9.9196394521
 30
0.0
 10
12.4663957506
 20
9.9206634427
 30
0.0
 10
12.4685145992
 20
9.9225847749
 30
0.0
 10
12.4717953834
 20
9.9251452576
 30
0.0
 10
12.4745666125
 20
9.9269561672
 30
0.0
 10
12.4767764099
 20
9.9281824626
 30
0.0
 10
12.4789211177
 20
9.9292352816
 30
0.0
 10
12.4816030741
 20
9.9302990513
 30
0.0
 10
12.4848496202
 20
9.9311630289
 30
0.0
 10
12.4875544737
 20
9.9315241437
 30
0.0
 10
12.4896916259
 20
9.9315927785
 30
0.0
 10
12.4907517784
 20
9.9315553132
 30
0.0
 10
12.4912792904
 20
9.931518734
 30
0.0
  0
SPLINE
  5
2FF
100
AcDbEntity
  8
0
100
AcDbSpline
 62
7
  6
CONTINUOUS
 70
0
 71
3
 72
15
 73
11
 74
0
 42
0.0000001
 43
0.0000001
 44
0.0000000001
 40
0.0
 40
0.0
 40
0.0
 40
0.0
 40
0.1233171305
 40
0.2468171932
 40
0.3706749987
 40
0.4950495698
 40
0.6200773368
 40
0.7458670832
 40
0.8724927373
 40
1.0
 40
1.0
 40
1.0
 40
1.0
 10
8.8678807179
 20
8.8529979937
 30
0.0
 10
8.8647278629
 20
8.8499525606
 30
0.0
 10
8.8580837891
 20
8.8441921305
 30
0.0
 10
8.8472400191
 20
8.836664795
 30
0.0
 10
8.8356205467
 20
8.8303193506
 30
0.0
 10
8.8233443168
 20
8.8252209935
 30
0.0
 10
8.8105351471
 20
8.8214203876
 30
0.0
 10
8.797322079
 20
8.8189555082
 30
0.0
 10
8.7838399904
 20
8.817850336
 30
0.0
 10
8.7747901569
 20
8.8180268529
 30
0.0
 10
8.7702685621
 20
8.8183404266
 30
0.0
  0
SPLINE
  5
300
100
AcDbEntity
  8
0
100
AcDbSpline
 62
7
  6
CONTINUOUS
 70
0
 71
3
 72
17
 73
13
 74
0
 42
0.0000001
 43
0.0000001
 44
0.0000000001
 40
0.0
 40
0.0
 40
0.0
 40
0.0
 40
0.1276519601
 40
0.2546095668
 40
0.3808065065
 40
0.5061991361
 40
0.5686058706
 40
0.6308086024
 40
0.6928107345
 40
0.7546179628
 40
0.8776383618
 40
1.0
 40
1.0
 40
1.0
 40
1.0
 10
10.9053132493
 20
8.3381399581
 30
0.0
 10
10.9071156833
 20
8.3324855056
 30
0.0
 10
10.9102456047
 20
8.3210523932
 30
0.0
 10
10.913441011
 20
8.3036165848
 30
0.0
 10
10.9150637558
 20
8.2860683788
 30
0.0
 10
10.9150630189
 20
8.2714466458
 30
0.0
 10
10.9142305003
 20
8.2598496636
 30
0.0
 10
10.9131911448
 20
8.2512326569
 30
0.0
 10
10.91173474
 20
8.2427044321
 30
0.0
 10
10.909242206
 20
8.2314986827
 30
0.0
 10
10.9050928599
 20
8.2178063037
 30
0.0
 10
10.9006728821
 20
8.2072635119
 30
0.0
 10
10.8982032773
 20
8.202138695
 30
0.0
  0
SPLINE
  5
301
100
AcDbEntity
  8
0
100
AcDbSpline
 62
7
  6
CONTINUOUS
 70
0
 71
3
 72
40
 73
36
 74
0
 42
0.0000001
 43
0.0000001
 44
0.0000000001
 40
0.0
 40
0.0
 40
0.0
 40
0.0
 40
0.0312902345
 40
0.0627550052
 40
0.0943838048
 40
0.1261640512
 40
0.1580778803
 40
0.190104625
 40
0.2222206369
 40
0.2544002121
 40
0.2866161858
 40
0.3188406523
 40
0.351045649
 40
0.3832038343
 40
0.4152891371
 40
0.4472773721
 40
0.4791468092
 40
0.510878691
 40
0.5424576916
 40
0.5738723089
 40
0.605115183
 40
0.6361833309
 40
0.6670782892
 40
0.697806155
 40
0.7283775143
 40
0.7588072532
 40
0.7891142429
 40
0.8193209002
 40
0.8494526239
 40
0.8795371201
 40
0.9096036309
 40
0.9396820913
 40
0.954738763
 40
0.9698095047
 40
1.0
 40
1.0
 40
1.0
 40
1.0
 10
8.3471930314
 20
7.2324539215
 30
0.0
 10
8.3446964381
 20
7.2326270609
 30
0.0
 10
8.3397013364
 20
7.2331817794
 30
0.0
 10
8.3322837591
 20
7.2346249626
 30
0.0
 10
8.3249684095
 20
7.2366715777
 30
0.0
 10
8.3178059485
 20
7.2393068979
 30
0.0
 10
8.3108448789
 20
7.242512339
 30
0.0
 10
8.3041323768
 20
7.2462652324
 30
0.0
 10
8.297713611
 20
7.2505392671
 30
0.0
 10
8.2916315212
 20
7.2553046253
 30
0.0
 10
8.2859265207
 20
7.2605282954
 30
0.0
 10
8.2806362534
 20
7.2661743353
 30
0.0
 10
8.2757953804
 20
7.272204172
 30
0.0
 10
8.2714353991
 20
7.2785768977
 30
0.0
 10
8.2675844912
 20
7.2852495701
 30
0.0
 10
8.2642673958
 20
7.292177508
 30
0.0
 10
8.2615053127
 20
7.2993145871
 30
0.0
 10
8.2593158247
 20
7.3066135264
 30
0.0
 10
8.2577128383
 20
7.3140261675
 30
0.0
 10
8.256706538
 20
7.3215037477
 30
0.0
 10
8.2563033545
 20
7.3289971668
 30
0.0
 10
8.2565059423
 20
7.33645725
 30
0.0
 10
8.2573131662
 20
7.3438350089
 30
0.0
 10
8.2587200967
 20
7.3510819025
 30
0.0
 10
8.2607180147
 20
7.3581501013
 30
0.0
 10
8.2632944248
 20
7.3649927569
 30
0.0
 10
8.266433079
 20
7.3715642779
 30
0.0
 10
8.2701140337
 20
7.3778206179
 30
0.0
 10
8.2743136812
 20
7.3837195441
 30
0.0
 10
8.2790049579
 20
7.3892210133
 30
0.0
 10
8.2841570146
 20
7.3942871751
 30
0.0
 10
8.2888058362
 20
7.3981166905
 30
0.0
 10
8.2927171513
 20
7.4009276928
 30
0.0
 10
8.2967553053
 20
7.4035691212
 30
0.0
 10
8.2999138684
 20
7.4053501209
 30
0.0
 10
8.3020669196
 20
7.4064431998
 30
0.0
  0
SPLINE
  5
302
100
AcDbEntity
  8
0
100
AcDbSpline
 62
7
  6
CONTINUOUS
 70
0
 71
3
 72
33
 73
29
 74
0
 42
0.0000001
 43
0.0000001
 44
0.0000000001
 40
0.0
 40
0.0
 40
0.0
 40
0.0
 40
0.030067151
 40
0.0601640048
 40
0.0903001467
 40
0.1204848063
 40
0.1810149964
 40
0.241838381
 40
0.2723872685
 40
0.3030291778
 40
0.3337691757
 40
0.3646114404
 40
0.4265953737
 40
0.4890152563
 40
0.5518687087
 40
0.6151345083
 40
0.6469207552
 40
0.6787933916
 40
0.7107442876
 40
0.7427641946
 40
0.774842747
 40
0.8069686092
 40
0.8391296009
 40
0.8713129498
 40
0.9035054361
 40
0.9356926639
 40
0.9678632057
 40
1.0
 40
1.0
 40
1.0
 40
1.0
 10
9.0207761498
 20
8.2765831573
 30
0.0
 10
9.0180896063
 20
8.2744622149
 30
0.0
 10
9.012603923
 20
8.2703553968
 30
0.0
 10
9.0040670451
 20
8.264621105
 30
0.0
 10
8.9952370508
 20
8.2593223046
 30
0.0
 10
8.9830913879
 20
8.2528498042
 30
0.0
 10
8.9672647981
 20
8.2459064621
 30
0.0
 10
8.950778261
 20
8.2405854581
 30
0.0
 10
8.9372702713
 20
8.2373286867
 30
0.0
 10
8.9269810934
 20
8.2353911773
 30
0.0
 10
8.9165741279
 20
8.2339708446
 30
0.0
 10
8.9025533938
 20
8.2327739132
 30
0.0
 10
8.8848480189
 20
8.2326105031
 30
0.0
 10
8.8635851961
 20
8.2345758578
 30
0.0
 10
8.8424884144
 20
8.2387201329
 30
0.0
 10
8.8252633367
 20
8.2439809069
 30
0.0
 10
8.8118062899
 20
8.2492570718
 30
0.0
 10
8.8018875348
 20
8.2537511068
 30
0.0
 10
8.7921923027
 20
8.2587666114
 30
0.0
 10
8.7827516258
 20
8.2642930575
 30
0.0
 10
8.7735968399
 20
8.2703175681
 30
0.0
 10
8.7647587592
 20
8.2768250008
 30
0.0
 10
8.7562676221
 20
8.283797945
 30
0.0
 10
8.7481527997
 20
8.2912167674
 30
0.0
 10
8.7404426551
 20
8.2990595343
 30
0.0
 10
8.7331637618
 20
8.3073023353
 30
0.0
 10
8.726341915
 20
8.3159187458
 30
0.0
 10
8.7221108607
 20
8.3218981527
 30
0.0
 10
8.7200791668
 20
8.3249406108
 30
0.0
  0
SPLINE
  5
303
100
AcDbEntity
  8
0
100
AcDbSpline
 62
7
  6
CONTINUOUS
 70
0
 71
3
 72
15
 73
11
 74
0
 42
0.0000001
 43
0.0000001
 44
0.0000000001
 40
0.0
 40
0.0
 40
0.0
 40
0.0
 40
0.1234973233
 40
0.2474715838
 40
0.3718941112
 40
0.496755376
 40
0.6220279381
 40
0.7476824291
 40
0.8736856022
 40
1.0
 40
1.0
 40
1.0
 40
1.0
 10
9.4039159794
 20
8.1865755024
 30
0.0
 10
9.4073109095
 20
8.1863400632
 30
0.0
 10
9.4141021968
 20
8.1856783674
 30
0.0
 10
9.4242362856
 20
8.1841227537
 30
0.0
 10
9.4343072214
 20
8.1820077922
 30
0.0
 10
9.4442834466
 20
8.179342139
 30
0.0
 10
9.4541350248
 20
8.1761362831
 30
0.0
 10
9.4638327753
 20
8.1724030668
 30
0.0
 10
9.4733484092
 20
8.1681574221
 30
0.0
 10
9.4795467247
 20
8.1649994411
 30
0.0
 10
9.4826069855
 20
8.163341082
 30
0.0
  0
SPLINE
  5
304
100
AcDbEntity
  8
0
100
AcDbSpline
 62
7
  6
CONTINUOUS
 70
0
 71
3
 72
42
 73
38
 74
0
 42
0.0000001
 43
0.0000001
 44
0.0000000001
 40
0.0
 40
0.0
 40
0.0
 40
0.0
 40
0.0314061485
 40
0.047194703
 40
0.0630342979
 40
0.0948491938
 40
0.1268353411
 40
0.1428877839
 40
0.158970947
 40
0.1912021559
 40
0.2234992591
 40
0.2558222222
 40
0.2881312825
 40
0.3203883115
 40
0.352557971
 40
0.3846086604
 40
0.4005847033
 40
0.4165212419
 40
0.4482577709
 40
0.4798097721
 40
0.5111667333
 40
0.5423243489
 40
0.5732847082
 40
0.6040563918
 40
0.6346544522
 40
0.665100246
 40
0.6954210774
 40
0.7256496044
 40
0.7558229694
 40
0.7859816259
 40
0.8161678611
 40
0.8464240476
 40
0.8767907041
 40
0.9073044584
 40
0.937996296
 40
0.9688889086
 40
1.0
 40
1.0
 40
1.0
 40
1.0
 10
11.1251958312
 20
7.3685902721
 30
0.0
 10
11.1221948732
 20
7.3687983893
 30
0.0
 10
11.117697069
 20
7.3693423035
 30
0.0
 10
11.1117727704
 20
7.3705154351
 30
0.0
 10
11.1058755866
 20
7.371991303
 30
0.0
 10
11.0986208099
 20
7.3743904031
 30
0.0
 10
11.0916146561
 20
7.3774897992
 30
0.0
 10
11.0861881048
 20
7.3803704849
 30
0.0
 10
11.0808838758
 20
7.3835168751
 30
0.0
 10
11.0745272745
 20
7.3879213235
 30
0.0
 10
11.0674139449
 20
7.3938958223
 30
0.0
 10
11.060870717
 20
7.400500449
 30
0.0
 10
11.0549540446
 20
7.4076663176
 30
0.0
 10
11.0497122721
 20
7.4153218174
 30
0.0
 10
11.0451868151
 20
7.4233924663
 30
0.0
 10
11.0420369172
 20
7.4304104953
 30
0.0
 10
11.0399074532
 20
7.4361569667
 30
0.0
 10
11.0380458943
 20
7.4419641143
 30
0.0
 10
11.0362163599
 20
7.4493400732
 30
0.0
 10
11.0348329919
 20
7.4583115547
 30
0.0
 10
11.034273567
 20
7.4673167844
 30
0.0
 10
11.0345421981
 20
7.4762788264
 30
0.0
 10
11.0356373176
 20
7.4851215924
 30
0.0
 10
11.0375518501
 20
7.4937692471
 30
0.0
 10
11.0402729992
 20
7.5021465153
 30
0.0
 10
11.0437820093
 20
7.5101788356
 30
0.0
 10
11.0480538295
 20
7.5177926865
 30
0.0
 10
11.0530567325
 20
7.5249160417
 30
0.0
 10
11.0587519254
 20
7.5314789986
 30
0.0
 10
11.065093206
 20
7.5374145914
 30
0.0
 10
11.0720267297
 20
7.5426597854
 30
0.0
 10
11.079490941
 20
7.5471566322
 30
0.0
 10
11.0874167871
 20
7.5508535236
 30
0.0
 10
11.095728056
 20
7.5537065434
 30
0.0
 10
11.1043426298
 20
7.5556805702
 30
0.0
 10
11.1131719648
 20
7.5567508096
 30
0.0
 10
11.1191224029
 20
7.556851613
 30
0.0
 10
11.1221005836
 20
7.5567502703
 30
0.0
  0
SPLINE
  5
305
100
AcDbEntity
  8
0
100
AcDbSpline
 62
7
  6
CONTINUOUS
 70
0
 71
3
 72
37
 73
33
 74
0
 42
0.0000001
 43
0.0000001
 44
0.0000000001
 40
0.0
 40
0.0
 40
0.0
 40
0.0
 40
0.0760189178
 40
0.1532636611
 40
0.2310397298
 40
0.3086445608
 40
0.3853780616
 40
0.4605501846
 40
0.4973406979
 40
0.5334908402
 40
0.5689208038
 40
0.6035530159
 40
0.6373123916
 40
0.6701265632
 40
0.7019262312
 40
0.732645583
 40
0.7622225511
 40
0.7905991985
 40
0.8177223189
 40
0.8435439591
 40
0.8680219988
 40
0.8911210382
 40
0.9128135855
 40
0.9330814124
 40
0.9426790379
 40
0.9519188858
 40
0.9608021119
 40
0.9693311776
 40
0.9775099159
 40
0.9853433145
 40
0.9928374837
 40
1.0
 40
1.0
 40
1.0
 40
1.0
 10
13.1889867279
 20
8.5694105283
 30
0.0
 10
13.1889867279
 20
8.5804058911
 30
0.0
 10
13.189280753
 20
8.6025748667
 30
0.0
 10
13.1905637757
 20
8.6359710119
 30
0.0
 10
13.1926815556
 20
8.6695546399
 30
0.0
 10
13.1956137537
 20
8.7030027461
 30
0.0
 10
13.1993321052
 20
8.7359935987
 30
0.0
 10
13.2030820162
 20
8.7630312299
 30
0.0
 10
13.2064563662
 20
8.7841873986
 30
0.0
 10
13.2091409857
 20
8.7996310505
 30
0.0
 10
13.2119909743
 20
8.8147274721
 30
0.0
 10
13.2149994634
 20
8.8294403648
 30
0.0
 10
13.2181591593
 20
8.8437343313
 30
0.0
 10
13.2214624271
 20
8.857574992
 30
0.0
 10
13.224901283
 20
8.8709290705
 30
0.0
 10
13.2284673842
 20
8.8837644912
 30
0.0
 10
13.2321520922
 20
8.8960504422
 30
0.0
 10
13.235946501
 20
8.9077574518
 30
0.0
 10
13.239841416
 20
8.918857488
 30
0.0
 10
13.2438273978
 20
8.9293240424
 30
0.0
 10
13.2478948163
 20
8.9391321543
 30
0.0
 10
13.2520338963
 20
8.9482586045
 30
0.0
 10
13.2562346624
 20
8.9566816721
 30
0.0
 10
13.2598410333
 20
8.9632122539
 30
0.0
 10
13.2627566438
 20
8.9680596991
 30
0.0
 10
13.2649126437
 20
8.9714408124
 30
0.0
 10
13.2670765218
 20
8.9746318311
 30
0.0
 10
13.2692470602
 20
8.9776308939
 30
0.0
 10
13.2714229865
 20
8.9804362917
 30
0.0
 10
13.27360312
 20
8.9830463257
 30
0.0
 10
13.2757859715
 20
8.9854593143
 30
0.0
 10
13.2772752689
 20
8.9869692192
 30
0.0
 10
13.2780204059
 20
8.9876889663
 30
0.0
  0
SPLINE
  5
306
100
AcDbEntity
  8
0
100
AcDbSpline
 62
7
  6
CONTINUOUS
 70
0
 71
3
 72
37
 73
33
 74
0
 42
0.0000001
 43
0.0000001
 44
0.0000000001
 40
0.0
 40
0.0
 40
0.0
 40
0.0
 40
0.0760189178
 40
0.1532636611
 40
0.2310397298
 40
0.3086445608
 40
0.3853780616
 40
0.4605501846
 40
0.4973406979
 40
0.5334908402
 40
0.5689208038
 40
0.6035530159
 40
0.6373123916
 40
0.6701265632
 40
0.7019262312
 40
0.732645583
 40
0.7622225511
 40
0.7905991985
 40
0.8177223189
 40
0.8435439591
 40
0.8680219988
 40
0.8911210382
 40
0.9128135855
 40
0.9330814124
 40
0.9426790379
 40
0.9519188858
 40
0.9608021119
 40
0.9693311776
 40
0.9775099159
 40
0.9853433145
 40
0.9928374837
 40
1.0
 40
1.0
 40
1.0
 40
1.0
 10
13.1510196417
 20
8.563737137
 30
0.0
 10
13.1510196417
 20
8.575723361
 30
0.0
 10
13.1513401633
 20
8.5998901222
 30
0.0
 10
13.1527388072
 20
8.6362958037
 30
0.0
 10
13.1550474336
 20
8.6729058633
 30
0.0
 10
13.1582438704
 20
8.7093681884
 30
0.0
 10
13.1622973059
 20
8.7453320539
 30
0.0
 10
13.166385145
 20
8.7748062158
 30
0.0
 10
13.1700635789
 20
8.7978688998
 30
0.0
 10
13.1729901263
 20
8.814704276
 30
0.0
 10
13.1760969452
 20
8.831161131
 30
0.0
 10
13.1793765482
 20
8.8471998949
 30
0.0
 10
13.1828209841
 20
8.8627819805
 30
0.0
 10
13.1864219301
 20
8.87786991
 30
0.0
 10
13.190170683
 20
8.8924274084
 30
0.0
 10
13.1940581479
 20
8.9064195094
 30
0.0
 10
13.1980749081
 20
8.9198126246
 30
0.0
 10
13.2022112549
 20
8.9325746263
 30
0.0
 10
13.2064571651
 20
8.9446749564
 30
0.0
 10
13.2108023487
 20
8.9560847178
 30
0.0
 10
13.2152363078
 20
8.9667767003
 30
0.0
 10
13.2197483864
 20
8.9767255922
 30
0.0
 10
13.2243277099
 20
8.9859077153
 30
0.0
 10
13.2282590735
 20
8.9930268089
 30
0.0
 10
13.2314374279
 20
8.9983110877
 30
0.0
 10
13.2337877185
 20
9.0019968945
 30
0.0
 10
13.2361465973
 20
9.0054754758
 30
0.0
 10
13.2385127365
 20
9.0087448031
 30
0.0
 10
13.2408847492
 20
9.0118030129
 30
0.0
 10
13.2432613482
 20
9.0146482535
 30
0.0
 10
13.2456409102
 20
9.0172786915
 30
0.0
 10
13.2472644175
 20
9.0189246634
 30
0.0
 10
13.2480767035
 20
9.0197092715
 30
0.0
  0
SPLINE
  5
307
100
AcDbEntity
  8
0
100
AcDbSpline
 62
7
  6
CONTINUOUS
 70
0
 71
3
 72
23
 73
19
 74
0
 42
0.0000001
 43
0.0000001
 44
0.0000000001
 40
0.0
 40
0.0
 40
0.0
 40
0.0
 40
0.0755943795
 40
0.1466381136
 40
0.2134648076
 40
0.276513129
 40
0.3363244122
 40
0.3935446119
 40
0.4489206108
 40
0.5032854618
 40
0.5575232172
 40
0.6125244805
 40
0.6691407076
 40
0.7281464197
 40
0.7902174387
 40
0.855922056
 40
0.9257257604
 40
1.0
 40
1.0
 40
1.0
 40
1.0
 10
14.0948526381
 20
9.7766883619
 30
0.0
 10
14.0958086937
 20
9.7776118407
 30
0.0
 10
14.0977195852
 20
9.7793464373
 30
0.0
 10
14.1006768683
 20
9.7816638022
 30
0.0
 10
14.103630727
 20
9.7836100537
 30
0.0
 10
14.1065783643
 20
9.7851822718
 30
0.0
 10
14.1095173662
 20
9.7863775383
 30
0.0
 10
14.1124446727
 20
9.7871930698
 30
0.0
 10
14.1153564936
 20
9.7876258352
 30
0.0
 10
14.1182479395
 20
9.7876739265
 30
0.0
 10
14.1211134594
 20
9.7873364798
 30
0.0
 10
14.1239475168
 20
9.7866146633
 30
0.0
 10
14.1267452673
 20
9.7855107646
 30
0.0
 10
14.1295030425
 20
9.7840281246
 30
0.0
 10
14.1322180019
 20
9.7821700387
 30
0.0
 10
14.1348880078
 20
9.7799398113
 30
0.0
 10
14.1375108533
 20
9.7773406753
 30
0.0
 10
14.1391731699
 20
9.7754256421
 30
0.0
 10
14.1399972208
 20
9.7744124178
 30
0.0
  0
SPLINE
  5
308
100
AcDbEntity
  8
0
100
AcDbSpline
 62
7
  6
CONTINUOUS
 70
0
 71
3
 72
39
 73
35
 74
0
 42
0.0000001
 43
0.0000001
 44
0.0000000001
 40
0.0
 40
0.0
 40
0.0
 40
0.0
 40
0.0322366683
 40
0.0645602744
 40
0.0969378149
 40
0.1293364473
 40
0.1617245612
 40
0.1940725934
 40
0.2263536092
 40
0.2585436705
 40
0.2906220369
 40
0.3225712745
 40
0.3543772968
 40
0.3860293725
 40
0.4175201241
 40
0.4488455374
 40
0.480004993
 40
0.511001323
 40
0.541840892
 40
0.5725336895
 40
0.6030934209
 40
0.6335375681
 40
0.663887387
 40
0.6941677973
 40
0.7244071147
 40
0.754636574
 40
0.7848895823
 40
0.815200675
 40
0.8456042312
 40
0.8761329333
 40
0.9068160761
 40
0.9376779214
 40
0.9687356219
 40
1.0
 40
1.0
 40
1.0
 40
1.0
 10
9.3252249329
 20
7.7868453668
 30
0.0
 10
9.3199520769
 20
7.7897027339
 30
0.0
 10
9.3096374108
 20
7.7958908476
 30
0.0
 10
9.2950041639
 20
7.806466126
 30
0.0
 10
9.2812805583
 20
7.8182448754
 30
0.0
 10
9.2685568731
 20
7.8311124745
 30
0.0
 10
9.2569079301
 20
7.8449525507
 30
0.0
 10
9.2463966537
 20
7.8596475656
 30
0.0
 10
9.2370746085
 20
7.8750806692
 30
0.0
 10
9.2289835099
 20
7.8911366086
 30
0.0
 10
9.2221564917
 20
7.9077023426
 30
0.0
 10
9.2166193231
 20
7.9246672628
 30
0.0
 10
9.2123914614
 20
7.9419231508
 30
0.0
 10
9.209486927
 20
7.9593639192
 30
0.0
 10
9.2079149773
 20
7.9768852026
 30
0.0
 10
9.207680573
 20
7.9943838464
 30
0.0
 10
9.2087846318
 20
8.0117573406
 30
0.0
 10
9.2112240666
 20
8.0289032392
 30
0.0
 10
9.2149916085
 20
8.0457186023
 30
0.0
 10
9.2200754102
 20
8.0620995052
 30
0.0
 10
9.2264584345
 20
8.0779406546
 30
0.0
 10
9.2341176281
 20
8.0931351661
 30
0.0
 10
9.243022894
 20
8.1075745612
 30
0.0
 10
9.2531358878
 20
8.1211490488
 30
0.0
 10
9.2644086852
 20
8.133748164
 30
0.0
 10
9.2767823951
 20
8.145261827
 30
0.0
 10
9.2901858127
 20
8.1555818839
 30
0.0
 10
9.3045342573
 20
8.1646041913
 30
0.0
 10
9.3197288115
 20
8.1722311299
 30
0.0
 10
9.3356561762
 20
8.1783745186
 30
0.0
 10
9.352188969
 20
8.1829587385
 30
0.0
 10
9.3691878408
 20
8.1859237946
 30
0.0
 10
9.386500681
 20
8.1872285286
 30
0.0
 10
9.3981135047
 20
8.1869779054
 30
0.0
 10
9.4039159794
 20
8.1865755024
 30
0.0
  0
SPLINE
  5
309
100
AcDbEntity
  8
0
100
AcDbSpline
 62
7
  6
CONTINUOUS
 70
0
 71
3
 72
17
 73
13
 74
0
 42
0.0000001
 43
0.0000001
 44
0.0000000001
 40
0.0
 40
0.0
 40
0.0
 40
0.0
 40
0.150471556
 40
0.2917298894
 40
0.4244686628
 40
0.4879395726
 40
0.549641991
 40
0.6683006469
 40
0.7818338801
 40
0.8918016626
 40
0.9460162521
 40
1.0
 40
1.0
 40
1.0
 40
1.0
 10
14.0649089357
 20
9.8087086671
 30
0.0
 10
14.0659690535
 20
9.8097326623
 30
0.0
 10
14.0680879326
 20
9.8116540105
 30
0.0
 10
14.0713687627
 20
9.8142145303
 30
0.0
 10
14.0741400457
 20
9.8160254694
 30
0.0
 10
14.0763498862
 20
9.8172517682
 30
0.0
 10
14.0784946144
 20
9.818304595
 30
0.0
 10
14.0811766134
 20
9.8193683339
 30
0.0
 10
14.0844231979
 20
9.8202323053
 30
0.0
 10
14.087128093
 20
9.8205933896
 30
0.0
 10
14.0892652748
 20
9.820661979
 30
0.0
 10
14.0903254414
 20
9.8206245099
 30
0.0
 10
14.0908529606
 20
9.8205879276
 30
0.0
  0
SPLINE
  5
30A
100
AcDbEntity
  8
0
100
AcDbSpline
 62
7
  6
CONTINUOUS
 70
0
 71
3
 72
54
 73
50
 74
0
 42
0.0000001
 43
0.0000001
 44
0.0000000001
 40
0.0
 40
0.0
 40
0.0
 40
0.0
 40
0.0417740197
 40
0.0840369268
 40
0.1266584739
 40
0.1695064515
 40
0.2124480526
 40
0.2553499924
 40
0.2980791772
 40
0.3405031837
 40
0.3824907982
 40
0.4239125423
 40
0.4646412069
 40
0.5045523931
 40
0.5435250633
 40
0.5814421087
 40
0.6181909396
 40
0.6536641094
 40
0.6877599869
 40
0.70426175
 40
0.7203841332
 40
0.736116388
 40
0.7514483447
 40
0.7663703487
 40
0.7808733738
 40
0.794949022
 40
0.808589586
 40
0.8217881286
 40
0.8345384932
 40
0.8468354707
 40
0.8586747702
 40
0.8700532744
 40
0.8809689986
 40
0.8914214303
 40
0.9014115213
 40
0.9109421064
 40
0.9200179908
 40
0.9286464482
 40
0.9368374736
 40
0.9446043749
 40
0.9519642461
 40
0.958938656
 40
0.965554326
 40
0.971843822
 40
0.977846209
 40
0.9836073767
 40
0.9891800572
 40
0.9946230807
 40
1.0
 40
1.0
 40
1.0
 40
1.0
 10
13.8545094292
 20
8.4717649527
 30
0.0
 10
13.8545094292
 20
8.4571760494
 30
0.0
 10
13.8542818272
 20
8.4278270481
 30
0.0
 10
13.8532756367
 20
8.3836035267
 30
0.0
 10
13.851605611
 20
8.339024698
 30
0.0
 10
13.8492772205
 20
8.2942381146
 30
0.0
 10
13.8462981623
 20
8.2493919647
 30
0.0
 10
13.8426782823
 20
8.2046346065
 30
0.0
 10
13.8384295724
 20
8.1601141185
 30
0.0
 10
13.8335661169
 20
8.1159777843
 30
0.0
 10
13.8281040518
 20
8.0723716099
 30
0.0
 10
13.8220615102
 20
8.0294398342
 30
0.0
 10
13.8154585637
 20
7.9873244478
 30
0.0
 10
13.8083171572
 20
7.9461647191
 30
0.0
 10
13.8006610383
 20
7.9060967199
 30
0.0
 10
13.7925156773
 20
7.86725289
 30
0.0
 10
13.7839081966
 20
7.8297615024
 30
0.0
 10
13.7748672387
 20
7.7937465236
 30
0.0
 10
13.7669129312
 20
7.7647562316
 30
0.0
 10
13.7603435239
 20
7.7424000719
 30
0.0
 10
13.7553807729
 20
7.7262575431
 30
0.0
 10
13.7503327615
 20
7.7105700858
 30
0.0
 10
13.7452036878
 20
7.69535064
 30
0.0
 10
13.73999778
 20
7.6806117816
 30
0.0
 10
13.7347193727
 20
7.6663656722
 30
0.0
 10
13.7293728347
 20
7.6526240653
 30
0.0
 10
13.7239625882
 20
7.6393982905
 30
0.0
 10
13.7184931362
 20
7.6266992369
 30
0.0
 10
13.7129689664
 20
7.6145373621
 30
0.0
 10
13.7073946972
 20
7.6029226466
 30
0.0
 10
13.7017748614
 20
7.5918646383
 30
0.0
 10
13.6961141639
 20
7.5813723671
 30
0.0
 10
13.6904171615
 20
7.5714544338
 30
0.0
 10
13.6846886024
 20
7.5621188803
 30
0.0
 10
13.6789330402
 20
7.5533733251
 30
0.0
 10
13.6731552033
 20
7.5452247952
 30
0.0
 10
13.6673595988
 20
7.5376798999
 30
0.0
 10
13.6615508462
 20
7.5307446504
 30
0.0
 10
13.6557333353
 20
7.5244246511
 30
0.0
 10
13.6499114624
 20
7.5187249586
 30
0.0
 10
13.6440894079
 20
7.5136502599
 30
0.0
 10
13.6382712491
 20
7.5092048521
 30
0.0
 10
13.6324609297
 20
7.5053927602
 30
0.0
 10
13.6266623176
 20
7.5022179111
 30
0.0
 10
13.6208794231
 20
7.4996840713
 30
0.0
 10
13.6151166426
 20
7.4977951409
 30
0.0
 10
13.6093787865
 20
7.4965546302
 30
0.0
 10
13.6036727724
 20
7.4959657059
 30
0.0
 10
13.5998844662
 20
7.4960089298
 30
0.0
 10
13.5980111631
 20
7.4961388434
 30
0.0
  0
SPLINE
  5
30B
100
AcDbEntity
  8
0
100
AcDbSpline
 62
7
  6
CONTINUOUS
 70
0
 71
3
 72
43
 73
39
 74
0
 42
0.0000001
 43
0.0000001
 44
0.0000000001
 40
0.0
 40
0.0
 40
0.0
 40
0.0
 40
0.0152491057
 40
0.0305389301
 40
0.0458715603
 40
0.0612487221
 40
0.0921338087
 40
0.1232083165
 40
0.138820582
 40
0.1544797148
 40
0.1701848162
 40
0.1859346527
 40
0.2175549256
 40
0.2493316939
 40
0.2812446644
 40
0.3132699968
 40
0.3453810337
 40
0.3775490474
 40
0.4097439913
 40
0.4419352456
 40
0.4740923538
 40
0.5061857499
 40
0.5381874754
 40
0.5700718835
 40
0.6018163239
 40
0.6334018017
 40
0.664813599
 40
0.6960418343
 40
0.7270819377
 40
0.7579350058
 40
0.7886080079
 40
0.8191138089
 40
0.8494709713
 40
0.8797033156
 40
0.9098392163
 40
0.9399108083
 40
0.9699521954
 40
1.0
 40
1.0
 40
1.0
 40
1.0
 10
9.8673698699
 20
7.1836341637
 30
0.0
 10
9.8646593209
 20
7.1828103372
 30
0.0
 10
9.8591916454
 20
7.1812869006
 30
0.0
 10
9.8508825178
 20
7.1793812331
 30
0.0
 10
9.8424708744
 20
7.1778551448
 30
0.0
 10
9.8311268632
 20
7.1763275445
 30
0.0
 10
9.8167696709
 20
7.1753810703
 30
0.0
 10
9.8023424002
 20
7.1757182048
 30
0.0
 10
9.790802626
 20
7.1767484397
 30
0.0
 10
9.7821490827
 20
7.1779022277
 30
0.0
 10
9.7735282754
 20
7.1794328573
 30
0.0
 10
9.7620860025
 20
7.181974059
 30
0.0
 10
9.7479460999
 20
7.1860765201
 30
0.0
 10
9.7313947359
 20
7.1924235906
 30
0.0
 10
9.7153562295
 20
7.2001490197
 30
0.0
 10
9.6999494315
 20
7.2091902128
 30
0.0
 10
9.6852866165
 20
7.2194762176
 30
0.0
 10
9.6714743799
 20
7.2309280709
 30
0.0
 10
9.6586128545
 20
7.243459448
 30
0.0
 10
9.6467954119
 20
7.256977166
 30
0.0
 10
9.6361082927
 20
7.2713817191
 30
0.0
 10
9.6266302495
 20
7.2865677489
 30
0.0
 10
9.6184321664
 20
7.3024245071
 30
0.0
 10
9.6115766609
 20
7.3188363198
 30
0.0
 10
9.6061176238
 20
7.3356830583
 30
0.0
 10
9.6020997535
 20
7.3528406684
 30
0.0
 10
9.599558076
 20
7.3701817556
 30
0.0
 10
9.5985174221
 20
7.3875762391
 30
0.0
 10
9.5989919129
 20
7.4048921007
 30
0.0
 10
9.6009844309
 20
7.4219962408
 30
0.0
 10
9.6044861348
 20
7.4387554629
 30
0.0
 10
9.6094761137
 20
7.455037572
 30
0.0
 10
9.6159210845
 20
7.4707125736
 30
0.0
 10
9.6237753247
 20
7.4856540047
 30
0.0
 10
9.6329804752
 20
7.4997402254
 30
0.0
 10
9.6434665197
 20
7.5128562322
 30
0.0
 10
9.6551496883
 20
7.5248933923
 30
0.0
 10
9.663674308
 20
7.5321326551
 30
0.0
 10
9.6680978481
 20
7.5355376724
 30
0.0
  0
SPLINE
  5
30C
100
AcDbEntity
  8
0
100
AcDbSpline
 62
7
  6
CONTINUOUS
 70
0
 71
3
 72
39
 73
35
 74
0
 42
0.0000001
 43
0.0000001
 44
0.0000000001
 40
0.0
 40
0.0
 40
0.0
 40
0.0
 40
0.0310619836
 40
0.0622719669
 40
0.0936195064
 40
0.125099558
 40
0.1567004753
 40
0.188409634
 40
0.2202123702
 40
0.2520923083
 40
0.2840318028
 40
0.3160121729
 40
0.3480140835
 40
0.3800178851
 40
0.412003936
 40
0.4439529299
 40
0.4758462472
 40
0.5076662764
 40
0.5393967021
 40
0.5710227767
 40
0.6025316015
 40
0.6339123743
 40
0.6651565822
 40
0.6962581637
 40
0.7272136562
 40
0.758022311
 40
0.7886861329
 40
0.8192098725
 40
0.8496009779
 40
0.8798695109
 40
0.9100279858
 40
0.9400911482
 40
0.9700757016
 40
1.0
 40
1.0
 40
1.0
 40
1.0
 10
11.2449706615
 20
8.6004910741
 30
0.0
 10
11.2428748508
 20
8.6006364191
 30
0.0
 10
11.2386819361
 20
8.6010733874
 30
0.0
 10
11.2324391523
 20
8.6021591526
 30
0.0
 10
11.2262564874
 20
8.6036718076
 30
0.0
 10
11.2201641261
 20
8.6056036448
 30
0.0
 10
11.2141910313
 20
8.607945395
 30
0.0
 10
11.2083658284
 20
8.6106855415
 30
0.0
 10
11.2027162743
 20
8.6138107098
 30
0.0
 10
11.1972692542
 20
8.6173057059
 30
0.0
 10
11.1920506276
 20
8.6211535894
 30
0.0
 10
11.1870851038
 20
8.6253357625
 30
0.0
 10
11.1823960958
 20
8.6298320362
 30
0.0
 10
11.1780056592
 20
8.6346207971
 30
0.0
 10
11.1739343945
 20
8.6396791062
 30
0.0
 10
11.170201368
 20
8.6449828153
 30
0.0
 10
11.1668239726
 20
8.6505066459
 30
0.0
 10
11.1638179118
 20
8.6562243571
 30
0.0
 10
11.1611971436
 20
8.6621088654
 30
0.0
 10
11.1589738419
 20
8.6681323685
 30
0.0
 10
11.1571582893
 20
8.674266446
 30
0.0
 10
11.1557588657
 20
8.6804822053
 30
0.0
 10
11.154782051
 20
8.6867504126
 30
0.0
 10
11.1542324059
 20
8.6930416117
 30
0.0
 10
11.1541125152
 20
8.6993262421
 30
0.0
 10
11.1544229563
 20
8.7055747722
 30
0.0
 10
11.1551623591
 20
8.7117578268
 30
0.0
 10
11.1563273995
 20
8.7178463045
 30
0.0
 10
11.1579127951
 20
8.7238114967
 30
0.0
 10
11.1599112666
 20
8.7296252445
 30
0.0
 10
11.162313608
 20
8.7352600098
 30
0.0
 10
11.1651088208
 20
8.7406891429
 30
0.0
 10
11.1682837238
 20
8.7458864502
 30
0.0
 10
11.1706461291
 20
8.7491836747
 30
0.0
 10
11.1718846536
 20
8.7507843688
 30
0.0
  0
SPLINE
  5
30D
100
AcDbEntity
  8
0
100
AcDbSpline
 62
7
  6
CONTINUOUS
 70
0
 71
3
 72
15
 73
11
 74
0
 42
0.0000001
 43
0.0000001
 44
0.0000000001
 40
0.0
 40
0.0
 40
0.0
 40
0.0
 40
0.1233759676
 40
0.2471266856
 40
0.3713069087
 40
0.4959646921
 40
0.6211386067
 40
0.7468543562
 40
0.8731463839
 40
1.0
 40
1.0
 40
1.0
 40
1.0
 10
8.3923191431
 20
7.2414224491
 30
0.0
 10
8.3906116853
 20
7.2405555928
 30
0.0
 10
8.3871303453
 20
7.2389369902
 30
0.0
 10
8.3817458304
 20
7.2368708708
 30
0.0
 10
8.376213433
 20
7.2351717242
 30
0.0
 10
8.3705569888
 20
7.2338473278
 30
0.0
 10
8.3648006236
 20
7.2329036338
 30
0.0
 10
8.3589687569
 20
7.2323447733
 30
0.0
 10
8.3530869088
 20
7.2321734622
 30
0.0
 10
8.3491571926
 20
7.2323177065
 30
0.0
 10
8.3471930314
 20
7.2324539215
 30
0.0
  0
SPLINE
  5
30E
100
AcDbEntity
  8
0
100
AcDbSpline
 62
7
  6
CONTINUOUS
 70
0
 71
3
 72
63
 73
59
 74
0
 42
0.0000001
 43
0.0000001
 44
0.0000000001
 40
0.0
 40
0.0
 40
0.0
 40
0.0
 40
0.0446437941
 40
0.089851363
 40
0.1354499896
 40
0.1812640149
 40
0.2271171949
 40
0.2728329719
 40
0.318235481
 40
0.3631503928
 40
0.4074057812
 40
0.450832999
 40
0.4932675638
 40
0.5345500693
 40
0.5745271332
 40
0.6130523767
 40
0.6317273395
 40
0.6499881828
 40
0.6678190767
 40
0.6852048535
 40
0.702131011
 40
0.7185838651
 40
0.734550477
 40
0.750018833
 40
0.7649778523
 40
0.7794174585
 40
0.7933287643
 40
0.8067040482
 40
0.8195370351
 40
0.8318229537
 40
0.8435587642
 40
0.8547434554
 40
0.8653782179
 40
0.8754669652
 40
0.8850166548
 40
0.8940379193
 40
0.9025457715
 40
0.9105603515
 40
0.9181080475
 40
0.9252224786
 40
0.9319457416
 40
0.9383294239
 40
0.9444351945
 40
0.9474072166
 40
0.950337397
 40
0.9532360052
 40
0.9561136845
 40
0.9589813266
 40
0.9618499506
 40
0.9647305627
 40
0.9676340187
 40
0.9705709051
 40
0.9735514124
 40
0.9796791432
 40
0.9860906845
 40
0.9894232025
 40
0.9928486026
 40
1.0
 40
1.0
 40
1.0
 40
1.0
 10
13.8780328189
 20
8.4725664934
 30
0.0
 10
13.8780328189
 20
8.4561153421
 30
0.0
 10
13.8777466598
 20
8.423004654
 30
0.0
 10
13.8764842021
 20
8.3731054307
 30
0.0
 10
13.8743904137
 20
8.3228024705
 30
0.0
 10
13.8714737972
 20
8.2723022736
 30
0.0
 10
13.8677463207
 20
8.2218121526
 30
0.0
 10
13.8632232783
 20
8.1715393117
 30
0.0
 10
13.8579232757
 20
8.1216900744
 30
0.0
 10
13.85186814
 20
8.072469007
 30
0.0
 10
13.8450828269
 20
8.0240780761
 30
0.0
 10
13.8375953233
 20
7.9767158053
 30
0.0
 10
13.8294365297
 20
7.9305764753
 30
0.0
 10
13.8206401526
 20
7.885849212
 30
0.0
 10
13.8112425256
 20
7.8427175307
 30
0.0
 10
13.8028581181
 20
7.8078997789
 30
0.0
 10
13.7958655752
 20
7.7809854679
 30
0.0
 10
13.7905498842
 20
7.7615161184
 30
0.0
 10
13.7851140948
 20
7.7425736974
 30
0.0
 10
13.7795637856
 20
7.7241776066
 30
0.0
 10
13.7739046368
 20
7.7063467129
 30
0.0
 10
13.7681425257
 20
7.6890992768
 30
0.0
 10
13.7622833351
 20
7.6724529694
 30
0.0
 10
13.7563331217
 20
7.6564248229
 30
0.0
 10
13.7502980117
 20
7.6410312274
 30
0.0
 10
13.7441841734
 20
7.6262879195
 30
0.0
 10
13.7379979462
 20
7.6122099292
 30
0.0
 10
13.7317456153
 20
7.5988116165
 30
0.0
 10
13.7254336291
 20
7.5861065922
 30
0.0
 10
13.7190684221
 20
7.5741077451
 30
0.0
 10
13.7126564414
 20
7.5628272199
 30
0.0
 10
13.7062042318
 20
7.5522763527
 30
0.0
 10
13.6997181887
 20
7.5424657558
 30
0.0
 10
13.693204806
 20
7.5334051805
 30
0.0
 10
13.6866703971
 20
7.5251036281
 30
0.0
 10
13.6801211709
 20
7.5175693118
 30
0.0
 10
13.673563217
 20
7.5108096366
 30
0.0
 10
13.6670022603
 20
7.5048314374
 30
0.0
 10
13.6604438855
 20
7.4996408418
 30
0.0
 10
13.6538933605
 20
7.4952437327
 30
0.0
 10
13.6473556096
 20
7.4916457745
 30
0.0
 10
13.6408367186
 20
7.4888527461
 30
0.0
 10
13.6353743358
 20
7.4871860135
 30
0.0
 10
13.63104183
 20
7.4862752522
 30
0.0
 10
13.6278314606
 20
7.4858011543
 30
0.0
 10
13.6246324924
 20
7.4855303825
 30
0.0
 10
13.621445776
 20
7.485462969
 30
0.0
 10
13.6182722908
 20
7.4855990078
 30
0.0
 10
13.6151130031
 20
7.4859385197
 30
0.0
 10
13.611968863
 20
7.4864813258
 30
0.0
 10
13.6088408224
 20
7.4872271966
 30
0.0
 10
13.6057297254
 20
7.4881759701
 30
0.0
 10
13.6015677034
 20
7.4897248777
 30
0.0
 10
13.5963929982
 20
7.4921907109
 30
0.0
 10
13.591405342
 20
7.4952654523
 30
0.0
 10
13.5874672415
 20
7.4981038628
 30
0.0
 10
13.5834507646
 20
7.5012903987
 30
0.0
 10
13.580560353
 20
7.5039137682
 30
0.0
 10
13.5786769214
 20
7.5057569625
 30
0.0
  0
SPLINE
  5
30F
100
AcDbEntity
  8
0
100
AcDbSpline
 62
7
  6
CONTINUOUS
 70
0
 71
3
 72
48
 73
44
 74
0
 42
0.0000001
 43
0.0000001
 44
0.0000000001
 40
0.0
 40
0.0
 40
0.0
 40
0.0
 40
0.0964108411
 40
0.1436629969
 40
0.1901840775
 40
0.2359033511
 40
0.2807524227
 40
0.3246647675
 40
0.3675757774
 40
0.409423102
 40
0.4501468359
 40
0.4896897051
 40
0.5279972811
 40
0.5650182461
 40
0.6007047408
 40
0.6350126467
 40
0.6679019497
 40
0.6993372137
 40
0.7292882004
 40
0.7577304994
 40
0.7846463636
 40
0.8100258215
 40
0.8221395167
 40
0.8338697002
 40
0.8452180848
 40
0.8561871029
 40
0.8667802012
 40
0.8770018508
 40
0.8868575949
 40
0.8963543798
 40
0.905500506
 40
0.9143058857
 40
0.9227822946
 40
0.9309434023
 40
0.9388051532
 40
0.9463858921
 40
0.9607837109
 40
0.9676580621
 40
0.9743519331
 40
0.9808974882
 40
0.987329323
 40
0.9936841143
 40
1.0
 40
1.0
 40
1.0
 40
1.0
 10
13.8545094292
 20
8.4717649527
 30
0.0
 10
13.8545094292
 20
8.4919893265
 30
0.0
 10
13.8541859262
 20
8.5221275003
 30
0.0
 10
13.8530706909
 20
8.5620079961
 30
0.0
 10
13.8519086664
 20
8.5912473983
 30
0.0
 10
13.8504174803
 20
8.6199670672
 30
0.0
 10
13.8485996114
 20
8.6481196101
 30
0.0
 10
13.8464581066
 20
8.6756585936
 30
0.0
 10
13.8439965268
 20
8.7025386152
 30
0.0
 10
13.8412189663
 20
8.7287153497
 30
0.0
 10
13.8381300646
 20
8.7541456585
 30
0.0
 10
13.8347349736
 20
8.7787876471
 30
0.0
 10
13.8310393484
 20
8.8026007292
 30
0.0
 10
13.8270493348
 20
8.8255457061
 30
0.0
 10
13.8227715932
 20
8.8475848465
 30
0.0
 10
13.8182132535
 20
8.8686819487
 30
0.0
 10
13.8133819016
 20
8.888802393
 30
0.0
 10
13.8082855552
 20
8.9079132298
 30
0.0
 10
13.8029326868
 20
8.925983226
 30
0.0
 10
13.7973321437
 20
8.9429830564
 30
0.0
 10
13.7914931624
 20
8.9588848952
 30
0.0
 10
13.786359883
 20
8.9713874304
 30
0.0
 10
13.7821299594
 20
8.9808078118
 30
0.0
 10
13.7789532106
 20
8.9874725005
 30
0.0
 10
13.775724198
 20
8.9938439966
 30
0.0
 10
13.7724441323
 20
8.9999196948
 30
0.0
 10
13.7691143683
 20
9.0056971309
 30
0.0
 10
13.7657362629
 20
9.0111739762
 30
0.0
 10
13.7623110906
 20
9.0163479735
 30
0.0
 10
13.7588402634
 20
9.0212170616
 30
0.0
 10
13.7553251005
 20
9.0257792551
 30
0.0
 10
13.7517669296
 20
9.0300326646
 30
0.0
 10
13.7481671289
 20
9.0339756182
 30
0.0
 10
13.7445270874
 20
9.0376063462
 30
0.0
 10
13.7408477682
 20
9.0409235971
 30
0.0
 10
13.7359766977
 20
9.0448581315
 30
0.0
 10
13.7309432306
 20
9.0482532996
 30
0.0
 10
13.7257692966
 20
9.0510268357
 30
0.0
 10
13.7219159776
 20
9.0527550557
 30
0.0
 10
13.718032555
 20
9.0541618636
 30
0.0
 10
13.7141204939
 20
9.055246309
 30
0.0
 10
13.7101821151
 20
9.0560075944
 30
0.0
 10
13.7075367694
 20
9.0562996997
 30
0.0
 10
13.7062150428
 20
9.0563913615
 30
0.0
  0
SPLINE
  5
310
100
AcDbEntity
  8
0
100
AcDbSpline
 62
7
  6
CONTINUOUS
 70
0
 71
3
 72
19
 73
15
 74
0
 42
0.0000001
 43
0.0000001
 44
0.0000000001
 40
0.0
 40
0.0
 40
0.0
 40
0.0
 40
0.0618296896
 40
0.1236186689
 40
0.1853980127
 40
0.2471990274
 40
0.3090527945
 40
0.3709895855
 40
0.4330384994
 40
0.495227048
 40
0.6200630897
 40
0.7457305043
 40
0.872351186
 40
1.0
 40
1.0
 40
1.0
 40
1.0
 10
11.3180567679
 20
8.6324855029
 30
0.0
 10
11.3170089881
 20
8.6311313311
 30
0.0
 10
11.3148291272
 20
8.6284884175
 30
0.0
 10
11.3113191589
 20
8.6247372067
 30
0.0
 10
11.3075818185
 20
8.6212133225
 30
0.0
 10
11.3036299544
 20
8.6179291044
 30
0.0
 10
11.2994768412
 20
8.6148959458
 30
0.0
 10
11.2951366685
 20
8.6121244311
 30
0.0
 10
11.2906240078
 20
8.6096240951
 30
0.0
 10
11.2843916807
 20
8.6066605623
 30
0.0
 10
11.2762379911
 20
8.6036753514
 30
0.0
 10
11.2660413308
 20
8.6013038842
 30
0.0
 10
11.2555571386
 20
8.60016857
 30
0.0
 10
11.2484970648
 20
8.6002465172
 30
0.0
 10
11.2449706615
 20
8.6004910741
 30
0.0
  0
SPLINE
  5
311
100
AcDbEntity
  8
0
100
AcDbSpline
 62
7
  6
CONTINUOUS
 70
0
 71
3
 72
15
 73
11
 74
0
 42
0.0000001
 43
0.0000001
 44
0.0000000001
 40
0.0
 40
0.0
 40
0.0
 40
0.0
 40
0.1233759676
 40
0.2471266856
 40
0.3713069087
 40
0.4959646921
 40
0.6211386067
 40
0.7468543562
 40
0.8731463839
 40
1.0
 40
1.0
 40
1.0
 40
1.0
 10
8.514025792
 20
7.5652605796
 30
0.0
 10
8.5123183342
 20
7.5643937232
 30
0.0
 10
8.5088369942
 20
7.5627751206
 30
0.0
 10
8.5034524793
 20
7.5607090012
 30
0.0
 10
8.4979200819
 20
7.5590098546
 30
0.0
 10
8.4922636376
 20
7.5576854582
 30
0.0
 10
8.4865072725
 20
7.5567417642
 30
0.0
 10
8.4806754057
 20
7.5561829038
 30
0.0
 10
8.4747935577
 20
7.5560115926
 30
0.0
 10
8.4708638414
 20
7.5561558369
 30
0.0
 10
8.4688996803
 20
7.556292052
 30
0.0
  0
SPLINE
  5
312
100
AcDbEntity
  8
0
100
AcDbSpline
 62
7
  6
CONTINUOUS
 70
0
 71
3
 72
55
 73
51
 74
0
 42
0.0000001
 43
0.0000001
 44
0.0000000001
 40
0.0
 40
0.0
 40
0.0
 40
0.0
 40
0.0524957566
 40
0.1042393464
 40
0.1551231914
 40
0.2050446453
 40
0.253902244
 40
0.3015981754
 40
0.3480378025
 40
0.3931302972
 40
0.4367889651
 40
0.4789316943
 40
0.5194814223
 40
0.5583666726
 40
0.595522179
 40
0.6308896293
 40
0.647887213
 40
0.6644196037
 40
0.6804818585
 40
0.6960698121
 40
0.7111798663
 40
0.7258093203
 40
0.73995622
 40
0.7536195854
 40
0.7667994701
 40
0.7794970052
 40
0.7917147048
 40
0.8034563809
 40
0.8147276023
 40
0.8255356506
 40
0.8358899706
 40
0.845802346
 40
0.8552872378
 40
0.8643622363
 40
0.8730482924
 40
0.8813703375
 40
0.8970333241
 40
0.9044566968
 40
0.9116608468
 40
0.9186937362
 40
0.9256072567
 40
0.9324563131
 40
0.9392974881
 40
0.9461875803
 40
0.9531820957
 40
0.9603338782
 40
0.9676920418
 40
0.983191065
 40
0.9914173358
 40
1.0
 40
1.0
 40
1.0
 40
1.0
 10
13.8780328189
 20
8.4725664934
 30
0.0
 10
13.8780328189
 20
8.4845012882
 30
0.0
 10
13.8778841442
 20
8.5082001698
 30
0.0
 10
13.8772057581
 20
8.5434615329
 30
0.0
 10
13.8760749523
 20
8.5781258296
 30
0.0
 10
13.8744943478
 20
8.6121157588
 30
0.0
 10
13.8724674739
 20
8.6453559943
 30
0.0
 10
13.8699989256
 20
8.6777726166
 30
0.0
 10
13.8670942562
 20
8.7092936635
 30
0.0
 10
13.8637600126
 20
8.739849147
 30
0.0
 10
13.8600037033
 20
8.7693712624
 30
0.0
 10
13.8558337929
 20
8.797794542
 30
0.0
 10
13.8512596722
 20
8.8250559861
 30
0.0
 10
13.8462916526
 20
8.8510953085
 30
0.0
 10
13.8409408869
 20
8.8758547561
 30
0.0
 10
13.8361113655
 20
8.8956288286
 30
0.0
 10
13.8320531904
 20
8.9107582301
 30
0.0
 10
13.8289617525
 20
8.9216013304
 30
0.0
 10
13.8257838896
 20
8.9320850047
 30
0.0
 10
13.8225214164
 20
8.9422034766
 30
0.0
 10
13.8191760756
 20
8.9519511383
 30
0.0
 10
13.8157497859
 20
8.9613226186
 30
0.0
 10
13.812244405
 20
8.9703127435
 30
0.0
 10
13.8086618766
 20
8.978916563
 30
0.0
 10
13.8050042008
 20
8.9871293574
 30
0.0
 10
13.8012733217
 20
8.994946603
 30
0.0
 10
13.7974713587
 20
9.0023640513
 30
0.0
 10
13.7936002718
 20
9.0093776183
 30
0.0
 10
13.7896622299
 20
9.0159835228
 30
0.0
 10
13.785659249
 20
9.0221781457
 30
0.0
 10
13.7815934548
 20
9.0279581445
 30
0.0
 10
13.7774669513
 20
9.0333203743
 30
0.0
 10
13.7732817149
 20
9.0382619119
 30
0.0
 10
13.769040071
 20
9.0427799517
 30
0.0
 10
13.7647432874
 20
9.0468723148
 30
0.0
 10
13.7590607571
 20
9.0516598591
 30
0.0
 10
13.7531534255
 20
9.0557238441
 30
0.0
 10
13.747053595
 20
9.0589338287
 30
0.0
 10
13.7425156023
 20
9.0608618071
 30
0.0
 10
13.7379367016
 20
9.0623507089
 30
0.0
 10
13.7333196357
 20
9.0633989348
 30
0.0
 10
13.7286678423
 20
9.0640054127
 30
0.0
 10
13.7239848494
 20
9.0641693319
 30
0.0
 10
13.7192742859
 20
9.0638908103
 30
0.0
 10
13.7145397476
 20
9.063170357
 30
0.0
 10
13.7097842597
 20
9.0620089527
 30
0.0
 10
13.7033095868
 20
9.0598377306
 30
0.0
 10
13.6969003422
 20
9.056788991
 30
0.0
 10
13.6906126258
 20
9.0529870244
 30
0.0
 10
13.687469561
 20
9.0508079638
 30
0.0
 10
13.6858977714
 20
9.0496517399
 30
0.0
  0
SPLINE
  5
313
100
AcDbEntity
  8
0
100
AcDbSpline
 62
7
  6
CONTINUOUS
 70
0
 71
3
 72
40
 73
36
 74
0
 42
0.0000001
 43
0.0000001
 44
0.0000000001
 40
0.0
 40
0.0
 40
0.0
 40
0.0
 40
0.0312902345
 40
0.0627550052
 40
0.0943838048
 40
0.1261640512
 40
0.1580778803
 40
0.190104625
 40
0.2222206369
 40
0.2544002121
 40
0.2866161858
 40
0.3188406523
 40
0.351045649
 40
0.3832038343
 40
0.4152891371
 40
0.4472773721
 40
0.4791468092
 40
0.510878691
 40
0.5424576916
 40
0.5738723089
 40
0.605115183
 40
0.6361833309
 40
0.6670782892
 40
0.697806155
 40
0.7283775143
 40
0.7588072532
 40
0.7891142429
 40
0.8193209002
 40
0.8494526239
 40
0.8795371201
 40
0.9096036309
 40
0.9396820913
 40
0.954738763
 40
0.9698095047
 40
1.0
 40
1.0
 40
1.0
 40
1.0
 10
8.4688996803
 20
7.556292052
 30
0.0
 10
8.466403087
 20
7.5564651913
 30
0.0
 10
8.4614079852
 20
7.5570199099
 30
0.0
 10
8.453990408
 20
7.558463093
 30
0.0
 10
8.4466750584
 20
7.5605097082
 30
0.0
 10
8.4395125974
 20
7.5631450284
 30
0.0
 10
8.4325515278
 20
7.5663504694
 30
0.0
 10
8.4258390257
 20
7.5701033629
 30
0.0
 10
8.4194202599
 20
7.5743773975
 30
0.0
 10
8.4133381701
 20
7.5791427558
 30
0.0
 10
8.4076331696
 20
7.5843664258
 30
0.0
 10
8.4023429023
 20
7.5900124657
 30
0.0
 10
8.3975020293
 20
7.5960423024
 30
0.0
 10
8.393142048
 20
7.6024150281
 30
0.0
 10
8.3892911401
 20
7.6090877005
 30
0.0
 10
8.3859740447
 20
7.6160156384
 30
0.0
 10
8.3832119616
 20
7.6231527176
 30
0.0
 10
8.3810224736
 20
7.6304516568
 30
0.0
 10
8.3794194871
 20
7.6378642979
 30
0.0
 10
8.3784131868
 20
7.6453418781
 30
0.0
 10
8.3780100034
 20
7.6528352972
 30
0.0
 10
8.3782125912
 20
7.6602953804
 30
0.0
 10
8.3790198151
 20
7.6676731393
 30
0.0
 10
8.3804267456
 20
7.6749200329
 30
0.0
 10
8.3824246636
 20
7.6819882317
 30
0.0
 10
8.3850010737
 20
7.6888308873
 30
0.0
 10
8.3881397279
 20
7.6954024084
 30
0.0
 10
8.3918206826
 20
7.7016587484
 30
0.0
 10
8.39602033
 20
7.7075576746
 30
0.0
 10
8.4007116068
 20
7.7130591438
 30
0.0
 10
8.4058636635
 20
7.7181253056
 30
0.0
 10
8.4105124851
 20
7.721954821
 30
0.0
 10
8.4144238002
 20
7.7247658233
 30
0.0
 10
8.4184619542
 20
7.7274072516
 30
0.0
 10
8.4216205173
 20
7.7291882513
 30
0.0
 10
8.4237735685
 20
7.7302813302
 30
0.0
  0
SPLINE
  5
314
100
AcDbEntity
  8
0
100
AcDbSpline
 62
7
  6
CONTINUOUS
 70
0
 71
3
 72
40
 73
36
 74
0
 42
0.0000001
 43
0.0000001
 44
0.0000000001
 40
0.0
 40
0.0
 40
0.0
 40
0.0
 40
0.0311444623
 40
0.0624429464
 40
0.0938877347
 40
0.1254702907
 40
0.1571779705
 40
0.188996169
 40
0.2209078941
 40
0.2528943766
 40
0.2849353707
 40
0.3170095775
 40
0.3490950548
 40
0.3811696427
 40
0.4132113916
 40
0.4451989867
 40
0.4771121643
 40
0.5089321125
 40
0.5406418522
 40
0.5722265907
 40
0.603674042
 40
0.6349747068
 40
0.6661221049
 40
0.6971129533
 40
0.727947284
 40
0.7586284939
 40
0.7891633219
 40
0.8195617482
 40
0.8498368162
 40
0.8800043756
 40
0.9100827498
 40
0.9400923353
 40
0.9550810224
 40
0.9700608656
 40
1.0
 40
1.0
 40
1.0
 40
1.0
 10
8.7702685621
 20
8.8183404266
 30
0.0
 10
8.7669546321
 20
8.8185702484
 30
0.0
 10
8.7603247425
 20
8.8192736161
 30
0.0
 10
8.7504603111
 20
8.8210453269
 30
0.0
 10
8.7407015056
 20
8.8235270713
 30
0.0
 10
8.731101108
 20
8.8267053375
 30
0.0
 10
8.7217100595
 20
8.8305632054
 30
0.0
 10
8.7125784737
 20
8.835079978
 30
0.0
 10
8.7037549918
 20
8.8402315449
 30
0.0
 10
8.69528663
 20
8.8459903903
 30
0.0
 10
8.6872185085
 20
8.8523257901
 30
0.0
 10
8.6795936179
 20
8.8592039547
 30
0.0
 10
8.6724525931
 20
8.8665882149
 30
0.0
 10
8.6658334974
 20
8.8744392123
 30
0.0
 10
8.6597716197
 20
8.8827151063
 30
0.0
 10
8.6542992903
 20
8.8913717975
 30
0.0
 10
8.6494457103
 20
8.9003631603
 30
0.0
 10
8.6452367969
 20
8.909641285
 30
0.0
 10
8.6416950456
 20
8.9191567307
 30
0.0
 10
8.6388394104
 20
8.9288587844
 30
0.0
 10
8.6366852022
 20
8.938695728
 30
0.0
 10
8.6352440051
 20
8.9486151098
 30
0.0
 10
8.6345236127
 20
8.9585640205
 30
0.0
 10
8.6345279828
 20
8.9684893719
 30
0.0
 10
8.6352572098
 20
8.9783381766
 30
0.0
 10
8.6367075177
 20
8.9880578307
 30
0.0
 10
8.6388712762
 20
8.9975963914
 30
0.0
 10
8.6417370414
 20
9.0069028625
 30
0.0
 10
8.645289584
 20
9.0159274378
 30
0.0
 10
8.6495100612
 20
9.0246218892
 30
0.0
 10
8.6543757544
 20
9.032939387
 30
0.0
 10
8.6589493128
 20
9.0395232489
 30
0.0
 10
8.6629014839
 20
9.044555612
 30
0.0
 10
8.6670421676
 20
9.049423775
 30
0.0
 10
8.6703595935
 20
9.0528894752
 30
0.0
 10
8.6726564063
 20
9.0551080327
 30
0.0
  0
SPLINE
  5
315
100
AcDbEntity
  8
0
100
AcDbSpline
 62
7
  6
CONTINUOUS
 70
0
 71
3
 72
40
 73
36
 74
0
 42
0.0000001
 43
0.0000001
 44
0.0000000001
 40
0.0
 40
0.0
 40
0.0
 40
0.0
 40
0.0311444623
 40
0.0624429464
 40
0.0938877347
 40
0.1254702907
 40
0.1571779705
 40
0.188996169
 40
0.2209078941
 40
0.2528943766
 40
0.2849353707
 40
0.3170095775
 40
0.3490950548
 40
0.3811696427
 40
0.4132113916
 40
0.4451989867
 40
0.4771121643
 40
0.5089321125
 40
0.5406418522
 40
0.5722265907
 40
0.603674042
 40
0.6349747068
 40
0.6661221049
 40
0.6971129533
 40
0.727947284
 40
0.7586284939
 40
0.7891633219
 40
0.8195617482
 40
0.8498368162
 40
0.8800043756
 40
0.9100827498
 40
0.9400923353
 40
0.9550810224
 40
0.9700608656
 40
1.0
 40
1.0
 40
1.0
 40
1.0
 10
8.7702685621
 20
7.0680828346
 30
0.0
 10
8.7669546321
 20
7.0683126564
 30
0.0
 10
8.7603247425
 20
7.0690160241
 30
0.0
 10
8.7504603111
 20
7.0707877349
 30
0.0
 10
8.7407015056
 20
7.0732694793
 30
0.0
 10
8.731101108
 20
7.0764477455
 30
0.0
 10
8.7217100595
 20
7.0803056134
 30
0.0
 10
8.7125784737
 20
7.084822386
 30
0.0
 10
8.7037549918
 20
7.0899739529
 30
0.0
 10
8.69528663
 20
7.0957327983
 30
0.0
 10
8.6872185085
 20
7.1020681981
 30
0.0
 10
8.6795936179
 20
7.1089463626
 30
0.0
 10
8.6724525931
 20
7.1163306228
 30
0.0
 10
8.6658334974
 20
7.1241816203
 30
0.0
 10
8.6597716197
 20
7.1324575142
 30
0.0
 10
8.6542992903
 20
7.1411142055
 30
0.0
 10
8.6494457103
 20
7.1501055682
 30
0.0
 10
8.6452367969
 20
7.159383693
 30
0.0
 10
8.6416950456
 20
7.1688991387
 30
0.0
 10
8.6388394104
 20
7.1786011924
 30
0.0
 10
8.6366852022
 20
7.188438136
 30
0.0
 10
8.6352440051
 20
7.1983575178
 30
0.0
 10
8.6345236127
 20
7.2083064285
 30
0.0
 10
8.6345279828
 20
7.2182317798
 30
0.0
 10
8.6352572098
 20
7.2280805845
 30
0.0
 10
8.6367075177
 20
7.2378002387
 30
0.0
 10
8.6388712762
 20
7.2473387993
 30
0.0
 10
8.6417370414
 20
7.2566452705
 30
0.0
 10
8.645289584
 20
7.2656698457
 30
0.0
 10
8.6495100612
 20
7.2743642972
 30
0.0
 10
8.6543757544
 20
7.282681795
 30
0.0
 10
8.6589493128
 20
7.2892656569
 30
0.0
 10
8.6629014839
 20
7.29429802
 30
0.0
 10
8.6670421676
 20
7.299166183
 30
0.0
 10
8.6703595935
 20
7.3026318832
 30
0.0
 10
8.6726564063
 20
7.3048504407
 30
0.0
  0
SPLINE
  5
316
100
AcDbEntity
  8
0
100
AcDbSpline
 62
7
  6
CONTINUOUS
 70
0
 71
3
 72
38
 73
34
 74
0
 42
0.0000001
 43
0.0000001
 44
0.0000000001
 40
0.0
 40
0.0
 40
0.0
 40
0.0
 40
0.0063161104
 40
0.0126711199
 40
0.0191031672
 40
0.0256489417
 40
0.0392091736
 40
0.0536074625
 40
0.0690446999
 40
0.0856781453
 40
0.1036266079
 40
0.1229768117
 40
0.1437898932
 40
0.1661061108
 40
0.1899491804
 40
0.2153295128
 40
0.242246223
 40
0.2706894541
 40
0.3006414808
 40
0.3320777795
 40
0.364968222
 40
0.3992772973
 40
0.4349650112
 40
0.471987309
 40
0.5102961914
 40
0.5498404525
 40
0.590565645
 40
0.6324144375
 40
0.675327006
 40
0.7192408621
 40
0.8098108678
 40
0.903585447
 40
1.0
 40
1.0
 40
1.0
 40
1.0
 10
11.6225597527
 20
6.8246868012
 30
0.0
 10
11.6219259305
 20
6.8247307523
 30
0.0
 10
11.6206573761
 20
6.8248708138
 30
0.0
 10
11.6187687696
 20
6.8252358347
 30
0.0
 10
11.6168927275
 20
6.8257558694
 30
0.0
 10
11.614380694
 20
6.8266657425
 30
0.0
 10
11.6112592757
 20
6.8282125181
 30
0.0
 10
11.6076316125
 20
6.830660046
 30
0.0
 10
11.6040798138
 20
6.8337130248
 30
0.0
 10
11.6006078125
 20
6.8373645412
 30
0.0
 10
11.5972187726
 20
6.8416081803
 30
0.0
 10
11.5939165569
 20
6.8464371604
 30
0.0
 10
11.5907055044
 20
6.8518441151
 30
0.0
 10
11.5875901414
 20
6.8578206978
 30
0.0
 10
11.5845751592
 20
6.8643576045
 30
0.0
 10
11.5816653345
 20
6.8714445367
 30
0.0
 10
11.5788652726
 20
6.8790701654
 30
0.0
 10
11.5761795762
 20
6.8872222286
 30
0.0
 10
11.5736126614
 20
6.8958875175
 30
0.0
 10
11.5711687351
 20
6.9050519217
 30
0.0
 10
11.5688519055
 20
6.9147004797
 30
0.0
 10
11.5666659862
 20
6.9248173853
 30
0.0
 10
11.5646146201
 20
6.9353860412
 30
0.0
 10
11.5627012548
 20
6.9463890862
 30
0.0
 10
11.5609290332
 20
6.9578084224
 30
0.0
 10
11.559300944
 20
6.9696252546
 30
0.0
 10
11.5578196911
 20
6.981820124
 30
0.0
 10
11.5564877273
 20
6.9943729338
 30
0.0
 10
11.5553072884
 20
7.0072630105
 30
0.0
 10
11.5539238576
 20
7.0250542583
 30
0.0
 10
11.5525984281
 20
7.0479794553
 30
0.0
 10
11.5516517772
 20
7.0762078229
 30
0.0
 10
11.5514463436
 20
7.0953399203
 30
0.0
 10
11.5514463436
 20
7.1050383613
 30
0.0
  0
SPLINE
  5
317
100
AcDbEntity
  8
0
100
AcDbSpline
 62
7
  6
CONTINUOUS
 70
0
 71
3
 72
37
 73
33
 74
0
 42
0.0000001
 43
0.0000001
 44
0.0000000001
 40
0.0
 40
0.0
 40
0.0
 40
0.0
 40
0.0063161121
 40
0.0126711392
 40
0.0191032025
 40
0.0256489908
 40
0.0392093177
 40
0.0536076741
 40
0.0690449936
 40
0.0856785951
 40
0.1036271004
 40
0.1229774757
 40
0.1437906493
 40
0.1661069376
 40
0.1899501946
 40
0.2153305413
 40
0.2422474052
 40
0.2706907276
 40
0.3006427892
 40
0.3320792495
 40
0.3649696926
 40
0.3992788753
 40
0.4349666674
 40
0.4719889747
 40
0.5102979674
 40
0.5498422294
 40
0.5905674829
 40
0.6324163354
 40
0.7192407475
 40
0.8098108395
 40
0.9035854203
 40
1.0
 40
1.0
 40
1.0
 40
1.0
 10
13.2221326787
 20
6.7137560377
 30
0.0
 10
13.2214988587
 20
6.7137999917
 30
0.0
 10
13.2202303081
 20
6.713940076
 30
0.0
 10
13.2183417153
 20
6.7143051508
 30
0.0
 10
13.2164656803
 20
6.7148252012
 30
0.0
 10
13.2139536454
 20
6.7157350845
 30
0.0
 10
13.2108322613
 20
6.7172819453
 30
0.0
 10
13.2072046046
 20
6.7197294943
 30
0.0
 10
13.2036528105
 20
6.7227825064
 30
0.0
 10
13.2001808619
 20
6.7264340871
 30
0.0
 10
13.196791794
 20
6.7306777278
 30
0.0
 10
13.1934896313
 20
6.7355067599
 30
0.0
 10
13.1902785837
 20
6.7409137305
 30
0.0
 10
13.187163218
 20
6.7468903278
 30
0.0
 10
13.1841482917
 20
6.7534272639
 30
0.0
 10
13.18123844
 20
6.7605141961
 30
0.0
 10
13.1784384204
 20
6.7681398404
 30
0.0
 10
13.1757527369
 20
6.776291907
 30
0.0
 10
13.1731858149
 20
6.7849571934
 30
0.0
 10
13.1707419358
 20
6.7941215984
 30
0.0
 10
13.1684250885
 20
6.8037701462
 30
0.0
 10
13.1662391972
 20
6.8138870426
 30
0.0
 10
13.1641878476
 20
6.8244556853
 30
0.0
 10
13.1622744745
 20
6.8354587119
 30
0.0
 10
13.1605022855
 20
6.8468780279
 30
0.0
 10
13.1588741923
 20
6.8586948338
 30
0.0
 10
13.1573929353
 20
6.8708896882
 30
0.0
 10
13.1555949982
 20
6.8878350346
 30
0.0
 10
13.1537464583
 20
6.9098143549
 30
0.0
 10
13.1521716776
 20
6.9370487373
 30
0.0
 10
13.1512250857
 20
6.965277158
 30
0.0
 10
13.1510196417
 20
6.9844091645
 30
0.0
 10
13.1510196417
 20
6.9941075763
 30
0.0
  0
SPLINE
  5
318
100
AcDbEntity
  8
0
100
AcDbSpline
 62
7
  6
CONTINUOUS
 70
0
 71
3
 72
39
 73
35
 74
0
 42
0.0000001
 43
0.0000001
 44
0.0000000001
 40
0.0
 40
0.0
 40
0.0
 40
0.0
 40
0.0302232124
 40
0.0603536529
 40
0.0904249247
 40
0.1204707424
 40
0.1505251777
 40
0.1806203147
 40
0.2107852054
 40
0.2410449654
 40
0.2714202813
 40
0.301927244
 40
0.3325774501
 40
0.3633782847
 40
0.3943333108
 40
0.4254427037
 40
0.4567036844
 40
0.4881109247
 40
0.5196569032
 40
0.5513322078
 40
0.5831257811
 40
0.6150251147
 40
0.6470163963
 40
0.6790846199
 40
0.7112136663
 40
0.7433863667
 40
0.7755845601
 40
0.8077891605
 40
0.8399802474
 40
0.8721371977
 40
0.9042388804
 40
0.9362639345
 40
0.9681911543
 40
1.0
 40
1.0
 40
1.0
 40
1.0
 10
10.8982032773
 20
8.202138695
 30
0.0
 10
10.8959706463
 20
8.1975056357
 30
0.0
 10
10.8910731191
 20
8.188457868
 30
0.0
 10
10.8824870059
 20
8.1756624801
 30
0.0
 10
10.8727476263
 20
8.1637589695
 30
0.0
 10
10.8619431713
 20
8.1528324475
 30
0.0
 10
10.8501701312
 20
8.1429518208
 30
0.0
 10
10.8375312206
 20
8.1341720043
 30
0.0
 10
10.8241323739
 20
8.1265336181
 30
0.0
 10
10.8100802864
 20
8.1200641591
 30
0.0
 10
10.795480365
 20
8.1147793359
 30
0.0
 10
10.7804352085
 20
8.1106846763
 30
0.0
 10
10.7650435768
 20
8.1077771567
 30
0.0
 10
10.7493997935
 20
8.1060467659
 30
0.0
 10
10.7335935071
 20
8.1054779168
 30
0.0
 10
10.7177097327
 20
8.1060506663
 30
0.0
 10
10.7018290978
 20
8.1077417229
 30
0.0
 10
10.6860282314
 20
8.1105252464
 30
0.0
 10
10.6703802435
 20
8.1143734485
 30
0.0
 10
10.6549552552
 20
8.1192570118
 30
0.0
 10
10.6398209488
 20
8.1251453461
 30
0.0
 10
10.625043116
 20
8.1320066967
 30
0.0
 10
10.610686185
 20
8.1398081224
 30
0.0
 10
10.5968137133
 20
8.1485153515
 30
0.0
 10
10.5834888338
 20
8.1580925287
 30
0.0
 10
10.5707746387
 20
8.1685018564
 30
0.0
 10
10.5587344883
 20
8.1797031393
 30
0.0
 10
10.5474322246
 20
8.1916532383
 30
0.0
 10
10.5369322713
 20
8.2043054296
 30
0.0
 10
10.5272995767
 20
8.2176087353
 30
0.0
 10
10.5185994348
 20
8.2315070272
 30
0.0
 10
10.510896895
 20
8.245938744
 30
0.0
 10
10.5042566714
 20
8.2608342392
 30
0.0
 10
10.5005713037
 20
8.27104713
 30
0.0
 10
10.4989274091
 20
8.2762042251
 30
0.0
  0
SPLINE
  5
319
100
AcDbEntity
  8
0
100
AcDbSpline
 62
7
  6
CONTINUOUS
 70
0
 71
3
 72
52
 73
48
 74
0
 42
0.0000001
 43
0.0000001
 44
0.0000000001
 40
0.0
 40
0.0
 40
0.0
 40
0.0
 40
0.0095820836
 40
0.0187371377
 40
0.0274872859
 40
0.035859924
 40
0.0515978647
 40
0.059055626
 40
0.0662983938
 40
0.0733795814
 40
0.0803568578
 40
0.0872906927
 40
0.0942428037
 40
0.1012743544
 40
0.1084443122
 40
0.1158080167
 40
0.1234160681
 40
0.1313139295
 40
0.1395415473
 40
0.1481334816
 40
0.1571194366
 40
0.1665243504
 40
0.1763690736
 40
0.1866709548
 40
0.1974438974
 40
0.2086991325
 40
0.2204455065
 40
0.2326894857
 40
0.2454358603
 40
0.2586877194
 40
0.2724465183
 40
0.3014833613
 40
0.3325371839
 40
0.3655812995
 40
0.4005762791
 40
0.4374716875
 40
0.4762077832
 40
0.5167167149
 40
0.5589232708
 40
0.6027456718
 40
0.6480964027
 40
0.6948826884
 40
0.7430067899
 40
0.7923669955
 40
0.842857424
 40
0.8943680125
 40
1.0
 40
1.0
 40
1.0
 40
1.0
 10
13.2771788954
 20
6.7527044117
 30
0.0
 10
13.2764712974
 20
6.7520458979
 30
0.0
 10
13.2750566544
 20
6.7507908659
 30
0.0
 10
13.2728862541
 20
6.7490630782
 30
0.0
 10
13.2707177827
 20
6.7475350996
 30
0.0
 10
13.26789042
 20
6.7458020586
 30
0.0
 10
13.265006005
 20
6.7444182745
 30
0.0
 10
13.2620909192
 20
6.7434435911
 30
0.0
 10
13.2599514142
 20
6.7429299579
 30
0.0
 10
13.2578216675
 20
6.7426217604
 30
0.0
 10
13.2557032031
 20
6.7425193479
 30
0.0
 10
13.2535977749
 20
6.7426230126
 30
0.0
 10
13.2515071717
 20
6.7429327717
 30
0.0
 10
13.2494331117
 20
6.7434481285
 30
0.0
 10
13.2473772034
 20
6.7441685067
 30
0.0
 10
13.2453408952
 20
6.7450930788
 30
0.0
 10
13.2433253948
 20
6.7462207899
 30
0.0
 10
13.2413318661
 20
6.7475507005
 30
0.0
 10
13.2393613276
 20
6.7490817173
 30
0.0
 10
13.2374147175
 20
6.7508127079
 30
0.0
 10
13.2354930671
 20
6.7527426077
 30
0.0
 10
13.2335972967
 20
6.7548701704
 30
0.0
 10
13.2317283673
 20
6.7571941202
 30
0.0
 10
13.2298873293
 20
6.7597131379
 30
0.0
 10
13.2280751139
 20
6.7624257118
 30
0.0
 10
13.2262927396
 20
6.7653302845
 30
0.0
 10
13.2245412498
 20
6.7684251905
 30
0.0
 10
13.222821577
 20
6.7717085983
 30
0.0
 10
13.2211347598
 20
6.7751786129
 30
0.0
 10
13.2194817623
 20
6.7788332143
 30
0.0
 10
13.2172845656
 20
6.7840432739
 30
0.0
 10
13.2146398779
 20
6.7910106748
 30
0.0
 10
13.2116704081
 20
6.7999265344
 30
0.0
 10
13.2088576975
 20
6.8095208964
 30
0.0
 10
13.206208476
 20
6.8197711659
 30
0.0
 10
13.2037290805
 20
6.830653337
 30
0.0
 10
13.2014254764
 20
6.842141747
 30
0.0
 10
13.1993032357
 20
6.8542092657
 30
0.0
 10
13.1973674767
 20
6.8668273236
 30
0.0
 10
13.1956228532
 20
6.8799660042
 30
0.0
 10
13.1940735818
 20
6.8935941372
 30
0.0
 10
13.1927234209
 20
6.9076793605
 30
0.0
 10
13.1915756023
 20
6.9221882254
 30
0.0
 10
13.190632911
 20
6.9370862309
 30
0.0
 10
13.1898976113
 20
6.9523379441
 30
0.0
 10
13.189190302
 20
6.9732718618
 30
0.0
 10
13.1889867279
 20
6.9891251471
 30
0.0
 10
13.1889867279
 20
6.9997809675
 30
0.0
  0
SPLINE
  5
31A
100
AcDbEntity
  8
0
100
AcDbSpline
 62
7
  6
CONTINUOUS
 70
0
 71
3
 72
31
 73
27
 74
0
 42
0.0000001
 43
0.0000001
 44
0.0000000001
 40
0.0
 40
0.0
 40
0.0
 40
0.0
 40
0.0324890257
 40
0.0649316333
 40
0.0973133403
 40
0.1296282903
 40
0.1940083743
 40
0.2580371818
 40
0.2899167846
 40
0.3216959641
 40
0.3533727137
 40
0.3849459834
 40
0.4477651475
 40
0.5101821617
 40
0.57222171
 40
0.633920224
 40
0.664663912
 40
0.6953402233
 40
0.7259560027
 40
0.7565184941
 40
0.8174979742
 40
0.8783570473
 40
0.9087690974
 40
0.9391749767
 40
0.9695826347
 40
1.0
 40
1.0
 40
1.0
 40
1.0
 10
8.7200791668
 20
8.3249406108
 30
0.0
 10
8.7183116815
 20
8.3275874169
 30
0.0
 10
8.71490316
 20
8.3329612428
 30
0.0
 10
8.7101805813
 20
8.3412461466
 30
0.0
 10
8.705862405
 20
8.349730189
 30
0.0
 10
8.7006649103
 20
8.3612615641
 30
0.0
 10
8.6952212727
 20
8.3760623256
 30
0.0
 10
8.691217797
 20
8.3912717017
 30
0.0
 10
8.6889036759
 20
8.4035683765
 30
0.0
 10
8.6876137014
 20
8.4128218075
 30
0.0
 10
8.6867671089
 20
8.4220961545
 30
0.0
 10
8.6862284895
 20
8.4344382369
 30
0.0
 10
8.6866489302
 20
8.4498188843
 30
0.0
 10
8.6888809128
 20
8.4680554599
 30
0.0
 10
8.692791048
 20
8.4858944263
 30
0.0
 10
8.6974050362
 20
8.500332359
 30
0.0
 10
8.7018700529
 20
8.5115402352
 30
0.0
 10
8.7055923244
 20
8.5197556969
 30
0.0
 10
8.7096817819
 20
8.5277747162
 30
0.0
 10
8.7156046074
 20
8.5381771404
 30
0.0
 10
8.7238774069
 20
8.550631686
 30
0.0
 10
8.7332399282
 20
8.562269826
 30
0.0
 10
8.7413263399
 20
8.5710317206
 30
0.0
 10
8.7476793559
 20
8.5773214267
 30
0.0
 10
8.7543087236
 20
8.583319367
 30
0.0
 10
8.7589036804
 20
8.5871165972
 30
0.0
 10
8.7612424454
 20
8.5889629793
 30
0.0
  0
SPLINE
  5
31B
100
AcDbEntity
  8
0
100
AcDbSpline
 62
7
  6
CONTINUOUS
 70
0
 71
3
 72
19
 73
15
 74
0
 42
0.0000001
 43
0.0000001
 44
0.0000000001
 40
0.0
 40
0.0
 40
0.0
 40
0.0
 40
0.062314698
 40
0.1247570193
 40
0.187303473
 40
0.2499372914
 40
0.3753480904
 40
0.5008468713
 40
0.6262477179
 40
0.7513565789
 40
0.8137601683
 40
0.8760166662
 40
0.9381061939
 40
1.0
 40
1.0
 40
1.0
 40
1.0
 10
10.1277695871
 20
7.7412505752
 30
0.0
 10
10.1241349846
 20
7.7427000467
 30
0.0
 10
10.1169251985
 20
7.7457728159
 30
0.0
 10
10.1063251711
 20
7.7508778939
 30
0.0
 10
10.0959517898
 20
7.7564725635
 30
0.0
 10
10.082456007
 20
7.7645727027
 30
0.0
 10
10.066288262
 20
7.7758617272
 30
0.0
 10
10.0482265964
 20
7.7911508246
 30
0.0
 10
10.031701273
 20
7.808063983
 30
0.0
 10
10.0193728181
 20
7.8234087437
 30
0.0
 10
10.0104921688
 20
7.8363429179
 30
0.0
 10
10.0043523437
 20
7.8463402092
 30
0.0
 10
9.998756077
 20
7.8566147228
 30
0.0
 10
9.9953981689
 20
7.8636435797
 30
0.0
 10
9.9938175927
 20
7.8671942059
 30
0.0
  0
SPLINE
  5
31C
100
AcDbEntity
  8
0
100
AcDbSpline
 62
7
  6
CONTINUOUS
 70
0
 71
3
 72
33
 73
29
 74
0
 42
0.0000001
 43
0.0000001
 44
0.0000000001
 40
0.0
 40
0.0
 40
0.0
 40
0.0
 40
0.0245178686
 40
0.0491401799
 40
0.0736627762
 40
0.0979341569
 40
0.1453481348
 40
0.190960838
 40
0.2346858521
 40
0.276589598
 40
0.3554341506
 40
0.3926393439
 40
0.42852465
 40
0.4967308483
 40
0.5607210609
 40
0.6209972009
 40
0.6779362767
 40
0.731823775
 40
0.7828768235
 40
0.8073930837
 40
0.8312586092
 40
0.8770913112
 40
0.8990811689
 40
0.920460792
 40
0.9412345331
 40
0.9614084885
 40
0.9809929575
 40
1.0
 40
1.0
 40
1.0
 40
1.0
 10
10.3083115529
 20
8.0518159408
 30
0.0
 10
10.3072691216
 20
8.0490595501
 30
0.0
 10
10.3051465695
 20
8.0435475156
 30
0.0
 10
10.3018590324
 20
8.0353263763
 30
0.0
 10
10.2984909088
 20
8.0271700011
 30
0.0
 10
10.2939655969
 20
8.0165283495
 30
0.0
 10
10.2882637929
 20
8.003633231
 30
0.0
 10
10.281369872
 20
7.9887112962
 30
0.0
 10
10.2745476446
 20
7.9744877264
 30
0.0
 10
10.2657687292
 20
7.9567746253
 30
0.0
 10
10.2570459888
 20
7.939909897
 30
0.0
 10
10.2484081959
 20
7.92381984
 30
0.0
 10
10.2402333256
 20
7.9089333976
 30
0.0
 10
10.230273457
 20
7.8913553087
 30
0.0
 10
10.2185319494
 20
7.8714210328
 30
0.0
 10
10.2071780179
 20
7.8528335396
 30
0.0
 10
10.1961832026
 20
7.8354526468
 30
0.0
 10
10.18552501
 20
7.8191734491
 30
0.0
 10
10.1767954835
 20
7.8062919425
 30
0.0
 10
10.1699687561
 20
7.7964818158
 30
0.0
 10
10.1634230472
 20
7.787241085
 30
0.0
 10
10.156936314
 20
7.7783310697
 30
0.0
 10
10.1505034627
 20
7.7697534926
 30
0.0
 10
10.145820921
 20
7.7636285557
 30
0.0
 10
10.1412168445
 20
7.7577187823
 30
0.0
 10
10.1366908846
 20
7.7520220373
 30
0.0
 10
10.1322314189
 20
7.7465442556
 30
0.0
 10
10.1292518897
 20
7.7429889494
 30
0.0
 10
10.1277695871
 20
7.7412505752
 30
0.0
  0
SPLINE
  5
31D
100
AcDbEntity
  8
0
100
AcDbSpline
 62
7
  6
CONTINUOUS
 70
0
 71
3
 72
64
 73
60
 74
0
 42
0.0000001
 43
0.0000001
 44
0.0000000001
 40
0.0
 40
0.0
 40
0.0
 40
0.0
 40
0.0452102438
 40
0.0910011378
 40
0.1371887914
 40
0.1835862952
 40
0.2300060483
 40
0.2762602665
 40
0.3221620218
 40
0.3675262007
 40
0.412170475
 40
0.4559162947
 40
0.4985898755
 40
0.5400232149
 40
0.5800551623
 40
0.5994977477
 40
0.6185332455
 40
0.6371439809
 40
0.6553128992
 40
0.6730236615
 40
0.6902607075
 40
0.707009241
 40
0.7232553821
 40
0.7389861811
 40
0.7541896801
 40
0.7688550884
 40
0.7829727896
 40
0.796534521
 40
0.8095335479
 40
0.821964756
 40
0.8338249752
 40
0.8451131945
 40
0.8558308688
 40
0.8659824321
 40
0.8755757112
 40
0.8846226184
 40
0.8931399775
 40
0.9011503991
 40
0.9086835055
 40
0.9157771539
 40
0.9224786942
 40
0.9288461105
 40
0.9319269763
 40
0.9349511316
 40
0.9379288252
 40
0.9408708543
 40
0.9437884508
 40
0.9466931505
 40
0.9495966615
 40
0.952510705
 40
0.9554468664
 40
0.9584164519
 40
0.9614303466
 40
0.964498924
 40
0.9708361702
 40
0.9775010542
 40
0.9845526578
 40
0.9920393958
 40
1.0
 40
1.0
 40
1.0
 40
1.0
 10
13.9048796252
 20
8.4765781902
 30
0.0
 10
13.9048796252
 20
8.4592444117
 30
0.0
 10
13.9045704867
 20
8.4243535294
 30
0.0
 10
13.9032073506
 20
8.371770136
 30
0.0
 10
13.9009470178
 20
8.3187619382
 30
0.0
 10
13.8977991378
 20
8.2655575848
 30
0.0
 10
13.8937772702
 20
8.2123865495
 30
0.0
 10
13.8888987774
 20
8.1594781114
 30
0.0
 10
13.8831847512
 20
8.1070604115
 30
0.0
 10
13.8766599159
 20
8.0553594631
 30
0.0
 10
13.8693525294
 20
8.004598152
 30
0.0
 10
13.8612942804
 20
7.9549952882
 30
0.0
 10
13.852520144
 20
7.906764556
 30
0.0
 10
13.8430681835
 20
7.8601139198
 30
0.0
 10
13.834580636
 20
7.8223643749
 30
0.0
 10
13.8274690498
 20
7.793114863
 30
0.0
 10
13.8220439304
 20
7.7719091981
 30
0.0
 10
13.8164815047
 20
7.7512444217
 30
0.0
 10
13.8107877329
 20
7.7311427861
 30
0.0
 10
13.8049687794
 20
7.7116259542
 30
0.0
 10
13.7990309649
 20
7.6927149397
 30
0.0
 10
13.7929806763
 20
7.6744301097
 30
0.0
 10
13.786824481
 20
7.6567911338
 30
0.0
 10
13.7805690439
 20
7.6398169784
 30
0.0
 10
13.7742210932
 20
7.6235258913
 30
0.0
 10
13.7677875294
 20
7.6079353478
 30
0.0
 10
13.7612752757
 20
7.5930620665
 30
0.0
 10
13.7546913425
 20
7.5789219699
 30
0.0
 10
13.748042853
 20
7.5655301456
 30
0.0
 10
13.7413368953
 20
7.5529008743
 30
0.0
 10
13.7345806557
 20
7.5410475539
 30
0.0
 10
13.7277813216
 20
7.5299827053
 30
0.0
 10
13.7209459967
 20
7.5197179917
 30
0.0
 10
13.7140818268
 20
7.5102641191
 30
0.0
 10
13.7071957817
 20
7.5016309263
 30
0.0
 10
13.7002946701
 20
7.4938273726
 30
0.0
 10
13.693385152
 20
7.4868615156
 30
0.0
 10
13.6864734632
 20
7.4807407459
 30
0.0
 10
13.6795656689
 20
7.475471829
 30
0.0
 10
13.6726672405
 20
7.471061105
 30
0.0
 10
13.6657845139
 20
7.4675151987
 30
0.0
 10
13.6600025428
 20
7.4652616466
 30
0.0
 10
13.6554110243
 20
7.4639169924
 30
0.0
 10
13.6520146334
 20
7.463138181
 30
0.0
 10
13.6486292278
 20
7.4625786417
 30
0.0
 10
13.6452557431
 20
7.4622385764
 30
0.0
 10
13.6418952508
 20
7.462118135
 30
0.0
 10
13.6385488077
 20
7.462217456
 30
0.0
 10
13.6352174977
 20
7.4625365395
 30
0.0
 10
13.6319023854
 20
7.4630752066
 30
0.0
 10
13.628604516
 20
7.4638332811
 30
0.0
 10
13.6253249443
 20
7.4648104714
 30
0.0
 10
13.6220645457
 20
7.466006382
 30
0.0
 10
13.6176980645
 20
7.4679119595
 30
0.0
 10
13.612275566
 20
7.470867135
 30
0.0
 10
13.6059379214
 20
7.4752418312
 30
0.0
 10
13.5997035102
 20
7.4804759791
 30
0.0
 10
13.5935781143
 20
7.4865618772
 30
0.0
 10
13.5896935786
 20
7.491039984
 30
0.0
 10
13.5877677786
 20
7.4934078452
 30
0.0
  0
SPLINE
  5
31E
100
AcDbEntity
  8
0
100
AcDbSpline
 62
7
  6
CONTINUOUS
 70
0
 71
3
 72
15
 73
11
 74
0
 42
0.0000001
 43
0.0000001
 44
0.0000000001
 40
0.0
 40
0.0
 40
0.0
 40
0.0
 40
0.1271245374
 40
0.2537472635
 40
0.3798046365
 40
0.5052394425
 40
0.6300054427
 40
0.7540669193
 40
0.8774011341
 40
1.0
 40
1.0
 40
1.0
 40
1.0
 10
10.1277695871
 20
7.7412505752
 30
0.0
 10
10.1330863109
 20
7.7391272114
 30
0.0
 10
10.1438474365
 20
7.7352509522
 30
0.0
 10
10.1603088536
 20
7.7305582904
 30
0.0
 10
10.1769822183
 20
7.7270309423
 30
0.0
 10
10.1937795385
 20
7.7246949222
 30
0.0
 10
10.2106119834
 20
7.7235751274
 30
0.0
 10
10.2273875627
 20
7.7236931025
 30
0.0
 10
10.2440089976
 20
7.7250665973
 30
0.0
 10
10.2549564289
 20
7.7268342582
 30
0.0
 10
10.260367371
 20
7.7279323408
 30
0.0
  0
SPLINE
  5
31F
100
AcDbEntity
  8
0
100
AcDbSpline
 62
7
  6
CONTINUOUS
 70
0
 71
3
 72
37
 73
33
 74
0
 42
0.0000001
 43
0.0000001
 44
0.0000000001
 40
0.0
 40
0.0
 40
0.0
 40
0.0
 40
0.0063161244
 40
0.0126711457
 40
0.0191032048
 40
0.0256489923
 40
0.0392092523
 40
0.0536075707
 40
0.0690448396
 40
0.0856783189
 40
0.1036268182
 40
0.1229770616
 40
0.1437901856
 40
0.1661064488
 40
0.1899495672
 40
0.2153299516
 40
0.2422467168
 40
0.2706900061
 40
0.3006420941
 40
0.3320784573
 40
0.3649689672
 40
0.3992781128
 40
0.4349658997
 40
0.4719882735
 40
0.5102972344
 40
0.5498415765
 40
0.5905668526
 40
0.6324157309
 40
0.7192402861
 40
0.8098104776
 40
0.9035852492
 40
1.0
 40
1.0
 40
1.0
 40
1.0
 10
14.0818635052
 20
9.4132922142
 30
0.0
 10
14.08243141
 20
9.4132528344
 30
0.0
 10
14.0835680348
 20
9.4131273394
 30
0.0
 10
14.085260226
 20
9.4128002802
 30
0.0
 10
14.0869411592
 20
9.4123343285
 30
0.0
 10
14.0891919411
 20
9.4115190821
 30
0.0
 10
14.0919887321
 20
9.4101331717
 30
0.0
 10
14.0952391184
 20
9.4079401867
 30
0.0
 10
14.09842153
 20
9.4052047177
 30
0.0
 10
14.1015324432
 20
9.401932959
 30
0.0
 10
14.104569023
 20
9.3981306585
 30
0.0
 10
14.1075278082
 20
9.3938038923
 30
0.0
 10
14.1104049113
 20
9.3889592609
 30
0.0
 10
14.1131962766
 20
9.3836042429
 30
0.0
 10
14.1158977007
 20
9.3777471745
 30
0.0
 10
14.1185049036
 20
9.3713972833
 30
0.0
 10
14.1210137591
 20
9.3645647199
 30
0.0
 10
14.1234201431
 20
9.3572604713
 30
0.0
 10
14.1257200988
 20
9.3494963725
 30
0.0
 10
14.1279098568
 20
9.3412850663
 30
0.0
 10
14.1299857361
 20
9.3326399584
 30
0.0
 10
14.1319443198
 20
9.3235752109
 30
0.0
 10
14.1337823439
 20
9.3141056952
 30
0.0
 10
14.1354967189
 20
9.304246967
 30
0.0
 10
14.1370846307
 20
9.2940152411
 30
0.0
 10
14.1385433939
 20
9.283427362
 30
0.0
 10
14.1398706151
 20
9.2725007489
 30
0.0
 10
14.1414815799
 20
9.2573176835
 30
0.0
 10
14.1431378784
 20
9.2376241642
 30
0.0
 10
14.14454889
 20
9.2132220885
 30
0.0
 10
14.1453970399
 20
9.1879293506
 30
0.0
 10
14.1455811197
 20
9.170787019
 30
0.0
 10
14.1455811197
 20
9.1620972158
 30
0.0
  0
SPLINE
  5
320
100
AcDbEntity
  8
0
100
AcDbSpline
 62
7
  6
CONTINUOUS
 70
0
 71
3
 72
40
 73
36
 74
0
 42
0.0000001
 43
0.0000001
 44
0.0000000001
 40
0.0
 40
0.0
 40
0.0
 40
0.0
 40
0.0311444623
 40
0.0624429464
 40
0.0938877347
 40
0.1254702907
 40
0.1571779705
 40
0.188996169
 40
0.2209078941
 40
0.2528943766
 40
0.2849353707
 40
0.3170095775
 40
0.3490950548
 40
0.3811696427
 40
0.4132113916
 40
0.4451989867
 40
0.4771121643
 40
0.5089321125
 40
0.5406418522
 40
0.5722265907
 40
0.603674042
 40
0.6349747068
 40
0.6661221049
 40
0.6971129533
 40
0.727947284
 40
0.7586284939
 40
0.7891633219
 40
0.8195617482
 40
0.8498368162
 40
0.8800043756
 40
0.9100827498
 40
0.9400923353
 40
0.9550810224
 40
0.9700608656
 40
1.0
 40
1.0
 40
1.0
 40
1.0
 10
10.8228610646
 20
6.925735061
 30
0.0
 10
10.8195471346
 20
6.9259648829
 30
0.0
 10
10.812917245
 20
6.9266682505
 30
0.0
 10
10.8030528136
 20
6.9284399614
 30
0.0
 10
10.7932940081
 20
6.9309217058
 30
0.0
 10
10.7836936105
 20
6.934099972
 30
0.0
 10
10.774302562
 20
6.9379578399
 30
0.0
 10
10.7651709762
 20
6.9424746125
 30
0.0
 10
10.7563474943
 20
6.9476261794
 30
0.0
 10
10.7478791325
 20
6.9533850248
 30
0.0
 10
10.739811011
 20
6.9597204246
 30
0.0
 10
10.7321861204
 20
6.9665985891
 30
0.0
 10
10.7250450956
 20
6.9739828493
 30
0.0
 10
10.7184259999
 20
6.9818338468
 30
0.0
 10
10.7123641222
 20
6.9901097407
 30
0.0
 10
10.7068917928
 20
6.998766432
 30
0.0
 10
10.7020382128
 20
7.0077577947
 30
0.0
 10
10.6978292994
 20
7.0170359195
 30
0.0
 10
10.6942875481
 20
7.0265513652
 30
0.0
 10
10.6914319129
 20
7.0362534189
 30
0.0
 10
10.6892777047
 20
7.0460903625
 30
0.0
 10
10.6878365076
 20
7.0560097443
 30
0.0
 10
10.6871161151
 20
7.065958655
 30
0.0
 10
10.6871204853
 20
7.0758840063
 30
0.0
 10
10.6878497123
 20
7.085732811
 30
0.0
 10
10.6893000202
 20
7.0954524652
 30
0.0
 10
10.6914637787
 20
7.1049910258
 30
0.0
 10
10.6943295439
 20
7.114297497
 30
0.0
 10
10.6978820865
 20
7.1233220722
 30
0.0
 10
10.7021025637
 20
7.1320165237
 30
0.0
 10
10.7069682569
 20
7.1403340215
 30
0.0
 10
10.7115418153
 20
7.1469178834
 30
0.0
 10
10.7154939863
 20
7.1519502465
 30
0.0
 10
10.7196346701
 20
7.1568184095
 30
0.0
 10
10.722952096
 20
7.1602841097
 30
0.0
 10
10.7252489088
 20
7.1625026672
 30
0.0
  0
SPLINE
  5
321
100
AcDbEntity
  8
0
100
AcDbSpline
 62
7
  6
CONTINUOUS
 70
0
 71
3
 72
49
 73
45
 74
0
 42
0.0000001
 43
0.0000001
 44
0.0000000001
 40
0.0
 40
0.0
 40
0.0
 40
0.0
 40
0.0417737612
 40
0.0840374079
 40
0.1266587819
 40
0.1695070054
 40
0.212448701
 40
0.2553507859
 40
0.2980801061
 40
0.3405042538
 40
0.3824920091
 40
0.4239138924
 40
0.4646426962
 40
0.5045540236
 40
0.5435268394
 40
0.5814440363
 40
0.6181930245
 40
0.6536663548
 40
0.6877623909
 40
0.7203860578
 40
0.7514496892
 40
0.780874012
 40
0.8085893537
 40
0.8345371708
 40
0.8468342306
 40
0.8586736215
 40
0.8700521874
 40
0.8809680228
 40
0.8914205004
 40
0.9014107098
 40
0.9109413387
 40
0.9200173299
 40
0.9286458445
 40
0.9368369538
 40
0.9446039307
 40
0.9519638612
 40
0.9589383571
 40
0.9655540688
 40
0.9718436438
 40
0.9778460661
 40
0.9836072911
 40
0.989180004
 40
0.9946230597
 40
1.0
 40
1.0
 40
1.0
 40
1.0
 10
14.1455811197
 20
9.1620972158
 30
0.0
 10
14.1455811197
 20
9.1558289098
 30
0.0
 10
14.1454833204
 20
9.1432185917
 30
0.0
 10
14.1450510084
 20
9.1242172347
 30
0.0
 10
14.1443334394
 20
9.1050631397
 30
0.0
 10
14.1433330195
 20
9.0858198755
 30
0.0
 10
14.1420530163
 20
9.0665509705
 30
0.0
 10
14.1404976815
 20
9.0473202324
 30
0.0
 10
14.1386721575
 20
9.0281912622
 30
0.0
 10
14.1365824989
 20
9.0092273502
 30
0.0
 10
14.1342356361
 20
8.9904912289
 30
0.0
 10
14.1316393612
 20
8.9720448739
 30
0.0
 10
14.1288022995
 20
8.9539492929
 30
0.0
 10
14.1257338804
 20
8.9362643234
 30
0.0
 10
14.1224443074
 20
8.9190484315
 30
0.0
 10
14.118944525
 20
8.902358515
 30
0.0
 10
14.1152461832
 20
8.8862497108
 30
0.0
 10
14.1113615997
 20
8.8707752053
 30
0.0
 10
14.1073037187
 20
8.8559860507
 30
0.0
 10
14.1030860682
 20
8.8419309726
 30
0.0
 10
14.0987227132
 20
8.8286562222
 30
0.0
 10
14.0942282006
 20
8.8162052899
 30
0.0
 10
14.0896174901
 20
8.8046191038
 30
0.0
 10
14.0856228189
 20
8.7955603348
 30
0.0
 10
14.0823709452
 20
8.7887843775
 30
0.0
 10
14.0799562793
 20
8.7840330919
 30
0.0
 10
14.0775240566
 20
8.7795248957
 30
0.0
 10
14.0750762696
 20
8.7752634556
 30
0.0
 10
14.0726148712
 20
8.7712522665
 30
0.0
 10
14.0701419315
 20
8.7674945511
 30
0.0
 10
14.0676593584
 20
8.763993388
 30
0.0
 10
14.0651692069
 20
8.7607515554
 30
0.0
 10
14.0626733631
 20
8.7577716914
 30
0.0
 10
14.0601737809
 20
8.7550561639
 30
0.0
 10
14.0576723197
 20
8.7526071609
 30
0.0
 10
14.0551707647
 20
8.7504267137
 30
0.0
 10
14.052670916
 20
8.7485166131
 30
0.0
 10
14.0501743918
 20
8.7468786834
 30
0.0
 10
14.0476829444
 20
8.7455144842
 30
0.0
 10
14.0451982075
 20
8.7444257817
 30
0.0
 10
14.0427221456
 20
8.7436141015
 30
0.0
 10
14.0402567714
 20
8.743081083
 30
0.0
 10
14.0378050893
 20
8.7428279941
 30
0.0
 10
14.0361773763
 20
8.7428465328
 30
0.0
 10
14.0353724795
 20
8.7429023462
 30
0.0
  0
SPLINE
  5
322
100
AcDbEntity
  8
0
100
AcDbSpline
 62
7
  6
CONTINUOUS
 70
0
 71
3
 72
57
 73
53
 74
0
 42
0.0000001
 43
0.0000001
 44
0.0000000001
 40
0.0
 40
0.0
 40
0.0
 40
0.0
 40
0.0095826314
 40
0.0187372834
 40
0.0274871811
 40
0.0358600291
 40
0.0515985196
 40
0.0590563733
 40
0.0662991698
 40
0.0733803975
 40
0.0803576937
 40
0.0872915176
 40
0.0942435752
 40
0.1012750476
 40
0.1084449001
 40
0.1158084506
 40
0.1234163697
 40
0.1313140437
 40
0.1395414635
 40
0.1481332155
 40
0.1571189497
 40
0.1665236218
 40
0.1763681708
 40
0.1866697744
 40
0.1974425042
 40
0.2086975286
 40
0.220443635
 40
0.2326874045
 40
0.2454335615
 40
0.2586851612
 40
0.2724437649
 40
0.2867096704
 40
0.3014819313
 40
0.316758638
 40
0.3325368166
 40
0.3488127448
 40
0.3655817784
 40
0.3828386678
 40
0.4005773696
 40
0.437472404
 40
0.4762081875
 40
0.5167167908
 40
0.5589230097
 40
0.6027451351
 40
0.6480956102
 40
0.6948815971
 40
0.7430055015
 40
0.7923653903
 40
0.8428555687
 40
0.8943665901
 40
0.9467866181
 40
1.0
 40
1.0
 40
1.0
 40
1.0
 10
13.696445763
 20
9.06050931
 30
0.0
 10
13.6981181438
 20
9.0620657923
 30
0.0
 10
13.7014614167
 20
9.0650321068
 30
0.0
 10
13.706590842
 20
9.0691156657
 30
0.0
 10
13.7117156394
 20
9.0727269602
 30
0.0
 10
13.7183977418
 20
9.0768232256
 30
0.0
 10
13.7252148046
 20
9.0800940886
 30
0.0
 10
13.7321043732
 20
9.0823980434
 30
0.0
 10
13.7371608812
 20
9.0836121571
 30
0.0
 10
13.742194308
 20
9.0843408544
 30
0.0
 10
13.747201098
 20
9.0845831748
 30
0.0
 10
13.7521770717
 20
9.0843383595
 30
0.0
 10
13.7571180295
 20
9.0836066289
 30
0.0
 10
13.7620198673
 20
9.0823888289
 30
0.0
 10
13.7668787976
 20
9.0806865066
 30
0.0
 10
13.7716914632
 20
9.0785016908
 30
0.0
 10
13.7764548662
 20
9.0758366116
 30
0.0
 10
13.7811664143
 20
9.0726937737
 30
0.0
 10
13.785823609
 20
9.0690755984
 30
0.0
 10
13.7904242207
 20
9.064984767
 30
0.0
 10
13.7949658732
 20
9.0604238682
 30
0.0
 10
13.7994463925
 20
9.0553958206
 30
0.0
 10
13.8038633664
 20
9.0499035508
 30
0.0
 10
13.8082145655
 20
9.0439503513
 30
0.0
 10
13.8124975439
 20
9.0375396287
 30
0.0
 10
13.8167100116
 20
9.0306751421
 30
0.0
 10
13.8208495408
 20
9.0233608447
 30
0.0
 10
13.8249138099
 20
9.0156010065
 30
0.0
 10
13.8289004568
 20
9.0074001423
 30
0.0
 10
13.8328071612
 20
8.9987630475
 30
0.0
 10
13.8366316571
 20
8.9896947889
 30
0.0
 10
13.8403716559
 20
8.9802006864
 30
0.0
 10
13.8440250019
 20
8.97028634
 30
0.0
 10
13.8475894659
 20
8.9599575857
 30
0.0
 10
13.8510630051
 20
8.9492205355
 30
0.0
 10
13.854443478
 20
8.9380815279
 30
0.0
 10
13.8577289423
 20
8.9265471695
 30
0.0
 10
13.8609173977
 20
8.9146242723
 30
0.0
 10
13.8650915562
 20
8.898000109
 30
0.0
 10
13.8700372892
 20
8.8762927743
 30
0.0
 10
13.8754816685
 20
8.8491413904
 30
0.0
 10
13.8804974014
 20
8.8206211721
 30
0.0
 10
13.8850724257
 20
8.7907998445
 30
0.0
 10
13.8891956911
 20
8.7597480392
 30
0.0
 10
13.89285725
 20
8.7275394536
 30
0.0
 10
13.8960482663
 20
8.6942505597
 30
0.0
 10
13.8987610355
 20
8.6599604488
 30
0.0
 10
13.9009890131
 20
8.6247505996
 30
0.0
 10
13.9027268029
 20
8.5887047598
 30
0.0
 10
13.9039702195
 20
8.5519085391
 30
0.0
 10
13.9047162162
 20
8.5144496249
 30
0.0
 10
13.9048796252
 20
8.489264938
 30
0.0
 10
13.9048796252
 20
8.4765781902
 30
0.0
  0
ELLIPSE
  5
323
100
AcDbEntity
  8
0
100
AcDbEllipse
 62
7
  6
CONTINUOUS
 10
10.1892137827
 20
7.9206326353
 30
0.0
 11
0.187198948
 21
-0.1094223512
 31
0.0
 40
0.8819860304
 41
0.8584512295
 42
1.7423778774
  0
ELLIPSE
  5
324
100
AcDbEntity
  8
0
100
AcDbEllipse
 62
7
  6
CONTINUOUS
 10
10.1892137827
 20
7.9206326353
 30
0.0
 11
0.187198948
 21
-0.1094223512
 31
0.0
 40
0.8819860304
 41
-2.2831414241
 42
-1.3992147762
  0
ELLIPSE
  5
325
100
AcDbEntity
  8
0
100
AcDbEllipse
 62
7
  6
CONTINUOUS
 10
10.1892137827
 20
7.9206326353
 30
0.0
 11
0.1855119448
 21
-0.1233573964
 31
0.0
 40
0.854760743
 41
-1.3542966928
 42
0.9303828073
  0
ELLIPSE
  5
326
100
AcDbEntity
  8
0
100
AcDbEllipse
 62
7
  6
CONTINUOUS
 10
10.1892137827
 20
7.9206326353
 30
0.0
 11
0.1855119448
 21
-0.1233573964
 31
0.0
 40
0.854760743
 41
1.7872959608
 42
4.0719754609
  0
ENDSEC
  0
SECTION
  2
OBJECTS
  0
DICTIONARY
  5
C
100
AcDbDictionary
280
0
281
1
  3
ACAD_GROUP
350
D
  3
ACAD_MLINESTYLE
350
17
  3
ACAD_LAYOUT
350
1A
  3
ACAD_PLOTSETTINGS
350
19
  3
ACAD_PLOTSTYLENAME
350
E
  3
ACAD_IMAGE_DICT
350
       328
  3
ACAD_IMAGE_VARS
350
       329
  3
ACAD_TABLESTYLE
350
       32A
  0
IMAGEDEF_REACTOR
  5
327
100
AcDbRasterImageDefReactor
 90
2
330
274
  0
DICTIONARY
  5
D
102
{ACAD_REACTORS
330
C
102
}
100
AcDbDictionary
280
0
281
1
  0
ACDBDICTIONARYWDFLT
  5
E
102
{ACAD_REACTORS
330
C
102
}
100
AcDbDictionary
281
1
  3
Normal
350
F
100
AcDbDictionaryWithDefault
340
F
  0
DICTIONARY
  5
328
330
C
100
AcDbDictionary
281
1
  3
U8B_assy_2_img_1
350
       32D
  0
RASTERVARIABLES
  5
329
330
C
100
AcDbRasterVariables
 90
0
 70
0
 71
1
 72
5
  0
DICTIONARY
  5
17
102
{ACAD_REACTORS
330
C
102
}
100
AcDbDictionary
280
0
281
1
  3
Standard
350
18
  0
DICTIONARY
  5
32A
330
C
100
AcDbDictionary
281
1
  3
Standard
350
       32E
  3
Standard1
350
       32F
  0
DICTIONARY
  5
19
102
{ACAD_REACTORS
330
C
102
}
100
AcDbDictionary
281
1
  0
DICTIONARY
  5
1A
102
{ACAD_REACTORS
330
C
102
}
100
AcDbDictionary
281
1
  3
Model
350
32B
  3
Layout1
350
32C
  0
ACDBPLACEHOLDER
  5
F
102
{ACAD_REACTORS
330
E
102
}
  0
MLINESTYLE
  5
18
102
{ACAD_REACTORS
330
17
102
}
100
AcDbMlineStyle
  2
STANDARD
 70
0
  3

 62
256
 51
90.0
 52
90.0
 71
2
 49
0.5
 62
256
  6
BYLAYER
 49
-0.5
 62
256
  6
BYLAYER
  0
LAYOUT
  5
32B
102
{ACAD_REACTORS
330
1A
102
}
100
AcDbPlotSettings
  1

  2
none_device
  4
ANSI_C_(22.00_x_17.00_Inches)
  6

 40
0.0
 41
0.0
 42
0.0
 43
0.0
 44
558.8
 45
431.8
 46
0.0
 47
0.0
 48
0.0
 49
0.0
140
0.0
141
0.0
142
1.0
143
1.0
 70
1024
 72
0
 73
0
 74
0
  7

 75
0
147
1.0
148
0.0
149
0.0
100
AcDbLayout
  1
Model
 70
0
 71
0
 10
0.0
 20
0.0
 11
22.0
 21
17.0
 12
0.0
 22
0.0
 32
0.0
 14
0.0
 24
0.0
 34
0.0
 15
0.0
 25
0.0
 35
0.0
146
0.0
 13
0.0
 23
0.0
 33
0.0
 16
1.0
 26
0.0
 36
0.0
 17
0.0
 27
1.0
 37
0.0
 76
0
330
20E
345
0
346
0
  0
LAYOUT
  5
32C
102
{ACAD_REACTORS
330
1A
102
}
100
AcDbPlotSettings
  1

  2
none_device
  4
ANSI_C_(22.00_x_17.00_Inches)
  6

 40
0.0
 41
0.0
 42
0.0
 43
0.0
 44
558.8
 45
431.8
 46
0.0
 47
0.0
 48
0.0
 49
0.0
140
0.0
141
0.0
142
1.0
143
1.0
 70
0
 72
0
 73
0
 74
0
  7

 75
0
147
1.0
148
0.0
149
0.0
100
AcDbLayout
  1
Layout1
 70
0
 71
1
 10
0.0
 20
0.0
 11
22.0
 21
17.0
 12
0.0
 22
0.0
 32
0.0
 14
0.0
 24
0.0
 34
0.0
 15
0.0
 25
0.0
 35
0.0
146
0.0
 13
0.0
 23
0.0
 33
0.0
 16
1.0
 26
0.0
 36
0.0
 17
0.0
 27
1.0
 37
0.0
 76
0
330
20F
345
0
346
0
  0
IMAGEDEF
  5
32D
102
{ACAD_REACTORS
330
328
330
327
102
}
100
AcDbRasterImageDef
 90
0
  1
U8B_assy_2_img_1.png
 10
369.0
 20
92.0
 11
0.0066666667
 21
0.0066666667
280
1
281
0
  0
TABLESTYLE
  5
32E
102
{ACAD_REACTORS
330
32A
330
277
102
}
330
32A
100
AcDbTableStyle
  3
Standard
 70
0
 71
0
 40
0.06
 41
0.06
280
1
281
1
  7
Standard
140
0.18
170
1
 62
0
 63
7
283
0
  7
Standard
140
0.18
170
1
 62
0
 63
7
283
0
  7
Standard
140
0.18
170
1
 62
0
 63
7
283
0
  0
TABLESTYLE
  5
32F
102
{ACAD_REACTORS
330
32A
330
276
102
}
330
32A
100
AcDbTableStyle
  3
Standard1
 70
1
 71
0
 40
0.06
 41
0.06
280
1
281
1
  7
Standard
140
0.18
170
1
 62
0
 63
7
283
0
  7
Standard
140
0.18
170
1
 62
0
 63
7
283
0
  7
Standard
140
0.18
170
1
 62
0
 63
7
283
0
  0
ENDSEC
  0
EOF
