999
DXF file: U7P_assy_2.dxf
999
Pro/ENGINEER 2014200 by Parametric Technology Corporation
  0
SECTION
  2
HEADER
  9
$ACADVER
  1
AC1021
  9
$DWGCODEPAGE
  3
ANSI_1252
  9
$EXTMAX
 10
22.0
 20
17.0
 30
0.0
  9
$EXTMIN
 10
0.0
 20
0.0
 30
0.0
  9
$LIMMIN
 10
0.0
 20
0.0
  9
$LIMMAX
 10
22.0
 20
17.0
  9
$VIEWCTR
 10
11.0
 20
8.5
  9
$VIEWSIZE
 40
17.0
  9
$CLAYER
  8
0
  9
$LTSCALE
 40
1.21
  9
$CELTYPE
  6
BYLAYER
  9
$DIMSCALE
 40
1.0
  9
$DIMASZ
 40
0.1875
  9
$DIMEXO
 40
0.0625
  9
$DIMDLI
 40
0.836
  9
$DIMEXE
 40
0.125
  9
$DIMCEN
 40
0.198
  9
$DIMLFAC
 40
1.0
  9
$DIMBLK
  1
_FILLED
  9
$DIMTXT
 40
0.1
  9
$DIMTOL
 70
0
  9
$DIMLIM
 70
0
  9
$DIMTFAC
 40
1.0
  9
$DIMGAP
 40
0.09
  9
$DIMDSEP
 70
46
  9
$AUNITS
 70
0
  9
$PDMODE
 70
3
  9
$PDSIZE
 40
0.3125
  9
$HANDSEED
  5
35C
  9
$TILEMODE
 70
1
  9
$MEASUREMENT
 70
0
  9
$INSUNITS
 70
1
  0
ENDSEC
  0
SECTION
  2
CLASSES
  0
CLASS
  1
ACDBDICTIONARYWDFLT
  2
AcDbDictionaryWithDefault
  3
AutoCAD 2000
 90
0
 91
1
280
0
281
0
  0
CLASS
  1
ACDBPLACEHOLDER
  2
AcDbPlaceHolder
  3
AutoCAD 2000
 90
0
 91
1
280
0
281
0
  0
CLASS
  1
LAYOUT
  2
AcDbLayout
  3
AutoCAD 2000
 90
0
 91
0
280
0
281
0
  0
CLASS
  1
RASTERVARIABLES
  2
AcDbRasterVariables
  3
ISM
 90
0
 91
1
280
0
281
0
  0
CLASS
  1
IMAGEDEF
  2
AcDbRasterImageDef
  3
ISM
 90
0
 91
1
280
0
281
0
  0
CLASS
  1
IMAGEDEF_REACTOR
  2
AcDbRasterImageDefReactor
  3
ISM
 90
0
 91
1
280
0
281
0
  0
CLASS
  1
IMAGE
  2
AcDbRasterImage
  3
ISM
 90
127
 91
1
280
0
281
1
  0
CLASS
  1
TABLESTYLE
  2
AcDbTableStyle
  3
ObjectDBX Classes
 90
2047
 91
1
280
0
281
0
  0
CLASS
  1
ACAD_TABLE
  2
AcDbTable
  3
ObjectDBX Classes
 90
1025
 91
2
280
0
281
1
  0
ENDSEC
  0
SECTION
  2
TABLES
  0
TABLE
  2
VPORT
  5
8
100
AcDbSymbolTable
 70
2
  0
VPORT
  5
1F4
100
AcDbSymbolTableRecord
100
AcDbViewportTableRecord
  2
*ACTIVE
 70
0
 10
0.0
 20
0.0
 11
1.0
 21
1.0
 12
11.0
 22
8.5
 13
0.0
 23
0.0
 14
1.0
 24
1.0
 15
0.0
 25
0.0
 16
0.0
 26
0.0
 36
1.0
 17
0.0
 27
0.0
 37
0.0
 40
17.0
 41
1.2941176471
 42
50.0
 43
0.0
 44
0.0
 50
0.0
 51
0.0
 71
0
 72
100
 73
1
 74
1
 75
0
 76
0
 77
0
 78
0
  0
ENDTAB
  0
TABLE
  2
LTYPE
  5
5
100
AcDbSymbolTable
 70
6
  0
LTYPE
  5
14
100
AcDbSymbolTableRecord
100
AcDbLinetypeTableRecord
  2
BYBLOCK
 70
0
  3

 72
65
 73
0
 40
0.0
  0
LTYPE
  5
15
100
AcDbSymbolTableRecord
100
AcDbLinetypeTableRecord
  2
BYLAYER
 70
0
  3

 72
65
 73
0
 40
0.0
  0
LTYPE
  5
16
100
AcDbSymbolTableRecord
100
AcDbLinetypeTableRecord
  2
CONTINUOUS
 70
64
  3
Solid line
 72
65
 73
0
 40
0.0
  0
LTYPE
  5
1F5
100
AcDbSymbolTableRecord
100
AcDbLinetypeTableRecord
  2
CENTER
 70
64
  3
____ _ ____ _ ____ _ ____ _ ____ _ ____ _ ____
 72
65
 73
4
 40
0.6
 49
0.375
 74
0
 49
-0.075
 74
0
 49
0.075
 74
0
 49
-0.075
 74
0
  0
LTYPE
  5
1F6
100
AcDbSymbolTableRecord
100
AcDbLinetypeTableRecord
  2
HIDDEN
 70
64
  3
- - - - - - - - - - - - - - - - - - - -
 72
65
 73
2
 40
0.2
 49
0.1
 74
0
 49
-0.1
 74
0
  0
LTYPE
  5
1F7
100
AcDbSymbolTableRecord
100
AcDbLinetypeTableRecord
  2
PHANTOM
 70
64
  3
_____ _ _ _____ _ _ _____ _ _ _____
 72
65
 73
6
 40
0.8
 49
0.45
 74
0
 49
-0.05
 74
0
 49
0.1
 74
0
 49
-0.05
 74
0
 49
0.1
 74
0
 49
-0.05
 74
0
  0
LTYPE
  5
1F8
100
AcDbSymbolTableRecord
100
AcDbLinetypeTableRecord
  2
DOT
 70
64
  3
. . . . . . . . . . . . . . . . . . . .
 72
65
 73
2
 40
0.2
 49
0.1
 74
0
 49
-0.1
 74
0
  0
LTYPE
  5
1F9
100
AcDbSymbolTableRecord
100
AcDbLinetypeTableRecord
  2
DASHED
 70
64
  3
- - - - - - - - - - - - - - - - - - - -
 72
65
 73
2
 40
0.2
 49
0.1
 74
0
 49
-0.1
 74
0
  0
ENDTAB
  0
TABLE
  2
LAYER
  5
2
100
AcDbSymbolTable
 70
36
  0
LAYER
  5
10
100
AcDbSymbolTableRecord
100
AcDbLayerTableRecord
  2
0
 70
0
 62
7
  6
CONTINUOUS
370
-3
390
F
  0
LAYER
  5
1FA
100
AcDbSymbolTableRecord
100
AcDbLayerTableRecord
  2
DEFAULT_1
 70
0
 62
7
  6
CENTER
370
-3
390
F
  0
LAYER
  5
1FB
100
AcDbSymbolTableRecord
100
AcDbLayerTableRecord
  2
DEFAULT_2
 70
0
 62
8
  6
HIDDEN
370
-3
390
F
  0
LAYER
  5
1FC
100
AcDbSymbolTableRecord
100
AcDbLayerTableRecord
  2
DEFAULT_3
 70
0
 62
7
  6
PHANTOM
370
-3
390
F
  0
LAYER
  5
1FD
100
AcDbSymbolTableRecord
100
AcDbLayerTableRecord
  2
01___PRT_ALL_DTM_PLN
 70
0
 62
7
  6
CONTINUOUS
370
-3
390
F
  0
LAYER
  5
1FE
100
AcDbSymbolTableRecord
100
AcDbLayerTableRecord
  2
01___PRT_DEF_DTM_PLN
 70
0
 62
7
  6
CONTINUOUS
370
-3
390
F
  0
LAYER
  5
1FF
100
AcDbSymbolTableRecord
100
AcDbLayerTableRecord
  2
02___PRT_ALL_AXES
 70
0
 62
7
  6
CONTINUOUS
370
-3
390
F
  0
LAYER
  5
200
100
AcDbSymbolTableRecord
100
AcDbLayerTableRecord
  2
03___PRT_ALL_CURVES
 70
0
 62
7
  6
CONTINUOUS
370
-3
390
F
  0
LAYER
  5
201
100
AcDbSymbolTableRecord
100
AcDbLayerTableRecord
  2
04___PRT_ALL_DTM_PNT
 70
0
 62
7
  6
CONTINUOUS
370
-3
390
F
  0
LAYER
  5
202
100
AcDbSymbolTableRecord
100
AcDbLayerTableRecord
  2
05___PRT_ALL_DTM_CSYS
 70
0
 62
7
  6
CONTINUOUS
370
-3
390
F
  0
LAYER
  5
203
100
AcDbSymbolTableRecord
100
AcDbLayerTableRecord
  2
05___PRT_DEF_DTM_CSYS
 70
0
 62
7
  6
CONTINUOUS
370
-3
390
F
  0
LAYER
  5
204
100
AcDbSymbolTableRecord
100
AcDbLayerTableRecord
  2
06___PRT_ALL_SURFS
 70
0
 62
7
  6
CONTINUOUS
370
-3
390
F
  0
LAYER
  5
205
100
AcDbSymbolTableRecord
100
AcDbLayerTableRecord
  2
DATUM_PLANES
 70
0
 62
7
  6
CONTINUOUS
370
-3
390
F
  0
LAYER
  5
206
100
AcDbSymbolTableRecord
100
AcDbLayerTableRecord
  2
DIMENSIONS
 70
0
 62
7
  6
CONTINUOUS
370
-3
390
F
  0
LAYER
  5
207
100
AcDbSymbolTableRecord
100
AcDbLayerTableRecord
  2
DTM_500001
 70
0
 62
7
  6
CONTINUOUS
370
-3
390
F
  0
LAYER
  5
208
100
AcDbSymbolTableRecord
100
AcDbLayerTableRecord
  2
PARAMETERDIMENSIONS
 70
0
 62
7
  6
CONTINUOUS
370
-3
390
F
  0
LAYER
  5
209
100
AcDbSymbolTableRecord
100
AcDbLayerTableRecord
  2
PLANE
 70
0
 62
7
  6
CONTINUOUS
370
-3
390
F
  0
LAYER
  5
20A
100
AcDbSymbolTableRecord
100
AcDbLayerTableRecord
  2
PORT_AREAS
 70
0
 62
7
  6
CONTINUOUS
370
-3
390
F
  0
LAYER
  5
20B
100
AcDbSymbolTableRecord
100
AcDbLayerTableRecord
  2
SUNNBOMCOSMETIC
 70
0
 62
7
  6
CONTINUOUS
370
-3
390
F
  0
LAYER
  5
20C
100
AcDbSymbolTableRecord
100
AcDbLayerTableRecord
  2
SUNNBOMSTAMPING
 70
0
 62
7
  6
CONTINUOUS
370
-3
390
F
  0
LAYER
  5
20D
100
AcDbSymbolTableRecord
100
AcDbLayerTableRecord
  2
THREADS
 70
0
 62
7
  6
CONTINUOUS
370
-3
390
F
  0
ENDTAB
  0
TABLE
  2
STYLE
  5
3
100
AcDbSymbolTable
 70
1
  0
STYLE
  5
11
100
AcDbSymbolTableRecord
100
AcDbTextStyleTableRecord
  2
STANDARD
 70
0
 40
0.0
 41
0.8
 50
0.0
 71
0
 42
0.2
  3
txt
  4

  0
STYLE
  5
20E
100
AcDbSymbolTableRecord
100
AcDbTextStyleTableRecord
  2
TEXTSTYLE_1
 70
0
 40
0.0
 41
0.8
 50
0.0
 71
0
 42
0.2
  3
gdt
  4

  0
ENDTAB
  0
TABLE
  2
VIEW
  5
6
100
AcDbSymbolTable
 70
0
  0
ENDTAB
  0
TABLE
  2
UCS
  5
7
100
AcDbSymbolTable
 70
0
  0
ENDTAB
  0
TABLE
  2
APPID
  5
9
100
AcDbSymbolTable
 70
1
  0
APPID
  5
20F
100
AcDbSymbolTableRecord
100
AcDbRegAppTableRecord
  2
ACAD
 70
0
  0
ENDTAB
  0
TABLE
  2
BLOCK_RECORD
  5
1
100
AcDbSymbolTable
 70
0
  0
BLOCK_RECORD
  5
210
100
AcDbSymbolTableRecord
100
AcDbBlockTableRecord
  2
*Model_Space
  0
BLOCK_RECORD
  5
211
100
AcDbSymbolTableRecord
100
AcDbBlockTableRecord
  2
*Paper_Space
  0
BLOCK_RECORD
  5
212
100
AcDbSymbolTableRecord
100
AcDbBlockTableRecord
  2
SUN_FIRST_THIRD_ANGLE_BL0
  0
BLOCK_RECORD
  5
213
100
AcDbSymbolTableRecord
100
AcDbBlockTableRecord
  2
*T1
  0
BLOCK_RECORD
  5
214
100
AcDbSymbolTableRecord
100
AcDbBlockTableRecord
  2
*T2
  0
ENDTAB
  0
TABLE
  2
DIMSTYLE
  5
A
100
AcDbSymbolTable
 70
1
100
AcDbDimStyleTable
 71
0
  0
DIMSTYLE
105
215
100
AcDbSymbolTableRecord
100
AcDbDimStyleTableRecord
  2
STANDARD
 70
0
  3

  4

 40
1.0
 41
0.1875
 42
0.0625
 43
0.38
 44
0.125
 45
0.0
 46
0.0
 47
0.001
 48
0.001
140
0.1
141
0.09
142
0.0
143
25.4
144
1.0
145
0.0
146
1.0
147
0.09
 71
0.0
 72
0.0
 73
1
 74
1
 75
0
 76
0
 77
0
 78
4
170
0
171
2
172
0
173
0
174
0
175
0
176
0
177
0
178
0
270
2
271
3
272
3
273
2
274
2
275
0
280
0
281
0
282
0
283
1
284
4
285
0
286
0
287
3
288
0
340
11
278
46
  0
ENDTAB
  0
ENDSEC
  0
SECTION
  2
BLOCKS
  0
BLOCK
  5
20
100
AcDbEntity
  8
0
100
AcDbBlockBegin
  2
*Model_Space
 70
0
 10
0.0
 20
0.0
 30
0.0
  3
*Model_Space
  1

  0
ENDBLK
  5
21
100
AcDbEntity
  8
0
100
AcDbBlockEnd
  0
BLOCK
  5
1C
100
AcDbEntity
  8
0
100
AcDbBlockBegin
  2
*Paper_Space
 70
0
 10
0.0
 20
0.0
 30
0.0
  3
*Paper_Space
  1

  0
ENDBLK
  5
1D
100
AcDbEntity
  8
0
100
AcDbBlockEnd
  0
BLOCK
  5
216
100
AcDbEntity
  8
0
100
AcDbBlockBegin
 62
2
  6
CONTINUOUS
  2
SUN_FIRST_THIRD_ANGLE_BL0
 70
64
 10
20.4816717061
 20
1.2289683772
  3
SUN_FIRST_THIRD_ANGLE_BL0
  1

  0
TEXT
  5
217
100
AcDbEntity
  8
0
100
AcDbText
 62
2
  6
CONTINUOUS
 10
19.4750896608
 20
1.4136269581
  7
STANDARD
 40
0.08
  1
FIRST ANGLE
 41
0.8
 72
0
100
AcDbText
  0
TEXT
  5
218
100
AcDbEntity
  8
0
100
AcDbText
 62
2
  6
CONTINUOUS
 10
20.7842537513
 20
1.4047600029
  7
STANDARD
 40
0.08
  1
THIRD ANGLE
 41
0.8
 72
0
100
AcDbText
  0
LINE
  5
219
100
AcDbEntity
  8
0
100
AcDbLine
 62
7
  6
CONTINUOUS
 10
19.4767170086
 20
1.1727031207
 11
19.6334271527
 21
1.1717972817
  0
LINE
  5
21A
100
AcDbEntity
  8
0
100
AcDbLine
 62
7
  6
CONTINUOUS
 10
19.6596964832
 20
1.1717972817
 11
19.6950230232
 21
1.171593082
  0
LINE
  5
21B
100
AcDbEntity
  8
0
100
AcDbLine
 62
7
  6
CONTINUOUS
 10
19.7194818561
 20
1.1708914427
 11
19.8852396156
 21
1.1699333054
  0
LINE
  5
21C
100
AcDbEntity
  8
0
100
AcDbLine
 62
7
  6
CONTINUOUS
 10
19.4758111696
 20
1.2723454088
 11
19.88525039
 21
1.3511534004
  0
LINE
  5
21D
100
AcDbEntity
  8
0
100
AcDbLine
 62
7
  6
CONTINUOUS
 10
19.88525039
 20
1.3511534004
 11
19.8831348489
 21
0.9851647912
  0
LINE
  5
21E
100
AcDbEntity
  8
0
100
AcDbLine
 62
7
  6
CONTINUOUS
 10
19.8831348489
 20
0.9851647912
 11
19.4767170086
 21
1.0658141206
  0
LINE
  5
21F
100
AcDbEntity
  8
0
100
AcDbLine
 62
7
  6
CONTINUOUS
 10
19.4767170086
 20
1.0658141206
 11
19.4779056764
 21
1.2714536432
  0
CIRCLE
  5
220
100
AcDbEntity
  8
0
100
AcDbCircle
 62
7
  6
CONTINUOUS
 10
20.2068232291
 20
1.1717972817
 40
0.175742101
  0
CIRCLE
  5
221
100
AcDbEntity
  8
0
100
AcDbCircle
 62
7
  6
CONTINUOUS
 10
20.2068232291
 20
1.1717972817
 40
0.1005522074
  0
LINE
  5
222
100
AcDbEntity
  8
0
100
AcDbLine
 62
7
  6
CONTINUOUS
 10
20.2077290681
 20
1.3756110529
 11
20.2071171714
 21
1.2379342989
  0
LINE
  5
223
100
AcDbEntity
  8
0
100
AcDbLine
 62
7
  6
CONTINUOUS
 10
20.2077290681
 20
1.2016899681
 11
20.2074674401
 21
1.1428236749
  0
LINE
  5
224
100
AcDbEntity
  8
0
100
AcDbLine
 62
7
  6
CONTINUOUS
 10
20.208634907
 20
1.101141841
 11
20.2080230104
 21
0.963465087
  0
LINE
  5
225
100
AcDbEntity
  8
0
100
AcDbLine
 62
7
  6
CONTINUOUS
 10
20.0066328138
 20
1.1745147986
 11
20.1443095678
 21
1.1739029019
  0
LINE
  5
226
100
AcDbEntity
  8
0
100
AcDbLine
 62
7
  6
CONTINUOUS
 10
20.1832714155
 20
1.1727031207
 11
20.238153505
 21
1.172335442
  0
LINE
  5
227
100
AcDbEntity
  8
0
100
AcDbLine
 62
7
  6
CONTINUOUS
 10
20.2756669918
 20
1.1717972817
 11
20.407916871
 21
1.1712095044
  0
CIRCLE
  5
228
100
AcDbEntity
  8
0
100
AcDbCircle
 62
7
  6
CONTINUOUS
 10
20.7509457401
 20
1.1693297793
 40
0.1722024983
  0
CIRCLE
  5
229
100
AcDbEntity
  8
0
100
AcDbCircle
 62
7
  6
CONTINUOUS
 10
20.7509457401
 20
1.1693297793
 40
0.0985164967
  0
LINE
  5
22A
100
AcDbEntity
  8
0
100
AcDbLine
 62
7
  6
CONTINUOUS
 10
20.7169767782
 20
1.170462078
 11
20.7825395137
 21
1.1682766535
  0
LINE
  5
22B
100
AcDbEntity
  8
0
100
AcDbLine
 62
7
  6
CONTINUOUS
 10
20.8177513651
 20
1.1693297793
 11
20.947965719
 21
1.1693297793
  0
LINE
  5
22C
100
AcDbEntity
  8
0
100
AcDbLine
 62
7
  6
CONTINUOUS
 10
20.6875370113
 20
1.170462078
 11
20.5573226574
 21
1.170462078
  0
LINE
  5
22D
100
AcDbEntity
  8
0
100
AcDbLine
 62
7
  6
CONTINUOUS
 10
20.7486811426
 20
1.1987695462
 11
20.7486811426
 21
1.1432869085
  0
LINE
  5
22E
100
AcDbEntity
  8
0
100
AcDbLine
 62
7
  6
CONTINUOUS
 10
20.7498134414
 20
1.1059210505
 11
20.7498134414
 21
0.9757066966
  0
LINE
  5
22F
100
AcDbEntity
  8
0
100
AcDbLine
 62
7
  6
CONTINUOUS
 10
20.7486811426
 20
1.2338708068
 11
20.7486811426
 21
1.3640851607
  0
LINE
  5
230
100
AcDbEntity
  8
0
100
AcDbLine
 62
7
  6
CONTINUOUS
 10
21.0702539817
 20
1.2701043662
 11
21.4790138229
 21
1.3448360823
  0
LINE
  5
231
100
AcDbEntity
  8
0
100
AcDbLine
 62
7
  6
CONTINUOUS
 10
21.4790138229
 20
1.3448360823
 11
21.4790138229
 21
0.9779712941
  0
LINE
  5
232
100
AcDbEntity
  8
0
100
AcDbLine
 62
7
  6
CONTINUOUS
 10
21.4790138229
 20
0.9779712941
 11
21.069121683
 21
1.0617614
  0
LINE
  5
233
100
AcDbEntity
  8
0
100
AcDbLine
 62
7
  6
CONTINUOUS
 10
21.0702539817
 20
1.2701043662
 11
21.069121683
 21
1.0617614
  0
LINE
  5
234
100
AcDbEntity
  8
0
100
AcDbLine
 62
7
  6
CONTINUOUS
 10
21.4790138229
 20
1.1693297793
 11
21.3159628059
 21
1.1693297793
  0
LINE
  5
235
100
AcDbEntity
  8
0
100
AcDbLine
 62
7
  6
CONTINUOUS
 10
21.2876553377
 20
1.1693297793
 11
21.2502894796
 21
1.1693297793
  0
LINE
  5
236
100
AcDbEntity
  8
0
100
AcDbLine
 62
7
  6
CONTINUOUS
 10
21.2208497126
 20
1.1659328831
 11
21.0713862804
 21
1.1659328831
  0
LINE
  5
237
100
AcDbEntity
  8
0
100
AcDbLine
 62
7
  6
CONTINUOUS
 10
20.4796138713
 20
1.5284908897
 11
20.4766766948
 21
0.9294458646
  0
ENDBLK
  5
238
100
AcDbEntity
  8
0
  6
BYBLOCK
 62
0
100
AcDbBlockEnd
  0
BLOCK
  5
239
100
AcDbEntity
  8
0
100
AcDbBlockBegin
  2
*T1
 70
1
 10
0.0
 20
0.0
  3
*T1
  1

  0
LINE
  5
23A
100
AcDbEntity
  8
0
100
AcDbLine
 62
2
  6
CONTINUOUS
 10
9.275
 20
0.0
 11
-0.0
 21
0.0
  0
LINE
  5
23B
100
AcDbEntity
  8
0
100
AcDbLine
 62
2
  6
CONTINUOUS
 10
9.275
 20
0.0
 11
9.275
 21
1.25
  0
LINE
  5
23C
100
AcDbEntity
  8
0
100
AcDbLine
 62
2
  6
CONTINUOUS
 10
9.275
 20
0.625
 11
-0.0
 21
0.625
  0
LINE
  5
23D
100
AcDbEntity
  8
0
100
AcDbLine
 62
2
  6
CONTINUOUS
 10
9.275
 20
1.25
 11
-0.0
 21
1.25
  0
LINE
  5
23E
100
AcDbEntity
  8
0
100
AcDbLine
 62
2
  6
CONTINUOUS
 10
6.8
 20
0.0
 11
6.8
 21
1.25
  0
LINE
  5
23F
100
AcDbEntity
  8
0
100
AcDbLine
 62
2
  6
CONTINUOUS
 10
6.4
 20
0.0
 11
6.4
 21
0.625
  0
LINE
  5
240
100
AcDbEntity
  8
0
100
AcDbLine
 62
2
  6
CONTINUOUS
 10
5.9
 20
0.0
 11
5.9
 21
0.625
  0
LINE
  5
241
100
AcDbEntity
  8
0
100
AcDbLine
 62
2
  6
CONTINUOUS
 10
5.2
 20
0.0
 11
5.2
 21
0.625
  0
LINE
  5
242
100
AcDbEntity
  8
0
100
AcDbLine
 62
2
  6
CONTINUOUS
 10
4.1
 20
0.0
 11
4.1
 21
1.25
  0
LINE
  5
243
100
AcDbEntity
  8
0
100
AcDbLine
 62
2
  6
CONTINUOUS
 10
-0.0
 20
0.0
 11
-0.0
 21
1.25
  0
MTEXT
  5
244
100
AcDbEntity
  8
0
100
AcDbMText
 62
2
  6
CONTINUOUS
  7
STANDARD
 71
2
 72
1
 10
6.6
 20
0.325
 30
0.0
 11
1.0
 21
0.0
 31
0.0
 44
0.9
  1
2
 40
0.125
 41
0.2
  0
MTEXT
  5
245
100
AcDbEntity
  8
0
100
AcDbMText
 62
2
  6
CONTINUOUS
  7
STANDARD
 71
2
 72
1
 10
6.15
 20
0.325
 30
0.0
 11
1.0
 21
0.0
 31
0.0
 44
0.9
  1
C
 40
0.125
 41
0.2
  0
MTEXT
  5
246
100
AcDbEntity
  8
0
100
AcDbMText
 62
2
  6
CONTINUOUS
  7
STANDARD
 71
2
 72
1
 10
5.55
 20
0.325
 30
0.0
 11
1.0
 21
0.0
 31
0.0
 44
0.9
  1
1.000
 40
0.125
 41
1.0
  0
MTEXT
  5
247
100
AcDbEntity
  8
0
100
AcDbMText
 62
2
  6
CONTINUOUS
  7
STANDARD
 71
2
 72
1
 10
4.65
 20
0.325
 30
0.0
 11
1.0
 21
0.0
 31
0.0
 44
0.9
  1
Sep-26-19
 40
0.125
 41
1.8
  0
MTEXT
  5
248
100
AcDbEntity
  8
0
100
AcDbMText
 62
2
  6
CONTINUOUS
  7
STANDARD
 71
2
 72
1
 10
2.05
 20
0.4625
 30
0.0
 11
1.0
 21
0.0
 31
0.0
 44
0.9
  1
T-2A Sandwich ISO 03\POn B with free flow check
 40
0.125
 41
5.0
  0
MTEXT
  5
249
100
AcDbEntity
  8
0
100
AcDbMText
 62
2
  6
CONTINUOUS
  7
STANDARD
 71
1
 72
1
 10
6.45
 20
0.5625
 30
0.0
 11
1.0
 21
0.0
 31
0.0
 44
0.9
  1
SHEET
 40
0.06
 41
0.48
  0
MTEXT
  5
24A
100
AcDbEntity
  8
0
100
AcDbMText
 62
2
  6
CONTINUOUS
  7
STANDARD
 71
1
 72
1
 10
5.95
 20
0.5625
 30
0.0
 11
1.0
 21
0.0
 31
0.0
 44
0.9
  1
DWG SIZE
 40
0.06
 41
0.768
  0
MTEXT
  5
24B
100
AcDbEntity
  8
0
100
AcDbMText
 62
2
  6
CONTINUOUS
  7
STANDARD
 71
1
 72
1
 10
5.25
 20
0.5625
 30
0.0
 11
1.0
 21
0.0
 31
0.0
 44
0.9
  1
SCALE
 40
0.06
 41
0.48
  0
MTEXT
  5
24C
100
AcDbEntity
  8
0
100
AcDbMText
 62
2
  6
CONTINUOUS
  7
STANDARD
 71
1
 72
1
 10
4.15
 20
0.5625
 30
0.0
 11
1.0
 21
0.0
 31
0.0
 44
0.9
  1
DATE
 40
0.06
 41
0.384
  0
MTEXT
  5
24D
100
AcDbEntity
  8
0
100
AcDbMText
 62
2
  6
CONTINUOUS
  7
STANDARD
 71
1
 72
1
 10
0.05
 20
0.5625
 30
0.0
 11
1.0
 21
0.0
 31
0.0
 44
0.9
  1
DESCRIPTION
 40
0.06
 41
1.056
  0
MTEXT
  5
24E
100
AcDbEntity
  8
0
100
AcDbMText
 62
2
  6
CONTINUOUS
  7
STANDARD
 71
2
 72
1
 10
5.45
 20
1.0375
 30
0.0
 11
1.0
 21
0.0
 31
0.0
 44
0.9
  1
ALL DIMENSIONS IN INCH\PVIEWS ARE THIRD ANGLE
 40
0.12
 41
4.224
  0
MTEXT
  5
24F
100
AcDbEntity
  8
0
100
AcDbMText
 62
2
  6
CONTINUOUS
  7
STANDARD
 71
2
 72
1
 10
2.05
 20
0.95
 30
0.0
 11
1.0
 21
0.0
 31
0.0
 44
0.9
  1
U7P
 40
0.125
 41
0.6
  0
MTEXT
  5
250
100
AcDbEntity
  8
0
100
AcDbMText
 62
2
  6
CONTINUOUS
  7
STANDARD
 71
1
 72
1
 10
0.05
 20
1.1875
 30
0.0
 11
1.0
 21
0.0
 31
0.0
 44
0.9
  1
MODEL
 40
0.06
 41
0.48
  0
ENDBLK
  5
251
100
AcDbEntity
  8
0
  6
BYBLOCK
 62
0
100
AcDbBlockEnd
  0
BLOCK
  5
252
100
AcDbEntity
  8
0
100
AcDbBlockBegin
  2
*T2
 70
1
 10
0.0
 20
0.0
  3
*T2
  1

  0
LINE
  5
253
100
AcDbEntity
  8
0
100
AcDbLine
 62
2
  6
CONTINUOUS
 10
0.0
 20
0.0
 11
9.055
 21
0.0
  0
LINE
  5
254
100
AcDbEntity
  8
0
100
AcDbLine
 62
2
  6
CONTINUOUS
 10
0.0
 20
0.0
 11
0.0
 21
-2.344
  0
LINE
  5
255
100
AcDbEntity
  8
0
100
AcDbLine
 62
2
  6
CONTINUOUS
 10
0.0
 20
-0.344
 11
9.055
 21
-0.344
  0
LINE
  5
256
100
AcDbEntity
  8
0
100
AcDbLine
 62
2
  6
CONTINUOUS
 10
0.0
 20
-0.594
 11
9.055
 21
-0.594
  0
LINE
  5
257
100
AcDbEntity
  8
0
100
AcDbLine
 62
2
  6
CONTINUOUS
 10
0.0
 20
-0.844
 11
9.055
 21
-0.844
  0
LINE
  5
258
100
AcDbEntity
  8
0
100
AcDbLine
 62
2
  6
CONTINUOUS
 10
0.0
 20
-1.094
 11
9.055
 21
-1.094
  0
LINE
  5
259
100
AcDbEntity
  8
0
100
AcDbLine
 62
2
  6
CONTINUOUS
 10
0.0
 20
-1.344
 11
9.055
 21
-1.344
  0
LINE
  5
25A
100
AcDbEntity
  8
0
100
AcDbLine
 62
2
  6
CONTINUOUS
 10
0.0
 20
-1.594
 11
9.055
 21
-1.594
  0
LINE
  5
25B
100
AcDbEntity
  8
0
100
AcDbLine
 62
2
  6
CONTINUOUS
 10
0.0
 20
-1.844
 11
9.055
 21
-1.844
  0
LINE
  5
25C
100
AcDbEntity
  8
0
100
AcDbLine
 62
2
  6
CONTINUOUS
 10
0.0
 20
-2.094
 11
9.055
 21
-2.094
  0
LINE
  5
25D
100
AcDbEntity
  8
0
100
AcDbLine
 62
2
  6
CONTINUOUS
 10
0.0
 20
-2.344
 11
9.055
 21
-2.344
  0
LINE
  5
25E
100
AcDbEntity
  8
0
100
AcDbLine
 62
2
  6
CONTINUOUS
 10
3.055
 20
0.0
 11
3.055
 21
-2.344
  0
LINE
  5
25F
100
AcDbEntity
  8
0
100
AcDbLine
 62
2
  6
CONTINUOUS
 10
9.055
 20
0.0
 11
9.055
 21
-2.344
  0
MTEXT
  5
260
100
AcDbEntity
  8
0
100
AcDbMText
 62
2
  6
CONTINUOUS
  7
STANDARD
 71
2
 72
1
 10
1.5275
 20
-0.0995
 30
0.0
 11
1.0
 21
0.0
 31
0.0
 44
0.9
  1
Technical Data
 40
0.145
 41
3.248
  0
MTEXT
  5
261
100
AcDbEntity
  8
0
100
AcDbMText
 62
2
  6
CONTINUOUS
  7
STANDARD
 71
2
 72
1
 10
4.555
 20
-0.0995
 30
0.0
 11
1.0
 21
0.0
 31
0.0
 44
0.9
  1
U.S. Units
 40
0.145
 41
2.32
  0
MTEXT
  5
262
100
AcDbEntity
  8
0
100
AcDbMText
 62
2
  6
CONTINUOUS
  7
STANDARD
 71
2
 72
1
 10
7.555
 20
-0.0995
 30
0.0
 11
1.0
 21
0.0
 31
0.0
 44
0.9
  1
Metric Units
 40
0.145
 41
2.784
  0
MTEXT
  5
263
100
AcDbEntity
  8
0
100
AcDbMText
 62
2
  6
CONTINUOUS
  7
STANDARD
 71
2
 72
1
 10
1.5275
 20
-0.4065
 30
0.0
 11
1.0
 21
0.0
 31
0.0
 44
0.9
  1
Cavity
 40
0.125
 41
1.2
  0
MTEXT
  5
264
100
AcDbEntity
  8
0
100
AcDbMText
 62
2
  6
CONTINUOUS
  7
STANDARD
 71
2
 72
1
 10
6.055
 20
-0.4065
 30
0.0
 11
1.0
 21
0.0
 31
0.0
 44
0.9
  1
T-2A
 40
0.125
 41
0.8
  0
MTEXT
  5
265
100
AcDbEntity
  8
0
100
AcDbMText
 62
2
  6
CONTINUOUS
  7
STANDARD
 71
2
 72
1
 10
1.5275
 20
-0.6565
 30
0.0
 11
1.0
 21
0.0
 31
0.0
 44
0.9
  1
Body Features
 40
0.125
 41
2.6
  0
MTEXT
  5
266
100
AcDbEntity
  8
0
100
AcDbMText
 62
2
  6
CONTINUOUS
  7
STANDARD
 71
2
 72
1
 10
6.055
 20
-0.6565
 30
0.0
 11
1.0
 21
0.0
 31
0.0
 44
0.9
  1
On B with free flow check
 40
0.125
 41
5.0
  0
MTEXT
  5
267
100
AcDbEntity
  8
0
100
AcDbMText
 62
2
  6
CONTINUOUS
  7
STANDARD
 71
2
 72
1
 10
1.5275
 20
-0.9065
 30
0.0
 11
1.0
 21
0.0
 31
0.0
 44
0.9
  1
Body Type
 40
0.125
 41
1.8
  0
MTEXT
  5
268
100
AcDbEntity
  8
0
100
AcDbMText
 62
2
  6
CONTINUOUS
  7
STANDARD
 71
2
 72
1
 10
6.055
 20
-0.9065
 30
0.0
 11
1.0
 21
0.0
 31
0.0
 44
0.9
  1
Sandwich
 40
0.125
 41
1.6
  0
MTEXT
  5
269
100
AcDbEntity
  8
0
100
AcDbMText
 62
2
  6
CONTINUOUS
  7
STANDARD
 71
2
 72
1
 10
1.5275
 20
-1.1565
 30
0.0
 11
1.0
 21
0.0
 31
0.0
 44
0.9
  1
Interface
 40
0.125
 41
1.8
  0
MTEXT
  5
26A
100
AcDbEntity
  8
0
100
AcDbMText
 62
2
  6
CONTINUOUS
  7
STANDARD
 71
2
 72
1
 10
6.055
 20
-1.1565
 30
0.0
 11
1.0
 21
0.0
 31
0.0
 44
0.9
  1
ISO 03
 40
0.125
 41
1.2
  0
MTEXT
  5
26B
100
AcDbEntity
  8
0
100
AcDbMText
 62
2
  6
CONTINUOUS
  7
STANDARD
 71
2
 72
1
 10
1.5275
 20
-1.4065
 30
0.0
 11
1.0
 21
0.0
 31
0.0
 44
0.9
  1
Open Cavity Quantity
 40
0.125
 41
4.0
  0
MTEXT
  5
26C
100
AcDbEntity
  8
0
100
AcDbMText
 62
2
  6
CONTINUOUS
  7
STANDARD
 71
2
 72
1
 10
6.055
 20
-1.4065
 30
0.0
 11
1.0
 21
0.0
 31
0.0
 44
0.9
  1
1
 40
0.125
 41
0.2
  0
MTEXT
  5
26D
100
AcDbEntity
  8
0
100
AcDbMText
 62
2
  6
CONTINUOUS
  7
STANDARD
 71
2
 72
1
 10
1.5275
 20
-1.6565
 30
0.0
 11
1.0
 21
0.0
 31
0.0
 44
0.9
  1
Stack Height
 40
0.125
 41
2.4
  0
MTEXT
  5
26E
100
AcDbEntity
  8
0
100
AcDbMText
 62
2
  6
CONTINUOUS
  7
STANDARD
 71
2
 72
1
 10
4.555
 20
-1.6565
 30
0.0
 11
1.0
 21
0.0
 31
0.0
 44
0.9
  1
1.97 in.
 40
0.125
 41
1.6
  0
MTEXT
  5
26F
100
AcDbEntity
  8
0
100
AcDbMText
 62
2
  6
CONTINUOUS
  7
STANDARD
 71
2
 72
1
 10
7.555
 20
-1.6565
 30
0.0
 11
1.0
 21
0.0
 31
0.0
 44
0.9
  1
50 mm
 40
0.125
 41
1.0
  0
MTEXT
  5
270
100
AcDbEntity
  8
0
100
AcDbMText
 62
2
  6
CONTINUOUS
  7
STANDARD
 71
2
 72
1
 10
1.5275
 20
-1.9065
 30
0.0
 11
1.0
 21
0.0
 31
0.0
 44
0.9
  1
Weight
 40
0.125
 41
1.2
  0
MTEXT
  5
271
100
AcDbEntity
  8
0
100
AcDbMText
 62
2
  6
CONTINUOUS
  7
STANDARD
 71
2
 72
1
 10
4.555
 20
-1.9065
 30
0.0
 11
1.0
 21
0.0
 31
0.0
 44
0.9
  1
1.721 lb.
 40
0.125
 41
1.8
  0
MTEXT
  5
272
100
AcDbEntity
  8
0
100
AcDbMText
 62
2
  6
CONTINUOUS
  7
STANDARD
 71
2
 72
1
 10
7.555
 20
-1.9065
 30
0.0
 11
1.0
 21
0.0
 31
0.0
 44
0.9
  1
0,781 kg.
 40
0.125
 41
1.8
  0
MTEXT
  5
273
100
AcDbEntity
  8
0
100
AcDbMText
 62
2
  6
CONTINUOUS
  7
STANDARD
 71
2
 72
1
 10
1.5275
 20
-2.1565
 30
0.0
 11
1.0
 21
0.0
 31
0.0
 44
0.9
  1
Seal Plate Included (see notes)
 40
0.125
 41
6.2
  0
MTEXT
  5
274
100
AcDbEntity
  8
0
100
AcDbMText
 62
2
  6
CONTINUOUS
  7
STANDARD
 71
2
 72
1
 10
6.055
 20
-2.1565
 30
0.0
 11
1.0
 21
0.0
 31
0.0
 44
0.9
  1
No
 40
0.125
 41
0.4
  0
ENDBLK
  5
275
100
AcDbEntity
  8
0
  6
BYBLOCK
 62
0
100
AcDbBlockEnd
  0
ENDSEC
  0
SECTION
  2
ENTITIES
  0
IMAGE
  5
276
100
AcDbEntity
  8
0
100
AcDbRasterImage
 62
7
  6
CONTINUOUS
 10
19.2297077316
 20
0.3094318264
 30
0.0
 11
0.0066666667
 21
0.0
 31
0.0
 12
0.0
 22
0.0066666667
 32
0.0
 13
369.0
 23
92.0
340
       359
 70
9
280
0
281
50
282
50
283
0
360
       353
 71
1
 91
2
 14
-0.5
 24
-0.5
 14
368.5
 24
91.5
  0
INSERT
  5
277
100
AcDbEntity
  8
0
100
AcDbBlockReference
 62
2
  6
CONTINUOUS
  2
SUN_FIRST_THIRD_ANGLE_BL0
 10
20.4816717061
 20
1.2289683772
  0
ACAD_TABLE
  5
278
100
AcDbEntity
  8
0
 62
2
  6
CONTINUOUS
100
AcDbBlockReference
  2
*T1
 10
12.42375
 20
0.30125
 30
0.0
100
AcDbTable
342
       35B
343
213
 11
1.0
 21
0.0
 31
0.0
 90
6
 91
4
 92
6
 93
20
 94
0
 95
0
 96
0
 70
1
 41
0.0
141
0.525
141
0.1
141
0.525
141
0.1
142
4.1
142
1.1
142
0.7
142
0.5
142
0.4
142
2.475
171
1
172
0
173
0
174
0
175
1
176
1
 91
33
178
0
145
0.0
301
CELL_VALUE
 90
4
  1
T-2A Sandwich ISO 03\POn B with free flow check
304
ACVALUE_END
170
2
140
0.125
171
1
172
0
173
0
174
0
175
1
176
1
 91
33
178
0
145
0.0
301
CELL_VALUE
 90
4
  1
Sep-26-19
304
ACVALUE_END
170
5
140
0.125
171
1
172
0
173
0
174
0
175
1
176
1
 91
33
178
0
145
0.0
301
CELL_VALUE
 90
4
  1
1.000
304
ACVALUE_END
170
5
140
0.125
171
1
172
0
173
0
174
0
175
1
176
1
 91
33
178
0
145
0.0
301
CELL_VALUE
 90
4
  1
C
304
ACVALUE_END
170
5
140
0.125
171
1
172
0
173
0
174
0
175
1
176
1
 91
33
178
0
145
0.0
301
CELL_VALUE
 90
4
  1
2
304
ACVALUE_END
170
5
140
0.125
171
1
172
0
173
0
174
0
175
1
176
1
 91
33
178
0
145
0.0
301
CELL_VALUE
 90
4
  1
 
304
ACVALUE_END
170
1
140
0.125
171
1
172
0
173
0
174
0
175
1
176
1
 91
33
178
0
145
0.0
301
CELL_VALUE
 90
4
  1
DESCRIPTION
304
ACVALUE_END
170
1
140
0.06
171
1
172
0
173
0
174
0
175
1
176
1
 91
33
178
0
145
0.0
301
CELL_VALUE
 90
4
  1
DATE
304
ACVALUE_END
170
1
140
0.06
171
1
172
0
173
0
174
0
175
1
176
1
 91
33
178
0
145
0.0
301
CELL_VALUE
 90
4
  1
SCALE
304
ACVALUE_END
170
1
140
0.06
171
1
172
0
173
0
174
0
175
1
176
1
 91
33
178
0
145
0.0
301
CELL_VALUE
 90
4
  1
DWG SIZE
304
ACVALUE_END
170
1
140
0.06
171
1
172
0
173
0
174
0
175
1
176
1
 91
33
178
0
145
0.0
301
CELL_VALUE
 90
4
  1
SHEET
304
ACVALUE_END
170
1
140
0.06
171
1
172
0
173
0
174
0
175
1
176
1
 91
33
178
0
145
0.0
301
CELL_VALUE
 90
4
  1
 
304
ACVALUE_END
170
1
140
0.125
171
1
172
0
173
0
174
0
175
1
176
1
 91
33
178
0
145
0.0
301
CELL_VALUE
 90
4
  1
U7P
304
ACVALUE_END
170
5
140
0.125
171
1
172
0
173
0
174
0
175
4
176
1
 91
33
178
0
145
0.0
301
CELL_VALUE
 90
4
  1
ALL DIMENSIONS IN INCH\PVIEWS ARE THIRD ANGLE
304
ACVALUE_END
170
5
140
0.12
171
1
172
0
173
1
174
0
175
1
176
1
 91
1
178
0
145
0.0
170
1
171
1
172
0
173
1
174
0
175
1
176
1
 91
1
178
0
145
0.0
170
1
171
1
172
0
173
1
174
0
175
1
176
1
 91
1
178
0
145
0.0
170
5
171
1
172
0
173
0
174
0
175
1
176
1
 91
33
178
0
145
0.0
301
CELL_VALUE
 90
4
  1
 
304
ACVALUE_END
170
1
140
0.125
171
1
172
0
173
0
174
0
175
1
176
1
 91
33
178
0
145
0.0
301
CELL_VALUE
 90
4
  1
MODEL
304
ACVALUE_END
170
1
140
0.06
171
1
172
0
173
0
174
0
175
1
176
1
 91
33
178
0
145
0.0
301
CELL_VALUE
 90
4
  1
 
304
ACVALUE_END
170
1
140
0.125
171
1
172
0
173
0
174
0
175
1
176
1
 91
33
178
0
145
0.0
301
CELL_VALUE
 90
4
  1
 
304
ACVALUE_END
170
1
140
0.125
171
1
172
0
173
0
174
0
175
1
176
1
 91
33
178
0
145
0.0
301
CELL_VALUE
 90
4
  1
 
304
ACVALUE_END
170
1
140
0.125
171
1
172
0
173
0
174
0
175
1
176
1
 91
33
178
0
145
0.0
301
CELL_VALUE
 90
4
  1
 
304
ACVALUE_END
170
1
140
0.125
171
1
172
0
173
0
174
0
175
1
176
1
 91
33
178
0
145
0.0
301
CELL_VALUE
 90
4
  1
 
304
ACVALUE_END
170
1
140
0.125
  0
ACAD_TABLE
  5
279
100
AcDbEntity
  8
0
 62
2
  6
CONTINUOUS
100
AcDbBlockReference
  2
*T2
 10
12.4237499994
 20
16.47875
 30
0.0
100
AcDbTable
342
       35A
343
214
 11
1.0
 21
0.0
 31
0.0
 90
22
 91
9
 92
3
 93
16
 94
0
 95
0
 96
0
 41
0.028
141
0.344
141
0.25
141
0.25
141
0.25
141
0.25
141
0.25
141
0.25
141
0.25
141
0.25
142
3.055
142
3.0
142
3.0
171
1
172
0
173
0
174
0
175
1
176
1
 91
33
178
0
145
0.0
301
CELL_VALUE
 90
4
  1
Technical Data
304
ACVALUE_END
170
5
140
0.145
171
1
172
0
173
0
174
0
175
1
176
1
 91
33
178
0
145
0.0
301
CELL_VALUE
 90
4
  1
U.S. Units
304
ACVALUE_END
170
5
140
0.145
171
1
172
0
173
0
174
0
175
1
176
1
 91
33
178
0
145
0.0
301
CELL_VALUE
 90
4
  1
Metric Units
304
ACVALUE_END
170
5
140
0.145
171
1
172
0
173
0
174
0
175
1
176
1
 91
33
178
0
145
0.0
301
CELL_VALUE
 90
4
  1
Cavity
304
ACVALUE_END
170
5
140
0.125
171
1
172
0
173
0
174
0
175
2
176
1
 91
33
178
0
145
0.0
301
CELL_VALUE
 90
4
  1
T-2A
304
ACVALUE_END
170
5
140
0.125
171
1
172
0
173
1
174
0
175
1
176
1
 91
1
178
0
145
0.0
170
1
171
1
172
0
173
0
174
0
175
1
176
1
 91
33
178
0
145
0.0
301
CELL_VALUE
 90
4
  1
Body Features
304
ACVALUE_END
170
5
140
0.125
171
1
172
0
173
0
174
0
175
2
176
1
 91
33
178
0
145
0.0
301
CELL_VALUE
 90
4
  1
On B with free flow check
304
ACVALUE_END
170
5
140
0.125
171
1
172
0
173
1
174
0
175
1
176
1
 91
1
178
0
145
0.0
170
1
171
1
172
0
173
0
174
0
175
1
176
1
 91
33
178
0
145
0.0
301
CELL_VALUE
 90
4
  1
Body Type
304
ACVALUE_END
170
5
140
0.125
171
1
172
0
173
0
174
0
175
2
176
1
 91
33
178
0
145
0.0
301
CELL_VALUE
 90
4
  1
Sandwich
304
ACVALUE_END
170
5
140
0.125
171
1
172
0
173
1
174
0
175
1
176
1
 91
1
178
0
145
0.0
170
1
171
1
172
0
173
0
174
0
175
1
176
1
 91
33
178
0
145
0.0
301
CELL_VALUE
 90
4
  1
Interface
304
ACVALUE_END
170
5
140
0.125
171
1
172
0
173
0
174
0
175
2
176
1
 91
33
178
0
145
0.0
301
CELL_VALUE
 90
4
  1
ISO 03
304
ACVALUE_END
170
5
140
0.125
171
1
172
0
173
1
174
0
175
1
176
1
 91
1
178
0
145
0.0
170
1
171
1
172
0
173
0
174
0
175
1
176
1
 91
33
178
0
145
0.0
301
CELL_VALUE
 90
4
  1
Open Cavity Quantity
304
ACVALUE_END
170
5
140
0.125
171
1
172
0
173
0
174
0
175
2
176
1
 91
33
178
0
145
0.0
301
CELL_VALUE
 90
4
  1
1
304
ACVALUE_END
170
5
140
0.125
171
1
172
0
173
1
174
0
175
1
176
1
 91
1
178
0
145
0.0
170
1
171
1
172
0
173
0
174
0
175
1
176
1
 91
33
178
0
145
0.0
301
CELL_VALUE
 90
4
  1
Stack Height
304
ACVALUE_END
170
5
140
0.125
171
1
172
0
173
0
174
0
175
1
176
1
 91
33
178
0
145
0.0
301
CELL_VALUE
 90
4
  1
1.97 in.
304
ACVALUE_END
170
5
140
0.125
171
1
172
0
173
0
174
0
175
1
176
1
 91
33
178
0
145
0.0
301
CELL_VALUE
 90
4
  1
50 mm
304
ACVALUE_END
170
5
140
0.125
171
1
172
0
173
0
174
0
175
1
176
1
 91
33
178
0
145
0.0
301
CELL_VALUE
 90
4
  1
Weight
304
ACVALUE_END
170
5
140
0.125
171
1
172
0
173
0
174
0
175
1
176
1
 91
33
178
0
145
0.0
301
CELL_VALUE
 90
4
  1
1.721 lb.
304
ACVALUE_END
170
5
140
0.125
171
1
172
0
173
0
174
0
175
1
176
1
 91
33
178
0
145
0.0
301
CELL_VALUE
 90
4
  1
0,781 kg.
304
ACVALUE_END
170
5
140
0.125
171
1
172
0
173
0
174
0
175
1
176
1
 91
33
178
0
145
0.0
301
CELL_VALUE
 90
4
  1
Seal Plate Included (see notes)
304
ACVALUE_END
170
5
140
0.125
171
1
172
0
173
0
174
0
175
2
176
1
 91
33
178
0
145
0.0
301
CELL_VALUE
 90
4
  1
No
304
ACVALUE_END
170
5
140
0.125
171
1
172
0
173
1
174
0
175
1
176
1
 91
1
178
0
145
0.0
170
1
  0
MTEXT
  5
27A
100
AcDbEntity
  8
0
100
AcDbMText
 62
2
  6
CONTINUOUS
  7
STANDARD
 71
1
 72
1
 10
0.52125
 20
5.75995
 30
0.0
 11
1.0
 21
0.0
 31
0.0
 44
0.6
  3
Notes\P \P1. Important: Carefully consider\P   the maximum system pressure. The\P   pressure rating of the manifold is\P   dependent on the manifold material,\P   with the port type/size a secondary\P   consideration. Manifolds\P   constructed of alu
  1
minum are not\P   rated for pressures higher than\P   3000 psi (210 bar), regardless of\P   the port type/size specified.
 40
0.1
 41
3.04
  0
LINE
  5
27B
100
AcDbEntity
  8
0
100
AcDbLine
 62
7
  6
CONTINUOUS
 10
0.30125
 20
0.30125
 11
0.30125
 21
16.69875
  0
LINE
  5
27C
100
AcDbEntity
  8
0
100
AcDbLine
 62
7
  6
CONTINUOUS
 10
0.30125
 20
0.30125
 11
21.69875
 21
0.30125
  0
LINE
  5
27D
100
AcDbEntity
  8
0
100
AcDbLine
 62
7
  6
CONTINUOUS
 10
0.30125
 20
16.69875
 11
21.69875
 21
16.69875
  0
LINE
  5
27E
100
AcDbEntity
  8
0
100
AcDbLine
 62
7
  6
CONTINUOUS
 10
21.69875
 20
0.30125
 11
21.69875
 21
16.69875
  0
LINE
  5
27F
100
AcDbEntity
  8
0
100
AcDbLine
 62
7
  6
CONTINUOUS
 10
7.8749138366
 20
8.8768521907
 11
7.8749138366
 21
8.0316670427
  0
LINE
  5
280
100
AcDbEntity
  8
0
100
AcDbLine
 62
7
  6
CONTINUOUS
 10
7.8968341552
 20
8.8670255939
 11
7.8968341552
 21
8.0218404458
  0
LINE
  5
281
100
AcDbEntity
  8
0
100
AcDbLine
 62
7
  6
CONTINUOUS
 10
8.2711654676
 20
9.5918804015
 11
7.9639475146
 21
9.2951306288
  0
LINE
  5
282
100
AcDbEntity
  8
0
100
AcDbLine
 62
7
  6
CONTINUOUS
 10
8.30110917
 20
9.619747501
 11
7.993891217
 21
9.3229977284
  0
LINE
  5
283
100
AcDbEntity
  8
0
100
AcDbLine
 62
7
  6
CONTINUOUS
 10
8.3020253731
 20
9.620616346
 11
8.30110917
 21
9.619747501
  0
LINE
  5
284
100
AcDbEntity
  8
0
100
AcDbLine
 62
7
  6
CONTINUOUS
 10
8.2720068826
 20
9.5926781581
 11
8.2711654676
 21
9.5918804015
  0
LINE
  5
285
100
AcDbEntity
  8
0
100
AcDbLine
 62
7
  6
CONTINUOUS
 10
8.2711654676
 20
9.5918804015
 11
8.3011011208
 21
9.6197561497
  0
LINE
  5
286
100
AcDbEntity
  8
0
100
AcDbLine
 62
7
  6
CONTINUOUS
 10
7.9639475146
 20
9.2951306288
 11
7.993891217
 21
9.3229977284
  0
LINE
  5
287
100
AcDbEntity
  8
0
100
AcDbLine
 62
7
  6
CONTINUOUS
 10
7.9446787987
 20
7.7558486766
 11
7.9188033229
 21
7.7876639264
  0
LINE
  5
288
100
AcDbEntity
  8
0
100
AcDbLine
 62
7
  6
CONTINUOUS
 10
9.4925251638
 20
9.174454416
 11
10.0021394383
 21
9.6667040344
  0
LINE
  5
289
100
AcDbEntity
  8
0
100
AcDbLine
 62
7
  6
CONTINUOUS
 10
7.8749138366
 20
8.0316670427
 11
7.8968341552
 21
8.0218404458
  0
LINE
  5
28A
100
AcDbEntity
  8
0
100
AcDbLine
 62
7
  6
CONTINUOUS
 10
9.4925251638
 20
7.4840841199
 11
9.4925251638
 21
9.174454416
  0
LINE
  5
28B
100
AcDbEntity
  8
0
100
AcDbLine
 62
7
  6
CONTINUOUS
 10
13.1875061959
 20
7.6622715853
 11
13.1495391098
 21
7.656598194
  0
LINE
  5
28C
100
AcDbEntity
  8
0
100
AcDbLine
 62
7
  6
CONTINUOUS
 10
9.4925251638
 20
7.4840841199
 11
11.6668242576
 21
7.3332959656
  0
LINE
  5
28D
100
AcDbEntity
  8
0
100
AcDbLine
 62
7
  6
CONTINUOUS
 10
11.7418195841
 20
7.4788040418
 11
13.2206521467
 21
7.3762466553
  0
LINE
  5
28E
100
AcDbEntity
  8
0
100
AcDbLine
 62
7
  6
CONTINUOUS
 10
9.4925251638
 20
7.6357590656
 11
7.9679471921
 21
7.741488907
  0
LINE
  5
28F
100
AcDbEntity
  8
0
100
AcDbLine
 62
7
  6
CONTINUOUS
 10
7.8749138366
 20
8.8768521907
 11
7.8968341552
 21
8.8670255939
  0
LINE
  5
290
100
AcDbEntity
  8
0
100
AcDbLine
 62
7
  6
CONTINUOUS
 10
13.1495391098
 20
7.656598194
 11
11.6707065471
 21
7.7591555806
  0
LINE
  5
291
100
AcDbEntity
  8
0
100
AcDbLine
 62
7
  6
CONTINUOUS
 10
7.8968341552
 20
8.0218404458
 11
9.4925251638
 21
7.9111788985
  0
LINE
  5
292
100
AcDbEntity
  8
0
100
AcDbLine
 62
7
  6
CONTINUOUS
 10
13.4772718979
 20
7.6404963166
 11
13.8616753392
 21
7.6138378474
  0
LINE
  5
293
100
AcDbEntity
  8
0
100
AcDbLine
 62
7
  6
CONTINUOUS
 10
13.4647595418
 20
7.6553707123
 11
13.8491629831
 21
7.6287122431
  0
LINE
  5
294
100
AcDbEntity
  8
0
100
AcDbLine
 62
7
  6
CONTINUOUS
 10
13.3294553394
 20
7.7331532039
 11
13.430851277
 21
7.7261213718
  0
LINE
  5
295
100
AcDbEntity
  8
0
100
AcDbLine
 62
7
  6
CONTINUOUS
 10
13.1875061959
 20
8.5074567334
 11
13.1495391098
 21
8.5017833421
  0
LINE
  5
296
100
AcDbEntity
  8
0
100
AcDbLine
 62
7
  6
CONTINUOUS
 10
13.389049697
 20
8.0716371764
 11
13.7734531383
 21
8.0449787072
  0
LINE
  5
297
100
AcDbEntity
  8
0
100
AcDbLine
 62
7
  6
CONTINUOUS
 10
13.389049697
 20
8.1255579851
 11
13.7734531383
 21
8.0988995159
  0
LINE
  5
298
100
AcDbEntity
  8
0
100
AcDbLine
 62
7
  6
CONTINUOUS
 10
10.1100074313
 20
7.7224143948
 11
10.0725825636
 21
7.6862647465
  0
LINE
  5
299
100
AcDbEntity
  8
0
100
AcDbLine
 62
7
  6
CONTINUOUS
 10
10.1968728981
 20
7.6325289588
 11
10.1594258901
 21
7.5963579244
  0
LINE
  5
29A
100
AcDbEntity
  8
0
100
AcDbLine
 62
7
  6
CONTINUOUS
 10
11.6668242576
 20
9.0236662617
 11
12.1764385321
 21
9.5159158801
  0
LINE
  5
29B
100
AcDbEntity
  8
0
100
AcDbLine
 62
7
  6
CONTINUOUS
 10
11.7677636089
 20
9.0603128632
 11
12.0749815619
 21
9.3570626359
  0
LINE
  5
29C
100
AcDbEntity
  8
0
100
AcDbLine
 62
7
  6
CONTINUOUS
 10
13.1495391098
 20
8.5017833421
 11
11.6707065471
 21
8.6043407287
  0
LINE
  5
29D
100
AcDbEntity
  8
0
100
AcDbLine
 62
7
  6
CONTINUOUS
 10
7.8968341552
 20
8.8670255939
 11
9.4925251638
 21
8.7563640466
  0
LINE
  5
29E
100
AcDbEntity
  8
0
100
AcDbLine
 62
7
  6
CONTINUOUS
 10
13.4647595418
 20
8.6880846466
 11
13.8491629831
 21
8.6614261774
  0
LINE
  5
29F
100
AcDbEntity
  8
0
100
AcDbLine
 62
7
  6
CONTINUOUS
 10
13.4772718979
 20
8.7271310596
 11
13.8616753392
 21
8.7004725904
  0
LINE
  5
2A0
100
AcDbEntity
  8
0
100
AcDbLine
 62
7
  6
CONTINUOUS
 10
13.4039655196
 20
8.8065702886
 11
13.5095517688
 21
8.7992478574
  0
LINE
  5
2A1
100
AcDbEntity
  8
0
100
AcDbLine
 62
7
  6
CONTINUOUS
 10
11.6668242576
 20
7.3332959656
 11
11.6668242576
 21
9.0236662617
  0
LINE
  5
2A2
100
AcDbEntity
  8
0
100
AcDbLine
 62
7
  6
CONTINUOUS
 10
11.6707065471
 20
7.7591555806
 11
11.6707065471
 21
8.6043407287
  0
LINE
  5
2A3
100
AcDbEntity
  8
0
100
AcDbLine
 62
4
  6
CONTINUOUS
 10
13.5793578995
 20
9.1013578626
 11
13.5871224642
 21
9.1016134127
  0
LINE
  5
2A4
100
AcDbEntity
  8
0
100
AcDbLine
 62
7
  6
CONTINUOUS
 10
13.6286915875
 20
8.873391257
 11
14.0130950288
 21
8.8467327878
  0
LINE
  5
2A5
100
AcDbEntity
  8
0
100
AcDbLine
 62
7
  6
CONTINUOUS
 10
9.4925251638
 20
9.174454416
 11
11.6668242576
 21
9.0236662617
  0
LINE
  5
2A6
100
AcDbEntity
  8
0
100
AcDbLine
 62
7
  6
CONTINUOUS
 10
13.2465961716
 20
8.9577554766
 11
11.7677636089
 21
9.0603128632
  0
LINE
  5
2A7
100
AcDbEntity
  8
0
100
AcDbLine
 62
7
  6
CONTINUOUS
 10
7.993891217
 20
9.3229977284
 11
9.5356177207
 21
9.2160786322
  0
LINE
  5
2A8
100
AcDbEntity
  8
0
100
AcDbLine
 62
7
  6
CONTINUOUS
 10
13.5538141246
 20
9.2545052493
 11
12.0749815619
 21
9.3570626359
  0
LINE
  5
2A9
100
AcDbEntity
  8
0
100
AcDbLine
 62
7
  6
CONTINUOUS
 10
8.30110917
 20
9.619747501
 11
9.8428356737
 21
9.5128284049
  0
LINE
  5
2AA
100
AcDbEntity
  8
0
100
AcDbLine
 62
7
  6
CONTINUOUS
 10
12.1009255868
 20
9.3689418965
 11
13.5797581494
 21
9.2663845099
  0
LINE
  5
2AB
100
AcDbEntity
  8
0
100
AcDbLine
 62
7
  6
CONTINUOUS
 10
9.8560480763
 20
9.5255906065
 11
8.3270531948
 21
9.6316267617
  0
LINE
  5
2AC
100
AcDbEntity
  8
0
100
AcDbLine
 62
7
  6
CONTINUOUS
 10
12.1764385321
 20
9.5159158801
 11
10.0021394383
 21
9.6667040344
  0
LINE
  5
2AD
100
AcDbEntity
  8
0
100
AcDbLine
 62
7
  6
CONTINUOUS
 10
12.1764385321
 20
9.3637050559
 11
12.1764385321
 21
9.5159158801
  0
LINE
  5
2AE
100
AcDbEntity
  8
0
100
AcDbLine
 62
7
  6
CONTINUOUS
 10
13.2465961716
 20
8.9577554766
 11
13.5538141246
 21
9.2545052493
  0
LINE
  5
2AF
100
AcDbEntity
  8
0
100
AcDbLine
 62
7
  6
CONTINUOUS
 10
13.276539874
 20
8.9257351714
 11
13.583757827
 21
9.2224849441
  0
LINE
  5
2B0
100
AcDbEntity
  8
0
100
AcDbLine
 62
7
  6
CONTINUOUS
 10
11.6668242576
 20
7.3332959656
 11
11.8123980007
 21
7.473909412
  0
LINE
  5
2B1
100
AcDbEntity
  8
0
100
AcDbLine
 62
4
  6
CONTINUOUS
 10
13.5640595086
 20
8.8402696561
 11
13.594887029
 21
8.870046756
  0
LINE
  5
2B2
100
AcDbEntity
  8
0
100
AcDbLine
 62
4
  6
CONTINUOUS
 10
13.5715933347
 20
9.0866134245
 11
13.5793578995
 21
9.1013578626
  0
LINE
  5
2B3
100
AcDbEntity
  8
0
100
AcDbLine
 62
7
  6
CONTINUOUS
 10
13.4727301937
 20
8.7448669493
 11
13.4908822396
 21
8.7756434667
  0
LINE
  5
2B4
100
AcDbEntity
  8
0
100
AcDbLine
 62
7
  6
CONTINUOUS
 10
13.276539874
 20
8.9257351714
 11
13.2465961716
 21
8.9577554766
  0
LINE
  5
2B5
100
AcDbEntity
  8
0
100
AcDbLine
 62
7
  6
CONTINUOUS
 10
13.4061471817
 20
7.7847690996
 11
13.4266263336
 21
7.735566094
  0
LINE
  5
2B6
100
AcDbEntity
  8
0
100
AcDbLine
 62
7
  6
CONTINUOUS
 10
13.1495391098
 20
7.656598194
 11
13.1495391098
 21
8.5017833421
  0
LINE
  5
2B7
100
AcDbEntity
  8
0
100
AcDbLine
 62
7
  6
CONTINUOUS
 10
13.1875061959
 20
7.6622715853
 11
13.1875061959
 21
8.5074567334
  0
LINE
  5
2B8
100
AcDbEntity
  8
0
100
AcDbLine
 62
4
  6
CONTINUOUS
 10
13.5638287699
 20
8.9559578831
 11
13.594887029
 21
8.9280023077
  0
LINE
  5
2B9
100
AcDbEntity
  8
0
100
AcDbLine
 62
4
  6
CONTINUOUS
 10
13.5638287699
 20
9.0501356546
 11
13.5664169582
 21
9.0671245406
  0
LINE
  5
2BA
100
AcDbEntity
  8
0
100
AcDbLine
 62
4
  6
CONTINUOUS
 10
13.5664169582
 20
9.0671245406
 11
13.5715933347
 21
9.0866134245
  0
LINE
  5
2BB
100
AcDbEntity
  8
0
100
AcDbLine
 62
4
  6
CONTINUOUS
 10
13.5922988414
 20
9.0486578577
 11
13.5897106519
 21
9.0389134145
  0
LINE
  5
2BC
100
AcDbEntity
  8
0
100
AcDbLine
 62
4
  6
CONTINUOUS
 10
13.594887029
 20
8.9859578594
 11
13.5638287699
 21
8.8980023313
  0
LINE
  5
2BD
100
AcDbEntity
  8
0
100
AcDbLine
 62
7
  6
CONTINUOUS
 10
13.5068398972
 20
7.6384457689
 11
13.276539874
 21
7.4159930155
  0
LINE
  5
2BE
100
AcDbEntity
  8
0
100
AcDbLine
 62
7
  6
CONTINUOUS
 10
13.276539874
 20
7.4159930155
 11
13.2756984589
 21
7.4151952588
  0
LINE
  5
2BF
100
AcDbEntity
  8
0
100
AcDbLine
 62
7
  6
CONTINUOUS
 10
13.2456799685
 20
7.3872570709
 11
13.2756994104
 21
7.415195995
  0
LINE
  5
2C0
100
AcDbEntity
  8
0
100
AcDbLine
 62
7
  6
CONTINUOUS
 10
13.583757827
 20
9.2224849441
 11
13.5538141246
 21
9.2545052493
  0
LINE
  5
2C1
100
AcDbEntity
  8
0
100
AcDbLine
 62
4
  6
CONTINUOUS
 10
13.5638287699
 20
9.0356467667
 11
13.5638287699
 21
9.0501356546
  0
LINE
  5
2C2
100
AcDbEntity
  8
0
100
AcDbLine
 62
4
  6
CONTINUOUS
 10
13.5793578995
 20
8.8550467678
 11
13.5793578995
 21
8.8490799456
  0
LINE
  5
2C3
100
AcDbEntity
  8
0
100
AcDbLine
 62
4
  6
CONTINUOUS
 10
13.594887029
 20
9.0801356309
 11
13.594887029
 21
9.065646743
  0
LINE
  5
2C4
100
AcDbEntity
  8
0
100
AcDbLine
 62
4
  6
CONTINUOUS
 10
13.594887029
 20
8.870046756
 11
13.594887029
 21
8.857160181
  0
LINE
  5
2C5
100
AcDbEntity
  8
0
100
AcDbLine
 62
7
  6
CONTINUOUS
 10
13.672791505
 20
8.9762063743
 11
13.672791505
 21
8.8703329173
  0
LINE
  5
2C6
100
AcDbEntity
  8
0
100
AcDbLine
 62
4
  6
CONTINUOUS
 10
13.594887029
 20
9.065646743
 11
13.5922988414
 21
9.0486578577
  0
LINE
  5
2C7
100
AcDbEntity
  8
0
100
AcDbLine
 62
7
  6
CONTINUOUS
 10
13.6030265429
 20
9.2520247404
 11
13.6289020187
 21
9.2202094906
  0
LINE
  5
2C8
100
AcDbEntity
  8
0
100
AcDbLine
 62
4
  6
CONTINUOUS
 10
13.5690051466
 20
9.018913431
 11
13.5664169582
 21
9.0236578768
  0
LINE
  5
2C9
100
AcDbEntity
  8
0
100
AcDbLine
 62
4
  6
CONTINUOUS
 10
13.5871224642
 20
9.1016134127
 11
13.5922988414
 21
9.0921245214
  0
LINE
  5
2CA
100
AcDbEntity
  8
0
100
AcDbLine
 62
4
  6
CONTINUOUS
 10
13.5664169582
 20
9.0236578768
 11
13.5638287699
 21
9.0356467667
  0
LINE
  5
2CB
100
AcDbEntity
  8
0
100
AcDbLine
 62
4
  6
CONTINUOUS
 10
13.5922988414
 20
9.0921245214
 11
13.594887029
 21
9.0801356309
  0
LINE
  5
2CC
100
AcDbEntity
  8
0
100
AcDbLine
 62
7
  6
CONTINUOUS
 10
13.9994846871
 20
7.7115856377
 11
14.0090003528
 21
7.7277193042
  0
LINE
  5
2CD
100
AcDbEntity
  8
0
100
AcDbLine
 62
7
  6
CONTINUOUS
 10
14.0637405931
 20
8.7516630104
 11
14.077687289
 21
8.7181548182
  0
ARC
  5
2CE
100
AcDbEntity
  8
0
100
AcDbCircle
 62
7
  6
CONTINUOUS
 10
16.1022530797
 20
8.0716776362
 40
2.3289590374
100
AcDbArc
 50
179.3302869191
 51
179.9973478933
  0
ARC
  5
2CF
100
AcDbEntity
  8
0
100
AcDbCircle
 62
7
  6
CONTINUOUS
 10
15.7057256487
 20
8.0984072436
 40
2.3168350454
100
AcDbArc
 50
179.328541535
 51
179.9990932774
  0
ARC
  5
2D0
100
AcDbEntity
  8
0
100
AcDbCircle
 62
7
  6
CONTINUOUS
 10
15.6406285243
 20
8.0984037595
 40
2.2517379212
100
AcDbArc
 50
179.9989784109
 51
180.6810954104
  0
ARC
  5
2D1
100
AcDbEntity
  8
0
100
AcDbCircle
 62
7
  6
CONTINUOUS
 10
16.0250319656
 20
8.0717452903
 40
2.2517379212
100
AcDbArc
 50
179.9989784109
 51
180.6810954104
  0
ARC
  5
2D2
100
AcDbEntity
  8
0
100
AcDbCircle
 62
7
  6
CONTINUOUS
 10
14.4270904365
 20
8.4012353485
 40
1.0041729287
100
AcDbArc
 50
161.0622054474
 51
163.401859189
  0
ARC
  5
2D3
100
AcDbEntity
  8
0
100
AcDbCircle
 62
7
  6
CONTINUOUS
 10
14.8114938778
 20
8.3745768793
 40
1.0041729287
100
AcDbArc
 50
161.0622054474
 51
163.401859189
  0
ARC
  5
2D4
100
AcDbEntity
  8
0
100
AcDbCircle
 62
7
  6
CONTINUOUS
 10
10.6142225985
 20
8.6380997228
 40
0.2178424766
100
AcDbArc
 50
309.3762613643
 51
311.483256889
  0
ARC
  5
2D5
100
AcDbEntity
  8
0
100
AcDbCircle
 62
7
  6
CONTINUOUS
 10
10.6142225985
 20
7.8470063899
 40
0.2178424766
100
AcDbArc
 50
309.3762613643
 51
311.483256889
  0
ARC
  5
2D6
100
AcDbEntity
  8
0
100
AcDbCircle
 62
7
  6
CONTINUOUS
 10
10.2829100831
 20
8.2660125997
 40
0.2178424766
100
AcDbArc
 50
309.3762613644
 51
311.483256889
  0
ARC
  5
2D7
100
AcDbEntity
  8
0
100
AcDbCircle
 62
7
  6
CONTINUOUS
 10
10.9484329118
 20
8.2198584347
 40
0.2178424766
100
AcDbArc
 50
309.3762613644
 51
311.4832568889
  0
ARC
  5
2D8
100
AcDbEntity
  8
0
100
AcDbCircle
 62
7
  6
CONTINUOUS
 10
10.5695352549
 20
8.6843628595
 40
0.2178366439
100
AcDbArc
 50
136.4353893793
 51
138.638362679
  0
ARC
  5
2D9
100
AcDbEntity
  8
0
100
AcDbCircle
 62
7
  6
CONTINUOUS
 10
10.5695352549
 20
7.8932695266
 40
0.2178366439
100
AcDbArc
 50
136.4353893793
 51
138.638362679
  0
ARC
  5
2DA
100
AcDbEntity
  8
0
100
AcDbCircle
 62
7
  6
CONTINUOUS
 10
10.2382227395
 20
8.3122757363
 40
0.2178366439
100
AcDbArc
 50
136.4353893793
 51
138.638362679
  0
ARC
  5
2DB
100
AcDbEntity
  8
0
100
AcDbCircle
 62
7
  6
CONTINUOUS
 10
10.9037455682
 20
8.2661215714
 40
0.2178366439
100
AcDbArc
 50
136.4353893793
 51
138.638362679
  0
ARC
  5
2DC
100
AcDbEntity
  8
0
100
AcDbCircle
 62
7
  6
CONTINUOUS
 10
10.1359837638
 20
7.6719312001
 40
0.056857451
100
AcDbArc
 50
134.0258305199
 51
150.8497677132
  0
ARC
  5
2DD
100
AcDbEntity
  8
0
100
AcDbCircle
 62
7
  6
CONTINUOUS
 10
10.1472988858
 20
7.6602166945
 40
0.0568561161
100
AcDbArc
 50
297.1941088967
 51
313.9878011276
  0
SPLINE
  5
2DE
100
AcDbEntity
  8
0
100
AcDbSpline
 62
7
  6
CONTINUOUS
 70
0
 71
3
 72
36
 73
32
 74
0
 42
0.0000001
 43
0.0000001
 44
0.0000000001
 40
0.0
 40
0.0
 40
0.0
 40
0.0
 40
0.0299458215
 40
0.0599164373
 40
0.0899349621
 40
0.1200244062
 40
0.1502055589
 40
0.1804968674
 40
0.2109150284
 40
0.2414725902
 40
0.2721797556
 40
0.3030431963
 40
0.334065376
 40
0.3652464506
 40
0.3965820868
 40
0.4280648847
 40
0.4596850131
 40
0.4914286265
 40
0.555182957
 40
0.5871946461
 40
0.6192555487
 40
0.6513431863
 40
0.6834344387
 40
0.715507258
 40
0.7475392674
 40
0.8113564104
 40
0.8431377836
 40
0.8747992635
 40
0.9063341437
 40
0.9377371182
 40
1.0
 40
1.0
 40
1.0
 40
1.0
 10
10.1594258774
 20
7.5963579376
 30
0.0
 10
10.1583890714
 20
7.5953563843
 30
0.0
 10
10.1562336499
 20
7.5934343683
 30
0.0
 10
10.1527806302
 20
7.5908157362
 30
0.0
 10
10.1491253043
 20
7.5884744295
 30
0.0
 10
10.1452874202
 20
7.5864248358
 30
0.0
 10
10.1412889341
 20
7.5846765864
 30
0.0
 10
10.1371513632
 20
7.5832402752
 30
0.0
 10
10.132897604
 20
7.5821239049
 30
0.0
 10
10.1285513164
 20
7.5813323218
 30
0.0
 10
10.124136122
 20
7.5808715533
 30
0.0
 10
10.1196765416
 20
7.5807428364
 30
0.0
 10
10.1151969609
 20
7.5809468391
 30
0.0
 10
10.1107221655
 20
7.5814835874
 30
0.0
 10
10.1062765053
 20
7.5823483903
 30
0.0
 10
10.101884649
 20
7.5835376444
 30
0.0
 10
10.09757045
 20
7.5850448034
 30
0.0
 10
10.0919471529
 20
7.587468009
 30
0.0
 10
10.0865779083
 20
7.5904920252
 30
0.0
 10
10.0815565889
 20
7.5940551738
 30
0.0
 10
10.0779736748
 20
7.5969924128
 30
0.0
 10
10.0745994977
 20
7.600172355
 30
0.0
 10
10.071453119
 20
7.6035786706
 30
0.0
 10
10.0685515268
 20
7.6071926973
 30
0.0
 10
10.0650352731
 20
7.6122525563
 30
0.0
 10
10.0620626479
 20
7.6176569576
 30
0.0
 10
10.0596896506
 20
7.623309035
 30
0.0
 10
10.0582215132
 20
7.627643231
 30
0.0
 10
10.0570702717
 20
7.6320535596
 30
0.0
 10
10.0559719702
 20
7.6379831291
 30
0.0
 10
10.0556338592
 20
7.6425007798
 30
0.0
 10
10.0556338592
 20
7.6454980347
 30
0.0
  0
SPLINE
  5
2DF
100
AcDbEntity
  8
0
100
AcDbSpline
 62
7
  6
CONTINUOUS
 70
0
 71
3
 72
15
 73
11
 74
0
 42
0.0000001
 43
0.0000001
 44
0.0000000001
 40
0.0
 40
0.0
 40
0.0
 40
0.0
 40
0.1234389364
 40
0.2470473381
 40
0.370987441
 40
0.4953935886
 40
0.620395394
 40
0.7461421851
 40
0.8727199755
 40
1.0
 40
1.0
 40
1.0
 40
1.0
 10
10.0725825763
 20
7.6862647333
 30
0.0
 10
10.0712406539
 20
7.684968438
 30
0.0
 10
10.0686867572
 20
7.6822335852
 30
0.0
 10
10.0652941519
 20
7.6777570326
 30
0.0
 10
10.0623701438
 20
7.6729435655
 30
0.0
 10
10.0599396958
 20
7.6678399556
 30
0.0
 10
10.0580271714
 20
7.6624916536
 30
0.0
 10
10.0566483452
 20
7.6569477603
 30
0.0
 10
10.0558185236
 20
7.6512615248
 30
0.0
 10
10.0556338592
 20
7.6474218734
 30
0.0
 10
10.0556338592
 20
7.6454980347
 30
0.0
  0
SPLINE
  5
2E0
100
AcDbEntity
  8
0
100
AcDbSpline
 62
7
  6
CONTINUOUS
 70
0
 71
3
 72
36
 73
32
 74
0
 42
0.0000001
 43
0.0000001
 44
0.0000000001
 40
0.0
 40
0.0
 40
0.0
 40
0.0
 40
0.0622628818
 40
0.0936658563
 40
0.1252007365
 40
0.1568622164
 40
0.1886435896
 40
0.2524607326
 40
0.284492742
 40
0.3165655613
 40
0.3486568137
 40
0.3807444513
 40
0.4128053539
 40
0.444817043
 40
0.5085713735
 40
0.5403149869
 40
0.5719351153
 40
0.6034179132
 40
0.6347535494
 40
0.665934624
 40
0.6969568037
 40
0.7278202444
 40
0.7585274098
 40
0.7890849716
 40
0.8195031326
 40
0.8497944411
 40
0.8799755938
 40
0.9100650379
 40
0.9400835627
 40
0.9700541785
 40
1.0
 40
1.0
 40
1.0
 40
1.0
 10
10.1763745946
 20
7.6371246362
 30
0.0
 10
10.1763745946
 20
7.6401218911
 30
0.0
 10
10.1760364835
 20
7.6446395418
 30
0.0
 10
10.174938182
 20
7.6505691114
 30
0.0
 10
10.1737869406
 20
7.6549794399
 30
0.0
 10
10.1723188032
 20
7.6593136359
 30
0.0
 10
10.1699458058
 20
7.6649657134
 30
0.0
 10
10.1669731806
 20
7.6703701146
 30
0.0
 10
10.1634569269
 20
7.6754299736
 30
0.0
 10
10.1605553348
 20
7.6790440003
 30
0.0
 10
10.1574089561
 20
7.6824503159
 30
0.0
 10
10.1540347789
 20
7.6856302581
 30
0.0
 10
10.1504518648
 20
7.6885674971
 30
0.0
 10
10.1454305454
 20
7.6921306457
 30
0.0
 10
10.1400613008
 20
7.6951546619
 30
0.0
 10
10.1344380037
 20
7.6975778675
 30
0.0
 10
10.1301238047
 20
7.6990850265
 30
0.0
 10
10.1257319485
 20
7.7002742806
 30
0.0
 10
10.1212862883
 20
7.7011390835
 30
0.0
 10
10.1168114928
 20
7.7016758318
 30
0.0
 10
10.1123319121
 20
7.7018798345
 30
0.0
 10
10.1078723318
 20
7.7017511176
 30
0.0
 10
10.1034571374
 20
7.7012903491
 30
0.0
 10
10.0991108497
 20
7.700498766
 30
0.0
 10
10.0948570905
 20
7.6993823957
 30
0.0
 10
10.0907195196
 20
7.6979460845
 30
0.0
 10
10.0867210335
 20
7.6961978351
 30
0.0
 10
10.0828831494
 20
7.6941482414
 30
0.0
 10
10.0792278235
 20
7.6918069347
 30
0.0
 10
10.0757748038
 20
7.6891883026
 30
0.0
 10
10.0736193823
 20
7.6872662866
 30
0.0
 10
10.0725825763
 20
7.6862647333
 30
0.0
  0
SPLINE
  5
2E1
100
AcDbEntity
  8
0
100
AcDbSpline
 62
7
  6
CONTINUOUS
 70
0
 71
3
 72
41
 73
37
 74
0
 42
0.0000001
 43
0.0000001
 44
0.0000000001
 40
0.0
 40
0.0
 40
0.0
 40
0.0
 40
0.0313076924
 40
0.0470621361
 40
0.0628696875
 40
0.0946090174
 40
0.1265140925
 40
0.1585720386
 40
0.1907541083
 40
0.2230210416
 40
0.2553345031
 40
0.287654596
 40
0.3199422625
 40
0.3521575709
 40
0.3842645957
 40
0.4162302443
 40
0.4480271867
 40
0.4796338305
 40
0.5110354891
 40
0.5422256445
 40
0.5732050025
 40
0.6039836079
 40
0.6345781342
 40
0.6650141959
 40
0.6953224052
 40
0.72554018
 40
0.7406325424
 40
0.7557175576
 40
0.7858772943
 40
0.8160728553
 40
0.8463457275
 40
0.8767300351
 40
0.907261708
 40
0.937980193
 40
0.9689047543
 40
1.0
 40
1.0
 40
1.0
 40
1.0
 10
10.1614119159
 20
7.6338751182
 30
0.0
 10
10.1614119159
 20
7.6355004307
 30
0.0
 10
10.1612907847
 20
7.6379457141
 30
0.0
 10
10.1608944931
 20
7.6411862646
 30
0.0
 10
10.1603394966
 20
7.6444264701
 30
0.0
 10
10.1593504541
 20
7.6484377778
 30
0.0
 10
10.1577094199
 20
7.653134815
 30
0.0
 10
10.1556267122
 20
7.6576787969
 30
0.0
 10
10.1531240445
 20
7.6620272133
 30
0.0
 10
10.1502240114
 20
7.6661375744
 30
0.0
 10
10.1469552195
 20
7.6699705609
 30
0.0
 10
10.1433489007
 20
7.6734894043
 30
0.0
 10
10.1394395595
 20
7.6766601311
 30
0.0
 10
10.1352650783
 20
7.6794529178
 30
0.0
 10
10.1308648702
 20
7.6818397544
 30
0.0
 10
10.1262819138
 20
7.6837992208
 30
0.0
 10
10.1215594093
 20
7.6853104042
 30
0.0
 10
10.1167434031
 20
7.686361015
 30
0.0
 10
10.1118796131
 20
7.6869381417
 30
0.0
 10
10.1070151471
 20
7.6870388793
 30
0.0
 10
10.1021967533
 20
7.6866592146
 30
0.0
 10
10.0974707039
 20
7.6858053601
 30
0.0
 10
10.0928830071
 20
7.6844828794
 30
0.0
 10
10.0884774127
 20
7.6827064412
 30
0.0
 10
10.0842973351
 20
7.6804916021
 30
0.0
 10
10.0810327672
 20
7.6782973536
 30
0.0
 10
10.078575222
 20
7.6763482881
 30
0.0
 10
10.0762261204
 20
7.6742743613
 30
0.0
 10
10.0734979137
 20
7.6714535946
 30
0.0
 10
10.0705950954
 20
7.6677401707
 30
0.0
 10
10.0680907475
 20
7.6637332549
 30
0.0
 10
10.0660077619
 20
7.6594727148
 30
0.0
 10
10.0643676676
 20
7.6549983634
 30
0.0
 10
10.0631848519
 20
7.6503530656
 30
0.0
 10
10.0624729162
 20
7.6455838132
 30
0.0
 10
10.0623143352
 20
7.6423618423
 30
0.0
 10
10.0623143352
 20
7.6407475588
 30
0.0
  0
SPLINE
  5
2E2
100
AcDbEntity
  8
0
100
AcDbSpline
 62
7
  6
CONTINUOUS
 70
0
 71
3
 72
15
 73
11
 74
0
 42
0.0000001
 43
0.0000001
 44
0.0000000001
 40
0.0
 40
0.0
 40
0.0
 40
0.0
 40
0.1272800245
 40
0.2538578149
 40
0.379604606
 40
0.5046064114
 40
0.629012559
 40
0.7529526619
 40
0.8765610636
 40
1.0
 40
1.0
 40
1.0
 40
1.0
 10
10.1763745946
 20
7.6371246362
 30
0.0
 10
10.1763745946
 20
7.6352007975
 30
0.0
 10
10.1761899302
 20
7.6313611461
 30
0.0
 10
10.1753601086
 20
7.6256749106
 30
0.0
 10
10.1739812824
 20
7.6201310173
 30
0.0
 10
10.1720687579
 20
7.6147827153
 30
0.0
 10
10.16963831
 20
7.6096791054
 30
0.0
 10
10.1667143018
 20
7.6048656383
 30
0.0
 10
10.1633216965
 20
7.6003890857
 30
0.0
 10
10.1607677999
 20
7.5976542329
 30
0.0
 10
10.1594258774
 20
7.5963579376
 30
0.0
  0
SPLINE
  5
2E3
100
AcDbEntity
  8
0
100
AcDbSpline
 62
7
  6
CONTINUOUS
 70
0
 71
3
 72
41
 73
37
 74
0
 42
0.0000001
 43
0.0000001
 44
0.0000000001
 40
0.0
 40
0.0
 40
0.0
 40
0.0
 40
0.0310952457
 40
0.062019807
 40
0.092738292
 40
0.1232699649
 40
0.1536542725
 40
0.1839271447
 40
0.2141227057
 40
0.2442824424
 40
0.2593674576
 40
0.27445982
 40
0.3046775948
 40
0.3349858041
 40
0.3654218658
 40
0.3960163921
 40
0.4267949975
 40
0.4577743555
 40
0.4889645109
 40
0.5203661695
 40
0.5519728133
 40
0.5837697557
 40
0.6157354043
 40
0.6478424291
 40
0.6800577375
 40
0.712345404
 40
0.7446654969
 40
0.7769789584
 40
0.8092458917
 40
0.8414279614
 40
0.8734859075
 40
0.9053909826
 40
0.9371303125
 40
0.9529378639
 40
0.9686923076
 40
1.0
 40
1.0
 40
1.0
 40
1.0
 10
10.1614119159
 20
7.6338751182
 30
0.0
 10
10.1614119159
 20
7.6322608348
 30
0.0
 10
10.1612533349
 20
7.6290388638
 30
0.0
 10
10.1605413993
 20
7.6242696114
 30
0.0
 10
10.1593585836
 20
7.6196243136
 30
0.0
 10
10.1577184893
 20
7.6151499622
 30
0.0
 10
10.1556355036
 20
7.6108894221
 30
0.0
 10
10.1531311558
 20
7.6068825063
 30
0.0
 10
10.1502283374
 20
7.6031690825
 30
0.0
 10
10.1475001307
 20
7.6003483158
 30
0.0
 10
10.1451510291
 20
7.5982743889
 30
0.0
 10
10.1426934839
 20
7.5963253234
 30
0.0
 10
10.139428916
 20
7.594131075
 30
0.0
 10
10.1352488385
 20
7.5919162358
 30
0.0
 10
10.1308432441
 20
7.5901397976
 30
0.0
 10
10.1262555472
 20
7.5888173169
 30
0.0
 10
10.1215294978
 20
7.5879634624
 30
0.0
 10
10.116711104
 20
7.5875837978
 30
0.0
 10
10.111846638
 20
7.5876845353
 30
0.0
 10
10.1069828481
 20
7.588261662
 30
0.0
 10
10.1021668418
 20
7.5893122729
 30
0.0
 10
10.0974443373
 20
7.5908234563
 30
0.0
 10
10.0928613809
 20
7.5927829227
 30
0.0
 10
10.0884611728
 20
7.5951697593
 30
0.0
 10
10.0842866917
 20
7.5979625459
 30
0.0
 10
10.0803773504
 20
7.6011332727
 30
0.0
 10
10.0767710317
 20
7.6046521162
 30
0.0
 10
10.0735022398
 20
7.6084851027
 30
0.0
 10
10.0706022067
 20
7.6125954638
 30
0.0
 10
10.0680995389
 20
7.6169438802
 30
0.0
 10
10.0660168312
 20
7.621487862
 30
0.0
 10
10.064375797
 20
7.6261848993
 30
0.0
 10
10.0633867545
 20
7.630196207
 30
0.0
 10
10.0628317581
 20
7.6334364125
 30
0.0
 10
10.0624354664
 20
7.6366769629
 30
0.0
 10
10.0623143352
 20
7.6391222464
 30
0.0
 10
10.0623143352
 20
7.6407475588
 30
0.0
  0
SPLINE
  5
2E4
100
AcDbEntity
  8
0
100
AcDbSpline
 62
7
  6
CONTINUOUS
 70
0
 71
3
 72
59
 73
55
 74
0
 42
0.0000001
 43
0.0000001
 44
0.0000000001
 40
0.0
 40
0.0
 40
0.0
 40
0.0
 40
0.0312933905
 40
0.0470051593
 40
0.0627505916
 40
0.0785298567
 40
0.0943431212
 40
0.11018926
 40
0.1260657227
 40
0.1578897383
 40
0.1738404407
 40
0.1898100577
 40
0.2217840973
 40
0.2537920702
 40
0.2698037859
 40
0.2858128856
 40
0.3018156519
 40
0.3178083963
 40
0.333787627
 40
0.3497499021
 40
0.3656919511
 40
0.3816107794
 40
0.3975035215
 40
0.4133676164
 40
0.4449921827
 40
0.4764787042
 40
0.4921716905
 40
0.507827246
 40
0.5234450933
 40
0.5390253273
 40
0.5545684969
 40
0.5700753773
 40
0.5855471689
 40
0.6009854404
 40
0.61639195
 40
0.6317688895
 40
0.6624337973
 40
0.6930124137
 40
0.7082823289
 40
0.7235404623
 40
0.7387902835
 40
0.7540353487
 40
0.784515582
 40
0.8150205946
 40
0.8302963816
 40
0.8455887087
 40
0.8609009271
 40
0.8762360868
 40
0.9069757879
 40
0.9223943692
 40
0.9378453536
 40
0.9533320928
 40
0.9688571808
 40
1.0
 40
1.0
 40
1.0
 40
1.0
 10
10.8119663421
 20
7.8479146866
 30
0.0
 10
10.811966246
 20
7.8554281724
 30
0.0
 10
10.8114094373
 20
7.8667239374
 30
0.0
 10
10.8095785485
 20
7.8816824505
 30
0.0
 10
10.8076584145
 20
7.8928649601
 30
0.0
 10
10.8052000976
 20
7.903966009
 30
0.0
 10
10.8022093058
 20
7.9149606766
 30
0.0
 10
10.7986935975
 20
7.9258237099
 30
0.0
 10
10.793316205
 20
7.9401066706
 30
0.0
 10
10.7869256168
 20
7.9540182234
 30
0.0
 10
10.7795810469
 20
7.9674506069
 30
0.0
 10
10.7716014925
 20
7.980558717
 30
0.0
 10
10.7604900508
 20
7.9962477072
 30
0.0
 10
10.7479732003
 20
8.0108534355
 30
0.0
 10
10.7371853019
 20
8.0218122477
 30
0.0
 10
10.728723158
 20
8.0296506143
 30
0.0
 10
10.7199128887
 20
8.0370881262
 30
0.0
 10
10.7107743784
 20
8.0441067997
 30
0.0
 10
10.7013290171
 20
8.0506897312
 30
0.0
 10
10.6915994407
 20
8.0568220625
 30
0.0
 10
10.6816077817
 20
8.0624881612
 30
0.0
 10
10.6713777205
 20
8.0676746014
 30
0.0
 10
10.6609331568
 20
8.0723694876
 30
0.0
 10
10.6467705966
 20
8.0779501879
 30
0.0
 10
10.6286529786
 20
8.0836467772
 30
0.0
 10
10.6101137561
 20
8.0875799162
 30
0.0
 10
10.5951627391
 20
8.089634665
 30
0.0
 10
10.5839251104
 20
8.0906252246
 30
0.0
 10
10.5726797708
 20
8.0910647899
 30
0.0
 10
10.5614532783
 20
8.0909507349
 30
0.0
 10
10.5502728001
 20
8.0902822802
 30
0.0
 10
10.5391652464
 20
8.0890613581
 30
0.0
 10
10.528157694
 20
8.0872888746
 30
0.0
 10
10.5172770969
 20
8.0849688411
 30
0.0
 10
10.5065495923
 20
8.0821066985
 30
0.0
 10
10.4925020968
 20
8.077579577
 30
0.0
 10
10.4754443365
 20
8.0705986315
 30
0.0
 10
10.4592209064
 20
8.0619050535
 30
0.0
 10
10.4468634686
 20
8.0539858925
 30
0.0
 10
10.4379271205
 20
8.0475780183
 30
0.0
 10
10.4293415779
 20
8.0407167631
 30
0.0
 10
10.4183943312
 20
8.0309878649
 30
0.0
 10
10.4056832203
 20
8.01776955
 30
0.0
 10
10.3944181966
 20
8.0032899835
 30
0.0
 10
10.386340282
 20
7.9910454343
 30
0.0
 10
10.3807576738
 20
7.9815431179
 30
0.0
 10
10.3756672959
 20
7.9717521225
 30
0.0
 10
10.3695493921
 20
7.9583374551
 30
0.0
 10
10.364466176
 20
7.9444427786
 30
0.0
 10
10.3604549752
 20
7.9301998431
 30
0.0
 10
10.3579825042
 20
7.9193428002
 30
0.0
 10
10.3560543118
 20
7.9083500002
 30
0.0
 10
10.3542144844
 20
7.8935363659
 30
0.0
 10
10.3536642382
 20
7.8823208866
 30
0.0
 10
10.3536641496
 20
7.8748435527
 30
0.0
  0
SPLINE
  5
2E5
100
AcDbEntity
  8
0
100
AcDbSpline
 62
7
  6
CONTINUOUS
 70
0
 71
3
 72
55
 73
51
 74
0
 42
0.0000001
 43
0.0000001
 44
0.0000000001
 40
0.0
 40
0.0
 40
0.0
 40
0.0
 40
0.0310511433
 40
0.0464695423
 40
0.0618068661
 40
0.0922439949
 40
0.1224116361
 40
0.1374118853
 40
0.1523601534
 40
0.1821187318
 40
0.2117577027
 40
0.2265579098
 40
0.2413530192
 40
0.2709518325
 40
0.300631999
 40
0.3304567339
 40
0.3604827947
 40
0.3755913108
 40
0.3907670901
 40
0.4213254826
 40
0.4521919517
 40
0.4677490961
 40
0.4833864435
 40
0.5148885409
 40
0.5307593952
 40
0.5467035089
 40
0.5627174576
 40
0.5787975103
 40
0.5949390057
 40
0.6111368461
 40
0.6436710556
 40
0.6600038234
 40
0.676368975
 40
0.6927597062
 40
0.7091689542
 40
0.7255896943
 40
0.7420147636
 40
0.7584368496
 40
0.7748487862
 40
0.8076052989
 40
0.8239444646
 40
0.8402460806
 40
0.8565038946
 40
0.8727119335
 40
0.8888644501
 40
0.9049557398
 40
0.9369284571
 40
0.9528148589
 40
0.9686288652
 40
1.0
 40
1.0
 40
1.0
 40
1.0
 10
10.4236641544
 20
7.8748434227
 30
0.0
 10
10.4236642623
 20
7.8800228548
 30
0.0
 10
10.4240441931
 20
7.8877814673
 30
0.0
 10
10.4253163289
 20
7.8980154235
 30
0.0
 10
10.4270835279
 20
7.9080724002
 30
0.0
 10
10.4302172794
 20
7.9203698623
 30
0.0
 10
10.4345742388
 20
7.93222987
 30
0.0
 10
10.4387542296
 20
7.9413490662
 30
0.0
 10
10.4433719373
 20
7.9501776184
 30
0.0
 10
10.4499739214
 20
7.9607038772
 30
0.0
 10
10.4576324051
 20
7.9704573401
 30
0.0
 10
10.4643332303
 20
7.9777238902
 30
0.0
 10
10.4714042116
 20
7.9846210674
 30
0.0
 10
10.4809244991
 20
7.9925361845
 30
0.0
 10
10.4933146647
 20
8.000793989
 30
0.0
 10
10.5065651259
 20
8.0077405563
 30
0.0
 10
10.5182059735
 20
8.012370352
 30
0.0
 10
10.5278161102
 20
8.0153576493
 30
0.0
 10
10.5376529578
 20
8.0178703136
 30
0.0
 10
10.5502611043
 20
8.0200812684
 30
0.0
 10
10.5630902358
 20
8.0210190533
 30
0.0
 10
10.5734459026
 20
8.021008337
 30
0.0
 10
10.5838940655
 20
8.0204828085
 30
0.0
 10
10.594343804
 20
8.0191852787
 30
0.0
 10
10.6047067716
 20
8.017131736
 30
0.0
 10
10.6124528891
 20
8.0152087705
 30
0.0
 10
10.6201322837
 20
8.0129107245
 30
0.0
 10
10.6277256256
 20
8.0102416594
 30
0.0
 10
10.6352142722
 20
8.0072084112
 30
0.0
 10
10.6450464728
 20
8.0026819827
 30
0.0
 10
10.6545807601
 20
7.9974581621
 30
0.0
 10
10.6637434025
 20
7.9915843136
 30
0.0
 10
10.6704289795
 20
7.9868515415
 30
0.0
 10
10.6769011965
 20
7.9818106073
 30
0.0
 10
10.6831439352
 20
7.97647373
 30
0.0
 10
10.6891406676
 20
7.9708534742
 30
0.0
 10
10.694876938
 20
7.9649647406
 30
0.0
 10
10.7003385253
 20
7.9588219976
 30
0.0
 10
10.7072291652
 20
7.9503202405
 30
0.0
 10
10.7135243948
 20
7.9413666436
 30
0.0
 10
10.7191707563
 20
7.9320297971
 30
0.0
 10
10.7230679717
 20
7.9248611666
 30
0.0
 10
10.7266208685
 20
7.9175403101
 30
0.0
 10
10.7298201793
 20
7.9100852129
 30
0.0
 10
10.7326594458
 20
7.9025150937
 30
0.0
 10
10.7359490265
 20
7.8923181347
 30
0.0
 10
10.7385044158
 20
7.8819419899
 30
0.0
 10
10.7402996138
 20
7.8714704191
 30
0.0
 10
10.741576632
 20
7.8610247544
 30
0.0
 10
10.7419662184
 20
7.8531474146
 30
0.0
 10
10.7419663366
 20
7.8479146069
 30
0.0
  0
SPLINE
  5
2E6
100
AcDbEntity
  8
0
100
AcDbSpline
 62
7
  6
CONTINUOUS
 70
0
 71
3
 72
59
 73
55
 74
0
 42
0.0000001
 43
0.0000001
 44
0.0000000001
 40
0.0
 40
0.0
 40
0.0
 40
0.0
 40
0.0312933912
 40
0.0470051607
 40
0.0627505931
 40
0.0785298576
 40
0.0943431212
 40
0.1101892587
 40
0.1260657201
 40
0.1578897329
 40
0.1738404341
 40
0.1898100501
 40
0.2217840878
 40
0.253792059
 40
0.2698037743
 40
0.285812874
 40
0.3018156403
 40
0.3178083847
 40
0.3337876153
 40
0.34974989
 40
0.3656919384
 40
0.3816107659
 40
0.3975035069
 40
0.4133676001
 40
0.4449921603
 40
0.4764786728
 40
0.4921716568
 40
0.5078272134
 40
0.5234450648
 40
0.5390253053
 40
0.554568483
 40
0.5700753712
 40
0.5855471686
 40
0.6009854438
 40
0.6163919561
 40
0.6317688982
 40
0.6624338107
 40
0.6930124274
 40
0.7082823377
 40
0.723540463
 40
0.7387902767
 40
0.7540353394
 40
0.7845155781
 40
0.8150205883
 40
0.830296371
 40
0.8455886936
 40
0.8609009075
 40
0.8762360632
 40
0.9069757575
 40
0.922394336
 40
0.9378453212
 40
0.9533320662
 40
0.9688571643
 40
1.0
 40
1.0
 40
1.0
 40
1.0
 10
10.3536641507
 20
7.8748434544
 30
0.0
 10
10.3536642468
 20
7.8673299685
 30
0.0
 10
10.3542210556
 20
7.8560342032
 30
0.0
 10
10.3560519444
 20
7.8410756897
 30
0.0
 10
10.3579720784
 20
7.82989318
 30
0.0
 10
10.3604303953
 20
7.8187921316
 30
0.0
 10
10.363421187
 20
7.8077974645
 30
0.0
 10
10.3669368949
 20
7.7969344321
 30
0.0
 10
10.3723142869
 20
7.7826514725
 30
0.0
 10
10.3787048743
 20
7.7687399208
 30
0.0
 10
10.3860494435
 20
7.7553075383
 30
0.0
 10
10.3940289972
 20
7.7421994289
 30
0.0
 10
10.4051404378
 20
7.7265104394
 30
0.0
 10
10.417657287
 20
7.7119047112
 30
0.0
 10
10.4284451849
 20
7.7009458993
 30
0.0
 10
10.4369073284
 20
7.6931075324
 30
0.0
 10
10.4457175973
 20
7.68567002
 30
0.0
 10
10.4548561075
 20
7.6786513465
 30
0.0
 10
10.4643014683
 20
7.6720684146
 30
0.0
 10
10.4740310443
 20
7.6659360829
 30
0.0
 10
10.4840227029
 20
7.6602699845
 30
0.0
 10
10.4942527632
 20
7.6550835438
 30
0.0
 10
10.5046973259
 20
7.6503886576
 30
0.0
 10
10.518859884
 20
7.6448079577
 30
0.0
 10
10.5369774977
 20
7.6391113687
 30
0.0
 10
10.5555167155
 20
7.6351782275
 30
0.0
 10
10.5704677302
 20
7.6331234792
 30
0.0
 10
10.5817053594
 20
7.6321329183
 30
0.0
 10
10.5929507017
 20
7.6316933507
 30
0.0
 10
10.6041771987
 20
7.631807406
 30
0.0
 10
10.6153576823
 20
7.6324758604
 30
0.0
 10
10.6264652412
 20
7.6336967821
 30
0.0
 10
10.6374727978
 20
7.6354692661
 30
0.0
 10
10.6483533978
 20
7.6377893004
 30
0.0
 10
10.6590809044
 20
7.6406514436
 30
0.0
 10
10.6731284021
 20
7.6451785662
 30
0.0
 10
10.690186164
 20
7.6521595126
 30
0.0
 10
10.7064095931
 20
7.6608530924
 30
0.0
 10
10.7187670286
 20
7.6687722512
 30
0.0
 10
10.7277033731
 20
7.6751801221
 30
0.0
 10
10.7362889121
 20
7.6820413748
 30
0.0
 10
10.7472361571
 20
7.6917702733
 30
0.0
 10
10.7599472692
 20
7.7049885871
 30
0.0
 10
10.7712122934
 20
7.7194681528
 30
0.0
 10
10.7792902064
 20
7.7317126998
 30
0.0
 10
10.7848728133
 20
7.7412150133
 30
0.0
 10
10.789963191
 20
7.7510060053
 30
0.0
 10
10.7960810929
 20
7.7644206694
 30
0.0
 10
10.8011643111
 20
7.7783153417
 30
0.0
 10
10.8051755114
 20
7.7925582751
 30
0.0
 10
10.8076479845
 20
7.8034153185
 30
0.0
 10
10.8095761786
 20
7.8144081222
 30
0.0
 10
10.8114160058
 20
7.8292217644
 30
0.0
 10
10.8119662545
 20
7.84043725
 30
0.0
 10
10.8119663432
 20
7.8479145879
 30
0.0
  0
SPLINE
  5
2E7
100
AcDbEntity
  8
0
100
AcDbSpline
 62
7
  6
CONTINUOUS
 70
0
 71
3
 72
55
 73
51
 74
0
 42
0.0000001
 43
0.0000001
 44
0.0000000001
 40
0.0
 40
0.0
 40
0.0
 40
0.0
 40
0.0310511431
 40
0.046469542
 40
0.0618068656
 40
0.0922439947
 40
0.1224116362
 40
0.1374118855
 40
0.1523601539
 40
0.1821187326
 40
0.2117577038
 40
0.226557911
 40
0.2413530206
 40
0.2709518339
 40
0.3006320003
 40
0.3304567348
 40
0.360482795
 40
0.3755913109
 40
0.3907670899
 40
0.4213254823
 40
0.4521919519
 40
0.467749097
 40
0.4833864454
 40
0.5148885451
 40
0.5307594002
 40
0.5467035145
 40
0.562717463
 40
0.5787975149
 40
0.5949390091
 40
0.6111368482
 40
0.6436710552
 40
0.6600038223
 40
0.6763689733
 40
0.6927597044
 40
0.7091689526
 40
0.725589693
 40
0.7420147626
 40
0.758436849
 40
0.774848786
 40
0.807605299
 40
0.8239444644
 40
0.8402460798
 40
0.8565038931
 40
0.8727119311
 40
0.8888644466
 40
0.9049557354
 40
0.9369284522
 40
0.9528148548
 40
0.9686288622
 40
1.0
 40
1.0
 40
1.0
 40
1.0
 10
10.7419663384
 20
7.8479147183
 30
0.0
 10
10.7419662304
 20
7.8427352862
 30
0.0
 10
10.7415862997
 20
7.8349766738
 30
0.0
 10
10.7403141639
 20
7.8247427177
 30
0.0
 10
10.7385469649
 20
7.814685741
 30
0.0
 10
10.7354132135
 20
7.8023882788
 30
0.0
 10
10.731056254
 20
7.790528271
 30
0.0
 10
10.7268762631
 20
7.7814090747
 30
0.0
 10
10.7222585554
 20
7.7725805224
 30
0.0
 10
10.7156565712
 20
7.7620542635
 30
0.0
 10
10.7079980874
 20
7.7523008005
 30
0.0
 10
10.7012972621
 20
7.7450342504
 30
0.0
 10
10.6942262807
 20
7.7381370732
 30
0.0
 10
10.6847059932
 20
7.7302219562
 30
0.0
 10
10.6723158276
 20
7.7219641517
 30
0.0
 10
10.6590653665
 20
7.7150175846
 30
0.0
 10
10.6474245191
 20
7.710387789
 30
0.0
 10
10.6378143826
 20
7.7074004917
 30
0.0
 10
10.6279775351
 20
7.7048878275
 30
0.0
 10
10.6153693886
 20
7.7026768726
 30
0.0
 10
10.602540257
 20
7.7017390877
 30
0.0
 10
10.5921845897
 20
7.701749804
 30
0.0
 10
10.5817364261
 20
7.7022753326
 30
0.0
 10
10.571286687
 20
7.7035728625
 30
0.0
 10
10.5609237188
 20
7.7056264055
 30
0.0
 10
10.5531776012
 20
7.7075493713
 30
0.0
 10
10.5454982067
 20
7.7098474173
 30
0.0
 10
10.5379048652
 20
7.7125164823
 30
0.0
 10
10.5304162191
 20
7.7155497304
 30
0.0
 10
10.5205840194
 20
7.7200761587
 30
0.0
 10
10.5110497327
 20
7.7252999789
 30
0.0
 10
10.5018870908
 20
7.731173827
 30
0.0
 10
10.495201514
 20
7.735906599
 30
0.0
 10
10.488729297
 20
7.7409475331
 30
0.0
 10
10.4824865582
 20
7.7462844104
 30
0.0
 10
10.4764898257
 20
7.7519046663
 30
0.0
 10
10.4707535551
 20
7.7577933999
 30
0.0
 10
10.4652919677
 20
7.7639361431
 30
0.0
 10
10.4584013277
 20
7.7724379004
 30
0.0
 10
10.4521060981
 20
7.7813914973
 30
0.0
 10
10.4464597367
 20
7.7907283437
 30
0.0
 10
10.4425625213
 20
7.7978969739
 30
0.0
 10
10.4390096247
 20
7.8052178301
 30
0.0
 10
10.435810314
 20
7.8126729269
 30
0.0
 10
10.4329710476
 20
7.8202430456
 30
0.0
 10
10.4296814669
 20
7.8304400041
 30
0.0
 10
10.4271260775
 20
7.8408161488
 30
0.0
 10
10.4253308793
 20
7.8512877197
 30
0.0
 10
10.424053861
 20
7.8617333853
 30
0.0
 10
10.4236642744
 20
7.8696107257
 30
0.0
 10
10.4236641562
 20
7.8748435339
 30
0.0
  0
SPLINE
  5
2E8
100
AcDbEntity
  8
0
100
AcDbSpline
 62
7
  6
CONTINUOUS
 70
0
 71
3
 72
59
 73
55
 74
0
 42
0.0000001
 43
0.0000001
 44
0.0000000001
 40
0.0
 40
0.0
 40
0.0
 40
0.0
 40
0.0312933905
 40
0.0470051593
 40
0.0627505916
 40
0.0785298567
 40
0.0943431212
 40
0.11018926
 40
0.1260657227
 40
0.1578897383
 40
0.1738404407
 40
0.1898100577
 40
0.2217840973
 40
0.2537920702
 40
0.2698037859
 40
0.2858128856
 40
0.3018156519
 40
0.3178083963
 40
0.333787627
 40
0.3497499021
 40
0.3656919511
 40
0.3816107794
 40
0.3975035215
 40
0.4133676164
 40
0.4449921827
 40
0.4764787042
 40
0.4921716905
 40
0.507827246
 40
0.5234450933
 40
0.5390253273
 40
0.5545684969
 40
0.5700753773
 40
0.5855471689
 40
0.6009854404
 40
0.61639195
 40
0.6317688895
 40
0.6624337973
 40
0.6930124137
 40
0.7082823289
 40
0.7235404623
 40
0.7387902835
 40
0.7540353487
 40
0.784515582
 40
0.8150205946
 40
0.8302963816
 40
0.8455887087
 40
0.8609009271
 40
0.8762360868
 40
0.9069757879
 40
0.9223943692
 40
0.9378453536
 40
0.9533320928
 40
0.9688571808
 40
1.0
 40
1.0
 40
1.0
 40
1.0
 10
10.4806538267
 20
8.2669208964
 30
0.0
 10
10.4806537306
 20
8.2744343822
 30
0.0
 10
10.4800969219
 20
8.2857301471
 30
0.0
 10
10.4782660331
 20
8.3006886603
 30
0.0
 10
10.4763458991
 20
8.3118711699
 30
0.0
 10
10.4738875822
 20
8.3229722187
 30
0.0
 10
10.4708967904
 20
8.3339668864
 30
0.0
 10
10.4673810821
 20
8.3448299196
 30
0.0
 10
10.4620036896
 20
8.3591128804
 30
0.0
 10
10.4556131014
 20
8.3730244332
 30
0.0
 10
10.4482685315
 20
8.3864568167
 30
0.0
 10
10.440288977
 20
8.3995649268
 30
0.0
 10
10.4291775354
 20
8.415253917
 30
0.0
 10
10.4166606848
 20
8.4298596453
 30
0.0
 10
10.4058727865
 20
8.4408184575
 30
0.0
 10
10.3974106426
 20
8.4486568241
 30
0.0
 10
10.3886003733
 20
8.4560943359
 30
0.0
 10
10.379461863
 20
8.4631130095
 30
0.0
 10
10.3700165017
 20
8.469695941
 30
0.0
 10
10.3602869253
 20
8.4758282723
 30
0.0
 10
10.3502952663
 20
8.481494371
 30
0.0
 10
10.3400652051
 20
8.4866808112
 30
0.0
 10
10.3296206414
 20
8.4913756973
 30
0.0
 10
10.3154580812
 20
8.4969563976
 30
0.0
 10
10.2973404632
 20
8.502652987
 30
0.0
 10
10.2788012407
 20
8.506586126
 30
0.0
 10
10.2638502237
 20
8.5086408747
 30
0.0
 10
10.252612595
 20
8.5096314343
 30
0.0
 10
10.2413672554
 20
8.5100709997
 30
0.0
 10
10.2301407629
 20
8.5099569446
 30
0.0
 10
10.2189602847
 20
8.5092884899
 30
0.0
 10
10.207852731
 20
8.5080675679
 30
0.0
 10
10.1968451786
 20
8.5062950844
 30
0.0
 10
10.1859645814
 20
8.5039750508
 30
0.0
 10
10.1752370769
 20
8.5011129083
 30
0.0
 10
10.1611895814
 20
8.4965857868
 30
0.0
 10
10.1441318211
 20
8.4896048413
 30
0.0
 10
10.127908391
 20
8.4809112632
 30
0.0
 10
10.1155509532
 20
8.4729921022
 30
0.0
 10
10.1066146051
 20
8.4665842281
 30
0.0
 10
10.0980290625
 20
8.4597229729
 30
0.0
 10
10.0870818158
 20
8.4499940747
 30
0.0
 10
10.0743707048
 20
8.4367757597
 30
0.0
 10
10.0631056812
 20
8.4222961932
 30
0.0
 10
10.0550277666
 20
8.4100516441
 30
0.0
 10
10.0494451584
 20
8.4005493277
 30
0.0
 10
10.0443547805
 20
8.3907583322
 30
0.0
 10
10.0382368767
 20
8.3773436649
 30
0.0
 10
10.0331536605
 20
8.3634489884
 30
0.0
 10
10.0291424598
 20
8.3492060529
 30
0.0
 10
10.0266699888
 20
8.33834901
 30
0.0
 10
10.0247417964
 20
8.32735621
 30
0.0
 10
10.022901969
 20
8.3125425757
 30
0.0
 10
10.0223517228
 20
8.3013270964
 30
0.0
 10
10.0223516342
 20
8.2938497624
 30
0.0
  0
SPLINE
  5
2E9
100
AcDbEntity
  8
0
100
AcDbSpline
 62
7
  6
CONTINUOUS
 70
0
 71
3
 72
55
 73
51
 74
0
 42
0.0000001
 43
0.0000001
 44
0.0000000001
 40
0.0
 40
0.0
 40
0.0
 40
0.0
 40
0.0310511433
 40
0.0464695423
 40
0.0618068661
 40
0.0922439949
 40
0.1224116361
 40
0.1374118853
 40
0.1523601534
 40
0.1821187318
 40
0.2117577027
 40
0.2265579098
 40
0.2413530192
 40
0.2709518325
 40
0.300631999
 40
0.3304567339
 40
0.3604827947
 40
0.3755913108
 40
0.3907670901
 40
0.4213254826
 40
0.4521919517
 40
0.4677490961
 40
0.4833864435
 40
0.5148885409
 40
0.5307593952
 40
0.5467035089
 40
0.5627174576
 40
0.5787975103
 40
0.5949390057
 40
0.6111368461
 40
0.6436710556
 40
0.6600038234
 40
0.676368975
 40
0.6927597062
 40
0.7091689542
 40
0.7255896943
 40
0.7420147636
 40
0.7584368496
 40
0.7748487862
 40
0.8076052989
 40
0.8239444646
 40
0.8402460806
 40
0.8565038946
 40
0.8727119335
 40
0.8888644501
 40
0.9049557398
 40
0.9369284571
 40
0.9528148589
 40
0.9686288652
 40
1.0
 40
1.0
 40
1.0
 40
1.0
 10
10.0923516389
 20
8.2938496325
 30
0.0
 10
10.0923517469
 20
8.2990290646
 30
0.0
 10
10.0927316777
 20
8.306787677
 30
0.0
 10
10.0940038135
 20
8.3170216332
 30
0.0
 10
10.0957710125
 20
8.3270786099
 30
0.0
 10
10.098904764
 20
8.3393760721
 30
0.0
 10
10.1032617234
 20
8.3512360798
 30
0.0
 10
10.1074417142
 20
8.360355276
 30
0.0
 10
10.1120594219
 20
8.3691838282
 30
0.0
 10
10.118661406
 20
8.3797100869
 30
0.0
 10
10.1263198897
 20
8.3894635499
 30
0.0
 10
10.1330207148
 20
8.3967301
 30
0.0
 10
10.1400916962
 20
8.4036272772
 30
0.0
 10
10.1496119837
 20
8.4115423942
 30
0.0
 10
10.1620021493
 20
8.4198001987
 30
0.0
 10
10.1752526105
 20
8.4267467661
 30
0.0
 10
10.1868934581
 20
8.4313765617
 30
0.0
 10
10.1965035948
 20
8.4343638591
 30
0.0
 10
10.2063404424
 20
8.4368765233
 30
0.0
 10
10.2189485889
 20
8.4390874782
 30
0.0
 10
10.2317777204
 20
8.4400252631
 30
0.0
 10
10.2421333872
 20
8.4400145468
 30
0.0
 10
10.2525815501
 20
8.4394890183
 30
0.0
 10
10.2630312886
 20
8.4381914885
 30
0.0
 10
10.2733942562
 20
8.4361379457
 30
0.0
 10
10.2811403737
 20
8.4342149802
 30
0.0
 10
10.2888197683
 20
8.4319169342
 30
0.0
 10
10.2964131102
 20
8.4292478692
 30
0.0
 10
10.3039017568
 20
8.426214621
 30
0.0
 10
10.3137339573
 20
8.4216881924
 30
0.0
 10
10.3232682447
 20
8.4164643719
 30
0.0
 10
10.3324308871
 20
8.4105905234
 30
0.0
 10
10.3391164641
 20
8.4058577512
 30
0.0
 10
10.3455886811
 20
8.4008168171
 30
0.0
 10
10.3518314198
 20
8.3954799398
 30
0.0
 10
10.3578281522
 20
8.3898596839
 30
0.0
 10
10.3635644226
 20
8.3839709504
 30
0.0
 10
10.3690260099
 20
8.3778282073
 30
0.0
 10
10.3759166498
 20
8.3693264502
 30
0.0
 10
10.3822118794
 20
8.3603728534
 30
0.0
 10
10.3878582408
 20
8.3510360069
 30
0.0
 10
10.3917554563
 20
8.3438673764
 30
0.0
 10
10.3953083531
 20
8.3365465198
 30
0.0
 10
10.3985076639
 20
8.3290914226
 30
0.0
 10
10.4013469303
 20
8.3215213034
 30
0.0
 10
10.4046365111
 20
8.3113243445
 30
0.0
 10
10.4071919003
 20
8.3009481996
 30
0.0
 10
10.4089870984
 20
8.2904766289
 30
0.0
 10
10.4102641166
 20
8.2800309641
 30
0.0
 10
10.410653703
 20
8.2721536244
 30
0.0
 10
10.4106538212
 20
8.2669208167
 30
0.0
  0
SPLINE
  5
2EA
100
AcDbEntity
  8
0
100
AcDbSpline
 62
7
  6
CONTINUOUS
 70
0
 71
3
 72
59
 73
55
 74
0
 42
0.0000001
 43
0.0000001
 44
0.0000000001
 40
0.0
 40
0.0
 40
0.0
 40
0.0
 40
0.0312933912
 40
0.0470051607
 40
0.0627505931
 40
0.0785298576
 40
0.0943431212
 40
0.1101892587
 40
0.1260657201
 40
0.1578897329
 40
0.1738404341
 40
0.1898100501
 40
0.2217840878
 40
0.253792059
 40
0.2698037743
 40
0.285812874
 40
0.3018156403
 40
0.3178083847
 40
0.3337876153
 40
0.34974989
 40
0.3656919384
 40
0.3816107659
 40
0.3975035069
 40
0.4133676001
 40
0.4449921603
 40
0.4764786728
 40
0.4921716568
 40
0.5078272134
 40
0.5234450648
 40
0.5390253053
 40
0.554568483
 40
0.5700753712
 40
0.5855471686
 40
0.6009854438
 40
0.6163919561
 40
0.6317688982
 40
0.6624338107
 40
0.6930124274
 40
0.7082823377
 40
0.723540463
 40
0.7387902767
 40
0.7540353394
 40
0.7845155781
 40
0.8150205883
 40
0.830296371
 40
0.8455886936
 40
0.8609009075
 40
0.8762360632
 40
0.9069757575
 40
0.922394336
 40
0.9378453212
 40
0.9533320662
 40
0.9688571643
 40
1.0
 40
1.0
 40
1.0
 40
1.0
 10
10.0223516353
 20
8.2938496642
 30
0.0
 10
10.0223517314
 20
8.2863361782
 30
0.0
 10
10.0229085402
 20
8.275040413
 30
0.0
 10
10.024739429
 20
8.2600818995
 30
0.0
 10
10.026659563
 20
8.2488993898
 30
0.0
 10
10.0291178799
 20
8.2377983413
 30
0.0
 10
10.0321086716
 20
8.2268036743
 30
0.0
 10
10.0356243795
 20
8.2159406419
 30
0.0
 10
10.0410017715
 20
8.2016576823
 30
0.0
 10
10.0473923589
 20
8.1877461306
 30
0.0
 10
10.0547369281
 20
8.1743137481
 30
0.0
 10
10.0627164818
 20
8.1612056387
 30
0.0
 10
10.0738279224
 20
8.1455166492
 30
0.0
 10
10.0863447716
 20
8.1309109209
 30
0.0
 10
10.0971326695
 20
8.119952109
 30
0.0
 10
10.105594813
 20
8.1121137422
 30
0.0
 10
10.1144050819
 20
8.1046762298
 30
0.0
 10
10.1235435921
 20
8.0976575563
 30
0.0
 10
10.1329889529
 20
8.0910746243
 30
0.0
 10
10.1427185289
 20
8.0849422927
 30
0.0
 10
10.1527101875
 20
8.0792761942
 30
0.0
 10
10.1629402478
 20
8.0740897536
 30
0.0
 10
10.1733848105
 20
8.0693948674
 30
0.0
 10
10.1875473686
 20
8.0638141675
 30
0.0
 10
10.2056649823
 20
8.0581175784
 30
0.0
 10
10.2242042001
 20
8.0541844373
 30
0.0
 10
10.2391552147
 20
8.0521296889
 30
0.0
 10
10.250392844
 20
8.051139128
 30
0.0
 10
10.2616381863
 20
8.0506995605
 30
0.0
 10
10.2728646833
 20
8.0508136158
 30
0.0
 10
10.2840451669
 20
8.0514820702
 30
0.0
 10
10.2951527258
 20
8.0527029919
 30
0.0
 10
10.3061602824
 20
8.0544754759
 30
0.0
 10
10.3170408824
 20
8.0567955102
 30
0.0
 10
10.3277683889
 20
8.0596576534
 30
0.0
 10
10.3418158867
 20
8.064184776
 30
0.0
 10
10.3588736486
 20
8.0711657224
 30
0.0
 10
10.3750970777
 20
8.0798593022
 30
0.0
 10
10.3874545132
 20
8.087778461
 30
0.0
 10
10.3963908577
 20
8.0941863318
 30
0.0
 10
10.4049763967
 20
8.1010475846
 30
0.0
 10
10.4159236417
 20
8.1107764831
 30
0.0
 10
10.4286347538
 20
8.1239947969
 30
0.0
 10
10.439899778
 20
8.1384743626
 30
0.0
 10
10.447977691
 20
8.1507189096
 30
0.0
 10
10.4535602979
 20
8.160221223
 30
0.0
 10
10.4586506756
 20
8.1700122151
 30
0.0
 10
10.4647685775
 20
8.1834268792
 30
0.0
 10
10.4698517956
 20
8.1973215515
 30
0.0
 10
10.473862996
 20
8.2115644849
 30
0.0
 10
10.4763354691
 20
8.2224215282
 30
0.0
 10
10.4782636632
 20
8.233414332
 30
0.0
 10
10.4801034904
 20
8.2482279742
 30
0.0
 10
10.4806537391
 20
8.2594434597
 30
0.0
 10
10.4806538278
 20
8.2669207976
 30
0.0
  0
SPLINE
  5
2EB
100
AcDbEntity
  8
0
100
AcDbSpline
 62
7
  6
CONTINUOUS
 70
0
 71
3
 72
55
 73
51
 74
0
 42
0.0000001
 43
0.0000001
 44
0.0000000001
 40
0.0
 40
0.0
 40
0.0
 40
0.0
 40
0.0310511431
 40
0.046469542
 40
0.0618068656
 40
0.0922439947
 40
0.1224116362
 40
0.1374118855
 40
0.1523601539
 40
0.1821187326
 40
0.2117577038
 40
0.226557911
 40
0.2413530206
 40
0.2709518339
 40
0.3006320003
 40
0.3304567348
 40
0.360482795
 40
0.3755913109
 40
0.3907670899
 40
0.4213254823
 40
0.4521919519
 40
0.467749097
 40
0.4833864454
 40
0.5148885451
 40
0.5307594002
 40
0.5467035145
 40
0.562717463
 40
0.5787975149
 40
0.5949390091
 40
0.6111368482
 40
0.6436710552
 40
0.6600038223
 40
0.6763689733
 40
0.6927597044
 40
0.7091689526
 40
0.725589693
 40
0.7420147626
 40
0.758436849
 40
0.774848786
 40
0.807605299
 40
0.8239444644
 40
0.8402460798
 40
0.8565038931
 40
0.8727119311
 40
0.8888644466
 40
0.9049557354
 40
0.9369284522
 40
0.9528148548
 40
0.9686288622
 40
1.0
 40
1.0
 40
1.0
 40
1.0
 10
10.410653823
 20
8.266920928
 30
0.0
 10
10.410653715
 20
8.261741496
 30
0.0
 10
10.4102737843
 20
8.2539828836
 30
0.0
 10
10.4090016485
 20
8.2437489275
 30
0.0
 10
10.4072344494
 20
8.2336919508
 30
0.0
 10
10.404100698
 20
8.2213944885
 30
0.0
 10
10.3997437386
 20
8.2095344808
 30
0.0
 10
10.3955637477
 20
8.2004152845
 30
0.0
 10
10.39094604
 20
8.1915867322
 30
0.0
 10
10.3843440558
 20
8.1810604733
 30
0.0
 10
10.376685572
 20
8.1713070102
 30
0.0
 10
10.3699847467
 20
8.1640404602
 30
0.0
 10
10.3629137653
 20
8.1571432829
 30
0.0
 10
10.3533934778
 20
8.1492281659
 30
0.0
 10
10.3410033122
 20
8.1409703615
 30
0.0
 10
10.3277528511
 20
8.1340237943
 30
0.0
 10
10.3161120037
 20
8.1293939987
 30
0.0
 10
10.3065018672
 20
8.1264067015
 30
0.0
 10
10.2966650197
 20
8.1238940372
 30
0.0
 10
10.2840568732
 20
8.1216830823
 30
0.0
 10
10.2712277415
 20
8.1207452974
 30
0.0
 10
10.2608720743
 20
8.1207560138
 30
0.0
 10
10.2504239107
 20
8.1212815424
 30
0.0
 10
10.2399741716
 20
8.1225790723
 30
0.0
 10
10.2296112034
 20
8.1246326153
 30
0.0
 10
10.2218650858
 20
8.1265555811
 30
0.0
 10
10.2141856913
 20
8.1288536271
 30
0.0
 10
10.2065923497
 20
8.1315226921
 30
0.0
 10
10.1991037037
 20
8.1345559402
 30
0.0
 10
10.1892715039
 20
8.1390823685
 30
0.0
 10
10.1797372173
 20
8.1443061886
 30
0.0
 10
10.1705745754
 20
8.1501800368
 30
0.0
 10
10.1638889986
 20
8.1549128088
 30
0.0
 10
10.1574167816
 20
8.1599537429
 30
0.0
 10
10.1511740428
 20
8.1652906202
 30
0.0
 10
10.1451773103
 20
8.1709108761
 30
0.0
 10
10.1394410397
 20
8.1767996097
 30
0.0
 10
10.1339794523
 20
8.1829423529
 30
0.0
 10
10.1270888123
 20
8.1914441101
 30
0.0
 10
10.1207935827
 20
8.200397707
 30
0.0
 10
10.1151472212
 20
8.2097345534
 30
0.0
 10
10.1112500059
 20
8.2169031837
 30
0.0
 10
10.1076971093
 20
8.2242240399
 30
0.0
 10
10.1044977986
 20
8.2316791366
 30
0.0
 10
10.1016585322
 20
8.2392492553
 30
0.0
 10
10.0983689515
 20
8.2494462138
 30
0.0
 10
10.0958135621
 20
8.2598223585
 30
0.0
 10
10.0940183639
 20
8.2702939295
 30
0.0
 10
10.0927413456
 20
8.2807395951
 30
0.0
 10
10.092351759
 20
8.2886169355
 30
0.0
 10
10.0923516408
 20
8.2938497437
 30
0.0
  0
SPLINE
  5
2EC
100
AcDbEntity
  8
0
100
AcDbSpline
 62
7
  6
CONTINUOUS
 70
0
 71
3
 72
59
 73
55
 74
0
 42
0.0000001
 43
0.0000001
 44
0.0000000001
 40
0.0
 40
0.0
 40
0.0
 40
0.0
 40
0.0312933905
 40
0.0470051593
 40
0.0627505916
 40
0.0785298567
 40
0.0943431212
 40
0.11018926
 40
0.1260657227
 40
0.1578897383
 40
0.1738404407
 40
0.1898100577
 40
0.2217840973
 40
0.2537920702
 40
0.2698037859
 40
0.2858128856
 40
0.3018156519
 40
0.3178083963
 40
0.333787627
 40
0.3497499021
 40
0.3656919511
 40
0.3816107794
 40
0.3975035215
 40
0.4133676164
 40
0.4449921827
 40
0.4764787042
 40
0.4921716905
 40
0.507827246
 40
0.5234450933
 40
0.5390253273
 40
0.5545684969
 40
0.5700753773
 40
0.5855471689
 40
0.6009854404
 40
0.61639195
 40
0.6317688895
 40
0.6624337973
 40
0.6930124137
 40
0.7082823289
 40
0.7235404623
 40
0.7387902835
 40
0.7540353487
 40
0.784515582
 40
0.8150205946
 40
0.8302963816
 40
0.8455887087
 40
0.8609009271
 40
0.8762360868
 40
0.9069757879
 40
0.9223943692
 40
0.9378453536
 40
0.9533320928
 40
0.9688571808
 40
1.0
 40
1.0
 40
1.0
 40
1.0
 10
11.1461766554
 20
8.2207667314
 30
0.0
 10
11.1461765593
 20
8.2282802173
 30
0.0
 10
11.1456197507
 20
8.2395759822
 30
0.0
 10
11.1437888618
 20
8.2545344954
 30
0.0
 10
11.1418687278
 20
8.265717005
 30
0.0
 10
11.1394104109
 20
8.2768180538
 30
0.0
 10
11.1364196191
 20
8.2878127215
 30
0.0
 10
11.1329039108
 20
8.2986757547
 30
0.0
 10
11.1275265183
 20
8.3129587155
 30
0.0
 10
11.1211359302
 20
8.3268702683
 30
0.0
 10
11.1137913602
 20
8.3403026517
 30
0.0
 10
11.1058118058
 20
8.3534107618
 30
0.0
 10
11.0947003641
 20
8.369099752
 30
0.0
 10
11.0821835136
 20
8.3837054803
 30
0.0
 10
11.0713956152
 20
8.3946642925
 30
0.0
 10
11.0629334713
 20
8.4025026592
 30
0.0
 10
11.054123202
 20
8.409940171
 30
0.0
 10
11.0449846918
 20
8.4169588446
 30
0.0
 10
11.0355393305
 20
8.4235417761
 30
0.0
 10
11.025809754
 20
8.4296741074
 30
0.0
 10
11.0158180951
 20
8.435340206
 30
0.0
 10
11.0055880338
 20
8.4405266462
 30
0.0
 10
10.9951434701
 20
8.4452215324
 30
0.0
 10
10.9809809099
 20
8.4508022327
 30
0.0
 10
10.9628632919
 20
8.456498822
 30
0.0
 10
10.9443240694
 20
8.4604319611
 30
0.0
 10
10.9293730524
 20
8.4624867098
 30
0.0
 10
10.9181354237
 20
8.4634772694
 30
0.0
 10
10.9068900841
 20
8.4639168347
 30
0.0
 10
10.8956635916
 20
8.4638027797
 30
0.0
 10
10.8844831134
 20
8.463134325
 30
0.0
 10
10.8733755598
 20
8.4619134029
 30
0.0
 10
10.8623680073
 20
8.4601409194
 30
0.0
 10
10.8514874102
 20
8.4578208859
 30
0.0
 10
10.8407599057
 20
8.4549587433
 30
0.0
 10
10.8267124101
 20
8.4504316219
 30
0.0
 10
10.8096546498
 20
8.4434506764
 30
0.0
 10
10.7934312198
 20
8.4347570983
 30
0.0
 10
10.7810737819
 20
8.4268379373
 30
0.0
 10
10.7721374338
 20
8.4204300632
 30
0.0
 10
10.7635518912
 20
8.4135688079
 30
0.0
 10
10.7526046445
 20
8.4038399097
 30
0.0
 10
10.7398935336
 20
8.3906215948
 30
0.0
 10
10.72862851
 20
8.3761420283
 30
0.0
 10
10.7205505953
 20
8.3638974792
 30
0.0
 10
10.7149679872
 20
8.3543951627
 30
0.0
 10
10.7098776092
 20
8.3446041673
 30
0.0
 10
10.7037597055
 20
8.3311895
 30
0.0
 10
10.6986764893
 20
8.3172948235
 30
0.0
 10
10.6946652886
 20
8.3030518879
 30
0.0
 10
10.6921928175
 20
8.292194845
 30
0.0
 10
10.6902646251
 20
8.2812020451
 30
0.0
 10
10.6884247978
 20
8.2663884108
 30
0.0
 10
10.6878745515
 20
8.2551729314
 30
0.0
 10
10.6878744629
 20
8.2476955975
 30
0.0
  0
SPLINE
  5
2ED
100
AcDbEntity
  8
0
100
AcDbSpline
 62
7
  6
CONTINUOUS
 70
0
 71
3
 72
55
 73
51
 74
0
 42
0.0000001
 43
0.0000001
 44
0.0000000001
 40
0.0
 40
0.0
 40
0.0
 40
0.0
 40
0.0310511433
 40
0.0464695423
 40
0.0618068661
 40
0.0922439949
 40
0.1224116361
 40
0.1374118853
 40
0.1523601534
 40
0.1821187318
 40
0.2117577027
 40
0.2265579098
 40
0.2413530192
 40
0.2709518325
 40
0.300631999
 40
0.3304567339
 40
0.3604827947
 40
0.3755913108
 40
0.3907670901
 40
0.4213254826
 40
0.4521919517
 40
0.4677490961
 40
0.4833864435
 40
0.5148885409
 40
0.5307593952
 40
0.5467035089
 40
0.5627174576
 40
0.5787975103
 40
0.5949390057
 40
0.6111368461
 40
0.6436710556
 40
0.6600038234
 40
0.676368975
 40
0.6927597062
 40
0.7091689542
 40
0.7255896943
 40
0.7420147636
 40
0.7584368496
 40
0.7748487862
 40
0.8076052989
 40
0.8239444646
 40
0.8402460806
 40
0.8565038946
 40
0.8727119335
 40
0.8888644501
 40
0.9049557398
 40
0.9369284571
 40
0.9528148589
 40
0.9686288652
 40
1.0
 40
1.0
 40
1.0
 40
1.0
 10
10.7578744677
 20
8.2476954676
 30
0.0
 10
10.7578745757
 20
8.2528748996
 30
0.0
 10
10.7582545064
 20
8.2606335121
 30
0.0
 10
10.7595266422
 20
8.2708674683
 30
0.0
 10
10.7612938413
 20
8.280924445
 30
0.0
 10
10.7644275927
 20
8.2932219072
 30
0.0
 10
10.7687845521
 20
8.3050819148
 30
0.0
 10
10.7729645429
 20
8.314201111
 30
0.0
 10
10.7775822506
 20
8.3230296632
 30
0.0
 10
10.7841842347
 20
8.333555922
 30
0.0
 10
10.7918427184
 20
8.343309385
 30
0.0
 10
10.7985435436
 20
8.350575935
 30
0.0
 10
10.8056145249
 20
8.3574731122
 30
0.0
 10
10.8151348124
 20
8.3653882293
 30
0.0
 10
10.827524978
 20
8.3736460338
 30
0.0
 10
10.8407754393
 20
8.3805926011
 30
0.0
 10
10.8524162868
 20
8.3852223968
 30
0.0
 10
10.8620264236
 20
8.3882096941
 30
0.0
 10
10.8718632711
 20
8.3907223584
 30
0.0
 10
10.8844714176
 20
8.3929333133
 30
0.0
 10
10.8973005491
 20
8.3938710981
 30
0.0
 10
10.907656216
 20
8.3938603818
 30
0.0
 10
10.9181043789
 20
8.3933348534
 30
0.0
 10
10.9285541173
 20
8.3920373236
 30
0.0
 10
10.938917085
 20
8.3899837808
 30
0.0
 10
10.9466632024
 20
8.3880608153
 30
0.0
 10
10.954342597
 20
8.3857627693
 30
0.0
 10
10.9619359389
 20
8.3830937042
 30
0.0
 10
10.9694245855
 20
8.3800604561
 30
0.0
 10
10.9792567861
 20
8.3755340275
 30
0.0
 10
10.9887910734
 20
8.3703102069
 30
0.0
 10
10.9979537158
 20
8.3644363585
 30
0.0
 10
11.0046392928
 20
8.3597035863
 30
0.0
 10
11.0111115098
 20
8.3546626521
 30
0.0
 10
11.0173542486
 20
8.3493257748
 30
0.0
 10
11.0233509809
 20
8.343705519
 30
0.0
 10
11.0290872514
 20
8.3378167855
 30
0.0
 10
11.0345488386
 20
8.3316740424
 30
0.0
 10
11.0414394786
 20
8.3231722853
 30
0.0
 10
11.0477347081
 20
8.3142186884
 30
0.0
 10
11.0533810696
 20
8.3048818419
 30
0.0
 10
11.057278285
 20
8.2977132115
 30
0.0
 10
11.0608311818
 20
8.2903923549
 30
0.0
 10
11.0640304927
 20
8.2829372577
 30
0.0
 10
11.0668697591
 20
8.2753671385
 30
0.0
 10
11.0701593398
 20
8.2651701796
 30
0.0
 10
11.0727147291
 20
8.2547940347
 30
0.0
 10
11.0745099272
 20
8.2443224639
 30
0.0
 10
11.0757869453
 20
8.2338767992
 30
0.0
 10
11.0761765317
 20
8.2259994595
 30
0.0
 10
11.0761766499
 20
8.2207666518
 30
0.0
  0
SPLINE
  5
2EE
100
AcDbEntity
  8
0
100
AcDbSpline
 62
7
  6
CONTINUOUS
 70
0
 71
3
 72
59
 73
55
 74
0
 42
0.0000001
 43
0.0000001
 44
0.0000000001
 40
0.0
 40
0.0
 40
0.0
 40
0.0
 40
0.0312933912
 40
0.0470051607
 40
0.0627505931
 40
0.0785298576
 40
0.0943431212
 40
0.1101892587
 40
0.1260657201
 40
0.1578897329
 40
0.1738404341
 40
0.1898100501
 40
0.2217840878
 40
0.253792059
 40
0.2698037743
 40
0.285812874
 40
0.3018156403
 40
0.3178083847
 40
0.3337876153
 40
0.34974989
 40
0.3656919384
 40
0.3816107659
 40
0.3975035069
 40
0.4133676001
 40
0.4449921603
 40
0.4764786728
 40
0.4921716568
 40
0.5078272134
 40
0.5234450648
 40
0.5390253053
 40
0.554568483
 40
0.5700753712
 40
0.5855471686
 40
0.6009854438
 40
0.6163919561
 40
0.6317688982
 40
0.6624338107
 40
0.6930124274
 40
0.7082823377
 40
0.723540463
 40
0.7387902767
 40
0.7540353394
 40
0.7845155781
 40
0.8150205883
 40
0.830296371
 40
0.8455886936
 40
0.8609009075
 40
0.8762360632
 40
0.9069757575
 40
0.922394336
 40
0.9378453212
 40
0.9533320662
 40
0.9688571643
 40
1.0
 40
1.0
 40
1.0
 40
1.0
 10
10.687874464
 20
8.2476954993
 30
0.0
 10
10.6878745601
 20
8.2401820133
 30
0.0
 10
10.6884313689
 20
8.228886248
 30
0.0
 10
10.6902622577
 20
8.2139277345
 30
0.0
 10
10.6921823918
 20
8.2027452249
 30
0.0
 10
10.6946407087
 20
8.1916441764
 30
0.0
 10
10.6976315003
 20
8.1806495094
 30
0.0
 10
10.7011472082
 20
8.1697864769
 30
0.0
 10
10.7065246002
 20
8.1555035174
 30
0.0
 10
10.7129151876
 20
8.1415919656
 30
0.0
 10
10.7202597568
 20
8.1281595832
 30
0.0
 10
10.7282393105
 20
8.1150514738
 30
0.0
 10
10.7393507511
 20
8.0993624842
 30
0.0
 10
10.7518676003
 20
8.084756756
 30
0.0
 10
10.7626554983
 20
8.0737979441
 30
0.0
 10
10.7711176417
 20
8.0659595772
 30
0.0
 10
10.7799279107
 20
8.0585220649
 30
0.0
 10
10.7890664209
 20
8.0515033913
 30
0.0
 10
10.7985117817
 20
8.0449204594
 30
0.0
 10
10.8082413576
 20
8.0387881278
 30
0.0
 10
10.8182330162
 20
8.0331220293
 30
0.0
 10
10.8284630765
 20
8.0279355886
 30
0.0
 10
10.8389076392
 20
8.0232407024
 30
0.0
 10
10.8530701973
 20
8.0176600025
 30
0.0
 10
10.871187811
 20
8.0119634135
 30
0.0
 10
10.8897270289
 20
8.0080302724
 30
0.0
 10
10.9046780435
 20
8.005975524
 30
0.0
 10
10.9159156727
 20
8.0049849631
 30
0.0
 10
10.927161015
 20
8.0045453956
 30
0.0
 10
10.938387512
 20
8.0046594509
 30
0.0
 10
10.9495679956
 20
8.0053279052
 30
0.0
 10
10.9606755546
 20
8.006548827
 30
0.0
 10
10.9716831112
 20
8.0083213109
 30
0.0
 10
10.9825637111
 20
8.0106413452
 30
0.0
 10
10.9932912177
 20
8.0135034885
 30
0.0
 10
11.0073387154
 20
8.018030611
 30
0.0
 10
11.0243964773
 20
8.0250115575
 30
0.0
 10
11.0406199064
 20
8.0337051373
 30
0.0
 10
11.052977342
 20
8.0416242961
 30
0.0
 10
11.0619136864
 20
8.0480321669
 30
0.0
 10
11.0704992254
 20
8.0548934197
 30
0.0
 10
11.0814464704
 20
8.0646223181
 30
0.0
 10
11.0941575825
 20
8.0778406319
 30
0.0
 10
11.1054226067
 20
8.0923201977
 30
0.0
 10
11.1135005197
 20
8.1045647447
 30
0.0
 10
11.1190831266
 20
8.1140670581
 30
0.0
 10
11.1241735044
 20
8.1238580502
 30
0.0
 10
11.1302914062
 20
8.1372727143
 30
0.0
 10
11.1353746244
 20
8.1511673865
 30
0.0
 10
11.1393858248
 20
8.16541032
 30
0.0
 10
11.1418582979
 20
8.1762673633
 30
0.0
 10
11.143786492
 20
8.1872601671
 30
0.0
 10
11.1456263192
 20
8.2020738092
 30
0.0
 10
11.1461765678
 20
8.2132892948
 30
0.0
 10
11.1461766565
 20
8.2207666327
 30
0.0
  0
SPLINE
  5
2EF
100
AcDbEntity
  8
0
100
AcDbSpline
 62
7
  6
CONTINUOUS
 70
0
 71
3
 72
55
 73
51
 74
0
 42
0.0000001
 43
0.0000001
 44
0.0000000001
 40
0.0
 40
0.0
 40
0.0
 40
0.0
 40
0.0310511431
 40
0.046469542
 40
0.0618068656
 40
0.0922439947
 40
0.1224116362
 40
0.1374118855
 40
0.1523601539
 40
0.1821187326
 40
0.2117577038
 40
0.226557911
 40
0.2413530206
 40
0.2709518339
 40
0.3006320003
 40
0.3304567348
 40
0.360482795
 40
0.3755913109
 40
0.3907670899
 40
0.4213254823
 40
0.4521919519
 40
0.467749097
 40
0.4833864454
 40
0.5148885451
 40
0.5307594002
 40
0.5467035145
 40
0.562717463
 40
0.5787975149
 40
0.5949390091
 40
0.6111368482
 40
0.6436710552
 40
0.6600038223
 40
0.6763689733
 40
0.6927597044
 40
0.7091689526
 40
0.725589693
 40
0.7420147626
 40
0.758436849
 40
0.774848786
 40
0.807605299
 40
0.8239444644
 40
0.8402460798
 40
0.8565038931
 40
0.8727119311
 40
0.8888644466
 40
0.9049557354
 40
0.9369284522
 40
0.9528148548
 40
0.9686288622
 40
1.0
 40
1.0
 40
1.0
 40
1.0
 10
11.0761766518
 20
8.2207667631
 30
0.0
 10
11.0761765438
 20
8.215587331
 30
0.0
 10
11.075796613
 20
8.2078287186
 30
0.0
 10
11.0745244772
 20
8.1975947625
 30
0.0
 10
11.0727572782
 20
8.1875377858
 30
0.0
 10
11.0696235268
 20
8.1752403236
 30
0.0
 10
11.0652665673
 20
8.1633803158
 30
0.0
 10
11.0610865765
 20
8.1542611196
 30
0.0
 10
11.0564688687
 20
8.1454325672
 30
0.0
 10
11.0498668845
 20
8.1349063084
 30
0.0
 10
11.0422084007
 20
8.1251528453
 30
0.0
 10
11.0355075754
 20
8.1178862952
 30
0.0
 10
11.028436594
 20
8.110989118
 30
0.0
 10
11.0189163065
 20
8.103074001
 30
0.0
 10
11.006526141
 20
8.0948161966
 30
0.0
 10
10.9932756798
 20
8.0878696294
 30
0.0
 10
10.9816348325
 20
8.0832398338
 30
0.0
 10
10.9720246959
 20
8.0802525365
 30
0.0
 10
10.9621878485
 20
8.0777398723
 30
0.0
 10
10.949579702
 20
8.0755289174
 30
0.0
 10
10.9367505703
 20
8.0745911325
 30
0.0
 10
10.926394903
 20
8.0746018488
 30
0.0
 10
10.9159467395
 20
8.0751273774
 30
0.0
 10
10.9054970003
 20
8.0764249073
 30
0.0
 10
10.8951340321
 20
8.0784784504
 30
0.0
 10
10.8873879146
 20
8.0804014161
 30
0.0
 10
10.87970852
 20
8.0826994621
 30
0.0
 10
10.8721151785
 20
8.0853685271
 30
0.0
 10
10.8646265324
 20
8.0884017752
 30
0.0
 10
10.8547943327
 20
8.0929282036
 30
0.0
 10
10.845260046
 20
8.0981520237
 30
0.0
 10
10.8360974042
 20
8.1040258719
 30
0.0
 10
10.8294118273
 20
8.1087586439
 30
0.0
 10
10.8229396103
 20
8.1137995779
 30
0.0
 10
10.8166968715
 20
8.1191364553
 30
0.0
 10
10.8107001391
 20
8.1247567111
 30
0.0
 10
10.8049638685
 20
8.1306454448
 30
0.0
 10
10.7995022811
 20
8.136788188
 30
0.0
 10
10.792611641
 20
8.1452899452
 30
0.0
 10
10.7863164114
 20
8.1542435421
 30
0.0
 10
10.78067005
 20
8.1635803885
 30
0.0
 10
10.7767728346
 20
8.1707490187
 30
0.0
 10
10.773219938
 20
8.178069875
 30
0.0
 10
10.7700206273
 20
8.1855249717
 30
0.0
 10
10.7671813609
 20
8.1930950904
 30
0.0
 10
10.7638917803
 20
8.2032920489
 30
0.0
 10
10.7613363908
 20
8.2136681936
 30
0.0
 10
10.7595411926
 20
8.2241397646
 30
0.0
 10
10.7582641744
 20
8.2345854301
 30
0.0
 10
10.7578745878
 20
8.2424627705
 30
0.0
 10
10.7578744695
 20
8.2476955787
 30
0.0
  0
SPLINE
  5
2F0
100
AcDbEntity
  8
0
100
AcDbSpline
 62
7
  6
CONTINUOUS
 70
0
 71
3
 72
59
 73
55
 74
0
 42
0.0000001
 43
0.0000001
 44
0.0000000001
 40
0.0
 40
0.0
 40
0.0
 40
0.0
 40
0.0312933905
 40
0.0470051593
 40
0.0627505916
 40
0.0785298567
 40
0.0943431212
 40
0.11018926
 40
0.1260657227
 40
0.1578897383
 40
0.1738404407
 40
0.1898100577
 40
0.2217840973
 40
0.2537920702
 40
0.2698037859
 40
0.2858128856
 40
0.3018156519
 40
0.3178083963
 40
0.333787627
 40
0.3497499021
 40
0.3656919511
 40
0.3816107794
 40
0.3975035215
 40
0.4133676164
 40
0.4449921827
 40
0.4764787042
 40
0.4921716905
 40
0.507827246
 40
0.5234450933
 40
0.5390253273
 40
0.5545684969
 40
0.5700753773
 40
0.5855471689
 40
0.6009854404
 40
0.61639195
 40
0.6317688895
 40
0.6624337973
 40
0.6930124137
 40
0.7082823289
 40
0.7235404623
 40
0.7387902835
 40
0.7540353487
 40
0.784515582
 40
0.8150205946
 40
0.8302963816
 40
0.8455887087
 40
0.8609009271
 40
0.8762360868
 40
0.9069757879
 40
0.9223943692
 40
0.9378453536
 40
0.9533320928
 40
0.9688571808
 40
1.0
 40
1.0
 40
1.0
 40
1.0
 10
10.8119663421
 20
8.6390080195
 30
0.0
 10
10.811966246
 20
8.6465215053
 30
0.0
 10
10.8114094373
 20
8.6578172703
 30
0.0
 10
10.8095785485
 20
8.6727757834
 30
0.0
 10
10.8076584145
 20
8.6839582931
 30
0.0
 10
10.8052000976
 20
8.6950593419
 30
0.0
 10
10.8022093058
 20
8.7060540096
 30
0.0
 10
10.7986935975
 20
8.7169170428
 30
0.0
 10
10.793316205
 20
8.7312000035
 30
0.0
 10
10.7869256168
 20
8.7451115563
 30
0.0
 10
10.7795810469
 20
8.7585439398
 30
0.0
 10
10.7716014925
 20
8.7716520499
 30
0.0
 10
10.7604900508
 20
8.7873410401
 30
0.0
 10
10.7479732003
 20
8.8019467684
 30
0.0
 10
10.7371853019
 20
8.8129055806
 30
0.0
 10
10.728723158
 20
8.8207439473
 30
0.0
 10
10.7199128887
 20
8.8281814591
 30
0.0
 10
10.7107743784
 20
8.8352001326
 30
0.0
 10
10.7013290171
 20
8.8417830642
 30
0.0
 10
10.6915994407
 20
8.8479153955
 30
0.0
 10
10.6816077817
 20
8.8535814941
 30
0.0
 10
10.6713777205
 20
8.8587679343
 30
0.0
 10
10.6609331568
 20
8.8634628205
 30
0.0
 10
10.6467705966
 20
8.8690435208
 30
0.0
 10
10.6286529786
 20
8.8747401101
 30
0.0
 10
10.6101137561
 20
8.8786732491
 30
0.0
 10
10.5951627391
 20
8.8807279979
 30
0.0
 10
10.5839251104
 20
8.8817185575
 30
0.0
 10
10.5726797708
 20
8.8821581228
 30
0.0
 10
10.5614532783
 20
8.8820440678
 30
0.0
 10
10.5502728001
 20
8.8813756131
 30
0.0
 10
10.5391652464
 20
8.880154691
 30
0.0
 10
10.528157694
 20
8.8783822075
 30
0.0
 10
10.5172770969
 20
8.876062174
 30
0.0
 10
10.5065495923
 20
8.8732000314
 30
0.0
 10
10.4925020968
 20
8.8686729099
 30
0.0
 10
10.4754443365
 20
8.8616919644
 30
0.0
 10
10.4592209064
 20
8.8529983864
 30
0.0
 10
10.4468634686
 20
8.8450792254
 30
0.0
 10
10.4379271205
 20
8.8386713512
 30
0.0
 10
10.4293415779
 20
8.831810096
 30
0.0
 10
10.4183943312
 20
8.8220811978
 30
0.0
 10
10.4056832203
 20
8.8088628829
 30
0.0
 10
10.3944181966
 20
8.7943833164
 30
0.0
 10
10.386340282
 20
8.7821387672
 30
0.0
 10
10.3807576738
 20
8.7726364508
 30
0.0
 10
10.3756672959
 20
8.7628454554
 30
0.0
 10
10.3695493921
 20
8.7494307881
 30
0.0
 10
10.364466176
 20
8.7355361116
 30
0.0
 10
10.3604549752
 20
8.721293176
 30
0.0
 10
10.3579825042
 20
8.7104361331
 30
0.0
 10
10.3560543118
 20
8.6994433332
 30
0.0
 10
10.3542144844
 20
8.6846296989
 30
0.0
 10
10.3536642382
 20
8.6734142195
 30
0.0
 10
10.3536641496
 20
8.6659368856
 30
0.0
  0
SPLINE
  5
2F1
100
AcDbEntity
  8
0
100
AcDbSpline
 62
7
  6
CONTINUOUS
 70
0
 71
3
 72
55
 73
51
 74
0
 42
0.0000001
 43
0.0000001
 44
0.0000000001
 40
0.0
 40
0.0
 40
0.0
 40
0.0
 40
0.0310511433
 40
0.0464695423
 40
0.0618068661
 40
0.0922439949
 40
0.1224116361
 40
0.1374118853
 40
0.1523601534
 40
0.1821187318
 40
0.2117577027
 40
0.2265579098
 40
0.2413530192
 40
0.2709518325
 40
0.300631999
 40
0.3304567339
 40
0.3604827947
 40
0.3755913108
 40
0.3907670901
 40
0.4213254826
 40
0.4521919517
 40
0.4677490961
 40
0.4833864435
 40
0.5148885409
 40
0.5307593952
 40
0.5467035089
 40
0.5627174576
 40
0.5787975103
 40
0.5949390057
 40
0.6111368461
 40
0.6436710556
 40
0.6600038234
 40
0.676368975
 40
0.6927597062
 40
0.7091689542
 40
0.7255896943
 40
0.7420147636
 40
0.7584368496
 40
0.7748487862
 40
0.8076052989
 40
0.8239444646
 40
0.8402460806
 40
0.8565038946
 40
0.8727119335
 40
0.8888644501
 40
0.9049557398
 40
0.9369284571
 40
0.9528148589
 40
0.9686288652
 40
1.0
 40
1.0
 40
1.0
 40
1.0
 10
10.4236641544
 20
8.6659367556
 30
0.0
 10
10.4236642623
 20
8.6711161877
 30
0.0
 10
10.4240441931
 20
8.6788748002
 30
0.0
 10
10.4253163289
 20
8.6891087564
 30
0.0
 10
10.4270835279
 20
8.6991657331
 30
0.0
 10
10.4302172794
 20
8.7114631952
 30
0.0
 10
10.4345742388
 20
8.7233232029
 30
0.0
 10
10.4387542296
 20
8.7324423991
 30
0.0
 10
10.4433719373
 20
8.7412709513
 30
0.0
 10
10.4499739214
 20
8.7517972101
 30
0.0
 10
10.4576324051
 20
8.7615506731
 30
0.0
 10
10.4643332303
 20
8.7688172231
 30
0.0
 10
10.4714042116
 20
8.7757144003
 30
0.0
 10
10.4809244991
 20
8.7836295174
 30
0.0
 10
10.4933146647
 20
8.7918873219
 30
0.0
 10
10.5065651259
 20
8.7988338892
 30
0.0
 10
10.5182059735
 20
8.8034636849
 30
0.0
 10
10.5278161102
 20
8.8064509822
 30
0.0
 10
10.5376529578
 20
8.8089636465
 30
0.0
 10
10.5502611043
 20
8.8111746014
 30
0.0
 10
10.5630902358
 20
8.8121123862
 30
0.0
 10
10.5734459026
 20
8.8121016699
 30
0.0
 10
10.5838940655
 20
8.8115761415
 30
0.0
 10
10.594343804
 20
8.8102786117
 30
0.0
 10
10.6047067716
 20
8.8082250689
 30
0.0
 10
10.6124528891
 20
8.8063021034
 30
0.0
 10
10.6201322837
 20
8.8040040574
 30
0.0
 10
10.6277256256
 20
8.8013349923
 30
0.0
 10
10.6352142722
 20
8.7983017442
 30
0.0
 10
10.6450464728
 20
8.7937753156
 30
0.0
 10
10.6545807601
 20
8.788551495
 30
0.0
 10
10.6637434025
 20
8.7826776465
 30
0.0
 10
10.6704289795
 20
8.7779448744
 30
0.0
 10
10.6769011965
 20
8.7729039402
 30
0.0
 10
10.6831439352
 20
8.7675670629
 30
0.0
 10
10.6891406676
 20
8.7619468071
 30
0.0
 10
10.694876938
 20
8.7560580735
 30
0.0
 10
10.7003385253
 20
8.7499153305
 30
0.0
 10
10.7072291652
 20
8.7414135734
 30
0.0
 10
10.7135243948
 20
8.7324599765
 30
0.0
 10
10.7191707563
 20
8.72312313
 30
0.0
 10
10.7230679717
 20
8.7159544996
 30
0.0
 10
10.7266208685
 20
8.708633643
 30
0.0
 10
10.7298201793
 20
8.7011785458
 30
0.0
 10
10.7326594458
 20
8.6936084266
 30
0.0
 10
10.7359490265
 20
8.6834114677
 30
0.0
 10
10.7385044158
 20
8.6730353228
 30
0.0
 10
10.7402996138
 20
8.662563752
 30
0.0
 10
10.741576632
 20
8.6521180873
 30
0.0
 10
10.7419662184
 20
8.6442407476
 30
0.0
 10
10.7419663366
 20
8.6390079399
 30
0.0
  0
SPLINE
  5
2F2
100
AcDbEntity
  8
0
100
AcDbSpline
 62
7
  6
CONTINUOUS
 70
0
 71
3
 72
59
 73
55
 74
0
 42
0.0000001
 43
0.0000001
 44
0.0000000001
 40
0.0
 40
0.0
 40
0.0
 40
0.0
 40
0.0312933912
 40
0.0470051607
 40
0.0627505931
 40
0.0785298576
 40
0.0943431212
 40
0.1101892587
 40
0.1260657201
 40
0.1578897329
 40
0.1738404341
 40
0.1898100501
 40
0.2217840878
 40
0.253792059
 40
0.2698037743
 40
0.285812874
 40
0.3018156403
 40
0.3178083847
 40
0.3337876153
 40
0.34974989
 40
0.3656919384
 40
0.3816107659
 40
0.3975035069
 40
0.4133676001
 40
0.4449921603
 40
0.4764786728
 40
0.4921716568
 40
0.5078272134
 40
0.5234450648
 40
0.5390253053
 40
0.554568483
 40
0.5700753712
 40
0.5855471686
 40
0.6009854438
 40
0.6163919561
 40
0.6317688982
 40
0.6624338107
 40
0.6930124274
 40
0.7082823377
 40
0.723540463
 40
0.7387902767
 40
0.7540353394
 40
0.7845155781
 40
0.8150205883
 40
0.830296371
 40
0.8455886936
 40
0.8609009075
 40
0.8762360632
 40
0.9069757575
 40
0.922394336
 40
0.9378453212
 40
0.9533320662
 40
0.9688571643
 40
1.0
 40
1.0
 40
1.0
 40
1.0
 10
10.3536641507
 20
8.6659367874
 30
0.0
 10
10.3536642468
 20
8.6584233014
 30
0.0
 10
10.3542210556
 20
8.6471275361
 30
0.0
 10
10.3560519444
 20
8.6321690226
 30
0.0
 10
10.3579720784
 20
8.6209865129
 30
0.0
 10
10.3604303953
 20
8.6098854645
 30
0.0
 10
10.363421187
 20
8.5988907975
 30
0.0
 10
10.3669368949
 20
8.588027765
 30
0.0
 10
10.3723142869
 20
8.5737448055
 30
0.0
 10
10.3787048743
 20
8.5598332537
 30
0.0
 10
10.3860494435
 20
8.5464008712
 30
0.0
 10
10.3940289972
 20
8.5332927619
 30
0.0
 10
10.4051404378
 20
8.5176037723
 30
0.0
 10
10.417657287
 20
8.5029980441
 30
0.0
 10
10.4284451849
 20
8.4920392322
 30
0.0
 10
10.4369073284
 20
8.4842008653
 30
0.0
 10
10.4457175973
 20
8.4767633529
 30
0.0
 10
10.4548561075
 20
8.4697446794
 30
0.0
 10
10.4643014683
 20
8.4631617475
 30
0.0
 10
10.4740310443
 20
8.4570294158
 30
0.0
 10
10.4840227029
 20
8.4513633174
 30
0.0
 10
10.4942527632
 20
8.4461768767
 30
0.0
 10
10.5046973259
 20
8.4414819905
 30
0.0
 10
10.518859884
 20
8.4359012906
 30
0.0
 10
10.5369774977
 20
8.4302047016
 30
0.0
 10
10.5555167155
 20
8.4262715605
 30
0.0
 10
10.5704677302
 20
8.4242168121
 30
0.0
 10
10.5817053594
 20
8.4232262512
 30
0.0
 10
10.5929507017
 20
8.4227866836
 30
0.0
 10
10.6041771987
 20
8.4229007389
 30
0.0
 10
10.6153576823
 20
8.4235691933
 30
0.0
 10
10.6264652412
 20
8.4247901151
 30
0.0
 10
10.6374727978
 20
8.426562599
 30
0.0
 10
10.6483533978
 20
8.4288826333
 30
0.0
 10
10.6590809044
 20
8.4317447766
 30
0.0
 10
10.6731284021
 20
8.4362718991
 30
0.0
 10
10.690186164
 20
8.4432528456
 30
0.0
 10
10.7064095931
 20
8.4519464254
 30
0.0
 10
10.7187670286
 20
8.4598655841
 30
0.0
 10
10.7277033731
 20
8.466273455
 30
0.0
 10
10.7362889121
 20
8.4731347077
 30
0.0
 10
10.7472361571
 20
8.4828636062
 30
0.0
 10
10.7599472692
 20
8.49608192
 30
0.0
 10
10.7712122934
 20
8.5105614857
 30
0.0
 10
10.7792902064
 20
8.5228060328
 30
0.0
 10
10.7848728133
 20
8.5323083462
 30
0.0
 10
10.789963191
 20
8.5420993382
 30
0.0
 10
10.7960810929
 20
8.5555140023
 30
0.0
 10
10.8011643111
 20
8.5694086746
 30
0.0
 10
10.8051755114
 20
8.5836516081
 30
0.0
 10
10.8076479845
 20
8.5945086514
 30
0.0
 10
10.8095761786
 20
8.6055014552
 30
0.0
 10
10.8114160058
 20
8.6203150973
 30
0.0
 10
10.8119662545
 20
8.6315305829
 30
0.0
 10
10.8119663432
 20
8.6390079208
 30
0.0
  0
SPLINE
  5
2F3
100
AcDbEntity
  8
0
100
AcDbSpline
 62
7
  6
CONTINUOUS
 70
0
 71
3
 72
55
 73
51
 74
0
 42
0.0000001
 43
0.0000001
 44
0.0000000001
 40
0.0
 40
0.0
 40
0.0
 40
0.0
 40
0.0310511431
 40
0.046469542
 40
0.0618068656
 40
0.0922439947
 40
0.1224116362
 40
0.1374118855
 40
0.1523601539
 40
0.1821187326
 40
0.2117577038
 40
0.226557911
 40
0.2413530206
 40
0.2709518339
 40
0.3006320003
 40
0.3304567348
 40
0.360482795
 40
0.3755913109
 40
0.3907670899
 40
0.4213254823
 40
0.4521919519
 40
0.467749097
 40
0.4833864454
 40
0.5148885451
 40
0.5307594002
 40
0.5467035145
 40
0.562717463
 40
0.5787975149
 40
0.5949390091
 40
0.6111368482
 40
0.6436710552
 40
0.6600038223
 40
0.6763689733
 40
0.6927597044
 40
0.7091689526
 40
0.725589693
 40
0.7420147626
 40
0.758436849
 40
0.774848786
 40
0.807605299
 40
0.8239444644
 40
0.8402460798
 40
0.8565038931
 40
0.8727119311
 40
0.8888644466
 40
0.9049557354
 40
0.9369284522
 40
0.9528148548
 40
0.9686288622
 40
1.0
 40
1.0
 40
1.0
 40
1.0
 10
10.7419663384
 20
8.6390080512
 30
0.0
 10
10.7419662304
 20
8.6338286191
 30
0.0
 10
10.7415862997
 20
8.6260700067
 30
0.0
 10
10.7403141639
 20
8.6158360506
 30
0.0
 10
10.7385469649
 20
8.6057790739
 30
0.0
 10
10.7354132135
 20
8.5934816117
 30
0.0
 10
10.731056254
 20
8.5816216039
 30
0.0
 10
10.7268762631
 20
8.5725024076
 30
0.0
 10
10.7222585554
 20
8.5636738553
 30
0.0
 10
10.7156565712
 20
8.5531475964
 30
0.0
 10
10.7079980874
 20
8.5433941334
 30
0.0
 10
10.7012972621
 20
8.5361275833
 30
0.0
 10
10.6942262807
 20
8.5292304061
 30
0.0
 10
10.6847059932
 20
8.5213152891
 30
0.0
 10
10.6723158276
 20
8.5130574847
 30
0.0
 10
10.6590653665
 20
8.5061109175
 30
0.0
 10
10.6474245191
 20
8.5014811219
 30
0.0
 10
10.6378143826
 20
8.4984938246
 30
0.0
 10
10.6279775351
 20
8.4959811604
 30
0.0
 10
10.6153693886
 20
8.4937702055
 30
0.0
 10
10.602540257
 20
8.4928324206
 30
0.0
 10
10.5921845897
 20
8.4928431369
 30
0.0
 10
10.5817364261
 20
8.4933686655
 30
0.0
 10
10.571286687
 20
8.4946661954
 30
0.0
 10
10.5609237188
 20
8.4967197385
 30
0.0
 10
10.5531776012
 20
8.4986427042
 30
0.0
 10
10.5454982067
 20
8.5009407502
 30
0.0
 10
10.5379048652
 20
8.5036098152
 30
0.0
 10
10.5304162191
 20
8.5066430633
 30
0.0
 10
10.5205840194
 20
8.5111694916
 30
0.0
 10
10.5110497327
 20
8.5163933118
 30
0.0
 10
10.5018870908
 20
8.5222671599
 30
0.0
 10
10.495201514
 20
8.5269999319
 30
0.0
 10
10.488729297
 20
8.532040866
 30
0.0
 10
10.4824865582
 20
8.5373777433
 30
0.0
 10
10.4764898257
 20
8.5429979992
 30
0.0
 10
10.4707535551
 20
8.5488867329
 30
0.0
 10
10.4652919677
 20
8.555029476
 30
0.0
 10
10.4584013277
 20
8.5635312333
 30
0.0
 10
10.4521060981
 20
8.5724848302
 30
0.0
 10
10.4464597367
 20
8.5818216766
 30
0.0
 10
10.4425625213
 20
8.5889903068
 30
0.0
 10
10.4390096247
 20
8.596311163
 30
0.0
 10
10.435810314
 20
8.6037662598
 30
0.0
 10
10.4329710476
 20
8.6113363785
 30
0.0
 10
10.4296814669
 20
8.621533337
 30
0.0
 10
10.4271260775
 20
8.6319094817
 30
0.0
 10
10.4253308793
 20
8.6423810527
 30
0.0
 10
10.424053861
 20
8.6528267182
 30
0.0
 10
10.4236642744
 20
8.6607040586
 30
0.0
 10
10.4236641562
 20
8.6659368668
 30
0.0
  0
SPLINE
  5
2F4
100
AcDbEntity
  8
0
100
AcDbSpline
 62
7
  6
CONTINUOUS
 70
0
 71
3
 72
23
 73
19
 74
0
 42
0.0000001
 43
0.0000001
 44
0.0000000001
 40
0.0
 40
0.0
 40
0.0
 40
0.0
 40
0.0778909298
 40
0.1545461264
 40
0.2297410298
 40
0.3032905152
 40
0.375019799
 40
0.4447533346
 40
0.5123193126
 40
0.5775583849
 40
0.6403185563
 40
0.7004595847
 40
0.7578499876
 40
0.8123736705
 40
0.8639263481
 40
0.9124229745
 40
0.9577950418
 40
1.0
 40
1.0
 40
1.0
 40
1.0
 10
14.1250861634
 20
8.3659798807
 30
0.0
 10
14.1250861634
 20
8.3752543529
 30
0.0
 10
14.1249581252
 20
8.3936564409
 30
0.0
 10
14.1243740638
 20
8.4210064028
 30
0.0
 10
14.1234001173
 20
8.4478281012
 30
0.0
 10
14.1220395976
 20
8.4740457269
 30
0.0
 10
14.1202958943
 20
8.4995889856
 30
0.0
 10
14.1181744009
 20
8.5243887648
 30
0.0
 10
14.1156803156
 20
8.548377151
 30
0.0
 10
14.1128212352
 20
8.5714885082
 30
0.0
 10
14.1096044575
 20
8.5936600041
 30
0.0
 10
14.1060395983
 20
8.6148313109
 30
0.0
 10
14.1021358168
 20
8.6349448912
 30
0.0
 10
14.0979047048
 20
8.6539462053
 30
0.0
 10
14.093357199
 20
8.6717838174
 30
0.0
 10
14.0885066388
 20
8.6884099659
 30
0.0
 10
14.0833656528
 20
8.7037795038
 30
0.0
 10
14.0796181058
 20
8.7135158719
 30
0.0
 10
14.0776870516
 20
8.7181553881
 30
0.0
  0
SPLINE
  5
2F5
100
AcDbEntity
  8
0
100
AcDbSpline
 62
7
  6
CONTINUOUS
 70
0
 71
3
 72
9
 73
5
 74
0
 42
0.0000001
 43
0.0000001
 44
0.0000000001
 40
0.0
 40
0.0
 40
0.0
 40
0.0
 40
0.5205923148
 40
1.0
 40
1.0
 40
1.0
 40
1.0
 10
13.4647595418
 20
7.6553707123
 30
0.0
 10
13.4667093285
 20
7.6526141384
 30
0.0
 10
13.4706512005
 20
7.6474538123
 30
0.0
 10
13.4750455467
 20
7.6426668666
 30
0.0
 10
13.4772718979
 20
7.6404963166
 30
0.0
  0
SPLINE
  5
2F6
100
AcDbEntity
  8
0
100
AcDbSpline
 62
7
  6
CONTINUOUS
 70
0
 71
3
 72
9
 73
5
 74
0
 42
0.0000001
 43
0.0000001
 44
0.0000000001
 40
0.0
 40
0.0
 40
0.0
 40
0.0
 40
0.5205923148
 40
1.0
 40
1.0
 40
1.0
 40
1.0
 10
14.0256073849
 20
8.8318583921
 30
0.0
 10
14.0236575982
 20
8.8346149661
 30
0.0
 10
14.0197157262
 20
8.8397752921
 30
0.0
 10
14.01532138
 20
8.8445622379
 30
0.0
 10
14.0130950288
 20
8.8467327878
 30
0.0
  0
SPLINE
  5
2F7
100
AcDbEntity
  8
0
100
AcDbSpline
 62
7
  6
CONTINUOUS
 70
0
 71
3
 72
22
 73
18
 74
0
 42
0.0000001
 43
0.0000001
 44
0.0000000001
 40
0.0
 40
0.0
 40
0.0
 40
0.0
 40
0.0799084401
 40
0.1579012148
 40
0.233848383
 40
0.3076238689
 40
0.3791082165
 40
0.4481923967
 40
0.5147795902
 40
0.5787957704
 40
0.6401912579
 40
0.6989492013
 40
0.7550891303
 40
0.8086695798
 40
0.9085597837
 40
0.9552384773
 40
1.0
 40
1.0
 40
1.0
 40
1.0
 10
13.6286915875
 20
8.873391257
 30
0.0
 10
13.6245145085
 20
8.8715123868
 30
0.0
 10
13.6162863735
 20
8.8677417206
 30
0.0
 10
13.6041908415
 20
8.8619646986
 30
0.0
 10
13.592514247
 20
8.8561305803
 30
0.0
 10
13.5812863733
 20
8.8502382797
 30
0.0
 10
13.5705371996
 20
8.8442865148
 30
0.0
 10
13.5602959347
 20
8.8382752286
 30
0.0
 10
13.5505910681
 20
8.8322041236
 30
0.0
 10
13.5414488736
 20
8.8260742852
 30
0.0
 10
13.5328930288
 20
8.819886828
 30
0.0
 10
13.5249438828
 20
8.8136439279
 30
0.0
 10
13.5176164713
 20
8.807347791
 30
0.0
 10
13.5088954817
 20
8.7990799618
 30
0.0
 10
13.5011950336
 20
8.7905332455
 30
0.0
 10
13.4946745298
 20
8.7817075216
 30
0.0
 10
13.4918499153
 20
8.7772864898
 30
0.0
 10
13.4905476968
 20
8.7750758936
 30
0.0
  0
SPLINE
  5
2F8
100
AcDbEntity
  8
0
100
AcDbSpline
 62
7
  6
CONTINUOUS
 70
0
 71
3
 72
22
 73
18
 74
0
 42
0.0000001
 43
0.0000001
 44
0.0000000001
 40
0.0
 40
0.0
 40
0.0
 40
0.0
 40
0.0799084401
 40
0.1579012148
 40
0.233848383
 40
0.3076238689
 40
0.3791082165
 40
0.4481923967
 40
0.5147795902
 40
0.5787957704
 40
0.6401912579
 40
0.6989492013
 40
0.7550891303
 40
0.8086695798
 40
0.9085597837
 40
0.9552384773
 40
1.0
 40
1.0
 40
1.0
 40
1.0
 10
13.8616753392
 20
7.6138378474
 30
0.0
 10
13.8658524182
 20
7.6157167176
 30
0.0
 10
13.8740805532
 20
7.6194873838
 30
0.0
 10
13.8861760852
 20
7.6252644058
 30
0.0
 10
13.8978526797
 20
7.6310985242
 30
0.0
 10
13.9090805534
 20
7.6369908247
 30
0.0
 10
13.9198297271
 20
7.6429425896
 30
0.0
 10
13.930070992
 20
7.6489538759
 30
0.0
 10
13.9397758586
 20
7.6550249808
 30
0.0
 10
13.9489180531
 20
7.6611548193
 30
0.0
 10
13.9574738979
 20
7.6673422765
 30
0.0
 10
13.9654230438
 20
7.6735851766
 30
0.0
 10
13.9727504554
 20
7.6798813134
 30
0.0
 10
13.981471445
 20
7.6881491426
 30
0.0
 10
13.9891718931
 20
7.696695859
 30
0.0
 10
13.9956923969
 20
7.7055215828
 30
0.0
 10
13.9985170114
 20
7.7099426147
 30
0.0
 10
13.9998192299
 20
7.7121532108
 30
0.0
  0
SPLINE
  5
2F9
100
AcDbEntity
  8
0
100
AcDbSpline
 62
7
  6
CONTINUOUS
 70
0
 71
3
 72
9
 73
5
 74
0
 42
0.0000001
 43
0.0000001
 44
0.0000000001
 40
0.0
 40
0.0
 40
0.0
 40
0.0
 40
0.4958149425
 40
1.0
 40
1.0
 40
1.0
 40
1.0
 10
13.4266006399
 20
7.7356278472
 30
0.0
 10
13.4322462933
 20
7.7220648148
 30
0.0
 10
13.4443854074
 20
7.6950191466
 30
0.0
 10
13.4577614558
 20
7.6685693717
 30
0.0
 10
13.4647595418
 20
7.6553707123
 30
0.0
  0
SPLINE
  5
2FA
100
AcDbEntity
  8
0
100
AcDbSpline
 62
7
  6
CONTINUOUS
 70
0
 71
3
 72
29
 73
25
 74
0
 42
0.0000001
 43
0.0000001
 44
0.0000000001
 40
0.0
 40
0.0
 40
0.0
 40
0.0
 40
0.0188531175
 40
0.0388812606
 40
0.0600728713
 40
0.0824109279
 40
0.1058719216
 40
0.1304289794
 40
0.1560501732
 40
0.1827003283
 40
0.2103412599
 40
0.2389310158
 40
0.2684259924
 40
0.2987791449
 40
0.361861407
 40
0.4277649699
 40
0.496047674
 40
0.566245104
 40
0.6378753186
 40
0.7104432731
 40
0.7834466007
 40
0.8563752655
 40
0.9287305205
 40
1.0
 40
1.0
 40
1.0
 40
1.0
 10
14.0090029564
 20
7.7277237665
 30
0.0
 10
14.0110913266
 20
7.7312646454
 30
0.0
 10
14.0152369409
 20
7.7386630153
 30
0.0
 10
14.0212046642
 20
7.750326131
 30
0.0
 10
14.0270997868
 20
7.7628709852
 30
0.0
 10
14.0329108483
 20
7.7762745604
 30
0.0
 10
14.0386277504
 20
7.7905122938
 30
0.0
 10
14.0442392862
 20
7.8055581844
 30
0.0
 10
14.0497354171
 20
7.8213844787
 30
0.0
 10
14.0551058289
 20
7.8379620484
 30
0.0
 10
14.0603403169
 20
7.8552603347
 30
0.0
 10
14.0654295562
 20
7.8732473378
 30
0.0
 10
14.0703636264
 20
7.8918899006
 30
0.0
 10
14.076806457
 20
7.9179095711
 30
0.0
 10
14.0843817921
 20
7.9518224299
 30
0.0
 10
14.0926059907
 20
7.994047401
 30
0.0
 10
14.1000147972
 20
8.037996947
 30
0.0
 10
14.1065528951
 20
8.0833459558
 30
0.0
 10
14.1121713611
 20
8.1297591835
 30
0.0
 10
14.1168284097
 20
8.1768934018
 30
0.0
 10
14.1204892155
 20
8.2243993243
 30
0.0
 10
14.1231271099
 20
8.2719266455
 30
0.0
 10
14.1247219721
 20
8.319121938
 30
0.0
 10
14.1250861634
 20
8.3504398317
 30
0.0
 10
14.1250861634
 20
8.3659798807
 30
0.0
  0
SPLINE
  5
2FB
100
AcDbEntity
  8
0
100
AcDbSpline
 62
7
  6
CONTINUOUS
 70
0
 71
3
 72
9
 73
5
 74
0
 42
0.0000001
 43
0.0000001
 44
0.0000000001
 40
0.0
 40
0.0
 40
0.0
 40
0.0
 40
0.4958149425
 40
1.0
 40
1.0
 40
1.0
 40
1.0
 10
14.0637662868
 20
8.7516012572
 30
0.0
 10
14.0581206334
 20
8.7651642897
 30
0.0
 10
14.0459815193
 20
8.7922099579
 30
0.0
 10
14.0326054709
 20
8.8186597328
 30
0.0
 10
14.0256073849
 20
8.8318583921
 30
0.0
  0
SPLINE
  5
2FC
100
AcDbEntity
  8
0
100
AcDbSpline
 62
7
  6
CONTINUOUS
 70
0
 71
3
 72
55
 73
51
 74
0
 42
0.0000001
 43
0.0000001
 44
0.0000000001
 40
0.0
 40
0.0
 40
0.0
 40
0.0
 40
0.0544123447
 40
0.1079484183
 40
0.1604479003
 40
0.2117787105
 40
0.2618156296
 40
0.3104329186
 40
0.3575080433
 40
0.40292739
 40
0.4465827721
 40
0.488374435
 40
0.5282093443
 40
0.5660055177
 40
0.6016900041
 40
0.635203758
 40
0.6665004892
 40
0.6955528981
 40
0.7092353073
 40
0.722356223
 40
0.7349190805
 40
0.7469290961
 40
0.7583942154
 40
0.7693256363
 40
0.779737491
 40
0.7896473772
 40
0.7990775638
 40
0.8080556597
 40
0.8166146475
 40
0.8247936107
 40
0.8326387664
 40
0.8402036041
 40
0.8475483059
 40
0.8547391544
 40
0.8618473587
 40
0.8689468151
 40
0.8761116401
 40
0.8834139002
 40
0.8909213
 40
0.8986954628
 40
0.9067913287
 40
0.915256983
 40
0.9241333066
 40
0.9334544808
 40
0.9432491107
 40
0.9535409324
 40
0.9643487436
 40
0.9756872113
 40
0.9875679609
 40
1.0
 40
1.0
 40
1.0
 40
1.0
 10
13.8377972605
 20
8.0884800933
 30
0.0
 10
13.8377972605
 20
8.079089867
 30
0.0
 10
13.8379284929
 20
8.0604603437
 30
0.0
 10
13.8385272508
 20
8.0327765024
 30
0.0
 10
13.839525678
 20
8.005636223
 30
0.0
 10
13.8409203107
 20
7.979118041
 30
0.0
 10
13.8427075559
 20
7.9532948626
 30
0.0
 10
13.8448817924
 20
7.9282383802
 30
0.0
 10
13.8474375048
 20
7.9040189545
 30
0.0
 10
13.850366755
 20
7.880704489
 30
0.0
 10
13.853661819
 20
7.8583599648
 30
0.0
 10
13.8573126639
 20
7.8370477051
 30
0.0
 10
13.8613095889
 20
7.8168270829
 30
0.0
 10
13.8656405089
 20
7.7977542773
 30
0.0
 10
13.8702938593
 20
7.7798821733
 30
0.0
 10
13.875255706
 20
7.7632598073
 30
0.0
 10
13.8805129266
 20
7.7479332342
 30
0.0
 10
13.8852166314
 20
7.7360480539
 30
0.0
 10
13.8891340342
 20
7.7272393555
 30
0.0
 10
13.8920777218
 20
7.7211153819
 30
0.0
 10
13.8950838635
 20
7.7153452651
 30
0.0
 10
13.8981506223
 20
7.7099330754
 30
0.0
 10
13.901276003
 20
7.7048825592
 30
0.0
 10
13.9044577833
 20
7.7001969782
 30
0.0
 10
13.9076939128
 20
7.695879476
 30
0.0
 10
13.9109825356
 20
7.6919331799
 30
0.0
 10
13.914321715
 20
7.688360893
 30
0.0
 10
13.9177093271
 20
7.6851649457
 30
0.0
 10
13.9211434554
 20
7.6823477104
 30
0.0
 10
13.9246223333
 20
7.6799117825
 30
0.0
 10
13.9281439338
 20
7.6778595225
 30
0.0
 10
13.9317058859
 20
7.676192883
 30
0.0
 10
13.9353056728
 20
7.6749139821
 30
0.0
 10
13.9389404078
 20
7.6740250969
 30
0.0
 10
13.942606575
 20
7.673527675
 30
0.0
 10
13.9463003511
 20
7.6734221099
 30
0.0
 10
13.950017935
 20
7.6737083732
 30
0.0
 10
13.9537556051
 20
7.6743860648
 30
0.0
 10
13.9575099873
 20
7.6754537043
 30
0.0
 10
13.9612782376
 20
7.6769092396
 30
0.0
 10
13.9650578134
 20
7.6787508258
 30
0.0
 10
13.9688462263
 20
7.6809768058
 30
0.0
 10
13.9726412603
 20
7.6835850107
 30
0.0
 10
13.9764408
 20
7.6865731031
 30
0.0
 10
13.980242582
 20
7.6899389177
 30
0.0
 10
13.9840441189
 20
7.6936803068
 30
0.0
 10
13.9878430997
 20
7.6977945569
 30
0.0
 10
13.9916371981
 20
7.702278705
 30
0.0
 10
13.9954238609
 20
7.70712968
 30
0.0
 10
13.9978854649
 20
7.71052869
 30
0.0
 10
13.9991157509
 20
7.712286361
 30
0.0
  0
SPLINE
  5
2FD
100
AcDbEntity
  8
0
100
AcDbSpline
 62
7
  6
CONTINUOUS
 70
0
 71
3
 72
9
 73
5
 74
0
 42
0.0000001
 43
0.0000001
 44
0.0000000001
 40
0.0
 40
0.0
 40
0.0
 40
0.0
 40
0.4862521719
 40
1.0
 40
1.0
 40
1.0
 40
1.0
 10
13.9991157509
 20
7.712286361
 30
0.0
 10
14.0008199573
 20
7.7147211073
 30
0.0
 10
14.0042135235
 20
7.7198066929
 30
0.0
 10
14.0074078079
 20
7.7250191562
 30
0.0
 10
14.0090029564
 20
7.7277237665
 30
0.0
  0
SPLINE
  5
2FE
100
AcDbEntity
  8
0
100
AcDbSpline
 62
7
  6
CONTINUOUS
 70
0
 71
3
 72
23
 73
19
 74
0
 42
0.0000001
 43
0.0000001
 44
0.0000000001
 40
0.0
 40
0.0
 40
0.0
 40
0.0
 40
0.0778908568
 40
0.1545459818
 40
0.2297408107
 40
0.3032902389
 40
0.3750194987
 40
0.4447530181
 40
0.5123189592
 40
0.5775579915
 40
0.6403181487
 40
0.7004591978
 40
0.757849655
 40
0.8123734003
 40
0.8639261203
 40
0.91242279
 40
0.9577949338
 40
1.0
 40
1.0
 40
1.0
 40
1.0
 10
13.3602001647
 20
8.1261566966
 30
0.0
 10
13.3602001647
 20
8.1171663326
 30
0.0
 10
13.3603242804
 20
8.099327962
 30
0.0
 10
13.3608904484
 20
8.0728158213
 30
0.0
 10
13.3618345566
 20
8.04681576
 30
0.0
 10
13.3631533955
 20
8.0214012618
 30
0.0
 10
13.3648436794
 20
7.9966404661
 30
0.0
 10
13.3669001785
 20
7.9726003728
 30
0.0
 10
13.3693178546
 20
7.9493468191
 30
0.0
 10
13.3720893439
 20
7.9269434283
 30
0.0
 10
13.3752075717
 20
7.9054511014
 30
0.0
 10
13.3786632185
 20
7.8849283141
 30
0.0
 10
13.3824474063
 20
7.8654308435
 30
0.0
 10
13.3865488954
 20
7.847011564
 30
0.0
 10
13.3909570839
 20
7.8297203396
 30
0.0
 10
13.3956590433
 20
7.8136034663
 30
0.0
 10
13.4006425311
 20
7.7987047013
 30
0.0
 10
13.4042752689
 20
7.7892665543
 30
0.0
 10
13.4061471644
 20
7.7847691417
 30
0.0
  0
SPLINE
  5
2FF
100
AcDbEntity
  8
0
100
AcDbSpline
 62
7
  6
CONTINUOUS
 70
0
 71
3
 72
29
 73
25
 74
0
 42
0.0000001
 43
0.0000001
 44
0.0000000001
 40
0.0
 40
0.0
 40
0.0
 40
0.0
 40
0.0712698239
 40
0.143625423
 40
0.2165544547
 40
0.2895581292
 40
0.3621263635
 40
0.4337568377
 40
0.503954508
 40
0.5722373394
 40
0.6381409356
 40
0.7012231831
 40
0.7315762992
 40
0.7610712064
 40
0.7896608523
 40
0.8173016423
 40
0.843951636
 40
0.8695726509
 40
0.8941295063
 40
0.9175902705
 40
0.9399280684
 40
0.96111939
 40
0.9811472176
 40
1.0
 40
1.0
 40
1.0
 40
1.0
 10
13.3602001647
 20
8.1261566966
 30
0.0
 10
13.3602001647
 20
8.1412209167
 30
0.0
 10
13.3605532089
 20
8.17157987
 30
0.0
 10
13.3620992537
 20
8.2173300663
 30
0.0
 10
13.3646564062
 20
8.2634021224
 30
0.0
 10
13.3682051571
 20
8.3094534199
 30
0.0
 10
13.3727196569
 20
8.3551443713
 30
0.0
 10
13.3781661433
 20
8.4001363867
 30
0.0
 10
13.3845041118
 20
8.4440967381
 30
0.0
 10
13.3916861309
 20
8.4867004329
 30
0.0
 10
13.3996585798
 20
8.5276323076
 30
0.0
 10
13.407002026
 20
8.5605065859
 30
0.0
 10
13.4132476353
 20
8.585729377
 30
0.0
 10
13.4180306639
 20
8.603800963
 30
0.0
 10
13.4229641084
 20
8.6212370411
 30
0.0
 10
13.4280383529
 20
8.6380054721
 30
0.0
 10
13.4332443589
 20
8.6540752406
 30
0.0
 10
13.4385722337
 20
8.6694167254
 30
0.0
 10
13.4440119792
 20
8.6840016879
 30
0.0
 10
13.4495538631
 20
8.6978032216
 30
0.0
 10
13.4551870201
 20
8.7107961202
 30
0.0
 10
13.4609016607
 20
8.7229565726
 30
0.0
 10
13.4666866756
 20
8.7342622669
 30
0.0
 10
13.4707053696
 20
8.74143389
 30
0.0
 10
13.4727298028
 20
8.7448662397
 30
0.0
  0
SPLINE
  5
300
100
AcDbEntity
  8
0
100
AcDbSpline
 62
7
  6
CONTINUOUS
 70
0
 71
3
 72
9
 73
5
 74
0
 42
0.0000001
 43
0.0000001
 44
0.0000000001
 40
0.0
 40
0.0
 40
0.0
 40
0.0
 40
0.5205923148
 40
1.0
 40
1.0
 40
1.0
 40
1.0
 10
13.8491629831
 20
7.6287122431
 30
0.0
 10
13.8511127698
 20
7.6259556692
 30
0.0
 10
13.8550546418
 20
7.6207953431
 30
0.0
 10
13.859448988
 20
7.6160083974
 30
0.0
 10
13.8616753392
 20
7.6138378474
 30
0.0
  0
SPLINE
  5
301
100
AcDbEntity
  8
0
100
AcDbSpline
 62
7
  6
CONTINUOUS
 70
0
 71
3
 72
24
 73
20
 74
0
 42
0.0000001
 43
0.0000001
 44
0.0000000001
 40
0.0
 40
0.0
 40
0.0
 40
0.0
 40
0.0431771177
 40
0.0867793563
 40
0.1312998578
 40
0.1773159958
 40
0.2254493522
 40
0.2763188561
 40
0.3304906466
 40
0.3884279116
 40
0.4504603878
 40
0.4830812137
 40
0.5167827622
 40
0.5874243016
 40
0.6623133642
 40
0.7412761281
 40
0.824069764
 40
0.9104125312
 40
1.0
 40
1.0
 40
1.0
 40
1.0
 10
14.0130950288
 20
8.8467327878
 30
0.0
 10
14.0130769634
 20
8.8435337285
 30
0.0
 10
14.0127417954
 20
8.8371009545
 30
0.0
 10
14.0112538375
 20
8.8274697895
 30
0.0
 10
14.0086883138
 20
8.8178472734
 30
0.0
 10
14.0049585574
 20
8.8082514779
 30
0.0
 10
13.9999899347
 20
8.7987013075
 30
0.0
 10
13.9937243484
 20
8.7892156595
 30
0.0
 10
13.9861220532
 20
8.7798119309
 30
0.0
 10
13.9771661234
 20
8.7705045237
 30
0.0
 10
13.9687258096
 20
8.7629674025
 30
0.0
 10
13.9613331646
 20
8.7569829625
 30
0.0
 10
13.9532542008
 20
8.7508395068
 30
0.0
 10
13.942344079
 20
8.7432567242
 30
0.0
 10
13.9282464852
 20
8.7344197915
 30
0.0
 10
13.9130245505
 20
8.7257097236
 30
0.0
 10
13.8967663631
 20
8.7171254037
 30
0.0
 10
13.8795631246
 20
8.7086635553
 30
0.0
 10
13.8677289155
 20
8.703195518
 30
0.0
 10
13.8616753392
 20
8.7004725904
 30
0.0
  0
SPLINE
  5
302
100
AcDbEntity
  8
0
100
AcDbSpline
 62
7
  6
CONTINUOUS
 70
0
 71
3
 72
21
 73
17
 74
0
 42
0.0000001
 43
0.0000001
 44
0.0000000001
 40
0.0
 40
0.0
 40
0.0
 40
0.0
 40
0.1231553579
 40
0.1848958394
 40
0.2467570542
 40
0.3087492493
 40
0.3708816145
 40
0.4331617231
 40
0.495593527
 40
0.5581779949
 40
0.6209127295
 40
0.6837916681
 40
0.7468067323
 40
0.8099475791
 40
0.8732024288
 40
1.0
 40
1.0
 40
1.0
 40
1.0
 10
13.8491629831
 20
8.6614261774
 30
0.0
 10
13.8522185088
 20
8.6380287233
 30
0.0
 10
13.8559398563
 20
8.6027762123
 30
0.0
 10
13.8588277245
 20
8.55558095
 30
0.0
 10
13.8598730537
 20
8.5200304873
 30
0.0
 10
13.8597144084
 20
8.4843895301
 30
0.0
 10
13.8582830408
 20
8.448695845
 30
0.0
 10
13.8555256833
 20
8.4129950918
 30
0.0
 10
13.8514119606
 20
8.3773376769
 30
0.0
 10
13.8459370076
 20
8.3417756908
 30
0.0
 10
13.8391197658
 20
8.306359559
 30
0.0
 10
13.8310036881
 20
8.2711342489
 30
0.0
 10
13.8216532534
 20
8.2361366539
 30
0.0
 10
13.8111460569
 20
8.2013940343
 30
0.0
 10
13.7957000658
 20
8.155402111
 30
0.0
 10
13.7826652605
 20
8.121379135
 30
0.0
 10
13.7734531383
 20
8.0988995159
 30
0.0
  0
SPLINE
  5
303
100
AcDbEntity
  8
0
100
AcDbSpline
 62
7
  6
CONTINUOUS
 70
0
 71
3
 72
21
 73
17
 74
0
 42
0.0000001
 43
0.0000001
 44
0.0000000001
 40
0.0
 40
0.0
 40
0.0
 40
0.0
 40
0.1267975712
 40
0.1900524209
 40
0.2531932678
 40
0.316208332
 40
0.3790872705
 40
0.4418220052
 40
0.504406473
 40
0.566838277
 40
0.6291183856
 40
0.6912507508
 40
0.7532429458
 40
0.8151041606
 40
0.8768446421
 40
1.0
 40
1.0
 40
1.0
 40
1.0
 10
13.4647595418
 20
8.6880846466
 30
0.0
 10
13.4555474196
 20
8.6656050275
 30
0.0
 10
13.4425126143
 20
8.6315820515
 30
0.0
 10
13.4270666232
 20
8.5855901282
 30
0.0
 10
13.4165594267
 20
8.5508475086
 30
0.0
 10
13.407208992
 20
8.5158499136
 30
0.0
 10
13.3990929143
 20
8.4806246035
 30
0.0
 10
13.3922756725
 20
8.4452084717
 30
0.0
 10
13.3868007195
 20
8.4096464856
 30
0.0
 10
13.3826869968
 20
8.3739890707
 30
0.0
 10
13.3799296393
 20
8.3382883175
 30
0.0
 10
13.3784982717
 20
8.3025946324
 30
0.0
 10
13.3783396264
 20
8.2669536752
 30
0.0
 10
13.3793849556
 20
8.2314032125
 30
0.0
 10
13.3822728238
 20
8.1842079502
 30
0.0
 10
13.3859941713
 20
8.1489554392
 30
0.0
 10
13.389049697
 20
8.1255579851
 30
0.0
  0
SPLINE
  5
304
100
AcDbEntity
  8
0
100
AcDbSpline
 62
7
  6
CONTINUOUS
 70
0
 71
3
 72
23
 73
19
 74
0
 42
0.0000001
 43
0.0000001
 44
0.0000000001
 40
0.0
 40
0.0
 40
0.0
 40
0.0
 40
0.0680186763
 40
0.1353312828
 40
0.2018816198
 40
0.2676253762
 40
0.3325283016
 40
0.3965735759
 40
0.459765266
 40
0.5221303294
 40
0.5837192882
 40
0.6446020423
 40
0.704862823
 40
0.7645945054
 40
0.8238901325
 40
0.8828377879
 40
0.941518953
 40
1.0
 40
1.0
 40
1.0
 40
1.0
 10
13.7734531383
 20
8.0449787072
 30
0.0
 10
13.7780432821
 20
8.0363215195
 30
0.0
 10
13.786957914
 20
8.0189800717
 30
0.0
 10
13.7995108722
 20
7.9927407908
 30
0.0
 10
13.8110885752
 20
7.9664131641
 30
0.0
 10
13.8215990307
 20
7.9400137244
 30
0.0
 10
13.8309548775
 20
7.9135646038
 30
0.0
 10
13.8390781202
 20
7.8870944164
 30
0.0
 10
13.8459038737
 20
7.8606366934
 30
0.0
 10
13.8513878499
 20
7.8342291846
 30
0.0
 10
13.8555101861
 20
7.807911371
 30
0.0
 10
13.8582749689
 20
7.7817213096
 30
0.0
 10
13.859712021
 20
7.7556933351
 30
0.0
 10
13.8598744034
 20
7.7298556136
 30
0.0
 10
13.8588311016
 20
7.7042287754
 30
0.0
 10
13.8566635808
 20
7.6788253788
 30
0.0
 10
13.8534605808
 20
7.653651425
 30
0.0
 10
13.8506905702
 20
7.6369973923
 30
0.0
 10
13.8491629831
 20
7.6287122431
 30
0.0
  0
SPLINE
  5
305
100
AcDbEntity
  8
0
100
AcDbSpline
 62
7
  6
CONTINUOUS
 70
0
 71
3
 72
21
 73
17
 74
0
 42
0.0000001
 43
0.0000001
 44
0.0000000001
 40
0.0
 40
0.0
 40
0.0
 40
0.0
 40
0.1192202926
 40
0.179112143
 40
0.2392507707
 40
0.2996927785
 40
0.3604973876
 40
0.4217266916
 40
0.4834433215
 40
0.5457059739
 40
0.608568799
 40
0.6720755103
 40
0.7362603998
 40
0.8011440682
 40
0.8667355047
 40
1.0
 40
1.0
 40
1.0
 40
1.0
 10
13.389049697
 20
8.0716371764
 30
0.0
 10
13.3865760913
 20
8.0582211213
 30
0.0
 10
13.3834308125
 20
8.0379513467
 30
0.0
 10
13.3805561979
 20
8.0107216596
 30
0.0
 10
13.3790988561
 20
7.9901173679
 30
0.0
 10
13.378389469
 20
7.9693691223
 30
0.0
 10
13.3784706821
 20
7.9484836155
 30
0.0
 10
13.3793788595
 20
7.92747139
 30
0.0
 10
13.38114559
 20
7.9063462351
 30
0.0
 10
13.3837899706
 20
7.8851244307
 30
0.0
 10
13.3873257947
 20
7.8638252202
 30
0.0
 10
13.391750633
 20
7.8424683017
 30
0.0
 10
13.397056049
 20
7.8210750082
 30
0.0
 10
13.403219655
 20
7.7996647477
 30
0.0
 10
13.4125912974
 20
7.7709725822
 30
0.0
 10
13.4207405089
 20
7.7497061375
 30
0.0
 10
13.4266006399
 20
7.7356278472
 30
0.0
  0
SPLINE
  5
306
100
AcDbEntity
  8
0
100
AcDbSpline
 62
7
  6
CONTINUOUS
 70
0
 71
3
 72
15
 73
11
 74
0
 42
0.0000001
 43
0.0000001
 44
0.0000000001
 40
0.0
 40
0.0
 40
0.0
 40
0.0
 40
0.1347692999
 40
0.2654257368
 40
0.3926625058
 40
0.5171556691
 40
0.6395599999
 40
0.760483005
 40
0.880470282
 40
1.0
 40
1.0
 40
1.0
 40
1.0
 10
13.4905476968
 20
8.7750758936
 30
0.0
 10
13.4893998482
 20
8.7731273499
 30
0.0
 10
13.4872609474
 20
8.7692161773
 30
0.0
 10
13.4844936697
 20
8.7632310078
 30
0.0
 10
13.4822037196
 20
8.7572314106
 30
0.0
 10
13.4803728863
 20
8.7512209653
 30
0.0
 10
13.478980315
 20
8.7452030758
 30
0.0
 10
13.478004253
 20
8.7391806231
 30
0.0
 10
13.4774227786
 20
8.7331564073
 30
0.0
 10
13.4772832245
 20
8.7291367988
 30
0.0
 10
13.4772718979
 20
8.7271310596
 30
0.0
  0
SPLINE
  5
307
100
AcDbEntity
  8
0
100
AcDbSpline
 62
7
  6
CONTINUOUS
 70
0
 71
3
 72
11
 73
7
 74
0
 42
0.0000001
 43
0.0000001
 44
0.0000000001
 40
0.0
 40
0.0
 40
0.0
 40
0.0
 40
0.272928811
 40
0.5304576393
 40
0.7727293826
 40
1.0
 40
1.0
 40
1.0
 40
1.0
 10
14.0776870516
 20
8.7181553881
 30
0.0
 10
14.0764184579
 20
8.7212032888
 30
0.0
 10
14.073847117
 20
8.7270840059
 30
0.0
 10
14.0697539669
 20
8.7354903482
 30
0.0
 10
14.0655421457
 20
8.7432146595
 30
0.0
 10
14.0625644452
 20
8.7480552971
 30
0.0
 10
14.0610528072
 20
8.7503514692
 30
0.0
  0
SPLINE
  5
308
100
AcDbEntity
  8
0
100
AcDbSpline
 62
7
  6
CONTINUOUS
 70
0
 71
3
 72
55
 73
51
 74
0
 42
0.0000001
 43
0.0000001
 44
0.0000000001
 40
0.0
 40
0.0
 40
0.0
 40
0.0
 40
0.0089253313
 40
0.017310166
 40
0.0251815366
 40
0.032575325
 40
0.0395367283
 40
0.0461218406
 40
0.0523991943
 40
0.0584489927
 40
0.064361716
 40
0.0702350048
 40
0.076168495
 40
0.0822587309
 40
0.0885943005
 40
0.0952528903
 40
0.1023004891
 40
0.1097909202
 40
0.1177670809
 40
0.1262629702
 40
0.1353042872
 40
0.1449098439
 40
0.1550935123
 40
0.1658643048
 40
0.1772269993
 40
0.1891837224
 40
0.2017336999
 40
0.2148732591
 40
0.2285972129
 40
0.2428985558
 40
0.2577680589
 40
0.2731955304
 40
0.289169601
 40
0.3056770652
 40
0.3402347424
 40
0.3767463693
 40
0.415074759
 40
0.4550699331
 40
0.4965718758
 40
0.539411397
 40
0.5834110751
 40
0.6283872996
 40
0.6741507965
 40
0.720507748
 40
0.7672614641
 40
0.8142132943
 40
0.8611617871
 40
0.907907023
 40
0.954257234
 40
1.0
 40
1.0
 40
1.0
 40
1.0
 10
14.0610528072
 20
8.7503514692
 30
0.0
 10
14.059749486
 20
8.7523312089
 30
0.0
 10
14.0571191902
 20
8.7561049486
 30
0.0
 10
14.0529603966
 20
8.7613477098
 30
0.0
 10
14.0487173249
 20
8.7659862118
 30
0.0
 10
14.0443940688
 20
8.7700151963
 30
0.0
 10
14.0399939236
 20
8.773429538
 30
0.0
 10
14.0355199678
 20
8.7762232638
 30
0.0
 10
14.0309766052
 20
8.7783911954
 30
0.0
 10
14.0263690535
 20
8.7799277387
 30
0.0
 10
14.0217042375
 20
8.7808270063
 30
0.0
 10
14.0169912831
 20
8.7810864097
 30
0.0
 10
14.0122397112
 20
8.7807058179
 30
0.0
 10
14.0074586296
 20
8.7796868904
 30
0.0
 10
14.0026554277
 20
8.7780345356
 30
0.0
 10
13.9978356245
 20
8.7757540297
 30
0.0
 10
13.9930041038
 20
8.7728497714
 30
0.0
 10
13.9881648536
 20
8.7693269293
 30
0.0
 10
13.9833217297
 20
8.7651904747
 30
0.0
 10
13.978479365
 20
8.7604448972
 30
0.0
 10
13.9736422257
 20
8.7550956641
 30
0.0
 10
13.968814845
 20
8.7491488421
 30
0.0
 10
13.9640025254
 20
8.7426106199
 30
0.0
 10
13.959210389
 20
8.7354881764
 30
0.0
 10
13.9544433628
 20
8.7277895407
 30
0.0
 10
13.949706966
 20
8.7195230474
 30
0.0
 10
13.9450065622
 20
8.7106978614
 30
0.0
 10
13.9403471344
 20
8.7013240169
 30
0.0
 10
13.9357341312
 20
8.6914119157
 30
0.0
 10
13.931172921
 20
8.6809726437
 30
0.0
 10
13.926668384
 20
8.6700181107
 30
0.0
 10
13.9222257777
 20
8.6585606279
 30
0.0
 10
13.9178503022
 20
8.6466130614
 30
0.0
 10
13.9120229941
 20
8.6297898424
 30
0.0
 10
13.9049633571
 20
8.6076256698
 30
0.0
 10
13.8969590434
 20
8.5796944443
 30
0.0
 10
13.8893349628
 20
8.5501635102
 30
0.0
 10
13.882125695
 20
8.5191668246
 30
0.0
 10
13.8753644446
 20
8.4868446928
 30
0.0
 10
13.8690823408
 20
8.4533436707
 30
0.0
 10
13.8633078527
 20
8.4188158012
 30
0.0
 10
13.85806759
 20
8.383417808
 30
0.0
 10
13.8533855447
 20
8.3473104301
 30
0.0
 10
13.8492828492
 20
8.3106576945
 30
0.0
 10
13.8457784499
 20
8.2736259709
 30
0.0
 10
13.8428883319
 20
8.2363837049
 30
0.0
 10
13.8406253613
 20
8.1991003417
 30
0.0
 10
13.8389999829
 20
8.1619436051
 30
0.0
 10
13.8380198758
 20
8.125084643
 30
0.0
 10
13.8377972605
 20
8.1006276668
 30
0.0
 10
13.8377972605
 20
8.0884800933
 30
0.0
  0
SPLINE
  5
309
100
AcDbEntity
  8
0
100
AcDbSpline
 62
7
  6
CONTINUOUS
 70
0
 71
3
 72
41
 73
37
 74
0
 42
0.0000001
 43
0.0000001
 44
0.0000000001
 40
0.0
 40
0.0
 40
0.0
 40
0.0
 40
0.0311446893
 40
0.0467774521
 40
0.0624475238
 40
0.0938924533
 40
0.1254747807
 40
0.1571823676
 40
0.1890004293
 40
0.2209120298
 40
0.2528983829
 40
0.2689156555
 40
0.2849439305
 40
0.317018006
 40
0.3491033515
 40
0.3811778086
 40
0.4132194286
 40
0.4452068971
 40
0.4771199497
 40
0.508939774
 40
0.5406493901
 40
0.5722340047
 40
0.6036813313
 40
0.6349818708
 40
0.6661291433
 40
0.6971198672
 40
0.7279540753
 40
0.758635165
 40
0.7891698747
 40
0.8195681843
 40
0.8498431362
 40
0.8800105794
 40
0.9100888365
 40
0.9400983034
 40
0.9700609878
 40
1.0
 40
1.0
 40
1.0
 40
1.0
 10
10.5791917828
 20
8.890453877
 30
0.0
 10
10.5850885165
 20
8.8900449371
 30
0.0
 10
10.5939269268
 20
8.8891072378
 30
0.0
 10
10.6056297785
 20
8.8872228414
 30
0.0
 10
10.6173140458
 20
8.8849093762
 30
0.0
 10
10.6318023598
 20
8.8812249869
 30
0.0
 10
10.648884648
 20
8.8755697226
 30
0.0
 10
10.6655947381
 20
8.8687052266
 30
0.0
 10
10.6818431476
 20
8.8606682143
 30
0.0
 10
10.6975430285
 20
8.8515019445
 30
0.0
 10
10.7100953977
 20
8.8429657105
 30
0.0
 10
10.7197821568
 20
8.8356240751
 30
0.0
 10
10.7292252481
 20
8.8279451331
 30
0.0
 10
10.7405351735
 20
8.8177429289
 30
0.0
 10
10.7532413574
 20
8.8046039027
 30
0.0
 10
10.7650191826
 20
8.7906341294
 30
0.0
 10
10.7758054331
 20
8.7759083827
 30
0.0
 10
10.7855426918
 20
8.7605050407
 30
0.0
 10
10.7941789665
 20
8.7445061998
 30
0.0
 10
10.8016681481
 20
8.7279971022
 30
0.0
 10
10.8079702068
 20
8.7110657239
 30
0.0
 10
10.8130514174
 20
8.6938023017
 30
0.0
 10
10.8168845377
 20
8.6762988616
 30
0.0
 10
10.8194489574
 20
8.6586487344
 30
0.0
 10
10.8207308117
 20
8.6409460644
 30
0.0
 10
10.8207230621
 20
8.6232853135
 30
0.0
 10
10.8194255414
 20
8.605760763
 30
0.0
 10
10.8168449642
 20
8.5884660138
 30
0.0
 10
10.8129949026
 20
8.571493489
 30
0.0
 10
10.8078957234
 20
8.5549339374
 30
0.0
 10
10.8015744994
 20
8.5388759534
 30
0.0
 10
10.7940648453
 20
8.5234054661
 30
0.0
 10
10.7854068614
 20
8.5086053825
 30
0.0
 10
10.7756465032
 20
8.4945547142
 30
0.0
 10
10.7648369144
 20
8.481329692
 30
0.0
 10
10.7569661163
 20
8.4731071906
 30
0.0
 10
10.7528792696
 20
8.4691595784
 30
0.0
  0
SPLINE
  5
30A
100
AcDbEntity
  8
0
100
AcDbSpline
 62
7
  6
CONTINUOUS
 70
0
 71
3
 72
41
 73
37
 74
0
 42
0.0000001
 43
0.0000001
 44
0.0000000001
 40
0.0
 40
0.0
 40
0.0
 40
0.0
 40
0.0311446893
 40
0.0467774521
 40
0.0624475238
 40
0.0938924533
 40
0.1254747807
 40
0.1571823676
 40
0.1890004293
 40
0.2209120298
 40
0.2528983829
 40
0.2689156555
 40
0.2849439305
 40
0.317018006
 40
0.3491033515
 40
0.3811778086
 40
0.4132194286
 40
0.4452068971
 40
0.4771199497
 40
0.508939774
 40
0.5406493901
 40
0.5722340047
 40
0.6036813313
 40
0.6349818708
 40
0.6661291433
 40
0.6971198672
 40
0.7279540753
 40
0.758635165
 40
0.7891698747
 40
0.8195681843
 40
0.8498431362
 40
0.8800105794
 40
0.9100888365
 40
0.9400983034
 40
0.9700609878
 40
1.0
 40
1.0
 40
1.0
 40
1.0
 10
10.5791917828
 20
8.0993605441
 30
0.0
 10
10.5850885165
 20
8.0989516042
 30
0.0
 10
10.5939269268
 20
8.0980139049
 30
0.0
 10
10.6056297785
 20
8.0961295085
 30
0.0
 10
10.6173140458
 20
8.0938160433
 30
0.0
 10
10.6318023598
 20
8.090131654
 30
0.0
 10
10.648884648
 20
8.0844763896
 30
0.0
 10
10.6655947381
 20
8.0776118936
 30
0.0
 10
10.6818431476
 20
8.0695748813
 30
0.0
 10
10.6975430285
 20
8.0604086116
 30
0.0
 10
10.7100953977
 20
8.0518723776
 30
0.0
 10
10.7197821568
 20
8.0445307422
 30
0.0
 10
10.7292252481
 20
8.0368518002
 30
0.0
 10
10.7405351735
 20
8.026649596
 30
0.0
 10
10.7532413574
 20
8.0135105698
 30
0.0
 10
10.7650191826
 20
7.9995407965
 30
0.0
 10
10.7758054331
 20
7.9848150498
 30
0.0
 10
10.7855426918
 20
7.9694117078
 30
0.0
 10
10.7941789665
 20
7.9534128669
 30
0.0
 10
10.8016681481
 20
7.9369037693
 30
0.0
 10
10.8079702068
 20
7.9199723909
 30
0.0
 10
10.8130514174
 20
7.9027089687
 30
0.0
 10
10.8168845377
 20
7.8852055287
 30
0.0
 10
10.8194489574
 20
7.8675554015
 30
0.0
 10
10.8207308117
 20
7.8498527314
 30
0.0
 10
10.8207230621
 20
7.8321919806
 30
0.0
 10
10.8194255414
 20
7.8146674301
 30
0.0
 10
10.8168449642
 20
7.7973726809
 30
0.0
 10
10.8129949026
 20
7.780400156
 30
0.0
 10
10.8078957234
 20
7.7638406045
 30
0.0
 10
10.8015744994
 20
7.7477826205
 30
0.0
 10
10.7940648453
 20
7.7323121332
 30
0.0
 10
10.7854068614
 20
7.7175120496
 30
0.0
 10
10.7756465032
 20
7.7034613812
 30
0.0
 10
10.7648369144
 20
7.6902363591
 30
0.0
 10
10.7569661163
 20
7.6820138577
 30
0.0
 10
10.7528792696
 20
7.6780662455
 30
0.0
  0
SPLINE
  5
30B
100
AcDbEntity
  8
0
100
AcDbSpline
 62
7
  6
CONTINUOUS
 70
0
 71
3
 72
41
 73
37
 74
0
 42
0.0000001
 43
0.0000001
 44
0.0000000001
 40
0.0
 40
0.0
 40
0.0
 40
0.0
 40
0.0311446893
 40
0.0467774521
 40
0.0624475238
 40
0.0938924533
 40
0.1254747807
 40
0.1571823676
 40
0.1890004293
 40
0.2209120298
 40
0.2528983829
 40
0.2689156555
 40
0.2849439305
 40
0.317018006
 40
0.3491033515
 40
0.3811778086
 40
0.4132194286
 40
0.4452068971
 40
0.4771199497
 40
0.508939774
 40
0.5406493901
 40
0.5722340047
 40
0.6036813313
 40
0.6349818708
 40
0.6661291433
 40
0.6971198672
 40
0.7279540753
 40
0.758635165
 40
0.7891698747
 40
0.8195681843
 40
0.8498431362
 40
0.8800105794
 40
0.9100888365
 40
0.9400983034
 40
0.9700609878
 40
1.0
 40
1.0
 40
1.0
 40
1.0
 10
10.2478792673
 20
8.5183667538
 30
0.0
 10
10.2537760011
 20
8.517957814
 30
0.0
 10
10.2626144114
 20
8.5170201146
 30
0.0
 10
10.2743172631
 20
8.5151357182
 30
0.0
 10
10.2860015303
 20
8.5128222531
 30
0.0
 10
10.3004898444
 20
8.5091378637
 30
0.0
 10
10.3175721326
 20
8.5034825994
 30
0.0
 10
10.3342822227
 20
8.4966181034
 30
0.0
 10
10.3505306322
 20
8.4885810911
 30
0.0
 10
10.3662305131
 20
8.4794148213
 30
0.0
 10
10.3787828823
 20
8.4708785873
 30
0.0
 10
10.3884696414
 20
8.463536952
 30
0.0
 10
10.3979127327
 20
8.4558580099
 30
0.0
 10
10.4092226581
 20
8.4456558058
 30
0.0
 10
10.421928842
 20
8.4325167796
 30
0.0
 10
10.4337066672
 20
8.4185470063
 30
0.0
 10
10.4444929177
 20
8.4038212595
 30
0.0
 10
10.4542301764
 20
8.3884179175
 30
0.0
 10
10.4628664511
 20
8.3724190767
 30
0.0
 10
10.4703556327
 20
8.3559099791
 30
0.0
 10
10.4766576914
 20
8.3389786007
 30
0.0
 10
10.481738902
 20
8.3217151785
 30
0.0
 10
10.4855720223
 20
8.3042117385
 30
0.0
 10
10.488136442
 20
8.2865616113
 30
0.0
 10
10.4894182963
 20
8.2688589412
 30
0.0
 10
10.4894105467
 20
8.2511981903
 30
0.0
 10
10.488113026
 20
8.2336736399
 30
0.0
 10
10.4855324488
 20
8.2163788907
 30
0.0
 10
10.4816823872
 20
8.1994063658
 30
0.0
 10
10.476583208
 20
8.1828468143
 30
0.0
 10
10.470261984
 20
8.1667888303
 30
0.0
 10
10.4627523299
 20
8.1513183429
 30
0.0
 10
10.454094346
 20
8.1365182593
 30
0.0
 10
10.4443339878
 20
8.122467591
 30
0.0
 10
10.433524399
 20
8.1092425688
 30
0.0
 10
10.4256536009
 20
8.1010200674
 30
0.0
 10
10.4215667542
 20
8.0970724552
 30
0.0
  0
SPLINE
  5
30C
100
AcDbEntity
  8
0
100
AcDbSpline
 62
7
  6
CONTINUOUS
 70
0
 71
3
 72
41
 73
37
 74
0
 42
0.0000001
 43
0.0000001
 44
0.0000000001
 40
0.0
 40
0.0
 40
0.0
 40
0.0
 40
0.0311446893
 40
0.0467774521
 40
0.0624475238
 40
0.0938924533
 40
0.1254747807
 40
0.1571823676
 40
0.1890004293
 40
0.2209120298
 40
0.2528983829
 40
0.2689156555
 40
0.2849439305
 40
0.317018006
 40
0.3491033515
 40
0.3811778086
 40
0.4132194286
 40
0.4452068971
 40
0.4771199497
 40
0.508939774
 40
0.5406493901
 40
0.5722340047
 40
0.6036813313
 40
0.6349818708
 40
0.6661291433
 40
0.6971198672
 40
0.7279540753
 40
0.758635165
 40
0.7891698747
 40
0.8195681843
 40
0.8498431362
 40
0.8800105794
 40
0.9100888365
 40
0.9400983034
 40
0.9700609878
 40
1.0
 40
1.0
 40
1.0
 40
1.0
 10
10.9134020961
 20
8.4722125889
 30
0.0
 10
10.9192988299
 20
8.471803649
 30
0.0
 10
10.9281372401
 20
8.4708659497
 30
0.0
 10
10.9398400918
 20
8.4689815533
 30
0.0
 10
10.9515243591
 20
8.4666680882
 30
0.0
 10
10.9660126731
 20
8.4629836988
 30
0.0
 10
10.9830949613
 20
8.4573284345
 30
0.0
 10
10.9998050514
 20
8.4504639385
 30
0.0
 10
11.0160534609
 20
8.4424269262
 30
0.0
 10
11.0317533418
 20
8.4332606564
 30
0.0
 10
11.044305711
 20
8.4247244224
 30
0.0
 10
11.0539924701
 20
8.417382787
 30
0.0
 10
11.0634355614
 20
8.409703845
 30
0.0
 10
11.0747454868
 20
8.3995016408
 30
0.0
 10
11.0874516707
 20
8.3863626146
 30
0.0
 10
11.0992294959
 20
8.3723928414
 30
0.0
 10
11.1100157464
 20
8.3576670946
 30
0.0
 10
11.1197530051
 20
8.3422637526
 30
0.0
 10
11.1283892798
 20
8.3262649118
 30
0.0
 10
11.1358784615
 20
8.3097558141
 30
0.0
 10
11.1421805201
 20
8.2928244358
 30
0.0
 10
11.1472617307
 20
8.2755610136
 30
0.0
 10
11.1510948511
 20
8.2580575736
 30
0.0
 10
11.1536592707
 20
8.2404074464
 30
0.0
 10
11.154941125
 20
8.2227047763
 30
0.0
 10
11.1549333754
 20
8.2050440254
 30
0.0
 10
11.1536358547
 20
8.1875194749
 30
0.0
 10
11.1510552775
 20
8.1702247257
 30
0.0
 10
11.1472052159
 20
8.1532522009
 30
0.0
 10
11.1421060367
 20
8.1366926493
 30
0.0
 10
11.1357848127
 20
8.1206346653
 30
0.0
 10
11.1282751586
 20
8.105164178
 30
0.0
 10
11.1196171747
 20
8.0903640944
 30
0.0
 10
11.1098568166
 20
8.0763134261
 30
0.0
 10
11.0990472277
 20
8.0630884039
 30
0.0
 10
11.0911764296
 20
8.0548659025
 30
0.0
 10
11.0870895829
 20
8.0509182903
 30
0.0
  0
SPLINE
  5
30D
100
AcDbEntity
  8
0
100
AcDbSpline
 62
7
  6
CONTINUOUS
 70
0
 71
3
 72
39
 73
35
 74
0
 42
0.0000001
 43
0.0000001
 44
0.0000000001
 40
0.0
 40
0.0
 40
0.0
 40
0.0
 40
0.0311437198
 40
0.0624437753
 40
0.0938881657
 40
0.1254710173
 40
0.1571789185
 40
0.1889972763
 40
0.2209092011
 40
0.2528958673
 40
0.2849370567
 40
0.3170114528
 40
0.3490971097
 40
0.38117188
 40
0.4132138198
 40
0.4452016027
 40
0.4771149594
 40
0.5089350876
 40
0.5406450148
 40
0.5722299362
 40
0.6036775578
 40
0.6349783898
 40
0.6661259618
 40
0.6971169848
 40
0.7279514801
 40
0.7586328518
 40
0.7891678495
 40
0.8195664525
 40
0.8498416907
 40
0.8800094139
 40
0.9100879552
 40
0.9400977159
 40
0.9700606962
 40
1.0
 40
1.0
 40
1.0
 40
1.0
 10
10.1416272912
 20
7.7288464989
 30
0.0
 10
10.1431603854
 20
7.7287401785
 30
0.0
 10
10.1462276228
 20
7.7284147463
 30
0.0
 10
10.1507912552
 20
7.7275951338
 30
0.0
 10
10.155306055
 20
7.7264469478
 30
0.0
 10
10.1597475212
 20
7.7249766026
 30
0.0
 10
10.1640921508
 20
7.7231918065
 30
0.0
 10
10.1683167329
 20
7.7211021712
 30
0.0
 10
10.1723987804
 20
7.7187188732
 30
0.0
 10
10.1763165414
 20
7.7160546305
 30
0.0
 10
10.1800491319
 20
7.7131236469
 30
0.0
 10
10.1835766562
 20
7.7099415497
 30
0.0
 10
10.1868803324
 20
7.7065253236
 30
0.0
 10
10.1899425551
 20
7.7028931773
 30
0.0
 10
10.1927469901
 20
7.6990644586
 30
0.0
 10
10.1952786607
 20
7.6950595582
 30
0.0
 10
10.1975240777
 20
7.6908998309
 30
0.0
 10
10.199471258
 20
7.6866074429
 30
0.0
 10
10.2011097912
 20
7.6822052639
 30
0.0
 10
10.2024308823
 20
7.6777167479
 30
0.0
 10
10.2034274627
 20
7.6731658292
 30
0.0
 10
10.2040941892
 20
7.668576776
 30
0.0
 10
10.2044274568
 20
7.6639740633
 30
0.0
 10
10.2044254125
 20
7.6593822504
 30
0.0
 10
10.2040880109
 20
7.654825854
 30
0.0
 10
10.2034170226
 20
7.6503292091
 30
0.0
 10
10.202415978
 20
7.6459163423
 30
0.0
 10
10.2010901586
 20
7.6416108509
 30
0.0
 10
10.199446586
 20
7.6374357784
 30
0.0
 10
10.1974940271
 20
7.6334134578
 30
0.0
 10
10.1952429133
 20
7.6295654393
 30
0.0
 10
10.1927051849
 20
7.6259122688
 30
0.0
 10
10.1898946431
 20
7.6224737783
 30
0.0
 10
10.187848192
 20
7.6203359541
 30
0.0
 10
10.1867856023
 20
7.6193095765
 30
0.0
  0
SPLINE
  5
30E
100
AcDbEntity
  8
0
100
AcDbSpline
 62
7
  6
CONTINUOUS
 70
0
 71
3
 72
39
 73
35
 74
0
 42
0.0000001
 43
0.0000001
 44
0.0000000001
 40
0.0
 40
0.0
 40
0.0
 40
0.0
 40
0.0311445376
 40
0.062443355
 40
0.09388824
 40
0.1254709996
 40
0.1571788478
 40
0.1889972257
 40
0.2209091305
 40
0.2528957945
 40
0.2849369709
 40
0.3170113586
 40
0.3490970145
 40
0.3811717799
 40
0.4132137068
 40
0.4452014824
 40
0.4771148435
 40
0.5089349783
 40
0.5406449062
 40
0.5722298317
 40
0.6036774666
 40
0.6349783114
 40
0.6661258871
 40
0.6971169127
 40
0.7279514223
 40
0.7586328137
 40
0.7891678252
 40
0.8195664354
 40
0.8498416851
 40
0.8800094226
 40
0.9100879711
 40
0.9400977272
 40
0.9700606997
 40
1.0
 40
1.0
 40
1.0
 40
1.0
 10
11.3963650378
 20
7.7137916057
 30
0.0
 10
11.3989477662
 20
7.7136124929
 30
0.0
 10
11.4041148252
 20
7.7130643132
 30
0.0
 10
11.411802745
 20
7.7116835274
 30
0.0
 10
11.4194083512
 20
7.7097493525
 30
0.0
 10
11.4268904921
 20
7.7072723581
 30
0.0
 10
11.4342094806
 20
7.7042657036
 30
0.0
 10
11.4413262556
 20
7.7007455326
 30
0.0
 10
11.4482029092
 20
7.696730629
 30
0.0
 10
11.4548027979
 20
7.6922424379
 30
0.0
 10
11.4610907553
 20
7.6873049019
 30
0.0
 10
11.4670332754
 20
7.6819443558
 30
0.0
 10
11.4725986927
 20
7.676189382
 30
0.0
 10
11.4777573447
 20
7.6700706562
 30
0.0
 10
11.4824817293
 20
7.6636207861
 30
0.0
 10
11.4867466495
 20
7.6568741395
 30
0.0
 10
11.4905293462
 20
7.6498666633
 30
0.0
 10
11.493809619
 20
7.642635695
 30
0.0
 10
11.4965699333
 20
7.6352197662
 30
0.0
 10
11.4987955133
 20
7.6276583999
 30
0.0
 10
11.5004744281
 20
7.6199919048
 30
0.0
 10
11.5015976532
 20
7.6122611605
 30
0.0
 10
11.5021591176
 20
7.604507402
 30
0.0
 10
11.5021557393
 20
7.5967720032
 30
0.0
 10
11.5015874451
 20
7.5890962583
 30
0.0
 10
11.500457175
 20
7.5815211641
 30
0.0
 10
11.4987708719
 20
7.5740872019
 30
0.0
 10
11.4965374536
 20
7.5668341206
 30
0.0
 10
11.4937687757
 20
7.5598007261
 30
0.0
 10
11.4904795655
 20
7.5530246544
 30
0.0
 10
11.486687389
 20
7.5465422177
 30
0.0
 10
11.4824123768
 20
7.5403880204
 30
0.0
 10
11.4776778013
 20
7.534595455
 30
0.0
 10
11.4742304172
 20
7.5309939844
 30
0.0
 10
11.4724403837
 20
7.5292649297
 30
0.0
  0
SPLINE
  5
30F
100
AcDbEntity
  8
0
100
AcDbSpline
 62
7
  6
CONTINUOUS
 70
0
 71
3
 72
39
 73
35
 74
0
 42
0.0000001
 43
0.0000001
 44
0.0000000001
 40
0.0
 40
0.0
 40
0.0
 40
0.0
 40
0.0311445376
 40
0.062443355
 40
0.09388824
 40
0.1254709996
 40
0.1571788478
 40
0.1889972257
 40
0.2209091305
 40
0.2528957945
 40
0.2849369709
 40
0.3170113586
 40
0.3490970145
 40
0.3811717799
 40
0.4132137068
 40
0.4452014824
 40
0.4771148435
 40
0.5089349783
 40
0.5406449062
 40
0.5722298317
 40
0.6036774666
 40
0.6349783114
 40
0.6661258871
 40
0.6971169127
 40
0.7279514223
 40
0.7586328137
 40
0.7891678252
 40
0.8195664354
 40
0.8498416851
 40
0.8800094226
 40
0.9100879711
 40
0.9400977272
 40
0.9700606997
 40
1.0
 40
1.0
 40
1.0
 40
1.0
 10
11.3963650378
 20
8.8922212113
 30
0.0
 10
11.3989477662
 20
8.8920420984
 30
0.0
 10
11.4041148252
 20
8.8914939188
 30
0.0
 10
11.411802745
 20
8.8901131329
 30
0.0
 10
11.4194083512
 20
8.888178958
 30
0.0
 10
11.4268904921
 20
8.8857019636
 30
0.0
 10
11.4342094806
 20
8.8826953091
 30
0.0
 10
11.4413262556
 20
8.8791751381
 30
0.0
 10
11.4482029092
 20
8.8751602345
 30
0.0
 10
11.4548027979
 20
8.8706720434
 30
0.0
 10
11.4610907553
 20
8.8657345075
 30
0.0
 10
11.4670332754
 20
8.8603739614
 30
0.0
 10
11.4725986927
 20
8.8546189876
 30
0.0
 10
11.4777573447
 20
8.8485002618
 30
0.0
 10
11.4824817293
 20
8.8420503917
 30
0.0
 10
11.4867466495
 20
8.835303745
 30
0.0
 10
11.4905293462
 20
8.8282962688
 30
0.0
 10
11.493809619
 20
8.8210653005
 30
0.0
 10
11.4965699333
 20
8.8136493717
 30
0.0
 10
11.4987955133
 20
8.8060880055
 30
0.0
 10
11.5004744281
 20
8.7984215104
 30
0.0
 10
11.5015976532
 20
8.7906907661
 30
0.0
 10
11.5021591176
 20
8.7829370076
 30
0.0
 10
11.5021557393
 20
8.7752016087
 30
0.0
 10
11.5015874451
 20
8.7675258638
 30
0.0
 10
11.500457175
 20
8.7599507696
 30
0.0
 10
11.4987708719
 20
8.7525168074
 30
0.0
 10
11.4965374536
 20
8.7452637261
 30
0.0
 10
11.4937687757
 20
8.7382303316
 30
0.0
 10
11.4904795655
 20
8.73145426
 30
0.0
 10
11.486687389
 20
8.7249718232
 30
0.0
 10
11.4824123768
 20
8.7188176259
 30
0.0
 10
11.4776778013
 20
8.7130250605
 30
0.0
 10
11.4742304172
 20
8.7094235899
 30
0.0
 10
11.4724403837
 20
8.7076945352
 30
0.0
  0
SPLINE
  5
310
100
AcDbEntity
  8
0
100
AcDbSpline
 62
7
  6
CONTINUOUS
 70
0
 71
3
 72
39
 73
35
 74
0
 42
0.0000001
 43
0.0000001
 44
0.0000000001
 40
0.0
 40
0.0
 40
0.0
 40
0.0
 40
0.0311445376
 40
0.062443355
 40
0.09388824
 40
0.1254709996
 40
0.1571788478
 40
0.1889972257
 40
0.2209091305
 40
0.2528957945
 40
0.2849369709
 40
0.3170113586
 40
0.3490970145
 40
0.3811717799
 40
0.4132137068
 40
0.4452014824
 40
0.4771148435
 40
0.5089349783
 40
0.5406449062
 40
0.5722298317
 40
0.6036774666
 40
0.6349783114
 40
0.6661258871
 40
0.6971169127
 40
0.7279514223
 40
0.7586328137
 40
0.7891678252
 40
0.8195664354
 40
0.8498416851
 40
0.8800094226
 40
0.9100879711
 40
0.9400977272
 40
0.9700606997
 40
1.0
 40
1.0
 40
1.0
 40
1.0
 10
9.8566790819
 20
9.0279765438
 30
0.0
 10
9.8592618102
 20
9.027797431
 30
0.0
 10
9.8644288693
 20
9.0272492513
 30
0.0
 10
9.8721167891
 20
9.0258684655
 30
0.0
 10
9.8797223952
 20
9.0239342906
 30
0.0
 10
9.8872045362
 20
9.0214572962
 30
0.0
 10
9.8945235247
 20
9.0184506417
 30
0.0
 10
9.9016402996
 20
9.0149304707
 30
0.0
 10
9.9085169532
 20
9.0109155671
 30
0.0
 10
9.9151168419
 20
9.006427376
 30
0.0
 10
9.9214047993
 20
9.0014898401
 30
0.0
 10
9.9273473194
 20
8.9961292939
 30
0.0
 10
9.9329127367
 20
8.9903743202
 30
0.0
 10
9.9380713887
 20
8.9842555944
 30
0.0
 10
9.9427957734
 20
8.9778057243
 30
0.0
 10
9.9470606935
 20
8.9710590776
 30
0.0
 10
9.9508433902
 20
8.9640516014
 30
0.0
 10
9.954123663
 20
8.9568206331
 30
0.0
 10
9.9568839773
 20
8.9494047043
 30
0.0
 10
9.9591095573
 20
8.941843338
 30
0.0
 10
9.9607884721
 20
8.934176843
 30
0.0
 10
9.9619116972
 20
8.9264460986
 30
0.0
 10
9.9624731616
 20
8.9186923402
 30
0.0
 10
9.9624697833
 20
8.9109569413
 30
0.0
 10
9.9619014891
 20
8.9032811964
 30
0.0
 10
9.960771219
 20
8.8957061022
 30
0.0
 10
9.9590849159
 20
8.88827214
 30
0.0
 10
9.9568514976
 20
8.8810190587
 30
0.0
 10
9.9540828197
 20
8.8739856642
 30
0.0
 10
9.9507936095
 20
8.8672095926
 30
0.0
 10
9.947001433
 20
8.8607271558
 30
0.0
 10
9.9427264208
 20
8.8545729585
 30
0.0
 10
9.9379918454
 20
8.8487803931
 30
0.0
 10
9.9345444612
 20
8.8451789225
 30
0.0
 10
9.9327544277
 20
8.8434498678
 30
0.0
  0
SPLINE
  5
311
100
AcDbEntity
  8
0
100
AcDbSpline
 62
7
  6
CONTINUOUS
 70
0
 71
3
 72
39
 73
35
 74
0
 42
0.0000001
 43
0.0000001
 44
0.0000000001
 40
0.0
 40
0.0
 40
0.0
 40
0.0
 40
0.0311445376
 40
0.062443355
 40
0.09388824
 40
0.1254709996
 40
0.1571788478
 40
0.1889972257
 40
0.2209091305
 40
0.2528957945
 40
0.2849369709
 40
0.3170113586
 40
0.3490970145
 40
0.3811717799
 40
0.4132137068
 40
0.4452014824
 40
0.4771148435
 40
0.5089349783
 40
0.5406449062
 40
0.5722298317
 40
0.6036774666
 40
0.6349783114
 40
0.6661258871
 40
0.6971169127
 40
0.7279514223
 40
0.7586328137
 40
0.7891678252
 40
0.8195664354
 40
0.8498416851
 40
0.8800094226
 40
0.9100879711
 40
0.9400977272
 40
0.9700606997
 40
1.0
 40
1.0
 40
1.0
 40
1.0
 10
9.8566790819
 20
7.7915914262
 30
0.0
 10
9.8592618102
 20
7.7914123134
 30
0.0
 10
9.8644288693
 20
7.7908641337
 30
0.0
 10
9.8721167891
 20
7.7894833478
 30
0.0
 10
9.8797223952
 20
7.7875491729
 30
0.0
 10
9.8872045362
 20
7.7850721785
 30
0.0
 10
9.8945235247
 20
7.782065524
 30
0.0
 10
9.9016402996
 20
7.778545353
 30
0.0
 10
9.9085169532
 20
7.7745304494
 30
0.0
 10
9.9151168419
 20
7.7700422583
 30
0.0
 10
9.9214047993
 20
7.7651047224
 30
0.0
 10
9.9273473194
 20
7.7597441763
 30
0.0
 10
9.9329127367
 20
7.7539892025
 30
0.0
 10
9.9380713887
 20
7.7478704767
 30
0.0
 10
9.9427957734
 20
7.7414206066
 30
0.0
 10
9.9470606935
 20
7.7346739599
 30
0.0
 10
9.9508433902
 20
7.7276664837
 30
0.0
 10
9.954123663
 20
7.7204355155
 30
0.0
 10
9.9568839773
 20
7.7130195866
 30
0.0
 10
9.9591095573
 20
7.7054582204
 30
0.0
 10
9.9607884721
 20
7.6977917253
 30
0.0
 10
9.9619116972
 20
7.690060981
 30
0.0
 10
9.9624731616
 20
7.6823072225
 30
0.0
 10
9.9624697833
 20
7.6745718236
 30
0.0
 10
9.9619014891
 20
7.6668960788
 30
0.0
 10
9.960771219
 20
7.6593209845
 30
0.0
 10
9.9590849159
 20
7.6518870223
 30
0.0
 10
9.9568514976
 20
7.644633941
 30
0.0
 10
9.9540828197
 20
7.6376005466
 30
0.0
 10
9.9507936095
 20
7.6308244749
 30
0.0
 10
9.947001433
 20
7.6243420381
 30
0.0
 10
9.9427264208
 20
7.6181878408
 30
0.0
 10
9.9379918454
 20
7.6123952754
 30
0.0
 10
9.9345444612
 20
7.6087938049
 30
0.0
 10
9.9327544277
 20
7.6070647501
 30
0.0
  0
SPLINE
  5
312
100
AcDbEntity
  8
0
100
AcDbSpline
 62
7
  6
CONTINUOUS
 70
0
 71
3
 72
18
 73
14
 74
0
 42
0.0000001
 43
0.0000001
 44
0.0000000001
 40
0.0
 40
0.0
 40
0.0
 40
0.0
 40
0.1504683897
 40
0.2917144302
 40
0.4244424337
 40
0.4879098403
 40
0.5496094316
 40
0.6682625858
 40
0.7817882724
 40
0.8371379912
 40
0.8918078094
 40
0.9460192717
 40
1.0
 40
1.0
 40
1.0
 40
1.0
 10
13.3777380347
 20
8.7906969564
 30
0.0
 10
13.3792646749
 20
8.7921715776
 30
0.0
 10
13.3823158758
 20
8.7949383927
 30
0.0
 10
13.3870403419
 20
8.7986255022
 30
0.0
 10
13.3910309512
 20
8.8012332222
 30
0.0
 10
13.3942131157
 20
8.8029990852
 30
0.0
 10
13.3973016619
 20
8.8045151379
 30
0.0
 10
13.4011633244
 20
8.8060470524
 30
0.0
 10
13.4050936787
 20
8.8070924342
 30
0.0
 10
13.4082066353
 20
8.8076074038
 30
0.0
 10
13.4105137679
 20
8.807835944
 30
0.0
 10
13.4128115662
 20
8.8079097519
 30
0.0
 10
13.414338167
 20
8.8078557458
 30
0.0
 10
13.4150978029
 20
8.8078030608
 30
0.0
  0
SPLINE
  5
313
100
AcDbEntity
  8
0
100
AcDbSpline
 62
7
  6
CONTINUOUS
 70
0
 71
3
 72
31
 73
27
 74
0
 42
0.0000001
 43
0.0000001
 44
0.0000000001
 40
0.0
 40
0.0
 40
0.0
 40
0.0
 40
0.0851788837
 40
0.1685813066
 40
0.2498840119
 40
0.3287751356
 40
0.4049557415
 40
0.4781421254
 40
0.5480679845
 40
0.6144869819
 40
0.6463115569
 40
0.6771777789
 40
0.707061738
 40
0.7359417808
 40
0.7637980324
 40
0.7906132552
 40
0.8163724294
 40
0.8410636987
 40
0.8646780573
 40
0.8872104235
 40
0.9086595085
 40
0.9290290893
 40
0.948328174
 40
0.9665725896
 40
0.9837856077
 40
1.0
 40
1.0
 40
1.0
 40
1.0
 10
7.8749138366
 20
8.0316670427
 30
0.0
 10
7.8749138366
 20
8.0245394893
 30
0.0
 10
7.8750352938
 20
8.0104326887
 30
0.0
 10
7.875592349
 20
7.9895293158
 30
0.0
 10
7.8765201451
 20
7.9691656329
 30
0.0
 10
7.8778146484
 20
7.9494274267
 30
0.0
 10
7.8794702619
 20
7.9303977073
 30
0.0
 10
7.8814798148
 20
7.9121564241
 30
0.0
 10
7.8838346795
 20
7.8947803137
 30
0.0
 10
7.8861073961
 20
7.8808908166
 30
0.0
 10
7.8881005602
 20
7.8702722808
 30
0.0
 10
7.8896538864
 20
7.8626828116
 30
0.0
 10
7.8912853445
 20
7.8553619644
 30
0.0
 10
7.8929931656
 20
7.8483174132
 30
0.0
 10
7.8947756024
 20
7.8415565513
 30
0.0
 10
7.896630701
 20
7.835086455
 30
0.0
 10
7.8985565726
 20
7.8289138966
 30
0.0
 10
7.9005511151
 20
7.8230453084
 30
0.0
 10
7.9026123079
 20
7.817486809
 30
0.0
 10
7.9047379219
 20
7.8122441484
 30
0.0
 10
7.9069258289
 20
7.8073227589
 30
0.0
 10
7.9091737095
 20
7.8027276687
 30
0.0
 10
7.9114793587
 20
7.7984636101
 30
0.0
 10
7.9138404669
 20
7.7945348171
 30
0.0
 10
7.9162546863
 20
7.7909454837
 30
0.0
 10
7.9179475281
 20
7.788716166
 30
0.0
 10
7.918803617
 20
7.7876635683
 30
0.0
  0
SPLINE
  5
314
100
AcDbEntity
  8
0
100
AcDbSpline
 62
7
  6
CONTINUOUS
 70
0
 71
3
 72
39
 73
35
 74
0
 42
0.0000001
 43
0.0000001
 44
0.0000000001
 40
0.0
 40
0.0
 40
0.0
 40
0.0
 40
0.0071625678
 40
0.0146567179
 40
0.0224900413
 40
0.0306687017
 40
0.0391977329
 40
0.0480809761
 40
0.0573207983
 40
0.0669183965
 40
0.0768741435
 40
0.0871874377
 40
0.1088799456
 40
0.131978928
 40
0.1564568622
 40
0.182278431
 40
0.2094015018
 40
0.2377780607
 40
0.2673549092
 40
0.2980741881
 40
0.3298737896
 40
0.3626878448
 40
0.3964471028
 40
0.4310792359
 40
0.4665091073
 40
0.5026591244
 40
0.5394495258
 40
0.5767986285
 40
0.6146230679
 40
0.6913563402
 40
0.7689609431
 40
0.8467367595
 40
0.9239813805
 40
1.0
 40
1.0
 40
1.0
 40
1.0
 10
7.9639475146
 20
9.2951306288
 30
0.0
 10
7.96320237
 20
9.2944108744
 30
0.0
 10
7.9617130633
 20
9.2929009635
 30
0.0
 10
7.959530207
 20
9.2904879745
 30
0.0
 10
7.9573500908
 20
9.2878779456
 30
0.0
 10
7.9551741738
 20
9.2850725619
 30
0.0
 10
7.953003636
 20
9.282073503
 30
0.0
 10
7.9508397563
 20
9.2788824761
 30
0.0
 10
7.9486837611
 20
9.2755013646
 30
0.0
 10
7.9465369252
 20
9.2719321838
 30
0.0
 10
7.9444005633
 20
9.2681770361
 30
0.0
 10
7.9415190494
 20
9.2628348583
 30
0.0
 10
7.9379609973
 20
9.2557001562
 30
0.0
 10
7.9338219336
 20
9.2465738464
 30
0.0
 10
7.9297545004
 20
9.2367657005
 30
0.0
 10
7.9257685211
 20
9.2262991575
 30
0.0
 10
7.9218736142
 20
9.2151991107
 30
0.0
 10
7.918079205
 20
9.2034921038
 30
0.0
 10
7.9143944853
 20
9.1912061592
 30
0.0
 10
7.9108283897
 20
9.1783707354
 30
0.0
 10
7.9073895428
 20
9.1650166512
 30
0.0
 10
7.9040862683
 20
9.1511759942
 30
0.0
 10
7.9009265641
 20
9.1368820317
 30
0.0
 10
7.8979180847
 20
9.1221691361
 30
0.0
 10
7.895068097
 20
9.1070727075
 30
0.0
 10
7.8923834873
 20
9.0916290741
 30
0.0
 10
7.8898707546
 20
9.0758754098
 30
0.0
 10
7.8875359525
 20
9.059849606
 30
0.0
 10
7.8846540686
 20
9.0380670625
 30
0.0
 10
7.8815408811
 20
9.0104443025
 30
0.0
 10
7.8786086611
 20
8.9769963352
 30
0.0
 10
7.8764908823
 20
8.9434126601
 30
0.0
 10
7.8752078623
 20
8.9100165242
 30
0.0
 10
7.8749138366
 20
8.8878475425
 30
0.0
 10
7.8749138366
 20
8.8768521907
 30
0.0
  0
SPLINE
  5
315
100
AcDbEntity
  8
0
100
AcDbSpline
 62
7
  6
CONTINUOUS
 70
0
 71
3
 72
83
 73
79
 74
0
 42
0.0000001
 43
0.0000001
 44
0.0000000001
 40
0.0
 40
0.0
 40
0.0
 40
0.0
 40
0.0027164276
 40
0.0054532334
 40
0.0082303009
 40
0.0110665998
 40
0.0139798088
 40
0.0169861218
 40
0.0201000928
 40
0.0233346095
 40
0.026700976
 40
0.0302089312
 40
0.0338668524
 40
0.0376818289
 40
0.0416598023
 40
0.0458057443
 40
0.0501236753
 40
0.0546168743
 40
0.0592878974
 40
0.0641386698
 40
0.0691706105
 40
0.0743845883
 40
0.0797810847
 40
0.0853601631
 40
0.0970640219
 40
0.1094907699
 40
0.1226300177
 40
0.1364676887
 40
0.150986507
 40
0.1661664045
 40
0.1819848426
 40
0.1984170703
 40
0.2154363375
 40
0.2330140708
 40
0.2511200494
 40
0.2697225561
 40
0.2887885105
 40
0.3082835895
 40
0.3281723378
 40
0.3484182894
 40
0.3689840785
 40
0.3898315425
 40
0.4109218226
 40
0.453671794
 40
0.496913762
 40
0.5403220095
 40
0.5835692233
 40
0.6263296343
 40
0.6474270493
 40
0.6682829087
 40
0.6888583326
 40
0.7091151299
 40
0.7290159025
 40
0.7485241591
 40
0.7676044182
 40
0.7862223163
 40
0.8043447241
 40
0.821939872
 40
0.8389774975
 40
0.8554289822
 40
0.8712675108
 40
0.8864682552
 40
0.9010085951
 40
0.9148683895
 40
0.9280302787
 40
0.9404800721
 40
0.9464347343
 40
0.9522077813
 40
0.9577985496
 40
0.9632067643
 40
0.968432455
 40
0.973476048
 40
0.978338406
 40
0.9830208506
 40
0.98752539
 40
0.9918546103
 40
0.9960115929
 40
1.0
 40
1.0
 40
1.0
 40
1.0
 10
13.3403782666
 20
7.7303908977
 30
0.0
 10
13.339370424
 20
7.7304607972
 30
0.0
 10
13.3373523407
 20
7.7306923599
 30
0.0
 10
13.3343509143
 20
7.7313119795
 30
0.0
 10
13.3313721604
 20
7.7322037391
 30
0.0
 10
13.3284182305
 20
7.7333668576
 30
0.0
 10
13.3254906169
 20
7.7348002118
 30
0.0
 10
13.3225908441
 20
7.736502739
 30
0.0
 10
13.3197202499
 20
7.7384732154
 30
0.0
 10
13.3168800761
 20
7.7407103566
 30
0.0
 10
13.3140716103
 20
7.7432129225
 30
0.0
 10
13.3112959972
 20
7.7459794766
 30
0.0
 10
13.3085544955
 20
7.7490086225
 30
0.0
 10
13.3058483114
 20
7.7522988097
 30
0.0
 10
13.3031786396
 20
7.7558483813
 30
0.0
 10
13.3005467741
 20
7.7596556207
 30
0.0
 10
13.2979538832
 20
7.7637186134
 30
0.0
 10
13.2954012505
 20
7.7680353868
 30
0.0
 10
13.2928900957
 20
7.7726038059
 30
0.0
 10
13.2904216146
 20
7.7774216063
 30
0.0
 10
13.2879970732
 20
7.7824864261
 30
0.0
 10
13.2856176157
 20
7.78779573
 30
0.0
 10
13.2832844369
 20
7.7933469046
 30
0.0
 10
13.2801872809
 20
7.8011929886
 30
0.0
 10
13.2764519077
 20
7.8115949898
 30
0.0
 10
13.2722406207
 20
7.8248034257
 30
0.0
 10
13.2682402855
 20
7.8389038282
 30
0.0
 10
13.264458991
 20
7.8538680391
 30
0.0
 10
13.2609043984
 20
7.8696663429
 30
0.0
 10
13.257583728
 20
7.8862671909
 30
0.0
 10
13.2545037342
 20
7.9036373926
 30
0.0
 10
13.251670687
 20
7.9217421651
 30
0.0
 10
13.2490903584
 20
7.9405452153
 30
0.0
 10
13.246767996
 20
7.9600088141
 30
0.0
 10
13.2447083248
 20
7.9800938831
 30
0.0
 10
13.2429155378
 20
8.0007600818
 30
0.0
 10
13.2413932876
 20
8.0219658917
 30
0.0
 10
13.24014468
 20
8.0436686975
 30
0.0
 10
13.2391722567
 20
8.0658248723
 30
0.0
 10
13.2384779991
 20
8.0883898734
 30
0.0
 10
13.238063336
 20
8.1113183213
 30
0.0
 10
13.2379290998
 20
8.1345641503
 30
0.0
 10
13.2381254191
 20
8.1660602758
 30
0.0
 10
13.2390779107
 20
8.2058776105
 30
0.0
 10
13.2413226436
 20
8.2539542633
 30
0.0
 10
13.2446565814
 20
8.3021532008
 30
0.0
 10
13.249052891
 20
8.3500868764
 30
0.0
 10
13.2535921245
 20
8.3896646307
 30
0.0
 10
13.2577346957
 20
8.4208974984
 30
0.0
 10
13.2610688014
 20
8.4439128305
 30
0.0
 10
13.2646370613
 20
8.466576586
 30
0.0
 10
13.2684323105
 20
8.4888432265
 30
0.0
 10
13.2724468888
 20
8.5106679744
 30
0.0
 10
13.276672693
 20
8.5320069607
 30
0.0
 10
13.2811011909
 20
8.5528172997
 30
0.0
 10
13.2857234415
 20
8.5730571752
 30
0.0
 10
13.2905301116
 20
8.592685925
 30
0.0
 10
13.2955114962
 20
8.6116641292
 30
0.0
 10
13.3006575262
 20
8.6299536977
 30
0.0
 10
13.3059578001
 20
8.6475179489
 30
0.0
 10
13.311401606
 20
8.6643216806
 30
0.0
 10
13.3169779446
 20
8.6803312536
 30
0.0
 10
13.3226755562
 20
8.6955146493
 30
0.0
 10
13.3284829416
 20
8.7098416392
 30
0.0
 10
13.334388388
 20
8.7232835604
 30
0.0
 10
13.3394537781
 20
8.733877164
 30
0.0
 10
13.3435539458
 20
8.7418802825
 30
0.0
 10
13.3466004776
 20
8.7475556105
 30
0.0
 10
13.3496626358
 20
8.7529904446
 30
0.0
 10
13.3527388698
 20
8.7581821047
 30
0.0
 10
13.3558276736
 20
8.7631279931
 30
0.0
 10
13.3589275086
 20
8.7678256427
 30
0.0
 10
13.3620367914
 20
8.7722727345
 30
0.0
 10
13.365154059
 20
8.7764670523
 30
0.0
 10
13.3682777749
 20
8.7804065848
 30
0.0
 10
13.3714065025
 20
8.7840893905
 30
0.0
 10
13.3745385376
 20
8.78751347
 30
0.0
 10
13.3766711471
 20
8.7896664219
 30
0.0
 10
13.3777380347
 20
8.7906969564
 30
0.0
  0
SPLINE
  5
316
100
AcDbEntity
  8
0
100
AcDbSpline
 62
7
  6
CONTINUOUS
 70
0
 71
3
 72
15
 73
11
 74
0
 42
0.0000001
 43
0.0000001
 44
0.0000000001
 40
0.0
 40
0.0
 40
0.0
 40
0.0
 40
0.1233171109
 40
0.2468171695
 40
0.3706749667
 40
0.4950495871
 40
0.6200772723
 40
0.7458670514
 40
0.8724932619
 40
1.0
 40
1.0
 40
1.0
 40
1.0
 10
10.0964689801
 20
7.7128130565
 30
0.0
 10
10.0979275882
 20
7.7142219566
 30
0.0
 10
10.101001354
 20
7.7168868722
 30
0.0
 10
10.1060180151
 20
7.7203692105
 30
0.0
 10
10.11139354
 20
7.7233047669
 30
0.0
 10
10.1170728933
 20
7.7256633845
 30
0.0
 10
10.1229987907
 20
7.7274216467
 30
0.0
 10
10.1291115516
 20
7.7285619641
 30
0.0
 10
10.1353487614
 20
7.7290732302
 30
0.0
 10
10.1395354783
 20
7.7289915666
 30
0.0
 10
10.1416272912
 20
7.7288464989
 30
0.0
  0
SPLINE
  5
317
100
AcDbEntity
  8
0
100
AcDbSpline
 62
7
  6
CONTINUOUS
 70
0
 71
3
 72
23
 73
19
 74
0
 42
0.0000001
 43
0.0000001
 44
0.0000000001
 40
0.0
 40
0.0
 40
0.0
 40
0.0
 40
0.0616482149
 40
0.1233194547
 40
0.1850364846
 40
0.2468215689
 40
0.3086962155
 40
0.3706809299
 40
0.4327950056
 40
0.4950563252
 40
0.557481176
 40
0.6200840805
 40
0.6828775566
 40
0.7458723664
 40
0.8090769636
 40
0.8724964899
 40
0.9361392081
 40
1.0
 40
1.0
 40
1.0
 40
1.0
 10
10.7397146093
 20
8.4105439457
 30
0.0
 10
10.7425201346
 20
8.4132538898
 30
0.0
 10
10.7482791932
 20
8.4185249897
 30
0.0
 10
10.75733203
 20
8.4259573956
 30
0.0
 10
10.7667779695
 20
8.4328985433
 30
0.0
 10
10.7765928912
 20
8.4393306425
 30
0.0
 10
10.7867521561
 20
8.4452375647
 30
0.0
 10
10.7972301444
 20
8.4506044048
 30
0.0
 10
10.8080004381
 20
8.4554177023
 30
0.0
 10
10.8190358983
 20
8.4596653572
 30
0.0
 10
10.8303087351
 20
8.4633366662
 30
0.0
 10
10.8417905448
 20
8.466422408
 30
0.0
 10
10.8534524014
 20
8.4689148861
 30
0.0
 10
10.8652649566
 20
8.4708078401
 30
0.0
 10
10.8771983829
 20
8.472096479
 30
0.0
 10
10.8892229273
 20
8.4727777143
 30
0.0
 10
10.9013076937
 20
8.4728497004
 30
0.0
 10
10.909371172
 20
8.4724921344
 30
0.0
 10
10.9134020961
 20
8.4722125889
 30
0.0
  0
SPLINE
  5
318
100
AcDbEntity
  8
0
100
AcDbSpline
 62
7
  6
CONTINUOUS
 70
0
 71
3
 72
33
 73
29
 74
0
 42
0.0000001
 43
0.0000001
 44
0.0000000001
 40
0.0
 40
0.0
 40
0.0
 40
0.0
 40
0.0332022542
 40
0.0665634675
 40
0.100063866
 40
0.1336705571
 40
0.1673383733
 40
0.201011747
 40
0.2680899412
 40
0.3344157668
 40
0.3995325509
 40
0.4631399542
 40
0.5251306747
 40
0.5855835553
 40
0.6153174666
 40
0.6447691165
 40
0.6739898598
 40
0.703038352
 40
0.7319798846
 40
0.7608856743
 40
0.7898319768
 40
0.8188985968
 40
0.8481665734
 40
0.8777152241
 40
0.9076181149
 40
0.9379383661
 40
0.968723337
 40
1.0
 40
1.0
 40
1.0
 40
1.0
 10
10.1167674616
 20
8.3196075448
 30
0.0
 10
10.1189393826
 20
8.3175806111
 30
0.0
 10
10.1234383906
 20
8.3136692196
 30
0.0
 10
10.1305887906
 20
8.3082700145
 30
0.0
 10
10.1381168153
 20
8.303344396
 30
0.0
 10
10.1459758102
 20
8.2989110654
 30
0.0
 10
10.1541170404
 20
8.2949843447
 30
0.0
 10
10.1652618922
 20
8.2904452313
 30
0.0
 10
10.179602242
 20
8.2860846435
 30
0.0
 10
10.1971221686
 20
8.2829328911
 30
0.0
 10
10.2145758883
 20
8.2818118779
 30
0.0
 10
10.2316566601
 20
8.2826418341
 30
0.0
 10
10.2481202195
 20
8.2853376831
 30
0.0
 10
10.2612423742
 20
8.2891047332
 30
0.0
 10
10.2712196569
 20
8.2929999213
 30
0.0
 10
10.2783968929
 20
8.2963388591
 30
0.0
 10
10.2852874683
 20
8.3001091324
 30
0.0
 10
10.2918703706
 20
8.304310576
 30
0.0
 10
10.2981222872
 20
8.3089438187
 30
0.0
 10
10.304017589
 20
8.3140097358
 30
0.0
 10
10.3095277554
 20
8.3195086035
 30
0.0
 10
10.3146211425
 20
8.3254390345
 30
0.0
 10
10.3192629681
 20
8.3317966313
 30
0.0
 10
10.3234157009
 20
8.3385724125
 30
0.0
 10
10.3270399178
 20
8.3457510182
 30
0.0
 10
10.3300957509
 20
8.3533093131
 30
0.0
 10
10.3325447794
 20
8.3612138141
 30
0.0
 10
10.3337408045
 20
8.3666442951
 30
0.0
 10
10.3342299278
 20
8.3693997329
 30
0.0
  0
SPLINE
  5
319
100
AcDbEntity
  8
0
100
AcDbSpline
 62
7
  6
CONTINUOUS
 70
0
 71
3
 72
23
 73
19
 74
0
 42
0.0000001
 43
0.0000001
 44
0.0000000001
 40
0.0
 40
0.0
 40
0.0
 40
0.0
 40
0.0616482149
 40
0.1233194547
 40
0.1850364846
 40
0.2468215689
 40
0.3086962155
 40
0.3706809299
 40
0.4327950056
 40
0.4950563252
 40
0.557481176
 40
0.6200840805
 40
0.6828775566
 40
0.7458723664
 40
0.8090769636
 40
0.8724964899
 40
0.9361392081
 40
1.0
 40
1.0
 40
1.0
 40
1.0
 10
10.0741917805
 20
8.4566981107
 30
0.0
 10
10.0769973059
 20
8.4594080547
 30
0.0
 10
10.0827563645
 20
8.4646791546
 30
0.0
 10
10.0918092013
 20
8.4721115605
 30
0.0
 10
10.1012551408
 20
8.4790527082
 30
0.0
 10
10.1110700624
 20
8.4854848075
 30
0.0
 10
10.1212293274
 20
8.4913917296
 30
0.0
 10
10.1317073157
 20
8.4967585698
 30
0.0
 10
10.1424776093
 20
8.5015718672
 30
0.0
 10
10.1535130695
 20
8.5058195221
 30
0.0
 10
10.1647859063
 20
8.5094908311
 30
0.0
 10
10.176267716
 20
8.5125765729
 30
0.0
 10
10.1879295726
 20
8.5150690511
 30
0.0
 10
10.1997421279
 20
8.5169620051
 30
0.0
 10
10.2116755542
 20
8.518250644
 30
0.0
 10
10.2237000986
 20
8.5189318793
 30
0.0
 10
10.235784865
 20
8.5190038653
 30
0.0
 10
10.2438483432
 20
8.5186462994
 30
0.0
 10
10.2478792673
 20
8.5183667538
 30
0.0
  0
SPLINE
  5
31A
100
AcDbEntity
  8
0
100
AcDbSpline
 62
7
  6
CONTINUOUS
 70
0
 71
3
 72
23
 73
19
 74
0
 42
0.0000001
 43
0.0000001
 44
0.0000000001
 40
0.0
 40
0.0
 40
0.0
 40
0.0
 40
0.0616482149
 40
0.1233194547
 40
0.1850364846
 40
0.2468215689
 40
0.3086962155
 40
0.3706809299
 40
0.4327950056
 40
0.4950563252
 40
0.557481176
 40
0.6200840805
 40
0.6828775566
 40
0.7458723664
 40
0.8090769636
 40
0.8724964899
 40
0.9361392081
 40
1.0
 40
1.0
 40
1.0
 40
1.0
 10
10.4055042959
 20
8.0376919009
 30
0.0
 10
10.4083098213
 20
8.040401845
 30
0.0
 10
10.4140688799
 20
8.0456729448
 30
0.0
 10
10.4231217167
 20
8.0531053507
 30
0.0
 10
10.4325676562
 20
8.0600464984
 30
0.0
 10
10.4423825778
 20
8.0664785977
 30
0.0
 10
10.4525418428
 20
8.0723855199
 30
0.0
 10
10.4630198311
 20
8.07775236
 30
0.0
 10
10.4737901247
 20
8.0825656574
 30
0.0
 10
10.4848255849
 20
8.0868133124
 30
0.0
 10
10.4960984218
 20
8.0904846213
 30
0.0
 10
10.5075802314
 20
8.0935703631
 30
0.0
 10
10.519242088
 20
8.0960628413
 30
0.0
 10
10.5310546433
 20
8.0979557953
 30
0.0
 10
10.5429880696
 20
8.0992444342
 30
0.0
 10
10.555012614
 20
8.0999256695
 30
0.0
 10
10.5670973804
 20
8.0999976556
 30
0.0
 10
10.5751608586
 20
8.0996400896
 30
0.0
 10
10.5791917828
 20
8.0993605441
 30
0.0
  0
SPLINE
  5
31B
100
AcDbEntity
  8
0
100
AcDbSpline
 62
7
  6
CONTINUOUS
 70
0
 71
3
 72
23
 73
19
 74
0
 42
0.0000001
 43
0.0000001
 44
0.0000000001
 40
0.0
 40
0.0
 40
0.0
 40
0.0
 40
0.0616482149
 40
0.1233194547
 40
0.1850364846
 40
0.2468215689
 40
0.3086962155
 40
0.3706809299
 40
0.4327950056
 40
0.4950563252
 40
0.557481176
 40
0.6200840805
 40
0.6828775566
 40
0.7458723664
 40
0.8090769636
 40
0.8724964899
 40
0.9361392081
 40
1.0
 40
1.0
 40
1.0
 40
1.0
 10
10.4055042959
 20
8.8287852338
 30
0.0
 10
10.4083098213
 20
8.8314951779
 30
0.0
 10
10.4140688799
 20
8.8367662778
 30
0.0
 10
10.4231217167
 20
8.8441986837
 30
0.0
 10
10.4325676562
 20
8.8511398314
 30
0.0
 10
10.4423825778
 20
8.8575719306
 30
0.0
 10
10.4525418428
 20
8.8634788528
 30
0.0
 10
10.4630198311
 20
8.8688456929
 30
0.0
 10
10.4737901247
 20
8.8736589903
 30
0.0
 10
10.4848255849
 20
8.8779066453
 30
0.0
 10
10.4960984218
 20
8.8815779543
 30
0.0
 10
10.5075802314
 20
8.8846636961
 30
0.0
 10
10.519242088
 20
8.8871561742
 30
0.0
 10
10.5310546433
 20
8.8890491282
 30
0.0
 10
10.5429880696
 20
8.8903377671
 30
0.0
 10
10.555012614
 20
8.8910190024
 30
0.0
 10
10.5670973804
 20
8.8910909885
 30
0.0
 10
10.5751608586
 20
8.8907334225
 30
0.0
 10
10.5791917828
 20
8.890453877
 30
0.0
  0
SPLINE
  5
31C
100
AcDbEntity
  8
0
100
AcDbSpline
 62
7
  6
CONTINUOUS
 70
0
 71
3
 72
17
 73
13
 74
0
 42
0.0000001
 43
0.0000001
 44
0.0000000001
 40
0.0
 40
0.0
 40
0.0
 40
0.0
 40
0.1492515046
 40
0.2896726434
 40
0.4219780702
 40
0.4853775361
 40
0.5470997392
 40
0.666049426
 40
0.780158629
 40
0.8909108815
 40
0.9455638672
 40
1.0
 40
1.0
 40
1.0
 40
1.0
 10
7.9446787991
 20
7.7558486798
 30
0.0
 10
7.9455616364
 20
7.7547631767
 30
0.0
 10
7.9473423649
 20
7.7527095567
 30
0.0
 10
7.950149251
 20
7.7499167056
 30
0.0
 10
7.9525632839
 20
7.7478843288
 30
0.0
 10
7.9545158743
 20
7.7464645771
 30
0.0
 10
7.9564312669
 20
7.7452115652
 30
0.0
 10
7.9588588376
 20
7.7438786959
 30
0.0
 10
7.9618495514
 20
7.7426575753
 30
0.0
 10
7.9643864454
 20
7.7419712399
 30
0.0
 10
7.9664198403
 20
7.7416284078
 30
0.0
 10
7.9674380942
 20
7.741524222
 30
0.0
 10
7.9679471925
 20
7.7414889115
 30
0.0
  0
SPLINE
  5
31D
100
AcDbEntity
  8
0
100
AcDbSpline
 62
7
  6
CONTINUOUS
 70
0
 71
3
 72
17
 73
13
 74
0
 42
0.0000001
 43
0.0000001
 44
0.0000000001
 40
0.0
 40
0.0
 40
0.0
 40
0.0
 40
0.0544358026
 40
0.1090884696
 40
0.2198401459
 40
0.3339492313
 40
0.4528981867
 40
0.5146188903
 40
0.5780168979
 40
0.7103216724
 40
0.8507501608
 40
1.0
 40
1.0
 40
1.0
 40
1.0
 10
8.3270531945
 20
9.6316267572
 30
0.0
 10
8.3265440993
 20
9.6316620674
 30
0.0
 10
8.3255212172
 20
9.6316994482
 30
0.0
 10
8.3234599762
 20
9.6316405535
 30
0.0
 10
8.3208526367
 20
9.6313109898
 30
0.0
 10
8.3177220054
 20
9.6305143822
 30
0.0
 10
8.3151337145
 20
9.6295293659
 30
0.0
 10
8.3130637066
 20
9.6285528009
 30
0.0
 10
8.3109338633
 20
9.6274161779
 30
0.0
 10
8.3082623458
 20
9.6257364704
 30
0.0
 10
8.3050967955
 20
9.6233577504
 30
0.0
 10
8.3030495987
 20
9.6215695621
 30
0.0
 10
8.302025373
 20
9.6206163374
 30
0.0
  0
SPLINE
  5
31E
100
AcDbEntity
  8
0
100
AcDbSpline
 62
7
  6
CONTINUOUS
 70
0
 71
3
 72
17
 73
13
 74
0
 42
0.0000001
 43
0.0000001
 44
0.0000000001
 40
0.0
 40
0.0
 40
0.0
 40
0.0
 40
0.0544361328
 40
0.1090891185
 40
0.219841371
 40
0.333950574
 40
0.4529002608
 40
0.5146224639
 40
0.5780219298
 40
0.7103273566
 40
0.8507484954
 40
1.0
 40
1.0
 40
1.0
 40
1.0
 10
13.5797581491
 20
9.2663845054
 30
0.0
 10
13.5802672473
 20
9.266349195
 30
0.0
 10
13.5812855013
 20
9.2662450091
 30
0.0
 10
13.5833188962
 20
9.2659021771
 30
0.0
 10
13.5858557902
 20
9.2652158416
 30
0.0
 10
13.588846504
 20
9.263994721
 30
0.0
 10
13.5912740747
 20
9.2626618518
 30
0.0
 10
13.5931894673
 20
9.2614088399
 30
0.0
 10
13.5951420577
 20
9.2599890882
 30
0.0
 10
13.5975560906
 20
9.2579567114
 30
0.0
 10
13.6003629767
 20
9.2551638602
 30
0.0
 10
13.6021437051
 20
9.2531102402
 30
0.0
 10
13.6030265425
 20
9.2520247371
 30
0.0
  0
SPLINE
  5
31F
100
AcDbEntity
  8
0
100
AcDbSpline
 62
7
  6
CONTINUOUS
 70
0
 71
3
 72
31
 73
27
 74
0
 42
0.0000001
 43
0.0000001
 44
0.0000000001
 40
0.0
 40
0.0
 40
0.0
 40
0.0
 40
0.0162143923
 40
0.0334274104
 40
0.051671826
 40
0.0709709107
 40
0.0913404915
 40
0.1127895765
 40
0.1353219427
 40
0.1589363013
 40
0.1836275706
 40
0.2093867448
 40
0.2362019676
 40
0.2640582192
 40
0.292938262
 40
0.3228222211
 40
0.3536884431
 40
0.3855130181
 40
0.4519320155
 40
0.5218578746
 40
0.5950442585
 40
0.6712248644
 40
0.7501159881
 40
0.8314186934
 40
0.9148211163
 40
1.0
 40
1.0
 40
1.0
 40
1.0
 10
13.6289017246
 20
9.2202098487
 30
0.0
 10
13.6297578134
 20
9.219157251
 30
0.0
 10
13.6314506553
 20
9.2169279333
 30
0.0
 10
13.6338648747
 20
9.2133385999
 30
0.0
 10
13.6362259828
 20
9.2094098068
 30
0.0
 10
13.6385316321
 20
9.2051457483
 30
0.0
 10
13.6407795127
 20
9.2005506581
 30
0.0
 10
13.6429674196
 20
9.1956292686
 30
0.0
 10
13.6450930337
 20
9.1903866079
 30
0.0
 10
13.6471542264
 20
9.1848281085
 30
0.0
 10
13.6491487689
 20
9.1789595204
 30
0.0
 10
13.6510746405
 20
9.172786962
 30
0.0
 10
13.6529297392
 20
9.1663168657
 30
0.0
 10
13.6547121759
 20
9.1595560038
 30
0.0
 10
13.6564199971
 20
9.1525114525
 30
0.0
 10
13.6580514552
 20
9.1451906053
 30
0.0
 10
13.6596047813
 20
9.1376011361
 30
0.0
 10
13.6615979455
 20
9.1269826003
 30
0.0
 10
13.6638706621
 20
9.1130931033
 30
0.0
 10
13.6662255267
 20
9.0957169929
 30
0.0
 10
13.6682350797
 20
9.0774757097
 30
0.0
 10
13.6698906932
 20
9.0584459902
 30
0.0
 10
13.6711851964
 20
9.0387077841
 30
0.0
 10
13.6721129925
 20
9.0183441012
 30
0.0
 10
13.6726700478
 20
8.9974407283
 30
0.0
 10
13.672791505
 20
8.9833339277
 30
0.0
 10
13.672791505
 20
8.9762063743
 30
0.0
  0
SPLINE
  5
320
100
AcDbEntity
  8
0
100
AcDbSpline
 62
7
  6
CONTINUOUS
 70
0
 71
3
 72
17
 73
13
 74
0
 42
0.0000001
 43
0.0000001
 44
0.0000000001
 40
0.0
 40
0.0
 40
0.0
 40
0.0
 40
0.1492498392
 40
0.2896783276
 40
0.4219831021
 40
0.4853811097
 40
0.5471018133
 40
0.6660507687
 40
0.7801598541
 40
0.8909115304
 40
0.9455641974
 40
1.0
 40
1.0
 40
1.0
 40
1.0
 10
13.2456799685
 20
7.3872570796
 30
0.0
 10
13.2446557428
 20
7.3863038548
 30
0.0
 10
13.2426085461
 20
7.3845156665
 30
0.0
 10
13.2394429958
 20
7.3821369466
 30
0.0
 10
13.2367714783
 20
7.3804572391
 30
0.0
 10
13.2346416349
 20
7.3793206161
 30
0.0
 10
13.232571627
 20
7.378344051
 30
0.0
 10
13.2299833361
 20
7.3773590347
 30
0.0
 10
13.2268527049
 20
7.3765624272
 30
0.0
 10
13.2242453653
 20
7.3762328634
 30
0.0
 10
13.2221841243
 20
7.3761739687
 30
0.0
 10
13.2211612423
 20
7.3762113495
 30
0.0
 10
13.220652147
 20
7.3762466598
 30
0.0
  0
SPLINE
  5
321
100
AcDbEntity
  8
0
100
AcDbSpline
 62
7
  6
CONTINUOUS
 70
0
 71
3
 72
11
 73
7
 74
0
 42
0.0000001
 43
0.0000001
 44
0.0000000001
 40
0.0
 40
0.0
 40
0.0
 40
0.0
 40
0.2352255735
 40
0.4813739069
 40
0.7368566809
 40
1.0
 40
1.0
 40
1.0
 40
1.0
 10
10.1563475479
 20
8.294107534
 30
0.0
 10
10.1583403166
 20
8.3021353086
 30
0.0
 10
10.1621611564
 20
8.3186282845
 30
0.0
 10
10.1673096401
 20
8.3440251769
 30
0.0
 10
10.1719800382
 20
8.370511555
 30
0.0
 10
10.17471809
 20
8.3885436165
 30
0.0
 10
10.1760046578
 20
8.3977068435
 30
0.0
  0
SPLINE
  5
322
100
AcDbEntity
  8
0
100
AcDbSpline
 62
7
  6
CONTINUOUS
 70
0
 71
3
 72
15
 73
11
 74
0
 42
0.0000001
 43
0.0000001
 44
0.0000000001
 40
0.0
 40
0.0
 40
0.0
 40
0.0
 40
0.1233171364
 40
0.2468171961
 40
0.3706749962
 40
0.495049573
 40
0.6200773082
 40
0.7458671136
 40
0.8724927176
 40
1.0
 40
1.0
 40
1.0
 40
1.0
 10
11.320289692
 20
7.6867805133
 30
0.0
 10
11.3227469088
 20
7.6891540233
 30
0.0
 10
11.327925029
 20
7.6936435387
 30
0.0
 10
11.3363762495
 20
7.6995101224
 30
0.0
 10
11.3454320335
 20
7.7044555777
 30
0.0
 10
11.354999685
 20
7.7084290734
 30
0.0
 10
11.3649826908
 20
7.7113911593
 30
0.0
 10
11.3752804846
 20
7.713312218
 30
0.0
 10
11.3857879471
 20
7.7141735642
 30
0.0
 10
11.3928410664
 20
7.714035994
 30
0.0
 10
11.3963650378
 20
7.7137916057
 30
0.0
  0
SPLINE
  5
323
100
AcDbEntity
  8
0
100
AcDbSpline
 62
7
  6
CONTINUOUS
 70
0
 71
3
 72
15
 73
11
 74
0
 42
0.0000001
 43
0.0000001
 44
0.0000000001
 40
0.0
 40
0.0
 40
0.0
 40
0.0
 40
0.1233171364
 40
0.2468171961
 40
0.3706749962
 40
0.495049573
 40
0.6200773082
 40
0.7458671136
 40
0.8724927176
 40
1.0
 40
1.0
 40
1.0
 40
1.0
 10
11.320289692
 20
8.8652101188
 30
0.0
 10
11.3227469088
 20
8.8675836288
 30
0.0
 10
11.327925029
 20
8.8720731442
 30
0.0
 10
11.3363762495
 20
8.8779397279
 30
0.0
 10
11.3454320335
 20
8.8828851833
 30
0.0
 10
11.354999685
 20
8.886858679
 30
0.0
 10
11.3649826908
 20
8.8898207648
 30
0.0
 10
11.3752804846
 20
8.8917418235
 30
0.0
 10
11.3857879471
 20
8.8926031698
 30
0.0
 10
11.3928410664
 20
8.8924655995
 30
0.0
 10
11.3963650378
 20
8.8922212113
 30
0.0
  0
SPLINE
  5
324
100
AcDbEntity
  8
0
100
AcDbSpline
 62
7
  6
CONTINUOUS
 70
0
 71
3
 72
15
 73
11
 74
0
 42
0.0000001
 43
0.0000001
 44
0.0000000001
 40
0.0
 40
0.0
 40
0.0
 40
0.0
 40
0.1233171364
 40
0.2468171961
 40
0.3706749962
 40
0.495049573
 40
0.6200773082
 40
0.7458671136
 40
0.8724927176
 40
1.0
 40
1.0
 40
1.0
 40
1.0
 10
9.780603736
 20
7.7645803337
 30
0.0
 10
9.7830609528
 20
7.7669538437
 30
0.0
 10
9.788239073
 20
7.7714433591
 30
0.0
 10
9.7966902936
 20
7.7773099428
 30
0.0
 10
9.8057460775
 20
7.7822553982
 30
0.0
 10
9.815313729
 20
7.7862288939
 30
0.0
 10
9.8252967349
 20
7.7891909797
 30
0.0
 10
9.8355945286
 20
7.7911120385
 30
0.0
 10
9.8461019911
 20
7.7919733847
 30
0.0
 10
9.8531551105
 20
7.7918358144
 30
0.0
 10
9.8566790819
 20
7.7915914262
 30
0.0
  0
SPLINE
  5
325
100
AcDbEntity
  8
0
100
AcDbSpline
 62
7
  6
CONTINUOUS
 70
0
 71
3
 72
15
 73
11
 74
0
 42
0.0000001
 43
0.0000001
 44
0.0000000001
 40
0.0
 40
0.0
 40
0.0
 40
0.0
 40
0.1233171364
 40
0.2468171961
 40
0.3706749962
 40
0.495049573
 40
0.6200773082
 40
0.7458671136
 40
0.8724927176
 40
1.0
 40
1.0
 40
1.0
 40
1.0
 10
9.780603736
 20
9.0009654514
 30
0.0
 10
9.7830609528
 20
9.0033389614
 30
0.0
 10
9.788239073
 20
9.0078284768
 30
0.0
 10
9.7966902936
 20
9.0136950605
 30
0.0
 10
9.8057460775
 20
9.0186405158
 30
0.0
 10
9.815313729
 20
9.0226140116
 30
0.0
 10
9.8252967349
 20
9.0255760974
 30
0.0
 10
9.8355945286
 20
9.0274971561
 30
0.0
 10
9.8461019911
 20
9.0283585024
 30
0.0
 10
9.8531551105
 20
9.0282209321
 30
0.0
 10
9.8566790819
 20
9.0279765438
 30
0.0
  0
SPLINE
  5
326
100
AcDbEntity
  8
0
100
AcDbSpline
 62
7
  6
CONTINUOUS
 70
0
 71
3
 72
41
 73
37
 74
0
 42
0.0000001
 43
0.0000001
 44
0.0000000001
 40
0.0
 40
0.0
 40
0.0
 40
0.0
 40
0.0311446893
 40
0.0467774521
 40
0.0624475238
 40
0.0938924533
 40
0.1254747807
 40
0.1571823676
 40
0.1890004293
 40
0.2209120298
 40
0.2528983829
 40
0.2689156555
 40
0.2849439305
 40
0.317018006
 40
0.3491033515
 40
0.3811778086
 40
0.4132194286
 40
0.4452068971
 40
0.4771199497
 40
0.508939774
 40
0.5406493901
 40
0.5722340047
 40
0.6036813313
 40
0.6349818708
 40
0.6661291433
 40
0.6971198672
 40
0.7279540753
 40
0.758635165
 40
0.7891698747
 40
0.8195681843
 40
0.8498431362
 40
0.8800105794
 40
0.9100888365
 40
0.9400983034
 40
0.9700609878
 40
1.0
 40
1.0
 40
1.0
 40
1.0
 10
10.5791917828
 20
7.6163976023
 30
0.0
 10
10.573295049
 20
7.6168065422
 30
0.0
 10
10.5644566387
 20
7.6177442415
 30
0.0
 10
10.552753787
 20
7.6196286379
 30
0.0
 10
10.5410695197
 20
7.621942103
 30
0.0
 10
10.5265812057
 20
7.6256264924
 30
0.0
 10
10.5094989175
 20
7.6312817567
 30
0.0
 10
10.4927888274
 20
7.6381462527
 30
0.0
 10
10.4765404179
 20
7.646183265
 30
0.0
 10
10.460840537
 20
7.6553495348
 30
0.0
 10
10.4482881678
 20
7.6638857688
 30
0.0
 10
10.4386014087
 20
7.6712274042
 30
0.0
 10
10.4291583174
 20
7.6789063462
 30
0.0
 10
10.417848392
 20
7.6891085504
 30
0.0
 10
10.4051422081
 20
7.7022475766
 30
0.0
 10
10.3933643829
 20
7.7162173498
 30
0.0
 10
10.3825781324
 20
7.7309430966
 30
0.0
 10
10.3728408737
 20
7.7463464386
 30
0.0
 10
10.364204599
 20
7.7623452794
 30
0.0
 10
10.3567154174
 20
7.7788543771
 30
0.0
 10
10.3504133587
 20
7.7957857554
 30
0.0
 10
10.3453321481
 20
7.8130491776
 30
0.0
 10
10.3414990278
 20
7.8305526176
 30
0.0
 10
10.3389346081
 20
7.8482027448
 30
0.0
 10
10.3376527538
 20
7.8659054149
 30
0.0
 10
10.3376605034
 20
7.8835661658
 30
0.0
 10
10.3389580241
 20
7.9010907163
 30
0.0
 10
10.3415386013
 20
7.9183854655
 30
0.0
 10
10.3453886629
 20
7.9353579903
 30
0.0
 10
10.3504878421
 20
7.9519175419
 30
0.0
 10
10.3568090661
 20
7.9679755259
 30
0.0
 10
10.3643187202
 20
7.9834460132
 30
0.0
 10
10.3729767041
 20
7.9982460968
 30
0.0
 10
10.3827370623
 20
8.0122967651
 30
0.0
 10
10.3935466511
 20
8.0255217873
 30
0.0
 10
10.4014174492
 20
8.0337442887
 30
0.0
 10
10.4055042959
 20
8.0376919009
 30
0.0
  0
SPLINE
  5
327
100
AcDbEntity
  8
0
100
AcDbSpline
 62
7
  6
CONTINUOUS
 70
0
 71
3
 72
39
 73
35
 74
0
 42
0.0000001
 43
0.0000001
 44
0.0000000001
 40
0.0
 40
0.0
 40
0.0
 40
0.0
 40
0.0311445376
 40
0.062443355
 40
0.09388824
 40
0.1254709996
 40
0.1571788478
 40
0.1889972257
 40
0.2209091305
 40
0.2528957945
 40
0.2849369709
 40
0.3170113586
 40
0.3490970145
 40
0.3811717799
 40
0.4132137068
 40
0.4452014824
 40
0.4771148435
 40
0.5089349783
 40
0.5406449062
 40
0.5722298317
 40
0.6036774666
 40
0.6349783114
 40
0.6661258871
 40
0.6971169127
 40
0.7279514223
 40
0.7586328137
 40
0.7891678252
 40
0.8195664354
 40
0.8498416851
 40
0.8800094226
 40
0.9100879711
 40
0.9400977272
 40
0.9700606997
 40
1.0
 40
1.0
 40
1.0
 40
1.0
 10
9.8566790819
 20
7.5800536577
 30
0.0
 10
9.8540963535
 20
7.5802327705
 30
0.0
 10
9.8489292944
 20
7.5807809502
 30
0.0
 10
9.8412413747
 20
7.582161736
 30
0.0
 10
9.8336357685
 20
7.5840959109
 30
0.0
 10
9.8261536276
 20
7.5865729053
 30
0.0
 10
9.8188346391
 20
7.5895795598
 30
0.0
 10
9.8117178641
 20
7.5930997308
 30
0.0
 10
9.8048412105
 20
7.5971146344
 30
0.0
 10
9.7982413218
 20
7.6016028256
 30
0.0
 10
9.7919533644
 20
7.6065403615
 30
0.0
 10
9.7860108443
 20
7.6119009076
 30
0.0
 10
9.780445427
 20
7.6176558814
 30
0.0
 10
9.775286775
 20
7.6237746072
 30
0.0
 10
9.7705623903
 20
7.6302244773
 30
0.0
 10
9.7662974702
 20
7.6369711239
 30
0.0
 10
9.7625147735
 20
7.6439786001
 30
0.0
 10
9.7592345007
 20
7.6512095684
 30
0.0
 10
9.7564741864
 20
7.6586254972
 30
0.0
 10
9.7542486064
 20
7.6661868635
 30
0.0
 10
9.7525696916
 20
7.6738533586
 30
0.0
 10
9.7514464665
 20
7.6815841029
 30
0.0
 10
9.7508850021
 20
7.6893378614
 30
0.0
 10
9.7508883804
 20
7.6970732603
 30
0.0
 10
9.7514566746
 20
7.7047490051
 30
0.0
 10
9.7525869447
 20
7.7123240993
 30
0.0
 10
9.7542732478
 20
7.7197580615
 30
0.0
 10
9.7565066661
 20
7.7270111428
 30
0.0
 10
9.759275344
 20
7.7340445373
 30
0.0
 10
9.7625645542
 20
7.740820609
 30
0.0
 10
9.7663567307
 20
7.7473030457
 30
0.0
 10
9.7706317429
 20
7.753457243
 30
0.0
 10
9.7753663183
 20
7.7592498085
 30
0.0
 10
9.7788137025
 20
7.762851279
 30
0.0
 10
9.780603736
 20
7.7645803337
 30
0.0
  0
SPLINE
  5
328
100
AcDbEntity
  8
0
100
AcDbSpline
 62
7
  6
CONTINUOUS
 70
0
 71
3
 72
23
 73
19
 74
0
 42
0.0000001
 43
0.0000001
 44
0.0000000001
 40
0.0
 40
0.0
 40
0.0
 40
0.0
 40
0.0755954479
 40
0.1466391714
 40
0.2134657403
 40
0.2765145402
 40
0.3363265376
 40
0.3935471486
 40
0.4489234403
 40
0.5032885643
 40
0.5575265067
 40
0.6125277807
 40
0.6691438784
 40
0.7281492575
 40
0.7902198463
 40
0.8559237775
 40
0.9257267722
 40
1.0
 40
1.0
 40
1.0
 40
1.0
 10
13.583757827
 20
9.2224849441
 30
0.0
 10
13.5847138764
 20
9.2234084169
 30
0.0
 10
13.586624737
 20
9.2251429962
 30
0.0
 10
13.5895819723
 20
9.2274603233
 30
0.0
 10
13.5925357695
 20
9.2294065462
 30
0.0
 10
13.5954833556
 20
9.2309787527
 30
0.0
 10
13.5984223082
 20
9.2321740412
 30
0.0
 10
13.6013495707
 20
9.2329895907
 30
0.0
 10
13.6042613424
 20
9.233422388
 30
0.0
 10
13.6071527409
 20
9.2334705268
 30
0.0
 10
13.610018216
 20
9.2331331415
 30
0.0
 10
13.6128522322
 20
9.2324114018
 30
0.0
 10
13.615649939
 20
9.2313075834
 30
0.0
 10
13.6184076797
 20
9.2298250485
 30
0.0
 10
13.6211225962
 20
9.2279670653
 30
0.0
 10
13.623792577
 20
9.2257369691
 30
0.0
 10
13.626415375
 20
9.2231379541
 30
0.0
 10
13.6280776928
 20
9.2212230309
 30
0.0
 10
13.6289017246
 20
9.2202098487
 30
0.0
  0
SPLINE
  5
329
100
AcDbEntity
  8
0
100
AcDbSpline
 62
7
  6
CONTINUOUS
 70
0
 71
3
 72
32
 73
28
 74
0
 42
0.0000001
 43
0.0000001
 44
0.0000000001
 40
0.0
 40
0.0
 40
0.0
 40
0.0
 40
0.0851785808
 40
0.168580715
 40
0.2498831492
 40
0.3287740226
 40
0.4049544024
 40
0.478140587
 40
0.548066276
 40
0.5817294055
 40
0.6144868971
 40
0.6463114153
 40
0.677177589
 40
0.7070615085
 40
0.7359415204
 40
0.7637977499
 40
0.7906129595
 40
0.8163721292
 40
0.8410634027
 40
0.864677774
 40
0.887210161
 40
0.9086592746
 40
0.9290288912
 40
0.9483280183
 40
0.9665724819
 40
0.9837855524
 40
1.0
 40
1.0
 40
1.0
 40
1.0
 10
7.8968341552
 20
8.0218404458
 30
0.0
 10
7.8968341552
 20
8.0140706122
 30
0.0
 10
7.8969665567
 20
7.9986926144
 30
0.0
 10
7.8975738075
 20
7.9759055887
 30
0.0
 10
7.8985852048
 20
7.9537068797
 30
0.0
 10
7.8999963568
 20
7.9321900184
 30
0.0
 10
7.9018011441
 20
7.9114454426
 30
0.0
 10
7.903991813
 20
7.8915604883
 30
0.0
 10
7.906157453
 20
7.875579402
 30
0.0
 10
7.908085098
 20
7.8632920627
 30
0.0
 10
7.9096027761
 20
7.8544594178
 30
0.0
 10
7.9112091284
 20
7.8459019096
 30
0.0
 10
7.9129024051
 20
7.8376285243
 30
0.0
 10
7.9146808764
 20
7.829647957
 30
0.0
 10
7.9165425861
 20
7.8219685838
 30
0.0
 10
7.9184856365
 20
7.8145984615
 30
0.0
 10
7.920507896
 20
7.8075453048
 30
0.0
 10
7.922607306
 20
7.8008164961
 30
0.0
 10
7.9247815749
 20
7.7944190472
 30
0.0
 10
7.9270285
 20
7.788359628
 30
0.0
 10
7.9293456515
 20
7.7826445068
 30
0.0
 10
7.9317307091
 20
7.7772796053
 30
0.0
 10
7.9341811449
 20
7.7722704048
 30
0.0
 10
7.936694555
 20
7.7676220643
 30
0.0
 10
7.9392684216
 20
7.7633391988
 30
0.0
 10
7.9419001854
 20
7.7594263808
 30
0.0
 10
7.9437455684
 20
7.7569961447
 30
0.0
 10
7.9446787991
 20
7.7558486798
 30
0.0
  0
SPLINE
  5
32A
100
AcDbEntity
  8
0
100
AcDbSpline
 62
7
  6
CONTINUOUS
 70
0
 71
3
 72
39
 73
35
 74
0
 42
0.0000001
 43
0.0000001
 44
0.0000000001
 40
0.0
 40
0.0
 40
0.0
 40
0.0
 40
0.0071625678
 40
0.0146567179
 40
0.0224900413
 40
0.0306687017
 40
0.0391977329
 40
0.0480809761
 40
0.0573207983
 40
0.0669183965
 40
0.0768741435
 40
0.0871874377
 40
0.1088799456
 40
0.131978928
 40
0.1564568622
 40
0.182278431
 40
0.2094015018
 40
0.2377780607
 40
0.2673549092
 40
0.2980741881
 40
0.3298737896
 40
0.3626878448
 40
0.3964471028
 40
0.4310792359
 40
0.4665091073
 40
0.5026591244
 40
0.5394495258
 40
0.5767986285
 40
0.6146230679
 40
0.6913563402
 40
0.7689609431
 40
0.8467367595
 40
0.9239813805
 40
1.0
 40
1.0
 40
1.0
 40
1.0
 10
7.993891217
 20
9.3229977284
 30
0.0
 10
7.9930789228
 20
9.3222131124
 30
0.0
 10
7.9914554053
 20
9.3205671339
 30
0.0
 10
7.9890758381
 20
9.3179366954
 30
0.0
 10
7.9866992579
 20
9.3150914604
 30
0.0
 10
7.9843272554
 20
9.3120332659
 30
0.0
 10
7.9819611167
 20
9.308763943
 30
0.0
 10
7.9796022362
 20
9.3052853526
 30
0.0
 10
7.9772519508
 20
9.3015995479
 30
0.0
 10
7.9749116501
 20
9.2977087258
 30
0.0
 10
7.9725827672
 20
9.2936151782
 30
0.0
 10
7.9694415819
 20
9.2877915832
 30
0.0
 10
7.9655628914
 20
9.2800139283
 30
0.0
 10
7.9610508308
 20
9.2700651894
 30
0.0
 10
7.9566168556
 20
9.25937317
 30
0.0
 10
7.9522716747
 20
9.247963421
 30
0.0
 10
7.9480257732
 20
9.2358630792
 30
0.0
 10
7.9438894261
 20
9.2231010804
 30
0.0
 10
7.9398726531
 20
9.2097079723
 30
0.0
 10
7.9359851942
 20
9.1957158678
 30
0.0
 10
7.9322364512
 20
9.1811583632
 30
0.0
 10
7.9286354979
 20
9.1660704378
 30
0.0
 10
7.925191053
 20
9.1504883565
 30
0.0
 10
7.9219114606
 20
9.1344495895
 30
0.0
 10
7.9188046426
 20
9.1179927269
 30
0.0
 10
7.9158781059
 20
9.1011573708
 30
0.0
 10
7.913138935
 20
9.0839840449
 30
0.0
 10
7.9105937292
 20
9.0665140553
 30
0.0
 10
7.9074521407
 20
9.04276855
 30
0.0
 10
7.9040584043
 20
9.0126565297
 30
0.0
 10
7.9008619435
 20
8.976194356
 30
0.0
 10
7.8985533184
 20
8.9395842451
 30
0.0
 10
7.8971546775
 20
8.9031785737
 30
0.0
 10
7.8968341552
 20
8.8790118059
 30
0.0
 10
7.8968341552
 20
8.8670255939
 30
0.0
  0
SPLINE
  5
32B
100
AcDbEntity
  8
0
100
AcDbSpline
 62
7
  6
CONTINUOUS
 70
0
 71
3
 72
19
 73
15
 74
0
 42
0.0000001
 43
0.0000001
 44
0.0000000001
 40
0.0
 40
0.0
 40
0.0
 40
0.0
 40
0.1273503736
 40
0.2539015157
 40
0.3796863973
 40
0.5047594118
 40
0.5670709211
 40
0.6292366105
 40
0.6912699938
 40
0.7531857425
 40
0.814999582
 40
0.8767281837
 40
0.9383889761
 40
1.0
 40
1.0
 40
1.0
 40
1.0
 10
10.5918739052
 20
8.4197409255
 30
0.0
 10
10.599166338
 20
8.4192351936
 30
0.0
 10
10.6137598398
 20
8.4188825584
 30
0.0
 10
10.6355339315
 20
8.4203543949
 30
0.0
 10
10.6569504424
 20
8.4238159136
 30
0.0
 10
10.6743771512
 20
8.4283430592
 30
0.0
 10
10.6879538295
 20
8.4329241218
 30
0.0
 10
10.6979270348
 20
8.4368279346
 30
0.0
 10
10.7076809789
 20
8.4411953817
 30
0.0
 10
10.7171957638
 20
8.4460175775
 30
0.0
 10
10.7264516114
 20
8.4512845246
 30
0.0
 10
10.7354295034
 20
8.4569853458
 30
0.0
 10
10.7441105592
 20
8.4631081273
 30
0.0
 10
10.749690419
 20
8.4674646628
 30
0.0
 10
10.7524241098
 20
8.4697082536
 30
0.0
  0
SPLINE
  5
32C
100
AcDbEntity
  8
0
100
AcDbSpline
 62
7
  6
CONTINUOUS
 70
0
 71
3
 72
11
 73
7
 74
0
 42
0.0000001
 43
0.0000001
 44
0.0000000001
 40
0.0
 40
0.0
 40
0.0
 40
0.0
 40
0.2479820619
 40
0.4973635574
 40
0.7480747428
 40
1.0
 40
1.0
 40
1.0
 40
1.0
 10
10.5918739052
 20
8.4197409255
 30
0.0
 10
10.5850560019
 20
8.4202137487
 30
0.0
 10
10.5714150798
 20
8.421739459
 30
0.0
 10
10.5511650924
 20
8.4257287803
 30
0.0
 10
10.5312065423
 20
8.4313962401
 30
0.0
 10
10.518215924
 20
8.4362571217
 30
0.0
 10
10.5118163549
 20
8.4389497211
 30
0.0
  0
SPLINE
  5
32D
100
AcDbEntity
  8
0
100
AcDbSpline
 62
7
  6
CONTINUOUS
 70
0
 71
3
 72
26
 73
22
 74
0
 42
0.0000001
 43
0.0000001
 44
0.0000000001
 40
0.0
 40
0.0
 40
0.0
 40
0.0
 40
0.064462629
 40
0.0966108479
 40
0.128696965
 40
0.1926641502
 40
0.2563556392
 40
0.3197591906
 40
0.3828677443
 40
0.445679621
 40
0.5081986291
 40
0.5704340704
 40
0.6324006404
 40
0.6941182174
 40
0.7248960709
 40
0.7556213318
 40
0.8169195685
 40
0.8780557805
 40
0.9085793782
 40
0.9390763172
 40
1.0
 40
1.0
 40
1.0
 40
1.0
 10
10.3689639766
 20
8.5838132679
 30
0.0
 10
10.3668641152
 20
8.58899913
 30
0.0
 10
10.3639670569
 20
8.5968761359
 30
0.0
 10
10.3606283242
 20
8.6075369137
 30
0.0
 10
10.3576513414
 20
8.6182600478
 30
0.0
 10
10.3546017554
 20
8.6317963003
 30
0.0
 10
10.3520340299
 20
8.6481911802
 30
0.0
 10
10.35057327
 20
8.6646471871
 30
0.0
 10
10.3502264634
 20
8.6810879867
 30
0.0
 10
10.3509953282
 20
8.6974378144
 30
0.0
 10
10.3528764551
 20
8.713621115
 30
0.0
 10
10.3558613612
 20
8.7295632698
 30
0.0
 10
10.3599361923
 20
8.74519013
 30
0.0
 10
10.3642293371
 20
8.7579031642
 30
0.0
 10
10.3681875919
 20
8.767840428
 30
0.0
 10
10.3724831947
 20
8.7775968602
 30
0.0
 10
10.3784900445
 20
8.7894689895
 30
0.0
 10
10.3853271603
 20
8.8008628796
 30
0.0
 10
10.3912690541
 20
8.8096462484
 30
0.0
 10
10.3975141791
 20
8.8181932262
 30
0.0
 10
10.4025429773
 20
8.8243426693
 30
0.0
 10
10.4060371588
 20
8.8283113781
 30
0.0
  0
SPLINE
  5
32E
100
AcDbEntity
  8
0
100
AcDbSpline
 62
7
  6
CONTINUOUS
 70
0
 71
3
 72
18
 73
14
 74
0
 42
0.0000001
 43
0.0000001
 44
0.0000000001
 40
0.0
 40
0.0
 40
0.0
 40
0.0
 40
0.1504642378
 40
0.291713489
 40
0.4244435015
 40
0.4879106853
 40
0.5496096349
 40
0.668261898
 40
0.7817883925
 40
0.8371381174
 40
0.8918079639
 40
0.9460193952
 40
1.0
 40
1.0
 40
1.0
 40
1.0
 10
13.5538141246
 20
9.2545052493
 30
0.0
 10
13.5548742526
 20
9.2555292544
 30
0.0
 10
13.5569931318
 20
9.2574506123
 30
0.0
 10
13.5602739622
 20
9.2600111238
 30
0.0
 10
13.5630452381
 20
9.2618220476
 30
0.0
 10
13.5652550572
 20
9.2630483478
 30
0.0
 10
13.5673998373
 20
9.2641011666
 30
0.0
 10
13.5700815346
 20
9.2651649305
 30
0.0
 10
13.5728108968
 20
9.2658909791
 30
0.0
 10
13.5749726663
 20
9.2662485699
 30
0.0
 10
13.5765748242
 20
9.2664072973
 30
0.0
 10
13.578170501
 20
9.2664585931
 30
0.0
 10
13.5792306302
 20
9.2664210935
 30
0.0
 10
13.5797581491
 20
9.2663845054
 30
0.0
  0
SPLINE
  5
32F
100
AcDbEntity
  8
0
100
AcDbSpline
 62
7
  6
CONTINUOUS
 70
0
 71
3
 72
19
 73
15
 74
0
 42
0.0000001
 43
0.0000001
 44
0.0000000001
 40
0.0
 40
0.0
 40
0.0
 40
0.0
 40
0.1273503736
 40
0.2539015157
 40
0.3796863973
 40
0.5047594118
 40
0.5670709211
 40
0.6292366105
 40
0.6912699938
 40
0.7531857425
 40
0.814999582
 40
0.8767281837
 40
0.9383889761
 40
1.0
 40
1.0
 40
1.0
 40
1.0
 10
10.5918739052
 20
7.6286475926
 30
0.0
 10
10.599166338
 20
7.6281418607
 30
0.0
 10
10.6137598398
 20
7.6277892255
 30
0.0
 10
10.6355339315
 20
7.629261062
 30
0.0
 10
10.6569504424
 20
7.6327225807
 30
0.0
 10
10.6743771512
 20
7.6372497263
 30
0.0
 10
10.6879538295
 20
7.6418307888
 30
0.0
 10
10.6979270348
 20
7.6457346017
 30
0.0
 10
10.7076809789
 20
7.6501020488
 30
0.0
 10
10.7171957638
 20
7.6549242446
 30
0.0
 10
10.7264516114
 20
7.6601911917
 30
0.0
 10
10.7354295034
 20
7.6658920128
 30
0.0
 10
10.7441105592
 20
7.6720147943
 30
0.0
 10
10.749690419
 20
7.6763713298
 30
0.0
 10
10.7524241098
 20
7.6786149207
 30
0.0
  0
SPLINE
  5
330
100
AcDbEntity
  8
0
100
AcDbSpline
 62
7
  6
CONTINUOUS
 70
0
 71
3
 72
11
 73
7
 74
0
 42
0.0000001
 43
0.0000001
 44
0.0000000001
 40
0.0
 40
0.0
 40
0.0
 40
0.0
 40
0.2479820619
 40
0.4973635574
 40
0.7480747428
 40
1.0
 40
1.0
 40
1.0
 40
1.0
 10
10.5918739052
 20
7.6286475926
 30
0.0
 10
10.5850560019
 20
7.6291204158
 30
0.0
 10
10.5714150798
 20
7.6306461261
 30
0.0
 10
10.5511650924
 20
7.6346354474
 30
0.0
 10
10.5312065423
 20
7.6403029072
 30
0.0
 10
10.518215924
 20
7.6451637888
 30
0.0
 10
10.5118163549
 20
7.6478563882
 30
0.0
  0
SPLINE
  5
331
100
AcDbEntity
  8
0
100
AcDbSpline
 62
7
  6
CONTINUOUS
 70
0
 71
3
 72
26
 73
22
 74
0
 42
0.0000001
 43
0.0000001
 44
0.0000000001
 40
0.0
 40
0.0
 40
0.0
 40
0.0
 40
0.064462629
 40
0.0966108479
 40
0.128696965
 40
0.1926641502
 40
0.2563556392
 40
0.3197591906
 40
0.3828677443
 40
0.445679621
 40
0.5081986291
 40
0.5704340704
 40
0.6324006404
 40
0.6941182174
 40
0.7248960709
 40
0.7556213318
 40
0.8169195685
 40
0.8780557805
 40
0.9085793782
 40
0.9390763172
 40
1.0
 40
1.0
 40
1.0
 40
1.0
 10
10.3689639766
 20
7.792719935
 30
0.0
 10
10.3668641152
 20
7.7979057971
 30
0.0
 10
10.3639670569
 20
7.8057828029
 30
0.0
 10
10.3606283242
 20
7.8164435808
 30
0.0
 10
10.3576513414
 20
7.8271667149
 30
0.0
 10
10.3546017554
 20
7.8407029674
 30
0.0
 10
10.3520340299
 20
7.8570978472
 30
0.0
 10
10.35057327
 20
7.8735538541
 30
0.0
 10
10.3502264634
 20
7.8899946538
 30
0.0
 10
10.3509953282
 20
7.9063444815
 30
0.0
 10
10.3528764551
 20
7.9225277821
 30
0.0
 10
10.3558613612
 20
7.9384699369
 30
0.0
 10
10.3599361923
 20
7.9540967971
 30
0.0
 10
10.3642293371
 20
7.9668098312
 30
0.0
 10
10.3681875919
 20
7.9767470951
 30
0.0
 10
10.3724831947
 20
7.9865035273
 30
0.0
 10
10.3784900445
 20
7.9983756565
 30
0.0
 10
10.3853271603
 20
8.0097695467
 30
0.0
 10
10.3912690541
 20
8.0185529155
 30
0.0
 10
10.3975141791
 20
8.0270998932
 30
0.0
 10
10.4025429773
 20
8.0332493364
 30
0.0
 10
10.4060371588
 20
8.0372180452
 30
0.0
  0
SPLINE
  5
332
100
AcDbEntity
  8
0
100
AcDbSpline
 62
7
  6
CONTINUOUS
 70
0
 71
3
 72
19
 73
15
 74
0
 42
0.0000001
 43
0.0000001
 44
0.0000000001
 40
0.0
 40
0.0
 40
0.0
 40
0.0
 40
0.1273503736
 40
0.2539015157
 40
0.3796863973
 40
0.5047594118
 40
0.5670709211
 40
0.6292366105
 40
0.6912699938
 40
0.7531857425
 40
0.814999582
 40
0.8767281837
 40
0.9383889761
 40
1.0
 40
1.0
 40
1.0
 40
1.0
 10
10.2605613898
 20
8.0476538024
 30
0.0
 10
10.2678538226
 20
8.0471480704
 30
0.0
 10
10.2824473244
 20
8.0467954353
 30
0.0
 10
10.3042214161
 20
8.0482672718
 30
0.0
 10
10.325637927
 20
8.0517287905
 30
0.0
 10
10.3430646358
 20
8.0562559361
 30
0.0
 10
10.3566413141
 20
8.0608369986
 30
0.0
 10
10.3666145194
 20
8.0647408115
 30
0.0
 10
10.3763684635
 20
8.0691082586
 30
0.0
 10
10.3858832484
 20
8.0739304544
 30
0.0
 10
10.395139096
 20
8.0791974015
 30
0.0
 10
10.404116988
 20
8.0848982226
 30
0.0
 10
10.4127980438
 20
8.0910210041
 30
0.0
 10
10.4183779036
 20
8.0953775396
 30
0.0
 10
10.4211115944
 20
8.0976211305
 30
0.0
  0
SPLINE
  5
333
100
AcDbEntity
  8
0
100
AcDbSpline
 62
7
  6
CONTINUOUS
 70
0
 71
3
 72
11
 73
7
 74
0
 42
0.0000001
 43
0.0000001
 44
0.0000000001
 40
0.0
 40
0.0
 40
0.0
 40
0.0
 40
0.2479820619
 40
0.4973635574
 40
0.7480747428
 40
1.0
 40
1.0
 40
1.0
 40
1.0
 10
10.2605613898
 20
8.0476538024
 30
0.0
 10
10.2537434865
 20
8.0481266256
 30
0.0
 10
10.2401025644
 20
8.0496523359
 30
0.0
 10
10.219852577
 20
8.0536416572
 30
0.0
 10
10.1998940269
 20
8.059309117
 30
0.0
 10
10.1869034086
 20
8.0641699985
 30
0.0
 10
10.1805038395
 20
8.066862598
 30
0.0
  0
SPLINE
  5
334
100
AcDbEntity
  8
0
100
AcDbSpline
 62
7
  6
CONTINUOUS
 70
0
 71
3
 72
26
 73
22
 74
0
 42
0.0000001
 43
0.0000001
 44
0.0000000001
 40
0.0
 40
0.0
 40
0.0
 40
0.0
 40
0.064462629
 40
0.0966108479
 40
0.128696965
 40
0.1926641502
 40
0.2563556392
 40
0.3197591906
 40
0.3828677443
 40
0.445679621
 40
0.5081986291
 40
0.5704340704
 40
0.6324006404
 40
0.6941182174
 40
0.7248960709
 40
0.7556213318
 40
0.8169195685
 40
0.8780557805
 40
0.9085793782
 40
0.9390763172
 40
1.0
 40
1.0
 40
1.0
 40
1.0
 10
10.0376514612
 20
8.2117261448
 30
0.0
 10
10.0355515998
 20
8.2169120069
 30
0.0
 10
10.0326545415
 20
8.2247890127
 30
0.0
 10
10.0293158088
 20
8.2354497906
 30
0.0
 10
10.026338826
 20
8.2461729247
 30
0.0
 10
10.02328924
 20
8.2597091772
 30
0.0
 10
10.0207215145
 20
8.276104057
 30
0.0
 10
10.0192607546
 20
8.2925600639
 30
0.0
 10
10.018913948
 20
8.3090008636
 30
0.0
 10
10.0196828128
 20
8.3253506912
 30
0.0
 10
10.0215639397
 20
8.3415339918
 30
0.0
 10
10.0245488458
 20
8.3574761466
 30
0.0
 10
10.0286236769
 20
8.3731030069
 30
0.0
 10
10.0329168217
 20
8.385816041
 30
0.0
 10
10.0368750765
 20
8.3957533049
 30
0.0
 10
10.0411706793
 20
8.405509737
 30
0.0
 10
10.047177529
 20
8.4173818663
 30
0.0
 10
10.0540146449
 20
8.4287757565
 30
0.0
 10
10.0599565386
 20
8.4375591253
 30
0.0
 10
10.0662016637
 20
8.446106103
 30
0.0
 10
10.0712304619
 20
8.4522555461
 30
0.0
 10
10.0747246434
 20
8.456224255
 30
0.0
  0
SPLINE
  5
335
100
AcDbEntity
  8
0
100
AcDbSpline
 62
7
  6
CONTINUOUS
 70
0
 71
3
 72
19
 73
15
 74
0
 42
0.0000001
 43
0.0000001
 44
0.0000000001
 40
0.0
 40
0.0
 40
0.0
 40
0.0
 40
0.1273503736
 40
0.2539015157
 40
0.3796863973
 40
0.5047594118
 40
0.5670709211
 40
0.6292366105
 40
0.6912699938
 40
0.7531857425
 40
0.814999582
 40
0.8767281837
 40
0.9383889761
 40
1.0
 40
1.0
 40
1.0
 40
1.0
 10
10.9260842185
 20
8.0014996374
 30
0.0
 10
10.9333766514
 20
8.0009939055
 30
0.0
 10
10.9479701531
 20
8.0006412704
 30
0.0
 10
10.9697442448
 20
8.0021131068
 30
0.0
 10
10.9911607557
 20
8.0055746255
 30
0.0
 10
11.0085874646
 20
8.0101017712
 30
0.0
 10
11.0221641429
 20
8.0146828337
 30
0.0
 10
11.0321373481
 20
8.0185866465
 30
0.0
 10
11.0418912923
 20
8.0229540936
 30
0.0
 10
11.0514060771
 20
8.0277762894
 30
0.0
 10
11.0606619247
 20
8.0330432366
 30
0.0
 10
11.0696398167
 20
8.0387440577
 30
0.0
 10
11.0783208726
 20
8.0448668392
 30
0.0
 10
11.0839007324
 20
8.0492233747
 30
0.0
 10
11.0866344231
 20
8.0514669656
 30
0.0
  0
SPLINE
  5
336
100
AcDbEntity
  8
0
100
AcDbSpline
 62
7
  6
CONTINUOUS
 70
0
 71
3
 72
11
 73
7
 74
0
 42
0.0000001
 43
0.0000001
 44
0.0000000001
 40
0.0
 40
0.0
 40
0.0
 40
0.0
 40
0.2479820619
 40
0.4973635574
 40
0.7480747428
 40
1.0
 40
1.0
 40
1.0
 40
1.0
 10
10.9260842185
 20
8.0014996374
 30
0.0
 10
10.9192663152
 20
8.0019724606
 30
0.0
 10
10.9056253931
 20
8.0034981709
 30
0.0
 10
10.8853754058
 20
8.0074874922
 30
0.0
 10
10.8654168556
 20
8.013154952
 30
0.0
 10
10.8524262373
 20
8.0180158336
 30
0.0
 10
10.8460266682
 20
8.0207084331
 30
0.0
  0
SPLINE
  5
337
100
AcDbEntity
  8
0
100
AcDbSpline
 62
7
  6
CONTINUOUS
 70
0
 71
3
 72
26
 73
22
 74
0
 42
0.0000001
 43
0.0000001
 44
0.0000000001
 40
0.0
 40
0.0
 40
0.0
 40
0.0
 40
0.064462629
 40
0.0966108479
 40
0.128696965
 40
0.1926641502
 40
0.2563556392
 40
0.3197591906
 40
0.3828677443
 40
0.445679621
 40
0.5081986291
 40
0.5704340704
 40
0.6324006404
 40
0.6941182174
 40
0.7248960709
 40
0.7556213318
 40
0.8169195685
 40
0.8780557805
 40
0.9085793782
 40
0.9390763172
 40
1.0
 40
1.0
 40
1.0
 40
1.0
 10
10.7031742899
 20
8.1655719798
 30
0.0
 10
10.7010744285
 20
8.170757842
 30
0.0
 10
10.6981773703
 20
8.1786348478
 30
0.0
 10
10.6948386375
 20
8.1892956256
 30
0.0
 10
10.6918616548
 20
8.2000187597
 30
0.0
 10
10.6888120687
 20
8.2135550123
 30
0.0
 10
10.6862443432
 20
8.2299498921
 30
0.0
 10
10.6847835833
 20
8.246405899
 30
0.0
 10
10.6844367768
 20
8.2628466986
 30
0.0
 10
10.6852056415
 20
8.2791965263
 30
0.0
 10
10.6870867684
 20
8.2953798269
 30
0.0
 10
10.6900716745
 20
8.3113219817
 30
0.0
 10
10.6941465056
 20
8.3269488419
 30
0.0
 10
10.6984396504
 20
8.3396618761
 30
0.0
 10
10.7023979052
 20
8.34959914
 30
0.0
 10
10.706693508
 20
8.3593555721
 30
0.0
 10
10.7127003578
 20
8.3712277014
 30
0.0
 10
10.7195374736
 20
8.3826215916
 30
0.0
 10
10.7254793674
 20
8.3914049604
 30
0.0
 10
10.7317244924
 20
8.3999519381
 30
0.0
 10
10.7367532906
 20
8.4061013812
 30
0.0
 10
10.7402474721
 20
8.41007009
 30
0.0
  0
SPLINE
  5
338
100
AcDbEntity
  8
0
100
AcDbSpline
 62
7
  6
CONTINUOUS
 70
0
 71
3
 72
39
 73
35
 74
0
 42
0.0000001
 43
0.0000001
 44
0.0000000001
 40
0.0
 40
0.0
 40
0.0
 40
0.0
 40
0.0311445376
 40
0.062443355
 40
0.09388824
 40
0.1254709996
 40
0.1571788478
 40
0.1889972257
 40
0.2209091305
 40
0.2528957945
 40
0.2849369709
 40
0.3170113586
 40
0.3490970145
 40
0.3811717799
 40
0.4132137068
 40
0.4452014824
 40
0.4771148435
 40
0.5089349783
 40
0.5406449062
 40
0.5722298317
 40
0.6036774666
 40
0.6349783114
 40
0.6661258871
 40
0.6971169127
 40
0.7279514223
 40
0.7586328137
 40
0.7891678252
 40
0.8195664354
 40
0.8498416851
 40
0.8800094226
 40
0.9100879711
 40
0.9400977272
 40
0.9700606997
 40
1.0
 40
1.0
 40
1.0
 40
1.0
 10
11.3963650378
 20
7.5022538372
 30
0.0
 10
11.3937823095
 20
7.5024329501
 30
0.0
 10
11.3886152504
 20
7.5029811297
 30
0.0
 10
11.3809273306
 20
7.5043619156
 30
0.0
 10
11.3733217245
 20
7.5062960905
 30
0.0
 10
11.3658395835
 20
7.5087730849
 30
0.0
 10
11.358520595
 20
7.5117797394
 30
0.0
 10
11.3514038201
 20
7.5152999104
 30
0.0
 10
11.3445271665
 20
7.519314814
 30
0.0
 10
11.3379272778
 20
7.5238030051
 30
0.0
 10
11.3316393204
 20
7.528740541
 30
0.0
 10
11.3256968003
 20
7.5341010871
 30
0.0
 10
11.320131383
 20
7.5398560609
 30
0.0
 10
11.314972731
 20
7.5459747867
 30
0.0
 10
11.3102483463
 20
7.5524246568
 30
0.0
 10
11.3059834262
 20
7.5591713035
 30
0.0
 10
11.3022007295
 20
7.5661787797
 30
0.0
 10
11.2989204567
 20
7.573409748
 30
0.0
 10
11.2961601423
 20
7.5808256768
 30
0.0
 10
11.2939345624
 20
7.588387043
 30
0.0
 10
11.2922556476
 20
7.5960535381
 30
0.0
 10
11.2911324225
 20
7.6037842824
 30
0.0
 10
11.2905709581
 20
7.6115380409
 30
0.0
 10
11.2905743364
 20
7.6192734398
 30
0.0
 10
11.2911426306
 20
7.6269491847
 30
0.0
 10
11.2922729007
 20
7.6345242789
 30
0.0
 10
11.2939592038
 20
7.6419582411
 30
0.0
 10
11.2961926221
 20
7.6492113224
 30
0.0
 10
11.2989613
 20
7.6562447168
 30
0.0
 10
11.3022505102
 20
7.6630207885
 30
0.0
 10
11.3060426867
 20
7.6695032253
 30
0.0
 10
11.3103176989
 20
7.6756574226
 30
0.0
 10
11.3150522743
 20
7.681449988
 30
0.0
 10
11.3184996585
 20
7.6850514586
 30
0.0
 10
11.320289692
 20
7.6867805133
 30
0.0
  0
SPLINE
  5
339
100
AcDbEntity
  8
0
100
AcDbSpline
 62
7
  6
CONTINUOUS
 70
0
 71
3
 72
41
 73
37
 74
0
 42
0.0000001
 43
0.0000001
 44
0.0000000001
 40
0.0
 40
0.0
 40
0.0
 40
0.0
 40
0.0311446893
 40
0.0467774521
 40
0.0624475238
 40
0.0938924533
 40
0.1254747807
 40
0.1571823676
 40
0.1890004293
 40
0.2209120298
 40
0.2528983829
 40
0.2689156555
 40
0.2849439305
 40
0.317018006
 40
0.3491033515
 40
0.3811778086
 40
0.4132194286
 40
0.4452068971
 40
0.4771199497
 40
0.508939774
 40
0.5406493901
 40
0.5722340047
 40
0.6036813313
 40
0.6349818708
 40
0.6661291433
 40
0.6971198672
 40
0.7279540753
 40
0.758635165
 40
0.7891698747
 40
0.8195681843
 40
0.8498431362
 40
0.8800105794
 40
0.9100888365
 40
0.9400983034
 40
0.9700609878
 40
1.0
 40
1.0
 40
1.0
 40
1.0
 10
10.5791917828
 20
8.4074909352
 30
0.0
 10
10.573295049
 20
8.4078998751
 30
0.0
 10
10.5644566387
 20
8.4088375744
 30
0.0
 10
10.552753787
 20
8.4107219708
 30
0.0
 10
10.5410695197
 20
8.413035436
 30
0.0
 10
10.5265812057
 20
8.4167198253
 30
0.0
 10
10.5094989175
 20
8.4223750896
 30
0.0
 10
10.4927888274
 20
8.4292395856
 30
0.0
 10
10.4765404179
 20
8.4372765979
 30
0.0
 10
10.460840537
 20
8.4464428677
 30
0.0
 10
10.4482881678
 20
8.4549791017
 30
0.0
 10
10.4386014087
 20
8.4623207371
 30
0.0
 10
10.4291583174
 20
8.4699996791
 30
0.0
 10
10.417848392
 20
8.4802018833
 30
0.0
 10
10.4051422081
 20
8.4933409095
 30
0.0
 10
10.3933643829
 20
8.5073106828
 30
0.0
 10
10.3825781324
 20
8.5220364295
 30
0.0
 10
10.3728408737
 20
8.5374397715
 30
0.0
 10
10.364204599
 20
8.5534386124
 30
0.0
 10
10.3567154174
 20
8.56994771
 30
0.0
 10
10.3504133587
 20
8.5868790883
 30
0.0
 10
10.3453321481
 20
8.6041425105
 30
0.0
 10
10.3414990278
 20
8.6216459505
 30
0.0
 10
10.3389346081
 20
8.6392960778
 30
0.0
 10
10.3376527538
 20
8.6569987478
 30
0.0
 10
10.3376605034
 20
8.6746594987
 30
0.0
 10
10.3389580241
 20
8.6921840492
 30
0.0
 10
10.3415386013
 20
8.7094787984
 30
0.0
 10
10.3453886629
 20
8.7264513232
 30
0.0
 10
10.3504878421
 20
8.7430108748
 30
0.0
 10
10.3568090661
 20
8.7590688588
 30
0.0
 10
10.3643187202
 20
8.7745393461
 30
0.0
 10
10.3729767041
 20
8.7893394297
 30
0.0
 10
10.3827370623
 20
8.803390098
 30
0.0
 10
10.3935466511
 20
8.8166151202
 30
0.0
 10
10.4014174492
 20
8.8248376216
 30
0.0
 10
10.4055042959
 20
8.8287852338
 30
0.0
  0
SPLINE
  5
33A
100
AcDbEntity
  8
0
100
AcDbSpline
 62
7
  6
CONTINUOUS
 70
0
 71
3
 72
11
 73
7
 74
0
 42
0.0000001
 43
0.0000001
 44
0.0000000001
 40
0.0
 40
0.0
 40
0.0
 40
0.0
 40
0.2461627477
 40
0.4938791323
 40
0.7446706977
 40
1.0
 40
1.0
 40
1.0
 40
1.0
 10
13.4150978029
 20
8.8078030608
 30
0.0
 10
13.4160216321
 20
8.8077389881
 30
0.0
 10
13.4178707032
 20
8.8075338714
 30
0.0
 10
13.4206233028
 20
8.8069975121
 30
0.0
 10
13.4233570859
 20
8.8062326216
 30
0.0
 10
13.4251471539
 20
8.8055775509
 30
0.0
 10
13.4260363686
 20
8.8052143433
 30
0.0
  0
SPLINE
  5
33B
100
AcDbEntity
  8
0
100
AcDbSpline
 62
7
  6
CONTINUOUS
 70
0
 71
3
 72
39
 73
35
 74
0
 42
0.0000001
 43
0.0000001
 44
0.0000000001
 40
0.0
 40
0.0
 40
0.0
 40
0.0
 40
0.0311445376
 40
0.062443355
 40
0.09388824
 40
0.1254709996
 40
0.1571788478
 40
0.1889972257
 40
0.2209091305
 40
0.2528957945
 40
0.2849369709
 40
0.3170113586
 40
0.3490970145
 40
0.3811717799
 40
0.4132137068
 40
0.4452014824
 40
0.4771148435
 40
0.5089349783
 40
0.5406449062
 40
0.5722298317
 40
0.6036774666
 40
0.6349783114
 40
0.6661258871
 40
0.6971169127
 40
0.7279514223
 40
0.7586328137
 40
0.7891678252
 40
0.8195664354
 40
0.8498416851
 40
0.8800094226
 40
0.9100879711
 40
0.9400977272
 40
0.9700606997
 40
1.0
 40
1.0
 40
1.0
 40
1.0
 10
11.3963650378
 20
8.6806834428
 30
0.0
 10
11.3937823095
 20
8.6808625556
 30
0.0
 10
11.3886152504
 20
8.6814107353
 30
0.0
 10
11.3809273306
 20
8.6827915211
 30
0.0
 10
11.3733217245
 20
8.684725696
 30
0.0
 10
11.3658395835
 20
8.6872026904
 30
0.0
 10
11.358520595
 20
8.6902093449
 30
0.0
 10
11.3514038201
 20
8.6937295159
 30
0.0
 10
11.3445271665
 20
8.6977444195
 30
0.0
 10
11.3379272778
 20
8.7022326106
 30
0.0
 10
11.3316393204
 20
8.7071701466
 30
0.0
 10
11.3256968003
 20
8.7125306927
 30
0.0
 10
11.320131383
 20
8.7182856665
 30
0.0
 10
11.314972731
 20
8.7244043923
 30
0.0
 10
11.3102483463
 20
8.7308542624
 30
0.0
 10
11.3059834262
 20
8.737600909
 30
0.0
 10
11.3022007295
 20
8.7446083852
 30
0.0
 10
11.2989204567
 20
8.7518393535
 30
0.0
 10
11.2961601423
 20
8.7592552823
 30
0.0
 10
11.2939345624
 20
8.7668166486
 30
0.0
 10
11.2922556476
 20
8.7744831437
 30
0.0
 10
11.2911324225
 20
8.782213888
 30
0.0
 10
11.2905709581
 20
8.7899676465
 30
0.0
 10
11.2905743364
 20
8.7977030453
 30
0.0
 10
11.2911426306
 20
8.8053787902
 30
0.0
 10
11.2922729007
 20
8.8129538844
 30
0.0
 10
11.2939592038
 20
8.8203878466
 30
0.0
 10
11.2961926221
 20
8.8276409279
 30
0.0
 10
11.2989613
 20
8.8346743224
 30
0.0
 10
11.3022505102
 20
8.841450394
 30
0.0
 10
11.3060426867
 20
8.8479328308
 30
0.0
 10
11.3103176989
 20
8.8540870281
 30
0.0
 10
11.3150522743
 20
8.8598795935
 30
0.0
 10
11.3184996585
 20
8.8634810641
 30
0.0
 10
11.320289692
 20
8.8652101188
 30
0.0
  0
SPLINE
  5
33C
100
AcDbEntity
  8
0
100
AcDbSpline
 62
7
  6
CONTINUOUS
 70
0
 71
3
 72
39
 73
35
 74
0
 42
0.0000001
 43
0.0000001
 44
0.0000000001
 40
0.0
 40
0.0
 40
0.0
 40
0.0
 40
0.0760186195
 40
0.1532632405
 40
0.2310390569
 40
0.3086436598
 40
0.3853769321
 40
0.4232013715
 40
0.4605504742
 40
0.4973408756
 40
0.5334908927
 40
0.5689207641
 40
0.6035528972
 40
0.6373121552
 40
0.6701262104
 40
0.7019258119
 40
0.7326450908
 40
0.7622219393
 40
0.7905984982
 40
0.817721569
 40
0.8435431378
 40
0.868021072
 40
0.8911200544
 40
0.9128125623
 40
0.9231258565
 40
0.9330816035
 40
0.9426792017
 40
0.9519190239
 40
0.9608022671
 40
0.9693312983
 40
0.9775099587
 40
0.9853432821
 40
0.9928374322
 40
1.0
 40
1.0
 40
1.0
 40
1.0
 10
13.1875061959
 20
8.5074567334
 30
0.0
 10
13.1875061959
 20
8.5184520852
 30
0.0
 10
13.1878002217
 20
8.5406210669
 30
0.0
 10
13.1890832416
 20
8.5740172028
 30
0.0
 10
13.1912010205
 20
8.6076008779
 30
0.0
 10
13.1941332404
 20
8.6410488452
 30
0.0
 10
13.197246428
 20
8.6686716051
 30
0.0
 10
13.2001283118
 20
8.6904541486
 30
0.0
 10
13.2024631139
 20
8.7064799525
 30
0.0
 10
13.2049758467
 20
8.7222336168
 30
0.0
 10
13.2076604564
 20
8.7376772501
 30
0.0
 10
13.2105104441
 20
8.7527736787
 30
0.0
 10
13.2135189235
 20
8.7674865743
 30
0.0
 10
13.2166786276
 20
8.7817805368
 30
0.0
 10
13.2199819022
 20
8.7956211938
 30
0.0
 10
13.223420749
 20
8.808975278
 30
0.0
 10
13.2269868447
 20
8.8218107018
 30
0.0
 10
13.2306715644
 20
8.8340966464
 30
0.0
 10
13.2344659735
 20
8.8458036533
 30
0.0
 10
13.2383608805
 20
8.8569037001
 30
0.0
 10
13.2423468598
 20
8.8673702432
 30
0.0
 10
13.246414293
 20
8.877178389
 30
0.0
 10
13.2505533566
 20
8.8863046988
 30
0.0
 10
13.2541114088
 20
8.893439401
 30
0.0
 10
13.2569929227
 20
8.8987815787
 30
0.0
 10
13.2591292846
 20
8.9025367264
 30
0.0
 10
13.2612761204
 20
8.9061059072
 30
0.0
 10
13.2634321156
 20
8.9094870187
 30
0.0
 10
13.2655959953
 20
8.9126780456
 30
0.0
 10
13.2677665332
 20
8.9156771045
 30
0.0
 10
13.2699424502
 20
8.9184824883
 30
0.0
 10
13.2721225664
 20
8.9210925172
 30
0.0
 10
13.2743054227
 20
8.9235055061
 30
0.0
 10
13.2757947294
 20
8.925015417
 30
0.0
 10
13.276539874
 20
8.9257351714
 30
0.0
  0
SPLINE
  5
33D
100
AcDbEntity
  8
0
100
AcDbSpline
 62
7
  6
CONTINUOUS
 70
0
 71
3
 72
39
 73
35
 74
0
 42
0.0000001
 43
0.0000001
 44
0.0000000001
 40
0.0
 40
0.0
 40
0.0
 40
0.0
 40
0.0311445376
 40
0.062443355
 40
0.09388824
 40
0.1254709996
 40
0.1571788478
 40
0.1889972257
 40
0.2209091305
 40
0.2528957945
 40
0.2849369709
 40
0.3170113586
 40
0.3490970145
 40
0.3811717799
 40
0.4132137068
 40
0.4452014824
 40
0.4771148435
 40
0.5089349783
 40
0.5406449062
 40
0.5722298317
 40
0.6036774666
 40
0.6349783114
 40
0.6661258871
 40
0.6971169127
 40
0.7279514223
 40
0.7586328137
 40
0.7891678252
 40
0.8195664354
 40
0.8498416851
 40
0.8800094226
 40
0.9100879711
 40
0.9400977272
 40
0.9700606997
 40
1.0
 40
1.0
 40
1.0
 40
1.0
 10
9.8566790819
 20
8.8164387754
 30
0.0
 10
9.8540963535
 20
8.8166178882
 30
0.0
 10
9.8489292944
 20
8.8171660679
 30
0.0
 10
9.8412413747
 20
8.8185468537
 30
0.0
 10
9.8336357685
 20
8.8204810286
 30
0.0
 10
9.8261536276
 20
8.822958023
 30
0.0
 10
9.8188346391
 20
8.8259646775
 30
0.0
 10
9.8117178641
 20
8.8294848485
 30
0.0
 10
9.8048412105
 20
8.8334997521
 30
0.0
 10
9.7982413218
 20
8.8379879432
 30
0.0
 10
9.7919533644
 20
8.8429254791
 30
0.0
 10
9.7860108443
 20
8.8482860253
 30
0.0
 10
9.780445427
 20
8.854040999
 30
0.0
 10
9.775286775
 20
8.8601597248
 30
0.0
 10
9.7705623903
 20
8.8666095949
 30
0.0
 10
9.7662974702
 20
8.8733562416
 30
0.0
 10
9.7625147735
 20
8.8803637178
 30
0.0
 10
9.7592345007
 20
8.8875946861
 30
0.0
 10
9.7564741864
 20
8.8950106149
 30
0.0
 10
9.7542486064
 20
8.9025719812
 30
0.0
 10
9.7525696916
 20
8.9102384762
 30
0.0
 10
9.7514464665
 20
8.9179692206
 30
0.0
 10
9.7508850021
 20
8.925722979
 30
0.0
 10
9.7508883804
 20
8.9334583779
 30
0.0
 10
9.7514566746
 20
8.9411341228
 30
0.0
 10
9.7525869447
 20
8.948709217
 30
0.0
 10
9.7542732478
 20
8.9561431792
 30
0.0
 10
9.7565066661
 20
8.9633962605
 30
0.0
 10
9.759275344
 20
8.970429655
 30
0.0
 10
9.7625645542
 20
8.9772057266
 30
0.0
 10
9.7663567307
 20
8.9836881634
 30
0.0
 10
9.7706317429
 20
8.9898423607
 30
0.0
 10
9.7753663183
 20
8.9956349261
 30
0.0
 10
9.7788137025
 20
8.9992363967
 30
0.0
 10
9.780603736
 20
9.0009654514
 30
0.0
  0
SPLINE
  5
33E
100
AcDbEntity
  8
0
100
AcDbSpline
 62
7
  6
CONTINUOUS
 70
0
 71
3
 72
23
 73
19
 74
0
 42
0.0000001
 43
0.0000001
 44
0.0000000001
 40
0.0
 40
0.0
 40
0.0
 40
0.0
 40
0.0616482149
 40
0.1233194547
 40
0.1850364846
 40
0.2468215689
 40
0.3086962155
 40
0.3706809299
 40
0.4327950056
 40
0.4950563252
 40
0.557481176
 40
0.6200840805
 40
0.6828775566
 40
0.7458723664
 40
0.8090769636
 40
0.8724964899
 40
0.9361392081
 40
1.0
 40
1.0
 40
1.0
 40
1.0
 10
11.0870895829
 20
8.0509182903
 30
0.0
 10
11.0842840576
 20
8.0482083462
 30
0.0
 10
11.078524999
 20
8.0429372463
 30
0.0
 10
11.0694721622
 20
8.0355048405
 30
0.0
 10
11.0600262227
 20
8.0285636927
 30
0.0
 10
11.050211301
 20
8.0221315935
 30
0.0
 10
11.040052036
 20
8.0162246713
 30
0.0
 10
11.0295740478
 20
8.0108578312
 30
0.0
 10
11.0188037541
 20
8.0060445338
 30
0.0
 10
11.0077682939
 20
8.0017968788
 30
0.0
 10
10.9964954571
 20
7.9981255699
 30
0.0
 10
10.9850136474
 20
7.995039828
 30
0.0
 10
10.9733517908
 20
7.9925473499
 30
0.0
 10
10.9615392355
 20
7.9906543959
 30
0.0
 10
10.9496058092
 20
7.989365757
 30
0.0
 10
10.9375812648
 20
7.9886845217
 30
0.0
 10
10.9254964984
 20
7.9886125356
 30
0.0
 10
10.9174330202
 20
7.9889701016
 30
0.0
 10
10.9134020961
 20
7.9892496471
 30
0.0
  0
SPLINE
  5
33F
100
AcDbEntity
  8
0
100
AcDbSpline
 62
7
  6
CONTINUOUS
 70
0
 71
3
 72
23
 73
19
 74
0
 42
0.0000001
 43
0.0000001
 44
0.0000000001
 40
0.0
 40
0.0
 40
0.0
 40
0.0
 40
0.0616482149
 40
0.1233194547
 40
0.1850364846
 40
0.2468215689
 40
0.3086962155
 40
0.3706809299
 40
0.4327950056
 40
0.4950563252
 40
0.557481176
 40
0.6200840805
 40
0.6828775566
 40
0.7458723664
 40
0.8090769636
 40
0.8724964899
 40
0.9361392081
 40
1.0
 40
1.0
 40
1.0
 40
1.0
 10
10.4215667542
 20
8.0970724552
 30
0.0
 10
10.4187612288
 20
8.0943625112
 30
0.0
 10
10.4130021702
 20
8.0890914113
 30
0.0
 10
10.4039493334
 20
8.0816590054
 30
0.0
 10
10.3945033939
 20
8.0747178577
 30
0.0
 10
10.3846884723
 20
8.0682857585
 30
0.0
 10
10.3745292073
 20
8.0623788363
 30
0.0
 10
10.364051219
 20
8.0570119961
 30
0.0
 10
10.3532809254
 20
8.0521986987
 30
0.0
 10
10.3422454651
 20
8.0479510438
 30
0.0
 10
10.3309726283
 20
8.0442797348
 30
0.0
 10
10.3194908186
 20
8.041193993
 30
0.0
 10
10.3078289621
 20
8.0387015148
 30
0.0
 10
10.2960164068
 20
8.0368085608
 30
0.0
 10
10.2840829805
 20
8.0355199219
 30
0.0
 10
10.2720584361
 20
8.0348386866
 30
0.0
 10
10.2599736697
 20
8.0347667006
 30
0.0
 10
10.2519101915
 20
8.0351242665
 30
0.0
 10
10.2478792673
 20
8.0354038121
 30
0.0
  0
SPLINE
  5
340
100
AcDbEntity
  8
0
100
AcDbSpline
 62
7
  6
CONTINUOUS
 70
0
 71
3
 72
11
 73
7
 74
0
 42
0.0000001
 43
0.0000001
 44
0.0000000001
 40
0.0
 40
0.0
 40
0.0
 40
0.0
 40
0.2552666527
 40
0.5060486559
 40
0.7537915838
 40
1.0
 40
1.0
 40
1.0
 40
1.0
 10
13.3515009675
 20
7.7314273009
 30
0.0
 10
13.3505757496
 20
7.7311935579
 30
0.0
 10
13.348723683
 20
7.7307974987
 30
0.0
 10
13.3459278347
 20
7.7304231026
 30
0.0
 10
13.3431447555
 20
7.7302749499
 30
0.0
 10
13.3412964847
 20
7.7303272142
 30
0.0
 10
13.3403782666
 20
7.7303908977
 30
0.0
  0
SPLINE
  5
341
100
AcDbEntity
  8
0
100
AcDbSpline
 62
7
  6
CONTINUOUS
 70
0
 71
3
 72
23
 73
19
 74
0
 42
0.0000001
 43
0.0000001
 44
0.0000000001
 40
0.0
 40
0.0
 40
0.0
 40
0.0
 40
0.0616482149
 40
0.1233194547
 40
0.1850364846
 40
0.2468215689
 40
0.3086962155
 40
0.3706809299
 40
0.4327950056
 40
0.4950563252
 40
0.557481176
 40
0.6200840805
 40
0.6828775566
 40
0.7458723664
 40
0.8090769636
 40
0.8724964899
 40
0.9361392081
 40
1.0
 40
1.0
 40
1.0
 40
1.0
 10
10.7528792696
 20
7.6780662455
 30
0.0
 10
10.7500737442
 20
7.6753563014
 30
0.0
 10
10.7443146856
 20
7.6700852015
 30
0.0
 10
10.7352618488
 20
7.6626527956
 30
0.0
 10
10.7258159093
 20
7.6557116479
 30
0.0
 10
10.7160009877
 20
7.6492795487
 30
0.0
 10
10.7058417227
 20
7.6433726265
 30
0.0
 10
10.6953637344
 20
7.6380057864
 30
0.0
 10
10.6845934408
 20
7.6331924889
 30
0.0
 10
10.6735579806
 20
7.628944834
 30
0.0
 10
10.6622851438
 20
7.625273525
 30
0.0
 10
10.6508033341
 20
7.6221877832
 30
0.0
 10
10.6391414775
 20
7.6196953051
 30
0.0
 10
10.6273289222
 20
7.6178023511
 30
0.0
 10
10.6153954959
 20
7.6165137122
 30
0.0
 10
10.6033709515
 20
7.6158324769
 30
0.0
 10
10.5912861851
 20
7.6157604908
 30
0.0
 10
10.5832227069
 20
7.6161180568
 30
0.0
 10
10.5791917828
 20
7.6163976023
 30
0.0
  0
SPLINE
  5
342
100
AcDbEntity
  8
0
100
AcDbSpline
 62
7
  6
CONTINUOUS
 70
0
 71
3
 72
23
 73
19
 74
0
 42
0.0000001
 43
0.0000001
 44
0.0000000001
 40
0.0
 40
0.0
 40
0.0
 40
0.0
 40
0.0616482149
 40
0.1233194547
 40
0.1850364846
 40
0.2468215689
 40
0.3086962155
 40
0.3706809299
 40
0.4327950056
 40
0.4950563252
 40
0.557481176
 40
0.6200840805
 40
0.6828775566
 40
0.7458723664
 40
0.8090769636
 40
0.8724964899
 40
0.9361392081
 40
1.0
 40
1.0
 40
1.0
 40
1.0
 10
10.7528792696
 20
8.4691595784
 30
0.0
 10
10.7500737442
 20
8.4664496343
 30
0.0
 10
10.7443146856
 20
8.4611785344
 30
0.0
 10
10.7352618488
 20
8.4537461285
 30
0.0
 10
10.7258159093
 20
8.4468049808
 30
0.0
 10
10.7160009877
 20
8.4403728816
 30
0.0
 10
10.7058417227
 20
8.4344659594
 30
0.0
 10
10.6953637344
 20
8.4290991193
 30
0.0
 10
10.6845934408
 20
8.4242858219
 30
0.0
 10
10.6735579806
 20
8.4200381669
 30
0.0
 10
10.6622851438
 20
8.4163668579
 30
0.0
 10
10.6508033341
 20
8.4132811161
 30
0.0
 10
10.6391414775
 20
8.410788638
 30
0.0
 10
10.6273289222
 20
8.408895684
 30
0.0
 10
10.6153954959
 20
8.4076070451
 30
0.0
 10
10.6033709515
 20
8.4069258098
 30
0.0
 10
10.5912861851
 20
8.4068538237
 30
0.0
 10
10.5832227069
 20
8.4072113897
 30
0.0
 10
10.5791917828
 20
8.4074909352
 30
0.0
  0
SPLINE
  5
343
100
AcDbEntity
  8
0
100
AcDbSpline
 62
7
  6
CONTINUOUS
 70
0
 71
3
 72
41
 73
37
 74
0
 42
0.0000001
 43
0.0000001
 44
0.0000000001
 40
0.0
 40
0.0
 40
0.0
 40
0.0
 40
0.0311446893
 40
0.0467774521
 40
0.0624475238
 40
0.0938924533
 40
0.1254747807
 40
0.1571823676
 40
0.1890004293
 40
0.2209120298
 40
0.2528983829
 40
0.2689156555
 40
0.2849439305
 40
0.317018006
 40
0.3491033515
 40
0.3811778086
 40
0.4132194286
 40
0.4452068971
 40
0.4771199497
 40
0.508939774
 40
0.5406493901
 40
0.5722340047
 40
0.6036813313
 40
0.6349818708
 40
0.6661291433
 40
0.6971198672
 40
0.7279540753
 40
0.758635165
 40
0.7891698747
 40
0.8195681843
 40
0.8498431362
 40
0.8800105794
 40
0.9100888365
 40
0.9400983034
 40
0.9700609878
 40
1.0
 40
1.0
 40
1.0
 40
1.0
 10
10.2478792673
 20
8.0354038121
 30
0.0
 10
10.2419825336
 20
8.0358127519
 30
0.0
 10
10.2331441233
 20
8.0367504513
 30
0.0
 10
10.2214412716
 20
8.0386348477
 30
0.0
 10
10.2097570043
 20
8.0409483128
 30
0.0
 10
10.1952686903
 20
8.0446327022
 30
0.0
 10
10.1781864021
 20
8.0502879665
 30
0.0
 10
10.161476312
 20
8.0571524625
 30
0.0
 10
10.1452279025
 20
8.0651894748
 30
0.0
 10
10.1295280216
 20
8.0743557446
 30
0.0
 10
10.1169756524
 20
8.0828919786
 30
0.0
 10
10.1072888933
 20
8.0902336139
 30
0.0
 10
10.097845802
 20
8.097912556
 30
0.0
 10
10.0865358766
 20
8.1081147601
 30
0.0
 10
10.0738296927
 20
8.1212537863
 30
0.0
 10
10.0620518675
 20
8.1352235596
 30
0.0
 10
10.051265617
 20
8.1499493064
 30
0.0
 10
10.0415283583
 20
8.1653526484
 30
0.0
 10
10.0328920836
 20
8.1813514892
 30
0.0
 10
10.0254029019
 20
8.1978605868
 30
0.0
 10
10.0191008433
 20
8.2147919652
 30
0.0
 10
10.0140196327
 20
8.2320553874
 30
0.0
 10
10.0101865123
 20
8.2495588274
 30
0.0
 10
10.0076220927
 20
8.2672089546
 30
0.0
 10
10.0063402384
 20
8.2849116247
 30
0.0
 10
10.006347988
 20
8.3025723756
 30
0.0
 10
10.0076455087
 20
8.320096926
 30
0.0
 10
10.0102260859
 20
8.3373916752
 30
0.0
 10
10.0140761475
 20
8.3543642001
 30
0.0
 10
10.0191753267
 20
8.3709237516
 30
0.0
 10
10.0254965507
 20
8.3869817356
 30
0.0
 10
10.0330062048
 20
8.402452223
 30
0.0
 10
10.0416641887
 20
8.4172523066
 30
0.0
 10
10.0514245468
 20
8.4313029749
 30
0.0
 10
10.0622341357
 20
8.4445279971
 30
0.0
 10
10.0701049338
 20
8.4527504985
 30
0.0
 10
10.0741917805
 20
8.4566981107
 30
0.0
  0
SPLINE
  5
344
100
AcDbEntity
  8
0
100
AcDbSpline
 62
7
  6
CONTINUOUS
 70
0
 71
3
 72
39
 73
35
 74
0
 42
0.0000001
 43
0.0000001
 44
0.0000000001
 40
0.0
 40
0.0
 40
0.0
 40
0.0
 40
0.0760186195
 40
0.1532632405
 40
0.2310390569
 40
0.3086436598
 40
0.3853769321
 40
0.4232013715
 40
0.4605504742
 40
0.4973408756
 40
0.5334908927
 40
0.5689207641
 40
0.6035528972
 40
0.6373121552
 40
0.6701262104
 40
0.7019258119
 40
0.7326450908
 40
0.7622219393
 40
0.7905984982
 40
0.817721569
 40
0.8435431378
 40
0.868021072
 40
0.8911200544
 40
0.9128125623
 40
0.9231258565
 40
0.9330816035
 40
0.9426792017
 40
0.9519190239
 40
0.9608022671
 40
0.9693312983
 40
0.9775099587
 40
0.9853432821
 40
0.9928374322
 40
1.0
 40
1.0
 40
1.0
 40
1.0
 10
13.1495391098
 20
8.5017833421
 30
0.0
 10
13.1495391098
 20
8.5137695541
 30
0.0
 10
13.149859632
 20
8.537936322
 30
0.0
 10
13.151258273
 20
8.5743419933
 30
0.0
 10
13.1535668981
 20
8.6109521043
 30
0.0
 10
13.1567633589
 20
8.6474142779
 30
0.0
 10
13.1601570953
 20
8.6775262982
 30
0.0
 10
13.1632986838
 20
8.7012718035
 30
0.0
 10
13.1658438896
 20
8.7187417932
 30
0.0
 10
13.1685830604
 20
8.7359151191
 30
0.0
 10
13.1715095971
 20
8.7527504752
 30
0.0
 10
13.1746164152
 20
8.7692073378
 30
0.0
 10
13.1778960076
 20
8.7852461048
 30
0.0
 10
13.1813404525
 20
8.800828186
 30
0.0
 10
13.1849414058
 20
8.8159161115
 30
0.0
 10
13.1886901487
 20
8.8304736161
 30
0.0
 10
13.1925776077
 20
8.8444657205
 30
0.0
 10
13.1965943806
 20
8.8578588287
 30
0.0
 10
13.2007307278
 20
8.8706208275
 30
0.0
 10
13.2049766293
 20
8.8827211692
 30
0.0
 10
13.2093218102
 20
8.8941309182
 30
0.0
 10
13.2137557854
 20
8.9048229377
 30
0.0
 10
13.218267846
 20
8.9147716765
 30
0.0
 10
13.2221465365
 20
8.9225493315
 30
0.0
 10
13.2252877218
 20
8.9283729264
 30
0.0
 10
13.2276166047
 20
8.9324664741
 30
0.0
 10
13.2299569054
 20
8.9363572961
 30
0.0
 10
13.2323071908
 20
8.9400431008
 30
0.0
 10
13.2346660713
 20
8.9435216912
 30
0.0
 10
13.23703221
 20
8.9467910141
 30
0.0
 10
13.2394042125
 20
8.9498492087
 30
0.0
 10
13.2417807927
 20
8.9526944437
 30
0.0
 10
13.2441603599
 20
8.9553248822
 30
0.0
 10
13.2457838774
 20
8.9569708606
 30
0.0
 10
13.2465961716
 20
8.9577554766
 30
0.0
  0
SPLINE
  5
345
100
AcDbEntity
  8
0
100
AcDbSpline
 62
7
  6
CONTINUOUS
 70
0
 71
3
 72
39
 73
35
 74
0
 42
0.0000001
 43
0.0000001
 44
0.0000000001
 40
0.0
 40
0.0
 40
0.0
 40
0.0
 40
0.0063160566
 40
0.0126710106
 40
0.0191030154
 40
0.0256487277
 40
0.0323427504
 40
0.039217266
 40
0.0536154085
 40
0.0690525617
 40
0.0856858679
 40
0.1036341595
 40
0.1229842714
 40
0.1437971352
 40
0.1661131805
 40
0.1899561089
 40
0.2153361604
 40
0.2422526985
 40
0.2706957037
 40
0.3006474247
 40
0.3320835311
 40
0.3649736636
 40
0.3992824308
 40
0.434969898
 40
0.4719918335
 40
0.5103004051
 40
0.5498443477
 40
0.5905691592
 40
0.6324176188
 40
0.6753298096
 40
0.7192432939
 40
0.8098124703
 40
0.9035863088
 40
1.0
 40
1.0
 40
1.0
 40
1.0
 10
11.7418199028
 20
7.4788040316
 30
0.0
 10
11.7411860809
 20
7.4788479831
 30
0.0
 10
11.7399175289
 20
7.4789880332
 30
0.0
 10
11.7380289077
 20
7.4793530572
 30
0.0
 10
11.7361529195
 20
7.4798730918
 30
0.0
 10
11.7342906513
 20
7.4805476839
 30
0.0
 10
11.7324428373
 20
7.4813763956
 30
0.0
 10
11.7299616441
 20
7.4827064455
 30
0.0
 10
11.726891352
 20
7.484777428
 30
0.0
 10
11.7233401053
 20
7.4878302492
 30
0.0
 10
11.7198679433
 20
7.4914818192
 30
0.0
 10
11.7164789346
 20
7.4957254355
 30
0.0
 10
11.7131767404
 20
7.5005544445
 30
0.0
 10
11.7099656671
 20
7.5059613856
 30
0.0
 10
11.7068503089
 20
7.5119379754
 30
0.0
 10
11.7038353514
 20
7.5184748918
 30
0.0
 10
11.7009254966
 20
7.5255618152
 30
0.0
 10
11.6981254581
 20
7.5331874515
 30
0.0
 10
11.6954397659
 20
7.5413395153
 30
0.0
 10
11.6928728313
 20
7.5500048002
 30
0.0
 10
11.6904289332
 20
7.5591692086
 30
0.0
 10
11.688112092
 20
7.5688177636
 30
0.0
 10
11.6859261681
 20
7.5789346666
 30
0.0
 10
11.6838748232
 20
7.5895033228
 30
0.0
 10
11.6819614413
 20
7.6005063642
 30
0.0
 10
11.6801892276
 20
7.611925697
 30
0.0
 10
11.6785611464
 20
7.6237425267
 30
0.0
 10
11.6770798815
 20
7.6359373919
 30
0.0
 10
11.6757479306
 20
7.6484901971
 30
0.0
 10
11.6745674881
 20
7.661380271
 30
0.0
 10
11.673184056
 20
7.6791715067
 30
0.0
 10
11.671858629
 20
7.7020966975
 30
0.0
 10
11.6709119817
 20
7.7303250529
 30
0.0
 10
11.6707065471
 20
7.7494571465
 30
0.0
 10
11.6707065471
 20
7.7591555806
 30
0.0
  0
SPLINE
  5
346
100
AcDbEntity
  8
0
100
AcDbSpline
 62
7
  6
CONTINUOUS
 70
0
 71
3
 72
39
 73
35
 74
0
 42
0.0000001
 43
0.0000001
 44
0.0000000001
 40
0.0
 40
0.0
 40
0.0
 40
0.0
 40
0.0063160496
 40
0.0126710053
 40
0.0191030048
 40
0.0256487367
 40
0.0323427861
 40
0.039217295
 40
0.0536155191
 40
0.0690526933
 40
0.0856860708
 40
0.1036344562
 40
0.1229845698
 40
0.1437975453
 40
0.1661136391
 40
0.1899565658
 40
0.2153367352
 40
0.2422532615
 40
0.2706962878
 40
0.3006480884
 40
0.3320841399
 40
0.3649743143
 40
0.3992831008
 40
0.4349705058
 40
0.4719924753
 40
0.5103010104
 40
0.5498449059
 40
0.5905697156
 40
0.6324181087
 40
0.6753302621
 40
0.7192436886
 40
0.809812795
 40
0.903586429
 40
1.0
 40
1.0
 40
1.0
 40
1.0
 10
13.220652147
 20
7.3762466598
 30
0.0
 10
13.2200183272
 20
7.3762906208
 30
0.0
 10
13.2187497799
 20
7.3764306999
 30
0.0
 10
13.21686117
 20
7.3767957593
 30
0.0
 10
13.2149851794
 20
7.377315784
 30
0.0
 10
13.2131229227
 20
7.3779904176
 30
0.0
 10
13.2112751249
 20
7.3788191666
 30
0.0
 10
13.2087939165
 20
7.3801492042
 30
0.0
 10
13.2057236709
 20
7.3822202688
 30
0.0
 10
13.2021724108
 20
7.3852730881
 30
0.0
 10
13.1987002708
 20
7.3889247014
 30
0.0
 10
13.1953112947
 20
7.3931683553
 30
0.0
 10
13.1920090817
 20
7.3979973695
 30
0.0
 10
13.1887980498
 20
7.4034043473
 30
0.0
 10
13.1856827018
 20
7.4093809509
 30
0.0
 10
13.1826677359
 20
7.415917874
 30
0.0
 10
13.1797579267
 20
7.4230048186
 30
0.0
 10
13.17695788
 20
7.4306304558
 30
0.0
 10
13.1742721984
 20
7.4387825235
 30
0.0
 10
13.1717052979
 20
7.447447813
 30
0.0
 10
13.1692613852
 20
7.456612214
 30
0.0
 10
13.1669445688
 20
7.466260765
 30
0.0
 10
13.164758662
 20
7.4763776601
 30
0.0
 10
13.1627073079
 20
7.486946302
 30
0.0
 10
13.1607939537
 20
7.4979493297
 30
0.0
 10
13.1590217425
 20
7.5093686453
 30
0.0
 10
13.157393663
 20
7.5211854539
 30
0.0
 10
13.1559124189
 20
7.5333802967
 30
0.0
 10
13.154580463
 20
7.5459330772
 30
0.0
 10
13.1534000312
 20
7.558823122
 30
0.0
 10
13.1520166088
 20
7.5766143228
 30
0.0
 10
13.1506911873
 20
7.5995394559
 30
0.0
 10
13.1497445421
 20
7.6277677417
 30
0.0
 10
13.1495391098
 20
7.6468997823
 30
0.0
 10
13.1495391098
 20
7.656598194
 30
0.0
  0
SPLINE
  5
347
100
AcDbEntity
  8
0
100
AcDbSpline
 62
7
  6
CONTINUOUS
 70
0
 71
3
 72
53
 73
49
 74
0
 42
0.0000001
 43
0.0000001
 44
0.0000000001
 40
0.0
 40
0.0
 40
0.0
 40
0.0
 40
0.0095821603
 40
0.0187371838
 40
0.0274872302
 40
0.0358598335
 40
0.0515978114
 40
0.0590555925
 40
0.0662983352
 40
0.0733795061
 40
0.080356772
 40
0.0872905952
 40
0.0942426898
 40
0.1012742186
 40
0.1084441701
 40
0.1158078304
 40
0.1234158648
 40
0.131313715
 40
0.1395412652
 40
0.1481332074
 40
0.1571191227
 40
0.1665239627
 40
0.1763687164
 40
0.1866705196
 40
0.1974434102
 40
0.208698671
 40
0.2204449374
 40
0.2326889046
 40
0.2454352722
 40
0.2586870155
 40
0.2724458384
 40
0.3014825337
 40
0.3325362976
 40
0.365580377
 40
0.400575222
 40
0.4374705007
 40
0.4762065478
 40
0.5167153987
 40
0.558921816
 40
0.6027441125
 40
0.6480947745
 40
0.6948809482
 40
0.7430049461
 40
0.7923649942
 40
0.8428553916
 40
0.8943659478
 40
0.9467875089
 40
1.0
 40
1.0
 40
1.0
 40
1.0
 10
13.2756984586
 20
7.4151951171
 30
0.0
 10
13.274990855
 20
7.414536594
 30
0.0
 10
13.2735762095
 20
7.4132815498
 30
0.0
 10
13.2714058124
 20
7.4115537541
 30
0.0
 10
13.2692373456
 20
7.4100257856
 30
0.0
 10
13.2664099935
 20
7.4082927278
 30
0.0
 10
13.2635255672
 20
7.4069089451
 30
0.0
 10
13.260610483
 20
7.4059342182
 30
0.0
 10
13.25847097
 20
7.405420598
 30
0.0
 10
13.2563412254
 20
7.4051123914
 30
0.0
 10
13.2542227592
 20
7.4050099471
 30
0.0
 10
13.2521173303
 20
7.4051136404
 30
0.0
 10
13.250026723
 20
7.405423366
 30
0.0
 10
13.2479526547
 20
7.4059387052
 30
0.0
 10
13.2458967591
 20
7.4066591135
 30
0.0
 10
13.2438604322
 20
7.407583641
 30
0.0
 10
13.2418449353
 20
7.4087113606
 30
0.0
 10
13.2398514172
 20
7.4100412789
 30
0.0
 10
13.2378808485
 20
7.4115722574
 30
0.0
 10
13.235934262
 20
7.4133032719
 30
0.0
 10
13.2340126047
 20
7.4152331585
 30
0.0
 10
13.2321168084
 20
7.4173606991
 30
0.0
 10
13.2302479138
 20
7.4196846721
 30
0.0
 10
13.228406849
 20
7.4222036675
 30
0.0
 10
13.2265946257
 20
7.4249162358
 30
0.0
 10
13.2248122801
 20
7.4278208211
 30
0.0
 10
13.2230607534
 20
7.4309157065
 30
0.0
 10
13.2213410936
 20
7.4341991193
 30
0.0
 10
13.2196542876
 20
7.4376691357
 30
0.0
 10
13.2180012554
 20
7.441323723
 30
0.0
 10
13.2158040967
 20
7.44653379
 30
0.0
 10
13.2131593663
 20
7.4535011765
 30
0.0
 10
13.2101899082
 20
7.4624170434
 30
0.0
 10
13.2073772043
 20
7.4720114122
 30
0.0
 10
13.2047279688
 20
7.4822616775
 30
0.0
 10
13.2022485614
 20
7.493143846
 30
0.0
 10
13.1999449656
 20
7.5046322648
 30
0.0
 10
13.197822725
 20
7.516699791
 30
0.0
 10
13.1958869539
 20
7.5293178505
 30
0.0
 10
13.1941423257
 20
7.5424565366
 30
0.0
 10
13.1925930624
 20
7.5560846803
 30
0.0
 10
13.191242895
 20
7.570169915
 30
0.0
 10
13.1900950732
 20
7.5846787805
 30
0.0
 10
13.1891523746
 20
7.5995768084
 30
0.0
 10
13.1884170985
 20
7.6148285046
 30
0.0
 10
13.1878909739
 20
7.6303978392
 30
0.0
 10
13.187575348
 20
7.6462474612
 30
0.0
 10
13.1875061959
 20
7.6569036625
 30
0.0
 10
13.1875061959
 20
7.6622715853
 30
0.0
  0
SPLINE
  5
348
100
AcDbEntity
  8
0
100
AcDbSpline
 62
7
  6
CONTINUOUS
 70
0
 71
3
 72
41
 73
37
 74
0
 42
0.0000001
 43
0.0000001
 44
0.0000000001
 40
0.0
 40
0.0
 40
0.0
 40
0.0
 40
0.0311446893
 40
0.0467774521
 40
0.0624475238
 40
0.0938924533
 40
0.1254747807
 40
0.1571823676
 40
0.1890004293
 40
0.2209120298
 40
0.2528983829
 40
0.2689156555
 40
0.2849439305
 40
0.317018006
 40
0.3491033515
 40
0.3811778086
 40
0.4132194286
 40
0.4452068971
 40
0.4771199497
 40
0.508939774
 40
0.5406493901
 40
0.5722340047
 40
0.6036813313
 40
0.6349818708
 40
0.6661291433
 40
0.6971198672
 40
0.7279540753
 40
0.758635165
 40
0.7891698747
 40
0.8195681843
 40
0.8498431362
 40
0.8800105794
 40
0.9100888365
 40
0.9400983034
 40
0.9700609878
 40
1.0
 40
1.0
 40
1.0
 40
1.0
 10
10.9134020961
 20
7.9892496471
 30
0.0
 10
10.9075053623
 20
7.989658587
 30
0.0
 10
10.898666952
 20
7.9905962863
 30
0.0
 10
10.8869641003
 20
7.9924806827
 30
0.0
 10
10.8752798331
 20
7.9947941479
 30
0.0
 10
10.860791519
 20
7.9984785372
 30
0.0
 10
10.8437092308
 20
8.0041338016
 30
0.0
 10
10.8269991408
 20
8.0109982975
 30
0.0
 10
10.8107507312
 20
8.0190353099
 30
0.0
 10
10.7950508503
 20
8.0282015796
 30
0.0
 10
10.7824984811
 20
8.0367378136
 30
0.0
 10
10.7728117221
 20
8.044079449
 30
0.0
 10
10.7633686308
 20
8.051758391
 30
0.0
 10
10.7520587054
 20
8.0619605952
 30
0.0
 10
10.7393525214
 20
8.0750996214
 30
0.0
 10
10.7275746962
 20
8.0890693947
 30
0.0
 10
10.7167884457
 20
8.1037951414
 30
0.0
 10
10.707051187
 20
8.1191984834
 30
0.0
 10
10.6984149124
 20
8.1351973243
 30
0.0
 10
10.6909257307
 20
8.1517064219
 30
0.0
 10
10.684623672
 20
8.1686378003
 30
0.0
 10
10.6795424614
 20
8.1859012225
 30
0.0
 10
10.6757093411
 20
8.2034046625
 30
0.0
 10
10.6731449214
 20
8.2210547897
 30
0.0
 10
10.6718630671
 20
8.2387574598
 30
0.0
 10
10.6718708167
 20
8.2564182106
 30
0.0
 10
10.6731683374
 20
8.2739427611
 30
0.0
 10
10.6757489146
 20
8.2912375103
 30
0.0
 10
10.6795989762
 20
8.3082100352
 30
0.0
 10
10.6846981554
 20
8.3247695867
 30
0.0
 10
10.6910193795
 20
8.3408275707
 30
0.0
 10
10.6985290335
 20
8.356298058
 30
0.0
 10
10.7071870175
 20
8.3710981416
 30
0.0
 10
10.7169473756
 20
8.38514881
 30
0.0
 10
10.7277569644
 20
8.3983738321
 30
0.0
 10
10.7356277625
 20
8.4065963335
 30
0.0
 10
10.7397146093
 20
8.4105439457
 30
0.0
  0
SPLINE
  5
349
100
AcDbEntity
  8
0
100
AcDbSpline
 62
7
  6
CONTINUOUS
 70
0
 71
3
 72
15
 73
11
 74
0
 42
0.0000001
 43
0.0000001
 44
0.0000000001
 40
0.0
 40
0.0
 40
0.0
 40
0.0
 40
0.1233171364
 40
0.2468171961
 40
0.3706749962
 40
0.495049573
 40
0.6200773082
 40
0.7458671136
 40
0.8724927176
 40
1.0
 40
1.0
 40
1.0
 40
1.0
 10
11.4724403837
 20
7.5292649297
 30
0.0
 10
11.4699831669
 20
7.5268914197
 30
0.0
 10
11.4648050467
 20
7.5224019043
 30
0.0
 10
11.4563538261
 20
7.5165353206
 30
0.0
 10
11.4472980422
 20
7.5115898652
 30
0.0
 10
11.4377303907
 20
7.5076163695
 30
0.0
 10
11.4277473848
 20
7.5046542837
 30
0.0
 10
11.4174495911
 20
7.502733225
 30
0.0
 10
11.4069421286
 20
7.5018718787
 30
0.0
 10
11.3998890092
 20
7.502009449
 30
0.0
 10
11.3963650378
 20
7.5022538372
 30
0.0
  0
SPLINE
  5
34A
100
AcDbEntity
  8
0
100
AcDbSpline
 62
7
  6
CONTINUOUS
 70
0
 71
3
 72
15
 73
11
 74
0
 42
0.0000001
 43
0.0000001
 44
0.0000000001
 40
0.0
 40
0.0
 40
0.0
 40
0.0
 40
0.1233171364
 40
0.2468171961
 40
0.3706749962
 40
0.495049573
 40
0.6200773082
 40
0.7458671136
 40
0.8724927176
 40
1.0
 40
1.0
 40
1.0
 40
1.0
 10
11.4724403837
 20
8.7076945352
 30
0.0
 10
11.4699831669
 20
8.7053210252
 30
0.0
 10
11.4648050467
 20
8.7008315098
 30
0.0
 10
11.4563538261
 20
8.6949649261
 30
0.0
 10
11.4472980422
 20
8.6900194708
 30
0.0
 10
11.4377303907
 20
8.6860459751
 30
0.0
 10
11.4277473848
 20
8.6830838892
 30
0.0
 10
11.4174495911
 20
8.6811628305
 30
0.0
 10
11.4069421286
 20
8.6803014843
 30
0.0
 10
11.3998890092
 20
8.6804390545
 30
0.0
 10
11.3963650378
 20
8.6806834428
 30
0.0
  0
SPLINE
  5
34B
100
AcDbEntity
  8
0
100
AcDbSpline
 62
7
  6
CONTINUOUS
 70
0
 71
3
 72
18
 73
14
 74
0
 42
0.0000001
 43
0.0000001
 44
0.0000000001
 40
0.0
 40
0.0
 40
0.0
 40
0.0
 40
0.150465277
 40
0.2917135888
 40
0.4244428697
 40
0.4879101177
 40
0.5496092744
 40
0.6682620957
 40
0.7817884661
 40
0.8371381947
 40
0.8918080597
 40
0.9460194495
 40
1.0
 40
1.0
 40
1.0
 40
1.0
 10
12.0749815619
 20
9.3570626359
 30
0.0
 10
12.0760416858
 20
9.358086637
 30
0.0
 10
12.0781605375
 20
9.3600079807
 30
0.0
 10
12.0814413299
 20
9.3625684581
 30
0.0
 10
12.0842125579
 20
9.3643793598
 30
0.0
 10
12.0864223426
 20
9.3656056567
 30
0.0
 10
12.0885671066
 20
9.3666584675
 30
0.0
 10
12.0912487637
 20
9.3677222663
 30
0.0
 10
12.0939781019
 20
9.3684483046
 30
0.0
 10
12.0961398417
 20
9.3688059196
 30
0.0
 10
12.0977419792
 20
9.3689646748
 30
0.0
 10
12.0993376381
 20
9.3690159839
 30
0.0
 10
12.1003977547
 20
9.3689784863
 30
0.0
 10
12.100925268
 20
9.3689419067
 30
0.0
  0
SPLINE
  5
34C
100
AcDbEntity
  8
0
100
AcDbSpline
 62
7
  6
CONTINUOUS
 70
0
 71
3
 72
39
 73
35
 74
0
 42
0.0000001
 43
0.0000001
 44
0.0000000001
 40
0.0
 40
0.0
 40
0.0
 40
0.0
 40
0.0760185458
 40
0.1532632554
 40
0.2310390604
 40
0.3086436563
 40
0.3853769375
 40
0.42320137
 40
0.4605504649
 40
0.4973408779
 40
0.533490906
 40
0.5689207649
 40
0.6035528818
 40
0.6373121533
 40
0.6701262286
 40
0.7019258193
 40
0.7326450735
 40
0.7622219321
 40
0.790598514
 40
0.817721583
 40
0.8435431249
 40
0.868021063
 40
0.8911200625
 40
0.9128125786
 40
0.9231258585
 40
0.9330815931
 40
0.9426792004
 40
0.9519190187
 40
0.9608022954
 40
0.9693313294
 40
0.9775099463
 40
0.9853432204
 40
0.9928373695
 40
1.0
 40
1.0
 40
1.0
 40
1.0
 10
11.6707065471
 20
8.6043407287
 30
0.0
 10
11.6707065471
 20
8.6163269291
 30
0.0
 10
11.6710270687
 20
8.6404936993
 30
0.0
 10
11.6724257116
 20
8.6768993712
 30
0.0
 10
11.6747343308
 20
8.7135094937
 30
0.0
 10
11.6779308031
 20
8.7499716648
 30
0.0
 10
11.6813245259
 20
8.7800836859
 30
0.0
 10
11.6844661224
 20
8.8038291893
 30
0.0
 10
11.6870113321
 20
8.8212991778
 30
0.0
 10
11.689750496
 20
8.8384725072
 30
0.0
 10
11.6926770286
 20
8.8553078657
 30
0.0
 10
11.6957838524
 20
8.8717647244
 30
0.0
 10
11.6990634508
 20
8.8878034878
 30
0.0
 10
11.7025078901
 20
8.903385573
 30
0.0
 10
11.7061088373
 20
8.9184735037
 30
0.0
 10
11.7098575838
 20
8.933031005
 30
0.0
 10
11.7137450508
 20
8.947023103
 30
0.0
 10
11.7177618195
 20
8.9604162138
 30
0.0
 10
11.7218981612
 20
8.9731782195
 30
0.0
 10
11.7261440623
 20
8.9852785606
 30
0.0
 10
11.7304892524
 20
8.9966883019
 30
0.0
 10
11.7349232245
 20
9.0073803215
 30
0.0
 10
11.7394352811
 20
9.0173290673
 30
0.0
 10
11.7433139713
 20
9.0251067245
 30
0.0
 10
11.74645516
 20
9.0309303143
 30
0.0
 10
11.7487840443
 20
9.0350238578
 30
0.0
 10
11.7511243339
 20
9.0389146853
 30
0.0
 10
11.7534746333
 20
9.0426004884
 30
0.0
 10
11.7558335136
 20
9.046079085
 30
0.0
 10
11.7581996517
 20
9.049348407
 30
0.0
 10
11.7605716478
 20
9.0524065884
 30
0.0
 10
11.7629482111
 20
9.0552518183
 30
0.0
 10
11.7653277816
 20
9.0578822566
 30
0.0
 10
11.7669513076
 20
9.0595282403
 30
0.0
 10
11.7677636089
 20
9.0603128632
 30
0.0
  0
SPLINE
  5
34D
100
AcDbEntity
  8
0
100
AcDbSpline
 62
7
  6
CONTINUOUS
 70
0
 71
3
 72
15
 73
11
 74
0
 42
0.0000001
 43
0.0000001
 44
0.0000000001
 40
0.0
 40
0.0
 40
0.0
 40
0.0
 40
0.1233171364
 40
0.2468171961
 40
0.3706749962
 40
0.495049573
 40
0.6200773082
 40
0.7458671136
 40
0.8724927176
 40
1.0
 40
1.0
 40
1.0
 40
1.0
 10
9.9327544277
 20
7.6070647501
 30
0.0
 10
9.9302972109
 20
7.6046912401
 30
0.0
 10
9.9251190907
 20
7.6002017248
 30
0.0
 10
9.9166678702
 20
7.594335141
 30
0.0
 10
9.9076120862
 20
7.5893896857
 30
0.0
 10
9.8980444347
 20
7.58541619
 30
0.0
 10
9.8880614288
 20
7.5824541041
 30
0.0
 10
9.8777636351
 20
7.5805330454
 30
0.0
 10
9.8672561726
 20
7.5796716992
 30
0.0
 10
9.8602030533
 20
7.5798092694
 30
0.0
 10
9.8566790819
 20
7.5800536577
 30
0.0
  0
SPLINE
  5
34E
100
AcDbEntity
  8
0
100
AcDbSpline
 62
7
  6
CONTINUOUS
 70
0
 71
3
 72
15
 73
11
 74
0
 42
0.0000001
 43
0.0000001
 44
0.0000000001
 40
0.0
 40
0.0
 40
0.0
 40
0.0
 40
0.1233171364
 40
0.2468171961
 40
0.3706749962
 40
0.495049573
 40
0.6200773082
 40
0.7458671136
 40
0.8724927176
 40
1.0
 40
1.0
 40
1.0
 40
1.0
 10
9.9327544277
 20
8.8434498678
 30
0.0
 10
9.9302972109
 20
8.8410763578
 30
0.0
 10
9.9251190907
 20
8.8365868424
 30
0.0
 10
9.9166678702
 20
8.8307202587
 30
0.0
 10
9.9076120862
 20
8.8257748034
 30
0.0
 10
9.8980444347
 20
8.8218013076
 30
0.0
 10
9.8880614288
 20
8.8188392218
 30
0.0
 10
9.8777636351
 20
8.8169181631
 30
0.0
 10
9.8672561726
 20
8.8160568168
 30
0.0
 10
9.8602030533
 20
8.8161943871
 30
0.0
 10
9.8566790819
 20
8.8164387754
 30
0.0
  0
ELLIPSE
  5
34F
100
AcDbEntity
  8
0
100
AcDbEllipse
 62
7
  6
CONTINUOUS
 10
10.9260842185
 20
8.2498545416
 30
0.0
 11
-0.0152545999
 21
0.1574107345
 31
0.0
 40
0.7608960893
 41
0.4307890579
 42
5.3444054168
  0
ELLIPSE
  5
350
100
AcDbEntity
  8
0
100
AcDbEllipse
 62
7
  6
CONTINUOUS
 10
10.243334545
 20
8.290329959
 30
0.0
 11
0.1178586292
 21
-0.056262679
 31
0.0
 40
0.9095800463
 41
0.0
 42
6.2831853072
  0
ELLIPSE
  5
351
100
AcDbEntity
  8
0
100
AcDbEllipse
 62
7
  6
CONTINUOUS
 10
10.5918739052
 20
7.8634772142
 30
0.0
 11
-0.0807212939
 21
0.0962713234
 31
0.0
 40
0.9326853868
 41
0.0
 42
6.2831853072
  0
ELLIPSE
  5
352
100
AcDbEntity
  8
0
100
AcDbEllipse
 62
7
  6
CONTINUOUS
 10
10.5918739052
 20
8.67390453
 30
0.0
 11
-0.0648656024
 21
0.1099278868
 31
0.0
 40
0.9263984221
 41
0.0
 42
6.2831853072
  0
ENDSEC
  0
SECTION
  2
OBJECTS
  0
DICTIONARY
  5
C
100
AcDbDictionary
280
0
281
1
  3
ACAD_GROUP
350
D
  3
ACAD_MLINESTYLE
350
17
  3
ACAD_LAYOUT
350
1A
  3
ACAD_PLOTSETTINGS
350
19
  3
ACAD_PLOTSTYLENAME
350
E
  3
ACAD_IMAGE_DICT
350
       354
  3
ACAD_IMAGE_VARS
350
       355
  3
ACAD_TABLESTYLE
350
       356
  0
IMAGEDEF_REACTOR
  5
353
100
AcDbRasterImageDefReactor
 90
2
330
276
  0
DICTIONARY
  5
D
102
{ACAD_REACTORS
330
C
102
}
100
AcDbDictionary
280
0
281
1
  0
ACDBDICTIONARYWDFLT
  5
E
102
{ACAD_REACTORS
330
C
102
}
100
AcDbDictionary
281
1
  3
Normal
350
F
100
AcDbDictionaryWithDefault
340
F
  0
DICTIONARY
  5
354
330
C
100
AcDbDictionary
281
1
  3
U7P_assy_2_img_1
350
       359
  0
RASTERVARIABLES
  5
355
330
C
100
AcDbRasterVariables
 90
0
 70
0
 71
1
 72
5
  0
DICTIONARY
  5
17
102
{ACAD_REACTORS
330
C
102
}
100
AcDbDictionary
280
0
281
1
  3
Standard
350
18
  0
DICTIONARY
  5
356
330
C
100
AcDbDictionary
281
1
  3
Standard
350
       35A
  3
Standard1
350
       35B
  0
DICTIONARY
  5
19
102
{ACAD_REACTORS
330
C
102
}
100
AcDbDictionary
281
1
  0
DICTIONARY
  5
1A
102
{ACAD_REACTORS
330
C
102
}
100
AcDbDictionary
281
1
  3
Model
350
357
  3
Layout1
350
358
  0
ACDBPLACEHOLDER
  5
F
102
{ACAD_REACTORS
330
E
102
}
  0
MLINESTYLE
  5
18
102
{ACAD_REACTORS
330
17
102
}
100
AcDbMlineStyle
  2
STANDARD
 70
0
  3

 62
256
 51
90.0
 52
90.0
 71
2
 49
0.5
 62
256
  6
BYLAYER
 49
-0.5
 62
256
  6
BYLAYER
  0
LAYOUT
  5
357
102
{ACAD_REACTORS
330
1A
102
}
100
AcDbPlotSettings
  1

  2
none_device
  4
ANSI_C_(22.00_x_17.00_Inches)
  6

 40
0.0
 41
0.0
 42
0.0
 43
0.0
 44
558.8
 45
431.8
 46
0.0
 47
0.0
 48
0.0
 49
0.0
140
0.0
141
0.0
142
1.0
143
1.0
 70
1024
 72
0
 73
0
 74
0
  7

 75
0
147
1.0
148
0.0
149
0.0
100
AcDbLayout
  1
Model
 70
0
 71
0
 10
0.0
 20
0.0
 11
22.0
 21
17.0
 12
0.0
 22
0.0
 32
0.0
 14
0.0
 24
0.0
 34
0.0
 15
0.0
 25
0.0
 35
0.0
146
0.0
 13
0.0
 23
0.0
 33
0.0
 16
1.0
 26
0.0
 36
0.0
 17
0.0
 27
1.0
 37
0.0
 76
0
330
210
345
0
346
0
  0
LAYOUT
  5
358
102
{ACAD_REACTORS
330
1A
102
}
100
AcDbPlotSettings
  1

  2
none_device
  4
ANSI_C_(22.00_x_17.00_Inches)
  6

 40
0.0
 41
0.0
 42
0.0
 43
0.0
 44
558.8
 45
431.8
 46
0.0
 47
0.0
 48
0.0
 49
0.0
140
0.0
141
0.0
142
1.0
143
1.0
 70
0
 72
0
 73
0
 74
0
  7

 75
0
147
1.0
148
0.0
149
0.0
100
AcDbLayout
  1
Layout1
 70
0
 71
1
 10
0.0
 20
0.0
 11
22.0
 21
17.0
 12
0.0
 22
0.0
 32
0.0
 14
0.0
 24
0.0
 34
0.0
 15
0.0
 25
0.0
 35
0.0
146
0.0
 13
0.0
 23
0.0
 33
0.0
 16
1.0
 26
0.0
 36
0.0
 17
0.0
 27
1.0
 37
0.0
 76
0
330
211
345
0
346
0
  0
IMAGEDEF
  5
359
102
{ACAD_REACTORS
330
354
330
353
102
}
100
AcDbRasterImageDef
 90
0
  1
U7P_assy_2_img_1.png
 10
369.0
 20
92.0
 11
0.0066666667
 21
0.0066666667
280
1
281
0
  0
TABLESTYLE
  5
35A
102
{ACAD_REACTORS
330
356
330
279
102
}
330
356
100
AcDbTableStyle
  3
Standard
 70
0
 71
0
 40
0.06
 41
0.06
280
1
281
1
  7
Standard
140
0.18
170
1
 62
0
 63
7
283
0
  7
Standard
140
0.18
170
1
 62
0
 63
7
283
0
  7
Standard
140
0.18
170
1
 62
0
 63
7
283
0
  0
TABLESTYLE
  5
35B
102
{ACAD_REACTORS
330
356
330
278
102
}
330
356
100
AcDbTableStyle
  3
Standard1
 70
1
 71
0
 40
0.06
 41
0.06
280
1
281
1
  7
Standard
140
0.18
170
1
 62
0
 63
7
283
0
  7
Standard
140
0.18
170
1
 62
0
 63
7
283
0
  7
Standard
140
0.18
170
1
 62
0
 63
7
283
0
  0
ENDSEC
  0
EOF
