999
DXF file: U7L_assy_2.dxf
999
Pro/ENGINEER 2014200 by Parametric Technology Corporation
  0
SECTION
  2
HEADER
  9
$ACADVER
  1
AC1021
  9
$DWGCODEPAGE
  3
ANSI_1252
  9
$EXTMAX
 10
22.0
 20
17.0
 30
0.0
  9
$EXTMIN
 10
0.0
 20
0.0
 30
0.0
  9
$LIMMIN
 10
0.0
 20
0.0
  9
$LIMMAX
 10
22.0
 20
17.0
  9
$VIEWCTR
 10
11.0
 20
8.5
  9
$VIEWSIZE
 40
17.0
  9
$CLAYER
  8
0
  9
$LTSCALE
 40
1.21
  9
$CELTYPE
  6
BYLAYER
  9
$DIMSCALE
 40
1.0
  9
$DIMASZ
 40
0.1875
  9
$DIMEXO
 40
0.0625
  9
$DIMDLI
 40
0.836
  9
$DIMEXE
 40
0.125
  9
$DIMCEN
 40
0.198
  9
$DIMLFAC
 40
1.0
  9
$DIMBLK
  1
_FILLED
  9
$DIMTXT
 40
0.1
  9
$DIMTOL
 70
0
  9
$DIMLIM
 70
0
  9
$DIMTFAC
 40
1.0
  9
$DIMGAP
 40
0.09
  9
$DIMDSEP
 70
46
  9
$AUNITS
 70
0
  9
$PDMODE
 70
3
  9
$PDSIZE
 40
0.3125
  9
$HANDSEED
  5
330
  9
$TILEMODE
 70
1
  9
$MEASUREMENT
 70
0
  9
$INSUNITS
 70
1
  0
ENDSEC
  0
SECTION
  2
CLASSES
  0
CLASS
  1
ACDBDICTIONARYWDFLT
  2
AcDbDictionaryWithDefault
  3
AutoCAD 2000
 90
0
 91
1
280
0
281
0
  0
CLASS
  1
ACDBPLACEHOLDER
  2
AcDbPlaceHolder
  3
AutoCAD 2000
 90
0
 91
1
280
0
281
0
  0
CLASS
  1
LAYOUT
  2
AcDbLayout
  3
AutoCAD 2000
 90
0
 91
0
280
0
281
0
  0
CLASS
  1
RASTERVARIABLES
  2
AcDbRasterVariables
  3
ISM
 90
0
 91
1
280
0
281
0
  0
CLASS
  1
IMAGEDEF
  2
AcDbRasterImageDef
  3
ISM
 90
0
 91
1
280
0
281
0
  0
CLASS
  1
IMAGEDEF_REACTOR
  2
AcDbRasterImageDefReactor
  3
ISM
 90
0
 91
1
280
0
281
0
  0
CLASS
  1
IMAGE
  2
AcDbRasterImage
  3
ISM
 90
127
 91
1
280
0
281
1
  0
CLASS
  1
TABLESTYLE
  2
AcDbTableStyle
  3
ObjectDBX Classes
 90
2047
 91
1
280
0
281
0
  0
CLASS
  1
ACAD_TABLE
  2
AcDbTable
  3
ObjectDBX Classes
 90
1025
 91
2
280
0
281
1
  0
ENDSEC
  0
SECTION
  2
TABLES
  0
TABLE
  2
VPORT
  5
8
100
AcDbSymbolTable
 70
2
  0
VPORT
  5
1F4
100
AcDbSymbolTableRecord
100
AcDbViewportTableRecord
  2
*ACTIVE
 70
0
 10
0.0
 20
0.0
 11
1.0
 21
1.0
 12
11.0
 22
8.5
 13
0.0
 23
0.0
 14
1.0
 24
1.0
 15
0.0
 25
0.0
 16
0.0
 26
0.0
 36
1.0
 17
0.0
 27
0.0
 37
0.0
 40
17.0
 41
1.2941176471
 42
50.0
 43
0.0
 44
0.0
 50
0.0
 51
0.0
 71
0
 72
100
 73
1
 74
1
 75
0
 76
0
 77
0
 78
0
  0
ENDTAB
  0
TABLE
  2
LTYPE
  5
5
100
AcDbSymbolTable
 70
6
  0
LTYPE
  5
14
100
AcDbSymbolTableRecord
100
AcDbLinetypeTableRecord
  2
BYBLOCK
 70
0
  3

 72
65
 73
0
 40
0.0
  0
LTYPE
  5
15
100
AcDbSymbolTableRecord
100
AcDbLinetypeTableRecord
  2
BYLAYER
 70
0
  3

 72
65
 73
0
 40
0.0
  0
LTYPE
  5
16
100
AcDbSymbolTableRecord
100
AcDbLinetypeTableRecord
  2
CONTINUOUS
 70
64
  3
Solid line
 72
65
 73
0
 40
0.0
  0
LTYPE
  5
1F5
100
AcDbSymbolTableRecord
100
AcDbLinetypeTableRecord
  2
CENTER
 70
64
  3
____ _ ____ _ ____ _ ____ _ ____ _ ____ _ ____
 72
65
 73
4
 40
0.6
 49
0.375
 74
0
 49
-0.075
 74
0
 49
0.075
 74
0
 49
-0.075
 74
0
  0
LTYPE
  5
1F6
100
AcDbSymbolTableRecord
100
AcDbLinetypeTableRecord
  2
HIDDEN
 70
64
  3
- - - - - - - - - - - - - - - - - - - -
 72
65
 73
2
 40
0.2
 49
0.1
 74
0
 49
-0.1
 74
0
  0
LTYPE
  5
1F7
100
AcDbSymbolTableRecord
100
AcDbLinetypeTableRecord
  2
PHANTOM
 70
64
  3
_____ _ _ _____ _ _ _____ _ _ _____
 72
65
 73
6
 40
0.8
 49
0.45
 74
0
 49
-0.05
 74
0
 49
0.1
 74
0
 49
-0.05
 74
0
 49
0.1
 74
0
 49
-0.05
 74
0
  0
LTYPE
  5
1F8
100
AcDbSymbolTableRecord
100
AcDbLinetypeTableRecord
  2
DOT
 70
64
  3
. . . . . . . . . . . . . . . . . . . .
 72
65
 73
2
 40
0.2
 49
0.1
 74
0
 49
-0.1
 74
0
  0
LTYPE
  5
1F9
100
AcDbSymbolTableRecord
100
AcDbLinetypeTableRecord
  2
DASHED
 70
64
  3
- - - - - - - - - - - - - - - - - - - -
 72
65
 73
2
 40
0.2
 49
0.1
 74
0
 49
-0.1
 74
0
  0
ENDTAB
  0
TABLE
  2
LAYER
  5
2
100
AcDbSymbolTable
 70
36
  0
LAYER
  5
10
100
AcDbSymbolTableRecord
100
AcDbLayerTableRecord
  2
0
 70
0
 62
7
  6
CONTINUOUS
370
-3
390
F
  0
LAYER
  5
1FA
100
AcDbSymbolTableRecord
100
AcDbLayerTableRecord
  2
DEFAULT_1
 70
0
 62
7
  6
CENTER
370
-3
390
F
  0
LAYER
  5
1FB
100
AcDbSymbolTableRecord
100
AcDbLayerTableRecord
  2
DEFAULT_2
 70
0
 62
8
  6
HIDDEN
370
-3
390
F
  0
LAYER
  5
1FC
100
AcDbSymbolTableRecord
100
AcDbLayerTableRecord
  2
DEFAULT_3
 70
0
 62
7
  6
PHANTOM
370
-3
390
F
  0
LAYER
  5
1FD
100
AcDbSymbolTableRecord
100
AcDbLayerTableRecord
  2
DATUM_PLANES
 70
0
 62
7
  6
CONTINUOUS
370
-3
390
F
  0
LAYER
  5
1FE
100
AcDbSymbolTableRecord
100
AcDbLayerTableRecord
  2
DIMENSIONS
 70
0
 62
7
  6
CONTINUOUS
370
-3
390
F
  0
LAYER
  5
1FF
100
AcDbSymbolTableRecord
100
AcDbLayerTableRecord
  2
DTM_500001
 70
0
 62
7
  6
CONTINUOUS
370
-3
390
F
  0
LAYER
  5
200
100
AcDbSymbolTableRecord
100
AcDbLayerTableRecord
  2
PARAMETERDIMENSIONS
 70
0
 62
7
  6
CONTINUOUS
370
-3
390
F
  0
LAYER
  5
201
100
AcDbSymbolTableRecord
100
AcDbLayerTableRecord
  2
PORT_AREAS
 70
0
 62
7
  6
CONTINUOUS
370
-3
390
F
  0
LAYER
  5
202
100
AcDbSymbolTableRecord
100
AcDbLayerTableRecord
  2
SUNNBOMCOSMETIC
 70
0
 62
7
  6
CONTINUOUS
370
-3
390
F
  0
LAYER
  5
203
100
AcDbSymbolTableRecord
100
AcDbLayerTableRecord
  2
SUNNBOMSTAMPING
 70
0
 62
7
  6
CONTINUOUS
370
-3
390
F
  0
LAYER
  5
204
100
AcDbSymbolTableRecord
100
AcDbLayerTableRecord
  2
THREADS
 70
0
 62
7
  6
CONTINUOUS
370
-3
390
F
  0
ENDTAB
  0
TABLE
  2
STYLE
  5
3
100
AcDbSymbolTable
 70
1
  0
STYLE
  5
11
100
AcDbSymbolTableRecord
100
AcDbTextStyleTableRecord
  2
STANDARD
 70
0
 40
0.0
 41
0.8
 50
0.0
 71
0
 42
0.2
  3
txt
  4

  0
STYLE
  5
205
100
AcDbSymbolTableRecord
100
AcDbTextStyleTableRecord
  2
TEXTSTYLE_1
 70
0
 40
0.0
 41
0.8
 50
0.0
 71
0
 42
0.2
  3
gdt
  4

  0
ENDTAB
  0
TABLE
  2
VIEW
  5
6
100
AcDbSymbolTable
 70
0
  0
ENDTAB
  0
TABLE
  2
UCS
  5
7
100
AcDbSymbolTable
 70
0
  0
ENDTAB
  0
TABLE
  2
APPID
  5
9
100
AcDbSymbolTable
 70
1
  0
APPID
  5
206
100
AcDbSymbolTableRecord
100
AcDbRegAppTableRecord
  2
ACAD
 70
0
  0
ENDTAB
  0
TABLE
  2
BLOCK_RECORD
  5
1
100
AcDbSymbolTable
 70
0
  0
BLOCK_RECORD
  5
207
100
AcDbSymbolTableRecord
100
AcDbBlockTableRecord
  2
*Model_Space
  0
BLOCK_RECORD
  5
208
100
AcDbSymbolTableRecord
100
AcDbBlockTableRecord
  2
*Paper_Space
  0
BLOCK_RECORD
  5
209
100
AcDbSymbolTableRecord
100
AcDbBlockTableRecord
  2
SUN_FIRST_THIRD_ANGLE_BL0
  0
BLOCK_RECORD
  5
20A
100
AcDbSymbolTableRecord
100
AcDbBlockTableRecord
  2
*T1
  0
BLOCK_RECORD
  5
20B
100
AcDbSymbolTableRecord
100
AcDbBlockTableRecord
  2
*T2
  0
ENDTAB
  0
TABLE
  2
DIMSTYLE
  5
A
100
AcDbSymbolTable
 70
1
100
AcDbDimStyleTable
 71
0
  0
DIMSTYLE
105
20C
100
AcDbSymbolTableRecord
100
AcDbDimStyleTableRecord
  2
STANDARD
 70
0
  3

  4

 40
1.0
 41
0.1875
 42
0.0625
 43
0.38
 44
0.125
 45
0.0
 46
0.0
 47
0.001
 48
0.001
140
0.1
141
0.09
142
0.0
143
25.4
144
1.0
145
0.0
146
1.0
147
0.09
 71
0.0
 72
0.0
 73
1
 74
1
 75
0
 76
0
 77
0
 78
4
170
0
171
2
172
0
173
0
174
0
175
0
176
0
177
0
178
0
270
2
271
3
272
3
273
2
274
2
275
0
280
0
281
0
282
0
283
1
284
4
285
0
286
0
287
3
288
0
340
11
278
46
  0
ENDTAB
  0
ENDSEC
  0
SECTION
  2
BLOCKS
  0
BLOCK
  5
20
100
AcDbEntity
  8
0
100
AcDbBlockBegin
  2
*Model_Space
 70
0
 10
0.0
 20
0.0
 30
0.0
  3
*Model_Space
  1

  0
ENDBLK
  5
21
100
AcDbEntity
  8
0
100
AcDbBlockEnd
  0
BLOCK
  5
1C
100
AcDbEntity
  8
0
100
AcDbBlockBegin
  2
*Paper_Space
 70
0
 10
0.0
 20
0.0
 30
0.0
  3
*Paper_Space
  1

  0
ENDBLK
  5
1D
100
AcDbEntity
  8
0
100
AcDbBlockEnd
  0
BLOCK
  5
20D
100
AcDbEntity
  8
0
100
AcDbBlockBegin
 62
2
  6
CONTINUOUS
  2
SUN_FIRST_THIRD_ANGLE_BL0
 70
64
 10
20.4816717061
 20
1.2289683772
  3
SUN_FIRST_THIRD_ANGLE_BL0
  1

  0
TEXT
  5
20E
100
AcDbEntity
  8
0
100
AcDbText
 62
2
  6
CONTINUOUS
 10
19.4750896608
 20
1.4136269581
  7
STANDARD
 40
0.08
  1
FIRST ANGLE
 41
0.8
 72
0
100
AcDbText
  0
TEXT
  5
20F
100
AcDbEntity
  8
0
100
AcDbText
 62
2
  6
CONTINUOUS
 10
20.7842537513
 20
1.4047600029
  7
STANDARD
 40
0.08
  1
THIRD ANGLE
 41
0.8
 72
0
100
AcDbText
  0
LINE
  5
210
100
AcDbEntity
  8
0
100
AcDbLine
 62
7
  6
CONTINUOUS
 10
19.4767170086
 20
1.1727031207
 11
19.6334271527
 21
1.1717972817
  0
LINE
  5
211
100
AcDbEntity
  8
0
100
AcDbLine
 62
7
  6
CONTINUOUS
 10
19.6596964832
 20
1.1717972817
 11
19.6950230232
 21
1.171593082
  0
LINE
  5
212
100
AcDbEntity
  8
0
100
AcDbLine
 62
7
  6
CONTINUOUS
 10
19.7194818561
 20
1.1708914427
 11
19.8852396156
 21
1.1699333054
  0
LINE
  5
213
100
AcDbEntity
  8
0
100
AcDbLine
 62
7
  6
CONTINUOUS
 10
19.4758111696
 20
1.2723454088
 11
19.88525039
 21
1.3511534004
  0
LINE
  5
214
100
AcDbEntity
  8
0
100
AcDbLine
 62
7
  6
CONTINUOUS
 10
19.88525039
 20
1.3511534004
 11
19.8831348489
 21
0.9851647912
  0
LINE
  5
215
100
AcDbEntity
  8
0
100
AcDbLine
 62
7
  6
CONTINUOUS
 10
19.8831348489
 20
0.9851647912
 11
19.4767170086
 21
1.0658141206
  0
LINE
  5
216
100
AcDbEntity
  8
0
100
AcDbLine
 62
7
  6
CONTINUOUS
 10
19.4767170086
 20
1.0658141206
 11
19.4779056764
 21
1.2714536432
  0
CIRCLE
  5
217
100
AcDbEntity
  8
0
100
AcDbCircle
 62
7
  6
CONTINUOUS
 10
20.2068232291
 20
1.1717972817
 40
0.175742101
  0
CIRCLE
  5
218
100
AcDbEntity
  8
0
100
AcDbCircle
 62
7
  6
CONTINUOUS
 10
20.2068232291
 20
1.1717972817
 40
0.1005522074
  0
LINE
  5
219
100
AcDbEntity
  8
0
100
AcDbLine
 62
7
  6
CONTINUOUS
 10
20.2077290681
 20
1.3756110529
 11
20.2071171714
 21
1.2379342989
  0
LINE
  5
21A
100
AcDbEntity
  8
0
100
AcDbLine
 62
7
  6
CONTINUOUS
 10
20.2077290681
 20
1.2016899681
 11
20.2074674401
 21
1.1428236749
  0
LINE
  5
21B
100
AcDbEntity
  8
0
100
AcDbLine
 62
7
  6
CONTINUOUS
 10
20.208634907
 20
1.101141841
 11
20.2080230104
 21
0.963465087
  0
LINE
  5
21C
100
AcDbEntity
  8
0
100
AcDbLine
 62
7
  6
CONTINUOUS
 10
20.0066328138
 20
1.1745147986
 11
20.1443095678
 21
1.1739029019
  0
LINE
  5
21D
100
AcDbEntity
  8
0
100
AcDbLine
 62
7
  6
CONTINUOUS
 10
20.1832714155
 20
1.1727031207
 11
20.238153505
 21
1.172335442
  0
LINE
  5
21E
100
AcDbEntity
  8
0
100
AcDbLine
 62
7
  6
CONTINUOUS
 10
20.2756669918
 20
1.1717972817
 11
20.407916871
 21
1.1712095044
  0
CIRCLE
  5
21F
100
AcDbEntity
  8
0
100
AcDbCircle
 62
7
  6
CONTINUOUS
 10
20.7509457401
 20
1.1693297793
 40
0.1722024983
  0
CIRCLE
  5
220
100
AcDbEntity
  8
0
100
AcDbCircle
 62
7
  6
CONTINUOUS
 10
20.7509457401
 20
1.1693297793
 40
0.0985164967
  0
LINE
  5
221
100
AcDbEntity
  8
0
100
AcDbLine
 62
7
  6
CONTINUOUS
 10
20.7169767782
 20
1.170462078
 11
20.7825395137
 21
1.1682766535
  0
LINE
  5
222
100
AcDbEntity
  8
0
100
AcDbLine
 62
7
  6
CONTINUOUS
 10
20.8177513651
 20
1.1693297793
 11
20.947965719
 21
1.1693297793
  0
LINE
  5
223
100
AcDbEntity
  8
0
100
AcDbLine
 62
7
  6
CONTINUOUS
 10
20.6875370113
 20
1.170462078
 11
20.5573226574
 21
1.170462078
  0
LINE
  5
224
100
AcDbEntity
  8
0
100
AcDbLine
 62
7
  6
CONTINUOUS
 10
20.7486811426
 20
1.1987695462
 11
20.7486811426
 21
1.1432869085
  0
LINE
  5
225
100
AcDbEntity
  8
0
100
AcDbLine
 62
7
  6
CONTINUOUS
 10
20.7498134414
 20
1.1059210505
 11
20.7498134414
 21
0.9757066966
  0
LINE
  5
226
100
AcDbEntity
  8
0
100
AcDbLine
 62
7
  6
CONTINUOUS
 10
20.7486811426
 20
1.2338708068
 11
20.7486811426
 21
1.3640851607
  0
LINE
  5
227
100
AcDbEntity
  8
0
100
AcDbLine
 62
7
  6
CONTINUOUS
 10
21.0702539817
 20
1.2701043662
 11
21.4790138229
 21
1.3448360823
  0
LINE
  5
228
100
AcDbEntity
  8
0
100
AcDbLine
 62
7
  6
CONTINUOUS
 10
21.4790138229
 20
1.3448360823
 11
21.4790138229
 21
0.9779712941
  0
LINE
  5
229
100
AcDbEntity
  8
0
100
AcDbLine
 62
7
  6
CONTINUOUS
 10
21.4790138229
 20
0.9779712941
 11
21.069121683
 21
1.0617614
  0
LINE
  5
22A
100
AcDbEntity
  8
0
100
AcDbLine
 62
7
  6
CONTINUOUS
 10
21.0702539817
 20
1.2701043662
 11
21.069121683
 21
1.0617614
  0
LINE
  5
22B
100
AcDbEntity
  8
0
100
AcDbLine
 62
7
  6
CONTINUOUS
 10
21.4790138229
 20
1.1693297793
 11
21.3159628059
 21
1.1693297793
  0
LINE
  5
22C
100
AcDbEntity
  8
0
100
AcDbLine
 62
7
  6
CONTINUOUS
 10
21.2876553377
 20
1.1693297793
 11
21.2502894796
 21
1.1693297793
  0
LINE
  5
22D
100
AcDbEntity
  8
0
100
AcDbLine
 62
7
  6
CONTINUOUS
 10
21.2208497126
 20
1.1659328831
 11
21.0713862804
 21
1.1659328831
  0
LINE
  5
22E
100
AcDbEntity
  8
0
100
AcDbLine
 62
7
  6
CONTINUOUS
 10
20.4796138713
 20
1.5284908897
 11
20.4766766948
 21
0.9294458646
  0
ENDBLK
  5
22F
100
AcDbEntity
  8
0
  6
BYBLOCK
 62
0
100
AcDbBlockEnd
  0
BLOCK
  5
230
100
AcDbEntity
  8
0
100
AcDbBlockBegin
  2
*T1
 70
1
 10
0.0
 20
0.0
  3
*T1
  1

  0
LINE
  5
231
100
AcDbEntity
  8
0
100
AcDbLine
 62
2
  6
CONTINUOUS
 10
9.275
 20
0.0
 11
-0.0
 21
0.0
  0
LINE
  5
232
100
AcDbEntity
  8
0
100
AcDbLine
 62
2
  6
CONTINUOUS
 10
9.275
 20
0.0
 11
9.275
 21
1.25
  0
LINE
  5
233
100
AcDbEntity
  8
0
100
AcDbLine
 62
2
  6
CONTINUOUS
 10
9.275
 20
0.625
 11
-0.0
 21
0.625
  0
LINE
  5
234
100
AcDbEntity
  8
0
100
AcDbLine
 62
2
  6
CONTINUOUS
 10
9.275
 20
1.25
 11
-0.0
 21
1.25
  0
LINE
  5
235
100
AcDbEntity
  8
0
100
AcDbLine
 62
2
  6
CONTINUOUS
 10
6.8
 20
0.0
 11
6.8
 21
1.25
  0
LINE
  5
236
100
AcDbEntity
  8
0
100
AcDbLine
 62
2
  6
CONTINUOUS
 10
6.4
 20
0.0
 11
6.4
 21
0.625
  0
LINE
  5
237
100
AcDbEntity
  8
0
100
AcDbLine
 62
2
  6
CONTINUOUS
 10
5.9
 20
0.0
 11
5.9
 21
0.625
  0
LINE
  5
238
100
AcDbEntity
  8
0
100
AcDbLine
 62
2
  6
CONTINUOUS
 10
5.2
 20
0.0
 11
5.2
 21
0.625
  0
LINE
  5
239
100
AcDbEntity
  8
0
100
AcDbLine
 62
2
  6
CONTINUOUS
 10
4.1
 20
0.0
 11
4.1
 21
1.25
  0
LINE
  5
23A
100
AcDbEntity
  8
0
100
AcDbLine
 62
2
  6
CONTINUOUS
 10
-0.0
 20
0.0
 11
-0.0
 21
1.25
  0
MTEXT
  5
23B
100
AcDbEntity
  8
0
100
AcDbMText
 62
2
  6
CONTINUOUS
  7
STANDARD
 71
2
 72
1
 10
6.6
 20
0.325
 30
0.0
 11
1.0
 21
0.0
 31
0.0
 44
0.9
  1
2
 40
0.125
 41
0.2
  0
MTEXT
  5
23C
100
AcDbEntity
  8
0
100
AcDbMText
 62
2
  6
CONTINUOUS
  7
STANDARD
 71
2
 72
1
 10
6.15
 20
0.325
 30
0.0
 11
1.0
 21
0.0
 31
0.0
 44
0.9
  1
C
 40
0.125
 41
0.2
  0
MTEXT
  5
23D
100
AcDbEntity
  8
0
100
AcDbMText
 62
2
  6
CONTINUOUS
  7
STANDARD
 71
2
 72
1
 10
5.55
 20
0.325
 30
0.0
 11
1.0
 21
0.0
 31
0.0
 44
0.9
  1
1.000
 40
0.125
 41
1.0
  0
MTEXT
  5
23E
100
AcDbEntity
  8
0
100
AcDbMText
 62
2
  6
CONTINUOUS
  7
STANDARD
 71
2
 72
1
 10
4.65
 20
0.325
 30
0.0
 11
1.0
 21
0.0
 31
0.0
 44
0.9
  1
Sep-10-20
 40
0.125
 41
1.8
  0
MTEXT
  5
23F
100
AcDbEntity
  8
0
100
AcDbMText
 62
2
  6
CONTINUOUS
  7
STANDARD
 71
2
 72
1
 10
2.05
 20
0.4625
 30
0.0
 11
1.0
 21
0.0
 31
0.0
 44
0.9
  1
T-16A Sandwich ISO 05\PP to T
 40
0.125
 41
4.2
  0
MTEXT
  5
240
100
AcDbEntity
  8
0
100
AcDbMText
 62
2
  6
CONTINUOUS
  7
STANDARD
 71
1
 72
1
 10
6.45
 20
0.5625
 30
0.0
 11
1.0
 21
0.0
 31
0.0
 44
0.9
  1
SHEET
 40
0.06
 41
0.48
  0
MTEXT
  5
241
100
AcDbEntity
  8
0
100
AcDbMText
 62
2
  6
CONTINUOUS
  7
STANDARD
 71
1
 72
1
 10
5.95
 20
0.5625
 30
0.0
 11
1.0
 21
0.0
 31
0.0
 44
0.9
  1
DWG SIZE
 40
0.06
 41
0.768
  0
MTEXT
  5
242
100
AcDbEntity
  8
0
100
AcDbMText
 62
2
  6
CONTINUOUS
  7
STANDARD
 71
1
 72
1
 10
5.25
 20
0.5625
 30
0.0
 11
1.0
 21
0.0
 31
0.0
 44
0.9
  1
SCALE
 40
0.06
 41
0.48
  0
MTEXT
  5
243
100
AcDbEntity
  8
0
100
AcDbMText
 62
2
  6
CONTINUOUS
  7
STANDARD
 71
1
 72
1
 10
4.15
 20
0.5625
 30
0.0
 11
1.0
 21
0.0
 31
0.0
 44
0.9
  1
DATE
 40
0.06
 41
0.384
  0
MTEXT
  5
244
100
AcDbEntity
  8
0
100
AcDbMText
 62
2
  6
CONTINUOUS
  7
STANDARD
 71
1
 72
1
 10
0.05
 20
0.5625
 30
0.0
 11
1.0
 21
0.0
 31
0.0
 44
0.9
  1
DESCRIPTION
 40
0.06
 41
1.056
  0
MTEXT
  5
245
100
AcDbEntity
  8
0
100
AcDbMText
 62
2
  6
CONTINUOUS
  7
STANDARD
 71
2
 72
1
 10
5.45
 20
1.0375
 30
0.0
 11
1.0
 21
0.0
 31
0.0
 44
0.9
  1
ALL DIMENSIONS IN INCH\PVIEWS ARE THIRD ANGLE
 40
0.12
 41
4.224
  0
MTEXT
  5
246
100
AcDbEntity
  8
0
100
AcDbMText
 62
2
  6
CONTINUOUS
  7
STANDARD
 71
2
 72
1
 10
2.05
 20
0.95
 30
0.0
 11
1.0
 21
0.0
 31
0.0
 44
0.9
  1
U7L
 40
0.125
 41
0.6
  0
MTEXT
  5
247
100
AcDbEntity
  8
0
100
AcDbMText
 62
2
  6
CONTINUOUS
  7
STANDARD
 71
1
 72
1
 10
0.05
 20
1.1875
 30
0.0
 11
1.0
 21
0.0
 31
0.0
 44
0.9
  1
MODEL
 40
0.06
 41
0.48
  0
ENDBLK
  5
248
100
AcDbEntity
  8
0
  6
BYBLOCK
 62
0
100
AcDbBlockEnd
  0
BLOCK
  5
249
100
AcDbEntity
  8
0
100
AcDbBlockBegin
  2
*T2
 70
1
 10
0.0
 20
0.0
  3
*T2
  1

  0
LINE
  5
24A
100
AcDbEntity
  8
0
100
AcDbLine
 62
2
  6
CONTINUOUS
 10
0.0
 20
0.0
 11
9.055
 21
0.0
  0
LINE
  5
24B
100
AcDbEntity
  8
0
100
AcDbLine
 62
2
  6
CONTINUOUS
 10
0.0
 20
0.0
 11
0.0
 21
-2.094
  0
LINE
  5
24C
100
AcDbEntity
  8
0
100
AcDbLine
 62
2
  6
CONTINUOUS
 10
0.0
 20
-0.344
 11
9.055
 21
-0.344
  0
LINE
  5
24D
100
AcDbEntity
  8
0
100
AcDbLine
 62
2
  6
CONTINUOUS
 10
0.0
 20
-0.594
 11
9.055
 21
-0.594
  0
LINE
  5
24E
100
AcDbEntity
  8
0
100
AcDbLine
 62
2
  6
CONTINUOUS
 10
0.0
 20
-0.844
 11
9.055
 21
-0.844
  0
LINE
  5
24F
100
AcDbEntity
  8
0
100
AcDbLine
 62
2
  6
CONTINUOUS
 10
0.0
 20
-1.094
 11
9.055
 21
-1.094
  0
LINE
  5
250
100
AcDbEntity
  8
0
100
AcDbLine
 62
2
  6
CONTINUOUS
 10
0.0
 20
-1.344
 11
9.055
 21
-1.344
  0
LINE
  5
251
100
AcDbEntity
  8
0
100
AcDbLine
 62
2
  6
CONTINUOUS
 10
0.0
 20
-1.594
 11
9.055
 21
-1.594
  0
LINE
  5
252
100
AcDbEntity
  8
0
100
AcDbLine
 62
2
  6
CONTINUOUS
 10
0.0
 20
-1.844
 11
9.055
 21
-1.844
  0
LINE
  5
253
100
AcDbEntity
  8
0
100
AcDbLine
 62
2
  6
CONTINUOUS
 10
0.0
 20
-2.094
 11
9.055
 21
-2.094
  0
LINE
  5
254
100
AcDbEntity
  8
0
100
AcDbLine
 62
2
  6
CONTINUOUS
 10
3.055
 20
0.0
 11
3.055
 21
-2.094
  0
LINE
  5
255
100
AcDbEntity
  8
0
100
AcDbLine
 62
2
  6
CONTINUOUS
 10
9.055
 20
0.0
 11
9.055
 21
-2.094
  0
MTEXT
  5
256
100
AcDbEntity
  8
0
100
AcDbMText
 62
2
  6
CONTINUOUS
  7
STANDARD
 71
2
 72
1
 10
1.5275
 20
-0.0995
 30
0.0
 11
1.0
 21
0.0
 31
0.0
 44
0.9
  1
Technical Data
 40
0.145
 41
3.248
  0
MTEXT
  5
257
100
AcDbEntity
  8
0
100
AcDbMText
 62
2
  6
CONTINUOUS
  7
STANDARD
 71
2
 72
1
 10
4.555
 20
-0.0995
 30
0.0
 11
1.0
 21
0.0
 31
0.0
 44
0.9
  1
U.S. Units
 40
0.145
 41
2.32
  0
MTEXT
  5
258
100
AcDbEntity
  8
0
100
AcDbMText
 62
2
  6
CONTINUOUS
  7
STANDARD
 71
2
 72
1
 10
7.555
 20
-0.0995
 30
0.0
 11
1.0
 21
0.0
 31
0.0
 44
0.9
  1
Metric Units
 40
0.145
 41
2.784
  0
MTEXT
  5
259
100
AcDbEntity
  8
0
100
AcDbMText
 62
2
  6
CONTINUOUS
  7
STANDARD
 71
2
 72
1
 10
1.5275
 20
-0.4065
 30
0.0
 11
1.0
 21
0.0
 31
0.0
 44
0.9
  1
Cavity
 40
0.125
 41
1.2
  0
MTEXT
  5
25A
100
AcDbEntity
  8
0
100
AcDbMText
 62
2
  6
CONTINUOUS
  7
STANDARD
 71
2
 72
1
 10
6.055
 20
-0.4065
 30
0.0
 11
1.0
 21
0.0
 31
0.0
 44
0.9
  1
T-16A
 40
0.125
 41
1.0
  0
MTEXT
  5
25B
100
AcDbEntity
  8
0
100
AcDbMText
 62
2
  6
CONTINUOUS
  7
STANDARD
 71
2
 72
1
 10
1.5275
 20
-0.6565
 30
0.0
 11
1.0
 21
0.0
 31
0.0
 44
0.9
  1
Body Features
 40
0.125
 41
2.6
  0
MTEXT
  5
25C
100
AcDbEntity
  8
0
100
AcDbMText
 62
2
  6
CONTINUOUS
  7
STANDARD
 71
2
 72
1
 10
6.055
 20
-0.6565
 30
0.0
 11
1.0
 21
0.0
 31
0.0
 44
0.9
  1
P to T
 40
0.125
 41
1.2
  0
MTEXT
  5
25D
100
AcDbEntity
  8
0
100
AcDbMText
 62
2
  6
CONTINUOUS
  7
STANDARD
 71
2
 72
1
 10
1.5275
 20
-0.9065
 30
0.0
 11
1.0
 21
0.0
 31
0.0
 44
0.9
  1
Body Type
 40
0.125
 41
1.8
  0
MTEXT
  5
25E
100
AcDbEntity
  8
0
100
AcDbMText
 62
2
  6
CONTINUOUS
  7
STANDARD
 71
2
 72
1
 10
6.055
 20
-0.9065
 30
0.0
 11
1.0
 21
0.0
 31
0.0
 44
0.9
  1
Sandwich
 40
0.125
 41
1.6
  0
MTEXT
  5
25F
100
AcDbEntity
  8
0
100
AcDbMText
 62
2
  6
CONTINUOUS
  7
STANDARD
 71
2
 72
1
 10
1.5275
 20
-1.1565
 30
0.0
 11
1.0
 21
0.0
 31
0.0
 44
0.9
  1
Interface
 40
0.125
 41
1.8
  0
MTEXT
  5
260
100
AcDbEntity
  8
0
100
AcDbMText
 62
2
  6
CONTINUOUS
  7
STANDARD
 71
2
 72
1
 10
6.055
 20
-1.1565
 30
0.0
 11
1.0
 21
0.0
 31
0.0
 44
0.9
  1
ISO 05
 40
0.125
 41
1.2
  0
MTEXT
  5
261
100
AcDbEntity
  8
0
100
AcDbMText
 62
2
  6
CONTINUOUS
  7
STANDARD
 71
2
 72
1
 10
1.5275
 20
-1.4065
 30
0.0
 11
1.0
 21
0.0
 31
0.0
 44
0.9
  1
Open Cavity Quantity
 40
0.125
 41
4.0
  0
MTEXT
  5
262
100
AcDbEntity
  8
0
100
AcDbMText
 62
2
  6
CONTINUOUS
  7
STANDARD
 71
2
 72
1
 10
6.055
 20
-1.4065
 30
0.0
 11
1.0
 21
0.0
 31
0.0
 44
0.9
  1
1
 40
0.125
 41
0.2
  0
MTEXT
  5
263
100
AcDbEntity
  8
0
100
AcDbMText
 62
2
  6
CONTINUOUS
  7
STANDARD
 71
2
 72
1
 10
1.5275
 20
-1.6565
 30
0.0
 11
1.0
 21
0.0
 31
0.0
 44
0.9
  1
Stack Height
 40
0.125
 41
2.4
  0
MTEXT
  5
264
100
AcDbEntity
  8
0
100
AcDbMText
 62
2
  6
CONTINUOUS
  7
STANDARD
 71
2
 72
1
 10
4.555
 20
-1.6565
 30
0.0
 11
1.0
 21
0.0
 31
0.0
 44
0.9
  1
2.44 in.
 40
0.125
 41
1.6
  0
MTEXT
  5
265
100
AcDbEntity
  8
0
100
AcDbMText
 62
2
  6
CONTINUOUS
  7
STANDARD
 71
2
 72
1
 10
7.555
 20
-1.6565
 30
0.0
 11
1.0
 21
0.0
 31
0.0
 44
0.9
  1
62 mm
 40
0.125
 41
1.0
  0
MTEXT
  5
266
100
AcDbEntity
  8
0
100
AcDbMText
 62
2
  6
CONTINUOUS
  7
STANDARD
 71
2
 72
1
 10
1.5275
 20
-1.9065
 30
0.0
 11
1.0
 21
0.0
 31
0.0
 44
0.9
  1
Weight
 40
0.125
 41
1.2
  0
MTEXT
  5
267
100
AcDbEntity
  8
0
100
AcDbMText
 62
2
  6
CONTINUOUS
  7
STANDARD
 71
2
 72
1
 10
4.555
 20
-1.9065
 30
0.0
 11
1.0
 21
0.0
 31
0.0
 44
0.9
  1
2.503 lb.
 40
0.125
 41
1.8
  0
MTEXT
  5
268
100
AcDbEntity
  8
0
100
AcDbMText
 62
2
  6
CONTINUOUS
  7
STANDARD
 71
2
 72
1
 10
7.555
 20
-1.9065
 30
0.0
 11
1.0
 21
0.0
 31
0.0
 44
0.9
  1
1,135 kg.
 40
0.125
 41
1.8
  0
ENDBLK
  5
269
100
AcDbEntity
  8
0
  6
BYBLOCK
 62
0
100
AcDbBlockEnd
  0
ENDSEC
  0
SECTION
  2
ENTITIES
  0
IMAGE
  5
26A
100
AcDbEntity
  8
0
100
AcDbRasterImage
 62
7
  6
CONTINUOUS
 10
19.2297077316
 20
0.3094318264
 30
0.0
 11
0.0066666667
 21
0.0
 31
0.0
 12
0.0
 22
0.0066666667
 32
0.0
 13
369.0
 23
92.0
340
       32D
 70
9
280
0
281
50
282
50
283
0
360
       327
 71
1
 91
2
 14
-0.5
 24
-0.5
 14
368.5
 24
91.5
  0
INSERT
  5
26B
100
AcDbEntity
  8
0
100
AcDbBlockReference
 62
2
  6
CONTINUOUS
  2
SUN_FIRST_THIRD_ANGLE_BL0
 10
20.4816717061
 20
1.2289683772
  0
ACAD_TABLE
  5
26C
100
AcDbEntity
  8
0
 62
2
  6
CONTINUOUS
100
AcDbBlockReference
  2
*T1
 10
12.42375
 20
0.30125
 30
0.0
100
AcDbTable
342
       32F
343
20A
 11
1.0
 21
0.0
 31
0.0
 90
6
 91
4
 92
6
 93
20
 94
0
 95
0
 96
0
 70
1
 41
0.0
141
0.525
141
0.1
141
0.525
141
0.1
142
4.1
142
1.1
142
0.7
142
0.5
142
0.4
142
2.475
171
1
172
0
173
0
174
0
175
1
176
1
 91
33
178
0
145
0.0
301
CELL_VALUE
 90
4
  1
T-16A Sandwich ISO 05\PP to T
304
ACVALUE_END
170
2
140
0.125
171
1
172
0
173
0
174
0
175
1
176
1
 91
33
178
0
145
0.0
301
CELL_VALUE
 90
4
  1
Sep-10-20
304
ACVALUE_END
170
5
140
0.125
171
1
172
0
173
0
174
0
175
1
176
1
 91
33
178
0
145
0.0
301
CELL_VALUE
 90
4
  1
1.000
304
ACVALUE_END
170
5
140
0.125
171
1
172
0
173
0
174
0
175
1
176
1
 91
33
178
0
145
0.0
301
CELL_VALUE
 90
4
  1
C
304
ACVALUE_END
170
5
140
0.125
171
1
172
0
173
0
174
0
175
1
176
1
 91
33
178
0
145
0.0
301
CELL_VALUE
 90
4
  1
2
304
ACVALUE_END
170
5
140
0.125
171
1
172
0
173
0
174
0
175
1
176
1
 91
33
178
0
145
0.0
301
CELL_VALUE
 90
4
  1
 
304
ACVALUE_END
170
1
140
0.125
171
1
172
0
173
0
174
0
175
1
176
1
 91
33
178
0
145
0.0
301
CELL_VALUE
 90
4
  1
DESCRIPTION
304
ACVALUE_END
170
1
140
0.06
171
1
172
0
173
0
174
0
175
1
176
1
 91
33
178
0
145
0.0
301
CELL_VALUE
 90
4
  1
DATE
304
ACVALUE_END
170
1
140
0.06
171
1
172
0
173
0
174
0
175
1
176
1
 91
33
178
0
145
0.0
301
CELL_VALUE
 90
4
  1
SCALE
304
ACVALUE_END
170
1
140
0.06
171
1
172
0
173
0
174
0
175
1
176
1
 91
33
178
0
145
0.0
301
CELL_VALUE
 90
4
  1
DWG SIZE
304
ACVALUE_END
170
1
140
0.06
171
1
172
0
173
0
174
0
175
1
176
1
 91
33
178
0
145
0.0
301
CELL_VALUE
 90
4
  1
SHEET
304
ACVALUE_END
170
1
140
0.06
171
1
172
0
173
0
174
0
175
1
176
1
 91
33
178
0
145
0.0
301
CELL_VALUE
 90
4
  1
 
304
ACVALUE_END
170
1
140
0.125
171
1
172
0
173
0
174
0
175
1
176
1
 91
33
178
0
145
0.0
301
CELL_VALUE
 90
4
  1
U7L
304
ACVALUE_END
170
5
140
0.125
171
1
172
0
173
0
174
0
175
4
176
1
 91
33
178
0
145
0.0
301
CELL_VALUE
 90
4
  1
ALL DIMENSIONS IN INCH\PVIEWS ARE THIRD ANGLE
304
ACVALUE_END
170
5
140
0.12
171
1
172
0
173
1
174
0
175
1
176
1
 91
1
178
0
145
0.0
170
1
171
1
172
0
173
1
174
0
175
1
176
1
 91
1
178
0
145
0.0
170
1
171
1
172
0
173
1
174
0
175
1
176
1
 91
1
178
0
145
0.0
170
5
171
1
172
0
173
0
174
0
175
1
176
1
 91
33
178
0
145
0.0
301
CELL_VALUE
 90
4
  1
 
304
ACVALUE_END
170
1
140
0.125
171
1
172
0
173
0
174
0
175
1
176
1
 91
33
178
0
145
0.0
301
CELL_VALUE
 90
4
  1
MODEL
304
ACVALUE_END
170
1
140
0.06
171
1
172
0
173
0
174
0
175
1
176
1
 91
33
178
0
145
0.0
301
CELL_VALUE
 90
4
  1
 
304
ACVALUE_END
170
1
140
0.125
171
1
172
0
173
0
174
0
175
1
176
1
 91
33
178
0
145
0.0
301
CELL_VALUE
 90
4
  1
 
304
ACVALUE_END
170
1
140
0.125
171
1
172
0
173
0
174
0
175
1
176
1
 91
33
178
0
145
0.0
301
CELL_VALUE
 90
4
  1
 
304
ACVALUE_END
170
1
140
0.125
171
1
172
0
173
0
174
0
175
1
176
1
 91
33
178
0
145
0.0
301
CELL_VALUE
 90
4
  1
 
304
ACVALUE_END
170
1
140
0.125
171
1
172
0
173
0
174
0
175
1
176
1
 91
33
178
0
145
0.0
301
CELL_VALUE
 90
4
  1
 
304
ACVALUE_END
170
1
140
0.125
  0
ACAD_TABLE
  5
26D
100
AcDbEntity
  8
0
 62
2
  6
CONTINUOUS
100
AcDbBlockReference
  2
*T2
 10
12.4237499994
 20
16.47875
 30
0.0
100
AcDbTable
342
       32E
343
20B
 11
1.0
 21
0.0
 31
0.0
 90
22
 91
8
 92
3
 93
16
 94
0
 95
0
 96
0
 41
0.028
141
0.344
141
0.25
141
0.25
141
0.25
141
0.25
141
0.25
141
0.25
141
0.25
142
3.055
142
3.0
142
3.0
171
1
172
0
173
0
174
0
175
1
176
1
 91
33
178
0
145
0.0
301
CELL_VALUE
 90
4
  1
Technical Data
304
ACVALUE_END
170
5
140
0.145
171
1
172
0
173
0
174
0
175
1
176
1
 91
33
178
0
145
0.0
301
CELL_VALUE
 90
4
  1
U.S. Units
304
ACVALUE_END
170
5
140
0.145
171
1
172
0
173
0
174
0
175
1
176
1
 91
33
178
0
145
0.0
301
CELL_VALUE
 90
4
  1
Metric Units
304
ACVALUE_END
170
5
140
0.145
171
1
172
0
173
0
174
0
175
1
176
1
 91
33
178
0
145
0.0
301
CELL_VALUE
 90
4
  1
Cavity
304
ACVALUE_END
170
5
140
0.125
171
1
172
0
173
0
174
0
175
2
176
1
 91
33
178
0
145
0.0
301
CELL_VALUE
 90
4
  1
T-16A
304
ACVALUE_END
170
5
140
0.125
171
1
172
0
173
1
174
0
175
1
176
1
 91
1
178
0
145
0.0
170
1
171
1
172
0
173
0
174
0
175
1
176
1
 91
33
178
0
145
0.0
301
CELL_VALUE
 90
4
  1
Body Features
304
ACVALUE_END
170
5
140
0.125
171
1
172
0
173
0
174
0
175
2
176
1
 91
33
178
0
145
0.0
301
CELL_VALUE
 90
4
  1
P to T
304
ACVALUE_END
170
5
140
0.125
171
1
172
0
173
1
174
0
175
1
176
1
 91
1
178
0
145
0.0
170
1
171
1
172
0
173
0
174
0
175
1
176
1
 91
33
178
0
145
0.0
301
CELL_VALUE
 90
4
  1
Body Type
304
ACVALUE_END
170
5
140
0.125
171
1
172
0
173
0
174
0
175
2
176
1
 91
33
178
0
145
0.0
301
CELL_VALUE
 90
4
  1
Sandwich
304
ACVALUE_END
170
5
140
0.125
171
1
172
0
173
1
174
0
175
1
176
1
 91
1
178
0
145
0.0
170
1
171
1
172
0
173
0
174
0
175
1
176
1
 91
33
178
0
145
0.0
301
CELL_VALUE
 90
4
  1
Interface
304
ACVALUE_END
170
5
140
0.125
171
1
172
0
173
0
174
0
175
2
176
1
 91
33
178
0
145
0.0
301
CELL_VALUE
 90
4
  1
ISO 05
304
ACVALUE_END
170
5
140
0.125
171
1
172
0
173
1
174
0
175
1
176
1
 91
1
178
0
145
0.0
170
1
171
1
172
0
173
0
174
0
175
1
176
1
 91
33
178
0
145
0.0
301
CELL_VALUE
 90
4
  1
Open Cavity Quantity
304
ACVALUE_END
170
5
140
0.125
171
1
172
0
173
0
174
0
175
2
176
1
 91
33
178
0
145
0.0
301
CELL_VALUE
 90
4
  1
1
304
ACVALUE_END
170
5
140
0.125
171
1
172
0
173
1
174
0
175
1
176
1
 91
1
178
0
145
0.0
170
1
171
1
172
0
173
0
174
0
175
1
176
1
 91
33
178
0
145
0.0
301
CELL_VALUE
 90
4
  1
Stack Height
304
ACVALUE_END
170
5
140
0.125
171
1
172
0
173
0
174
0
175
1
176
1
 91
33
178
0
145
0.0
301
CELL_VALUE
 90
4
  1
2.44 in.
304
ACVALUE_END
170
5
140
0.125
171
1
172
0
173
0
174
0
175
1
176
1
 91
33
178
0
145
0.0
301
CELL_VALUE
 90
4
  1
62 mm
304
ACVALUE_END
170
5
140
0.125
171
1
172
0
173
0
174
0
175
1
176
1
 91
33
178
0
145
0.0
301
CELL_VALUE
 90
4
  1
Weight
304
ACVALUE_END
170
5
140
0.125
171
1
172
0
173
0
174
0
175
1
176
1
 91
33
178
0
145
0.0
301
CELL_VALUE
 90
4
  1
2.503 lb.
304
ACVALUE_END
170
5
140
0.125
171
1
172
0
173
0
174
0
175
1
176
1
 91
33
178
0
145
0.0
301
CELL_VALUE
 90
4
  1
1,135 kg.
304
ACVALUE_END
170
5
140
0.125
  0
MTEXT
  5
26E
100
AcDbEntity
  8
0
100
AcDbMText
 62
2
  6
CONTINUOUS
  7
STANDARD
 71
1
 72
1
 10
0.52125
 20
5.75995
 30
0.0
 11
1.0
 21
0.0
 31
0.0
 44
0.6
  3
Notes\P \P1. Important: Carefully consider\P   the maximum system pressure. The\P   pressure rating of the manifold is\P   dependent on the manifold material,\P   with the port type/size a secondary\P   consideration. Manifolds\P   constructed of alu
  1
minum are not\P   rated for pressures higher than\P   3000 psi (210 bar), regardless of\P   the port type/size specified.
 40
0.1
 41
3.04
  0
LINE
  5
26F
100
AcDbEntity
  8
0
100
AcDbLine
 62
7
  6
CONTINUOUS
 10
0.30125
 20
0.30125
 11
0.30125
 21
16.69875
  0
LINE
  5
270
100
AcDbEntity
  8
0
100
AcDbLine
 62
7
  6
CONTINUOUS
 10
0.30125
 20
0.30125
 11
21.69875
 21
0.30125
  0
LINE
  5
271
100
AcDbEntity
  8
0
100
AcDbLine
 62
7
  6
CONTINUOUS
 10
0.30125
 20
16.69875
 11
21.69875
 21
16.69875
  0
LINE
  5
272
100
AcDbEntity
  8
0
100
AcDbLine
 62
7
  6
CONTINUOUS
 10
21.69875
 20
0.30125
 11
21.69875
 21
16.69875
  0
LINE
  5
273
100
AcDbEntity
  8
0
100
AcDbLine
 62
7
  6
CONTINUOUS
 10
8.010348614
 20
9.2504087753
 11
8.010348614
 21
7.6807792146
  0
LINE
  5
274
100
AcDbEntity
  8
0
100
AcDbLine
 62
7
  6
CONTINUOUS
 10
8.0322689326
 20
9.2405821784
 11
8.0322689326
 21
7.6709526177
  0
LINE
  5
275
100
AcDbEntity
  8
0
100
AcDbLine
 62
7
  6
CONTINUOUS
 10
8.0801135761
 20
7.4049608485
 11
8.0542381003
 21
7.4367760983
  0
LINE
  5
276
100
AcDbEntity
  8
0
100
AcDbLine
 62
7
  6
CONTINUOUS
 10
8.527986277
 20
10.0826868962
 11
8.0993822921
 21
9.6686872134
  0
LINE
  5
277
100
AcDbEntity
  8
0
100
AcDbLine
 62
7
  6
CONTINUOUS
 10
8.5579299794
 20
10.1105539958
 11
8.1293259945
 21
9.696554313
  0
LINE
  5
278
100
AcDbEntity
  8
0
100
AcDbLine
 62
7
  6
CONTINUOUS
 10
8.5588461825
 20
10.1114228408
 11
8.5579299794
 21
10.1105539958
  0
LINE
  5
279
100
AcDbEntity
  8
0
100
AcDbLine
 62
7
  6
CONTINUOUS
 10
8.5288277871
 20
10.0834847181
 11
8.527986277
 21
10.0826868962
  0
LINE
  5
27A
100
AcDbEntity
  8
0
100
AcDbLine
 62
7
  6
CONTINUOUS
 10
8.527986277
 20
10.0826868962
 11
8.5579219302
 21
10.1105626444
  0
LINE
  5
27B
100
AcDbEntity
  8
0
100
AcDbLine
 62
7
  6
CONTINUOUS
 10
8.0993822921
 20
9.6686872134
 11
8.1293259945
 21
9.696554313
  0
LINE
  5
27C
100
AcDbEntity
  8
0
100
AcDbLine
 62
7
  6
CONTINUOUS
 10
8.010348614
 20
7.6807792146
 11
8.0322689326
 21
7.6709526177
  0
LINE
  5
27D
100
AcDbEntity
  8
0
100
AcDbLine
 62
7
  6
CONTINUOUS
 10
13.310776493
 20
6.8775241597
 11
10.4129988424
 21
7.0784857223
  0
LINE
  5
27E
100
AcDbEntity
  8
0
100
AcDbLine
 62
7
  6
CONTINUOUS
 10
10.4129988424
 20
9.4933004311
 11
11.0439991443
 21
10.1027999551
  0
LINE
  5
27F
100
AcDbEntity
  8
0
100
AcDbLine
 62
7
  6
CONTINUOUS
 10
10.4129988424
 20
7.2304286048
 11
8.1033819696
 21
7.390601079
  0
LINE
  5
280
100
AcDbEntity
  8
0
100
AcDbLine
 62
7
  6
CONTINUOUS
 10
8.0322689326
 20
7.6709526177
 11
10.4129988424
 21
7.5058484377
  0
LINE
  5
281
100
AcDbEntity
  8
0
100
AcDbLine
 62
4
  6
CONTINUOUS
 10
13.6260178275
 20
7.8919794489
 11
13.6337823922
 21
7.892234999
  0
LINE
  5
282
100
AcDbEntity
  8
0
100
AcDbLine
 62
7
  6
CONTINUOUS
 10
10.4129988424
 20
9.4933004311
 11
10.4129988424
 21
7.0784857223
  0
LINE
  5
283
100
AcDbEntity
  8
0
100
AcDbLine
 62
7
  6
CONTINUOUS
 10
8.010348614
 20
9.2504087753
 11
8.0322689326
 21
9.2405821784
  0
LINE
  5
284
100
AcDbEntity
  8
0
100
AcDbLine
 62
7
  6
CONTINUOUS
 10
13.674625785
 20
8.0814918434
 11
13.5944539367
 21
8.0870517799
  0
LINE
  5
285
100
AcDbEntity
  8
0
100
AcDbLine
 62
7
  6
CONTINUOUS
 10
13.7422116704
 20
8.3854149037
 11
13.6755271276
 21
8.3900394924
  0
LINE
  5
286
100
AcDbEntity
  8
0
100
AcDbLine
 62
7
  6
CONTINUOUS
 10
13.7422116704
 20
8.5248342959
 11
13.694354505
 21
8.5281532016
  0
LINE
  5
287
100
AcDbEntity
  8
0
100
AcDbLine
 62
7
  6
CONTINUOUS
 10
13.8860048574
 20
8.6819160199
 11
13.8058330091
 21
8.6874759565
  0
LINE
  5
288
100
AcDbEntity
  8
0
100
AcDbLine
 62
7
  6
CONTINUOUS
 10
13.7222244226
 20
8.7678433347
 11
13.6420525743
 21
8.7734032713
  0
LINE
  5
289
100
AcDbEntity
  8
0
100
AcDbLine
 62
7
  6
CONTINUOUS
 10
8.0322689326
 20
9.2405821784
 11
10.4129988424
 21
9.0754779984
  0
LINE
  5
28A
100
AcDbEntity
  8
0
100
AcDbLine
 62
7
  6
CONTINUOUS
 10
13.9443384551
 20
8.9328122003
 11
13.8927396712
 21
8.9363905882
  0
LINE
  5
28B
100
AcDbEntity
  8
0
100
AcDbLine
 62
7
  6
CONTINUOUS
 10
13.9443384551
 20
9.0376555833
 11
13.9070098517
 21
9.0402443307
  0
LINE
  5
28C
100
AcDbEntity
  8
0
100
AcDbLine
 62
7
  6
CONTINUOUS
 10
13.9417767948
 20
9.9018383925
 11
13.310776493
 21
9.2923388685
  0
LINE
  5
28D
100
AcDbEntity
  8
0
100
AcDbLine
 62
7
  6
CONTINUOUS
 10
13.9249554867
 20
9.2435670223
 11
13.8447836384
 21
9.2491269588
  0
LINE
  5
28E
100
AcDbEntity
  8
0
100
AcDbLine
 62
7
  6
CONTINUOUS
 10
13.310776493
 20
9.2923388685
 11
10.4129988424
 21
9.4933004311
  0
LINE
  5
28F
100
AcDbEntity
  8
0
100
AcDbLine
 62
7
  6
CONTINUOUS
 10
8.1293259945
 20
9.696554313
 11
10.4563502065
 21
9.5351746357
  0
LINE
  5
290
100
AcDbEntity
  8
0
100
AcDbLine
 62
7
  6
CONTINUOUS
 10
13.8259960868
 20
9.2408618068
 11
13.8105021814
 21
9.226441717
  0
LINE
  5
291
100
AcDbEntity
  8
0
100
AcDbLine
 62
7
  6
CONTINUOUS
 10
13.6190937191
 20
8.76330305
 11
13.6035998136
 21
8.7488829602
  0
LINE
  5
292
100
AcDbEntity
  8
0
100
AcDbLine
 62
7
  6
CONTINUOUS
 10
8.5579299794
 20
10.1105539958
 11
10.8849541915
 21
9.9491743186
  0
LINE
  5
293
100
AcDbEntity
  8
0
100
AcDbLine
 62
7
  6
CONTINUOUS
 10
10.898166594
 20
9.9619365202
 11
8.5838740043
 21
10.1224332564
  0
LINE
  5
294
100
AcDbEntity
  8
0
100
AcDbLine
 62
7
  6
CONTINUOUS
 10
11.0439991443
 20
10.1027999551
 11
13.9417767948
 21
9.9018383925
  0
LINE
  5
295
100
AcDbEntity
  8
0
100
AcDbLine
 62
7
  6
CONTINUOUS
 10
13.9202863144
 20
8.7046012618
 11
13.904792409
 21
8.6901811719
  0
LINE
  5
296
100
AcDbEntity
  8
0
100
AcDbLine
 62
7
  6
CONTINUOUS
 10
13.5731090637
 20
8.1002244752
 11
13.5597539794
 21
8.1166452493
  0
LINE
  5
297
100
AcDbEntity
  8
0
100
AcDbLine
 62
4
  6
CONTINUOUS
 10
13.6156650746
 20
7.8095350173
 11
13.6130768862
 21
7.8142794631
  0
LINE
  5
298
100
AcDbEntity
  8
0
100
AcDbLine
 62
4
  6
CONTINUOUS
 10
13.6337823922
 20
7.892234999
 11
13.6389587694
 21
7.8827461077
  0
LINE
  5
299
100
AcDbEntity
  8
0
100
AcDbLine
 62
7
  6
CONTINUOUS
 10
13.7130785456
 20
8.1060121545
 11
13.6975846402
 21
8.0915920647
  0
LINE
  5
29A
100
AcDbEntity
  8
0
100
AcDbLine
 62
7
  6
CONTINUOUS
 10
13.7883662017
 20
8.6982553568
 11
13.7750111174
 21
8.7146761309
  0
LINE
  5
29B
100
AcDbEntity
  8
0
100
AcDbLine
 62
7
  6
CONTINUOUS
 10
13.7569243798
 20
8.7382498654
 11
13.7435692955
 21
8.7546706395
  0
LINE
  5
29C
100
AcDbEntity
  8
0
100
AcDbLine
 62
7
  6
CONTINUOUS
 10
13.310776493
 20
9.2923388685
 11
13.310776493
 21
6.8775241597
  0
LINE
  5
29D
100
AcDbEntity
  8
0
100
AcDbLine
 62
4
  6
CONTINUOUS
 10
13.6260178275
 20
7.8195350092
 11
13.6156650746
 21
7.8095350173
  0
LINE
  5
29E
100
AcDbEntity
  8
0
100
AcDbLine
 62
4
  6
CONTINUOUS
 10
13.6130768862
 20
7.8142794631
 11
13.6104886979
 21
7.826268353
  0
LINE
  5
29F
100
AcDbEntity
  8
0
100
AcDbLine
 62
4
  6
CONTINUOUS
 10
13.6389587694
 20
7.8827461077
 11
13.641546957
 21
7.8707572172
  0
LINE
  5
2A0
100
AcDbEntity
  8
0
100
AcDbLine
 62
4
  6
CONTINUOUS
 10
13.6104886979
 20
7.826268353
 11
13.6104886979
 21
7.8407572409
  0
LINE
  5
2A1
100
AcDbEntity
  8
0
100
AcDbLine
 62
4
  6
CONTINUOUS
 10
13.6260178275
 20
7.8485127851
 11
13.6260178275
 21
7.8195350092
  0
LINE
  5
2A2
100
AcDbEntity
  8
0
100
AcDbLine
 62
4
  6
CONTINUOUS
 10
13.641546957
 20
7.8707572172
 11
13.641546957
 21
7.8562683293
  0
LINE
  5
2A3
100
AcDbEntity
  8
0
100
AcDbLine
 62
4
  6
CONTINUOUS
 10
13.6104886979
 20
7.8407572409
 11
13.6130768862
 21
7.8577461269
  0
LINE
  5
2A4
100
AcDbEntity
  8
0
100
AcDbLine
 62
4
  6
CONTINUOUS
 10
13.641546957
 20
7.8562683293
 11
13.6389587694
 21
7.8392794439
  0
LINE
  5
2A5
100
AcDbEntity
  8
0
100
AcDbLine
 62
4
  6
CONTINUOUS
 10
13.6130768862
 20
7.8577461269
 11
13.6182532627
 21
7.8772350108
  0
LINE
  5
2A6
100
AcDbEntity
  8
0
100
AcDbLine
 62
4
  6
CONTINUOUS
 10
13.6389587694
 20
7.8392794439
 11
13.6363705799
 21
7.8295350008
  0
LINE
  5
2A7
100
AcDbEntity
  8
0
100
AcDbLine
 62
4
  6
CONTINUOUS
 10
13.6182532627
 20
7.8772350108
 11
13.6260178275
 21
7.8919794489
  0
LINE
  5
2A8
100
AcDbEntity
  8
0
100
AcDbLine
 62
7
  6
CONTINUOUS
 10
13.9557773784
 20
9.2163668479
 11
13.9424222941
 21
9.2327876219
  0
LINE
  5
2A9
100
AcDbEntity
  8
0
100
AcDbLine
 62
7
  6
CONTINUOUS
 10
13.9417767948
 20
9.9018383925
 11
13.9417767948
 21
9.2333363748
  0
LINE
  5
2AA
100
AcDbEntity
  8
0
100
AcDbLine
 62
7
  6
CONTINUOUS
 10
13.9417767948
 20
8.7381680682
 11
13.9417767948
 21
7.4870236837
  0
LINE
  5
2AB
100
AcDbEntity
  8
0
100
AcDbLine
 62
7
  6
CONTINUOUS
 10
13.9417767948
 20
7.4870236837
 11
13.310776493
 21
6.8775241597
  0
ARC
  5
2AC
100
AcDbEntity
  8
0
100
AcDbCircle
 62
7
  6
CONTINUOUS
 10
11.5578693459
 20
8.0121278192
 40
0.2004878729
100
AcDbArc
 50
52.599142258
 51
61.827566631
  0
ARC
  5
2AD
100
AcDbEntity
  8
0
100
AcDbCircle
 62
7
  6
CONTINUOUS
 10
11.5647093852
 20
8.0198641833
 40
0.1888071283
100
AcDbArc
 50
52.5085486494
 51
60.5454331819
  0
ARC
  5
2AE
100
AcDbEntity
  8
0
100
AcDbCircle
 62
7
  6
CONTINUOUS
 10
11.5657857267
 20
8.0216875696
 40
0.1866901537
100
AcDbArc
 50
60.5578935142
 51
62.0974604705
  0
ARC
  5
2AF
100
AcDbEntity
  8
0
100
AcDbCircle
 62
7
  6
CONTINUOUS
 10
13.691064897
 20
8.1805062093
 40
0.1432575545
100
AcDbArc
 50
203.5033045246
 51
206.0574716527
  0
ARC
  5
2B0
100
AcDbEntity
  8
0
100
AcDbCircle
 62
7
  6
CONTINUOUS
 10
13.7461418464
 20
8.5356998754
 40
0.0450269018
100
AcDbArc
 50
142.177296158
 51
142.8482099618
  0
ARC
  5
2B1
100
AcDbEntity
  8
0
100
AcDbCircle
 62
7
  6
CONTINUOUS
 10
13.9376896734
 20
9.0502390456
 40
0.0240129588
100
AcDbArc
 50
136.7320372915
 51
137.5790758458
  0
SPLINE
  5
2B2
100
AcDbEntity
  8
0
100
AcDbSpline
 62
7
  6
CONTINUOUS
 70
0
 71
3
 72
21
 73
17
 74
0
 42
0.0000001
 43
0.0000001
 44
0.0000000001
 40
0.0
 40
0.0
 40
0.0
 40
0.0
 40
0.1685616874
 40
0.3287963644
 40
0.4049748023
 40
0.4781590272
 40
0.5480893266
 40
0.6145170882
 40
0.6772087892
 40
0.7359738033
 40
0.790645498
 40
0.8410920653
 40
0.887237413
 40
0.9290500841
 40
0.9665836944
 40
1.0
 40
1.0
 40
1.0
 40
1.0
 10
13.8925943242
 20
8.9342947471
 30
0.0
 10
13.8925943242
 20
8.9298052024
 30
0.0
 10
13.8927431948
 20
8.9210470695
 30
0.0
 10
13.8933301357
 20
8.910273676
 30
0.0
 10
13.8940447625
 20
8.9020581374
 30
0.0
 10
13.8946845555
 20
8.8962519697
 30
0.0
 10
13.8954342448
 20
8.8907208758
 30
0.0
 10
13.8962903236
 20
8.8854881213
 30
0.0
 10
13.8972497553
 20
8.8805758628
 30
0.0
 10
13.8983078517
 20
8.8760045814
 30
0.0
 10
13.8994601103
 20
8.8717931108
 30
0.0
 10
13.9007021358
 20
8.8679587518
 30
0.0
 10
13.9020278937
 20
8.8645168017
 30
0.0
 10
13.9034328594
 20
8.8614806569
 30
0.0
 10
13.9049113988
 20
8.8588623938
 30
0.0
 10
13.9060042321
 20
8.8573145522
 30
0.0
 10
13.9065658346
 20
8.8566240842
 30
0.0
  0
SPLINE
  5
2B3
100
AcDbEntity
  8
0
100
AcDbSpline
 62
7
  6
CONTINUOUS
 70
0
 71
3
 72
31
 73
27
 74
0
 42
0.0000001
 43
0.0000001
 44
0.0000000001
 40
0.0
 40
0.0
 40
0.0
 40
0.0
 40
0.0762656208
 40
0.1537943453
 40
0.231828897
 40
0.3096812386
 40
0.3866394395
 40
0.4619996552
 40
0.5350812932
 40
0.6052309703
 40
0.6390124002
 40
0.67183295
 40
0.7036213026
 40
0.7343120691
 40
0.7638431047
 40
0.7921545668
 40
0.8191942183
 40
0.8449146835
 40
0.8692723112
 40
0.8922334625
 40
0.9137722707
 40
0.933869892
 40
0.9525222697
 40
0.9697396624
 40
0.9855480192
 40
1.0
 40
1.0
 40
1.0
 40
1.0
 10
13.989651386
 20
9.0280446752
 30
0.0
 10
13.989651386
 20
9.0195082566
 30
0.0
 10
13.9894213879
 20
9.0022933026
 30
0.0
 10
13.9884197465
 20
8.9763614697
 30
0.0
 10
13.9867656211
 20
8.9502849622
 30
0.0
 10
13.9844758012
 20
8.924320715
 30
0.0
 10
13.9815728185
 20
8.8987189974
 30
0.0
 10
13.9780849455
 20
8.8737292132
 30
0.0
 10
13.9740461877
 20
8.8495947708
 30
0.0
 10
13.970208745
 20
8.8301534006
 30
0.0
 10
13.9668806434
 20
8.8152123463
 30
0.0
 10
13.9643046439
 20
8.8045044283
 30
0.0
 10
13.9616231811
 20
8.7941794308
 30
0.0
 10
13.9588431175
 20
8.7842623448
 30
0.0
 10
13.9559714937
 20
8.774777207
 30
0.0
 10
13.9530147938
 20
8.7657472067
 30
0.0
 10
13.9499805772
 20
8.7571941184
 30
0.0
 10
13.9468765569
 20
8.7491385075
 30
0.0
 10
13.943709711
 20
8.7416000294
 30
0.0
 10
13.9404880634
 20
8.7345966511
 30
0.0
 10
13.9372197861
 20
8.7281448749
 30
0.0
 10
13.9339120133
 20
8.7222602722
 30
0.0
 10
13.9305728784
 20
8.7169564793
 30
0.0
 10
13.9272102601
 20
8.7122451192
 30
0.0
 10
13.9238311611
 20
8.7081378496
 30
0.0
 10
13.9214692623
 20
8.7057025123
 30
0.0
 10
13.9202851222
 20
8.7046004779
 30
0.0
  0
SPLINE
  5
2B4
100
AcDbEntity
  8
0
100
AcDbSpline
 62
7
  6
CONTINUOUS
 70
0
 71
3
 72
26
 73
22
 74
0
 42
0.0000001
 43
0.0000001
 44
0.0000000001
 40
0.0
 40
0.0
 40
0.0
 40
0.0
 40
0.0708506265
 40
0.1428030534
 40
0.2153170653
 40
0.2879177688
 40
0.3601245086
 40
0.4314440504
 40
0.5013965756
 40
0.5695146204
 40
0.6353481021
 40
0.6984648431
 40
0.7584607329
 40
0.8149614414
 40
0.8676286505
 40
0.8924332481
 40
0.9161742671
 40
0.9388221358
 40
0.9603539818
 40
0.980751521
 40
1.0
 40
1.0
 40
1.0
 40
1.0
 10
13.7411371098
 20
8.9029983035
 30
0.0
 10
13.7411371098
 20
8.9103292079
 30
0.0
 10
13.7413069009
 20
8.9251054956
 30
0.0
 10
13.7420489341
 20
8.947373595
 30
0.0
 10
13.7432773819
 20
8.9698016053
 30
0.0
 10
13.7449825413
 20
8.9922247588
 30
0.0
 10
13.7471519368
 20
9.014483635
 30
0.0
 10
13.7497704878
 20
9.0364182828
 30
0.0
 10
13.7528185437
 20
9.0578702665
 30
0.0
 10
13.7562747442
 20
9.0786852311
 30
0.0
 10
13.7601130121
 20
9.0987136405
 30
0.0
 10
13.7643062491
 20
9.1178114697
 30
0.0
 10
13.7688231989
 20
9.1358418664
 30
0.0
 10
13.7736311415
 20
9.1526753961
 30
0.0
 10
13.7779325611
 20
9.165857703
 30
0.0
 10
13.7815099715
 20
9.1757010731
 30
0.0
 10
13.7841897535
 20
9.1825635568
 30
0.0
 10
13.7869156162
 20
9.1890420569
 30
0.0
 10
13.7896824691
 20
9.1951252098
 30
0.0
 10
13.7924850645
 20
9.2008022696
 30
0.0
 10
13.7944308761
 20
9.2044149183
 30
0.0
 10
13.7954113323
 20
9.2061485057
 30
0.0
  0
SPLINE
  5
2B5
100
AcDbEntity
  8
0
100
AcDbSpline
 62
7
  6
CONTINUOUS
 70
0
 71
3
 72
11
 73
7
 74
0
 42
0.0000001
 43
0.0000001
 44
0.0000000001
 40
0.0
 40
0.0
 40
0.0
 40
0.0
 40
0.2853328899
 40
0.546772266
 40
0.7847018984
 40
1.0
 40
1.0
 40
1.0
 40
1.0
 10
13.7954113323
 20
9.2061485057
 30
0.0
 10
13.7965996423
 20
9.2082496085
 30
0.0
 10
13.7989777604
 20
9.2122202964
 30
0.0
 10
13.8027338344
 20
9.2176999545
 30
0.0
 10
13.8065128431
 20
9.2224269045
 30
0.0
 10
13.8091700701
 20
9.2252016458
 30
0.0
 10
13.8105033736
 20
9.2264425008
 30
0.0
  0
LINE
  5
2B6
100
AcDbEntity
  8
0
100
AcDbLine
 62
7
  6
CONTINUOUS
 10
13.9212013724
 20
9.0676912366
 11
13.9202044903
 21
9.0666977991
  0
SPLINE
  5
2B7
100
AcDbEntity
  8
0
100
AcDbSpline
 62
7
  6
CONTINUOUS
 70
0
 71
3
 72
28
 73
24
 74
0
 42
0.0000001
 43
0.0000001
 44
0.0000000001
 40
0.0
 40
0.0
 40
0.0
 40
0.0
 40
0.01539621
 40
0.0321339426
 40
0.0502432907
 40
0.0697379739
 40
0.0906134169
 40
0.1128553989
 40
0.1364435528
 40
0.1613480339
 40
0.1875295551
 40
0.2149456039
 40
0.2732876909
 40
0.3359386432
 40
0.402407628
 40
0.4721469015
 40
0.5445764584
 40
0.6190821022
 40
0.6950244345
 40
0.7717421076
 40
0.8485898691
 40
0.9249218834
 40
1.0
 40
1.0
 40
1.0
 40
1.0
 10
13.9199630901
 20
9.0664375158
 30
0.0
 10
13.9194897103
 20
9.0659195693
 30
0.0
 10
13.9185472298
 20
9.0647964853
 30
0.0
 10
13.917197346
 20
9.0629451637
 30
0.0
 10
13.9158560774
 20
9.0608617163
 30
0.0
 10
13.9145267037
 20
9.0585506395
 30
0.0
 10
13.9132117902
 20
9.0560172328
 30
0.0
 10
13.9119143174
 20
9.0532671966
 30
0.0
 10
13.9106374624
 20
9.050306528
 30
0.0
 10
13.9093841819
 20
9.0471419339
 30
0.0
 10
13.9081571049
 20
9.0437807887
 30
0.0
 10
13.9065259431
 20
9.038946487
 30
0.0
 10
13.9045846591
 20
9.0324650298
 30
0.0
 10
13.9024475087
 20
9.0241913019
 30
0.0
 10
13.900478175
 20
9.015343246
 30
0.0
 10
13.8986942004
 20
9.0060020926
 30
0.0
 10
13.8971128796
 20
8.996253385
 30
0.0
 10
13.8957486326
 20
8.9861866776
 30
0.0
 10
13.8946142664
 20
8.9758949008
 30
0.0
 10
13.8937201911
 20
8.9654723723
 30
0.0
 10
13.8930745703
 20
8.9550136935
 30
0.0
 10
13.8926841035
 20
8.9446172163
 30
0.0
 10
13.8925943242
 20
8.9377164289
 30
0.0
 10
13.8925943242
 20
8.9342947471
 30
0.0
  0
SPLINE
  5
2B8
100
AcDbEntity
  8
0
100
AcDbSpline
 62
7
  6
CONTINUOUS
 70
0
 71
3
 72
27
 73
23
 74
0
 42
0.0000001
 43
0.0000001
 44
0.0000000001
 40
0.0
 40
0.0
 40
0.0
 40
0.0
 40
0.0162147681
 40
0.0334280458
 40
0.0516718081
 40
0.0709698948
 40
0.0913394088
 40
0.1127892076
 40
0.1353216315
 40
0.1589353237
 40
0.209381896
 40
0.2640510775
 40
0.3228118294
 40
0.385501843
 40
0.4519210818
 40
0.5218507706
 40
0.5950377861
 40
0.6712138901
 40
0.7501030787
 40
0.8314227517
 40
0.9148505898
 40
1.0
 40
1.0
 40
1.0
 40
1.0
 10
13.7750126365
 20
8.7146742799
 30
0.0
 10
13.7743518734
 20
8.7154866805
 30
0.0
 10
13.7730453437
 20
8.7172073296
 30
0.0
 10
13.771182042
 20
8.7199775722
 30
0.0
 10
13.7693596071
 20
8.7230096337
 30
0.0
 10
13.7675799346
 20
8.7263004221
 30
0.0
 10
13.7658449817
 20
8.7298468791
 30
0.0
 10
13.7641564147
 20
8.7336452857
 30
0.0
 10
13.7625157652
 20
8.7376915572
 30
0.0
 10
13.7603464935
 20
8.7435412579
 30
0.0
 10
13.7577842309
 20
8.7514543992
 30
0.0
 10
13.7549901791
 20
8.7616655589
 30
0.0
 10
13.7524244443
 20
8.7727493508
 30
0.0
 10
13.7500988673
 20
8.7846596316
 30
0.0
 10
13.7480223614
 20
8.7973470313
 30
0.0
 10
13.7462051535
 20
8.8107583454
 30
0.0
 10
13.7446539509
 20
8.8248369366
 30
0.0
 10
13.7433761001
 20
8.8395237215
 30
0.0
 10
13.7423768833
 20
8.8547583619
 30
0.0
 10
13.7416607545
 20
8.8704776899
 30
0.0
 10
13.741231137
 20
8.8866117756
 30
0.0
 10
13.7411371098
 20
8.8974991537
 30
0.0
 10
13.7411371098
 20
8.9029983035
 30
0.0
  0
SPLINE
  5
2B9
100
AcDbEntity
  8
0
100
AcDbSpline
 62
7
  6
CONTINUOUS
 70
0
 71
3
 72
11
 73
7
 74
0
 42
0.0000001
 43
0.0000001
 44
0.0000000001
 40
0.0
 40
0.0
 40
0.0
 40
0.0
 40
0.2743071297
 40
0.5344420773
 40
0.7774377375
 40
1.0
 40
1.0
 40
1.0
 40
1.0
 10
13.9200094849
 20
8.8568905269
 30
0.0
 10
13.9182649941
 20
8.8576305293
 30
0.0
 10
13.91488084
 20
8.859107453
 30
0.0
 10
13.9100188386
 20
8.861391041
 30
0.0
 10
13.905560108
 20
8.8636853619
 30
0.0
 10
13.9027736801
 20
8.8652959195
 30
0.0
 10
13.9014708271
 20
8.8661122889
 30
0.0
  0
SPLINE
  5
2BA
100
AcDbEntity
  8
0
100
AcDbSpline
 62
7
  6
CONTINUOUS
 70
0
 71
3
 72
15
 73
11
 74
0
 42
0.0000001
 43
0.0000001
 44
0.0000000001
 40
0.0
 40
0.0
 40
0.0
 40
0.0
 40
0.1492710171
 40
0.289709221
 40
0.4220222282
 40
0.547112762
 40
0.6660745533
 40
0.7801970517
 40
0.890959402
 40
1.0
 40
1.0
 40
1.0
 40
1.0
 10
13.825996086
 20
9.2408614606
 30
0.0
 10
13.8267649589
 20
9.2415770713
 30
0.0
 10
13.8283016386
 20
9.2429194997
 30
0.0
 10
13.8306779253
 20
9.2447053357
 30
0.0
 10
13.8330510371
 20
9.2461972388
 30
0.0
 10
13.835418719
 20
9.2473932959
 30
0.0
 10
13.8377788822
 20
9.2482915865
 30
0.0
 10
13.8401292591
 20
9.2488898514
 30
0.0
 10
13.8424663262
 20
9.2491855684
 30
0.0
 10
13.8440181856
 20
9.2491798439
 30
0.0
 10
13.8447836198
 20
9.2491266903
 30
0.0
  0
SPLINE
  5
2BB
100
AcDbEntity
  8
0
100
AcDbSpline
 62
7
  6
CONTINUOUS
 70
0
 71
3
 72
15
 73
11
 74
0
 42
0.0000001
 43
0.0000001
 44
0.0000000001
 40
0.0
 40
0.0
 40
0.0
 40
0.0
 40
0.1492710171
 40
0.289709221
 40
0.4220222282
 40
0.547112762
 40
0.6660745533
 40
0.7801970517
 40
0.890959402
 40
1.0
 40
1.0
 40
1.0
 40
1.0
 10
13.9047924098
 20
8.6901815181
 30
0.0
 10
13.9040235369
 20
8.6894659075
 30
0.0
 10
13.9024868572
 20
8.6881234791
 30
0.0
 10
13.9001105705
 20
8.6863376431
 30
0.0
 10
13.8977374587
 20
8.6848457399
 30
0.0
 10
13.8953697769
 20
8.6836496829
 30
0.0
 10
13.8930096136
 20
8.6827513923
 30
0.0
 10
13.8906592367
 20
8.6821531273
 30
0.0
 10
13.8883221696
 20
8.6818574104
 30
0.0
 10
13.8867703103
 20
8.6818631349
 30
0.0
 10
13.886004876
 20
8.6819162884
 30
0.0
  0
SPLINE
  5
2BC
100
AcDbEntity
  8
0
100
AcDbSpline
 62
7
  6
CONTINUOUS
 70
0
 71
3
 72
27
 73
23
 74
0
 42
0.0000001
 43
0.0000001
 44
0.0000000001
 40
0.0
 40
0.0
 40
0.0
 40
0.0
 40
0.0162147681
 40
0.0334280458
 40
0.0516718081
 40
0.0709698948
 40
0.0913394088
 40
0.1127892076
 40
0.1353216315
 40
0.1589353237
 40
0.209381896
 40
0.2640510775
 40
0.3228118294
 40
0.385501843
 40
0.4519210818
 40
0.5218507706
 40
0.5950377861
 40
0.6712138901
 40
0.7501030787
 40
0.8314227517
 40
0.9148505898
 40
1.0
 40
1.0
 40
1.0
 40
1.0
 10
13.9557758593
 20
9.2163686989
 30
0.0
 10
13.9564366224
 20
9.2155562982
 30
0.0
 10
13.9577431521
 20
9.2138356492
 30
0.0
 10
13.9596064538
 20
9.2110654066
 30
0.0
 10
13.9614288888
 20
9.208033345
 30
0.0
 10
13.9632085612
 20
9.2047425566
 30
0.0
 10
13.9649435142
 20
9.2011960996
 30
0.0
 10
13.9666320811
 20
9.197397693
 30
0.0
 10
13.9682727306
 20
9.1933514216
 30
0.0
 10
13.9704420024
 20
9.1875017208
 30
0.0
 10
13.9730042649
 20
9.1795885795
 30
0.0
 10
13.9757983167
 20
9.1693774199
 30
0.0
 10
13.9783640516
 20
9.158293628
 30
0.0
 10
13.9806896285
 20
9.1463833472
 30
0.0
 10
13.9827661344
 20
9.1336959474
 30
0.0
 10
13.9845833423
 20
9.1202846333
 30
0.0
 10
13.986134545
 20
9.1062060421
 30
0.0
 10
13.9874123957
 20
9.0915192572
 30
0.0
 10
13.9884116126
 20
9.0762846168
 30
0.0
 10
13.9891277413
 20
9.0605652889
 30
0.0
 10
13.9895573589
 20
9.0444312032
 30
0.0
 10
13.989651386
 20
9.0335438251
 30
0.0
 10
13.989651386
 20
9.0280446752
 30
0.0
  0
SPLINE
  5
2BD
100
AcDbEntity
  8
0
100
AcDbSpline
 62
7
  6
CONTINUOUS
 70
0
 71
3
 72
15
 73
11
 74
0
 42
0.0000001
 43
0.0000001
 44
0.0000000001
 40
0.0
 40
0.0
 40
0.0
 40
0.0
 40
0.1090430419
 40
0.2198054539
 40
0.3339231994
 40
0.452887223
 40
0.5779880059
 40
0.7103070969
 40
0.8507361486
 40
1.0
 40
1.0
 40
1.0
 40
1.0
 10
13.9249554681
 20
9.2435667537
 30
0.0
 10
13.9257209102
 20
9.2435135996
 30
0.0
 10
13.9272586496
 20
9.243304756
 30
0.0
 10
13.9295325178
 20
9.2426895333
 30
0.0
 10
13.9317780053
 20
9.2417731195
 30
0.0
 10
13.9339915472
 20
9.2405574795
 30
0.0
 10
13.9361712944
 20
9.2390456316
 30
0.0
 10
13.9383156378
 20
9.2372402983
 30
0.0
 10
13.9404228972
 20
9.2351439412
 30
0.0
 10
13.9417596066
 20
9.2336024562
 30
0.0
 10
13.942422292
 20
9.2327876067
 30
0.0
  0
SPLINE
  5
2BE
100
AcDbEntity
  8
0
100
AcDbSpline
 62
7
  6
CONTINUOUS
 70
0
 71
3
 72
15
 73
11
 74
0
 42
0.0000001
 43
0.0000001
 44
0.0000000001
 40
0.0
 40
0.0
 40
0.0
 40
0.0
 40
0.1090430419
 40
0.2198054539
 40
0.3339231994
 40
0.452887223
 40
0.5779880059
 40
0.7103070969
 40
0.8507361486
 40
1.0
 40
1.0
 40
1.0
 40
1.0
 10
13.8058330277
 20
8.687476225
 30
0.0
 10
13.8050675856
 20
8.6875293791
 30
0.0
 10
13.8035298462
 20
8.6877382227
 30
0.0
 10
13.801255978
 20
8.6883534455
 30
0.0
 10
13.7990104905
 20
8.6892698593
 30
0.0
 10
13.7967969486
 20
8.6904854992
 30
0.0
 10
13.7946172014
 20
8.6919973472
 30
0.0
 10
13.792472858
 20
8.6938026804
 30
0.0
 10
13.7903655986
 20
8.6958990375
 30
0.0
 10
13.7890288892
 20
8.6974405226
 30
0.0
 10
13.7883662038
 20
8.698255372
 30
0.0
  0
SPLINE
  5
2BF
100
AcDbEntity
  8
0
100
AcDbSpline
 62
7
  6
CONTINUOUS
 70
0
 71
3
 72
33
 73
29
 74
0
 42
0.0000001
 43
0.0000001
 44
0.0000000001
 40
0.0
 40
0.0
 40
0.0
 40
0.0
 40
0.1056124641
 40
0.2076699554
 40
0.305167057
 40
0.39730514
 40
0.4833444468
 40
0.5625963551
 40
0.5994968149
 40
0.6344975976
 40
0.6675451558
 40
0.6986017549
 40
0.7276432097
 40
0.7546559499
 40
0.7796448267
 40
0.8026448944
 40
0.8237184754
 40
0.8429636001
 40
0.8605339137
 40
0.876650845
 40
0.8916117247
 40
0.9057992803
 40
0.9196709547
 40
0.9337159583
 40
0.9484055614
 40
0.9641484958
 40
0.9812663149
 40
1.0
 40
1.0
 40
1.0
 40
1.0
 10
13.9492756483
 20
8.9890447051
 30
0.0
 10
13.9492756483
 20
8.9924355358
 30
0.0
 10
13.9491896909
 20
8.9991034396
 30
0.0
 10
13.9487936149
 20
9.0088945203
 30
0.0
 10
13.94813482
 20
9.018238048
 30
0.0
 10
13.9472207124
 20
9.0270434726
 30
0.0
 10
13.9460604105
 20
9.0352288211
 30
0.0
 10
13.9448714675
 20
9.0416134799
 30
0.0
 10
13.9437933005
 20
9.0463457468
 30
0.0
 10
13.942950059
 20
9.0496085987
 30
0.0
 10
13.9420546436
 20
9.0526625528
 30
0.0
 10
13.9411092638
 20
9.055500542
 30
0.0
 10
13.9401163773
 20
9.0581161441
 30
0.0
 10
13.9390781977
 20
9.0605032861
 30
0.0
 10
13.9379967204
 20
9.0626563929
 30
0.0
 10
13.9368746047
 20
9.0645709441
 30
0.0
 10
13.9357141178
 20
9.0662429775
 30
0.0
 10
13.9345167705
 20
9.0676685933
 30
0.0
 10
13.933284014
 20
9.0688443828
 30
0.0
 10
13.9320172355
 20
9.0697672234
 30
0.0
 10
13.9307174934
 20
9.070432648
 30
0.0
 10
13.9293873866
 20
9.0708342735
 30
0.0
 10
13.9280333489
 20
9.0709678362
 30
0.0
 10
13.9266636436
 20
9.0708323953
 30
0.0
 10
13.9252857757
 20
9.0704303947
 30
0.0
 10
13.9239043851
 20
9.0697668144
 30
0.0
 10
13.9225214881
 20
9.0688470801
 30
0.0
 10
13.921641643
 20
9.068101027
 30
0.0
 10
13.9212013724
 20
9.0676912366
 30
0.0
  0
SPLINE
  5
2C0
100
AcDbEntity
  8
0
100
AcDbSpline
 62
7
  6
CONTINUOUS
 70
0
 71
3
 72
39
 73
35
 74
0
 42
0.0000001
 43
0.0000001
 44
0.0000000001
 40
0.0
 40
0.0
 40
0.0
 40
0.0
 40
0.0154361115
 40
0.0224876968
 40
0.0291530353
 40
0.0354908597
 40
0.0415708915
 40
0.0474738374
 40
0.0532886797
 40
0.0591083756
 40
0.0650255691
 40
0.0711284028
 40
0.077496858
 40
0.0841996368
 40
0.0912942181
 40
0.1068282727
 40
0.1243883942
 40
0.1441303714
 40
0.1661343627
 40
0.1904268854
 40
0.2169874925
 40
0.2457720636
 40
0.2767086995
 40
0.3097043823
 40
0.3446553215
 40
0.3814374123
 40
0.4199177276
 40
0.4599540061
 40
0.5440630384
 40
0.6324568902
 40
0.723728931
 40
0.8163990409
 40
0.9090071575
 40
1.0
 40
1.0
 40
1.0
 40
1.0
 10
13.9065658346
 20
8.8566240842
 30
0.0
 10
13.9070687592
 20
8.8560057583
 30
0.0
 10
13.9078588908
 20
8.8551469129
 30
0.0
 10
13.9090131134
 20
8.8541780307
 30
0.0
 10
13.9098667929
 20
8.8535888245
 30
0.0
 10
13.9107336868
 20
8.8531162552
 30
0.0
 10
13.9116131231
 20
8.852761555
 30
0.0
 10
13.912503934
 20
8.8525257946
 30
0.0
 10
13.9134046026
 20
8.8524094474
 30
0.0
 10
13.9143134771
 20
8.8524127706
 30
0.0
 10
13.9152288888
 20
8.852535635
 30
0.0
 10
13.916149341
 20
8.8527776496
 30
0.0
 10
13.9170735214
 20
8.8531381662
 30
0.0
 10
13.9180005787
 20
8.8536159689
 30
0.0
 10
13.9192779832
 20
8.8544329986
 30
0.0
 10
13.9208769472
 20
8.8557689226
 30
0.0
 10
13.9227331584
 20
8.8577754382
 30
0.0
 10
13.9245796589
 20
8.8602235511
 30
0.0
 10
13.9264097013
 20
8.8631041371
 30
0.0
 10
13.9282161873
 20
8.8664064463
 30
0.0
 10
13.9299924751
 20
8.8701168898
 30
0.0
 10
13.9317303414
 20
8.8742204983
 30
0.0
 10
13.9334225513
 20
8.8786999565
 30
0.0
 10
13.9350620546
 20
8.8835362684
 30
0.0
 10
13.9366410795
 20
8.8887089677
 30
0.0
 10
13.938153328
 20
8.8941958041
 30
0.0
 10
13.9395920391
 20
8.8999733048
 30
0.0
 10
13.9414338497
 20
8.9081664963
 30
0.0
 10
13.9434951555
 20
8.9189487832
 30
0.0
 10
13.9455495199
 20
8.9324156043
 30
0.0
 10
13.9471871195
 20
8.946384504
 30
0.0
 10
13.9483801953
 20
8.9606166342
 30
0.0
 10
13.9491070016
 20
8.9748655737
 30
0.0
 10
13.9492756483
 20
8.9843463577
 30
0.0
 10
13.9492756483
 20
8.9890447051
 30
0.0
  0
SPLINE
  5
2C1
100
AcDbEntity
  8
0
100
AcDbSpline
 62
7
  6
CONTINUOUS
 70
0
 71
3
 72
22
 73
18
 74
0
 42
0.0000001
 43
0.0000001
 44
0.0000000001
 40
0.0
 40
0.0
 40
0.0
 40
0.0
 40
0.0349049308
 40
0.0694005652
 40
0.1048261999
 40
0.1426989904
 40
0.1844642378
 40
0.2312281269
 40
0.2837691192
 40
0.342397856
 40
0.4071540303
 40
0.4778086187
 40
0.5539550737
 40
0.6351250086
 40
0.7208144056
 40
0.8104976172
 40
1.0
 40
1.0
 40
1.0
 40
1.0
 10
13.9161944206
 20
9.0615845127
 30
0.0
 10
13.9160208847
 20
9.0611548531
 30
0.0
 10
13.915745556
 20
9.0602693559
 30
0.0
 10
13.915600211
 20
9.0588756966
 30
0.0
 10
13.9157547304
 20
9.0574422681
 30
0.0
 10
13.916228625
 20
9.0559798637
 30
0.0
 10
13.9170297992
 20
9.0544967879
 30
0.0
 10
13.9181569955
 20
9.0529943222
 30
0.0
 10
13.919609906
 20
9.0514773109
 30
0.0
 10
13.9213762689
 20
9.0499454428
 30
0.0
 10
13.9234429049
 20
9.0484046298
 30
0.0
 10
13.9257886327
 20
9.0468579541
 30
0.0
 10
13.9283897229
 20
9.045309155
 30
0.0
 10
13.9312213426
 20
9.0437622284
 30
0.0
 10
13.9342580355
 20
9.0422193753
 30
0.0
 10
13.938629359
 20
9.040131712
 30
0.0
 10
13.9420224674
 20
9.0386380113
 30
0.0
 10
13.9443384551
 20
9.0376555833
 30
0.0
  0
SPLINE
  5
2C2
100
AcDbEntity
  8
0
100
AcDbSpline
 62
7
  6
CONTINUOUS
 70
0
 71
3
 72
15
 73
11
 74
0
 42
0.0000001
 43
0.0000001
 44
0.0000000001
 40
0.0
 40
0.0
 40
0.0
 40
0.0
 40
0.1023527862
 40
0.2108978839
 40
0.32583162
 40
0.4473012217
 40
0.5754135387
 40
0.7102266956
 40
0.8517575201
 40
1.0
 40
1.0
 40
1.0
 40
1.0
 10
13.7883662038
 20
8.698255372
 30
0.0
 10
13.7876782024
 20
8.6991013505
 30
0.0
 10
13.7863174963
 20
8.7008913153
 30
0.0
 10
13.7843751869
 20
8.7037701512
 30
0.0
 10
13.7824746411
 20
8.7069171286
 30
0.0
 10
13.7806177645
 20
8.7103291378
 30
0.0
 10
13.7788065213
 20
8.7140031202
 30
0.0
 10
13.7770426218
 20
8.7179353958
 30
0.0
 10
13.7753276393
 20
8.722121818
 30
0.0
 10
13.7742431067
 20
8.7250126944
 30
0.0
 10
13.7737081765
 20
8.7264986565
 30
0.0
  0
SPLINE
  5
2C3
100
AcDbEntity
  8
0
100
AcDbSpline
 62
7
  6
CONTINUOUS
 70
0
 71
3
 72
21
 73
17
 74
0
 42
0.0000001
 43
0.0000001
 44
0.0000000001
 40
0.0
 40
0.0
 40
0.0
 40
0.0
 40
0.0443331903
 40
0.091535699
 40
0.1415474493
 40
0.1942977158
 40
0.2497033204
 40
0.3076636577
 40
0.3680720547
 40
0.4308131105
 40
0.4957554373
 40
0.562763191
 40
0.6316979739
 40
0.7024178746
 40
0.8486232089
 40
1.0
 40
1.0
 40
1.0
 40
1.0
 10
13.7737081765
 20
8.7264986565
 30
0.0
 10
13.7728399399
 20
8.7289104976
 30
0.0
 10
13.7711549227
 20
8.7339294604
 30
0.0
 10
13.7688367246
 20
8.7417801654
 30
0.0
 10
13.7666526638
 20
8.7501730412
 30
0.0
 10
13.7646084265
 20
8.7590881338
 30
0.0
 10
13.7627092972
 20
8.7685044347
 30
0.0
 10
13.7609592705
 20
8.7783994391
 30
0.0
 10
13.7593628613
 20
8.7887496577
 30
0.0
 10
13.7579243367
 20
8.7995303309
 30
0.0
 10
13.7566465927
 20
8.8107153165
 30
0.0
 10
13.7555328912
 20
8.8222776017
 30
0.0
 10
13.754586293
 20
8.8341898798
 30
0.0
 10
13.7535378876
 20
8.8506857055
 30
0.0
 10
13.7526731972
 20
8.8719666603
 30
0.0
 10
13.7524508227
 20
8.8891738559
 30
0.0
 10
13.7524508227
 20
8.8979265116
 30
0.0
  0
SPLINE
  5
2C4
100
AcDbEntity
  8
0
100
AcDbSpline
 62
7
  6
CONTINUOUS
 70
0
 71
3
 72
23
 73
19
 74
0
 42
0.0000001
 43
0.0000001
 44
0.0000000001
 40
0.0
 40
0.0
 40
0.0
 40
0.0
 40
0.0715379684
 40
0.1420659735
 40
0.2114201653
 40
0.2794226596
 40
0.3459305561
 40
0.3785913231
 40
0.4108381623
 40
0.4740743306
 40
0.5357090612
 40
0.5959023124
 40
0.6549218074
 40
0.7130703616
 40
0.7706664121
 40
0.8279756838
 40
0.8852232501
 40
1.0
 40
1.0
 40
1.0
 40
1.0
 10
13.9443384551
 20
8.9328122003
 30
0.0
 10
13.9428541611
 20
8.931414245
 30
0.0
 10
13.9399499946
 20
8.9285912815
 30
0.0
 10
13.9357900515
 20
8.924229424
 30
0.0
 10
13.9318941658
 20
8.9197621131
 30
0.0
 10
13.9283083538
 20
8.9151861681
 30
0.0
 10
13.9256050057
 20
8.911257825
 30
0.0
 10
13.9236505701
 20
8.9080616113
 30
0.0
 10
13.9218652493
 20
8.9048744857
 30
0.0
 10
13.9199176882
 20
8.9008354561
 30
0.0
 10
13.9180594594
 20
8.8958906919
 30
0.0
 10
13.9167228295
 20
8.8909037673
 30
0.0
 10
13.9159015641
 20
8.8859073448
 30
0.0
 10
13.9155818102
 20
8.8809287764
 30
0.0
 10
13.9157220021
 20
8.8759919115
 30
0.0
 10
13.9162802571
 20
8.8711115191
 30
0.0
 10
13.9175142544
 20
8.864687884
 30
0.0
 10
13.9189202362
 20
8.8599752226
 30
0.0
 10
13.9200094849
 20
8.8568905269
 30
0.0
  0
SPLINE
  5
2C5
100
AcDbEntity
  8
0
100
AcDbSpline
 62
7
  6
CONTINUOUS
 70
0
 71
3
 72
14
 73
10
 74
0
 42
0.0000001
 43
0.0000001
 44
0.0000000001
 40
0.0
 40
0.0
 40
0.0
 40
0.0
 40
0.126788248
 40
0.2529895165
 40
0.3785600545
 40
0.5035985003
 40
0.6281879977
 40
0.7524300622
 40
1.0
 40
1.0
 40
1.0
 40
1.0
 10
13.9302921052
 20
8.9862080095
 30
0.0
 10
13.9302921052
 20
8.9884837584
 30
0.0
 10
13.93046495
 20
8.9930265268
 30
0.0
 10
13.9312288276
 20
8.9997842312
 30
0.0
 10
13.9324756116
 20
9.0064375138
 30
0.0
 10
13.934157745
 20
9.0129632911
 30
0.0
 10
13.9362303714
 20
9.0193500014
 30
0.0
 10
13.9394412228
 20
9.027664854
 30
0.0
 10
13.9422946867
 20
9.0337097824
 30
0.0
 10
13.9443384551
 20
9.0376555833
 30
0.0
  0
SPLINE
  5
2C6
100
AcDbEntity
  8
0
100
AcDbSpline
 62
7
  6
CONTINUOUS
 70
0
 71
3
 72
14
 73
10
 74
0
 42
0.0000001
 43
0.0000001
 44
0.0000000001
 40
0.0
 40
0.0
 40
0.0
 40
0.0
 40
0.2522272973
 40
0.3779846182
 40
0.5033735217
 40
0.628340263
 40
0.7528128113
 40
0.8767440645
 40
1.0
 40
1.0
 40
1.0
 40
1.0
 10
13.9443384551
 20
8.9328122003
 30
0.0
 10
13.9423015545
 20
8.937027261
 30
0.0
 10
13.9394541571
 20
8.9434491008
 30
0.0
 10
13.9362368253
 20
8.9522234785
 30
0.0
 10
13.9341643744
 20
8.958893162
 30
0.0
 10
13.9324817147
 20
8.9656477929
 30
0.0
 10
13.9312336382
 20
8.9724696828
 30
0.0
 10
13.9304675857
 20
8.9793307643
 30
0.0
 10
13.9302921052
 20
8.9839203392
 30
0.0
 10
13.9302921052
 20
8.9862080095
 30
0.0
  0
SPLINE
  5
2C7
100
AcDbEntity
  8
0
100
AcDbSpline
 62
7
  6
CONTINUOUS
 70
0
 71
3
 72
42
 73
38
 74
0
 42
0.0000001
 43
0.0000001
 44
0.0000000001
 40
0.0
 40
0.0
 40
0.0
 40
0.0
 40
0.0187317918
 40
0.0358459152
 40
0.0515845466
 40
0.0590428417
 40
0.0662861262
 40
0.0733677281
 40
0.0803453143
 40
0.0872795313
 40
0.0942320619
 40
0.1012639729
 40
0.1084341789
 40
0.1157981619
 40
0.1234068684
 40
0.1395232976
 40
0.1570935977
 40
0.1763381572
 40
0.1974103033
 40
0.2204090452
 40
0.2453978239
 40
0.2724087099
 40
0.3014466849
 40
0.3325019809
 40
0.3655490216
 40
0.4005455813
 40
0.4374423964
 40
0.4761812502
 40
0.5166921647
 40
0.5589011869
 40
0.6027280303
 40
0.6480815212
 40
0.6948675949
 40
0.7429904044
 40
0.7923516885
 40
0.8943811518
 40
1.0
 40
1.0
 40
1.0
 40
1.0
 10
13.9202851222
 20
8.7046004779
 30
0.0
 10
13.9192175922
 20
8.7036069682
 30
0.0
 10
13.9170844954
 20
8.701797965
 30
0.0
 10
13.913732064
 20
8.6995687152
 30
0.0
 10
13.9108902254
 20
8.6982055572
 30
0.0
 10
13.9086403049
 20
8.6974531436
 30
0.0
 10
13.9069890668
 20
8.6970565949
 30
0.0
 10
13.9053453278
 20
8.6968186254
 30
0.0
 10
13.9037102869
 20
8.6967397849
 30
0.0
 10
13.9020853361
 20
8.6968200116
 30
0.0
 10
13.9004718223
 20
8.6970591336
 30
0.0
 10
13.8988710613
 20
8.6974568273
 30
0.0
 10
13.8972842925
 20
8.6980126484
 30
0.0
 10
13.8957125823
 20
8.6987261449
 30
0.0
 10
13.8935983644
 20
8.699909375
 30
0.0
 10
13.8909898076
 20
8.7018099797
 30
0.0
 10
13.8880015941
 20
8.7046612287
 30
0.0
 10
13.8850984571
 20
8.7081182722
 30
0.0
 10
13.8822847761
 20
8.7121724994
 30
0.0
 10
13.8795640831
 20
8.7168148672
 30
0.0
 10
13.8769423491
 20
8.7220358247
 30
0.0
 10
13.8744252082
 20
8.7278238771
 30
0.0
 10
13.8720176406
 20
8.7341657187
 30
0.0
 10
13.8697257465
 20
8.7410470895
 30
0.0
 10
13.8675551295
 20
8.7484520922
 30
0.0
 10
13.8655103359
 20
8.7563632262
 30
0.0
 10
13.8635966467
 20
8.7647620302
 30
0.0
 10
13.8618189252
 20
8.7736287982
 30
0.0
 10
13.8601808872
 20
8.7829425229
 30
0.0
 10
13.8586867622
 20
8.7926812688
 30
0.0
 10
13.8573404741
 20
8.802821913
 30
0.0
 10
13.8561447131
 20
8.8133400524
 30
0.0
 10
13.85510253
 20
8.8242104982
 30
0.0
 10
13.8542167507
 20
8.8354077958
 30
0.0
 10
13.8532357933
 20
8.8509099437
 30
0.0
 10
13.8524267026
 20
8.8709053433
 30
0.0
 10
13.8522185864
 20
8.8870720977
 30
0.0
 10
13.8522185864
 20
8.8952947769
 30
0.0
  0
SPLINE
  5
2C8
100
AcDbEntity
  8
0
100
AcDbSpline
 62
7
  6
CONTINUOUS
 70
0
 71
3
 72
50
 73
46
 74
0
 42
0.0000001
 43
0.0000001
 44
0.0000000001
 40
0.0
 40
0.0
 40
0.0
 40
0.0
 40
0.0451955386
 40
0.0909999682
 40
0.1371965654
 40
0.1835931767
 40
0.2762634019
 40
0.3675294641
 40
0.4121749419
 40
0.4559215749
 40
0.4985966907
 40
0.5400311032
 40
0.5800643103
 40
0.6185430603
 40
0.6553228158
 40
0.6902714365
 40
0.7232656373
 40
0.7542003886
 40
0.7829825281
 40
0.7965447723
 40
0.8095447299
 40
0.8219768143
 40
0.8338372512
 40
0.845125688
 40
0.8558440574
 40
0.86599658
 40
0.8755903876
 40
0.884637398
 40
0.8931551119
 40
0.9011662886
 40
0.9087001258
 40
0.9157939675
 40
0.9224956589
 40
0.9288634581
 40
0.934966242
 40
0.9408832608
 40
0.9467025845
 40
0.9525171679
 40
0.9584199421
 40
0.9644995446
 40
0.9708368504
 40
0.9775019178
 40
0.9845534247
 40
0.9920397036
 40
1.0
 40
1.0
 40
1.0
 40
1.0
 10
13.8522185864
 20
8.8952947769
 30
0.0
 10
13.8522185864
 20
8.900953387
 30
0.0
 10
13.8523198194
 20
8.9123470697
 30
0.0
 10
13.8527646209
 20
8.9295194689
 30
0.0
 10
13.8535027903
 20
8.9468323602
 30
0.0
 10
13.8548729932
 20
8.9699882317
 30
0.0
 10
13.8572824831
 20
8.9987312225
 30
0.0
 10
13.8606154768
 20
9.0271615074
 30
0.0
 10
13.8638202618
 20
9.0494267856
 30
0.0
 10
13.8664520171
 20
9.0656253422
 30
0.0
 10
13.8693171426
 20
9.0813758194
 30
0.0
 10
13.87240386
 20
9.0966103832
 30
0.0
 10
13.8756984581
 20
9.1112634069
 30
0.0
 10
13.8791864986
 20
9.1252719016
 30
0.0
 10
13.8828533173
 20
9.1385756264
 30
0.0
 10
13.8866820524
 20
9.151117605
 30
0.0
 10
13.8906571931
 20
9.1628441067
 30
0.0
 10
13.8947601762
 20
9.173705097
 30
0.0
 10
13.8983394046
 20
9.1821563023
 30
0.0
 10
13.9012644224
 20
9.1884386104
 30
0.0
 10
13.9034355504
 20
9.192812117
 30
0.0
 10
13.9056253713
 20
9.1969365946
 30
0.0
 10
13.9078317932
 20
9.2008074862
 30
0.0
 10
13.9100522714
 20
9.2044208744
 30
0.0
 10
13.9122844279
 20
9.2077731317
 30
0.0
 10
13.9145259208
 20
9.2108607204
 30
0.0
 10
13.9167746392
 20
9.2136801718
 30
0.0
 10
13.9190283931
 20
9.2162284998
 30
0.0
 10
13.9212848265
 20
9.2185033656
 30
0.0
 10
13.9235418859
 20
9.2205024673
 30
0.0
 10
13.9257976376
 20
9.2222234801
 30
0.0
 10
13.9280504593
 20
9.2236638619
 30
0.0
 10
13.9302983155
 20
9.2248218162
 30
0.0
 10
13.932539213
 20
9.2256954951
 30
0.0
 10
13.9347708761
 20
9.226282741
 30
0.0
 10
13.9369904599
 20
9.2265810916
 30
0.0
 10
13.9391942233
 20
9.2265888708
 30
0.0
 10
13.9413780077
 20
9.2263062995
 30
0.0
 10
13.9435378324
 20
9.2257343045
 30
0.0
 10
13.9456702415
 20
9.2248745428
 30
0.0
 10
13.9477722831
 20
9.2237288667
 30
0.0
 10
13.9498420094
 20
9.2223001795
 30
0.0
 10
13.9518779247
 20
9.220591124
 30
0.0
 10
13.9538784097
 20
9.2186040751
 30
0.0
 10
13.9551469839
 20
9.2171418939
 30
0.0
 10
13.9557758593
 20
9.2163686989
 30
0.0
  0
SPLINE
  5
2C9
100
AcDbEntity
  8
0
100
AcDbSpline
 62
7
  6
CONTINUOUS
 70
0
 71
3
 72
43
 73
39
 74
0
 42
0.0000001
 43
0.0000001
 44
0.0000000001
 40
0.0
 40
0.0
 40
0.0
 40
0.0
 40
0.0417580562
 40
0.0840313325
 40
0.1695123717
 40
0.2553504027
 40
0.3405047412
 40
0.3824933613
 40
0.4239160805
 40
0.4646453896
 40
0.5045574469
 40
0.543531429
 40
0.5814489706
 40
0.6181988978
 40
0.6536729431
 40
0.687769252
 40
0.720394091
 40
0.7514578502
 40
0.7808827603
 40
0.8085989953
 40
0.834546618
 40
0.8586824431
 40
0.8809749944
 40
0.8914273408
 40
0.9014177391
 40
0.9109489121
 40
0.9200252775
 40
0.9286536439
 40
0.9368445238
 40
0.9446115821
 40
0.9519719167
 40
0.9655536327
 40
0.9718430139
 40
0.9778454777
 40
0.9836069189
 40
0.9891798578
 40
0.9946229865
 40
1.0
 40
1.0
 40
1.0
 40
1.0
 10
13.832622671
 20
8.892366575
 30
0.0
 10
13.832622671
 20
8.8976160734
 30
0.0
 10
13.8327048218
 20
8.9081800243
 30
0.0
 10
13.8331893717
 20
8.9294848979
 30
0.0
 10
13.8343927628
 20
8.9563132737
 30
0.0
 10
13.8367608212
 20
8.9884721891
 30
0.0
 10
13.8394940922
 20
9.0151108588
 30
0.0
 10
13.8421280439
 20
9.0361379632
 30
0.0
 10
13.844303082
 20
9.0515922998
 30
0.0
 10
13.8466800159
 20
9.0667526913
 30
0.0
 10
13.8492508405
 20
9.0815691156
 30
0.0
 10
13.8520066235
 20
9.0959925945
 30
0.0
 10
13.8549389613
 20
9.1099753589
 30
0.0
 10
13.8580373379
 20
9.1234712833
 30
0.0
 10
13.8612917728
 20
9.1364357944
 30
0.0
 10
13.8646916783
 20
9.1488260804
 30
0.0
 10
13.8682249629
 20
9.1606014287
 30
0.0
 10
13.8718807563
 20
9.1717229506
 30
0.0
 10
13.8756462803
 20
9.1821542593
 30
0.0
 10
13.8795089021
 20
9.1918612877
 30
0.0
 10
13.8834566073
 20
9.2008123201
 30
0.0
 10
13.8874752236
 20
9.2089785302
 30
0.0
 10
13.8909436399
 20
9.2152359997
 30
0.0
 10
13.8937538671
 20
9.2198156084
 30
0.0
 10
13.8958257367
 20
9.2229638018
 30
0.0
 10
13.8979055627
 20
9.2258971997
 30
0.0
 10
13.8999917441
 20
9.2286132829
 30
0.0
 10
13.9020828329
 20
9.2311096938
 30
0.0
 10
13.9041769802
 20
9.2333845141
 30
0.0
 10
13.90627291
 20
9.235436422
 30
0.0
 10
13.9089942542
 20
9.2378085631
 30
0.0
 10
13.9117857062
 20
9.2398148362
 30
0.0
 10
13.9146417716
 20
9.2413784038
 30
0.0
 10
13.9167235398
 20
9.2422904469
 30
0.0
 10
13.9187979443
 20
9.2429705583
 30
0.0
 10
13.9208634088
 20
9.2434173635
 30
0.0
 10
13.9229174511
 20
9.2436293364
 30
0.0
 10
13.9242811357
 20
9.243613581
 30
0.0
 10
13.9249554681
 20
9.2435667537
 30
0.0
  0
SPLINE
  5
2CA
100
AcDbEntity
  8
0
100
AcDbSpline
 62
7
  6
CONTINUOUS
 70
0
 71
3
 72
33
 73
29
 74
0
 42
0.0000001
 43
0.0000001
 44
0.0000000001
 40
0.0
 40
0.0
 40
0.0
 40
0.0
 40
0.0126611888
 40
0.0256295287
 40
0.0391901271
 40
0.0535893906
 40
0.0690270472
 40
0.085660288
 40
0.1036096796
 40
0.1229611838
 40
0.1437743872
 40
0.1660905802
 40
0.1899351902
 40
0.2153165822
 40
0.2422333065
 40
0.2706771934
 40
0.3006309966
 40
0.3320682151
 40
0.3649585931
 40
0.3992686535
 40
0.4349577585
 40
0.4719806448
 40
0.5498346311
 40
0.6324085829
 40
0.7192284608
 40
0.8098024865
 40
0.9036089119
 40
1.0
 40
1.0
 40
1.0
 40
1.0
 10
13.886004876
 20
8.6819162884
 30
0.0
 10
13.8850511501
 20
8.6819825174
 30
0.0
 10
13.8831281053
 20
8.6822757795
 30
0.0
 10
13.880300469
 20
8.6831856888
 30
0.0
 10
13.877522162
 20
8.6845627876
 30
0.0
 10
13.8747988955
 20
8.6864004659
 30
0.0
 10
13.8721327594
 20
8.6886921605
 30
0.0
 10
13.8695262151
 20
8.6914330207
 30
0.0
 10
13.8669823253
 20
8.6946187476
 30
0.0
 10
13.8645036187
 20
8.6982438606
 30
0.0
 10
13.862093078
 20
8.7023025703
 30
0.0
 10
13.8597543432
 20
8.7067888997
 30
0.0
 10
13.8574913229
 20
8.7116960843
 30
0.0
 10
13.8553070481
 20
8.7170160471
 30
0.0
 10
13.8532050015
 20
8.7227402518
 30
0.0
 10
13.8511889317
 20
8.7288597298
 30
0.0
 10
13.8492622044
 20
8.73536458
 30
0.0
 10
13.8474276297
 20
8.7422439789
 30
0.0
 10
13.8456883101
 20
8.7494867125
 30
0.0
 10
13.8440475077
 20
8.7570811001
 30
0.0
 10
13.8425077078
 20
8.7650146543
 30
0.0
 10
13.8405598187
 20
8.7762161085
 30
0.0
 10
13.8384128747
 20
8.7909731325
 30
0.0
 10
13.8363151401
 20
8.8095268308
 30
0.0
 10
13.8346696334
 20
8.8290899083
 30
0.0
 10
13.8334872318
 20
8.8495357439
 30
0.0
 10
13.8327772794
 20
8.8707262513
 30
0.0
 10
13.832622671
 20
8.8850882643
 30
0.0
 10
13.832622671
 20
8.892366575
 30
0.0
  0
SPLINE
  5
2CB
100
AcDbEntity
  8
0
100
AcDbSpline
 62
7
  6
CONTINUOUS
 70
0
 71
3
 72
31
 73
27
 74
0
 42
0.0000001
 43
0.0000001
 44
0.0000000001
 40
0.0
 40
0.0
 40
0.0
 40
0.0
 40
0.0762651444
 40
0.1537933796
 40
0.2318274486
 40
0.3096793337
 40
0.3866371249
 40
0.4619969962
 40
0.5350783726
 40
0.6052278877
 40
0.6390092779
 40
0.6718298182
 40
0.7036181923
 40
0.7343090125
 40
0.7638401351
 40
0.792151718
 40
0.819191524
 40
0.844912178
 40
0.8692700282
 40
0.8922314338
 40
0.9137705272
 40
0.9338684622
 40
0.952521177
 40
0.9697389261
 40
0.9855476511
 40
1.0
 40
1.0
 40
1.0
 40
1.0
 10
13.7524508227
 20
8.8979265116
 30
0.0
 10
13.7524508227
 20
8.9069772656
 30
0.0
 10
13.7526946758
 20
8.9252294524
 30
0.0
 10
13.7537566567
 20
8.9527237276
 30
0.0
 10
13.7555104277
 20
8.9803713985
 30
0.0
 10
13.7579381887
 20
9.0079000553
 30
0.0
 10
13.7610160507
 20
9.0350443553
 30
0.0
 10
13.7647140391
 20
9.061539873
 30
0.0
 10
13.7689961005
 20
9.0871285395
 30
0.0
 10
13.7730647199
 20
9.1077413737
 30
0.0
 10
13.7765933153
 20
9.1235827397
 30
0.0
 10
13.779324502
 20
9.1349359068
 30
0.0
 10
13.7821675064
 20
9.1458830915
 30
0.0
 10
13.785115053
 20
9.1563977973
 30
0.0
 10
13.7881596769
 20
9.1664545398
 30
0.0
 10
13.7912945036
 20
9.1760287326
 30
0.0
 10
13.7945115187
 20
9.1850972894
 30
0.0
 10
13.7978025445
 20
9.193638406
 30
0.0
 10
13.8011601825
 20
9.2016312427
 30
0.0
 10
13.8045759261
 20
9.2090567501
 30
0.0
 10
13.8080411106
 20
9.2158974313
 30
0.0
 10
13.811548172
 20
9.2221367771
 30
0.0
 10
13.8150884877
 20
9.2277603287
 30
0.0
 10
13.8186537038
 20
9.2327557629
 30
0.0
 10
13.8222363957
 20
9.2371107196
 30
0.0
 10
13.8247405999
 20
9.239692946
 30
0.0
 10
13.825996086
 20
9.2408614606
 30
0.0
  0
SPLINE
  5
2CC
100
AcDbEntity
  8
0
100
AcDbSpline
 62
7
  6
CONTINUOUS
 70
0
 71
3
 72
56
 73
52
 74
0
 42
0.0000001
 43
0.0000001
 44
0.0000000001
 40
0.0
 40
0.0
 40
0.0
 40
0.0
 40
0.031072346
 40
0.0465152317
 40
0.0618873124
 40
0.0924244558
 40
0.1227285839
 40
0.1378086476
 40
0.152843805
 40
0.1678401144
 40
0.1828038429
 40
0.2126503375
 40
0.2275575076
 40
0.2424602021
 40
0.2573657768
 40
0.2722815596
 40
0.2872148075
 40
0.3021724288
 40
0.3171611944
 40
0.3321875086
 40
0.3472571497
 40
0.3623756664
 40
0.3927682644
 40
0.4234071833
 40
0.4388308412
 40
0.4543232404
 40
0.485507794
 40
0.5169699549
 40
0.5328065592
 40
0.5487076996
 40
0.5806824155
 40
0.6128739827
 40
0.6290441713
 40
0.6452543848
 40
0.6777639099
 40
0.7103643313
 40
0.7266873147
 40
0.7430142246
 40
0.7756456102
 40
0.791945892
 40
0.80822475
 40
0.8244760382
 40
0.8406940716
 40
0.8568734333
 40
0.8730088969
 40
0.8890954876
 40
0.905128265
 40
0.9370074718
 40
0.9528594107
 40
0.9686481654
 40
1.0
 40
1.0
 40
1.0
 40
1.0
 10
12.1115955518
 20
7.5357716874
 30
0.0
 10
12.1115954172
 20
7.5277580569
 30
0.0
 10
12.1110073011
 20
7.5157503167
 30
0.0
 10
12.1090378259
 20
7.4999065339
 30
0.0
 10
12.1062990283
 20
7.4843163831
 30
0.0
 10
12.1014377041
 20
7.4652345868
 30
0.0
 10
12.0946765841
 20
7.44681918
 30
0.0
 10
12.0881848303
 20
7.4326470591
 30
0.0
 10
12.0827934345
 20
7.4223312003
 30
0.0
 10
12.0768866141
 20
7.4123361734
 30
0.0
 10
12.0683515179
 20
7.3994822699
 30
0.0
 10
12.0588268403
 20
7.3873359394
 30
0.0
 10
12.0484010164
 20
7.3760141943
 30
0.0
 10
12.0401477895
 20
7.367951432
 30
0.0
 10
12.0314794446
 20
7.3603340551
 30
0.0
 10
12.0224147919
 20
7.3531799188
 30
0.0
 10
12.0129746322
 20
7.3465059588
 30
0.0
 10
12.0031811341
 20
7.3403268851
 30
0.0
 10
11.9930560323
 20
7.3346583189
 30
0.0
 10
11.982622698
 20
7.3295139695
 30
0.0
 10
11.9719052053
 20
7.3249053177
 30
0.0
 10
11.9572460869
 20
7.3194831546
 30
0.0
 10
11.9383194892
 20
7.3141041955
 30
0.0
 10
11.9188675624
 20
7.3106655962
 30
0.0
 10
11.9030657975
 20
7.3090822138
 30
0.0
 10
11.8870640401
 20
7.3082822202
 30
0.0
 10
11.8668831051
 20
7.3087753274
 30
0.0
 10
11.8467596158
 20
7.3112458094
 30
0.0
 10
11.8307609886
 20
7.3143907127
 30
0.0
 10
11.8148027201
 20
7.3183292418
 30
0.0
 10
11.7951269163
 20
7.3247026751
 30
0.0
 10
11.7760728567
 20
7.3329209896
 30
0.0
 10
11.7612715737
 20
7.340564647
 30
0.0
 10
11.7467690123
 20
7.3489264721
 30
0.0
 10
11.7293405423
 20
7.3606490818
 30
0.0
 10
11.7130362814
 20
7.3739362152
 30
0.0
 10
11.7007443869
 20
7.385437256
 30
0.0
 10
11.6889852419
 20
7.397492741
 30
0.0
 10
11.6780653685
 20
7.4103363899
 30
0.0
 10
11.6680737392
 20
7.4238700213
 30
0.0
 10
11.6610619681
 20
7.4343365887
 30
0.0
 10
11.654549384
 20
7.4450956791
 30
0.0
 10
11.6485515045
 20
7.4561208647
 30
0.0
 10
11.6430817345
 20
7.4673842005
 30
0.0
 10
11.6381544169
 20
7.4788582368
 30
0.0
 10
11.6337807633
 20
7.4905145879
 30
0.0
 10
11.6287101196
 20
7.5062265175
 30
0.0
 10
11.6247697871
 20
7.5222226106
 30
0.0
 10
11.6220004382
 20
7.538374164
 30
0.0
 10
11.6200280309
 20
7.5545044209
 30
0.0
 10
11.6194268604
 20
7.5666724932
 30
0.0
 10
11.619426713
 20
7.5747582045
 30
0.0
  0
SPLINE
  5
2CD
100
AcDbEntity
  8
0
100
AcDbSpline
 62
7
  6
CONTINUOUS
 70
0
 71
3
 72
56
 73
52
 74
0
 42
0.0000001
 43
0.0000001
 44
0.0000000001
 40
0.0
 40
0.0
 40
0.0
 40
0.0
 40
0.0310723444
 40
0.0465152282
 40
0.0618873079
 40
0.0924244521
 40
0.1227285817
 40
0.1378086463
 40
0.1528438045
 40
0.1678401149
 40
0.1828038444
 40
0.2126503405
 40
0.227557511
 40
0.2424602055
 40
0.2573657799
 40
0.272281562
 40
0.2872148089
 40
0.3021724291
 40
0.3171611937
 40
0.3321875071
 40
0.3472571476
 40
0.362375664
 40
0.3927682619
 40
0.4234071812
 40
0.4388308394
 40
0.454323239
 40
0.4855077933
 40
0.5169699546
 40
0.532806559
 40
0.5487076994
 40
0.5806824153
 40
0.6128739824
 40
0.6290441709
 40
0.6452543843
 40
0.6777639093
 40
0.7103643307
 40
0.7266873141
 40
0.7430142241
 40
0.7756456098
 40
0.7919458916
 40
0.8082247496
 40
0.8244760379
 40
0.8406940714
 40
0.8568734332
 40
0.8730088968
 40
0.8890954876
 40
0.905128265
 40
0.9370074719
 40
0.9528594107
 40
0.9686481654
 40
1.0
 40
1.0
 40
1.0
 40
1.0
 10
11.6194267109
 20
7.5747581039
 30
0.0
 10
11.6194268455
 20
7.582771734
 30
0.0
 10
11.6200149612
 20
7.5947794733
 30
0.0
 10
11.6219844365
 20
7.610623255
 30
0.0
 10
11.624723234
 20
7.6262134052
 30
0.0
 10
11.6295845579
 20
7.6452952019
 30
0.0
 10
11.6363456779
 20
7.6637106096
 30
0.0
 10
11.642837432
 20
7.6778827312
 30
0.0
 10
11.6482288281
 20
7.6881985906
 30
0.0
 10
11.6541356489
 20
7.6981936182
 30
0.0
 10
11.6626707455
 20
7.7110475225
 30
0.0
 10
11.6721954238
 20
7.7231938533
 30
0.0
 10
11.682621248
 20
7.7345155988
 30
0.0
 10
11.6908744752
 20
7.742578361
 30
0.0
 10
11.6995428201
 20
7.7501957376
 30
0.0
 10
11.7086074723
 20
7.7573498736
 30
0.0
 10
11.7180476315
 20
7.7640238331
 30
0.0
 10
11.7278411289
 20
7.7702029063
 30
0.0
 10
11.7379662301
 20
7.7758714721
 30
0.0
 10
11.7483995637
 20
7.7810158213
 30
0.0
 10
11.759117056
 20
7.785624473
 30
0.0
 10
11.7737761742
 20
7.791046636
 30
0.0
 10
11.7927027718
 20
7.7964255954
 30
0.0
 10
11.8121546987
 20
7.7998641947
 30
0.0
 10
11.8279564639
 20
7.8014475774
 30
0.0
 10
11.8439582217
 20
7.802247571
 30
0.0
 10
11.864139157
 20
7.801754464
 30
0.0
 10
11.8842626467
 20
7.7992839818
 30
0.0
 10
11.900261274
 20
7.7961390786
 30
0.0
 10
11.9162195425
 20
7.7922005495
 30
0.0
 10
11.9358953463
 20
7.7858271162
 30
0.0
 10
11.9549494058
 20
7.7776088017
 30
0.0
 10
11.9697506887
 20
7.7699651444
 30
0.0
 10
11.9842532502
 20
7.7616033193
 30
0.0
 10
12.0016817201
 20
7.7498807096
 30
0.0
 10
12.017985981
 20
7.7365935764
 30
0.0
 10
12.0302778755
 20
7.7250925355
 30
0.0
 10
12.0420370206
 20
7.7130370505
 30
0.0
 10
12.052956894
 20
7.7001934016
 30
0.0
 10
12.0629485234
 20
7.6866597701
 30
0.0
 10
12.0699602945
 20
7.6761932028
 30
0.0
 10
12.0764728786
 20
7.6654341123
 30
0.0
 10
12.0824707582
 20
7.6544089266
 30
0.0
 10
12.0879405282
 20
7.6431455908
 30
0.0
 10
12.0928678458
 20
7.6316715544
 30
0.0
 10
12.0972414994
 20
7.6200152033
 30
0.0
 10
12.1023121431
 20
7.6043032737
 30
0.0
 10
12.1062524757
 20
7.5883071806
 30
0.0
 10
12.1090218245
 20
7.5721556272
 30
0.0
 10
12.1109942318
 20
7.5560253703
 30
0.0
 10
12.1115954024
 20
7.543857298
 30
0.0
 10
12.1115955497
 20
7.5357715867
 30
0.0
  0
SPLINE
  5
2CE
100
AcDbEntity
  8
0
100
AcDbSpline
 62
7
  6
CONTINUOUS
 70
0
 71
3
 72
21
 73
17
 74
0
 42
0.0000001
 43
0.0000001
 44
0.0000000001
 40
0.0
 40
0.0
 40
0.0
 40
0.0
 40
0.1685616874
 40
0.3287963644
 40
0.4049748023
 40
0.4781590272
 40
0.5480893266
 40
0.6145170882
 40
0.6772087892
 40
0.7359738033
 40
0.790645498
 40
0.8410920653
 40
0.887237413
 40
0.9290500841
 40
0.9665836944
 40
1.0
 40
1.0
 40
1.0
 40
1.0
 10
13.6754453214
 20
8.3864708225
 30
0.0
 10
13.6754453214
 20
8.380382262
 30
0.0
 10
13.6756472145
 20
8.368504794
 30
0.0
 10
13.6764432028
 20
8.3538943015
 30
0.0
 10
13.6774123542
 20
8.3427526807
 30
0.0
 10
13.6782800188
 20
8.3348785628
 30
0.0
 10
13.6792967206
 20
8.3273774902
 30
0.0
 10
13.6804577043
 20
8.3202810149
 30
0.0
 10
13.6817588514
 20
8.3136191849
 30
0.0
 10
13.683193804
 20
8.3074197759
 30
0.0
 10
13.6847564561
 20
8.3017083295
 30
0.0
 10
13.6864408468
 20
8.2965083083
 30
0.0
 10
13.6882387925
 20
8.2918404583
 30
0.0
 10
13.6901441568
 20
8.2877229468
 30
0.0
 10
13.6921492994
 20
8.2841721516
 30
0.0
 10
13.693631361
 20
8.2820730239
 30
0.0
 10
13.6943929862
 20
8.2811366359
 30
0.0
  0
SPLINE
  5
2CF
100
AcDbEntity
  8
0
100
AcDbSpline
 62
7
  6
CONTINUOUS
 70
0
 71
3
 72
31
 73
27
 74
0
 42
0.0000001
 43
0.0000001
 44
0.0000000001
 40
0.0
 40
0.0
 40
0.0
 40
0.0
 40
0.0762656208
 40
0.1537943453
 40
0.231828897
 40
0.3096812386
 40
0.3866394395
 40
0.4619996552
 40
0.5350812932
 40
0.6052309703
 40
0.6390124002
 40
0.67183295
 40
0.7036213026
 40
0.7343120691
 40
0.7638431047
 40
0.7921545668
 40
0.8191942183
 40
0.8449146835
 40
0.8692723112
 40
0.8922334625
 40
0.9137722707
 40
0.933869892
 40
0.9525222697
 40
0.9697396624
 40
0.9855480192
 40
1.0
 40
1.0
 40
1.0
 40
1.0
 10
13.7987724947
 20
8.5055957312
 30
0.0
 10
13.7987724947
 20
8.4950497978
 30
0.0
 10
13.7984883539
 20
8.4737823594
 30
0.0
 10
13.7972509212
 20
8.441746046
 30
0.0
 10
13.7952074066
 20
8.409531001
 30
0.0
 10
13.7923785519
 20
8.3774546429
 30
0.0
 10
13.7887921928
 20
8.3458261556
 30
0.0
 10
13.7844832575
 20
8.3149536538
 30
0.0
 10
13.7794937563
 20
8.2851378455
 30
0.0
 10
13.7747529607
 20
8.2611198815
 30
0.0
 10
13.7706414078
 20
8.2426616299
 30
0.0
 10
13.7674590054
 20
8.2294330156
 30
0.0
 10
13.7641463131
 20
8.2166774631
 30
0.0
 10
13.7607118089
 20
8.2044258466
 30
0.0
 10
13.7571641908
 20
8.1927078609
 30
0.0
 10
13.7535114692
 20
8.1815521543
 30
0.0
 10
13.7497629833
 20
8.1709856271
 30
0.0
 10
13.7459282613
 20
8.161033686
 30
0.0
 10
13.7420159244
 20
8.1517206132
 30
0.0
 10
13.7380358852
 20
8.1430686054
 30
0.0
 10
13.7339982394
 20
8.1350980495
 30
0.0
 10
13.7299118008
 20
8.1278281825
 30
0.0
 10
13.7257866171
 20
8.1212758507
 30
0.0
 10
13.721632422
 20
8.1154554135
 30
0.0
 10
13.7174578665
 20
8.1103812724
 30
0.0
 10
13.7145399652
 20
8.1073726448
 30
0.0
 10
13.7130770727
 20
8.1060111861
 30
0.0
  0
SPLINE
  5
2D0
100
AcDbEntity
  8
0
100
AcDbSpline
 62
7
  6
CONTINUOUS
 70
0
 71
3
 72
28
 73
24
 74
0
 42
0.0000001
 43
0.0000001
 44
0.0000000001
 40
0.0
 40
0.0
 40
0.0
 40
0.0
 40
0.0719182031
 40
0.1449730311
 40
0.2185815649
 40
0.2922283672
 40
0.3653875932
 40
0.4375237035
 40
0.5081177378
 40
0.5766649981
 40
0.6426799516
 40
0.7057021651
 40
0.7653003404
 40
0.7936931116
 40
0.8210860491
 40
0.8474362375
 40
0.8727064094
 40
0.8968615059
 40
0.919869139
 40
0.9417041958
 40
0.9623468226
 40
0.9817812228
 40
1.0
 40
1.0
 40
1.0
 40
1.0
 10
13.5179058646
 20
8.3492993834
 30
0.0
 10
13.5179058646
 20
8.3586807278
 30
0.0
 10
13.5181308898
 20
8.3775923337
 30
0.0
 10
13.5191135841
 20
8.4060904235
 30
0.0
 10
13.5207395668
 20
8.4347850302
 30
0.0
 10
13.5229953926
 20
8.4634506014
 30
0.0
 10
13.5258630525
 20
8.4918684693
 30
0.0
 10
13.5293214923
 20
8.5198193885
 30
0.0
 10
13.5333426947
 20
8.5470871046
 30
0.0
 10
13.5378961228
 20
8.5734612995
 30
0.0
 10
13.5429457165
 20
8.5987389338
 30
0.0
 10
13.5484519993
 20
8.6227249885
 30
0.0
 10
13.553463184
 20
8.6417800699
 30
0.0
 10
13.5576850581
 20
8.6562278261
 30
0.0
 10
13.5608868958
 20
8.6664531643
 30
0.0
 10
13.5641695426
 20
8.6762241328
 30
0.0
 10
13.5675261992
 20
8.6855221916
 30
0.0
 10
13.5709502774
 20
8.6943295104
 30
0.0
 10
13.5744356865
 20
8.7026289314
 30
0.0
 10
13.5779753824
 20
8.7104047419
 30
0.0
 10
13.5815622726
 20
8.7176424676
 30
0.0
 10
13.5851897353
 20
8.7243279399
 30
0.0
 10
13.5877122461
 20
8.7285446731
 30
0.0
 10
13.5889823718
 20
8.7305533373
 30
0.0
  0
SPLINE
  5
2D1
100
AcDbEntity
  8
0
100
AcDbSpline
 62
7
  6
CONTINUOUS
 70
0
 71
3
 72
11
 73
7
 74
0
 42
0.0000001
 43
0.0000001
 44
0.0000000001
 40
0.0
 40
0.0
 40
0.0
 40
0.0
 40
0.2785063893
 40
0.5377003913
 40
0.7779667754
 40
1.0
 40
1.0
 40
1.0
 40
1.0
 10
13.5889823718
 20
8.7305533373
 30
0.0
 10
13.5901485894
 20
8.7323976739
 30
0.0
 10
13.5924815646
 20
8.7359081125
 30
0.0
 10
13.5961268317
 20
8.7407976984
 30
0.0
 10
13.5997858938
 20
8.7451118582
 30
0.0
 10
13.6023278129
 20
8.7476987549
 30
0.0
 10
13.6036012865
 20
8.7488839285
 30
0.0
  0
SPLINE
  5
2D2
100
AcDbEntity
  8
0
100
AcDbSpline
 62
7
  6
CONTINUOUS
 70
0
 71
3
 72
9
 73
5
 74
0
 42
0.0000001
 43
0.0000001
 44
0.0000000001
 40
0.0
 40
0.0
 40
0.0
 40
0.0
 40
0.4782948543
 40
1.0
 40
1.0
 40
1.0
 40
1.0
 10
13.7142411814
 20
8.5673783904
 30
0.0
 10
13.7136016167
 20
8.5667831032
 30
0.0
 10
13.712325941
 20
8.5654717213
 30
0.0
 10
13.7111589881
 20
8.5640640775
 30
0.0
 10
13.7105745527
 20
8.5633112771
 30
0.0
  0
SPLINE
  5
2D3
100
AcDbEntity
  8
0
100
AcDbSpline
 62
7
  6
CONTINUOUS
 70
0
 71
3
 72
27
 73
23
 74
0
 42
0.0000001
 43
0.0000001
 44
0.0000000001
 40
0.0
 40
0.0
 40
0.0
 40
0.0
 40
0.0167145717
 40
0.034724835
 40
0.0540398849
 40
0.0746536019
 40
0.0965523906
 40
0.1197174214
 40
0.1441212698
 40
0.169728337
 40
0.2243928946
 40
0.2833590346
 40
0.3462072563
 40
0.4124733892
 40
0.481651634
 40
0.5532065055
 40
0.6265777986
 40
0.7011803986
 40
0.7764160196
 40
0.8517039538
 40
0.9264565717
 40
1.0
 40
1.0
 40
1.0
 40
1.0
 10
13.7102536785
 20
8.5628929129
 30
0.0
 10
13.7096418936
 20
8.5620856121
 30
0.0
 10
13.7084255257
 20
8.5603666283
 30
0.0
 10
13.7066802682
 20
8.5575940516
 30
0.0
 10
13.7049503574
 20
8.5545372847
 30
0.0
 10
13.7032390833
 20
8.5512030673
 30
0.0
 10
13.7015500235
 20
8.5475982489
 30
0.0
 10
13.6998870361
 20
8.5437301022
 30
0.0
 10
13.6982535961
 20
8.5396067357
 30
0.0
 10
13.696071652
 20
8.5336497032
 30
0.0
 10
13.6934578934
 20
8.5256235552
 30
0.0
 10
13.6905555718
 20
8.5153276346
 30
0.0
 10
13.6878478374
 20
8.5042538634
 30
0.0
 10
13.685358197
 20
8.4924960293
 30
0.0
 10
13.6831081473
 20
8.4801534791
 30
0.0
 10
13.6811168585
 20
8.4673307761
 30
0.0
 10
13.6794019329
 20
8.4541367382
 30
0.0
 10
13.6779774235
 20
8.4406839299
 30
0.0
 10
13.6768560134
 20
8.4270859603
 30
0.0
 10
13.6760467552
 20
8.4134567147
 30
0.0
 10
13.6755576737
 20
8.3999149094
 30
0.0
 10
13.6754453214
 20
8.390927647
 30
0.0
 10
13.6754453214
 20
8.3864708225
 30
0.0
  0
SPLINE
  5
2D4
100
AcDbEntity
  8
0
100
AcDbSpline
 62
7
  6
CONTINUOUS
 70
0
 71
3
 72
27
 73
23
 74
0
 42
0.0000001
 43
0.0000001
 44
0.0000000001
 40
0.0
 40
0.0
 40
0.0
 40
0.0
 40
0.0162147681
 40
0.0334280458
 40
0.0516718081
 40
0.0709698948
 40
0.0913394088
 40
0.1127892076
 40
0.1353216315
 40
0.1589353237
 40
0.209381896
 40
0.2640510775
 40
0.3228118294
 40
0.385501843
 40
0.4519210818
 40
0.5218507706
 40
0.5950377861
 40
0.6712138901
 40
0.7501030787
 40
0.8314227517
 40
0.9148505898
 40
1.0
 40
1.0
 40
1.0
 40
1.0
 10
13.5597558561
 20
8.1166429625
 30
0.0
 10
13.5589395462
 20
8.1176466063
 30
0.0
 10
13.5573254529
 20
8.1197723045
 30
0.0
 10
13.5550235208
 20
8.1231946758
 30
0.0
 10
13.5527720758
 20
8.1269404995
 30
0.0
 10
13.5505734598
 20
8.1310059556
 30
0.0
 10
13.5484300904
 20
8.1353872659
 30
0.0
 10
13.5463440265
 20
8.140079836
 30
0.0
 10
13.5443171601
 20
8.1450786196
 30
0.0
 10
13.5416372312
 20
8.1523053686
 30
0.0
 10
13.5384717994
 20
8.162081302
 30
0.0
 10
13.5350200141
 20
8.1746962187
 30
0.0
 10
13.5318502928
 20
8.1883891895
 30
0.0
 10
13.5289772637
 20
8.2031032087
 30
0.0
 10
13.5264119381
 20
8.2187772845
 30
0.0
 10
13.5241669505
 20
8.2353456876
 30
0.0
 10
13.5222505872
 20
8.2527384481
 30
0.0
 10
13.5206719241
 20
8.270882574
 30
0.0
 10
13.5194374867
 20
8.2897035234
 30
0.0
 10
13.5185527778
 20
8.3091232581
 30
0.0
 10
13.5180220261
 20
8.3290553866
 30
0.0
 10
13.5179058646
 20
8.3425057068
 30
0.0
 10
13.5179058646
 20
8.3492993834
 30
0.0
  0
SPLINE
  5
2D5
100
AcDbEntity
  8
0
100
AcDbSpline
 62
7
  6
CONTINUOUS
 70
0
 71
3
 72
11
 73
7
 74
0
 42
0.0000001
 43
0.0000001
 44
0.0000000001
 40
0.0
 40
0.0
 40
0.0
 40
0.0
 40
0.2711035423
 40
0.5297626246
 40
0.7736156778
 40
1.0
 40
1.0
 40
1.0
 40
1.0
 10
13.7098593164
 20
8.2844552315
 30
0.0
 10
13.7077497644
 20
8.2853500907
 30
0.0
 10
13.7036437559
 20
8.2871375555
 30
0.0
 10
13.6977131735
 20
8.2898939418
 30
0.0
 10
13.6922089537
 20
8.2926643209
 30
0.0
 10
13.6887327924
 20
8.2945954204
 30
0.0
 10
13.6870872866
 20
8.2955720695
 30
0.0
  0
SPLINE
  5
2D6
100
AcDbEntity
  8
0
100
AcDbSpline
 62
7
  6
CONTINUOUS
 70
0
 71
3
 72
15
 73
11
 74
0
 42
0.0000001
 43
0.0000001
 44
0.0000000001
 40
0.0
 40
0.0
 40
0.0
 40
0.0
 40
0.1492710171
 40
0.289709221
 40
0.4220222282
 40
0.547112762
 40
0.6660745533
 40
0.7801970517
 40
0.890959402
 40
1.0
 40
1.0
 40
1.0
 40
1.0
 10
13.619093718
 20
8.7633026269
 30
0.0
 10
13.6200332998
 20
8.764177121
 30
0.0
 10
13.6219111606
 20
8.7658176018
 30
0.0
 10
13.6248150421
 20
8.7679999378
 30
0.0
 10
13.6277150437
 20
8.7698230806
 30
0.0
 10
13.6306084098
 20
8.771284692
 30
0.0
 10
13.633492588
 20
8.7723824255
 30
0.0
 10
13.6363648071
 20
8.7731135201
 30
0.0
 10
13.6392207611
 20
8.7734748936
 30
0.0
 10
13.6411171718
 20
8.7734678981
 30
0.0
 10
13.6420525515
 20
8.7734029431
 30
0.0
  0
SPLINE
  5
2D7
100
AcDbEntity
  8
0
100
AcDbSpline
 62
7
  6
CONTINUOUS
 70
0
 71
3
 72
15
 73
11
 74
0
 42
0.0000001
 43
0.0000001
 44
0.0000000001
 40
0.0
 40
0.0
 40
0.0
 40
0.0
 40
0.1492710171
 40
0.289709221
 40
0.4220222282
 40
0.547112762
 40
0.6660745533
 40
0.7801970517
 40
0.890959402
 40
1.0
 40
1.0
 40
1.0
 40
1.0
 10
13.6975846412
 20
8.0915924877
 30
0.0
 10
13.6966450594
 20
8.0907179937
 30
0.0
 10
13.6947671986
 20
8.0890775128
 30
0.0
 10
13.6918633172
 20
8.0868951769
 30
0.0
 10
13.6889633155
 20
8.0850720341
 30
0.0
 10
13.6860699494
 20
8.0836104227
 30
0.0
 10
13.6831857713
 20
8.0825126892
 30
0.0
 10
13.6803135522
 20
8.0817815946
 30
0.0
 10
13.6774575981
 20
8.0814202211
 30
0.0
 10
13.6755611874
 20
8.0814272166
 30
0.0
 10
13.6746258077
 20
8.0814921715
 30
0.0
  0
SPLINE
  5
2D8
100
AcDbEntity
  8
0
100
AcDbSpline
 62
7
  6
CONTINUOUS
 70
0
 71
3
 72
27
 73
23
 74
0
 42
0.0000001
 43
0.0000001
 44
0.0000000001
 40
0.0
 40
0.0
 40
0.0
 40
0.0
 40
0.0162147681
 40
0.0334280458
 40
0.0516718081
 40
0.0709698948
 40
0.0913394088
 40
0.1127892076
 40
0.1353216315
 40
0.1589353237
 40
0.209381896
 40
0.2640510775
 40
0.3228118294
 40
0.385501843
 40
0.4519210818
 40
0.5218507706
 40
0.5950377861
 40
0.6712138901
 40
0.7501030787
 40
0.8314227517
 40
0.9148505898
 40
1.0
 40
1.0
 40
1.0
 40
1.0
 10
13.7569225031
 20
8.7382521522
 30
0.0
 10
13.7577388131
 20
8.7372485084
 30
0.0
 10
13.7593529063
 20
8.7351228102
 30
0.0
 10
13.7616548384
 20
8.7317004389
 30
0.0
 10
13.7639062834
 20
8.7279546152
 30
0.0
 10
13.7661048995
 20
8.7238891591
 30
0.0
 10
13.7682482688
 20
8.7195078487
 30
0.0
 10
13.7703343327
 20
8.7148152786
 30
0.0
 10
13.7723611992
 20
8.7098164951
 30
0.0
 10
13.7750411281
 20
8.7025897461
 30
0.0
 10
13.7782065598
 20
8.6928138126
 30
0.0
 10
13.7816583451
 20
8.680198896
 30
0.0
 10
13.7848280665
 20
8.6665059252
 30
0.0
 10
13.7877010956
 20
8.651791906
 30
0.0
 10
13.7902664211
 20
8.6361178302
 30
0.0
 10
13.7925114087
 20
8.6195494271
 30
0.0
 10
13.794427772
 20
8.6021566666
 30
0.0
 10
13.7960064351
 20
8.5840125406
 30
0.0
 10
13.7972408725
 20
8.5651915913
 30
0.0
 10
13.7981255814
 20
8.5457718566
 30
0.0
 10
13.7986563331
 20
8.5258397281
 30
0.0
 10
13.7987724947
 20
8.5123894079
 30
0.0
 10
13.7987724947
 20
8.5055957312
 30
0.0
  0
SPLINE
  5
2D9
100
AcDbEntity
  8
0
100
AcDbSpline
 62
7
  6
CONTINUOUS
 70
0
 71
3
 72
15
 73
11
 74
0
 42
0.0000001
 43
0.0000001
 44
0.0000000001
 40
0.0
 40
0.0
 40
0.0
 40
0.0
 40
0.1090430419
 40
0.2198054539
 40
0.3339231994
 40
0.452887223
 40
0.5779880059
 40
0.7103070969
 40
0.8507361486
 40
1.0
 40
1.0
 40
1.0
 40
1.0
 10
13.7222243998
 20
8.7678430066
 30
0.0
 10
13.7231597891
 20
8.7677780509
 30
0.0
 10
13.7250389449
 20
8.7675228389
 30
0.0
 10
13.7278176684
 20
8.7667710214
 30
0.0
 10
13.7305617099
 20
8.7656511409
 30
0.0
 10
13.7332667132
 20
8.7641655987
 30
0.0
 10
13.7359304185
 20
8.7623180828
 30
0.0
 10
13.7385508594
 20
8.7601119207
 30
0.0
 10
13.7411259828
 20
8.7575501203
 30
0.0
 10
13.7427594749
 20
8.7556663872
 30
0.0
 10
13.743569293
 20
8.7546706209
 30
0.0
  0
SPLINE
  5
2DA
100
AcDbEntity
  8
0
100
AcDbSpline
 62
7
  6
CONTINUOUS
 70
0
 71
3
 72
15
 73
11
 74
0
 42
0.0000001
 43
0.0000001
 44
0.0000000001
 40
0.0
 40
0.0
 40
0.0
 40
0.0
 40
0.1090430419
 40
0.2198054539
 40
0.3339231994
 40
0.452887223
 40
0.5779880059
 40
0.7103070969
 40
0.8507361486
 40
1.0
 40
1.0
 40
1.0
 40
1.0
 10
13.5944539594
 20
8.0870521081
 30
0.0
 10
13.5935185701
 20
8.0871170637
 30
0.0
 10
13.5916394144
 20
8.0873722758
 30
0.0
 10
13.5888606908
 20
8.0881240933
 30
0.0
 10
13.5861166493
 20
8.0892439738
 30
0.0
 10
13.5834116461
 20
8.090729516
 30
0.0
 10
13.5807479408
 20
8.0925770318
 30
0.0
 10
13.5781274998
 20
8.0947831939
 30
0.0
 10
13.5755523764
 20
8.0973449944
 30
0.0
 10
13.5739188843
 20
8.0992287275
 30
0.0
 10
13.5731090663
 20
8.1002244938
 30
0.0
  0
SPLINE
  5
2DB
100
AcDbEntity
  8
0
100
AcDbSpline
 62
7
  6
CONTINUOUS
 70
0
 71
3
 72
33
 73
29
 74
0
 42
0.0000001
 43
0.0000001
 44
0.0000000001
 40
0.0
 40
0.0
 40
0.0
 40
0.0
 40
0.1056124641
 40
0.2076699554
 40
0.305167057
 40
0.39730514
 40
0.4833444468
 40
0.5625963551
 40
0.5994968149
 40
0.6344975976
 40
0.6675451558
 40
0.6986017549
 40
0.7276432097
 40
0.7546559499
 40
0.7796448267
 40
0.8026448944
 40
0.8237184754
 40
0.8429636001
 40
0.8605339137
 40
0.876650845
 40
0.8916117247
 40
0.9057992803
 40
0.9196709547
 40
0.9337159583
 40
0.9484055614
 40
0.9641484958
 40
0.9812663149
 40
1.0
 40
1.0
 40
1.0
 40
1.0
 10
13.7523145144
 20
8.4607207656
 30
0.0
 10
13.7523145144
 20
8.4653192894
 30
0.0
 10
13.752197942
 20
8.474362063
 30
0.0
 10
13.7516607979
 20
8.4876403779
 30
0.0
 10
13.7507673638
 20
8.5003117375
 30
0.0
 10
13.7495276835
 20
8.5122533407
 30
0.0
 10
13.7479541234
 20
8.5233540188
 30
0.0
 10
13.7463417213
 20
8.5320126656
 30
0.0
 10
13.7448795496
 20
8.5384303975
 30
0.0
 10
13.7437359756
 20
8.5428553611
 30
0.0
 10
13.742521645
 20
8.5469970248
 30
0.0
 10
13.7412395547
 20
8.5508458046
 30
0.0
 10
13.7398930373
 20
8.5543929911
 30
0.0
 10
13.7384850951
 20
8.5576303481
 30
0.0
 10
13.7370184342
 20
8.5605503148
 30
0.0
 10
13.7354966608
 20
8.563146761
 30
0.0
 10
13.7339228499
 20
8.5654143131
 30
0.0
 10
13.7322990501
 20
8.5673476825
 30
0.0
 10
13.7306272296
 20
8.5689422463
 30
0.0
 10
13.7289092697
 20
8.5701937698
 30
0.0
 10
13.7271466058
 20
8.571096195
 30
0.0
 10
13.7253427623
 20
8.5716408652
 30
0.0
 10
13.7235064645
 20
8.5718219981
 30
0.0
 10
13.721648919
 20
8.571638318
 30
0.0
 10
13.7197803037
 20
8.5710931392
 30
0.0
 10
13.7179069109
 20
8.5701932152
 30
0.0
 10
13.7160314753
 20
8.5689459043
 30
0.0
 10
13.7148382607
 20
8.5679341337
 30
0.0
 10
13.7142411814
 20
8.5673783904
 30
0.0
  0
SPLINE
  5
2DC
100
AcDbEntity
  8
0
100
AcDbSpline
 62
7
  6
CONTINUOUS
 70
0
 71
3
 72
39
 73
35
 74
0
 42
0.0000001
 43
0.0000001
 44
0.0000000001
 40
0.0
 40
0.0
 40
0.0
 40
0.0
 40
0.0154361115
 40
0.0224876968
 40
0.0291530353
 40
0.0354908597
 40
0.0415708915
 40
0.0474738374
 40
0.0532886797
 40
0.0591083756
 40
0.0650255691
 40
0.0711284028
 40
0.077496858
 40
0.0841996368
 40
0.0912942181
 40
0.1068282727
 40
0.1243883942
 40
0.1441303714
 40
0.1661343627
 40
0.1904268854
 40
0.2169874925
 40
0.2457720636
 40
0.2767086995
 40
0.3097043823
 40
0.3446553215
 40
0.3814374123
 40
0.4199177276
 40
0.4599540061
 40
0.5440630384
 40
0.6324568902
 40
0.723728931
 40
0.8163990409
 40
0.9090071575
 40
1.0
 40
1.0
 40
1.0
 40
1.0
 10
13.6943929862
 20
8.2811366359
 30
0.0
 10
13.6950750347
 20
8.2802980843
 30
0.0
 10
13.6961465831
 20
8.2791333488
 30
0.0
 10
13.6977118986
 20
8.2778193853
 30
0.0
 10
13.6988696283
 20
8.2770203247
 30
0.0
 10
13.700045279
 20
8.2763794431
 30
0.0
 10
13.7012379392
 20
8.2758984113
 30
0.0
 10
13.7024460252
 20
8.2755786814
 30
0.0
 10
13.7036674798
 20
8.2754208956
 30
0.0
 10
13.7049000631
 20
8.2754254024
 30
0.0
 10
13.7061415118
 20
8.2755920267
 30
0.0
 10
13.7073897963
 20
8.2759202383
 30
0.0
 10
13.7086431369
 20
8.2764091581
 30
0.0
 10
13.709900379
 20
8.277057137
 30
0.0
 10
13.7116327495
 20
8.2781651636
 30
0.0
 10
13.7138012075
 20
8.2799768962
 30
0.0
 10
13.7163185351
 20
8.2826980611
 30
0.0
 10
13.7188226933
 20
8.2860181046
 30
0.0
 10
13.7213045316
 20
8.2899246528
 30
0.0
 10
13.7237544235
 20
8.294403127
 30
0.0
 10
13.7261633618
 20
8.2994350983
 30
0.0
 10
13.7285201942
 20
8.305000266
 30
0.0
 10
13.730815109
 20
8.3110751477
 30
0.0
 10
13.7330385449
 20
8.3176339816
 30
0.0
 10
13.7351799623
 20
8.3246490122
 30
0.0
 10
13.7372308198
 20
8.3320900643
 30
0.0
 10
13.7391819485
 20
8.3399253048
 30
0.0
 10
13.7416797465
 20
8.3510366194
 30
0.0
 10
13.744475216
 20
8.3656591729
 30
0.0
 10
13.7472612718
 20
8.383922396
 30
0.0
 10
13.749482126
 20
8.4028665203
 30
0.0
 10
13.751100133
 20
8.4221676283
 30
0.0
 10
13.7520858019
 20
8.4414915326
 30
0.0
 10
13.7523145144
 20
8.4543490341
 30
0.0
 10
13.7523145144
 20
8.4607207656
 30
0.0
  0
SPLINE
  5
2DD
100
AcDbEntity
  8
0
100
AcDbSpline
 62
7
  6
CONTINUOUS
 70
0
 71
3
 72
22
 73
18
 74
0
 42
0.0000001
 43
0.0000001
 44
0.0000000001
 40
0.0
 40
0.0
 40
0.0
 40
0.0
 40
0.0332795211
 40
0.068578627
 40
0.1069210251
 40
0.1491148305
 40
0.1957877997
 40
0.2472979919
 40
0.3037590365
 40
0.3651557628
 40
0.431294606
 40
0.5018894401
 40
0.5766158251
 40
0.6551286156
 40
0.737060334
 40
0.8220575793
 40
1.0
 40
1.0
 40
1.0
 40
1.0
 10
13.7040671213
 20
8.5527553358
 30
0.0
 10
13.7040865207
 20
8.5522123822
 30
0.0
 10
13.7042302496
 20
8.5510948881
 30
0.0
 10
13.7047566946
 20
8.5494222929
 30
0.0
 10
13.7056074166
 20
8.5477256214
 30
0.0
 10
13.7067821165
 20
8.5460067468
 30
0.0
 10
13.7082833307
 20
8.5442699062
 30
0.0
 10
13.710104264
 20
8.5425171848
 30
0.0
 10
13.7122338923
 20
8.5407504934
 30
0.0
 10
13.7146592666
 20
8.5389758439
 30
0.0
 10
13.7173609152
 20
8.5371953547
 30
0.0
 10
13.720318123
 20
8.5354127587
 30
0.0
 10
13.7235094826
 20
8.5336316689
 30
0.0
 10
13.7269129186
 20
8.5318541517
 30
0.0
 10
13.730507016
 20
8.5300820362
 30
0.0
 10
13.7356049254
 20
8.527691878
 30
0.0
 10
13.7395373582
 20
8.5259687229
 30
0.0
 10
13.7422116704
 20
8.5248342959
 30
0.0
  0
SPLINE
  5
2DE
100
AcDbEntity
  8
0
100
AcDbSpline
 62
7
  6
CONTINUOUS
 70
0
 71
3
 72
11
 73
7
 74
0
 42
0.0000001
 43
0.0000001
 44
0.0000000001
 40
0.0
 40
0.0
 40
0.0
 40
0.0
 40
0.2259007261
 40
0.4675354544
 40
0.7254409767
 40
1.0
 40
1.0
 40
1.0
 40
1.0
 10
13.5731090663
 20
8.1002244938
 30
0.0
 10
13.5721375758
 20
8.1014190554
 30
0.0
 10
13.5702200992
 20
8.1039680658
 30
0.0
 10
13.5675038752
 20
8.1081030038
 30
0.0
 10
13.5648561787
 20
8.1126695642
 30
0.0
 10
13.5631915647
 20
8.1158962366
 30
0.0
 10
13.5623689175
 20
8.1175771082
 30
0.0
  0
SPLINE
  5
2DF
100
AcDbEntity
  8
0
100
AcDbSpline
 62
7
  6
CONTINUOUS
 70
0
 71
3
 72
21
 73
17
 74
0
 42
0.0000001
 43
0.0000001
 44
0.0000000001
 40
0.0
 40
0.0
 40
0.0
 40
0.0
 40
0.0415226367
 40
0.0863043629
 40
0.1343109202
 40
0.1854739486
 40
0.2397083176
 40
0.2969126571
 40
0.3569638729
 40
0.4197309481
 40
0.4850678755
 40
0.5528118418
 40
0.6227961257
 40
0.6948497795
 40
0.8444557176
 40
1.0
 40
1.0
 40
1.0
 40
1.0
 10
13.5596924083
 20
8.1233748159
 30
0.0
 10
13.5584520058
 20
8.126219156
 30
0.0
 10
13.5560445675
 20
8.1322063578
 30
0.0
 10
13.5527453077
 20
8.1416890055
 30
0.0
 10
13.5496310968
 20
8.1519889027
 30
0.0
 10
13.5467097848
 20
8.1630767561
 30
0.0
 10
13.54399012
 20
8.1749218386
 30
0.0
 10
13.5414804781
 20
8.1874909779
 30
0.0
 10
13.5391871281
 20
8.2007487733
 30
0.0
 10
13.5371173855
 20
8.2146579069
 30
0.0
 10
13.5352773136
 20
8.2291788214
 30
0.0
 10
13.5336714822
 20
8.2442698968
 30
0.0
 10
13.5323052017
 20
8.259888415
 30
0.0
 10
13.5307890227
 20
8.2816315111
 30
0.0
 10
13.5295395384
 20
8.3097978493
 30
0.0
 10
13.5292195774
 20
8.3326035603
 30
0.0
 10
13.5292195774
 20
8.3442275915
 30
0.0
  0
SPLINE
  5
2E0
100
AcDbEntity
  8
0
100
AcDbSpline
 62
7
  6
CONTINUOUS
 70
0
 71
3
 72
23
 73
19
 74
0
 42
0.0000001
 43
0.0000001
 44
0.0000000001
 40
0.0
 40
0.0
 40
0.0
 40
0.0
 40
0.0715380793
 40
0.1420662056
 40
0.2114204047
 40
0.2794229136
 40
0.3459307252
 40
0.3785914705
 40
0.4108382921
 40
0.4740743964
 40
0.5357090606
 40
0.5959022608
 40
0.6549216852
 40
0.713070218
 40
0.7706661941
 40
0.8279754773
 40
0.8852230662
 40
1.0
 40
1.0
 40
1.0
 40
1.0
 10
13.7422116704
 20
8.3854149037
 30
0.0
 10
13.7402378721
 20
8.3835559176
 30
0.0
 10
13.7363759409
 20
8.379801972
 30
0.0
 10
13.7308440939
 20
8.3740016241
 30
0.0
 10
13.725663399
 20
8.3680610403
 30
0.0
 10
13.7208950319
 20
8.3619760105
 30
0.0
 10
13.7173001537
 20
8.3567521541
 30
0.0
 10
13.7147011777
 20
8.3525018708
 30
0.0
 10
13.712327083
 20
8.3482636751
 30
0.0
 10
13.7097372383
 20
8.3428926324
 30
0.0
 10
13.7072662002
 20
8.3363171516
 30
0.0
 10
13.7054887596
 20
8.3296856122
 30
0.0
 10
13.7043966607
 20
8.3230414372
 30
0.0
 10
13.7039714482
 20
8.3164210075
 30
0.0
 10
13.7041578751
 20
8.3098560303
 30
0.0
 10
13.7049002386
 20
8.3033661491
 30
0.0
 10
13.7065411777
 20
8.2948240698
 30
0.0
 10
13.7084108451
 20
8.2885572272
 30
0.0
 10
13.7098593164
 20
8.2844552315
 30
0.0
  0
SPLINE
  5
2E1
100
AcDbEntity
  8
0
100
AcDbSpline
 62
7
  6
CONTINUOUS
 70
0
 71
3
 72
15
 73
11
 74
0
 42
0.0000001
 43
0.0000001
 44
0.0000000001
 40
0.0
 40
0.0
 40
0.0
 40
0.0
 40
0.1267941869
 40
0.1899739298
 40
0.2529876009
 40
0.378548878
 40
0.5035858452
 40
0.6281815149
 40
0.7524134001
 40
1.0
 40
1.0
 40
1.0
 40
1.0
 10
13.7235330136
 20
8.456419969
 30
0.0
 10
13.7235330136
 20
8.4594464398
 30
0.0
 10
13.7237049871
 20
8.4639833466
 30
0.0
 10
13.7242717116
 20
8.4699962754
 30
0.0
 10
13.7250572965
 20
8.4759551378
 30
0.0
 10
13.726435247
 20
8.4833196622
 30
0.0
 10
13.7286736843
 20
8.4919971421
 30
0.0
 10
13.7314287457
 20
8.5004905396
 30
0.0
 10
13.7356994981
 20
8.5115477598
 30
0.0
 10
13.73949365
 20
8.5195867505
 30
0.0
 10
13.7422116704
 20
8.5248342959
 30
0.0
  0
SPLINE
  5
2E2
100
AcDbEntity
  8
0
100
AcDbSpline
 62
7
  6
CONTINUOUS
 70
0
 71
3
 72
14
 73
10
 74
0
 42
0.0000001
 43
0.0000001
 44
0.0000000001
 40
0.0
 40
0.0
 40
0.0
 40
0.0
 40
0.252265482
 40
0.5033486144
 40
0.6283249666
 40
0.7527968751
 40
0.814834412
 40
0.8767298647
 40
1.0
 40
1.0
 40
1.0
 40
1.0
 10
13.7422116704
 20
8.3854149037
 30
0.0
 10
13.739502776
 20
8.3910205548
 30
0.0
 10
13.7344625921
 20
8.4023883049
 30
0.0
 10
13.7294329708
 20
8.4170878126
 30
0.0
 10
13.7264433944
 20
8.4290806096
 30
0.0
 10
13.7250607863
 20
8.4366490661
 30
0.0
 10
13.724272959
 20
8.4427300363
 30
0.0
 10
13.7237071467
 20
8.4488055789
 30
0.0
 10
13.7235330136
 20
8.4533776836
 30
0.0
 10
13.7235330136
 20
8.456419969
 30
0.0
  0
SPLINE
  5
2E3
100
AcDbEntity
  8
0
100
AcDbSpline
 62
7
  6
CONTINUOUS
 70
0
 71
3
 72
42
 73
38
 74
0
 42
0.0000001
 43
0.0000001
 44
0.0000000001
 40
0.0
 40
0.0
 40
0.0
 40
0.0
 40
0.0187317918
 40
0.0358459152
 40
0.0515845466
 40
0.0590428417
 40
0.0662861262
 40
0.0733677281
 40
0.0803453143
 40
0.0872795313
 40
0.0942320619
 40
0.1012639729
 40
0.1084341789
 40
0.1157981619
 40
0.1234068684
 40
0.1395232976
 40
0.1570935977
 40
0.1763381572
 40
0.1974103033
 40
0.2204090452
 40
0.2453978239
 40
0.2724087099
 40
0.3014466849
 40
0.3325019809
 40
0.3655490216
 40
0.4005455813
 40
0.4374423964
 40
0.4761812502
 40
0.5166921647
 40
0.5589011869
 40
0.6027280303
 40
0.6480815212
 40
0.6948675949
 40
0.7429904044
 40
0.7923516885
 40
0.8943811518
 40
1.0
 40
1.0
 40
1.0
 40
1.0
 10
13.7130770727
 20
8.1060111861
 30
0.0
 10
13.711758241
 20
8.1047837994
 30
0.0
 10
13.7091230027
 20
8.102548948
 30
0.0
 10
13.7049813926
 20
8.0997949219
 30
0.0
 10
13.7014705713
 20
8.0981108698
 30
0.0
 10
13.6986910084
 20
8.0971813343
 30
0.0
 10
13.6966510608
 20
8.0966914362
 30
0.0
 10
13.6946203776
 20
8.0963974474
 30
0.0
 10
13.69260044
 20
8.0963000474
 30
0.0
 10
13.6905929679
 20
8.0963991599
 30
0.0
 10
13.6885996251
 20
8.0966945725
 30
0.0
 10
13.686622037
 20
8.0971858852
 30
0.0
 10
13.6846617351
 20
8.0978725492
 30
0.0
 10
13.6827200366
 20
8.0987540064
 30
0.0
 10
13.6801081215
 20
8.1002157746
 30
0.0
 10
13.6768854977
 20
8.1025637909
 30
0.0
 10
13.6731938441
 20
8.1060862379
 30
0.0
 10
13.6696072943
 20
8.1103570864
 30
0.0
 10
13.666131259
 20
8.1153656986
 30
0.0
 10
13.6627701016
 20
8.1211009025
 30
0.0
 10
13.6595311986
 20
8.1275508989
 30
0.0
 10
13.6564215104
 20
8.1347014872
 30
0.0
 10
13.6534471896
 20
8.1425362294
 30
0.0
 10
13.6506157724
 20
8.1510375086
 30
0.0
 10
13.6479341816
 20
8.1601856852
 30
0.0
 10
13.6454080336
 20
8.1699591388
 30
0.0
 10
13.6430438526
 20
8.1803350624
 30
0.0
 10
13.6408476467
 20
8.191289111
 30
0.0
 10
13.6388240066
 20
8.2027953322
 30
0.0
 10
13.6369781572
 20
8.2148266265
 30
0.0
 10
13.6353149463
 20
8.2273544279
 30
0.0
 10
13.6338376973
 20
8.2403485889
 30
0.0
 10
13.6325501792
 20
8.2537779908
 30
0.0
 10
13.6314558831
 20
8.2676111871
 30
0.0
 10
13.6302440035
 20
8.2867626165
 30
0.0
 10
13.6292444489
 20
8.3114650311
 30
0.0
 10
13.6289873412
 20
8.3314375187
 30
0.0
 10
13.6289873412
 20
8.3415958569
 30
0.0
  0
SPLINE
  5
2E4
100
AcDbEntity
  8
0
100
AcDbSpline
 62
7
  6
CONTINUOUS
 70
0
 71
3
 72
50
 73
46
 74
0
 42
0.0000001
 43
0.0000001
 44
0.0000000001
 40
0.0
 40
0.0
 40
0.0
 40
0.0
 40
0.0451955386
 40
0.0909999682
 40
0.1371965654
 40
0.1835931767
 40
0.2762634019
 40
0.3675294641
 40
0.4121749419
 40
0.4559215749
 40
0.4985966907
 40
0.5400311032
 40
0.5800643103
 40
0.6185430603
 40
0.6553228158
 40
0.6902714365
 40
0.7232656373
 40
0.7542003886
 40
0.7829825281
 40
0.7965447723
 40
0.8095447299
 40
0.8219768143
 40
0.8338372512
 40
0.845125688
 40
0.8558440574
 40
0.86599658
 40
0.8755903876
 40
0.884637398
 40
0.8931551119
 40
0.9011662886
 40
0.9087001258
 40
0.9157939675
 40
0.9224956589
 40
0.9288634581
 40
0.934966242
 40
0.9408832608
 40
0.9467025845
 40
0.9525171679
 40
0.9584199421
 40
0.9644995446
 40
0.9708368504
 40
0.9775019178
 40
0.9845534247
 40
0.9920397036
 40
1.0
 40
1.0
 40
1.0
 40
1.0
 10
13.6289873412
 20
8.3415958569
 30
0.0
 10
13.6289873412
 20
8.3485865315
 30
0.0
 10
13.6291124048
 20
8.3626623429
 30
0.0
 10
13.6296619148
 20
8.3838772089
 30
0.0
 10
13.6305738529
 20
8.4052656396
 30
0.0
 10
13.6322666082
 20
8.4338725166
 30
0.0
 10
13.6352433039
 20
8.4693817482
 30
0.0
 10
13.6393609006
 20
8.5045046613
 30
0.0
 10
13.6433201077
 20
8.532011295
 30
0.0
 10
13.6465713911
 20
8.5520230713
 30
0.0
 10
13.6501109811
 20
8.5714812878
 30
0.0
 10
13.653924327
 20
8.5903021426
 30
0.0
 10
13.6579944896
 20
8.6084045598
 30
0.0
 10
13.6623036319
 20
8.6257107228
 30
0.0
 10
13.6668336377
 20
8.6421462095
 30
0.0
 10
13.6715636758
 20
8.6576406312
 30
0.0
 10
13.6764745841
 20
8.6721276089
 30
0.0
 10
13.6815434295
 20
8.6855453295
 30
0.0
 10
13.6859652257
 20
8.6959859899
 30
0.0
 10
13.6895788071
 20
8.703747184
 30
0.0
 10
13.6922610293
 20
8.7091502355
 30
0.0
 10
13.6949663447
 20
8.7142456353
 30
0.0
 10
13.6976921691
 20
8.7190277538
 30
0.0
 10
13.7004353588
 20
8.7234917513
 30
0.0
 10
13.7031929758
 20
8.7276331464
 30
0.0
 10
13.7059621272
 20
8.7314475685
 30
0.0
 10
13.7087402048
 20
8.7349307326
 30
0.0
 10
13.7115245034
 20
8.7380789495
 30
0.0
 10
13.7143121124
 20
8.7408893298
 30
0.0
 10
13.7171004945
 20
8.74335903
 30
0.0
 10
13.7198872613
 20
8.7454851775
 30
0.0
 10
13.7226704082
 20
8.7472646322
 30
0.0
 10
13.7254474208
 20
8.7486951746
 30
0.0
 10
13.7282158365
 20
8.7497745218
 30
0.0
 10
13.7309728441
 20
8.7505000083
 30
0.0
 10
13.7337149287
 20
8.7508685921
 30
0.0
 10
13.7364374688
 20
8.7508782025
 30
0.0
 10
13.7391353268
 20
8.7505291127
 30
0.0
 10
13.7418035847
 20
8.7498224672
 30
0.0
 10
13.7444379734
 20
8.7487603134
 30
0.0
 10
13.7470348459
 20
8.7473449395
 30
0.0
 10
13.7495917959
 20
8.7455799324
 30
0.0
 10
13.7521069757
 20
8.7434685568
 30
0.0
 10
13.7545783846
 20
8.7410137468
 30
0.0
 10
13.7561455874
 20
8.7392073611
 30
0.0
 10
13.7569225031
 20
8.7382521522
 30
0.0
  0
SPLINE
  5
2E5
100
AcDbEntity
  8
0
100
AcDbSpline
 62
7
  6
CONTINUOUS
 70
0
 71
3
 72
44
 73
40
 74
0
 42
0.0000001
 43
0.0000001
 44
0.0000000001
 40
0.0
 40
0.0
 40
0.0
 40
0.0
 40
0.0417576885
 40
0.0840305926
 40
0.1695108791
 40
0.2553481543
 40
0.3405017429
 40
0.3824899933
 40
0.4239123477
 40
0.4646412982
 40
0.5045530041
 40
0.543526643
 40
0.5814438508
 40
0.6181934544
 40
0.6536671872
 40
0.687763196
 40
0.7203877477
 40
0.7514512334
 40
0.7808758843
 40
0.8085918753
 40
0.8345392695
 40
0.8586748822
 40
0.8809672372
 40
0.8914194914
 40
0.9014098018
 40
0.9109408908
 40
0.9200171764
 40
0.9286454668
 40
0.9368362745
 40
0.9446032645
 40
0.9519635343
 40
0.9589383217
 40
0.965553936
 40
0.9718432618
 40
0.9778456727
 40
0.9836070632
 40
0.9891799531
 40
0.9946230338
 40
1.0
 40
1.0
 40
1.0
 40
1.0
 10
13.6093914257
 20
8.3386676549
 30
0.0
 10
13.6093914257
 20
8.3450826725
 30
0.0
 10
13.6094918161
 20
8.3579920832
 30
0.0
 10
13.6100839481
 20
8.3840271685
 30
0.0
 10
13.6115545219
 20
8.4168121108
 30
0.0
 10
13.6144483482
 20
8.4561111052
 30
0.0
 10
13.6177884733
 20
8.488664222
 30
0.0
 10
13.6210072278
 20
8.5143598665
 30
0.0
 10
13.6236651784
 20
8.53324545
 30
0.0
 10
13.6265698508
 20
8.5517718255
 30
0.0
 10
13.6297114623
 20
8.5698778644
 30
0.0
 10
13.6330790978
 20
8.5875037143
 30
0.0
 10
13.6366624874
 20
8.604591
 30
0.0
 10
13.6404487807
 20
8.6210833553
 30
0.0
 10
13.644425781
 20
8.6369263102
 30
0.0
 10
13.6485805501
 20
8.6520675479
 30
0.0
 10
13.6528983117
 20
8.6664573163
 30
0.0
 10
13.6573657823
 20
8.6800480926
 30
0.0
 10
13.6619673462
 20
8.6927954113
 30
0.0
 10
13.6666875661
 20
8.7046576413
 30
0.0
 10
13.6715117599
 20
8.7155960255
 30
0.0
 10
13.676422609
 20
8.7255753373
 30
0.0
 10
13.6806611
 20
8.7332221207
 30
0.0
 10
13.6840952674
 20
8.7388185162
 30
0.0
 10
13.686627144
 20
8.7426656873
 30
0.0
 10
13.6891687414
 20
8.7462503709
 30
0.0
 10
13.6917181128
 20
8.7495694979
 30
0.0
 10
13.6942734552
 20
8.7526201542
 30
0.0
 10
13.6968326246
 20
8.7554001097
 30
0.0
 10
13.6993936643
 20
8.757907356
 30
0.0
 10
13.7019547233
 20
8.7601398764
 30
0.0
 10
13.7045140187
 20
8.7620956389
 30
0.0
 10
13.7070700223
 20
8.7637724541
 30
0.0
 10
13.7096208753
 20
8.7651688
 30
0.0
 10
13.7121647614
 20
8.766283325
 30
0.0
 10
13.7146997571
 20
8.7671144416
 30
0.0
 10
13.7172238005
 20
8.7676604478
 30
0.0
 10
13.7197338927
 20
8.7679194842
 30
0.0
 10
13.7214003488
 20
8.7679002306
 30
0.0
 10
13.7222243998
 20
8.7678430066
 30
0.0
  0
SPLINE
  5
2E6
100
AcDbEntity
  8
0
100
AcDbSpline
 62
7
  6
CONTINUOUS
 70
0
 71
3
 72
33
 73
29
 74
0
 42
0.0000001
 43
0.0000001
 44
0.0000000001
 40
0.0
 40
0.0
 40
0.0
 40
0.0
 40
0.0126611888
 40
0.0256295287
 40
0.0391901271
 40
0.0535893906
 40
0.0690270472
 40
0.085660288
 40
0.1036096796
 40
0.1229611838
 40
0.1437743872
 40
0.1660905802
 40
0.1899351902
 40
0.2153165822
 40
0.2422333065
 40
0.2706771934
 40
0.3006309966
 40
0.3320682151
 40
0.3649585931
 40
0.3992686535
 40
0.4349577585
 40
0.4719806448
 40
0.5498346311
 40
0.6324085829
 40
0.7192284608
 40
0.8098024865
 40
0.9036089119
 40
1.0
 40
1.0
 40
1.0
 40
1.0
 10
13.6746258077
 20
8.0814921715
 30
0.0
 10
13.673460331
 20
8.081573105
 30
0.0
 10
13.6711103223
 20
8.0819314785
 30
0.0
 10
13.6676548805
 20
8.0830434104
 30
0.0
 10
13.6642597202
 20
8.0847262594
 30
0.0
 10
13.6609318208
 20
8.0869719479
 30
0.0
 10
13.6576737362
 20
8.0897724556
 30
0.0
 10
13.6544884743
 20
8.093121855
 30
0.0
 10
13.6513797777
 20
8.0970148925
 30
0.0
 10
13.6483507366
 20
8.1014448708
 30
0.0
 10
13.6454049959
 20
8.1064047149
 30
0.0
 10
13.6425470038
 20
8.1118871209
 30
0.0
 10
13.6397815368
 20
8.1178838225
 30
0.0
 10
13.6371122986
 20
8.1243849495
 30
0.0
 10
13.6345435454
 20
8.13138007
 30
0.0
 10
13.6320798579
 20
8.1388582242
 30
0.0
 10
13.6297253494
 20
8.1468073129
 30
0.0
 10
13.6274834534
 20
8.1552141094
 30
0.0
 10
13.6253579617
 20
8.16406491
 30
0.0
 10
13.6233528603
 20
8.1733454405
 30
0.0
 10
13.6214711865
 20
8.183040441
 30
0.0
 10
13.6190908176
 20
8.1967288965
 30
0.0
 10
13.6164671987
 20
8.2147623469
 30
0.0
 10
13.6139037148
 20
8.2374354276
 30
0.0
 10
13.6118928647
 20
8.2613419947
 30
0.0
 10
13.6104479406
 20
8.2863273142
 30
0.0
 10
13.6095803611
 20
8.3122226412
 30
0.0
 10
13.6093914257
 20
8.3297733782
 30
0.0
 10
13.6093914257
 20
8.3386676549
 30
0.0
  0
SPLINE
  5
2E7
100
AcDbEntity
  8
0
100
AcDbSpline
 62
7
  6
CONTINUOUS
 70
0
 71
3
 72
30
 73
26
 74
0
 42
0.0000001
 43
0.0000001
 44
0.0000000001
 40
0.0
 40
0.0
 40
0.0
 40
0.0
 40
0.0725851437
 40
0.1463277779
 40
0.2206183627
 40
0.2949157904
 40
0.3686658668
 40
0.4413069552
 40
0.5122954669
 40
0.5811038435
 40
0.647224673
 40
0.6791277199
 40
0.7101821711
 40
0.7403325285
 40
0.7695280694
 40
0.7977199428
 40
0.8248607453
 40
0.8509085108
 40
0.875825466
 40
0.8995758817
 40
0.9221294608
 40
0.9434634643
 40
0.963559338
 40
0.9824049239
 40
1.0
 40
1.0
 40
1.0
 40
1.0
 10
13.5292195774
 20
8.3442275915
 30
0.0
 10
13.5292195774
 20
8.354269732
 30
0.0
 10
13.5294653956
 20
8.3745148755
 30
0.0
 10
13.5305384164
 20
8.4050210032
 30
0.0
 10
13.5323132767
 20
8.4357317853
 30
0.0
 10
13.5347748542
 20
8.4663961332
 30
0.0
 10
13.5379026077
 20
8.4967703829
 30
0.0
 10
13.5416726137
 20
8.5266103532
 30
0.0
 10
13.5460532022
 20
8.5556758313
 30
0.0
 10
13.5510093535
 20
8.5837332384
 30
0.0
 10
13.5556388228
 20
8.6063489169
 30
0.0
 10
13.559612593
 20
8.6237597597
 30
0.0
 10
13.5626748784
 20
8.6362725122
 30
0.0
 10
13.5658489155
 20
8.6483705433
 30
0.0
 10
13.5691278748
 20
8.660029738
 30
0.0
 10
13.5725049714
 20
8.6712267441
 30
0.0
 10
13.5759738788
 20
8.6819388744
 30
0.0
 10
13.5795274197
 20
8.6921447382
 30
0.0
 10
13.5831580291
 20
8.7018241315
 30
0.0
 10
13.586858701
 20
8.710957527
 30
0.0
 10
13.5906222607
 20
8.7195266129
 30
0.0
 10
13.5944405545
 20
8.727514722
 30
0.0
 10
13.598306048
 20
8.7349061587
 30
0.0
 10
13.602211595
 20
8.741685752
 30
0.0
 10
13.6049297177
 20
8.7459348271
 30
0.0
 10
13.6062978296
 20
8.7479482735
 30
0.0
  0
SPLINE
  5
2E8
100
AcDbEntity
  8
0
100
AcDbSpline
 62
7
  6
CONTINUOUS
 70
0
 71
3
 72
11
 73
7
 74
0
 42
0.0000001
 43
0.0000001
 44
0.0000000001
 40
0.0
 40
0.0
 40
0.0
 40
0.0
 40
0.2741632939
 40
0.5319469065
 40
0.7737080505
 40
1.0
 40
1.0
 40
1.0
 40
1.0
 10
13.6062978296
 20
8.7479482735
 30
0.0
 10
13.6073263927
 20
8.749462007
 30
0.0
 10
13.609383767
 20
8.7523579014
 30
0.0
 10
13.6125774431
 20
8.7564197197
 30
0.0
 10
13.6157793363
 20
8.7600595768
 30
0.0
 10
13.6179879765
 20
8.7622734836
 30
0.0
 10
13.619093718
 20
8.7633026269
 30
0.0
  0
SPLINE
  5
2E9
100
AcDbEntity
  8
0
100
AcDbSpline
 62
7
  6
CONTINUOUS
 70
0
 71
3
 72
56
 73
52
 74
0
 42
0.0000001
 43
0.0000001
 44
0.0000000001
 40
0.0
 40
0.0
 40
0.0
 40
0.0
 40
0.031072346
 40
0.0465152317
 40
0.0618873124
 40
0.0924244558
 40
0.1227285839
 40
0.1378086476
 40
0.152843805
 40
0.1678401144
 40
0.1828038429
 40
0.2126503375
 40
0.2275575076
 40
0.2424602021
 40
0.2573657768
 40
0.2722815596
 40
0.2872148075
 40
0.3021724288
 40
0.3171611944
 40
0.3321875086
 40
0.3472571497
 40
0.3623756664
 40
0.3927682644
 40
0.4234071833
 40
0.4388308412
 40
0.4543232404
 40
0.485507794
 40
0.5169699549
 40
0.5328065592
 40
0.5487076996
 40
0.5806824155
 40
0.6128739827
 40
0.6290441713
 40
0.6452543848
 40
0.6777639099
 40
0.7103643313
 40
0.7266873147
 40
0.7430142246
 40
0.7756456102
 40
0.791945892
 40
0.80822475
 40
0.8244760382
 40
0.8406940716
 40
0.8568734333
 40
0.8730088969
 40
0.8890954876
 40
0.905128265
 40
0.9370074718
 40
0.9528594107
 40
0.9686481654
 40
1.0
 40
1.0
 40
1.0
 40
1.0
 10
11.206522964
 20
8.594408288
 30
0.0
 10
11.2065228293
 20
8.5863946575
 30
0.0
 10
11.2059347132
 20
8.5743869173
 30
0.0
 10
11.2039652381
 20
8.5585431344
 30
0.0
 10
11.2012264404
 20
8.5429529837
 30
0.0
 10
11.1963651162
 20
8.5238711874
 30
0.0
 10
11.1896039962
 20
8.5054557806
 30
0.0
 10
11.1831122425
 20
8.4912836597
 30
0.0
 10
11.1777208466
 20
8.4809678009
 30
0.0
 10
11.1718140262
 20
8.470972774
 30
0.0
 10
11.1632789301
 20
8.4581188705
 30
0.0
 10
11.1537542525
 20
8.44597254
 30
0.0
 10
11.1433284286
 20
8.4346507949
 30
0.0
 10
11.1350752016
 20
8.4265880326
 30
0.0
 10
11.1264068567
 20
8.4189706557
 30
0.0
 10
11.117342204
 20
8.4118165194
 30
0.0
 10
11.1079020443
 20
8.4051425594
 30
0.0
 10
11.0981085462
 20
8.3989634857
 30
0.0
 10
11.0879834444
 20
8.3932949195
 30
0.0
 10
11.0775501102
 20
8.38815057
 30
0.0
 10
11.0668326174
 20
8.3835419183
 30
0.0
 10
11.052173499
 20
8.3781197552
 30
0.0
 10
11.0332469014
 20
8.3727407961
 30
0.0
 10
11.0137949746
 20
8.3693021968
 30
0.0
 10
10.9979932097
 20
8.3677188144
 30
0.0
 10
10.9819914523
 20
8.3669188208
 30
0.0
 10
10.9618105173
 20
8.3674119279
 30
0.0
 10
10.9416870279
 20
8.36988241
 30
0.0
 10
10.9256884007
 20
8.3730273132
 30
0.0
 10
10.9097301323
 20
8.3769658423
 30
0.0
 10
10.8900543284
 20
8.3833392756
 30
0.0
 10
10.8710002689
 20
8.3915575902
 30
0.0
 10
10.8561989859
 20
8.3992012476
 30
0.0
 10
10.8416964244
 20
8.4075630726
 30
0.0
 10
10.8242679545
 20
8.4192856824
 30
0.0
 10
10.8079636935
 20
8.4325728157
 30
0.0
 10
10.795671799
 20
8.4440738566
 30
0.0
 10
10.783912654
 20
8.4561293416
 30
0.0
 10
10.7729927806
 20
8.4689729904
 30
0.0
 10
10.7630011513
 20
8.4825066219
 30
0.0
 10
10.7559893802
 20
8.4929731892
 30
0.0
 10
10.7494767962
 20
8.5037322797
 30
0.0
 10
10.7434789166
 20
8.5147574653
 30
0.0
 10
10.7380091466
 20
8.5260208011
 30
0.0
 10
10.733081829
 20
8.5374948374
 30
0.0
 10
10.7287081754
 20
8.5491511885
 30
0.0
 10
10.7236375318
 20
8.5648631181
 30
0.0
 10
10.7196971992
 20
8.5808592111
 30
0.0
 10
10.7169278504
 20
8.5970107646
 30
0.0
 10
10.714955443
 20
8.6131410214
 30
0.0
 10
10.7143542725
 20
8.6253090938
 30
0.0
 10
10.7143541251
 20
8.6333948051
 30
0.0
  0
SPLINE
  5
2EA
100
AcDbEntity
  8
0
100
AcDbSpline
 62
7
  6
CONTINUOUS
 70
0
 71
3
 72
56
 73
52
 74
0
 42
0.0000001
 43
0.0000001
 44
0.0000000001
 40
0.0
 40
0.0
 40
0.0
 40
0.0
 40
0.0310723444
 40
0.0465152282
 40
0.0618873079
 40
0.0924244521
 40
0.1227285817
 40
0.1378086463
 40
0.1528438045
 40
0.1678401149
 40
0.1828038444
 40
0.2126503405
 40
0.227557511
 40
0.2424602055
 40
0.2573657799
 40
0.272281562
 40
0.2872148089
 40
0.3021724291
 40
0.3171611937
 40
0.3321875071
 40
0.3472571476
 40
0.362375664
 40
0.3927682619
 40
0.4234071812
 40
0.4388308394
 40
0.454323239
 40
0.4855077933
 40
0.5169699546
 40
0.532806559
 40
0.5487076994
 40
0.5806824153
 40
0.6128739824
 40
0.6290441709
 40
0.6452543843
 40
0.6777639093
 40
0.7103643307
 40
0.7266873141
 40
0.7430142241
 40
0.7756456098
 40
0.7919458916
 40
0.8082247496
 40
0.8244760379
 40
0.8406940714
 40
0.8568734332
 40
0.8730088968
 40
0.8890954876
 40
0.905128265
 40
0.9370074719
 40
0.9528594107
 40
0.9686481654
 40
1.0
 40
1.0
 40
1.0
 40
1.0
 10
10.714354123
 20
8.6333947044
 30
0.0
 10
10.7143542577
 20
8.6414083345
 30
0.0
 10
10.7149423734
 20
8.6534160739
 30
0.0
 10
10.7169118486
 20
8.6692598555
 30
0.0
 10
10.7196506461
 20
8.6848500058
 30
0.0
 10
10.7245119701
 20
8.7039318025
 30
0.0
 10
10.73127309
 20
8.7223472102
 30
0.0
 10
10.7377648441
 20
8.7365193318
 30
0.0
 10
10.7431562403
 20
8.7468351912
 30
0.0
 10
10.749063061
 20
8.7568302188
 30
0.0
 10
10.7575981576
 20
8.769684123
 30
0.0
 10
10.7671228359
 20
8.7818304539
 30
0.0
 10
10.7775486602
 20
8.7931521993
 30
0.0
 10
10.7858018873
 20
8.8012149616
 30
0.0
 10
10.7944702322
 20
8.8088323381
 30
0.0
 10
10.8035348845
 20
8.8159864742
 30
0.0
 10
10.8129750436
 20
8.8226604336
 30
0.0
 10
10.8227685411
 20
8.8288395068
 30
0.0
 10
10.8328936422
 20
8.8345080727
 30
0.0
 10
10.8433269758
 20
8.8396524219
 30
0.0
 10
10.8540444682
 20
8.8442610735
 30
0.0
 10
10.8687035863
 20
8.8496832366
 30
0.0
 10
10.8876301839
 20
8.8550621959
 30
0.0
 10
10.9070821109
 20
8.8585007953
 30
0.0
 10
10.922883876
 20
8.8600841779
 30
0.0
 10
10.9388856338
 20
8.8608841715
 30
0.0
 10
10.9590665691
 20
8.8603910645
 30
0.0
 10
10.9791900588
 20
8.8579205824
 30
0.0
 10
10.9951886862
 20
8.8547756792
 30
0.0
 10
11.0111469546
 20
8.8508371501
 30
0.0
 10
11.0308227584
 20
8.8444637168
 30
0.0
 10
11.049876818
 20
8.8362454023
 30
0.0
 10
11.0646781009
 20
8.8286017449
 30
0.0
 10
11.0791806623
 20
8.8202399199
 30
0.0
 10
11.0966091322
 20
8.8085173102
 30
0.0
 10
11.1129133932
 20
8.7952301769
 30
0.0
 10
11.1252052877
 20
8.783729136
 30
0.0
 10
11.1369644327
 20
8.771673651
 30
0.0
 10
11.1478843062
 20
8.7588300022
 30
0.0
 10
11.1578759355
 20
8.7452963707
 30
0.0
 10
11.1648877067
 20
8.7348298033
 30
0.0
 10
11.1714002907
 20
8.7240707129
 30
0.0
 10
11.1773981703
 20
8.7130455272
 30
0.0
 10
11.1828679404
 20
8.7017821914
 30
0.0
 10
11.1877952579
 20
8.690308155
 30
0.0
 10
11.1921689115
 20
8.6786518039
 30
0.0
 10
11.1972395552
 20
8.6629398743
 30
0.0
 10
11.2011798878
 20
8.6469437812
 30
0.0
 10
11.2039492366
 20
8.6307922277
 30
0.0
 10
11.205921644
 20
8.6146619709
 30
0.0
 10
11.2065228145
 20
8.6024938985
 30
0.0
 10
11.2065229619
 20
8.5944081873
 30
0.0
  0
SPLINE
  5
2EB
100
AcDbEntity
  8
0
100
AcDbSpline
 62
7
  6
CONTINUOUS
 70
0
 71
3
 72
56
 73
52
 74
0
 42
0.0000001
 43
0.0000001
 44
0.0000000001
 40
0.0
 40
0.0
 40
0.0
 40
0.0
 40
0.031072346
 40
0.0465152317
 40
0.0618873124
 40
0.0924244558
 40
0.1227285839
 40
0.1378086476
 40
0.152843805
 40
0.1678401144
 40
0.1828038429
 40
0.2126503375
 40
0.2275575076
 40
0.2424602021
 40
0.2573657768
 40
0.2722815596
 40
0.2872148075
 40
0.3021724288
 40
0.3171611944
 40
0.3321875086
 40
0.3472571497
 40
0.3623756664
 40
0.3927682644
 40
0.4234071833
 40
0.4388308412
 40
0.4543232404
 40
0.485507794
 40
0.5169699549
 40
0.5328065592
 40
0.5487076996
 40
0.5806824155
 40
0.6128739827
 40
0.6290441713
 40
0.6452543848
 40
0.6777639099
 40
0.7103643313
 40
0.7266873147
 40
0.7430142246
 40
0.7756456102
 40
0.791945892
 40
0.80822475
 40
0.8244760382
 40
0.8406940716
 40
0.8568734333
 40
0.8730088969
 40
0.8890954876
 40
0.905128265
 40
0.9370074718
 40
0.9528594107
 40
0.9686481654
 40
1.0
 40
1.0
 40
1.0
 40
1.0
 10
11.7194296256
 20
8.1367284441
 30
0.0
 10
11.7194294909
 20
8.1287148136
 30
0.0
 10
11.7188413749
 20
8.1167070734
 30
0.0
 10
11.7168718997
 20
8.1008632905
 30
0.0
 10
11.7141331021
 20
8.0852731398
 30
0.0
 10
11.7092717778
 20
8.0661913435
 30
0.0
 10
11.7025106579
 20
8.0477759367
 30
0.0
 10
11.6960189041
 20
8.0336038158
 30
0.0
 10
11.6906275083
 20
8.023287957
 30
0.0
 10
11.6847206879
 20
8.0132929301
 30
0.0
 10
11.6761855917
 20
8.0004390266
 30
0.0
 10
11.6666609141
 20
7.9882926961
 30
0.0
 10
11.6562350902
 20
7.976970951
 30
0.0
 10
11.6479818632
 20
7.9689081887
 30
0.0
 10
11.6393135184
 20
7.9612908118
 30
0.0
 10
11.6302488657
 20
7.9541366755
 30
0.0
 10
11.620808706
 20
7.9474627155
 30
0.0
 10
11.6110152079
 20
7.9412836418
 30
0.0
 10
11.6008901061
 20
7.9356150756
 30
0.0
 10
11.5904567718
 20
7.9304707261
 30
0.0
 10
11.5797392791
 20
7.9258620744
 30
0.0
 10
11.5650801607
 20
7.9204399113
 30
0.0
 10
11.546153563
 20
7.9150609522
 30
0.0
 10
11.5267016362
 20
7.9116223529
 30
0.0
 10
11.5108998713
 20
7.9100389705
 30
0.0
 10
11.4948981139
 20
7.9092389769
 30
0.0
 10
11.4747171789
 20
7.909732084
 30
0.0
 10
11.4545936896
 20
7.9122025661
 30
0.0
 10
11.4385950624
 20
7.9153474693
 30
0.0
 10
11.4226367939
 20
7.9192859984
 30
0.0
 10
11.4029609901
 20
7.9256594317
 30
0.0
 10
11.3839069305
 20
7.9338777462
 30
0.0
 10
11.3691056475
 20
7.9415214037
 30
0.0
 10
11.3546030861
 20
7.9498832287
 30
0.0
 10
11.3371746161
 20
7.9616058385
 30
0.0
 10
11.3208703552
 20
7.9748929718
 30
0.0
 10
11.3085784607
 20
7.9863940127
 30
0.0
 10
11.2968193157
 20
7.9984494977
 30
0.0
 10
11.2858994423
 20
8.0112931465
 30
0.0
 10
11.275907813
 20
8.024826778
 30
0.0
 10
11.2688960418
 20
8.0352933453
 30
0.0
 10
11.2623834578
 20
8.0460524358
 30
0.0
 10
11.2563855782
 20
8.0570776214
 30
0.0
 10
11.2509158082
 20
8.0683409572
 30
0.0
 10
11.2459884907
 20
8.0798149935
 30
0.0
 10
11.2416148371
 20
8.0914713446
 30
0.0
 10
11.2365441934
 20
8.1071832742
 30
0.0
 10
11.2326038608
 20
8.1231793672
 30
0.0
 10
11.229834512
 20
8.1393309207
 30
0.0
 10
11.2278621047
 20
8.1554611775
 30
0.0
 10
11.2272609342
 20
8.1676292499
 30
0.0
 10
11.2272607868
 20
8.1757149612
 30
0.0
  0
SPLINE
  5
2EC
100
AcDbEntity
  8
0
100
AcDbSpline
 62
7
  6
CONTINUOUS
 70
0
 71
3
 72
56
 73
52
 74
0
 42
0.0000001
 43
0.0000001
 44
0.0000000001
 40
0.0
 40
0.0
 40
0.0
 40
0.0
 40
0.0310723444
 40
0.0465152282
 40
0.0618873079
 40
0.0924244521
 40
0.1227285817
 40
0.1378086463
 40
0.1528438045
 40
0.1678401149
 40
0.1828038444
 40
0.2126503405
 40
0.227557511
 40
0.2424602055
 40
0.2573657799
 40
0.272281562
 40
0.2872148089
 40
0.3021724291
 40
0.3171611937
 40
0.3321875071
 40
0.3472571476
 40
0.362375664
 40
0.3927682619
 40
0.4234071812
 40
0.4388308394
 40
0.454323239
 40
0.4855077933
 40
0.5169699546
 40
0.532806559
 40
0.5487076994
 40
0.5806824153
 40
0.6128739824
 40
0.6290441709
 40
0.6452543843
 40
0.6777639093
 40
0.7103643307
 40
0.7266873141
 40
0.7430142241
 40
0.7756456098
 40
0.7919458916
 40
0.8082247496
 40
0.8244760379
 40
0.8406940714
 40
0.8568734332
 40
0.8730088968
 40
0.8890954876
 40
0.905128265
 40
0.9370074719
 40
0.9528594107
 40
0.9686481654
 40
1.0
 40
1.0
 40
1.0
 40
1.0
 10
11.2272607847
 20
8.1757148605
 30
0.0
 10
11.2272609193
 20
8.1837284906
 30
0.0
 10
11.227849035
 20
8.19573623
 30
0.0
 10
11.2298185103
 20
8.2115800116
 30
0.0
 10
11.2325573077
 20
8.2271701619
 30
0.0
 10
11.2374186317
 20
8.2462519586
 30
0.0
 10
11.2441797517
 20
8.2646673663
 30
0.0
 10
11.2506715058
 20
8.2788394879
 30
0.0
 10
11.2560629019
 20
8.2891553473
 30
0.0
 10
11.2619697227
 20
8.2991503749
 30
0.0
 10
11.2705048193
 20
8.3120042791
 30
0.0
 10
11.2800294976
 20
8.32415061
 30
0.0
 10
11.2904553218
 20
8.3354723554
 30
0.0
 10
11.298708549
 20
8.3435351177
 30
0.0
 10
11.3073768939
 20
8.3511524942
 30
0.0
 10
11.3164415461
 20
8.3583066303
 30
0.0
 10
11.3258817053
 20
8.3649805897
 30
0.0
 10
11.3356752027
 20
8.3711596629
 30
0.0
 10
11.3458003038
 20
8.3768282288
 30
0.0
 10
11.3562336375
 20
8.381972578
 30
0.0
 10
11.3669511298
 20
8.3865812296
 30
0.0
 10
11.381610248
 20
8.3920033927
 30
0.0
 10
11.4005368456
 20
8.397382352
 30
0.0
 10
11.4199887725
 20
8.4008209514
 30
0.0
 10
11.4357905377
 20
8.402404334
 30
0.0
 10
11.4517922954
 20
8.4032043276
 30
0.0
 10
11.4719732308
 20
8.4027112206
 30
0.0
 10
11.4920967204
 20
8.4002407385
 30
0.0
 10
11.5080953478
 20
8.3970958353
 30
0.0
 10
11.5240536163
 20
8.3931573062
 30
0.0
 10
11.5437294201
 20
8.3867838729
 30
0.0
 10
11.5627834796
 20
8.3785655584
 30
0.0
 10
11.5775847625
 20
8.370921901
 30
0.0
 10
11.592087324
 20
8.362560076
 30
0.0
 10
11.6095157939
 20
8.3508374663
 30
0.0
 10
11.6258200548
 20
8.337550333
 30
0.0
 10
11.6381119493
 20
8.3260492921
 30
0.0
 10
11.6498710944
 20
8.3139938071
 30
0.0
 10
11.6607909678
 20
8.3011501583
 30
0.0
 10
11.6707825972
 20
8.2876165268
 30
0.0
 10
11.6777943683
 20
8.2771499594
 30
0.0
 10
11.6843069524
 20
8.2663908689
 30
0.0
 10
11.690304832
 20
8.2553656833
 30
0.0
 10
11.695774602
 20
8.2441023475
 30
0.0
 10
11.7007019196
 20
8.2326283111
 30
0.0
 10
11.7050755732
 20
8.22097196
 30
0.0
 10
11.7101462169
 20
8.2052600304
 30
0.0
 10
11.7140865495
 20
8.1892639373
 30
0.0
 10
11.7168558983
 20
8.1731123838
 30
0.0
 10
11.7188283056
 20
8.156982127
 30
0.0
 10
11.7194294761
 20
8.1448140546
 30
0.0
 10
11.7194296235
 20
8.1367283434
 30
0.0
  0
SPLINE
  5
2ED
100
AcDbEntity
  8
0
100
AcDbSpline
 62
7
  6
CONTINUOUS
 70
0
 71
3
 72
56
 73
52
 74
0
 42
0.0000001
 43
0.0000001
 44
0.0000000001
 40
0.0
 40
0.0
 40
0.0
 40
0.0
 40
0.031072346
 40
0.0465152317
 40
0.0618873124
 40
0.0924244558
 40
0.1227285839
 40
0.1378086476
 40
0.152843805
 40
0.1678401144
 40
0.1828038429
 40
0.2126503375
 40
0.2275575076
 40
0.2424602021
 40
0.2573657768
 40
0.2722815596
 40
0.2872148075
 40
0.3021724288
 40
0.3171611944
 40
0.3321875086
 40
0.3472571497
 40
0.3623756664
 40
0.3927682644
 40
0.4234071833
 40
0.4388308412
 40
0.4543232404
 40
0.485507794
 40
0.5169699549
 40
0.5328065592
 40
0.5487076996
 40
0.5806824155
 40
0.6128739827
 40
0.6290441713
 40
0.6452543848
 40
0.6777639099
 40
0.7103643313
 40
0.7266873147
 40
0.7430142246
 40
0.7756456102
 40
0.791945892
 40
0.80822475
 40
0.8244760382
 40
0.8406940716
 40
0.8568734333
 40
0.8730088969
 40
0.8890954876
 40
0.905128265
 40
0.9370074718
 40
0.9528594107
 40
0.9686481654
 40
1.0
 40
1.0
 40
1.0
 40
1.0
 10
12.5047273339
 20
8.0822678631
 30
0.0
 10
12.5047271992
 20
8.0742542326
 30
0.0
 10
12.5041390832
 20
8.0622464923
 30
0.0
 10
12.502169608
 20
8.0464027095
 30
0.0
 10
12.4994308104
 20
8.0308125587
 30
0.0
 10
12.4945694861
 20
8.0117307624
 30
0.0
 10
12.4878083662
 20
7.9933153556
 30
0.0
 10
12.4813166124
 20
7.9791432348
 30
0.0
 10
12.4759252166
 20
7.968827376
 30
0.0
 10
12.4700183962
 20
7.958832349
 30
0.0
 10
12.4614833
 20
7.9459784455
 30
0.0
 10
12.4519586224
 20
7.933832115
 30
0.0
 10
12.4415327985
 20
7.92251037
 30
0.0
 10
12.4332795715
 20
7.9144476076
 30
0.0
 10
12.4246112267
 20
7.9068302308
 30
0.0
 10
12.415546574
 20
7.8996760944
 30
0.0
 10
12.4061064143
 20
7.8930021345
 30
0.0
 10
12.3963129162
 20
7.8868230608
 30
0.0
 10
12.3861878144
 20
7.8811544945
 30
0.0
 10
12.3757544801
 20
7.8760101451
 30
0.0
 10
12.3650369874
 20
7.8714014933
 30
0.0
 10
12.350377869
 20
7.8659793302
 30
0.0
 10
12.3314512713
 20
7.8606003712
 30
0.0
 10
12.3119993445
 20
7.8571617719
 30
0.0
 10
12.2961975796
 20
7.8555783894
 30
0.0
 10
12.2801958222
 20
7.8547783958
 30
0.0
 10
12.2600148872
 20
7.855271503
 30
0.0
 10
12.2398913979
 20
7.8577419851
 30
0.0
 10
12.2238927707
 20
7.8608868883
 30
0.0
 10
12.2079345022
 20
7.8648254174
 30
0.0
 10
12.1882586984
 20
7.8711988507
 30
0.0
 10
12.1692046388
 20
7.8794171652
 30
0.0
 10
12.1544033558
 20
7.8870608226
 30
0.0
 10
12.1399007944
 20
7.8954226477
 30
0.0
 10
12.1224723244
 20
7.9071452574
 30
0.0
 10
12.1061680635
 20
7.9204323908
 30
0.0
 10
12.093876169
 20
7.9319334317
 30
0.0
 10
12.082117024
 20
7.9439889167
 30
0.0
 10
12.0711971506
 20
7.9568325655
 30
0.0
 10
12.0612055213
 20
7.9703661969
 30
0.0
 10
12.0541937501
 20
7.9808327643
 30
0.0
 10
12.0476811661
 20
7.9915918547
 30
0.0
 10
12.0416832865
 20
8.0026170404
 30
0.0
 10
12.0362135165
 20
8.0138803761
 30
0.0
 10
12.031286199
 20
8.0253544125
 30
0.0
 10
12.0269125454
 20
8.0370107635
 30
0.0
 10
12.0218419017
 20
8.0527226931
 30
0.0
 10
12.0179015691
 20
8.0687187862
 30
0.0
 10
12.0151322203
 20
8.0848703396
 30
0.0
 10
12.013159813
 20
8.1010005965
 30
0.0
 10
12.0125586425
 20
8.1131686689
 30
0.0
 10
12.0125584951
 20
8.1212543801
 30
0.0
  0
SPLINE
  5
2EE
100
AcDbEntity
  8
0
100
AcDbSpline
 62
7
  6
CONTINUOUS
 70
0
 71
3
 72
56
 73
52
 74
0
 42
0.0000001
 43
0.0000001
 44
0.0000000001
 40
0.0
 40
0.0
 40
0.0
 40
0.0
 40
0.0310723444
 40
0.0465152282
 40
0.0618873079
 40
0.0924244521
 40
0.1227285817
 40
0.1378086463
 40
0.1528438045
 40
0.1678401149
 40
0.1828038444
 40
0.2126503405
 40
0.227557511
 40
0.2424602055
 40
0.2573657799
 40
0.272281562
 40
0.2872148089
 40
0.3021724291
 40
0.3171611937
 40
0.3321875071
 40
0.3472571476
 40
0.362375664
 40
0.3927682619
 40
0.4234071812
 40
0.4388308394
 40
0.454323239
 40
0.4855077933
 40
0.5169699546
 40
0.532806559
 40
0.5487076994
 40
0.5806824153
 40
0.6128739824
 40
0.6290441709
 40
0.6452543843
 40
0.6777639093
 40
0.7103643307
 40
0.7266873141
 40
0.7430142241
 40
0.7756456098
 40
0.7919458916
 40
0.8082247496
 40
0.8244760379
 40
0.8406940714
 40
0.8568734332
 40
0.8730088968
 40
0.8890954876
 40
0.905128265
 40
0.9370074719
 40
0.9528594107
 40
0.9686481654
 40
1.0
 40
1.0
 40
1.0
 40
1.0
 10
12.012558493
 20
8.1212542795
 30
0.0
 10
12.0125586276
 20
8.1292679096
 30
0.0
 10
12.0131467433
 20
8.1412756489
 30
0.0
 10
12.0151162186
 20
8.1571194306
 30
0.0
 10
12.017855016
 20
8.1727095808
 30
0.0
 10
12.02271634
 20
8.1917913775
 30
0.0
 10
12.02947746
 20
8.2102067852
 30
0.0
 10
12.0359692141
 20
8.2243789068
 30
0.0
 10
12.0413606102
 20
8.2346947663
 30
0.0
 10
12.047267431
 20
8.2446897938
 30
0.0
 10
12.0558025276
 20
8.2575436981
 30
0.0
 10
12.0653272059
 20
8.2696900289
 30
0.0
 10
12.0757530301
 20
8.2810117744
 30
0.0
 10
12.0840062573
 20
8.2890745366
 30
0.0
 10
12.0926746022
 20
8.2966919132
 30
0.0
 10
12.1017392544
 20
8.3038460492
 30
0.0
 10
12.1111794136
 20
8.3105200087
 30
0.0
 10
12.120972911
 20
8.3166990819
 30
0.0
 10
12.1310980121
 20
8.3223676477
 30
0.0
 10
12.1415313458
 20
8.3275119969
 30
0.0
 10
12.1522488381
 20
8.3321206486
 30
0.0
 10
12.1669079563
 20
8.3375428116
 30
0.0
 10
12.1858345539
 20
8.342921771
 30
0.0
 10
12.2052864808
 20
8.3463603704
 30
0.0
 10
12.221088246
 20
8.347943753
 30
0.0
 10
12.2370900037
 20
8.3487437466
 30
0.0
 10
12.2572709391
 20
8.3482506396
 30
0.0
 10
12.2773944287
 20
8.3457801575
 30
0.0
 10
12.2933930561
 20
8.3426352542
 30
0.0
 10
12.3093513246
 20
8.3386967251
 30
0.0
 10
12.3290271284
 20
8.3323232918
 30
0.0
 10
12.3480811879
 20
8.3241049774
 30
0.0
 10
12.3628824708
 20
8.31646132
 30
0.0
 10
12.3773850323
 20
8.308099495
 30
0.0
 10
12.3948135022
 20
8.2963768852
 30
0.0
 10
12.4111177631
 20
8.283089752
 30
0.0
 10
12.4234096576
 20
8.2715887111
 30
0.0
 10
12.4351688027
 20
8.2595332261
 30
0.0
 10
12.4460886761
 20
8.2466895772
 30
0.0
 10
12.4560803055
 20
8.2331559458
 30
0.0
 10
12.4630920766
 20
8.2226893784
 30
0.0
 10
12.4696046607
 20
8.2119302879
 30
0.0
 10
12.4756025403
 20
8.2009051022
 30
0.0
 10
12.4810723103
 20
8.1896417664
 30
0.0
 10
12.4859996279
 20
8.1781677301
 30
0.0
 10
12.4903732815
 20
8.166511379
 30
0.0
 10
12.4954439252
 20
8.1507994493
 30
0.0
 10
12.4993842578
 20
8.1348033563
 30
0.0
 10
12.5021536066
 20
8.1186518028
 30
0.0
 10
12.5041260139
 20
8.1025215459
 30
0.0
 10
12.5047271844
 20
8.0903534736
 30
0.0
 10
12.5047273318
 20
8.0822677623
 30
0.0
  0
SPLINE
  5
2EF
100
AcDbEntity
  8
0
100
AcDbSpline
 62
7
  6
CONTINUOUS
 70
0
 71
3
 72
56
 73
52
 74
0
 42
0.0000001
 43
0.0000001
 44
0.0000000001
 40
0.0
 40
0.0
 40
0.0
 40
0.0
 40
0.031072346
 40
0.0465152317
 40
0.0618873124
 40
0.0924244558
 40
0.1227285839
 40
0.1378086476
 40
0.152843805
 40
0.1678401144
 40
0.1828038429
 40
0.2126503375
 40
0.2275575076
 40
0.2424602021
 40
0.2573657768
 40
0.2722815596
 40
0.2872148075
 40
0.3021724288
 40
0.3171611944
 40
0.3321875086
 40
0.3472571497
 40
0.3623756664
 40
0.3927682644
 40
0.4234071833
 40
0.4388308412
 40
0.4543232404
 40
0.485507794
 40
0.5169699549
 40
0.5328065592
 40
0.5487076996
 40
0.5806824155
 40
0.6128739827
 40
0.6290441713
 40
0.6452543848
 40
0.6777639099
 40
0.7103643313
 40
0.7266873147
 40
0.7430142246
 40
0.7756456102
 40
0.791945892
 40
0.80822475
 40
0.8244760382
 40
0.8406940716
 40
0.8568734333
 40
0.8730088969
 40
0.8890954876
 40
0.905128265
 40
0.9370074718
 40
0.9528594107
 40
0.9686481654
 40
1.0
 40
1.0
 40
1.0
 40
1.0
 10
13.0176340531
 20
8.4688073074
 30
0.0
 10
13.0176339185
 20
8.4607936769
 30
0.0
 10
13.0170458024
 20
8.4487859366
 30
0.0
 10
13.0150763272
 20
8.4329421538
 30
0.0
 10
13.0123375296
 20
8.417352003
 30
0.0
 10
13.0074762054
 20
8.3982702067
 30
0.0
 10
13.0007150854
 20
8.3798547999
 30
0.0
 10
12.9942233317
 20
8.3656826791
 30
0.0
 10
12.9888319358
 20
8.3553668203
 30
0.0
 10
12.9829251154
 20
8.3453717933
 30
0.0
 10
12.9743900193
 20
8.3325178898
 30
0.0
 10
12.9648653417
 20
8.3203715593
 30
0.0
 10
12.9544395177
 20
8.3090498143
 30
0.0
 10
12.9461862908
 20
8.3009870519
 30
0.0
 10
12.9375179459
 20
8.2933696751
 30
0.0
 10
12.9284532932
 20
8.2862155388
 30
0.0
 10
12.9190131335
 20
8.2795415788
 30
0.0
 10
12.9092196354
 20
8.2733625051
 30
0.0
 10
12.8990945336
 20
8.2676939388
 30
0.0
 10
12.8886611994
 20
8.2625495894
 30
0.0
 10
12.8779437066
 20
8.2579409377
 30
0.0
 10
12.8632845882
 20
8.2525187745
 30
0.0
 10
12.8443579905
 20
8.2471398155
 30
0.0
 10
12.8249060637
 20
8.2437012162
 30
0.0
 10
12.8091042988
 20
8.2421178337
 30
0.0
 10
12.7931025414
 20
8.2413178401
 30
0.0
 10
12.7729216065
 20
8.2418109473
 30
0.0
 10
12.7527981171
 20
8.2442814294
 30
0.0
 10
12.7367994899
 20
8.2474263326
 30
0.0
 10
12.7208412214
 20
8.2513648617
 30
0.0
 10
12.7011654176
 20
8.257738295
 30
0.0
 10
12.682111358
 20
8.2659566095
 30
0.0
 10
12.6673100751
 20
8.2736002669
 30
0.0
 10
12.6528075136
 20
8.281962092
 30
0.0
 10
12.6353790436
 20
8.2936847018
 30
0.0
 10
12.6190747827
 20
8.3069718351
 30
0.0
 10
12.6067828882
 20
8.318472876
 30
0.0
 10
12.5950237432
 20
8.330528361
 30
0.0
 10
12.5841038698
 20
8.3433720098
 30
0.0
 10
12.5741122405
 20
8.3569056413
 30
0.0
 10
12.5671004694
 20
8.3673722086
 30
0.0
 10
12.5605878854
 20
8.378131299
 30
0.0
 10
12.5545900058
 20
8.3891564847
 30
0.0
 10
12.5491202358
 20
8.4004198204
 30
0.0
 10
12.5441929182
 20
8.4118938568
 30
0.0
 10
12.5398192646
 20
8.4235502078
 30
0.0
 10
12.534748621
 20
8.4392621374
 30
0.0
 10
12.5308082884
 20
8.4552582305
 30
0.0
 10
12.5280389396
 20
8.471409784
 30
0.0
 10
12.5260665322
 20
8.4875400408
 30
0.0
 10
12.5254653617
 20
8.4997081132
 30
0.0
 10
12.5254652143
 20
8.5077938244
 30
0.0
  0
SPLINE
  5
2F0
100
AcDbEntity
  8
0
100
AcDbSpline
 62
7
  6
CONTINUOUS
 70
0
 71
3
 72
56
 73
52
 74
0
 42
0.0000001
 43
0.0000001
 44
0.0000000001
 40
0.0
 40
0.0
 40
0.0
 40
0.0
 40
0.0310723444
 40
0.0465152282
 40
0.0618873079
 40
0.0924244521
 40
0.1227285817
 40
0.1378086463
 40
0.1528438045
 40
0.1678401149
 40
0.1828038444
 40
0.2126503405
 40
0.227557511
 40
0.2424602055
 40
0.2573657799
 40
0.272281562
 40
0.2872148089
 40
0.3021724291
 40
0.3171611937
 40
0.3321875071
 40
0.3472571476
 40
0.362375664
 40
0.3927682619
 40
0.4234071812
 40
0.4388308394
 40
0.454323239
 40
0.4855077933
 40
0.5169699546
 40
0.532806559
 40
0.5487076994
 40
0.5806824153
 40
0.6128739824
 40
0.6290441709
 40
0.6452543843
 40
0.6777639093
 40
0.7103643307
 40
0.7266873141
 40
0.7430142241
 40
0.7756456098
 40
0.7919458916
 40
0.8082247496
 40
0.8244760379
 40
0.8406940714
 40
0.8568734332
 40
0.8730088968
 40
0.8890954876
 40
0.905128265
 40
0.9370074719
 40
0.9528594107
 40
0.9686481654
 40
1.0
 40
1.0
 40
1.0
 40
1.0
 10
12.5254652122
 20
8.5077937238
 30
0.0
 10
12.5254653469
 20
8.5158073539
 30
0.0
 10
12.5260534625
 20
8.5278150932
 30
0.0
 10
12.5280229378
 20
8.5436588749
 30
0.0
 10
12.5307617353
 20
8.5592490251
 30
0.0
 10
12.5356230592
 20
8.5783308219
 30
0.0
 10
12.5423841792
 20
8.5967462295
 30
0.0
 10
12.5488759333
 20
8.6109183512
 30
0.0
 10
12.5542673294
 20
8.6212342106
 30
0.0
 10
12.5601741502
 20
8.6312292381
 30
0.0
 10
12.5687092468
 20
8.6440831424
 30
0.0
 10
12.5782339251
 20
8.6562294733
 30
0.0
 10
12.5886597494
 20
8.6675512187
 30
0.0
 10
12.5969129765
 20
8.6756139809
 30
0.0
 10
12.6055813214
 20
8.6832313575
 30
0.0
 10
12.6146459737
 20
8.6903854935
 30
0.0
 10
12.6240861328
 20
8.697059453
 30
0.0
 10
12.6338796303
 20
8.7032385262
 30
0.0
 10
12.6440047314
 20
8.708907092
 30
0.0
 10
12.654438065
 20
8.7140514413
 30
0.0
 10
12.6651555573
 20
8.7186600929
 30
0.0
 10
12.6798146755
 20
8.7240822559
 30
0.0
 10
12.6987412731
 20
8.7294612153
 30
0.0
 10
12.7181932
 20
8.7328998147
 30
0.0
 10
12.7339949652
 20
8.7344831973
 30
0.0
 10
12.749996723
 20
8.7352831909
 30
0.0
 10
12.7701776583
 20
8.7347900839
 30
0.0
 10
12.790301148
 20
8.7323196018
 30
0.0
 10
12.8062997753
 20
8.7291746985
 30
0.0
 10
12.8222580438
 20
8.7252361694
 30
0.0
 10
12.8419338476
 20
8.7188627361
 30
0.0
 10
12.8609879071
 20
8.7106444217
 30
0.0
 10
12.8757891901
 20
8.7030007643
 30
0.0
 10
12.8902917515
 20
8.6946389393
 30
0.0
 10
12.9077202214
 20
8.6829163296
 30
0.0
 10
12.9240244823
 20
8.6696291963
 30
0.0
 10
12.9363163768
 20
8.6581281554
 30
0.0
 10
12.9480755219
 20
8.6460726704
 30
0.0
 10
12.9589953953
 20
8.6332290216
 30
0.0
 10
12.9689870247
 20
8.6196953901
 30
0.0
 10
12.9759987959
 20
8.6092288227
 30
0.0
 10
12.9825113799
 20
8.5984697322
 30
0.0
 10
12.9885092595
 20
8.5874445465
 30
0.0
 10
12.9939790295
 20
8.5761812107
 30
0.0
 10
12.9989063471
 20
8.5647071744
 30
0.0
 10
13.0032800007
 20
8.5530508233
 30
0.0
 10
13.0083506444
 20
8.5373388936
 30
0.0
 10
13.012290977
 20
8.5213428006
 30
0.0
 10
13.0150603258
 20
8.5051912471
 30
0.0
 10
13.0170327331
 20
8.4890609903
 30
0.0
 10
13.0176339037
 20
8.4768929179
 30
0.0
 10
13.0176340511
 20
8.4688072067
 30
0.0
  0
SPLINE
  5
2F1
100
AcDbEntity
  8
0
100
AcDbSpline
 62
7
  6
CONTINUOUS
 70
0
 71
3
 72
18
 73
14
 74
0
 42
0.0000001
 43
0.0000001
 44
0.0000000001
 40
0.0
 40
0.0
 40
0.0
 40
0.0
 40
0.1504675778
 40
0.2917143634
 40
0.4244426495
 40
0.4879099663
 40
0.5496093894
 40
0.6682625047
 40
0.7817882978
 40
0.8371380147
 40
0.8918078593
 40
0.9460192908
 40
1.0
 40
1.0
 40
1.0
 40
1.0
 10
13.6182532555
 20
8.9054630603
 30
0.0
 10
13.6196441844
 20
8.9068065946
 30
0.0
 10
13.6224241666
 20
8.9093274606
 30
0.0
 10
13.6267286667
 20
8.9126868345
 30
0.0
 10
13.6303645625
 20
8.9150627545
 30
0.0
 10
13.6332638585
 20
8.916671658
 30
0.0
 10
13.6360778615
 20
8.9180529426
 30
0.0
 10
13.6395962569
 20
8.9194486845
 30
0.0
 10
13.6431772391
 20
8.9204011535
 30
0.0
 10
13.6460134861
 20
8.9208703405
 30
0.0
 10
13.6481155343
 20
8.9210785889
 30
0.0
 10
13.6502090809
 20
8.9211458299
 30
0.0
 10
13.6515999805
 20
8.9210966194
 30
0.0
 10
13.6522920919
 20
8.9210486183
 30
0.0
  0
SPLINE
  5
2F2
100
AcDbEntity
  8
0
100
AcDbSpline
 62
7
  6
CONTINUOUS
 70
0
 71
3
 72
17
 73
13
 74
0
 42
0.0000001
 43
0.0000001
 44
0.0000000001
 40
0.0
 40
0.0
 40
0.0
 40
0.0
 40
0.1504734045
 40
0.2917303627
 40
0.4244677363
 40
0.4879386768
 40
0.549641363
 40
0.6683009281
 40
0.7818340625
 40
0.8918017795
 40
0.9460163297
 40
1.0
 40
1.0
 40
1.0
 40
1.0
 10
13.8253083237
 20
9.2928525545
 30
0.0
 10
13.8262581882
 20
9.2937700532
 30
0.0
 10
13.8281566742
 20
9.2954915691
 30
0.0
 10
13.8310962555
 20
9.2977857559
 30
0.0
 10
13.8335792688
 20
9.299408325
 30
0.0
 10
13.8355592421
 20
9.3005070861
 30
0.0
 10
13.8374809034
 20
9.301450408
 30
0.0
 10
13.8398839312
 20
9.3024035592
 30
0.0
 10
13.8427928389
 20
9.3031776702
 30
0.0
 10
13.8452163826
 20
9.30350124
 30
0.0
 10
13.8471312698
 20
9.3035627391
 30
0.0
 10
13.8480811653
 20
9.3035291634
 30
0.0
 10
13.8485538157
 20
9.3034963889
 30
0.0
  0
SPLINE
  5
2F3
100
AcDbEntity
  8
0
100
AcDbSpline
 62
7
  6
CONTINUOUS
 70
0
 71
3
 72
41
 73
37
 74
0
 42
0.0000001
 43
0.0000001
 44
0.0000000001
 40
0.0
 40
0.0
 40
0.0
 40
0.0
 40
0.0311443777
 40
0.0624425595
 40
0.0938872477
 40
0.1254696093
 40
0.1571771289
 40
0.1889951561
 40
0.2209067114
 40
0.2528930218
 40
0.2849338418
 40
0.3170078727
 40
0.349093173
 40
0.3811675842
 40
0.4132091572
 40
0.4451965775
 40
0.4771095803
 40
0.5089293526
 40
0.5406389143
 40
0.5722234721
 40
0.6036707398
 40
0.6349712184
 40
0.6661184287
 40
0.6971090895
 40
0.7279432343
 40
0.7586242609
 40
0.7891589086
 40
0.8195571576
 40
0.8498320512
 40
0.8649308888
 40
0.8800050477
 40
0.9100832517
 40
0.9400926686
 40
0.9550812681
 40
0.9700610312
 40
1.0
 40
1.0
 40
1.0
 40
1.0
 10
10.8360743444
 20
9.2673941168
 30
0.0
 10
10.8393882983
 20
9.2671642933
 30
0.0
 10
10.8460182132
 20
9.2664609268
 30
0.0
 10
10.8558826886
 20
9.2646891937
 30
0.0
 10
10.86564153
 20
9.2622074438
 30
0.0
 10
10.8752419716
 20
9.2590291452
 30
0.0
 10
10.8846330567
 20
9.2551712495
 30
0.0
 10
10.8937646761
 20
9.2506544373
 30
0.0
 10
10.9025881867
 20
9.2455028271
 30
0.0
 10
10.9110565717
 20
9.2397439331
 30
0.0
 10
10.919124711
 20
9.2334084817
 30
0.0
 10
10.9267496144
 20
9.2265302632
 30
0.0
 10
10.9338906481
 20
9.2191459486
 30
0.0
 10
10.9405097494
 20
9.2112948968
 30
0.0
 10
10.9465716277
 20
9.2030189469
 30
0.0
 10
10.9520439504
 20
9.1943621975
 30
0.0
 10
10.9568975142
 20
9.1853707746
 30
0.0
 10
10.961106401
 20
9.1760925886
 30
0.0
 10
10.9646481154
 20
9.1665770826
 30
0.0
 10
10.9675037038
 20
9.1568749708
 30
0.0
 10
10.9696578565
 20
9.1470379729
 30
0.0
 10
10.9710989909
 20
9.1371185418
 30
0.0
 10
10.9718193153
 20
9.1271695868
 30
0.0
 10
10.9718148752
 20
9.1172441981
 30
0.0
 10
10.9710855742
 20
9.1073953561
 30
0.0
 10
10.9696351976
 20
9.0976756892
 30
0.0
 10
10.9674713315
 20
9.0881370503
 30
0.0
 10
10.9646055786
 20
9.0788307731
 30
0.0
 10
10.9616419443
 20
9.0713025344
 30
0.0
 10
10.9589374283
 20
9.0654481907
 30
0.0
 10
10.9560188115
 20
9.059721107
 30
0.0
 10
10.9519664107
 20
9.0527939386
 30
0.0
 10
10.9473928523
 20
9.0462102712
 30
0.0
 10
10.9434405884
 20
9.0411779144
 30
0.0
 10
10.9392998438
 20
9.0363097743
 30
0.0
 10
10.9359823425
 20
9.0328441145
 30
0.0
 10
10.9336855071
 20
9.0306255602
 30
0.0
  0
SPLINE
  5
2F4
100
AcDbEntity
  8
0
100
AcDbSpline
 62
7
  6
CONTINUOUS
 70
0
 71
3
 72
41
 73
37
 74
0
 42
0.0000001
 43
0.0000001
 44
0.0000000001
 40
0.0
 40
0.0
 40
0.0
 40
0.0
 40
0.0311443777
 40
0.0624425595
 40
0.0938872477
 40
0.1254696093
 40
0.1571771289
 40
0.1889951561
 40
0.2209067114
 40
0.2528930218
 40
0.2849338418
 40
0.3170078727
 40
0.349093173
 40
0.3811675842
 40
0.4132091572
 40
0.4451965775
 40
0.4771095803
 40
0.5089293526
 40
0.5406389143
 40
0.5722234721
 40
0.6036707398
 40
0.6349712184
 40
0.6661184287
 40
0.6971090895
 40
0.7279432343
 40
0.7586242609
 40
0.7891589086
 40
0.8195571576
 40
0.8498320512
 40
0.8649308888
 40
0.8800050477
 40
0.9100832517
 40
0.9400926686
 40
0.9550812681
 40
0.9700610312
 40
1.0
 40
1.0
 40
1.0
 40
1.0
 10
10.8360743444
 20
7.5171365248
 30
0.0
 10
10.8393882983
 20
7.5169067013
 30
0.0
 10
10.8460182132
 20
7.5162033348
 30
0.0
 10
10.8558826886
 20
7.5144316017
 30
0.0
 10
10.86564153
 20
7.5119498518
 30
0.0
 10
10.8752419716
 20
7.5087715532
 30
0.0
 10
10.8846330567
 20
7.5049136575
 30
0.0
 10
10.8937646761
 20
7.5003968453
 30
0.0
 10
10.9025881867
 20
7.4952452351
 30
0.0
 10
10.9110565717
 20
7.4894863411
 30
0.0
 10
10.919124711
 20
7.4831508896
 30
0.0
 10
10.9267496144
 20
7.4762726712
 30
0.0
 10
10.9338906481
 20
7.4688883566
 30
0.0
 10
10.9405097494
 20
7.4610373048
 30
0.0
 10
10.9465716277
 20
7.4527613549
 30
0.0
 10
10.9520439504
 20
7.4441046055
 30
0.0
 10
10.9568975142
 20
7.4351131826
 30
0.0
 10
10.961106401
 20
7.4258349966
 30
0.0
 10
10.9646481154
 20
7.4163194905
 30
0.0
 10
10.9675037038
 20
7.4066173788
 30
0.0
 10
10.9696578565
 20
7.3967803809
 30
0.0
 10
10.9710989909
 20
7.3868609497
 30
0.0
 10
10.9718193153
 20
7.3769119947
 30
0.0
 10
10.9718148752
 20
7.3669866061
 30
0.0
 10
10.9710855742
 20
7.3571377641
 30
0.0
 10
10.9696351976
 20
7.3474180972
 30
0.0
 10
10.9674713315
 20
7.3378794582
 30
0.0
 10
10.9646055786
 20
7.3285731811
 30
0.0
 10
10.9616419443
 20
7.3210449424
 30
0.0
 10
10.9589374283
 20
7.3151905987
 30
0.0
 10
10.9560188115
 20
7.309463515
 30
0.0
 10
10.9519664107
 20
7.3025363466
 30
0.0
 10
10.9473928523
 20
7.2959526792
 30
0.0
 10
10.9434405884
 20
7.2909203224
 30
0.0
 10
10.9392998438
 20
7.2860521822
 30
0.0
 10
10.9359823425
 20
7.2825865225
 30
0.0
 10
10.9336855071
 20
7.2803679682
 30
0.0
  0
SPLINE
  5
2F5
100
AcDbEntity
  8
0
100
AcDbSpline
 62
7
  6
CONTINUOUS
 70
0
 71
3
 72
41
 73
37
 74
0
 42
0.0000001
 43
0.0000001
 44
0.0000000001
 40
0.0
 40
0.0
 40
0.0
 40
0.0
 40
0.0311443777
 40
0.0624425595
 40
0.0938872477
 40
0.1254696093
 40
0.1571771289
 40
0.1889951561
 40
0.2209067114
 40
0.2528930218
 40
0.2849338418
 40
0.3170078727
 40
0.349093173
 40
0.3811675842
 40
0.4132091572
 40
0.4451965775
 40
0.4771095803
 40
0.5089293526
 40
0.5406389143
 40
0.5722234721
 40
0.6036707398
 40
0.6349712184
 40
0.6661184287
 40
0.6971090895
 40
0.7279432343
 40
0.7586242609
 40
0.7891589086
 40
0.8195571576
 40
0.8498320512
 40
0.8649308888
 40
0.8800050477
 40
0.9100832517
 40
0.9400926686
 40
0.9550812681
 40
0.9700610312
 40
1.0
 40
1.0
 40
1.0
 40
1.0
 10
12.8886668757
 20
7.3747887493
 30
0.0
 10
12.8919808296
 20
7.3745589258
 30
0.0
 10
12.8986107445
 20
7.3738555593
 30
0.0
 10
12.9084752199
 20
7.3720838262
 30
0.0
 10
12.9182340613
 20
7.3696020763
 30
0.0
 10
12.9278345029
 20
7.3664237777
 30
0.0
 10
12.937225588
 20
7.362565882
 30
0.0
 10
12.9463572074
 20
7.3580490698
 30
0.0
 10
12.9551807179
 20
7.3528974596
 30
0.0
 10
12.9636491029
 20
7.3471385656
 30
0.0
 10
12.9717172423
 20
7.3408031141
 30
0.0
 10
12.9793421457
 20
7.3339248957
 30
0.0
 10
12.9864831793
 20
7.3265405811
 30
0.0
 10
12.9931022807
 20
7.3186895293
 30
0.0
 10
12.999164159
 20
7.3104135793
 30
0.0
 10
13.0046364817
 20
7.30175683
 30
0.0
 10
13.0094900455
 20
7.292765407
 30
0.0
 10
13.0136989323
 20
7.2834872211
 30
0.0
 10
13.0172406467
 20
7.273971715
 30
0.0
 10
13.0200962351
 20
7.2642696033
 30
0.0
 10
13.0222503878
 20
7.2544326054
 30
0.0
 10
13.0236915222
 20
7.2445131742
 30
0.0
 10
13.0244118465
 20
7.2345642192
 30
0.0
 10
13.0244074065
 20
7.2246388306
 30
0.0
 10
13.0236781054
 20
7.2147899886
 30
0.0
 10
13.0222277289
 20
7.2050703217
 30
0.0
 10
13.0200638628
 20
7.1955316827
 30
0.0
 10
13.0171981099
 20
7.1862254056
 30
0.0
 10
13.0142344756
 20
7.1786971669
 30
0.0
 10
13.0115299596
 20
7.1728428232
 30
0.0
 10
13.0086113427
 20
7.1671157395
 30
0.0
 10
13.004558942
 20
7.1601885711
 30
0.0
 10
12.9999853835
 20
7.1536049037
 30
0.0
 10
12.9960331197
 20
7.1485725469
 30
0.0
 10
12.9918923751
 20
7.1437044067
 30
0.0
 10
12.9885748738
 20
7.140238747
 30
0.0
 10
12.9862780384
 20
7.1380201927
 30
0.0
  0
SPLINE
  5
2F6
100
AcDbEntity
  8
0
100
AcDbSpline
 62
7
  6
CONTINUOUS
 70
0
 71
3
 72
41
 73
37
 74
0
 42
0.0000001
 43
0.0000001
 44
0.0000000001
 40
0.0
 40
0.0
 40
0.0
 40
0.0
 40
0.0311443777
 40
0.0624425595
 40
0.0938872477
 40
0.1254696093
 40
0.1571771289
 40
0.1889951561
 40
0.2209067114
 40
0.2528930218
 40
0.2849338418
 40
0.3170078727
 40
0.349093173
 40
0.3811675842
 40
0.4132091572
 40
0.4451965775
 40
0.4771095803
 40
0.5089293526
 40
0.5406389143
 40
0.5722234721
 40
0.6036707398
 40
0.6349712184
 40
0.6661184287
 40
0.6971090895
 40
0.7279432343
 40
0.7586242609
 40
0.7891589086
 40
0.8195571576
 40
0.8498320512
 40
0.8649308888
 40
0.8800050477
 40
0.9100832517
 40
0.9400926686
 40
0.9550812681
 40
0.9700610312
 40
1.0
 40
1.0
 40
1.0
 40
1.0
 10
12.8886668757
 20
9.1250463413
 30
0.0
 10
12.8919808296
 20
9.1248165178
 30
0.0
 10
12.8986107445
 20
9.1241131513
 30
0.0
 10
12.9084752199
 20
9.1223414182
 30
0.0
 10
12.9182340613
 20
9.1198596683
 30
0.0
 10
12.9278345029
 20
9.1166813697
 30
0.0
 10
12.937225588
 20
9.112823474
 30
0.0
 10
12.9463572074
 20
9.1083066618
 30
0.0
 10
12.9551807179
 20
9.1031550516
 30
0.0
 10
12.9636491029
 20
9.0973961576
 30
0.0
 10
12.9717172423
 20
9.0910607061
 30
0.0
 10
12.9793421457
 20
9.0841824877
 30
0.0
 10
12.9864831793
 20
9.0767981731
 30
0.0
 10
12.9931022807
 20
9.0689471213
 30
0.0
 10
12.999164159
 20
9.0606711714
 30
0.0
 10
13.0046364817
 20
9.052014422
 30
0.0
 10
13.0094900455
 20
9.0430229991
 30
0.0
 10
13.0136989323
 20
9.0337448131
 30
0.0
 10
13.0172406467
 20
9.024229307
 30
0.0
 10
13.0200962351
 20
9.0145271953
 30
0.0
 10
13.0222503878
 20
9.0046901974
 30
0.0
 10
13.0236915222
 20
8.9947707662
 30
0.0
 10
13.0244118465
 20
8.9848218112
 30
0.0
 10
13.0244074065
 20
8.9748964226
 30
0.0
 10
13.0236781054
 20
8.9650475806
 30
0.0
 10
13.0222277289
 20
8.9553279137
 30
0.0
 10
13.0200638628
 20
8.9457892747
 30
0.0
 10
13.0171981099
 20
8.9364829976
 30
0.0
 10
13.0142344756
 20
8.9289547589
 30
0.0
 10
13.0115299596
 20
8.9231004152
 30
0.0
 10
13.0086113427
 20
8.9173733315
 30
0.0
 10
13.004558942
 20
8.9104461631
 30
0.0
 10
12.9999853835
 20
8.9038624957
 30
0.0
 10
12.9960331197
 20
8.8988301389
 30
0.0
 10
12.9918923751
 20
8.8939619987
 30
0.0
 10
12.9885748738
 20
8.890496339
 30
0.0
 10
12.9862780384
 20
8.8882777847
 30
0.0
  0
SPLINE
  5
2F7
100
AcDbEntity
  8
0
100
AcDbSpline
 62
7
  6
CONTINUOUS
 70
0
 71
3
 72
9
 73
5
 74
0
 42
0.0000001
 43
0.0000001
 44
0.0000000001
 40
0.0
 40
0.0
 40
0.0
 40
0.0
 40
0.5155498904
 40
1.0
 40
1.0
 40
1.0
 40
1.0
 10
13.5873436264
 20
8.7308422137
 30
0.0
 10
13.5882041013
 20
8.7316733686
 30
0.0
 10
13.5899238033
 20
8.7332342615
 30
0.0
 10
13.5917528022
 20
8.7346667788
 30
0.0
 10
13.5926664075
 20
8.7353218319
 30
0.0
  0
SPLINE
  5
2F8
100
AcDbEntity
  8
0
100
AcDbSpline
 62
7
  6
CONTINUOUS
 70
0
 71
3
 72
57
 73
53
 74
0
 42
0.0000001
 43
0.0000001
 44
0.0000000001
 40
0.0
 40
0.0
 40
0.0
 40
0.0
 40
0.0077254214
 40
0.016054774
 40
0.0250066796
 40
0.0345936093
 40
0.0448214027
 40
0.0556907952
 40
0.0671983898
 40
0.079337306
 40
0.0920977054
 40
0.1054670561
 40
0.1194306473
 40
0.1339717028
 40
0.1490715957
 40
0.1647101455
 40
0.180865585
 40
0.1975148318
 40
0.2146335738
 40
0.2321962836
 40
0.2685457815
 40
0.3063408747
 40
0.3453453748
 40
0.3853126983
 40
0.4259881459
 40
0.467111144
 40
0.5084174526
 40
0.5496413326
 40
0.5905177135
 40
0.6307843783
 40
0.670184144
 40
0.7084670667
 40
0.7453927164
 40
0.7807325682
 40
0.7977407751
 40
0.8142735356
 40
0.8303068138
 40
0.8458178589
 40
0.8607852414
 40
0.8751891582
 40
0.8890114162
 40
0.902235687
 40
0.9148477919
 40
0.9268357938
 40
0.9381905269
 40
0.9489059066
 40
0.9589794328
 40
0.9684130736
 40
0.9772139811
 40
0.9853958537
 40
0.9929805472
 40
1.0
 40
1.0
 40
1.0
 40
1.0
 10
13.5873436264
 20
8.7308422137
 30
0.0
 10
13.5861958958
 20
8.7297335909
 30
0.0
 10
13.5839054156
 20
8.7273304671
 30
0.0
 10
13.5806030026
 20
8.7233547389
 30
0.0
 10
13.5773127417
 20
8.7188819716
 30
0.0
 10
13.574040113
 20
8.7139198739
 30
0.0
 10
13.5707902002
 20
8.7084764039
 30
0.0
 10
13.5675685
 20
8.7025605478
 30
0.0
 10
13.5643803895
 20
8.6961822001
 30
0.0
 10
13.5612312794
 20
8.6893520746
 30
0.0
 10
13.5581265921
 20
8.6820816935
 30
0.0
 10
13.5550716064
 20
8.6743834024
 30
0.0
 10
13.5520716053
 20
8.6662702863
 30
0.0
 10
13.5491317522
 20
8.6577561745
 30
0.0
 10
13.546257083
 20
8.6488556076
 30
0.0
 10
13.5434525917
 20
8.6395837914
 30
0.0
 10
13.5407230776
 20
8.6299565929
 30
0.0
 10
13.5380732563
 20
8.6199904963
 30
0.0
 10
13.5355076865
 20
8.6097025554
 30
0.0
 10
13.5321669009
 20
8.5954157394
 30
0.0
 10
13.5282444679
 20
8.5768811571
 30
0.0
 10
13.5239911544
 20
8.5538976471
 30
0.0
 10
13.5201687511
 20
8.5300814952
 30
0.0
 10
13.5168036771
 20
8.5055959364
 30
0.0
 10
13.5139191984
 20
8.480608671
 30
0.0
 10
13.5115352018
 20
8.4552909515
 30
0.0
 10
13.5096680973
 20
8.4298163104
 30
0.0
 10
13.5083306998
 20
8.4043593738
 30
0.0
 10
13.5075321349
 20
8.3790946459
 30
0.0
 10
13.5072777605
 20
8.3541952914
 30
0.0
 10
13.5075691531
 20
8.3298319517
 30
0.0
 10
13.5084040537
 20
8.3061714742
 30
0.0
 10
13.5097764869
 20
8.2833760206
 30
0.0
 10
13.5113795078
 20
8.2650031761
 30
0.0
 10
13.5129350513
 20
8.2508603189
 30
0.0
 10
13.5142142548
 20
8.240700278
 30
0.0
 10
13.5156185935
 20
8.2308690388
 30
0.0
 10
13.5171456447
 20
8.2213834168
 30
0.0
 10
13.5187927923
 20
8.2122596479
 30
0.0
 10
13.5205571443
 20
8.2035133251
 30
0.0
 10
13.5224356601
 20
8.1951593824
 30
0.0
 10
13.5244251037
 20
8.187212062
 30
0.0
 10
13.5265219953
 20
8.1796848751
 30
0.0
 10
13.5287227669
 20
8.1725905915
 30
0.0
 10
13.5310236165
 20
8.1659411858
 30
0.0
 10
13.533420614
 20
8.1597478143
 30
0.0
 10
13.5359097719
 20
8.1540208109
 30
0.0
 10
13.5384869399
 20
8.1487695836
 30
0.0
 10
13.5411479973
 20
8.1440027243
 30
0.0
 10
13.5438890543
 20
8.139727751
 30
0.0
 10
13.5467057573
 20
8.1359518782
 30
0.0
 10
13.5487060788
 20
8.1336874322
 30
0.0
 10
13.5497192005
 20
8.1326502252
 30
0.0
  0
LINE
  5
2F9
100
AcDbEntity
  8
0
100
AcDbLine
 62
7
  6
CONTINUOUS
 10
13.7943986947
 20
9.2066139262
 11
13.7976298576
 21
9.2094268991
  0
SPLINE
  5
2FA
100
AcDbEntity
  8
0
100
AcDbSpline
 62
7
  6
CONTINUOUS
 70
0
 71
3
 72
15
 73
11
 74
0
 42
0.0000001
 43
0.0000001
 44
0.0000000001
 40
0.0
 40
0.0
 40
0.0
 40
0.0
 40
0.0931265102
 40
0.1950781776
 40
0.3061454032
 40
0.4264861045
 40
0.5561342164
 40
0.6950328551
 40
0.843051983
 40
1.0
 40
1.0
 40
1.0
 40
1.0
 10
13.7943986947
 20
9.2066139262
 30
0.0
 10
13.7932880697
 20
9.2055411447
 30
0.0
 10
13.791074252
 20
9.2031758759
 30
0.0
 10
13.7879101334
 20
9.1992012635
 30
0.0
 10
13.7847630004
 20
9.1946528463
 30
0.0
 10
13.781640421
 20
9.1895418568
 30
0.0
 10
13.7785496684
 20
9.1838801973
 30
0.0
 10
13.775498348
 20
9.1776816323
 30
0.0
 10
13.7724940698
 20
9.1709614151
 30
0.0
 10
13.7705825232
 20
9.1662789524
 30
0.0
 10
13.7696334191
 20
9.1638558391
 30
0.0
  0
SPLINE
  5
2FB
100
AcDbEntity
  8
0
100
AcDbSpline
 62
7
  6
CONTINUOUS
 70
0
 71
3
 72
21
 73
17
 74
0
 42
0.0000001
 43
0.0000001
 44
0.0000000001
 40
0.0
 40
0.0
 40
0.0
 40
0.0
 40
0.1624680244
 40
0.314402381
 40
0.3863452643
 40
0.4555727942
 40
0.5220696867
 40
0.5858294784
 40
0.646853422
 40
0.7051524726
 40
0.7607494111
 40
0.8136785919
 40
0.8639906094
 40
0.9117524338
 40
0.9570516667
 40
1.0
 40
1.0
 40
1.0
 40
1.0
 10
13.7431760779
 20
8.7822902773
 30
0.0
 10
13.743858932
 20
8.7794368545
 30
0.0
 10
13.7452692953
 20
8.7739357122
 30
0.0
 10
13.7472556879
 20
8.767245318
 30
0.0
 10
13.7489296974
 20
8.7622234183
 30
0.0
 10
13.7501989777
 20
8.7586941015
 30
0.0
 10
13.7515039344
 20
8.755335852
 30
0.0
 10
13.7528435003
 20
8.7521513352
 30
0.0
 10
13.7542166169
 20
8.749143085
 30
0.0
 10
13.7556222247
 20
8.7463134936
 30
0.0
 10
13.7570591678
 20
8.7436647709
 30
0.0
 10
13.7585264162
 20
8.7411990241
 30
0.0
 10
13.7600227889
 20
8.7389181616
 30
0.0
 10
13.7615472533
 20
8.7368239456
 30
0.0
 10
13.7630986263
 20
8.7349181377
 30
0.0
 10
13.7641779533
 20
8.7337438823
 30
0.0
 10
13.7647220995
 20
8.7331911986
 30
0.0
  0
SPLINE
  5
2FC
100
AcDbEntity
  8
0
100
AcDbSpline
 62
7
  6
CONTINUOUS
 70
0
 71
3
 72
23
 73
19
 74
0
 42
0.0000001
 43
0.0000001
 44
0.0000000001
 40
0.0
 40
0.0
 40
0.0
 40
0.0
 40
0.0631554136
 40
0.1259728336
 40
0.1884350039
 40
0.2505511988
 40
0.3123628086
 40
0.3739425416
 40
0.4353918616
 40
0.4968347067
 40
0.5584085071
 40
0.6202528839
 40
0.682494855
 40
0.7452302973
 40
0.8084986327
 40
0.8722433902
 40
0.9362447697
 40
1.0
 40
1.0
 40
1.0
 40
1.0
 10
11.6531509284
 20
8.1866740388
 30
0.0
 10
11.6478307755
 20
8.1894911261
 30
0.0
 10
11.6369386583
 20
8.1945989584
 30
0.0
 10
11.6199806857
 20
8.2006028261
 30
0.0
 10
11.6026057812
 20
8.2048752534
 30
0.0
 10
11.5849861355
 20
8.2073775177
 30
0.0
 10
11.5672880912
 20
8.2080939014
 30
0.0
 10
11.5496714348
 20
8.2070296762
 30
0.0
 10
11.5322852697
 20
8.2042113457
 30
0.0
 10
11.5152651726
 20
8.1996852305
 30
0.0
 10
11.49873056
 20
8.1935163132
 30
0.0
 10
11.4827824973
 20
8.1857872973
 30
0.0
 10
11.4675022064
 20
8.1765978042
 30
0.0
 10
11.4529502712
 20
8.1660651212
 30
0.0
 10
11.4391666462
 20
8.1543278786
 30
0.0
 10
11.4261723464
 20
8.1415543573
 30
0.0
 10
11.4139752756
 20
8.1279603564
 30
0.0
 10
11.4063240806
 20
8.1184800118
 30
0.0
 10
11.402603372
 20
8.1136750164
 30
0.0
  0
SPLINE
  5
2FD
100
AcDbEntity
  8
0
100
AcDbSpline
 62
7
  6
CONTINUOUS
 70
0
 71
3
 72
15
 73
11
 74
0
 42
0.0000001
 43
0.0000001
 44
0.0000000001
 40
0.0
 40
0.0
 40
0.0
 40
0.0
 40
0.1259757246
 40
0.2516557717
 40
0.3770413385
 40
0.5021367467
 40
0.6269560514
 40
0.7515201293
 40
0.8758568748
 40
1.0
 40
1.0
 40
1.0
 40
1.0
 10
11.402603372
 20
8.1136750164
 30
0.0
 10
11.399407075
 20
8.1095472564
 30
0.0
 10
11.3933487777
 20
8.1010421912
 30
0.0
 10
11.3853266842
 20
8.0876148479
 30
0.0
 10
11.3784295394
 20
8.0736158253
 30
0.0
 10
11.3727031522
 20
8.0591370255
 30
0.0
 10
11.3681846379
 20
8.044272483
 30
0.0
 10
11.3649035681
 20
8.0291185423
 30
0.0
 10
11.3628813666
 20
8.0137751569
 30
0.0
 10
11.3623809777
 20
8.0034761047
 30
0.0
 10
11.3623440448
 20
7.9983315776
 30
0.0
  0
SPLINE
  5
2FE
100
AcDbEntity
  8
0
100
AcDbSpline
 62
7
  6
CONTINUOUS
 70
0
 71
3
 72
37
 73
33
 74
0
 42
0.0000001
 43
0.0000001
 44
0.0000000001
 40
0.0
 40
0.0
 40
0.0
 40
0.0
 40
0.0071625163
 40
0.0146566855
 40
0.0224900841
 40
0.0306688224
 40
0.0391978881
 40
0.0480811142
 40
0.0573209621
 40
0.0669185876
 40
0.0871864145
 40
0.1088789618
 40
0.1319780012
 40
0.1564560409
 40
0.1822776811
 40
0.2094008015
 40
0.2377774489
 40
0.267354417
 40
0.2980737688
 40
0.3298734368
 40
0.3626876084
 40
0.3964469841
 40
0.4310791962
 40
0.4665091598
 40
0.5026593021
 40
0.5394498154
 40
0.6146219384
 40
0.6913554392
 40
0.7689602702
 40
0.8467363389
 40
0.9239810822
 40
1.0
 40
1.0
 40
1.0
 40
1.0
 10
8.0993822921
 20
9.6686872134
 30
0.0
 10
8.098637155
 20
9.6679674662
 30
0.0
 10
8.0971478576
 20
9.6664575614
 30
0.0
 10
8.0949650061
 20
9.6640445728
 30
0.0
 10
8.0927848726
 20
9.6614345388
 30
0.0
 10
8.0906089463
 20
9.658629141
 30
0.0
 10
8.088438408
 20
9.6556300781
 30
0.0
 10
8.0862745298
 20
9.6524390595
 30
0.0
 10
8.0841185299
 20
9.6490579461
 30
0.0
 10
8.0812029194
 20
9.644210501
 30
0.0
 10
8.0775965486
 20
9.6376799192
 30
0.0
 10
8.0733957825
 20
9.6292568516
 30
0.0
 10
8.0692567024
 20
9.6201304014
 30
0.0
 10
8.0651892839
 20
9.6103222894
 30
0.0
 10
8.0612033021
 20
9.599855735
 30
0.0
 10
8.0573083872
 20
9.5887556989
 30
0.0
 10
8.0535139784
 20
9.5770486893
 30
0.0
 10
8.0498292703
 20
9.5647627383
 30
0.0
 10
8.0462631692
 20
9.5519273176
 30
0.0
 10
8.0428243133
 20
9.5385732391
 30
0.0
 10
8.0395210454
 20
9.5247325784
 30
0.0
 10
8.0363613496
 20
9.5104386119
 30
0.0
 10
8.0333528605
 20
9.4957257192
 30
0.0
 10
8.0305028719
 20
9.4806292975
 30
0.0
 10
8.0278182524
 20
9.4651856457
 30
0.0
 10
8.0244439024
 20
9.4440294769
 30
0.0
 10
8.0206939913
 20
9.4169918457
 30
0.0
 10
8.0169756398
 20
9.3840009932
 30
0.0
 10
8.0140434418
 20
9.3505528869
 30
0.0
 10
8.0119256619
 20
9.316969259
 30
0.0
 10
8.0106426392
 20
9.2835731138
 30
0.0
 10
8.010348614
 20
9.2614041382
 30
0.0
 10
8.010348614
 20
9.2504087753
 30
0.0
  0
SPLINE
  5
2FF
100
AcDbEntity
  8
0
100
AcDbSpline
 62
7
  6
CONTINUOUS
 70
0
 71
3
 72
30
 73
26
 74
0
 42
0.0000001
 43
0.0000001
 44
0.0000000001
 40
0.0
 40
0.0
 40
0.0
 40
0.0
 40
0.0851784903
 40
0.1685810969
 40
0.2498834953
 40
0.3287745917
 40
0.4049551108
 40
0.4781414856
 40
0.5480673724
 40
0.6144864538
 40
0.6771752938
 40
0.7070594378
 40
0.735939494
 40
0.7637959642
 40
0.790611226
 40
0.8163706451
 40
0.8410619855
 40
0.8646766072
 40
0.8872090812
 40
0.9086584391
 40
0.9290281656
 40
0.9483275241
 40
0.96657212
 40
0.9837854028
 40
1.0
 40
1.0
 40
1.0
 40
1.0
 10
8.010348614
 20
7.6807792146
 30
0.0
 10
8.010348614
 20
7.6736517401
 30
0.0
 10
8.0104700716
 20
7.6595450479
 30
0.0
 10
8.0110271122
 20
7.6386418529
 30
0.0
 10
8.0119548988
 20
7.6182783129
 30
0.0
 10
8.0132493777
 20
7.598540271
 30
0.0
 10
8.0149049629
 20
7.5795106731
 30
0.0
 10
8.0169144932
 20
7.561269547
 30
0.0
 10
8.0192692799
 20
7.5438934109
 30
0.0
 10
8.0219592013
 20
7.5274552904
 30
0.0
 10
8.0245093028
 20
7.5143953148
 30
0.0
 10
8.0267198165
 20
7.5044753144
 30
0.0
 10
8.0284276677
 20
7.4974307719
 30
0.0
 10
8.0302100308
 20
7.4906699164
 30
0.0
 10
8.0320651431
 20
7.4841998248
 30
0.0
 10
8.0339909426
 20
7.4780272565
 30
0.0
 10
8.0359854957
 20
7.4721586631
 30
0.0
 10
8.0380466169
 20
7.4666001384
 30
0.0
 10
8.0401722372
 20
7.4613574616
 30
0.0
 10
8.0423600756
 20
7.4564360314
 30
0.0
 10
8.0446079557
 20
7.4518409133
 30
0.0
 10
8.0469135426
 20
7.4475767997
 30
0.0
 10
8.0492746401
 20
7.4436479642
 30
0.0
 10
8.0516888105
 20
7.4400585671
 30
0.0
 10
8.0533816247
 20
7.4378292008
 30
0.0
 10
8.0542377094
 20
7.4367765889
 30
0.0
  0
SPLINE
  5
300
100
AcDbEntity
  8
0
100
AcDbSpline
 62
7
  6
CONTINUOUS
 70
0
 71
3
 72
79
 73
75
 74
0
 42
0.0000001
 43
0.0000001
 44
0.0000000001
 40
0.0
 40
0.0
 40
0.0
 40
0.0
 40
0.0027164347
 40
0.0054532488
 40
0.0082303236
 40
0.0110666256
 40
0.0139798465
 40
0.0169861596
 40
0.02010014
 40
0.0233346673
 40
0.0267010303
 40
0.0302090039
 40
0.0338669236
 40
0.0376819087
 40
0.0416598992
 40
0.0458058334
 40
0.050123788
 40
0.0546169889
 40
0.0592880183
 40
0.0641388147
 40
0.0691707474
 40
0.0743847509
 40
0.0853596772
 40
0.0970635614
 40
0.1094903495
 40
0.122629634
 40
0.1364673293
 40
0.1509861741
 40
0.1661661143
 40
0.1819846001
 40
0.1984168698
 40
0.2154361725
 40
0.2330139498
 40
0.2511199804
 40
0.269722539
 40
0.2887885422
 40
0.3082836705
 40
0.3281724738
 40
0.3484184816
 40
0.3689843266
 40
0.4109214294
 40
0.4536715193
 40
0.4969136093
 40
0.540321979
 40
0.5835693174
 40
0.6263298478
 40
0.6682824923
 40
0.6888579727
 40
0.7091148233
 40
0.7290156552
 40
0.7485239752
 40
0.7676042909
 40
0.7862222357
 40
0.8043446912
 40
0.8219398969
 40
0.8389775799
 40
0.8554291082
 40
0.8712676747
 40
0.8864684624
 40
0.9010088541
 40
0.9148686911
 40
0.9280306123
 40
0.9404804379
 40
0.9522076406
 40
0.9577984259
 40
0.9632066633
 40
0.9684323655
 40
0.9734759744
 40
0.9783383356
 40
0.9830207896
 40
0.9875253575
 40
0.9918546105
 40
0.9960116061
 40
1.0
 40
1.0
 40
1.0
 40
1.0
 10
13.584214419
 20
7.9394064329
 30
0.0
 10
13.5832961624
 20
7.9394701182
 30
0.0
 10
13.5814574607
 20
7.9396810697
 30
0.0
 10
13.5787228292
 20
7.9402456268
 30
0.0
 10
13.5760088561
 20
7.9410581181
 30
0.0
 10
13.5733174849
 20
7.9421178183
 30
0.0
 10
13.5706501205
 20
7.9434237913
 30
0.0
 10
13.5680080869
 20
7.9449749481
 30
0.0
 10
13.5653926625
 20
7.9467702791
 30
0.0
 10
13.562804958
 20
7.9488085682
 30
0.0
 10
13.5602461075
 20
7.9510886547
 30
0.0
 10
13.5577172433
 20
7.953609314
 30
0.0
 10
13.555219409
 20
7.9563691802
 30
0.0
 10
13.5527537761
 20
7.959366906
 30
0.0
 10
13.5503214257
 20
7.9626009665
 30
0.0
 10
13.5479234712
 20
7.9660697621
 30
0.0
 10
13.5455610883
 20
7.969771612
 30
0.0
 10
13.5432353397
 20
7.97370466
 30
0.0
 10
13.5409473914
 20
7.9778669931
 30
0.0
 10
13.5386983581
 20
7.9822565481
 30
0.0
 10
13.5364892792
 20
7.9868711517
 30
0.0
 10
13.5335483295
 20
7.9934336036
 30
0.0
 10
13.5299918134
 20
8.0021940553
 30
0.0
 10
13.5259703743
 20
8.0133921412
 30
0.0
 10
13.5221334247
 20
8.0254266597
 30
0.0
 10
13.5184886772
 20
8.0382736446
 30
0.0
 10
13.5150434894
 20
8.0519077071
 30
0.0
 10
13.5118048526
 20
8.066301704
 30
0.0
 10
13.5087793546
 20
8.0814269211
 30
0.0
 10
13.50597314
 20
8.0972531071
 30
0.0
 10
13.5033919179
 20
8.1137485645
 30
0.0
 10
13.5010409435
 20
8.1308802264
 30
0.0
 10
13.4989250105
 20
8.1486137244
 30
0.0
 10
13.4970484223
 20
8.1669134553
 30
0.0
 10
13.4954149939
 20
8.1857426602
 30
0.0
 10
13.494028052
 20
8.2050635081
 30
0.0
 10
13.4928904254
 20
8.2248371759
 30
0.0
 10
13.4920044438
 20
8.2450239086
 30
0.0
 10
13.4913718806
 20
8.2655831534
 30
0.0
 10
13.4908649377
 20
8.2936186269
 30
0.0
 10
13.490881845
 20
8.3292873319
 30
0.0
 10
13.4919184318
 20
8.3726274198
 30
0.0
 10
13.4939636798
 20
8.41643075
 30
0.0
 10
13.4970012611
 20
8.4603452685
 30
0.0
 10
13.5010067535
 20
8.5040183373
 30
0.0
 10
13.5059479172
 20
8.5470989604
 30
0.0
 10
13.5108428521
 20
8.5824423786
 30
0.0
 10
13.5152056738
 20
8.6101532993
 30
0.0
 10
13.5186635914
 20
8.6304407018
 30
0.0
 10
13.522321311
 20
8.6503254741
 30
0.0
 10
13.5261714843
 20
8.6697676722
 30
0.0
 10
13.5302063373
 20
8.6887282081
 30
0.0
 10
13.5344177268
 20
8.7071689835
 30
0.0
 10
13.5387971404
 20
8.7250529575
 30
0.0
 10
13.5433357315
 20
8.7423442191
 30
0.0
 10
13.5480243323
 20
8.7590080577
 30
0.0
 10
13.5528534746
 20
8.7750110436
 30
0.0
 10
13.5578133909
 20
8.7903211093
 30
0.0
 10
13.5628940566
 20
8.8049076095
 30
0.0
 10
13.5680852093
 20
8.8187413911
 30
0.0
 10
13.5733763802
 20
8.8317948382
 30
0.0
 10
13.5787569125
 20
8.8440420536
 30
0.0
 10
13.5842159772
 20
8.8554585891
 30
0.0
 10
13.5888931082
 20
8.8643986163
 30
0.0
 10
13.5926734306
 20
8.8711082267
 30
0.0
 10
13.5954762341
 20
8.8758384146
 30
0.0
 10
13.5982904848
 20
8.8803446639
 30
0.0
 10
13.6011147707
 20
8.8846247469
 30
0.0
 10
13.6039476708
 20
8.8886765388
 30
0.0
 10
13.60678785
 20
8.8924980284
 30
0.0
 10
13.609633907
 20
8.8960873916
 30
0.0
 10
13.6124845399
 20
8.8994428421
 30
0.0
 10
13.6153381704
 20
8.90256256
 30
0.0
 10
13.617281208
 20
8.9045241345
 30
0.0
 10
13.6182532555
 20
8.9054630603
 30
0.0
  0
SPLINE
  5
301
100
AcDbEntity
  8
0
100
AcDbSpline
 62
7
  6
CONTINUOUS
 70
0
 71
3
 72
13
 73
9
 74
0
 42
0.0000001
 43
0.0000001
 44
0.0000000001
 40
0.0
 40
0.0
 40
0.0
 40
0.0
 40
0.1187930502
 40
0.2382088825
 40
0.3588600323
 40
0.481338988
 40
0.7338603464
 40
1.0
 40
1.0
 40
1.0
 40
1.0
 10
13.8020628317
 20
8.6331065265
 30
0.0
 10
13.8015390995
 20
8.6331428432
 30
0.0
 10
13.8004912029
 20
8.6332551673
 30
0.0
 10
13.7989299648
 20
8.6335416699
 30
0.0
 10
13.7973781545
 20
8.633946273
 30
0.0
 10
13.7953020245
 20
8.6346497833
 30
0.0
 10
13.7927204665
 20
8.6358391966
 30
0.0
 10
13.7907712311
 20
8.6370567481
 30
0.0
 10
13.7898089961
 20
8.6377331175
 30
0.0
  0
SPLINE
  5
302
100
AcDbEntity
  8
0
100
AcDbSpline
 62
7
  6
CONTINUOUS
 70
0
 71
3
 72
46
 73
42
 74
0
 42
0.0000001
 43
0.0000001
 44
0.0000000001
 40
0.0
 40
0.0
 40
0.0
 40
0.0
 40
0.0298927415
 40
0.0611513965
 40
0.0936679582
 40
0.1273274373
 40
0.1620087435
 40
0.197585497
 40
0.2339267924
 40
0.2708979322
 40
0.3083611392
 40
0.3461762556
 40
0.3842014345
 40
0.4222938252
 40
0.4603102568
 40
0.4981079202
 40
0.535545052
 40
0.5724816202
 40
0.6087800156
 40
0.6443057516
 40
0.6789281784
 40
0.7125212171
 40
0.7449641263
 40
0.7761423174
 40
0.8059482411
 40
0.8342823825
 40
0.8610544203
 40
0.8738297557
 40
0.8861856709
 40
0.8981140937
 40
0.9096080003
 40
0.9206612401
 40
0.9312689167
 40
0.941427247
 40
0.9511340268
 40
0.9603884894
 40
0.9691917934
 40
0.9775471499
 40
0.9854607121
 40
0.9929412173
 40
1.0
 40
1.0
 40
1.0
 40
1.0
 10
13.7472218685
 20
8.7500257616
 30
0.0
 10
13.7463940224
 20
8.7555290504
 30
0.0
 10
13.7448555654
 20
8.7668108427
 30
0.0
 10
13.7429224298
 20
8.7841432526
 30
0.0
 10
13.7413176511
 20
8.8022132399
 30
0.0
 10
13.7400478341
 20
8.8209483896
 30
0.0
 10
13.7391181932
 20
8.8402738011
 30
0.0
 10
13.7385325629
 20
8.8601121097
 30
0.0
 10
13.738293377
 20
8.8803838877
 30
0.0
 10
13.7384016636
 20
8.9010079472
 30
0.0
 10
13.7388570423
 20
8.9219016768
 30
0.0
 10
13.739657727
 20
8.9429813748
 30
0.0
 10
13.7408005349
 20
8.9641625888
 30
0.0
 10
13.7422808991
 20
8.9853604563
 30
0.0
 10
13.7440928883
 20
9.0064900479
 30
0.0
 10
13.7462292301
 20
9.02746671
 30
0.0
 10
13.7486813403
 20
9.0482064067
 30
0.0
 10
13.7514393568
 20
9.0686260593
 30
0.0
 10
13.7544921784
 20
9.0886438831
 30
0.0
 10
13.7578275085
 20
9.1081797189
 30
0.0
 10
13.761431903
 20
9.1271553608
 30
0.0
 10
13.7652908231
 20
9.1454948743
 30
0.0
 10
13.7693886912
 20
9.1631249177
 30
0.0
 10
13.7737089561
 20
9.1799750253
 30
0.0
 10
13.778234146
 20
9.195977994
 30
0.0
 10
13.7829459884
 20
9.2110698809
 30
0.0
 10
13.7870740042
 20
9.2230168981
 30
0.0
 10
13.7904649882
 20
9.2320658022
 30
0.0
 10
13.7930032013
 20
9.2384818907
 30
0.0
 10
13.7955736502
 20
9.2446273499
 30
0.0
 10
13.7981737255
 20
9.2504960775
 30
0.0
 10
13.8008008821
 20
9.2560822188
 30
0.0
 10
13.8034524244
 20
9.261380248
 30
0.0
 10
13.8061257832
 20
9.2663848998
 30
0.0
 10
13.8088182341
 20
9.2710912619
 30
0.0
 10
13.8115271954
 20
9.275494665
 30
0.0
 10
13.8142499154
 20
9.2795908334
 30
0.0
 10
13.8169838506
 20
9.283375756
 30
0.0
 10
13.8197264252
 20
9.2868458826
 30
0.0
 10
13.8224749361
 20
9.2899975541
 30
0.0
 10
13.8243631145
 20
9.2919395525
 30
0.0
 10
13.8253083237
 20
9.2928525545
 30
0.0
  0
SPLINE
  5
303
100
AcDbEntity
  8
0
100
AcDbSpline
 62
7
  6
CONTINUOUS
 70
0
 71
3
 72
15
 73
11
 74
0
 42
0.0000001
 43
0.0000001
 44
0.0000000001
 40
0.0
 40
0.0
 40
0.0
 40
0.0
 40
0.1233171152
 40
0.2468171801
 40
0.3706749982
 40
0.4950495769
 40
0.6200773723
 40
0.7458670578
 40
0.8724927841
 40
1.0
 40
1.0
 40
1.0
 40
1.0
 10
10.7384631817
 20
9.2327375001
 30
0.0
 10
10.7416160129
 20
9.235782876
 30
0.0
 10
10.7482600705
 20
9.2415431535
 30
0.0
 10
10.759103768
 20
9.249070293
 30
0.0
 10
10.7707231472
 20
9.2554155536
 30
0.0
 10
10.7829992487
 20
9.2605137748
 30
0.0
 10
10.7958082684
 20
9.2643142782
 30
0.0
 10
10.8090211763
 20
9.2667790791
 30
0.0
 10
10.8225030921
 20
9.2678842046
 30
0.0
 10
10.8315528095
 20
9.2677076863
 30
0.0
 10
10.8360743444
 20
9.2673941168
 30
0.0
  0
SPLINE
  5
304
100
AcDbEntity
  8
0
100
AcDbSpline
 62
7
  6
CONTINUOUS
 70
0
 71
3
 72
15
 73
11
 74
0
 42
0.0000001
 43
0.0000001
 44
0.0000000001
 40
0.0
 40
0.0
 40
0.0
 40
0.0
 40
0.1233171152
 40
0.2468171801
 40
0.3706749982
 40
0.4950495769
 40
0.6200773723
 40
0.7458670578
 40
0.8724927841
 40
1.0
 40
1.0
 40
1.0
 40
1.0
 10
10.7384631817
 20
7.4824799081
 30
0.0
 10
10.7416160129
 20
7.485525284
 30
0.0
 10
10.7482600705
 20
7.4912855615
 30
0.0
 10
10.759103768
 20
7.498812701
 30
0.0
 10
10.7707231472
 20
7.5051579616
 30
0.0
 10
10.7829992487
 20
7.5102561828
 30
0.0
 10
10.7958082684
 20
7.5140566862
 30
0.0
 10
10.8090211763
 20
7.5165214871
 30
0.0
 10
10.8225030921
 20
7.5176266126
 30
0.0
 10
10.8315528095
 20
7.5174500943
 30
0.0
 10
10.8360743444
 20
7.5171365248
 30
0.0
  0
SPLINE
  5
305
100
AcDbEntity
  8
0
100
AcDbSpline
 62
7
  6
CONTINUOUS
 70
0
 71
3
 72
15
 73
11
 74
0
 42
0.0000001
 43
0.0000001
 44
0.0000000001
 40
0.0
 40
0.0
 40
0.0
 40
0.0
 40
0.1233171152
 40
0.2468171801
 40
0.3706749982
 40
0.4950495769
 40
0.6200773723
 40
0.7458670578
 40
0.8724927841
 40
1.0
 40
1.0
 40
1.0
 40
1.0
 10
12.791055713
 20
7.3401321326
 30
0.0
 10
12.7942085441
 20
7.3431775085
 30
0.0
 10
12.8008526018
 20
7.3489377859
 30
0.0
 10
12.8116962993
 20
7.3564649255
 30
0.0
 10
12.8233156785
 20
7.3628101861
 30
0.0
 10
12.8355917799
 20
7.3679084073
 30
0.0
 10
12.8484007996
 20
7.3717089107
 30
0.0
 10
12.8616137075
 20
7.3741737115
 30
0.0
 10
12.8750956234
 20
7.3752788371
 30
0.0
 10
12.8841453408
 20
7.3751023188
 30
0.0
 10
12.8886668757
 20
7.3747887493
 30
0.0
  0
SPLINE
  5
306
100
AcDbEntity
  8
0
100
AcDbSpline
 62
7
  6
CONTINUOUS
 70
0
 71
3
 72
15
 73
11
 74
0
 42
0.0000001
 43
0.0000001
 44
0.0000000001
 40
0.0
 40
0.0
 40
0.0
 40
0.0
 40
0.1233171152
 40
0.2468171801
 40
0.3706749982
 40
0.4950495769
 40
0.6200773723
 40
0.7458670578
 40
0.8724927841
 40
1.0
 40
1.0
 40
1.0
 40
1.0
 10
12.791055713
 20
9.0903897246
 30
0.0
 10
12.7942085441
 20
9.0934351005
 30
0.0
 10
12.8008526018
 20
9.0991953779
 30
0.0
 10
12.8116962993
 20
9.1067225175
 30
0.0
 10
12.8233156785
 20
9.1130677781
 30
0.0
 10
12.8355917799
 20
9.1181659993
 30
0.0
 10
12.8484007996
 20
9.1219665027
 30
0.0
 10
12.8616137075
 20
9.1244313035
 30
0.0
 10
12.8750956234
 20
9.1255364291
 30
0.0
 10
12.8841453408
 20
9.1253599108
 30
0.0
 10
12.8886668757
 20
9.1250463413
 30
0.0
  0
SPLINE
  5
307
100
AcDbEntity
  8
0
100
AcDbSpline
 62
7
  6
CONTINUOUS
 70
0
 71
3
 72
16
 73
12
 74
0
 42
0.0000001
 43
0.0000001
 44
0.0000000001
 40
0.0
 40
0.0
 40
0.0
 40
0.0
 40
0.1492601029
 40
0.2896893314
 40
0.4220023803
 40
0.4854054986
 40
0.5471312576
 40
0.6660877971
 40
0.7802035738
 40
0.8909622067
 40
1.0
 40
1.0
 40
1.0
 40
1.0
 10
8.0801135766
 20
7.4049608518
 30
0.0
 10
8.0809964139
 20
7.4038753487
 30
0.0
 10
8.0827771425
 20
7.4018217287
 30
0.0
 10
8.085584028
 20
7.3990288775
 30
0.0
 10
8.0879980626
 20
7.3969965007
 30
0.0
 10
8.0899506497
 20
7.3955767491
 30
0.0
 10
8.091866055
 20
7.3943237367
 30
0.0
 10
8.0942935337
 20
7.3929908709
 30
0.0
 10
8.0972846092
 20
7.3917697368
 30
0.0
 10
8.100313761
 20
7.3909499252
 30
0.0
 10
8.1023622841
 20
7.3906718077
 30
0.0
 10
8.1033819699
 20
7.3906010835
 30
0.0
  0
SPLINE
  5
308
100
AcDbEntity
  8
0
100
AcDbSpline
 62
7
  6
CONTINUOUS
 70
0
 71
3
 72
17
 73
13
 74
0
 42
0.0000001
 43
0.0000001
 44
0.0000000001
 40
0.0
 40
0.0
 40
0.0
 40
0.0
 40
0.0544358026
 40
0.1090884696
 40
0.2198401459
 40
0.3339492313
 40
0.4528981867
 40
0.5146188903
 40
0.5780168979
 40
0.7103216724
 40
0.8507501608
 40
1.0
 40
1.0
 40
1.0
 40
1.0
 10
8.583874004
 20
10.1224332519
 30
0.0
 10
8.5833649087
 20
10.1224685622
 30
0.0
 10
8.5823420267
 20
10.122505943
 30
0.0
 10
8.5802807857
 20
10.1224470483
 30
0.0
 10
8.5776734461
 20
10.1221174845
 30
0.0
 10
8.5745428149
 20
10.121320877
 30
0.0
 10
8.571954524
 20
10.1203358607
 30
0.0
 10
8.5698845161
 20
10.1193592957
 30
0.0
 10
8.5677546727
 20
10.1182226726
 30
0.0
 10
8.5650831553
 20
10.1165429651
 30
0.0
 10
8.5619176049
 20
10.1141642452
 30
0.0
 10
8.5598704082
 20
10.1123760569
 30
0.0
 10
8.5588461825
 20
10.1114228321
 30
0.0
  0
SPLINE
  5
309
100
AcDbEntity
  8
0
100
AcDbSpline
 62
7
  6
CONTINUOUS
 70
0
 71
3
 72
39
 73
35
 74
0
 42
0.0000001
 43
0.0000001
 44
0.0000000001
 40
0.0
 40
0.0
 40
0.0
 40
0.0
 40
0.0311427089
 40
0.0623076852
 40
0.0934935871
 40
0.1247014872
 40
0.1559304473
 40
0.1871798351
 40
0.2184484515
 40
0.2497348336
 40
0.2810372028
 40
0.3123535135
 40
0.3436814864
 40
0.3750186467
 40
0.4063623654
 40
0.4377099036
 40
0.4690584579
 40
0.5004052067
 40
0.5317473582
 40
0.5630821977
 40
0.5944071345
 40
0.625719745
 40
0.657017813
 40
0.6882993672
 40
0.7195627145
 40
0.7508064681
 40
0.7820295725
 40
0.8132313226
 40
0.8444113775
 40
0.875569766
 40
0.9067068868
 40
0.9378235021
 40
0.9689207249
 40
1.0
 40
1.0
 40
1.0
 40
1.0
 10
11.6525250217
 20
8.1888640357
 30
0.0
 10
11.6486551157
 20
8.1909369814
 30
0.0
 10
11.6407741404
 20
8.1948317209
 30
0.0
 10
11.6285938124
 20
8.1998891807
 30
0.0
 10
11.6160999888
 20
8.2041435886
 30
0.0
 10
11.6033468052
 20
8.2075765848
 30
0.0
 10
11.5903883339
 20
8.2101735567
 30
0.0
 10
11.5772799562
 20
8.2119234671
 30
0.0
 10
11.564077538
 20
8.2128188462
 30
0.0
 10
11.5508373925
 20
8.2128558925
 30
0.0
 10
11.5376159792
 20
8.2120344519
 30
0.0
 10
11.5244696784
 20
8.2103580444
 30
0.0
 10
11.5114545466
 20
8.2078338309
 30
0.0
 10
11.4986260795
 20
8.2044725839
 30
0.0
 10
11.4860389756
 20
8.2002886415
 30
0.0
 10
11.4737469051
 20
8.1952998458
 30
0.0
 10
11.4618022809
 20
8.1895274681
 30
0.0
 10
11.4502560372
 20
8.182996117
 30
0.0
 10
11.4391574111
 20
8.1757336376
 30
0.0
 10
11.4285537267
 20
8.1677709999
 30
0.0
 10
11.4184902003
 20
8.1591421551
 30
0.0
 10
11.409009747
 20
8.1498838929
 30
0.0
 10
11.4001527988
 20
8.1400356856
 30
0.0
 10
11.3919571328
 20
8.1296395201
 30
0.0
 10
11.38445771
 20
8.1187397206
 30
0.0
 10
11.3776865275
 20
8.1073827593
 30
0.0
 10
11.3716724767
 20
8.095617063
 30
0.0
 10
11.366441214
 20
8.0834928058
 30
0.0
 10
11.3620150613
 20
8.071061696
 30
0.0
 10
11.3584129094
 20
8.0583767339
 30
0.0
 10
11.3556501349
 20
8.0454920725
 30
0.0
 10
11.353738544
 20
8.0324624656
 30
0.0
 10
11.3526862861
 20
8.0193442357
 30
0.0
 10
11.3525606947
 20
8.0105727478
 30
0.0
 10
11.3526420833
 20
8.006192312
 30
0.0
  0
SPLINE
  5
30A
100
AcDbEntity
  8
0
100
AcDbSpline
 62
7
  6
CONTINUOUS
 70
0
 71
3
 72
35
 73
31
 74
0
 42
0.0000001
 43
0.0000001
 44
0.0000000001
 40
0.0
 40
0.0
 40
0.0
 40
0.0
 40
0.0168797948
 40
0.0339169815
 40
0.05126422
 40
0.069065549
 40
0.0874531203
 40
0.1065456405
 40
0.1264474927
 40
0.1472489341
 40
0.1690271007
 40
0.1918466764
 40
0.2157617956
 40
0.2408166054
 40
0.2670470914
 40
0.2944817352
 40
0.3231425741
 40
0.3530462491
 40
0.3842041601
 40
0.4166238235
 40
0.4503085348
 40
0.4852585459
 40
0.5214709124
 40
0.5589399819
 40
0.5976578329
 40
0.6376139927
 40
0.7211877853
 40
0.8095444187
 40
0.9025379267
 40
1.0
 40
1.0
 40
1.0
 40
1.0
 10
13.6522920919
 20
8.9210486183
 30
0.0
 10
13.6533167995
 20
8.9209775502
 30
0.0
 10
13.6553700515
 20
8.920731072
 30
0.0
 10
13.6584197013
 20
8.9200521367
 30
0.0
 10
13.6614428533
 20
8.9190643655
 30
0.0
 10
13.6644367679
 20
8.9177689387
 30
0.0
 10
13.6673996084
 20
8.916167454
 30
0.0
 10
13.6703295581
 20
8.9142614504
 30
0.0
 10
13.6732250396
 20
8.9120526036
 30
0.0
 10
13.6760845739
 20
8.909542633
 30
0.0
 10
13.6789066308
 20
8.9067332411
 30
0.0
 10
13.681689816
 20
8.9036263385
 30
0.0
 10
13.6844325509
 20
8.9002238169
 30
0.0
 10
13.6871333997
 20
8.8965278312
 30
0.0
 10
13.6897907815
 20
8.8925406058
 30
0.0
 10
13.6924031741
 20
8.8882645831
 30
0.0
 10
13.6949690536
 20
8.8837023749
 30
0.0
 10
13.6974868327
 20
8.8788567502
 30
0.0
 10
13.6999550552
 20
8.8737307036
 30
0.0
 10
13.702372134
 20
8.8683273606
 30
0.0
 10
13.7047366492
 20
8.8626500735
 30
0.0
 10
13.7070470885
 20
8.8567023373
 30
0.0
 10
13.709302037
 20
8.8504878415
 30
0.0
 10
13.7115000922
 20
8.8440104447
 30
0.0
 10
13.7136398721
 20
8.8372741578
 30
0.0
 10
13.7164556854
 20
8.8278106227
 30
0.0
 10
13.7198081159
 20
8.8153577206
 30
0.0
 10
13.7235205941
 20
8.7996676266
 30
0.0
 10
13.7269710702
 20
8.7830539819
 30
0.0
 10
13.7290436799
 20
8.7716499086
 30
0.0
 10
13.7300388655
 20
8.7658032399
 30
0.0
  0
SPLINE
  5
30B
100
AcDbEntity
  8
0
100
AcDbSpline
 62
7
  6
CONTINUOUS
 70
0
 71
3
 72
23
 73
19
 74
0
 42
0.0000001
 43
0.0000001
 44
0.0000000001
 40
0.0
 40
0.0
 40
0.0
 40
0.0
 40
0.0824716929
 40
0.1624913387
 40
0.2399921672
 40
0.3149129134
 40
0.3871973249
 40
0.4567954377
 40
0.5236637662
 40
0.5877660249
 40
0.6490744133
 40
0.7075699158
 40
0.763244752
 40
0.8161026492
 40
0.8661614687
 40
0.9134569375
 40
0.9580451578
 40
1.0
 40
1.0
 40
1.0
 40
1.0
 10
13.6828992591
 20
8.0832305802
 30
0.0
 10
13.6816997346
 20
8.0794340325
 30
0.0
 10
13.6792803706
 20
8.0719713402
 30
0.0
 10
13.6755303541
 20
8.061008205
 30
0.0
 10
13.6717171359
 20
8.0504536178
 30
0.0
 10
13.6678450125
 20
8.0403192418
 30
0.0
 10
13.6639182321
 20
8.0306162426
 30
0.0
 10
13.6599411722
 20
8.0213552947
 30
0.0
 10
13.6559182349
 20
8.0125465711
 30
0.0
 10
13.6518538378
 20
8.0041997395
 30
0.0
 10
13.6477525112
 20
7.9963239129
 30
0.0
 10
13.6436186915
 20
7.9889276936
 30
0.0
 10
13.6394569482
 20
7.9820190899
 30
0.0
 10
13.6352717346
 20
7.975605596
 30
0.0
 10
13.6310675892
 20
7.9696940846
 30
0.0
 10
13.6268487683
 20
7.9642907316
 30
0.0
 10
13.6226198742
 20
7.9594016986
 30
0.0
 10
13.619710091
 20
7.9563991861
 30
0.0
 10
13.6182532555
 20
7.9549919909
 30
0.0
  0
SPLINE
  5
30C
100
AcDbEntity
  8
0
100
AcDbSpline
 62
7
  6
CONTINUOUS
 70
0
 71
3
 72
28
 73
24
 74
0
 42
0.0000001
 43
0.0000001
 44
0.0000000001
 40
0.0
 40
0.0
 40
0.0
 40
0.0
 40
0.0359460697
 40
0.0549174746
 40
0.0746214532
 40
0.0951040812
 40
0.1164048725
 40
0.138557875
 40
0.1615918498
 40
0.1855307703
 40
0.2103947977
 40
0.2362001705
 40
0.2629598063
 40
0.3193754183
 40
0.3796978196
 40
0.4439434962
 40
0.5121011021
 40
0.5841357267
 40
0.6599927083
 40
0.7396005527
 40
0.8228728067
 40
0.9097097259
 40
1.0
 40
1.0
 40
1.0
 40
1.0
 10
13.6365966536
 20
8.9181933797
 30
0.0
 10
13.6382908757
 20
8.9171778459
 30
0.0
 10
13.6407734535
 20
8.9154436551
 30
0.0
 10
13.6439197276
 20
8.9128123003
 30
0.0
 10
13.6462970838
 20
8.9105925876
 30
0.0
 10
13.6486477747
 20
8.9081637962
 30
0.0
 10
13.6509712682
 20
8.9055268312
 30
0.0
 10
13.6532665102
 20
8.902682878
 30
0.0
 10
13.6555326055
 20
8.8996331572
 30
0.0
 10
13.6577686649
 20
8.8963790142
 30
0.0
 10
13.6599737074
 20
8.8929218168
 30
0.0
 10
13.662146866
 20
8.88926306
 30
0.0
 10
13.6650519275
 20
8.8840254475
 30
0.0
 10
13.6685863699
 20
8.8769722587
 30
0.0
 10
13.6726140865
 20
8.8678756994
 30
0.0
 10
13.6764930382
 20
8.8580181844
 30
0.0
 10
13.6802165048
 20
8.8474167165
 30
0.0
 10
13.6837780528
 20
8.8360893724
 30
0.0
 10
13.6871714501
 20
8.8240556943
 30
0.0
 10
13.6903907091
 20
8.811336496
 30
0.0
 10
13.6934301463
 20
8.7979538453
 30
0.0
 10
13.6962843966
 20
8.7839311076
 30
0.0
 10
13.6980272457
 20
8.7743543304
 30
0.0
 10
13.6988693428
 20
8.7694647765
 30
0.0
  0
SPLINE
  5
30D
100
AcDbEntity
  8
0
100
AcDbSpline
 62
7
  6
CONTINUOUS
 70
0
 71
3
 72
23
 73
19
 74
0
 42
0.0000001
 43
0.0000001
 44
0.0000000001
 40
0.0
 40
0.0
 40
0.0
 40
0.0
 40
0.0823498064
 40
0.1622551987
 40
0.2396518588
 40
0.3144803996
 40
0.386686962
 40
0.4562231967
 40
0.5230477145
 40
0.587125701
 40
0.6484309421
 40
0.7069457746
 40
0.7626634184
 40
0.8155884549
 40
0.8657391112
 40
0.9131514917
 40
0.9578809633
 40
1.0
 40
1.0
 40
1.0
 40
1.0
 10
13.6512495364
 20
8.0830442476
 30
0.0
 10
13.6500604834
 20
8.0793209523
 30
0.0
 10
13.6476628527
 20
8.0720022289
 30
0.0
 10
13.6439483976
 20
8.0612507433
 30
0.0
 10
13.6401730794
 20
8.0508995872
 30
0.0
 10
13.6363409802
 20
8.0409599239
 30
0.0
 10
13.6324562707
 20
8.031442415
 30
0.0
 10
13.6285230991
 20
8.0223572827
 30
0.0
 10
13.6245457718
 20
8.0137142416
 30
0.0
 10
13.6205285005
 20
8.0055225507
 30
0.0
 10
13.6164756732
 20
7.9977909221
 30
0.0
 10
13.6123915607
 20
7.9905275866
 30
0.0
 10
13.6082805447
 20
7.9837402233
 30
0.0
 10
13.604146949
 20
7.9774359984
 30
0.0
 10
13.599995105
 20
7.9716215106
 30
0.0
 10
13.5958291336
 20
7.9663026713
 30
0.0
 10
13.5916534592
 20
7.9614854203
 30
0.0
 10
13.5887814789
 20
7.9585244399
 30
0.0
 10
13.5873436264
 20
7.957135581
 30
0.0
  0
SPLINE
  5
30E
100
AcDbEntity
  8
0
100
AcDbSpline
 62
7
  6
CONTINUOUS
 70
0
 71
3
 72
41
 73
37
 74
0
 42
0.0000001
 43
0.0000001
 44
0.0000000001
 40
0.0
 40
0.0
 40
0.0
 40
0.0
 40
0.0311443777
 40
0.0624425595
 40
0.0938872477
 40
0.1254696093
 40
0.1571771289
 40
0.1889951561
 40
0.2209067114
 40
0.2528930218
 40
0.2849338418
 40
0.3170078727
 40
0.349093173
 40
0.3811675842
 40
0.4132091572
 40
0.4451965775
 40
0.4771095803
 40
0.5089293526
 40
0.5406389143
 40
0.5722234721
 40
0.6036707398
 40
0.6349712184
 40
0.6661184287
 40
0.6971090895
 40
0.7279432343
 40
0.7586242609
 40
0.7891589086
 40
0.8195571576
 40
0.8498320512
 40
0.8649308888
 40
0.8800050477
 40
0.9100832517
 40
0.9400926686
 40
0.9550812681
 40
0.9700610312
 40
1.0
 40
1.0
 40
1.0
 40
1.0
 10
12.8886668757
 20
8.853621168
 30
0.0
 10
12.8853529218
 20
8.8538509915
 30
0.0
 10
12.8787230069
 20
8.854554358
 30
0.0
 10
12.8688585315
 20
8.8563260911
 30
0.0
 10
12.8590996901
 20
8.858807841
 30
0.0
 10
12.8494992485
 20
8.8619861396
 30
0.0
 10
12.8401081634
 20
8.8658440353
 30
0.0
 10
12.830976544
 20
8.8703608475
 30
0.0
 10
12.8221530334
 20
8.8755124577
 30
0.0
 10
12.8136846484
 20
8.8812713517
 30
0.0
 10
12.8056165091
 20
8.8876068032
 30
0.0
 10
12.7979916057
 20
8.8944850216
 30
0.0
 10
12.790850572
 20
8.9018693362
 30
0.0
 10
12.7842314707
 20
8.909720388
 30
0.0
 10
12.7781695924
 20
8.9179963379
 30
0.0
 10
12.7726972697
 20
8.9266530873
 30
0.0
 10
12.7678437059
 20
8.9356445102
 30
0.0
 10
12.7636348191
 20
8.9449226962
 30
0.0
 10
12.7600931047
 20
8.9544382023
 30
0.0
 10
12.7572375163
 20
8.964140314
 30
0.0
 10
12.7550833636
 20
8.9739773119
 30
0.0
 10
12.7536422292
 20
8.9838967431
 30
0.0
 10
12.7529219048
 20
8.9938456981
 30
0.0
 10
12.7529263449
 20
9.0037710867
 30
0.0
 10
12.7536556459
 20
9.0136199287
 30
0.0
 10
12.7551060225
 20
9.0233395956
 30
0.0
 10
12.7572698886
 20
9.0328782346
 30
0.0
 10
12.7601356415
 20
9.0421845117
 30
0.0
 10
12.7630992758
 20
9.0497127504
 30
0.0
 10
12.7658037918
 20
9.0555670941
 30
0.0
 10
12.7687224086
 20
9.0612941778
 30
0.0
 10
12.7727748094
 20
9.0682213462
 30
0.0
 10
12.7773483678
 20
9.0748050136
 30
0.0
 10
12.7813006317
 20
9.0798373704
 30
0.0
 10
12.7854413763
 20
9.0847055106
 30
0.0
 10
12.7887588776
 20
9.0881711703
 30
0.0
 10
12.791055713
 20
9.0903897246
 30
0.0
  0
SPLINE
  5
30F
100
AcDbEntity
  8
0
100
AcDbSpline
 62
7
  6
CONTINUOUS
 70
0
 71
3
 72
11
 73
7
 74
0
 42
0.0000001
 43
0.0000001
 44
0.0000000001
 40
0.0
 40
0.0
 40
0.0
 40
0.0
 40
0.2263493419
 40
0.4672043041
 40
0.724578356
 40
1.0
 40
1.0
 40
1.0
 40
1.0
 10
13.5689356987
 20
7.9443466687
 30
0.0
 10
13.5705027888
 20
7.9450059387
 30
0.0
 10
13.5736571646
 20
7.946563175
 30
0.0
 10
13.5782664372
 20
7.9494720827
 30
0.0
 10
13.582882188
 20
7.9530137122
 30
0.0
 10
13.5858557014
 20
7.9556983557
 30
0.0
 10
13.5873436264
 20
7.957135581
 30
0.0
  0
SPLINE
  5
310
100
AcDbEntity
  8
0
100
AcDbSpline
 62
7
  6
CONTINUOUS
 70
0
 71
3
 72
23
 73
19
 74
0
 42
0.0000001
 43
0.0000001
 44
0.0000000001
 40
0.0
 40
0.0
 40
0.0
 40
0.0
 40
0.0406018345
 40
0.0819835057
 40
0.1248784717
 40
0.1699392485
 40
0.2177189199
 40
0.2686698532
 40
0.3231498653
 40
0.3814358741
 40
0.4437357236
 40
0.5102008486
 40
0.580936425
 40
0.6560088624
 40
0.7354538242
 40
0.8192794581
 40
0.9074725985
 40
1.0
 40
1.0
 40
1.0
 40
1.0
 10
13.8485538157
 20
9.3034963889
 30
0.0
 10
13.849563581
 20
9.3034263696
 30
0.0
 10
13.8515951541
 20
9.3031361537
 30
0.0
 10
13.8545923051
 20
9.3022595747
 30
0.0
 10
13.8575460052
 20
9.300944031
 30
0.0
 10
13.8604511201
 20
9.299194084
 30
0.0
 10
13.8633049737
 20
9.2970143449
 30
0.0
 10
13.8661050036
 20
9.2944088943
 30
0.0
 10
13.8688489818
 20
9.2913817867
 30
0.0
 10
13.8715343567
 20
9.2879369941
 30
0.0
 10
13.8741584843
 20
9.2840788574
 30
0.0
 10
13.8767185125
 20
9.2798121091
 30
0.0
 10
13.8792114581
 20
9.2751419881
 30
0.0
 10
13.8816343753
 20
9.2700743038
 30
0.0
 10
13.8839841867
 20
9.2646153796
 30
0.0
 10
13.8862580047
 20
9.2587721132
 30
0.0
 10
13.8884528296
 20
9.2525519691
 30
0.0
 10
13.8898288304
 20
9.2482612372
 30
0.0
 10
13.8905049056
 20
9.2460558621
 30
0.0
  0
SPLINE
  5
311
100
AcDbEntity
  8
0
100
AcDbSpline
 62
7
  6
CONTINUOUS
 70
0
 71
3
 72
15
 73
11
 74
0
 42
0.0000001
 43
0.0000001
 44
0.0000000001
 40
0.0
 40
0.0
 40
0.0
 40
0.0
 40
0.1514341593
 40
0.2953186271
 40
0.431596595
 40
0.5602481365
 40
0.6812986956
 40
0.7948297451
 40
0.9009922379
 40
1.0
 40
1.0
 40
1.0
 40
1.0
 10
13.8515404688
 20
8.6842063447
 30
0.0
 10
13.8505074781
 20
8.6819888451
 30
0.0
 10
13.8484338791
 20
8.677691543
 30
0.0
 10
13.8452110435
 20
8.671507698
 30
0.0
 10
13.8419592621
 20
8.6657580274
 30
0.0
 10
13.8386831637
 20
8.6604508381
 30
0.0
 10
13.835387481
 20
8.6555936085
 30
0.0
 10
13.8320765945
 20
8.6511930257
 30
0.0
 10
13.8287552419
 20
8.6472556351
 30
0.0
 10
13.8264586934
 20
8.6448615326
 30
0.0
 10
13.8253083237
 20
8.6437503608
 30
0.0
  0
SPLINE
  5
312
100
AcDbEntity
  8
0
100
AcDbSpline
 62
7
  6
CONTINUOUS
 70
0
 71
3
 72
19
 73
15
 74
0
 42
0.0000001
 43
0.0000001
 44
0.0000000001
 40
0.0
 40
0.0
 40
0.0
 40
0.0
 40
0.0912021117
 40
0.1400369241
 40
0.1911546484
 40
0.2446367414
 40
0.3005500166
 40
0.3589469529
 40
0.41986785
 40
0.4833434555
 40
0.5493941167
 40
0.6892540942
 40
0.8394806032
 40
1.0
 40
1.0
 40
1.0
 40
1.0
 10
13.8327950356
 20
9.2987362964
 30
0.0
 10
13.8341232973
 20
9.297579956
 30
0.0
 10
13.8360453829
 20
9.2956663624
 30
0.0
 10
13.8384494146
 20
9.2928645742
 30
0.0
 10
13.8402670714
 20
9.2905232637
 30
0.0
 10
13.8420569893
 20
9.2879918114
 30
0.0
 10
13.8438183441
 20
9.2852713818
 30
0.0
 10
13.8455501144
 20
9.2823636472
 30
0.0
 10
13.8472513576
 20
9.2792702891
 30
0.0
 10
13.8489210647
 20
9.2759930846
 30
0.0
 10
13.8511465917
 20
9.2712907841
 30
0.0
 10
13.8538319767
 20
9.2649563691
 30
0.0
 10
13.8568550516
 20
9.2567947713
 30
0.0
 10
13.858711069
 20
9.2510868518
 30
0.0
 10
13.8596186629
 20
9.248123135
 30
0.0
  0
SPLINE
  5
313
100
AcDbEntity
  8
0
100
AcDbSpline
 62
7
  6
CONTINUOUS
 70
0
 71
3
 72
15
 73
11
 74
0
 42
0.0000001
 43
0.0000001
 44
0.0000000001
 40
0.0
 40
0.0
 40
0.0
 40
0.0
 40
0.151423039
 40
0.295299134
 40
0.4315720246
 40
0.5602217234
 40
0.6812736228
 40
0.7948098484
 40
0.9009809769
 40
1.0
 40
1.0
 40
1.0
 40
1.0
 10
13.8206164088
 20
8.6863189666
 30
0.0
 10
13.8195839401
 20
8.684103324
 30
0.0
 10
13.8175114049
 20
8.6798095927
 30
0.0
 10
13.8142902724
 20
8.6736308505
 30
0.0
 10
13.8110402492
 20
8.6678858192
 30
0.0
 10
13.8077659521
 20
8.6625827913
 30
0.0
 10
13.8044720995
 20
8.6577292302
 30
0.0
 10
13.8011630692
 20
8.6533318045
 30
0.0
 10
13.7978435847
 20
8.6493970618
 30
0.0
 10
13.7955483843
 20
8.6470044657
 30
0.0
 10
13.7943986947
 20
8.6458939508
 30
0.0
  0
SPLINE
  5
314
100
AcDbEntity
  8
0
100
AcDbSpline
 62
7
  6
CONTINUOUS
 70
0
 71
3
 72
17
 73
13
 74
0
 42
0.0000001
 43
0.0000001
 44
0.0000000001
 40
0.0
 40
0.0
 40
0.0
 40
0.0
 40
0.1504734045
 40
0.2917303627
 40
0.4244677363
 40
0.4879386768
 40
0.549641363
 40
0.6683009281
 40
0.7818340625
 40
0.8918017795
 40
0.9460163297
 40
1.0
 40
1.0
 40
1.0
 40
1.0
 10
13.8253083237
 20
8.6437503608
 30
0.0
 10
13.8243584593
 20
8.6428328621
 30
0.0
 10
13.8224599733
 20
8.6411113462
 30
0.0
 10
13.8195203919
 20
8.6388171595
 30
0.0
 10
13.8170373787
 20
8.6371945903
 30
0.0
 10
13.8150574054
 20
8.6360958293
 30
0.0
 10
13.8131357441
 20
8.6351525074
 30
0.0
 10
13.8107327163
 20
8.6341993562
 30
0.0
 10
13.8078238086
 20
8.6334252451
 30
0.0
 10
13.8054002649
 20
8.6331016753
 30
0.0
 10
13.8034853777
 20
8.6330401762
 30
0.0
 10
13.8025354822
 20
8.6330737519
 30
0.0
 10
13.8020628317
 20
8.6331065265
 30
0.0
  0
SPLINE
  5
315
100
AcDbEntity
  8
0
100
AcDbSpline
 62
7
  6
CONTINUOUS
 70
0
 71
3
 72
9
 73
5
 74
0
 42
0.0000001
 43
0.0000001
 44
0.0000000001
 40
0.0
 40
0.0
 40
0.0
 40
0.0
 40
0.4859592298
 40
1.0
 40
1.0
 40
1.0
 40
1.0
 10
13.7891739874
 20
8.6414335498
 30
0.0
 10
13.7900684087
 20
8.6420966
 30
0.0
 10
13.7918584725
 20
8.6435299243
 30
0.0
 10
13.7935516126
 20
8.6450757323
 30
0.0
 10
13.7943986947
 20
8.6458939508
 30
0.0
  0
SPLINE
  5
316
100
AcDbEntity
  8
0
100
AcDbSpline
 62
7
  6
CONTINUOUS
 70
0
 71
3
 72
41
 73
37
 74
0
 42
0.0000001
 43
0.0000001
 44
0.0000000001
 40
0.0
 40
0.0
 40
0.0
 40
0.0
 40
0.0311443777
 40
0.0624425595
 40
0.0938872477
 40
0.1254696093
 40
0.1571771289
 40
0.1889951561
 40
0.2209067114
 40
0.2528930218
 40
0.2849338418
 40
0.3170078727
 40
0.349093173
 40
0.3811675842
 40
0.4132091572
 40
0.4451965775
 40
0.4771095803
 40
0.5089293526
 40
0.5406389143
 40
0.5722234721
 40
0.6036707398
 40
0.6349712184
 40
0.6661184287
 40
0.6971090895
 40
0.7279432343
 40
0.7586242609
 40
0.7891589086
 40
0.8195571576
 40
0.8498320512
 40
0.8649308888
 40
0.8800050477
 40
0.9100832517
 40
0.9400926686
 40
0.9550812681
 40
0.9700610312
 40
1.0
 40
1.0
 40
1.0
 40
1.0
 10
10.8360743444
 20
8.9959689435
 30
0.0
 10
10.8327603906
 20
8.996198767
 30
0.0
 10
10.8261304756
 20
8.9969021335
 30
0.0
 10
10.8162660002
 20
8.9986738666
 30
0.0
 10
10.8065071588
 20
9.0011556165
 30
0.0
 10
10.7969067172
 20
9.0043339151
 30
0.0
 10
10.7875156321
 20
9.0081918108
 30
0.0
 10
10.7783840127
 20
9.012708623
 30
0.0
 10
10.7695605022
 20
9.0178602332
 30
0.0
 10
10.7610921172
 20
9.0236191272
 30
0.0
 10
10.7530239778
 20
9.0299545787
 30
0.0
 10
10.7453990744
 20
9.0368327971
 30
0.0
 10
10.7382580408
 20
9.0442171117
 30
0.0
 10
10.7316389394
 20
9.0520681635
 30
0.0
 10
10.7255770612
 20
9.0603441135
 30
0.0
 10
10.7201047385
 20
9.0690008628
 30
0.0
 10
10.7152511746
 20
9.0779922858
 30
0.0
 10
10.7110422878
 20
9.0872704717
 30
0.0
 10
10.7075005734
 20
9.0967859778
 30
0.0
 10
10.704644985
 20
9.1064880895
 30
0.0
 10
10.7024908323
 20
9.1163250874
 30
0.0
 10
10.7010496979
 20
9.1262445186
 30
0.0
 10
10.7003293736
 20
9.1361934736
 30
0.0
 10
10.7003338136
 20
9.1461188622
 30
0.0
 10
10.7010631147
 20
9.1559677042
 30
0.0
 10
10.7025134912
 20
9.1656873711
 30
0.0
 10
10.7046773573
 20
9.1752260101
 30
0.0
 10
10.7075431103
 20
9.1845322872
 30
0.0
 10
10.7105067445
 20
9.1920605259
 30
0.0
 10
10.7132112605
 20
9.1979148696
 30
0.0
 10
10.7161298774
 20
9.2036419533
 30
0.0
 10
10.7201822781
 20
9.2105691217
 30
0.0
 10
10.7247558366
 20
9.2171527891
 30
0.0
 10
10.7287081004
 20
9.2221851459
 30
0.0
 10
10.7328488451
 20
9.2270532861
 30
0.0
 10
10.7361663463
 20
9.2305189458
 30
0.0
 10
10.7384631817
 20
9.2327375001
 30
0.0
  0
SPLINE
  5
317
100
AcDbEntity
  8
0
100
AcDbSpline
 62
7
  6
CONTINUOUS
 70
0
 71
3
 72
15
 73
11
 74
0
 42
0.0000001
 43
0.0000001
 44
0.0000000001
 40
0.0
 40
0.0
 40
0.0
 40
0.0
 40
0.1233171152
 40
0.2468171801
 40
0.3706749982
 40
0.4950495769
 40
0.6200773723
 40
0.7458670578
 40
0.8724927841
 40
1.0
 40
1.0
 40
1.0
 40
1.0
 10
10.9336855071
 20
9.0306255602
 30
0.0
 10
10.930532676
 20
9.0275801843
 30
0.0
 10
10.9238886183
 20
9.0218199069
 30
0.0
 10
10.9130449208
 20
9.0142927673
 30
0.0
 10
10.9014255416
 20
9.0079475067
 30
0.0
 10
10.8891494402
 20
9.0028492855
 30
0.0
 10
10.8763404205
 20
8.9990487821
 30
0.0
 10
10.8631275126
 20
8.9965839813
 30
0.0
 10
10.8496455967
 20
8.9954788557
 30
0.0
 10
10.8405958793
 20
8.995655374
 30
0.0
 10
10.8360743444
 20
8.9959689435
 30
0.0
  0
SPLINE
  5
318
100
AcDbEntity
  8
0
100
AcDbSpline
 62
7
  6
CONTINUOUS
 70
0
 71
3
 72
41
 73
37
 74
0
 42
0.0000001
 43
0.0000001
 44
0.0000000001
 40
0.0
 40
0.0
 40
0.0
 40
0.0
 40
0.0311443777
 40
0.0624425595
 40
0.0938872477
 40
0.1254696093
 40
0.1571771289
 40
0.1889951561
 40
0.2209067114
 40
0.2528930218
 40
0.2849338418
 40
0.3170078727
 40
0.349093173
 40
0.3811675842
 40
0.4132091572
 40
0.4451965775
 40
0.4771095803
 40
0.5089293526
 40
0.5406389143
 40
0.5722234721
 40
0.6036707398
 40
0.6349712184
 40
0.6661184287
 40
0.6971090895
 40
0.7279432343
 40
0.7586242609
 40
0.7891589086
 40
0.8195571576
 40
0.8498320512
 40
0.8649308888
 40
0.8800050477
 40
0.9100832517
 40
0.9400926686
 40
0.9550812681
 40
0.9700610312
 40
1.0
 40
1.0
 40
1.0
 40
1.0
 10
12.8886668757
 20
7.103363576
 30
0.0
 10
12.8853529218
 20
7.1035933995
 30
0.0
 10
12.8787230069
 20
7.104296766
 30
0.0
 10
12.8688585315
 20
7.1060684991
 30
0.0
 10
12.8590996901
 20
7.108550249
 30
0.0
 10
12.8494992485
 20
7.1117285476
 30
0.0
 10
12.8401081634
 20
7.1155864433
 30
0.0
 10
12.830976544
 20
7.1201032555
 30
0.0
 10
12.8221530334
 20
7.1252548657
 30
0.0
 10
12.8136846484
 20
7.1310137597
 30
0.0
 10
12.8056165091
 20
7.1373492111
 30
0.0
 10
12.7979916057
 20
7.1442274296
 30
0.0
 10
12.790850572
 20
7.1516117442
 30
0.0
 10
12.7842314707
 20
7.159462796
 30
0.0
 10
12.7781695924
 20
7.1677387459
 30
0.0
 10
12.7726972697
 20
7.1763954953
 30
0.0
 10
12.7678437059
 20
7.1853869182
 30
0.0
 10
12.7636348191
 20
7.1946651042
 30
0.0
 10
12.7600931047
 20
7.2041806102
 30
0.0
 10
12.7572375163
 20
7.213882722
 30
0.0
 10
12.7550833636
 20
7.2237197199
 30
0.0
 10
12.7536422292
 20
7.233639151
 30
0.0
 10
12.7529219048
 20
7.243588106
 30
0.0
 10
12.7529263449
 20
7.2535134947
 30
0.0
 10
12.7536556459
 20
7.2633623367
 30
0.0
 10
12.7551060225
 20
7.2730820036
 30
0.0
 10
12.7572698886
 20
7.2826206425
 30
0.0
 10
12.7601356415
 20
7.2919269197
 30
0.0
 10
12.7630992758
 20
7.2994551584
 30
0.0
 10
12.7658037918
 20
7.3053095021
 30
0.0
 10
12.7687224086
 20
7.3110365858
 30
0.0
 10
12.7727748094
 20
7.3179637542
 30
0.0
 10
12.7773483678
 20
7.3245474216
 30
0.0
 10
12.7813006317
 20
7.3295797784
 30
0.0
 10
12.7854413763
 20
7.3344479185
 30
0.0
 10
12.7887588776
 20
7.3379135783
 30
0.0
 10
12.791055713
 20
7.3401321326
 30
0.0
  0
SPLINE
  5
319
100
AcDbEntity
  8
0
100
AcDbSpline
 62
7
  6
CONTINUOUS
 70
0
 71
3
 72
15
 73
11
 74
0
 42
0.0000001
 43
0.0000001
 44
0.0000000001
 40
0.0
 40
0.0
 40
0.0
 40
0.0
 40
0.1233171152
 40
0.2468171801
 40
0.3706749982
 40
0.4950495769
 40
0.6200773723
 40
0.7458670578
 40
0.8724927841
 40
1.0
 40
1.0
 40
1.0
 40
1.0
 10
10.9336855071
 20
7.2803679682
 30
0.0
 10
10.930532676
 20
7.2773225923
 30
0.0
 10
10.9238886183
 20
7.2715623149
 30
0.0
 10
10.9130449208
 20
7.2640351753
 30
0.0
 10
10.9014255416
 20
7.2576899147
 30
0.0
 10
10.8891494402
 20
7.2525916935
 30
0.0
 10
10.8763404205
 20
7.2487911901
 30
0.0
 10
10.8631275126
 20
7.2463263893
 30
0.0
 10
10.8496455967
 20
7.2452212637
 30
0.0
 10
10.8405958793
 20
7.245397782
 30
0.0
 10
10.8360743444
 20
7.2457113515
 30
0.0
  0
SPLINE
  5
31A
100
AcDbEntity
  8
0
100
AcDbSpline
 62
7
  6
CONTINUOUS
 70
0
 71
3
 72
15
 73
11
 74
0
 42
0.0000001
 43
0.0000001
 44
0.0000000001
 40
0.0
 40
0.0
 40
0.0
 40
0.0
 40
0.1233171152
 40
0.2468171801
 40
0.3706749982
 40
0.4950495769
 40
0.6200773723
 40
0.7458670578
 40
0.8724927841
 40
1.0
 40
1.0
 40
1.0
 40
1.0
 10
12.9862780384
 20
7.1380201927
 30
0.0
 10
12.9831252072
 20
7.1349748168
 30
0.0
 10
12.9764811496
 20
7.1292145393
 30
0.0
 10
12.9656374521
 20
7.1216873998
 30
0.0
 10
12.9540180729
 20
7.1153421392
 30
0.0
 10
12.9417419714
 20
7.110243918
 30
0.0
 10
12.9289329517
 20
7.1064434146
 30
0.0
 10
12.9157200438
 20
7.1039786137
 30
0.0
 10
12.902238128
 20
7.1028734882
 30
0.0
 10
12.8931884106
 20
7.1030500065
 30
0.0
 10
12.8886668757
 20
7.103363576
 30
0.0
  0
SPLINE
  5
31B
100
AcDbEntity
  8
0
100
AcDbSpline
 62
7
  6
CONTINUOUS
 70
0
 71
3
 72
15
 73
11
 74
0
 42
0.0000001
 43
0.0000001
 44
0.0000000001
 40
0.0
 40
0.0
 40
0.0
 40
0.0
 40
0.1233171152
 40
0.2468171801
 40
0.3706749982
 40
0.4950495769
 40
0.6200773723
 40
0.7458670578
 40
0.8724927841
 40
1.0
 40
1.0
 40
1.0
 40
1.0
 10
12.9862780384
 20
8.8882777847
 30
0.0
 10
12.9831252072
 20
8.8852324088
 30
0.0
 10
12.9764811496
 20
8.8794721314
 30
0.0
 10
12.9656374521
 20
8.8719449918
 30
0.0
 10
12.9540180729
 20
8.8655997312
 30
0.0
 10
12.9417419714
 20
8.86050151
 30
0.0
 10
12.9289329517
 20
8.8567010066
 30
0.0
 10
12.9157200438
 20
8.8542362057
 30
0.0
 10
12.902238128
 20
8.8531310802
 30
0.0
 10
12.8931884106
 20
8.8533075985
 30
0.0
 10
12.8886668757
 20
8.853621168
 30
0.0
  0
SPLINE
  5
31C
100
AcDbEntity
  8
0
100
AcDbSpline
 62
7
  6
CONTINUOUS
 70
0
 71
3
 72
39
 73
35
 74
0
 42
0.0000001
 43
0.0000001
 44
0.0000000001
 40
0.0
 40
0.0
 40
0.0
 40
0.0
 40
0.0071625678
 40
0.0146567179
 40
0.0224900413
 40
0.0306687017
 40
0.0391977329
 40
0.0480809761
 40
0.0573207983
 40
0.0669183965
 40
0.0768741435
 40
0.0871874377
 40
0.1088799456
 40
0.131978928
 40
0.1564568622
 40
0.182278431
 40
0.2094015018
 40
0.2377780607
 40
0.2673549092
 40
0.2980741881
 40
0.3298737896
 40
0.3626878448
 40
0.3964471028
 40
0.4310792359
 40
0.4665091073
 40
0.5026591244
 40
0.5394495258
 40
0.5767986285
 40
0.6146230679
 40
0.6913563402
 40
0.7689609431
 40
0.8467367595
 40
0.9239813805
 40
1.0
 40
1.0
 40
1.0
 40
1.0
 10
8.1293259945
 20
9.696554313
 30
0.0
 10
8.1285137002
 20
9.695769697
 30
0.0
 10
8.1268901827
 20
9.6941237185
 30
0.0
 10
8.1245106156
 20
9.69149328
 30
0.0
 10
8.1221340354
 20
9.688648045
 30
0.0
 10
8.1197620328
 20
9.6855898505
 30
0.0
 10
8.1173958942
 20
9.6823205276
 30
0.0
 10
8.1150370137
 20
9.6788419372
 30
0.0
 10
8.1126867282
 20
9.6751561325
 30
0.0
 10
8.1103464275
 20
9.6712653104
 30
0.0
 10
8.1080175447
 20
9.6671717627
 30
0.0
 10
8.1048763594
 20
9.6613481678
 30
0.0
 10
8.1009976689
 20
9.6535705128
 30
0.0
 10
8.0964856082
 20
9.643621774
 30
0.0
 10
8.092051633
 20
9.6329297546
 30
0.0
 10
8.0877064522
 20
9.6215200056
 30
0.0
 10
8.0834605506
 20
9.6094196638
 30
0.0
 10
8.0793242035
 20
9.596657665
 30
0.0
 10
8.0753074306
 20
9.5832645569
 30
0.0
 10
8.0714199716
 20
9.5692724524
 30
0.0
 10
8.0676712287
 20
9.5547149478
 30
0.0
 10
8.0640702753
 20
9.5396270224
 30
0.0
 10
8.0606258304
 20
9.5240449411
 30
0.0
 10
8.0573462381
 20
9.5080061741
 30
0.0
 10
8.05423942
 20
9.4915493115
 30
0.0
 10
8.0513128833
 20
9.4747139554
 30
0.0
 10
8.0485737124
 20
9.4575406295
 30
0.0
 10
8.0460285067
 20
9.4400706399
 30
0.0
 10
8.0428869181
 20
9.4163251346
 30
0.0
 10
8.0394931817
 20
9.3862131143
 30
0.0
 10
8.036296721
 20
9.3497509406
 30
0.0
 10
8.0339880958
 20
9.3131408297
 30
0.0
 10
8.0325894549
 20
9.2767351583
 30
0.0
 10
8.0322689326
 20
9.2525683905
 30
0.0
 10
8.0322689326
 20
9.2405821784
 30
0.0
  0
SPLINE
  5
31D
100
AcDbEntity
  8
0
100
AcDbSpline
 62
7
  6
CONTINUOUS
 70
0
 71
3
 72
20
 73
16
 74
0
 42
0.0000001
 43
0.0000001
 44
0.0000000001
 40
0.0
 40
0.0
 40
0.0
 40
0.0
 40
0.056917431
 40
0.1142165344
 40
0.1720018005
 40
0.2303710126
 40
0.2894144749
 40
0.3492140853
 40
0.4098428389
 40
0.4713643276
 40
0.5972496613
 40
0.7272287343
 40
0.7938267921
 40
0.8614960628
 40
1.0
 40
1.0
 40
1.0
 40
1.0
 10
11.3874265592
 20
8.0911460096
 30
0.0
 10
11.3864813902
 20
8.0892256465
 30
0.0
 10
11.3847059511
 20
8.0853110501
 30
0.0
 10
11.3824048013
 20
8.0792619805
 30
0.0
 10
11.3804624997
 20
8.0730309516
 30
0.0
 10
11.3788829114
 20
8.0666308609
 30
0.0
 10
11.3776691838
 20
8.0600744767
 30
0.0
 10
11.3768235697
 20
8.0533750684
 30
0.0
 10
11.3763476722
 20
8.0465458828
 30
0.0
 10
11.3762061325
 20
8.0372157818
 30
0.0
 10
11.3769782554
 20
8.0252828563
 30
0.0
 10
11.3789583778
 20
8.0132999909
 30
0.0
 10
11.3812521807
 20
8.0036284238
 30
0.0
 10
11.3840664542
 20
7.9937618501
 30
0.0
 10
11.3866833528
 20
7.9864507699
 30
0.0
 10
11.3886349664
 20
7.9816218425
 30
0.0
  0
LINE
  5
31E
100
AcDbEntity
  8
0
100
AcDbLine
 62
7
  6
CONTINUOUS
 10
11.3886349664
 20
7.9816218425
 11
11.3887926878
 21
7.9812328033
  0
SPLINE
  5
31F
100
AcDbEntity
  8
0
100
AcDbSpline
 62
7
  6
CONTINUOUS
 70
0
 71
3
 72
31
 73
27
 74
0
 42
0.0000001
 43
0.0000001
 44
0.0000000001
 40
0.0
 40
0.0
 40
0.0
 40
0.0
 40
0.0851787309
 40
0.1685810121
 40
0.2498835895
 40
0.328774602
 40
0.404955116
 40
0.4781414295
 40
0.5480672418
 40
0.6144862178
 40
0.6463107921
 40
0.6771770202
 40
0.7070609923
 40
0.7359410551
 40
0.7637973337
 40
0.7906125905
 40
0.8163718057
 40
0.8410631226
 40
0.8646775355
 40
0.8872099623
 40
0.9086591137
 40
0.9290287662
 40
0.9483279273
 40
0.966572423
 40
0.9837855238
 40
1.0
 40
1.0
 40
1.0
 40
1.0
 10
8.0322689326
 20
7.6709526177
 30
0.0
 10
8.0322689326
 20
7.6631827841
 30
0.0
 10
8.0324013342
 20
7.6478047865
 30
0.0
 10
8.0330085847
 20
7.6250177601
 30
0.0
 10
8.034019983
 20
7.6028190536
 30
0.0
 10
8.0354311318
 20
7.5813021834
 30
0.0
 10
8.03723593
 20
7.5605576391
 30
0.0
 10
8.0394265607
 20
7.5406725741
 30
0.0
 10
8.0419936187
 20
7.5217306393
 30
0.0
 10
8.0444711264
 20
7.5065895048
 30
0.0
 10
8.0466438918
 20
7.495014087
 30
0.0
 10
8.0483371861
 20
7.4867406949
 30
0.0
 10
8.0501156529
 20
7.4787601293
 30
0.0
 10
8.0519773637
 20
7.4710807557
 30
0.0
 10
8.0539204139
 20
7.4637106335
 30
0.0
 10
8.0559426735
 20
7.4566574768
 30
0.0
 10
8.0580420835
 20
7.449928668
 30
0.0
 10
8.0602163524
 20
7.4435312191
 30
0.0
 10
8.0624632774
 20
7.4374718
 30
0.0
 10
8.0647804289
 20
7.4317566787
 30
0.0
 10
8.0671654866
 20
7.4263917772
 30
0.0
 10
8.0696159224
 20
7.4213825768
 30
0.0
 10
8.0721293325
 20
7.4167342362
 30
0.0
 10
8.074703199
 20
7.4124513708
 30
0.0
 10
8.0773349628
 20
7.4085385527
 30
0.0
 10
8.0791803459
 20
7.4061083167
 30
0.0
 10
8.0801135766
 20
7.4049608518
 30
0.0
  0
SPLINE
  5
320
100
AcDbEntity
  8
0
100
AcDbSpline
 62
7
  6
CONTINUOUS
 70
0
 71
3
 72
41
 73
37
 74
0
 42
0.0000001
 43
0.0000001
 44
0.0000000001
 40
0.0
 40
0.0
 40
0.0
 40
0.0
 40
0.0311443777
 40
0.0624425595
 40
0.0938872477
 40
0.1254696093
 40
0.1571771289
 40
0.1889951561
 40
0.2209067114
 40
0.2528930218
 40
0.2849338418
 40
0.3170078727
 40
0.349093173
 40
0.3811675842
 40
0.4132091572
 40
0.4451965775
 40
0.4771095803
 40
0.5089293526
 40
0.5406389143
 40
0.5722234721
 40
0.6036707398
 40
0.6349712184
 40
0.6661184287
 40
0.6971090895
 40
0.7279432343
 40
0.7586242609
 40
0.7891589086
 40
0.8195571576
 40
0.8498320512
 40
0.8649308888
 40
0.8800050477
 40
0.9100832517
 40
0.9400926686
 40
0.9550812681
 40
0.9700610312
 40
1.0
 40
1.0
 40
1.0
 40
1.0
 10
10.8360743444
 20
7.2457113515
 30
0.0
 10
10.8327603906
 20
7.245941175
 30
0.0
 10
10.8261304756
 20
7.2466445415
 30
0.0
 10
10.8162660002
 20
7.2484162746
 30
0.0
 10
10.8065071588
 20
7.2508980245
 30
0.0
 10
10.7969067172
 20
7.2540763231
 30
0.0
 10
10.7875156321
 20
7.2579342188
 30
0.0
 10
10.7783840127
 20
7.262451031
 30
0.0
 10
10.7695605022
 20
7.2676026412
 30
0.0
 10
10.7610921172
 20
7.2733615352
 30
0.0
 10
10.7530239778
 20
7.2796969867
 30
0.0
 10
10.7453990744
 20
7.2865752051
 30
0.0
 10
10.7382580408
 20
7.2939595197
 30
0.0
 10
10.7316389394
 20
7.3018105715
 30
0.0
 10
10.7255770612
 20
7.3100865214
 30
0.0
 10
10.7201047385
 20
7.3187432708
 30
0.0
 10
10.7152511746
 20
7.3277346937
 30
0.0
 10
10.7110422878
 20
7.3370128797
 30
0.0
 10
10.7075005734
 20
7.3465283858
 30
0.0
 10
10.704644985
 20
7.3562304975
 30
0.0
 10
10.7024908323
 20
7.3660674954
 30
0.0
 10
10.7010496979
 20
7.3759869266
 30
0.0
 10
10.7003293736
 20
7.3859358816
 30
0.0
 10
10.7003338136
 20
7.3958612702
 30
0.0
 10
10.7010631147
 20
7.4057101122
 30
0.0
 10
10.7025134912
 20
7.4154297791
 30
0.0
 10
10.7046773573
 20
7.4249684181
 30
0.0
 10
10.7075431103
 20
7.4342746952
 30
0.0
 10
10.7105067445
 20
7.4418029339
 30
0.0
 10
10.7132112605
 20
7.4476572776
 30
0.0
 10
10.7161298774
 20
7.4533843613
 30
0.0
 10
10.7201822781
 20
7.4603115297
 30
0.0
 10
10.7247558366
 20
7.4668951971
 30
0.0
 10
10.7287081004
 20
7.4719275539
 30
0.0
 10
10.7328488451
 20
7.4767956941
 30
0.0
 10
10.7361663463
 20
7.4802613538
 30
0.0
 10
10.7384631817
 20
7.4824799081
 30
0.0
  0
SPLINE
  5
321
100
AcDbEntity
  8
0
100
AcDbSpline
 62
7
  6
CONTINUOUS
 70
0
 71
3
 72
18
 73
14
 74
0
 42
0.0000001
 43
0.0000001
 44
0.0000000001
 40
0.0
 40
0.0
 40
0.0
 40
0.0
 40
0.1504675778
 40
0.2917143634
 40
0.4244426495
 40
0.4879099663
 40
0.5496093894
 40
0.6682625047
 40
0.7817882978
 40
0.8371380147
 40
0.8918078593
 40
0.9460192908
 40
1.0
 40
1.0
 40
1.0
 40
1.0
 10
13.6182532555
 20
7.9549919909
 30
0.0
 10
13.6168623265
 20
7.9536484566
 30
0.0
 10
13.6140823444
 20
7.9511275906
 30
0.0
 10
13.6097778442
 20
7.9477682168
 30
0.0
 10
13.6061419484
 20
7.9453922968
 30
0.0
 10
13.6032426524
 20
7.9437833932
 30
0.0
 10
13.6004286495
 20
7.9424021087
 30
0.0
 10
13.596910254
 20
7.9410063667
 30
0.0
 10
13.5933292718
 20
7.9400538978
 30
0.0
 10
13.5904930248
 20
7.9395847107
 30
0.0
 10
13.5883909766
 20
7.9393764623
 30
0.0
 10
13.58629743
 20
7.9393092213
 30
0.0
 10
13.5849065304
 20
7.9393584319
 30
0.0
 10
13.584214419
 20
7.9394064329
 30
0.0
  0
ELLIPSE
  5
322
100
AcDbEntity
  8
0
100
AcDbEllipse
 62
7
  6
CONTINUOUS
 10
10.9779170582
 20
8.6250674465
 30
0.0
 11
0.2038816678
 21
0.052092531
 31
0.0
 40
0.9580384953
 41
0.0
 42
6.2831853072
  0
ELLIPSE
  5
323
100
AcDbEntity
  8
0
100
AcDbEllipse
 62
7
  6
CONTINUOUS
 10
12.7721884355
 20
8.5006343039
 30
0.0
 11
0.1695922076
 21
-0.1459718667
 31
0.0
 40
0.8472906785
 41
0.0
 42
6.2831853072
  0
ELLIPSE
  5
324
100
AcDbEntity
  8
0
100
AcDbEllipse
 62
7
  6
CONTINUOUS
 10
12.2702675222
 20
8.1164105036
 30
0.0
 11
-0.1168831568
 21
0.1896595995
 31
0.0
 40
0.8547485655
 41
0.0
 42
6.2831853072
  0
ELLIPSE
  5
325
100
AcDbEntity
  8
0
100
AcDbEllipse
 62
7
  6
CONTINUOUS
 10
11.4798379139
 20
8.1712269831
 30
0.0
 11
0.0177335716
 21
0.2116255208
 31
0.0
 40
0.9406519603
 41
0.0
 42
6.2831853072
  0
ELLIPSE
  5
326
100
AcDbEntity
  8
0
100
AcDbEllipse
 62
7
  6
CONTINUOUS
 10
11.8745697901
 20
7.5715824837
 30
0.0
 11
-0.0815362471
 21
0.1954257295
 31
0.0
 40
0.9125030261
 41
0.0
 42
6.2831853072
  0
ENDSEC
  0
SECTION
  2
OBJECTS
  0
DICTIONARY
  5
C
100
AcDbDictionary
280
0
281
1
  3
ACAD_GROUP
350
D
  3
ACAD_MLINESTYLE
350
17
  3
ACAD_LAYOUT
350
1A
  3
ACAD_PLOTSETTINGS
350
19
  3
ACAD_PLOTSTYLENAME
350
E
  3
ACAD_IMAGE_DICT
350
       328
  3
ACAD_IMAGE_VARS
350
       329
  3
ACAD_TABLESTYLE
350
       32A
  0
IMAGEDEF_REACTOR
  5
327
100
AcDbRasterImageDefReactor
 90
2
330
26A
  0
DICTIONARY
  5
D
102
{ACAD_REACTORS
330
C
102
}
100
AcDbDictionary
280
0
281
1
  0
ACDBDICTIONARYWDFLT
  5
E
102
{ACAD_REACTORS
330
C
102
}
100
AcDbDictionary
281
1
  3
Normal
350
F
100
AcDbDictionaryWithDefault
340
F
  0
DICTIONARY
  5
328
330
C
100
AcDbDictionary
281
1
  3
U7L_assy_2_img_1
350
       32D
  0
RASTERVARIABLES
  5
329
330
C
100
AcDbRasterVariables
 90
0
 70
0
 71
1
 72
5
  0
DICTIONARY
  5
17
102
{ACAD_REACTORS
330
C
102
}
100
AcDbDictionary
280
0
281
1
  3
Standard
350
18
  0
DICTIONARY
  5
32A
330
C
100
AcDbDictionary
281
1
  3
Standard
350
       32E
  3
Standard1
350
       32F
  0
DICTIONARY
  5
19
102
{ACAD_REACTORS
330
C
102
}
100
AcDbDictionary
281
1
  0
DICTIONARY
  5
1A
102
{ACAD_REACTORS
330
C
102
}
100
AcDbDictionary
281
1
  3
Model
350
32B
  3
Layout1
350
32C
  0
ACDBPLACEHOLDER
  5
F
102
{ACAD_REACTORS
330
E
102
}
  0
MLINESTYLE
  5
18
102
{ACAD_REACTORS
330
17
102
}
100
AcDbMlineStyle
  2
STANDARD
 70
0
  3

 62
256
 51
90.0
 52
90.0
 71
2
 49
0.5
 62
256
  6
BYLAYER
 49
-0.5
 62
256
  6
BYLAYER
  0
LAYOUT
  5
32B
102
{ACAD_REACTORS
330
1A
102
}
100
AcDbPlotSettings
  1

  2
none_device
  4
ANSI_C_(22.00_x_17.00_Inches)
  6

 40
0.0
 41
0.0
 42
0.0
 43
0.0
 44
558.8
 45
431.8
 46
0.0
 47
0.0
 48
0.0
 49
0.0
140
0.0
141
0.0
142
1.0
143
1.0
 70
1024
 72
0
 73
0
 74
0
  7

 75
0
147
1.0
148
0.0
149
0.0
100
AcDbLayout
  1
Model
 70
0
 71
0
 10
0.0
 20
0.0
 11
22.0
 21
17.0
 12
0.0
 22
0.0
 32
0.0
 14
0.0
 24
0.0
 34
0.0
 15
0.0
 25
0.0
 35
0.0
146
0.0
 13
0.0
 23
0.0
 33
0.0
 16
1.0
 26
0.0
 36
0.0
 17
0.0
 27
1.0
 37
0.0
 76
0
330
207
345
0
346
0
  0
LAYOUT
  5
32C
102
{ACAD_REACTORS
330
1A
102
}
100
AcDbPlotSettings
  1

  2
none_device
  4
ANSI_C_(22.00_x_17.00_Inches)
  6

 40
0.0
 41
0.0
 42
0.0
 43
0.0
 44
558.8
 45
431.8
 46
0.0
 47
0.0
 48
0.0
 49
0.0
140
0.0
141
0.0
142
1.0
143
1.0
 70
0
 72
0
 73
0
 74
0
  7

 75
0
147
1.0
148
0.0
149
0.0
100
AcDbLayout
  1
Layout1
 70
0
 71
1
 10
0.0
 20
0.0
 11
22.0
 21
17.0
 12
0.0
 22
0.0
 32
0.0
 14
0.0
 24
0.0
 34
0.0
 15
0.0
 25
0.0
 35
0.0
146
0.0
 13
0.0
 23
0.0
 33
0.0
 16
1.0
 26
0.0
 36
0.0
 17
0.0
 27
1.0
 37
0.0
 76
0
330
208
345
0
346
0
  0
IMAGEDEF
  5
32D
102
{ACAD_REACTORS
330
328
330
327
102
}
100
AcDbRasterImageDef
 90
0
  1
U7L_assy_2_img_1.png
 10
369.0
 20
92.0
 11
0.0066666667
 21
0.0066666667
280
1
281
0
  0
TABLESTYLE
  5
32E
102
{ACAD_REACTORS
330
32A
330
26D
102
}
330
32A
100
AcDbTableStyle
  3
Standard
 70
0
 71
0
 40
0.06
 41
0.06
280
1
281
1
  7
Standard
140
0.18
170
1
 62
0
 63
7
283
0
  7
Standard
140
0.18
170
1
 62
0
 63
7
283
0
  7
Standard
140
0.18
170
1
 62
0
 63
7
283
0
  0
TABLESTYLE
  5
32F
102
{ACAD_REACTORS
330
32A
330
26C
102
}
330
32A
100
AcDbTableStyle
  3
Standard1
 70
1
 71
0
 40
0.06
 41
0.06
280
1
281
1
  7
Standard
140
0.18
170
1
 62
0
 63
7
283
0
  7
Standard
140
0.18
170
1
 62
0
 63
7
283
0
  7
Standard
140
0.18
170
1
 62
0
 63
7
283
0
  0
ENDSEC
  0
EOF
