999
DXF file: U6S_assy_2.dxf
999
Pro/ENGINEER 2014200 by Parametric Technology Corporation
  0
SECTION
  2
HEADER
  9
$ACADVER
  1
AC1021
  9
$DWGCODEPAGE
  3
ANSI_1252
  9
$EXTMAX
 10
22.0
 20
17.0
 30
0.0
  9
$EXTMIN
 10
0.0
 20
0.0
 30
0.0
  9
$LIMMIN
 10
0.0
 20
0.0
  9
$LIMMAX
 10
22.0
 20
17.0
  9
$VIEWCTR
 10
11.0
 20
8.5
  9
$VIEWSIZE
 40
17.0
  9
$CLAYER
  8
0
  9
$LTSCALE
 40
1.21
  9
$CELTYPE
  6
BYLAYER
  9
$DIMSCALE
 40
1.0
  9
$DIMASZ
 40
0.1875
  9
$DIMEXO
 40
0.0625
  9
$DIMDLI
 40
0.836
  9
$DIMEXE
 40
0.125
  9
$DIMCEN
 40
0.198
  9
$DIMLFAC
 40
1.0
  9
$DIMBLK
  1
_FILLED
  9
$DIMTXT
 40
0.1
  9
$DIMTOL
 70
0
  9
$DIMLIM
 70
0
  9
$DIMTFAC
 40
1.0
  9
$DIMGAP
 40
0.09
  9
$DIMDSEP
 70
46
  9
$AUNITS
 70
0
  9
$PDMODE
 70
3
  9
$PDSIZE
 40
0.3125
  9
$HANDSEED
  5
32F
  9
$TILEMODE
 70
1
  9
$MEASUREMENT
 70
0
  9
$INSUNITS
 70
1
  0
ENDSEC
  0
SECTION
  2
CLASSES
  0
CLASS
  1
ACDBDICTIONARYWDFLT
  2
AcDbDictionaryWithDefault
  3
AutoCAD 2000
 90
0
 91
1
280
0
281
0
  0
CLASS
  1
ACDBPLACEHOLDER
  2
AcDbPlaceHolder
  3
AutoCAD 2000
 90
0
 91
1
280
0
281
0
  0
CLASS
  1
LAYOUT
  2
AcDbLayout
  3
AutoCAD 2000
 90
0
 91
0
280
0
281
0
  0
CLASS
  1
RASTERVARIABLES
  2
AcDbRasterVariables
  3
ISM
 90
0
 91
1
280
0
281
0
  0
CLASS
  1
IMAGEDEF
  2
AcDbRasterImageDef
  3
ISM
 90
0
 91
1
280
0
281
0
  0
CLASS
  1
IMAGEDEF_REACTOR
  2
AcDbRasterImageDefReactor
  3
ISM
 90
0
 91
1
280
0
281
0
  0
CLASS
  1
IMAGE
  2
AcDbRasterImage
  3
ISM
 90
127
 91
1
280
0
281
1
  0
CLASS
  1
TABLESTYLE
  2
AcDbTableStyle
  3
ObjectDBX Classes
 90
2047
 91
1
280
0
281
0
  0
CLASS
  1
ACAD_TABLE
  2
AcDbTable
  3
ObjectDBX Classes
 90
1025
 91
2
280
0
281
1
  0
ENDSEC
  0
SECTION
  2
TABLES
  0
TABLE
  2
VPORT
  5
8
100
AcDbSymbolTable
 70
2
  0
VPORT
  5
1F4
100
AcDbSymbolTableRecord
100
AcDbViewportTableRecord
  2
*ACTIVE
 70
0
 10
0.0
 20
0.0
 11
1.0
 21
1.0
 12
11.0
 22
8.5
 13
0.0
 23
0.0
 14
1.0
 24
1.0
 15
0.0
 25
0.0
 16
0.0
 26
0.0
 36
1.0
 17
0.0
 27
0.0
 37
0.0
 40
17.0
 41
1.2941176471
 42
50.0
 43
0.0
 44
0.0
 50
0.0
 51
0.0
 71
0
 72
100
 73
1
 74
1
 75
0
 76
0
 77
0
 78
0
  0
ENDTAB
  0
TABLE
  2
LTYPE
  5
5
100
AcDbSymbolTable
 70
6
  0
LTYPE
  5
14
100
AcDbSymbolTableRecord
100
AcDbLinetypeTableRecord
  2
BYBLOCK
 70
0
  3

 72
65
 73
0
 40
0.0
  0
LTYPE
  5
15
100
AcDbSymbolTableRecord
100
AcDbLinetypeTableRecord
  2
BYLAYER
 70
0
  3

 72
65
 73
0
 40
0.0
  0
LTYPE
  5
16
100
AcDbSymbolTableRecord
100
AcDbLinetypeTableRecord
  2
CONTINUOUS
 70
64
  3
Solid line
 72
65
 73
0
 40
0.0
  0
LTYPE
  5
1F5
100
AcDbSymbolTableRecord
100
AcDbLinetypeTableRecord
  2
CENTER
 70
64
  3
____ _ ____ _ ____ _ ____ _ ____ _ ____ _ ____
 72
65
 73
4
 40
0.6
 49
0.375
 74
0
 49
-0.075
 74
0
 49
0.075
 74
0
 49
-0.075
 74
0
  0
LTYPE
  5
1F6
100
AcDbSymbolTableRecord
100
AcDbLinetypeTableRecord
  2
HIDDEN
 70
64
  3
- - - - - - - - - - - - - - - - - - - -
 72
65
 73
2
 40
0.2
 49
0.1
 74
0
 49
-0.1
 74
0
  0
LTYPE
  5
1F7
100
AcDbSymbolTableRecord
100
AcDbLinetypeTableRecord
  2
PHANTOM
 70
64
  3
_____ _ _ _____ _ _ _____ _ _ _____
 72
65
 73
6
 40
0.8
 49
0.45
 74
0
 49
-0.05
 74
0
 49
0.1
 74
0
 49
-0.05
 74
0
 49
0.1
 74
0
 49
-0.05
 74
0
  0
LTYPE
  5
1F8
100
AcDbSymbolTableRecord
100
AcDbLinetypeTableRecord
  2
DOT
 70
64
  3
. . . . . . . . . . . . . . . . . . . .
 72
65
 73
2
 40
0.2
 49
0.1
 74
0
 49
-0.1
 74
0
  0
LTYPE
  5
1F9
100
AcDbSymbolTableRecord
100
AcDbLinetypeTableRecord
  2
DASHED
 70
64
  3
- - - - - - - - - - - - - - - - - - - -
 72
65
 73
2
 40
0.2
 49
0.1
 74
0
 49
-0.1
 74
0
  0
ENDTAB
  0
TABLE
  2
LAYER
  5
2
100
AcDbSymbolTable
 70
36
  0
LAYER
  5
10
100
AcDbSymbolTableRecord
100
AcDbLayerTableRecord
  2
0
 70
0
 62
7
  6
CONTINUOUS
370
-3
390
F
  0
LAYER
  5
1FA
100
AcDbSymbolTableRecord
100
AcDbLayerTableRecord
  2
DEFAULT_1
 70
0
 62
7
  6
CENTER
370
-3
390
F
  0
LAYER
  5
1FB
100
AcDbSymbolTableRecord
100
AcDbLayerTableRecord
  2
DEFAULT_2
 70
0
 62
8
  6
HIDDEN
370
-3
390
F
  0
LAYER
  5
1FC
100
AcDbSymbolTableRecord
100
AcDbLayerTableRecord
  2
DEFAULT_3
 70
0
 62
7
  6
PHANTOM
370
-3
390
F
  0
LAYER
  5
1FD
100
AcDbSymbolTableRecord
100
AcDbLayerTableRecord
  2
01___PRT_ALL_DTM_PLN
 70
0
 62
7
  6
CONTINUOUS
370
-3
390
F
  0
LAYER
  5
1FE
100
AcDbSymbolTableRecord
100
AcDbLayerTableRecord
  2
01___PRT_DEF_DTM_PLN
 70
0
 62
7
  6
CONTINUOUS
370
-3
390
F
  0
LAYER
  5
1FF
100
AcDbSymbolTableRecord
100
AcDbLayerTableRecord
  2
02___PRT_ALL_AXES
 70
0
 62
7
  6
CONTINUOUS
370
-3
390
F
  0
LAYER
  5
200
100
AcDbSymbolTableRecord
100
AcDbLayerTableRecord
  2
03___PRT_ALL_CURVES
 70
0
 62
7
  6
CONTINUOUS
370
-3
390
F
  0
LAYER
  5
201
100
AcDbSymbolTableRecord
100
AcDbLayerTableRecord
  2
04___PRT_ALL_DTM_PNT
 70
0
 62
7
  6
CONTINUOUS
370
-3
390
F
  0
LAYER
  5
202
100
AcDbSymbolTableRecord
100
AcDbLayerTableRecord
  2
05___PRT_ALL_DTM_CSYS
 70
0
 62
7
  6
CONTINUOUS
370
-3
390
F
  0
LAYER
  5
203
100
AcDbSymbolTableRecord
100
AcDbLayerTableRecord
  2
05___PRT_DEF_DTM_CSYS
 70
0
 62
7
  6
CONTINUOUS
370
-3
390
F
  0
LAYER
  5
204
100
AcDbSymbolTableRecord
100
AcDbLayerTableRecord
  2
06___PRT_ALL_SURFS
 70
0
 62
7
  6
CONTINUOUS
370
-3
390
F
  0
LAYER
  5
205
100
AcDbSymbolTableRecord
100
AcDbLayerTableRecord
  2
DATUM_PLANES
 70
0
 62
7
  6
CONTINUOUS
370
-3
390
F
  0
LAYER
  5
206
100
AcDbSymbolTableRecord
100
AcDbLayerTableRecord
  2
DIMENSIONS
 70
0
 62
7
  6
CONTINUOUS
370
-3
390
F
  0
LAYER
  5
207
100
AcDbSymbolTableRecord
100
AcDbLayerTableRecord
  2
DTM_500001
 70
0
 62
7
  6
CONTINUOUS
370
-3
390
F
  0
LAYER
  5
208
100
AcDbSymbolTableRecord
100
AcDbLayerTableRecord
  2
PARAMETERDIMENSIONS
 70
0
 62
7
  6
CONTINUOUS
370
-3
390
F
  0
LAYER
  5
209
100
AcDbSymbolTableRecord
100
AcDbLayerTableRecord
  2
PORT_AREAS
 70
0
 62
7
  6
CONTINUOUS
370
-3
390
F
  0
LAYER
  5
20A
100
AcDbSymbolTableRecord
100
AcDbLayerTableRecord
  2
SUNNBOMCOSMETIC
 70
0
 62
7
  6
CONTINUOUS
370
-3
390
F
  0
LAYER
  5
20B
100
AcDbSymbolTableRecord
100
AcDbLayerTableRecord
  2
SUNNBOMSTAMPING
 70
0
 62
7
  6
CONTINUOUS
370
-3
390
F
  0
LAYER
  5
20C
100
AcDbSymbolTableRecord
100
AcDbLayerTableRecord
  2
THREADS
 70
0
 62
7
  6
CONTINUOUS
370
-3
390
F
  0
ENDTAB
  0
TABLE
  2
STYLE
  5
3
100
AcDbSymbolTable
 70
1
  0
STYLE
  5
11
100
AcDbSymbolTableRecord
100
AcDbTextStyleTableRecord
  2
STANDARD
 70
0
 40
0.0
 41
0.8
 50
0.0
 71
0
 42
0.2
  3
txt
  4

  0
STYLE
  5
20D
100
AcDbSymbolTableRecord
100
AcDbTextStyleTableRecord
  2
TEXTSTYLE_1
 70
0
 40
0.0
 41
0.8
 50
0.0
 71
0
 42
0.2
  3
gdt
  4

  0
ENDTAB
  0
TABLE
  2
VIEW
  5
6
100
AcDbSymbolTable
 70
0
  0
ENDTAB
  0
TABLE
  2
UCS
  5
7
100
AcDbSymbolTable
 70
0
  0
ENDTAB
  0
TABLE
  2
APPID
  5
9
100
AcDbSymbolTable
 70
1
  0
APPID
  5
20E
100
AcDbSymbolTableRecord
100
AcDbRegAppTableRecord
  2
ACAD
 70
0
  0
ENDTAB
  0
TABLE
  2
BLOCK_RECORD
  5
1
100
AcDbSymbolTable
 70
0
  0
BLOCK_RECORD
  5
20F
100
AcDbSymbolTableRecord
100
AcDbBlockTableRecord
  2
*Model_Space
  0
BLOCK_RECORD
  5
210
100
AcDbSymbolTableRecord
100
AcDbBlockTableRecord
  2
*Paper_Space
  0
BLOCK_RECORD
  5
211
100
AcDbSymbolTableRecord
100
AcDbBlockTableRecord
  2
SUN_FIRST_THIRD_ANGLE_BL0
  0
BLOCK_RECORD
  5
212
100
AcDbSymbolTableRecord
100
AcDbBlockTableRecord
  2
*T1
  0
BLOCK_RECORD
  5
213
100
AcDbSymbolTableRecord
100
AcDbBlockTableRecord
  2
*T2
  0
ENDTAB
  0
TABLE
  2
DIMSTYLE
  5
A
100
AcDbSymbolTable
 70
1
100
AcDbDimStyleTable
 71
0
  0
DIMSTYLE
105
214
100
AcDbSymbolTableRecord
100
AcDbDimStyleTableRecord
  2
STANDARD
 70
0
  3

  4

 40
1.0
 41
0.1875
 42
0.0625
 43
0.38
 44
0.125
 45
0.0
 46
0.0
 47
0.001
 48
0.001
140
0.1
141
0.09
142
0.0
143
25.4
144
1.0
145
0.0
146
1.0
147
0.09
 71
0.0
 72
0.0
 73
1
 74
1
 75
0
 76
0
 77
0
 78
4
170
0
171
2
172
0
173
0
174
0
175
0
176
0
177
0
178
0
270
2
271
3
272
3
273
2
274
2
275
0
280
0
281
0
282
0
283
1
284
4
285
0
286
0
287
3
288
0
340
11
278
46
  0
ENDTAB
  0
ENDSEC
  0
SECTION
  2
BLOCKS
  0
BLOCK
  5
20
100
AcDbEntity
  8
0
100
AcDbBlockBegin
  2
*Model_Space
 70
0
 10
0.0
 20
0.0
 30
0.0
  3
*Model_Space
  1

  0
ENDBLK
  5
21
100
AcDbEntity
  8
0
100
AcDbBlockEnd
  0
BLOCK
  5
1C
100
AcDbEntity
  8
0
100
AcDbBlockBegin
  2
*Paper_Space
 70
0
 10
0.0
 20
0.0
 30
0.0
  3
*Paper_Space
  1

  0
ENDBLK
  5
1D
100
AcDbEntity
  8
0
100
AcDbBlockEnd
  0
BLOCK
  5
215
100
AcDbEntity
  8
0
100
AcDbBlockBegin
 62
2
  6
CONTINUOUS
  2
SUN_FIRST_THIRD_ANGLE_BL0
 70
64
 10
20.4816717061
 20
1.2289683772
  3
SUN_FIRST_THIRD_ANGLE_BL0
  1

  0
TEXT
  5
216
100
AcDbEntity
  8
0
100
AcDbText
 62
2
  6
CONTINUOUS
 10
19.4750896608
 20
1.4136269581
  7
STANDARD
 40
0.08
  1
FIRST ANGLE
 41
0.8
 72
0
100
AcDbText
  0
TEXT
  5
217
100
AcDbEntity
  8
0
100
AcDbText
 62
2
  6
CONTINUOUS
 10
20.7842537513
 20
1.4047600029
  7
STANDARD
 40
0.08
  1
THIRD ANGLE
 41
0.8
 72
0
100
AcDbText
  0
LINE
  5
218
100
AcDbEntity
  8
0
100
AcDbLine
 62
7
  6
CONTINUOUS
 10
19.4767170086
 20
1.1727031207
 11
19.6334271527
 21
1.1717972817
  0
LINE
  5
219
100
AcDbEntity
  8
0
100
AcDbLine
 62
7
  6
CONTINUOUS
 10
19.6596964832
 20
1.1717972817
 11
19.6950230232
 21
1.171593082
  0
LINE
  5
21A
100
AcDbEntity
  8
0
100
AcDbLine
 62
7
  6
CONTINUOUS
 10
19.7194818561
 20
1.1708914427
 11
19.8852396156
 21
1.1699333054
  0
LINE
  5
21B
100
AcDbEntity
  8
0
100
AcDbLine
 62
7
  6
CONTINUOUS
 10
19.4758111696
 20
1.2723454088
 11
19.88525039
 21
1.3511534004
  0
LINE
  5
21C
100
AcDbEntity
  8
0
100
AcDbLine
 62
7
  6
CONTINUOUS
 10
19.88525039
 20
1.3511534004
 11
19.8831348489
 21
0.9851647912
  0
LINE
  5
21D
100
AcDbEntity
  8
0
100
AcDbLine
 62
7
  6
CONTINUOUS
 10
19.8831348489
 20
0.9851647912
 11
19.4767170086
 21
1.0658141206
  0
LINE
  5
21E
100
AcDbEntity
  8
0
100
AcDbLine
 62
7
  6
CONTINUOUS
 10
19.4767170086
 20
1.0658141206
 11
19.4779056764
 21
1.2714536432
  0
CIRCLE
  5
21F
100
AcDbEntity
  8
0
100
AcDbCircle
 62
7
  6
CONTINUOUS
 10
20.2068232291
 20
1.1717972817
 40
0.175742101
  0
CIRCLE
  5
220
100
AcDbEntity
  8
0
100
AcDbCircle
 62
7
  6
CONTINUOUS
 10
20.2068232291
 20
1.1717972817
 40
0.1005522074
  0
LINE
  5
221
100
AcDbEntity
  8
0
100
AcDbLine
 62
7
  6
CONTINUOUS
 10
20.2077290681
 20
1.3756110529
 11
20.2071171714
 21
1.2379342989
  0
LINE
  5
222
100
AcDbEntity
  8
0
100
AcDbLine
 62
7
  6
CONTINUOUS
 10
20.2077290681
 20
1.2016899681
 11
20.2074674401
 21
1.1428236749
  0
LINE
  5
223
100
AcDbEntity
  8
0
100
AcDbLine
 62
7
  6
CONTINUOUS
 10
20.208634907
 20
1.101141841
 11
20.2080230104
 21
0.963465087
  0
LINE
  5
224
100
AcDbEntity
  8
0
100
AcDbLine
 62
7
  6
CONTINUOUS
 10
20.0066328138
 20
1.1745147986
 11
20.1443095678
 21
1.1739029019
  0
LINE
  5
225
100
AcDbEntity
  8
0
100
AcDbLine
 62
7
  6
CONTINUOUS
 10
20.1832714155
 20
1.1727031207
 11
20.238153505
 21
1.172335442
  0
LINE
  5
226
100
AcDbEntity
  8
0
100
AcDbLine
 62
7
  6
CONTINUOUS
 10
20.2756669918
 20
1.1717972817
 11
20.407916871
 21
1.1712095044
  0
CIRCLE
  5
227
100
AcDbEntity
  8
0
100
AcDbCircle
 62
7
  6
CONTINUOUS
 10
20.7509457401
 20
1.1693297793
 40
0.1722024983
  0
CIRCLE
  5
228
100
AcDbEntity
  8
0
100
AcDbCircle
 62
7
  6
CONTINUOUS
 10
20.7509457401
 20
1.1693297793
 40
0.0985164967
  0
LINE
  5
229
100
AcDbEntity
  8
0
100
AcDbLine
 62
7
  6
CONTINUOUS
 10
20.7169767782
 20
1.170462078
 11
20.7825395137
 21
1.1682766535
  0
LINE
  5
22A
100
AcDbEntity
  8
0
100
AcDbLine
 62
7
  6
CONTINUOUS
 10
20.8177513651
 20
1.1693297793
 11
20.947965719
 21
1.1693297793
  0
LINE
  5
22B
100
AcDbEntity
  8
0
100
AcDbLine
 62
7
  6
CONTINUOUS
 10
20.6875370113
 20
1.170462078
 11
20.5573226574
 21
1.170462078
  0
LINE
  5
22C
100
AcDbEntity
  8
0
100
AcDbLine
 62
7
  6
CONTINUOUS
 10
20.7486811426
 20
1.1987695462
 11
20.7486811426
 21
1.1432869085
  0
LINE
  5
22D
100
AcDbEntity
  8
0
100
AcDbLine
 62
7
  6
CONTINUOUS
 10
20.7498134414
 20
1.1059210505
 11
20.7498134414
 21
0.9757066966
  0
LINE
  5
22E
100
AcDbEntity
  8
0
100
AcDbLine
 62
7
  6
CONTINUOUS
 10
20.7486811426
 20
1.2338708068
 11
20.7486811426
 21
1.3640851607
  0
LINE
  5
22F
100
AcDbEntity
  8
0
100
AcDbLine
 62
7
  6
CONTINUOUS
 10
21.0702539817
 20
1.2701043662
 11
21.4790138229
 21
1.3448360823
  0
LINE
  5
230
100
AcDbEntity
  8
0
100
AcDbLine
 62
7
  6
CONTINUOUS
 10
21.4790138229
 20
1.3448360823
 11
21.4790138229
 21
0.9779712941
  0
LINE
  5
231
100
AcDbEntity
  8
0
100
AcDbLine
 62
7
  6
CONTINUOUS
 10
21.4790138229
 20
0.9779712941
 11
21.069121683
 21
1.0617614
  0
LINE
  5
232
100
AcDbEntity
  8
0
100
AcDbLine
 62
7
  6
CONTINUOUS
 10
21.0702539817
 20
1.2701043662
 11
21.069121683
 21
1.0617614
  0
LINE
  5
233
100
AcDbEntity
  8
0
100
AcDbLine
 62
7
  6
CONTINUOUS
 10
21.4790138229
 20
1.1693297793
 11
21.3159628059
 21
1.1693297793
  0
LINE
  5
234
100
AcDbEntity
  8
0
100
AcDbLine
 62
7
  6
CONTINUOUS
 10
21.2876553377
 20
1.1693297793
 11
21.2502894796
 21
1.1693297793
  0
LINE
  5
235
100
AcDbEntity
  8
0
100
AcDbLine
 62
7
  6
CONTINUOUS
 10
21.2208497126
 20
1.1659328831
 11
21.0713862804
 21
1.1659328831
  0
LINE
  5
236
100
AcDbEntity
  8
0
100
AcDbLine
 62
7
  6
CONTINUOUS
 10
20.4796138713
 20
1.5284908897
 11
20.4766766948
 21
0.9294458646
  0
ENDBLK
  5
237
100
AcDbEntity
  8
0
  6
BYBLOCK
 62
0
100
AcDbBlockEnd
  0
BLOCK
  5
238
100
AcDbEntity
  8
0
100
AcDbBlockBegin
  2
*T1
 70
1
 10
0.0
 20
0.0
  3
*T1
  1

  0
LINE
  5
239
100
AcDbEntity
  8
0
100
AcDbLine
 62
2
  6
CONTINUOUS
 10
9.275
 20
0.0
 11
-0.0
 21
0.0
  0
LINE
  5
23A
100
AcDbEntity
  8
0
100
AcDbLine
 62
2
  6
CONTINUOUS
 10
9.275
 20
0.0
 11
9.275
 21
1.25
  0
LINE
  5
23B
100
AcDbEntity
  8
0
100
AcDbLine
 62
2
  6
CONTINUOUS
 10
9.275
 20
0.625
 11
-0.0
 21
0.625
  0
LINE
  5
23C
100
AcDbEntity
  8
0
100
AcDbLine
 62
2
  6
CONTINUOUS
 10
9.275
 20
1.25
 11
-0.0
 21
1.25
  0
LINE
  5
23D
100
AcDbEntity
  8
0
100
AcDbLine
 62
2
  6
CONTINUOUS
 10
6.8
 20
0.0
 11
6.8
 21
1.25
  0
LINE
  5
23E
100
AcDbEntity
  8
0
100
AcDbLine
 62
2
  6
CONTINUOUS
 10
6.4
 20
0.0
 11
6.4
 21
0.625
  0
LINE
  5
23F
100
AcDbEntity
  8
0
100
AcDbLine
 62
2
  6
CONTINUOUS
 10
5.9
 20
0.0
 11
5.9
 21
0.625
  0
LINE
  5
240
100
AcDbEntity
  8
0
100
AcDbLine
 62
2
  6
CONTINUOUS
 10
5.2
 20
0.0
 11
5.2
 21
0.625
  0
LINE
  5
241
100
AcDbEntity
  8
0
100
AcDbLine
 62
2
  6
CONTINUOUS
 10
4.1
 20
0.0
 11
4.1
 21
1.25
  0
LINE
  5
242
100
AcDbEntity
  8
0
100
AcDbLine
 62
2
  6
CONTINUOUS
 10
-0.0
 20
0.0
 11
-0.0
 21
1.25
  0
MTEXT
  5
243
100
AcDbEntity
  8
0
100
AcDbMText
 62
2
  6
CONTINUOUS
  7
STANDARD
 71
2
 72
1
 10
6.6
 20
0.325
 30
0.0
 11
1.0
 21
0.0
 31
0.0
 44
0.9
  1
2
 40
0.125
 41
0.2
  0
MTEXT
  5
244
100
AcDbEntity
  8
0
100
AcDbMText
 62
2
  6
CONTINUOUS
  7
STANDARD
 71
2
 72
1
 10
6.15
 20
0.325
 30
0.0
 11
1.0
 21
0.0
 31
0.0
 44
0.9
  1
C
 40
0.125
 41
0.2
  0
MTEXT
  5
245
100
AcDbEntity
  8
0
100
AcDbMText
 62
2
  6
CONTINUOUS
  7
STANDARD
 71
2
 72
1
 10
5.55
 20
0.325
 30
0.0
 11
1.0
 21
0.0
 31
0.0
 44
0.9
  1
1.000
 40
0.125
 41
1.0
  0
MTEXT
  5
246
100
AcDbEntity
  8
0
100
AcDbMText
 62
2
  6
CONTINUOUS
  7
STANDARD
 71
2
 72
1
 10
4.65
 20
0.325
 30
0.0
 11
1.0
 21
0.0
 31
0.0
 44
0.9
  1
Feb-13-23
 40
0.125
 41
1.8
  0
MTEXT
  5
247
100
AcDbEntity
  8
0
100
AcDbMText
 62
2
  6
CONTINUOUS
  7
STANDARD
 71
2
 72
1
 10
2.05
 20
0.4625
 30
0.0
 11
1.0
 21
0.0
 31
0.0
 44
0.9
  1
T-11A Sandwich ISO 05\PThrottle, low capacity
 40
0.125
 41
4.4
  0
MTEXT
  5
248
100
AcDbEntity
  8
0
100
AcDbMText
 62
2
  6
CONTINUOUS
  7
STANDARD
 71
1
 72
1
 10
6.45
 20
0.5625
 30
0.0
 11
1.0
 21
0.0
 31
0.0
 44
0.9
  1
SHEET
 40
0.06
 41
0.48
  0
MTEXT
  5
249
100
AcDbEntity
  8
0
100
AcDbMText
 62
2
  6
CONTINUOUS
  7
STANDARD
 71
1
 72
1
 10
5.95
 20
0.5625
 30
0.0
 11
1.0
 21
0.0
 31
0.0
 44
0.9
  1
DWG SIZE
 40
0.06
 41
0.768
  0
MTEXT
  5
24A
100
AcDbEntity
  8
0
100
AcDbMText
 62
2
  6
CONTINUOUS
  7
STANDARD
 71
1
 72
1
 10
5.25
 20
0.5625
 30
0.0
 11
1.0
 21
0.0
 31
0.0
 44
0.9
  1
SCALE
 40
0.06
 41
0.48
  0
MTEXT
  5
24B
100
AcDbEntity
  8
0
100
AcDbMText
 62
2
  6
CONTINUOUS
  7
STANDARD
 71
1
 72
1
 10
4.15
 20
0.5625
 30
0.0
 11
1.0
 21
0.0
 31
0.0
 44
0.9
  1
DATE
 40
0.06
 41
0.384
  0
MTEXT
  5
24C
100
AcDbEntity
  8
0
100
AcDbMText
 62
2
  6
CONTINUOUS
  7
STANDARD
 71
1
 72
1
 10
0.05
 20
0.5625
 30
0.0
 11
1.0
 21
0.0
 31
0.0
 44
0.9
  1
DESCRIPTION
 40
0.06
 41
1.056
  0
MTEXT
  5
24D
100
AcDbEntity
  8
0
100
AcDbMText
 62
2
  6
CONTINUOUS
  7
STANDARD
 71
2
 72
1
 10
5.45
 20
1.0375
 30
0.0
 11
1.0
 21
0.0
 31
0.0
 44
0.9
  1
ALL DIMENSIONS IN INCH\PVIEWS ARE THIRD ANGLE
 40
0.12
 41
4.224
  0
MTEXT
  5
24E
100
AcDbEntity
  8
0
100
AcDbMText
 62
2
  6
CONTINUOUS
  7
STANDARD
 71
2
 72
1
 10
2.05
 20
0.95
 30
0.0
 11
1.0
 21
0.0
 31
0.0
 44
0.9
  1
U6S
 40
0.125
 41
0.6
  0
MTEXT
  5
24F
100
AcDbEntity
  8
0
100
AcDbMText
 62
2
  6
CONTINUOUS
  7
STANDARD
 71
1
 72
1
 10
0.05
 20
1.1875
 30
0.0
 11
1.0
 21
0.0
 31
0.0
 44
0.9
  1
MODEL
 40
0.06
 41
0.48
  0
ENDBLK
  5
250
100
AcDbEntity
  8
0
  6
BYBLOCK
 62
0
100
AcDbBlockEnd
  0
BLOCK
  5
251
100
AcDbEntity
  8
0
100
AcDbBlockBegin
  2
*T2
 70
1
 10
0.0
 20
0.0
  3
*T2
  1

  0
LINE
  5
252
100
AcDbEntity
  8
0
100
AcDbLine
 62
2
  6
CONTINUOUS
 10
0.0
 20
0.0
 11
9.055
 21
0.0
  0
LINE
  5
253
100
AcDbEntity
  8
0
100
AcDbLine
 62
2
  6
CONTINUOUS
 10
0.0
 20
0.0
 11
0.0
 21
-2.344
  0
LINE
  5
254
100
AcDbEntity
  8
0
100
AcDbLine
 62
2
  6
CONTINUOUS
 10
0.0
 20
-0.344
 11
9.055
 21
-0.344
  0
LINE
  5
255
100
AcDbEntity
  8
0
100
AcDbLine
 62
2
  6
CONTINUOUS
 10
0.0
 20
-0.594
 11
9.055
 21
-0.594
  0
LINE
  5
256
100
AcDbEntity
  8
0
100
AcDbLine
 62
2
  6
CONTINUOUS
 10
0.0
 20
-0.844
 11
9.055
 21
-0.844
  0
LINE
  5
257
100
AcDbEntity
  8
0
100
AcDbLine
 62
2
  6
CONTINUOUS
 10
0.0
 20
-1.094
 11
9.055
 21
-1.094
  0
LINE
  5
258
100
AcDbEntity
  8
0
100
AcDbLine
 62
2
  6
CONTINUOUS
 10
0.0
 20
-1.344
 11
9.055
 21
-1.344
  0
LINE
  5
259
100
AcDbEntity
  8
0
100
AcDbLine
 62
2
  6
CONTINUOUS
 10
0.0
 20
-1.594
 11
9.055
 21
-1.594
  0
LINE
  5
25A
100
AcDbEntity
  8
0
100
AcDbLine
 62
2
  6
CONTINUOUS
 10
0.0
 20
-1.844
 11
9.055
 21
-1.844
  0
LINE
  5
25B
100
AcDbEntity
  8
0
100
AcDbLine
 62
2
  6
CONTINUOUS
 10
0.0
 20
-2.094
 11
9.055
 21
-2.094
  0
LINE
  5
25C
100
AcDbEntity
  8
0
100
AcDbLine
 62
2
  6
CONTINUOUS
 10
0.0
 20
-2.344
 11
9.055
 21
-2.344
  0
LINE
  5
25D
100
AcDbEntity
  8
0
100
AcDbLine
 62
2
  6
CONTINUOUS
 10
3.055
 20
0.0
 11
3.055
 21
-2.344
  0
LINE
  5
25E
100
AcDbEntity
  8
0
100
AcDbLine
 62
2
  6
CONTINUOUS
 10
9.055
 20
0.0
 11
9.055
 21
-2.344
  0
MTEXT
  5
25F
100
AcDbEntity
  8
0
100
AcDbMText
 62
2
  6
CONTINUOUS
  7
STANDARD
 71
2
 72
1
 10
1.5275
 20
-0.0995
 30
0.0
 11
1.0
 21
0.0
 31
0.0
 44
0.9
  1
Technical Data
 40
0.145
 41
3.248
  0
MTEXT
  5
260
100
AcDbEntity
  8
0
100
AcDbMText
 62
2
  6
CONTINUOUS
  7
STANDARD
 71
2
 72
1
 10
4.555
 20
-0.0995
 30
0.0
 11
1.0
 21
0.0
 31
0.0
 44
0.9
  1
U.S. Units
 40
0.145
 41
2.32
  0
MTEXT
  5
261
100
AcDbEntity
  8
0
100
AcDbMText
 62
2
  6
CONTINUOUS
  7
STANDARD
 71
2
 72
1
 10
7.555
 20
-0.0995
 30
0.0
 11
1.0
 21
0.0
 31
0.0
 44
0.9
  1
Metric Units
 40
0.145
 41
2.784
  0
MTEXT
  5
262
100
AcDbEntity
  8
0
100
AcDbMText
 62
2
  6
CONTINUOUS
  7
STANDARD
 71
2
 72
1
 10
1.5275
 20
-0.4065
 30
0.0
 11
1.0
 21
0.0
 31
0.0
 44
0.9
  1
Cavity
 40
0.125
 41
1.2
  0
MTEXT
  5
263
100
AcDbEntity
  8
0
100
AcDbMText
 62
2
  6
CONTINUOUS
  7
STANDARD
 71
2
 72
1
 10
6.055
 20
-0.4065
 30
0.0
 11
1.0
 21
0.0
 31
0.0
 44
0.9
  1
T-11A
 40
0.125
 41
1.0
  0
MTEXT
  5
264
100
AcDbEntity
  8
0
100
AcDbMText
 62
2
  6
CONTINUOUS
  7
STANDARD
 71
2
 72
1
 10
1.5275
 20
-0.6565
 30
0.0
 11
1.0
 21
0.0
 31
0.0
 44
0.9
  1
Body Features
 40
0.125
 41
2.6
  0
MTEXT
  5
265
100
AcDbEntity
  8
0
100
AcDbMText
 62
2
  6
CONTINUOUS
  7
STANDARD
 71
2
 72
1
 10
6.055
 20
-0.6565
 30
0.0
 11
1.0
 21
0.0
 31
0.0
 44
0.9
  1
Throttle, low capacity
 40
0.125
 41
4.4
  0
MTEXT
  5
266
100
AcDbEntity
  8
0
100
AcDbMText
 62
2
  6
CONTINUOUS
  7
STANDARD
 71
2
 72
1
 10
1.5275
 20
-0.9065
 30
0.0
 11
1.0
 21
0.0
 31
0.0
 44
0.9
  1
Body Type
 40
0.125
 41
1.8
  0
MTEXT
  5
267
100
AcDbEntity
  8
0
100
AcDbMText
 62
2
  6
CONTINUOUS
  7
STANDARD
 71
2
 72
1
 10
6.055
 20
-0.9065
 30
0.0
 11
1.0
 21
0.0
 31
0.0
 44
0.9
  1
Sandwich
 40
0.125
 41
1.6
  0
MTEXT
  5
268
100
AcDbEntity
  8
0
100
AcDbMText
 62
2
  6
CONTINUOUS
  7
STANDARD
 71
2
 72
1
 10
1.5275
 20
-1.1565
 30
0.0
 11
1.0
 21
0.0
 31
0.0
 44
0.9
  1
Interface
 40
0.125
 41
1.8
  0
MTEXT
  5
269
100
AcDbEntity
  8
0
100
AcDbMText
 62
2
  6
CONTINUOUS
  7
STANDARD
 71
2
 72
1
 10
6.055
 20
-1.1565
 30
0.0
 11
1.0
 21
0.0
 31
0.0
 44
0.9
  1
ISO 05
 40
0.125
 41
1.2
  0
MTEXT
  5
26A
100
AcDbEntity
  8
0
100
AcDbMText
 62
2
  6
CONTINUOUS
  7
STANDARD
 71
2
 72
1
 10
1.5275
 20
-1.4065
 30
0.0
 11
1.0
 21
0.0
 31
0.0
 44
0.9
  1
Open Cavity Quantity
 40
0.125
 41
4.0
  0
MTEXT
  5
26B
100
AcDbEntity
  8
0
100
AcDbMText
 62
2
  6
CONTINUOUS
  7
STANDARD
 71
2
 72
1
 10
6.055
 20
-1.4065
 30
0.0
 11
1.0
 21
0.0
 31
0.0
 44
0.9
  1
1
 40
0.125
 41
0.2
  0
MTEXT
  5
26C
100
AcDbEntity
  8
0
100
AcDbMText
 62
2
  6
CONTINUOUS
  7
STANDARD
 71
2
 72
1
 10
1.5275
 20
-1.6565
 30
0.0
 11
1.0
 21
0.0
 31
0.0
 44
0.9
  1
Stack Height
 40
0.125
 41
2.4
  0
MTEXT
  5
26D
100
AcDbEntity
  8
0
100
AcDbMText
 62
2
  6
CONTINUOUS
  7
STANDARD
 71
2
 72
1
 10
4.555
 20
-1.6565
 30
0.0
 11
1.0
 21
0.0
 31
0.0
 44
0.9
  1
3.15 in.
 40
0.125
 41
1.6
  0
MTEXT
  5
26E
100
AcDbEntity
  8
0
100
AcDbMText
 62
2
  6
CONTINUOUS
  7
STANDARD
 71
2
 72
1
 10
7.555
 20
-1.6565
 30
0.0
 11
1.0
 21
0.0
 31
0.0
 44
0.9
  1
80 mm
 40
0.125
 41
1.0
  0
MTEXT
  5
26F
100
AcDbEntity
  8
0
100
AcDbMText
 62
2
  6
CONTINUOUS
  7
STANDARD
 71
2
 72
1
 10
1.5275
 20
-1.9065
 30
0.0
 11
1.0
 21
0.0
 31
0.0
 44
0.9
  1
Weight
 40
0.125
 41
1.2
  0
MTEXT
  5
270
100
AcDbEntity
  8
0
100
AcDbMText
 62
2
  6
CONTINUOUS
  7
STANDARD
 71
2
 72
1
 10
4.555
 20
-1.9065
 30
0.0
 11
1.0
 21
0.0
 31
0.0
 44
0.9
  1
5.953 lb.
 40
0.125
 41
1.8
  0
MTEXT
  5
271
100
AcDbEntity
  8
0
100
AcDbMText
 62
2
  6
CONTINUOUS
  7
STANDARD
 71
2
 72
1
 10
7.555
 20
-1.9065
 30
0.0
 11
1.0
 21
0.0
 31
0.0
 44
0.9
  1
2,700 kg.
 40
0.125
 41
1.8
  0
MTEXT
  5
272
100
AcDbEntity
  8
0
100
AcDbMText
 62
2
  6
CONTINUOUS
  7
STANDARD
 71
2
 72
1
 10
1.5275
 20
-2.1565
 30
0.0
 11
1.0
 21
0.0
 31
0.0
 44
0.9
  1
Seal Plate Included (see notes)
 40
0.125
 41
6.2
  0
MTEXT
  5
273
100
AcDbEntity
  8
0
100
AcDbMText
 62
2
  6
CONTINUOUS
  7
STANDARD
 71
2
 72
1
 10
6.055
 20
-2.1565
 30
0.0
 11
1.0
 21
0.0
 31
0.0
 44
0.9
  1
No
 40
0.125
 41
0.4
  0
ENDBLK
  5
274
100
AcDbEntity
  8
0
  6
BYBLOCK
 62
0
100
AcDbBlockEnd
  0
ENDSEC
  0
SECTION
  2
ENTITIES
  0
IMAGE
  5
275
100
AcDbEntity
  8
0
100
AcDbRasterImage
 62
7
  6
CONTINUOUS
 10
19.2297077316
 20
0.3094318264
 30
0.0
 11
0.0066666667
 21
0.0
 31
0.0
 12
0.0
 22
0.0066666667
 32
0.0
 13
369.0
 23
92.0
340
       32C
 70
9
280
0
281
50
282
50
283
0
360
       326
 71
1
 91
2
 14
-0.5
 24
-0.5
 14
368.5
 24
91.5
  0
INSERT
  5
276
100
AcDbEntity
  8
0
100
AcDbBlockReference
 62
2
  6
CONTINUOUS
  2
SUN_FIRST_THIRD_ANGLE_BL0
 10
20.4816717061
 20
1.2289683772
  0
ACAD_TABLE
  5
277
100
AcDbEntity
  8
0
 62
2
  6
CONTINUOUS
100
AcDbBlockReference
  2
*T1
 10
12.42375
 20
0.30125
 30
0.0
100
AcDbTable
342
       32E
343
212
 11
1.0
 21
0.0
 31
0.0
 90
6
 91
4
 92
6
 93
20
 94
0
 95
0
 96
0
 70
1
 41
0.0
141
0.525
141
0.1
141
0.525
141
0.1
142
4.1
142
1.1
142
0.7
142
0.5
142
0.4
142
2.475
171
1
172
0
173
0
174
0
175
1
176
1
 91
33
178
0
145
0.0
301
CELL_VALUE
 90
4
  1
T-11A Sandwich ISO 05\PThrottle, low capacity
304
ACVALUE_END
170
2
140
0.125
171
1
172
0
173
0
174
0
175
1
176
1
 91
33
178
0
145
0.0
301
CELL_VALUE
 90
4
  1
Feb-13-23
304
ACVALUE_END
170
5
140
0.125
171
1
172
0
173
0
174
0
175
1
176
1
 91
33
178
0
145
0.0
301
CELL_VALUE
 90
4
  1
1.000
304
ACVALUE_END
170
5
140
0.125
171
1
172
0
173
0
174
0
175
1
176
1
 91
33
178
0
145
0.0
301
CELL_VALUE
 90
4
  1
C
304
ACVALUE_END
170
5
140
0.125
171
1
172
0
173
0
174
0
175
1
176
1
 91
33
178
0
145
0.0
301
CELL_VALUE
 90
4
  1
2
304
ACVALUE_END
170
5
140
0.125
171
1
172
0
173
0
174
0
175
1
176
1
 91
33
178
0
145
0.0
301
CELL_VALUE
 90
4
  1
 
304
ACVALUE_END
170
1
140
0.125
171
1
172
0
173
0
174
0
175
1
176
1
 91
33
178
0
145
0.0
301
CELL_VALUE
 90
4
  1
DESCRIPTION
304
ACVALUE_END
170
1
140
0.06
171
1
172
0
173
0
174
0
175
1
176
1
 91
33
178
0
145
0.0
301
CELL_VALUE
 90
4
  1
DATE
304
ACVALUE_END
170
1
140
0.06
171
1
172
0
173
0
174
0
175
1
176
1
 91
33
178
0
145
0.0
301
CELL_VALUE
 90
4
  1
SCALE
304
ACVALUE_END
170
1
140
0.06
171
1
172
0
173
0
174
0
175
1
176
1
 91
33
178
0
145
0.0
301
CELL_VALUE
 90
4
  1
DWG SIZE
304
ACVALUE_END
170
1
140
0.06
171
1
172
0
173
0
174
0
175
1
176
1
 91
33
178
0
145
0.0
301
CELL_VALUE
 90
4
  1
SHEET
304
ACVALUE_END
170
1
140
0.06
171
1
172
0
173
0
174
0
175
1
176
1
 91
33
178
0
145
0.0
301
CELL_VALUE
 90
4
  1
 
304
ACVALUE_END
170
1
140
0.125
171
1
172
0
173
0
174
0
175
1
176
1
 91
33
178
0
145
0.0
301
CELL_VALUE
 90
4
  1
U6S
304
ACVALUE_END
170
5
140
0.125
171
1
172
0
173
0
174
0
175
4
176
1
 91
33
178
0
145
0.0
301
CELL_VALUE
 90
4
  1
ALL DIMENSIONS IN INCH\PVIEWS ARE THIRD ANGLE
304
ACVALUE_END
170
5
140
0.12
171
1
172
0
173
1
174
0
175
1
176
1
 91
1
178
0
145
0.0
170
1
171
1
172
0
173
1
174
0
175
1
176
1
 91
1
178
0
145
0.0
170
1
171
1
172
0
173
1
174
0
175
1
176
1
 91
1
178
0
145
0.0
170
5
171
1
172
0
173
0
174
0
175
1
176
1
 91
33
178
0
145
0.0
301
CELL_VALUE
 90
4
  1
 
304
ACVALUE_END
170
1
140
0.125
171
1
172
0
173
0
174
0
175
1
176
1
 91
33
178
0
145
0.0
301
CELL_VALUE
 90
4
  1
MODEL
304
ACVALUE_END
170
1
140
0.06
171
1
172
0
173
0
174
0
175
1
176
1
 91
33
178
0
145
0.0
301
CELL_VALUE
 90
4
  1
 
304
ACVALUE_END
170
1
140
0.125
171
1
172
0
173
0
174
0
175
1
176
1
 91
33
178
0
145
0.0
301
CELL_VALUE
 90
4
  1
 
304
ACVALUE_END
170
1
140
0.125
171
1
172
0
173
0
174
0
175
1
176
1
 91
33
178
0
145
0.0
301
CELL_VALUE
 90
4
  1
 
304
ACVALUE_END
170
1
140
0.125
171
1
172
0
173
0
174
0
175
1
176
1
 91
33
178
0
145
0.0
301
CELL_VALUE
 90
4
  1
 
304
ACVALUE_END
170
1
140
0.125
171
1
172
0
173
0
174
0
175
1
176
1
 91
33
178
0
145
0.0
301
CELL_VALUE
 90
4
  1
 
304
ACVALUE_END
170
1
140
0.125
  0
ACAD_TABLE
  5
278
100
AcDbEntity
  8
0
 62
2
  6
CONTINUOUS
100
AcDbBlockReference
  2
*T2
 10
12.4237499994
 20
16.47875
 30
0.0
100
AcDbTable
342
       32D
343
213
 11
1.0
 21
0.0
 31
0.0
 90
22
 91
9
 92
3
 93
16
 94
0
 95
0
 96
0
 41
0.028
141
0.344
141
0.25
141
0.25
141
0.25
141
0.25
141
0.25
141
0.25
141
0.25
141
0.25
142
3.055
142
3.0
142
3.0
171
1
172
0
173
0
174
0
175
1
176
1
 91
33
178
0
145
0.0
301
CELL_VALUE
 90
4
  1
Technical Data
304
ACVALUE_END
170
5
140
0.145
171
1
172
0
173
0
174
0
175
1
176
1
 91
33
178
0
145
0.0
301
CELL_VALUE
 90
4
  1
U.S. Units
304
ACVALUE_END
170
5
140
0.145
171
1
172
0
173
0
174
0
175
1
176
1
 91
33
178
0
145
0.0
301
CELL_VALUE
 90
4
  1
Metric Units
304
ACVALUE_END
170
5
140
0.145
171
1
172
0
173
0
174
0
175
1
176
1
 91
33
178
0
145
0.0
301
CELL_VALUE
 90
4
  1
Cavity
304
ACVALUE_END
170
5
140
0.125
171
1
172
0
173
0
174
0
175
2
176
1
 91
33
178
0
145
0.0
301
CELL_VALUE
 90
4
  1
T-11A
304
ACVALUE_END
170
5
140
0.125
171
1
172
0
173
1
174
0
175
1
176
1
 91
1
178
0
145
0.0
170
1
171
1
172
0
173
0
174
0
175
1
176
1
 91
33
178
0
145
0.0
301
CELL_VALUE
 90
4
  1
Body Features
304
ACVALUE_END
170
5
140
0.125
171
1
172
0
173
0
174
0
175
2
176
1
 91
33
178
0
145
0.0
301
CELL_VALUE
 90
4
  1
Throttle, low capacity
304
ACVALUE_END
170
5
140
0.125
171
1
172
0
173
1
174
0
175
1
176
1
 91
1
178
0
145
0.0
170
1
171
1
172
0
173
0
174
0
175
1
176
1
 91
33
178
0
145
0.0
301
CELL_VALUE
 90
4
  1
Body Type
304
ACVALUE_END
170
5
140
0.125
171
1
172
0
173
0
174
0
175
2
176
1
 91
33
178
0
145
0.0
301
CELL_VALUE
 90
4
  1
Sandwich
304
ACVALUE_END
170
5
140
0.125
171
1
172
0
173
1
174
0
175
1
176
1
 91
1
178
0
145
0.0
170
1
171
1
172
0
173
0
174
0
175
1
176
1
 91
33
178
0
145
0.0
301
CELL_VALUE
 90
4
  1
Interface
304
ACVALUE_END
170
5
140
0.125
171
1
172
0
173
0
174
0
175
2
176
1
 91
33
178
0
145
0.0
301
CELL_VALUE
 90
4
  1
ISO 05
304
ACVALUE_END
170
5
140
0.125
171
1
172
0
173
1
174
0
175
1
176
1
 91
1
178
0
145
0.0
170
1
171
1
172
0
173
0
174
0
175
1
176
1
 91
33
178
0
145
0.0
301
CELL_VALUE
 90
4
  1
Open Cavity Quantity
304
ACVALUE_END
170
5
140
0.125
171
1
172
0
173
0
174
0
175
2
176
1
 91
33
178
0
145
0.0
301
CELL_VALUE
 90
4
  1
1
304
ACVALUE_END
170
5
140
0.125
171
1
172
0
173
1
174
0
175
1
176
1
 91
1
178
0
145
0.0
170
1
171
1
172
0
173
0
174
0
175
1
176
1
 91
33
178
0
145
0.0
301
CELL_VALUE
 90
4
  1
Stack Height
304
ACVALUE_END
170
5
140
0.125
171
1
172
0
173
0
174
0
175
1
176
1
 91
33
178
0
145
0.0
301
CELL_VALUE
 90
4
  1
3.15 in.
304
ACVALUE_END
170
5
140
0.125
171
1
172
0
173
0
174
0
175
1
176
1
 91
33
178
0
145
0.0
301
CELL_VALUE
 90
4
  1
80 mm
304
ACVALUE_END
170
5
140
0.125
171
1
172
0
173
0
174
0
175
1
176
1
 91
33
178
0
145
0.0
301
CELL_VALUE
 90
4
  1
Weight
304
ACVALUE_END
170
5
140
0.125
171
1
172
0
173
0
174
0
175
1
176
1
 91
33
178
0
145
0.0
301
CELL_VALUE
 90
4
  1
5.953 lb.
304
ACVALUE_END
170
5
140
0.125
171
1
172
0
173
0
174
0
175
1
176
1
 91
33
178
0
145
0.0
301
CELL_VALUE
 90
4
  1
2,700 kg.
304
ACVALUE_END
170
5
140
0.125
171
1
172
0
173
0
174
0
175
1
176
1
 91
33
178
0
145
0.0
301
CELL_VALUE
 90
4
  1
Seal Plate Included (see notes)
304
ACVALUE_END
170
5
140
0.125
171
1
172
0
173
0
174
0
175
2
176
1
 91
33
178
0
145
0.0
301
CELL_VALUE
 90
4
  1
No
304
ACVALUE_END
170
5
140
0.125
171
1
172
0
173
1
174
0
175
1
176
1
 91
1
178
0
145
0.0
170
1
  0
MTEXT
  5
279
100
AcDbEntity
  8
0
100
AcDbMText
 62
2
  6
CONTINUOUS
  7
STANDARD
 71
1
 72
1
 10
0.52125
 20
5.75995
 30
0.0
 11
1.0
 21
0.0
 31
0.0
 44
0.6
  3
Notes\P \P1. Important: Carefully consider\P   the maximum system pressure. The\P   pressure rating of the manifold is\P   dependent on the manifold material,\P   with the port type/size a secondary\P   consideration. Manifolds\P   constructed of alu
  1
minum are not\P   rated for pressures higher than\P   3000 psi (210 bar), regardless of\P   the port type/size specified.
 40
0.1
 41
3.04
  0
LINE
  5
27A
100
AcDbEntity
  8
0
100
AcDbLine
 62
7
  6
CONTINUOUS
 10
0.30125
 20
0.30125
 11
0.30125
 21
16.69875
  0
LINE
  5
27B
100
AcDbEntity
  8
0
100
AcDbLine
 62
7
  6
CONTINUOUS
 10
0.30125
 20
0.30125
 11
21.69875
 21
0.30125
  0
LINE
  5
27C
100
AcDbEntity
  8
0
100
AcDbLine
 62
7
  6
CONTINUOUS
 10
0.30125
 20
16.69875
 11
21.69875
 21
16.69875
  0
LINE
  5
27D
100
AcDbEntity
  8
0
100
AcDbLine
 62
7
  6
CONTINUOUS
 10
21.69875
 20
0.30125
 11
21.69875
 21
16.69875
  0
LINE
  5
27E
100
AcDbEntity
  8
0
100
AcDbLine
 62
7
  6
CONTINUOUS
 10
6.8849172181
 20
9.559039129
 11
6.864759748
 21
9.5248624453
  0
LINE
  5
27F
100
AcDbEntity
  8
0
100
AcDbLine
 62
7
  6
CONTINUOUS
 10
6.1379302738
 20
9.4978465152
 11
6.1389939272
 21
9.4988551777
  0
LINE
  5
280
100
AcDbEntity
  8
0
100
AcDbLine
 62
7
  6
CONTINUOUS
 10
6.1978176786
 20
9.5535807144
 11
6.199031495
 21
9.5547317972
  0
LINE
  5
281
100
AcDbEntity
  8
0
100
AcDbLine
 62
7
  6
CONTINUOUS
 10
6.1978070107
 20
9.5535921767
 11
6.1389930694
 21
9.4988543754
  0
LINE
  5
282
100
AcDbEntity
  8
0
100
AcDbLine
 62
7
  6
CONTINUOUS
 10
6.8039015269
 20
8.5156177387
 11
6.7960728118
 21
8.5344269312
  0
LINE
  5
283
100
AcDbEntity
  8
0
100
AcDbLine
 62
7
  6
CONTINUOUS
 10
6.1325948202
 20
8.5967378873
 11
6.0808438686
 21
8.6603683869
  0
LINE
  5
284
100
AcDbEntity
  8
0
100
AcDbLine
 62
7
  6
CONTINUOUS
 10
7.7277238065
 20
9.1491996401
 11
7.7277238065
 21
7.5795700793
  0
LINE
  5
285
100
AcDbEntity
  8
0
100
AcDbLine
 62
7
  6
CONTINUOUS
 10
7.7496441251
 20
9.1393730432
 11
7.7496441251
 21
7.5697434825
  0
LINE
  5
286
100
AcDbEntity
  8
0
100
AcDbLine
 62
7
  6
CONTINUOUS
 10
7.7974887686
 20
7.3037517133
 11
7.7716132928
 21
7.3355669631
  0
LINE
  5
287
100
AcDbEntity
  8
0
100
AcDbLine
 62
7
  6
CONTINUOUS
 10
8.4296404776
 20
10.1594776246
 11
7.8167574846
 21
9.5674780781
  0
LINE
  5
288
100
AcDbEntity
  8
0
100
AcDbLine
 62
7
  6
CONTINUOUS
 10
8.4595841799
 20
10.1873447242
 11
7.8467011869
 21
9.5953451777
  0
LINE
  5
289
100
AcDbEntity
  8
0
100
AcDbLine
 62
7
  6
CONTINUOUS
 10
8.460500383
 20
10.1882135692
 11
8.4595841799
 21
10.1873447242
  0
LINE
  5
28A
100
AcDbEntity
  8
0
100
AcDbLine
 62
7
  6
CONTINUOUS
 10
8.4304820965
 20
10.1602755197
 11
8.4296404776
 21
10.1594776246
  0
LINE
  5
28B
100
AcDbEntity
  8
0
100
AcDbLine
 62
7
  6
CONTINUOUS
 10
8.4296404776
 20
10.1594776246
 11
8.4595761307
 21
10.1873533728
  0
LINE
  5
28C
100
AcDbEntity
  8
0
100
AcDbLine
 62
7
  6
CONTINUOUS
 10
7.8167574846
 20
9.5674780781
 11
7.8467011869
 21
9.5953451777
  0
LINE
  5
28D
100
AcDbEntity
  8
0
100
AcDbLine
 62
7
  6
CONTINUOUS
 10
7.7277238065
 20
7.5795700793
 11
7.7496441251
 21
7.5697434825
  0
LINE
  5
28E
100
AcDbEntity
  8
0
100
AcDbLine
 62
7
  6
CONTINUOUS
 10
15.1837055688
 20
7.0634619138
 11
15.1457384826
 21
7.0577885225
  0
LINE
  5
28F
100
AcDbEntity
  8
0
100
AcDbLine
 62
7
  6
CONTINUOUS
 10
9.5266703407
 20
7.0201094887
 11
9.5266703407
 21
9.4349241975
  0
LINE
  5
290
100
AcDbEntity
  8
0
100
AcDbLine
 62
7
  6
CONTINUOUS
 10
10.3419496846
 20
10.2224236181
 11
9.5266703407
 21
9.4349241975
  0
LINE
  5
291
100
AcDbEntity
  8
0
100
AcDbLine
 62
7
  6
CONTINUOUS
 10
9.5266703407
 20
7.0201094887
 11
12.424447761
 21
6.819147942
  0
LINE
  5
292
100
AcDbEntity
  8
0
100
AcDbLine
 62
7
  6
CONTINUOUS
 10
9.5266703407
 20
7.1710864629
 11
7.8207571621
 21
7.2893919437
  0
LINE
  5
293
100
AcDbEntity
  8
0
100
AcDbLine
 62
7
  6
CONTINUOUS
 10
12.4997019116
 20
6.9658719491
 11
15.2168515196
 21
6.7774369838
  0
LINE
  5
294
100
AcDbEntity
  8
0
100
AcDbLine
 62
7
  6
CONTINUOUS
 10
7.7496441251
 20
7.5697434825
 11
9.5266703407
 21
7.4465062959
  0
LINE
  5
295
100
AcDbEntity
  8
0
100
AcDbLine
 62
7
  6
CONTINUOUS
 10
15.1457384826
 20
7.0577885225
 11
12.4285888746
 21
7.2462234879
  0
LINE
  5
296
100
AcDbEntity
  8
0
100
AcDbLine
 62
7
  6
CONTINUOUS
 10
7.7277238065
 20
9.1491996401
 11
7.7496441251
 21
9.1393730432
  0
LINE
  5
297
100
AcDbEntity
  8
0
100
AcDbLine
 62
7
  6
CONTINUOUS
 10
15.1837055688
 20
8.6330914745
 11
15.1457384826
 21
8.6274180833
  0
LINE
  5
298
100
AcDbEntity
  8
0
100
AcDbLine
 62
7
  6
CONTINUOUS
 10
7.7277238065
 20
8.348134088
 11
6.9291509046
 21
8.4035153068
  0
LINE
  5
299
100
AcDbEntity
  8
0
100
AcDbLine
 62
7
  6
CONTINUOUS
 10
6.7963274926
 20
8.5338150376
 11
6.1634331977
 21
8.5777064061
  0
LINE
  5
29A
100
AcDbEntity
  8
0
100
AcDbLine
 62
7
  6
CONTINUOUS
 10
7.7277238065
 20
8.4949281537
 11
6.7980176068
 21
8.5594034976
  0
LINE
  5
29B
100
AcDbEntity
  8
0
100
AcDbLine
 62
7
  6
CONTINUOUS
 10
7.7277238065
 20
8.5341460965
 11
6.7907935947
 21
8.5991224273
  0
LINE
  5
29C
100
AcDbEntity
  8
0
100
AcDbLine
 62
7
  6
CONTINUOUS
 10
11.1682725649
 20
8.7336802992
 11
11.0970138602
 21
8.7386221072
  0
LINE
  5
29D
100
AcDbEntity
  8
0
100
AcDbLine
 62
7
  6
CONTINUOUS
 10
7.7277238065
 20
9.099252571
 11
6.7907935947
 21
9.1642289019
  0
LINE
  5
29E
100
AcDbEntity
  8
0
100
AcDbLine
 62
7
  6
CONTINUOUS
 10
11.0902505138
 20
8.7427960135
 11
11.08607705
 21
8.7479275054
  0
LINE
  5
29F
100
AcDbEntity
  8
0
100
AcDbLine
 62
7
  6
CONTINUOUS
 10
13.2397271049
 20
10.0214620714
 11
12.424447761
 21
9.2339626508
  0
LINE
  5
2A0
100
AcDbEntity
  8
0
100
AcDbLine
 62
7
  6
CONTINUOUS
 10
12.5256459364
 20
9.2718251831
 11
13.1385289294
 21
9.8638247296
  0
LINE
  5
2A1
100
AcDbEntity
  8
0
100
AcDbLine
 62
7
  6
CONTINUOUS
 10
7.7496441251
 20
9.1393730432
 11
9.5266703407
 21
9.0161358566
  0
LINE
  5
2A2
100
AcDbEntity
  8
0
100
AcDbLine
 62
7
  6
CONTINUOUS
 10
15.1457384826
 20
8.6274180833
 11
12.4285888746
 21
8.8158530486
  0
LINE
  5
2A3
100
AcDbEntity
  8
0
100
AcDbLine
 62
7
  6
CONTINUOUS
 10
7.7277638762
 20
9.1534254296
 11
6.7980176068
 21
9.2179035523
  0
LINE
  5
2A4
100
AcDbEntity
  8
0
100
AcDbLine
 62
7
  6
CONTINUOUS
 10
6.8650964545
 20
9.525433326
 11
6.2322021596
 21
9.5693246945
  0
LINE
  5
2A5
100
AcDbEntity
  8
0
100
AcDbLine
 62
7
  6
CONTINUOUS
 10
9.5266703407
 20
9.4349241975
 11
12.424447761
 21
9.2339626508
  0
LINE
  5
2A6
100
AcDbEntity
  8
0
100
AcDbLine
 62
7
  6
CONTINUOUS
 10
7.8151213201
 20
9.5656795792
 11
6.9291509046
 21
9.6271218362
  0
LINE
  5
2A7
100
AcDbEntity
  8
0
100
AcDbLine
 62
7
  6
CONTINUOUS
 10
7.8293586901
 20
9.5796499088
 11
6.943598929
 21
9.6410775568
  0
LINE
  5
2A8
100
AcDbEntity
  8
0
100
AcDbLine
 62
7
  6
CONTINUOUS
 10
7.8467011869
 20
9.5953451777
 11
9.569088709
 21
9.4758971973
  0
LINE
  5
2A9
100
AcDbEntity
  8
0
100
AcDbLine
 62
7
  6
CONTINUOUS
 10
15.2427955444
 20
9.0833902178
 11
12.5256459364
 21
9.2718251831
  0
LINE
  5
2AA
100
AcDbEntity
  8
0
100
AcDbLine
 62
4
  6
CONTINUOUS
 10
15.7538834422
 20
8.3695655769
 11
15.7849417013
 21
8.3633433334
  0
LINE
  5
2AB
100
AcDbEntity
  8
0
100
AcDbLine
 62
7
  6
CONTINUOUS
 10
12.424447761
 20
6.819147942
 11
12.424447761
 21
9.2339626508
  0
LINE
  5
2AC
100
AcDbEntity
  8
0
100
AcDbLine
 62
7
  6
CONTINUOUS
 10
12.4285888746
 20
7.2462234879
 11
12.4285888746
 21
8.8158530486
  0
LINE
  5
2AD
100
AcDbEntity
  8
0
100
AcDbLine
 62
7
  6
CONTINUOUS
 10
8.4595841799
 20
10.1873447242
 11
10.181971702
 21
10.0678967439
  0
LINE
  5
2AE
100
AcDbEntity
  8
0
100
AcDbLine
 62
7
  6
CONTINUOUS
 10
15.8556785374
 20
9.6753897643
 11
13.1385289294
 21
9.8638247296
  0
LINE
  5
2AF
100
AcDbEntity
  8
0
100
AcDbLine
 62
7
  6
CONTINUOUS
 10
10.1951841046
 20
10.0806589455
 11
8.4855282048
 21
10.1992239848
  0
LINE
  5
2B0
100
AcDbEntity
  8
0
100
AcDbLine
 62
7
  6
CONTINUOUS
 10
13.1644729543
 20
9.8757039902
 11
15.8816225623
 21
9.6872690249
  0
LINE
  5
2B1
100
AcDbEntity
  8
0
100
AcDbLine
 62
7
  6
CONTINUOUS
 10
13.2397271049
 20
10.0214620714
 11
10.3419496846
 21
10.2224236181
  0
LINE
  5
2B2
100
AcDbEntity
  8
0
100
AcDbLine
 62
7
  6
CONTINUOUS
 10
13.2397271049
 20
9.8704850972
 11
13.2397271049
 21
10.0214620714
  0
LINE
  5
2B3
100
AcDbEntity
  8
0
100
AcDbLine
 62
7
  6
CONTINUOUS
 10
12.571213341
 20
6.9609126146
 11
12.424447761
 21
6.819147942
  0
LINE
  5
2B4
100
AcDbEntity
  8
0
100
AcDbLine
 62
7
  6
CONTINUOUS
 10
15.2427955444
 20
9.0833902178
 11
15.8556785374
 21
9.6753897643
  0
LINE
  5
2B5
100
AcDbEntity
  8
0
100
AcDbLine
 62
7
  6
CONTINUOUS
 10
15.2727392468
 20
9.0513699126
 11
15.8856222398
 21
9.6433694591
  0
LINE
  5
2B6
100
AcDbEntity
  8
0
100
AcDbLine
 62
4
  6
CONTINUOUS
 10
15.7849417013
 20
8.8269877471
 11
15.7538834422
 21
8.7969877708
  0
LINE
  5
2B7
100
AcDbEntity
  8
0
100
AcDbLine
 62
7
  6
CONTINUOUS
 10
15.5856512079
 20
8.8735544939
 11
15.5867933645
 21
8.874637416
  0
LINE
  5
2B8
100
AcDbEntity
  8
0
100
AcDbLine
 62
4
  6
CONTINUOUS
 10
15.7849417013
 20
8.5951655403
 11
15.7538834422
 21
8.5651655639
  0
LINE
  5
2B9
100
AcDbEntity
  8
0
100
AcDbLine
 62
4
  6
CONTINUOUS
 10
15.7849417013
 20
8.4792544368
 11
15.7538834422
 21
8.4492544605
  0
LINE
  5
2BA
100
AcDbEntity
  8
0
100
AcDbLine
 62
7
  6
CONTINUOUS
 10
15.2727392468
 20
9.0513699126
 11
15.2427955444
 21
9.0833902178
  0
LINE
  5
2BB
100
AcDbEntity
  8
0
100
AcDbLine
 62
7
  6
CONTINUOUS
 10
15.1457384826
 20
7.0577885225
 11
15.1457384826
 21
8.6274180833
  0
LINE
  5
2BC
100
AcDbEntity
  8
0
100
AcDbLine
 62
7
  6
CONTINUOUS
 10
15.1837055688
 20
7.0634619138
 11
15.1837055688
 21
8.6330914745
  0
LINE
  5
2BD
100
AcDbEntity
  8
0
100
AcDbLine
 62
7
  6
CONTINUOUS
 10
15.8856222398
 20
7.4091828905
 11
15.2727392468
 21
6.817183344
  0
LINE
  5
2BE
100
AcDbEntity
  8
0
100
AcDbLine
 62
7
  6
CONTINUOUS
 10
15.2727392468
 20
6.817183344
 11
15.2718976279
 21
6.8163854489
  0
LINE
  5
2BF
100
AcDbEntity
  8
0
100
AcDbLine
 62
7
  6
CONTINUOUS
 10
15.2418793414
 20
6.7884473994
 11
15.2718987832
 21
6.8163863235
  0
LINE
  5
2C0
100
AcDbEntity
  8
0
100
AcDbLine
 62
4
  6
CONTINUOUS
 10
15.7849417013
 20
8.3633433334
 11
15.7538834422
 21
8.2971211372
  0
LINE
  5
2C1
100
AcDbEntity
  8
0
100
AcDbLine
 62
7
  6
CONTINUOUS
 10
15.8856222398
 20
9.6433694591
 11
15.8556785374
 21
9.6753897643
  0
LINE
  5
2C2
100
AcDbEntity
  8
0
100
AcDbLine
 62
7
  6
CONTINUOUS
 10
15.9048909557
 20
9.6729092554
 11
15.9307664316
 21
9.6410940056
  0
LINE
  5
2C3
100
AcDbEntity
  8
0
100
AcDbLine
 62
4
  6
CONTINUOUS
 10
15.7642361956
 20
8.3650766814
 11
15.7642361956
 21
8.3216100176
  0
LINE
  5
2C4
100
AcDbEntity
  8
0
100
AcDbLine
 62
4
  6
CONTINUOUS
 10
15.7694125718
 20
8.7178099874
 11
15.7694125718
 21
8.6743433236
  0
LINE
  5
2C5
100
AcDbEntity
  8
0
100
AcDbLine
 62
4
  6
CONTINUOUS
 10
15.7849417013
 20
8.863209967
 11
15.7849417013
 21
8.7907655273
  0
LINE
  5
2C6
100
AcDbEntity
  8
0
100
AcDbLine
 62
7
  6
CONTINUOUS
 10
15.9746559179
 20
9.3970908893
 11
15.9746559179
 21
7.8274613286
  0
ARC
  5
2C7
100
AcDbEntity
  8
0
100
AcDbCircle
 62
7
  6
CONTINUOUS
 10
9.100292472
 20
8.8807194488
 40
2.3268353346
100
AcDbArc
 50
171.6678728683
 51
173.0014994771
  0
ARC
  5
2C8
100
AcDbEntity
  8
0
100
AcDbCircle
 62
7
  6
CONTINUOUS
 10
7.7371836633
 20
8.7507338518
 40
0.9584571905
100
AcDbArc
 50
189.1014340788
 51
191.5149294916
  0
ARC
  5
2C9
100
AcDbEntity
  8
0
100
AcDbCircle
 62
7
  6
CONTINUOUS
 10
7.5524778966
 20
9.1644857503
 40
0.7754415688
100
AcDbArc
 50
149.4153978248
 51
152.3472331204
  0
ARC
  5
2CA
100
AcDbEntity
  8
0
100
AcDbCircle
 62
7
  6
CONTINUOUS
 10
11.2915573019
 20
8.8548461735
 40
0.1750692078
100
AcDbArc
 50
223.7096193505
 51
225.0327994892
  0
SPLINE
  5
2CB
100
AcDbEntity
  8
0
100
AcDbSpline
 62
7
  6
CONTINUOUS
 70
0
 71
3
 72
20
 73
16
 74
0
 42
0.0000001
 43
0.0000001
 44
0.0000000001
 40
0.0
 40
0.0
 40
0.0
 40
0.0
 40
0.0654313251
 40
0.1317472108
 40
0.2658046426
 40
0.3999823334
 40
0.5321539681
 40
0.5968220069
 40
0.6601989386
 40
0.7220347581
 40
0.7820882917
 40
0.8401246632
 40
0.8959257645
 40
0.9492813516
 40
1.0
 40
1.0
 40
1.0
 40
1.0
 10
11.0728081355
 20
8.8216958894
 30
0.0
 10
11.0728081355
 20
8.8239060599
 30
0.0
 10
11.0728475697
 20
8.8283563795
 30
0.0
 10
11.0730794841
 20
8.8373321863
 30
0.0
 10
11.0736540077
 20
8.848620461
 30
0.0
 10
11.0747808874
 20
8.8621008235
 30
0.0
 10
11.0760793745
 20
8.8732088122
 30
0.0
 10
11.0773281053
 20
8.8819097696
 30
0.0
 10
11.0783535249
 20
8.8882415341
 30
0.0
 10
11.0794702322
 20
8.8943994962
 30
0.0
 10
11.0806731233
 20
8.90035732
 30
0.0
 10
11.0819574279
 20
8.906089444
 30
0.0
 10
11.0833171547
 20
8.9115713953
 30
0.0
 10
11.0847467233
 20
8.9167796694
 30
0.0
 10
11.0857692312
 20
8.9201437558
 30
0.0
 10
11.0862928651
 20
8.9217749692
 30
0.0
  0
SPLINE
  5
2CC
100
AcDbEntity
  8
0
100
AcDbSpline
 62
7
  6
CONTINUOUS
 70
0
 71
3
 72
28
 73
24
 74
0
 42
0.0000001
 43
0.0000001
 44
0.0000000001
 40
0.0
 40
0.0
 40
0.0
 40
0.0
 40
0.0851442689
 40
0.1685730728
 40
0.2498977992
 40
0.3287885324
 40
0.4049636476
 40
0.478148608
 40
0.5480785616
 40
0.6144985563
 40
0.6771877128
 40
0.7359494548
 40
0.7906165546
 40
0.816376456
 40
0.841068401
 40
0.8646820803
 40
0.8872132028
 40
0.9086618938
 40
0.9290318424
 40
0.9483311692
 40
0.9665743549
 40
0.9837860938
 40
1.0
 40
1.0
 40
1.0
 40
1.0
 10
11.0728081355
 20
8.8216958894
 30
0.0
 10
11.0728081355
 20
8.8195419111
 30
0.0
 10
11.0728449789
 20
8.8152772498
 30
0.0
 10
11.0730132781
 20
8.8089572388
 30
0.0
 10
11.0732937582
 20
8.8027995231
 30
0.0
 10
11.0736852177
 20
8.7968317226
 30
0.0
 10
11.0741857261
 20
8.7910786985
 30
0.0
 10
11.0747934226
 20
8.7855639583
 30
0.0
 10
11.075505248
 20
8.7803105488
 30
0.0
 10
11.0763186029
 20
8.7753406768
 30
0.0
 10
11.07722969
 20
8.7706752003
 30
0.0
 10
11.0782345931
 20
8.766333593
 30
0.0
 10
11.0791642961
 20
8.7629360889
 30
0.0
 10
11.079956362
 20
8.7603972432
 30
0.0
 10
11.0805593629
 20
8.7586229828
 30
0.0
 10
11.0811825629
 20
8.7569425474
 30
0.0
 10
11.0818252713
 20
8.7553576424
 30
0.0
 10
11.0824867666
 20
8.7538698218
 30
0.0
 10
11.0831663688
 20
8.7524805985
 30
0.0
 10
11.0838634049
 20
8.7511914603
 30
0.0
 10
11.0845773104
 20
8.7500037908
 30
0.0
 10
11.0853072598
 20
8.7489187731
 30
0.0
 10
11.0858190649
 20
8.7482448566
 30
0.0
 10
11.086077886
 20
8.7479266451
 30
0.0
  0
SPLINE
  5
2CD
100
AcDbEntity
  8
0
100
AcDbSpline
 62
7
  6
CONTINUOUS
 70
0
 71
3
 72
15
 73
11
 74
0
 42
0.0000001
 43
0.0000001
 44
0.0000000001
 40
0.0
 40
0.0
 40
0.0
 40
0.0
 40
0.1492638514
 40
0.2896929031
 40
0.4220119941
 40
0.547112777
 40
0.6660768006
 40
0.7801945461
 40
0.8909569581
 40
1.0
 40
1.0
 40
1.0
 40
1.0
 10
11.0902505147
 20
8.7427960194
 30
0.0
 10
11.090507114
 20
8.7424805004
 30
0.0
 10
11.0910247031
 20
8.7418836199
 30
0.0
 10
11.0918406578
 20
8.7410718866
 30
0.0
 10
11.092670972
 20
8.7403728411
 30
0.0
 10
11.0935149949
 20
8.7397874363
 30
0.0
 10
11.0943721035
 20
8.7393167267
 30
0.0
 10
11.0952415817
 20
8.7389618809
 30
0.0
 10
11.0961220494
 20
8.7387236597
 30
0.0
 10
11.0967174795
 20
8.738642793
 30
0.0
 10
11.0970138674
 20
8.7386222112
 30
0.0
  0
SPLINE
  5
2CE
100
AcDbEntity
  8
0
100
AcDbSpline
 62
7
  6
CONTINUOUS
 70
0
 71
3
 72
20
 73
16
 74
0
 42
0.0000001
 43
0.0000001
 44
0.0000000001
 40
0.0
 40
0.0
 40
0.0
 40
0.0
 40
0.0645900436
 40
0.1300129728
 40
0.2622903688
 40
0.3949288224
 40
0.5260839259
 40
0.5905240929
 40
0.6539028872
 40
0.7159992786
 40
0.7765995587
 40
0.8354936864
 40
0.8924838807
 40
0.9473792173
 40
1.0
 40
1.0
 40
1.0
 40
1.0
 10
11.0763436708
 20
8.8201109544
 30
0.0
 10
11.0763436708
 20
8.8222812962
 30
0.0
 10
11.0763799365
 20
8.8266500527
 30
0.0
 10
11.0765935721
 20
8.8354611753
 30
0.0
 10
11.0771235489
 20
8.8465504561
 30
0.0
 10
11.0781647813
 20
8.8598203106
 30
0.0
 10
11.0793656735
 20
8.8707860013
 30
0.0
 10
11.080521758
 20
8.879411185
 30
0.0
 10
11.0814739549
 20
8.8857215602
 30
0.0
 10
11.0825128995
 20
8.8918874287
 30
0.0
 10
11.0836343478
 20
8.8978856166
 30
0.0
 10
11.084834394
 20
8.9036935059
 30
0.0
 10
11.0861082276
 20
8.9092892723
 30
0.0
 10
11.0874510799
 20
8.9146518346
 30
0.0
 10
11.0884103178
 20
8.9181353418
 30
0.0
 10
11.0889019088
 20
8.9198337832
 30
0.0
  0
SPLINE
  5
2CF
100
AcDbEntity
  8
0
100
AcDbSpline
 62
7
  6
CONTINUOUS
 70
0
 71
3
 72
22
 73
18
 74
0
 42
0.0000001
 43
0.0000001
 44
0.0000000001
 40
0.0
 40
0.0
 40
0.0
 40
0.0
 40
0.0797596931
 40
0.1581783013
 40
0.309928241
 40
0.3828209881
 40
0.4534628204
 40
0.5216641001
 40
0.5872395786
 40
0.6500119886
 40
0.709827105
 40
0.7665417065
 40
0.8200290635
 40
0.8701874846
 40
0.9169310325
 40
0.9602074389
 40
1.0
 40
1.0
 40
1.0
 40
1.0
 10
11.0763436708
 20
8.8201109544
 30
0.0
 10
11.0763436708
 20
8.8181664218
 30
0.0
 10
11.0763723586
 20
8.8143099643
 30
0.0
 10
11.0765449942
 20
8.8067557384
 30
0.0
 10
11.0768888813
 20
8.799373459
 30
0.0
 10
11.0774161085
 20
8.7921934589
 30
0.0
 10
11.0778906559
 20
8.7870528835
 30
0.0
 10
11.0784479842
 20
8.782100087
 30
0.0
 10
11.0790862068
 20
8.7773505257
 30
0.0
 10
11.0798036299
 20
8.7728191152
 30
0.0
 10
11.080597675
 20
8.7685199367
 30
0.0
 10
11.081465884
 20
8.7644662538
 30
0.0
 10
11.0824057164
 20
8.7606705711
 30
0.0
 10
11.083413817
 20
8.7571444964
 30
0.0
 10
11.0844873816
 20
8.7538987664
 30
0.0
 10
11.0856229402
 20
8.7509433552
 30
0.0
 10
11.0864537371
 20
8.7490947317
 30
0.0
 10
11.0868818346
 20
8.7482241566
 30
0.0
  0
SPLINE
  5
2D0
100
AcDbEntity
  8
0
100
AcDbSpline
 62
7
  6
CONTINUOUS
 70
0
 71
3
 72
11
 73
7
 74
0
 42
0.0000001
 43
0.0000001
 44
0.0000000001
 40
0.0
 40
0.0
 40
0.0
 40
0.0
 40
0.2743171093
 40
0.532145366
 40
0.7738633984
 40
1.0
 40
1.0
 40
1.0
 40
1.0
 10
11.0868818346
 20
8.7482241566
 30
0.0
 10
11.0871401106
 20
8.7476989288
 30
0.0
 10
11.0876626581
 20
8.7466903916
 30
0.0
 10
11.0884932725
 20
8.7452625248
 30
0.0
 10
11.0893451159
 20
8.7439685661
 30
0.0
 10
11.0899460851
 20
8.7431703513
 30
0.0
 10
11.0902505147
 20
8.7427960194
 30
0.0
  0
SPLINE
  5
2D1
100
AcDbEntity
  8
0
100
AcDbSpline
 62
7
  6
CONTINUOUS
 70
0
 71
3
 72
56
 73
52
 74
0
 42
0.0000001
 43
0.0000001
 44
0.0000000001
 40
0.0
 40
0.0
 40
0.0
 40
0.0
 40
0.0310723444
 40
0.0465152282
 40
0.0618873079
 40
0.0924244521
 40
0.1227285817
 40
0.1378086463
 40
0.1528438045
 40
0.1678401149
 40
0.1828038444
 40
0.2126503405
 40
0.227557511
 40
0.2424602055
 40
0.2573657799
 40
0.272281562
 40
0.2872148089
 40
0.3021724291
 40
0.3171611937
 40
0.3321875071
 40
0.3472571476
 40
0.362375664
 40
0.3927682619
 40
0.4234071812
 40
0.4388308394
 40
0.454323239
 40
0.4855077933
 40
0.5169699546
 40
0.532806559
 40
0.5487076994
 40
0.5806824153
 40
0.6128739824
 40
0.6290441709
 40
0.6452543843
 40
0.6777639093
 40
0.7103643307
 40
0.7266873141
 40
0.7430142241
 40
0.7756456098
 40
0.7919458916
 40
0.8082247496
 40
0.8244760379
 40
0.8406940714
 40
0.8568734332
 40
0.8730088968
 40
0.8890954876
 40
0.905128265
 40
0.9370074719
 40
0.9528594107
 40
0.9686481654
 40
1.0
 40
1.0
 40
1.0
 40
1.0
 10
9.828025391
 20
7.8505740742
 30
0.0
 10
9.8280255256
 20
7.8585877042
 30
0.0
 10
9.8286136413
 20
7.8705954436
 30
0.0
 10
9.8305831166
 20
7.8864392252
 30
0.0
 10
9.8333219141
 20
7.9020293755
 30
0.0
 10
9.838183238
 20
7.9211111722
 30
0.0
 10
9.844944358
 20
7.9395265799
 30
0.0
 10
9.8514361121
 20
7.9536987015
 30
0.0
 10
9.8568275082
 20
7.9640145609
 30
0.0
 10
9.862734329
 20
7.9740095885
 30
0.0
 10
9.8712694256
 20
7.9868634928
 30
0.0
 10
9.8807941039
 20
7.9990098236
 30
0.0
 10
9.8912199281
 20
8.0103315691
 30
0.0
 10
9.8994731553
 20
8.0183943313
 30
0.0
 10
9.9081415002
 20
8.0260117078
 30
0.0
 10
9.9172061524
 20
8.0331658439
 30
0.0
 10
9.9266463116
 20
8.0398398034
 30
0.0
 10
9.936439809
 20
8.0460188766
 30
0.0
 10
9.9465649102
 20
8.0516874424
 30
0.0
 10
9.9569982438
 20
8.0568317916
 30
0.0
 10
9.9677157361
 20
8.0614404433
 30
0.0
 10
9.9823748543
 20
8.0668626063
 30
0.0
 10
10.0013014519
 20
8.0722415657
 30
0.0
 10
10.0207533788
 20
8.075680165
 30
0.0
 10
10.036555144
 20
8.0772635476
 30
0.0
 10
10.0525569018
 20
8.0780635413
 30
0.0
 10
10.0727378371
 20
8.0775704342
 30
0.0
 10
10.0928613268
 20
8.0750999521
 30
0.0
 10
10.1088599541
 20
8.0719550489
 30
0.0
 10
10.1248182226
 20
8.0680165198
 30
0.0
 10
10.1444940264
 20
8.0616430865
 30
0.0
 10
10.1635480859
 20
8.053424772
 30
0.0
 10
10.1783493688
 20
8.0457811147
 30
0.0
 10
10.1928519303
 20
8.0374192896
 30
0.0
 10
10.2102804002
 20
8.0256966799
 30
0.0
 10
10.2265846611
 20
8.0124095466
 30
0.0
 10
10.2388765556
 20
8.0009085058
 30
0.0
 10
10.2506357007
 20
7.9888530208
 30
0.0
 10
10.2615555741
 20
7.9760093719
 30
0.0
 10
10.2715472035
 20
7.9624757404
 30
0.0
 10
10.2785589746
 20
7.9520091731
 30
0.0
 10
10.2850715587
 20
7.9412500826
 30
0.0
 10
10.2910694383
 20
7.9302248969
 30
0.0
 10
10.2965392083
 20
7.9189615611
 30
0.0
 10
10.3014665259
 20
7.9074875247
 30
0.0
 10
10.3058401795
 20
7.8958311736
 30
0.0
 10
10.3109108232
 20
7.880119244
 30
0.0
 10
10.3148511558
 20
7.8641231509
 30
0.0
 10
10.3176205046
 20
7.8479715974
 30
0.0
 10
10.3195929119
 20
7.8318413406
 30
0.0
 10
10.3201940825
 20
7.8196732682
 30
0.0
 10
10.3201942298
 20
7.811587557
 30
0.0
  0
SPLINE
  5
2D2
100
AcDbEntity
  8
0
100
AcDbSpline
 62
7
  6
CONTINUOUS
 70
0
 71
3
 72
56
 73
52
 74
0
 42
0.0000001
 43
0.0000001
 44
0.0000000001
 40
0.0
 40
0.0
 40
0.0
 40
0.0
 40
0.031072346
 40
0.0465152317
 40
0.0618873124
 40
0.0924244558
 40
0.1227285839
 40
0.1378086476
 40
0.152843805
 40
0.1678401144
 40
0.1828038429
 40
0.2126503375
 40
0.2275575076
 40
0.2424602021
 40
0.2573657768
 40
0.2722815596
 40
0.2872148075
 40
0.3021724288
 40
0.3171611944
 40
0.3321875086
 40
0.3472571497
 40
0.3623756664
 40
0.3927682644
 40
0.4234071833
 40
0.4388308412
 40
0.4543232404
 40
0.485507794
 40
0.5169699549
 40
0.5328065592
 40
0.5487076996
 40
0.5806824155
 40
0.6128739827
 40
0.6290441713
 40
0.6452543848
 40
0.6777639099
 40
0.7103643313
 40
0.7266873147
 40
0.7430142246
 40
0.7756456102
 40
0.791945892
 40
0.80822475
 40
0.8244760382
 40
0.8406940716
 40
0.8568734333
 40
0.8730088969
 40
0.8890954876
 40
0.905128265
 40
0.9370074718
 40
0.9528594107
 40
0.9686481654
 40
1.0
 40
1.0
 40
1.0
 40
1.0
 10
10.3201942319
 20
7.8115876577
 30
0.0
 10
10.3201940973
 20
7.8035740272
 30
0.0
 10
10.3196059812
 20
7.791566287
 30
0.0
 10
10.317636506
 20
7.7757225042
 30
0.0
 10
10.3148977084
 20
7.7601323534
 30
0.0
 10
10.3100363842
 20
7.7410505571
 30
0.0
 10
10.3032752642
 20
7.7226351503
 30
0.0
 10
10.2967835104
 20
7.7084630294
 30
0.0
 10
10.2913921146
 20
7.6981471706
 30
0.0
 10
10.2854852942
 20
7.6881521437
 30
0.0
 10
10.276950198
 20
7.6752982402
 30
0.0
 10
10.2674255204
 20
7.6631519097
 30
0.0
 10
10.2569996965
 20
7.6518301646
 30
0.0
 10
10.2487464696
 20
7.6437674023
 30
0.0
 10
10.2400781247
 20
7.6361500254
 30
0.0
 10
10.231013472
 20
7.6289958891
 30
0.0
 10
10.2215733123
 20
7.6223219291
 30
0.0
 10
10.2117798142
 20
7.6161428554
 30
0.0
 10
10.2016547124
 20
7.6104742892
 30
0.0
 10
10.1912213781
 20
7.6053299398
 30
0.0
 10
10.1805038854
 20
7.600721288
 30
0.0
 10
10.165844767
 20
7.5952991249
 30
0.0
 10
10.1469181693
 20
7.5899201658
 30
0.0
 10
10.1274662425
 20
7.5864815665
 30
0.0
 10
10.1116644776
 20
7.5848981841
 30
0.0
 10
10.0956627202
 20
7.5840981905
 30
0.0
 10
10.0754817852
 20
7.5845912976
 30
0.0
 10
10.0553582959
 20
7.5870617797
 30
0.0
 10
10.0393596687
 20
7.5902066829
 30
0.0
 10
10.0234014002
 20
7.594145212
 30
0.0
 10
10.0037255964
 20
7.6005186454
 30
0.0
 10
9.9846715368
 20
7.6087369599
 30
0.0
 10
9.9698702538
 20
7.6163806173
 30
0.0
 10
9.9553676924
 20
7.6247424423
 30
0.0
 10
9.9379392224
 20
7.6364650521
 30
0.0
 10
9.9216349615
 20
7.6497521854
 30
0.0
 10
9.909343067
 20
7.6612532263
 30
0.0
 10
9.897583922
 20
7.6733087113
 30
0.0
 10
9.8866640486
 20
7.6861523602
 30
0.0
 10
9.8766724193
 20
7.6996859916
 30
0.0
 10
9.8696606482
 20
7.710152559
 30
0.0
 10
9.8631480641
 20
7.7209116494
 30
0.0
 10
9.8571501846
 20
7.731936835
 30
0.0
 10
9.8516804146
 20
7.7432001708
 30
0.0
 10
9.846753097
 20
7.7546742071
 30
0.0
 10
9.8423794434
 20
7.7663305582
 30
0.0
 10
9.8373087997
 20
7.7820424878
 30
0.0
 10
9.8333684672
 20
7.7980385808
 30
0.0
 10
9.8305991183
 20
7.8141901343
 30
0.0
 10
9.828626711
 20
7.8303203912
 30
0.0
 10
9.8280255405
 20
7.8424884635
 30
0.0
 10
9.8280253931
 20
7.8505741748
 30
0.0
  0
SPLINE
  5
2D3
100
AcDbEntity
  8
0
100
AcDbSpline
 62
7
  6
CONTINUOUS
 70
0
 71
3
 72
56
 73
52
 74
0
 42
0.0000001
 43
0.0000001
 44
0.0000000001
 40
0.0
 40
0.0
 40
0.0
 40
0.0
 40
0.0310723444
 40
0.0465152282
 40
0.0618873079
 40
0.0924244521
 40
0.1227285817
 40
0.1378086463
 40
0.1528438045
 40
0.1678401149
 40
0.1828038444
 40
0.2126503405
 40
0.227557511
 40
0.2424602055
 40
0.2573657799
 40
0.272281562
 40
0.2872148089
 40
0.3021724291
 40
0.3171611937
 40
0.3321875071
 40
0.3472571476
 40
0.362375664
 40
0.3927682619
 40
0.4234071812
 40
0.4388308394
 40
0.454323239
 40
0.4855077933
 40
0.5169699546
 40
0.532806559
 40
0.5487076994
 40
0.5806824153
 40
0.6128739824
 40
0.6290441709
 40
0.6452543843
 40
0.6777639093
 40
0.7103643307
 40
0.7266873141
 40
0.7430142241
 40
0.7756456098
 40
0.7919458916
 40
0.8082247496
 40
0.8244760379
 40
0.8406940714
 40
0.8568734332
 40
0.8730088968
 40
0.8890954876
 40
0.905128265
 40
0.9370074719
 40
0.9528594107
 40
0.9686481654
 40
1.0
 40
1.0
 40
1.0
 40
1.0
 10
10.3409321678
 20
8.2371135145
 30
0.0
 10
10.3409323024
 20
8.2451271446
 30
0.0
 10
10.3415204181
 20
8.2571348839
 30
0.0
 10
10.3434898934
 20
8.2729786656
 30
0.0
 10
10.3462286909
 20
8.2885688158
 30
0.0
 10
10.3510900148
 20
8.3076506125
 30
0.0
 10
10.3578511348
 20
8.3260660202
 30
0.0
 10
10.3643428889
 20
8.3402381418
 30
0.0
 10
10.369734285
 20
8.3505540012
 30
0.0
 10
10.3756411058
 20
8.3605490288
 30
0.0
 10
10.3841762024
 20
8.3734029331
 30
0.0
 10
10.3937008807
 20
8.3855492639
 30
0.0
 10
10.4041267049
 20
8.3968710094
 30
0.0
 10
10.4123799321
 20
8.4049337716
 30
0.0
 10
10.421048277
 20
8.4125511482
 30
0.0
 10
10.4301129292
 20
8.4197052842
 30
0.0
 10
10.4395530884
 20
8.4263792437
 30
0.0
 10
10.4493465858
 20
8.4325583169
 30
0.0
 10
10.459471687
 20
8.4382268827
 30
0.0
 10
10.4699050206
 20
8.4433712319
 30
0.0
 10
10.4806225129
 20
8.4479798836
 30
0.0
 10
10.4952816311
 20
8.4534020466
 30
0.0
 10
10.5142082287
 20
8.458781006
 30
0.0
 10
10.5336601556
 20
8.4622196053
 30
0.0
 10
10.5494619208
 20
8.463802988
 30
0.0
 10
10.5654636786
 20
8.4646029816
 30
0.0
 10
10.5856446139
 20
8.4641098746
 30
0.0
 10
10.6057681036
 20
8.4616393924
 30
0.0
 10
10.6217667309
 20
8.4584944892
 30
0.0
 10
10.6377249994
 20
8.4545559601
 30
0.0
 10
10.6574008032
 20
8.4481825268
 30
0.0
 10
10.6764548627
 20
8.4399642123
 30
0.0
 10
10.6912561456
 20
8.432320555
 30
0.0
 10
10.7057587071
 20
8.42395873
 30
0.0
 10
10.723187177
 20
8.4122361202
 30
0.0
 10
10.7394914379
 20
8.398948987
 30
0.0
 10
10.7517833324
 20
8.3874479461
 30
0.0
 10
10.7635424775
 20
8.3753924611
 30
0.0
 10
10.7744623509
 20
8.3625488122
 30
0.0
 10
10.7844539803
 20
8.3490151807
 30
0.0
 10
10.7914657514
 20
8.3385486134
 30
0.0
 10
10.7979783355
 20
8.3277895229
 30
0.0
 10
10.8039762151
 20
8.3167643372
 30
0.0
 10
10.8094459851
 20
8.3055010014
 30
0.0
 10
10.8143733027
 20
8.2940269651
 30
0.0
 10
10.8187469563
 20
8.282370614
 30
0.0
 10
10.8238176
 20
8.2666586843
 30
0.0
 10
10.8277579326
 20
8.2506625912
 30
0.0
 10
10.8305272814
 20
8.2345110378
 30
0.0
 10
10.8324996887
 20
8.2183807809
 30
0.0
 10
10.8331008593
 20
8.2062127086
 30
0.0
 10
10.8331010066
 20
8.1981269973
 30
0.0
  0
SPLINE
  5
2D4
100
AcDbEntity
  8
0
100
AcDbSpline
 62
7
  6
CONTINUOUS
 70
0
 71
3
 72
56
 73
52
 74
0
 42
0.0000001
 43
0.0000001
 44
0.0000000001
 40
0.0
 40
0.0
 40
0.0
 40
0.0
 40
0.031072346
 40
0.0465152317
 40
0.0618873124
 40
0.0924244558
 40
0.1227285839
 40
0.1378086476
 40
0.152843805
 40
0.1678401144
 40
0.1828038429
 40
0.2126503375
 40
0.2275575076
 40
0.2424602021
 40
0.2573657768
 40
0.2722815596
 40
0.2872148075
 40
0.3021724288
 40
0.3171611944
 40
0.3321875086
 40
0.3472571497
 40
0.3623756664
 40
0.3927682644
 40
0.4234071833
 40
0.4388308412
 40
0.4543232404
 40
0.485507794
 40
0.5169699549
 40
0.5328065592
 40
0.5487076996
 40
0.5806824155
 40
0.6128739827
 40
0.6290441713
 40
0.6452543848
 40
0.6777639099
 40
0.7103643313
 40
0.7266873147
 40
0.7430142246
 40
0.7756456102
 40
0.791945892
 40
0.80822475
 40
0.8244760382
 40
0.8406940716
 40
0.8568734333
 40
0.8730088969
 40
0.8890954876
 40
0.905128265
 40
0.9370074718
 40
0.9528594107
 40
0.9686481654
 40
1.0
 40
1.0
 40
1.0
 40
1.0
 10
10.8331010087
 20
8.1981270981
 30
0.0
 10
10.8331008741
 20
8.1901134675
 30
0.0
 10
10.832512758
 20
8.1781057273
 30
0.0
 10
10.8305432828
 20
8.1622619445
 30
0.0
 10
10.8278044852
 20
8.1466717937
 30
0.0
 10
10.822943161
 20
8.1275899974
 30
0.0
 10
10.816182041
 20
8.1091745906
 30
0.0
 10
10.8096902872
 20
8.0950024698
 30
0.0
 10
10.8042988914
 20
8.084686611
 30
0.0
 10
10.798392071
 20
8.074691584
 30
0.0
 10
10.7898569748
 20
8.0618376805
 30
0.0
 10
10.7803322972
 20
8.04969135
 30
0.0
 10
10.7699064733
 20
8.038369605
 30
0.0
 10
10.7616532464
 20
8.0303068426
 30
0.0
 10
10.7529849015
 20
8.0226894657
 30
0.0
 10
10.7439202488
 20
8.0155353294
 30
0.0
 10
10.7344800891
 20
8.0088613695
 30
0.0
 10
10.724686591
 20
8.0026822957
 30
0.0
 10
10.7145614892
 20
7.9970137295
 30
0.0
 10
10.7041281549
 20
7.9918693801
 30
0.0
 10
10.6934106622
 20
7.9872607283
 30
0.0
 10
10.6787515438
 20
7.9818385652
 30
0.0
 10
10.6598249461
 20
7.9764596061
 30
0.0
 10
10.6403730193
 20
7.9730210068
 30
0.0
 10
10.6245712544
 20
7.9714376244
 30
0.0
 10
10.608569497
 20
7.9706376308
 30
0.0
 10
10.588388562
 20
7.971130738
 30
0.0
 10
10.5682650727
 20
7.97360122
 30
0.0
 10
10.5522664455
 20
7.9767461233
 30
0.0
 10
10.536308177
 20
7.9806846524
 30
0.0
 10
10.5166323732
 20
7.9870580857
 30
0.0
 10
10.4975783136
 20
7.9952764002
 30
0.0
 10
10.4827770306
 20
8.0029200576
 30
0.0
 10
10.4682744692
 20
8.0112818827
 30
0.0
 10
10.4508459992
 20
8.0230044924
 30
0.0
 10
10.4345417383
 20
8.0362916258
 30
0.0
 10
10.4222498438
 20
8.0477926667
 30
0.0
 10
10.4104906988
 20
8.0598481517
 30
0.0
 10
10.3995708254
 20
8.0726918005
 30
0.0
 10
10.3895791961
 20
8.0862254319
 30
0.0
 10
10.382567425
 20
8.0966919993
 30
0.0
 10
10.3760548409
 20
8.1074510897
 30
0.0
 10
10.3700569614
 20
8.1184762754
 30
0.0
 10
10.3645871914
 20
8.1297396111
 30
0.0
 10
10.3596598738
 20
8.1412136474
 30
0.0
 10
10.3552862202
 20
8.1528699985
 30
0.0
 10
10.3502155765
 20
8.1685819281
 30
0.0
 10
10.346275244
 20
8.1845780212
 30
0.0
 10
10.3435058951
 20
8.2007295746
 30
0.0
 10
10.3415334878
 20
8.2168598315
 30
0.0
 10
10.3409323173
 20
8.2290279039
 30
0.0
 10
10.3409321699
 20
8.2371136151
 30
0.0
  0
SPLINE
  5
2D5
100
AcDbEntity
  8
0
100
AcDbSpline
 62
7
  6
CONTINUOUS
 70
0
 71
3
 72
56
 73
52
 74
0
 42
0.0000001
 43
0.0000001
 44
0.0000000001
 40
0.0
 40
0.0
 40
0.0
 40
0.0
 40
0.0310723444
 40
0.0465152282
 40
0.0618873079
 40
0.0924244521
 40
0.1227285817
 40
0.1378086463
 40
0.1528438045
 40
0.1678401149
 40
0.1828038444
 40
0.2126503405
 40
0.227557511
 40
0.2424602055
 40
0.2573657799
 40
0.272281562
 40
0.2872148089
 40
0.3021724291
 40
0.3171611937
 40
0.3321875071
 40
0.3472571476
 40
0.362375664
 40
0.3927682619
 40
0.4234071812
 40
0.4388308394
 40
0.454323239
 40
0.4855077933
 40
0.5169699546
 40
0.532806559
 40
0.5487076994
 40
0.5806824153
 40
0.6128739824
 40
0.6290441709
 40
0.6452543843
 40
0.6777639093
 40
0.7103643307
 40
0.7266873141
 40
0.7430142241
 40
0.7756456098
 40
0.7919458916
 40
0.8082247496
 40
0.8244760379
 40
0.8406940714
 40
0.8568734332
 40
0.8730088968
 40
0.8890954876
 40
0.905128265
 40
0.9370074719
 40
0.9528594107
 40
0.9686481654
 40
1.0
 40
1.0
 40
1.0
 40
1.0
 10
11.1262298761
 20
8.1826529334
 30
0.0
 10
11.1262300107
 20
8.1906665635
 30
0.0
 10
11.1268181264
 20
8.2026743029
 30
0.0
 10
11.1287876017
 20
8.2185180845
 30
0.0
 10
11.1315263992
 20
8.2341082348
 30
0.0
 10
11.1363877231
 20
8.2531900315
 30
0.0
 10
11.1431488431
 20
8.2716054392
 30
0.0
 10
11.1496405972
 20
8.2857775608
 30
0.0
 10
11.1550319933
 20
8.2960934202
 30
0.0
 10
11.1609388141
 20
8.3060884478
 30
0.0
 10
11.1694739107
 20
8.318942352
 30
0.0
 10
11.178998589
 20
8.3310886829
 30
0.0
 10
11.1894244132
 20
8.3424104283
 30
0.0
 10
11.1976776404
 20
8.3504731906
 30
0.0
 10
11.2063459853
 20
8.3580905671
 30
0.0
 10
11.2154106375
 20
8.3652447032
 30
0.0
 10
11.2248507967
 20
8.3719186626
 30
0.0
 10
11.2346442941
 20
8.3780977358
 30
0.0
 10
11.2447693953
 20
8.3837663017
 30
0.0
 10
11.2552027289
 20
8.3889106509
 30
0.0
 10
11.2659202212
 20
8.3935193025
 30
0.0
 10
11.2805793394
 20
8.3989414656
 30
0.0
 10
11.299505937
 20
8.4043204249
 30
0.0
 10
11.3189578639
 20
8.4077590243
 30
0.0
 10
11.3347596291
 20
8.4093424069
 30
0.0
 10
11.3507613869
 20
8.4101424005
 30
0.0
 10
11.3709423222
 20
8.4096492935
 30
0.0
 10
11.3910658119
 20
8.4071788114
 30
0.0
 10
11.4070644392
 20
8.4040339082
 30
0.0
 10
11.4230227077
 20
8.4000953791
 30
0.0
 10
11.4426985115
 20
8.3937219458
 30
0.0
 10
11.461752571
 20
8.3855036313
 30
0.0
 10
11.4765538539
 20
8.3778599739
 30
0.0
 10
11.4910564154
 20
8.3694981489
 30
0.0
 10
11.5084848853
 20
8.3577755392
 30
0.0
 10
11.5247891462
 20
8.3444884059
 30
0.0
 10
11.5370810407
 20
8.332987365
 30
0.0
 10
11.5488401858
 20
8.32093188
 30
0.0
 10
11.5597600592
 20
8.3080882312
 30
0.0
 10
11.5697516886
 20
8.2945545997
 30
0.0
 10
11.5767634597
 20
8.2840880323
 30
0.0
 10
11.5832760438
 20
8.2733289419
 30
0.0
 10
11.5892739234
 20
8.2623037562
 30
0.0
 10
11.5947436934
 20
8.2510404204
 30
0.0
 10
11.599671011
 20
8.239566384
 30
0.0
 10
11.6040446646
 20
8.2279100329
 30
0.0
 10
11.6091153083
 20
8.2121981033
 30
0.0
 10
11.6130556409
 20
8.1962020102
 30
0.0
 10
11.6158249897
 20
8.1800504567
 30
0.0
 10
11.617797397
 20
8.1639201999
 30
0.0
 10
11.6183985676
 20
8.1517521275
 30
0.0
 10
11.6183987149
 20
8.1436664163
 30
0.0
  0
SPLINE
  5
2D6
100
AcDbEntity
  8
0
100
AcDbSpline
 62
7
  6
CONTINUOUS
 70
0
 71
3
 72
56
 73
52
 74
0
 42
0.0000001
 43
0.0000001
 44
0.0000000001
 40
0.0
 40
0.0
 40
0.0
 40
0.0
 40
0.031072346
 40
0.0465152317
 40
0.0618873124
 40
0.0924244558
 40
0.1227285839
 40
0.1378086476
 40
0.152843805
 40
0.1678401144
 40
0.1828038429
 40
0.2126503375
 40
0.2275575076
 40
0.2424602021
 40
0.2573657768
 40
0.2722815596
 40
0.2872148075
 40
0.3021724288
 40
0.3171611944
 40
0.3321875086
 40
0.3472571497
 40
0.3623756664
 40
0.3927682644
 40
0.4234071833
 40
0.4388308412
 40
0.4543232404
 40
0.485507794
 40
0.5169699549
 40
0.5328065592
 40
0.5487076996
 40
0.5806824155
 40
0.6128739827
 40
0.6290441713
 40
0.6452543848
 40
0.6777639099
 40
0.7103643313
 40
0.7266873147
 40
0.7430142246
 40
0.7756456102
 40
0.791945892
 40
0.80822475
 40
0.8244760382
 40
0.8406940716
 40
0.8568734333
 40
0.8730088969
 40
0.8890954876
 40
0.905128265
 40
0.9370074718
 40
0.9528594107
 40
0.9686481654
 40
1.0
 40
1.0
 40
1.0
 40
1.0
 10
11.618398717
 20
8.143666517
 30
0.0
 10
11.6183985824
 20
8.1356528865
 30
0.0
 10
11.6178104663
 20
8.1236451463
 30
0.0
 10
11.6158409911
 20
8.1078013634
 30
0.0
 10
11.6131021935
 20
8.0922112127
 30
0.0
 10
11.6082408693
 20
8.0731294164
 30
0.0
 10
11.6014797493
 20
8.0547140096
 30
0.0
 10
11.5949879955
 20
8.0405418887
 30
0.0
 10
11.5895965997
 20
8.0302260299
 30
0.0
 10
11.5836897793
 20
8.020231003
 30
0.0
 10
11.5751546831
 20
8.0073770995
 30
0.0
 10
11.5656300055
 20
7.995230769
 30
0.0
 10
11.5552041816
 20
7.9839090239
 30
0.0
 10
11.5469509547
 20
7.9758462616
 30
0.0
 10
11.5382826098
 20
7.9682288847
 30
0.0
 10
11.5292179571
 20
7.9610747484
 30
0.0
 10
11.5197777974
 20
7.9544007884
 30
0.0
 10
11.5099842993
 20
7.9482217147
 30
0.0
 10
11.4998591975
 20
7.9425531485
 30
0.0
 10
11.4894258632
 20
7.937408799
 30
0.0
 10
11.4787083705
 20
7.9328001473
 30
0.0
 10
11.4640492521
 20
7.9273779842
 30
0.0
 10
11.4451226544
 20
7.9219990251
 30
0.0
 10
11.4256707276
 20
7.9185604258
 30
0.0
 10
11.4098689627
 20
7.9169770434
 30
0.0
 10
11.3938672053
 20
7.9161770498
 30
0.0
 10
11.3736862703
 20
7.9166701569
 30
0.0
 10
11.353562781
 20
7.919140639
 30
0.0
 10
11.3375641538
 20
7.9222855422
 30
0.0
 10
11.3216058853
 20
7.9262240713
 30
0.0
 10
11.3019300815
 20
7.9325975046
 30
0.0
 10
11.2828760219
 20
7.9408158192
 30
0.0
 10
11.2680747389
 20
7.9484594766
 30
0.0
 10
11.2535721775
 20
7.9568213016
 30
0.0
 10
11.2361437075
 20
7.9685439114
 30
0.0
 10
11.2198394466
 20
7.9818310447
 30
0.0
 10
11.2075475521
 20
7.9933320856
 30
0.0
 10
11.1957884071
 20
8.0053875706
 30
0.0
 10
11.1848685337
 20
8.0182312194
 30
0.0
 10
11.1748769044
 20
8.0317648509
 30
0.0
 10
11.1678651333
 20
8.0422314182
 30
0.0
 10
11.1613525492
 20
8.0529905087
 30
0.0
 10
11.1553546697
 20
8.0640156943
 30
0.0
 10
11.1498848997
 20
8.0752790301
 30
0.0
 10
11.1449575821
 20
8.0867530664
 30
0.0
 10
11.1405839285
 20
8.0984094175
 30
0.0
 10
11.1355132848
 20
8.1141213471
 30
0.0
 10
11.1315729523
 20
8.1301174401
 30
0.0
 10
11.1288036034
 20
8.1462689936
 30
0.0
 10
11.1268311961
 20
8.1623992504
 30
0.0
 10
11.1262300256
 20
8.1745673228
 30
0.0
 10
11.1262298782
 20
8.1826530341
 30
0.0
  0
SPLINE
  5
2D7
100
AcDbEntity
  8
0
100
AcDbSpline
 62
7
  6
CONTINUOUS
 70
0
 71
3
 72
56
 73
52
 74
0
 42
0.0000001
 43
0.0000001
 44
0.0000000001
 40
0.0
 40
0.0
 40
0.0
 40
0.0
 40
0.0310723444
 40
0.0465152282
 40
0.0618873079
 40
0.0924244521
 40
0.1227285817
 40
0.1378086463
 40
0.1528438045
 40
0.1678401149
 40
0.1828038444
 40
0.2126503405
 40
0.227557511
 40
0.2424602055
 40
0.2573657799
 40
0.272281562
 40
0.2872148089
 40
0.3021724291
 40
0.3171611937
 40
0.3321875071
 40
0.3472571476
 40
0.362375664
 40
0.3927682619
 40
0.4234071812
 40
0.4388308394
 40
0.454323239
 40
0.4855077933
 40
0.5169699546
 40
0.532806559
 40
0.5487076994
 40
0.5806824153
 40
0.6128739824
 40
0.6290441709
 40
0.6452543843
 40
0.6777639093
 40
0.7103643307
 40
0.7266873141
 40
0.7430142241
 40
0.7756456098
 40
0.7919458916
 40
0.8082247496
 40
0.8244760379
 40
0.8406940714
 40
0.8568734332
 40
0.8730088968
 40
0.8890954876
 40
0.905128265
 40
0.9370074719
 40
0.9528594107
 40
0.9686481654
 40
1.0
 40
1.0
 40
1.0
 40
1.0
 10
11.6391366529
 20
7.7249730815
 30
0.0
 10
11.6391367875
 20
7.7329867116
 30
0.0
 10
11.6397249032
 20
7.744994451
 30
0.0
 10
11.6416943785
 20
7.7608382326
 30
0.0
 10
11.644433176
 20
7.7764283829
 30
0.0
 10
11.6492944999
 20
7.7955101796
 30
0.0
 10
11.6560556199
 20
7.8139255873
 30
0.0
 10
11.662547374
 20
7.8280977089
 30
0.0
 10
11.6679387701
 20
7.8384135683
 30
0.0
 10
11.6738455909
 20
7.8484085959
 30
0.0
 10
11.6823806875
 20
7.8612625001
 30
0.0
 10
11.6919053658
 20
7.873408831
 30
0.0
 10
11.70233119
 20
7.8847305765
 30
0.0
 10
11.7105844172
 20
7.8927933387
 30
0.0
 10
11.7192527621
 20
7.9004107152
 30
0.0
 10
11.7283174143
 20
7.9075648513
 30
0.0
 10
11.7377575735
 20
7.9142388108
 30
0.0
 10
11.7475510709
 20
7.9204178839
 30
0.0
 10
11.7576761721
 20
7.9260864498
 30
0.0
 10
11.7681095057
 20
7.931230799
 30
0.0
 10
11.778826998
 20
7.9358394507
 30
0.0
 10
11.7934861162
 20
7.9412616137
 30
0.0
 10
11.8124127138
 20
7.946640573
 30
0.0
 10
11.8318646407
 20
7.9500791724
 30
0.0
 10
11.8476664059
 20
7.951662555
 30
0.0
 10
11.8636681637
 20
7.9524625486
 30
0.0
 10
11.883849099
 20
7.9519694416
 30
0.0
 10
11.9039725887
 20
7.9494989595
 30
0.0
 10
11.919971216
 20
7.9463540563
 30
0.0
 10
11.9359294845
 20
7.9424155272
 30
0.0
 10
11.9556052883
 20
7.9360420939
 30
0.0
 10
11.9746593478
 20
7.9278237794
 30
0.0
 10
11.9894606307
 20
7.920180122
 30
0.0
 10
12.0039631922
 20
7.911818297
 30
0.0
 10
12.0213916621
 20
7.9000956873
 30
0.0
 10
12.037695923
 20
7.886808554
 30
0.0
 10
12.0499878175
 20
7.8753075131
 30
0.0
 10
12.0617469626
 20
7.8632520281
 30
0.0
 10
12.072666836
 20
7.8504083793
 30
0.0
 10
12.0826584654
 20
7.8368747478
 30
0.0
 10
12.0896702365
 20
7.8264081805
 30
0.0
 10
12.0961828206
 20
7.81564909
 30
0.0
 10
12.1021807002
 20
7.8046239043
 30
0.0
 10
12.1076504702
 20
7.7933605685
 30
0.0
 10
12.1125777878
 20
7.7818865321
 30
0.0
 10
12.1169514414
 20
7.770230181
 30
0.0
 10
12.1220220851
 20
7.7545182514
 30
0.0
 10
12.1259624177
 20
7.7385221583
 30
0.0
 10
12.1287317665
 20
7.7223706048
 30
0.0
 10
12.1307041738
 20
7.706240348
 30
0.0
 10
12.1313053444
 20
7.6940722756
 30
0.0
 10
12.1313054917
 20
7.6859865644
 30
0.0
  0
SPLINE
  5
2D8
100
AcDbEntity
  8
0
100
AcDbSpline
 62
7
  6
CONTINUOUS
 70
0
 71
3
 72
56
 73
52
 74
0
 42
0.0000001
 43
0.0000001
 44
0.0000000001
 40
0.0
 40
0.0
 40
0.0
 40
0.0
 40
0.031072346
 40
0.0465152317
 40
0.0618873124
 40
0.0924244558
 40
0.1227285839
 40
0.1378086476
 40
0.152843805
 40
0.1678401144
 40
0.1828038429
 40
0.2126503375
 40
0.2275575076
 40
0.2424602021
 40
0.2573657768
 40
0.2722815596
 40
0.2872148075
 40
0.3021724288
 40
0.3171611944
 40
0.3321875086
 40
0.3472571497
 40
0.3623756664
 40
0.3927682644
 40
0.4234071833
 40
0.4388308412
 40
0.4543232404
 40
0.485507794
 40
0.5169699549
 40
0.5328065592
 40
0.5487076996
 40
0.5806824155
 40
0.6128739827
 40
0.6290441713
 40
0.6452543848
 40
0.6777639099
 40
0.7103643313
 40
0.7266873147
 40
0.7430142246
 40
0.7756456102
 40
0.791945892
 40
0.80822475
 40
0.8244760382
 40
0.8406940716
 40
0.8568734333
 40
0.8730088969
 40
0.8890954876
 40
0.905128265
 40
0.9370074718
 40
0.9528594107
 40
0.9686481654
 40
1.0
 40
1.0
 40
1.0
 40
1.0
 10
12.1313054938
 20
7.6859866651
 30
0.0
 10
12.1313053592
 20
7.6779730346
 30
0.0
 10
12.1307172431
 20
7.6659652944
 30
0.0
 10
12.1287477679
 20
7.6501215115
 30
0.0
 10
12.1260089703
 20
7.6345313608
 30
0.0
 10
12.1211476461
 20
7.6154495645
 30
0.0
 10
12.1143865261
 20
7.5970341577
 30
0.0
 10
12.1078947723
 20
7.5828620368
 30
0.0
 10
12.1025033765
 20
7.572546178
 30
0.0
 10
12.0965965561
 20
7.5625511511
 30
0.0
 10
12.0880614599
 20
7.5496972476
 30
0.0
 10
12.0785367823
 20
7.5375509171
 30
0.0
 10
12.0681109584
 20
7.526229172
 30
0.0
 10
12.0598577315
 20
7.5181664097
 30
0.0
 10
12.0511893866
 20
7.5105490328
 30
0.0
 10
12.0421247339
 20
7.5033948965
 30
0.0
 10
12.0326845742
 20
7.4967209365
 30
0.0
 10
12.0228910761
 20
7.4905418628
 30
0.0
 10
12.0127659743
 20
7.4848732966
 30
0.0
 10
12.00233264
 20
7.4797289472
 30
0.0
 10
11.9916151473
 20
7.4751202954
 30
0.0
 10
11.9769560289
 20
7.4696981323
 30
0.0
 10
11.9580294312
 20
7.4643191732
 30
0.0
 10
11.9385775044
 20
7.4608805739
 30
0.0
 10
11.9227757395
 20
7.4592971915
 30
0.0
 10
11.9067739821
 20
7.4584971979
 30
0.0
 10
11.8865930471
 20
7.458990305
 30
0.0
 10
11.8664695578
 20
7.4614607871
 30
0.0
 10
11.8504709306
 20
7.4646056903
 30
0.0
 10
11.8345126621
 20
7.4685442194
 30
0.0
 10
11.8148368583
 20
7.4749176527
 30
0.0
 10
11.7957827987
 20
7.4831359673
 30
0.0
 10
11.7809815157
 20
7.4907796247
 30
0.0
 10
11.7664789543
 20
7.4991414497
 30
0.0
 10
11.7490504843
 20
7.5108640595
 30
0.0
 10
11.7327462234
 20
7.5241511928
 30
0.0
 10
11.7204543289
 20
7.5356522337
 30
0.0
 10
11.7086951839
 20
7.5477077187
 30
0.0
 10
11.6977753105
 20
7.5605513675
 30
0.0
 10
11.6877836812
 20
7.574084999
 30
0.0
 10
11.6807719101
 20
7.5845515663
 30
0.0
 10
11.674259326
 20
7.5953106568
 30
0.0
 10
11.6682614465
 20
7.6063358424
 30
0.0
 10
11.6627916765
 20
7.6175991782
 30
0.0
 10
11.6578643589
 20
7.6290732145
 30
0.0
 10
11.6534907053
 20
7.6407295656
 30
0.0
 10
11.6484200616
 20
7.6564414952
 30
0.0
 10
11.6444797291
 20
7.6724375882
 30
0.0
 10
11.6417103802
 20
7.6885891417
 30
0.0
 10
11.6397379729
 20
7.7047193985
 30
0.0
 10
11.6391368024
 20
7.7168874709
 30
0.0
 10
11.639136655
 20
7.7249731822
 30
0.0
  0
SPLINE
  5
2D9
100
AcDbEntity
  8
0
100
AcDbSpline
 62
7
  6
CONTINUOUS
 70
0
 71
3
 72
56
 73
52
 74
0
 42
0.0000001
 43
0.0000001
 44
0.0000000001
 40
0.0
 40
0.0
 40
0.0
 40
0.0
 40
0.0310723444
 40
0.0465152282
 40
0.0618873079
 40
0.0924244521
 40
0.1227285817
 40
0.1378086463
 40
0.1528438045
 40
0.1678401149
 40
0.1828038444
 40
0.2126503405
 40
0.227557511
 40
0.2424602055
 40
0.2573657799
 40
0.272281562
 40
0.2872148089
 40
0.3021724291
 40
0.3171611937
 40
0.3321875071
 40
0.3472571476
 40
0.362375664
 40
0.3927682619
 40
0.4234071812
 40
0.4388308394
 40
0.454323239
 40
0.4855077933
 40
0.5169699546
 40
0.532806559
 40
0.5487076994
 40
0.5806824153
 40
0.6128739824
 40
0.6290441709
 40
0.6452543843
 40
0.6777639093
 40
0.7103643307
 40
0.7266873141
 40
0.7430142241
 40
0.7756456098
 40
0.7919458916
 40
0.8082247496
 40
0.8244760379
 40
0.8406940714
 40
0.8568734332
 40
0.8730088968
 40
0.8890954876
 40
0.905128265
 40
0.9370074719
 40
0.9528594107
 40
0.9686481654
 40
1.0
 40
1.0
 40
1.0
 40
1.0
 10
10.734064065
 20
8.7836096821
 30
0.0
 10
10.7340641997
 20
8.7916233122
 30
0.0
 10
10.7346523154
 20
8.8036310515
 30
0.0
 10
10.7366217906
 20
8.8194748332
 30
0.0
 10
10.7393605881
 20
8.8350649835
 30
0.0
 10
10.7442219121
 20
8.8541467802
 30
0.0
 10
10.750983032
 20
8.8725621879
 30
0.0
 10
10.7574747861
 20
8.8867343095
 30
0.0
 10
10.7628661823
 20
8.8970501689
 30
0.0
 10
10.768773003
 20
8.9070451965
 30
0.0
 10
10.7773080996
 20
8.9198991007
 30
0.0
 10
10.7868327779
 20
8.9320454316
 30
0.0
 10
10.7972586022
 20
8.943367177
 30
0.0
 10
10.8055118293
 20
8.9514299393
 30
0.0
 10
10.8141801742
 20
8.9590473158
 30
0.0
 10
10.8232448265
 20
8.9662014518
 30
0.0
 10
10.8326849856
 20
8.9728754113
 30
0.0
 10
10.8424784831
 20
8.9790544845
 30
0.0
 10
10.8526035842
 20
8.9847230504
 30
0.0
 10
10.8630369178
 20
8.9898673996
 30
0.0
 10
10.8737544102
 20
8.9944760512
 30
0.0
 10
10.8884135283
 20
8.9998982142
 30
0.0
 10
10.9073401259
 20
9.0052771736
 30
0.0
 10
10.9267920529
 20
9.008715773
 30
0.0
 10
10.942593818
 20
9.0102991556
 30
0.0
 10
10.9585955758
 20
9.0110991492
 30
0.0
 10
10.9787765111
 20
9.0106060422
 30
0.0
 10
10.9989000008
 20
9.0081355601
 30
0.0
 10
11.0148986282
 20
9.0049906569
 30
0.0
 10
11.0308568966
 20
9.0010521277
 30
0.0
 10
11.0505327004
 20
8.9946786944
 30
0.0
 10
11.0695867599
 20
8.98646038
 30
0.0
 10
11.0843880429
 20
8.9788167226
 30
0.0
 10
11.0988906043
 20
8.9704548976
 30
0.0
 10
11.1163190742
 20
8.9587322879
 30
0.0
 10
11.1326233352
 20
8.9454451546
 30
0.0
 10
11.1449152297
 20
8.9339441137
 30
0.0
 10
11.1566743747
 20
8.9218886287
 30
0.0
 10
11.1675942482
 20
8.9090449799
 30
0.0
 10
11.1775858775
 20
8.8955113484
 30
0.0
 10
11.1845976487
 20
8.885044781
 30
0.0
 10
11.1911102327
 20
8.8742856905
 30
0.0
 10
11.1971081123
 20
8.8632605049
 30
0.0
 10
11.2025778824
 20
8.8519971691
 30
0.0
 10
11.2075051999
 20
8.8405231327
 30
0.0
 10
11.2118788535
 20
8.8288667816
 30
0.0
 10
11.2169494972
 20
8.8131548519
 30
0.0
 10
11.2208898298
 20
8.7971587589
 30
0.0
 10
11.2236591786
 20
8.7810072054
 30
0.0
 10
11.225631586
 20
8.7648769486
 30
0.0
 10
11.2262327565
 20
8.7527088762
 30
0.0
 10
11.2262329039
 20
8.744623165
 30
0.0
  0
SPLINE
  5
2DA
100
AcDbEntity
  8
0
100
AcDbSpline
 62
7
  6
CONTINUOUS
 70
0
 71
3
 72
56
 73
52
 74
0
 42
0.0000001
 43
0.0000001
 44
0.0000000001
 40
0.0
 40
0.0
 40
0.0
 40
0.0
 40
0.031072346
 40
0.0465152317
 40
0.0618873124
 40
0.0924244558
 40
0.1227285839
 40
0.1378086476
 40
0.152843805
 40
0.1678401144
 40
0.1828038429
 40
0.2126503375
 40
0.2275575076
 40
0.2424602021
 40
0.2573657768
 40
0.2722815596
 40
0.2872148075
 40
0.3021724288
 40
0.3171611944
 40
0.3321875086
 40
0.3472571497
 40
0.3623756664
 40
0.3927682644
 40
0.4234071833
 40
0.4388308412
 40
0.4543232404
 40
0.485507794
 40
0.5169699549
 40
0.5328065592
 40
0.5487076996
 40
0.5806824155
 40
0.6128739827
 40
0.6290441713
 40
0.6452543848
 40
0.6777639099
 40
0.7103643313
 40
0.7266873147
 40
0.7430142246
 40
0.7756456102
 40
0.791945892
 40
0.80822475
 40
0.8244760382
 40
0.8406940716
 40
0.8568734333
 40
0.8730088969
 40
0.8890954876
 40
0.905128265
 40
0.9370074718
 40
0.9528594107
 40
0.9686481654
 40
1.0
 40
1.0
 40
1.0
 40
1.0
 10
11.226232906
 20
8.7446232657
 30
0.0
 10
11.2262327713
 20
8.7366096352
 30
0.0
 10
11.2256446552
 20
8.724601895
 30
0.0
 10
11.2236751801
 20
8.7087581121
 30
0.0
 10
11.2209363824
 20
8.6931679613
 30
0.0
 10
11.2160750582
 20
8.6740861651
 30
0.0
 10
11.2093139382
 20
8.6556707582
 30
0.0
 10
11.2028221845
 20
8.6414986374
 30
0.0
 10
11.1974307886
 20
8.6311827786
 30
0.0
 10
11.1915239682
 20
8.6211877516
 30
0.0
 10
11.1829888721
 20
8.6083338481
 30
0.0
 10
11.1734641945
 20
8.5961875177
 30
0.0
 10
11.1630383706
 20
8.5848657726
 30
0.0
 10
11.1547851436
 20
8.5768030102
 30
0.0
 10
11.1461167987
 20
8.5691856334
 30
0.0
 10
11.137052146
 20
8.5620314971
 30
0.0
 10
11.1276119863
 20
8.5553575371
 30
0.0
 10
11.1178184882
 20
8.5491784634
 30
0.0
 10
11.1076933864
 20
8.5435098971
 30
0.0
 10
11.0972600522
 20
8.5383655477
 30
0.0
 10
11.0865425594
 20
8.533756896
 30
0.0
 10
11.071883441
 20
8.5283347329
 30
0.0
 10
11.0529568434
 20
8.5229557738
 30
0.0
 10
11.0335049166
 20
8.5195171745
 30
0.0
 10
11.0177031516
 20
8.5179337921
 30
0.0
 10
11.0017013943
 20
8.5171337984
 30
0.0
 10
10.9815204593
 20
8.5176269056
 30
0.0
 10
10.9613969699
 20
8.5200973877
 30
0.0
 10
10.9453983427
 20
8.5232422909
 30
0.0
 10
10.9294400743
 20
8.52718082
 30
0.0
 10
10.9097642704
 20
8.5335542533
 30
0.0
 10
10.8907102109
 20
8.5417725678
 30
0.0
 10
10.8759089279
 20
8.5494162252
 30
0.0
 10
10.8614063664
 20
8.5577780503
 30
0.0
 10
10.8439778965
 20
8.5695006601
 30
0.0
 10
10.8276736355
 20
8.5827877934
 30
0.0
 10
10.815381741
 20
8.5942888343
 30
0.0
 10
10.803622596
 20
8.6063443193
 30
0.0
 10
10.7927027226
 20
8.6191879681
 30
0.0
 10
10.7827110933
 20
8.6327215996
 30
0.0
 10
10.7756993222
 20
8.6431881669
 30
0.0
 10
10.7691867382
 20
8.6539472574
 30
0.0
 10
10.7631888586
 20
8.664972443
 30
0.0
 10
10.7577190886
 20
8.6762357788
 30
0.0
 10
10.752791771
 20
8.6877098151
 30
0.0
 10
10.7484181174
 20
8.6993661661
 30
0.0
 10
10.7433474738
 20
8.7150780958
 30
0.0
 10
10.7394071412
 20
8.7310741888
 30
0.0
 10
10.7366377924
 20
8.7472257423
 30
0.0
 10
10.734665385
 20
8.7633559991
 30
0.0
 10
10.7340642145
 20
8.7755240715
 30
0.0
 10
10.7340640671
 20
8.7836097827
 30
0.0
  0
SPLINE
  5
2DB
100
AcDbEntity
  8
0
100
AcDbSpline
 62
7
  6
CONTINUOUS
 70
0
 71
3
 72
23
 73
19
 74
0
 42
0.0000001
 43
0.0000001
 44
0.0000000001
 40
0.0
 40
0.0
 40
0.0
 40
0.0
 40
0.0814255973
 40
0.1607770094
 40
0.2379107288
 40
0.3126865364
 40
0.3849693321
 40
0.4546351796
 40
0.5215771021
 40
0.5857114777
 40
0.6469846752
 40
0.7053794746
 40
0.7609209703
 40
0.8136808041
 40
0.8637790746
 40
0.9113837748
 40
0.9567073063
 40
1.0
 40
1.0
 40
1.0
 40
1.0
 10
6.9291509046
 20
8.4035153068
 30
0.0
 10
6.9251588305
 20
8.4058726664
 30
0.0
 10
6.9173083227
 20
8.4105817757
 30
0.0
 10
6.9058021286
 20
8.4177313701
 30
0.0
 10
6.894741706
 20
8.4248774284
 30
0.0
 10
6.8841590164
 20
8.4320169444
 30
0.0
 10
6.8740860217
 20
8.4391465315
 30
0.0
 10
6.8645540874
 20
8.446262344
 30
0.0
 10
6.8555931128
 20
8.4533601445
 30
0.0
 10
6.8472306646
 20
8.4604353853
 30
0.0
 10
6.8394910717
 20
8.4674833071
 30
0.0
 10
6.8323945574
 20
8.4744990853
 30
0.0
 10
6.8259564294
 20
8.481477926
 30
0.0
 10
6.8201864724
 20
8.4884152213
 30
0.0
 10
6.8150886661
 20
8.4953066021
 30
0.0
 10
6.8106609947
 20
8.5021482765
 30
0.0
 10
6.8068959348
 20
8.5089360768
 30
0.0
 10
6.8047741784
 20
8.5135200308
 30
0.0
 10
6.803827386
 20
8.5157959093
 30
0.0
  0
SPLINE
  5
2DC
100
AcDbEntity
  8
0
100
AcDbSpline
 62
7
  6
CONTINUOUS
 70
0
 71
3
 72
9
 73
5
 74
0
 42
0.0000001
 43
0.0000001
 44
0.0000000001
 40
0.0
 40
0.0
 40
0.0
 40
0.0
 40
0.2576616456
 40
1.0
 40
1.0
 40
1.0
 40
1.0
 10
6.9291509046
 20
9.6271218362
 30
0.0
 10
6.9297465289
 20
9.6277951219
 30
0.0
 10
6.9320814867
 20
9.630387388
 30
0.0
 10
6.934512133
 20
9.6328941308
 30
0.0
 10
6.9363749168
 20
9.634693442
 30
0.0
  0
SPLINE
  5
2DD
100
AcDbEntity
  8
0
100
AcDbSpline
 62
7
  6
CONTINUOUS
 70
0
 71
3
 72
9
 73
5
 74
0
 42
0.0000001
 43
0.0000001
 44
0.0000000001
 40
0.0
 40
0.0
 40
0.0
 40
0.0
 40
0.2423492772
 40
1.0
 40
1.0
 40
1.0
 40
1.0
 10
6.943598929
 20
9.6410775568
 30
0.0
 10
6.942991094
 20
9.6405903983
 30
0.0
 10
6.9405085056
 20
9.6385485073
 30
0.0
 10
6.9381264889
 20
9.6363853308
 30
0.0
 10
6.9363749168
 20
9.634693442
 30
0.0
  0
SPLINE
  5
2DE
100
AcDbEntity
  8
0
100
AcDbSpline
 62
7
  6
CONTINUOUS
 70
0
 71
3
 72
16
 73
12
 74
0
 42
0.0000001
 43
0.0000001
 44
0.0000000001
 40
0.0
 40
0.0
 40
0.0
 40
0.0
 40
0.1090375554
 40
0.2197959216
 40
0.3339114417
 40
0.4528678207
 40
0.5145935554
 40
0.5779966896
 40
0.7103098968
 40
0.8507394476
 40
1.0
 40
1.0
 40
1.0
 40
1.0
 10
6.1634333239
 20
8.5777064034
 30
0.0
 10
6.1620818786
 20
8.5778001326
 30
0.0
 10
6.1593668586
 20
8.5781687289
 30
0.0
 10
6.1553521583
 20
8.5792552657
 30
0.0
 10
6.1513879242
 20
8.5808737056
 30
0.0
 10
6.1481706575
 20
8.5826402353
 30
0.0
 10
6.145632069
 20
8.5843009324
 30
0.0
 10
6.1430442
 20
8.5861826222
 30
0.0
 10
6.1398447505
 20
8.5888762675
 30
0.0
 10
6.1361246375
 20
8.5925778222
 30
0.0
 10
6.1337645462
 20
8.5952996237
 30
0.0
 10
6.1325944767
 20
8.5967383146
 30
0.0
  0
SPLINE
  5
2DF
100
AcDbEntity
  8
0
100
AcDbSpline
 62
7
  6
CONTINUOUS
 70
0
 71
3
 72
51
 73
47
 74
0
 42
0.0000001
 43
0.0000001
 44
0.0000000001
 40
0.0
 40
0.0
 40
0.0
 40
0.0
 40
0.0097389416
 40
0.0199693671
 40
0.0306880566
 40
0.0418901548
 40
0.0535691272
 40
0.0657171563
 40
0.0783250973
 40
0.0913827321
 40
0.1048787973
 40
0.1188010889
 40
0.1331365788
 40
0.147871373
 40
0.1784791973
 40
0.2105006041
 40
0.2438013192
 40
0.2782388045
 40
0.3136635011
 40
0.3499198443
 40
0.386847362
 40
0.4242816794
 40
0.4620554651
 40
0.4999994879
 40
0.5379435115
 40
0.5757173149
 40
0.613151657
 40
0.6500792031
 40
0.6863355896
 40
0.7217603284
 40
0.7561978662
 40
0.7894986413
 40
0.8215201151
 40
0.8521280198
 40
0.8668628803
 40
0.8811983887
 40
0.8951207427
 40
0.9086168447
 40
0.9216745314
 40
0.9342825239
 40
0.9464305888
 40
0.9581096287
 40
0.9693117565
 40
0.9800305293
 40
0.9902609657
 40
1.0
 40
1.0
 40
1.0
 40
1.0
 10
6.7960732889
 20
8.5344258161
 30
0.0
 10
6.7948116693
 20
8.5374569373
 30
0.0
 10
6.7923345535
 20
8.5437182764
 30
0.0
 10
6.788829936
 20
8.553453663
 30
0.0
 10
6.7854486081
 20
8.5637529921
 30
0.0
 10
6.7821947888
 20
8.5746039555
 30
0.0
 10
6.7790722568
 20
8.5859937359
 30
0.0
 10
6.7760848456
 20
8.5979088068
 30
0.0
 10
6.7732360924
 20
8.6103349979
 30
0.0
 10
6.7705294571
 20
8.6232575095
 30
0.0
 10
6.7679681939
 20
8.6366609375
 30
0.0
 10
6.7655553782
 20
8.6505292885
 30
0.0
 10
6.7632939206
 20
8.6648460279
 30
0.0
 10
6.7604480488
 20
8.6847630554
 30
0.0
 10
6.7573060845
 20
8.7106575518
 30
0.0
 10
6.7542232251
 20
8.7428532684
 30
0.0
 10
6.7517970954
 20
8.7763995069
 30
0.0
 10
6.7500395689
 20
8.8111359333
 30
0.0
 10
6.7489593592
 20
8.8468966938
 30
0.0
 10
6.7485618531
 20
8.8835108889
 30
0.0
 10
6.7488491305
 20
8.9208035049
 30
0.0
 10
6.7498199477
 20
8.9585962389
 30
0.0
 10
6.7514697528
 20
8.9967083803
 30
0.0
 10
6.7537907094
 20
9.0349576674
 30
0.0
 10
6.7567717349
 20
9.0731611849
 30
0.0
 10
6.760398557
 20
9.1111362353
 30
0.0
 10
6.7646537794
 20
9.1487012205
 30
0.0
 10
6.7695169666
 20
9.1856765307
 30
0.0
 10
6.7749647372
 20
9.2218853957
 30
0.0
 10
6.7809708732
 20
9.2571547663
 30
0.0
 10
6.7875064478
 20
9.2913161204
 30
0.0
 10
6.7945399389
 20
9.3242063969
 30
0.0
 10
6.8020374443
 20
9.3556684398
 30
0.0
 10
6.808723721
 20
9.3808814189
 30
0.0
 10
6.814291576
 20
9.400215022
 30
0.0
 10
6.8185076424
 20
9.4140825899
 30
0.0
 10
6.8228116636
 20
9.4274851775
 30
0.0
 10
6.8271985821
 20
9.4404067987
 30
0.0
 10
6.8316630713
 20
9.4528320455
 30
0.0
 10
6.8361998107
 20
9.4647461053
 30
0.0
 10
6.8408033495
 20
9.4761347946
 30
0.0
 10
6.8454681596
 20
9.4869845834
 30
0.0
 10
6.8501886988
 20
9.4972825747
 30
0.0
 10
6.8549592838
 20
9.507016638
 30
0.0
 10
6.8597742443
 20
9.5161751068
 30
0.0
 10
6.863091898
 20
9.5220346384
 30
0.0
 10
6.8647598539
 20
9.524862625
 30
0.0
  0
SPLINE
  5
2E0
100
AcDbEntity
  8
0
100
AcDbSpline
 62
7
  6
CONTINUOUS
 70
0
 71
3
 72
9
 73
5
 74
0
 42
0.0000001
 43
0.0000001
 44
0.0000000001
 40
0.0
 40
0.0
 40
0.0
 40
0.0
 40
0.4964502003
 40
1.0
 40
1.0
 40
1.0
 40
1.0
 10
6.8849166916
 20
9.5590382363
 30
0.0
 10
6.8917438266
 20
9.5706135337
 30
0.0
 10
6.906052505
 20
9.5936042894
 30
0.0
 10
6.9212869303
 20
9.6159882172
 30
0.0
 10
6.9291509046
 20
9.6271218362
 30
0.0
  0
SPLINE
  5
2E1
100
AcDbEntity
  8
0
100
AcDbSpline
 62
7
  6
CONTINUOUS
 70
0
 71
3
 72
17
 73
13
 74
0
 42
0.0000001
 43
0.0000001
 44
0.0000000001
 40
0.0
 40
0.0
 40
0.0
 40
0.0
 40
0.14925023
 40
0.2896790072
 40
0.4219839852
 40
0.4853820468
 40
0.5471027621
 40
0.666051619
 40
0.7801604894
 40
0.8909118764
 40
0.9455643763
 40
1.0
 40
1.0
 40
1.0
 40
1.0
 10
6.1990314949
 20
9.5547317858
 30
0.0
 10
6.2003889481
 20
9.5559951563
 30
0.0
 10
6.2031021916
 20
9.5583651589
 30
0.0
 10
6.2072976427
 20
9.5615178356
 30
0.0
 10
6.2108383304
 20
9.5637440678
 30
0.0
 10
6.2136611123
 20
9.5652505151
 30
0.0
 10
6.2164045895
 20
9.566544827
 30
0.0
 10
6.2198349709
 20
9.5678503427
 30
0.0
 10
6.2239841423
 20
9.5689061528
 30
0.0
 10
6.2274397719
 20
9.5693429598
 30
0.0
 10
6.2301716317
 20
9.5694210295
 30
0.0
 10
6.2315273054
 20
9.5693714928
 30
0.0
 10
6.2322020333
 20
9.5693246972
 30
0.0
  0
SPLINE
  5
2E2
100
AcDbEntity
  8
0
100
AcDbSpline
 62
7
  6
CONTINUOUS
 70
0
 71
3
 72
57
 73
53
 74
0
 42
0.0000001
 43
0.0000001
 44
0.0000000001
 40
0.0
 40
0.0
 40
0.0
 40
0.0
 40
0.0075209348
 40
0.0156243758
 40
0.0243314268
 40
0.0336553535
 40
0.0436033453
 40
0.0541774802
 40
0.0653756658
 40
0.0771924093
 40
0.0896190979
 40
0.1026446699
 40
0.1162557318
 40
0.1304369017
 40
0.1451710818
 40
0.1604394301
 40
0.1762217489
 40
0.1924964258
 40
0.2092406424
 40
0.2264305031
 40
0.2620453482
 40
0.2991310694
 40
0.3374641353
 40
0.3768104646
 40
0.4169277267
 40
0.4575673404
 40
0.4984765753
 40
0.5394005811
 40
0.5800843348
 40
0.6202747946
 40
0.6597227781
 40
0.6981851274
 40
0.7354267262
 40
0.7712226483
 40
0.7885120186
 40
0.8053614474
 40
0.821746784
 40
0.8376448877
 40
0.8530339358
 40
0.8678933495
 40
0.8822039762
 40
0.895948316
 40
0.9091105037
 40
0.921676757
 40
0.9336353876
 40
0.944977202
 40
0.9556959801
 40
0.965788729
 40
0.9752564641
 40
0.9841051643
 40
0.9923470221
 40
1.0
 40
1.0
 40
1.0
 40
1.0
 10
6.0808428023
 20
8.6603697107
 30
0.0
 10
6.0794727506
 20
8.6620543189
 30
0.0
 10
6.0767733442
 20
8.6656748984
 30
0.0
 10
6.0729745304
 20
8.6715892689
 30
0.0
 10
6.0692842377
 20
8.6781752606
 30
0.0
 10
6.0657082019
 20
8.6854220278
 30
0.0
 10
6.06225192
 20
8.6933183356
 30
0.0
 10
6.0589209205
 20
8.7018515077
 30
0.0
 10
6.0557205824
 20
8.7110077857
 30
0.0
 10
6.0526562641
 20
8.720772293
 30
0.0
 10
6.0497329611
 20
8.7311290455
 30
0.0
 10
6.0469556249
 20
8.7420610416
 30
0.0
 10
6.0443288741
 20
8.7535502675
 30
0.0
 10
6.0418570891
 20
8.7655777574
 30
0.0
 10
6.039544477
 20
8.7781236275
 30
0.0
 10
6.0373948439
 20
8.7911671028
 30
0.0
 10
6.0354118587
 20
8.8046865662
 30
0.0
 10
6.0335988309
 20
8.8186595914
 30
0.0
 10
6.0319587551
 20
8.8330630208
 30
0.0
 10
6.0299831344
 20
8.8530458969
 30
0.0
 10
6.0279813474
 20
8.8789246234
 30
0.0
 10
6.0263313581
 20
8.9109421476
 30
0.0
 10
6.025417794
 20
8.9440667534
 30
0.0
 10
6.0252470284
 20
8.9780785044
 30
0.0
 10
6.0258205003
 20
9.0127517328
 30
0.0
 10
6.0271345914
 20
9.0478562466
 30
0.0
 10
6.0291806955
 20
9.0831589723
 30
0.0
 10
6.0319452723
 20
9.1184254915
 30
0.0
 10
6.0354099351
 20
9.153421641
 30
0.0
 10
6.0395515651
 20
9.18791507
 30
0.0
 10
6.0443424857
 20
9.2216768061
 30
0.0
 10
6.0497506123
 20
9.2544828752
 30
0.0
 10
6.0557397436
 20
9.2861154766
 30
0.0
 10
6.0612429813
 20
9.311610273
 30
0.0
 10
6.0659190189
 20
9.331253041
 30
0.0
 10
6.0695048511
 20
9.3453929974
 30
0.0
 10
6.0732039614
 20
9.3590881163
 30
0.0
 10
6.0770102841
 20
9.3723156879
 30
0.0
 10
6.0809174026
 20
9.3850537854
 30
0.0
 10
6.0849188215
 20
9.397281302
 30
0.0
 10
6.0890078842
 20
9.4089779887
 30
0.0
 10
6.0931777092
 20
9.4201245131
 30
0.0
 10
6.0974214252
 20
9.4307024588
 30
0.0
 10
6.1017319
 20
9.4406944189
 30
0.0
 10
6.1061020046
 20
9.4500839733
 30
0.0
 10
6.1105245225
 20
9.4588557564
 30
0.0
 10
6.1149921164
 20
9.466995515
 30
0.0
 10
6.119497611
 20
9.4744900405
 30
0.0
 10
6.1240336096
 20
9.4813273615
 30
0.0
 10
6.1285932944
 20
9.4874968547
 30
0.0
 10
6.1331693086
 20
9.492988172
 30
0.0
 10
6.1363410699
 20
9.496311462
 30
0.0
 10
6.1379302738
 20
9.4978465152
 30
0.0
  0
SPLINE
  5
2E3
100
AcDbEntity
  8
0
100
AcDbSpline
 62
7
  6
CONTINUOUS
 70
0
 71
3
 72
22
 73
18
 74
0
 42
0.0000001
 43
0.0000001
 44
0.0000000001
 40
0.0
 40
0.0
 40
0.0
 40
0.0
 40
0.0635328234
 40
0.1269635297
 40
0.1902800014
 40
0.253469831
 40
0.3165212155
 40
0.3794236398
 40
0.4421687713
 40
0.5047512483
 40
0.5671692334
 40
0.6294246357
 40
0.6915229176
 40
0.7534725165
 40
0.8152840456
 40
0.8769694529
 40
1.0
 40
1.0
 40
1.0
 40
1.0
 10
6.7907935947
 20
8.5991224273
 30
0.0
 10
6.7877266127
 20
8.6108485506
 30
0.0
 10
6.7818681657
 20
8.6343539224
 30
0.0
 10
6.7739895009
 20
8.6697938542
 30
0.0
 10
6.7671166329
 20
8.7053768975
 30
0.0
 10
6.7613392652
 20
8.7410816589
 30
0.0
 10
6.7567417676
 20
8.7768786666
 30
0.0
 10
6.7533980803
 20
8.8127300393
 30
0.0
 10
6.7513662322
 20
8.8485906287
 30
0.0
 10
6.7506834452
 20
8.8844101659
 30
0.0
 10
6.751362672
 20
8.9201363968
 30
0.0
 10
6.7533912616
 20
8.9557186943
 30
0.0
 10
6.7567322429
 20
8.9911116096
 30
0.0
 10
6.7613276886
 20
9.0262773855
 30
0.0
 10
6.7671038319
 20
9.0611883683
 30
0.0
 10
6.7762577792
 20
9.1073265231
 30
0.0
 10
6.7846459313
 20
9.1415769614
 30
0.0
 10
6.7907935947
 20
9.1642289019
 30
0.0
  0
SPLINE
  5
2E4
100
AcDbEntity
  8
0
100
AcDbSpline
 62
7
  6
CONTINUOUS
 70
0
 71
3
 72
21
 73
17
 74
0
 42
0.0000001
 43
0.0000001
 44
0.0000000001
 40
0.0
 40
0.0
 40
0.0
 40
0.0
 40
0.1201616124
 40
0.1804874208
 40
0.2410233927
 40
0.3018124675
 40
0.3629012225
 40
0.4243385699
 40
0.4861743175
 40
0.5484573809
 40
0.6112337796
 40
0.6745446053
 40
0.7384241813
 40
0.802898631
 40
0.8679850048
 40
1.0
 40
1.0
 40
1.0
 40
1.0
 10
6.7980176068
 20
9.2179035523
 30
0.0
 10
6.7974297199
 20
9.2306196561
 30
0.0
 10
6.7970345575
 20
9.2497486382
 30
0.0
 10
6.7976163857
 20
9.2752784209
 30
0.0
 10
6.7986450015
 20
9.2944980195
 30
0.0
 10
6.8003003503
 20
9.3137550259
 30
0.0
 10
6.8026152251
 20
9.333040477
 30
0.0
 10
6.8056190754
 20
9.3523431643
 30
0.0
 10
6.8093367136
 20
9.3716502504
 30
0.0
 10
6.8137871882
 20
9.3909474344
 30
0.0
 10
6.818982796
 20
9.410219409
 30
0.0
 10
6.824928414
 20
9.4294504326
 30
0.0
 10
6.8316210929
 20
9.448624796
 30
0.0
 10
6.8390504766
 20
9.4677279855
 30
0.0
 10
6.8499647945
 20
9.4932030708
 30
0.0
 10
6.8591229057
 20
9.5119875718
 30
0.0
 10
6.8656099558
 20
9.5243774821
 30
0.0
  0
SPLINE
  5
2E5
100
AcDbEntity
  8
0
100
AcDbSpline
 62
7
  6
CONTINUOUS
 70
0
 71
3
 72
15
 73
11
 74
0
 42
0.0000001
 43
0.0000001
 44
0.0000000001
 40
0.0
 40
0.0
 40
0.0
 40
0.0
 40
0.1347201854
 40
0.2653436344
 40
0.3925585204
 40
0.5170448471
 40
0.6394538775
 40
0.7603925231
 40
0.8804128066
 40
1.0
 40
1.0
 40
1.0
 40
1.0
 10
6.803827386
 20
8.5157959093
 30
0.0
 10
6.8030595315
 20
8.5176416604
 30
0.0
 10
6.8016626046
 20
8.5213265321
 30
0.0
 10
6.799965706
 20
8.5269034878
 30
0.0
 10
6.7986876518
 20
8.5324355582
 30
0.0
 10
6.7978117664
 20
8.5379218068
 30
0.0
 10
6.7973202524
 20
8.5433620532
 30
0.0
 10
6.7971946757
 20
8.5487565056
 30
0.0
 10
6.7974161551
 20
8.5541054576
 30
0.0
 10
6.7977829775
 20
8.557644535
 30
0.0
 10
6.7980176068
 20
8.5594034976
 30
0.0
  0
SPLINE
  5
2E6
100
AcDbEntity
  8
0
100
AcDbSpline
 62
7
  6
CONTINUOUS
 70
0
 71
3
 72
57
 73
53
 74
0
 42
0.0000001
 43
0.0000001
 44
0.0000000001
 40
0.0
 40
0.0
 40
0.0
 40
0.0
 40
0.0075208352
 40
0.0156242019
 40
0.0243311202
 40
0.033654977
 40
0.0436028572
 40
0.0541768857
 40
0.0653750177
 40
0.0771916419
 40
0.0896182688
 40
0.1026437563
 40
0.1162547297
 40
0.130435871
 40
0.1451699653
 40
0.1604382622
 40
0.1762205301
 40
0.1924951529
 40
0.209239359
 40
0.2264291701
 40
0.2620439611
 40
0.2991296701
 40
0.3374627071
 40
0.3768090614
 40
0.4169263444
 40
0.4575660037
 40
0.4984753053
 40
0.5393993667
 40
0.5800832205
 40
0.6202737597
 40
0.6597218525
 40
0.6981842859
 40
0.7354259805
 40
0.7712220246
 40
0.7885114268
 40
0.8053609276
 40
0.8217462907
 40
0.8376444618
 40
0.8530335573
 40
0.8678929926
 40
0.8822036868
 40
0.8959480478
 40
0.9091102851
 40
0.9216765799
 40
0.9336352246
 40
0.94497709
 40
0.9556958781
 40
0.9657886556
 40
0.9752564421
 40
0.9841051328
 40
0.9923469571
 40
1.0
 40
1.0
 40
1.0
 40
1.0
 10
6.1325944767
 20
8.5967383146
 30
0.0
 10
6.1310291586
 20
8.5986629943
 30
0.0
 10
6.1279449426
 20
8.6027994981
 30
0.0
 10
6.1236047092
 20
8.609556744
 30
0.0
 10
6.1193883406
 20
8.6170812792
 30
0.0
 10
6.1153026342
 20
8.6253608284
 30
0.0
 10
6.1113536752
 20
8.6343824716
 30
0.0
 10
6.1075478584
 20
8.6441317658
 30
0.0
 10
6.1038913865
 20
8.6545929973
 30
0.0
 10
6.1003902264
 20
8.6657491358
 30
0.0
 10
6.0970502656
 20
8.6775819499
 30
0.0
 10
6.0938770373
 20
8.6900719972
 30
0.0
 10
6.0908758382
 20
8.7031987057
 30
0.0
 10
6.0880517534
 20
8.7169404105
 30
0.0
 10
6.0854094571
 20
8.7312743797
 30
0.0
 10
6.0829534202
 20
8.7461768808
 30
0.0
 10
6.0806877713
 20
8.7616232216
 30
0.0
 10
6.0786162798
 20
8.7775877818
 30
0.0
 10
6.0767424364
 20
8.7940440983
 30
0.0
 10
6.0744851641
 20
8.8168750962
 30
0.0
 10
6.0721980285
 20
8.846442286
 30
0.0
 10
6.0703128037
 20
8.8830232441
 30
0.0
 10
6.0692689726
 20
8.9208691048
 30
0.0
 10
6.0690738183
 20
8.9597285678
 30
0.0
 10
6.06972898
 20
8.9993438144
 30
0.0
 10
6.0712303245
 20
9.0394518323
 30
0.0
 10
6.0735680248
 20
9.0797863254
 30
0.0
 10
6.0767266119
 20
9.1200794694
 30
0.0
 10
6.0806850622
 20
9.1600637133
 30
0.0
 10
6.08541697
 20
9.1994736023
 30
0.0
 10
6.0908907212
 20
9.2380475043
 30
0.0
 10
6.0970696654
 20
9.2755295314
 30
0.0
 10
6.1039124302
 20
9.3116708392
 30
0.0
 10
6.1102000169
 20
9.3407995088
 30
0.0
 10
6.1155425561
 20
9.3632420379
 30
0.0
 10
6.1196394449
 20
9.3793974202
 30
0.0
 10
6.1238658269
 20
9.395044556
 30
0.0
 10
6.1282146479
 20
9.4101575115
 30
0.0
 10
6.1326786489
 20
9.424711222
 30
0.0
 10
6.1372504175
 20
9.4386815693
 30
0.0
 10
6.1419222669
 20
9.4520454375
 30
0.0
 10
6.1466864531
 20
9.4647807158
 30
0.0
 10
6.1515350209
 20
9.4768663819
 30
0.0
 10
6.1564598649
 20
9.4882825397
 30
0.0
 10
6.1614528726
 20
9.4990104148
 30
0.0
 10
6.1665057159
 20
9.5090324798
 30
0.0
 10
6.1716101006
 20
9.5183324222
 30
0.0
 10
6.1767577676
 20
9.5268951778
 30
0.0
 10
6.1819402954
 20
9.5347070451
 30
0.0
 10
6.1871498784
 20
9.5417558777
 30
0.0
 10
6.1923780999
 20
9.5480298954
 30
0.0
 10
6.1960019494
 20
9.5518268546
 30
0.0
 10
6.1978176786
 20
9.5535807144
 30
0.0
  0
SPLINE
  5
2E7
100
AcDbEntity
  8
0
100
AcDbSpline
 62
7
  6
CONTINUOUS
 70
0
 71
3
 72
50
 73
46
 74
0
 42
0.0000001
 43
0.0000001
 44
0.0000000001
 40
0.0
 40
0.0
 40
0.0
 40
0.0
 40
0.0103582201
 40
0.0213923045
 40
0.0330967825
 40
0.0454644992
 40
0.0584862188
 40
0.0721487652
 40
0.1013292248
 40
0.1328570978
 40
0.1665523303
 40
0.2022107335
 40
0.2396080551
 40
0.2785032383
 40
0.318641357
 40
0.3597563148
 40
0.4015734226
 40
0.4438119042
 40
0.4861873631
 40
0.5284142308
 40
0.5702082092
 40
0.6112887197
 40
0.651381371
 40
0.6902204673
 40
0.7275515907
 40
0.7631343112
 40
0.7967451198
 40
0.8281807484
 40
0.8572621552
 40
0.8708730823
 40
0.8838420885
 40
0.8961564204
 40
0.9078059328
 40
0.918784275
 40
0.929088674
 40
0.9387216515
 40
0.9476911157
 40
0.956012748
 40
0.9637109023
 40
0.9708218709
 40
0.9773960351
 40
0.9835017379
 40
0.9892276295
 40
0.9946840213
 40
1.0
 40
1.0
 40
1.0
 40
1.0
 10
15.3847080787
 20
8.4506479856
 30
0.0
 10
15.3843909437
 20
8.4513347857
 30
0.0
 10
15.3837705212
 20
8.4527693131
 30
0.0
 10
15.3829033934
 20
8.4550261555
 30
0.0
 10
15.382072078
 20
8.4574520884
 30
0.0
 10
15.3812780696
 20
8.4600426165
 30
0.0
 10
15.3805227834
 20
8.4627932405
 30
0.0
 10
15.3795476761
 20
8.4667553433
 30
0.0
 10
15.3784456249
 20
8.4720759179
 30
0.0
 10
15.3773237075
 20
8.4788801024
 30
0.0
 10
15.3763834908
 20
8.4861888698
 30
0.0
 10
15.3756319412
 20
8.4939499738
 30
0.0
 10
15.3750747089
 20
8.5021079981
 30
0.0
 10
15.3747159738
 20
8.5106045127
 30
0.0
 10
15.3745584555
 20
8.5193786129
 30
0.0
 10
15.3746033905
 20
8.5283673537
 30
0.0
 10
15.3748505313
 20
8.5375062233
 30
0.0
 10
15.3752981511
 20
8.546729615
 30
0.0
 10
15.3759430589
 20
8.5559713068
 30
0.0
 10
15.3767806239
 20
8.5651649436
 30
0.0
 10
15.3778048092
 20
8.5742445203
 30
0.0
 10
15.3790082145
 20
8.5831448627
 30
0.0
 10
15.3803821278
 20
8.5918021041
 30
0.0
 10
15.3819165859
 20
8.6001541537
 30
0.0
 10
15.3836004414
 20
8.6081411648
 30
0.0
 10
15.3854214453
 20
8.6157059613
 30
0.0
 10
15.3873663128
 20
8.6227945755
 30
0.0
 10
15.3894208913
 20
8.6293563738
 30
0.0
 10
15.3912500806
 20
8.6344539068
 30
0.0
 10
15.3927650716
 20
8.6382265645
 30
0.0
 10
15.3938942575
 20
8.6408334339
 30
0.0
 10
15.395039461
 20
8.6432760235
 30
0.0
 10
15.3961987355
 20
8.6455499979
 30
0.0
 10
15.397369931
 20
8.6476513939
 30
0.0
 10
15.3985510893
 20
8.6495765172
 30
0.0
 10
15.3997400724
 20
8.6513220983
 30
0.0
 10
15.400935004
 20
8.6528851136
 30
0.0
 10
15.4021338748
 20
8.6542630012
 30
0.0
 10
15.4033350259
 20
8.6554533703
 30
0.0
 10
15.4045367759
 20
8.656454223
 30
0.0
 10
15.4057378411
 20
8.6572634883
 30
0.0
 10
15.4069368514
 20
8.6578791368
 30
0.0
 10
15.4081325071
 20
8.6582986394
 30
0.0
 10
15.4093220591
 20
8.658519358
 30
0.0
 10
15.4101131379
 20
8.6585324403
 30
0.0
 10
15.4105004464
 20
8.6585055888
 30
0.0
  0
SPLINE
  5
2E8
100
AcDbEntity
  8
0
100
AcDbSpline
 62
7
  6
CONTINUOUS
 70
0
 71
3
 72
50
 73
46
 74
0
 42
0.0000001
 43
0.0000001
 44
0.0000000001
 40
0.0
 40
0.0
 40
0.0
 40
0.0
 40
0.0103582201
 40
0.0213923045
 40
0.0330967825
 40
0.0454644992
 40
0.0584862188
 40
0.0721487652
 40
0.1013292248
 40
0.1328570978
 40
0.1665523303
 40
0.2022107335
 40
0.2396080551
 40
0.2785032383
 40
0.318641357
 40
0.3597563148
 40
0.4015734226
 40
0.4438119042
 40
0.4861873631
 40
0.5284142308
 40
0.5702082092
 40
0.6112887197
 40
0.651381371
 40
0.6902204673
 40
0.7275515907
 40
0.7631343112
 40
0.7967451198
 40
0.8281807484
 40
0.8572621552
 40
0.8708730823
 40
0.8838420885
 40
0.8961564204
 40
0.9078059328
 40
0.918784275
 40
0.929088674
 40
0.9387216515
 40
0.9476911157
 40
0.956012748
 40
0.9637109023
 40
0.9708218709
 40
0.9773960351
 40
0.9835017379
 40
0.9892276295
 40
0.9946840213
 40
1.0
 40
1.0
 40
1.0
 40
1.0
 10
15.2301932355
 20
7.328710764
 30
0.0
 10
15.2298761005
 20
7.3293975641
 30
0.0
 10
15.2292556781
 20
7.3308320915
 30
0.0
 10
15.2283885502
 20
7.3330889339
 30
0.0
 10
15.2275572349
 20
7.3355148668
 30
0.0
 10
15.2267632265
 20
7.3381053949
 30
0.0
 10
15.2260079402
 20
7.3408560189
 30
0.0
 10
15.225032833
 20
7.3448181217
 30
0.0
 10
15.2239307818
 20
7.3501386963
 30
0.0
 10
15.2228088644
 20
7.3569428808
 30
0.0
 10
15.2218686477
 20
7.3642516482
 30
0.0
 10
15.221117098
 20
7.3720127521
 30
0.0
 10
15.2205598657
 20
7.3801707765
 30
0.0
 10
15.2202011307
 20
7.3886672911
 30
0.0
 10
15.2200436123
 20
7.3974413913
 30
0.0
 10
15.2200885473
 20
7.4064301321
 30
0.0
 10
15.2203356881
 20
7.4155690017
 30
0.0
 10
15.2207833079
 20
7.4247923934
 30
0.0
 10
15.2214282157
 20
7.4340340852
 30
0.0
 10
15.2222657808
 20
7.4432277219
 30
0.0
 10
15.2232899661
 20
7.4523072987
 30
0.0
 10
15.2244933714
 20
7.461207641
 30
0.0
 10
15.2258672846
 20
7.4698648825
 30
0.0
 10
15.2274017427
 20
7.4782169321
 30
0.0
 10
15.2290855983
 20
7.4862039431
 30
0.0
 10
15.2309066022
 20
7.4937687397
 30
0.0
 10
15.2328514697
 20
7.5008573539
 30
0.0
 10
15.2349060482
 20
7.5074191522
 30
0.0
 10
15.2367352374
 20
7.5125166852
 30
0.0
 10
15.2382502285
 20
7.5162893429
 30
0.0
 10
15.2393794143
 20
7.5188962123
 30
0.0
 10
15.2405246178
 20
7.5213388019
 30
0.0
 10
15.2416838923
 20
7.5236127763
 30
0.0
 10
15.2428550879
 20
7.5257141723
 30
0.0
 10
15.2440362461
 20
7.5276392956
 30
0.0
 10
15.2452252292
 20
7.5293848767
 30
0.0
 10
15.2464201609
 20
7.530947892
 30
0.0
 10
15.2476190316
 20
7.5323257796
 30
0.0
 10
15.2488201827
 20
7.5335161487
 30
0.0
 10
15.2500219327
 20
7.5345170013
 30
0.0
 10
15.251222998
 20
7.5353262667
 30
0.0
 10
15.2524220082
 20
7.5359419152
 30
0.0
 10
15.253617664
 20
7.5363614178
 30
0.0
 10
15.2548072159
 20
7.5365821364
 30
0.0
 10
15.2555982948
 20
7.5365952186
 30
0.0
 10
15.2559856033
 20
7.5365683672
 30
0.0
  0
SPLINE
  5
2E9
100
AcDbEntity
  8
0
100
AcDbSpline
 62
7
  6
CONTINUOUS
 70
0
 71
3
 72
15
 73
11
 74
0
 42
0.0000001
 43
0.0000001
 44
0.0000000001
 40
0.0
 40
0.0
 40
0.0
 40
0.0
 40
0.1273482228
 40
0.253860527
 40
0.3795879206
 40
0.5046050801
 40
0.6290174363
 40
0.7529533709
 40
0.8765605784
 40
1.0
 40
1.0
 40
1.0
 40
1.0
 10
12.1380509318
 20
7.1712881448
 30
0.0
 10
12.1380509318
 20
7.1669610504
 30
0.0
 10
12.1376377853
 20
7.1583292825
 30
0.0
 10
12.1357693611
 20
7.1455476421
 30
0.0
 10
12.1326711969
 20
7.1330871539
 30
0.0
 10
12.1283712703
 20
7.1210643521
 30
0.0
 10
12.1229090606
 20
7.1095901028
 30
0.0
 10
12.1163343387
 20
7.0987703588
 30
0.0
 10
12.1087089242
 20
7.088706502
 30
0.0
 10
12.1029673745
 20
7.0825589145
 30
0.0
 10
12.0999506262
 20
7.0796449466
 30
0.0
  0
SPLINE
  5
2EA
100
AcDbEntity
  8
0
100
AcDbSpline
 62
7
  6
CONTINUOUS
 70
0
 71
3
 72
15
 73
11
 74
0
 42
0.0000001
 43
0.0000001
 44
0.0000000001
 40
0.0
 40
0.0
 40
0.0
 40
0.0
 40
0.1273482228
 40
0.253860527
 40
0.3795879206
 40
0.5046050801
 40
0.6290174363
 40
0.7529533709
 40
0.8765605784
 40
1.0
 40
1.0
 40
1.0
 40
1.0
 10
12.1380509318
 20
8.9215457368
 30
0.0
 10
12.1380509318
 20
8.9172186424
 30
0.0
 10
12.1376377853
 20
8.9085868745
 30
0.0
 10
12.1357693611
 20
8.8958052341
 30
0.0
 10
12.1326711969
 20
8.8833447459
 30
0.0
 10
12.1283712703
 20
8.8713219441
 30
0.0
 10
12.1229090606
 20
8.8598476948
 30
0.0
 10
12.1163343387
 20
8.8490279508
 30
0.0
 10
12.1087089242
 20
8.838964094
 30
0.0
 10
12.1029673745
 20
8.8328165065
 30
0.0
 10
12.0999506262
 20
8.8299025386
 30
0.0
  0
SPLINE
  5
2EB
100
AcDbEntity
  8
0
100
AcDbSpline
 62
7
  6
CONTINUOUS
 70
0
 71
3
 72
15
 73
11
 74
0
 42
0.0000001
 43
0.0000001
 44
0.0000000001
 40
0.0
 40
0.0
 40
0.0
 40
0.0
 40
0.1273482228
 40
0.253860527
 40
0.3795879206
 40
0.5046050801
 40
0.6290174363
 40
0.7529533709
 40
0.8765605784
 40
1.0
 40
1.0
 40
1.0
 40
1.0
 10
10.085458199
 20
9.0638935263
 30
0.0
 10
10.085458199
 20
9.0595664319
 30
0.0
 10
10.0850450526
 20
9.050934664
 30
0.0
 10
10.0831766283
 20
9.0381530236
 30
0.0
 10
10.0800784641
 20
9.0256925354
 30
0.0
 10
10.0757785375
 20
9.0136697336
 30
0.0
 10
10.0703163278
 20
9.0021954843
 30
0.0
 10
10.0637416059
 20
8.9913757403
 30
0.0
 10
10.0561161914
 20
8.9813118835
 30
0.0
 10
10.0503746417
 20
8.975164296
 30
0.0
 10
10.0473578934
 20
8.9722503281
 30
0.0
  0
SPLINE
  5
2EC
100
AcDbEntity
  8
0
100
AcDbSpline
 62
7
  6
CONTINUOUS
 70
0
 71
3
 72
15
 73
11
 74
0
 42
0.0000001
 43
0.0000001
 44
0.0000000001
 40
0.0
 40
0.0
 40
0.0
 40
0.0
 40
0.1273482228
 40
0.253860527
 40
0.3795879206
 40
0.5046050801
 40
0.6290174363
 40
0.7529533709
 40
0.8765605784
 40
1.0
 40
1.0
 40
1.0
 40
1.0
 10
10.085458199
 20
7.3136359343
 30
0.0
 10
10.085458199
 20
7.3093088399
 30
0.0
 10
10.0850450526
 20
7.300677072
 30
0.0
 10
10.0831766283
 20
7.2878954316
 30
0.0
 10
10.0800784641
 20
7.2754349434
 30
0.0
 10
10.0757785375
 20
7.2634121416
 30
0.0
 10
10.0703163278
 20
7.2519378923
 30
0.0
 10
10.0637416059
 20
7.2411181482
 30
0.0
 10
10.0561161914
 20
7.2310542915
 30
0.0
 10
10.0503746417
 20
7.224906704
 30
0.0
 10
10.0473578934
 20
7.221992736
 30
0.0
  0
SPLINE
  5
2ED
100
AcDbEntity
  8
0
100
AcDbSpline
 62
7
  6
CONTINUOUS
 70
0
 71
3
 72
16
 73
12
 74
0
 42
0.0000001
 43
0.0000001
 44
0.0000000001
 40
0.0
 40
0.0
 40
0.0
 40
0.0
 40
0.2629362928
 40
0.3926372706
 40
0.5206979219
 40
0.6465624606
 40
0.7693901061
 40
0.8292847506
 40
0.8878849268
 40
0.9449044282
 40
1.0
 40
1.0
 40
1.0
 40
1.0
 10
11.9430806493
 20
7.5708115307
 30
0.0
 10
11.9475308563
 20
7.569262039
 30
0.0
 10
11.9542342037
 20
7.5671093445
 30
0.0
 10
11.9632210821
 20
7.5645932675
 30
0.0
 10
11.9698887932
 20
7.5629132162
 30
0.0
 10
11.9764807702
 20
7.561447674
 30
0.0
 10
11.9819154533
 20
7.560416787
 30
0.0
 10
11.9861858447
 20
7.5597307856
 30
0.0
 10
11.989301579
 20
7.5592970603
 30
0.0
 10
11.99234141
 20
7.5589480451
 30
0.0
 10
11.9943436139
 20
7.558774938
 30
0.0
 10
11.9953286693
 20
7.558706899
 30
0.0
  0
SPLINE
  5
2EE
100
AcDbEntity
  8
0
100
AcDbSpline
 62
7
  6
CONTINUOUS
 70
0
 71
3
 72
39
 73
35
 74
0
 42
0.0000001
 43
0.0000001
 44
0.0000000001
 40
0.0
 40
0.0
 40
0.0
 40
0.0
 40
0.0633639394
 40
0.1292154373
 40
0.1977444195
 40
0.2692989903
 40
0.3443114953
 40
0.3832484944
 40
0.4231473948
 40
0.4639545729
 40
0.5055261642
 40
0.5475948233
 40
0.5897524833
 40
0.6314714064
 40
0.6721681225
 40
0.7483592216
 40
0.7831607268
 40
0.8154746814
 40
0.8452173448
 40
0.8723600101
 40
0.896901088
 40
0.918850259
 40
0.9288596257
 40
0.9382279474
 40
0.9469594639
 40
0.9550601936
 40
0.9625394789
 40
0.9694109524
 40
0.9756955101
 40
0.9814236773
 40
0.986640403
 40
0.9914105275
 40
0.9958237219
 40
1.0
 40
1.0
 40
1.0
 40
1.0
 10
10.1498698479
 20
7.7032579822
 30
0.0
 10
10.1539497646
 20
7.7050186946
 30
0.0
 10
10.1621435969
 20
7.7089105637
 30
0.0
 10
10.1741952859
 20
7.7157988055
 30
0.0
 10
10.1861138318
 20
7.7239872977
 30
0.0
 10
10.1977323622
 20
7.7336426508
 30
0.0
 10
10.2068578974
 20
7.7429535673
 30
0.0
 10
10.2137337097
 20
7.7512749044
 30
0.0
 10
10.2186800311
 20
7.7580592413
 30
0.0
 10
10.2232813306
 20
7.7653026354
 30
0.0
 10
10.2274578709
 20
7.7729735991
 30
0.0
 10
10.2311249354
 20
7.781005715
 30
0.0
 10
10.2342039198
 20
7.7892923591
 30
0.0
 10
10.236636625
 20
7.7976919192
 30
0.0
 10
10.2389346233
 20
7.8085824142
 30
0.0
 10
10.2400124496
 20
7.8192090114
 30
0.0
 10
10.2399587416
 20
7.8292646036
 30
0.0
 10
10.239468611
 20
7.8360447022
 30
0.0
 10
10.2386110979
 20
7.8422453976
 30
0.0
 10
10.2374640558
 20
7.84784351
 30
0.0
 10
10.2360963174
 20
7.8528266682
 30
0.0
 10
10.2347848068
 20
7.8565697197
 30
0.0
 10
10.2336658143
 20
7.859243933
 30
0.0
 10
10.2328299368
 20
7.8610298911
 30
0.0
 10
10.2319762848
 20
7.8626577329
 30
0.0
 10
10.2311094988
 20
7.8641268214
 30
0.0
 10
10.2302332451
 20
7.8654361056
 30
0.0
 10
10.2293511931
 20
7.866584838
 30
0.0
 10
10.2284659856
 20
7.8675718682
 30
0.0
 10
10.2275798341
 20
7.8683961391
 30
0.0
 10
10.2266941475
 20
7.8690563035
 30
0.0
 10
10.2258093233
 20
7.8695503044
 30
0.0
 10
10.2249260593
 20
7.8698751753
 30
0.0
 10
10.2243280695
 20
7.8699778117
 30
0.0
 10
10.2240358926
 20
7.8699980468
 30
0.0
  0
SPLINE
  5
2EF
100
AcDbEntity
  8
0
100
AcDbSpline
 62
7
  6
CONTINUOUS
 70
0
 71
3
 72
32
 73
28
 74
0
 42
0.0000001
 43
0.0000001
 44
0.0000000001
 40
0.0
 40
0.0
 40
0.0
 40
0.0
 40
0.0760198657
 40
0.153265384
 40
0.2310423902
 40
0.3086481077
 40
0.3853824965
 40
0.4605554823
 40
0.533495182
 40
0.5689255591
 40
0.6035581997
 40
0.6373179356
 40
0.6701324673
 40
0.7019325438
 40
0.7326522379
 40
0.7622295096
 40
0.7906065158
 40
0.8177299626
 40
0.8435518625
 40
0.8680301899
 40
0.8911295243
 40
0.9128222944
 40
0.9330903634
 40
0.9519264333
 40
0.9693368578
 40
0.9853466667
 40
1.0
 40
1.0
 40
1.0
 40
1.0
 10
15.9746559179
 20
7.8274613286
 30
0.0
 10
15.9746559179
 20
7.8164659551
 30
0.0
 10
15.9743618955
 20
7.7942969844
 30
0.0
 10
15.9730788615
 20
7.7609008424
 30
0.0
 10
15.9709611005
 20
7.7273172129
 30
0.0
 10
15.968028876
 20
7.6938691448
 30
0.0
 10
15.9643105758
 20
7.660878134
 30
0.0
 10
15.9598421452
 20
7.6286614977
 30
0.0
 10
15.9554886965
 20
7.6024696933
 30
0.0
 10
15.9516516865
 20
7.5821443974
 30
0.0
 10
15.9486431873
 20
7.5674314865
 30
0.0
 10
15.9454834848
 20
7.5531375286
 30
0.0
 10
15.9421802089
 20
7.5392968691
 30
0.0
 10
15.938741371
 20
7.5259427841
 30
0.0
 10
15.9351752645
 20
7.5131073653
 30
0.0
 10
15.9314905433
 20
7.5008214206
 30
0.0
 10
15.9276961473
 20
7.4891144058
 30
0.0
 10
15.9238012364
 20
7.4780143655
 30
0.0
 10
15.9198152424
 20
7.4675478216
 30
0.0
 10
15.915747824
 20
7.4577396987
 30
0.0
 10
15.9116087603
 20
7.4486132789
 30
0.0
 10
15.9074079726
 20
7.4401900859
 30
0.0
 10
15.9031554412
 20
7.4324897848
 30
0.0
 10
15.898861168
 20
7.4255302424
 30
0.0
 10
15.8945346349
 20
7.4193269452
 30
0.0
 10
15.8901858056
 20
7.4138945655
 30
0.0
 10
15.8871466504
 20
7.4106553581
 30
0.0
 10
15.8856222398
 20
7.4091828905
 30
0.0
  0
SPLINE
  5
2F0
100
AcDbEntity
  8
0
100
AcDbSpline
 62
7
  6
CONTINUOUS
 70
0
 71
3
 72
30
 73
26
 74
0
 42
0.0000001
 43
0.0000001
 44
0.0000000001
 40
0.0
 40
0.0
 40
0.0
 40
0.0
 40
0.0851784564
 40
0.1685817874
 40
0.2498841537
 40
0.3287755385
 40
0.4049561842
 40
0.4781426975
 40
0.5480686764
 40
0.6144878158
 40
0.6771766705
 40
0.7070607136
 40
0.735940835
 40
0.7637971475
 40
0.7906124723
 40
0.8163716995
 40
0.8410630711
 40
0.8646774982
 40
0.8872099471
 40
0.908659133
 40
0.9290287658
 40
0.9483279884
 40
0.9665724248
 40
0.9837856082
 40
1.0
 40
1.0
 40
1.0
 40
1.0
 10
7.7277238065
 20
7.5795700793
 30
0.0
 10
7.7277238065
 20
7.5724425849
 30
0.0
 10
7.7278452692
 20
7.5583357899
 30
0.0
 10
7.7284023099
 20
7.5374324728
 30
0.0
 10
7.729330118
 20
7.5170687864
 30
0.0
 10
7.7306246082
 20
7.4973306498
 30
0.0
 10
7.7322802171
 20
7.478300946
 30
0.0
 10
7.7342897711
 20
7.4600597335
 30
0.0
 10
7.7366445842
 20
7.4426835199
 30
0.0
 10
7.7393345434
 20
7.426245338
 30
0.0
 10
7.7418846539
 20
7.4131853224
 30
0.0
 10
7.744095231
 20
7.403265305
 30
0.0
 10
7.7458030623
 20
7.3962207502
 30
0.0
 10
7.7475854938
 20
7.3894598924
 30
0.0
 10
7.7494405764
 20
7.3829897946
 30
0.0
 10
7.7513664507
 20
7.3768172368
 30
0.0
 10
7.7533609769
 20
7.3709486445
 30
0.0
 10
7.7554221662
 20
7.3653901416
 30
0.0
 10
7.7575477742
 20
7.3601474759
 30
0.0
 10
7.7597356627
 20
7.3552260753
 30
0.0
 10
7.7619835545
 20
7.3506309826
 30
0.0
 10
7.7642891657
 20
7.3463669006
 30
0.0
 10
7.7666503041
 20
7.3424381123
 30
0.0
 10
7.7690644688
 20
7.33884874
 30
0.0
 10
7.7707573329
 20
7.3366194326
 30
0.0
 10
7.7716134166
 20
7.3355668364
 30
0.0
  0
SPLINE
  5
2F1
100
AcDbEntity
  8
0
100
AcDbSpline
 62
7
  6
CONTINUOUS
 70
0
 71
3
 72
32
 73
28
 74
0
 42
0.0000001
 43
0.0000001
 44
0.0000000001
 40
0.0
 40
0.0
 40
0.0
 40
0.0
 40
0.0146533333
 40
0.0306631422
 40
0.0480735667
 40
0.0669096366
 40
0.0871777056
 40
0.1088704757
 40
0.1319698101
 40
0.1564481375
 40
0.1822700374
 40
0.2093934842
 40
0.2377704904
 40
0.2673477621
 40
0.2980674562
 40
0.3298675327
 40
0.3626820644
 40
0.3964418003
 40
0.4310744409
 40
0.466504818
 40
0.5394445177
 40
0.6146175035
 40
0.6913518923
 40
0.7689576098
 40
0.846734616
 40
0.9239801343
 40
1.0
 40
1.0
 40
1.0
 40
1.0
 10
7.8167574846
 20
9.5674780781
 30
0.0
 10
7.815233074
 20
9.5660056105
 30
0.0
 10
7.8121939188
 20
9.5627664031
 30
0.0
 10
7.8078450895
 20
9.5573340234
 30
0.0
 10
7.8035185564
 20
9.5511307263
 30
0.0
 10
7.7992242832
 20
9.5441711839
 30
0.0
 10
7.7949717517
 20
9.5364708827
 30
0.0
 10
7.7907709641
 20
9.5280476897
 30
0.0
 10
7.7866319003
 20
9.5189212699
 30
0.0
 10
7.782564482
 20
9.509113147
 30
0.0
 10
7.7785784879
 20
9.4986466031
 30
0.0
 10
7.7746835771
 20
9.4875465629
 30
0.0
 10
7.770889181
 20
9.475839548
 30
0.0
 10
7.7672044599
 20
9.4635536033
 30
0.0
 10
7.7636383534
 20
9.4507181845
 30
0.0
 10
7.7601995154
 20
9.4373640996
 30
0.0
 10
7.7568962396
 20
9.42352344
 30
0.0
 10
7.7537365371
 20
9.4092294821
 30
0.0
 10
7.7507280379
 20
9.3945165712
 30
0.0
 10
7.7468910279
 20
9.3741912753
 30
0.0
 10
7.7425375791
 20
9.3479994709
 30
0.0
 10
7.7380691486
 20
9.3157828347
 30
0.0
 10
7.7343508484
 20
9.2827918238
 30
0.0
 10
7.7314186238
 20
9.2493437557
 30
0.0
 10
7.7293008629
 20
9.2157601262
 30
0.0
 10
7.7280178289
 20
9.1823639842
 30
0.0
 10
7.7277238065
 20
9.1601950135
 30
0.0
 10
7.7277238065
 20
9.1491996401
 30
0.0
  0
SPLINE
  5
2F2
100
AcDbEntity
  8
0
100
AcDbSpline
 62
7
  6
CONTINUOUS
 70
0
 71
3
 72
57
 73
53
 74
0
 42
0.0000001
 43
0.0000001
 44
0.0000000001
 40
0.0
 40
0.0
 40
0.0
 40
0.0
 40
0.0075207721
 40
0.0156240917
 40
0.0243309804
 40
0.0336547579
 40
0.0436026095
 40
0.0541766024
 40
0.0653746632
 40
0.0771912706
 40
0.0896178469
 40
0.1026432873
 40
0.1162542539
 40
0.1304353395
 40
0.1451694045
 40
0.1604376904
 40
0.1762199193
 40
0.1924945312
 40
0.2092387141
 40
0.2264285006
 40
0.2620432788
 40
0.2991289698
 40
0.3374620098
 40
0.3768083629
 40
0.4169256638
 40
0.4575653442
 40
0.498474673
 40
0.5393987759
 40
0.5800826662
 40
0.6202732545
 40
0.6597213815
 40
0.6981838787
 40
0.7354256269
 40
0.7712217119
 40
0.788511156
 40
0.8053606567
 40
0.8217460535
 40
0.8376442541
 40
0.8530333577
 40
0.8678928348
 40
0.8822035382
 40
0.8959479099
 40
0.9091101862
 40
0.9216764844
 40
0.933635149
 40
0.9449770381
 40
0.9556958223
 40
0.9657886191
 40
0.9752564383
 40
0.9841051208
 40
0.9923469063
 40
1.0
 40
1.0
 40
1.0
 40
1.0
 10
15.5243654214
 20
7.9744686551
 30
0.0
 10
15.5228945811
 20
7.9762771273
 30
0.0
 10
15.5199965161
 20
7.9801638906
 30
0.0
 10
15.5159182484
 20
7.9865131978
 30
0.0
 10
15.5119564049
 20
7.9935834953
 30
0.0
 10
15.5081172612
 20
8.0013632028
 30
0.0
 10
15.5044066774
 20
8.0098402433
 30
0.0
 10
15.5008305776
 20
8.0190010064
 30
0.0
 10
15.4973947689
 20
8.0288307258
 30
0.0
 10
15.4941049634
 20
8.0393134245
 30
0.0
 10
15.4909665788
 20
8.0504319468
 30
0.0
 10
15.4879848623
 20
8.0621680359
 30
0.0
 10
15.4851648336
 20
8.0745023649
 30
0.0
 10
15.4825111764
 20
8.0874145628
 30
0.0
 10
15.4800283619
 20
8.1008832802
 30
0.0
 10
15.4777205741
 20
8.114886219
 30
0.0
 10
15.4755916478
 20
8.1294001713
 30
0.0
 10
15.4736451936
 20
8.144401064
 30
0.0
 10
15.4718844428
 20
8.1598640326
 30
0.0
 10
15.4697633931
 20
8.1813168957
 30
0.0
 10
15.467614298
 20
8.2090993476
 30
0.0
 10
15.4658428421
 20
8.2434722145
 30
0.0
 10
15.464861991
 20
8.2790336369
 30
0.0
 10
15.464678594
 20
8.3155474908
 30
0.0
 10
15.4652941871
 20
8.3527715141
 30
0.0
 10
15.4667048866
 20
8.3904585737
 30
0.0
 10
15.4689014695
 20
8.4283584452
 30
0.0
 10
15.4718693823
 20
8.4662194689
 30
0.0
 10
15.475588875
 20
8.5037902458
 30
0.0
 10
15.4800351497
 20
8.5408213337
 30
0.0
 10
15.4851784986
 20
8.5770669032
 30
0.0
 10
15.4909844596
 20
8.6122865088
 30
0.0
 10
15.4974141672
 20
8.6462463272
 30
0.0
 10
15.5033222491
 20
8.6736167848
 30
0.0
 10
15.5083422786
 20
8.694704682
 30
0.0
 10
15.5121918982
 20
8.7098849191
 30
0.0
 10
15.5161631536
 20
8.7245875949
 30
0.0
 10
15.5202494702
 20
8.738788334
 30
0.0
 10
15.5244440398
 20
8.7524635796
 30
0.0
 10
15.5287398289
 20
8.7655906819
 30
0.0
 10
15.5331296898
 20
8.7781479036
 30
0.0
 10
15.5376063123
 20
8.7901144772
 30
0.0
 10
15.5421621969
 20
8.8014706589
 30
0.0
 10
15.546789792
 20
8.8121977321
 30
0.0
 10
15.5514814106
 20
8.8222780741
 30
0.0
 10
15.5562292517
 20
8.831695209
 30
0.0
 10
15.5610255462
 20
8.8404337967
 30
0.0
 10
15.5658624836
 20
8.8484797142
 30
0.0
 10
15.5707322003
 20
8.855820053
 30
0.0
 10
15.5756273235
 20
8.8624434026
 30
0.0
 10
15.5805399496
 20
8.8683387232
 30
0.0
 10
15.5839450675
 20
8.8719064887
 30
0.0
 10
15.5856512079
 20
8.8735544939
 30
0.0
  0
SPLINE
  5
2F3
100
AcDbEntity
  8
0
100
AcDbSpline
 62
7
  6
CONTINUOUS
 70
0
 71
3
 72
11
 73
7
 74
0
 42
0.0000001
 43
0.0000001
 44
0.0000000001
 40
0.0
 40
0.0
 40
0.0
 40
0.0
 40
0.2438085402
 40
0.4901420314
 40
0.7414434479
 40
1.0
 40
1.0
 40
1.0
 40
1.0
 10
15.5206111504
 20
7.9954436388
 30
0.0
 10
15.5196655813
 20
7.9955092223
 30
0.0
 10
15.5177701612
 20
7.9957420728
 30
0.0
 10
15.5149569137
 20
7.9963922884
 30
0.0
 10
15.5121701389
 20
7.9973431193
 30
0.0
 10
15.5103617045
 20
7.9981628101
 30
0.0
 10
15.509465548
 20
7.9986180925
 30
0.0
  0
SPLINE
  5
2F4
100
AcDbEntity
  8
0
100
AcDbSpline
 62
7
  6
CONTINUOUS
 70
0
 71
3
 72
11
 73
7
 74
0
 42
0.0000001
 43
0.0000001
 44
0.0000000001
 40
0.0
 40
0.0
 40
0.0
 40
0.0
 40
0.2438084383
 40
0.4901419191
 40
0.7414427543
 40
1.0
 40
1.0
 40
1.0
 40
1.0
 10
15.5801786308
 20
8.8543805966
 30
0.0
 10
15.5792331112
 20
8.8544461767
 30
0.0
 10
15.5773237912
 20
8.8544772
 30
0.0
 10
15.5744478785
 20
8.8542215276
 30
0.0
 10
15.5715566628
 20
8.8536646046
 30
0.0
 10
15.5696524921
 20
8.8531024115
 30
0.0
 10
15.5687021128
 20
8.8527752143
 30
0.0
  0
SPLINE
  5
2F5
100
AcDbEntity
  8
0
100
AcDbSpline
 62
7
  6
CONTINUOUS
 70
0
 71
3
 72
16
 73
12
 74
0
 42
0.0000001
 43
0.0000001
 44
0.0000000001
 40
0.0
 40
0.0
 40
0.0
 40
0.0
 40
0.1492609068
 40
0.289689287
 40
0.4220029803
 40
0.4854059853
 40
0.5471312702
 40
0.6660881595
 40
0.7802036747
 40
0.8909623691
 40
1.0
 40
1.0
 40
1.0
 40
1.0
 10
7.7974887719
 20
7.3037517371
 30
0.0
 10
7.7983716168
 20
7.3026662296
 30
0.0
 10
7.8001523017
 20
7.300612569
 30
0.0
 10
7.8029592512
 20
7.2978197717
 30
0.0
 10
7.8053732459
 20
7.2957873533
 30
0.0
 10
7.8073258356
 20
7.2943675999
 30
0.0
 10
7.8092412688
 20
7.2931146343
 30
0.0
 10
7.8116687109
 20
7.2917817072
 30
0.0
 10
7.8146598148
 20
7.2905606293
 30
0.0
 10
7.8176889516
 20
7.2897407866
 30
0.0
 10
7.8197374767
 20
7.2894626579
 30
0.0
 10
7.8207571627
 20
7.2893919528
 30
0.0
  0
SPLINE
  5
2F6
100
AcDbEntity
  8
0
100
AcDbSpline
 62
7
  6
CONTINUOUS
 70
0
 71
3
 72
17
 73
13
 74
0
 42
0.0000001
 43
0.0000001
 44
0.0000000001
 40
0.0
 40
0.0
 40
0.0
 40
0.0
 40
0.046609081
 40
0.0937127253
 40
0.141789413
 40
0.1912868825
 40
0.2960287272
 40
0.4107435076
 40
0.537380442
 40
0.6772859413
 40
0.8313406129
 40
1.0
 40
1.0
 40
1.0
 40
1.0
 10
15.3953497638
 20
8.4400303092
 30
0.0
 10
15.3951061951
 20
8.4400471954
 30
0.0
 10
15.3946179018
 20
8.4401075003
 30
0.0
 10
15.3938933124
 20
8.4402764424
 30
0.0
 10
15.3931755708
 20
8.4405238515
 30
0.0
 10
15.392210805
 20
8.440965968
 30
0.0
 10
15.3910179381
 20
8.4417297105
 30
0.0
 10
15.3896557608
 20
8.4429345041
 30
0.0
 10
15.3883358855
 20
8.4444392065
 30
0.0
 10
15.3870602453
 20
8.446239484
 30
0.0
 10
15.3858309819
 20
8.448330614
 30
0.0
 10
15.385078458
 20
8.4498458776
 30
0.0
 10
15.3847080787
 20
8.4506479856
 30
0.0
  0
SPLINE
  5
2F7
100
AcDbEntity
  8
0
100
AcDbSpline
 62
7
  6
CONTINUOUS
 70
0
 71
3
 72
16
 73
12
 74
0
 42
0.0000001
 43
0.0000001
 44
0.0000000001
 40
0.0
 40
0.0
 40
0.0
 40
0.0
 40
0.1090370224
 40
0.2197952543
 40
0.3339109315
 40
0.4528654603
 40
0.5145893271
 40
0.5779908778
 40
0.7103048133
 40
0.8507438188
 40
1.0
 40
1.0
 40
1.0
 40
1.0
 10
8.4855282042
 20
10.1992239757
 30
0.0
 10
8.4845085242
 20
10.1992946803
 30
0.0
 10
8.4824412323
 20
10.1993020074
 30
0.0
 10
8.4793279241
 20
10.1989081781
 30
0.0
 10
8.4761969511
 20
10.1981115917
 30
0.0
 10
8.4736087488
 20
10.1971266162
 30
0.0
 10
8.4715387532
 20
10.196150038
 30
0.0
 10
8.4694089002
 20
10.19501342
 30
0.0
 10
8.4667373485
 20
10.1933336947
 30
0.0
 10
8.4635718046
 20
10.1909549417
 30
0.0
 10
8.4615245951
 20
10.1891667668
 30
0.0
 10
8.460500383
 20
10.1882135586
 30
0.0
  0
SPLINE
  5
2F8
100
AcDbEntity
  8
0
100
AcDbSpline
 62
7
  6
CONTINUOUS
 70
0
 71
3
 72
21
 73
17
 74
0
 42
0.0000001
 43
0.0000001
 44
0.0000000001
 40
0.0
 40
0.0
 40
0.0
 40
0.0
 40
0.0193560517
 40
0.0403408545
 40
0.062788069
 40
0.0865501201
 40
0.1374688518
 40
0.19219555
 40
0.2500336195
 40
0.3104441561
 40
0.3730308014
 40
0.437474318
 40
0.5710330001
 40
0.7097841247
 40
0.8529307358
 40
1.0
 40
1.0
 40
1.0
 40
1.0
 10
10.0974998938
 20
7.6903217771
 30
0.0
 10
10.0978492725
 20
7.6902973201
 30
0.0
 10
10.0985788553
 20
7.6902660906
 30
0.0
 10
10.0997151612
 20
7.6902627657
 30
0.0
 10
10.1009306537
 20
7.6902982806
 30
0.0
 10
10.1026855146
 20
7.69039677
 30
0.0
 10
10.105018149
 20
7.6906087465
 30
0.0
 10
10.1079534015
 20
7.6909794487
 30
0.0
 10
10.1110460766
 20
7.6914631363
 30
0.0
 10
10.1142649393
 20
7.6920527109
 30
0.0
 10
10.1175857894
 20
7.6927434034
 30
0.0
 10
10.122179693
 20
7.6938073163
 30
0.0
 10
10.1280695848
 20
7.6953763531
 30
0.0
 10
10.1352489956
 20
7.6976121552
 30
0.0
 10
10.1425595433
 20
7.7002266928
 30
0.0
 10
10.1474265486
 20
7.7022035618
 30
0.0
 10
10.1498698479
 20
7.7032579822
 30
0.0
  0
SPLINE
  5
2F9
100
AcDbEntity
  8
0
100
AcDbSpline
 62
7
  6
CONTINUOUS
 70
0
 71
3
 72
47
 73
43
 74
0
 42
0.0000001
 43
0.0000001
 44
0.0000000001
 40
0.0
 40
0.0
 40
0.0
 40
0.0
 40
0.0225737246
 40
0.0456194026
 40
0.0692982727
 40
0.0937217118
 40
0.1189621087
 40
0.1450650899
 40
0.1720606437
 40
0.1859054964
 40
0.1999819445
 40
0.2288291847
 40
0.2586307588
 40
0.2739003129
 40
0.28941128
 40
0.3051607298
 40
0.3211431494
 40
0.3373500751
 40
0.3537686427
 40
0.3703822189
 40
0.3871709042
 40
0.4041118333
 40
0.4211804886
 40
0.4383521622
 40
0.4556026466
 40
0.4902395371
 40
0.5249635604
 40
0.5423306439
 40
0.559684704
 40
0.5943243085
 40
0.6288587424
 40
0.6632723472
 40
0.6975586507
 40
0.731716106
 40
0.7657457487
 40
0.7996474618
 40
0.8334196453
 40
0.8670583557
 40
0.9005545179
 40
0.9338937485
 40
0.9670546336
 40
1.0
 40
1.0
 40
1.0
 40
1.0
 10
11.8947949928
 20
7.7541305006
 30
0.0
 10
11.8926903643
 20
7.7542765537
 30
0.0
 10
11.8884130896
 20
7.7542916112
 30
0.0
 10
11.8819693856
 20
7.7535052775
 30
0.0
 10
11.8754953774
 20
7.7519246305
 30
0.0
 10
11.869047097
 20
7.7495604364
 30
0.0
 10
11.8626863316
 20
7.7464188579
 30
0.0
 10
11.8564859687
 20
7.7425012306
 30
0.0
 10
11.8515642011
 20
7.7386185017
 30
0.0
 10
11.8477968765
 20
7.735129862
 30
0.0
 10
11.8441031842
 20
7.7313181759
 30
0.0
 10
11.8397869062
 20
7.7260482018
 30
0.0
 10
11.8360499446
 20
7.7202167874
 30
0.0
 10
11.8334432135
 20
7.7151871549
 30
0.0
 10
11.8316899318
 20
7.711204267
 30
0.0
 10
11.8301774056
 20
7.7070528241
 30
0.0
 10
11.8289272852
 20
7.7027469561
 30
0.0
 10
11.827960036
 20
7.698304678
 30
0.0
 10
11.8272931504
 20
7.6937477514
 30
0.0
 10
11.8269400112
 20
7.6891012582
 30
0.0
 10
11.8269092802
 20
7.6843926528
 30
0.0
 10
11.8272041139
 20
7.679650643
 30
0.0
 10
11.8278216423
 20
7.6749038639
 30
0.0
 10
11.8287538043
 20
7.6701792997
 30
0.0
 10
11.8304012946
 20
7.6639352766
 30
0.0
 10
11.8331754486
 20
7.6563100078
 30
0.0
 10
11.8367698422
 20
7.6490285184
 30
0.0
 10
11.8400621648
 20
7.6434330927
 30
0.0
 10
11.8436044117
 20
7.6380018091
 30
0.0
 10
11.8484586865
 20
7.6315216658
 30
0.0
 10
11.8548462183
 20
7.6242360615
 30
0.0
 10
11.8616925045
 20
7.6174283938
 30
0.0
 10
11.868915035
 20
7.6110766624
 30
0.0
 10
11.8764478014
 20
7.6051555655
 30
0.0
 10
11.8842377888
 20
7.5996404873
 30
0.0
 10
11.8922415765
 20
7.5945080148
 30
0.0
 10
11.9004231501
 20
7.5897369649
 30
0.0
 10
11.9087523097
 20
7.585309405
 30
0.0
 10
11.9172024513
 20
7.5812098428
 30
0.0
 10
11.9257495248
 20
7.5774258214
 30
0.0
 10
11.9343702982
 20
7.5739488427
 30
0.0
 10
11.9401728663
 20
7.5718239748
 30
0.0
 10
11.9430806493
 20
7.5708115307
 30
0.0
  0
SPLINE
  5
2FA
100
AcDbEntity
  8
0
100
AcDbSpline
 62
7
  6
CONTINUOUS
 70
0
 71
3
 72
17
 73
13
 74
0
 42
0.0000001
 43
0.0000001
 44
0.0000000001
 40
0.0
 40
0.0
 40
0.0
 40
0.0
 40
0.046609081
 40
0.0937127253
 40
0.141789413
 40
0.1912868825
 40
0.2960287272
 40
0.4107435076
 40
0.537380442
 40
0.6772859413
 40
0.8313406129
 40
1.0
 40
1.0
 40
1.0
 40
1.0
 10
15.2408349207
 20
7.3180930876
 30
0.0
 10
15.240591352
 20
7.3181099737
 30
0.0
 10
15.2401030587
 20
7.3181702787
 30
0.0
 10
15.2393784692
 20
7.3183392208
 30
0.0
 10
15.2386607277
 20
7.3185866299
 30
0.0
 10
15.2376959618
 20
7.3190287464
 30
0.0
 10
15.236503095
 20
7.3197924889
 30
0.0
 10
15.2351409177
 20
7.3209972825
 30
0.0
 10
15.2338210423
 20
7.3225019848
 30
0.0
 10
15.2325454022
 20
7.3243022624
 30
0.0
 10
15.2313161388
 20
7.3263933924
 30
0.0
 10
15.2305636149
 20
7.327908656
 30
0.0
 10
15.2301932355
 20
7.328710764
 30
0.0
  0
SPLINE
  5
2FB
100
AcDbEntity
  8
0
100
AcDbSpline
 62
7
  6
CONTINUOUS
 70
0
 71
3
 72
16
 73
12
 74
0
 42
0.0000001
 43
0.0000001
 44
0.0000000001
 40
0.0
 40
0.0
 40
0.0
 40
0.0
 40
0.1090376309
 40
0.2197963253
 40
0.3339118405
 40
0.4528687298
 40
0.5145940147
 40
0.5779970197
 40
0.710310713
 40
0.8507390932
 40
1.0
 40
1.0
 40
1.0
 40
1.0
 10
15.8816225616
 20
9.6872690158
 30
0.0
 10
15.8826422476
 20
9.6871983107
 30
0.0
 10
15.8846907728
 20
9.686920182
 30
0.0
 10
15.8877199096
 20
9.6861003393
 30
0.0
 10
15.8907110134
 20
9.6848792614
 30
0.0
 10
15.8931384556
 20
9.6835463343
 30
0.0
 10
15.8950538888
 20
9.6822933688
 30
0.0
 10
15.8970064784
 20
9.6808736153
 30
0.0
 10
15.8994204731
 20
9.6788411969
 30
0.0
 10
15.9022274226
 20
9.6760483996
 30
0.0
 10
15.9040081076
 20
9.673994739
 30
0.0
 10
15.9048909525
 20
9.6729092316
 30
0.0
  0
SPLINE
  5
2FC
100
AcDbEntity
  8
0
100
AcDbSpline
 62
7
  6
CONTINUOUS
 70
0
 71
3
 72
30
 73
26
 74
0
 42
0.0000001
 43
0.0000001
 44
0.0000000001
 40
0.0
 40
0.0
 40
0.0
 40
0.0
 40
0.0162143918
 40
0.0334275752
 40
0.0516720116
 40
0.0709712342
 40
0.091340867
 40
0.1127900529
 40
0.1353225018
 40
0.1589369289
 40
0.1836283005
 40
0.2093875277
 40
0.2362028525
 40
0.264059165
 40
0.2929392864
 40
0.3228233295
 40
0.3855121842
 40
0.4519313236
 40
0.5218573025
 40
0.5950438158
 40
0.6712244615
 40
0.7501158463
 40
0.8314182126
 40
0.9148215436
 40
1.0
 40
1.0
 40
1.0
 40
1.0
 10
15.9307663078
 20
9.6410941323
 30
0.0
 10
15.9316223914
 20
9.640041536
 30
0.0
 10
15.9333152555
 20
9.6378122286
 30
0.0
 10
15.9357294202
 20
9.6342228563
 30
0.0
 10
15.9380905587
 20
9.630294068
 30
0.0
 10
15.9403961699
 20
9.626029986
 30
0.0
 10
15.9426440617
 20
9.6214348933
 30
0.0
 10
15.9448319502
 20
9.6165134928
 30
0.0
 10
15.9469575582
 20
9.611270827
 30
0.0
 10
15.9490187475
 20
9.6057123241
 30
0.0
 10
15.9510132737
 20
9.5998437319
 30
0.0
 10
15.9529391479
 20
9.593671174
 30
0.0
 10
15.9547942306
 20
9.5872010762
 30
0.0
 10
15.956576662
 20
9.5804402184
 30
0.0
 10
15.9582844934
 20
9.5733956636
 30
0.0
 10
15.9604950705
 20
9.5634756462
 30
0.0
 10
15.9630451809
 20
9.5504156306
 30
0.0
 10
15.9657351401
 20
9.5339774487
 30
0.0
 10
15.9680899533
 20
9.5166012351
 30
0.0
 10
15.9700995072
 20
9.4983600226
 30
0.0
 10
15.9717551162
 20
9.4793303188
 30
0.0
 10
15.9730496064
 20
9.4595921822
 30
0.0
 10
15.9739774144
 20
9.4392284958
 30
0.0
 10
15.9745344552
 20
9.4183251787
 30
0.0
 10
15.9746559179
 20
9.4042183838
 30
0.0
 10
15.9746559179
 20
9.3970908893
 30
0.0
  0
SPLINE
  5
2FD
100
AcDbEntity
  8
0
100
AcDbSpline
 62
7
  6
CONTINUOUS
 70
0
 71
3
 72
16
 73
12
 74
0
 42
0.0000001
 43
0.0000001
 44
0.0000000001
 40
0.0
 40
0.0
 40
0.0
 40
0.0
 40
0.1492561812
 40
0.2896951867
 40
0.4220091222
 40
0.4854106729
 40
0.5471345397
 40
0.6660890685
 40
0.7802047457
 40
0.8909629776
 40
1.0
 40
1.0
 40
1.0
 40
1.0
 10
15.2418793414
 20
6.78844741
 30
0.0
 10
15.2408551293
 20
6.7874942019
 30
0.0
 10
15.2388079198
 20
6.7857060269
 30
0.0
 10
15.2356423759
 20
6.7833272739
 30
0.0
 10
15.2329708242
 20
6.7816475486
 30
0.0
 10
15.2308409711
 20
6.7805109306
 30
0.0
 10
15.2287709756
 20
6.7795343525
 30
0.0
 10
15.2261827733
 20
6.7785493769
 30
0.0
 10
15.2230518002
 20
6.7777527905
 30
0.0
 10
15.219938492
 20
6.7773589612
 30
0.0
 10
15.2178712002
 20
6.7773662883
 30
0.0
 10
15.2168515202
 20
6.7774369929
 30
0.0
  0
SPLINE
  5
2FE
100
AcDbEntity
  8
0
100
AcDbSpline
 62
7
  6
CONTINUOUS
 70
0
 71
3
 72
39
 73
35
 74
0
 42
0.0000001
 43
0.0000001
 44
0.0000000001
 40
0.0
 40
0.0
 40
0.0
 40
0.0
 40
0.0299424756
 40
0.0599093253
 40
0.0899243308
 40
0.1200101061
 40
0.1501875593
 40
0.1804754054
 40
0.2108897454
 40
0.2414437198
 40
0.2721472437
 40
0.3030068255
 40
0.3340254745
 40
0.3652026886
 40
0.3965345175
 40
0.4280136976
 40
0.4596298523
 40
0.4913697474
 40
0.5232175981
 40
0.5551554173
 40
0.5871634018
 40
0.6192203434
 40
0.6513040581
 40
0.68339183
 40
0.7154608619
 40
0.7474887274
 40
0.7794538181
 40
0.8113357796
 40
0.8431159521
 40
0.8747776664
 40
0.9063069638
 40
0.937691791
 40
0.9689252156
 40
1.0
 40
1.0
 40
1.0
 40
1.0
 10
11.9047260642
 20
7.2817547428
 30
0.0
 10
11.9070569115
 20
7.2840061784
 30
0.0
 10
11.9119018704
 20
7.2883273678
 30
0.0
 10
11.9196642735
 20
7.2942142076
 30
0.0
 10
11.9278819409
 20
7.299476666
 30
0.0
 10
11.9365089597
 20
7.3040852191
 30
0.0
 10
11.9454978977
 20
7.3080146927
 30
0.0
 10
11.9547991472
 20
7.3112434861
 30
0.0
 10
11.9643614543
 20
7.3137539312
 30
0.0
 10
11.9741321386
 20
7.3155323184
 30
0.0
 10
11.9840574044
 20
7.3165689802
 30
0.0
 10
11.9940826325
 20
7.3168583465
 30
0.0
 10
12.0041526856
 20
7.3163989614
 30
0.0
 10
12.0142122094
 20
7.3151934785
 30
0.0
 10
12.0242059339
 20
7.313248642
 30
0.0
 10
12.0340789723
 20
7.3105752445
 30
0.0
 10
12.0437771181
 20
7.3071880646
 30
0.0
 10
12.0532471378
 20
7.3031057841
 30
0.0
 10
12.0624370573
 20
7.2983508825
 30
0.0
 10
12.0712964508
 20
7.2929495265
 30
0.0
 10
12.0797767106
 20
7.2869314154
 30
0.0
 10
12.087831309
 20
7.2803296162
 30
0.0
 10
12.0954160498
 20
7.2731803844
 30
0.0
 10
12.102489308
 20
7.2655229669
 30
0.0
 10
12.1090122545
 20
7.2573993893
 30
0.0
 10
12.1149490681
 20
7.2488542279
 30
0.0
 10
12.1202671268
 20
7.2399343685
 30
0.0
 10
12.1249372064
 20
7.2306887574
 30
0.0
 10
12.1289336059
 20
7.2211681348
 30
0.0
 10
12.1322343558
 20
7.2114247265
 30
0.0
 10
12.1348211689
 20
7.2015120964
 30
0.0
 10
12.1366798968
 20
7.1914843841
 30
0.0
 10
12.137800009
 20
7.1813974962
 30
0.0
 10
12.1380509318
 20
7.1746513436
 30
0.0
 10
12.1380509318
 20
7.1712881448
 30
0.0
  0
SPLINE
  5
2FF
100
AcDbEntity
  8
0
100
AcDbSpline
 62
7
  6
CONTINUOUS
 70
0
 71
3
 72
39
 73
35
 74
0
 42
0.0000001
 43
0.0000001
 44
0.0000000001
 40
0.0
 40
0.0
 40
0.0
 40
0.0
 40
0.0299424756
 40
0.0599093253
 40
0.0899243308
 40
0.1200101061
 40
0.1501875593
 40
0.1804754054
 40
0.2108897454
 40
0.2414437198
 40
0.2721472437
 40
0.3030068255
 40
0.3340254745
 40
0.3652026886
 40
0.3965345175
 40
0.4280136976
 40
0.4596298523
 40
0.4913697474
 40
0.5232175981
 40
0.5551554173
 40
0.5871634018
 40
0.6192203434
 40
0.6513040581
 40
0.68339183
 40
0.7154608619
 40
0.7474887274
 40
0.7794538181
 40
0.8113357796
 40
0.8431159521
 40
0.8747776664
 40
0.9063069638
 40
0.937691791
 40
0.9689252156
 40
1.0
 40
1.0
 40
1.0
 40
1.0
 10
11.9047260642
 20
9.0320123348
 30
0.0
 10
11.9070569115
 20
9.0342637704
 30
0.0
 10
11.9119018704
 20
9.0385849598
 30
0.0
 10
11.9196642735
 20
9.0444717997
 30
0.0
 10
11.9278819409
 20
9.049734258
 30
0.0
 10
11.9365089597
 20
9.0543428111
 30
0.0
 10
11.9454978977
 20
9.0582722848
 30
0.0
 10
11.9547991472
 20
9.0615010781
 30
0.0
 10
11.9643614543
 20
9.0640115233
 30
0.0
 10
11.9741321386
 20
9.0657899104
 30
0.0
 10
11.9840574044
 20
9.0668265722
 30
0.0
 10
11.9940826325
 20
9.0671159385
 30
0.0
 10
12.0041526856
 20
9.0666565534
 30
0.0
 10
12.0142122094
 20
9.0654510705
 30
0.0
 10
12.0242059339
 20
9.063506234
 30
0.0
 10
12.0340789723
 20
9.0608328365
 30
0.0
 10
12.0437771181
 20
9.0574456566
 30
0.0
 10
12.0532471378
 20
9.0533633761
 30
0.0
 10
12.0624370573
 20
9.0486084745
 30
0.0
 10
12.0712964508
 20
9.0432071185
 30
0.0
 10
12.0797767106
 20
9.0371890074
 30
0.0
 10
12.087831309
 20
9.0305872082
 30
0.0
 10
12.0954160498
 20
9.0234379764
 30
0.0
 10
12.102489308
 20
9.0157805589
 30
0.0
 10
12.1090122545
 20
9.0076569813
 30
0.0
 10
12.1149490681
 20
8.9991118199
 30
0.0
 10
12.1202671268
 20
8.9901919605
 30
0.0
 10
12.1249372064
 20
8.9809463495
 30
0.0
 10
12.1289336059
 20
8.9714257268
 30
0.0
 10
12.1322343558
 20
8.9616823185
 30
0.0
 10
12.1348211689
 20
8.9517696884
 30
0.0
 10
12.1366798968
 20
8.9417419762
 30
0.0
 10
12.137800009
 20
8.9316550882
 30
0.0
 10
12.1380509318
 20
8.9249089356
 30
0.0
 10
12.1380509318
 20
8.9215457368
 30
0.0
  0
SPLINE
  5
300
100
AcDbEntity
  8
0
100
AcDbSpline
 62
7
  6
CONTINUOUS
 70
0
 71
3
 72
39
 73
35
 74
0
 42
0.0000001
 43
0.0000001
 44
0.0000000001
 40
0.0
 40
0.0
 40
0.0
 40
0.0
 40
0.0299424756
 40
0.0599093253
 40
0.0899243308
 40
0.1200101061
 40
0.1501875593
 40
0.1804754054
 40
0.2108897454
 40
0.2414437198
 40
0.2721472437
 40
0.3030068255
 40
0.3340254745
 40
0.3652026886
 40
0.3965345175
 40
0.4280136976
 40
0.4596298523
 40
0.4913697474
 40
0.5232175981
 40
0.5551554173
 40
0.5871634018
 40
0.6192203434
 40
0.6513040581
 40
0.68339183
 40
0.7154608619
 40
0.7474887274
 40
0.7794538181
 40
0.8113357796
 40
0.8431159521
 40
0.8747776664
 40
0.9063069638
 40
0.937691791
 40
0.9689252156
 40
1.0
 40
1.0
 40
1.0
 40
1.0
 10
9.8521333314
 20
9.1743601243
 30
0.0
 10
9.8544641788
 20
9.1766115599
 30
0.0
 10
9.8593091377
 20
9.1809327493
 30
0.0
 10
9.8670715407
 20
9.1868195892
 30
0.0
 10
9.8752892082
 20
9.1920820475
 30
0.0
 10
9.883916227
 20
9.1966906006
 30
0.0
 10
9.8929051649
 20
9.2006200743
 30
0.0
 10
9.9022064144
 20
9.2038488676
 30
0.0
 10
9.9117687216
 20
9.2063593128
 30
0.0
 10
9.9215394058
 20
9.2081376999
 30
0.0
 10
9.9314646716
 20
9.2091743617
 30
0.0
 10
9.9414898997
 20
9.209463728
 30
0.0
 10
9.9515599528
 20
9.2090043429
 30
0.0
 10
9.9616194767
 20
9.20779886
 30
0.0
 10
9.9716132011
 20
9.2058540235
 30
0.0
 10
9.9814862395
 20
9.203180626
 30
0.0
 10
9.9911843853
 20
9.1997934461
 30
0.0
 10
10.000654405
 20
9.1957111656
 30
0.0
 10
10.0098443245
 20
9.190956264
 30
0.0
 10
10.018703718
 20
9.185554908
 30
0.0
 10
10.0271839779
 20
9.1795367969
 30
0.0
 10
10.0352385762
 20
9.1729349977
 30
0.0
 10
10.0428233171
 20
9.1657857659
 30
0.0
 10
10.0498965752
 20
9.1581283484
 30
0.0
 10
10.0564195217
 20
9.1500047708
 30
0.0
 10
10.0623563353
 20
9.1414596094
 30
0.0
 10
10.0676743941
 20
9.13253975
 30
0.0
 10
10.0723444736
 20
9.1232941389
 30
0.0
 10
10.0763408731
 20
9.1137735163
 30
0.0
 10
10.079641623
 20
9.104030108
 30
0.0
 10
10.0822284361
 20
9.0941174779
 30
0.0
 10
10.084087164
 20
9.0840897656
 30
0.0
 10
10.0852072762
 20
9.0740028777
 30
0.0
 10
10.085458199
 20
9.0672567251
 30
0.0
 10
10.085458199
 20
9.0638935263
 30
0.0
  0
SPLINE
  5
301
100
AcDbEntity
  8
0
100
AcDbSpline
 62
7
  6
CONTINUOUS
 70
0
 71
3
 72
39
 73
35
 74
0
 42
0.0000001
 43
0.0000001
 44
0.0000000001
 40
0.0
 40
0.0
 40
0.0
 40
0.0
 40
0.0299424756
 40
0.0599093253
 40
0.0899243308
 40
0.1200101061
 40
0.1501875593
 40
0.1804754054
 40
0.2108897454
 40
0.2414437198
 40
0.2721472437
 40
0.3030068255
 40
0.3340254745
 40
0.3652026886
 40
0.3965345175
 40
0.4280136976
 40
0.4596298523
 40
0.4913697474
 40
0.5232175981
 40
0.5551554173
 40
0.5871634018
 40
0.6192203434
 40
0.6513040581
 40
0.68339183
 40
0.7154608619
 40
0.7474887274
 40
0.7794538181
 40
0.8113357796
 40
0.8431159521
 40
0.8747776664
 40
0.9063069638
 40
0.937691791
 40
0.9689252156
 40
1.0
 40
1.0
 40
1.0
 40
1.0
 10
9.8521333314
 20
7.4241025323
 30
0.0
 10
9.8544641788
 20
7.4263539679
 30
0.0
 10
9.8593091377
 20
7.4306751573
 30
0.0
 10
9.8670715407
 20
7.4365619971
 30
0.0
 10
9.8752892082
 20
7.4418244554
 30
0.0
 10
9.883916227
 20
7.4464330086
 30
0.0
 10
9.8929051649
 20
7.4503624822
 30
0.0
 10
9.9022064144
 20
7.4535912756
 30
0.0
 10
9.9117687216
 20
7.4561017207
 30
0.0
 10
9.9215394058
 20
7.4578801079
 30
0.0
 10
9.9314646716
 20
7.4589167697
 30
0.0
 10
9.9414898997
 20
7.459206136
 30
0.0
 10
9.9515599528
 20
7.4587467509
 30
0.0
 10
9.9616194767
 20
7.457541268
 30
0.0
 10
9.9716132011
 20
7.4555964315
 30
0.0
 10
9.9814862395
 20
7.452923034
 30
0.0
 10
9.9911843853
 20
7.4495358541
 30
0.0
 10
10.000654405
 20
7.4454535736
 30
0.0
 10
10.0098443245
 20
7.440698672
 30
0.0
 10
10.018703718
 20
7.435297316
 30
0.0
 10
10.0271839779
 20
7.4292792049
 30
0.0
 10
10.0352385762
 20
7.4226774057
 30
0.0
 10
10.0428233171
 20
7.4155281739
 30
0.0
 10
10.0498965752
 20
7.4078707564
 30
0.0
 10
10.0564195217
 20
7.3997471788
 30
0.0
 10
10.0623563353
 20
7.3912020174
 30
0.0
 10
10.0676743941
 20
7.382282158
 30
0.0
 10
10.0723444736
 20
7.3730365469
 30
0.0
 10
10.0763408731
 20
7.3635159243
 30
0.0
 10
10.079641623
 20
7.353772516
 30
0.0
 10
10.0822284361
 20
7.3438598859
 30
0.0
 10
10.084087164
 20
7.3338321736
 30
0.0
 10
10.0852072762
 20
7.3237452857
 30
0.0
 10
10.085458199
 20
7.3169991331
 30
0.0
 10
10.085458199
 20
7.3136359343
 30
0.0
  0
SPLINE
  5
302
100
AcDbEntity
  8
0
100
AcDbSpline
 62
7
  6
CONTINUOUS
 70
0
 71
3
 72
32
 73
28
 74
0
 42
0.0000001
 43
0.0000001
 44
0.0000000001
 40
0.0
 40
0.0
 40
0.0
 40
0.0
 40
0.0760198657
 40
0.153265384
 40
0.2310423902
 40
0.3086481077
 40
0.3853824965
 40
0.4605554823
 40
0.533495182
 40
0.5689255591
 40
0.6035581997
 40
0.6373179356
 40
0.6701324673
 40
0.7019325438
 40
0.7326522379
 40
0.7622295096
 40
0.7906065158
 40
0.8177299626
 40
0.8435518625
 40
0.8680301899
 40
0.8911295243
 40
0.9128222944
 40
0.9330903634
 40
0.9519264333
 40
0.9693368578
 40
0.9853466667
 40
1.0
 40
1.0
 40
1.0
 40
1.0
 10
15.1837055688
 20
8.6330914745
 30
0.0
 10
15.1837055688
 20
8.644086848
 30
0.0
 10
15.1839995911
 20
8.6662558187
 30
0.0
 10
15.1852826252
 20
8.6996519606
 30
0.0
 10
15.1874003861
 20
8.7332355902
 30
0.0
 10
15.1903326106
 20
8.7666836583
 30
0.0
 10
15.1940509108
 20
8.7996746691
 30
0.0
 10
15.1985193414
 20
8.8318913054
 30
0.0
 10
15.2028727902
 20
8.8580831098
 30
0.0
 10
15.2067098001
 20
8.8784084057
 30
0.0
 10
15.2097182994
 20
8.8931213165
 30
0.0
 10
15.2128780018
 20
8.9074152745
 30
0.0
 10
15.2161812777
 20
8.921255934
 30
0.0
 10
15.2196201157
 20
8.9346100189
 30
0.0
 10
15.2231862221
 20
8.9474454377
 30
0.0
 10
15.2268709433
 20
8.9597313825
 30
0.0
 10
15.2306653394
 20
8.9714383973
 30
0.0
 10
15.2345602502
 20
8.9825384375
 30
0.0
 10
15.2385462442
 20
8.9930049814
 30
0.0
 10
15.2426136626
 20
9.0028131044
 30
0.0
 10
15.2467527263
 20
9.0119395242
 30
0.0
 10
15.250953514
 20
9.0203627172
 30
0.0
 10
15.2552060454
 20
9.0280630183
 30
0.0
 10
15.2595003187
 20
9.0350225607
 30
0.0
 10
15.2638268517
 20
9.0412258578
 30
0.0
 10
15.268175681
 20
9.0466582375
 30
0.0
 10
15.2712148363
 20
9.049897445
 30
0.0
 10
15.2727392468
 20
9.0513699126
 30
0.0
  0
SPLINE
  5
303
100
AcDbEntity
  8
0
100
AcDbSpline
 62
7
  6
CONTINUOUS
 70
0
 71
3
 72
15
 73
11
 74
0
 42
0.0000001
 43
0.0000001
 44
0.0000000001
 40
0.0
 40
0.0
 40
0.0
 40
0.0
 40
0.1273482228
 40
0.253860527
 40
0.3795879206
 40
0.5046050801
 40
0.6290174363
 40
0.7529533709
 40
0.8765605784
 40
1.0
 40
1.0
 40
1.0
 40
1.0
 10
9.8140330257
 20
7.332459334
 30
0.0
 10
9.8140330257
 20
7.3367864284
 30
0.0
 10
9.8144461722
 20
7.3454181964
 30
0.0
 10
9.8163145965
 20
7.3581998367
 30
0.0
 10
9.8194127607
 20
7.3706603249
 30
0.0
 10
9.8237126872
 20
7.3826831268
 30
0.0
 10
9.829174897
 20
7.394157376
 30
0.0
 10
9.8357496188
 20
7.4049771201
 30
0.0
 10
9.8433750334
 20
7.4150409768
 30
0.0
 10
9.849116583
 20
7.4211885643
 30
0.0
 10
9.8521333314
 20
7.4241025323
 30
0.0
  0
SPLINE
  5
304
100
AcDbEntity
  8
0
100
AcDbSpline
 62
7
  6
CONTINUOUS
 70
0
 71
3
 72
17
 73
13
 74
0
 42
0.0000001
 43
0.0000001
 44
0.0000000001
 40
0.0
 40
0.0
 40
0.0
 40
0.0
 40
0.1504730098
 40
0.2917304958
 40
0.4244682464
 40
0.4879391303
 40
0.549641677
 40
0.6683008574
 40
0.7818339705
 40
0.8918016563
 40
0.9460162481
 40
1.0
 40
1.0
 40
1.0
 40
1.0
 10
15.5503948906
 20
8.0090810248
 30
0.0
 10
15.5491778636
 20
8.0079054669
 30
0.0
 10
15.5467453909
 20
8.0056997481
 30
0.0
 10
15.5429789953
 20
8.0027602809
 30
0.0
 10
15.539797577
 20
8.0006813404
 30
0.0
 10
15.5372606923
 20
7.9992735478
 30
0.0
 10
15.5347985322
 20
7.9980649116
 30
0.0
 10
15.5317196014
 20
7.9968437123
 30
0.0
 10
15.5279925125
 20
7.9958518909
 30
0.0
 10
15.5248872972
 20
7.9954373648
 30
0.0
 10
15.5224338133
 20
7.9953586061
 30
0.0
 10
15.5212167421
 20
7.9954016357
 30
0.0
 10
15.5206111504
 20
7.9954436388
 30
0.0
  0
SPLINE
  5
305
100
AcDbEntity
  8
0
100
AcDbSpline
 62
7
  6
CONTINUOUS
 70
0
 71
3
 72
30
 73
26
 74
0
 42
0.0000001
 43
0.0000001
 44
0.0000000001
 40
0.0
 40
0.0
 40
0.0
 40
0.0
 40
0.0851783936
 40
0.1685816662
 40
0.2498839799
 40
0.328775319
 40
0.4049559269
 40
0.4781424112
 40
0.5480683709
 40
0.6144875015
 40
0.6771763585
 40
0.7070604069
 40
0.7359405365
 40
0.7637968601
 40
0.7906121989
 40
0.816371443
 40
0.8410628342
 40
0.8646772836
 40
0.8872097574
 40
0.9086589706
 40
0.9290286329
 40
0.9483278869
 40
0.9665723562
 40
0.9837855737
 40
1.0
 40
1.0
 40
1.0
 40
1.0
 10
7.7496441251
 20
7.5697434825
 30
0.0
 10
7.7496441251
 20
7.5619736964
 30
0.0
 10
7.7497765331
 20
7.5465956723
 30
0.0
 10
7.7503837705
 20
7.5238086593
 30
0.0
 10
7.7513951861
 20
7.5016099043
 30
0.0
 10
7.7528063268
 20
7.480093069
 30
0.0
 10
7.7546111277
 20
7.4593485049
 30
0.0
 10
7.7568017687
 20
7.4394634847
 30
0.0
 10
7.7593687814
 20
7.4205214103
 30
0.0
 10
7.7623011412
 20
7.4026018956
 30
0.0
 10
7.7650810501
 20
7.3883649699
 30
0.0
 10
7.7674908292
 20
7.377551003
 30
0.0
 10
7.7693525587
 20
7.3698716218
 30
0.0
 10
7.7712956108
 20
7.3625015021
 30
0.0
 10
7.773317861
 20
7.3554483434
 30
0.0
 10
7.7754172822
 20
7.3487195366
 30
0.0
 10
7.7775915417
 20
7.3423220864
 30
0.0
 10
7.7798384717
 20
7.3362626685
 30
0.0
 10
7.7821556254
 20
7.3305475484
 30
0.0
 10
7.784540672
 20
7.3251826435
 30
0.0
 10
7.7869911291
 20
7.3201734509
 30
0.0
 10
7.7895045069
 20
7.315525097
 30
0.0
 10
7.7920784158
 20
7.311242251
 30
0.0
 10
7.7947101295
 20
7.3073294066
 30
0.0
 10
7.7965555435
 20
7.3048991938
 30
0.0
 10
7.7974887719
 20
7.3037517371
 30
0.0
  0
SPLINE
  5
306
100
AcDbEntity
  8
0
100
AcDbSpline
 62
7
  6
CONTINUOUS
 70
0
 71
3
 72
32
 73
28
 74
0
 42
0.0000001
 43
0.0000001
 44
0.0000000001
 40
0.0
 40
0.0
 40
0.0
 40
0.0
 40
0.0760198657
 40
0.153265384
 40
0.2310423902
 40
0.3086481077
 40
0.3853824965
 40
0.4605554823
 40
0.533495182
 40
0.5689255591
 40
0.6035581997
 40
0.6373179356
 40
0.6701324673
 40
0.7019325438
 40
0.7326522379
 40
0.7622295096
 40
0.7906065158
 40
0.8177299626
 40
0.8435518625
 40
0.8680301899
 40
0.8911295243
 40
0.9128222944
 40
0.9330903634
 40
0.9519264333
 40
0.9693368578
 40
0.9853466667
 40
1.0
 40
1.0
 40
1.0
 40
1.0
 10
15.1457384826
 20
8.6274180833
 30
0.0
 10
15.1457384826
 20
8.6394043189
 30
0.0
 10
15.1460590012
 20
8.6635710747
 30
0.0
 10
15.1474576574
 20
8.6999767527
 30
0.0
 10
15.1497662631
 20
8.736586814
 30
0.0
 10
15.1529627288
 20
8.7730490975
 30
0.0
 10
15.1570161084
 20
8.8090131355
 30
0.0
 10
15.1618872173
 20
8.8441330151
 30
0.0
 10
15.1666329827
 20
8.8726851275
 30
0.0
 10
15.1708157697
 20
8.8948420634
 30
0.0
 10
15.1740953837
 20
8.9108808471
 30
0.0
 10
15.1775398268
 20
8.9264629233
 30
0.0
 10
15.1811407816
 20
8.9415508516
 30
0.0
 10
15.1848895148
 20
8.956108357
 30
0.0
 10
15.1887769855
 20
8.970100456
 30
0.0
 10
15.1927937601
 20
8.9834935643
 30
0.0
 10
15.196930093
 20
8.9962555718
 30
0.0
 10
15.2011759987
 20
9.0083559063
 30
0.0
 10
15.2055211957
 20
9.0197656562
 30
0.0
 10
15.2099551547
 20
9.0304576507
 30
0.0
 10
15.2144672154
 20
9.0404065095
 30
0.0
 10
15.2190465624
 20
9.0495887693
 30
0.0
 10
15.2236823162
 20
9.0579829929
 30
0.0
 10
15.2283635733
 20
9.0655697034
 30
0.0
 10
15.2330799975
 20
9.0723320186
 30
0.0
 10
15.2378207271
 20
9.0782539441
 30
0.0
 10
15.2411337597
 20
9.0817850569
 30
0.0
 10
15.2427955444
 20
9.0833902178
 30
0.0
  0
SPLINE
  5
307
100
AcDbEntity
  8
0
100
AcDbSpline
 62
7
  6
CONTINUOUS
 70
0
 71
3
 72
32
 73
28
 74
0
 42
0.0000001
 43
0.0000001
 44
0.0000000001
 40
0.0
 40
0.0
 40
0.0
 40
0.0
 40
0.0146533333
 40
0.0306631422
 40
0.0480735667
 40
0.0669096366
 40
0.0871777056
 40
0.1088704757
 40
0.1319698101
 40
0.1564481375
 40
0.1822700374
 40
0.2093934842
 40
0.2377704904
 40
0.2673477621
 40
0.2980674562
 40
0.3298675327
 40
0.3626820644
 40
0.3964418003
 40
0.4310744409
 40
0.466504818
 40
0.5394445177
 40
0.6146175035
 40
0.6913518923
 40
0.7689576098
 40
0.846734616
 40
0.9239801343
 40
1.0
 40
1.0
 40
1.0
 40
1.0
 10
7.8467011869
 20
9.5953451777
 30
0.0
 10
7.8450394022
 20
9.5937400168
 30
0.0
 10
7.8417263696
 20
9.590208904
 30
0.0
 10
7.83698564
 20
9.5842869785
 30
0.0
 10
7.8322692158
 20
9.5775246633
 30
0.0
 10
7.8275879587
 20
9.5699379528
 30
0.0
 10
7.8229522049
 20
9.5615437292
 30
0.0
 10
7.8183728579
 20
9.5523614694
 30
0.0
 10
7.8138607972
 20
9.5424126106
 30
0.0
 10
7.8094268382
 20
9.5317206162
 30
0.0
 10
7.8050816412
 20
9.5203108663
 30
0.0
 10
7.8008357355
 20
9.5082105317
 30
0.0
 10
7.7966994026
 20
9.4954485242
 30
0.0
 10
7.7926826281
 20
9.4820554159
 30
0.0
 10
7.7887951573
 20
9.4680633169
 30
0.0
 10
7.7850464241
 20
9.4535058115
 30
0.0
 10
7.7814454693
 20
9.4384178832
 30
0.0
 10
7.7780010262
 20
9.422835807
 30
0.0
 10
7.7747214122
 20
9.4067970234
 30
0.0
 10
7.7705386252
 20
9.3846400874
 30
0.0
 10
7.7657928598
 20
9.3560879751
 30
0.0
 10
7.7609217509
 20
9.3209680954
 30
0.0
 10
7.7568683714
 20
9.2850040574
 30
0.0
 10
7.7536719056
 20
9.2485417739
 30
0.0
 10
7.7513633
 20
9.2119317127
 30
0.0
 10
7.7499646437
 20
9.1755260346
 30
0.0
 10
7.7496441251
 20
9.1513592788
 30
0.0
 10
7.7496441251
 20
9.1393730432
 30
0.0
  0
SPLINE
  5
308
100
AcDbEntity
  8
0
100
AcDbSpline
 62
7
  6
CONTINUOUS
 70
0
 71
3
 72
15
 73
11
 74
0
 42
0.0000001
 43
0.0000001
 44
0.0000000001
 40
0.0
 40
0.0
 40
0.0
 40
0.0
 40
0.1273482228
 40
0.253860527
 40
0.3795879206
 40
0.5046050801
 40
0.6290174363
 40
0.7529533709
 40
0.8765605784
 40
1.0
 40
1.0
 40
1.0
 40
1.0
 10
11.8666257585
 20
7.1901115445
 30
0.0
 10
11.8666257585
 20
7.1944386389
 30
0.0
 10
11.867038905
 20
7.2030704069
 30
0.0
 10
11.8689073293
 20
7.2158520472
 30
0.0
 10
11.8720054935
 20
7.2283125354
 30
0.0
 10
11.87630542
 20
7.2403353373
 30
0.0
 10
11.8817676298
 20
7.2518095865
 30
0.0
 10
11.8883423516
 20
7.2626293306
 30
0.0
 10
11.8959677661
 20
7.2726931873
 30
0.0
 10
11.9017093158
 20
7.2788407748
 30
0.0
 10
11.9047260642
 20
7.2817547428
 30
0.0
  0
SPLINE
  5
309
100
AcDbEntity
  8
0
100
AcDbSpline
 62
7
  6
CONTINUOUS
 70
0
 71
3
 72
50
 73
46
 74
0
 42
0.0000001
 43
0.0000001
 44
0.0000000001
 40
0.0
 40
0.0
 40
0.0
 40
0.0
 40
0.0103582201
 40
0.0213923045
 40
0.0330967825
 40
0.0454644992
 40
0.0584862188
 40
0.0721487652
 40
0.1013292248
 40
0.1328570978
 40
0.1665523303
 40
0.2022107335
 40
0.2396080551
 40
0.2785032383
 40
0.318641357
 40
0.3597563148
 40
0.4015734226
 40
0.4438119042
 40
0.4861873631
 40
0.5284142308
 40
0.5702082092
 40
0.6112887197
 40
0.651381371
 40
0.6902204673
 40
0.7275515907
 40
0.7631343112
 40
0.7967451198
 40
0.8281807484
 40
0.8572621552
 40
0.8708730823
 40
0.8838420885
 40
0.8961564204
 40
0.9078059328
 40
0.918784275
 40
0.929088674
 40
0.9387216515
 40
0.9476911157
 40
0.956012748
 40
0.9637109023
 40
0.9708218709
 40
0.9773960351
 40
0.9835017379
 40
0.9892276295
 40
0.9946840213
 40
1.0
 40
1.0
 40
1.0
 40
1.0
 10
15.2666272884
 20
7.5259506908
 30
0.0
 10
15.2669444234
 20
7.5252638907
 30
0.0
 10
15.2675648459
 20
7.5238293633
 30
0.0
 10
15.2684319737
 20
7.5215725209
 30
0.0
 10
15.269263289
 20
7.519146588
 30
0.0
 10
15.2700572974
 20
7.5165560599
 30
0.0
 10
15.2708125837
 20
7.5138054359
 30
0.0
 10
15.271787691
 20
7.5098433331
 30
0.0
 10
15.2728897422
 20
7.5045227585
 30
0.0
 10
15.2740116596
 20
7.497718574
 30
0.0
 10
15.2749518762
 20
7.4904098066
 30
0.0
 10
15.2757034259
 20
7.4826487026
 30
0.0
 10
15.2762606582
 20
7.4744906783
 30
0.0
 10
15.2766193933
 20
7.4659941637
 30
0.0
 10
15.2767769116
 20
7.4572200635
 30
0.0
 10
15.2767319766
 20
7.4482313227
 30
0.0
 10
15.2764848358
 20
7.4390924531
 30
0.0
 10
15.276037216
 20
7.4298690614
 30
0.0
 10
15.2753923082
 20
7.4206273696
 30
0.0
 10
15.2745547431
 20
7.4114337328
 30
0.0
 10
15.2735305578
 20
7.4023541561
 30
0.0
 10
15.2723271525
 20
7.3934538137
 30
0.0
 10
15.2709532393
 20
7.3847965723
 30
0.0
 10
15.2694187812
 20
7.3764445227
 30
0.0
 10
15.2677349257
 20
7.3684575116
 30
0.0
 10
15.2659139217
 20
7.3608927151
 30
0.0
 10
15.2639690543
 20
7.3538041009
 30
0.0
 10
15.2619144758
 20
7.3472423026
 30
0.0
 10
15.2600852865
 20
7.3421447696
 30
0.0
 10
15.2585702954
 20
7.3383721119
 30
0.0
 10
15.2574411096
 20
7.3357652425
 30
0.0
 10
15.2562959061
 20
7.3333226529
 30
0.0
 10
15.2551366316
 20
7.3310486785
 30
0.0
 10
15.2539654361
 20
7.3289472825
 30
0.0
 10
15.2527842778
 20
7.3270221592
 30
0.0
 10
15.2515952947
 20
7.3252765781
 30
0.0
 10
15.2504003631
 20
7.3237135628
 30
0.0
 10
15.2492014923
 20
7.3223356752
 30
0.0
 10
15.2480003412
 20
7.3211453061
 30
0.0
 10
15.2467985912
 20
7.3201444535
 30
0.0
 10
15.245597526
 20
7.3193351881
 30
0.0
 10
15.2443985157
 20
7.3187195396
 30
0.0
 10
15.24320286
 20
7.318300037
 30
0.0
 10
15.242013308
 20
7.3180793184
 30
0.0
 10
15.2412222291
 20
7.3180662361
 30
0.0
 10
15.2408349207
 20
7.3180930876
 30
0.0
  0
SPLINE
  5
30A
100
AcDbEntity
  8
0
100
AcDbSpline
 62
7
  6
CONTINUOUS
 70
0
 71
3
 72
50
 73
46
 74
0
 42
0.0000001
 43
0.0000001
 44
0.0000000001
 40
0.0
 40
0.0
 40
0.0
 40
0.0
 40
0.0103582201
 40
0.0213923045
 40
0.0330967825
 40
0.0454644992
 40
0.0584862188
 40
0.0721487652
 40
0.1013292248
 40
0.1328570978
 40
0.1665523303
 40
0.2022107335
 40
0.2396080551
 40
0.2785032383
 40
0.318641357
 40
0.3597563148
 40
0.4015734226
 40
0.4438119042
 40
0.4861873631
 40
0.5284142308
 40
0.5702082092
 40
0.6112887197
 40
0.651381371
 40
0.6902204673
 40
0.7275515907
 40
0.7631343112
 40
0.7967451198
 40
0.8281807484
 40
0.8572621552
 40
0.8708730823
 40
0.8838420885
 40
0.8961564204
 40
0.9078059328
 40
0.918784275
 40
0.929088674
 40
0.9387216515
 40
0.9476911157
 40
0.956012748
 40
0.9637109023
 40
0.9708218709
 40
0.9773960351
 40
0.9835017379
 40
0.9892276295
 40
0.9946840213
 40
1.0
 40
1.0
 40
1.0
 40
1.0
 10
15.4211421315
 20
8.6478879124
 30
0.0
 10
15.4214592665
 20
8.6472011123
 30
0.0
 10
15.422079689
 20
8.6457665849
 30
0.0
 10
15.4229468169
 20
8.6435097425
 30
0.0
 10
15.4237781322
 20
8.6410838096
 30
0.0
 10
15.4245721406
 20
8.6384932815
 30
0.0
 10
15.4253274268
 20
8.6357426575
 30
0.0
 10
15.4263025341
 20
8.6317805547
 30
0.0
 10
15.4274045853
 20
8.6264599801
 30
0.0
 10
15.4285265027
 20
8.6196557956
 30
0.0
 10
15.4294667194
 20
8.6123470282
 30
0.0
 10
15.430218269
 20
8.6045859243
 30
0.0
 10
15.4307755014
 20
8.5964278999
 30
0.0
 10
15.4311342364
 20
8.5879313853
 30
0.0
 10
15.4312917548
 20
8.5791572851
 30
0.0
 10
15.4312468198
 20
8.5701685443
 30
0.0
 10
15.430999679
 20
8.5610296747
 30
0.0
 10
15.4305520592
 20
8.551806283
 30
0.0
 10
15.4299071513
 20
8.5425645913
 30
0.0
 10
15.4290695863
 20
8.5333709545
 30
0.0
 10
15.428045401
 20
8.5242913777
 30
0.0
 10
15.4268419957
 20
8.5153910354
 30
0.0
 10
15.4254680825
 20
8.5067337939
 30
0.0
 10
15.4239336243
 20
8.4983817443
 30
0.0
 10
15.4222497688
 20
8.4903947333
 30
0.0
 10
15.4204287649
 20
8.4828299367
 30
0.0
 10
15.4184838974
 20
8.4757413225
 30
0.0
 10
15.4164293189
 20
8.4691795242
 30
0.0
 10
15.4146001296
 20
8.4640819912
 30
0.0
 10
15.4130851386
 20
8.4603093336
 30
0.0
 10
15.4119559528
 20
8.4577024641
 30
0.0
 10
15.4108107493
 20
8.4552598745
 30
0.0
 10
15.4096514748
 20
8.4529859001
 30
0.0
 10
15.4084802792
 20
8.4508845041
 30
0.0
 10
15.4072991209
 20
8.4489593808
 30
0.0
 10
15.4061101378
 20
8.4472137997
 30
0.0
 10
15.4049152062
 20
8.4456507844
 30
0.0
 10
15.4037163355
 20
8.4442728968
 30
0.0
 10
15.4025151843
 20
8.4430825277
 30
0.0
 10
15.4013134344
 20
8.4420816751
 30
0.0
 10
15.4001123691
 20
8.4412724097
 30
0.0
 10
15.3989133589
 20
8.4406567612
 30
0.0
 10
15.3977177031
 20
8.4402372586
 30
0.0
 10
15.3965281512
 20
8.44001654
 30
0.0
 10
15.3957370723
 20
8.4400034578
 30
0.0
 10
15.3953497638
 20
8.4400303092
 30
0.0
  0
SPLINE
  5
30B
100
AcDbEntity
  8
0
100
AcDbSpline
 62
7
  6
CONTINUOUS
 70
0
 71
3
 72
24
 73
20
 74
0
 42
0.0000001
 43
0.0000001
 44
0.0000000001
 40
0.0
 40
0.0
 40
0.0
 40
0.0
 40
0.0755923066
 40
0.1466353257
 40
0.2134617747
 40
0.2454355169
 40
0.2765282346
 40
0.3363384309
 40
0.393557742
 40
0.4489331062
 40
0.5032971329
 40
0.5575339256
 40
0.6125342166
 40
0.6691491175
 40
0.7281536798
 40
0.7902228906
 40
0.855926086
 40
0.9257275406
 40
1.0
 40
1.0
 40
1.0
 40
1.0
 10
15.8856222398
 20
9.6433694591
 30
0.0
 10
15.8865782727
 20
9.644292916
 30
0.0
 10
15.8884891704
 20
9.646027502
 30
0.0
 10
15.8914462838
 20
9.6483447643
 30
0.0
 10
15.8939436521
 20
9.649990256
 30
0.0
 10
15.8959353733
 20
9.6511098774
 30
0.0
 10
15.8978691066
 20
9.6520753031
 30
0.0
 10
15.9002868617
 20
9.6530586087
 30
0.0
 10
15.9032140371
 20
9.6538740867
 30
0.0
 10
15.9061258428
 20
9.6543069313
 30
0.0
 10
15.9090172491
 20
9.6543550086
 30
0.0
 10
15.9118827452
 20
9.6540176639
 30
0.0
 10
15.9147167507
 20
9.6532958371
 30
0.0
 10
15.9175145003
 20
9.6521920719
 30
0.0
 10
15.9202722081
 20
9.6507094396
 30
0.0
 10
15.9229871859
 20
9.6488514981
 30
0.0
 10
15.9256571163
 20
9.6466213078
 30
0.0
 10
15.9282799858
 20
9.644022316
 30
0.0
 10
15.9299422668
 20
9.6421073305
 30
0.0
 10
15.9307663078
 20
9.6410941323
 30
0.0
  0
SPLINE
  5
30C
100
AcDbEntity
  8
0
100
AcDbSpline
 62
7
  6
CONTINUOUS
 70
0
 71
3
 72
16
 73
12
 74
0
 42
0.0000001
 43
0.0000001
 44
0.0000000001
 40
0.0
 40
0.0
 40
0.0
 40
0.0
 40
0.1504790676
 40
0.2917468496
 40
0.4244951198
 40
0.4879700185
 40
0.54967612
 40
0.6683414766
 40
0.781881548
 40
0.8918563265
 40
1.0
 40
1.0
 40
1.0
 40
1.0
 10
15.8556785374
 20
9.6753897643
 30
0.0
 10
15.856738643
 20
9.6764137477
 30
0.0
 10
15.8588575205
 20
9.678335084
 30
0.0
 10
15.8621383493
 20
9.6808956099
 30
0.0
 10
15.8649096466
 20
9.6827065705
 30
0.0
 10
15.8671194984
 20
9.6839328696
 30
0.0
 10
15.8692642327
 20
9.6849856976
 30
0.0
 10
15.8719461246
 20
9.6860494403
 30
0.0
 10
15.8751931096
 20
9.6869133495
 30
0.0
 10
15.8784217702
 20
9.6873447304
 30
0.0
 10
15.8805658659
 20
9.6873422871
 30
0.0
 10
15.8816225616
 20
9.6872690158
 30
0.0
  0
SPLINE
  5
30D
100
AcDbEntity
  8
0
100
AcDbSpline
 62
7
  6
CONTINUOUS
 70
0
 71
3
 72
15
 73
11
 74
0
 42
0.0000001
 43
0.0000001
 44
0.0000000001
 40
0.0
 40
0.0
 40
0.0
 40
0.0
 40
0.1273482228
 40
0.253860527
 40
0.3795879206
 40
0.5046050801
 40
0.6290174363
 40
0.7529533709
 40
0.8765605784
 40
1.0
 40
1.0
 40
1.0
 40
1.0
 10
11.8666257585
 20
8.9403691365
 30
0.0
 10
11.8666257585
 20
8.9446962309
 30
0.0
 10
11.867038905
 20
8.9533279989
 30
0.0
 10
11.8689073293
 20
8.9661096392
 30
0.0
 10
11.8720054935
 20
8.9785701274
 30
0.0
 10
11.87630542
 20
8.9905929293
 30
0.0
 10
11.8817676298
 20
9.0020671785
 30
0.0
 10
11.8883423516
 20
9.0128869226
 30
0.0
 10
11.8959677661
 20
9.0229507793
 30
0.0
 10
11.9017093158
 20
9.0290983668
 30
0.0
 10
11.9047260642
 20
9.0320123348
 30
0.0
  0
SPLINE
  5
30E
100
AcDbEntity
  8
0
100
AcDbSpline
 62
7
  6
CONTINUOUS
 70
0
 71
3
 72
83
 73
79
 74
0
 42
0.0000001
 43
0.0000001
 44
0.0000000001
 40
0.0
 40
0.0
 40
0.0
 40
0.0
 40
0.003948762
 40
0.0077209436
 40
0.0113257625
 40
0.0147746989
 40
0.0212568377
 40
0.024328405
 40
0.0273115158
 40
0.0302284054
 40
0.0331030109
 40
0.0359604277
 40
0.0388262432
 40
0.0417258028
 40
0.0446835064
 40
0.0477222087
 40
0.0508628416
 40
0.0541241025
 40
0.0575224574
 40
0.0610721563
 40
0.0647853328
 40
0.0686722859
 40
0.0727415451
 40
0.0770001672
 40
0.0814539045
 40
0.086107287
 40
0.0909639144
 40
0.0960264383
 40
0.1012967456
 40
0.106776085
 40
0.1124650147
 40
0.1244707803
 40
0.1373099109
 40
0.1509710406
 40
0.165437547
 40
0.1806883277
 40
0.1966983938
 40
0.2134393785
 40
0.2308799232
 40
0.2489859891
 40
0.267721104
 40
0.2870466141
 40
0.3069219087
 40
0.3273046098
 40
0.3481507395
 40
0.3694148817
 40
0.3910503657
 40
0.4130094222
 40
0.4577016512
 40
0.5030940125
 40
0.5487799421
 40
0.5943495143
 40
0.6393941392
 40
0.6835112202
 40
0.7050994416
 40
0.7263099618
 40
0.7470962654
 40
0.7674131344
 40
0.7872167986
 40
0.806465099
 40
0.8251176659
 40
0.8431361353
 40
0.8604843641
 40
0.8771286503
 40
0.8930380054
 40
0.9081844876
 40
0.9225436247
 40
0.9360948837
 40
0.9488222803
 40
0.9607152195
 40
0.9663476577
 40
0.9717705899
 40
0.9769847538
 40
0.9819915051
 40
0.9867930884
 40
0.9913924736
 40
0.9957932958
 40
1.0
 40
1.0
 40
1.0
 40
1.0
 10
15.5867933649
 20
8.8746375828
 30
0.0
 10
15.5877568251
 20
8.8755342208
 30
0.0
 10
15.5896829657
 20
8.8772428242
 30
0.0
 10
15.5926383137
 20
8.8795943223
 30
0.0
 10
15.5955910219
 20
8.8816728759
 30
0.0
 10
15.5994406969
 20
8.8840289069
 30
0.0
 10
15.6033683625
 20
8.8859078005
 30
0.0
 10
15.6073375777
 20
8.8872277488
 30
0.0
 10
15.6102506786
 20
8.8879208016
 30
0.0
 10
15.6131503788
 20
8.8883333381
 30
0.0
 10
15.6160346297
 20
8.888464785
 30
0.0
 10
15.6189009968
 20
8.8883146539
 30
0.0
 10
15.6217470503
 20
8.8878831926
 30
0.0
 10
15.6245704046
 20
8.8871708214
 30
0.0
 10
15.6273688628
 20
8.8861784712
 30
0.0
 10
15.6301405161
 20
8.8849073819
 30
0.0
 10
15.6328835916
 20
8.8833587654
 30
0.0
 10
15.6355966297
 20
8.8815341516
 30
0.0
 10
15.638278196
 20
8.879434939
 30
0.0
 10
15.6409269321
 20
8.8770626217
 30
0.0
 10
15.6435415875
 20
8.8744188209
 30
0.0
 10
15.6461207536
 20
8.8715051037
 30
0.0
 10
15.6486631629
 20
8.8683232807
 30
0.0
 10
15.6511674477
 20
8.8648752101
 30
0.0
 10
15.6536322014
 20
8.8611628872
 30
0.0
 10
15.6560561313
 20
8.8571885188
 30
0.0
 10
15.6584377855
 20
8.8529543839
 30
0.0
 10
15.6607758431
 20
8.8484629821
 30
0.0
 10
15.6630689473
 20
8.84371695
 30
0.0
 10
15.6653157368
 20
8.8387190517
 30
0.0
 10
15.6683017185
 20
8.8315948119
 30
0.0
 10
15.6718948865
 20
8.8220692067
 30
0.0
 10
15.6759277893
 20
8.8098819423
 30
0.0
 10
15.6797461167
 20
8.7967695276
 30
0.0
 10
15.6833406945
 20
8.782763035
 30
0.0
 10
15.6867028317
 20
8.7678954576
 30
0.0
 10
15.6898243961
 20
8.7522020772
 30
0.0
 10
15.6926978158
 20
8.7357201989
 30
0.0
 10
15.6953161145
 20
8.7184890756
 30
0.0
 10
15.6976729255
 20
8.7005497968
 30
0.0
 10
15.6997625317
 20
8.6819451903
 30
0.0
 10
15.7015798654
 20
8.6627197064
 30
0.0
 10
15.7031205132
 20
8.6429192959
 30
0.0
 10
15.7043807262
 20
8.6225912983
 30
0.0
 10
15.7053574366
 20
8.6017843286
 30
0.0
 10
15.7060482658
 20
8.5805481758
 30
0.0
 10
15.7064515606
 20
8.5589336115
 30
0.0
 10
15.7066053069
 20
8.5295069903
 30
0.0
 10
15.7060654095
 20
8.4921618734
 30
0.0
 10
15.7042792231
 20
8.4469398711
 30
0.0
 10
15.701367418
 20
8.4014832694
 30
0.0
 10
15.6973578882
 20
8.3562266318
 30
0.0
 10
15.6922890493
 20
8.3116026189
 30
0.0
 10
15.6871870501
 20
8.2750388502
 30
0.0
 10
15.6826010342
 20
8.2464340135
 30
0.0
 10
15.6789547365
 20
8.2255561738
 30
0.0
 10
15.6750857828
 20
8.2051495755
 30
0.0
 10
15.6710034363
 20
8.1852629907
 30
0.0
 10
15.6667175248
 20
8.1659439785
 30
0.0
 10
15.6622383526
 20
8.1472387203
 30
0.0
 10
15.6575766881
 20
8.1291919184
 30
0.0
 10
15.6527437503
 20
8.1118466697
 30
0.0
 10
15.6477511796
 20
8.0952443564
 30
0.0
 10
15.642610995
 20
8.079424549
 30
0.0
 10
15.6373355669
 20
8.0644249084
 30
0.0
 10
15.6319375747
 20
8.0502810608
 30
0.0
 10
15.6264299995
 20
8.0370265182
 30
0.0
 10
15.6208260226
 20
8.0246924458
 30
0.0
 10
15.6151390441
 20
8.013308046
 30
0.0
 10
15.6102572599
 20
8.0044808279
 30
0.0
 10
15.6063108135
 20
7.9979279576
 30
0.0
 10
15.6033924505
 20
7.9933567294
 30
0.0
 10
15.6004635274
 20
7.9890420439
 30
0.0
 10
15.5975256385
 20
7.9849864485
 30
0.0
 10
15.5945805213
 20
7.981192244
 30
0.0
 10
15.5916297661
 20
7.9776616655
 30
0.0
 10
15.5886753016
 20
7.9743969828
 30
0.0
 10
15.5866596816
 20
7.9723537844
 30
0.0
 10
15.5856512079
 20
7.9713796736
 30
0.0
  0
SPLINE
  5
30F
100
AcDbEntity
  8
0
100
AcDbSpline
 62
7
  6
CONTINUOUS
 70
0
 71
3
 72
64
 73
60
 74
0
 42
0.0000001
 43
0.0000001
 44
0.0000000001
 40
0.0
 40
0.0
 40
0.0
 40
0.0
 40
0.0081438455
 40
0.0169767276
 40
0.0265207066
 40
0.0367894254
 40
0.0477880526
 40
0.0595154831
 40
0.0719655821
 40
0.0851278057
 40
0.0989879334
 40
0.113528634
 40
0.12872976
 40
0.1445686665
 40
0.1610205521
 40
0.1780586121
 40
0.1956541912
 40
0.2137770346
 40
0.2323953972
 40
0.2514761245
 40
0.2908852122
 40
0.3317176045
 40
0.3736711553
 40
0.4164326053
 40
0.4596808687
 40
0.5030901658
 40
0.5463331773
 40
0.5890841685
 40
0.6310221531
 40
0.671834044
 40
0.6917232524
 40
0.7112187809
 40
0.7302851897
 40
0.7488881276
 40
0.7669945159
 40
0.7845726567
 40
0.8015923089
 40
0.8180249004
 40
0.8338437045
 40
0.849023945
 40
0.8635430655
 40
0.8773810396
 40
0.8905205852
 40
0.9029475888
 40
0.9146516944
 40
0.925626845
 40
0.9358721456
 40
0.9453931216
 40
0.9542031674
 40
0.9623256039
 40
0.9697965413
 40
0.9766683135
 40
0.9830135097
 40
0.9860198837
 40
0.9889331497
 40
0.9917695104
 40
0.9945466414
 40
0.9972835079
 40
1.0
 40
1.0
 40
1.0
 40
1.0
 10
15.5503948906
 20
8.0090810248
 30
0.0
 10
15.5521315636
 20
8.0107585222
 30
0.0
 10
15.55559589
 20
8.0144188423
 30
0.0
 10
15.5605738843
 20
8.0205124268
 30
0.0
 10
15.5655304811
 20
8.0274150438
 30
0.0
 10
15.5704560903
 20
8.03511293
 30
0.0
 10
15.5753416303
 20
8.0435917033
 30
0.0
 10
15.5801775295
 20
8.0528349001
 30
0.0
 10
15.5849542221
 20
8.0628244869
 30
0.0
 10
15.5896621778
 20
8.0735407899
 30
0.0
 10
15.594291964
 20
8.0849625755
 30
0.0
 10
15.598834229
 20
8.0970671424
 30
0.0
 10
15.6032798061
 20
8.1098303481
 30
0.0
 10
15.6076197399
 20
8.1232266712
 30
0.0
 10
15.6118452427
 20
8.1372293015
 30
0.0
 10
15.6159477628
 20
8.1518101789
 30
0.0
 10
15.6199190388
 20
8.166940048
 30
0.0
 10
15.6237510261
 20
8.1825885384
 30
0.0
 10
15.627436008
 20
8.1987242547
 30
0.0
 10
15.6321944852
 20
8.2210858469
 30
0.0
 10
15.6377054985
 20
8.2500174257
 30
0.0
 10
15.6435549802
 20
8.2857750938
 30
0.0
 10
15.648662121
 20
8.3226498879
 30
0.0
 10
15.6529856126
 20
8.3603455679
 30
0.0
 10
15.6564904249
 20
8.3985595061
 30
0.0
 10
15.6591482892
 20
8.4369847587
 30
0.0
 10
15.6609378736
 20
8.4753126581
 30
0.0
 10
15.6618449194
 20
8.5132353976
 30
0.0
 10
15.6618623518
 20
8.5504482209
 30
0.0
 10
15.6611298684
 20
8.5808741796
 30
0.0
 10
15.660087351
 20
8.6046291921
 30
0.0
 10
15.6590918984
 20
8.6219311702
 30
0.0
 10
15.6578783331
 20
8.6388369106
 30
0.0
 10
15.6564490707
 20
8.6553124637
 30
0.0
 10
15.6548070388
 20
8.6713247211
 30
0.0
 10
15.6529555954
 20
8.6868415275
 30
0.0
 10
15.6508984882
 20
8.7018317266
 30
0.0
 10
15.6486399024
 20
8.7162652419
 30
0.0
 10
15.64618446
 20
8.7301131431
 30
0.0
 10
15.6435371415
 20
8.7433476937
 30
0.0
 10
15.6407033169
 20
8.7559424254
 30
0.0
 10
15.6376887749
 20
8.7678722143
 30
0.0
 10
15.6344996198
 20
8.7791133202
 30
0.0
 10
15.631142266
 20
8.7896434565
 30
0.0
 10
15.6276234866
 20
8.7994418876
 30
0.0
 10
15.623950269
 20
8.8084894653
 30
0.0
 10
15.6201297245
 20
8.8167686865
 30
0.0
 10
15.6161691028
 20
8.8242638007
 30
0.0
 10
15.6120754733
 20
8.8309608217
 30
0.0
 10
15.6078555774
 20
8.8368473421
 30
0.0
 10
15.6035151183
 20
8.841912619
 30
0.0
 10
15.5990600693
 20
8.8461460607
 30
0.0
 10
15.5951858456
 20
8.8490229091
 30
0.0
 10
15.592047458
 20
8.8508655
 30
0.0
 10
15.5897134421
 20
8.8520081936
 30
0.0
 10
15.587358513
 20
8.8529354283
 30
0.0
 10
15.5849837806
 20
8.8536463549
 30
0.0
 10
15.5825909652
 20
8.8541402662
 30
0.0
 10
15.5809821055
 20
8.8543248685
 30
0.0
 10
15.5801786308
 20
8.8543805966
 30
0.0
  0
SPLINE
  5
310
100
AcDbEntity
  8
0
100
AcDbSpline
 62
7
  6
CONTINUOUS
 70
0
 71
3
 72
17
 73
13
 74
0
 42
0.0000001
 43
0.0000001
 44
0.0000000001
 40
0.0
 40
0.0
 40
0.0
 40
0.0
 40
0.046609081
 40
0.0937127253
 40
0.141789413
 40
0.1912868825
 40
0.2960287272
 40
0.4107435076
 40
0.537380442
 40
0.6772859413
 40
0.8313406129
 40
1.0
 40
1.0
 40
1.0
 40
1.0
 10
15.4105004464
 20
8.6585055888
 30
0.0
 10
15.4107440151
 20
8.6584887027
 30
0.0
 10
15.4112323084
 20
8.6584283977
 30
0.0
 10
15.4119568978
 20
8.6582594556
 30
0.0
 10
15.4126746394
 20
8.6580120466
 30
0.0
 10
15.4136394053
 20
8.65756993
 30
0.0
 10
15.4148322721
 20
8.6568061875
 30
0.0
 10
15.4161944494
 20
8.6556013939
 30
0.0
 10
15.4175143248
 20
8.6540966916
 30
0.0
 10
15.4187899649
 20
8.652296414
 30
0.0
 10
15.4200192283
 20
8.650205284
 30
0.0
 10
15.4207717522
 20
8.6486900204
 30
0.0
 10
15.4211421315
 20
8.6478879124
 30
0.0
  0
SPLINE
  5
311
100
AcDbEntity
  8
0
100
AcDbSpline
 62
7
  6
CONTINUOUS
 70
0
 71
3
 72
17
 73
13
 74
0
 42
0.0000001
 43
0.0000001
 44
0.0000000001
 40
0.0
 40
0.0
 40
0.0
 40
0.0
 40
0.046609081
 40
0.0937127253
 40
0.141789413
 40
0.1912868825
 40
0.2960287272
 40
0.4107435076
 40
0.537380442
 40
0.6772859413
 40
0.8313406129
 40
1.0
 40
1.0
 40
1.0
 40
1.0
 10
15.2559856033
 20
7.5365683672
 30
0.0
 10
15.2562291719
 20
7.536551481
 30
0.0
 10
15.2567174652
 20
7.5364911761
 30
0.0
 10
15.2574420547
 20
7.536322234
 30
0.0
 10
15.2581597962
 20
7.5360748249
 30
0.0
 10
15.2591245621
 20
7.5356327084
 30
0.0
 10
15.260317429
 20
7.5348689659
 30
0.0
 10
15.2616796063
 20
7.5336641723
 30
0.0
 10
15.2629994816
 20
7.53215947
 30
0.0
 10
15.2642751218
 20
7.5303591924
 30
0.0
 10
15.2655043851
 20
7.5282680624
 30
0.0
 10
15.2662569091
 20
7.5267527988
 30
0.0
 10
15.2666272884
 20
7.5259506908
 30
0.0
  0
SPLINE
  5
312
100
AcDbEntity
  8
0
100
AcDbSpline
 62
7
  6
CONTINUOUS
 70
0
 71
3
 72
23
 73
19
 74
0
 42
0.0000001
 43
0.0000001
 44
0.0000000001
 40
0.0
 40
0.0
 40
0.0
 40
0.0
 40
0.075595957
 40
0.1466391305
 40
0.2134651345
 40
0.2765138419
 40
0.3363259052
 40
0.3935462661
 40
0.4489224105
 40
0.5032874244
 40
0.5575253055
 40
0.6125266122
 40
0.6691426489
 40
0.72814827
 40
0.7902188159
 40
0.8559231893
 40
0.9257261654
 40
1.0
 40
1.0
 40
1.0
 40
1.0
 10
15.5856512079
 20
7.9713796736
 30
0.0
 10
15.5843532971
 20
7.9701259879
 30
0.0
 10
15.5817591798
 20
7.967771173
 30
0.0
 10
15.5777445334
 20
7.9646252654
 30
0.0
 10
15.5737345752
 20
7.9619831525
 30
0.0
 10
15.5697330285
 20
7.9598488045
 30
0.0
 10
15.5657432132
 20
7.9582261011
 30
0.0
 10
15.5617692497
 20
7.9571189896
 30
0.0
 10
15.557816335
 20
7.9565314216
 30
0.0
 10
15.5538910724
 20
7.9564661402
 30
0.0
 10
15.5500009934
 20
7.9569241304
 30
0.0
 10
15.546153649
 20
7.9579040312
 30
0.0
 10
15.5423555528
 20
7.9594025048
 30
0.0
 10
15.5386117786
 20
7.9614152416
 30
0.0
 10
15.534926058
 20
7.9639375517
 30
0.0
 10
15.5313014409
 20
7.9669651509
 30
0.0
 10
15.5277407648
 20
7.9704934739
 30
0.0
 10
15.5254841055
 20
7.9730931766
 30
0.0
 10
15.5243654214
 20
7.9744686551
 30
0.0
  0
SPLINE
  5
313
100
AcDbEntity
  8
0
100
AcDbSpline
 62
7
  6
CONTINUOUS
 70
0
 71
3
 72
60
 73
56
 74
0
 42
0.0000001
 43
0.0000001
 44
0.0000000001
 40
0.0
 40
0.0
 40
0.0
 40
0.0
 40
0.0148410034
 40
0.021908576
 40
0.0287036303
 40
0.0351991094
 40
0.0413684101
 40
0.0471875453
 40
0.0526396176
 40
0.0577169146
 40
0.0624241302
 40
0.0667839672
 40
0.0708356684
 40
0.0746390039
 40
0.0782668565
 40
0.0818018656
 40
0.0853244099
 40
0.08890628
 40
0.0926040436
 40
0.0964588218
 40
0.1004974745
 40
0.1047350469
 40
0.1091792673
 40
0.1138314036
 40
0.1186885472
 40
0.1289989184
 40
0.1400605036
 40
0.1518192998
 40
0.1642205102
 40
0.1772185772
 40
0.1907701491
 40
0.2048405353
 40
0.2193973356
 40
0.2498633414
 40
0.2819781428
 40
0.3155798421
 40
0.3505193409
 40
0.3866495113
 40
0.4238180031
 40
0.4618618629
 40
0.5006034904
 40
0.5398491485
 40
0.5793889933
 40
0.6189989336
 40
0.6584444172
 40
0.6974860451
 40
0.7358869119
 40
0.7734212633
 40
0.8098844678
 40
0.8451037559
 40
0.8789486762
 40
0.9113418336
 40
0.9422671285
 40
0.9717789429
 40
1.0
 40
1.0
 40
1.0
 40
1.0
 10
11.9953286693
 20
7.558706899
 30
0.0
 10
11.9964313324
 20
7.5586307367
 30
0.0
 10
11.9980617288
 20
7.5585495666
 30
0.0
 10
12.0001995483
 20
7.5585266419
 30
0.0
 10
12.001715719
 20
7.5585556153
 30
0.0
 10
12.003163236
 20
7.5586335956
 30
0.0
 10
12.0045341336
 20
7.5587635786
 30
0.0
 10
12.0058203744
 20
7.5589486854
 30
0.0
 10
12.0070142767
 20
7.559191589
 30
0.0
 10
12.0081090384
 20
7.5594942839
 30
0.0
 10
12.0090988203
 20
7.5598589884
 30
0.0
 10
12.0099796009
 20
7.5602861667
 30
0.0
 10
12.0107483124
 20
7.5607770147
 30
0.0
 10
12.0114041507
 20
7.5613302186
 30
0.0
 10
12.011946811
 20
7.561944686
 30
0.0
 10
12.0123790423
 20
7.5626165105
 30
0.0
 10
12.0127046913
 20
7.5633419211
 30
0.0
 10
12.0129304433
 20
7.5641164742
 30
0.0
 10
12.0130637175
 20
7.5649367436
 30
0.0
 10
12.0131120106
 20
7.5657999863
 30
0.0
 10
12.0130827412
 20
7.5667039388
 30
0.0
 10
12.0129829337
 20
7.5676467269
 30
0.0
 10
12.0128185055
 20
7.5686265773
 30
0.0
 10
12.0125954028
 20
7.569641902
 30
0.0
 10
12.0122194333
 20
7.571069641
 30
0.0
 10
12.0116236878
 20
7.5729312955
 30
0.0
 10
12.0107640505
 20
7.5752446735
 30
0.0
 10
12.0097704009
 20
7.5776726999
 30
0.0
 10
12.0086658752
 20
7.580210242
 30
0.0
 10
12.007466651
 20
7.5828517247
 30
0.0
 10
12.0061886289
 20
7.5855937391
 30
0.0
 10
12.0048426425
 20
7.5884320585
 30
0.0
 10
12.0029425954
 20
7.5924017664
 30
0.0
 10
12.0004500995
 20
7.5975777559
 30
0.0
 10
11.9973580103
 20
7.6040392698
 30
0.0
 10
11.994157116
 20
7.6108179848
 30
0.0
 10
11.9908741977
 20
7.6178885122
 30
0.0
 10
11.9875286773
 20
7.625222647
 30
0.0
 10
11.984134497
 20
7.6327885102
 30
0.0
 10
11.9807011188
 20
7.6405498063
 30
0.0
 10
11.9772341793
 20
7.6484653306
 30
0.0
 10
11.9737359333
 20
7.65648875
 30
0.0
 10
11.9702054813
 20
7.6645686783
 30
0.0
 10
11.9666388825
 20
7.6726490241
 30
0.0
 10
11.9630292426
 20
7.6806696496
 30
0.0
 10
11.9593668311
 20
7.6885673265
 30
0.0
 10
11.9556392791
 20
7.6962769332
 30
0.0
 10
11.9518318895
 20
7.7037328341
 30
0.0
 10
11.9479281056
 20
7.710870368
 30
0.0
 10
11.9439101148
 20
7.7176272724
 30
0.0
 10
11.9397596336
 20
7.7239450708
 30
0.0
 10
11.9354588967
 20
7.7297699864
 30
0.0
 10
11.9309915126
 20
7.735054279
 30
0.0
 10
11.9263448742
 20
7.7397554586
 30
0.0
 10
11.9230536938
 20
7.7425345703
 30
0.0
 10
11.9213798344
 20
7.7438056551
 30
0.0
  0
SPLINE
  5
314
100
AcDbEntity
  8
0
100
AcDbSpline
 62
7
  6
CONTINUOUS
 70
0
 71
3
 72
22
 73
18
 74
0
 42
0.0000001
 43
0.0000001
 44
0.0000000001
 40
0.0
 40
0.0
 40
0.0
 40
0.0
 40
0.0361697595
 40
0.0727172375
 40
0.110716326
 40
0.1511411164
 40
0.1948211378
 40
0.2424190207
 40
0.2944477077
 40
0.35129389
 40
0.4132441064
 40
0.4804991874
 40
0.5531963238
 40
0.6314245698
 40
0.7152287189
 40
0.8046241461
 40
1.0
 40
1.0
 40
1.0
 40
1.0
 10
10.2240358926
 20
7.8699980468
 30
0.0
 10
10.2237872235
 20
7.8700152687
 30
0.0
 10
10.2232831479
 20
7.8700068667
 30
0.0
 10
10.222530701
 20
7.8698600578
 30
0.0
 10
10.2217859873
 20
7.8695796792
 30
0.0
 10
10.2210496012
 20
7.869166813
 30
0.0
 10
10.2203203361
 20
7.8686228794
 30
0.0
 10
10.2195966389
 20
7.867948473
 30
0.0
 10
10.2188766833
 20
7.8671440723
 30
0.0
 10
10.2181583313
 20
7.8662102847
 30
0.0
 10
10.217439843
 20
7.8651475402
 30
0.0
 10
10.2167189607
 20
7.8639568784
 30
0.0
 10
10.2159934869
 20
7.8626394854
 30
0.0
 10
10.2152612582
 20
7.8611967763
 30
0.0
 10
10.2145195189
 20
7.8596306481
 30
0.0
 10
10.2134837656
 20
7.8573112019
 30
0.0
 10
10.2127325322
 20
7.8554977652
 30
0.0
 10
10.2122296545
 20
7.8542487626
 30
0.0
  0
SPLINE
  5
315
100
AcDbEntity
  8
0
100
AcDbSpline
 62
7
  6
CONTINUOUS
 70
0
 71
3
 72
37
 73
33
 74
0
 42
0.0000001
 43
0.0000001
 44
0.0000000001
 40
0.0
 40
0.0
 40
0.0
 40
0.0
 40
0.0063161087
 40
0.0126711355
 40
0.0191032016
 40
0.0256489955
 40
0.0392093405
 40
0.0536077222
 40
0.0690450716
 40
0.0856787054
 40
0.1036272437
 40
0.1229776515
 40
0.143790856
 40
0.166107173
 40
0.1899504558
 40
0.215330825
 40
0.2422477079
 40
0.2706910456
 40
0.3006431186
 40
0.3320795866
 40
0.3649700333
 40
0.3992792157
 40
0.4349670037
 40
0.4719893032
 40
0.5102982845
 40
0.5498425315
 40
0.5905677667
 40
0.6324165976
 40
0.7192409579
 40
0.8098109877
 40
0.9035854976
 40
1.0
 40
1.0
 40
1.0
 40
1.0
 10
12.4997017445
 20
6.9658719609
 30
0.0
 10
12.4990679255
 20
6.9659159194
 30
0.0
 10
12.497799377
 20
6.9660560126
 30
0.0
 10
12.4959107878
 20
6.9664211002
 30
0.0
 10
12.4940347566
 20
6.9669411629
 30
0.0
 10
12.4915227263
 20
6.9678510625
 30
0.0
 10
12.4884013485
 20
6.9693979424
 30
0.0
 10
12.4847736997
 20
6.9718455118
 30
0.0
 10
12.4812219135
 20
6.9748985423
 30
0.0
 10
12.4777499726
 20
6.9785501396
 30
0.0
 10
12.4743609123
 20
6.9827937951
 30
0.0
 10
12.4710587572
 20
6.9876228401
 30
0.0
 10
12.467847717
 20
6.9930298218
 30
0.0
 10
12.4647323585
 20
6.9990064283
 30
0.0
 10
12.4617174394
 20
7.0055433718
 30
0.0
 10
12.4588075947
 20
7.0126303095
 30
0.0
 10
12.456007582
 20
7.0202559577
 30
0.0
 10
12.453321905
 20
7.0284080263
 30
0.0
 10
12.4507549895
 20
7.037073313
 30
0.0
 10
12.4483111166
 20
7.0462377165
 30
0.0
 10
12.4459942752
 20
7.0558862612
 30
0.0
 10
12.4438083895
 20
7.0660031528
 30
0.0
 10
12.4417570453
 20
7.0765717893
 30
0.0
 10
12.4398436771
 20
7.0875748081
 30
0.0
 10
12.4380714929
 20
7.0989941149
 30
0.0
 10
12.436443404
 20
7.1108109101
 30
0.0
 10
12.434962151
 20
7.1230057526
 30
0.0
 10
12.4331642187
 20
7.1399510807
 30
0.0
 10
12.4313156838
 20
7.1619303754
 30
0.0
 10
12.4297409074
 20
7.1891647243
 30
0.0
 10
12.4287943181
 20
7.2173931083
 30
0.0
 10
12.4285888746
 20
7.2365250892
 30
0.0
 10
12.4285888746
 20
7.2462234879
 30
0.0
  0
SPLINE
  5
316
100
AcDbEntity
  8
0
100
AcDbSpline
 62
7
  6
CONTINUOUS
 70
0
 71
3
 72
37
 73
33
 74
0
 42
0.0000001
 43
0.0000001
 44
0.0000000001
 40
0.0
 40
0.0
 40
0.0
 40
0.0
 40
0.0063161059
 40
0.0126711345
 40
0.0191032071
 40
0.0256489793
 40
0.0392093258
 40
0.0536076384
 40
0.0690450238
 40
0.0856785609
 40
0.1036271091
 40
0.1229774783
 40
0.1437906059
 40
0.1661069816
 40
0.189950131
 40
0.2153305791
 40
0.2422473765
 40
0.2706907154
 40
0.3006428139
 40
0.332079197
 40
0.364969735
 40
0.3992788266
 40
0.4349666807
 40
0.4719889697
 40
0.510297948
 40
0.549842251
 40
0.5905674521
 40
0.632416359
 40
0.7192407328
 40
0.8098108467
 40
0.9035854591
 40
1.0
 40
1.0
 40
1.0
 40
1.0
 10
15.2168515202
 20
6.7774369929
 30
0.0
 10
15.2162177005
 20
6.777480942
 30
0.0
 10
15.2149491473
 20
6.7776210013
 30
0.0
 10
15.2130605566
 20
6.7779860974
 30
0.0
 10
15.2111845309
 20
6.7785061731
 30
0.0
 10
15.2086724765
 20
6.7794160078
 30
0.0
 10
15.2055511224
 20
6.780962922
 30
0.0
 10
15.2019234212
 20
6.7834104097
 30
0.0
 10
15.198371681
 20
6.7864634813
 30
0.0
 10
15.1948996827
 20
6.7901150169
 30
0.0
 10
15.1915106459
 20
6.7943586826
 30
0.0
 10
15.1882084798
 20
6.7991877082
 30
0.0
 10
15.1849974052
 20
6.8045946686
 30
0.0
 10
15.1818820894
 20
6.8105712837
 30
0.0
 10
15.1788671037
 20
6.8171082012
 30
0.0
 10
15.1759573055
 20
6.824195148
 30
0.0
 10
15.1731572512
 20
6.8318207842
 30
0.0
 10
15.1704715766
 20
6.8399728531
 30
0.0
 10
15.1679046708
 20
6.8486381411
 30
0.0
 10
15.165460757
 20
6.8578025428
 30
0.0
 10
15.1631439523
 20
6.8674510931
 30
0.0
 10
15.1609580211
 20
6.8775679873
 30
0.0
 10
15.1589066986
 20
6.8881366307
 30
0.0
 10
15.1569933159
 20
6.8991396582
 30
0.0
 10
15.1552211204
 20
6.9105589742
 30
0.0
 10
15.1535930458
 20
6.9223757798
 30
0.0
 10
15.152111765
 20
6.9345706356
 30
0.0
 10
15.1503138531
 20
6.951515981
 30
0.0
 10
15.1484652954
 20
6.973495303
 30
0.0
 10
15.1468905186
 20
7.0007296872
 30
0.0
 10
15.1459439259
 20
7.0289581091
 30
0.0
 10
15.1457384826
 20
7.0480901147
 30
0.0
 10
15.1457384826
 20
7.0577885225
 30
0.0
  0
SPLINE
  5
317
100
AcDbEntity
  8
0
100
AcDbSpline
 62
7
  6
CONTINUOUS
 70
0
 71
3
 72
15
 73
11
 74
0
 42
0.0000001
 43
0.0000001
 44
0.0000000001
 40
0.0
 40
0.0
 40
0.0
 40
0.0
 40
0.1273482228
 40
0.253860527
 40
0.3795879206
 40
0.5046050801
 40
0.6290174363
 40
0.7529533709
 40
0.8765605784
 40
1.0
 40
1.0
 40
1.0
 40
1.0
 10
9.8140330257
 20
9.082716926
 30
0.0
 10
9.8140330257
 20
9.0870440204
 30
0.0
 10
9.8144461722
 20
9.0956757884
 30
0.0
 10
9.8163145965
 20
9.1084574287
 30
0.0
 10
9.8194127607
 20
9.1209179169
 30
0.0
 10
9.8237126872
 20
9.1329407188
 30
0.0
 10
9.829174897
 20
9.144414968
 30
0.0
 10
9.8357496188
 20
9.1552347121
 30
0.0
 10
9.8433750334
 20
9.1652985688
 30
0.0
 10
9.849116583
 20
9.1714461563
 30
0.0
 10
9.8521333314
 20
9.1743601243
 30
0.0
  0
SPLINE
  5
318
100
AcDbEntity
  8
0
100
AcDbSpline
 62
7
  6
CONTINUOUS
 70
0
 71
3
 72
15
 73
11
 74
0
 42
0.0000001
 43
0.0000001
 44
0.0000000001
 40
0.0
 40
0.0
 40
0.0
 40
0.0
 40
0.1312349889
 40
0.2596566654
 40
0.3857261327
 40
0.5099885781
 40
0.6330067213
 40
0.7553308933
 40
0.877494387
 40
1.0
 40
1.0
 40
1.0
 40
1.0
 10
11.9213798344
 20
7.7438056551
 30
0.0
 10
11.9203719487
 20
7.744571017
 30
0.0
 10
11.9183298048
 20
7.7460235617
 30
0.0
 10
11.9151587368
 20
7.7479733006
 30
0.0
 10
11.9119174918
 20
7.7496638736
 30
0.0
 10
11.9086092333
 20
7.7510927407
 30
0.0
 10
11.9052374084
 20
7.752258349
 30
0.0
 10
11.9018065262
 20
7.7531602305
 30
0.0
 10
11.8983222609
 20
7.7537986381
 30
0.0
 10
11.895973526
 20
7.7540487149
 30
0.0
 10
11.8947949928
 20
7.7541305006
 30
0.0
  0
SPLINE
  5
319
100
AcDbEntity
  8
0
100
AcDbSpline
 62
7
  6
CONTINUOUS
 70
0
 71
3
 72
55
 73
51
 74
0
 42
0.0000001
 43
0.0000001
 44
0.0000000001
 40
0.0
 40
0.0
 40
0.0
 40
0.0
 40
0.0231124612
 40
0.0485965098
 40
0.0763128482
 40
0.106099432
 40
0.1377723151
 40
0.1711342443
 40
0.2059789221
 40
0.2420959689
 40
0.2792756514
 40
0.3173127716
 40
0.3951732341
 40
0.4742459356
 40
0.5533022514
 40
0.6313069471
 40
0.7073357279
 40
0.7443141194
 40
0.7804039168
 40
0.8154071826
 40
0.8324190802
 40
0.8490480474
 40
0.8652360374
 40
0.8809153225
 40
0.8959966475
 40
0.9103721247
 40
0.9239019383
 40
0.9364179764
 40
0.9422336275
 40
0.9477180983
 40
0.9528423202
 40
0.9575782965
 40
0.9618997009
 40
0.9657835177
 40
0.9692154139
 40
0.9721908423
 40
0.974723991
 40
0.9768548737
 40
0.9786629162
 40
0.9794873275
 40
0.9802838876
 40
0.9810746651
 40
0.9818809253
 40
0.9836076374
 40
0.985576859
 40
0.9878424417
 40
0.9904232079
 40
0.9933184768
 40
0.9965165641
 40
1.0
 40
1.0
 40
1.0
 40
1.0
 10
10.2122296545
 20
7.8542487626
 30
0.0
 10
10.2116271308
 20
7.8527522684
 30
0.0
 10
10.2103982951
 20
7.8495904477
 30
0.0
 10
10.2085237556
 20
7.8446046115
 30
0.0
 10
10.206497197
 20
7.8391782431
 30
0.0
 10
10.2042917127
 20
7.8333576008
 30
0.0
 10
10.2018828954
 20
7.8271928504
 30
0.0
 10
10.1992497188
 20
7.8207373811
 30
0.0
 10
10.1963752193
 20
7.8140464931
 30
0.0
 10
10.1932470071
 20
7.8071763137
 30
0.0
 10
10.1898574151
 20
7.8001825137
 30
0.0
 10
10.1849477975
 20
7.7906914683
 30
0.0
 10
10.1781882256
 20
7.7788704812
 30
0.0
 10
10.1691523674
 20
7.7650854287
 30
0.0
 10
10.1592456777
 20
7.7518981563
 30
0.0
 10
10.1486306037
 20
7.7395531743
 30
0.0
 10
10.1392808781
 20
7.7300338866
 30
0.0
 10
10.1316343005
 20
7.7229725414
 30
0.0
 10
10.1259352972
 20
7.7180287316
 30
0.0
 10
10.1211730892
 20
7.714136399
 30
0.0
 10
10.1174035371
 20
7.7111786672
 30
0.0
 10
10.1146412102
 20
7.7090651939
 30
0.0
 10
10.1119309878
 20
7.7070370567
 30
0.0
 10
10.1092895943
 20
7.705097498
 30
0.0
 10
10.1067381363
 20
7.703249362
 30
0.0
 10
10.1043021724
 20
7.7014975822
 30
0.0
 10
10.1020137787
 20
7.6998473002
 30
0.0
 10
10.1002199056
 20
7.6985327126
 30
0.0
 10
10.0988927072
 20
7.697531678
 30
0.0
 10
10.0979862413
 20
7.6968297754
 30
0.0
 10
10.0971507544
 20
7.6961595088
 30
0.0
 10
10.0963930851
 20
7.6955223272
 30
0.0
 10
10.0957198685
 20
7.6949197879
 30
0.0
 10
10.0951375497
 20
7.6943530623
 30
0.0
 10
10.0946514488
 20
7.6938235121
 30
0.0
 10
10.0942660634
 20
7.6933316135
 30
0.0
 10
10.09398436
 20
7.6928770841
 30
0.0
 10
10.0938080389
 20
7.6924585435
 30
0.0
 10
10.0937507619
 20
7.6921265004
 30
0.0
 10
10.0937659182
 20
7.6918866528
 30
0.0
 10
10.0938042164
 20
7.6917219006
 30
0.0
 10
10.0938693636
 20
7.6915671965
 30
0.0
 10
10.0939934841
 20
7.6913701005
 30
0.0
 10
10.0942202171
 20
7.6911465692
 30
0.0
 10
10.0945763646
 20
7.6909271177
 30
0.0
 10
10.0950166584
 20
7.6907433197
 30
0.0
 10
10.0955363248
 20
7.6905923143
 30
0.0
 10
10.096130186
 20
7.6904718219
 30
0.0
 10
10.0967926468
 20
7.6903801237
 30
0.0
 10
10.0972573456
 20
7.6903387557
 30
0.0
 10
10.0974998938
 20
7.6903217771
 30
0.0
  0
SPLINE
  5
31A
100
AcDbEntity
  8
0
100
AcDbSpline
 62
7
  6
CONTINUOUS
 70
0
 71
3
 72
48
 73
44
 74
0
 42
0.0000001
 43
0.0000001
 44
0.0000000001
 40
0.0
 40
0.0
 40
0.0
 40
0.0
 40
0.0187307442
 40
0.0274811819
 40
0.0358540348
 40
0.0515922543
 40
0.0590501304
 40
0.0662930509
 40
0.073374408
 40
0.0803518339
 40
0.0872858199
 40
0.0942380789
 40
0.1012697978
 40
0.1084399083
 40
0.1158037794
 40
0.1234120386
 40
0.139527353
 40
0.1481195329
 40
0.1571056382
 40
0.1665107998
 40
0.176355798
 40
0.1866578406
 40
0.1974310847
 40
0.2086866119
 40
0.2204331738
 40
0.245421363
 40
0.2724304174
 40
0.3014678431
 40
0.3325224189
 40
0.3655673329
 40
0.4005630247
 40
0.4374592653
 40
0.4761962866
 40
0.516706083
 40
0.5589135483
 40
0.602736963
 40
0.6480887008
 40
0.694875973
 40
0.7430011474
 40
0.7923625188
 40
0.8428539166
 40
0.8943656003
 40
1.0
 40
1.0
 40
1.0
 40
1.0
 10
15.2718976274
 20
6.8163852576
 30
0.0
 10
15.2705144649
 20
6.8150980504
 30
0.0
 10
15.2683947817
 20
6.813300582
 30
0.0
 10
15.2654365797
 20
6.8112159956
 30
0.0
 10
15.2626091069
 20
6.8094829309
 30
0.0
 10
15.2597247427
 20
6.8080991609
 30
0.0
 10
15.2568096513
 20
6.8071245191
 30
0.0
 10
15.2546701523
 20
6.8066108976
 30
0.0
 10
15.2525404083
 20
6.8063026808
 30
0.0
 10
15.2504219423
 20
6.8062003099
 30
0.0
 10
15.248316518
 20
6.8063039704
 30
0.0
 10
15.2462259138
 20
6.80661372
 30
0.0
 10
15.2441518634
 20
6.80712913
 30
0.0
 10
15.2420959664
 20
6.8078494744
 30
0.0
 10
15.2400595879
 20
6.8087740924
 30
0.0
 10
15.2373203025
 20
6.8103068229
 30
0.0
 10
15.2346743446
 20
6.8122341787
 30
0.0
 10
15.232133646
 20
6.8144936394
 30
0.0
 10
15.2302117764
 20
6.8164236493
 30
0.0
 10
15.2283160768
 20
6.8185511938
 30
0.0
 10
15.2264471569
 20
6.8208751745
 30
0.0
 10
15.2246060829
 20
6.8233941651
 30
0.0
 10
15.2227939015
 20
6.826106762
 30
0.0
 10
15.2210115147
 20
6.8290113453
 30
0.0
 10
15.2186268447
 20
6.8332252269
 30
0.0
 10
15.2157395436
 20
6.8389755261
 30
0.0
 10
15.2124778801
 20
6.8464745786
 30
0.0
 10
15.2093586567
 20
6.8546916518
 30
0.0
 10
15.2063892128
 20
6.8636076289
 30
0.0
 10
15.2035765185
 20
6.8732019647
 30
0.0
 10
15.2009272797
 20
6.883452234
 30
0.0
 10
15.1984478909
 20
6.8943343994
 30
0.0
 10
15.1961443065
 20
6.9058228118
 30
0.0
 10
15.1940220587
 20
6.9178903222
 30
0.0
 10
15.1920862959
 20
6.9305083703
 30
0.0
 10
15.1903416877
 20
6.9436470469
 30
0.0
 10
15.1887924189
 20
6.9572751712
 30
0.0
 10
15.1874422492
 20
6.9713603809
 30
0.0
 10
15.1862944394
 20
6.9858692407
 30
0.0
 10
15.1853517554
 20
7.0007672304
 30
0.0
 10
15.1846164468
 20
7.0160189215
 30
0.0
 10
15.1839091447
 20
7.0369528143
 30
0.0
 10
15.1837055688
 20
7.0528060925
 30
0.0
 10
15.1837055688
 20
7.0634619138
 30
0.0
  0
SPLINE
  5
31B
100
AcDbEntity
  8
0
100
AcDbSpline
 62
7
  6
CONTINUOUS
 70
0
 71
3
 72
39
 73
35
 74
0
 42
0.0000001
 43
0.0000001
 44
0.0000000001
 40
0.0
 40
0.0
 40
0.0
 40
0.0
 40
0.0299424756
 40
0.0599093253
 40
0.0899243308
 40
0.1200101061
 40
0.1501875593
 40
0.1804754054
 40
0.2108897454
 40
0.2414437198
 40
0.2721472437
 40
0.3030068255
 40
0.3340254745
 40
0.3652026886
 40
0.3965345175
 40
0.4280136976
 40
0.4596298523
 40
0.4913697474
 40
0.5232175981
 40
0.5551554173
 40
0.5871634018
 40
0.6192203434
 40
0.6513040581
 40
0.68339183
 40
0.7154608619
 40
0.7474887274
 40
0.7794538181
 40
0.8113357796
 40
0.8431159521
 40
0.8747776664
 40
0.9063069638
 40
0.937691791
 40
0.9689252156
 40
1.0
 40
1.0
 40
1.0
 40
1.0
 10
12.0999506262
 20
7.0796449466
 30
0.0
 10
12.0976197788
 20
7.0773935109
 30
0.0
 10
12.0927748199
 20
7.0730723215
 30
0.0
 10
12.0850124168
 20
7.0671854817
 30
0.0
 10
12.0767947494
 20
7.0619230234
 30
0.0
 10
12.0681677306
 20
7.0573144702
 30
0.0
 10
12.0591787927
 20
7.0533849966
 30
0.0
 10
12.0498775431
 20
7.0501562032
 30
0.0
 10
12.040315236
 20
7.0476457581
 30
0.0
 10
12.0305445517
 20
7.0458673709
 30
0.0
 10
12.0206192859
 20
7.0448307091
 30
0.0
 10
12.0105940578
 20
7.0445413428
 30
0.0
 10
12.0005240047
 20
7.0450007279
 30
0.0
 10
11.9904644809
 20
7.0462062108
 30
0.0
 10
11.9804707564
 20
7.0481510473
 30
0.0
 10
11.970597718
 20
7.0508244448
 30
0.0
 10
11.9608995722
 20
7.0542116247
 30
0.0
 10
11.9514295526
 20
7.0582939053
 30
0.0
 10
11.942239633
 20
7.0630488068
 30
0.0
 10
11.9333802395
 20
7.0684501628
 30
0.0
 10
11.9248999797
 20
7.0744682739
 30
0.0
 10
11.9168453813
 20
7.0810700732
 30
0.0
 10
11.9092606405
 20
7.0882193049
 30
0.0
 10
11.9021873823
 20
7.0958767224
 30
0.0
 10
11.8956644358
 20
7.1040003001
 30
0.0
 10
11.8897276223
 20
7.1125454615
 30
0.0
 10
11.8844095635
 20
7.1214653208
 30
0.0
 10
11.879739484
 20
7.1307109319
 30
0.0
 10
11.8757430844
 20
7.1402315546
 30
0.0
 10
11.8724423345
 20
7.1499749629
 30
0.0
 10
11.8698555214
 20
7.1598875929
 30
0.0
 10
11.8679967935
 20
7.1699153052
 30
0.0
 10
11.8668766813
 20
7.1800021931
 30
0.0
 10
11.8666257585
 20
7.1867483457
 30
0.0
 10
11.8666257585
 20
7.1901115445
 30
0.0
  0
SPLINE
  5
31C
100
AcDbEntity
  8
0
100
AcDbSpline
 62
7
  6
CONTINUOUS
 70
0
 71
3
 72
39
 73
35
 74
0
 42
0.0000001
 43
0.0000001
 44
0.0000000001
 40
0.0
 40
0.0
 40
0.0
 40
0.0
 40
0.0299424756
 40
0.0599093253
 40
0.0899243308
 40
0.1200101061
 40
0.1501875593
 40
0.1804754054
 40
0.2108897454
 40
0.2414437198
 40
0.2721472437
 40
0.3030068255
 40
0.3340254745
 40
0.3652026886
 40
0.3965345175
 40
0.4280136976
 40
0.4596298523
 40
0.4913697474
 40
0.5232175981
 40
0.5551554173
 40
0.5871634018
 40
0.6192203434
 40
0.6513040581
 40
0.68339183
 40
0.7154608619
 40
0.7474887274
 40
0.7794538181
 40
0.8113357796
 40
0.8431159521
 40
0.8747776664
 40
0.9063069638
 40
0.937691791
 40
0.9689252156
 40
1.0
 40
1.0
 40
1.0
 40
1.0
 10
12.0999506262
 20
8.8299025386
 30
0.0
 10
12.0976197788
 20
8.827651103
 30
0.0
 10
12.0927748199
 20
8.8233299135
 30
0.0
 10
12.0850124168
 20
8.8174430737
 30
0.0
 10
12.0767947494
 20
8.8121806154
 30
0.0
 10
12.0681677306
 20
8.8075720622
 30
0.0
 10
12.0591787927
 20
8.8036425886
 30
0.0
 10
12.0498775431
 20
8.8004137952
 30
0.0
 10
12.040315236
 20
8.7979033501
 30
0.0
 10
12.0305445517
 20
8.7961249629
 30
0.0
 10
12.0206192859
 20
8.7950883012
 30
0.0
 10
12.0105940578
 20
8.7947989349
 30
0.0
 10
12.0005240047
 20
8.79525832
 30
0.0
 10
11.9904644809
 20
8.7964638028
 30
0.0
 10
11.9804707564
 20
8.7984086394
 30
0.0
 10
11.970597718
 20
8.8010820369
 30
0.0
 10
11.9608995722
 20
8.8044692167
 30
0.0
 10
11.9514295526
 20
8.8085514973
 30
0.0
 10
11.942239633
 20
8.8133063988
 30
0.0
 10
11.9333802395
 20
8.8187077548
 30
0.0
 10
11.9248999797
 20
8.824725866
 30
0.0
 10
11.9168453813
 20
8.8313276652
 30
0.0
 10
11.9092606405
 20
8.838476897
 30
0.0
 10
11.9021873823
 20
8.8461343144
 30
0.0
 10
11.8956644358
 20
8.8542578921
 30
0.0
 10
11.8897276223
 20
8.8628030535
 30
0.0
 10
11.8844095635
 20
8.8717229129
 30
0.0
 10
11.879739484
 20
8.8809685239
 30
0.0
 10
11.8757430844
 20
8.8904891466
 30
0.0
 10
11.8724423345
 20
8.9002325549
 30
0.0
 10
11.8698555214
 20
8.9101451849
 30
0.0
 10
11.8679967935
 20
8.9201728972
 30
0.0
 10
11.8668766813
 20
8.9302597851
 30
0.0
 10
11.8666257585
 20
8.9370059377
 30
0.0
 10
11.8666257585
 20
8.9403691365
 30
0.0
  0
SPLINE
  5
31D
100
AcDbEntity
  8
0
100
AcDbSpline
 62
7
  6
CONTINUOUS
 70
0
 71
3
 72
39
 73
35
 74
0
 42
0.0000001
 43
0.0000001
 44
0.0000000001
 40
0.0
 40
0.0
 40
0.0
 40
0.0
 40
0.0299424756
 40
0.0599093253
 40
0.0899243308
 40
0.1200101061
 40
0.1501875593
 40
0.1804754054
 40
0.2108897454
 40
0.2414437198
 40
0.2721472437
 40
0.3030068255
 40
0.3340254745
 40
0.3652026886
 40
0.3965345175
 40
0.4280136976
 40
0.4596298523
 40
0.4913697474
 40
0.5232175981
 40
0.5551554173
 40
0.5871634018
 40
0.6192203434
 40
0.6513040581
 40
0.68339183
 40
0.7154608619
 40
0.7474887274
 40
0.7794538181
 40
0.8113357796
 40
0.8431159521
 40
0.8747776664
 40
0.9063069638
 40
0.937691791
 40
0.9689252156
 40
1.0
 40
1.0
 40
1.0
 40
1.0
 10
10.0473578934
 20
8.9722503281
 30
0.0
 10
10.045027046
 20
8.9699988924
 30
0.0
 10
10.0401820871
 20
8.965677703
 30
0.0
 10
10.0324196841
 20
8.9597908632
 30
0.0
 10
10.0242020166
 20
8.9545284049
 30
0.0
 10
10.0155749978
 20
8.9499198517
 30
0.0
 10
10.0065860599
 20
8.9459903781
 30
0.0
 10
9.9972848103
 20
8.9427615847
 30
0.0
 10
9.9877225032
 20
8.9402511396
 30
0.0
 10
9.9779518189
 20
8.9384727524
 30
0.0
 10
9.9680265531
 20
8.9374360906
 30
0.0
 10
9.958001325
 20
8.9371467243
 30
0.0
 10
9.9479312719
 20
8.9376061094
 30
0.0
 10
9.9378717481
 20
8.9388115923
 30
0.0
 10
9.9278780237
 20
8.9407564289
 30
0.0
 10
9.9180049852
 20
8.9434298263
 30
0.0
 10
9.9083068394
 20
8.9468170062
 30
0.0
 10
9.8988368198
 20
8.9508992868
 30
0.0
 10
9.8896469002
 20
8.9556541883
 30
0.0
 10
9.8807875068
 20
8.9610555443
 30
0.0
 10
9.8723072469
 20
8.9670736555
 30
0.0
 10
9.8642526485
 20
8.9736754547
 30
0.0
 10
9.8566679077
 20
8.9808246865
 30
0.0
 10
9.8495946496
 20
8.9884821039
 30
0.0
 10
9.843071703
 20
8.9966056816
 30
0.0
 10
9.8371348895
 20
9.005150843
 30
0.0
 10
9.8318168307
 20
9.0140707024
 30
0.0
 10
9.8271467512
 20
9.0233163134
 30
0.0
 10
9.8231503516
 20
9.0328369361
 30
0.0
 10
9.8198496017
 20
9.0425803444
 30
0.0
 10
9.8172627886
 20
9.0524929744
 30
0.0
 10
9.8154040607
 20
9.0625206867
 30
0.0
 10
9.8142839485
 20
9.0726075746
 30
0.0
 10
9.8140330257
 20
9.0793537272
 30
0.0
 10
9.8140330257
 20
9.082716926
 30
0.0
  0
SPLINE
  5
31E
100
AcDbEntity
  8
0
100
AcDbSpline
 62
7
  6
CONTINUOUS
 70
0
 71
3
 72
16
 73
12
 74
0
 42
0.0000001
 43
0.0000001
 44
0.0000000001
 40
0.0
 40
0.0
 40
0.0
 40
0.0
 40
0.1504808879
 40
0.2917479231
 40
0.4244948227
 40
0.4879696032
 40
0.5496757772
 40
0.6683416434
 40
0.7818817823
 40
0.8918562909
 40
1.0
 40
1.0
 40
1.0
 40
1.0
 10
13.1385289294
 20
9.8638247296
 30
0.0
 10
13.1395890539
 20
9.8648487313
 30
0.0
 10
13.1417079467
 20
9.866770091
 30
0.0
 10
13.1449887978
 20
9.8693306239
 30
0.0
 10
13.1477601013
 20
9.8711415692
 30
0.0
 10
13.1499699527
 20
9.8723678704
 30
0.0
 10
13.152114709
 20
9.8734206958
 30
0.0
 10
13.1547966229
 20
9.8744844422
 30
0.0
 10
13.1580436309
 20
9.8753483617
 30
0.0
 10
13.1612723143
 20
9.8757796892
 30
0.0
 10
13.1634164203
 20
9.875777266
 30
0.0
 10
13.1644731214
 20
9.8757039785
 30
0.0
  0
SPLINE
  5
31F
100
AcDbEntity
  8
0
100
AcDbSpline
 62
7
  6
CONTINUOUS
 70
0
 71
3
 72
33
 73
29
 74
0
 42
0.0000001
 43
0.0000001
 44
0.0000000001
 40
0.0
 40
0.0
 40
0.0
 40
0.0
 40
0.0760196568
 40
0.153265151
 40
0.2310419758
 40
0.3086475612
 40
0.3853818079
 40
0.4605546617
 40
0.4973455326
 40
0.5334960264
 40
0.5689263344
 40
0.6035588831
 40
0.637318587
 40
0.6701330777
 40
0.7019330548
 40
0.7326527051
 40
0.7622299608
 40
0.7906068841
 40
0.8177302681
 40
0.8435521593
 40
0.8680304369
 40
0.8911297009
 40
0.9128224591
 40
0.933090483
 40
0.9519265251
 40
0.9693369407
 40
0.985346601
 40
1.0
 40
1.0
 40
1.0
 40
1.0
 10
12.4285888746
 20
8.8158530486
 30
0.0
 10
12.4285888746
 20
8.8278392726
 30
0.0
 10
12.4289093962
 20
8.8520060338
 30
0.0
 10
12.4303080402
 20
8.8884117153
 30
0.0
 10
12.4326166665
 20
8.9250217749
 30
0.0
 10
12.4358131033
 20
8.9614841
 30
0.0
 10
12.4398665388
 20
8.9974479655
 30
0.0
 10
12.4439543779
 20
9.0269221274
 30
0.0
 10
12.4476328118
 20
9.0499848113
 30
0.0
 10
12.4505593592
 20
9.0668201876
 30
0.0
 10
12.4536661781
 20
9.0832770426
 30
0.0
 10
12.4569457811
 20
9.0993158064
 30
0.0
 10
12.460390217
 20
9.114897892
 30
0.0
 10
12.463991163
 20
9.1299858216
 30
0.0
 10
12.4677399159
 20
9.14454332
 30
0.0
 10
12.4716273808
 20
9.158535421
 30
0.0
 10
12.475644141
 20
9.1719285363
 30
0.0
 10
12.4797804878
 20
9.1846905377
 30
0.0
 10
12.4840263981
 20
9.1967908688
 30
0.0
 10
12.4883715814
 20
9.2082006267
 30
0.0
 10
12.4928055416
 20
9.2188926212
 30
0.0
 10
12.4973176163
 20
9.2288414721
 30
0.0
 10
12.5018969531
 20
9.2380237346
 30
0.0
 10
12.5065326989
 20
9.2464179672
 30
0.0
 10
12.511213975
 20
9.2540046697
 30
0.0
 10
12.5159303875
 20
9.2607669744
 30
0.0
 10
12.5206711031
 20
9.2666889105
 30
0.0
 10
12.5239841413
 20
9.2702200121
 30
0.0
 10
12.5256459364
 20
9.2718251831
 30
0.0
  0
SPLINE
  5
320
100
AcDbEntity
  8
0
100
AcDbSpline
 62
7
  6
CONTINUOUS
 70
0
 71
3
 72
39
 73
35
 74
0
 42
0.0000001
 43
0.0000001
 44
0.0000000001
 40
0.0
 40
0.0
 40
0.0
 40
0.0
 40
0.0299424756
 40
0.0599093253
 40
0.0899243308
 40
0.1200101061
 40
0.1501875593
 40
0.1804754054
 40
0.2108897454
 40
0.2414437198
 40
0.2721472437
 40
0.3030068255
 40
0.3340254745
 40
0.3652026886
 40
0.3965345175
 40
0.4280136976
 40
0.4596298523
 40
0.4913697474
 40
0.5232175981
 40
0.5551554173
 40
0.5871634018
 40
0.6192203434
 40
0.6513040581
 40
0.68339183
 40
0.7154608619
 40
0.7474887274
 40
0.7794538181
 40
0.8113357796
 40
0.8431159521
 40
0.8747776664
 40
0.9063069638
 40
0.937691791
 40
0.9689252156
 40
1.0
 40
1.0
 40
1.0
 40
1.0
 10
10.0473578934
 20
7.221992736
 30
0.0
 10
10.045027046
 20
7.2197413004
 30
0.0
 10
10.0401820871
 20
7.215420111
 30
0.0
 10
10.0324196841
 20
7.2095332712
 30
0.0
 10
10.0242020166
 20
7.2042708129
 30
0.0
 10
10.0155749978
 20
7.1996622597
 30
0.0
 10
10.0065860599
 20
7.1957327861
 30
0.0
 10
9.9972848103
 20
7.1925039927
 30
0.0
 10
9.9877225032
 20
7.1899935476
 30
0.0
 10
9.9779518189
 20
7.1882151604
 30
0.0
 10
9.9680265531
 20
7.1871784986
 30
0.0
 10
9.958001325
 20
7.1868891323
 30
0.0
 10
9.9479312719
 20
7.1873485174
 30
0.0
 10
9.9378717481
 20
7.1885540003
 30
0.0
 10
9.9278780237
 20
7.1904988368
 30
0.0
 10
9.9180049852
 20
7.1931722343
 30
0.0
 10
9.9083068394
 20
7.1965594142
 30
0.0
 10
9.8988368198
 20
7.2006416948
 30
0.0
 10
9.8896469002
 20
7.2053965963
 30
0.0
 10
9.8807875068
 20
7.2107979523
 30
0.0
 10
9.8723072469
 20
7.2168160634
 30
0.0
 10
9.8642526485
 20
7.2234178627
 30
0.0
 10
9.8566679077
 20
7.2305670944
 30
0.0
 10
9.8495946496
 20
7.2382245119
 30
0.0
 10
9.843071703
 20
7.2463480896
 30
0.0
 10
9.8371348895
 20
7.254893251
 30
0.0
 10
9.8318168307
 20
7.2638131103
 30
0.0
 10
9.8271467512
 20
7.2730587214
 30
0.0
 10
9.8231503516
 20
7.2825793441
 30
0.0
 10
9.8198496017
 20
7.2923227524
 30
0.0
 10
9.8172627886
 20
7.3022353824
 30
0.0
 10
9.8154040607
 20
7.3122630947
 30
0.0
 10
9.8142839485
 20
7.3223499826
 30
0.0
 10
9.8140330257
 20
7.3290961352
 30
0.0
 10
9.8140330257
 20
7.332459334
 30
0.0
  0
ELLIPSE
  5
321
100
AcDbEntity
  8
0
100
AcDbEllipse
 62
7
  6
CONTINUOUS
 10
11.8947456557
 20
7.7142836107
 30
0.0
 11
0.1817096586
 21
-0.1067323412
 31
0.0
 40
0.8365127553
 41
0.0
 42
6.2831853072
  0
ELLIPSE
  5
322
100
AcDbEntity
  8
0
100
AcDbEllipse
 62
7
  6
CONTINUOUS
 10
10.0827025467
 20
7.8399492272
 30
0.0
 11
0.2024300794
 21
0.0038081928
 31
0.0
 40
0.9062571834
 41
0.0
 42
6.2831853072
  0
ELLIPSE
  5
323
100
AcDbEntity
  8
0
100
AcDbEllipse
 62
7
  6
CONTINUOUS
 10
10.596075247
 20
8.2265477882
 30
0.0
 11
-0.0591590593
 21
0.1914788399
 31
0.0
 40
0.8939715031
 41
0.0
 42
6.2831853072
  0
ELLIPSE
  5
324
100
AcDbEntity
  8
0
100
AcDbEllipse
 62
7
  6
CONTINUOUS
 10
11.3813729553
 20
8.1720872072
 30
0.0
 11
-0.0591590593
 21
0.1914788399
 31
0.0
 40
0.8939715031
 41
0.0
 42
6.2831853072
  0
ELLIPSE
  5
325
100
AcDbEntity
  8
0
100
AcDbEllipse
 62
7
  6
CONTINUOUS
 10
10.9892071443
 20
8.7732141247
 30
0.0
 11
-0.115724158
 21
0.1494914116
 31
0.0
 40
0.9319380116
 41
0.0
 42
6.2831853072
  0
ENDSEC
  0
SECTION
  2
OBJECTS
  0
DICTIONARY
  5
C
100
AcDbDictionary
280
0
281
1
  3
ACAD_GROUP
350
D
  3
ACAD_MLINESTYLE
350
17
  3
ACAD_LAYOUT
350
1A
  3
ACAD_PLOTSETTINGS
350
19
  3
ACAD_PLOTSTYLENAME
350
E
  3
ACAD_IMAGE_DICT
350
       327
  3
ACAD_IMAGE_VARS
350
       328
  3
ACAD_TABLESTYLE
350
       329
  0
IMAGEDEF_REACTOR
  5
326
100
AcDbRasterImageDefReactor
 90
2
330
275
  0
DICTIONARY
  5
D
102
{ACAD_REACTORS
330
C
102
}
100
AcDbDictionary
280
0
281
1
  0
ACDBDICTIONARYWDFLT
  5
E
102
{ACAD_REACTORS
330
C
102
}
100
AcDbDictionary
281
1
  3
Normal
350
F
100
AcDbDictionaryWithDefault
340
F
  0
DICTIONARY
  5
327
330
C
100
AcDbDictionary
281
1
  3
U6S_assy_2_img_1
350
       32C
  0
RASTERVARIABLES
  5
328
330
C
100
AcDbRasterVariables
 90
0
 70
0
 71
1
 72
5
  0
DICTIONARY
  5
17
102
{ACAD_REACTORS
330
C
102
}
100
AcDbDictionary
280
0
281
1
  3
Standard
350
18
  0
DICTIONARY
  5
329
330
C
100
AcDbDictionary
281
1
  3
Standard
350
       32D
  3
Standard1
350
       32E
  0
DICTIONARY
  5
19
102
{ACAD_REACTORS
330
C
102
}
100
AcDbDictionary
281
1
  0
DICTIONARY
  5
1A
102
{ACAD_REACTORS
330
C
102
}
100
AcDbDictionary
281
1
  3
Model
350
32A
  3
Layout1
350
32B
  0
ACDBPLACEHOLDER
  5
F
102
{ACAD_REACTORS
330
E
102
}
  0
MLINESTYLE
  5
18
102
{ACAD_REACTORS
330
17
102
}
100
AcDbMlineStyle
  2
STANDARD
 70
0
  3

 62
256
 51
90.0
 52
90.0
 71
2
 49
0.5
 62
256
  6
BYLAYER
 49
-0.5
 62
256
  6
BYLAYER
  0
LAYOUT
  5
32A
102
{ACAD_REACTORS
330
1A
102
}
100
AcDbPlotSettings
  1

  2
none_device
  4
ANSI_C_(22.00_x_17.00_Inches)
  6

 40
0.0
 41
0.0
 42
0.0
 43
0.0
 44
558.8
 45
431.8
 46
0.0
 47
0.0
 48
0.0
 49
0.0
140
0.0
141
0.0
142
1.0
143
1.0
 70
1024
 72
0
 73
0
 74
0
  7

 75
0
147
1.0
148
0.0
149
0.0
100
AcDbLayout
  1
Model
 70
0
 71
0
 10
0.0
 20
0.0
 11
22.0
 21
17.0
 12
0.0
 22
0.0
 32
0.0
 14
0.0
 24
0.0
 34
0.0
 15
0.0
 25
0.0
 35
0.0
146
0.0
 13
0.0
 23
0.0
 33
0.0
 16
1.0
 26
0.0
 36
0.0
 17
0.0
 27
1.0
 37
0.0
 76
0
330
20F
345
0
346
0
  0
LAYOUT
  5
32B
102
{ACAD_REACTORS
330
1A
102
}
100
AcDbPlotSettings
  1

  2
none_device
  4
ANSI_C_(22.00_x_17.00_Inches)
  6

 40
0.0
 41
0.0
 42
0.0
 43
0.0
 44
558.8
 45
431.8
 46
0.0
 47
0.0
 48
0.0
 49
0.0
140
0.0
141
0.0
142
1.0
143
1.0
 70
0
 72
0
 73
0
 74
0
  7

 75
0
147
1.0
148
0.0
149
0.0
100
AcDbLayout
  1
Layout1
 70
0
 71
1
 10
0.0
 20
0.0
 11
22.0
 21
17.0
 12
0.0
 22
0.0
 32
0.0
 14
0.0
 24
0.0
 34
0.0
 15
0.0
 25
0.0
 35
0.0
146
0.0
 13
0.0
 23
0.0
 33
0.0
 16
1.0
 26
0.0
 36
0.0
 17
0.0
 27
1.0
 37
0.0
 76
0
330
210
345
0
346
0
  0
IMAGEDEF
  5
32C
102
{ACAD_REACTORS
330
327
330
326
102
}
100
AcDbRasterImageDef
 90
0
  1
U6S_assy_2_img_1.png
 10
369.0
 20
92.0
 11
0.0066666667
 21
0.0066666667
280
1
281
0
  0
TABLESTYLE
  5
32D
102
{ACAD_REACTORS
330
329
330
278
102
}
330
329
100
AcDbTableStyle
  3
Standard
 70
0
 71
0
 40
0.06
 41
0.06
280
1
281
1
  7
Standard
140
0.18
170
1
 62
0
 63
7
283
0
  7
Standard
140
0.18
170
1
 62
0
 63
7
283
0
  7
Standard
140
0.18
170
1
 62
0
 63
7
283
0
  0
TABLESTYLE
  5
32E
102
{ACAD_REACTORS
330
329
330
277
102
}
330
329
100
AcDbTableStyle
  3
Standard1
 70
1
 71
0
 40
0.06
 41
0.06
280
1
281
1
  7
Standard
140
0.18
170
1
 62
0
 63
7
283
0
  7
Standard
140
0.18
170
1
 62
0
 63
7
283
0
  7
Standard
140
0.18
170
1
 62
0
 63
7
283
0
  0
ENDSEC
  0
EOF
