999
DXF file: U4H_assy_2.dxf
999
Pro/ENGINEER 2014200 by Parametric Technology Corporation
  0
SECTION
  2
HEADER
  9
$ACADVER
  1
AC1021
  9
$DWGCODEPAGE
  3
ANSI_1252
  9
$EXTMAX
 10
22.0
 20
17.0
 30
0.0
  9
$EXTMIN
 10
0.0
 20
0.0
 30
0.0
  9
$LIMMIN
 10
0.0
 20
0.0
  9
$LIMMAX
 10
22.0
 20
17.0
  9
$VIEWCTR
 10
11.0
 20
8.5
  9
$VIEWSIZE
 40
17.0
  9
$CLAYER
  8
0
  9
$LTSCALE
 40
1.21
  9
$CELTYPE
  6
BYLAYER
  9
$DIMSCALE
 40
1.0
  9
$DIMASZ
 40
0.1875
  9
$DIMEXO
 40
0.0625
  9
$DIMDLI
 40
0.836
  9
$DIMEXE
 40
0.125
  9
$DIMCEN
 40
0.198
  9
$DIMLFAC
 40
1.0
  9
$DIMBLK
  1
_FILLED
  9
$DIMTXT
 40
0.1
  9
$DIMTOL
 70
0
  9
$DIMLIM
 70
0
  9
$DIMTFAC
 40
1.0
  9
$DIMGAP
 40
0.09
  9
$DIMDSEP
 70
46
  9
$AUNITS
 70
0
  9
$PDMODE
 70
3
  9
$PDSIZE
 40
0.3125
  9
$HANDSEED
  5
3A7
  9
$TILEMODE
 70
1
  9
$MEASUREMENT
 70
0
  9
$INSUNITS
 70
1
  0
ENDSEC
  0
SECTION
  2
CLASSES
  0
CLASS
  1
ACDBDICTIONARYWDFLT
  2
AcDbDictionaryWithDefault
  3
AutoCAD 2000
 90
0
 91
1
280
0
281
0
  0
CLASS
  1
ACDBPLACEHOLDER
  2
AcDbPlaceHolder
  3
AutoCAD 2000
 90
0
 91
1
280
0
281
0
  0
CLASS
  1
LAYOUT
  2
AcDbLayout
  3
AutoCAD 2000
 90
0
 91
0
280
0
281
0
  0
CLASS
  1
RASTERVARIABLES
  2
AcDbRasterVariables
  3
ISM
 90
0
 91
1
280
0
281
0
  0
CLASS
  1
IMAGEDEF
  2
AcDbRasterImageDef
  3
ISM
 90
0
 91
1
280
0
281
0
  0
CLASS
  1
IMAGEDEF_REACTOR
  2
AcDbRasterImageDefReactor
  3
ISM
 90
0
 91
1
280
0
281
0
  0
CLASS
  1
IMAGE
  2
AcDbRasterImage
  3
ISM
 90
127
 91
1
280
0
281
1
  0
CLASS
  1
TABLESTYLE
  2
AcDbTableStyle
  3
ObjectDBX Classes
 90
2047
 91
1
280
0
281
0
  0
CLASS
  1
ACAD_TABLE
  2
AcDbTable
  3
ObjectDBX Classes
 90
1025
 91
3
280
0
281
1
  0
ENDSEC
  0
SECTION
  2
TABLES
  0
TABLE
  2
VPORT
  5
8
100
AcDbSymbolTable
 70
2
  0
VPORT
  5
1F4
100
AcDbSymbolTableRecord
100
AcDbViewportTableRecord
  2
*ACTIVE
 70
0
 10
0.0
 20
0.0
 11
1.0
 21
1.0
 12
11.0
 22
8.5
 13
0.0
 23
0.0
 14
1.0
 24
1.0
 15
0.0
 25
0.0
 16
0.0
 26
0.0
 36
1.0
 17
0.0
 27
0.0
 37
0.0
 40
17.0
 41
1.2941176471
 42
50.0
 43
0.0
 44
0.0
 50
0.0
 51
0.0
 71
0
 72
100
 73
1
 74
1
 75
0
 76
0
 77
0
 78
0
  0
ENDTAB
  0
TABLE
  2
LTYPE
  5
5
100
AcDbSymbolTable
 70
6
  0
LTYPE
  5
14
100
AcDbSymbolTableRecord
100
AcDbLinetypeTableRecord
  2
BYBLOCK
 70
0
  3

 72
65
 73
0
 40
0.0
  0
LTYPE
  5
15
100
AcDbSymbolTableRecord
100
AcDbLinetypeTableRecord
  2
BYLAYER
 70
0
  3

 72
65
 73
0
 40
0.0
  0
LTYPE
  5
16
100
AcDbSymbolTableRecord
100
AcDbLinetypeTableRecord
  2
CONTINUOUS
 70
64
  3
Solid line
 72
65
 73
0
 40
0.0
  0
LTYPE
  5
1F5
100
AcDbSymbolTableRecord
100
AcDbLinetypeTableRecord
  2
CENTER
 70
64
  3
____ _ ____ _ ____ _ ____ _ ____ _ ____ _ ____
 72
65
 73
4
 40
0.6
 49
0.375
 74
0
 49
-0.075
 74
0
 49
0.075
 74
0
 49
-0.075
 74
0
  0
LTYPE
  5
1F6
100
AcDbSymbolTableRecord
100
AcDbLinetypeTableRecord
  2
HIDDEN
 70
64
  3
- - - - - - - - - - - - - - - - - - - -
 72
65
 73
2
 40
0.2
 49
0.1
 74
0
 49
-0.1
 74
0
  0
LTYPE
  5
1F7
100
AcDbSymbolTableRecord
100
AcDbLinetypeTableRecord
  2
PHANTOM
 70
64
  3
_____ _ _ _____ _ _ _____ _ _ _____
 72
65
 73
6
 40
0.8
 49
0.45
 74
0
 49
-0.05
 74
0
 49
0.1
 74
0
 49
-0.05
 74
0
 49
0.1
 74
0
 49
-0.05
 74
0
  0
LTYPE
  5
1F8
100
AcDbSymbolTableRecord
100
AcDbLinetypeTableRecord
  2
DOT
 70
64
  3
. . . . . . . . . . . . . . . . . . . .
 72
65
 73
2
 40
0.2
 49
0.1
 74
0
 49
-0.1
 74
0
  0
LTYPE
  5
1F9
100
AcDbSymbolTableRecord
100
AcDbLinetypeTableRecord
  2
DASHED
 70
64
  3
- - - - - - - - - - - - - - - - - - - -
 72
65
 73
2
 40
0.2
 49
0.1
 74
0
 49
-0.1
 74
0
  0
ENDTAB
  0
TABLE
  2
LAYER
  5
2
100
AcDbSymbolTable
 70
36
  0
LAYER
  5
10
100
AcDbSymbolTableRecord
100
AcDbLayerTableRecord
  2
0
 70
0
 62
7
  6
CONTINUOUS
370
-3
390
F
  0
LAYER
  5
1FA
100
AcDbSymbolTableRecord
100
AcDbLayerTableRecord
  2
DEFAULT_1
 70
0
 62
7
  6
CENTER
370
-3
390
F
  0
LAYER
  5
1FB
100
AcDbSymbolTableRecord
100
AcDbLayerTableRecord
  2
DEFAULT_2
 70
0
 62
8
  6
HIDDEN
370
-3
390
F
  0
LAYER
  5
1FC
100
AcDbSymbolTableRecord
100
AcDbLayerTableRecord
  2
DEFAULT_3
 70
0
 62
7
  6
PHANTOM
370
-3
390
F
  0
LAYER
  5
1FD
100
AcDbSymbolTableRecord
100
AcDbLayerTableRecord
  2
01___PRT_ALL_DTM_PLN
 70
0
 62
7
  6
CONTINUOUS
370
-3
390
F
  0
LAYER
  5
1FE
100
AcDbSymbolTableRecord
100
AcDbLayerTableRecord
  2
01___PRT_DEF_DTM_PLN
 70
0
 62
7
  6
CONTINUOUS
370
-3
390
F
  0
LAYER
  5
1FF
100
AcDbSymbolTableRecord
100
AcDbLayerTableRecord
  2
02___PRT_ALL_AXES
 70
0
 62
7
  6
CONTINUOUS
370
-3
390
F
  0
LAYER
  5
200
100
AcDbSymbolTableRecord
100
AcDbLayerTableRecord
  2
03___PRT_ALL_CURVES
 70
0
 62
7
  6
CONTINUOUS
370
-3
390
F
  0
LAYER
  5
201
100
AcDbSymbolTableRecord
100
AcDbLayerTableRecord
  2
04___PRT_ALL_DTM_PNT
 70
0
 62
7
  6
CONTINUOUS
370
-3
390
F
  0
LAYER
  5
202
100
AcDbSymbolTableRecord
100
AcDbLayerTableRecord
  2
05___PRT_ALL_DTM_CSYS
 70
0
 62
7
  6
CONTINUOUS
370
-3
390
F
  0
LAYER
  5
203
100
AcDbSymbolTableRecord
100
AcDbLayerTableRecord
  2
05___PRT_DEF_DTM_CSYS
 70
0
 62
7
  6
CONTINUOUS
370
-3
390
F
  0
LAYER
  5
204
100
AcDbSymbolTableRecord
100
AcDbLayerTableRecord
  2
06___PRT_ALL_SURFS
 70
0
 62
7
  6
CONTINUOUS
370
-3
390
F
  0
LAYER
  5
205
100
AcDbSymbolTableRecord
100
AcDbLayerTableRecord
  2
DATUM_PLANES
 70
0
 62
7
  6
CONTINUOUS
370
-3
390
F
  0
LAYER
  5
206
100
AcDbSymbolTableRecord
100
AcDbLayerTableRecord
  2
PORT_AREAS
 70
0
 62
7
  6
CONTINUOUS
370
-3
390
F
  0
LAYER
  5
207
100
AcDbSymbolTableRecord
100
AcDbLayerTableRecord
  2
SUNNBOMCOSMETIC
 70
0
 62
7
  6
CONTINUOUS
370
-3
390
F
  0
LAYER
  5
208
100
AcDbSymbolTableRecord
100
AcDbLayerTableRecord
  2
SUNNBOMSTAMPING
 70
0
 62
7
  6
CONTINUOUS
370
-3
390
F
  0
LAYER
  5
209
100
AcDbSymbolTableRecord
100
AcDbLayerTableRecord
  2
THREADS
 70
0
 62
7
  6
CONTINUOUS
370
-3
390
F
  0
ENDTAB
  0
TABLE
  2
STYLE
  5
3
100
AcDbSymbolTable
 70
1
  0
STYLE
  5
11
100
AcDbSymbolTableRecord
100
AcDbTextStyleTableRecord
  2
STANDARD
 70
0
 40
0.0
 41
0.8
 50
0.0
 71
0
 42
0.2
  3
txt
  4

  0
STYLE
  5
20A
100
AcDbSymbolTableRecord
100
AcDbTextStyleTableRecord
  2
TEXTSTYLE_1
 70
0
 40
0.0
 41
0.8
 50
0.0
 71
0
 42
0.2
  3
gdt
  4

  0
ENDTAB
  0
TABLE
  2
VIEW
  5
6
100
AcDbSymbolTable
 70
0
  0
ENDTAB
  0
TABLE
  2
UCS
  5
7
100
AcDbSymbolTable
 70
0
  0
ENDTAB
  0
TABLE
  2
APPID
  5
9
100
AcDbSymbolTable
 70
1
  0
APPID
  5
20B
100
AcDbSymbolTableRecord
100
AcDbRegAppTableRecord
  2
ACAD
 70
0
  0
ENDTAB
  0
TABLE
  2
BLOCK_RECORD
  5
1
100
AcDbSymbolTable
 70
0
  0
BLOCK_RECORD
  5
20C
100
AcDbSymbolTableRecord
100
AcDbBlockTableRecord
  2
*Model_Space
  0
BLOCK_RECORD
  5
20D
100
AcDbSymbolTableRecord
100
AcDbBlockTableRecord
  2
*Paper_Space
  0
BLOCK_RECORD
  5
20E
100
AcDbSymbolTableRecord
100
AcDbBlockTableRecord
  2
SUN_FIRST_THIRD_ANGLE_BL0
  0
BLOCK_RECORD
  5
20F
100
AcDbSymbolTableRecord
100
AcDbBlockTableRecord
  2
*T1
  0
BLOCK_RECORD
  5
210
100
AcDbSymbolTableRecord
100
AcDbBlockTableRecord
  2
*T2
  0
BLOCK_RECORD
  5
211
100
AcDbSymbolTableRecord
100
AcDbBlockTableRecord
  2
*T3
  0
ENDTAB
  0
TABLE
  2
DIMSTYLE
  5
A
100
AcDbSymbolTable
 70
1
100
AcDbDimStyleTable
 71
0
  0
DIMSTYLE
105
212
100
AcDbSymbolTableRecord
100
AcDbDimStyleTableRecord
  2
STANDARD
 70
0
  3

  4

 40
1.0
 41
0.1875
 42
0.0625
 43
0.38
 44
0.125
 45
0.0
 46
0.0
 47
0.001
 48
0.001
140
0.1
141
0.09
142
0.0
143
25.4
144
1.0
145
0.0
146
1.0
147
0.09
 71
0.0
 72
0.0
 73
1
 74
1
 75
0
 76
0
 77
0
 78
4
170
0
171
2
172
0
173
0
174
0
175
0
176
0
177
0
178
0
270
2
271
3
272
3
273
2
274
2
275
0
280
0
281
0
282
0
283
1
284
4
285
0
286
0
287
3
288
0
340
11
278
46
  0
ENDTAB
  0
ENDSEC
  0
SECTION
  2
BLOCKS
  0
BLOCK
  5
20
100
AcDbEntity
  8
0
100
AcDbBlockBegin
  2
*Model_Space
 70
0
 10
0.0
 20
0.0
 30
0.0
  3
*Model_Space
  1

  0
ENDBLK
  5
21
100
AcDbEntity
  8
0
100
AcDbBlockEnd
  0
BLOCK
  5
1C
100
AcDbEntity
  8
0
100
AcDbBlockBegin
  2
*Paper_Space
 70
0
 10
0.0
 20
0.0
 30
0.0
  3
*Paper_Space
  1

  0
ENDBLK
  5
1D
100
AcDbEntity
  8
0
100
AcDbBlockEnd
  0
BLOCK
  5
213
100
AcDbEntity
  8
0
100
AcDbBlockBegin
 62
2
  6
CONTINUOUS
  2
SUN_FIRST_THIRD_ANGLE_BL0
 70
64
 10
20.4816717061
 20
1.2289683772
  3
SUN_FIRST_THIRD_ANGLE_BL0
  1

  0
TEXT
  5
214
100
AcDbEntity
  8
0
100
AcDbText
 62
2
  6
CONTINUOUS
 10
19.4750896608
 20
1.4136269581
  7
STANDARD
 40
0.08
  1
FIRST ANGLE
 41
0.8
 72
0
100
AcDbText
  0
TEXT
  5
215
100
AcDbEntity
  8
0
100
AcDbText
 62
2
  6
CONTINUOUS
 10
20.7842537513
 20
1.4047600029
  7
STANDARD
 40
0.08
  1
THIRD ANGLE
 41
0.8
 72
0
100
AcDbText
  0
LINE
  5
216
100
AcDbEntity
  8
0
100
AcDbLine
 62
7
  6
CONTINUOUS
 10
19.4767170086
 20
1.1727031207
 11
19.6334271527
 21
1.1717972817
  0
LINE
  5
217
100
AcDbEntity
  8
0
100
AcDbLine
 62
7
  6
CONTINUOUS
 10
19.6596964832
 20
1.1717972817
 11
19.6950230232
 21
1.171593082
  0
LINE
  5
218
100
AcDbEntity
  8
0
100
AcDbLine
 62
7
  6
CONTINUOUS
 10
19.7194818561
 20
1.1708914427
 11
19.8852396156
 21
1.1699333054
  0
LINE
  5
219
100
AcDbEntity
  8
0
100
AcDbLine
 62
7
  6
CONTINUOUS
 10
19.4758111696
 20
1.2723454088
 11
19.88525039
 21
1.3511534004
  0
LINE
  5
21A
100
AcDbEntity
  8
0
100
AcDbLine
 62
7
  6
CONTINUOUS
 10
19.88525039
 20
1.3511534004
 11
19.8831348489
 21
0.9851647912
  0
LINE
  5
21B
100
AcDbEntity
  8
0
100
AcDbLine
 62
7
  6
CONTINUOUS
 10
19.8831348489
 20
0.9851647912
 11
19.4767170086
 21
1.0658141206
  0
LINE
  5
21C
100
AcDbEntity
  8
0
100
AcDbLine
 62
7
  6
CONTINUOUS
 10
19.4767170086
 20
1.0658141206
 11
19.4779056764
 21
1.2714536432
  0
CIRCLE
  5
21D
100
AcDbEntity
  8
0
100
AcDbCircle
 62
7
  6
CONTINUOUS
 10
20.2068232291
 20
1.1717972817
 40
0.175742101
  0
CIRCLE
  5
21E
100
AcDbEntity
  8
0
100
AcDbCircle
 62
7
  6
CONTINUOUS
 10
20.2068232291
 20
1.1717972817
 40
0.1005522074
  0
LINE
  5
21F
100
AcDbEntity
  8
0
100
AcDbLine
 62
7
  6
CONTINUOUS
 10
20.2077290681
 20
1.3756110529
 11
20.2071171714
 21
1.2379342989
  0
LINE
  5
220
100
AcDbEntity
  8
0
100
AcDbLine
 62
7
  6
CONTINUOUS
 10
20.2077290681
 20
1.2016899681
 11
20.2074674401
 21
1.1428236749
  0
LINE
  5
221
100
AcDbEntity
  8
0
100
AcDbLine
 62
7
  6
CONTINUOUS
 10
20.208634907
 20
1.101141841
 11
20.2080230104
 21
0.963465087
  0
LINE
  5
222
100
AcDbEntity
  8
0
100
AcDbLine
 62
7
  6
CONTINUOUS
 10
20.0066328138
 20
1.1745147986
 11
20.1443095678
 21
1.1739029019
  0
LINE
  5
223
100
AcDbEntity
  8
0
100
AcDbLine
 62
7
  6
CONTINUOUS
 10
20.1832714155
 20
1.1727031207
 11
20.238153505
 21
1.172335442
  0
LINE
  5
224
100
AcDbEntity
  8
0
100
AcDbLine
 62
7
  6
CONTINUOUS
 10
20.2756669918
 20
1.1717972817
 11
20.407916871
 21
1.1712095044
  0
CIRCLE
  5
225
100
AcDbEntity
  8
0
100
AcDbCircle
 62
7
  6
CONTINUOUS
 10
20.7509457401
 20
1.1693297793
 40
0.1722024983
  0
CIRCLE
  5
226
100
AcDbEntity
  8
0
100
AcDbCircle
 62
7
  6
CONTINUOUS
 10
20.7509457401
 20
1.1693297793
 40
0.0985164967
  0
LINE
  5
227
100
AcDbEntity
  8
0
100
AcDbLine
 62
7
  6
CONTINUOUS
 10
20.7169767782
 20
1.170462078
 11
20.7825395137
 21
1.1682766535
  0
LINE
  5
228
100
AcDbEntity
  8
0
100
AcDbLine
 62
7
  6
CONTINUOUS
 10
20.8177513651
 20
1.1693297793
 11
20.947965719
 21
1.1693297793
  0
LINE
  5
229
100
AcDbEntity
  8
0
100
AcDbLine
 62
7
  6
CONTINUOUS
 10
20.6875370113
 20
1.170462078
 11
20.5573226574
 21
1.170462078
  0
LINE
  5
22A
100
AcDbEntity
  8
0
100
AcDbLine
 62
7
  6
CONTINUOUS
 10
20.7486811426
 20
1.1987695462
 11
20.7486811426
 21
1.1432869085
  0
LINE
  5
22B
100
AcDbEntity
  8
0
100
AcDbLine
 62
7
  6
CONTINUOUS
 10
20.7498134414
 20
1.1059210505
 11
20.7498134414
 21
0.9757066966
  0
LINE
  5
22C
100
AcDbEntity
  8
0
100
AcDbLine
 62
7
  6
CONTINUOUS
 10
20.7486811426
 20
1.2338708068
 11
20.7486811426
 21
1.3640851607
  0
LINE
  5
22D
100
AcDbEntity
  8
0
100
AcDbLine
 62
7
  6
CONTINUOUS
 10
21.0702539817
 20
1.2701043662
 11
21.4790138229
 21
1.3448360823
  0
LINE
  5
22E
100
AcDbEntity
  8
0
100
AcDbLine
 62
7
  6
CONTINUOUS
 10
21.4790138229
 20
1.3448360823
 11
21.4790138229
 21
0.9779712941
  0
LINE
  5
22F
100
AcDbEntity
  8
0
100
AcDbLine
 62
7
  6
CONTINUOUS
 10
21.4790138229
 20
0.9779712941
 11
21.069121683
 21
1.0617614
  0
LINE
  5
230
100
AcDbEntity
  8
0
100
AcDbLine
 62
7
  6
CONTINUOUS
 10
21.0702539817
 20
1.2701043662
 11
21.069121683
 21
1.0617614
  0
LINE
  5
231
100
AcDbEntity
  8
0
100
AcDbLine
 62
7
  6
CONTINUOUS
 10
21.4790138229
 20
1.1693297793
 11
21.3159628059
 21
1.1693297793
  0
LINE
  5
232
100
AcDbEntity
  8
0
100
AcDbLine
 62
7
  6
CONTINUOUS
 10
21.2876553377
 20
1.1693297793
 11
21.2502894796
 21
1.1693297793
  0
LINE
  5
233
100
AcDbEntity
  8
0
100
AcDbLine
 62
7
  6
CONTINUOUS
 10
21.2208497126
 20
1.1659328831
 11
21.0713862804
 21
1.1659328831
  0
LINE
  5
234
100
AcDbEntity
  8
0
100
AcDbLine
 62
7
  6
CONTINUOUS
 10
20.4796138713
 20
1.5284908897
 11
20.4766766948
 21
0.9294458646
  0
ENDBLK
  5
235
100
AcDbEntity
  8
0
  6
BYBLOCK
 62
0
100
AcDbBlockEnd
  0
BLOCK
  5
236
100
AcDbEntity
  8
0
100
AcDbBlockBegin
  2
*T1
 70
1
 10
0.0
 20
0.0
  3
*T1
  1

  0
LINE
  5
237
100
AcDbEntity
  8
0
100
AcDbLine
 62
2
  6
CONTINUOUS
 10
9.275
 20
0.0
 11
-0.0
 21
0.0
  0
LINE
  5
238
100
AcDbEntity
  8
0
100
AcDbLine
 62
2
  6
CONTINUOUS
 10
9.275
 20
0.0
 11
9.275
 21
1.25
  0
LINE
  5
239
100
AcDbEntity
  8
0
100
AcDbLine
 62
2
  6
CONTINUOUS
 10
9.275
 20
0.625
 11
-0.0
 21
0.625
  0
LINE
  5
23A
100
AcDbEntity
  8
0
100
AcDbLine
 62
2
  6
CONTINUOUS
 10
9.275
 20
1.25
 11
-0.0
 21
1.25
  0
LINE
  5
23B
100
AcDbEntity
  8
0
100
AcDbLine
 62
2
  6
CONTINUOUS
 10
6.8
 20
0.0
 11
6.8
 21
1.25
  0
LINE
  5
23C
100
AcDbEntity
  8
0
100
AcDbLine
 62
2
  6
CONTINUOUS
 10
6.4
 20
0.0
 11
6.4
 21
0.625
  0
LINE
  5
23D
100
AcDbEntity
  8
0
100
AcDbLine
 62
2
  6
CONTINUOUS
 10
5.9
 20
0.0
 11
5.9
 21
0.625
  0
LINE
  5
23E
100
AcDbEntity
  8
0
100
AcDbLine
 62
2
  6
CONTINUOUS
 10
5.2
 20
0.0
 11
5.2
 21
0.625
  0
LINE
  5
23F
100
AcDbEntity
  8
0
100
AcDbLine
 62
2
  6
CONTINUOUS
 10
4.1
 20
0.0
 11
4.1
 21
1.25
  0
LINE
  5
240
100
AcDbEntity
  8
0
100
AcDbLine
 62
2
  6
CONTINUOUS
 10
-0.0
 20
0.0
 11
-0.0
 21
1.25
  0
MTEXT
  5
241
100
AcDbEntity
  8
0
100
AcDbMText
 62
2
  6
CONTINUOUS
  7
STANDARD
 71
2
 72
1
 10
6.6
 20
0.325
 30
0.0
 11
1.0
 21
0.0
 31
0.0
 44
0.9
  1
2
 40
0.125
 41
0.2
  0
MTEXT
  5
242
100
AcDbEntity
  8
0
100
AcDbMText
 62
2
  6
CONTINUOUS
  7
STANDARD
 71
2
 72
1
 10
6.15
 20
0.325
 30
0.0
 11
1.0
 21
0.0
 31
0.0
 44
0.9
  1
C
 40
0.125
 41
0.2
  0
MTEXT
  5
243
100
AcDbEntity
  8
0
100
AcDbMText
 62
2
  6
CONTINUOUS
  7
STANDARD
 71
2
 72
1
 10
5.55
 20
0.325
 30
0.0
 11
1.0
 21
0.0
 31
0.0
 44
0.9
  1
1.000
 40
0.125
 41
1.0
  0
MTEXT
  5
244
100
AcDbEntity
  8
0
100
AcDbMText
 62
2
  6
CONTINUOUS
  7
STANDARD
 71
2
 72
1
 10
4.65
 20
0.325
 30
0.0
 11
1.0
 21
0.0
 31
0.0
 44
0.9
  1
Oct-24-23
 40
0.125
 41
1.8
  0
MTEXT
  5
245
100
AcDbEntity
  8
0
100
AcDbMText
 62
2
  6
CONTINUOUS
  7
STANDARD
 71
2
 72
1
 10
2.05
 20
0.4625
 30
0.0
 11
1.0
 21
0.0
 31
0.0
 44
0.9
  1
T-10A Subplate ISO 05\PP to T, side ports
 40
0.125
 41
4.2
  0
MTEXT
  5
246
100
AcDbEntity
  8
0
100
AcDbMText
 62
2
  6
CONTINUOUS
  7
STANDARD
 71
1
 72
1
 10
6.45
 20
0.5625
 30
0.0
 11
1.0
 21
0.0
 31
0.0
 44
0.9
  1
SHEET
 40
0.06
 41
0.48
  0
MTEXT
  5
247
100
AcDbEntity
  8
0
100
AcDbMText
 62
2
  6
CONTINUOUS
  7
STANDARD
 71
1
 72
1
 10
5.95
 20
0.5625
 30
0.0
 11
1.0
 21
0.0
 31
0.0
 44
0.9
  1
DWG SIZE
 40
0.06
 41
0.768
  0
MTEXT
  5
248
100
AcDbEntity
  8
0
100
AcDbMText
 62
2
  6
CONTINUOUS
  7
STANDARD
 71
1
 72
1
 10
5.25
 20
0.5625
 30
0.0
 11
1.0
 21
0.0
 31
0.0
 44
0.9
  1
SCALE
 40
0.06
 41
0.48
  0
MTEXT
  5
249
100
AcDbEntity
  8
0
100
AcDbMText
 62
2
  6
CONTINUOUS
  7
STANDARD
 71
1
 72
1
 10
4.15
 20
0.5625
 30
0.0
 11
1.0
 21
0.0
 31
0.0
 44
0.9
  1
DATE
 40
0.06
 41
0.384
  0
MTEXT
  5
24A
100
AcDbEntity
  8
0
100
AcDbMText
 62
2
  6
CONTINUOUS
  7
STANDARD
 71
1
 72
1
 10
0.05
 20
0.5625
 30
0.0
 11
1.0
 21
0.0
 31
0.0
 44
0.9
  1
DESCRIPTION
 40
0.06
 41
1.056
  0
MTEXT
  5
24B
100
AcDbEntity
  8
0
100
AcDbMText
 62
2
  6
CONTINUOUS
  7
STANDARD
 71
2
 72
1
 10
5.45
 20
1.0375
 30
0.0
 11
1.0
 21
0.0
 31
0.0
 44
0.9
  1
ALL DIMENSIONS IN INCH\PVIEWS ARE THIRD ANGLE
 40
0.12
 41
4.224
  0
MTEXT
  5
24C
100
AcDbEntity
  8
0
100
AcDbMText
 62
2
  6
CONTINUOUS
  7
STANDARD
 71
2
 72
1
 10
2.05
 20
0.95
 30
0.0
 11
1.0
 21
0.0
 31
0.0
 44
0.9
  1
U4H
 40
0.125
 41
0.6
  0
MTEXT
  5
24D
100
AcDbEntity
  8
0
100
AcDbMText
 62
2
  6
CONTINUOUS
  7
STANDARD
 71
1
 72
1
 10
0.05
 20
1.1875
 30
0.0
 11
1.0
 21
0.0
 31
0.0
 44
0.9
  1
MODEL
 40
0.06
 41
0.48
  0
ENDBLK
  5
24E
100
AcDbEntity
  8
0
  6
BYBLOCK
 62
0
100
AcDbBlockEnd
  0
BLOCK
  5
24F
100
AcDbEntity
  8
0
100
AcDbBlockBegin
  2
*T2
 70
1
 10
0.0
 20
0.0
  3
*T2
  1

  0
LINE
  5
250
100
AcDbEntity
  8
0
100
AcDbLine
 62
2
  6
CONTINUOUS
 10
0.0
 20
0.0
 11
9.055
 21
0.0
  0
LINE
  5
251
100
AcDbEntity
  8
0
100
AcDbLine
 62
2
  6
CONTINUOUS
 10
0.0
 20
0.0
 11
0.0
 21
-2.594
  0
LINE
  5
252
100
AcDbEntity
  8
0
100
AcDbLine
 62
2
  6
CONTINUOUS
 10
0.0
 20
-0.344
 11
9.055
 21
-0.344
  0
LINE
  5
253
100
AcDbEntity
  8
0
100
AcDbLine
 62
2
  6
CONTINUOUS
 10
0.0
 20
-0.594
 11
9.055
 21
-0.594
  0
LINE
  5
254
100
AcDbEntity
  8
0
100
AcDbLine
 62
2
  6
CONTINUOUS
 10
0.0
 20
-0.844
 11
9.055
 21
-0.844
  0
LINE
  5
255
100
AcDbEntity
  8
0
100
AcDbLine
 62
2
  6
CONTINUOUS
 10
0.0
 20
-1.094
 11
9.055
 21
-1.094
  0
LINE
  5
256
100
AcDbEntity
  8
0
100
AcDbLine
 62
2
  6
CONTINUOUS
 10
0.0
 20
-1.344
 11
9.055
 21
-1.344
  0
LINE
  5
257
100
AcDbEntity
  8
0
100
AcDbLine
 62
2
  6
CONTINUOUS
 10
0.0
 20
-1.594
 11
9.055
 21
-1.594
  0
LINE
  5
258
100
AcDbEntity
  8
0
100
AcDbLine
 62
2
  6
CONTINUOUS
 10
0.0
 20
-1.844
 11
9.055
 21
-1.844
  0
LINE
  5
259
100
AcDbEntity
  8
0
100
AcDbLine
 62
2
  6
CONTINUOUS
 10
0.0
 20
-2.094
 11
9.055
 21
-2.094
  0
LINE
  5
25A
100
AcDbEntity
  8
0
100
AcDbLine
 62
2
  6
CONTINUOUS
 10
0.0
 20
-2.344
 11
9.055
 21
-2.344
  0
LINE
  5
25B
100
AcDbEntity
  8
0
100
AcDbLine
 62
2
  6
CONTINUOUS
 10
0.0
 20
-2.594
 11
9.055
 21
-2.594
  0
LINE
  5
25C
100
AcDbEntity
  8
0
100
AcDbLine
 62
2
  6
CONTINUOUS
 10
3.055
 20
0.0
 11
3.055
 21
-2.594
  0
LINE
  5
25D
100
AcDbEntity
  8
0
100
AcDbLine
 62
2
  6
CONTINUOUS
 10
9.055
 20
0.0
 11
9.055
 21
-2.594
  0
MTEXT
  5
25E
100
AcDbEntity
  8
0
100
AcDbMText
 62
2
  6
CONTINUOUS
  7
STANDARD
 71
2
 72
1
 10
1.5275
 20
-0.0995
 30
0.0
 11
1.0
 21
0.0
 31
0.0
 44
0.9
  1
Technical Data
 40
0.145
 41
3.248
  0
MTEXT
  5
25F
100
AcDbEntity
  8
0
100
AcDbMText
 62
2
  6
CONTINUOUS
  7
STANDARD
 71
2
 72
1
 10
4.555
 20
-0.0995
 30
0.0
 11
1.0
 21
0.0
 31
0.0
 44
0.9
  1
U.S. Units
 40
0.145
 41
2.32
  0
MTEXT
  5
260
100
AcDbEntity
  8
0
100
AcDbMText
 62
2
  6
CONTINUOUS
  7
STANDARD
 71
2
 72
1
 10
7.555
 20
-0.0995
 30
0.0
 11
1.0
 21
0.0
 31
0.0
 44
0.9
  1
Metric Units
 40
0.145
 41
2.784
  0
MTEXT
  5
261
100
AcDbEntity
  8
0
100
AcDbMText
 62
2
  6
CONTINUOUS
  7
STANDARD
 71
2
 72
1
 10
1.5275
 20
-0.4065
 30
0.0
 11
1.0
 21
0.0
 31
0.0
 44
0.9
  1
Cavity
 40
0.125
 41
1.2
  0
MTEXT
  5
262
100
AcDbEntity
  8
0
100
AcDbMText
 62
2
  6
CONTINUOUS
  7
STANDARD
 71
2
 72
1
 10
6.055
 20
-0.4065
 30
0.0
 11
1.0
 21
0.0
 31
0.0
 44
0.9
  1
T-10A
 40
0.125
 41
1.0
  0
MTEXT
  5
263
100
AcDbEntity
  8
0
100
AcDbMText
 62
2
  6
CONTINUOUS
  7
STANDARD
 71
2
 72
1
 10
1.5275
 20
-0.6565
 30
0.0
 11
1.0
 21
0.0
 31
0.0
 44
0.9
  1
Body Features
 40
0.125
 41
2.6
  0
MTEXT
  5
264
100
AcDbEntity
  8
0
100
AcDbMText
 62
2
  6
CONTINUOUS
  7
STANDARD
 71
2
 72
1
 10
6.055
 20
-0.6565
 30
0.0
 11
1.0
 21
0.0
 31
0.0
 44
0.9
  1
P to T, side ports
 40
0.125
 41
3.6
  0
MTEXT
  5
265
100
AcDbEntity
  8
0
100
AcDbMText
 62
2
  6
CONTINUOUS
  7
STANDARD
 71
2
 72
1
 10
1.5275
 20
-0.9065
 30
0.0
 11
1.0
 21
0.0
 31
0.0
 44
0.9
  1
Body Type
 40
0.125
 41
1.8
  0
MTEXT
  5
266
100
AcDbEntity
  8
0
100
AcDbMText
 62
2
  6
CONTINUOUS
  7
STANDARD
 71
2
 72
1
 10
6.055
 20
-0.9065
 30
0.0
 11
1.0
 21
0.0
 31
0.0
 44
0.9
  1
Subplate
 40
0.125
 41
1.6
  0
MTEXT
  5
267
100
AcDbEntity
  8
0
100
AcDbMText
 62
2
  6
CONTINUOUS
  7
STANDARD
 71
2
 72
1
 10
1.5275
 20
-1.1565
 30
0.0
 11
1.0
 21
0.0
 31
0.0
 44
0.9
  1
Interface
 40
0.125
 41
1.8
  0
MTEXT
  5
268
100
AcDbEntity
  8
0
100
AcDbMText
 62
2
  6
CONTINUOUS
  7
STANDARD
 71
2
 72
1
 10
6.055
 20
-1.1565
 30
0.0
 11
1.0
 21
0.0
 31
0.0
 44
0.9
  1
ISO 05
 40
0.125
 41
1.2
  0
MTEXT
  5
269
100
AcDbEntity
  8
0
100
AcDbMText
 62
2
  6
CONTINUOUS
  7
STANDARD
 71
2
 72
1
 10
1.5275
 20
-1.4065
 30
0.0
 11
1.0
 21
0.0
 31
0.0
 44
0.9
  1
Open Cavity Quantity
 40
0.125
 41
4.0
  0
MTEXT
  5
26A
100
AcDbEntity
  8
0
100
AcDbMText
 62
2
  6
CONTINUOUS
  7
STANDARD
 71
2
 72
1
 10
6.055
 20
-1.4065
 30
0.0
 11
1.0
 21
0.0
 31
0.0
 44
0.9
  1
1
 40
0.125
 41
0.2
  0
MTEXT
  5
26B
100
AcDbEntity
  8
0
100
AcDbMText
 62
2
  6
CONTINUOUS
  7
STANDARD
 71
2
 72
1
 10
1.5275
 20
-1.6565
 30
0.0
 11
1.0
 21
0.0
 31
0.0
 44
0.9
  1
Weight
 40
0.125
 41
1.2
  0
MTEXT
  5
26C
100
AcDbEntity
  8
0
100
AcDbMText
 62
2
  6
CONTINUOUS
  7
STANDARD
 71
2
 72
1
 10
4.555
 20
-1.6565
 30
0.0
 11
1.0
 21
0.0
 31
0.0
 44
0.9
  1
2.777 lb.
 40
0.125
 41
1.8
  0
MTEXT
  5
26D
100
AcDbEntity
  8
0
100
AcDbMText
 62
2
  6
CONTINUOUS
  7
STANDARD
 71
2
 72
1
 10
7.555
 20
-1.6565
 30
0.0
 11
1.0
 21
0.0
 31
0.0
 44
0.9
  1
1,260 kg.
 40
0.125
 41
1.8
  0
MTEXT
  5
26E
100
AcDbEntity
  8
0
100
AcDbMText
 62
2
  6
CONTINUOUS
  7
STANDARD
 71
2
 72
1
 10
1.5275
 20
-1.9065
 30
0.0
 11
1.0
 21
0.0
 31
0.0
 44
0.9
  1
Mounting Hole Diameter
 40
0.125
 41
4.4
  0
MTEXT
  5
26F
100
AcDbEntity
  8
0
100
AcDbMText
 62
2
  6
CONTINUOUS
  7
STANDARD
 71
2
 72
1
 10
4.555
 20
-1.9065
 30
0.0
 11
1.0
 21
0.0
 31
0.0
 44
0.9
  1
.44 in.
 40
0.125
 41
1.4
  0
MTEXT
  5
270
100
AcDbEntity
  8
0
100
AcDbMText
 62
2
  6
CONTINUOUS
  7
STANDARD
 71
2
 72
1
 10
7.555
 20
-1.9065
 30
0.0
 11
1.0
 21
0.0
 31
0.0
 44
0.9
  1
11,1 mm
 40
0.125
 41
1.4
  0
MTEXT
  5
271
100
AcDbEntity
  8
0
100
AcDbMText
 62
2
  6
CONTINUOUS
  7
STANDARD
 71
2
 72
1
 10
1.5275
 20
-2.1565
 30
0.0
 11
1.0
 21
0.0
 31
0.0
 44
0.9
  1
Mounting Hole Depth
 40
0.125
 41
3.8
  0
MTEXT
  5
272
100
AcDbEntity
  8
0
100
AcDbMText
 62
2
  6
CONTINUOUS
  7
STANDARD
 71
2
 72
1
 10
6.055
 20
-2.1565
 30
0.0
 11
1.0
 21
0.0
 31
0.0
 44
0.9
  1
Through
 40
0.125
 41
1.4
  0
MTEXT
  5
273
100
AcDbEntity
  8
0
100
AcDbMText
 62
2
  6
CONTINUOUS
  7
STANDARD
 71
2
 72
1
 10
1.5275
 20
-2.4065
 30
0.0
 11
1.0
 21
0.0
 31
0.0
 44
0.9
  1
Mounting Hole Quantity
 40
0.125
 41
4.4
  0
MTEXT
  5
274
100
AcDbEntity
  8
0
100
AcDbMText
 62
2
  6
CONTINUOUS
  7
STANDARD
 71
2
 72
1
 10
6.055
 20
-2.4065
 30
0.0
 11
1.0
 21
0.0
 31
0.0
 44
0.9
  1
4
 40
0.125
 41
0.2
  0
ENDBLK
  5
275
100
AcDbEntity
  8
0
  6
BYBLOCK
 62
0
100
AcDbBlockEnd
  0
BLOCK
  5
276
100
AcDbEntity
  8
0
100
AcDbBlockBegin
  2
*T3
 70
1
 10
0.0
 20
0.0
  3
*T3
  1

  0
LINE
  5
277
100
AcDbEntity
  8
0
100
AcDbLine
 62
2
  6
CONTINUOUS
 10
0.0
 20
0.0
 11
4.6
 21
0.0
  0
LINE
  5
278
100
AcDbEntity
  8
0
100
AcDbLine
 62
2
  6
CONTINUOUS
 10
0.0
 20
0.0
 11
0.0
 21
-1.18775
  0
LINE
  5
279
100
AcDbEntity
  8
0
100
AcDbLine
 62
2
  6
CONTINUOUS
 10
0.0
 20
-0.34375
 11
4.6
 21
-0.34375
  0
LINE
  5
27A
100
AcDbEntity
  8
0
100
AcDbLine
 62
2
  6
CONTINUOUS
 10
0.0
 20
-0.68775
 11
4.6
 21
-0.68775
  0
LINE
  5
27B
100
AcDbEntity
  8
0
100
AcDbLine
 62
2
  6
CONTINUOUS
 10
0.0
 20
-0.93775
 11
4.6
 21
-0.93775
  0
LINE
  5
27C
100
AcDbEntity
  8
0
100
AcDbLine
 62
2
  6
CONTINUOUS
 10
0.0
 20
-1.18775
 11
4.6
 21
-1.18775
  0
LINE
  5
27D
100
AcDbEntity
  8
0
100
AcDbLine
 62
2
  6
CONTINUOUS
 10
1.3
 20
-0.34375
 11
1.3
 21
-1.18775
  0
LINE
  5
27E
100
AcDbEntity
  8
0
100
AcDbLine
 62
2
  6
CONTINUOUS
 10
3.3
 20
-0.34375
 11
3.3
 21
-1.18775
  0
LINE
  5
27F
100
AcDbEntity
  8
0
100
AcDbLine
 62
2
  6
CONTINUOUS
 10
4.6
 20
0.0
 11
4.6
 21
-1.18775
  0
MTEXT
  5
280
100
AcDbEntity
  8
0
100
AcDbMText
 62
2
  6
CONTINUOUS
  7
STANDARD
 71
2
 72
1
 10
2.3
 20
-0.099375
 30
0.0
 11
1.0
 21
0.0
 31
0.0
 44
0.9
  1
Port Headings
 40
0.145
 41
3.016
  0
MTEXT
  5
281
100
AcDbEntity
  8
0
100
AcDbMText
 62
2
  6
CONTINUOUS
  7
STANDARD
 71
2
 72
1
 10
0.65
 20
-0.44325
 30
0.0
 11
1.0
 21
0.0
 31
0.0
 44
0.9
  1
Product
 40
0.145
 41
1.624
  0
MTEXT
  5
282
100
AcDbEntity
  8
0
100
AcDbMText
 62
2
  6
CONTINUOUS
  7
STANDARD
 71
2
 72
1
 10
2.3
 20
-0.44325
 30
0.0
 11
1.0
 21
0.0
 31
0.0
 44
0.9
  1
Port
 40
0.145
 41
0.928
  0
MTEXT
  5
283
100
AcDbEntity
  8
0
100
AcDbMText
 62
2
  6
CONTINUOUS
  7
STANDARD
 71
2
 72
1
 10
3.95
 20
-0.44325
 30
0.0
 11
1.0
 21
0.0
 31
0.0
 44
0.9
  1
Size
 40
0.145
 41
0.928
  0
MTEXT
  5
284
100
AcDbEntity
  8
0
100
AcDbMText
 62
2
  6
CONTINUOUS
  7
STANDARD
 71
2
 72
1
 10
0.65
 20
-0.75025
 30
0.0
 11
1.0
 21
0.0
 31
0.0
 44
0.9
  1
U4H
 40
0.125
 41
0.6
  0
MTEXT
  5
285
100
AcDbEntity
  8
0
100
AcDbMText
 62
2
  6
CONTINUOUS
  7
STANDARD
 71
2
 72
1
 10
2.3
 20
-0.75025
 30
0.0
 11
1.0
 21
0.0
 31
0.0
 44
0.9
  1
Ports A, B, P, T
 40
0.125
 41
3.2
  0
MTEXT
  5
286
100
AcDbEntity
  8
0
100
AcDbMText
 62
2
  6
CONTINUOUS
  7
STANDARD
 71
2
 72
1
 10
3.95
 20
-0.75025
 30
0.0
 11
1.0
 21
0.0
 31
0.0
 44
0.9
  1
SAE 10
 40
0.125
 41
1.2
  0
MTEXT
  5
287
100
AcDbEntity
  8
0
100
AcDbMText
 62
2
  6
CONTINUOUS
  7
STANDARD
 71
2
 72
1
 10
0.65
 20
-1.00025
 30
0.0
 11
1.0
 21
0.0
 31
0.0
 44
0.9
  1
U4H
 40
0.125
 41
0.6
  0
MTEXT
  5
288
100
AcDbEntity
  8
0
100
AcDbMText
 62
2
  6
CONTINUOUS
  7
STANDARD
 71
2
 72
1
 10
2.3
 20
-1.00025
 30
0.0
 11
1.0
 21
0.0
 31
0.0
 44
0.9
  1
Gage Port
 40
0.125
 41
1.8
  0
MTEXT
  5
289
100
AcDbEntity
  8
0
100
AcDbMText
 62
2
  6
CONTINUOUS
  7
STANDARD
 71
2
 72
1
 10
3.95
 20
-1.00025
 30
0.0
 11
1.0
 21
0.0
 31
0.0
 44
0.9
  1
SAE 4
 40
0.125
 41
1.0
  0
ENDBLK
  5
28A
100
AcDbEntity
  8
0
  6
BYBLOCK
 62
0
100
AcDbBlockEnd
  0
ENDSEC
  0
SECTION
  2
ENTITIES
  0
IMAGE
  5
28B
100
AcDbEntity
  8
0
100
AcDbRasterImage
 62
7
  6
CONTINUOUS
 10
19.2297077316
 20
0.3094318264
 30
0.0
 11
0.0066666667
 21
0.0
 31
0.0
 12
0.0
 22
0.0066666667
 32
0.0
 13
369.0
 23
92.0
340
       3A4
 70
9
280
0
281
50
282
50
283
0
360
       39E
 71
1
 91
2
 14
-0.5
 24
-0.5
 14
368.5
 24
91.5
  0
INSERT
  5
28C
100
AcDbEntity
  8
0
100
AcDbBlockReference
 62
2
  6
CONTINUOUS
  2
SUN_FIRST_THIRD_ANGLE_BL0
 10
20.4816717061
 20
1.2289683772
  0
ACAD_TABLE
  5
28D
100
AcDbEntity
  8
0
 62
2
  6
CONTINUOUS
100
AcDbBlockReference
  2
*T1
 10
12.42375
 20
0.30125
 30
0.0
100
AcDbTable
342
       3A6
343
20F
 11
1.0
 21
0.0
 31
0.0
 90
6
 91
4
 92
6
 93
20
 94
0
 95
0
 96
0
 70
1
 41
0.0
141
0.525
141
0.1
141
0.525
141
0.1
142
4.1
142
1.1
142
0.7
142
0.5
142
0.4
142
2.475
171
1
172
0
173
0
174
0
175
1
176
1
 91
33
178
0
145
0.0
301
CELL_VALUE
 90
4
  1
T-10A Subplate ISO 05\PP to T, side ports
304
ACVALUE_END
170
2
140
0.125
171
1
172
0
173
0
174
0
175
1
176
1
 91
33
178
0
145
0.0
301
CELL_VALUE
 90
4
  1
Oct-24-23
304
ACVALUE_END
170
5
140
0.125
171
1
172
0
173
0
174
0
175
1
176
1
 91
33
178
0
145
0.0
301
CELL_VALUE
 90
4
  1
1.000
304
ACVALUE_END
170
5
140
0.125
171
1
172
0
173
0
174
0
175
1
176
1
 91
33
178
0
145
0.0
301
CELL_VALUE
 90
4
  1
C
304
ACVALUE_END
170
5
140
0.125
171
1
172
0
173
0
174
0
175
1
176
1
 91
33
178
0
145
0.0
301
CELL_VALUE
 90
4
  1
2
304
ACVALUE_END
170
5
140
0.125
171
1
172
0
173
0
174
0
175
1
176
1
 91
33
178
0
145
0.0
301
CELL_VALUE
 90
4
  1
 
304
ACVALUE_END
170
1
140
0.125
171
1
172
0
173
0
174
0
175
1
176
1
 91
33
178
0
145
0.0
301
CELL_VALUE
 90
4
  1
DESCRIPTION
304
ACVALUE_END
170
1
140
0.06
171
1
172
0
173
0
174
0
175
1
176
1
 91
33
178
0
145
0.0
301
CELL_VALUE
 90
4
  1
DATE
304
ACVALUE_END
170
1
140
0.06
171
1
172
0
173
0
174
0
175
1
176
1
 91
33
178
0
145
0.0
301
CELL_VALUE
 90
4
  1
SCALE
304
ACVALUE_END
170
1
140
0.06
171
1
172
0
173
0
174
0
175
1
176
1
 91
33
178
0
145
0.0
301
CELL_VALUE
 90
4
  1
DWG SIZE
304
ACVALUE_END
170
1
140
0.06
171
1
172
0
173
0
174
0
175
1
176
1
 91
33
178
0
145
0.0
301
CELL_VALUE
 90
4
  1
SHEET
304
ACVALUE_END
170
1
140
0.06
171
1
172
0
173
0
174
0
175
1
176
1
 91
33
178
0
145
0.0
301
CELL_VALUE
 90
4
  1
 
304
ACVALUE_END
170
1
140
0.125
171
1
172
0
173
0
174
0
175
1
176
1
 91
33
178
0
145
0.0
301
CELL_VALUE
 90
4
  1
U4H
304
ACVALUE_END
170
5
140
0.125
171
1
172
0
173
0
174
0
175
4
176
1
 91
33
178
0
145
0.0
301
CELL_VALUE
 90
4
  1
ALL DIMENSIONS IN INCH\PVIEWS ARE THIRD ANGLE
304
ACVALUE_END
170
5
140
0.12
171
1
172
0
173
1
174
0
175
1
176
1
 91
1
178
0
145
0.0
170
1
171
1
172
0
173
1
174
0
175
1
176
1
 91
1
178
0
145
0.0
170
1
171
1
172
0
173
1
174
0
175
1
176
1
 91
1
178
0
145
0.0
170
5
171
1
172
0
173
0
174
0
175
1
176
1
 91
33
178
0
145
0.0
301
CELL_VALUE
 90
4
  1
 
304
ACVALUE_END
170
1
140
0.125
171
1
172
0
173
0
174
0
175
1
176
1
 91
33
178
0
145
0.0
301
CELL_VALUE
 90
4
  1
MODEL
304
ACVALUE_END
170
1
140
0.06
171
1
172
0
173
0
174
0
175
1
176
1
 91
33
178
0
145
0.0
301
CELL_VALUE
 90
4
  1
 
304
ACVALUE_END
170
1
140
0.125
171
1
172
0
173
0
174
0
175
1
176
1
 91
33
178
0
145
0.0
301
CELL_VALUE
 90
4
  1
 
304
ACVALUE_END
170
1
140
0.125
171
1
172
0
173
0
174
0
175
1
176
1
 91
33
178
0
145
0.0
301
CELL_VALUE
 90
4
  1
 
304
ACVALUE_END
170
1
140
0.125
171
1
172
0
173
0
174
0
175
1
176
1
 91
33
178
0
145
0.0
301
CELL_VALUE
 90
4
  1
 
304
ACVALUE_END
170
1
140
0.125
171
1
172
0
173
0
174
0
175
1
176
1
 91
33
178
0
145
0.0
301
CELL_VALUE
 90
4
  1
 
304
ACVALUE_END
170
1
140
0.125
  0
ACAD_TABLE
  5
28E
100
AcDbEntity
  8
0
 62
2
  6
CONTINUOUS
100
AcDbBlockReference
  2
*T2
 10
12.4237499994
 20
16.47875
 30
0.0
100
AcDbTable
342
       3A5
343
210
 11
1.0
 21
0.0
 31
0.0
 90
22
 91
10
 92
3
 93
16
 94
0
 95
0
 96
0
 41
0.028
141
0.344
141
0.25
141
0.25
141
0.25
141
0.25
141
0.25
141
0.25
141
0.25
141
0.25
141
0.25
142
3.055
142
3.0
142
3.0
171
1
172
0
173
0
174
0
175
1
176
1
 91
33
178
0
145
0.0
301
CELL_VALUE
 90
4
  1
Technical Data
304
ACVALUE_END
170
5
140
0.145
171
1
172
0
173
0
174
0
175
1
176
1
 91
33
178
0
145
0.0
301
CELL_VALUE
 90
4
  1
U.S. Units
304
ACVALUE_END
170
5
140
0.145
171
1
172
0
173
0
174
0
175
1
176
1
 91
33
178
0
145
0.0
301
CELL_VALUE
 90
4
  1
Metric Units
304
ACVALUE_END
170
5
140
0.145
171
1
172
0
173
0
174
0
175
1
176
1
 91
33
178
0
145
0.0
301
CELL_VALUE
 90
4
  1
Cavity
304
ACVALUE_END
170
5
140
0.125
171
1
172
0
173
0
174
0
175
2
176
1
 91
33
178
0
145
0.0
301
CELL_VALUE
 90
4
  1
T-10A
304
ACVALUE_END
170
5
140
0.125
171
1
172
0
173
1
174
0
175
1
176
1
 91
1
178
0
145
0.0
170
1
171
1
172
0
173
0
174
0
175
1
176
1
 91
33
178
0
145
0.0
301
CELL_VALUE
 90
4
  1
Body Features
304
ACVALUE_END
170
5
140
0.125
171
1
172
0
173
0
174
0
175
2
176
1
 91
33
178
0
145
0.0
301
CELL_VALUE
 90
4
  1
P to T, side ports
304
ACVALUE_END
170
5
140
0.125
171
1
172
0
173
1
174
0
175
1
176
1
 91
1
178
0
145
0.0
170
1
171
1
172
0
173
0
174
0
175
1
176
1
 91
33
178
0
145
0.0
301
CELL_VALUE
 90
4
  1
Body Type
304
ACVALUE_END
170
5
140
0.125
171
1
172
0
173
0
174
0
175
2
176
1
 91
33
178
0
145
0.0
301
CELL_VALUE
 90
4
  1
Subplate
304
ACVALUE_END
170
5
140
0.125
171
1
172
0
173
1
174
0
175
1
176
1
 91
1
178
0
145
0.0
170
1
171
1
172
0
173
0
174
0
175
1
176
1
 91
33
178
0
145
0.0
301
CELL_VALUE
 90
4
  1
Interface
304
ACVALUE_END
170
5
140
0.125
171
1
172
0
173
0
174
0
175
2
176
1
 91
33
178
0
145
0.0
301
CELL_VALUE
 90
4
  1
ISO 05
304
ACVALUE_END
170
5
140
0.125
171
1
172
0
173
1
174
0
175
1
176
1
 91
1
178
0
145
0.0
170
1
171
1
172
0
173
0
174
0
175
1
176
1
 91
33
178
0
145
0.0
301
CELL_VALUE
 90
4
  1
Open Cavity Quantity
304
ACVALUE_END
170
5
140
0.125
171
1
172
0
173
0
174
0
175
2
176
1
 91
33
178
0
145
0.0
301
CELL_VALUE
 90
4
  1
1
304
ACVALUE_END
170
5
140
0.125
171
1
172
0
173
1
174
0
175
1
176
1
 91
1
178
0
145
0.0
170
1
171
1
172
0
173
0
174
0
175
1
176
1
 91
33
178
0
145
0.0
301
CELL_VALUE
 90
4
  1
Weight
304
ACVALUE_END
170
5
140
0.125
171
1
172
0
173
0
174
0
175
1
176
1
 91
33
178
0
145
0.0
301
CELL_VALUE
 90
4
  1
2.777 lb.
304
ACVALUE_END
170
5
140
0.125
171
1
172
0
173
0
174
0
175
1
176
1
 91
33
178
0
145
0.0
301
CELL_VALUE
 90
4
  1
1,260 kg.
304
ACVALUE_END
170
5
140
0.125
171
1
172
0
173
0
174
0
175
1
176
1
 91
33
178
0
145
0.0
301
CELL_VALUE
 90
4
  1
Mounting Hole Diameter
304
ACVALUE_END
170
5
140
0.125
171
1
172
0
173
0
174
0
175
1
176
1
 91
33
178
0
145
0.0
301
CELL_VALUE
 90
4
  1
.44 in.
304
ACVALUE_END
170
5
140
0.125
171
1
172
0
173
0
174
0
175
1
176
1
 91
33
178
0
145
0.0
301
CELL_VALUE
 90
4
  1
11,1 mm
304
ACVALUE_END
170
5
140
0.125
171
1
172
0
173
0
174
0
175
1
176
1
 91
33
178
0
145
0.0
301
CELL_VALUE
 90
4
  1
Mounting Hole Depth
304
ACVALUE_END
170
5
140
0.125
171
1
172
0
173
0
174
0
175
2
176
1
 91
33
178
0
145
0.0
301
CELL_VALUE
 90
4
  1
Through
304
ACVALUE_END
170
5
140
0.125
171
1
172
0
173
1
174
0
175
1
176
1
 91
1
178
0
145
0.0
170
1
171
1
172
0
173
0
174
0
175
1
176
1
 91
33
178
0
145
0.0
301
CELL_VALUE
 90
4
  1
Mounting Hole Quantity
304
ACVALUE_END
170
5
140
0.125
171
1
172
0
173
0
174
0
175
2
176
1
 91
33
178
0
145
0.0
301
CELL_VALUE
 90
4
  1
4
304
ACVALUE_END
170
5
140
0.125
171
1
172
0
173
1
174
0
175
1
176
1
 91
1
178
0
145
0.0
170
1
  0
ACAD_TABLE
  5
28F
100
AcDbEntity
  8
0
 62
2
  6
CONTINUOUS
100
AcDbBlockReference
  2
*T3
 10
0.52125
 20
1.709
 30
0.0
100
AcDbTable
342
       3A5
343
211
 11
1.0
 21
0.0
 31
0.0
 90
22
 91
4
 92
3
 93
16
 94
0
 95
0
 96
0
 41
0.05
141
0.34375
141
0.344
141
0.25
141
0.25
142
1.3
142
2.0
142
1.3
171
1
172
0
173
0
174
0
175
3
176
1
 91
33
178
0
145
0.0
301
CELL_VALUE
 90
4
  1
Port Headings
304
ACVALUE_END
170
5
140
0.145
171
1
172
0
173
1
174
0
175
1
176
1
 91
1
178
0
145
0.0
170
1
171
1
172
0
173
1
174
0
175
1
176
1
 91
1
178
0
145
0.0
170
1
171
1
172
0
173
0
174
0
175
1
176
1
 91
33
178
0
145
0.0
301
CELL_VALUE
 90
4
  1
Product
304
ACVALUE_END
170
5
140
0.145
171
1
172
0
173
0
174
0
175
1
176
1
 91
33
178
0
145
0.0
301
CELL_VALUE
 90
4
  1
Port
304
ACVALUE_END
170
5
140
0.145
171
1
172
0
173
0
174
0
175
1
176
1
 91
33
178
0
145
0.0
301
CELL_VALUE
 90
4
  1
Size
304
ACVALUE_END
170
5
140
0.145
171
1
172
0
173
0
174
0
175
1
176
1
 91
33
178
0
145
0.0
301
CELL_VALUE
 90
4
  1
U4H
304
ACVALUE_END
170
5
140
0.125
171
1
172
0
173
0
174
0
175
1
176
1
 91
33
178
0
145
0.0
301
CELL_VALUE
 90
4
  1
Ports A, B, P, T
304
ACVALUE_END
170
5
140
0.125
171
1
172
0
173
0
174
0
175
1
176
1
 91
33
178
0
145
0.0
301
CELL_VALUE
 90
4
  1
SAE 10
304
ACVALUE_END
170
5
140
0.125
171
1
172
0
173
0
174
0
175
1
176
1
 91
33
178
0
145
0.0
301
CELL_VALUE
 90
4
  1
U4H
304
ACVALUE_END
170
5
140
0.125
171
1
172
0
173
0
174
0
175
1
176
1
 91
33
178
0
145
0.0
301
CELL_VALUE
 90
4
  1
Gage Port
304
ACVALUE_END
170
5
140
0.125
171
1
172
0
173
0
174
0
175
1
176
1
 91
33
178
0
145
0.0
301
CELL_VALUE
 90
4
  1
SAE 4
304
ACVALUE_END
170
5
140
0.125
  0
MTEXT
  5
290
100
AcDbEntity
  8
0
100
AcDbMText
 62
2
  6
CONTINUOUS
  7
STANDARD
 71
1
 72
1
 10
0.52125
 20
5.75995
 30
0.0
 11
1.0
 21
0.0
 31
0.0
 44
0.6
  3
Notes\P \P1. Important: Carefully consider\P   the maximum system pressure. The\P   pressure rating of the manifold is\P   dependent on the manifold material,\P   with the port type/size a secondary\P   consideration. Manifolds\P   constructed of alu
  3
minum are not\P   rated for pressures higher than\P   3000 psi (210 bar), regardless of\P   the port type/size specified.\P2. This drawing is for reference\P   only. It is generated by an\P   automated process and does not fall\P   under Sun's docume
  1
nt control\P   process.
 40
0.1
 41
3.04
  0
LINE
  5
291
100
AcDbEntity
  8
0
100
AcDbLine
 62
7
  6
CONTINUOUS
 10
0.30125
 20
0.30125
 11
0.30125
 21
16.69875
  0
LINE
  5
292
100
AcDbEntity
  8
0
100
AcDbLine
 62
7
  6
CONTINUOUS
 10
0.30125
 20
0.30125
 11
21.69875
 21
0.30125
  0
LINE
  5
293
100
AcDbEntity
  8
0
100
AcDbLine
 62
7
  6
CONTINUOUS
 10
0.30125
 20
16.69875
 11
21.69875
 21
16.69875
  0
LINE
  5
294
100
AcDbEntity
  8
0
100
AcDbLine
 62
7
  6
CONTINUOUS
 10
21.69875
 20
0.30125
 11
21.69875
 21
16.69875
  0
LINE
  5
295
100
AcDbEntity
  8
0
100
AcDbLine
 62
7
  6
CONTINUOUS
 10
8.8173527899
 20
10.5650578031
 11
9.318943676
 21
11.0495574229
  0
LINE
  5
296
100
AcDbEntity
  8
0
100
AcDbLine
 62
7
  6
CONTINUOUS
 10
10.1606144853
 20
10.8310490793
 11
10.1138431701
 21
10.7858714553
  0
LINE
  5
297
100
AcDbEntity
  8
02___PRT_ALL_AXES
100
AcDbLine
 62
7
  6
CONTINUOUS
 10
9.9863599485
 20
10.7743195548
 11
10.0316413047
 21
10.8164586102
  0
LINE
  5
298
100
AcDbEntity
  8
0
100
AcDbLine
 62
7
  6
CONTINUOUS
 10
12.681056324
 20
5.9504425771
 11
8.8173527899
 21
6.2183913273
  0
LINE
  5
299
100
AcDbEntity
  8
0
100
AcDbLine
 62
4
  6
CONTINUOUS
 10
10.7347156965
 20
6.2592882884
 11
10.7781823603
 21
6.256273865
  0
LINE
  5
29A
100
AcDbEntity
  8
0
100
AcDbLine
 62
7
  6
CONTINUOUS
 10
8.8173527899
 20
10.5650578031
 11
8.8173527899
 21
6.2183913273
  0
LINE
  5
29B
100
AcDbEntity
  8
0
100
AcDbLine
 62
7
  6
CONTINUOUS
 10
10.4161779717
 20
10.7649044656
 11
10.4629492869
 21
10.8100820896
  0
LINE
  5
29C
100
AcDbEntity
  8
0
100
AcDbLine
 62
4
  6
CONTINUOUS
 10
11.8613991094
 20
6.3047911885
 11
11.8200022779
 21
6.3076620686
  0
LINE
  5
29D
100
AcDbEntity
  8
0
100
AcDbLine
 62
4
  6
CONTINUOUS
 10
11.7703261133
 20
6.3111071223
 11
11.7454880034
 21
6.312829651
  0
LINE
  5
29E
100
AcDbEntity
  8
0
100
AcDbLine
 62
4
  6
CONTINUOUS
 10
11.6820128949
 20
6.3172316648
 11
11.6488954519
 21
6.3195283672
  0
LINE
  5
29F
100
AcDbEntity
  8
0
100
AcDbLine
 62
4
  6
CONTINUOUS
 10
11.1962901593
 20
6.3509166509
 11
11.1548933417
 21
6.3537875299
  0
LINE
  5
2A0
100
AcDbEntity
  8
0
100
AcDbLine
 62
4
  6
CONTINUOUS
 10
11.4584700437
 20
6.3327344142
 11
11.5081462359
 21
6.3292893585
  0
LINE
  5
2A1
100
AcDbEntity
  8
0
100
AcDbLine
 62
4
  6
CONTINUOUS
 10
11.9248742731
 20
6.300389171
 11
11.9745504377
 21
6.2969441173
  0
LINE
  5
2A2
100
AcDbEntity
  8
0
100
AcDbLine
 62
4
  6
CONTINUOUS
 10
11.2708044408
 20
6.3788665283
 11
11.31496105
 21
6.375804257
  0
LINE
  5
2A3
100
AcDbEntity
  8
0
100
AcDbLine
 62
4
  6
CONTINUOUS
 10
11.9579917162
 20
6.3643273892
 11
11.9248742731
 21
6.3666240917
  0
LINE
  5
2A4
100
AcDbEntity
  8
0
100
AcDbLine
 62
4
  6
CONTINUOUS
 10
11.4915875144
 20
6.3966726305
 11
11.4584700437
 21
6.3989693348
  0
LINE
  5
2A5
100
AcDbEntity
  8
0
100
AcDbLine
 62
4
  6
CONTINUOUS
 10
11.1548933417
 20
6.469698636
 11
11.1962901593
 21
6.4668277569
  0
LINE
  5
2A6
100
AcDbEntity
  8
0
100
AcDbLine
 62
4
  6
CONTINUOUS
 10
11.3591176592
 20
6.4555356314
 11
11.4253525729
 21
6.4509422246
  0
LINE
  5
2A7
100
AcDbEntity
  8
0
100
AcDbLine
 62
4
  6
CONTINUOUS
 10
11.4584700437
 20
6.4486455202
 11
11.5081462359
 21
6.4452004645
  0
LINE
  5
2A8
100
AcDbEntity
  8
0
100
AcDbLine
 62
4
  6
CONTINUOUS
 10
11.6488954519
 20
6.4354394733
 11
11.6820128949
 21
6.4331427708
  0
LINE
  5
2A9
100
AcDbEntity
  8
0
100
AcDbLine
 62
4
  6
CONTINUOUS
 10
11.7454880034
 20
6.4287407571
 11
11.7703261133
 21
6.4270182283
  0
LINE
  5
2AA
100
AcDbEntity
  8
0
100
AcDbLine
 62
4
  6
CONTINUOUS
 10
11.8200022779
 20
6.4235731746
 11
11.8613991094
 21
6.4207022946
  0
LINE
  5
2AB
100
AcDbEntity
  8
0
100
AcDbLine
 62
4
  6
CONTINUOUS
 10
11.9248742731
 20
6.416300277
 11
11.9745504377
 21
6.4128552233
  0
LINE
  5
2AC
100
AcDbEntity
  8
0
100
AcDbLine
 62
4
  6
CONTINUOUS
 10
9.0467601898
 20
7.5161410783
 11
9.0467601898
 21
7.4002299748
  0
LINE
  5
2AD
100
AcDbEntity
  8
0
100
AcDbLine
 62
7
  6
CONTINUOUS
 10
10.6264702877
 20
10.7745312568
 11
10.6255967686
 21
10.7737033467
  0
LINE
  5
2AE
100
AcDbEntity
  8
0
100
AcDbLine
 62
4
  6
CONTINUOUS
 10
11.466749409
 20
6.5871646715
 11
11.4915875034
 21
6.5854421438
  0
LINE
  5
2AF
100
AcDbEntity
  8
0
100
AcDbLine
 62
4
  6
CONTINUOUS
 10
11.5992192418
 20
6.6028159518
 11
11.5412636888
 21
6.606835183
  0
LINE
  5
2B0
100
AcDbEntity
  8
0
100
AcDbLine
 62
4
  6
CONTINUOUS
 10
11.6323366987
 20
6.6419160746
 11
11.6902922517
 21
6.6378968434
  0
LINE
  5
2B1
100
AcDbEntity
  8
0
100
AcDbLine
 62
4
  6
CONTINUOUS
 10
11.088658421
 20
6.4080571261
 11
11.1328150336
 21
6.3829165483
  0
LINE
  5
2B2
100
AcDbEntity
  8
0
100
AcDbLine
 62
4
  6
CONTINUOUS
 10
11.5316044305
 20
6.8608536149
 11
11.4929673952
 21
6.8635331024
  0
LINE
  5
2B3
100
AcDbEntity
  8
0
100
AcDbLine
 62
4
  6
CONTINUOUS
 10
12.1884340313
 20
6.8732578804
 11
12.1304784783
 21
6.8772771116
  0
LINE
  5
2B4
100
AcDbEntity
  8
0
100
AcDbLine
 62
4
  6
CONTINUOUS
 10
11.8213821956
 20
6.8987130117
 11
11.7634266425
 21
6.9027322429
  0
LINE
  5
2B5
100
AcDbEntity
  8
0
100
AcDbLine
 62
4
  6
CONTINUOUS
 10
11.6281970188
 20
6.9121104492
 11
11.5702414658
 21
6.9161296804
  0
LINE
  5
2B6
100
AcDbEntity
  8
0
100
AcDbLine
 62
4
  6
CONTINUOUS
 10
11.5316044305
 20
6.9188091679
 11
11.4736488775
 21
6.9228283992
  0
LINE
  5
2B7
100
AcDbEntity
  8
0
100
AcDbLine
 62
4
  6
CONTINUOUS
 10
11.1655185206
 20
6.944197312
 11
11.1075629676
 21
6.9482165432
  0
LINE
  5
2B8
100
AcDbEntity
  8
0
100
AcDbLine
 62
4
  6
CONTINUOUS
 10
11.0785851911
 20
6.9502261589
 11
11.0206296381
 21
6.9542453901
  0
LINE
  5
2B9
100
AcDbEntity
  8
0
100
AcDbLine
 62
4
  6
CONTINUOUS
 10
11.8600192309
 20
6.8960335242
 11
11.9179747839
 21
6.8920142929
  0
LINE
  5
2BA
100
AcDbEntity
  8
0
100
AcDbLine
 62
4
  6
CONTINUOUS
 10
12.0338858899
 20
6.8839758304
 11
12.0918414429
 21
6.8799565991
  0
LINE
  5
2BB
100
AcDbEntity
  8
0
100
AcDbLine
 62
4
  6
CONTINUOUS
 10
11.1476488815
 20
10.1571401277
 11
11.1331599935
 21
10.1484856791
  0
LINE
  5
2BC
100
AcDbEntity
  8
0
100
AcDbLine
 62
4
  6
CONTINUOUS
 10
12.1304784783
 20
6.9062548881
 11
12.1884340313
 21
6.9022356569
  0
LINE
  5
2BD
100
AcDbEntity
  8
0
100
AcDbLine
 62
4
  6
CONTINUOUS
 10
11.7634266425
 20
6.9413692782
 11
11.8213821956
 21
6.937350047
  0
LINE
  5
2BE
100
AcDbEntity
  8
0
100
AcDbLine
 62
4
  6
CONTINUOUS
 10
11.8213821956
 20
6.9566685647
 11
11.7827451602
 21
6.9593480522
  0
LINE
  5
2BF
100
AcDbEntity
  8
0
100
AcDbLine
 62
4
  6
CONTINUOUS
 10
11.4263185092
 20
6.9840663244
 11
11.3683629562
 21
6.9880855556
  0
LINE
  5
2C0
100
AcDbEntity
  8
0
100
AcDbLine
 62
4
  6
CONTINUOUS
 10
11.0206296381
 20
7.0122009431
 11
11.0785851911
 21
7.0081817119
  0
LINE
  5
2C1
100
AcDbEntity
  8
0
100
AcDbLine
 62
4
  6
CONTINUOUS
 10
11.5702414658
 20
6.9740852334
 11
11.6281970188
 21
6.9700660022
  0
LINE
  5
2C2
100
AcDbEntity
  8
0
100
AcDbLine
 62
4
  6
CONTINUOUS
 10
11.6668340542
 20
6.9673865147
 11
11.7247896072
 21
6.9633672834
  0
LINE
  5
2C3
100
AcDbEntity
  8
0
100
AcDbLine
 62
4
  6
CONTINUOUS
 10
12.0338858899
 20
6.9419313834
 11
12.0918414429
 21
6.9379121522
  0
LINE
  5
2C4
100
AcDbEntity
  8
0
100
AcDbLine
 62
4
  6
CONTINUOUS
 10
12.1304784783
 20
6.9352326647
 11
12.1884340313
 21
6.9312134334
  0
LINE
  5
2C5
100
AcDbEntity
  8
0
100
AcDbLine
 62
4
  6
CONTINUOUS
 10
11.9880044105
 20
6.9740910513
 11
12.0024932987
 21
6.9730862435
  0
LINE
  5
2C6
100
AcDbEntity
  8
0
100
AcDbLine
 62
4
  6
CONTINUOUS
 10
11.0785851911
 20
7.0661372649
 11
11.0206296381
 21
7.0701564962
  0
LINE
  5
2C7
100
AcDbEntity
  8
0
100
AcDbLine
 62
4
  6
CONTINUOUS
 10
11.1944962971
 20
7.0580988024
 11
11.2524518502
 21
7.0540795711
  0
LINE
  5
2C8
100
AcDbEntity
  8
0
100
AcDbLine
 62
4
  6
CONTINUOUS
 10
12.0076678808
 20
6.3664019116
 11
12.05182449
 21
6.3412613323
  0
LINE
  5
2C9
100
AcDbEntity
  8
0
100
AcDbLine
 62
4
  6
CONTINUOUS
 10
9.0105379699
 20
7.5186530977
 11
9.0829824096
 21
7.5136290588
  0
LINE
  5
2CA
100
AcDbEntity
  8
0
100
AcDbLine
 62
4
  6
CONTINUOUS
 10
11.1962901593
 20
6.4668277569
 11
11.2128488878
 21
6.4491206767
  0
LINE
  5
2CB
100
AcDbEntity
  8
0
100
AcDbLine
 62
4
  6
CONTINUOUS
 10
11.1548933254
 20
10.166296987
 11
11.1476488815
 21
10.1571401277
  0
LINE
  5
2CC
100
AcDbEntity
  8
0
100
AcDbLine
 62
4
  6
CONTINUOUS
 10
11.6488954519
 20
6.3195283672
 11
11.6323367303
 21
6.3372354487
  0
LINE
  5
2CD
100
AcDbEntity
  8
0
100
AcDbLine
 62
4
  6
CONTINUOUS
 10
11.4501906789
 20
6.6048717535
 11
11.466749409
 21
6.5871646715
  0
LINE
  5
2CE
100
AcDbEntity
  8
0
100
AcDbLine
 62
4
  6
CONTINUOUS
 10
11.7454880034
 20
6.312829651
 11
11.7289292818
 21
6.3305367325
  0
LINE
  5
2CF
100
AcDbEntity
  8
0
100
AcDbLine
 62
4
  6
CONTINUOUS
 10
10.7564490284
 20
6.3350551445
 11
10.7926712482
 21
6.2166320216
  0
LINE
  5
2D0
100
AcDbEntity
  8
0
100
AcDbLine
 62
7
  6
CONTINUOUS
 10
10.1606144853
 20
10.8310490793
 11
10.1606144853
 21
10.7737661635
  0
LINE
  5
2D1
100
AcDbEntity
  8
0
100
AcDbLine
 62
7
  6
CONTINUOUS
 10
10.3351675437
 20
10.8431543964
 11
10.3351675437
 21
10.7592863634
  0
LINE
  5
2D2
100
AcDbEntity
  8
0
100
AcDbLine
 62
4
  6
CONTINUOUS
 10
11.7703261133
 20
6.4270182283
 11
11.7868848348
 21
6.4093111486
  0
LINE
  5
2D3
100
AcDbEntity
  8
0
100
AcDbLine
 62
4
  6
CONTINUOUS
 10
11.8613991094
 20
6.4207022946
 11
11.8779578309
 21
6.4029952149
  0
LINE
  5
2D4
100
AcDbEntity
  8
0
100
AcDbLine
 62
4
  6
CONTINUOUS
 10
11.2928827454
 20
6.4601290383
 11
11.3260002161
 21
6.3419212279
  0
LINE
  5
2D5
100
AcDbEntity
  8
0
100
AcDbLine
 62
4
  6
CONTINUOUS
 10
11.0206296381
 20
7.0701564962
 11
11.0206296381
 21
7.0122009431
  0
LINE
  5
2D6
100
AcDbEntity
  8
0
100
AcDbLine
 62
7
  6
CONTINUOUS
 10
13.1826472101
 20
10.7816086727
 11
12.681056324
 21
10.2971090529
  0
LINE
  5
2D7
100
AcDbEntity
  8
0
100
AcDbLine
 62
4
  6
CONTINUOUS
 10
12.4419896858
 20
9.4733328435
 11
12.4564785737
 21
9.481987292
  0
LINE
  5
2D8
100
AcDbEntity
  8
0
100
AcDbLine
 62
4
  6
CONTINUOUS
 10
12.4854563496
 20
9.3737258319
 11
12.4709674616
 21
9.3650713808
  0
LINE
  5
2D9
100
AcDbEntity
  8
0
100
AcDbLine
 62
4
  6
CONTINUOUS
 10
12.4202563543
 20
8.2770920794
 11
12.4709674621
 21
8.2735752521
  0
LINE
  5
2DA
100
AcDbEntity
  8
0
100
AcDbLine
 62
4
  6
CONTINUOUS
 10
12.4202563543
 20
8.3447068874
 11
12.4709674621
 21
8.3411900601
  0
LINE
  5
2DB
100
AcDbEntity
  8
0
100
AcDbLine
 62
4
  6
CONTINUOUS
 10
12.4709674621
 20
8.3894863555
 11
12.4202563543
 21
8.3930031828
  0
LINE
  5
2DC
100
AcDbEntity
  8
0
100
AcDbLine
 62
4
  6
CONTINUOUS
 10
11.0785851911
 20
7.0081817119
 11
11.0785851911
 21
6.9502261589
  0
LINE
  5
2DD
100
AcDbEntity
  8
0
100
AcDbLine
 62
4
  6
CONTINUOUS
 10
11.0969377737
 20
10.0930421469
 11
11.0969377737
 21
10.2089532503
  0
LINE
  5
2DE
100
AcDbEntity
  8
0
100
AcDbLine
 62
4
  6
CONTINUOUS
 10
11.1075629676
 20
6.9482165432
 11
11.1075629676
 21
7.0641276493
  0
LINE
  5
2DF
100
AcDbEntity
  8
0
100
AcDbLine
 62
4
  6
CONTINUOUS
 10
11.1548933254
 20
10.1856154996
 11
11.1548933254
 21
10.166296987
  0
LINE
  5
2E0
100
AcDbEntity
  8
0
100
AcDbLine
 62
4
  6
CONTINUOUS
 10
11.1548933417
 20
6.3537875299
 11
11.1548933417
 21
6.469698636
  0
LINE
  5
2E1
100
AcDbEntity
  8
0
100
AcDbLine
 62
4
  6
CONTINUOUS
 10
11.1655185206
 20
7.060108418
 11
11.1655185206
 21
6.944197312
  0
LINE
  5
2E2
100
AcDbEntity
  8
0
100
AcDbLine
 62
4
  6
CONTINUOUS
 10
11.1944962971
 20
7.0580988024
 11
11.1944962971
 21
6.9421876964
  0
LINE
  5
2E3
100
AcDbEntity
  8
0
100
AcDbLine
 62
4
  6
CONTINUOUS
 10
11.2128488878
 20
6.4491206767
 11
11.2128488878
 21
6.3663270293
  0
LINE
  5
2E4
100
AcDbEntity
  8
0
100
AcDbLine
 62
4
  6
CONTINUOUS
 10
11.2524518502
 20
7.0540795711
 11
11.2524518502
 21
6.9381684651
  0
LINE
  5
2E5
100
AcDbEntity
  8
0
100
AcDbLine
 62
4
  6
CONTINUOUS
 10
11.3683629562
 20
6.9301300026
 11
11.3683629562
 21
7.0460411086
  0
LINE
  5
2E6
100
AcDbEntity
  8
0
100
AcDbLine
 62
4
  6
CONTINUOUS
 10
11.3922351299
 20
6.337327821
 11
11.3922351299
 21
6.4532389271
  0
LINE
  5
2E7
100
AcDbEntity
  8
0
100
AcDbLine
 62
4
  6
CONTINUOUS
 10
11.4263185092
 20
6.9261107714
 11
11.4263185092
 21
6.9840663244
  0
LINE
  5
2E8
100
AcDbEntity
  8
0
100
AcDbLine
 62
4
  6
CONTINUOUS
 10
11.4501906789
 20
6.7042241293
 11
11.4501906789
 21
6.6048717535
  0
LINE
  5
2E9
100
AcDbEntity
  8
0
100
AcDbLine
 62
4
  6
CONTINUOUS
 10
11.4584700437
 20
6.3327344142
 11
11.4584700437
 21
6.4486455202
  0
LINE
  5
2EA
100
AcDbEntity
  8
0
100
AcDbLine
 62
4
  6
CONTINUOUS
 10
11.4736488775
 20
6.9228283992
 11
11.4736488775
 21
6.9807839522
  0
LINE
  5
2EB
100
AcDbEntity
  8
0
100
AcDbLine
 62
4
  6
CONTINUOUS
 10
10.7202268085
 20
6.2216560606
 11
10.7564490284
 21
6.3350551445
  0
LINE
  5
2EC
100
AcDbEntity
  8
0
100
AcDbLine
 62
4
  6
CONTINUOUS
 10
11.5081462319
 20
6.6008525222
 11
11.5081462319
 21
6.7002048981
  0
LINE
  5
2ED
100
AcDbEntity
  8
0
100
AcDbLine
 62
4
  6
CONTINUOUS
 10
11.5316044305
 20
6.9767647209
 11
11.5316044305
 21
6.8608536149
  0
LINE
  5
2EE
100
AcDbEntity
  8
0
100
AcDbLine
 62
4
  6
CONTINUOUS
 10
11.5702414658
 20
6.9161296804
 11
11.5702414658
 21
6.9740852334
  0
LINE
  5
2EF
100
AcDbEntity
  8
0
100
AcDbLine
 62
4
  6
CONTINUOUS
 10
11.5799007287
 20
6.5793176008
 11
11.5799007287
 21
6.6372731538
  0
LINE
  5
2F0
100
AcDbEntity
  8
0
100
AcDbLine
 62
4
  6
CONTINUOUS
 10
11.6281970188
 20
7.0280215552
 11
11.6281970188
 21
6.9121104492
  0
LINE
  5
2F1
100
AcDbEntity
  8
0
100
AcDbLine
 62
4
  6
CONTINUOUS
 10
11.6323366987
 20
6.5756811539
 11
11.6323366987
 21
6.69159226
  0
LINE
  5
2F2
100
AcDbEntity
  8
0
100
AcDbLine
 62
4
  6
CONTINUOUS
 10
11.6323367303
 20
6.3372354487
 11
11.6323367303
 21
6.4200290961
  0
LINE
  5
2F3
100
AcDbEntity
  8
0
100
AcDbLine
 62
4
  6
CONTINUOUS
 10
11.6668340542
 20
6.9673865147
 11
11.6668340542
 21
6.9094309617
  0
LINE
  5
2F4
100
AcDbEntity
  8
0
100
AcDbLine
 62
4
  6
CONTINUOUS
 10
11.6902922517
 20
6.6875730287
 11
11.6902922517
 21
6.5716619227
  0
LINE
  5
2F5
100
AcDbEntity
  8
0
100
AcDbLine
 62
4
  6
CONTINUOUS
 10
12.4275007978
 20
9.4550191317
 11
12.4419896858
 21
9.4733328435
  0
LINE
  5
2F6
100
AcDbEntity
  8
0
100
AcDbLine
 62
4
  6
CONTINUOUS
 10
12.4927007935
 20
9.3828826869
 11
12.4854563496
 21
9.3737258319
  0
LINE
  5
2F7
100
AcDbEntity
  8
0
100
AcDbLine
 62
4
  6
CONTINUOUS
 10
11.7289292818
 20
6.3305367325
 11
11.7289292818
 21
6.4133303799
  0
LINE
  5
2F8
100
AcDbEntity
  8
0
100
AcDbLine
 62
4
  6
CONTINUOUS
 10
11.7634266425
 20
6.9027322429
 11
11.7634266425
 21
6.9413692782
  0
LINE
  5
2F9
100
AcDbEntity
  8
0
100
AcDbLine
 62
4
  6
CONTINUOUS
 10
11.7868848348
 20
6.4093111486
 11
11.7868848348
 21
6.3265175012
  0
LINE
  5
2FA
100
AcDbEntity
  8
0
100
AcDbLine
 62
4
  6
CONTINUOUS
 10
11.8200022779
 20
6.3076620686
 11
11.8200022779
 21
6.4235731746
  0
LINE
  5
2FB
100
AcDbEntity
  8
0
100
AcDbLine
 62
4
  6
CONTINUOUS
 10
11.8213821956
 20
6.9566685647
 11
11.8213821956
 21
6.8987130117
  0
LINE
  5
2FC
100
AcDbEntity
  8
0
100
AcDbLine
 62
4
  6
CONTINUOUS
 10
11.8600192309
 20
6.9539890772
 11
11.8600192309
 21
6.8960335242
  0
LINE
  5
2FD
100
AcDbEntity
  8
0
100
AcDbLine
 62
4
  6
CONTINUOUS
 10
11.8779578309
 20
6.4029952149
 11
11.8779578309
 21
6.3202015675
  0
LINE
  5
2FE
100
AcDbEntity
  8
0
100
AcDbLine
 62
4
  6
CONTINUOUS
 10
11.9179747839
 20
6.8920142929
 11
11.9179747839
 21
6.9499698459
  0
LINE
  5
2FF
100
AcDbEntity
  8
0
100
AcDbLine
 62
4
  6
CONTINUOUS
 10
11.9248742731
 20
6.300389171
 11
11.9248742731
 21
6.416300277
  0
LINE
  5
300
100
AcDbEntity
  8
0
100
AcDbLine
 62
4
  6
CONTINUOUS
 10
11.2597652885
 20
6.3465146357
 11
11.2928827454
 21
6.4601290383
  0
LINE
  5
301
100
AcDbEntity
  8
0
100
AcDbLine
 62
4
  6
CONTINUOUS
 10
11.9566118192
 20
6.8893348054
 11
11.9566118192
 21
7.0052459114
  0
LINE
  5
302
100
AcDbEntity
  8
0
100
AcDbLine
 62
4
  6
CONTINUOUS
 10
11.9952488546
 20
6.8866553179
 11
11.9952488546
 21
6.9446108709
  0
LINE
  5
303
100
AcDbEntity
  8
0
100
AcDbLine
 62
4
  6
CONTINUOUS
 10
12.0338858899
 20
6.9419313834
 11
12.0338858899
 21
6.8839758304
  0
LINE
  5
304
100
AcDbEntity
  8
0
100
AcDbLine
 62
4
  6
CONTINUOUS
 10
12.1304784783
 20
6.9352326647
 11
12.1304784783
 21
6.9062548881
  0
LINE
  5
305
100
AcDbEntity
  8
0
100
AcDbLine
 62
4
  6
CONTINUOUS
 10
12.4202563539
 20
9.4265437597
 11
12.4275007978
 21
9.4550191317
  0
LINE
  5
306
100
AcDbEntity
  8
0
100
AcDbLine
 62
4
  6
CONTINUOUS
 10
11.5412636888
 20
6.606835183
 11
11.5661017849
 21
6.6961856668
  0
LINE
  5
307
100
AcDbEntity
  8
0
100
AcDbLine
 62
4
  6
CONTINUOUS
 10
12.4709674616
 20
9.3650713808
 11
12.4564785737
 21
9.3660761885
  0
LINE
  5
308
100
AcDbEntity
  8
0
100
AcDbLine
 62
4
  6
CONTINUOUS
 10
12.4637230177
 20
9.4235293364
 11
12.4927007935
 21
9.4215197208
  0
LINE
  5
309
100
AcDbEntity
  8
0
100
AcDbLine
 62
4
  6
CONTINUOUS
 10
12.4564785737
 20
9.481987292
 11
12.4709674616
 21
9.4809824842
  0
LINE
  5
30A
100
AcDbEntity
  8
0
100
AcDbLine
 62
4
  6
CONTINUOUS
 10
11.1476488815
 20
10.1957771668
 11
11.1548933254
 21
10.1856154996
  0
LINE
  5
30B
100
AcDbEntity
  8
0
100
AcDbLine
 62
4
  6
CONTINUOUS
 10
12.48545635
 20
8.3208667363
 11
12.4709674621
 21
8.3411900601
  0
LINE
  5
30C
100
AcDbEntity
  8
0
100
AcDbLine
 62
4
  6
CONTINUOUS
 10
12.478211906
 20
8.3793246953
 11
12.4709674621
 21
8.3894863555
  0
LINE
  5
30D
100
AcDbEntity
  8
0
100
AcDbLine
 62
4
  6
CONTINUOUS
 10
12.1884340313
 20
6.9022356569
 11
12.1884340313
 21
6.8732578804
  0
LINE
  5
30E
100
AcDbEntity
  8
0
100
AcDbLine
 62
4
  6
CONTINUOUS
 10
12.4709674621
 20
8.3411900601
 11
12.478211906
 21
8.3503469195
  0
LINE
  5
30F
100
AcDbEntity
  8
0
100
AcDbLine
 62
4
  6
CONTINUOUS
 10
12.4709674621
 20
8.2735752521
 11
12.48545635
 21
8.2918889621
  0
LINE
  5
310
100
AcDbEntity
  8
0
100
AcDbLine
 62
4
  6
CONTINUOUS
 10
12.4202563543
 20
8.3930031828
 11
12.4202563543
 21
8.2770920794
  0
LINE
  5
311
100
AcDbEntity
  8
0
100
AcDbLine
 62
4
  6
CONTINUOUS
 10
12.478211906
 20
8.3503469195
 11
12.478211906
 21
8.3793246953
  0
LINE
  5
312
100
AcDbEntity
  8
0
100
AcDbLine
 62
4
  6
CONTINUOUS
 10
12.48545635
 20
8.2918889621
 11
12.48545635
 21
8.3208667363
  0
LINE
  5
313
100
AcDbEntity
  8
0
100
AcDbLine
 62
4
  6
CONTINUOUS
 10
12.4927007935
 20
9.4215197208
 11
12.4927007935
 21
9.3828826869
  0
LINE
  5
314
100
AcDbEntity
  8
0
100
AcDbLine
 62
4
  6
CONTINUOUS
 10
11.1331599935
 20
10.2064412309
 11
11.1476488815
 21
10.1957771668
  0
LINE
  5
315
100
AcDbEntity
  8
0
100
AcDbLine
 62
4
  6
CONTINUOUS
 10
12.4564785737
 20
9.3660761885
 11
12.4419896858
 21
9.3767402552
  0
LINE
  5
316
100
AcDbEntity
  8
02___PRT_ALL_AXES
100
AcDbLine
 62
7
  6
CONTINUOUS
 10
10.5904325085
 20
10.7743195548
 11
10.5451511523
 21
10.8164586102
  0
LINE
  5
317
100
AcDbEntity
  8
0
100
AcDbLine
 62
7
  6
CONTINUOUS
 10
12.681056324
 20
10.2971090529
 11
12.681056324
 21
5.9504425771
  0
LINE
  5
318
100
AcDbEntity
  8
0
100
AcDbLine
 62
4
  6
CONTINUOUS
 10
11.2128488878
 20
6.3663270293
 11
11.1962901593
 21
6.3509166509
  0
LINE
  5
319
100
AcDbEntity
  8
0
100
AcDbLine
 62
4
  6
CONTINUOUS
 10
11.4915875034
 20
6.5854421438
 11
11.5081462319
 21
6.6008525222
  0
LINE
  5
31A
100
AcDbEntity
  8
0
100
AcDbLine
 62
4
  6
CONTINUOUS
 10
11.1331599935
 20
10.1484856791
 11
11.0969377737
 21
10.1509976986
  0
LINE
  5
31B
100
AcDbEntity
  8
0
100
AcDbLine
 62
4
  6
CONTINUOUS
 10
11.0969377737
 20
10.2089532503
 11
11.1331599935
 21
10.2064412309
  0
LINE
  5
31C
100
AcDbEntity
  8
0
100
AcDbLine
 62
4
  6
CONTINUOUS
 10
12.4709674616
 20
9.4809824842
 11
12.4854563496
 21
9.4703184201
  0
LINE
  5
31D
100
AcDbEntity
  8
0
100
AcDbLine
 62
4
  6
CONTINUOUS
 10
12.4419896858
 20
9.3767402552
 11
12.4275007978
 21
9.39706358
  0
LINE
  5
31E
100
AcDbEntity
  8
0
100
AcDbLine
 62
4
  6
CONTINUOUS
 10
12.4854563496
 20
9.4703184201
 11
12.4927007935
 21
9.460156753
  0
LINE
  5
31F
100
AcDbEntity
  8
0
100
AcDbLine
 62
4
  6
CONTINUOUS
 10
12.4275007978
 20
9.39706358
 11
12.4202563539
 21
9.4265437597
  0
LINE
  5
320
100
AcDbEntity
  8
0
100
AcDbLine
 62
4
  6
CONTINUOUS
 10
11.6323367303
 20
6.4200290961
 11
11.6488954519
 21
6.4354394733
  0
LINE
  5
321
100
AcDbEntity
  8
0
100
AcDbLine
 62
4
  6
CONTINUOUS
 10
11.7289292818
 20
6.4133303799
 11
11.7454880034
 21
6.4287407571
  0
LINE
  5
322
100
AcDbEntity
  8
0
100
AcDbLine
 62
4
  6
CONTINUOUS
 10
11.1328150336
 20
6.4270731626
 11
11.088658421
 21
6.4080571261
  0
LINE
  5
323
100
AcDbEntity
  8
0
100
AcDbLine
 62
7
  6
CONTINUOUS
 10
12.681056324
 20
10.2971090529
 11
8.8173527899
 21
10.5650578031
  0
LINE
  5
324
100
AcDbEntity
  8
0
100
AcDbLine
 62
7
  6
CONTINUOUS
 10
10.1138431701
 20
10.7858714553
 11
10.2416249133
 21
10.7527991485
  0
LINE
  5
325
100
AcDbEntity
  8
0
100
AcDbLine
 62
7
  6
CONTINUOUS
 10
13.1826472101
 20
10.7816086727
 11
13.1826472101
 21
6.4349421969
  0
LINE
  5
326
100
AcDbEntity
  8
0
100
AcDbLine
 62
4
  6
CONTINUOUS
 10
11.7868848348
 20
6.3265175012
 11
11.7703261133
 21
6.3111071223
  0
LINE
  5
327
100
AcDbEntity
  8
0
100
AcDbLine
 62
4
  6
CONTINUOUS
 10
11.8779578309
 20
6.3202015675
 11
11.8613991094
 21
6.3047911885
  0
LINE
  5
328
100
AcDbEntity
  8
0
100
AcDbLine
 62
7
  6
CONTINUOUS
 10
10.4629492869
 20
10.8100820896
 11
10.3351675437
 21
10.8431543964
  0
LINE
  5
329
100
AcDbEntity
  8
0
100
AcDbLine
 62
4
  6
CONTINUOUS
 10
12.05182449
 20
6.3412613323
 11
12.0076678808
 21
6.3222452973
  0
LINE
  5
32A
100
AcDbEntity
  8
0
100
AcDbLine
 62
7
  6
CONTINUOUS
 10
10.2416249133
 20
10.7527991485
 11
10.4161779717
 21
10.7649044656
  0
LINE
  5
32B
100
AcDbEntity
  8
0
100
AcDbLine
 62
7
  6
CONTINUOUS
 10
10.3351675437
 20
10.8431543964
 11
10.1606144853
 21
10.8310490793
  0
LINE
  5
32C
100
AcDbEntity
  8
0
100
AcDbLine
 62
7
  6
CONTINUOUS
 10
9.318943676
 20
11.0495574229
 11
13.1826472101
 21
10.7816086727
  0
LINE
  5
32D
100
AcDbEntity
  8
0
100
AcDbLine
 62
7
  6
CONTINUOUS
 10
13.1826472101
 20
6.4349421969
 11
12.681056324
 21
5.9504425771
  0
ARC
  5
32E
100
AcDbEntity
  8
0
100
AcDbCircle
 62
7
  6
CONTINUOUS
 10
12.1829570293
 20
9.2366873103
 40
0.1204890005
100
AcDbArc
 50
216.0335857956
 51
232.0498253939
  0
ARC
  5
32F
100
AcDbEntity
  8
0
100
AcDbCircle
 62
7
  6
CONTINUOUS
 10
10.1313303827
 20
9.3789681015
 40
0.1204890005
100
AcDbArc
 50
216.0335857956
 51
232.0498253939
  0
SPLINE
  5
330
100
AcDbEntity
  8
02___PRT_ALL_AXES
100
AcDbSpline
 62
7
  6
CONTINUOUS
 70
0
 71
3
 72
31
 73
27
 74
0
 42
0.0000001
 43
0.0000001
 44
0.0000000001
 40
0.0
 40
0.0
 40
0.0
 40
0.0
 40
0.0761008109
 40
0.1533691053
 40
0.2310978206
 40
0.3086118373
 40
0.385218609
 40
0.4602419341
 40
0.5330235663
 40
0.6029315496
 40
0.636620852
 40
0.6693716274
 40
0.7011154811
 40
0.7317891641
 40
0.761331845
 40
0.7896871809
 40
0.8168045223
 40
0.8426365275
 40
0.8671438057
 40
0.8902927164
 40
0.9120569767
 40
0.932421459
 40
0.9513799339
 40
0.9689416195
 40
0.9851326829
 40
1.0
 40
1.0
 40
1.0
 40
1.0
 10
10.3573714471
 20
10.8646017214
 30
0.0
 10
10.348909734
 20
10.8651885432
 30
0.0
 10
10.3318396622
 20
10.8661395957
 30
0.0
 10
10.3060908439
 20
10.8669089932
 30
0.0
 10
10.280173145
 20
10.8670280021
 30
0.0
 10
10.2543344077
 20
10.8664961087
 30
0.0
 10
10.2288188159
 20
10.8653180113
 30
0.0
 10
10.2038690406
 20
10.8635053225
 30
0.0
 10
10.1797219604
 20
10.8610755883
 30
0.0
 10
10.160225565
 20
10.8585261979
 30
0.0
 10
10.1452096235
 20
10.8561828227
 30
0.0
 10
10.1344272577
 20
10.8543090509
 30
0.0
 10
10.1240110588
 20
10.8523015434
 30
0.0
 10
10.1139857043
 20
10.8501654701
 30
0.0
 10
10.1043749798
 20
10.8479057934
 30
0.0
 10
10.0952016808
 20
10.8455277806
 30
0.0
 10
10.0864874533
 20
10.8430375451
 30
0.0
 10
10.078252946
 20
10.8404405497
 30
0.0
 10
10.0705174905
 20
10.837743351
 30
0.0
 10
10.063299194
 20
10.8349523806
 30
0.0
 10
10.0566150102
 20
10.8320738684
 30
0.0
 10
10.0504801839
 20
10.8291151513
 30
0.0
 10
10.0449089485
 20
10.8260825401
 30
0.0
 10
10.0399136303
 20
10.8229828629
 30
0.0
 10
10.0355056007
 20
10.819823414
 30
0.0
 10
10.032855415
 20
10.8175882805
 30
0.0
 10
10.0316423351
 20
10.8164594088
 30
0.0
  0
SPLINE
  5
331
100
AcDbEntity
  8
02___PRT_ALL_AXES
100
AcDbSpline
 62
7
  6
CONTINUOUS
 70
0
 71
3
 72
27
 73
23
 74
0
 42
0.0000001
 43
0.0000001
 44
0.0000000001
 40
0.0
 40
0.0
 40
0.0
 40
0.0
 40
0.0844845218
 40
0.1673018439
 40
0.248083671
 40
0.3265298449
 40
0.4023565216
 40
0.4752829178
 40
0.5450416431
 40
0.6113914904
 40
0.674110937
 40
0.7330061717
 40
0.7879114074
 40
0.8386996475
 40
0.8625235625
 40
0.8852917996
 40
0.9070024887
 40
0.9276577453
 40
0.9472666875
 40
0.9658444447
 40
0.9834123314
 40
1.0
 40
1.0
 40
1.0
 40
1.0
 10
10.3573714471
 20
10.8646017214
 30
0.0
 10
10.3628868679
 20
10.8642192257
 30
0.0
 10
10.3738024213
 20
10.8633647782
 30
0.0
 10
10.3899622306
 20
10.8617986286
 30
0.0
 10
10.4056962459
 20
10.8599649635
 30
0.0
 10
10.4209363646
 20
10.8578723469
 30
0.0
 10
10.4356197671
 20
10.8555292326
 30
0.0
 10
10.4496853548
 20
10.8529460294
 30
0.0
 10
10.4630739174
 20
10.8501331389
 30
0.0
 10
10.475729428
 20
10.8471031247
 30
0.0
 10
10.4875991492
 20
10.8438683953
 30
0.0
 10
10.4986339633
 20
10.8404431853
 30
0.0
 10
10.508787884
 20
10.8368415269
 30
0.0
 10
10.5166405646
 20
10.8336415301
 30
0.0
 10
10.5224371141
 20
10.8309920382
 30
0.0
 10
10.5264456396
 20
10.8290129202
 30
0.0
 10
10.5302044406
 20
10.8270013454
 30
0.0
 10
10.5337095069
 20
10.8249591294
 30
0.0
 10
10.5369573436
 20
10.8228885026
 30
0.0
 10
10.5399448093
 20
10.8207915584
 30
0.0
 10
10.5426686773
 20
10.8186704321
 30
0.0
 10
10.5443542028
 20
10.8172001132
 30
0.0
 10
10.5451488637
 20
10.8164606416
 30
0.0
  0
SPLINE
  5
332
100
AcDbEntity
  8
02___PRT_ALL_AXES
100
AcDbSpline
 62
7
  6
CONTINUOUS
 70
0
 71
3
 72
51
 73
47
 74
0
 42
0.0000001
 43
0.0000001
 44
0.0000000001
 40
0.0
 40
0.0
 40
0.0
 40
0.0
 40
0.0082495521
 40
0.0160260799
 40
0.0233656737
 40
0.030313446
 40
0.0369249861
 40
0.0432658774
 40
0.0494113817
 40
0.0554452116
 40
0.0614562819
 40
0.0675344328
 40
0.0737665047
 40
0.0802324928
 40
0.0870028484
 40
0.0941379825
 40
0.1016885136
 40
0.1096950977
 40
0.1181897683
 40
0.1271978543
 40
0.1367389646
 40
0.1468267212
 40
0.1574704194
 40
0.1686762965
 40
0.1804476795
 40
0.1927842828
 40
0.2191400528
 40
0.2477079987
 40
0.2784215071
 40
0.311195593
 40
0.3459260577
 40
0.3824958301
 40
0.4207738374
 40
0.4606191911
 40
0.5018806657
 40
0.544399376
 40
0.5880090416
 40
0.6325374169
 40
0.6778072138
 40
0.7236376287
 40
0.7698451013
 40
0.8162421278
 40
0.862640227
 40
0.9088587448
 40
0.9547152222
 40
1.0
 40
1.0
 40
1.0
 40
1.0
 10
10.5451488637
 20
10.8164606416
 30
0.0
 10
10.5459085372
 20
10.8157537274
 30
0.0
 10
10.5473427268
 20
10.8143345346
 30
0.0
 10
10.5492812376
 20
10.8121217054
 30
0.0
 10
10.5509389502
 20
10.8098915707
 30
0.0
 10
10.5523132424
 20
10.8076459211
 30
0.0
 10
10.553402222
 20
10.8053868775
 30
0.0
 10
10.5542037411
 20
10.8031166709
 30
0.0
 10
10.5547153677
 20
10.8008379689
 30
0.0
 10
10.5549352033
 20
10.7985542437
 30
0.0
 10
10.5548628814
 20
10.7962695208
 30
0.0
 10
10.5544986998
 20
10.7939877984
 30
0.0
 10
10.5538435486
 20
10.7917128744
 30
0.0
 10
10.5528994623
 20
10.7894479172
 30
0.0
 10
10.55166903
 20
10.787195284
 30
0.0
 10
10.550154426
 20
10.7849570114
 30
0.0
 10
10.5483575628
 20
10.7827351653
 30
0.0
 10
10.5462808733
 20
10.7805314852
 30
0.0
 10
10.5439268699
 20
10.7783477329
 30
0.0
 10
10.5412979629
 20
10.7761859074
 30
0.0
 10
10.538396698
 20
10.7740482589
 30
0.0
 10
10.5352262711
 20
10.7719367006
 30
0.0
 10
10.5317900728
 20
10.7698533004
 30
0.0
 10
10.5280915955
 20
10.7678002841
 30
0.0
 10
10.5241346145
 20
10.7657799169
 30
0.0
 10
10.5183922487
 20
10.7630723653
 30
0.0
 10
10.5105848627
 20
10.7598010178
 30
0.0
 10
10.5004574794
 20
10.7561201056
 30
0.0
 10
10.4894173488
 20
10.7526171984
 30
0.0
 10
10.4775115104
 20
10.749308203
 30
0.0
 10
10.4647906442
 20
10.7462070177
 30
0.0
 10
10.4513092238
 20
10.7433276847
 30
0.0
 10
10.4371251198
 20
10.7406824501
 30
0.0
 10
10.4222993542
 20
10.7382831514
 30
0.0
 10
10.4068957582
 20
10.7361401167
 30
0.0
 10
10.3909807343
 20
10.7342627859
 30
0.0
 10
10.374622903
 20
10.7326593772
 30
0.0
 10
10.3578928759
 20
10.7313367925
 30
0.0
 10
10.3408628246
 20
10.7303009569
 30
0.0
 10
10.3236061848
 20
10.7295561671
 30
0.0
 10
10.3061975277
 20
10.7291060105
 30
0.0
 10
10.2887123305
 20
10.72895202
 30
0.0
 10
10.2712256565
 20
10.7290952094
 30
0.0
 10
10.2538119099
 20
10.7295347465
 30
0.0
 10
10.2365483168
 20
10.7302691676
 30
0.0
 10
10.2251036989
 20
10.7309577277
 30
0.0
 10
10.2194210099
 20
10.7313518235
 30
0.0
  0
SPLINE
  5
333
100
AcDbEntity
  8
02___PRT_ALL_AXES
100
AcDbSpline
 62
7
  6
CONTINUOUS
 70
0
 71
3
 72
39
 73
35
 74
0
 42
0.0000001
 43
0.0000001
 44
0.0000000001
 40
0.0
 40
0.0
 40
0.0
 40
0.0
 40
0.0192535181
 40
0.0368854091
 40
0.0531265331
 40
0.0682867815
 40
0.0755879359
 40
0.0827713323
 40
0.0898954975
 40
0.0970204605
 40
0.10420628
 40
0.1115115158
 40
0.1266838929
 40
0.1429417664
 40
0.1605945724
 40
0.1798708643
 40
0.2009337379
 40
0.2238933713
 40
0.2488165231
 40
0.275741201
 40
0.3046775001
 40
0.3356168974
 40
0.3685356617
 40
0.4033939467
 40
0.440143699
 40
0.4787246364
 40
0.519068367
 40
0.5611005377
 40
0.6047377611
 40
0.6498930879
 40
0.6964715181
 40
0.7934894566
 40
0.8949747659
 40
1.0
 40
1.0
 40
1.0
 40
1.0
 10
10.0316423351
 20
10.8164594088
 30
0.0
 10
10.0305180639
 20
10.8154131811
 30
0.0
 10
10.0284526558
 20
10.8133093258
 30
0.0
 10
10.0258387385
 20
10.8099604127
 30
0.0
 10
10.023862103
 20
10.8065699111
 30
0.0
 10
10.0227412231
 20
10.803675977
 30
0.0
 10
10.0221923084
 20
10.8013729379
 30
0.0
 10
10.0219488925
 20
10.7996639616
 30
0.0
 10
10.0218691945
 20
10.7979536558
 30
0.0
 10
10.0219532304
 20
10.7962433645
 30
0.0
 10
10.0222010652
 20
10.7945344311
 30
0.0
 10
10.0227562237
 20
10.7922313669
 30
0.0
 10
10.0238845206
 20
10.7893375452
 30
0.0
 10
10.0258696978
 20
10.7859475426
 30
0.0
 10
10.0284926178
 20
10.7825992076
 30
0.0
 10
10.0317432336
 20
10.7792967465
 30
0.0
 10
10.0356136009
 20
10.7760445792
 30
0.0
 10
10.0400949501
 20
10.7728485218
 30
0.0
 10
10.0451769748
 20
10.7697142338
 30
0.0
 10
10.0508485573
 20
10.7666492369
 30
0.0
 10
10.0570963661
 20
10.7636599959
 30
0.0
 10
10.0639058722
 20
10.7607536944
 30
0.0
 10
10.0712610129
 20
10.75793761
 30
0.0
 10
10.0791441069
 20
10.7552180351
 30
0.0
 10
10.0875363375
 20
10.7526021636
 30
0.0
 10
10.0964173739
 20
10.7500960799
 30
0.0
 10
10.1057657353
 20
10.7477059079
 30
0.0
 10
10.1155588227
 20
10.7454378474
 30
0.0
 10
10.1257728819
 20
10.7432970093
 30
0.0
 10
10.1363831464
 20
10.7412890344
 30
0.0
 10
10.1512259582
 20
10.7387609738
 30
0.0
 10
10.1705807025
 20
10.7359836507
 30
0.0
 10
10.1946449638
 20
10.7332914802
 30
0.0
 10
10.2110636937
 20
10.7319314053
 30
0.0
 10
10.2194210099
 20
10.7313518235
 30
0.0
  0
SPLINE
  5
334
100
AcDbEntity
  8
0
100
AcDbSpline
 62
7
  6
CONTINUOUS
 70
0
 71
3
 72
90
 73
86
 74
0
 42
0.0000001
 43
0.0000001
 44
0.0000000001
 40
0.0
 40
0.0
 40
0.0
 40
0.0
 40
0.0039801734
 40
0.0081241052
 40
0.0124359616
 40
0.0169193135
 40
0.0215771815
 40
0.0264119171
 40
0.0314251791
 40
0.0366181551
 40
0.0419915397
 40
0.047545654
 40
0.0532804223
 40
0.0591954139
 40
0.0652899192
 40
0.0715628971
 40
0.08463856
 40
0.0984098622
 40
0.1128604225
 40
0.1279709368
 40
0.1437195167
 40
0.1600819662
 40
0.1770320115
 40
0.1945414958
 40
0.2125805581
 40
0.2311177886
 40
0.2501203685
 40
0.2695542002
 40
0.2893840278
 40
0.3095735514
 40
0.3300855399
 40
0.3508819414
 40
0.3719239887
 40
0.3931723021
 40
0.4145869913
 40
0.4361277558
 40
0.4577539862
 40
0.4794248651
 40
0.5010994671
 40
0.5227368581
 40
0.5442961936
 40
0.5657368187
 40
0.5870183693
 40
0.6081008732
 40
0.6289448503
 40
0.6495114141
 40
0.6697623751
 40
0.6896603446
 40
0.7091688452
 40
0.7282524229
 40
0.7468767607
 40
0.7650087978
 40
0.7826168578
 40
0.7996707871
 40
0.8161421063
 40
0.8320041856
 40
0.8472324355
 40
0.8618045284
 40
0.8757006673
 40
0.8889039105
 40
0.8952415029
 40
0.9014010575
 40
0.9073814349
 40
0.9131818212
 40
0.9188016688
 40
0.9242407739
 40
0.9294993077
 40
0.9345778094
 40
0.9394773131
 40
0.9441992992
 40
0.948745847
 40
0.9531196365
 40
0.9573240498
 40
0.9613632821
 40
0.9652423783
 40
0.968967428
 40
0.9725455945
 40
0.9759853044
 40
0.9824864771
 40
0.9855753379
 40
0.9885738066
 40
0.9914977312
 40
0.994364333
 40
0.997192009
 40
1.0
 40
1.0
 40
1.0
 40
1.0
 10
12.0207843706
 20
10.6778352467
 30
0.0
 10
12.0194583855
 20
10.6765544434
 30
0.0
 10
12.0166916426
 20
10.6740018927
 30
0.0
 10
12.0122989025
 20
10.6702736955
 30
0.0
 10
12.0075835848
 20
10.6665722341
 30
0.0
 10
12.0025482774
 20
10.6628994877
 30
0.0
 10
11.9971954434
 20
10.6592571625
 30
0.0
 10
11.9915276964
 20
10.6556470403
 30
0.0
 10
11.9855478748
 20
10.6520708377
 30
0.0
 10
11.9792589427
 20
10.6485304165
 30
0.0
 10
11.9726640758
 20
10.6450274828
 30
0.0
 10
11.9657665583
 20
10.6415638231
 30
0.0
 10
11.9585698496
 20
10.6381411632
 30
0.0
 10
11.95107757
 20
10.6347612107
 30
0.0
 10
11.9432934636
 20
10.6314256875
 30
0.0
 10
11.9323794661
 20
10.6269781941
 30
0.0
 10
11.918026641
 20
10.6215540508
 30
0.0
 10
11.8999347434
 20
10.6153351911
 30
0.0
 10
11.8807801604
 20
10.6093322598
 30
0.0
 10
11.8606015129
 20
10.603557457
 30
0.0
 10
11.8394393089
 20
10.5980225368
 30
0.0
 10
11.8173361762
 20
10.5927387726
 30
0.0
 10
11.794336672
 20
10.5877169302
 30
0.0
 10
11.7704872111
 20
10.5829672369
 30
0.0
 10
11.7458359547
 20
10.5784993663
 30
0.0
 10
11.7204327065
 20
10.5743224169
 30
0.0
 10
11.6943288072
 20
10.5704448933
 30
0.0
 10
11.6675770283
 20
10.5668746894
 30
0.0
 10
11.6402314644
 20
10.5636190736
 30
0.0
 10
11.6123474224
 20
10.5606846693
 30
0.0
 10
11.5839813074
 20
10.5580774439
 30
0.0
 10
11.5551905048
 20
10.5558026997
 30
0.0
 10
11.5260332627
 20
10.5538650626
 30
0.0
 10
11.4965685742
 20
10.5522684734
 30
0.0
 10
11.4668560575
 20
10.5510161798
 30
0.0
 10
11.4369558357
 20
10.5501107294
 30
0.0
 10
11.406928414
 20
10.5495539604
 30
0.0
 10
11.3768345552
 20
10.5493470035
 30
0.0
 10
11.3467351567
 20
10.5494902789
 30
0.0
 10
11.3166911271
 20
10.5499834958
 30
0.0
 10
11.2867632629
 20
10.5508256525
 30
0.0
 10
11.2570121255
 20
10.5520150396
 30
0.0
 10
11.2274979165
 20
10.5535492379
 30
0.0
 10
11.1982803549
 20
10.5554251262
 30
0.0
 10
11.1694185563
 20
10.5576388895
 30
0.0
 10
11.1409709133
 20
10.5601860259
 30
0.0
 10
11.1129949772
 20
10.5630613554
 30
0.0
 10
11.0855473399
 20
10.5662590307
 30
0.0
 10
11.0586835167
 20
10.5697725472
 30
0.0
 10
11.0324578306
 20
10.5735947519
 30
0.0
 10
11.0069233019
 20
10.5777178638
 30
0.0
 10
10.9821315396
 20
10.5821334882
 30
0.0
 10
10.9581326351
 20
10.5868326334
 30
0.0
 10
10.934975056
 20
10.5918057288
 30
0.0
 10
10.9127055426
 20
10.5970426467
 30
0.0
 10
10.8913689963
 20
10.6025327169
 30
0.0
 10
10.871008406
 20
10.6082647562
 30
0.0
 10
10.8516646612
 20
10.6142270957
 30
0.0
 10
10.8333767733
 20
10.620407615
 30
0.0
 10
10.8188554869
 20
10.6258004169
 30
0.0
 10
10.8078032955
 20
10.6302238666
 30
0.0
 10
10.7999140175
 20
10.6335428129
 30
0.0
 10
10.7923151594
 20
10.6369068042
 30
0.0
 10
10.7850105187
 20
10.6403141232
 30
0.0
 10
10.7780037734
 20
10.6437630745
 30
0.0
 10
10.7712984398
 20
10.6472519305
 30
0.0
 10
10.7648978632
 20
10.6507789097
 30
0.0
 10
10.7588052689
 20
10.6543423096
 30
0.0
 10
10.7530236681
 20
10.6579402901
 30
0.0
 10
10.747555972
 20
10.6615711379
 30
0.0
 10
10.7424048803
 20
10.6652330266
 30
0.0
 10
10.737572959
 20
10.6689241868
 30
0.0
 10
10.7330626261
 20
10.6726428658
 30
0.0
 10
10.7288760975
 20
10.6763872306
 30
0.0
 10
10.7250155049
 20
10.6801556338
 30
0.0
 10
10.721482828
 20
10.6839461278
 30
0.0
 10
10.7182796533
 20
10.6877575003
 30
0.0
 10
10.7145219842
 20
10.6927689776
 30
0.0
 10
10.7113311379
 20
10.6979155631
 30
0.0
 10
10.7087977093
 20
10.7031720222
 30
0.0
 10
10.7072670452
 20
10.7070595785
 30
0.0
 10
10.706075022
 20
10.7109565802
 30
0.0
 10
10.705222695
 20
10.71486116
 30
0.0
 10
10.7047109324
 20
10.7187705146
 30
0.0
 10
10.7045969968
 20
10.7213822733
 30
0.0
 10
10.704596993
 20
10.7226828912
 30
0.0
  0
SPLINE
  5
335
100
AcDbEntity
  8
0
100
AcDbSpline
 62
7
  6
CONTINUOUS
 70
0
 71
3
 72
19
 73
15
 74
0
 42
0.0000001
 43
0.0000001
 44
0.0000000001
 40
0.0
 40
0.0
 40
0.0
 40
0.0
 40
0.1504611406
 40
0.2916985742
 40
0.4244193292
 40
0.4878835935
 40
0.5495802133
 40
0.6682271463
 40
0.7255606136
 40
0.7817999183
 40
0.8371467056
 40
0.8918136429
 40
0.9460222308
 40
1.0
 40
1.0
 40
1.0
 40
1.0
 10
13.004579848
 20
9.1737600704
 30
0.0
 10
13.0064725819
 20
9.1755883112
 30
0.0
 10
13.0102554362
 20
9.1790186077
 30
0.0
 10
13.0161128267
 20
9.1835898656
 30
0.0
 10
13.0210603051
 20
9.1868229229
 30
0.0
 10
13.0250056115
 20
9.1890122567
 30
0.0
 10
13.0288345205
 20
9.1908918597
 30
0.0
 10
13.0327082649
 20
9.1924282576
 30
0.0
 10
13.0366037985
 20
9.1935844178
 30
0.0
 10
13.0394840497
 20
9.1942508439
 30
0.0
 10
13.0423547159
 20
9.1947258339
 30
0.0
 10
13.0452150337
 20
9.1950091805
 30
0.0
 10
13.0480638496
 20
9.1951007666
 30
0.0
 10
13.0499565224
 20
9.1950338381
 30
0.0
 10
13.0508983161
 20
9.1949685276
 30
0.0
  0
SPLINE
  5
336
100
AcDbEntity
  8
0
100
AcDbSpline
 62
7
  6
CONTINUOUS
 70
0
 71
3
 72
18
 73
14
 74
0
 42
0.0000001
 43
0.0000001
 44
0.0000000001
 40
0.0
 40
0.0
 40
0.0
 40
0.0
 40
0.150466514
 40
0.2917140478
 40
0.4244427524
 40
0.4879100217
 40
0.5496093045
 40
0.6682623303
 40
0.7817883775
 40
0.8371380958
 40
0.8918079631
 40
0.946019364
 40
1.0
 40
1.0
 40
1.0
 40
1.0
 10
12.9398751401
 20
9.950649596
 30
0.0
 10
12.9410441242
 20
9.951778748
 30
0.0
 10
12.9433805336
 20
9.9538973781
 30
0.0
 10
12.9469981986
 20
9.9567207442
 30
0.0
 10
12.95005396
 20
9.9587175711
 30
0.0
 10
12.9524906403
 20
9.9600697703
 30
0.0
 10
12.9548556342
 20
9.9612306653
 30
0.0
 10
12.9578126341
 20
9.9624037016
 30
0.0
 10
12.9608222263
 20
9.9632042353
 30
0.0
 10
12.9632059245
 20
9.963598562
 30
0.0
 10
12.9649725671
 20
9.9637736068
 30
0.0
 10
12.9667320662
 20
9.9638301436
 30
0.0
 10
12.9679010331
 20
9.9637887873
 30
0.0
 10
12.9684827106
 20
9.9637484483
 30
0.0
  0
SPLINE
  5
337
100
AcDbEntity
  8
0
100
AcDbSpline
 62
7
  6
CONTINUOUS
 70
0
 71
3
 72
21
 73
17
 74
0
 42
0.0000001
 43
0.0000001
 44
0.0000000001
 40
0.0
 40
0.0
 40
0.0
 40
0.0
 40
0.1273176366
 40
0.2537999756
 40
0.3167619475
 40
0.3795355041
 40
0.4421314991
 40
0.5045621439
 40
0.5668413432
 40
0.6289845283
 40
0.6910084528
 40
0.7529310935
 40
0.8147714495
 40
0.8765493365
 40
0.9382852194
 40
1.0
 40
1.0
 40
1.0
 40
1.0
 10
9.4519660892
 20
10.0979716906
 30
0.0
 10
9.4519660892
 20
10.0912269363
 30
0.0
 10
9.4513222579
 20
10.077772997
 30
0.0
 10
9.4488907161
 20
10.061141021
 30
0.0
 10
9.4459844829
 20
10.0480946898
 30
0.0
 10
9.4433341545
 20
10.0384717113
 30
0.0
 10
9.4402162214
 20
10.0290197172
 30
0.0
 10
9.4366378279
 20
10.0197602446
 30
0.0
 10
9.4326072508
 20
10.0107147018
 30
0.0
 10
9.4281337284
 20
10.0019039494
 30
0.0
 10
9.4232275513
 20
9.9933483269
 30
0.0
 10
9.4179000624
 20
9.9850675398
 30
0.0
 10
9.4121635326
 20
9.9770807209
 30
0.0
 10
9.4060310905
 20
9.9694062582
 30
0.0
 10
9.3995171664
 20
9.9620620593
 30
0.0
 10
9.394929367
 20
9.9573965444
 30
0.0
 10
9.3925778433
 20
9.9551251465
 30
0.0
  0
SPLINE
  5
338
100
AcDbEntity
  8
0
100
AcDbSpline
 62
7
  6
CONTINUOUS
 70
0
 71
3
 72
21
 73
17
 74
0
 42
0.0000001
 43
0.0000001
 44
0.0000000001
 40
0.0
 40
0.0
 40
0.0
 40
0.0
 40
0.1273176366
 40
0.2537999756
 40
0.3167619475
 40
0.3795355041
 40
0.4421314991
 40
0.5045621439
 40
0.5668413432
 40
0.6289845283
 40
0.6910084528
 40
0.7529310935
 40
0.8147714495
 40
0.8765493365
 40
0.9382852194
 40
1.0
 40
1.0
 40
1.0
 40
1.0
 10
12.4695185905
 20
9.8887037138
 30
0.0
 10
12.4695185905
 20
9.8819589596
 30
0.0
 10
12.4688747592
 20
9.8685050202
 30
0.0
 10
12.4664432174
 20
9.8518730443
 30
0.0
 10
12.4635369843
 20
9.8388267131
 30
0.0
 10
12.4608866558
 20
9.8292037346
 30
0.0
 10
12.4577687228
 20
9.8197517404
 30
0.0
 10
12.4541903292
 20
9.8104922678
 30
0.0
 10
12.4501597521
 20
9.8014467251
 30
0.0
 10
12.4456862298
 20
9.7926359726
 30
0.0
 10
12.4407800527
 20
9.7840803502
 30
0.0
 10
12.4354525637
 20
9.775799563
 30
0.0
 10
12.429716034
 20
9.7678127442
 30
0.0
 10
12.4235835919
 20
9.7601382814
 30
0.0
 10
12.4170696678
 20
9.7527940826
 30
0.0
 10
12.4124818683
 20
9.7481285677
 30
0.0
 10
12.4101303446
 20
9.7458571698
 30
0.0
  0
SPLINE
  5
339
100
AcDbEntity
  8
0
100
AcDbSpline
 62
7
  6
CONTINUOUS
 70
0
 71
3
 72
21
 73
17
 74
0
 42
0.0000001
 43
0.0000001
 44
0.0000000001
 40
0.0
 40
0.0
 40
0.0
 40
0.0
 40
0.1273176366
 40
0.2537999756
 40
0.3167619475
 40
0.3795355041
 40
0.4421314991
 40
0.5045621439
 40
0.5668413432
 40
0.6289845283
 40
0.6910084528
 40
0.7529310935
 40
0.8147714495
 40
0.8765493365
 40
0.9382852194
 40
1.0
 40
1.0
 40
1.0
 40
1.0
 10
12.4695185905
 20
6.388188501
 30
0.0
 10
12.4695185905
 20
6.3814437468
 30
0.0
 10
12.4688747592
 20
6.3679898074
 30
0.0
 10
12.4664432174
 20
6.3513578315
 30
0.0
 10
12.4635369843
 20
6.3383115003
 30
0.0
 10
12.4608866558
 20
6.3286885218
 30
0.0
 10
12.4577687228
 20
6.3192365276
 30
0.0
 10
12.4541903292
 20
6.309977055
 30
0.0
 10
12.4501597521
 20
6.3009315123
 30
0.0
 10
12.4456862298
 20
6.2921207598
 30
0.0
 10
12.4407800527
 20
6.2835651374
 30
0.0
 10
12.4354525637
 20
6.2752843502
 30
0.0
 10
12.429716034
 20
6.2672975313
 30
0.0
 10
12.4235835919
 20
6.2596230686
 30
0.0
 10
12.4170696678
 20
6.2522788697
 30
0.0
 10
12.4124818683
 20
6.2476133548
 30
0.0
 10
12.4101303446
 20
6.245341957
 30
0.0
  0
SPLINE
  5
33A
100
AcDbEntity
  8
0
100
AcDbSpline
 62
7
  6
CONTINUOUS
 70
0
 71
3
 72
21
 73
17
 74
0
 42
0.0000001
 43
0.0000001
 44
0.0000000001
 40
0.0
 40
0.0
 40
0.0
 40
0.0
 40
0.1273176366
 40
0.2537999756
 40
0.3167619475
 40
0.3795355041
 40
0.4421314991
 40
0.5045621439
 40
0.5668413432
 40
0.6289845283
 40
0.6910084528
 40
0.7529310935
 40
0.8147714495
 40
0.8765493365
 40
0.9382852194
 40
1.0
 40
1.0
 40
1.0
 40
1.0
 10
9.4519660892
 20
6.5974564777
 30
0.0
 10
9.4519660892
 20
6.5907117235
 30
0.0
 10
9.4513222579
 20
6.5772577842
 30
0.0
 10
9.4488907161
 20
6.5606258082
 30
0.0
 10
9.4459844829
 20
6.547579477
 30
0.0
 10
9.4433341545
 20
6.5379564985
 30
0.0
 10
9.4402162214
 20
6.5285045044
 30
0.0
 10
9.4366378279
 20
6.5192450318
 30
0.0
 10
9.4326072508
 20
6.510199489
 30
0.0
 10
9.4281337284
 20
6.5013887365
 30
0.0
 10
9.4232275513
 20
6.4928331141
 30
0.0
 10
9.4179000624
 20
6.4845523269
 30
0.0
 10
9.4121635326
 20
6.4765655081
 30
0.0
 10
9.4060310905
 20
6.4688910453
 30
0.0
 10
9.3995171664
 20
6.4615468465
 30
0.0
 10
9.394929367
 20
6.4568813316
 30
0.0
 10
9.3925778433
 20
6.4546099337
 30
0.0
  0
SPLINE
  5
33B
100
AcDbEntity
  8
0
100
AcDbSpline
 62
7
  6
CONTINUOUS
 70
0
 71
3
 72
21
 73
17
 74
0
 42
0.0000001
 43
0.0000001
 44
0.0000000001
 40
0.0
 40
0.0
 40
0.0
 40
0.0
 40
0.1273176366
 40
0.2537999756
 40
0.3167619475
 40
0.3795355041
 40
0.4421314991
 40
0.5045621439
 40
0.5668413432
 40
0.6289845283
 40
0.6910084528
 40
0.7529310935
 40
0.8147714495
 40
0.8765493365
 40
0.9382852194
 40
1.0
 40
1.0
 40
1.0
 40
1.0
 10
10.2961853526
 20
7.9568885771
 30
0.0
 10
10.2961853526
 20
7.9501438228
 30
0.0
 10
10.2955415213
 20
7.9366898835
 30
0.0
 10
10.2931099795
 20
7.9200579075
 30
0.0
 10
10.2902037463
 20
7.9070115763
 30
0.0
 10
10.2875534179
 20
7.8973885978
 30
0.0
 10
10.2844354849
 20
7.8879366037
 30
0.0
 10
10.2808570913
 20
7.8786771311
 30
0.0
 10
10.2768265142
 20
7.8696315883
 30
0.0
 10
10.2723529919
 20
7.8608208358
 30
0.0
 10
10.2674468147
 20
7.8522652134
 30
0.0
 10
10.2621193258
 20
7.8439844262
 30
0.0
 10
10.2563827961
 20
7.8359976074
 30
0.0
 10
10.2502503539
 20
7.8283231446
 30
0.0
 10
10.2437364299
 20
7.8209789458
 30
0.0
 10
10.2391486304
 20
7.8163134309
 30
0.0
 10
10.2367971067
 20
7.814042033
 30
0.0
  0
SPLINE
  5
33C
100
AcDbEntity
  8
0
100
AcDbSpline
 62
7
  6
CONTINUOUS
 70
0
 71
3
 72
21
 73
17
 74
0
 42
0.0000001
 43
0.0000001
 44
0.0000000001
 40
0.0
 40
0.0
 40
0.0
 40
0.0
 40
0.1273176366
 40
0.2537999756
 40
0.3167619475
 40
0.3795355041
 40
0.4421314991
 40
0.5045621439
 40
0.5668413432
 40
0.6289845283
 40
0.6910084528
 40
0.7529310935
 40
0.8147714495
 40
0.8765493365
 40
0.9382852194
 40
1.0
 40
1.0
 40
1.0
 40
1.0
 10
10.8100578701
 20
8.3443271292
 30
0.0
 10
10.8100578701
 20
8.337582375
 30
0.0
 10
10.8094140388
 20
8.3241284356
 30
0.0
 10
10.806982497
 20
8.3074964597
 30
0.0
 10
10.8040762639
 20
8.2944501285
 30
0.0
 10
10.8014259354
 20
8.2848271499
 30
0.0
 10
10.7983080024
 20
8.2753751558
 30
0.0
 10
10.7947296088
 20
8.2661156832
 30
0.0
 10
10.7906990317
 20
8.2570701405
 30
0.0
 10
10.7862255094
 20
8.248259388
 30
0.0
 10
10.7813193323
 20
8.2397037656
 30
0.0
 10
10.7759918433
 20
8.2314229784
 30
0.0
 10
10.7702553136
 20
8.2234361595
 30
0.0
 10
10.7641228715
 20
8.2157616968
 30
0.0
 10
10.7576089474
 20
8.2084174979
 30
0.0
 10
10.7530211479
 20
8.203751983
 30
0.0
 10
10.7506696242
 20
8.2014805852
 30
0.0
  0
SPLINE
  5
33D
100
AcDbEntity
  8
0
100
AcDbSpline
 62
7
  6
CONTINUOUS
 70
0
 71
3
 72
21
 73
17
 74
0
 42
0.0000001
 43
0.0000001
 44
0.0000000001
 40
0.0
 40
0.0
 40
0.0
 40
0.0
 40
0.1273176366
 40
0.2537999756
 40
0.3167619475
 40
0.3795355041
 40
0.4421314991
 40
0.5045621439
 40
0.5668413432
 40
0.6289845283
 40
0.6910084528
 40
0.7529310935
 40
0.8147714495
 40
0.8765493365
 40
0.9382852194
 40
1.0
 40
1.0
 40
1.0
 40
1.0
 10
11.2022237963
 20
8.890890172
 30
0.0
 10
11.2022237963
 20
8.8841454178
 30
0.0
 10
11.201579965
 20
8.8706914784
 30
0.0
 10
11.1991484232
 20
8.8540595025
 30
0.0
 10
11.1962421901
 20
8.8410131713
 30
0.0
 10
11.1935918616
 20
8.8313901927
 30
0.0
 10
11.1904739286
 20
8.8219381986
 30
0.0
 10
11.1868955351
 20
8.812678726
 30
0.0
 10
11.1828649579
 20
8.8036331833
 30
0.0
 10
11.1783914356
 20
8.7948224308
 30
0.0
 10
11.1734852585
 20
8.7862668084
 30
0.0
 10
11.1681577695
 20
8.7779860212
 30
0.0
 10
11.1624212398
 20
8.7699992023
 30
0.0
 10
11.1562887977
 20
8.7623247396
 30
0.0
 10
11.1497748736
 20
8.7549805407
 30
0.0
 10
11.1451870741
 20
8.7503150258
 30
0.0
 10
11.1428355504
 20
8.748043628
 30
0.0
  0
SPLINE
  5
33E
100
AcDbEntity
  8
0
100
AcDbSpline
 62
7
  6
CONTINUOUS
 70
0
 71
3
 72
21
 73
17
 74
0
 42
0.0000001
 43
0.0000001
 44
0.0000000001
 40
0.0
 40
0.0
 40
0.0
 40
0.0
 40
0.1273176366
 40
0.2537999756
 40
0.3167619475
 40
0.3795355041
 40
0.4421314991
 40
0.5045621439
 40
0.5668413432
 40
0.6289845283
 40
0.6910084528
 40
0.7529310935
 40
0.8147714495
 40
0.8765493365
 40
0.9382852194
 40
1.0
 40
1.0
 40
1.0
 40
1.0
 10
11.5943896074
 20
8.2899335385
 30
0.0
 10
11.5943896074
 20
8.2831887842
 30
0.0
 10
11.5937457761
 20
8.2697348449
 30
0.0
 10
11.5913142343
 20
8.2531028689
 30
0.0
 10
11.5884080011
 20
8.2400565378
 30
0.0
 10
11.5857576727
 20
8.2304335592
 30
0.0
 10
11.5826397397
 20
8.2209815651
 30
0.0
 10
11.5790613461
 20
8.2117220925
 30
0.0
 10
11.575030769
 20
8.2026765497
 30
0.0
 10
11.5705572467
 20
8.1938657973
 30
0.0
 10
11.5656510695
 20
8.1853101749
 30
0.0
 10
11.5603235806
 20
8.1770293877
 30
0.0
 10
11.5545870509
 20
8.1690425688
 30
0.0
 10
11.5484546087
 20
8.1613681061
 30
0.0
 10
11.5419406847
 20
8.1540239072
 30
0.0
 10
11.5373528852
 20
8.1493583923
 30
0.0
 10
11.5350013615
 20
8.1470869944
 30
0.0
  0
SPLINE
  5
33F
100
AcDbEntity
  8
0
100
AcDbSpline
 62
7
  6
CONTINUOUS
 70
0
 71
3
 72
22
 73
18
 74
0
 42
0.0000001
 43
0.0000001
 44
0.0000000001
 40
0.0
 40
0.0
 40
0.0
 40
0.0
 40
0.124833987
 40
0.1874021408
 40
0.2499783718
 40
0.3125303183
 40
0.3750428904
 40
0.4375154884
 40
0.4999586753
 40
0.5623901518
 40
0.6248302613
 40
0.6872975013
 40
0.749803621
 40
0.8123491683
 40
0.8749201257
 40
0.9374861091
 40
1.0
 40
1.0
 40
1.0
 40
1.0
 10
10.1355553253
 20
8.1733248717
 30
0.0
 10
10.1378983727
 20
8.1639343882
 30
0.0
 10
10.1422386219
 20
8.1500226069
 30
0.0
 10
10.1496300338
 20
8.1320980157
 30
0.0
 10
10.1559844939
 20
8.1189957266
 30
0.0
 10
10.1631363542
 20
8.1063165166
 30
0.0
 10
10.1710779331
 20
8.0941250061
 30
0.0
 10
10.1797989762
 20
8.0824881342
 30
0.0
 10
10.1892856996
 20
8.0714738923
 30
0.0
 10
10.1995187224
 20
8.0611518586
 30
0.0
 10
10.2104709839
 20
8.0515924661
 30
0.0
 10
10.2221055821
 20
8.0428656608
 30
0.0
 10
10.2343739358
 20
8.0350386365
 30
0.0
 10
10.2472144524
 20
8.0281728575
 30
0.0
 10
10.260552837
 20
8.0223203851
 30
0.0
 10
10.2743015696
 20
8.0175206949
 30
0.0
 10
10.2836867638
 20
8.015035709
 30
0.0
 10
10.2884156936
 20
8.013973753
 30
0.0
  0
SPLINE
  5
340
100
AcDbEntity
  8
0
100
AcDbSpline
 62
7
  6
CONTINUOUS
 70
0
 71
3
 72
15
 73
11
 74
0
 42
0.0000001
 43
0.0000001
 44
0.0000000001
 40
0.0
 40
0.0
 40
0.0
 40
0.0
 40
0.1273482936
 40
0.2538605366
 40
0.3795879111
 40
0.5046050899
 40
0.6290174366
 40
0.7529533732
 40
0.8765605776
 40
1.0
 40
1.0
 40
1.0
 40
1.0
 10
10.079621609
 20
9.2165211695
 30
0.0
 10
10.079621609
 20
9.2130563941
 30
0.0
 10
10.079290794
 20
9.2061447997
 30
0.0
 10
10.0777947072
 20
9.1959103383
 30
0.0
 10
10.0753139459
 20
9.1859330316
 30
0.0
 10
10.0718709133
 20
9.1763061874
 30
0.0
 10
10.0674972151
 20
9.1671185822
 30
0.0
 10
10.0622327068
 20
9.1584550548
 30
0.0
 10
10.0561268767
 20
9.1503967944
 30
0.0
 10
10.0515295082
 20
9.1454743397
 30
0.0
 10
10.0491139344
 20
9.1431410949
 30
0.0
  0
SPLINE
  5
341
100
AcDbEntity
  8
0
100
AcDbSpline
 62
7
  6
CONTINUOUS
 70
0
 71
3
 72
23
 73
19
 74
0
 42
0.0000001
 43
0.0000001
 44
0.0000000001
 40
0.0
 40
0.0
 40
0.0
 40
0.0
 40
0.0614488807
 40
0.1232974294
 40
0.1855193177
 40
0.2480712672
 40
0.3108995318
 40
0.3739401513
 40
0.4371217414
 40
0.5003679843
 40
0.5636003151
 40
0.6267406524
 40
0.6897141172
 40
0.7524516838
 40
0.8148926113
 40
0.8769871451
 40
0.9386966623
 40
1.0
 40
1.0
 40
1.0
 40
1.0
 10
9.9709549471
 20
9.3327238899
 30
0.0
 10
9.9745216402
 20
9.3324765389
 30
0.0
 10
9.9816585851
 20
9.3316287406
 30
0.0
 10
9.992220177
 20
9.3293261079
 30
0.0
 10
10.0025770503
 20
9.3260105959
 30
0.0
 10
10.0126284575
 20
9.3217143261
 30
0.0
 10
10.0222782743
 20
9.316478833
 30
0.0
 10
10.0314338247
 20
9.3103545334
 30
0.0
 10
10.0400073075
 20
9.3034003509
 30
0.0
 10
10.047916467
 20
9.2956831127
 30
0.0
 10
10.0550853985
 20
9.287276914
 30
0.0
 10
10.0614452525
 20
9.2782624192
 30
0.0
 10
10.0669348851
 20
9.2687261139
 30
0.0
 10
10.0715014384
 20
9.2587594589
 30
0.0
 10
10.0751008985
 20
9.2484581839
 30
0.0
 10
10.0776983731
 20
9.2379208361
 30
0.0
 10
10.0792687055
 20
9.2272499348
 30
0.0
 10
10.079621609
 20
9.2200879611
 30
0.0
 10
10.079621609
 20
9.2165211695
 30
0.0
  0
SPLINE
  5
342
100
AcDbEntity
  8
0
100
AcDbSpline
 62
7
  6
CONTINUOUS
 70
0
 71
3
 72
15
 73
11
 74
0
 42
0.0000001
 43
0.0000001
 44
0.0000000001
 40
0.0
 40
0.0
 40
0.0
 40
0.0
 40
0.1273482936
 40
0.2538605366
 40
0.3795879111
 40
0.5046050899
 40
0.6290174366
 40
0.7529533732
 40
0.8765605776
 40
1.0
 40
1.0
 40
1.0
 40
1.0
 10
12.1312482556
 20
9.0742403783
 30
0.0
 10
12.1312482556
 20
9.0707756029
 30
0.0
 10
12.1309174407
 20
9.0638640085
 30
0.0
 10
12.1294213538
 20
9.0536295471
 30
0.0
 10
12.1269405925
 20
9.0436522404
 30
0.0
 10
12.1234975599
 20
9.0340253962
 30
0.0
 10
12.1191238618
 20
9.024837791
 30
0.0
 10
12.1138593534
 20
9.0161742636
 30
0.0
 10
12.1077535233
 20
9.0081160032
 30
0.0
 10
12.1031561548
 20
9.0031935485
 30
0.0
 10
12.1007405811
 20
9.0008603037
 30
0.0
  0
SPLINE
  5
343
100
AcDbEntity
  8
0
100
AcDbSpline
 62
7
  6
CONTINUOUS
 70
0
 71
3
 72
23
 73
19
 74
0
 42
0.0000001
 43
0.0000001
 44
0.0000000001
 40
0.0
 40
0.0
 40
0.0
 40
0.0
 40
0.0614488807
 40
0.1232974294
 40
0.1855193177
 40
0.2480712672
 40
0.3108995318
 40
0.3739401513
 40
0.4371217414
 40
0.5003679843
 40
0.5636003151
 40
0.6267406524
 40
0.6897141172
 40
0.7524516838
 40
0.8148926113
 40
0.8769871451
 40
0.9386966623
 40
1.0
 40
1.0
 40
1.0
 40
1.0
 10
12.0225815937
 20
9.1904430988
 30
0.0
 10
12.0261482868
 20
9.1901957477
 30
0.0
 10
12.0332852317
 20
9.1893479494
 30
0.0
 10
12.0438468236
 20
9.1870453167
 30
0.0
 10
12.0542036969
 20
9.1837298047
 30
0.0
 10
12.0642551041
 20
9.1794335349
 30
0.0
 10
12.0739049209
 20
9.1741980418
 30
0.0
 10
12.0830604713
 20
9.1680737422
 30
0.0
 10
12.0916339541
 20
9.1611195597
 30
0.0
 10
12.0995431136
 20
9.1534023215
 30
0.0
 10
12.1067120451
 20
9.1449961228
 30
0.0
 10
12.1130718991
 20
9.135981628
 30
0.0
 10
12.1185615317
 20
9.1264453227
 30
0.0
 10
12.1231280851
 20
9.1164786677
 30
0.0
 10
12.1267275451
 20
9.1061773927
 30
0.0
 10
12.1293250197
 20
9.0956400449
 30
0.0
 10
12.1308953521
 20
9.0849691436
 30
0.0
 10
12.1312482556
 20
9.0778071699
 30
0.0
 10
12.1312482556
 20
9.0742403783
 30
0.0
  0
SPLINE
  5
344
100
AcDbEntity
  8
0
100
AcDbSpline
 62
7
  6
CONTINUOUS
 70
0
 71
3
 72
15
 73
11
 74
0
 42
0.0000001
 43
0.0000001
 44
0.0000000001
 40
0.0
 40
0.0
 40
0.0
 40
0.0
 40
0.1273482936
 40
0.2538605366
 40
0.3795879111
 40
0.5046050899
 40
0.6290174366
 40
0.7529533732
 40
0.8765605776
 40
1.0
 40
1.0
 40
1.0
 40
1.0
 10
12.1312482556
 20
7.3230167864
 30
0.0
 10
12.1312482556
 20
7.3195520111
 30
0.0
 10
12.1309174407
 20
7.3126404167
 30
0.0
 10
12.1294213538
 20
7.3024059552
 30
0.0
 10
12.1269405925
 20
7.2924286486
 30
0.0
 10
12.1234975599
 20
7.2828018044
 30
0.0
 10
12.1191238618
 20
7.2736141992
 30
0.0
 10
12.1138593534
 20
7.2649506718
 30
0.0
 10
12.1077535233
 20
7.2568924113
 30
0.0
 10
12.1031561548
 20
7.2519699567
 30
0.0
 10
12.1007405811
 20
7.2496367119
 30
0.0
  0
SPLINE
  5
345
100
AcDbEntity
  8
0
100
AcDbSpline
 62
7
  6
CONTINUOUS
 70
0
 71
3
 72
23
 73
19
 74
0
 42
0.0000001
 43
0.0000001
 44
0.0000000001
 40
0.0
 40
0.0
 40
0.0
 40
0.0
 40
0.0614488807
 40
0.1232974294
 40
0.1855193177
 40
0.2480712672
 40
0.3108995318
 40
0.3739401513
 40
0.4371217414
 40
0.5003679843
 40
0.5636003151
 40
0.6267406524
 40
0.6897141172
 40
0.7524516838
 40
0.8148926113
 40
0.8769871451
 40
0.9386966623
 40
1.0
 40
1.0
 40
1.0
 40
1.0
 10
12.0225815937
 20
7.4392195069
 30
0.0
 10
12.0261482868
 20
7.4389721559
 30
0.0
 10
12.0332852317
 20
7.4381243575
 30
0.0
 10
12.0438468236
 20
7.4358217249
 30
0.0
 10
12.0542036969
 20
7.4325062129
 30
0.0
 10
12.0642551041
 20
7.4282099431
 30
0.0
 10
12.0739049209
 20
7.42297445
 30
0.0
 10
12.0830604713
 20
7.4168501503
 30
0.0
 10
12.0916339541
 20
7.4098959679
 30
0.0
 10
12.0995431136
 20
7.4021787297
 30
0.0
 10
12.1067120451
 20
7.393772531
 30
0.0
 10
12.1130718991
 20
7.3847580361
 30
0.0
 10
12.1185615317
 20
7.3752217308
 30
0.0
 10
12.1231280851
 20
7.3652550759
 30
0.0
 10
12.1267275451
 20
7.3549538009
 30
0.0
 10
12.1293250197
 20
7.3444164531
 30
0.0
 10
12.1308953521
 20
7.3337455518
 30
0.0
 10
12.1312482556
 20
7.3265835781
 30
0.0
 10
12.1312482556
 20
7.3230167864
 30
0.0
  0
SPLINE
  5
346
100
AcDbEntity
  8
0
100
AcDbSpline
 62
7
  6
CONTINUOUS
 70
0
 71
3
 72
15
 73
11
 74
0
 42
0.0000001
 43
0.0000001
 44
0.0000000001
 40
0.0
 40
0.0
 40
0.0
 40
0.0
 40
0.1273482936
 40
0.2538605366
 40
0.3795879111
 40
0.5046050899
 40
0.6290174366
 40
0.7529533732
 40
0.8765605776
 40
1.0
 40
1.0
 40
1.0
 40
1.0
 10
10.079621609
 20
7.4652975776
 30
0.0
 10
10.079621609
 20
7.4618328023
 30
0.0
 10
10.079290794
 20
7.4549212079
 30
0.0
 10
10.0777947072
 20
7.4446867464
 30
0.0
 10
10.0753139459
 20
7.4347094398
 30
0.0
 10
10.0718709133
 20
7.4250825955
 30
0.0
 10
10.0674972151
 20
7.4158949904
 30
0.0
 10
10.0622327068
 20
7.407231463
 30
0.0
 10
10.0561268767
 20
7.3991732025
 30
0.0
 10
10.0515295082
 20
7.3942507479
 30
0.0
 10
10.0491139344
 20
7.3919175031
 30
0.0
  0
SPLINE
  5
347
100
AcDbEntity
  8
0
100
AcDbSpline
 62
7
  6
CONTINUOUS
 70
0
 71
3
 72
23
 73
19
 74
0
 42
0.0000001
 43
0.0000001
 44
0.0000000001
 40
0.0
 40
0.0
 40
0.0
 40
0.0
 40
0.0614488807
 40
0.1232974294
 40
0.1855193177
 40
0.2480712672
 40
0.3108995318
 40
0.3739401513
 40
0.4371217414
 40
0.5003679843
 40
0.5636003151
 40
0.6267406524
 40
0.6897141172
 40
0.7524516838
 40
0.8148926113
 40
0.8769871451
 40
0.9386966623
 40
1.0
 40
1.0
 40
1.0
 40
1.0
 10
9.9709549471
 20
7.5815002981
 30
0.0
 10
9.9745216402
 20
7.5812529471
 30
0.0
 10
9.9816585851
 20
7.5804051487
 30
0.0
 10
9.992220177
 20
7.5781025161
 30
0.0
 10
10.0025770503
 20
7.5747870041
 30
0.0
 10
10.0126284575
 20
7.5704907343
 30
0.0
 10
10.0222782743
 20
7.5652552412
 30
0.0
 10
10.0314338247
 20
7.5591309415
 30
0.0
 10
10.0400073075
 20
7.5521767591
 30
0.0
 10
10.047916467
 20
7.5444595209
 30
0.0
 10
10.0550853985
 20
7.5360533221
 30
0.0
 10
10.0614452525
 20
7.5270388273
 30
0.0
 10
10.0669348851
 20
7.517502522
 30
0.0
 10
10.0715014384
 20
7.507535867
 30
0.0
 10
10.0751008985
 20
7.4972345921
 30
0.0
 10
10.0776983731
 20
7.4866972443
 30
0.0
 10
10.0792687055
 20
7.476026343
 30
0.0
 10
10.079621609
 20
7.4688643693
 30
0.0
 10
10.079621609
 20
7.4652975776
 30
0.0
  0
SPLINE
  5
348
100
AcDbEntity
  8
0
100
AcDbSpline
 62
7
  6
CONTINUOUS
 70
0
 71
3
 72
22
 73
18
 74
0
 42
0.0000001
 43
0.0000001
 44
0.0000000001
 40
0.0
 40
0.0
 40
0.0
 40
0.0
 40
0.0659495983
 40
0.131225441
 40
0.1959181969
 40
0.2601067854
 40
0.3238578988
 40
0.387224038
 40
0.4502427836
 40
0.5129382153
 40
0.6373322356
 40
0.6990414235
 40
0.7603590952
 40
0.8212199468
 40
0.8815332734
 40
0.9411799191
 40
1.0
 40
1.0
 40
1.0
 40
1.0
 10
10.8036293592
 20
8.3955762623
 30
0.0
 10
10.8006823531
 20
8.3972523645
 30
0.0
 10
10.794938709
 20
8.4008039614
 30
0.0
 10
10.7867659281
 20
8.4067032559
 30
0.0
 10
10.7790882301
 20
8.4130931068
 30
0.0
 10
10.7719082015
 20
8.4199231323
 30
0.0
 10
10.7652245072
 20
8.427146231
 30
0.0
 10
10.7590338949
 20
8.4347178084
 30
0.0
 10
10.7533311542
 20
8.442596279
 30
0.0
 10
10.7463902902
 20
8.4534255023
 30
0.0
 10
10.7403745259
 20
8.4647447198
 30
0.0
 10
10.7352806374
 20
8.4764035192
 30
0.0
 10
10.7319278684
 20
8.4852465697
 30
0.0
 10
10.7290296545
 20
8.4941728119
 30
0.0
 10
10.7265827622
 20
8.5031442167
 30
0.0
 10
10.7245861048
 20
8.512118677
 30
0.0
 10
10.7235471224
 20
8.5181222884
 30
0.0
 10
10.7231044613
 20
8.5211135053
 30
0.0
  0
SPLINE
  5
349
100
AcDbEntity
  8
0
100
AcDbSpline
 62
7
  6
CONTINUOUS
 70
0
 71
3
 72
15
 73
11
 74
0
 42
0.0000001
 43
0.0000001
 44
0.0000000001
 40
0.0
 40
0.0
 40
0.0
 40
0.0
 40
0.1453411268
 40
0.2840005595
 40
0.4163083594
 40
0.5426779773
 40
0.6636082024
 40
0.7796795766
 40
0.8915588721
 40
1.0
 40
1.0
 40
1.0
 40
1.0
 10
12.973670219
 20
8.9856162614
 30
0.0
 10
12.974672289
 20
8.9865841868
 30
0.0
 10
12.9766756179
 20
8.9884295592
 30
0.0
 10
12.979752115
 20
8.9909744091
 30
0.0
 10
12.982825982
 20
8.993227512
 30
0.0
 10
12.9858953478
 20
8.9951871178
 30
0.0
 10
12.9889585451
 20
8.9968518081
 30
0.0
 10
12.9920140501
 20
8.9982201559
 30
0.0
 10
12.995059664
 20
8.9992908104
 30
0.0
 10
12.9971098816
 20
8.9998121318
 30
0.0
 10
12.9981283704
 20
9.0000200335
 30
0.0
  0
SPLINE
  5
34A
100
AcDbEntity
  8
0
100
AcDbSpline
 62
7
  6
CONTINUOUS
 70
0
 71
3
 72
74
 73
70
 74
0
 42
0.0000001
 43
0.0000001
 44
0.0000000001
 40
0.0
 40
0.0
 40
0.0
 40
0.0
 40
0.0039235028
 40
0.008008867
 40
0.0122595404
 40
0.0166784043
 40
0.0212679027
 40
0.0260299921
 40
0.0309660274
 40
0.0360768492
 40
0.0468237871
 40
0.0582711629
 40
0.0704137574
 40
0.0832423033
 40
0.0967440861
 40
0.1109033864
 40
0.125701888
 40
0.1411189706
 40
0.1571319157
 40
0.1737161162
 40
0.1908452792
 40
0.2084915704
 40
0.2266257181
 40
0.2452171561
 40
0.2642341548
 40
0.2836439172
 40
0.303412659
 40
0.3235057297
 40
0.3645217857
 40
0.4064018245
 40
0.4488467743
 40
0.491552366
 40
0.5342119575
 40
0.5765193246
 40
0.6181714566
 40
0.6588713943
 40
0.6787742295
 40
0.698331858
 40
0.7175101521
 40
0.7362759031
 40
0.7545969221
 40
0.7724421751
 40
0.7897818743
 40
0.806587582
 40
0.8228323507
 40
0.8384908995
 40
0.8535397454
 40
0.8679573803
 40
0.8817245178
 40
0.8948243874
 40
0.9072430288
 40
0.9189697068
 40
0.9299974859
 40
0.940323944
 40
0.9452252806
 40
0.9499529418
 40
0.9545083415
 40
0.9588934637
 40
0.963110814
 40
0.9671635862
 40
0.971055728
 40
0.9747919692
 40
0.9783780351
 40
0.9818206783
 40
0.9851278019
 40
0.9883086455
 40
0.9943317817
 40
0.9972033454
 40
1.0
 40
1.0
 40
1.0
 40
1.0
 10
12.973670219
 20
8.9856162614
 30
0.0
 10
12.9727596723
 20
8.9847367409
 30
0.0
 10
12.9709395125
 20
8.982901204
 30
0.0
 10
12.9682649585
 20
8.9799855795
 30
0.0
 10
12.9655930585
 20
8.9768542606
 30
0.0
 10
12.9629252508
 20
8.9735088649
 30
0.0
 10
12.9602626974
 20
8.9699509967
 30
0.0
 10
12.9576066484
 20
8.9661822728
 30
0.0
 10
12.9549582819
 20
8.9622044566
 30
0.0
 10
12.9513789511
 20
8.9565289642
 30
0.0
 10
12.9469422179
 20
8.9489138032
 30
0.0
 10
12.9417543644
 20
8.93912147
 30
0.0
 10
12.9366269195
 20
8.9285458373
 30
0.0
 10
12.9315696795
 20
8.9172069428
 30
0.0
 10
12.9265922985
 20
8.9051261068
 30
0.0
 10
12.9217043106
 20
8.8923262335
 30
0.0
 10
12.9169151061
 20
8.8788316267
 30
0.0
 10
12.9122339052
 20
8.8646679635
 30
0.0
 10
12.9076697129
 20
8.8498622441
 30
0.0
 10
12.9032313029
 20
8.8344427323
 30
0.0
 10
12.8989272171
 20
8.8184388794
 30
0.0
 10
12.8947657476
 20
8.8018812685
 30
0.0
 10
12.8907548934
 20
8.7848015654
 30
0.0
 10
12.8869023623
 20
8.7672324497
 30
0.0
 10
12.8832155617
 20
8.7492075373
 30
0.0
 10
12.8797015969
 20
8.7307613312
 30
0.0
 10
12.8763671823
 20
8.7119291214
 30
0.0
 10
12.8721404951
 20
8.6861770321
 30
0.0
 10
12.8673611655
 20
8.6532885238
 30
0.0
 10
12.8624719497
 20
8.6131391738
 30
0.0
 10
12.8584280588
 20
8.5723480301
 30
0.0
 10
12.8552605328
 20
8.5312273101
 30
0.0
 10
12.8529936853
 20
8.4900915677
 30
0.0
 10
12.8516447309
 20
8.4492554775
 30
0.0
 10
12.8512238887
 20
8.4090316066
 30
0.0
 10
12.8516518846
 20
8.3760372552
 30
0.0
 10
12.8524711795
 20
8.3501850666
 30
0.0
 10
12.8533129089
 20
8.3312828406
 30
0.0
 10
12.8543847121
 20
8.3127597498
 30
0.0
 10
12.8556845397
 20
8.294651227
 30
0.0
 10
12.8572098756
 20
8.2769919431
 30
0.0
 10
12.858957756
 20
8.2598156866
 30
0.0
 10
12.8609247889
 20
8.2431553121
 30
0.0
 10
12.8631071672
 20
8.2270426812
 30
0.0
 10
12.8655006733
 20
8.2115085915
 30
0.0
 10
12.8681006575
 20
8.1965827054
 30
0.0
 10
12.8709020802
 20
8.1822934973
 30
0.0
 10
12.8738995239
 20
8.1686681999
 30
0.0
 10
12.8770871975
 20
8.1557327338
 30
0.0
 10
12.8804589311
 20
8.1435116276
 30
0.0
 10
12.8840082271
 20
8.1320280062
 30
0.0
 10
12.8877283061
 20
8.1213034096
 30
0.0
 10
12.8916120815
 20
8.1113581349
 30
0.0
 10
12.8950359656
 20
8.1036054342
 30
0.0
 10
12.8978602472
 20
8.0978183454
 30
0.0
 10
12.8999778347
 20
8.0937602726
 30
0.0
 10
12.9021307458
 20
8.0899105345
 30
0.0
 10
12.9043179586
 20
8.086270907
 30
0.0
 10
12.9065385042
 20
8.0828431214
 30
0.0
 10
12.9087913712
 20
8.0796287861
 30
0.0
 10
12.9110755142
 20
8.0766293826
 30
0.0
 10
12.9133899793
 20
8.0738463706
 30
0.0
 10
12.9157337497
 20
8.0712810286
 30
0.0
 10
12.9181057306
 20
8.0689346462
 30
0.0
 10
12.9205053165
 20
8.0668082365
 30
0.0
 10
12.9236811066
 20
8.0643138006
 30
0.0
 10
12.9269711371
 20
8.0621988011
 30
0.0
 10
12.9303553123
 20
8.0605255169
 30
0.0
 10
12.9320551627
 20
8.0598442048
 30
0.0
 10
12.9329059231
 20
8.0595434099
 30
0.0
  0
SPLINE
  5
34B
100
AcDbEntity
  8
0
100
AcDbSpline
 62
7
  6
CONTINUOUS
 70
0
 71
3
 72
14
 73
10
 74
0
 42
0.0000001
 43
0.0000001
 44
0.0000000001
 40
0.0
 40
0.0
 40
0.0
 40
0.0
 40
0.1465766018
 40
0.2859527397
 40
0.544603312
 40
0.6651297331
 40
0.7806439271
 40
0.8919607596
 40
1.0
 40
1.0
 40
1.0
 40
1.0
 10
12.9089655111
 20
9.7900346746
 30
0.0
 10
12.9095211223
 20
9.7905713539
 30
0.0
 10
12.9106319862
 20
9.791591265
 30
0.0
 10
12.9128547403
 20
9.7934082632
 30
0.0
 10
12.9151307311
 20
9.7949406511
 30
0.0
 10
12.9174524162
 20
9.7961322514
 30
0.0
 10
12.9191482125
 20
9.7968283351
 30
0.0
 10
12.9208377399
 20
9.7973468759
 30
0.0
 10
12.9219731438
 20
9.7975764508
 30
0.0
 10
12.9225363714
 20
9.7976599538
 30
0.0
  0
SPLINE
  5
34C
100
AcDbEntity
  8
0
100
AcDbSpline
 62
7
  6
CONTINUOUS
 70
0
 71
3
 72
60
 73
56
 74
0
 42
0.0000001
 43
0.0000001
 44
0.0000000001
 40
0.0
 40
0.0
 40
0.0
 40
0.0
 40
0.0080355006
 40
0.0167380844
 40
0.0261287045
 40
0.036220759
 40
0.0470196794
 40
0.0585248871
 40
0.0707309694
 40
0.0836283767
 40
0.0972041484
 40
0.1114421929
 40
0.1263238345
 40
0.1418280762
 40
0.1579317163
 40
0.174609753
 40
0.1918354166
 40
0.2095803342
 40
0.2278147833
 40
0.246507653
 40
0.2851376362
 40
0.3252007543
 40
0.3664124275
 40
0.4084770881
 40
0.4510911598
 40
0.4939459831
 40
0.5367306753
 40
0.5791349971
 40
0.6208522316
 40
0.6615820572
 40
0.7010334664
 40
0.7389278169
 40
0.7572087029
 40
0.7750030592
 40
0.7922810019
 40
0.8090140654
 40
0.8251752683
 40
0.8407394437
 40
0.8556832368
 40
0.8699853636
 40
0.8836269549
 40
0.8965916447
 40
0.9088661141
 40
0.9204405064
 40
0.9313088928
 40
0.9414702835
 40
0.9509294757
 40
0.9596984633
 40
0.9677984457
 40
0.9752620564
 40
0.9821366377
 40
0.9884879129
 40
0.9944035237
 40
0.9972342113
 40
1.0
 40
1.0
 40
1.0
 40
1.0
 10
12.9089655111
 20
9.7900346746
 30
0.0
 10
12.9079968386
 20
9.7890990088
 30
0.0
 10
12.9060642985
 20
9.7870607169
 30
0.0
 10
12.903284994
 20
9.7836726796
 30
0.0
 10
12.9005172008
 20
9.7798412773
 30
0.0
 10
12.8977660947
 20
9.7755739058
 30
0.0
 10
12.8950364963
 20
9.7708782556
 30
0.0
 10
12.8923336087
 20
9.7657630624
 30
0.0
 10
12.8896625428
 20
9.7602379581
 30
0.0
 10
12.8870284051
 20
9.7543134135
 30
0.0
 10
12.8844363238
 20
9.7480007005
 30
0.0
 10
12.8818912863
 20
9.7413119087
 30
0.0
 10
12.8793982379
 20
9.7342598693
 30
0.0
 10
12.8769620461
 20
9.7268581366
 30
0.0
 10
12.8745874107
 20
9.7191209729
 30
0.0
 10
12.8722789736
 20
9.7110632919
 30
0.0
 10
12.8700412206
 20
9.7027006417
 30
0.0
 10
12.8678784846
 20
9.6940491777
 30
0.0
 10
12.8657949763
 20
9.6851255968
 30
0.0
 10
12.8630985151
 20
9.6727519932
 30
0.0
 10
12.8599641974
 20
9.6567313394
 30
0.0
 10
12.8566181211
 20
9.6369134241
 30
0.0
 10
12.853673424
 20
9.6164502079
 30
0.0
 10
12.8511530458
 20
9.5954998584
 30
0.0
 10
12.8490766164
 20
9.5742241995
 30
0.0
 10
12.8474602634
 20
9.5527876578
 30
0.0
 10
12.8463165076
 20
9.5313559088
 30
0.0
 10
12.8456541371
 20
9.5100945916
 30
0.0
 10
12.8454781541
 20
9.4891680217
 30
0.0
 10
12.8457897129
 20
9.4687378351
 30
0.0
 10
12.8465862026
 20
9.4489619473
 30
0.0
 10
12.8476609018
 20
9.432968368
 30
0.0
 10
12.8487678051
 20
9.4206199524
 30
0.0
 10
12.8497043124
 20
9.4117265896
 30
0.0
 10
12.8507551686
 20
9.4031072763
 30
0.0
 10
12.8519183296
 20
9.3947786457
 30
0.0
 10
12.8531915443
 20
9.3867567811
 30
0.0
 10
12.8545722896
 20
9.3790571531
 30
0.0
 10
12.8560578736
 20
9.3716945984
 30
0.0
 10
12.8576454093
 20
9.3646832857
 30
0.0
 10
12.859331757
 20
9.3580366743
 30
0.0
 10
12.8611136614
 20
9.3517674967
 30
0.0
 10
12.8629876526
 20
9.3458877117
 30
0.0
 10
12.8649500839
 20
9.3404084679
 30
0.0
 10
12.8669972523
 20
9.3353400952
 30
0.0
 10
12.8691252745
 20
9.3306920268
 30
0.0
 10
12.871330271
 20
9.3264727987
 30
0.0
 10
12.8736084449
 20
9.322690056
 30
0.0
 10
12.8759561018
 20
9.319350495
 30
0.0
 10
12.878369905
 20
9.3164601036
 30
0.0
 10
12.880847241
 20
9.3140243098
 30
0.0
 10
12.8833850861
 20
9.312048769
 30
0.0
 10
12.8855816348
 20
9.3107726874
 30
0.0
 10
12.8873533444
 20
9.3100043007
 30
0.0
 10
12.8882424911
 20
9.3097015148
 30
0.0
 10
12.8886872597
 20
9.3095708884
 30
0.0
  0
SPLINE
  5
34D
100
AcDbEntity
  8
0
100
AcDbSpline
 62
7
  6
CONTINUOUS
 70
0
 71
3
 72
59
 73
55
 74
0
 42
0.0000001
 43
0.0000001
 44
0.0000000001
 40
0.0
 40
0.0
 40
0.0
 40
0.0
 40
0.0077405245
 40
0.0160542497
 40
0.024960405
 40
0.0344718839
 40
0.0445951894
 40
0.0553320496
 40
0.0666803118
 40
0.0786343308
 40
0.0911856042
 40
0.1043231538
 40
0.1180337168
 40
0.1323021262
 40
0.1471114588
 40
0.1624431483
 40
0.1782772461
 40
0.1945924619
 40
0.2113662695
 40
0.2285750893
 40
0.2461942852
 40
0.264198285
 40
0.3012535754
 40
0.3395215383
 40
0.3787717061
 40
0.4187655369
 40
0.459258457
 40
0.5000019073
 40
0.5407453406
 40
0.5812382058
 40
0.6212319494
 40
0.6604820047
 40
0.6987498106
 40
0.7358049088
 40
0.7538088165
 40
0.7714279017
 40
0.7886365922
 40
0.8054102913
 40
0.821725369
 40
0.8375593228
 40
0.8528908879
 40
0.8677000574
 40
0.8819683141
 40
0.8956787371
 40
0.9088161038
 40
0.9213672215
 40
0.9333210849
 40
0.9446691544
 40
0.9554058659
 40
0.9655289891
 40
0.9750402793
 40
0.9839463795
 40
0.9922597315
 40
1.0
 40
1.0
 40
1.0
 40
1.0
 10
10.6255968932
 20
10.7737033377
 30
0.0
 10
10.6242803861
 20
10.7724782543
 30
0.0
 10
10.6214463455
 20
10.7700472826
 30
0.0
 10
10.616797212
 20
10.7665753261
 30
0.0
 10
10.6116092052
 20
10.7631557224
 30
0.0
 10
10.6058908402
 20
10.759793896
 30
0.0
 10
10.5996509524
 20
10.7564949095
 30
0.0
 10
10.5928995159
 20
10.753264037
 30
0.0
 10
10.5856473447
 20
10.7501065107
 30
0.0
 10
10.5779061603
 20
10.747027449
 30
0.0
 10
10.5696885246
 20
10.74403191
 30
0.0
 10
10.56100782
 20
10.7411248566
 30
0.0
 10
10.5518782389
 20
10.7383110583
 30
0.0
 10
10.5423147256
 20
10.7355951862
 30
0.0
 10
10.5323329608
 20
10.7329817527
 30
0.0
 10
10.5219493391
 20
10.7304750592
 30
0.0
 10
10.5111809207
 20
10.7280792811
 30
0.0
 10
10.5000454138
 20
10.7257983923
 30
0.0
 10
10.4885611424
 20
10.7236361488
 30
0.0
 10
10.4767470112
 20
10.7215961647
 30
0.0
 10
10.4646224558
 20
10.7196817874
 30
0.0
 10
10.4479087596
 20
10.7172780215
 30
0.0
 10
10.4263871945
 20
10.7146199138
 30
0.0
 10
10.3998949298
 20
10.7120050809
 30
0.0
 10
10.3726685187
 20
10.7099529946
 30
0.0
 10
10.3448872849
 20
10.7084773518
 30
0.0
 10
10.3167340708
 20
10.7075880215
 30
0.0
 10
10.288394258
 20
10.7072909385
 30
0.0
 10
10.2600544587
 20
10.7075880991
 30
0.0
 10
10.2319012844
 20
10.7084775185
 30
0.0
 10
10.2041201143
 20
10.7099532443
 30
0.0
 10
10.1768937916
 20
10.7120054004
 30
0.0
 10
10.1504016423
 20
10.7146203128
 30
0.0
 10
10.1288801897
 20
10.7172784941
 30
0.0
 10
10.1121665917
 20
10.7196822981
 30
0.0
 10
10.10004212
 20
10.7215967111
 30
0.0
 10
10.0882280788
 20
10.72363674
 30
0.0
 10
10.0767438999
 20
10.7257990032
 30
0.0
 10
10.0656084936
 20
10.7280799312
 30
0.0
 10
10.0548401803
 20
10.7304757466
 30
0.0
 10
10.0444566653
 20
10.7329824555
 30
0.0
 10
10.0344750171
 20
10.7355959306
 30
0.0
 10
10.0249116221
 20
10.738311831
 30
0.0
 10
10.0157821601
 20
10.7411256412
 30
0.0
 10
10.0071015871
 20
10.7440327378
 30
0.0
 10
9.9988840804
 20
10.7470282946
 30
0.0
 10
9.9911430257
 20
10.7501073665
 30
0.0
 10
9.9838909988
 20
10.7532649353
 30
0.0
 10
9.9771397014
 20
10.7564958159
 30
0.0
 10
9.9708999533
 20
10.7597948095
 30
0.0
 10
9.9651817281
 20
10.7631566788
 30
0.0
 10
9.9599938947
 20
10.7665762844
 30
0.0
 10
9.9553449339
 20
10.7700482063
 30
0.0
 10
9.9525110535
 20
10.772479142
 30
0.0
 10
9.9511946226
 20
10.7737042199
 30
0.0
  0
SPLINE
  5
34E
100
AcDbEntity
  8
0
100
AcDbSpline
 62
7
  6
CONTINUOUS
 70
0
 71
3
 72
18
 73
14
 74
0
 42
0.0000001
 43
0.0000001
 44
0.0000000001
 40
0.0
 40
0.0
 40
0.0
 40
0.0
 40
0.0548620934
 40
0.1099281175
 40
0.1653995415
 40
0.2214731583
 40
0.2783387419
 40
0.3361775034
 40
0.4554063124
 40
0.5804415574
 40
0.7123342032
 40
0.8519579354
 40
1.0
 40
1.0
 40
1.0
 40
1.0
 10
12.0435969901
 20
10.7226834464
 30
0.0
 10
12.0435969929
 20
10.7217379199
 30
0.0
 10
12.0435369811
 20
10.7198428092
 30
0.0
 10
12.043267162
 20
10.7170032248
 30
0.0
 10
12.0428175921
 20
10.7141652772
 30
0.0
 10
12.0421884229
 20
10.7113300039
 30
0.0
 10
12.0413799153
 20
10.7084981159
 30
0.0
 10
12.040050086
 20
10.7046899874
 30
0.0
 10
12.037919712
 20
10.6999270415
 30
0.0
 10
12.0346771466
 20
10.6943019801
 30
0.0
 10
12.030727865
 20
10.6887133249
 30
0.0
 10
12.026077877
 20
10.6831666955
 30
0.0
 10
12.0226195101
 20
10.6796078555
 30
0.0
 10
12.0207843706
 20
10.6778352467
 30
0.0
  0
SPLINE
  5
34F
100
AcDbEntity
  8
0
100
AcDbSpline
 62
7
  6
CONTINUOUS
 70
0
 71
3
 72
14
 73
10
 74
0
 42
0.0000001
 43
0.0000001
 44
0.0000000001
 40
0.0
 40
0.0
 40
0.0
 40
0.0
 40
0.1102063069
 40
0.2235240717
 40
0.3405959171
 40
0.4619986165
 40
0.7196516389
 40
0.8568421097
 40
1.0
 40
1.0
 40
1.0
 40
1.0
 10
11.8453774868
 20
10.6829929773
 30
0.0
 10
11.8451058189
 20
10.6820161989
 30
0.0
 10
11.8444685779
 20
10.6800580876
 30
0.0
 10
11.8432582529
 20
10.6771646201
 30
0.0
 10
11.8417830151
 20
10.6742805829
 30
0.0
 10
11.8394177537
 20
10.6703734329
 30
0.0
 10
11.8365519223
 20
10.6665683263
 30
0.0
 10
11.833258199
 20
10.6628724476
 30
0.0
 10
11.8314442263
 20
10.6610370716
 30
0.0
 10
11.8304969715
 20
10.6601220937
 30
0.0
  0
SPLINE
  5
350
100
AcDbEntity
  8
0
100
AcDbSpline
 62
7
  6
CONTINUOUS
 70
0
 71
3
 72
74
 73
70
 74
0
 42
0.0000001
 43
0.0000001
 44
0.0000000001
 40
0.0
 40
0.0
 40
0.0
 40
0.0
 40
0.0028891574
 40
0.0058525163
 40
0.0120553002
 40
0.0153232205
 40
0.0187152901
 40
0.0222405952
 40
0.0259069657
 40
0.0297210948
 40
0.0336887057
 40
0.0378145516
 40
0.0421025967
 40
0.0465560993
 40
0.0511776113
 40
0.0559691634
 40
0.0609322486
 40
0.0713759398
 40
0.0825130237
 40
0.0943414806
 40
0.1068547162
 40
0.1200423028
 40
0.1338905397
 40
0.1483828634
 40
0.1635001544
 40
0.1792210531
 40
0.1955221961
 40
0.2123783893
 40
0.229762757
 40
0.2476469258
 40
0.2660011581
 40
0.2847944523
 40
0.3039946521
 40
0.3235685793
 40
0.3434821325
 40
0.3841868012
 40
0.4258216567
 40
0.4680900193
 40
0.5106892735
 40
0.5533137326
 40
0.5956574801
 40
0.6374171983
 40
0.6782950299
 40
0.6983127725
 40
0.7180023149
 40
0.7373292561
 40
0.7562600921
 40
0.7747623364
 40
0.7928046015
 40
0.8103567024
 40
0.8273897951
 40
0.8438765199
 40
0.8597911134
 40
0.8751095645
 40
0.8898098309
 40
0.9038720557
 40
0.917278795
 40
0.9300153347
 40
0.9420701273
 40
0.953435268
 40
0.9641071426
 40
0.9691837389
 40
0.9740880877
 40
0.9788213275
 40
0.9833851367
 40
0.987781827
 40
0.9920142316
 40
0.9960856546
 40
1.0
 40
1.0
 40
1.0
 40
1.0
 10
10.9028164626
 20
10.6829931297
 30
0.0
 10
10.9030672331
 20
10.6820914773
 30
0.0
 10
10.9036485827
 20
10.6802845764
 30
0.0
 10
10.9051231522
 20
10.6766655909
 30
0.0
 10
10.9070464882
 20
10.6731100992
 30
0.0
 10
10.9093597513
 20
10.6696428803
 30
0.0
 10
10.911348566
 20
10.6670079543
 30
0.0
 10
10.9135596136
 20
10.6643859273
 30
0.0
 10
10.9159919233
 20
10.6617775759
 30
0.0
 10
10.9186442276
 20
10.6591841031
 30
0.0
 10
10.9215153106
 20
10.6566066834
 30
0.0
 10
10.924603757
 20
10.6540464308
 30
0.0
 10
10.9279081126
 20
10.6515045119
 30
0.0
 10
10.931426836
 20
10.6489821273
 30
0.0
 10
10.9351582262
 20
10.6464803972
 30
0.0
 10
10.9391005483
 20
10.6440004978
 30
0.0
 10
10.9447317741
 20
10.6406679253
 30
0.0
 10
10.9522975599
 20
10.6365751342
 30
0.0
 10
10.9620367357
 20
10.6318495826
 30
0.0
 10
10.9725665697
 20
10.6272386083
 30
0.0
 10
10.9838670319
 20
10.6227510058
 30
0.0
 10
10.9959168381
 20
10.6183953448
 30
0.0
 10
11.0086930972
 20
10.6141800154
 30
0.0
 10
11.0221714825
 20
10.6101131632
 30
0.0
 10
11.0363262441
 20
10.606202637
 30
0.0
 10
11.0511302966
 20
10.6024560015
 30
0.0
 10
11.0665552837
 20
10.5988805161
 30
0.0
 10
11.0825716264
 20
10.5954831114
 30
0.0
 10
11.0991485801
 20
10.5922703523
 30
0.0
 10
11.11625431
 20
10.5892484574
 30
0.0
 10
11.1338559582
 20
10.5864232837
 30
0.0
 10
11.151919701
 20
10.5838002998
 30
0.0
 10
11.1704108028
 20
10.5813845775
 30
0.0
 10
11.1892937408
 20
10.579180758
 30
0.0
 10
11.2151332233
 20
10.5765112655
 30
0.0
 10
11.2481437741
 20
10.5737445747
 30
0.0
 10
11.2884401333
 20
10.5713490286
 30
0.0
 10
11.3293947522
 20
10.5698731922
 30
0.0
 10
11.3706927982
 20
10.5693285253
 30
0.0
 10
11.4120170012
 20
10.5697193197
 30
0.0
 10
11.4530498849
 20
10.5710424917
 30
0.0
 10
11.4934760106
 20
10.5732877596
 30
0.0
 10
11.5266273683
 20
10.5759304946
 30
0.0
 10
11.552604653
 20
10.5785024039
 30
0.0
 10
11.5716086658
 20
10.5806354964
 30
0.0
 10
11.5902327122
 20
10.5829819472
 30
0.0
 10
11.6084410106
 20
10.5855372544
 30
0.0
 10
11.6261985531
 20
10.5882964556
 30
0.0
 10
11.6434712141
 20
10.5912542124
 30
0.0
 10
11.6602258011
 20
10.5944048082
 30
0.0
 10
11.6764301336
 20
10.5977421479
 30
0.0
 10
11.6920531113
 20
10.6012597593
 30
0.0
 10
11.7070647657
 20
10.6049508307
 30
0.0
 10
11.7214363189
 20
10.6088082271
 30
0.0
 10
11.7351402612
 20
10.6128244823
 30
0.0
 10
11.7481504094
 20
10.6169918185
 30
0.0
 10
11.7604419619
 20
10.6213021883
 30
0.0
 10
11.7719915251
 20
10.6257472989
 30
0.0
 10
11.7827773082
 20
10.6303186325
 30
0.0
 10
11.7927787893
 20
10.6350074299
 30
0.0
 10
11.800569212
 20
10.6390702501
 30
0.0
 10
11.8063836732
 20
10.6423803155
 30
0.0
 10
11.8104638408
 20
10.6448451874
 30
0.0
 10
11.8143342917
 20
10.6473326303
 30
0.0
 10
11.8179932094
 20
10.6498415476
 30
0.0
 10
11.8214389211
 20
10.6523707558
 30
0.0
 10
11.8246697696
 20
10.6549191633
 30
0.0
 10
11.8276840686
 20
10.6574853892
 30
0.0
 10
11.8295849846
 20
10.6592411819
 30
0.0
 10
11.8304969715
 20
10.6601220937
 30
0.0
  0
SPLINE
  5
351
100
AcDbEntity
  8
0
100
AcDbSpline
 62
7
  6
CONTINUOUS
 70
0
 71
3
 72
78
 73
74
 74
0
 42
0.0000001
 43
0.0000001
 44
0.0000000001
 40
0.0
 40
0.0
 40
0.0
 40
0.0
 40
0.002716437
 40
0.0054532499
 40
0.0082303258
 40
0.0110666193
 40
0.0139798357
 40
0.0169861462
 40
0.0201001074
 40
0.0233346342
 40
0.0267009841
 40
0.0302089392
 40
0.033866861
 40
0.0376818191
 40
0.0416598027
 40
0.0458057327
 40
0.0501236562
 40
0.0546168619
 40
0.0592878722
 40
0.0641386486
 40
0.0691705883
 40
0.0743845602
 40
0.0853594804
 40
0.0970633454
 40
0.1094900995
 40
0.122629366
 40
0.1364670611
 40
0.1509858974
 40
0.166165815
 40
0.1819842919
 40
0.1984165668
 40
0.2154358706
 40
0.2330136396
 40
0.2511196715
 40
0.2697222404
 40
0.2887882524
 40
0.3082833865
 40
0.328172201
 40
0.3484182245
 40
0.3689840851
 40
0.4109212248
 40
0.4536713576
 40
0.4969134981
 40
0.540321922
 40
0.5835693174
 40
0.6263299118
 40
0.6682826143
 40
0.6888581262
 40
0.7091150154
 40
0.7290158802
 40
0.7485242227
 40
0.767604568
 40
0.7862225538
 40
0.8043450413
 40
0.8219402657
 40
0.8389779735
 40
0.8554295416
 40
0.8712681371
 40
0.88646894
 40
0.9010093515
 40
0.9148692219
 40
0.9280311672
 40
0.9404810055
 40
0.9522082213
 40
0.9632066157
 40
0.9684323229
 40
0.97347594
 40
0.978338293
 40
0.9830207537
 40
0.9875253474
 40
0.9918546279
 40
0.9960116289
 40
1.0
 40
1.0
 40
1.0
 40
1.0
 10
12.9112675696
 20
9.1387300379
 30
0.0
 10
12.9104958227
 20
9.1387835581
 30
0.0
 10
12.9089504901
 20
9.1389608332
 30
0.0
 10
12.906652167
 20
9.1394352706
 30
0.0
 10
12.9043712216
 20
9.1401181335
 30
0.0
 10
12.902109252
 20
9.1410087052
 30
0.0
 10
12.8998674708
 20
9.142106293
 30
0.0
 10
12.8976469888
 20
9.1434099524
 30
0.0
 10
12.8954488359
 20
9.1449187819
 30
0.0
 10
12.8932740222
 20
9.14663186
 30
0.0
 10
12.8911234336
 20
9.148548124
 30
0.0
 10
12.888998039
 20
9.1506665751
 30
0.0
 10
12.8868987625
 20
9.1529860976
 30
0.0
 10
12.8848264979
 20
9.155505489
 30
0.0
 10
12.8827822412
 20
9.1582235358
 30
0.0
 10
12.8807668945
 20
9.1611388635
 30
0.0
 10
12.8787814037
 20
9.1642500402
 30
0.0
 10
12.876826757
 20
9.167555556
 30
0.0
 10
12.8749038406
 20
9.1710537546
 30
0.0
 10
12.8730136326
 20
9.1747429249
 30
0.0
 10
12.8711570378
 20
9.1786212487
 30
0.0
 10
12.8686852847
 20
9.1841366127
 30
0.0
 10
12.8656962403
 20
9.1914992978
 30
0.0
 10
12.862316417
 20
9.200910669
 30
0.0
 10
12.8590916451
 20
9.2110250152
 30
0.0
 10
12.8560284162
 20
9.2218222046
 30
0.0
 10
12.8531329156
 20
9.2332809012
 30
0.0
 10
12.8504110043
 20
9.2453782794
 30
0.0
 10
12.8478682142
 20
9.2580902053
 30
0.0
 10
12.8455097286
 20
9.2713912642
 30
0.0
 10
12.8433403434
 20
9.2852548181
 30
0.0
 10
12.8413644662
 20
9.299653068
 30
0.0
 10
12.8395861206
 20
9.3145571272
 30
0.0
 10
12.8380089375
 20
9.3299370787
 30
0.0
 10
12.8366361216
 20
9.3457620304
 30
0.0
 10
12.8354704628
 20
9.362000183
 30
0.0
 10
12.834514336
 20
9.3786189069
 30
0.0
 10
12.8337697069
 20
9.3955847921
 30
0.0
 10
12.8332380649
 20
9.4128637569
 30
0.0
 10
12.8328119956
 20
9.4364261021
 30
0.0
 10
12.8328261947
 20
9.4664037808
 30
0.0
 10
12.8336973757
 20
9.5028288595
 30
0.0
 10
12.8354162943
 20
9.5396432734
 30
0.0
 10
12.8379692034
 20
9.5765511404
 30
0.0
 10
12.8413356122
 20
9.613256084
 30
0.0
 10
12.845488382
 20
9.6494631119
 30
0.0
 10
12.8496023224
 20
9.6791674202
 30
0.0
 10
12.8532690419
 20
9.7024570137
 30
0.0
 10
12.8561752323
 20
9.7195075284
 30
0.0
 10
12.8592493517
 20
9.7362196501
 30
0.0
 10
12.8624852261
 20
9.7525598077
 30
0.0
 10
12.865876308
 20
9.7684951573
 30
0.0
 10
12.8694157523
 20
9.7839936803
 30
0.0
 10
12.873096419
 20
9.7990242366
 30
0.0
 10
12.8769108727
 20
9.8135566432
 30
0.0
 10
12.8808513982
 20
9.8275617372
 30
0.0
 10
12.884910032
 20
9.8410114257
 30
0.0
 10
12.8890785818
 20
9.8538787462
 30
0.0
 10
12.8933486207
 20
9.8661379417
 30
0.0
 10
12.8977115159
 20
9.8777645147
 30
0.0
 10
12.9021584635
 20
9.8887352794
 30
0.0
 10
12.9066805148
 20
9.8990283932
 30
0.0
 10
12.9112685959
 20
9.9086235328
 30
0.0
 10
12.9159135002
 20
9.9175016113
 30
0.0
 10
12.919888948
 20
9.9244012027
 30
0.0
 10
12.923097463
 20
9.9295388844
 30
0.0
 10
12.9254711353
 20
9.9331360749
 30
0.0
 10
12.9278520364
 20
9.9365413903
 30
0.0
 10
12.9302390604
 20
9.9397531556
 30
0.0
 10
12.9326310288
 20
9.9427698394
 30
0.0
 10
12.9350268504
 20
9.9455899256
 30
0.0
 10
12.9374251753
 20
9.9482118864
 30
0.0
 10
12.9390581905
 20
9.9498604832
 30
0.0
 10
12.9398751401
 20
9.950649596
 30
0.0
  0
SPLINE
  5
352
100
AcDbEntity
  8
0
100
AcDbSpline
 62
7
  6
CONTINUOUS
 70
0
 71
3
 72
88
 73
84
 74
0
 42
0.0000001
 43
0.0000001
 44
0.0000000001
 40
0.0
 40
0.0
 40
0.0
 40
0.0
 40
0.0027164206
 40
0.0054532135
 40
0.00823027
 40
0.0110665466
 40
0.0139797362
 40
0.0169860264
 40
0.0200999638
 40
0.0233344621
 40
0.0267007864
 40
0.030208716
 40
0.033866602
 40
0.0376815365
 40
0.0416594862
 40
0.0458053757
 40
0.0501232805
 40
0.0546164357
 40
0.0592874172
 40
0.0641381604
 40
0.0691700473
 40
0.0743839976
 40
0.0797804461
 40
0.085359486
 40
0.0911208072
 40
0.097063806
 40
0.1031875785
 40
0.1094909314
 40
0.1226301057
 40
0.1364676988
 40
0.1509864378
 40
0.1661662591
 40
0.1819846247
 40
0.1984167804
 40
0.2154359739
 40
0.2330136371
 40
0.2511195505
 40
0.2697219952
 40
0.2887878869
 40
0.3082829001
 40
0.3281715858
 40
0.3484174815
 40
0.3689832185
 40
0.3898306305
 40
0.410920857
 40
0.4322144439
 40
0.4536714439
 40
0.4969133241
 40
0.5403214886
 40
0.5835686279
 40
0.6050302166
 40
0.6263296837
 40
0.6474270673
 40
0.6682828961
 40
0.6888582896
 40
0.7091150586
 40
0.7290158075
 40
0.7485240405
 40
0.7676042737
 40
0.7862221443
 40
0.8043445271
 40
0.8219396585
 40
0.8389772699
 40
0.8554287349
 40
0.8712672375
 40
0.8864679574
 40
0.9010082824
 40
0.9148680665
 40
0.9280299429
 40
0.9343448017
 40
0.9404801679
 40
0.9464348204
 40
0.9522078552
 40
0.9577986253
 40
0.9632068219
 40
0.9684325067
 40
0.9734760906
 40
0.9783384494
 40
0.9830208978
 40
0.9875254123
 40
0.9918545974
 40
0.9960115688
 40
1.0
 40
1.0
 40
1.0
 40
1.0
 10
12.9582613798
 20
7.8591768553
 30
0.0
 10
12.9570118399
 20
7.859263507
 30
0.0
 10
12.954509789
 20
7.8595505682
 30
0.0
 10
12.9507885529
 20
7.8603186716
 30
0.0
 10
12.9470954572
 20
7.8614242849
 30
0.0
 10
12.9434331013
 20
7.8628662274
 30
0.0
 10
12.939803399
 20
7.8646432826
 30
0.0
 10
12.9362082142
 20
7.8667540502
 30
0.0
 10
12.9326491694
 20
7.8691969858
 30
0.0
 10
12.9291279079
 20
7.8719706165
 30
0.0
 10
12.9256458772
 20
7.8750732383
 30
0.0
 10
12.9222046455
 20
7.8785032257
 30
0.0
 10
12.9188056734
 20
7.8822587473
 30
0.0
 10
12.9154504739
 20
7.8863379078
 30
0.0
 10
12.9121406001
 20
7.8907386928
 30
0.0
 10
12.9088775171
 20
7.8954588913
 30
0.0
 10
12.9056628347
 20
7.9004962219
 30
0.0
 10
12.9024980124
 20
7.9058481677
 30
0.0
 10
12.899384627
 20
7.9115121166
 30
0.0
 10
12.8963241778
 20
7.9174852632
 30
0.0
 10
12.8933181495
 20
7.9237646485
 30
0.0
 10
12.8903680746
 20
7.9303471739
 30
0.0
 10
12.8874753532
 20
7.9372295507
 30
0.0
 10
12.8846414926
 20
7.9444083712
 30
0.0
 10
12.8818678565
 20
7.9518800444
 30
0.0
 10
12.8791558665
 20
7.9596408444
 30
0.0
 10
12.8765068606
 20
7.9676869031
 30
0.0
 10
12.8730122175
 20
7.9789461309
 30
0.0
 10
12.8688232925
 20
7.993711559
 30
0.0
 10
12.8641351473
 20
8.0122642637
 30
0.0
 10
12.8597280843
 20
8.0318512157
 30
0.0
 10
12.8556110392
 20
8.0524331452
 30
0.0
 10
12.8517923918
 20
8.0739689486
 30
0.0
 10
12.8482799124
 20
8.0964154858
 30
0.0
 10
12.8450807537
 20
8.1197277626
 30
0.0
 10
12.8422014278
 20
8.143859004
 30
0.0
 10
12.8396477933
 20
8.168760762
 30
0.0
 10
12.8374250482
 20
8.1943830196
 30
0.0
 10
12.8355377182
 20
8.2206742974
 30
0.0
 10
12.8339896487
 20
8.2475817596
 30
0.0
 10
12.8327839975
 20
8.2750513215
 30
0.0
 10
12.8319232285
 20
8.3030277585
 30
0.0
 10
12.8314091027
 20
8.3314548179
 30
0.0
 10
12.8312426781
 20
8.3602753395
 30
0.0
 10
12.8314243187
 20
8.3894313529
 30
0.0
 10
12.8319536514
 20
8.4188642728
 30
0.0
 10
12.8331247278
 20
8.458498798
 30
0.0
 10
12.8354499908
 20
8.5082973433
 30
0.0
 10
12.8395834008
 20
8.5680548404
 30
0.0
 10
12.8441368603
 20
8.6177038135
 30
0.0
 10
12.8484342556
 20
8.6571293703
 30
0.0
 10
12.8519628414
 20
8.6863629911
 30
0.0
 10
12.8557978075
 20
8.7152762418
 30
0.0
 10
12.8599314557
 20
8.743811024
 30
0.0
 10
12.8643554419
 20
8.7719099469
 30
0.0
 10
12.8690608461
 20
8.7995165144
 30
0.0
 10
12.8740381761
 20
8.8265752211
 30
0.0
 10
12.8792773902
 20
8.8530316719
 30
0.0
 10
12.8847679108
 20
8.8788326935
 30
0.0
 10
12.8904986515
 20
8.9039264426
 30
0.0
 10
12.8964580385
 20
8.9282625111
 30
0.0
 10
12.9026340338
 20
8.9517920286
 30
0.0
 10
12.9090141594
 20
8.9744677659
 30
0.0
 10
12.9155855243
 20
8.996244234
 30
0.0
 10
12.9223348468
 20
9.0170777938
 30
0.0
 10
12.9292484856
 20
9.0369267269
 30
0.0
 10
12.9363124764
 20
9.0557514151
 30
0.0
 10
12.9435125588
 20
9.0735141304
 30
0.0
 10
12.9496962611
 20
9.0875898295
 30
0.0
 10
12.9547092211
 20
9.0982833464
 30
0.0
 10
12.9584419669
 20
9.1059053282
 30
0.0
 10
12.9621978578
 20
9.1132363211
 30
0.0
 10
12.9659749906
 20
9.1202726836
 30
0.0
 10
12.9697714925
 20
9.1270108947
 30
0.0
 10
12.9735854742
 20
9.1334475958
 30
0.0
 10
12.9774150074
 20
9.1395796
 30
0.0
 10
12.9812582423
 20
9.1454038274
 30
0.0
 10
12.9851131943
 20
9.150917411
 30
0.0
 10
12.9889780291
 20
9.1561176042
 30
0.0
 10
12.9928508603
 20
9.1610018873
 30
0.0
 10
12.9967298848
 20
9.1655678834
 30
0.0
 10
13.000613036
 20
9.1698131139
 30
0.0
 10
13.0032570923
 20
9.1724823865
 30
0.0
 10
13.004579848
 20
9.1737600704
 30
0.0
  0
SPLINE
  5
353
100
AcDbEntity
  8
0
100
AcDbSpline
 62
7
  6
CONTINUOUS
 70
0
 71
3
 72
42
 73
38
 74
0
 42
0.0000001
 43
0.0000001
 44
0.0000000001
 40
0.0
 40
0.0
 40
0.0
 40
0.0
 40
0.0299419663
 40
0.0449235352
 40
0.0599142051
 40
0.0899287052
 40
0.1200139767
 40
0.135092661
 40
0.150196701
 40
0.1804840414
 40
0.210897872
 40
0.2414513324
 40
0.2721543376
 40
0.3030133986
 40
0.3340315263
 40
0.3652082187
 40
0.3965395244
 40
0.4280181782
 40
0.4596338019
 40
0.4913731609
 40
0.5232204716
 40
0.55515775
 40
0.5871651943
 40
0.6192215961
 40
0.6513047701
 40
0.6833919991
 40
0.7154604852
 40
0.7474878032
 40
0.7794523473
 40
0.8113337692
 40
0.8431133916
 40
0.8747746171
 40
0.9063032365
 40
0.9376879249
 40
0.9533258257
 40
0.968925233
 40
1.0
 40
1.0
 40
1.0
 40
1.0
 10
11.2307023163
 20
8.4621204706
 30
0.0
 10
11.2343354534
 20
8.4656298122
 30
0.0
 10
11.2399992886
 20
8.4706812092
 30
0.0
 10
11.2479314016
 20
8.4769488607
 30
0.0
 10
11.2561160955
 20
8.4829046508
 30
0.0
 10
11.2667957943
 20
8.4897438191
 30
0.0
 10
11.2779947593
 20
8.4957261034
 30
0.0
 10
11.2872309844
 20
8.499981961
 30
0.0
 10
11.2966580381
 20
8.5038864225
 30
0.0
 10
11.3087524962
 20
8.50808489
 30
0.0
 10
11.3236571012
 20
8.5119977485
 30
0.0
 10
11.3388869296
 20
8.5147697335
 30
0.0
 10
11.354357584
 20
8.5163855424
 30
0.0
 10
11.3699840796
 20
8.5168365545
 30
0.0
 10
11.3856804349
 20
8.5161204736
 30
0.0
 10
11.4013603789
 20
8.514241436
 30
0.0
 10
11.4169377569
 20
8.5112099504
 30
0.0
 10
11.4323270155
 20
8.5070428409
 30
0.0
 10
11.4474436617
 20
8.5017631468
 30
0.0
 10
11.4622047212
 20
8.495399993
 30
0.0
 10
11.4765291872
 20
8.4879884279
 30
0.0
 10
11.4903384596
 20
8.4795692309
 30
0.0
 10
11.5035567699
 20
8.4701886879
 30
0.0
 10
11.5161115916
 20
8.4598983382
 30
0.0
 10
11.5279340338
 20
8.4487546937
 30
0.0
 10
11.5389592146
 20
8.4368189311
 30
0.0
 10
11.5491266135
 20
8.4241565598
 30
0.0
 10
11.5583804002
 20
8.4108370647
 30
0.0
 10
11.5666697386
 20
8.3969335337
 30
0.0
 10
11.5739490637
 20
8.3825222448
 30
0.0
 10
11.5801783293
 20
8.3676823125
 30
0.0
 10
11.5853232368
 20
8.3524950399
 30
0.0
 10
11.5893553689
 20
8.3370442893
 30
0.0
 10
11.5917727176
 20
8.3240021752
 30
0.0
 10
11.5931287829
 20
8.3135230032
 30
0.0
 10
11.5940965712
 20
8.3030538562
 30
0.0
 10
11.5943896074
 20
8.2951758972
 30
0.0
 10
11.5943896074
 20
8.2899335385
 30
0.0
  0
SPLINE
  5
354
100
AcDbEntity
  8
0
100
AcDbSpline
 62
7
  6
CONTINUOUS
 70
0
 71
3
 72
42
 73
38
 74
0
 42
0.0000001
 43
0.0000001
 44
0.0000000001
 40
0.0
 40
0.0
 40
0.0
 40
0.0
 40
0.0299419663
 40
0.0449235352
 40
0.0599142051
 40
0.0899287052
 40
0.1200139767
 40
0.135092661
 40
0.150196701
 40
0.1804840414
 40
0.210897872
 40
0.2414513324
 40
0.2721543376
 40
0.3030133986
 40
0.3340315263
 40
0.3652082187
 40
0.3965395244
 40
0.4280181782
 40
0.4596338019
 40
0.4913731609
 40
0.5232204716
 40
0.55515775
 40
0.5871651943
 40
0.6192215961
 40
0.6513047701
 40
0.6833919991
 40
0.7154604852
 40
0.7474878032
 40
0.7794523473
 40
0.8113337692
 40
0.8431133916
 40
0.8747746171
 40
0.9063032365
 40
0.9376879249
 40
0.9533258257
 40
0.968925233
 40
1.0
 40
1.0
 40
1.0
 40
1.0
 10
10.8385365053
 20
9.0630771042
 30
0.0
 10
10.8421696424
 20
9.0665864457
 30
0.0
 10
10.8478334775
 20
9.0716378428
 30
0.0
 10
10.8557655905
 20
9.0779054943
 30
0.0
 10
10.8639502845
 20
9.0838612844
 30
0.0
 10
10.8746299832
 20
9.0907004526
 30
0.0
 10
10.8858289483
 20
9.0966827369
 30
0.0
 10
10.8950651733
 20
9.1009385945
 30
0.0
 10
10.9044922271
 20
9.1048430561
 30
0.0
 10
10.9165866851
 20
9.1090415235
 30
0.0
 10
10.9314912901
 20
9.112954382
 30
0.0
 10
10.9467211185
 20
9.115726367
 30
0.0
 10
10.962191773
 20
9.1173421759
 30
0.0
 10
10.9778182685
 20
9.1177931881
 30
0.0
 10
10.9935146238
 20
9.1170771071
 30
0.0
 10
11.0091945678
 20
9.1151980695
 30
0.0
 10
11.0247719458
 20
9.1121665839
 30
0.0
 10
11.0401612044
 20
9.1079994744
 30
0.0
 10
11.0552778506
 20
9.1027197803
 30
0.0
 10
11.0700389101
 20
9.0963566266
 30
0.0
 10
11.0843633761
 20
9.0889450614
 30
0.0
 10
11.0981726486
 20
9.0805258644
 30
0.0
 10
11.1113909588
 20
9.0711453214
 30
0.0
 10
11.1239457805
 20
9.0608549717
 30
0.0
 10
11.1357682228
 20
9.0497113272
 30
0.0
 10
11.1467934036
 20
9.0377755646
 30
0.0
 10
11.1569608024
 20
9.0251131933
 30
0.0
 10
11.1662145891
 20
9.0117936983
 30
0.0
 10
11.1745039276
 20
8.9978901673
 30
0.0
 10
11.1817832527
 20
8.9834788783
 30
0.0
 10
11.1880125182
 20
8.9686389461
 30
0.0
 10
11.1931574257
 20
8.9534516735
 30
0.0
 10
11.1971895578
 20
8.9380009229
 30
0.0
 10
11.1996069065
 20
8.9249588088
 30
0.0
 10
11.2009629718
 20
8.9144796367
 30
0.0
 10
11.2019307601
 20
8.9040104897
 30
0.0
 10
11.2022237963
 20
8.8961325308
 30
0.0
 10
11.2022237963
 20
8.890890172
 30
0.0
  0
SPLINE
  5
355
100
AcDbEntity
  8
0
100
AcDbSpline
 62
7
  6
CONTINUOUS
 70
0
 71
3
 72
42
 73
38
 74
0
 42
0.0000001
 43
0.0000001
 44
0.0000000001
 40
0.0
 40
0.0
 40
0.0
 40
0.0
 40
0.0299419663
 40
0.0449235352
 40
0.0599142051
 40
0.0899287052
 40
0.1200139767
 40
0.135092661
 40
0.150196701
 40
0.1804840414
 40
0.210897872
 40
0.2414513324
 40
0.2721543376
 40
0.3030133986
 40
0.3340315263
 40
0.3652082187
 40
0.3965395244
 40
0.4280181782
 40
0.4596338019
 40
0.4913731609
 40
0.5232204716
 40
0.55515775
 40
0.5871651943
 40
0.6192215961
 40
0.6513047701
 40
0.6833919991
 40
0.7154604852
 40
0.7474878032
 40
0.7794523473
 40
0.8113337692
 40
0.8431133916
 40
0.8747746171
 40
0.9063032365
 40
0.9376879249
 40
0.9533258257
 40
0.968925233
 40
1.0
 40
1.0
 40
1.0
 40
1.0
 10
10.4463705791
 20
8.5165140614
 30
0.0
 10
10.4500037162
 20
8.5200234029
 30
0.0
 10
10.4556675513
 20
8.5250748
 30
0.0
 10
10.4635996643
 20
8.5313424515
 30
0.0
 10
10.4717843583
 20
8.5372982416
 30
0.0
 10
10.482464057
 20
8.5441374098
 30
0.0
 10
10.4936630221
 20
8.5501196941
 30
0.0
 10
10.5028992471
 20
8.5543755517
 30
0.0
 10
10.5123263008
 20
8.5582800133
 30
0.0
 10
10.5244207589
 20
8.5624784807
 30
0.0
 10
10.5393253639
 20
8.5663913392
 30
0.0
 10
10.5545551923
 20
8.5691633242
 30
0.0
 10
10.5700258468
 20
8.5707791331
 30
0.0
 10
10.5856523423
 20
8.5712301453
 30
0.0
 10
10.6013486976
 20
8.5705140643
 30
0.0
 10
10.6170286416
 20
8.5686350267
 30
0.0
 10
10.6326060196
 20
8.5656035411
 30
0.0
 10
10.6479952782
 20
8.5614364316
 30
0.0
 10
10.6631119244
 20
8.5561567375
 30
0.0
 10
10.6778729839
 20
8.5497935838
 30
0.0
 10
10.6921974499
 20
8.5423820186
 30
0.0
 10
10.7060067223
 20
8.5339628216
 30
0.0
 10
10.7192250326
 20
8.5245822786
 30
0.0
 10
10.7317798543
 20
8.5142919289
 30
0.0
 10
10.7436022966
 20
8.5031482844
 30
0.0
 10
10.7546274774
 20
8.4912125218
 30
0.0
 10
10.7647948762
 20
8.4785501505
 30
0.0
 10
10.7740486629
 20
8.4652306555
 30
0.0
 10
10.7823380013
 20
8.4513271245
 30
0.0
 10
10.7896173265
 20
8.4369158355
 30
0.0
 10
10.795846592
 20
8.4220759032
 30
0.0
 10
10.8009914995
 20
8.4068886307
 30
0.0
 10
10.8050236316
 20
8.39143788
 30
0.0
 10
10.8074409803
 20
8.3783957659
 30
0.0
 10
10.8087970456
 20
8.3679165939
 30
0.0
 10
10.8097648339
 20
8.3574474469
 30
0.0
 10
10.8100578701
 20
8.349569488
 30
0.0
 10
10.8100578701
 20
8.3443271292
 30
0.0
  0
SPLINE
  5
356
100
AcDbEntity
  8
0
100
AcDbSpline
 62
7
  6
CONTINUOUS
 70
0
 71
3
 72
42
 73
38
 74
0
 42
0.0000001
 43
0.0000001
 44
0.0000000001
 40
0.0
 40
0.0
 40
0.0
 40
0.0
 40
0.0299419663
 40
0.0449235352
 40
0.0599142051
 40
0.0899287052
 40
0.1200139767
 40
0.135092661
 40
0.150196701
 40
0.1804840414
 40
0.210897872
 40
0.2414513324
 40
0.2721543376
 40
0.3030133986
 40
0.3340315263
 40
0.3652082187
 40
0.3965395244
 40
0.4280181782
 40
0.4596338019
 40
0.4913731609
 40
0.5232204716
 40
0.55515775
 40
0.5871651943
 40
0.6192215961
 40
0.6513047701
 40
0.6833919991
 40
0.7154604852
 40
0.7474878032
 40
0.7794523473
 40
0.8113337692
 40
0.8431133916
 40
0.8747746171
 40
0.9063032365
 40
0.9376879249
 40
0.9533258257
 40
0.968925233
 40
1.0
 40
1.0
 40
1.0
 40
1.0
 10
9.9324980615
 20
8.1290755092
 30
0.0
 10
9.9361311986
 20
8.1325848508
 30
0.0
 10
9.9417950338
 20
8.1376362478
 30
0.0
 10
9.9497271468
 20
8.1439038993
 30
0.0
 10
9.9579118407
 20
8.1498596894
 30
0.0
 10
9.9685915395
 20
8.1566988576
 30
0.0
 10
9.9797905045
 20
8.162681142
 30
0.0
 10
9.9890267296
 20
8.1669369996
 30
0.0
 10
9.9984537833
 20
8.1708414611
 30
0.0
 10
10.0105482414
 20
8.1750399286
 30
0.0
 10
10.0254528464
 20
8.1789527871
 30
0.0
 10
10.0406826748
 20
8.1817247721
 30
0.0
 10
10.0561533292
 20
8.183340581
 30
0.0
 10
10.0717798248
 20
8.1837915931
 30
0.0
 10
10.0874761801
 20
8.1830755122
 30
0.0
 10
10.1031561241
 20
8.1811964745
 30
0.0
 10
10.1187335021
 20
8.178164989
 30
0.0
 10
10.1341227607
 20
8.1739978795
 30
0.0
 10
10.1492394069
 20
8.1687181854
 30
0.0
 10
10.1640004664
 20
8.1623550316
 30
0.0
 10
10.1783249324
 20
8.1549434665
 30
0.0
 10
10.1921342048
 20
8.1465242695
 30
0.0
 10
10.2053525151
 20
8.1371437265
 30
0.0
 10
10.2179073368
 20
8.1268533768
 30
0.0
 10
10.229729779
 20
8.1157097323
 30
0.0
 10
10.2407549598
 20
8.1037739697
 30
0.0
 10
10.2509223587
 20
8.0911115984
 30
0.0
 10
10.2601761454
 20
8.0777921033
 30
0.0
 10
10.2684654838
 20
8.0638885723
 30
0.0
 10
10.2757448089
 20
8.0494772834
 30
0.0
 10
10.2819740745
 20
8.0346373511
 30
0.0
 10
10.287118982
 20
8.0194500785
 30
0.0
 10
10.2911511141
 20
8.0039993279
 30
0.0
 10
10.2935684628
 20
7.9909572138
 30
0.0
 10
10.2949245281
 20
7.9804780417
 30
0.0
 10
10.2958923164
 20
7.9700088948
 30
0.0
 10
10.2961853526
 20
7.9621309358
 30
0.0
 10
10.2961853526
 20
7.9568885771
 30
0.0
  0
SPLINE
  5
357
100
AcDbEntity
  8
0
100
AcDbSpline
 62
7
  6
CONTINUOUS
 70
0
 71
3
 72
15
 73
11
 74
0
 42
0.0000001
 43
0.0000001
 44
0.0000000001
 40
0.0
 40
0.0
 40
0.0
 40
0.0
 40
0.1233171261
 40
0.2468171865
 40
0.3706749939
 40
0.4950495802
 40
0.6200773232
 40
0.7458671315
 40
0.872492731
 40
1.0
 40
1.0
 40
1.0
 40
1.0
 10
9.8927959597
 20
7.5537497693
 30
0.0
 10
9.8953204934
 20
7.5561882604
 30
0.0
 10
9.900640464
 20
7.5608006862
 30
0.0
 10
9.9093231803
 20
7.5668278764
 30
0.0
 10
9.9186270052
 20
7.5719087176
 30
0.0
 10
9.9284567059
 20
7.5759909882
 30
0.0
 10
9.9387131277
 20
7.5790341587
 30
0.0
 10
9.949292952
 20
7.5810078018
 30
0.0
 10
9.9600881829
 20
7.5818927209
 30
0.0
 10
9.9673344651
 20
7.5817513794
 30
0.0
 10
9.9709549471
 20
7.5815002981
 30
0.0
  0
SPLINE
  5
358
100
AcDbEntity
  8
0
100
AcDbSpline
 62
7
  6
CONTINUOUS
 70
0
 71
3
 72
15
 73
11
 74
0
 42
0.0000001
 43
0.0000001
 44
0.0000000001
 40
0.0
 40
0.0
 40
0.0
 40
0.0
 40
0.1233171261
 40
0.2468171865
 40
0.3706749939
 40
0.4950495802
 40
0.6200773232
 40
0.7458671315
 40
0.872492731
 40
1.0
 40
1.0
 40
1.0
 40
1.0
 10
11.9444226063
 20
7.4114689782
 30
0.0
 10
11.94694714
 20
7.4139074693
 30
0.0
 10
11.9522671106
 20
7.418519895
 30
0.0
 10
11.9609498269
 20
7.4245470852
 30
0.0
 10
11.9702536518
 20
7.4296279265
 30
0.0
 10
11.9800833525
 20
7.433710197
 30
0.0
 10
11.9903397743
 20
7.4367533675
 30
0.0
 10
12.0009195986
 20
7.4387270106
 30
0.0
 10
12.0117148295
 20
7.4396119297
 30
0.0
 10
12.0189611117
 20
7.4394705882
 30
0.0
 10
12.0225815937
 20
7.4392195069
 30
0.0
  0
SPLINE
  5
359
100
AcDbEntity
  8
0
100
AcDbSpline
 62
7
  6
CONTINUOUS
 70
0
 71
3
 72
15
 73
11
 74
0
 42
0.0000001
 43
0.0000001
 44
0.0000000001
 40
0.0
 40
0.0
 40
0.0
 40
0.0
 40
0.1233171261
 40
0.2468171865
 40
0.3706749939
 40
0.4950495802
 40
0.6200773232
 40
0.7458671315
 40
0.872492731
 40
1.0
 40
1.0
 40
1.0
 40
1.0
 10
11.9444226063
 20
9.16269257
 30
0.0
 10
11.94694714
 20
9.1651310611
 30
0.0
 10
11.9522671106
 20
9.1697434868
 30
0.0
 10
11.9609498269
 20
9.175770677
 30
0.0
 10
11.9702536518
 20
9.1808515183
 30
0.0
 10
11.9800833525
 20
9.1849337888
 30
0.0
 10
11.9903397743
 20
9.1879769593
 30
0.0
 10
12.0009195986
 20
9.1899506024
 30
0.0
 10
12.0117148295
 20
9.1908355216
 30
0.0
 10
12.0189611117
 20
9.19069418
 30
0.0
 10
12.0225815937
 20
9.1904430988
 30
0.0
  0
SPLINE
  5
35A
100
AcDbEntity
  8
0
100
AcDbSpline
 62
7
  6
CONTINUOUS
 70
0
 71
3
 72
15
 73
11
 74
0
 42
0.0000001
 43
0.0000001
 44
0.0000000001
 40
0.0
 40
0.0
 40
0.0
 40
0.0
 40
0.1233171261
 40
0.2468171865
 40
0.3706749939
 40
0.4950495802
 40
0.6200773232
 40
0.7458671315
 40
0.872492731
 40
1.0
 40
1.0
 40
1.0
 40
1.0
 10
9.8927959597
 20
9.3049733612
 30
0.0
 10
9.8953204934
 20
9.3074118523
 30
0.0
 10
9.900640464
 20
9.312024278
 30
0.0
 10
9.9093231803
 20
9.3180514682
 30
0.0
 10
9.9186270052
 20
9.3231323095
 30
0.0
 10
9.9284567059
 20
9.32721458
 30
0.0
 10
9.9387131277
 20
9.3302577505
 30
0.0
 10
9.949292952
 20
9.3322313936
 30
0.0
 10
9.9600881829
 20
9.3331163128
 30
0.0
 10
9.9673344651
 20
9.3329749712
 30
0.0
 10
9.9709549471
 20
9.3327238899
 30
0.0
  0
SPLINE
  5
35B
100
AcDbEntity
  8
0
100
AcDbSpline
 62
7
  6
CONTINUOUS
 70
0
 71
3
 72
42
 73
38
 74
0
 42
0.0000001
 43
0.0000001
 44
0.0000000001
 40
0.0
 40
0.0
 40
0.0
 40
0.0
 40
0.0299419663
 40
0.0449235352
 40
0.0599142051
 40
0.0899287052
 40
0.1200139767
 40
0.135092661
 40
0.150196701
 40
0.1804840414
 40
0.210897872
 40
0.2414513324
 40
0.2721543376
 40
0.3030133986
 40
0.3340315263
 40
0.3652082187
 40
0.3965395244
 40
0.4280181782
 40
0.4596338019
 40
0.4913731609
 40
0.5232204716
 40
0.55515775
 40
0.5871651943
 40
0.6192215961
 40
0.6513047701
 40
0.6833919991
 40
0.7154604852
 40
0.7474878032
 40
0.7794523473
 40
0.8113337692
 40
0.8431133916
 40
0.8747746171
 40
0.9063032365
 40
0.9376879249
 40
0.9533258257
 40
0.968925233
 40
1.0
 40
1.0
 40
1.0
 40
1.0
 10
9.0882787981
 20
6.7696434099
 30
0.0
 10
9.0919119352
 20
6.7731527514
 30
0.0
 10
9.0975757703
 20
6.7782041485
 30
0.0
 10
9.1055078834
 20
6.7844718
 30
0.0
 10
9.1136925773
 20
6.7904275901
 30
0.0
 10
9.1243722761
 20
6.7972667583
 30
0.0
 10
9.1355712411
 20
6.8032490427
 30
0.0
 10
9.1448074662
 20
6.8075049003
 30
0.0
 10
9.1542345199
 20
6.8114093618
 30
0.0
 10
9.1663289779
 20
6.8156078293
 30
0.0
 10
9.1812335829
 20
6.8195206878
 30
0.0
 10
9.1964634114
 20
6.8222926728
 30
0.0
 10
9.2119340658
 20
6.8239084817
 30
0.0
 10
9.2275605614
 20
6.8243594938
 30
0.0
 10
9.2432569167
 20
6.8236434129
 30
0.0
 10
9.2589368607
 20
6.8217643752
 30
0.0
 10
9.2745142386
 20
6.8187328897
 30
0.0
 10
9.2899034973
 20
6.8145657802
 30
0.0
 10
9.3050201434
 20
6.8092860861
 30
0.0
 10
9.3197812029
 20
6.8029229323
 30
0.0
 10
9.334105669
 20
6.7955113672
 30
0.0
 10
9.3479149414
 20
6.7870921702
 30
0.0
 10
9.3611332516
 20
6.7777116272
 30
0.0
 10
9.3736880734
 20
6.7674212775
 30
0.0
 10
9.3855105156
 20
6.756277633
 30
0.0
 10
9.3965356964
 20
6.7443418704
 30
0.0
 10
9.4067030953
 20
6.7316794991
 30
0.0
 10
9.415956882
 20
6.718360004
 30
0.0
 10
9.4242462204
 20
6.704456473
 30
0.0
 10
9.4315255455
 20
6.6900451841
 30
0.0
 10
9.437754811
 20
6.6752052518
 30
0.0
 10
9.4428997185
 20
6.6600179792
 30
0.0
 10
9.4469318507
 20
6.6445672286
 30
0.0
 10
9.4493491994
 20
6.6315251145
 30
0.0
 10
9.4507052647
 20
6.6210459424
 30
0.0
 10
9.451673053
 20
6.6105767955
 30
0.0
 10
9.4519660892
 20
6.6026988365
 30
0.0
 10
9.4519660892
 20
6.5974564777
 30
0.0
  0
SPLINE
  5
35C
100
AcDbEntity
  8
0
100
AcDbSpline
 62
7
  6
CONTINUOUS
 70
0
 71
3
 72
42
 73
38
 74
0
 42
0.0000001
 43
0.0000001
 44
0.0000000001
 40
0.0
 40
0.0
 40
0.0
 40
0.0
 40
0.0299419663
 40
0.0449235352
 40
0.0599142051
 40
0.0899287052
 40
0.1200139767
 40
0.135092661
 40
0.150196701
 40
0.1804840414
 40
0.210897872
 40
0.2414513324
 40
0.2721543376
 40
0.3030133986
 40
0.3340315263
 40
0.3652082187
 40
0.3965395244
 40
0.4280181782
 40
0.4596338019
 40
0.4913731609
 40
0.5232204716
 40
0.55515775
 40
0.5871651943
 40
0.6192215961
 40
0.6513047701
 40
0.6833919991
 40
0.7154604852
 40
0.7474878032
 40
0.7794523473
 40
0.8113337692
 40
0.8431133916
 40
0.8747746171
 40
0.9063032365
 40
0.9376879249
 40
0.9533258257
 40
0.968925233
 40
1.0
 40
1.0
 40
1.0
 40
1.0
 10
12.1058312995
 20
6.5603754332
 30
0.0
 10
12.1094644366
 20
6.5638847747
 30
0.0
 10
12.1151282717
 20
6.5689361718
 30
0.0
 10
12.1230603847
 20
6.5752038233
 30
0.0
 10
12.1312450787
 20
6.5811596134
 30
0.0
 10
12.1419247774
 20
6.5879987816
 30
0.0
 10
12.1531237425
 20
6.5939810659
 30
0.0
 10
12.1623599675
 20
6.5982369235
 30
0.0
 10
12.1717870212
 20
6.6021413851
 30
0.0
 10
12.1838814793
 20
6.6063398525
 30
0.0
 10
12.1987860843
 20
6.610252711
 30
0.0
 10
12.2140159127
 20
6.6130246961
 30
0.0
 10
12.2294865672
 20
6.6146405049
 30
0.0
 10
12.2451130627
 20
6.6150915171
 30
0.0
 10
12.260809418
 20
6.6143754361
 30
0.0
 10
12.276489362
 20
6.6124963985
 30
0.0
 10
12.29206674
 20
6.6094649129
 30
0.0
 10
12.3074559986
 20
6.6052978034
 30
0.0
 10
12.3225726448
 20
6.6000181093
 30
0.0
 10
12.3373337043
 20
6.5936549556
 30
0.0
 10
12.3516581703
 20
6.5862433904
 30
0.0
 10
12.3654674427
 20
6.5778241935
 30
0.0
 10
12.378685753
 20
6.5684436504
 30
0.0
 10
12.3912405747
 20
6.5581533007
 30
0.0
 10
12.403063017
 20
6.5470096562
 30
0.0
 10
12.4140881978
 20
6.5350738936
 30
0.0
 10
12.4242555966
 20
6.5224115223
 30
0.0
 10
12.4335093833
 20
6.5090920273
 30
0.0
 10
12.4417987217
 20
6.4951884963
 30
0.0
 10
12.4490780469
 20
6.4807772073
 30
0.0
 10
12.4553073124
 20
6.4659372751
 30
0.0
 10
12.4604522199
 20
6.4507500025
 30
0.0
 10
12.464484352
 20
6.4352992519
 30
0.0
 10
12.4669017007
 20
6.4222571378
 30
0.0
 10
12.468257766
 20
6.4117779657
 30
0.0
 10
12.4692255543
 20
6.4013088187
 30
0.0
 10
12.4695185905
 20
6.3934308598
 30
0.0
 10
12.4695185905
 20
6.388188501
 30
0.0
  0
SPLINE
  5
35D
100
AcDbEntity
  8
0
100
AcDbSpline
 62
7
  6
CONTINUOUS
 70
0
 71
3
 72
42
 73
38
 74
0
 42
0.0000001
 43
0.0000001
 44
0.0000000001
 40
0.0
 40
0.0
 40
0.0
 40
0.0
 40
0.0299419663
 40
0.0449235352
 40
0.0599142051
 40
0.0899287052
 40
0.1200139767
 40
0.135092661
 40
0.150196701
 40
0.1804840414
 40
0.210897872
 40
0.2414513324
 40
0.2721543376
 40
0.3030133986
 40
0.3340315263
 40
0.3652082187
 40
0.3965395244
 40
0.4280181782
 40
0.4596338019
 40
0.4913731609
 40
0.5232204716
 40
0.55515775
 40
0.5871651943
 40
0.6192215961
 40
0.6513047701
 40
0.6833919991
 40
0.7154604852
 40
0.7474878032
 40
0.7794523473
 40
0.8113337692
 40
0.8431133916
 40
0.8747746171
 40
0.9063032365
 40
0.9376879249
 40
0.9533258257
 40
0.968925233
 40
1.0
 40
1.0
 40
1.0
 40
1.0
 10
12.1058312995
 20
10.060890646
 30
0.0
 10
12.1094644366
 20
10.0643999875
 30
0.0
 10
12.1151282717
 20
10.0694513846
 30
0.0
 10
12.1230603847
 20
10.0757190361
 30
0.0
 10
12.1312450787
 20
10.0816748262
 30
0.0
 10
12.1419247774
 20
10.0885139944
 30
0.0
 10
12.1531237425
 20
10.0944962787
 30
0.0
 10
12.1623599675
 20
10.0987521363
 30
0.0
 10
12.1717870212
 20
10.1026565979
 30
0.0
 10
12.1838814793
 20
10.1068550654
 30
0.0
 10
12.1987860843
 20
10.1107679239
 30
0.0
 10
12.2140159127
 20
10.1135399089
 30
0.0
 10
12.2294865672
 20
10.1151557177
 30
0.0
 10
12.2451130627
 20
10.1156067299
 30
0.0
 10
12.260809418
 20
10.114890649
 30
0.0
 10
12.276489362
 20
10.1130116113
 30
0.0
 10
12.29206674
 20
10.1099801257
 30
0.0
 10
12.3074559986
 20
10.1058130162
 30
0.0
 10
12.3225726448
 20
10.1005333222
 30
0.0
 10
12.3373337043
 20
10.0941701684
 30
0.0
 10
12.3516581703
 20
10.0867586033
 30
0.0
 10
12.3654674427
 20
10.0783394063
 30
0.0
 10
12.378685753
 20
10.0689588633
 30
0.0
 10
12.3912405747
 20
10.0586685136
 30
0.0
 10
12.403063017
 20
10.047524869
 30
0.0
 10
12.4140881978
 20
10.0355891064
 30
0.0
 10
12.4242555966
 20
10.0229267352
 30
0.0
 10
12.4335093833
 20
10.0096072401
 30
0.0
 10
12.4417987217
 20
9.9957037091
 30
0.0
 10
12.4490780469
 20
9.9812924201
 30
0.0
 10
12.4553073124
 20
9.9664524879
 30
0.0
 10
12.4604522199
 20
9.9512652153
 30
0.0
 10
12.464484352
 20
9.9358144647
 30
0.0
 10
12.4669017007
 20
9.9227723506
 30
0.0
 10
12.468257766
 20
9.9122931785
 30
0.0
 10
12.4692255543
 20
9.9018240315
 30
0.0
 10
12.4695185905
 20
9.8939460726
 30
0.0
 10
12.4695185905
 20
9.8887037138
 30
0.0
  0
SPLINE
  5
35E
100
AcDbEntity
  8
0
100
AcDbSpline
 62
7
  6
CONTINUOUS
 70
0
 71
3
 72
42
 73
38
 74
0
 42
0.0000001
 43
0.0000001
 44
0.0000000001
 40
0.0
 40
0.0
 40
0.0
 40
0.0
 40
0.0299419663
 40
0.0449235352
 40
0.0599142051
 40
0.0899287052
 40
0.1200139767
 40
0.135092661
 40
0.150196701
 40
0.1804840414
 40
0.210897872
 40
0.2414513324
 40
0.2721543376
 40
0.3030133986
 40
0.3340315263
 40
0.3652082187
 40
0.3965395244
 40
0.4280181782
 40
0.4596338019
 40
0.4913731609
 40
0.5232204716
 40
0.55515775
 40
0.5871651943
 40
0.6192215961
 40
0.6513047701
 40
0.6833919991
 40
0.7154604852
 40
0.7474878032
 40
0.7794523473
 40
0.8113337692
 40
0.8431133916
 40
0.8747746171
 40
0.9063032365
 40
0.9376879249
 40
0.9533258257
 40
0.968925233
 40
1.0
 40
1.0
 40
1.0
 40
1.0
 10
9.0882787981
 20
10.2701586227
 30
0.0
 10
9.0919119352
 20
10.2736679643
 30
0.0
 10
9.0975757703
 20
10.2787193613
 30
0.0
 10
9.1055078834
 20
10.2849870128
 30
0.0
 10
9.1136925773
 20
10.2909428029
 30
0.0
 10
9.1243722761
 20
10.2977819711
 30
0.0
 10
9.1355712411
 20
10.3037642555
 30
0.0
 10
9.1448074662
 20
10.3080201131
 30
0.0
 10
9.1542345199
 20
10.3119245746
 30
0.0
 10
9.1663289779
 20
10.3161230421
 30
0.0
 10
9.1812335829
 20
10.3200359006
 30
0.0
 10
9.1964634114
 20
10.3228078856
 30
0.0
 10
9.2119340658
 20
10.3244236945
 30
0.0
 10
9.2275605614
 20
10.3248747066
 30
0.0
 10
9.2432569167
 20
10.3241586257
 30
0.0
 10
9.2589368607
 20
10.322279588
 30
0.0
 10
9.2745142386
 20
10.3192481025
 30
0.0
 10
9.2899034973
 20
10.315080993
 30
0.0
 10
9.3050201434
 20
10.3098012989
 30
0.0
 10
9.3197812029
 20
10.3034381451
 30
0.0
 10
9.334105669
 20
10.29602658
 30
0.0
 10
9.3479149414
 20
10.287607383
 30
0.0
 10
9.3611332516
 20
10.27822684
 30
0.0
 10
9.3736880734
 20
10.2679364903
 30
0.0
 10
9.3855105156
 20
10.2567928458
 30
0.0
 10
9.3965356964
 20
10.2448570832
 30
0.0
 10
9.4067030953
 20
10.2321947119
 30
0.0
 10
9.415956882
 20
10.2188752168
 30
0.0
 10
9.4242462204
 20
10.2049716858
 30
0.0
 10
9.4315255455
 20
10.1905603969
 30
0.0
 10
9.437754811
 20
10.1757204646
 30
0.0
 10
9.4428997185
 20
10.160533192
 30
0.0
 10
9.4469318507
 20
10.1450824414
 30
0.0
 10
9.4493491994
 20
10.1320403273
 30
0.0
 10
9.4507052647
 20
10.1215611553
 30
0.0
 10
9.451673053
 20
10.1110920083
 30
0.0
 10
9.4519660892
 20
10.1032140493
 30
0.0
 10
9.4519660892
 20
10.0979716906
 30
0.0
  0
SPLINE
  5
35F
100
AcDbEntity
  8
0
100
AcDbSpline
 62
7
  6
CONTINUOUS
 70
0
 71
3
 72
39
 73
35
 74
0
 42
0.0000001
 43
0.0000001
 44
0.0000000001
 40
0.0
 40
0.0
 40
0.0
 40
0.0
 40
0.0314026134
 40
0.06300949
 40
0.0948071102
 40
0.1267734453
 40
0.1588809722
 40
0.1910970226
 40
0.2233851132
 40
0.2557062446
 40
0.2880202663
 40
0.3202872751
 40
0.3524690067
 40
0.384530184
 40
0.4164397927
 40
0.448172249
 40
0.4797084083
 40
0.5110363809
 40
0.5421521201
 40
0.5730597413
 40
0.6037715194
 40
0.6343075569
 40
0.6646951118
 40
0.6949675896
 40
0.7251632184
 40
0.755323478
 40
0.7854913548
 40
0.8157095105
 40
0.8460184691
 40
0.8764549222
 40
0.9070502335
 40
0.9378293335
 40
0.9688091139
 40
1.0
 40
1.0
 40
1.0
 40
1.0
 10
9.9648727045
 20
7.3355927206
 30
0.0
 10
9.9605609688
 20
7.3358917405
 30
0.0
 10
9.9519331934
 20
7.336916638
 30
0.0
 10
9.9391654024
 20
7.3397002589
 30
0.0
 10
9.9266450924
 20
7.3437083423
 30
0.0
 10
9.9144940557
 20
7.3489020457
 30
0.0
 10
9.9028285094
 20
7.3552311982
 30
0.0
 10
9.891760469
 20
7.3626347979
 30
0.0
 10
9.8813960699
 20
7.371041618
 30
0.0
 10
9.8718347629
 20
7.3803708902
 30
0.0
 10
9.8631683332
 20
7.3905330621
 30
0.0
 10
9.8554799909
 20
7.4014305932
 30
0.0
 10
9.8488436334
 20
7.4129589296
 30
0.0
 10
9.8433231515
 20
7.4250074801
 30
0.0
 10
9.838971825
 20
7.4374606463
 30
0.0
 10
9.8358317369
 20
7.4501988823
 30
0.0
 10
9.8339334303
 20
7.4630998478
 30
0.0
 10
9.8332956019
 20
7.476039546
 30
0.0
 10
9.8339248977
 20
7.4888934797
 30
0.0
 10
9.8358157335
 20
7.5015378344
 30
0.0
 10
9.8389503817
 20
7.513850665
 30
0.0
 10
9.8432990923
 20
7.5257130638
 30
0.0
 10
9.8488203265
 20
7.5370103184
 30
0.0
 10
9.8554610423
 20
7.5476330946
 30
0.0
 10
9.8631572554
 20
7.557478519
 30
0.0
 10
9.8718346466
 20
7.566451224
 30
0.0
 10
9.8814092888
 20
7.5744643219
 30
0.0
 10
9.89178845
 20
7.5814403578
 30
0.0
 10
9.9028715917
 20
7.587312034
 30
0.0
 10
9.9145514415
 20
7.5920228528
 30
0.0
 10
9.9267149098
 20
7.5955276766
 30
0.0
 10
9.9392448138
 20
7.5977930722
 30
0.0
 10
9.9520187058
 20
7.5987979183
 30
0.0
 10
9.9605900401
 20
7.5986215647
 30
0.0
 10
9.9648727045
 20
7.5983245609
 30
0.0
  0
SPLINE
  5
360
100
AcDbEntity
  8
0
100
AcDbSpline
 62
7
  6
CONTINUOUS
 70
0
 71
3
 72
21
 73
17
 74
0
 42
0.0000001
 43
0.0000001
 44
0.0000000001
 40
0.0
 40
0.0
 40
0.0
 40
0.0
 40
0.1273176366
 40
0.2537999756
 40
0.3167619475
 40
0.3795355041
 40
0.4421314991
 40
0.5045621439
 40
0.5668413432
 40
0.6289845283
 40
0.6910084528
 40
0.7529310935
 40
0.8147714495
 40
0.8765493365
 40
0.9382852194
 40
1.0
 40
1.0
 40
1.0
 40
1.0
 10
9.8731098156
 20
7.9862289652
 30
0.0
 10
9.8731098156
 20
7.9929737194
 30
0.0
 10
9.8737536469
 20
8.0064276588
 30
0.0
 10
9.8761851887
 20
8.0230596347
 30
0.0
 10
9.8790914219
 20
8.0361059659
 30
0.0
 10
9.8817417503
 20
8.0457289444
 30
0.0
 10
9.8848596834
 20
8.0551809386
 30
0.0
 10
9.8884380769
 20
8.0644404112
 30
0.0
 10
9.892468654
 20
8.0734859539
 30
0.0
 10
9.8969421763
 20
8.0822967064
 30
0.0
 10
9.9018483535
 20
8.0908523288
 30
0.0
 10
9.9071758424
 20
8.099133116
 30
0.0
 10
9.9129123721
 20
8.1071199349
 30
0.0
 10
9.9190448143
 20
8.1147943976
 30
0.0
 10
9.9255587383
 20
8.1221385965
 30
0.0
 10
9.9301465378
 20
8.1268041114
 30
0.0
 10
9.9324980615
 20
8.1290755092
 30
0.0
  0
SPLINE
  5
361
100
AcDbEntity
  8
0
100
AcDbSpline
 62
7
  6
CONTINUOUS
 70
0
 71
3
 72
15
 73
11
 74
0
 42
0.0000001
 43
0.0000001
 44
0.0000000001
 40
0.0
 40
0.0
 40
0.0
 40
0.0
 40
0.1273482936
 40
0.2538605366
 40
0.3795879111
 40
0.5046050899
 40
0.6290174366
 40
0.7529533732
 40
0.8765605776
 40
1.0
 40
1.0
 40
1.0
 40
1.0
 10
9.8622882852
 20
7.4803696948
 30
0.0
 10
9.8622882852
 20
7.4838344702
 30
0.0
 10
9.8626191001
 20
7.4907460646
 30
0.0
 10
9.864115187
 20
7.500980526
 30
0.0
 10
9.8665959482
 20
7.5109578327
 30
0.0
 10
9.8700389809
 20
7.5205846769
 30
0.0
 10
9.874412679
 20
7.5297722821
 30
0.0
 10
9.8796771874
 20
7.5384358094
 30
0.0
 10
9.8857830175
 20
7.5464940699
 30
0.0
 10
9.890380386
 20
7.5514165246
 30
0.0
 10
9.8927959597
 20
7.5537497693
 30
0.0
  0
SPLINE
  5
362
100
AcDbEntity
  8
0
100
AcDbSpline
 62
7
  6
CONTINUOUS
 70
0
 71
3
 72
23
 73
19
 74
0
 42
0.0000001
 43
0.0000001
 44
0.0000000001
 40
0.0
 40
0.0
 40
0.0
 40
0.0
 40
0.0614488807
 40
0.1232974294
 40
0.1855193177
 40
0.2480712672
 40
0.3108995318
 40
0.3739401513
 40
0.4371217414
 40
0.5003679843
 40
0.5636003151
 40
0.6267406524
 40
0.6897141172
 40
0.7524516838
 40
0.8148926113
 40
0.8769871451
 40
0.9386966623
 40
1.0
 40
1.0
 40
1.0
 40
1.0
 10
9.9709549471
 20
7.3641669743
 30
0.0
 10
9.967388254
 20
7.3644143253
 30
0.0
 10
9.960251309
 20
7.3652621237
 30
0.0
 10
9.9496897171
 20
7.3675647564
 30
0.0
 10
9.9393328439
 20
7.3708802684
 30
0.0
 10
9.9292814367
 20
7.3751765381
 30
0.0
 10
9.9196316198
 20
7.3804120313
 30
0.0
 10
9.9104760695
 20
7.3865363309
 30
0.0
 10
9.9019025866
 20
7.3934905134
 30
0.0
 10
9.8939934271
 20
7.4012077516
 30
0.0
 10
9.8868244957
 20
7.4096139503
 30
0.0
 10
9.8804646417
 20
7.4186284451
 30
0.0
 10
9.8749750091
 20
7.4281647504
 30
0.0
 10
9.8704084557
 20
7.4381314054
 30
0.0
 10
9.8668089956
 20
7.4484326804
 30
0.0
 10
9.864211521
 20
7.4589700282
 30
0.0
 10
9.8626411887
 20
7.4696409295
 30
0.0
 10
9.8622882852
 20
7.4768029031
 30
0.0
 10
9.8622882852
 20
7.4803696948
 30
0.0
  0
SPLINE
  5
363
100
AcDbEntity
  8
0
100
AcDbSpline
 62
7
  6
CONTINUOUS
 70
0
 71
3
 72
21
 73
17
 74
0
 42
0.0000001
 43
0.0000001
 44
0.0000000001
 40
0.0
 40
0.0
 40
0.0
 40
0.0
 40
0.1273176366
 40
0.2537999756
 40
0.3167619475
 40
0.3795355041
 40
0.4421314991
 40
0.5045621439
 40
0.5668413432
 40
0.6289845283
 40
0.6910084528
 40
0.7529310935
 40
0.8147714495
 40
0.8765493365
 40
0.9382852194
 40
1.0
 40
1.0
 40
1.0
 40
1.0
 10
10.3869823331
 20
8.3736675173
 30
0.0
 10
10.3869823331
 20
8.3804122716
 30
0.0
 10
10.3876261644
 20
8.3938662109
 30
0.0
 10
10.3900577062
 20
8.4104981869
 30
0.0
 10
10.3929639394
 20
8.423544518
 30
0.0
 10
10.3956142678
 20
8.4331674966
 30
0.0
 10
10.3987322009
 20
8.4426194907
 30
0.0
 10
10.4023105944
 20
8.4518789633
 30
0.0
 10
10.4063411715
 20
8.4609245061
 30
0.0
 10
10.4108146939
 20
8.4697352585
 30
0.0
 10
10.415720871
 20
8.478290881
 30
0.0
 10
10.42104836
 20
8.4865716681
 30
0.0
 10
10.4267848897
 20
8.494558487
 30
0.0
 10
10.4329173318
 20
8.5022329497
 30
0.0
 10
10.4394312559
 20
8.5095771486
 30
0.0
 10
10.4440190553
 20
8.5142426635
 30
0.0
 10
10.4463705791
 20
8.5165140614
 30
0.0
  0
SPLINE
  5
364
100
AcDbEntity
  8
0
100
AcDbSpline
 62
7
  6
CONTINUOUS
 70
0
 71
3
 72
21
 73
17
 74
0
 42
0.0000001
 43
0.0000001
 44
0.0000000001
 40
0.0
 40
0.0
 40
0.0
 40
0.0
 40
0.1273176366
 40
0.2537999756
 40
0.3167619475
 40
0.3795355041
 40
0.4421314991
 40
0.5045621439
 40
0.5668413432
 40
0.6289845283
 40
0.6910084528
 40
0.7529310935
 40
0.8147714495
 40
0.8765493365
 40
0.9382852194
 40
1.0
 40
1.0
 40
1.0
 40
1.0
 10
10.7791482594
 20
8.9202305601
 30
0.0
 10
10.7791482594
 20
8.9269753144
 30
0.0
 10
10.7797920907
 20
8.9404292537
 30
0.0
 10
10.7822236324
 20
8.9570612297
 30
0.0
 10
10.7851298656
 20
8.9701075609
 30
0.0
 10
10.787780194
 20
8.9797305394
 30
0.0
 10
10.7908981271
 20
8.9891825335
 30
0.0
 10
10.7944765206
 20
8.9984420061
 30
0.0
 10
10.7985070977
 20
9.0074875489
 30
0.0
 10
10.8029806201
 20
9.0162983014
 30
0.0
 10
10.8078867972
 20
9.0248539238
 30
0.0
 10
10.8132142862
 20
9.0331347109
 30
0.0
 10
10.8189508159
 20
9.0411215298
 30
0.0
 10
10.825083258
 20
9.0487959925
 30
0.0
 10
10.8315971821
 20
9.0561401914
 30
0.0
 10
10.8361849816
 20
9.0608057063
 30
0.0
 10
10.8385365053
 20
9.0630771042
 30
0.0
  0
SPLINE
  5
365
100
AcDbEntity
  8
0
100
AcDbSpline
 62
7
  6
CONTINUOUS
 70
0
 71
3
 72
21
 73
17
 74
0
 42
0.0000001
 43
0.0000001
 44
0.0000000001
 40
0.0
 40
0.0
 40
0.0
 40
0.0
 40
0.1273176366
 40
0.2537999756
 40
0.3167619475
 40
0.3795355041
 40
0.4421314991
 40
0.5045621439
 40
0.5668413432
 40
0.6289845283
 40
0.6910084528
 40
0.7529310935
 40
0.8147714495
 40
0.8765493365
 40
0.9382852194
 40
1.0
 40
1.0
 40
1.0
 40
1.0
 10
11.1713140704
 20
8.3192739266
 30
0.0
 10
11.1713140704
 20
8.3260186809
 30
0.0
 10
11.1719579017
 20
8.3394726202
 30
0.0
 10
11.1743894435
 20
8.3561045961
 30
0.0
 10
11.1772956767
 20
8.3691509273
 30
0.0
 10
11.1799460051
 20
8.3787739059
 30
0.0
 10
11.1830639382
 20
8.3882259
 30
0.0
 10
11.1866423317
 20
8.3974853726
 30
0.0
 10
11.1906729088
 20
8.4065309153
 30
0.0
 10
11.1951464311
 20
8.4153416678
 30
0.0
 10
11.2000526083
 20
8.4238972902
 30
0.0
 10
11.2053800972
 20
8.4321780774
 30
0.0
 10
11.211116627
 20
8.4401648963
 30
0.0
 10
11.2172490691
 20
8.447839359
 30
0.0
 10
11.2237629931
 20
8.4551835579
 30
0.0
 10
11.2283507926
 20
8.4598490728
 30
0.0
 10
11.2307023163
 20
8.4621204706
 30
0.0
  0
SPLINE
  5
366
100
AcDbEntity
  8
0
100
AcDbSpline
 62
7
  6
CONTINUOUS
 70
0
 71
3
 72
90
 73
86
 74
0
 42
0.0000001
 43
0.0000001
 44
0.0000000001
 40
0.0
 40
0.0
 40
0.0
 40
0.0
 40
0.0039801734
 40
0.0081241052
 40
0.0124359616
 40
0.0169193135
 40
0.0215771815
 40
0.0264119171
 40
0.0314251791
 40
0.0366181551
 40
0.0419915397
 40
0.047545654
 40
0.0532804223
 40
0.0591954139
 40
0.0652899192
 40
0.0715628971
 40
0.08463856
 40
0.0984098622
 40
0.1128604225
 40
0.1279709368
 40
0.1437195167
 40
0.1600819662
 40
0.1770320115
 40
0.1945414958
 40
0.2125805581
 40
0.2311177886
 40
0.2501203685
 40
0.2695542002
 40
0.2893840278
 40
0.3095735514
 40
0.3300855399
 40
0.3508819414
 40
0.3719239887
 40
0.3931723021
 40
0.4145869913
 40
0.4361277558
 40
0.4577539862
 40
0.4794248651
 40
0.5010994671
 40
0.5227368581
 40
0.5442961936
 40
0.5657368187
 40
0.5870183693
 40
0.6081008732
 40
0.6289448503
 40
0.6495114141
 40
0.6697623751
 40
0.6896603446
 40
0.7091688452
 40
0.7282524229
 40
0.7468767607
 40
0.7650087978
 40
0.7826168578
 40
0.7996707871
 40
0.8161421063
 40
0.8320041856
 40
0.8472324355
 40
0.8618045284
 40
0.8757006673
 40
0.8889039105
 40
0.8952415029
 40
0.9014010575
 40
0.9073814349
 40
0.9131818212
 40
0.9188016688
 40
0.9242407739
 40
0.9294993077
 40
0.9345778094
 40
0.9394773131
 40
0.9441992992
 40
0.948745847
 40
0.9531196365
 40
0.9573240498
 40
0.9613632821
 40
0.9652423783
 40
0.968967428
 40
0.9725455945
 40
0.9759853044
 40
0.9824864771
 40
0.9855753379
 40
0.9885738066
 40
0.9914977312
 40
0.994364333
 40
0.997192009
 40
1.0
 40
1.0
 40
1.0
 40
1.0
 10
10.7274096126
 20
10.7675310909
 30
0.0
 10
10.7287355977
 20
10.7688118942
 30
0.0
 10
10.7315023406
 20
10.7713644449
 30
0.0
 10
10.7358950807
 20
10.7750926421
 30
0.0
 10
10.7406103983
 20
10.7787941035
 30
0.0
 10
10.7456457058
 20
10.7824668499
 30
0.0
 10
10.7509985398
 20
10.7861091751
 30
0.0
 10
10.7566662868
 20
10.7897192973
 30
0.0
 10
10.7626461084
 20
10.7932954999
 30
0.0
 10
10.7689350405
 20
10.7968359211
 30
0.0
 10
10.7755299073
 20
10.8003388548
 30
0.0
 10
10.7824274248
 20
10.8038025145
 30
0.0
 10
10.7896241336
 20
10.8072251744
 30
0.0
 10
10.7971164131
 20
10.8106051269
 30
0.0
 10
10.8049005195
 20
10.8139406501
 30
0.0
 10
10.8158145171
 20
10.8183881435
 30
0.0
 10
10.8301673422
 20
10.8238122868
 30
0.0
 10
10.8482592397
 20
10.8300311465
 30
0.0
 10
10.8674138227
 20
10.8360340778
 30
0.0
 10
10.8875924703
 20
10.8418088806
 30
0.0
 10
10.9087546742
 20
10.8473438008
 30
0.0
 10
10.930857807
 20
10.852627565
 30
0.0
 10
10.9538573112
 20
10.8576494074
 30
0.0
 10
10.977706772
 20
10.8623991007
 30
0.0
 10
11.0023580284
 20
10.8668669713
 30
0.0
 10
11.0277612767
 20
10.8710439207
 30
0.0
 10
11.053865176
 20
10.8749214443
 30
0.0
 10
11.0806169548
 20
10.8784916482
 30
0.0
 10
11.1079625187
 20
10.881747264
 30
0.0
 10
11.1358465607
 20
10.8846816683
 30
0.0
 10
11.1642126757
 20
10.8872888937
 30
0.0
 10
11.1930034784
 20
10.8895636379
 30
0.0
 10
11.2221607205
 20
10.891501275
 30
0.0
 10
11.251625409
 20
10.8930978642
 30
0.0
 10
11.2813379257
 20
10.8943501578
 30
0.0
 10
11.3112381474
 20
10.8952556082
 30
0.0
 10
11.3412655692
 20
10.8958123772
 30
0.0
 10
11.371359428
 20
10.8960193341
 30
0.0
 10
11.4014588265
 20
10.8958760587
 30
0.0
 10
11.4315028561
 20
10.8953828418
 30
0.0
 10
11.4614307202
 20
10.8945406851
 30
0.0
 10
11.4911818576
 20
10.893351298
 30
0.0
 10
11.5206960667
 20
10.8918170997
 30
0.0
 10
11.5499136283
 20
10.8899412114
 30
0.0
 10
11.5787754268
 20
10.8877274481
 30
0.0
 10
11.6072230698
 20
10.8851803117
 30
0.0
 10
11.635199006
 20
10.8823049822
 30
0.0
 10
11.6626466433
 20
10.8791073069
 30
0.0
 10
11.6895104665
 20
10.8755937904
 30
0.0
 10
11.7157361525
 20
10.8717715857
 30
0.0
 10
11.7412706812
 20
10.8676484738
 30
0.0
 10
11.7660624435
 20
10.8632328494
 30
0.0
 10
11.790061348
 20
10.8585337042
 30
0.0
 10
11.8132189272
 20
10.8535606088
 30
0.0
 10
11.8354884405
 20
10.8483236909
 30
0.0
 10
11.8568249868
 20
10.8428336207
 30
0.0
 10
11.8771855771
 20
10.8371015814
 30
0.0
 10
11.896529322
 20
10.8311392419
 30
0.0
 10
11.9148172099
 20
10.8249587226
 30
0.0
 10
11.9293384963
 20
10.8195659207
 30
0.0
 10
11.9403906877
 20
10.815142471
 30
0.0
 10
11.9482799656
 20
10.8118235247
 30
0.0
 10
11.9558788237
 20
10.8084595334
 30
0.0
 10
11.9631834644
 20
10.8050522144
 30
0.0
 10
11.9701902098
 20
10.8016032631
 30
0.0
 10
11.9768955434
 20
10.7981144071
 30
0.0
 10
11.9832961199
 20
10.794587428
 30
0.0
 10
11.9893887143
 20
10.791024028
 30
0.0
 10
11.9951703151
 20
10.7874260475
 30
0.0
 10
12.0006380112
 20
10.7837951997
 30
0.0
 10
12.0057891028
 20
10.780133311
 30
0.0
 10
12.0106210241
 20
10.7764421508
 30
0.0
 10
12.0151313571
 20
10.7727234718
 30
0.0
 10
12.0193178857
 20
10.768979107
 30
0.0
 10
12.0231784783
 20
10.7652107038
 30
0.0
 10
12.0267111552
 20
10.7614202098
 30
0.0
 10
12.0299143299
 20
10.7576088373
 30
0.0
 10
12.033671999
 20
10.75259736
 30
0.0
 10
12.0368628453
 20
10.7474507745
 30
0.0
 10
12.0393962738
 20
10.7421943154
 30
0.0
 10
12.040926938
 20
10.7383067591
 30
0.0
 10
12.0421189612
 20
10.7344097574
 30
0.0
 10
12.0429712882
 20
10.7305051776
 30
0.0
 10
12.0434830508
 20
10.726595823
 30
0.0
 10
12.0435969864
 20
10.7239840643
 30
0.0
 10
12.0435969901
 20
10.7226834464
 30
0.0
  0
SPLINE
  5
367
100
AcDbEntity
  8
0
100
AcDbSpline
 62
7
  6
CONTINUOUS
 70
0
 71
3
 72
21
 73
17
 74
0
 42
0.0000001
 43
0.0000001
 44
0.0000000001
 40
0.0
 40
0.0
 40
0.0
 40
0.0
 40
0.1273176366
 40
0.2537999756
 40
0.3167619475
 40
0.3795355041
 40
0.4421314991
 40
0.5045621439
 40
0.5668413432
 40
0.6289845283
 40
0.6910084528
 40
0.7529310935
 40
0.8147714495
 40
0.8765493365
 40
0.9382852194
 40
1.0
 40
1.0
 40
1.0
 40
1.0
 10
9.0288905522
 20
6.6267968659
 30
0.0
 10
9.0288905522
 20
6.6335416201
 30
0.0
 10
9.0295343835
 20
6.6469955595
 30
0.0
 10
9.0319659253
 20
6.6636275354
 30
0.0
 10
9.0348721584
 20
6.6766738666
 30
0.0
 10
9.0375224869
 20
6.6862968451
 30
0.0
 10
9.0406404199
 20
6.6957488393
 30
0.0
 10
9.0442188135
 20
6.7050083119
 30
0.0
 10
9.0482493906
 20
6.7140538546
 30
0.0
 10
9.0527229129
 20
6.7228646071
 30
0.0
 10
9.0576290901
 20
6.7314202295
 30
0.0
 10
9.062956579
 20
6.7397010167
 30
0.0
 10
9.0686931087
 20
6.7476878355
 30
0.0
 10
9.0748255509
 20
6.7553622983
 30
0.0
 10
9.0813394749
 20
6.7627064972
 30
0.0
 10
9.0859272744
 20
6.7673720121
 30
0.0
 10
9.0882787981
 20
6.7696434099
 30
0.0
  0
SPLINE
  5
368
100
AcDbEntity
  8
0
100
AcDbSpline
 62
7
  6
CONTINUOUS
 70
0
 71
3
 72
85
 73
81
 74
0
 42
0.0000001
 43
0.0000001
 44
0.0000000001
 40
0.0
 40
0.0
 40
0.0
 40
0.0
 40
0.0041938785
 40
0.0085762526
 40
0.0131521725
 40
0.0179258276
 40
0.0229006911
 40
0.028079459
 40
0.0334638936
 40
0.0390551032
 40
0.0448536297
 40
0.0508594469
 40
0.0634901079
 40
0.076939214
 40
0.0911923552
 40
0.106230319
 40
0.122029753
 40
0.1385636726
 40
0.1558019084
 40
0.1737114658
 40
0.1922568156
 40
0.2114001318
 40
0.2311015106
 40
0.2513191976
 40
0.2720097753
 40
0.2931283342
 40
0.3146286272
 40
0.3364632445
 40
0.3585837793
 40
0.4034839214
 40
0.4489285174
 40
0.4945096695
 40
0.5398178882
 40
0.5844468655
 40
0.6063822147
 40
0.6279992666
 40
0.64925027
 40
0.6700885783
 40
0.6904688071
 40
0.7103470128
 40
0.7296808753
 40
0.7484298652
 40
0.7665554374
 40
0.7840212502
 40
0.8007934351
 40
0.8168408612
 40
0.8321354498
 40
0.8466525686
 40
0.8603715394
 40
0.8732762803
 40
0.8853560896
 40
0.8910854755
 40
0.8966076785
 40
0.9019233923
 40
0.9070340056
 40
0.911941519
 40
0.9166487657
 40
0.9211594738
 40
0.9254783272
 40
0.9296112421
 40
0.9335653764
 40
0.9373493905
 40
0.9409736255
 40
0.9444501994
 40
0.9477932807
 40
0.9510190948
 40
0.954145996
 40
0.9571943966
 40
0.96018648
 40
0.9631458579
 40
0.966096994
 40
0.9690645833
 40
0.9720728733
 40
0.9751450686
 40
0.9783027827
 40
0.9849468936
 40
0.9884712202
 40
0.992147635
 40
0.9959874677
 40
1.0
 40
1.0
 40
1.0
 40
1.0
 10
9.9503221693
 20
10.8214222881
 30
0.0
 10
9.951079754
 20
10.8221540588
 30
0.0
 10
9.9526666499
 20
10.8236118728
 30
0.0
 10
9.9551975858
 20
10.8257359025
 30
0.0
 10
9.9579288985
 20
10.8278430923
 30
0.0
 10
9.9608588118
 20
10.8299320579
 30
0.0
 10
9.9639855919
 20
10.8320016777
 30
0.0
 10
9.9673074517
 20
10.8340507284
 30
0.0
 10
9.9708224183
 20
10.8360780721
 30
0.0
 10
9.9745284097
 20
10.8380824767
 30
0.0
 10
9.9784232291
 20
10.8400627497
 30
0.0
 10
9.9839583434
 20
10.8427140238
 30
0.0
 10
9.9913411485
 20
10.8459500161
 30
0.0
 10
10.0007706922
 20
10.849656131
 30
0.0
 10
10.0108913773
 20
10.8532387878
 30
0.0
 10
10.0216790238
 20
10.8566893435
 30
0.0
 10
10.033108006
 20
10.8599994434
 30
0.0
 10
10.0451510045
 20
10.8631610697
 30
0.0
 10
10.0577791903
 20
10.8661665548
 30
0.0
 10
10.0709622864
 20
10.8690086036
 30
0.0
 10
10.0846686553
 20
10.8716803136
 30
0.0
 10
10.0988653717
 20
10.8741751985
 30
0.0
 10
10.1135183066
 20
10.8764872124
 30
0.0
 10
10.1285922206
 20
10.8786107488
 30
0.0
 10
10.1440508539
 20
10.8805406573
 30
0.0
 10
10.1598570139
 20
10.8822722551
 30
0.0
 10
10.17597265
 20
10.8838013424
 30
0.0
 10
10.1923589997
 20
10.8851242451
 30
0.0
 10
10.2146256266
 20
10.8866161646
 30
0.0
 10
10.242843812
 20
10.887938825
 30
0.0
 10
10.2769775205
 20
10.8886599825
 30
0.0
 10
10.3112211786
 20
10.8885156076
 30
0.0
 10
10.3452452354
 20
10.8875070934
 30
0.0
 10
10.3733022241
 20
10.8859461692
 30
0.0
 10
10.3953856723
 20
10.8842654169
 30
0.0
 10
10.4115959073
 20
10.8828046531
 30
0.0
 10
10.4275094898
 20
10.881140121
 30
0.0
 10
10.4430881492
 20
10.8792758256
 30
0.0
 10
10.4582943853
 20
10.8772162875
 30
0.0
 10
10.4730916153
 20
10.8749664965
 30
0.0
 10
10.4874442536
 20
10.8725319155
 30
0.0
 10
10.5013177974
 20
10.8699184508
 30
0.0
 10
10.5146789085
 20
10.8671324429
 30
0.0
 10
10.5274955023
 20
10.8641806458
 30
0.0
 10
10.5397368401
 20
10.8610702292
 30
0.0
 10
10.5513736055
 20
10.8578087445
 30
0.0
 10
10.5623779861
 20
10.8544041008
 30
0.0
 10
10.5727237234
 20
10.8508645388
 30
0.0
 10
10.5823863118
 20
10.8471985929
 30
0.0
 10
10.5913427203
 20
10.8434150927
 30
0.0
 10
10.5983186986
 20
10.8401160208
 30
0.0
 10
10.6035203926
 20
10.8374170103
 30
0.0
 10
10.6071629614
 20
10.8354048294
 30
0.0
 10
10.6106137849
 20
10.8333701012
 30
0.0
 10
10.6138708509
 20
10.8313140528
 30
0.0
 10
10.616932212
 20
10.8292378478
 30
0.0
 10
10.6197960657
 20
10.8271426979
 30
0.0
 10
10.622460744
 20
10.8250298305
 30
0.0
 10
10.6249246324
 20
10.8229003783
 30
0.0
 10
10.627186313
 20
10.820755582
 30
0.0
 10
10.6292444028
 20
10.8185965715
 30
0.0
 10
10.6310976264
 20
10.816424494
 30
0.0
 10
10.6327448493
 20
10.8142405302
 30
0.0
 10
10.6341848812
 20
10.8120457597
 30
0.0
 10
10.6354167221
 20
10.8098413893
 30
0.0
 10
10.6364393349
 20
10.8076286022
 30
0.0
 10
10.6372517163
 20
10.805408678
 30
0.0
 10
10.6378530764
 20
10.8031830612
 30
0.0
 10
10.6382425703
 20
10.8009532865
 30
0.0
 10
10.6384197388
 20
10.7987210877
 30
0.0
 10
10.6383843236
 20
10.7964882717
 30
0.0
 10
10.6381363024
 20
10.7942566827
 30
0.0
 10
10.6376761546
 20
10.7920281238
 30
0.0
 10
10.6370043054
 20
10.7898041553
 30
0.0
 10
10.6358076376
 20
10.7867969899
 30
0.0
 10
10.6341920798
 20
10.7838487299
 30
0.0
 10
10.6322188646
 20
10.7809839775
 30
0.0
 10
10.6305026589
 20
10.7788035594
 30
0.0
 10
10.628581057
 20
10.7766358263
 30
0.0
 10
10.6271951139
 20
10.7752313852
 30
0.0
 10
10.6264702877
 20
10.7745312568
 30
0.0
  0
SPLINE
  5
369
100
AcDbEntity
  8
0
100
AcDbSpline
 62
7
  6
CONTINUOUS
 70
0
 71
3
 72
39
 73
35
 74
0
 42
0.0000001
 43
0.0000001
 44
0.0000000001
 40
0.0
 40
0.0
 40
0.0
 40
0.0
 40
0.0314026134
 40
0.06300949
 40
0.0948071102
 40
0.1267734453
 40
0.1588809722
 40
0.1910970226
 40
0.2233851132
 40
0.2557062446
 40
0.2880202663
 40
0.3202872751
 40
0.3524690067
 40
0.384530184
 40
0.4164397927
 40
0.448172249
 40
0.4797084083
 40
0.5110363809
 40
0.5421521201
 40
0.5730597413
 40
0.6037715194
 40
0.6343075569
 40
0.6646951118
 40
0.6949675896
 40
0.7251632184
 40
0.755323478
 40
0.7854913548
 40
0.8157095105
 40
0.8460184691
 40
0.8764549222
 40
0.9070502335
 40
0.9378293335
 40
0.9688091139
 40
1.0
 40
1.0
 40
1.0
 40
1.0
 10
9.9648727045
 20
9.3495481527
 30
0.0
 10
9.9691844402
 20
9.3492491328
 30
0.0
 10
9.9778122157
 20
9.3482242353
 30
0.0
 10
9.9905800067
 20
9.3454406143
 30
0.0
 10
10.0031003167
 20
9.341432531
 30
0.0
 10
10.0152513534
 20
9.3362388276
 30
0.0
 10
10.0269168996
 20
9.3299096751
 30
0.0
 10
10.0379849401
 20
9.3225060754
 30
0.0
 10
10.0483493391
 20
9.3140992553
 30
0.0
 10
10.0579106461
 20
9.304769983
 30
0.0
 10
10.0665770759
 20
9.2946078112
 30
0.0
 10
10.0742654181
 20
9.2837102801
 30
0.0
 10
10.0809017757
 20
9.2721819436
 30
0.0
 10
10.0864222575
 20
9.2601333931
 30
0.0
 10
10.090773584
 20
9.247680227
 30
0.0
 10
10.0939136721
 20
9.234941991
 30
0.0
 10
10.0958119788
 20
9.2220410254
 30
0.0
 10
10.0964498072
 20
9.2091013273
 30
0.0
 10
10.0958205114
 20
9.1962473936
 30
0.0
 10
10.0939296756
 20
9.1836030388
 30
0.0
 10
10.0907950273
 20
9.1712902083
 30
0.0
 10
10.0864463167
 20
9.1594278095
 30
0.0
 10
10.0809250826
 20
9.1481305549
 30
0.0
 10
10.0742843668
 20
9.1375077787
 30
0.0
 10
10.0665881537
 20
9.1276623543
 30
0.0
 10
10.0579107625
 20
9.1186896493
 30
0.0
 10
10.0483361202
 20
9.1106765514
 30
0.0
 10
10.0379569591
 20
9.1037005155
 30
0.0
 10
10.0268738174
 20
9.0978288392
 30
0.0
 10
10.0151939676
 20
9.0931180205
 30
0.0
 10
10.0030304993
 20
9.0896131967
 30
0.0
 10
9.9905005952
 20
9.0873478011
 30
0.0
 10
9.9777267033
 20
9.0863429549
 30
0.0
 10
9.969155369
 20
9.0865193086
 30
0.0
 10
9.9648727045
 20
9.0868163124
 30
0.0
  0
SPLINE
  5
36A
100
AcDbEntity
  8
0
100
AcDbSpline
 62
7
  6
CONTINUOUS
 70
0
 71
3
 72
19
 73
15
 74
0
 42
0.0000001
 43
0.0000001
 44
0.0000000001
 40
0.0
 40
0.0
 40
0.0
 40
0.0
 40
0.1504611406
 40
0.2916985742
 40
0.4244193292
 40
0.4878835935
 40
0.5495802133
 40
0.6682271463
 40
0.7255606136
 40
0.7817999183
 40
0.8371467056
 40
0.8918136429
 40
0.9460222308
 40
1.0
 40
1.0
 40
1.0
 40
1.0
 10
13.004579848
 20
7.8803853124
 30
0.0
 10
13.002687114
 20
7.8785570717
 30
0.0
 10
12.9989042597
 20
7.8751267751
 30
0.0
 10
12.9930468692
 20
7.8705555172
 30
0.0
 10
12.9880993908
 20
7.8673224599
 30
0.0
 10
12.9841540844
 20
7.8651331261
 30
0.0
 10
12.9803251754
 20
7.8632535232
 30
0.0
 10
12.976451431
 20
7.8617171253
 30
0.0
 10
12.9725558974
 20
7.8605609651
 30
0.0
 10
12.9696756462
 20
7.859894539
 30
0.0
 10
12.96680498
 20
7.859419549
 30
0.0
 10
12.9639446622
 20
7.8591362023
 30
0.0
 10
12.9610958463
 20
7.8590446163
 30
0.0
 10
12.9592031735
 20
7.8591115448
 30
0.0
 10
12.9582613798
 20
7.8591768553
 30
0.0
  0
SPLINE
  5
36B
100
AcDbEntity
  8
0
100
AcDbSpline
 62
7
  6
CONTINUOUS
 70
0
 71
3
 72
23
 73
19
 74
0
 42
0.0000001
 43
0.0000001
 44
0.0000000001
 40
0.0
 40
0.0
 40
0.0
 40
0.0
 40
0.0749625009
 40
0.1455684839
 40
0.2121600745
 40
0.2751631548
 40
0.3350982506
 40
0.3925832742
 40
0.4483295117
 40
0.5031237972
 40
0.5577983643
 40
0.613191491
 40
0.670106811
 40
0.729278715
 40
0.7913522906
 40
0.8568775564
 40
0.9263090861
 40
1.0
 40
1.0
 40
1.0
 40
1.0
 10
9.9511946226
 20
10.7737042199
 30
0.0
 10
9.9501839518
 20
10.7746447558
 30
0.0
 10
9.9482773739
 20
10.7765330181
 30
0.0
 10
9.9457048252
 20
10.7794789856
 30
0.0
 10
9.9435111076
 20
10.7824482738
 30
0.0
 10
9.9416995209
 20
10.7854383293
 30
0.0
 10
9.9402730569
 20
10.7884464875
 30
0.0
 10
9.9392349443
 20
10.7914696849
 30
0.0
 10
9.9385880869
 20
10.7945040236
 30
0.0
 10
9.9383347891
 20
10.7975446999
 30
0.0
 10
9.9384760476
 20
10.8005861832
 30
0.0
 10
9.9390112766
 20
10.8036228595
 30
0.0
 10
9.9399385657
 20
10.8066496465
 30
0.0
 10
9.9412549965
 20
10.8096624218
 30
0.0
 10
9.9429575057
 20
10.8126578819
 30
0.0
 10
9.9450430068
 20
10.8156334094
 30
0.0
 10
9.9475082894
 20
10.8185861692
 30
0.0
 10
9.9493460089
 20
10.8204793895
 30
0.0
 10
9.9503221693
 20
10.8214222881
 30
0.0
  0
SPLINE
  5
36C
100
AcDbEntity
  8
0
100
AcDbSpline
 62
7
  6
CONTINUOUS
 70
0
 71
3
 72
18
 73
14
 74
0
 42
0.0000001
 43
0.0000001
 44
0.0000000001
 40
0.0
 40
0.0
 40
0.0
 40
0.0
 40
0.0548620934
 40
0.1099281175
 40
0.1653995415
 40
0.2214731583
 40
0.2783387419
 40
0.3361775034
 40
0.4554063124
 40
0.5804415574
 40
0.7123342032
 40
0.8519579354
 40
1.0
 40
1.0
 40
1.0
 40
1.0
 10
10.704596993
 20
10.7226828912
 30
0.0
 10
10.7045969903
 20
10.7236284177
 30
0.0
 10
10.704657002
 20
10.7255235284
 30
0.0
 10
10.7049268211
 20
10.7283631128
 30
0.0
 10
10.7053763911
 20
10.7312010604
 30
0.0
 10
10.7060055603
 20
10.7340363337
 30
0.0
 10
10.7068140679
 20
10.7368682217
 30
0.0
 10
10.7081438971
 20
10.7406763502
 30
0.0
 10
10.7102742712
 20
10.7454392962
 30
0.0
 10
10.7135168365
 20
10.7510643576
 30
0.0
 10
10.7174661182
 20
10.7566530127
 30
0.0
 10
10.7221161062
 20
10.7621996421
 30
0.0
 10
10.7255744731
 20
10.7657584821
 30
0.0
 10
10.7274096126
 20
10.7675310909
 30
0.0
  0
SPLINE
  5
36D
100
AcDbEntity
  8
0
100
AcDbSpline
 62
7
  6
CONTINUOUS
 70
0
 71
3
 72
39
 73
35
 74
0
 42
0.0000001
 43
0.0000001
 44
0.0000000001
 40
0.0
 40
0.0
 40
0.0
 40
0.0
 40
0.0314026134
 40
0.06300949
 40
0.0948071102
 40
0.1267734453
 40
0.1588809722
 40
0.1910970226
 40
0.2233851132
 40
0.2557062446
 40
0.2880202663
 40
0.3202872751
 40
0.3524690067
 40
0.384530184
 40
0.4164397927
 40
0.448172249
 40
0.4797084083
 40
0.5110363809
 40
0.5421521201
 40
0.5730597413
 40
0.6037715194
 40
0.6343075569
 40
0.6646951118
 40
0.6949675896
 40
0.7251632184
 40
0.755323478
 40
0.7854913548
 40
0.8157095105
 40
0.8460184691
 40
0.8764549222
 40
0.9070502335
 40
0.9378293335
 40
0.9688091139
 40
1.0
 40
1.0
 40
1.0
 40
1.0
 10
9.9648727045
 20
9.0868163124
 30
0.0
 10
9.9605609688
 20
9.0871153323
 30
0.0
 10
9.9519331934
 20
9.0881402298
 30
0.0
 10
9.9391654024
 20
9.0909238508
 30
0.0
 10
9.9266450924
 20
9.0949319341
 30
0.0
 10
9.9144940557
 20
9.1001256375
 30
0.0
 10
9.9028285094
 20
9.10645479
 30
0.0
 10
9.891760469
 20
9.1138583897
 30
0.0
 10
9.8813960699
 20
9.1222652098
 30
0.0
 10
9.8718347629
 20
9.1315944821
 30
0.0
 10
9.8631683332
 20
9.1417566539
 30
0.0
 10
9.8554799909
 20
9.152654185
 30
0.0
 10
9.8488436334
 20
9.1641825215
 30
0.0
 10
9.8433231515
 20
9.176231072
 30
0.0
 10
9.838971825
 20
9.1886842381
 30
0.0
 10
9.8358317369
 20
9.2014224741
 30
0.0
 10
9.8339334303
 20
9.2143234397
 30
0.0
 10
9.8332956019
 20
9.2272631378
 30
0.0
 10
9.8339248977
 20
9.2401170715
 30
0.0
 10
9.8358157335
 20
9.2527614263
 30
0.0
 10
9.8389503817
 20
9.2650742568
 30
0.0
 10
9.8432990923
 20
9.2769366556
 30
0.0
 10
9.8488203265
 20
9.2882339102
 30
0.0
 10
9.8554610423
 20
9.2988566864
 30
0.0
 10
9.8631572554
 20
9.3087021108
 30
0.0
 10
9.8718346466
 20
9.3176748158
 30
0.0
 10
9.8814092888
 20
9.3256879137
 30
0.0
 10
9.89178845
 20
9.3326639496
 30
0.0
 10
9.9028715917
 20
9.3385356259
 30
0.0
 10
9.9145514415
 20
9.3432464446
 30
0.0
 10
9.9267149098
 20
9.3467512684
 30
0.0
 10
9.9392448138
 20
9.349016664
 30
0.0
 10
9.9520187058
 20
9.3500215102
 30
0.0
 10
9.9605900401
 20
9.3498451565
 30
0.0
 10
9.9648727045
 20
9.3495481527
 30
0.0
  0
SPLINE
  5
36E
100
AcDbEntity
  8
0
100
AcDbSpline
 62
7
  6
CONTINUOUS
 70
0
 71
3
 72
39
 73
35
 74
0
 42
0.0000001
 43
0.0000001
 44
0.0000000001
 40
0.0
 40
0.0
 40
0.0
 40
0.0
 40
0.0314026134
 40
0.06300949
 40
0.0948071102
 40
0.1267734453
 40
0.1588809722
 40
0.1910970226
 40
0.2233851132
 40
0.2557062446
 40
0.2880202663
 40
0.3202872751
 40
0.3524690067
 40
0.384530184
 40
0.4164397927
 40
0.448172249
 40
0.4797084083
 40
0.5110363809
 40
0.5421521201
 40
0.5730597413
 40
0.6037715194
 40
0.6343075569
 40
0.6646951118
 40
0.6949675896
 40
0.7251632184
 40
0.755323478
 40
0.7854913548
 40
0.8157095105
 40
0.8460184691
 40
0.8764549222
 40
0.9070502335
 40
0.9378293335
 40
0.9688091139
 40
1.0
 40
1.0
 40
1.0
 40
1.0
 10
12.0164993511
 20
9.2072673615
 30
0.0
 10
12.0208110868
 20
9.2069683416
 30
0.0
 10
12.0294388623
 20
9.2059434441
 30
0.0
 10
12.0422066533
 20
9.2031598231
 30
0.0
 10
12.0547269633
 20
9.1991517398
 30
0.0
 10
12.066878
 20
9.1939580364
 30
0.0
 10
12.0785435462
 20
9.1876288839
 30
0.0
 10
12.0896115867
 20
9.1802252842
 30
0.0
 10
12.0999759857
 20
9.1718184641
 30
0.0
 10
12.1095372928
 20
9.1624891918
 30
0.0
 10
12.1182037225
 20
9.15232702
 30
0.0
 10
12.1258920647
 20
9.1414294889
 30
0.0
 10
12.1325284223
 20
9.1299011524
 30
0.0
 10
12.1380489041
 20
9.117852602
 30
0.0
 10
12.1424002307
 20
9.1053994358
 30
0.0
 10
12.1455403187
 20
9.0926611998
 30
0.0
 10
12.1474386254
 20
9.0797602343
 30
0.0
 10
12.1480764538
 20
9.0668205361
 30
0.0
 10
12.147447158
 20
9.0539666024
 30
0.0
 10
12.1455563222
 20
9.0413222477
 30
0.0
 10
12.142421674
 20
9.0290094171
 30
0.0
 10
12.1380729633
 20
9.0171470183
 30
0.0
 10
12.1325517292
 20
9.0058497637
 30
0.0
 10
12.1259110134
 20
8.9952269875
 30
0.0
 10
12.1182148003
 20
8.9853815631
 30
0.0
 10
12.1095374091
 20
8.9764088581
 30
0.0
 10
12.0999627668
 20
8.9683957602
 30
0.0
 10
12.0895836057
 20
8.9614197243
 30
0.0
 10
12.078500464
 20
8.955548048
 30
0.0
 10
12.0668206142
 20
8.9508372293
 30
0.0
 10
12.0546571459
 20
8.9473324055
 30
0.0
 10
12.0421272418
 20
8.9450670099
 30
0.0
 10
12.0293533499
 20
8.9440621637
 30
0.0
 10
12.0207820156
 20
8.9442385174
 30
0.0
 10
12.0164993511
 20
8.9445355212
 30
0.0
  0
SPLINE
  5
36F
100
AcDbEntity
  8
0
100
AcDbSpline
 62
7
  6
CONTINUOUS
 70
0
 71
3
 72
21
 73
17
 74
0
 42
0.0000001
 43
0.0000001
 44
0.0000000001
 40
0.0
 40
0.0
 40
0.0
 40
0.0
 40
0.1273176366
 40
0.2537999756
 40
0.3167619475
 40
0.3795355041
 40
0.4421314991
 40
0.5045621439
 40
0.5668413432
 40
0.6289845283
 40
0.6910084528
 40
0.7529310935
 40
0.8147714495
 40
0.8765493365
 40
0.9382852194
 40
1.0
 40
1.0
 40
1.0
 40
1.0
 10
12.0464430535
 20
6.4175288892
 30
0.0
 10
12.0464430535
 20
6.4242736434
 30
0.0
 10
12.0470868848
 20
6.4377275827
 30
0.0
 10
12.0495184266
 20
6.4543595587
 30
0.0
 10
12.0524246598
 20
6.4674058899
 30
0.0
 10
12.0550749882
 20
6.4770288684
 30
0.0
 10
12.0581929213
 20
6.4864808625
 30
0.0
 10
12.0617713148
 20
6.4957403351
 30
0.0
 10
12.0658018919
 20
6.5047858779
 30
0.0
 10
12.0702754143
 20
6.5135966304
 30
0.0
 10
12.0751815914
 20
6.5221522528
 30
0.0
 10
12.0805090804
 20
6.53043304
 30
0.0
 10
12.0862456101
 20
6.5384198588
 30
0.0
 10
12.0923780522
 20
6.5460943216
 30
0.0
 10
12.0988919763
 20
6.5534385204
 30
0.0
 10
12.1034797757
 20
6.5581040353
 30
0.0
 10
12.1058312995
 20
6.5603754332
 30
0.0
  0
SPLINE
  5
370
100
AcDbEntity
  8
0
100
AcDbSpline
 62
7
  6
CONTINUOUS
 70
0
 71
3
 72
15
 73
11
 74
0
 42
0.0000001
 43
0.0000001
 44
0.0000000001
 40
0.0
 40
0.0
 40
0.0
 40
0.0
 40
0.1273482936
 40
0.2538605366
 40
0.3795879111
 40
0.5046050899
 40
0.6290174366
 40
0.7529533732
 40
0.8765605776
 40
1.0
 40
1.0
 40
1.0
 40
1.0
 10
9.8622882852
 20
9.2315932866
 30
0.0
 10
9.8622882852
 20
9.235058062
 30
0.0
 10
9.8626191001
 20
9.2419696564
 30
0.0
 10
9.864115187
 20
9.2522041178
 30
0.0
 10
9.8665959482
 20
9.2621814245
 30
0.0
 10
9.8700389809
 20
9.2718082687
 30
0.0
 10
9.874412679
 20
9.2809958739
 30
0.0
 10
9.8796771874
 20
9.2896594013
 30
0.0
 10
9.8857830175
 20
9.2977176617
 30
0.0
 10
9.890380386
 20
9.3026401164
 30
0.0
 10
9.8927959597
 20
9.3049733612
 30
0.0
  0
SPLINE
  5
371
100
AcDbEntity
  8
0
100
AcDbSpline
 62
7
  6
CONTINUOUS
 70
0
 71
3
 72
23
 73
19
 74
0
 42
0.0000001
 43
0.0000001
 44
0.0000000001
 40
0.0
 40
0.0
 40
0.0
 40
0.0
 40
0.0614488807
 40
0.1232974294
 40
0.1855193177
 40
0.2480712672
 40
0.3108995318
 40
0.3739401513
 40
0.4371217414
 40
0.5003679843
 40
0.5636003151
 40
0.6267406524
 40
0.6897141172
 40
0.7524516838
 40
0.8148926113
 40
0.8769871451
 40
0.9386966623
 40
1.0
 40
1.0
 40
1.0
 40
1.0
 10
9.9709549471
 20
9.1153905662
 30
0.0
 10
9.967388254
 20
9.1156379172
 30
0.0
 10
9.960251309
 20
9.1164857155
 30
0.0
 10
9.9496897171
 20
9.1187883482
 30
0.0
 10
9.9393328439
 20
9.1221038602
 30
0.0
 10
9.9292814367
 20
9.12640013
 30
0.0
 10
9.9196316198
 20
9.1316356231
 30
0.0
 10
9.9104760695
 20
9.1377599227
 30
0.0
 10
9.9019025866
 20
9.1447141052
 30
0.0
 10
9.8939934271
 20
9.1524313434
 30
0.0
 10
9.8868244957
 20
9.1608375421
 30
0.0
 10
9.8804646417
 20
9.1698520369
 30
0.0
 10
9.8749750091
 20
9.1793883422
 30
0.0
 10
9.8704084557
 20
9.1893549972
 30
0.0
 10
9.8668089956
 20
9.1996562722
 30
0.0
 10
9.864211521
 20
9.21019362
 30
0.0
 10
9.8626411887
 20
9.2208645213
 30
0.0
 10
9.8622882852
 20
9.228026495
 30
0.0
 10
9.8622882852
 20
9.2315932866
 30
0.0
  0
SPLINE
  5
372
100
AcDbEntity
  8
0
100
AcDbSpline
 62
7
  6
CONTINUOUS
 70
0
 71
3
 72
18
 73
14
 74
0
 42
0.0000001
 43
0.0000001
 44
0.0000000001
 40
0.0
 40
0.0
 40
0.0
 40
0.0
 40
0.150466514
 40
0.2917140478
 40
0.4244427524
 40
0.4879100217
 40
0.5496093045
 40
0.6682623303
 40
0.7817883775
 40
0.8371380958
 40
0.8918079631
 40
0.946019364
 40
1.0
 40
1.0
 40
1.0
 40
1.0
 10
12.9398751401
 20
9.1518288903
 30
0.0
 10
12.9387061559
 20
9.1506997382
 30
0.0
 10
12.9363697466
 20
9.1485811081
 30
0.0
 10
12.9327520815
 20
9.1457577421
 30
0.0
 10
12.9296963202
 20
9.1437609152
 30
0.0
 10
12.9272596398
 20
9.1424087159
 30
0.0
 10
12.924894646
 20
9.1412478209
 30
0.0
 10
12.9219376461
 20
9.1400747846
 30
0.0
 10
12.9189280539
 20
9.1392742509
 30
0.0
 10
12.9165443556
 20
9.1388799243
 30
0.0
 10
12.9147777131
 20
9.1387048795
 30
0.0
 10
12.9130182139
 20
9.1386483427
 30
0.0
 10
12.9118492471
 20
9.138689699
 30
0.0
 10
12.9112675696
 20
9.1387300379
 30
0.0
  0
SPLINE
  5
373
100
AcDbEntity
  8
0
100
AcDbSpline
 62
7
  6
CONTINUOUS
 70
0
 71
3
 72
39
 73
35
 74
0
 42
0.0000001
 43
0.0000001
 44
0.0000000001
 40
0.0
 40
0.0
 40
0.0
 40
0.0
 40
0.0314026134
 40
0.06300949
 40
0.0948071102
 40
0.1267734453
 40
0.1588809722
 40
0.1910970226
 40
0.2233851132
 40
0.2557062446
 40
0.2880202663
 40
0.3202872751
 40
0.3524690067
 40
0.384530184
 40
0.4164397927
 40
0.448172249
 40
0.4797084083
 40
0.5110363809
 40
0.5421521201
 40
0.5730597413
 40
0.6037715194
 40
0.6343075569
 40
0.6646951118
 40
0.6949675896
 40
0.7251632184
 40
0.755323478
 40
0.7854913548
 40
0.8157095105
 40
0.8460184691
 40
0.8764549222
 40
0.9070502335
 40
0.9378293335
 40
0.9688091139
 40
1.0
 40
1.0
 40
1.0
 40
1.0
 10
12.0164993511
 20
8.9445355212
 30
0.0
 10
12.0121876154
 20
8.9448345411
 30
0.0
 10
12.00355984
 20
8.9458594386
 30
0.0
 10
11.990792049
 20
8.9486430596
 30
0.0
 10
11.978271739
 20
8.9526511429
 30
0.0
 10
11.9661207023
 20
8.9578448463
 30
0.0
 10
11.954455156
 20
8.9641739988
 30
0.0
 10
11.9433871156
 20
8.9715775985
 30
0.0
 10
11.9330227165
 20
8.9799844186
 30
0.0
 10
11.9234614095
 20
8.9893136909
 30
0.0
 10
11.9147949798
 20
8.9994758627
 30
0.0
 10
11.9071066375
 20
9.0103733938
 30
0.0
 10
11.90047028
 20
9.0219017303
 30
0.0
 10
11.8949497982
 20
9.0339502808
 30
0.0
 10
11.8905984716
 20
9.0464034469
 30
0.0
 10
11.8874583836
 20
9.0591416829
 30
0.0
 10
11.8855600769
 20
9.0720426485
 30
0.0
 10
11.8849222485
 20
9.0849823466
 30
0.0
 10
11.8855515443
 20
9.0978362803
 30
0.0
 10
11.8874423801
 20
9.1104806351
 30
0.0
 10
11.8905770283
 20
9.1227934656
 30
0.0
 10
11.894925739
 20
9.1346558644
 30
0.0
 10
11.9004469731
 20
9.145953119
 30
0.0
 10
11.9070876889
 20
9.1565758952
 30
0.0
 10
11.914783902
 20
9.1664213196
 30
0.0
 10
11.9234612932
 20
9.1753940247
 30
0.0
 10
11.9330359355
 20
9.1834071226
 30
0.0
 10
11.9434150966
 20
9.1903831584
 30
0.0
 10
11.9544982383
 20
9.1962548347
 30
0.0
 10
11.9661780881
 20
9.2009656534
 30
0.0
 10
11.9783415564
 20
9.2044704772
 30
0.0
 10
11.9908714604
 20
9.2067358728
 30
0.0
 10
12.0036453524
 20
9.207740719
 30
0.0
 10
12.0122166867
 20
9.2075643653
 30
0.0
 10
12.0164993511
 20
9.2072673615
 30
0.0
  0
SPLINE
  5
374
100
AcDbEntity
  8
0
100
AcDbSpline
 62
7
  6
CONTINUOUS
 70
0
 71
3
 72
39
 73
35
 74
0
 42
0.0000001
 43
0.0000001
 44
0.0000000001
 40
0.0
 40
0.0
 40
0.0
 40
0.0
 40
0.0314026134
 40
0.06300949
 40
0.0948071102
 40
0.1267734453
 40
0.1588809722
 40
0.1910970226
 40
0.2233851132
 40
0.2557062446
 40
0.2880202663
 40
0.3202872751
 40
0.3524690067
 40
0.384530184
 40
0.4164397927
 40
0.448172249
 40
0.4797084083
 40
0.5110363809
 40
0.5421521201
 40
0.5730597413
 40
0.6037715194
 40
0.6343075569
 40
0.6646951118
 40
0.6949675896
 40
0.7251632184
 40
0.755323478
 40
0.7854913548
 40
0.8157095105
 40
0.8460184691
 40
0.8764549222
 40
0.9070502335
 40
0.9378293335
 40
0.9688091139
 40
1.0
 40
1.0
 40
1.0
 40
1.0
 10
12.0164993511
 20
7.4560437697
 30
0.0
 10
12.0208110868
 20
7.4557447498
 30
0.0
 10
12.0294388623
 20
7.4547198523
 30
0.0
 10
12.0422066533
 20
7.4519362313
 30
0.0
 10
12.0547269633
 20
7.447928148
 30
0.0
 10
12.066878
 20
7.4427344445
 30
0.0
 10
12.0785435462
 20
7.4364052921
 30
0.0
 10
12.0896115867
 20
7.4290016924
 30
0.0
 10
12.0999759857
 20
7.4205948723
 30
0.0
 10
12.1095372928
 20
7.4112656
 30
0.0
 10
12.1182037225
 20
7.4011034282
 30
0.0
 10
12.1258920647
 20
7.3902058971
 30
0.0
 10
12.1325284223
 20
7.3786775606
 30
0.0
 10
12.1380489041
 20
7.3666290101
 30
0.0
 10
12.1424002307
 20
7.354175844
 30
0.0
 10
12.1455403187
 20
7.341437608
 30
0.0
 10
12.1474386254
 20
7.3285366424
 30
0.0
 10
12.1480764538
 20
7.3155969443
 30
0.0
 10
12.147447158
 20
7.3027430105
 30
0.0
 10
12.1455563222
 20
7.2900986558
 30
0.0
 10
12.142421674
 20
7.2777858252
 30
0.0
 10
12.1380729633
 20
7.2659234265
 30
0.0
 10
12.1325517292
 20
7.2546261719
 30
0.0
 10
12.1259110134
 20
7.2440033957
 30
0.0
 10
12.1182148003
 20
7.2341579712
 30
0.0
 10
12.1095374091
 20
7.2251852662
 30
0.0
 10
12.0999627668
 20
7.2171721683
 30
0.0
 10
12.0895836057
 20
7.2101961325
 30
0.0
 10
12.078500464
 20
7.2043244562
 30
0.0
 10
12.0668206142
 20
7.1996136375
 30
0.0
 10
12.0546571459
 20
7.1961088137
 30
0.0
 10
12.0421272418
 20
7.1938434181
 30
0.0
 10
12.0293533499
 20
7.1928385719
 30
0.0
 10
12.0207820156
 20
7.1930149256
 30
0.0
 10
12.0164993511
 20
7.1933119294
 30
0.0
  0
SPLINE
  5
375
100
AcDbEntity
  8
0
100
AcDbSpline
 62
7
  6
CONTINUOUS
 70
0
 71
3
 72
15
 73
11
 74
0
 42
0.0000001
 43
0.0000001
 44
0.0000000001
 40
0.0
 40
0.0
 40
0.0
 40
0.0
 40
0.1273482936
 40
0.2538605366
 40
0.3795879111
 40
0.5046050899
 40
0.6290174366
 40
0.7529533732
 40
0.8765605776
 40
1.0
 40
1.0
 40
1.0
 40
1.0
 10
11.9139149318
 20
9.0893124955
 30
0.0
 10
11.9139149318
 20
9.0927772708
 30
0.0
 10
11.9142457467
 20
9.0996888652
 30
0.0
 10
11.9157418336
 20
9.1099233266
 30
0.0
 10
11.9182225948
 20
9.1199006333
 30
0.0
 10
11.9216656275
 20
9.1295274775
 30
0.0
 10
11.9260393256
 20
9.1387150827
 30
0.0
 10
11.931303834
 20
9.1473786101
 30
0.0
 10
11.9374096641
 20
9.1554368706
 30
0.0
 10
11.9420070326
 20
9.1603593252
 30
0.0
 10
11.9444226063
 20
9.16269257
 30
0.0
  0
SPLINE
  5
376
100
AcDbEntity
  8
0
100
AcDbSpline
 62
7
  6
CONTINUOUS
 70
0
 71
3
 72
23
 73
19
 74
0
 42
0.0000001
 43
0.0000001
 44
0.0000000001
 40
0.0
 40
0.0
 40
0.0
 40
0.0
 40
0.0614488807
 40
0.1232974294
 40
0.1855193177
 40
0.2480712672
 40
0.3108995318
 40
0.3739401513
 40
0.4371217414
 40
0.5003679843
 40
0.5636003151
 40
0.6267406524
 40
0.6897141172
 40
0.7524516838
 40
0.8148926113
 40
0.8769871451
 40
0.9386966623
 40
1.0
 40
1.0
 40
1.0
 40
1.0
 10
12.0225815937
 20
8.973109775
 30
0.0
 10
12.0190149006
 20
8.973357126
 30
0.0
 10
12.0118779557
 20
8.9742049243
 30
0.0
 10
12.0013163637
 20
8.976507557
 30
0.0
 10
11.9909594905
 20
8.979823069
 30
0.0
 10
11.9809080833
 20
8.9841193388
 30
0.0
 10
11.9712582665
 20
8.9893548319
 30
0.0
 10
11.9621027161
 20
8.9954791316
 30
0.0
 10
11.9535292333
 20
9.002433314
 30
0.0
 10
11.9456200737
 20
9.0101505522
 30
0.0
 10
11.9384511423
 20
9.0185567509
 30
0.0
 10
11.9320912883
 20
9.0275712458
 30
0.0
 10
11.9266016557
 20
9.037107551
 30
0.0
 10
11.9220351023
 20
9.047074206
 30
0.0
 10
11.9184356422
 20
9.057375481
 30
0.0
 10
11.9158381677
 20
9.0679128288
 30
0.0
 10
11.9142678353
 20
9.0785837301
 30
0.0
 10
11.9139149318
 20
9.0857457038
 30
0.0
 10
11.9139149318
 20
9.0893124955
 30
0.0
  0
SPLINE
  5
377
100
AcDbEntity
  8
0
100
AcDbSpline
 62
7
  6
CONTINUOUS
 70
0
 71
3
 72
15
 73
11
 74
0
 42
0.0000001
 43
0.0000001
 44
0.0000000001
 40
0.0
 40
0.0
 40
0.0
 40
0.0
 40
0.1416105651
 40
0.2778697147
 40
0.4090187531
 40
0.5353474323
 40
0.6571978491
 40
0.7749579952
 40
0.8890638763
 40
1.0
 40
1.0
 40
1.0
 40
1.0
 10
10.7274096126
 20
10.7366214619
 30
0.0
 10
10.7261938358
 20
10.7354471116
 30
0.0
 10
10.7238562674
 20
10.7330922597
 30
0.0
 10
10.7205795182
 20
10.7294705482
 30
0.0
 10
10.7176031404
 20
10.725830556
 30
0.0
 10
10.7149288205
 20
10.7221739582
 30
0.0
 10
10.7125578389
 20
10.718502315
 30
0.0
 10
10.7104914913
 20
10.7148169849
 30
0.0
 10
10.7087310016
 20
10.711119866
 30
0.0
 10
10.7077495366
 20
10.7086163532
 30
0.0
 10
10.7073131055
 20
10.7073661561
 30
0.0
  0
SPLINE
  5
378
100
AcDbEntity
  8
0
100
AcDbSpline
 62
7
  6
CONTINUOUS
 70
0
 71
3
 72
83
 73
79
 74
0
 42
0.0000001
 43
0.0000001
 44
0.0000000001
 40
0.0
 40
0.0
 40
0.0
 40
0.0
 40
0.0038990711
 40
0.0079536
 40
0.0121674496
 40
0.0165439335
 40
0.0210858865
 40
0.0257955801
 40
0.0306746324
 40
0.0357242178
 40
0.040945082
 40
0.0463375909
 40
0.0519018022
 40
0.0576374012
 40
0.0696197808
 40
0.0822776483
 40
0.0955997797
 40
0.1095718595
 40
0.1241768694
 40
0.1393953881
 40
0.1552058538
 40
0.1715847835
 40
0.1885069537
 40
0.205945557
 40
0.2238723336
 40
0.2422577024
 40
0.2610708843
 40
0.2802800098
 40
0.2998522213
 40
0.3197537658
 40
0.3399500919
 40
0.3604059483
 40
0.3810854732
 40
0.4019522824
 40
0.4440994259
 40
0.4865498717
 40
0.5290026144
 40
0.5711566227
 40
0.5920285618
 40
0.6127143342
 40
0.6331775367
 40
0.6533822902
 40
0.673293326
 40
0.6928760741
 40
0.7120967548
 40
0.7309224744
 40
0.7493213321
 40
0.7672625179
 40
0.7847164181
 40
0.8016547303
 40
0.8180505906
 40
0.8338787246
 40
0.849115599
 40
0.8637395971
 40
0.8777312296
 40
0.8910733886
 40
0.9037516692
 40
0.9157547517
 40
0.9215007886
 40
0.9270754428
 40
0.9324784238
 40
0.9377097412
 40
0.9427697287
 40
0.9476591439
 40
0.9523791138
 40
0.9569312757
 40
0.961317774
 40
0.9655413239
 40
0.9696053367
 40
0.9735139118
 40
0.9772720141
 40
0.9808855123
 40
0.9843612906
 40
0.9877073922
 40
0.9909330507
 40
0.9940488477
 40
0.9970667217
 40
1.0
 40
1.0
 40
1.0
 40
1.0
 10
10.7274096126
 20
10.7366214619
 30
0.0
 10
10.7286939611
 20
10.7378620474
 30
0.0
 10
10.7313703255
 20
10.7403347705
 30
0.0
 10
10.7356129811
 20
10.7439493926
 30
0.0
 10
10.7401588227
 20
10.7475390423
 30
0.0
 10
10.7450055026
 20
10.7511018732
 30
0.0
 10
10.7501507663
 20
10.7546363479
 30
0.0
 10
10.7555922745
 20
10.7581408226
 30
0.0
 10
10.7613274636
 20
10.7616137506
 30
0.0
 10
10.7673536566
 20
10.7650534495
 30
0.0
 10
10.773668009
 20
10.7684583133
 30
0.0
 10
10.7802675389
 20
10.7718267654
 30
0.0
 10
10.78714917
 20
10.7751571987
 30
0.0
 10
10.7968381233
 20
10.7796100325
 30
0.0
 10
10.8096419857
 20
10.7850575867
 30
0.0
 10
10.8258610446
 20
10.7913266872
 30
0.0
 10
10.8431205819
 20
10.7974077246
 30
0.0
 10
10.8613879637
 20
10.8032891123
 30
0.0
 10
10.8806288453
 20
10.8089596275
 30
0.0
 10
10.9008068757
 20
10.8144084382
 30
0.0
 10
10.9218838924
 20
10.8196251296
 30
0.0
 10
10.9438199811
 20
10.8245997236
 30
0.0
 10
10.9665735692
 20
10.8293227032
 30
0.0
 10
10.9901015051
 20
10.8337850293
 30
0.0
 10
11.01435914
 20
10.8379781691
 30
0.0
 10
11.0393004192
 20
10.8418941088
 30
0.0
 10
11.0648779785
 20
10.8455253626
 30
0.0
 10
11.091043237
 20
10.8488649891
 30
0.0
 10
11.1177464892
 20
10.8519066021
 30
0.0
 10
11.1449369956
 20
10.8546443894
 30
0.0
 10
11.1725630867
 20
10.8570731278
 30
0.0
 10
11.2005722473
 20
10.8591881714
 30
0.0
 10
11.2289112886
 20
10.8609855098
 30
0.0
 10
11.2671904094
 20
10.8629601208
 30
0.0
 10
11.3154667313
 20
10.8646066338
 30
0.0
 10
11.3736532869
 20
10.8652715363
 30
0.0
 10
11.4318432105
 20
10.8646265751
 30
0.0
 10
11.4801266412
 20
10.8629966362
 30
0.0
 10
11.5184148057
 20
10.8610352351
 30
0.0
 10
11.5467630544
 20
10.8592476375
 30
0.0
 10
11.5747830526
 20
10.8571422147
 30
0.0
 10
11.60242159
 20
10.8547229631
 30
0.0
 10
11.629626131
 20
10.8519945131
 30
0.0
 10
11.6563449824
 20
10.8489620748
 30
0.0
 10
11.6825273728
 20
10.8456314406
 30
0.0
 10
11.7081235588
 20
10.8420089702
 30
0.0
 10
11.7330849227
 20
10.8381015915
 30
0.0
 10
11.7573640667
 20
10.833916777
 30
0.0
 10
11.7809148999
 20
10.8294625287
 30
0.0
 10
11.8036927274
 20
10.8247473643
 30
0.0
 10
11.8256543429
 20
10.8197802971
 30
0.0
 10
11.8467581224
 20
10.8145708322
 30
0.0
 10
11.8669641057
 20
10.8091289373
 30
0.0
 10
11.8862340829
 20
10.8034650177
 30
0.0
 10
11.9045316454
 20
10.7975898967
 30
0.0
 10
11.9218223772
 20
10.7915147717
 30
0.0
 10
11.9380735827
 20
10.7852512277
 30
0.0
 10
11.9509049987
 20
10.7798081939
 30
0.0
 10
11.9606165064
 20
10.7753588567
 30
0.0
 10
11.9675152132
 20
10.772030766
 30
0.0
 10
11.9741320247
 20
10.7686645952
 30
0.0
 10
11.9804638396
 20
10.7652619099
 30
0.0
 10
11.9865076572
 20
10.7618242732
 30
0.0
 10
11.9922606672
 20
10.7583533565
 30
0.0
 10
11.997720144
 20
10.7548507174
 30
0.0
 10
12.0028835472
 20
10.7513180152
 30
0.0
 10
12.0077484669
 20
10.7477568802
 30
0.0
 10
12.0123125995
 20
10.7441688943
 30
0.0
 10
12.0165738551
 20
10.7405557468
 30
0.0
 10
12.0205301863
 20
10.7369189838
 30
0.0
 10
12.0241797542
 20
10.733260253
 30
0.0
 10
12.027520816
 20
10.7295811427
 30
0.0
 10
12.0305516951
 20
10.7258831981
 30
0.0
 10
12.0332709352
 20
10.722168051
 30
0.0
 10
12.0356770079
 20
10.7184372388
 30
0.0
 10
12.0377686366
 20
10.7146923227
 30
0.0
 10
12.0395444289
 20
10.7109352469
 30
0.0
 10
12.040529515
 20
10.7083908511
 30
0.0
 10
12.0409659847
 20
10.7071203747
 30
0.0
  0
SPLINE
  5
379
100
AcDbEntity
  8
0
100
AcDbSpline
 62
7
  6
CONTINUOUS
 70
0
 71
3
 72
82
 73
78
 74
0
 42
0.0000001
 43
0.0000001
 44
0.0000000001
 40
0.0
 40
0.0
 40
0.0
 40
0.0
 40
0.0040448529
 40
0.0082603888
 40
0.0126510012
 40
0.0172203915
 40
0.0219716858
 40
0.0269073693
 40
0.0320291528
 40
0.0373381926
 40
0.0428351729
 40
0.0485202967
 40
0.0604534148
 40
0.0731326977
 40
0.0865476644
 40
0.1006837131
 40
0.1155226803
 40
0.1310432739
 40
0.1472214583
 40
0.1640307566
 40
0.181442495
 40
0.1994259983
 40
0.2179487789
 40
0.2369767215
 40
0.2564742328
 40
0.2764043768
 40
0.2967289966
 40
0.3174088578
 40
0.338403774
 40
0.3596727225
 40
0.3811739532
 40
0.4247025304
 40
0.4686462878
 40
0.5126568792
 40
0.5563852818
 40
0.5994853537
 40
0.6206937162
 40
0.6416183531
 40
0.6622184176
 40
0.6824539375
 40
0.7022859296
 40
0.7216765161
 40
0.7405890511
 40
0.7589882681
 40
0.7768404309
 40
0.7941134728
 40
0.8107771642
 40
0.8268033079
 40
0.8421659826
 40
0.8568417837
 40
0.8708101231
 40
0.884053608
 40
0.8965585377
 40
0.9083155216
 40
0.9139123426
 40
0.9193210404
 40
0.9245420624
 40
0.9295763293
 40
0.934425239
 40
0.9390908471
 40
0.9435758133
 40
0.9478835617
 40
0.9520183826
 40
0.9559854592
 40
0.9597911062
 40
0.9634428001
 40
0.9669493498
 40
0.9703210665
 40
0.9767050786
 40
0.9797502036
 40
0.9827180476
 40
0.9856270511
 40
0.9884968943
 40
0.9913481644
 40
0.994201885
 40
0.9970790259
 40
1.0
 40
1.0
 40
1.0
 40
1.0
 10
10.9176970116
 20
10.7234249859
 30
0.0
 10
10.9186566468
 20
10.7243519223
 30
0.0
 10
10.9206611286
 20
10.7261990588
 30
0.0
 10
10.9238476321
 20
10.7288951414
 30
0.0
 10
10.9272732043
 20
10.7315713585
 30
0.0
 10
10.9309358727
 20
10.7342261497
 30
0.0
 10
10.9348337181
 20
10.7368582496
 30
0.0
 10
10.9389647712
 20
10.7394662856
 30
0.0
 10
10.9433268644
 20
10.742048974
 30
0.0
 10
10.9479177124
 20
10.7446049342
 30
0.0
 10
10.9527349144
 20
10.7471328212
 30
0.0
 10
10.9595670221
 20
10.750518965
 30
0.0
 10
10.9686652491
 20
10.7546612478
 30
0.0
 10
10.9802728146
 20
10.7594221871
 30
0.0
 10
10.9927158453
 20
10.7640403526
 30
0.0
 10
11.0059680944
 20
10.7685059221
 30
0.0
 10
11.0200017884
 20
10.7728093724
 30
0.0
 10
11.0347873256
 20
10.7769415165
 30
0.0
 10
11.0502934747
 20
10.7808935176
 30
0.0
 10
11.0664874298
 20
10.7846569165
 30
0.0
 10
11.0833348945
 20
10.7882236499
 30
0.0
 10
11.10080015
 20
10.791586083
 30
0.0
 10
11.1188461391
 20
10.7947370258
 30
0.0
 10
11.1374345579
 20
10.7976697359
 30
0.0
 10
11.1565259414
 20
10.8003779369
 30
0.0
 10
11.1760797437
 20
10.8028558296
 30
0.0
 10
11.1960544218
 20
10.8050981219
 30
0.0
 10
11.2164075347
 20
10.8071000247
 30
0.0
 10
11.2370958233
 20
10.8088572515
 30
0.0
 10
11.2580753591
 20
10.8103660679
 30
0.0
 10
11.2864921158
 20
10.812049005
 30
0.0
 10
11.3224118129
 20
10.8135052195
 30
0.0
 10
11.365780007
 20
10.8142191407
 30
0.0
 10
11.4092189964
 20
10.8139002148
 30
0.0
 10
11.4523596533
 20
10.81255121
 30
0.0
 10
11.4879447868
 20
10.8105680477
 30
0.0
 10
11.5159812343
 20
10.8084670463
 30
0.0
 10
11.5365948136
 20
10.8066520243
 30
0.0
 10
11.5568629598
 20
10.8045933043
 30
0.0
 10
11.576742641
 20
10.8022952632
 30
0.0
 10
11.5961916136
 20
10.7997628248
 30
0.0
 10
11.6151685643
 20
10.7970014024
 30
0.0
 10
11.6336331855
 20
10.7940168968
 30
0.0
 10
11.6515462737
 20
10.7908156918
 30
0.0
 10
11.6688698164
 20
10.7874046449
 30
0.0
 10
11.68556707
 20
10.7837910578
 30
0.0
 10
11.701602637
 20
10.7799826644
 30
0.0
 10
11.7169425542
 20
10.7759876088
 30
0.0
 10
11.7315543792
 20
10.7718144481
 30
0.0
 10
11.7454072731
 20
10.7674721099
 30
0.0
 10
11.7584720383
 20
10.7629698708
 30
0.0
 10
11.7707213088
 20
10.7583173055
 30
0.0
 10
11.782129261
 20
10.7535243052
 30
0.0
 10
11.791056191
 20
10.7493558407
 30
0.0
 10
11.7977481824
 20
10.7459498815
 30
0.0
 10
11.8024594436
 20
10.7434086367
 30
0.0
 10
11.806943209
 20
10.7408399695
 30
0.0
 10
11.8111971494
 20
10.7382452199
 30
0.0
 10
11.8152190062
 20
10.7356256857
 30
0.0
 10
11.8190067099
 20
10.7329827773
 30
0.0
 10
11.8225582669
 20
10.7303178121
 30
0.0
 10
11.8258718146
 20
10.7276321316
 30
0.0
 10
11.8289456578
 20
10.7249271228
 30
0.0
 10
11.8317781245
 20
10.7222040603
 30
0.0
 10
11.8343677685
 20
10.7194642863
 30
0.0
 10
11.8367131207
 20
10.7167092062
 30
0.0
 10
11.8388130271
 20
10.7139396874
 30
0.0
 10
11.8412391877
 20
10.7102974595
 30
0.0
 10
11.8432351144
 20
10.7065572192
 30
0.0
 10
11.8447326523
 20
10.7027482706
 30
0.0
 10
11.8455873616
 20
10.6999285943
 30
0.0
 10
11.8461901075
 20
10.6971035517
 30
0.0
 10
11.8465402346
 20
10.6942747716
 30
0.0
 10
11.8466373443
 20
10.6914442569
 30
0.0
 10
11.8464813581
 20
10.6886139185
 30
0.0
 10
11.8460724209
 20
10.6857860008
 30
0.0
 10
11.8456356603
 20
10.6839212364
 30
0.0
 10
11.8453774868
 20
10.6829929773
 30
0.0
  0
SPLINE
  5
37A
100
AcDbEntity
  8
0
100
AcDbSpline
 62
7
  6
CONTINUOUS
 70
0
 71
3
 72
56
 73
52
 74
0
 42
0.0000001
 43
0.0000001
 44
0.0000000001
 40
0.0
 40
0.0
 40
0.0
 40
0.0
 40
0.008909173
 40
0.0183537611
 40
0.0283367583
 40
0.0388580034
 40
0.0499145584
 40
0.0615011897
 40
0.0736105419
 40
0.0862335019
 40
0.0993593573
 40
0.1129758996
 40
0.1270696886
 40
0.1416260414
 40
0.1566291994
 40
0.1720624418
 40
0.1879080625
 40
0.204147561
 40
0.2207616266
 40
0.237730205
 40
0.272646871
 40
0.3087254437
 40
0.3457847622
 40
0.3836368152
 40
0.4220881546
 40
0.4609412715
 40
0.4999959681
 40
0.5390507059
 40
0.5779039434
 40
0.6163554814
 40
0.6542078172
 40
0.691267499
 40
0.7273465035
 40
0.7622636635
 40
0.7958461649
 40
0.8120859802
 40
0.8279319289
 40
0.8433654972
 40
0.858369027
 40
0.8729257339
 40
0.8870199014
 40
0.9006368461
 40
0.9137630832
 40
0.9263864703
 40
0.9384962344
 40
0.9500832801
 40
0.9611402835
 40
0.9716619455
 40
0.9816453892
 40
0.9910903929
 40
1.0
 40
1.0
 40
1.0
 40
1.0
 10
10.9617475764
 20
10.6320633961
 30
0.0
 10
10.9638548774
 20
10.6334272838
 30
0.0
 10
10.968267593
 20
10.6361276403
 30
0.0
 10
10.9752541107
 20
10.6399959834
 30
0.0
 10
10.9827910092
 20
10.6437945742
 30
0.0
 10
10.9908678784
 20
10.6475181517
 30
0.0
 10
10.9994738379
 20
10.6511617147
 30
0.0
 10
11.0085971669
 20
10.6547201924
 30
0.0
 10
11.0182253898
 20
10.6581887235
 30
0.0
 10
11.0283453163
 20
10.6615624949
 30
0.0
 10
11.0389430545
 20
10.6648368097
 30
0.0
 10
11.0500040213
 20
10.6680071653
 30
0.0
 10
11.0615129913
 20
10.6710691181
 30
0.0
 10
11.0734540975
 20
10.6740184351
 30
0.0
 10
11.0858108677
 20
10.6768510273
 30
0.0
 10
11.0985662507
 20
10.6795629248
 30
0.0
 10
11.1117026313
 20
10.6821504002
 30
0.0
 10
11.1252018612
 20
10.6846098266
 30
0.0
 10
11.1390453068
 20
10.6869378126
 30
0.0
 10
11.1581182883
 20
10.6898902566
 30
0.0
 10
11.1826803458
 20
10.6932181337
 30
0.0
 10
11.2129383349
 20
10.6966042578
 30
0.0
 10
11.2440868695
 20
10.6994009671
 30
0.0
 10
11.2759537772
 20
10.7015926308
 30
0.0
 10
11.3083630581
 20
10.7031669557
 30
0.0
 10
11.3411356182
 20
10.704115139
 30
0.0
 10
11.3740903466
 20
10.7044318775
 30
0.0
 10
11.4070451113
 20
10.7041153986
 30
0.0
 10
11.4398177809
 20
10.7031674659
 30
0.0
 10
11.4722272408
 20
10.7015933847
 30
0.0
 10
11.504094414
 20
10.6994019732
 30
0.0
 10
11.5352432397
 20
10.6966055005
 30
0.0
 10
11.5655017488
 20
10.6932196452
 30
0.0
 10
11.5947027371
 20
10.689263342
 30
0.0
 10
11.6182776303
 20
10.6854685478
 30
0.0
 10
11.6364806087
 20
10.68215245
 30
0.0
 10
11.6496172996
 20
10.6795650621
 30
0.0
 10
11.6623729928
 20
10.6768532524
 30
0.0
 10
11.6747300944
 20
10.6740207752
 30
0.0
 10
11.6866715403
 20
10.6710715367
 30
0.0
 10
11.6981808648
 20
10.6680096731
 30
0.0
 10
11.7092422009
 20
10.664839417
 30
0.0
 10
11.7198403147
 20
10.6615651624
 30
0.0
 10
11.7299606362
 20
10.6581914889
 30
0.0
 10
11.7395892592
 20
10.6547230257
 30
0.0
 10
11.748712996
 20
10.6511646066
 30
0.0
 10
11.7573193859
 20
10.6475211356
 30
0.0
 10
11.7653966788
 20
10.6437975942
 30
0.0
 10
11.7729340158
 20
10.6399990745
 30
0.0
 10
11.7799209875
 20
10.6361307971
 30
0.0
 10
11.7843339999
 20
10.6334304674
 30
0.0
 10
11.7864414542
 20
10.6320665913
 30
0.0
  0
SPLINE
  5
37B
100
AcDbEntity
  8
0
100
AcDbSpline
 62
7
  6
CONTINUOUS
 70
0
 71
3
 72
45
 73
41
 74
0
 42
0.0000001
 43
0.0000001
 44
0.0000000001
 40
0.0
 40
0.0
 40
0.0
 40
0.0
 40
0.0109065704
 40
0.0222213483
 40
0.0339384264
 40
0.0460509072
 40
0.0585511826
 40
0.0714308077
 40
0.0982904817
 40
0.1265507582
 40
0.156122767
 40
0.18690994
 40
0.2188089614
 40
0.2517106055
 40
0.285500498
 40
0.3200598258
 40
0.3552660125
 40
0.3909933697
 40
0.4271137336
 40
0.4634970909
 40
0.5000121987
 40
0.5365272001
 40
0.5729102389
 40
0.6090300735
 40
0.6447566932
 40
0.6799619375
 40
0.7145201228
 40
0.748308678
 40
0.7812087967
 40
0.8131061124
 40
0.8438914082
 40
0.8734613786
 40
0.901719467
 40
0.9285768165
 40
0.9414552557
 40
0.9539542718
 40
0.9660655147
 40
0.9777812822
 40
0.9890947805
 40
1.0
 40
1.0
 40
1.0
 40
1.0
 10
11.0359471731
 20
10.6064303453
 30
0.0
 10
11.0382646071
 20
10.607355475
 30
0.0
 10
11.0430088589
 20
10.6091840427
 30
0.0
 10
11.0503134136
 20
10.6118186625
 30
0.0
 10
11.0579311278
 20
10.6143933237
 30
0.0
 10
11.0658546037
 20
10.6169055592
 30
0.0
 10
11.0740762377
 20
10.619352913
 30
0.0
 10
11.0855868626
 20
10.6225714583
 30
0.0
 10
11.1006676803
 20
10.6264028361
 30
0.0
 10
11.1195763704
 20
10.6306441801
 30
0.0
 10
11.1394687434
 20
10.6345744835
 30
0.0
 10
11.1602679814
 20
10.6381783892
 30
0.0
 10
11.1818939015
 20
10.6414417797
 30
0.0
 10
11.2042629945
 20
10.6443518908
 30
0.0
 10
11.2272888484
 20
10.6468973435
 30
0.0
 10
11.2508824708
 20
10.6490681908
 30
0.0
 10
11.2749526488
 20
10.6508559532
 30
0.0
 10
11.2994063065
 20
10.6522536503
 30
0.0
 10
11.3241488709
 20
10.6532558263
 30
0.0
 10
11.3490846418
 20
10.6538585701
 30
0.0
 10
11.3741171654
 20
10.6540595299
 30
0.0
 10
11.399149611
 20
10.6538579217
 30
0.0
 10
11.4240851479
 20
10.6532545319
 30
0.0
 10
11.4488273234
 20
10.652251715
 30
0.0
 10
11.4732804387
 20
10.6508533846
 30
0.0
 10
11.497349923
 20
10.6490649989
 30
0.0
 10
11.5209427031
 20
10.6468935408
 30
0.0
 10
11.5439675693
 20
10.6443474921
 30
0.0
 10
11.5663355332
 20
10.6414368023
 30
0.0
 10
11.5879601872
 20
10.6381728525
 30
0.0
 10
11.6087580272
 20
10.6345684096
 30
0.0
 10
11.6286488754
 20
10.6306375912
 30
0.0
 10
11.6475559217
 20
10.6263957635
 30
0.0
 10
11.66263529
 20
10.6225639745
 30
0.0
 10
11.6741447033
 20
10.619345147
 30
0.0
 10
11.6823653873
 20
10.6168975555
 30
0.0
 10
11.6902878932
 20
10.6143851423
 30
0.0
 10
11.6979046067
 20
10.6118102552
 30
0.0
 10
11.705208145
 20
10.6091754746
 30
0.0
 10
11.7099516973
 20
10.6073467645
 30
0.0
 10
11.7122687729
 20
10.6064215706
 30
0.0
  0
SPLINE
  5
37C
100
AcDbEntity
  8
0
100
AcDbSpline
 62
7
  6
CONTINUOUS
 70
0
 71
3
 72
20
 73
16
 74
0
 42
0.0000001
 43
0.0000001
 44
0.0000000001
 40
0.0
 40
0.0
 40
0.0
 40
0.0
 40
0.1505005022
 40
0.2902383493
 40
0.4204794849
 40
0.4825760308
 40
0.5429535645
 40
0.6018792827
 40
0.6596437318
 40
0.7165576947
 40
0.7729472187
 40
0.829148528
 40
0.8855014043
 40
0.9423427572
 40
1.0
 40
1.0
 40
1.0
 40
1.0
 10
10.9176970116
 20
10.7234249859
 30
0.0
 10
10.9160597034
 20
10.7218434675
 30
0.0
 10
10.9130216326
 20
10.7186649288
 30
0.0
 10
10.9090838771
 20
10.7136572468
 30
0.0
 10
10.9064322187
 20
10.7093754131
 30
0.0
 10
10.9047447495
 20
10.7059428378
 30
0.0
 10
10.9037034077
 20
10.7034018957
 30
0.0
 10
10.9028671802
 20
10.7008550354
 30
0.0
 10
10.9022366416
 20
10.6983033794
 30
0.0
 10
10.9018122203
 20
10.6957482282
 30
0.0
 10
10.9015943465
 20
10.6931908929
 30
0.0
 10
10.9015831827
 20
10.6906327888
 30
0.0
 10
10.9017787005
 20
10.6880752717
 30
0.0
 10
10.9021807713
 20
10.6855199281
 30
0.0
 10
10.9025827823
 20
10.6838333338
 30
0.0
 10
10.9028164626
 20
10.6829931297
 30
0.0
  0
SPLINE
  5
37D
100
AcDbEntity
  8
0
100
AcDbSpline
 62
7
  6
CONTINUOUS
 70
0
 71
3
 72
15
 73
11
 74
0
 42
0.0000001
 43
0.0000001
 44
0.0000000001
 40
0.0
 40
0.0
 40
0.0
 40
0.0
 40
0.1113587718
 40
0.2217638972
 40
0.3339360486
 40
0.4504609708
 40
0.5736205832
 40
0.7053187648
 40
0.847071035
 40
1.0
 40
1.0
 40
1.0
 40
1.0
 10
12.8886872597
 20
9.3095708884
 30
0.0
 10
12.8894913786
 20
9.3093347226
 30
0.0
 10
12.8911325023
 20
9.3089876048
 30
0.0
 10
12.8936540489
 20
9.3088755703
 30
0.0
 10
12.896199104
 20
9.3091777661
 30
0.0
 10
12.8987590706
 20
9.3098912109
 30
0.0
 10
12.9013287349
 20
9.3110107774
 30
0.0
 10
12.9039045615
 20
9.3125317495
 30
0.0
 10
12.9064835079
 20
9.3144495993
 30
0.0
 10
12.9081376938
 20
9.3159313816
 30
0.0
 10
12.9089655111
 20
9.3167309917
 30
0.0
  0
SPLINE
  5
37E
100
AcDbEntity
  8
0
100
AcDbSpline
 62
7
  6
CONTINUOUS
 70
0
 71
3
 72
11
 73
7
 74
0
 42
0.0000001
 43
0.0000001
 44
0.0000000001
 40
0.0
 40
0.0
 40
0.0
 40
0.0
 40
0.2298511171
 40
0.4723689422
 40
0.7287712621
 40
1.0
 40
1.0
 40
1.0
 40
1.0
 10
12.8961248456
 20
9.1444546621
 30
0.0
 10
12.8972172188
 20
9.1450171093
 30
0.0
 10
12.8994097061
 20
9.146277056
 30
0.0
 10
12.90262211
 20
9.1484871174
 30
0.0
 10
12.9058382457
 20
9.1510621773
 30
0.0
 10
12.9079226981
 20
9.1529652003
 30
0.0
 10
12.9089655111
 20
9.1539724803
 30
0.0
  0
SPLINE
  5
37F
100
AcDbEntity
  8
0
100
AcDbSpline
 62
7
  6
CONTINUOUS
 70
0
 71
3
 72
23
 73
19
 74
0
 42
0.0000001
 43
0.0000001
 44
0.0000000001
 40
0.0
 40
0.0
 40
0.0
 40
0.0
 40
0.0566925533
 40
0.1156646488
 40
0.1766209441
 40
0.2392519984
 40
0.3032367672
 40
0.3682449986
 40
0.4339395716
 40
0.4999787996
 40
0.5660187148
 40
0.6317153449
 40
0.6967269891
 40
0.7607165029
 40
0.8233536014
 40
0.8843171973
 40
0.9432977982
 40
1.0
 40
1.0
 40
1.0
 40
1.0
 10
12.8651948655
 20
9.6821992316
 30
0.0
 10
12.865665253
 20
9.6774618035
 30
0.0
 10
12.866494634
 20
9.6677831643
 30
0.0
 10
12.867402912
 20
9.6529781051
 30
0.0
 10
12.8679967057
 20
9.6376580442
 30
0.0
 10
12.8682725654
 20
9.6219080853
 30
0.0
 10
12.8682288481
 20
9.6058155713
 30
0.0
 10
12.8678657124
 20
9.5894698248
 30
0.0
 10
12.867185117
 20
9.5729615771
 30
0.0
 10
12.8661908071
 20
9.5563824752
 30
0.0
 10
12.8648882919
 20
9.5398245629
 30
0.0
 10
12.8632848134
 20
9.5233797645
 30
0.0
 10
12.8613893063
 20
9.5071393707
 30
0.0
 10
12.8592123483
 20
9.4911935201
 30
0.0
 10
12.8567661054
 20
9.4756307102
 30
0.0
 10
12.8540642573
 20
9.4605372306
 30
0.0
 10
12.8511219565
 20
9.445996907
 30
0.0
 10
12.8489651295
 20
9.4365237008
 30
0.0
 10
12.8478455983
 20
9.43189565
 30
0.0
  0
SPLINE
  5
380
100
AcDbEntity
  8
0
100
AcDbSpline
 62
7
  6
CONTINUOUS
 70
0
 71
3
 72
64
 73
60
 74
0
 42
0.0000001
 43
0.0000001
 44
0.0000000001
 40
0.0
 40
0.0
 40
0.0
 40
0.0
 40
0.0027861296
 40
0.0055423425
 40
0.0082899056
 40
0.0110503118
 40
0.0138447165
 40
0.0166934552
 40
0.0196156358
 40
0.0226287853
 40
0.0289858825
 40
0.0358748232
 40
0.0433748494
 40
0.0515428721
 40
0.0604180774
 40
0.0700258194
 40
0.0803805167
 40
0.0914881349
 40
0.1033478457
 40
0.1159531494
 40
0.1292930022
 40
0.1433524365
 40
0.1581130132
 40
0.1735534222
 40
0.1896497087
 40
0.2063755116
 40
0.2237024421
 40
0.2416001593
 40
0.2600365508
 40
0.2789779971
 40
0.3182333212
 40
0.3590716629
 40
0.4011804985
 40
0.4442341906
 40
0.4878975123
 40
0.5318291125
 40
0.575684982
 40
0.6191218552
 40
0.6618006577
 40
0.7033899488
 40
0.7435693988
 40
0.7630347958
 40
0.782034533
 40
0.8005333919
 40
0.8184975063
 40
0.8358945944
 40
0.8526941379
 40
0.868867428
 40
0.8843878916
 40
0.8992313024
 40
0.9133759315
 40
0.9268030443
 40
0.9394972359
 40
0.9514468723
 40
0.9626449903
 40
0.973089919
 40
0.9827866358
 40
0.9917491003
 40
1.0
 40
1.0
 40
1.0
 40
1.0
 10
12.9225363714
 20
9.7976599538
 30
0.0
 10
12.9230045094
 20
9.797729359
 30
0.0
 10
12.9239423355
 20
9.7978269822
 30
0.0
 10
12.9253522032
 20
9.7978458855
 30
0.0
 10
12.9267536627
 20
9.7977360739
 30
0.0
 10
12.928145561
 20
9.7974975717
 30
0.0
 10
12.9295269816
 20
9.7971307002
 30
0.0
 10
12.9308970073
 20
9.7966358156
 30
0.0
 10
12.9322548502
 20
9.796013319
 30
0.0
 10
12.9340803826
 20
9.7949960441
 30
0.0
 10
12.9363350138
 20
9.7933843274
 30
0.0
 10
12.9389268286
 20
9.79098574
 30
0.0
 10
12.9414509639
 20
9.788094946
 30
0.0
 10
12.9439040123
 20
9.7847183758
 30
0.0
 10
12.9462826616
 20
9.7808624212
 30
0.0
 10
12.9485828408
 20
9.7765344344
 30
0.0
 10
12.9508003734
 20
9.7717428035
 30
0.0
 10
12.9529309108
 20
9.7664969712
 30
0.0
 10
12.9549701254
 20
9.7608074411
 30
0.0
 10
12.9569138528
 20
9.754685764
 30
0.0
 10
12.9587580223
 20
9.7481444539
 30
0.0
 10
12.9604987474
 20
9.741196967
 30
0.0
 10
12.9621323926
 20
9.7338576651
 30
0.0
 10
12.963655488
 20
9.7261417542
 30
0.0
 10
12.9650648073
 20
9.7180652573
 30
0.0
 10
12.9663573961
 20
9.7096449766
 30
0.0
 10
12.9675305006
 20
9.7008984413
 30
0.0
 10
12.9685816317
 20
9.6918438824
 30
0.0
 10
12.9695086153
 20
9.6825001645
 30
0.0
 10
12.9705891627
 20
9.6695276508
 30
0.0
 10
12.9716050604
 20
9.6527335894
 30
0.0
 10
12.9722919724
 20
9.6319852059
 30
0.0
 10
12.972454416
 20
9.6105809611
 30
0.0
 10
12.9720907999
 20
9.5886994401
 30
0.0
 10
12.971203931
 20
9.5665230815
 30
0.0
 10
12.9698011226
 20
9.5442368826
 30
0.0
 10
12.9678940533
 20
9.5220267538
 30
0.0
 10
12.965498672
 20
9.5000779779
 30
0.0
 10
12.9626351234
 20
9.4785735637
 30
0.0
 10
12.9593274882
 20
9.4576929358
 30
0.0
 10
12.9561922015
 20
9.4407830294
 30
0.0
 10
12.9534747171
 20
9.427703281
 30
0.0
 10
12.9513653842
 20
9.4182596321
 30
0.0
 10
12.9491678265
 20
9.4090981508
 30
0.0
 10
12.9468866101
 20
9.4002379361
 30
0.0
 10
12.9445265271
 20
9.3916974632
 30
0.0
 10
12.942092552
 20
9.3834945202
 30
0.0
 10
12.939589772
 20
9.3756461895
 30
0.0
 10
12.9370234444
 20
9.3681687897
 30
0.0
 10
12.9343989759
 20
9.361077839
 30
0.0
 10
12.9317218407
 20
9.3543880368
 30
0.0
 10
12.9289976521
 20
9.3481131999
 30
0.0
 10
12.9262321141
 20
9.3422662273
 30
0.0
 10
12.9234309331
 20
9.3368590881
 30
0.0
 10
12.920599866
 20
9.3319027476
 30
0.0
 10
12.9177447075
 20
9.3274071733
 30
0.0
 10
12.9148708853
 20
9.323381088
 30
0.0
 10
12.9119841809
 20
9.31983283
 30
0.0
 10
12.9099735511
 20
9.3177046837
 30
0.0
 10
12.9089655111
 20
9.3167309917
 30
0.0
  0
SPLINE
  5
381
100
AcDbEntity
  8
0
100
AcDbSpline
 62
7
  6
CONTINUOUS
 70
0
 71
3
 72
64
 73
60
 74
0
 42
0.0000001
 43
0.0000001
 44
0.0000000001
 40
0.0
 40
0.0
 40
0.0
 40
0.0
 40
0.0062804911
 40
0.0096066237
 40
0.0130665775
 40
0.0166670499
 40
0.0204137283
 40
0.0243114624
 40
0.0283642598
 40
0.0369465647
 40
0.0461812937
 40
0.0560796949
 40
0.0666465066
 40
0.0778812493
 40
0.089779131
 40
0.1023316535
 40
0.1155272117
 40
0.1293515293
 40
0.1437879055
 40
0.1588175136
 40
0.1744196638
 40
0.1905719249
 40
0.2072502756
 40
0.224429303
 40
0.2420822853
 40
0.2601812706
 40
0.2786972411
 40
0.2976001909
 40
0.3168591739
 40
0.3563168063
 40
0.3968085735
 40
0.4380629317
 40
0.479801659
 40
0.5217423565
 40
0.563600881
 40
0.6050937978
 40
0.6459408183
 40
0.6858672915
 40
0.724606658
 40
0.7434511405
 40
0.7619038917
 40
0.7799350587
 40
0.7975157765
 40
0.8146182778
 40
0.8312160476
 40
0.8472838754
 40
0.8627979721
 40
0.8777361824
 40
0.8920780895
 40
0.9058051727
 40
0.9189011064
 40
0.9313520074
 40
0.9431467127
 40
0.9542772702
 40
0.9647395423
 40
0.9745337483
 40
0.9836654939
 40
0.9921476051
 40
1.0
 40
1.0
 40
1.0
 40
1.0
 10
12.9526318948
 20
9.9602131226
 30
0.0
 10
12.9540678941
 20
9.9592051292
 30
0.0
 10
12.9561644812
 20
9.9575168121
 30
0.0
 10
12.9588141699
 20
9.9550051027
 30
0.0
 10
12.9608168599
 20
9.9529037367
 30
0.0
 10
12.962795555
 20
9.9506223251
 30
0.0
 10
12.9647497139
 20
9.9481617104
 30
0.0
 10
12.966678446
 20
9.9455230076
 30
0.0
 10
12.9692646001
 20
9.9416954436
 30
0.0
 10
12.9724188595
 20
9.9364579491
 30
0.0
 10
12.9760196428
 20
9.9295997941
 30
0.0
 10
12.9794994589
 20
9.9220646095
 30
0.0
 10
12.9828522887
 20
9.9138657024
 30
0.0
 10
12.9860722813
 20
9.9050172581
 30
0.0
 10
12.9891536585
 20
9.8955348643
 30
0.0
 10
12.9920908947
 20
9.8854353281
 30
0.0
 10
12.9948786702
 20
9.8747366469
 30
0.0
 10
12.997511891
 20
9.863457944
 30
0.0
 10
12.9999857671
 20
9.8516194468
 30
0.0
 10
13.0022957968
 20
9.839242429
 30
0.0
 10
13.0044377446
 20
9.8263491544
 30
0.0
 10
13.0064076963
 20
9.8129628452
 30
0.0
 10
13.0082020713
 20
9.7991076353
 30
0.0
 10
13.0098175815
 20
9.7848085118
 30
0.0
 10
13.011251264
 20
9.770091275
 30
0.0
 10
13.0125005203
 20
9.7549824921
 30
0.0
 10
13.0135630578
 20
9.7395094486
 30
0.0
 10
13.0144369413
 20
9.7237000613
 30
0.0
 10
13.0153557583
 20
9.7020359072
 30
0.0
 10
13.0160123264
 20
9.6743267387
 30
0.0
 10
13.0160261903
 20
9.6404654775
 30
0.0
 10
13.0152716112
 20
9.6059752697
 30
0.0
 10
13.0137539155
 20
9.571105189
 30
0.0
 10
13.0114839041
 20
9.5361068895
 30
0.0
 10
13.0084779671
 20
9.5012330102
 30
0.0
 10
13.004757871
 20
9.466735284
 30
0.0
 10
13.0003506162
 20
9.4328626276
 30
0.0
 10
12.9952882557
 20
9.3998596063
 30
0.0
 10
12.9905116879
 20
9.3730388552
 30
0.0
 10
12.9863803068
 20
9.352203034
 30
0.0
 10
12.9831706373
 20
9.3370833919
 30
0.0
 10
12.9798272785
 20
9.3223545373
 30
0.0
 10
12.9763562569
 20
9.3080430417
 30
0.0
 10
12.9727638631
 20
9.2941747419
 30
0.0
 10
12.9690566319
 20
9.2807746481
 30
0.0
 10
12.9652412923
 20
9.2678669216
 30
0.0
 10
12.961324749
 20
9.2554748274
 30
0.0
 10
12.9573141259
 20
9.2436206685
 30
0.0
 10
12.9532167079
 20
9.2323257561
 30
0.0
 10
12.9490399045
 20
9.2216103779
 30
0.0
 10
12.9447912891
 20
9.2114937258
 30
0.0
 10
12.940478557
 20
9.2019938618
 30
0.0
 10
12.9361094585
 20
9.1931276968
 30
0.0
 10
12.9316918196
 20
9.1849109164
 30
0.0
 10
12.9272334753
 20
9.1773579316
 30
0.0
 10
12.9227422599
 20
9.1704819424
 30
0.0
 10
12.9182256259
 20
9.1642945256
 30
0.0
 10
12.9136914518
 20
9.1588068212
 30
0.0
 10
12.910543252
 20
9.1554964611
 30
0.0
 10
12.9089655111
 20
9.1539724803
 30
0.0
  0
SPLINE
  5
382
100
AcDbEntity
  8
0
100
AcDbSpline
 62
7
  6
CONTINUOUS
 70
0
 71
3
 72
78
 73
74
 74
0
 42
0.0000001
 43
0.0000001
 44
0.0000000001
 40
0.0
 40
0.0
 40
0.0
 40
0.0
 40
0.002716437
 40
0.0054532499
 40
0.0082303258
 40
0.0110666193
 40
0.0139798357
 40
0.0169861462
 40
0.0201001074
 40
0.0233346342
 40
0.0267009841
 40
0.0302089392
 40
0.033866861
 40
0.0376818191
 40
0.0416598027
 40
0.0458057327
 40
0.0501236562
 40
0.0546168619
 40
0.0592878722
 40
0.0641386486
 40
0.0691705883
 40
0.0743845602
 40
0.0853594804
 40
0.0970633454
 40
0.1094900995
 40
0.122629366
 40
0.1364670611
 40
0.1509858974
 40
0.166165815
 40
0.1819842919
 40
0.1984165668
 40
0.2154358706
 40
0.2330136396
 40
0.2511196715
 40
0.2697222404
 40
0.2887882524
 40
0.3082833865
 40
0.328172201
 40
0.3484182245
 40
0.3689840851
 40
0.4109212248
 40
0.4536713576
 40
0.4969134981
 40
0.540321922
 40
0.5835693174
 40
0.6263299118
 40
0.6682826143
 40
0.6888581262
 40
0.7091150154
 40
0.7290158802
 40
0.7485242227
 40
0.767604568
 40
0.7862225538
 40
0.8043450413
 40
0.8219402657
 40
0.8389779735
 40
0.8554295416
 40
0.8712681371
 40
0.88646894
 40
0.9010093515
 40
0.9148692219
 40
0.9280311672
 40
0.9404810055
 40
0.9522082213
 40
0.9632066157
 40
0.9684323229
 40
0.97347594
 40
0.978338293
 40
0.9830207537
 40
0.9875253474
 40
0.9918546279
 40
0.9960116289
 40
1.0
 40
1.0
 40
1.0
 40
1.0
 10
12.9684827106
 20
9.9637484483
 30
0.0
 10
12.9692544574
 20
9.9636949282
 30
0.0
 10
12.9707997901
 20
9.963517653
 30
0.0
 10
12.9730981132
 20
9.9630432156
 30
0.0
 10
12.9753790585
 20
9.9623603527
 30
0.0
 10
12.9776410282
 20
9.961469781
 30
0.0
 10
12.9798828094
 20
9.9603721932
 30
0.0
 10
12.9821032914
 20
9.9590685338
 30
0.0
 10
12.9843014442
 20
9.9575597044
 30
0.0
 10
12.9864762579
 20
9.9558466262
 30
0.0
 10
12.9886268466
 20
9.9539303622
 30
0.0
 10
12.9907522412
 20
9.9518119112
 30
0.0
 10
12.9928515177
 20
9.9494923887
 30
0.0
 10
12.9949237823
 20
9.9469729973
 30
0.0
 10
12.996968039
 20
9.9442549504
 30
0.0
 10
12.9989833857
 20
9.9413396228
 30
0.0
 10
13.0009688765
 20
9.938228446
 30
0.0
 10
13.0029235232
 20
9.9349229302
 30
0.0
 10
13.0048464396
 20
9.9314247317
 30
0.0
 10
13.0067366476
 20
9.9277355613
 30
0.0
 10
13.0085932423
 20
9.9238572375
 30
0.0
 10
13.0110649954
 20
9.9183418735
 30
0.0
 10
13.0140540399
 20
9.9109791884
 30
0.0
 10
13.0174338632
 20
9.9015678172
 30
0.0
 10
13.020658635
 20
9.891453471
 30
0.0
 10
13.0237218639
 20
9.8806562816
 30
0.0
 10
13.0266173646
 20
9.8691975851
 30
0.0
 10
13.0293392758
 20
9.8571002068
 30
0.0
 10
13.0318820659
 20
9.844388281
 30
0.0
 10
13.0342405515
 20
9.831087222
 30
0.0
 10
13.0364099368
 20
9.8172236681
 30
0.0
 10
13.038385814
 20
9.8028254182
 30
0.0
 10
13.0401641596
 20
9.787921359
 30
0.0
 10
13.0417413427
 20
9.7725414075
 30
0.0
 10
13.0431141585
 20
9.7567164559
 30
0.0
 10
13.0442798174
 20
9.7404783033
 30
0.0
 10
13.0452359442
 20
9.7238595793
 30
0.0
 10
13.0459805733
 20
9.7068936941
 30
0.0
 10
13.0465122152
 20
9.6896147293
 30
0.0
 10
13.0469382846
 20
9.6660523841
 30
0.0
 10
13.0469240854
 20
9.6360747055
 30
0.0
 10
13.0460529045
 20
9.5996496267
 30
0.0
 10
13.0443339858
 20
9.5628352128
 30
0.0
 10
13.0417810767
 20
9.5259273459
 30
0.0
 10
13.0384146679
 20
9.4892224023
 30
0.0
 10
13.0342618982
 20
9.4530153743
 30
0.0
 10
13.0301479578
 20
9.423311066
 30
0.0
 10
13.0264812383
 20
9.4000214726
 30
0.0
 10
13.0235750479
 20
9.3829709579
 30
0.0
 10
13.0205009284
 20
9.3662588361
 30
0.0
 10
13.0172650541
 20
9.3499186786
 30
0.0
 10
13.0138739721
 20
9.3339833289
 30
0.0
 10
13.0103345279
 20
9.3184848059
 30
0.0
 10
13.0066538612
 20
9.3034542496
 30
0.0
 10
13.0028394075
 20
9.288921843
 30
0.0
 10
12.998898882
 20
9.2749167491
 30
0.0
 10
12.9948402482
 20
9.2614670605
 30
0.0
 10
12.9906716983
 20
9.24859974
 30
0.0
 10
12.9864016594
 20
9.2363405445
 30
0.0
 10
12.9820387643
 20
9.2247139716
 30
0.0
 10
12.9775918166
 20
9.2137432069
 30
0.0
 10
12.9730697653
 20
9.2034500931
 30
0.0
 10
12.9684816843
 20
9.1938549534
 30
0.0
 10
12.96383678
 20
9.1849768749
 30
0.0
 10
12.9598613322
 20
9.1780772835
 30
0.0
 10
12.9566528171
 20
9.1729396019
 30
0.0
 10
12.9542791449
 20
9.1693424113
 30
0.0
 10
12.9518982438
 20
9.1659370959
 30
0.0
 10
12.9495112198
 20
9.1627253307
 30
0.0
 10
12.9471192514
 20
9.1597086469
 30
0.0
 10
12.9447234298
 20
9.1568885606
 30
0.0
 10
12.9423251049
 20
9.1542665999
 30
0.0
 10
12.9406920896
 20
9.152618003
 30
0.0
 10
12.9398751401
 20
9.1518288903
 30
0.0
  0
SPLINE
  5
383
100
AcDbEntity
  8
0
100
AcDbSpline
 62
7
  6
CONTINUOUS
 70
0
 71
3
 72
21
 73
17
 74
0
 42
0.0000001
 43
0.0000001
 44
0.0000000001
 40
0.0
 40
0.0
 40
0.0
 40
0.0
 40
0.1273176366
 40
0.2537999756
 40
0.3167619475
 40
0.3795355041
 40
0.4421314991
 40
0.5045621439
 40
0.5668413432
 40
0.6289845283
 40
0.6910084528
 40
0.7529310935
 40
0.8147714495
 40
0.8765493365
 40
0.9382852194
 40
1.0
 40
1.0
 40
1.0
 40
1.0
 10
9.0288905522
 20
10.1273120787
 30
0.0
 10
9.0288905522
 20
10.1340568329
 30
0.0
 10
9.0295343835
 20
10.1475107723
 30
0.0
 10
9.0319659253
 20
10.1641427482
 30
0.0
 10
9.0348721584
 20
10.1771890794
 30
0.0
 10
9.0375224869
 20
10.186812058
 30
0.0
 10
9.0406404199
 20
10.1962640521
 30
0.0
 10
9.0442188135
 20
10.2055235247
 30
0.0
 10
9.0482493906
 20
10.2145690674
 30
0.0
 10
9.0527229129
 20
10.2233798199
 30
0.0
 10
9.0576290901
 20
10.2319354423
 30
0.0
 10
9.062956579
 20
10.2402162295
 30
0.0
 10
9.0686931087
 20
10.2482030484
 30
0.0
 10
9.0748255509
 20
10.2558775111
 30
0.0
 10
9.0813394749
 20
10.26322171
 30
0.0
 10
9.0859272744
 20
10.2678872249
 30
0.0
 10
9.0882787981
 20
10.2701586227
 30
0.0
  0
SPLINE
  5
384
100
AcDbEntity
  8
0
100
AcDbSpline
 62
7
  6
CONTINUOUS
 70
0
 71
3
 72
19
 73
15
 74
0
 42
0.0000001
 43
0.0000001
 44
0.0000000001
 40
0.0
 40
0.0
 40
0.0
 40
0.0
 40
0.0567969622
 40
0.1127631432
 40
0.1682601609
 40
0.2236598469
 40
0.2793360256
 40
0.3356566958
 40
0.3929761353
 40
0.4516290587
 40
0.5740733639
 40
0.7052207328
 40
0.8467731849
 40
1.0
 40
1.0
 40
1.0
 40
1.0
 10
12.9329059231
 20
8.0595434099
 30
0.0
 10
12.9337144447
 20
8.0592575491
 30
0.0
 10
12.935342805
 20
8.0587528631
 30
0.0
 10
12.9378258337
 20
8.0582022164
 30
0.0
 10
12.9403257371
 20
8.0578653722
 30
0.0
 10
12.9428408283
 20
8.0577425793
 30
0.0
 10
12.9453696762
 20
8.0578338857
 30
0.0
 10
12.9479107543
 20
8.058139187
 30
0.0
 10
12.9504627619
 20
8.0586580959
 30
0.0
 10
12.9539270234
 20
8.0596479864
 30
0.0
 10
12.9583018064
 20
8.0614504079
 30
0.0
 10
12.9634881182
 20
8.0644277848
 30
0.0
 10
12.9686813975
 20
8.0682399558
 30
0.0
 10
12.9720061893
 20
8.0712089722
 30
0.0
 10
12.973670219
 20
8.0728163015
 30
0.0
  0
SPLINE
  5
385
100
AcDbEntity
  8
0
100
AcDbSpline
 62
7
  6
CONTINUOUS
 70
0
 71
3
 72
15
 73
11
 74
0
 42
0.0000001
 43
0.0000001
 44
0.0000000001
 40
0.0
 40
0.0
 40
0.0
 40
0.0
 40
0.1094428859
 40
0.2224122289
 40
0.3394398045
 40
0.4609979092
 40
0.5875012361
 40
0.7193105701
 40
0.8567281191
 40
1.0
 40
1.0
 40
1.0
 40
1.0
 10
12.9429092971
 20
7.8630876176
 30
0.0
 10
12.9441954892
 20
7.8634640941
 30
0.0
 10
12.946779518
 20
7.8643345734
 30
0.0
 10
12.9506116289
 20
7.8659532124
 30
0.0
 10
12.9544537886
 20
7.8679021451
 30
0.0
 10
12.9583038745
 20
7.8701800797
 30
0.0
 10
12.9621603612
 20
7.8727856429
 30
0.0
 10
12.9660215261
 20
7.8757174634
 30
0.0
 10
12.9698854637
 20
7.8789737845
 30
0.0
 10
12.9724083559
 20
7.8813100363
 30
0.0
 10
12.973670219
 20
7.8825289025
 30
0.0
  0
SPLINE
  5
386
100
AcDbEntity
  8
0
100
AcDbSpline
 62
7
  6
CONTINUOUS
 70
0
 71
3
 72
39
 73
35
 74
0
 42
0.0000001
 43
0.0000001
 44
0.0000000001
 40
0.0
 40
0.0
 40
0.0
 40
0.0
 40
0.0314026134
 40
0.06300949
 40
0.0948071102
 40
0.1267734453
 40
0.1588809722
 40
0.1910970226
 40
0.2233851132
 40
0.2557062446
 40
0.2880202663
 40
0.3202872751
 40
0.3524690067
 40
0.384530184
 40
0.4164397927
 40
0.448172249
 40
0.4797084083
 40
0.5110363809
 40
0.5421521201
 40
0.5730597413
 40
0.6037715194
 40
0.6343075569
 40
0.6646951118
 40
0.6949675896
 40
0.7251632184
 40
0.755323478
 40
0.7854913548
 40
0.8157095105
 40
0.8460184691
 40
0.8764549222
 40
0.9070502335
 40
0.9378293335
 40
0.9688091139
 40
1.0
 40
1.0
 40
1.0
 40
1.0
 10
12.0164993511
 20
7.1933119294
 30
0.0
 10
12.0121876154
 20
7.1936109493
 30
0.0
 10
12.00355984
 20
7.1946358468
 30
0.0
 10
11.990792049
 20
7.1974194677
 30
0.0
 10
11.978271739
 20
7.2014275511
 30
0.0
 10
11.9661207023
 20
7.2066212545
 30
0.0
 10
11.954455156
 20
7.212950407
 30
0.0
 10
11.9433871156
 20
7.2203540067
 30
0.0
 10
11.9330227165
 20
7.2287608268
 30
0.0
 10
11.9234614095
 20
7.2380900991
 30
0.0
 10
11.9147949798
 20
7.2482522709
 30
0.0
 10
11.9071066375
 20
7.259149802
 30
0.0
 10
11.90047028
 20
7.2706781384
 30
0.0
 10
11.8949497982
 20
7.2827266889
 30
0.0
 10
11.8905984716
 20
7.2951798551
 30
0.0
 10
11.8874583836
 20
7.3079180911
 30
0.0
 10
11.8855600769
 20
7.3208190566
 30
0.0
 10
11.8849222485
 20
7.3337587548
 30
0.0
 10
11.8855515443
 20
7.3466126885
 30
0.0
 10
11.8874423801
 20
7.3592570432
 30
0.0
 10
11.8905770283
 20
7.3715698738
 30
0.0
 10
11.894925739
 20
7.3834322726
 30
0.0
 10
11.9004469731
 20
7.3947295272
 30
0.0
 10
11.9070876889
 20
7.4053523034
 30
0.0
 10
11.914783902
 20
7.4151977278
 30
0.0
 10
11.9234612932
 20
7.4241704328
 30
0.0
 10
11.9330359355
 20
7.4321835307
 30
0.0
 10
11.9434150966
 20
7.4391595666
 30
0.0
 10
11.9544982383
 20
7.4450312429
 30
0.0
 10
11.9661780881
 20
7.4497420616
 30
0.0
 10
11.9783415564
 20
7.4532468854
 30
0.0
 10
11.9908714604
 20
7.455512281
 30
0.0
 10
12.0036453524
 20
7.4565171271
 30
0.0
 10
12.0122166867
 20
7.4563407735
 30
0.0
 10
12.0164993511
 20
7.4560437697
 30
0.0
  0
SPLINE
  5
387
100
AcDbEntity
  8
0
100
AcDbSpline
 62
7
  6
CONTINUOUS
 70
0
 71
3
 72
39
 73
35
 74
0
 42
0.0000001
 43
0.0000001
 44
0.0000000001
 40
0.0
 40
0.0
 40
0.0
 40
0.0
 40
0.0228208707
 40
0.0471579263
 40
0.0729504752
 40
0.1001283135
 40
0.1286129951
 40
0.1583188559
 40
0.1891538727
 40
0.2210204113
 40
0.2538158984
 40
0.2874334421
 40
0.3217624174
 40
0.356689028
 40
0.3920968513
 40
0.4278673735
 40
0.4638805178
 40
0.5000151672
 40
0.5361496856
 40
0.5721624375
 40
0.6079323078
 40
0.6433392222
 40
0.6782646712
 40
0.7125922374
 40
0.7462081306
 40
0.7790017334
 40
0.8108661626
 40
0.8416988549
 40
0.8714021873
 40
0.8998841497
 40
0.9270590924
 40
0.9528485858
 40
0.9771824451
 40
1.0
 40
1.0
 40
1.0
 40
1.0
 10
12.9121412747
 20
8.8641566974
 30
0.0
 10
12.9135114728
 20
8.8592629522
 30
0.0
 10
12.9161334682
 20
8.8490909497
 30
0.0
 10
12.9196363059
 20
8.8332251026
 30
0.0
 10
12.9228256567
 20
8.8163050626
 30
0.0
 10
12.9256897606
 20
8.7983913845
 30
0.0
 10
12.9282181425
 20
8.7795478577
 30
0.0
 10
12.930401527
 20
8.7598418593
 30
0.0
 10
12.9322319108
 20
8.7393438995
 30
0.0
 10
12.93370258
 20
8.7181274002
 30
0.0
 10
12.9348081347
 20
8.6962684005
 30
0.0
 10
12.9355445057
 20
8.6738452779
 30
0.0
 10
12.9359089669
 20
8.6509384573
 30
0.0
 10
12.935900143
 20
8.627630117
 30
0.0
 10
12.9355180128
 20
8.6040038889
 30
0.0
 10
12.9347639082
 20
8.5801445549
 30
0.0
 10
12.9336405081
 20
8.5561377397
 30
0.0
 10
12.9321518282
 20
8.532069601
 30
0.0
 10
12.9303032059
 20
8.5080265177
 30
0.0
 10
12.9281012812
 20
8.4840947783
 30
0.0
 10
12.9255539725
 20
8.4603602687
 30
0.0
 10
12.9226704484
 20
8.4369081617
 30
0.0
 10
12.9194610956
 20
8.413822609
 30
0.0
 10
12.9159374817
 20
8.3911864357
 30
0.0
 10
12.9121123147
 20
8.3690808397
 30
0.0
 10
12.9079993988
 20
8.3475850952
 30
0.0
 10
12.9036135852
 20
8.3267762625
 30
0.0
 10
12.8989707203
 20
8.3067289019
 30
0.0
 10
12.8940875906
 20
8.2875147992
 30
0.0
 10
12.8889818578
 20
8.2692026781
 30
0.0
 10
12.8836720101
 20
8.2518579832
 30
0.0
 10
12.878177231
 20
8.2355424383
 30
0.0
 10
12.8725175214
 20
8.2203143898
 30
0.0
 10
12.8685163
 20
8.2106033502
 30
0.0
 10
12.866483589
 20
8.205946445
 30
0.0
  0
SPLINE
  5
388
100
AcDbEntity
  8
0
100
AcDbSpline
 62
7
  6
CONTINUOUS
 70
0
 71
3
 72
39
 73
35
 74
0
 42
0.0000001
 43
0.0000001
 44
0.0000000001
 40
0.0
 40
0.0
 40
0.0
 40
0.0
 40
0.0314026134
 40
0.06300949
 40
0.0948071102
 40
0.1267734453
 40
0.1588809722
 40
0.1910970226
 40
0.2233851132
 40
0.2557062446
 40
0.2880202663
 40
0.3202872751
 40
0.3524690067
 40
0.384530184
 40
0.4164397927
 40
0.448172249
 40
0.4797084083
 40
0.5110363809
 40
0.5421521201
 40
0.5730597413
 40
0.6037715194
 40
0.6343075569
 40
0.6646951118
 40
0.6949675896
 40
0.7251632184
 40
0.755323478
 40
0.7854913548
 40
0.8157095105
 40
0.8460184691
 40
0.8764549222
 40
0.9070502335
 40
0.9378293335
 40
0.9688091139
 40
1.0
 40
1.0
 40
1.0
 40
1.0
 10
9.9648727045
 20
7.5983245609
 30
0.0
 10
9.9691844402
 20
7.598025541
 30
0.0
 10
9.9778122157
 20
7.5970006435
 30
0.0
 10
9.9905800067
 20
7.5942170225
 30
0.0
 10
10.0031003167
 20
7.5902089392
 30
0.0
 10
10.0152513534
 20
7.5850152357
 30
0.0
 10
10.0269168996
 20
7.5786860833
 30
0.0
 10
10.0379849401
 20
7.5712824836
 30
0.0
 10
10.0483493391
 20
7.5628756635
 30
0.0
 10
10.0579106461
 20
7.5535463912
 30
0.0
 10
10.0665770759
 20
7.5433842194
 30
0.0
 10
10.0742654181
 20
7.5324866883
 30
0.0
 10
10.0809017757
 20
7.5209583518
 30
0.0
 10
10.0864222575
 20
7.5089098013
 30
0.0
 10
10.090773584
 20
7.4964566352
 30
0.0
 10
10.0939136721
 20
7.4837183992
 30
0.0
 10
10.0958119788
 20
7.4708174336
 30
0.0
 10
10.0964498072
 20
7.4578777355
 30
0.0
 10
10.0958205114
 20
7.4450238017
 30
0.0
 10
10.0939296756
 20
7.432379447
 30
0.0
 10
10.0907950273
 20
7.4200666164
 30
0.0
 10
10.0864463167
 20
7.4082042177
 30
0.0
 10
10.0809250826
 20
7.3969069631
 30
0.0
 10
10.0742843668
 20
7.3862841869
 30
0.0
 10
10.0665881537
 20
7.3764387624
 30
0.0
 10
10.0579107625
 20
7.3674660574
 30
0.0
 10
10.0483361202
 20
7.3594529595
 30
0.0
 10
10.0379569591
 20
7.3524769236
 30
0.0
 10
10.0268738174
 20
7.3466052474
 30
0.0
 10
10.0151939676
 20
7.3418944287
 30
0.0
 10
10.0030304993
 20
7.3383896049
 30
0.0
 10
9.9905005952
 20
7.3361242093
 30
0.0
 10
9.9777267033
 20
7.3351193631
 30
0.0
 10
9.969155369
 20
7.3352957168
 30
0.0
 10
9.9648727045
 20
7.3355927206
 30
0.0
  0
SPLINE
  5
389
100
AcDbEntity
  8
0
100
AcDbSpline
 62
7
  6
CONTINUOUS
 70
0
 71
3
 72
55
 73
51
 74
0
 42
0.0000001
 43
0.0000001
 44
0.0000000001
 40
0.0
 40
0.0
 40
0.0
 40
0.0
 40
0.0090754007
 40
0.018681917
 40
0.0288201334
 40
0.0394879658
 40
0.0506809234
 40
0.0623925816
 40
0.0746146944
 40
0.0873374457
 40
0.1005496628
 40
0.1142388231
 40
0.1283913193
 40
0.1429924485
 40
0.1580265254
 40
0.1734770172
 40
0.1893264911
 40
0.2055568025
 40
0.2390831044
 40
0.2738979499
 40
0.3098335947
 40
0.3467146813
 40
0.3843595829
 40
0.4225816937
 40
0.4611906877
 40
0.4999937664
 40
0.5387969019
 40
0.5774060666
 40
0.6156284613
 40
0.6532737569
 40
0.690155345
 40
0.7260915963
 40
0.7609071504
 40
0.7944342578
 40
0.8106650028
 40
0.8265149366
 40
0.8419659064
 40
0.8570004814
 40
0.8716021306
 40
0.8857551593
 40
0.899444874
 40
0.9126576583
 40
0.9253809899
 40
0.9376036991
 40
0.9493159581
 40
0.9605095326
 40
0.9711779833
 40
0.981316816
 40
0.9909239745
 40
1.0
 40
1.0
 40
1.0
 40
1.0
 10
12.9428792392
 20
8.9410528825
 30
0.0
 10
12.9440068863
 20
8.9387911229
 30
0.0
 10
12.9462224656
 20
8.9340820124
 30
0.0
 10
12.9493518336
 20
8.9266896848
 30
0.0
 10
12.9523775238
 20
8.9187777196
 30
0.0
 10
12.9552954122
 20
8.9103566277
 30
0.0
 10
12.9581017161
 20
8.9014374056
 30
0.0
 10
12.9607926399
 20
8.8920318043
 30
0.0
 10
12.9633646046
 20
8.8821522441
 30
0.0
 10
12.9658141773
 20
8.871811804
 30
0.0
 10
12.9681380289
 20
8.861024191
 30
0.0
 10
12.970333085
 20
8.8498037315
 30
0.0
 10
12.9723963614
 20
8.8381653364
 30
0.0
 10
12.9743250921
 20
8.8261244866
 30
0.0
 10
12.9761167051
 20
8.8136972055
 30
0.0
 10
12.9777687463
 20
8.8009000446
 30
0.0
 10
12.9792790608
 20
8.7877500313
 30
0.0
 10
12.9811209007
 20
8.7695729441
 30
0.0
 10
12.9830422337
 20
8.7460977192
 30
0.0
 10
12.9847315855
 20
8.7171059429
 30
0.0
 10
12.98581938
 20
8.6871506084
 30
0.0
 10
12.9862996194
 20
8.6563913771
 30
0.0
 10
12.9861695302
 20
8.6249920545
 30
0.0
 10
12.985429659
 20
8.5931199577
 30
0.0
 10
12.984083845
 20
8.5609449388
 30
0.0
 10
12.982139209
 20
8.5286384858
 30
0.0
 10
12.9796060979
 20
8.4963727929
 30
0.0
 10
12.9764980316
 20
8.4643198343
 30
0.0
 10
12.972831628
 20
8.4326504404
 30
0.0
 10
12.9686265262
 20
8.4015333691
 30
0.0
 10
12.9639052799
 20
8.3711344135
 30
0.0
 10
12.9586932463
 20
8.34161543
 30
0.0
 10
12.9530184031
 20
8.3131337263
 30
0.0
 10
12.9478752359
 20
8.2901478376
 30
0.0
 10
12.9435420811
 20
8.2723984733
 30
0.0
 10
12.9402311543
 20
8.2595823985
 30
0.0
 10
12.9368285554
 20
8.2471353423
 30
0.0
 10
12.9333387726
 20
8.2350738719
 30
0.0
 10
12.9297665241
 20
8.2234140418
 30
0.0
 10
12.9261165599
 20
8.2121713692
 30
0.0
 10
12.922393768
 20
8.2013608034
 30
0.0
 10
12.9186031531
 20
8.1909967029
 30
0.0
 10
12.9147497399
 20
8.1810928334
 30
0.0
 10
12.9108387234
 20
8.1716623103
 30
0.0
 10
12.9068752971
 20
8.1627176169
 30
0.0
 10
12.9028647326
 20
8.1542705584
 30
0.0
 10
12.8988124045
 20
8.1463322535
 30
0.0
 10
12.8947235768
 20
8.1389130667
 30
0.0
 10
12.8906037861
 20
8.1320228423
 30
0.0
 10
12.8877594002
 20
8.127664213
 30
0.0
 10
12.8863303547
 20
8.1255795421
 30
0.0
  0
SPLINE
  5
38A
100
AcDbEntity
  8
0
100
AcDbSpline
 62
7
  6
CONTINUOUS
 70
0
 71
3
 72
81
 73
77
 74
0
 42
0.0000001
 43
0.0000001
 44
0.0000000001
 40
0.0
 40
0.0
 40
0.0
 40
0.0
 40
0.0028240138
 40
0.0056048815
 40
0.008363746
 40
0.0111222987
 40
0.0139022408
 40
0.0167247316
 40
0.0196099107
 40
0.0225765228
 40
0.0288165364
 40
0.032122739
 40
0.0355679634
 40
0.0391623377
 40
0.0429144357
 40
0.0468315318
 40
0.050919672
 40
0.0551838183
 40
0.0596280466
 40
0.0642555357
 40
0.0690687798
 40
0.0740696245
 40
0.0792592999
 40
0.0846385935
 40
0.0902077746
 40
0.1019143841
 40
0.1143746682
 40
0.1275785076
 40
0.1415116318
 40
0.1561561823
 40
0.1714911946
 40
0.1874929715
 40
0.2041353766
 40
0.2213900623
 40
0.2392266818
 40
0.2576130935
 40
0.2765155241
 40
0.2958987097
 40
0.3157260223
 40
0.3359596192
 40
0.3565605708
 40
0.3774889767
 40
0.3987040719
 40
0.4418269
 40
0.485590978
 40
0.5296508901
 40
0.5736582541
 40
0.6172652071
 40
0.6601279314
 40
0.6811751434
 40
0.7019110022
 40
0.7222952514
 40
0.7422885558
 40
0.7618526191
 40
0.7809503245
 40
0.799545857
 40
0.8176048283
 40
0.8350944194
 40
0.8519835515
 40
0.8682430742
 40
0.8838459438
 40
0.8987674503
 40
0.912985496
 40
0.9264809563
 40
0.9392380817
 40
0.9512450084
 40
0.956964983
 40
0.9624951481
 40
0.9678354378
 40
0.9729862428
 40
0.9779483905
 40
0.9827232324
 40
0.9873128547
 40
0.9917199393
 40
0.9959477
 40
1.0
 40
1.0
 40
1.0
 40
1.0
 10
12.9981283704
 20
9.0000200335
 30
0.0
 10
12.9990364185
 20
9.0002053912
 30
0.0
 10
13.0008553694
 20
9.0004968628
 30
0.0
 10
13.003597083
 20
9.0006879909
 30
0.0
 10
13.0063236128
 20
9.0006284574
 30
0.0
 10
13.009032736
 20
9.00031827
 30
0.0
 10
13.0117225621
 20
8.999757609
 30
0.0
 10
13.0143911999
 20
8.9989471843
 30
0.0
 10
13.0170371028
 20
8.9978877019
 30
0.0
 10
13.0205914361
 20
8.9961150529
 30
0.0
 10
13.0240406187
 20
8.9938556186
 30
0.0
 10
13.0273632039
 20
8.9911813761
 30
0.0
 10
13.029874673
 20
8.9888933024
 30
0.0
 10
13.0323553642
 20
8.986363375
 30
0.0
 10
13.0348046041
 20
8.9835927922
 30
0.0
 10
13.0372210922
 20
8.9805830447
 30
0.0
 10
13.0396037219
 20
8.9773356932
 30
0.0
 10
13.0419513656
 20
8.9738524407
 30
0.0
 10
13.0442628024
 20
8.9701350455
 30
0.0
 10
13.0465369362
 20
8.966185459
 30
0.0
 10
13.048772585
 20
8.9620057053
 30
0.0
 10
13.0509685913
 20
8.9575979435
 30
0.0
 10
13.0531238644
 20
8.9529644803
 30
0.0
 10
13.0552372554
 20
8.9481076958
 30
0.0
 10
13.0580446058
 20
8.9412226282
 30
0.0
 10
13.0614296483
 20
8.9320666525
 30
0.0
 10
13.0652430033
 20
8.9204077853
 30
0.0
 10
13.0688643814
 20
8.9079253935
 30
0.0
 10
13.0722861073
 20
8.8946455915
 30
0.0
 10
13.0755009136
 20
8.8805960006
 30
0.0
 10
13.078501951
 20
8.8658060267
 30
0.0
 10
13.0812828139
 20
8.8503066641
 30
0.0
 10
13.0838375566
 20
8.834130451
 30
0.0
 10
13.0861607218
 20
8.8173113915
 30
0.0
 10
13.0882473547
 20
8.7998848775
 30
0.0
 10
13.0900929978
 20
8.7818875988
 30
0.0
 10
13.0916937054
 20
8.7633574595
 30
0.0
 10
13.0930460499
 20
8.7443335024
 30
0.0
 10
13.0941471472
 20
8.7248558271
 30
0.0
 10
13.0949946454
 20
8.7049654955
 30
0.0
 10
13.0955867201
 20
8.6847044531
 30
0.0
 10
13.0959221171
 20
8.6641153881
 30
0.0
 10
13.0960265367
 20
8.6361326224
 30
0.0
 10
13.0955048818
 20
8.6006562447
 30
0.0
 10
13.0938627455
 20
8.5577102862
 30
0.0
 10
13.0912144785
 20
8.5145237197
 30
0.0
 10
13.0875824207
 20
8.4714604777
 30
0.0
 10
13.0829971885
 20
8.4288834543
 30
0.0
 10
13.0783869711
 20
8.3938976322
 30
0.0
 10
13.0742429347
 20
8.3664291352
 30
0.0
 10
13.0709419157
 20
8.34629554
 30
0.0
 10
13.0674362265
 20
8.3265477506
 30
0.0
 10
13.0637332533
 20
8.3072273748
 30
0.0
 10
13.0598408366
 20
8.2883751523
 30
0.0
 10
13.0557672212
 20
8.2700308127
 30
0.0
 10
13.0515210406
 20
8.2522330035
 30
0.0
 10
13.0471112918
 20
8.2350192114
 30
0.0
 10
13.042547316
 20
8.2184256814
 30
0.0
 10
13.0378387848
 20
8.202487328
 30
0.0
 10
13.032995688
 20
8.1872376508
 30
0.0
 10
13.028028294
 20
8.1727086696
 30
0.0
 10
13.0229471286
 20
8.1589308453
 30
0.0
 10
13.0177629436
 20
8.1459330278
 30
0.0
 10
13.0124866991
 20
8.1337422661
 30
0.0
 10
13.007129535
 20
8.1223840822
 30
0.0
 10
13.0025358565
 20
8.1134938348
 30
0.0
 10
12.9988211623
 20
8.1068258072
 30
0.0
 10
12.9960670798
 20
8.1021286031
 30
0.0
 10
12.9933011965
 20
8.0976564977
 30
0.0
 10
12.9905249635
 20
8.0934118119
 30
0.0
 10
12.9877398508
 20
8.0893967529
 30
0.0
 10
12.9849472324
 20
8.0856134116
 30
0.0
 10
12.9821485541
 20
8.0820636818
 30
0.0
 10
12.9793451564
 20
8.0787494122
 30
0.0
 10
12.976538662
 20
8.0756724865
 30
0.0
 10
12.9746267321
 20
8.0737402223
 30
0.0
 10
12.973670219
 20
8.0728163015
 30
0.0
  0
SPLINE
  5
38B
100
AcDbEntity
  8
0
100
AcDbSpline
 62
7
  6
CONTINUOUS
 70
0
 71
3
 72
83
 73
79
 74
0
 42
0.0000001
 43
0.0000001
 44
0.0000000001
 40
0.0
 40
0.0
 40
0.0
 40
0.0
 40
0.0028619825
 40
0.0058136913
 40
0.0088683181
 40
0.0120376163
 40
0.0153318807
 40
0.0187600704
 40
0.0223299103
 40
0.0260479592
 40
0.0299198021
 40
0.0339500752
 40
0.038142624
 40
0.0425005885
 40
0.047026433
 40
0.0517221069
 40
0.0565890098
 40
0.0616281123
 40
0.0668399918
 40
0.0722248228
 40
0.0777825026
 40
0.0835125828
 40
0.0954864725
 40
0.1081384899
 40
0.1214566957
 40
0.1354261987
 40
0.1500295123
 40
0.1652468454
 40
0.181056354
 40
0.197434343
 40
0.2143554357
 40
0.231792717
 40
0.2497178641
 40
0.2681012778
 40
0.2869121942
 40
0.3061187877
 40
0.3256882652
 40
0.3455869597
 40
0.3657804303
 40
0.3862335511
 40
0.4069105983
 40
0.4277753333
 40
0.4699202175
 40
0.5123719542
 40
0.554830867
 40
0.5969972165
 40
0.6178779855
 40
0.6385745556
 40
0.6590506451
 40
0.6792704772
 40
0.6991988641
 40
0.718801294
 40
0.7380440225
 40
0.7568941716
 40
0.7753198187
 40
0.7932900922
 40
0.8107752748
 40
0.8277469175
 40
0.8441779688
 40
0.8600428981
 40
0.8753178403
 40
0.8899807637
 40
0.9040116722
 40
0.9173928521
 40
0.9301091481
 40
0.9421483189
 40
0.9479113003
 40
0.9535019991
 40
0.9589199048
 40
0.9641648595
 40
0.9692369872
 40
0.9741367703
 40
0.9788650894
 40
0.9834232404
 40
0.9878131398
 40
0.9920372272
 40
0.9960983827
 40
1.0
 40
1.0
 40
1.0
 40
1.0
 10
13.0352640672
 20
9.1931645255
 30
0.0
 10
13.0364522001
 20
9.1926258768
 30
0.0
 10
13.0388238426
 20
9.1914370771
 30
0.0
 10
13.0422991798
 20
9.1893664227
 30
0.0
 10
13.0457409085
 20
9.1869847445
 30
0.0
 10
13.0491472323
 20
9.184293478
 30
0.0
 10
13.0525168864
 20
9.1812941009
 30
0.0
 10
13.0558484659
 20
9.1779881364
 30
0.0
 10
13.0591405664
 20
9.174377168
 30
0.0
 10
13.0623918756
 20
9.1704629642
 30
0.0
 10
13.065600935
 20
9.1662473017
 30
0.0
 10
13.068766404
 20
9.1617321719
 30
0.0
 10
13.0718868776
 20
9.1569196503
 30
0.0
 10
13.0749609282
 20
9.1518119425
 30
0.0
 10
13.0779872301
 20
9.1464114361
 30
0.0
 10
13.0809643343
 20
9.1407205987
 30
0.0
 10
13.0838909216
 20
9.134742089
 30
0.0
 10
13.0867656274
 20
9.1284786772
 30
0.0
 10
13.0895870895
 20
9.1219332687
 30
0.0
 10
13.0923540405
 20
9.1151089323
 30
0.0
 10
13.0950651536
 20
9.1080088255
 30
0.0
 10
13.0986565783
 20
9.0980320283
 30
0.0
 10
13.1029845161
 20
9.084886464
 30
0.0
 10
13.1078625669
 20
9.0682905088
 30
0.0
 10
13.1124891914
 20
9.050680733
 30
0.0
 10
13.1168556201
 20
9.0320901369
 30
0.0
 10
13.120953551
 20
9.0125533857
 30
0.0
 10
13.1247751938
 20
8.9921070726
 30
0.0
 10
13.1283132724
 20
8.9707895284
 30
0.0
 10
13.1315610482
 20
8.9486407633
 30
0.0
 10
13.1345123308
 20
8.9257023784
 30
0.0
 10
13.1371614966
 20
8.9020174898
 30
0.0
 10
13.1395035054
 20
8.8776306417
 30
0.0
 10
13.1415338965
 20
8.8525877139
 30
0.0
 10
13.1432488006
 20
8.8269358288
 30
0.0
 10
13.1446449442
 20
8.8007232642
 30
0.0
 10
13.145719661
 20
8.7739993636
 30
0.0
 10
13.1464709016
 20
8.7468144435
 30
0.0
 10
13.1468972282
 20
8.7192196889
 30
0.0
 10
13.1469978086
 20
8.6912670719
 30
0.0
 10
13.1467724561
 20
8.6630091879
 30
0.0
 10
13.1460353882
 20
8.6248700922
 30
0.0
 10
13.1443001229
 20
8.5768264076
 30
0.0
 10
13.1409485343
 20
8.5190053378
 30
0.0
 10
13.1363456484
 20
8.4612605893
 30
0.0
 10
13.1314807067
 20
8.4134119031
 30
0.0
 10
13.1269837757
 20
8.3755055054
 30
0.0
 10
13.1233335641
 20
8.3474565647
 30
0.0
 10
13.1194019928
 20
8.3197499396
 30
0.0
 10
13.1151964547
 20
8.2924377631
 30
0.0
 10
13.1107248989
 20
8.2655714729
 30
0.0
 10
13.1059957657
 20
8.239201652
 30
0.0
 10
13.1010179859
 20
8.2133779463
 30
0.0
 10
13.09580097
 20
8.188148961
 30
0.0
 10
13.0903545796
 20
8.1635621728
 30
0.0
 10
13.0846891109
 20
8.1396638423
 30
0.0
 10
13.0788152742
 20
8.1164989252
 30
0.0
 10
13.0727441745
 20
8.0941109801
 30
0.0
 10
13.0664873015
 20
8.0725420778
 30
0.0
 10
13.060056494
 20
8.0518327212
 30
0.0
 10
13.0534639189
 20
8.0320217716
 30
0.0
 10
13.0467220442
 20
8.0131463597
 30
0.0
 10
13.0398436123
 20
7.9952418284
 30
0.0
 10
13.0328416141
 20
7.9783415475
 30
0.0
 10
13.0257292672
 20
7.9624771802
 30
0.0
 10
13.0196359983
 20
7.9499686709
 30
0.0
 10
13.0147074383
 20
7.9405126814
 30
0.0
 10
13.0110457005
 20
7.9338014141
 30
0.0
 10
13.0073663953
 20
7.9273704007
 30
0.0
 10
13.0036712636
 20
7.9212226111
 30
0.0
 10
12.9999620026
 20
7.9153609257
 30
0.0
 10
12.9962403397
 20
7.9097880846
 30
0.0
 10
12.9925080556
 20
7.9045066647
 30
0.0
 10
12.9887667973
 20
7.8995191326
 30
0.0
 10
12.9850182912
 20
7.8948277305
 30
0.0
 10
12.9812641562
 20
7.8904346244
 30
0.0
 10
12.9775063084
 20
7.8863420507
 30
0.0
 10
12.9749493495
 20
7.8837644477
 30
0.0
 10
12.973670219
 20
7.8825289025
 30
0.0
  0
SPLINE
  5
38C
100
AcDbEntity
  8
0
100
AcDbSpline
 62
7
  6
CONTINUOUS
 70
0
 71
3
 72
88
 73
84
 74
0
 42
0.0000001
 43
0.0000001
 44
0.0000000001
 40
0.0
 40
0.0
 40
0.0
 40
0.0
 40
0.0027164206
 40
0.0054532135
 40
0.00823027
 40
0.0110665466
 40
0.0139797362
 40
0.0169860264
 40
0.0200999638
 40
0.0233344621
 40
0.0267007864
 40
0.030208716
 40
0.033866602
 40
0.0376815365
 40
0.0416594862
 40
0.0458053757
 40
0.0501232805
 40
0.0546164357
 40
0.0592874172
 40
0.0641381604
 40
0.0691700473
 40
0.0743839976
 40
0.0797804461
 40
0.085359486
 40
0.0911208072
 40
0.097063806
 40
0.1031875785
 40
0.1094909314
 40
0.1226301057
 40
0.1364676988
 40
0.1509864378
 40
0.1661662591
 40
0.1819846247
 40
0.1984167804
 40
0.2154359739
 40
0.2330136371
 40
0.2511195505
 40
0.2697219952
 40
0.2887878869
 40
0.3082829001
 40
0.3281715858
 40
0.3484174815
 40
0.3689832185
 40
0.3898306305
 40
0.410920857
 40
0.4322144439
 40
0.4536714439
 40
0.4969133241
 40
0.5403214886
 40
0.5835686279
 40
0.6050302166
 40
0.6263296837
 40
0.6474270673
 40
0.6682828961
 40
0.6888582896
 40
0.7091150586
 40
0.7290158075
 40
0.7485240405
 40
0.7676042737
 40
0.7862221443
 40
0.8043445271
 40
0.8219396585
 40
0.8389772699
 40
0.8554287349
 40
0.8712672375
 40
0.8864679574
 40
0.9010082824
 40
0.9148680665
 40
0.9280299429
 40
0.9343448017
 40
0.9404801679
 40
0.9464348204
 40
0.9522078552
 40
0.9577986253
 40
0.9632068219
 40
0.9684325067
 40
0.9734760906
 40
0.9783384494
 40
0.9830208978
 40
0.9875254123
 40
0.9918545974
 40
0.9960115688
 40
1.0
 40
1.0
 40
1.0
 40
1.0
 10
13.0508983161
 20
9.1949685276
 30
0.0
 10
13.052147856
 20
9.1948818758
 30
0.0
 10
13.0546499069
 20
9.1945948146
 30
0.0
 10
13.058371143
 20
9.1938267113
 30
0.0
 10
13.0620642388
 20
9.192721098
 30
0.0
 10
13.0657265946
 20
9.1912791554
 30
0.0
 10
13.0693562969
 20
9.1895021003
 30
0.0
 10
13.0729514817
 20
9.1873913326
 30
0.0
 10
13.0765105266
 20
9.1849483971
 30
0.0
 10
13.080031788
 20
9.1821747663
 30
0.0
 10
13.0835138187
 20
9.1790721446
 30
0.0
 10
13.0869550504
 20
9.1756421572
 30
0.0
 10
13.0903540225
 20
9.1718866356
 30
0.0
 10
13.093709222
 20
9.167807475
 30
0.0
 10
13.0970190958
 20
9.16340669
 30
0.0
 10
13.1002821788
 20
9.1586864915
 30
0.0
 10
13.1034968612
 20
9.153649161
 30
0.0
 10
13.1066616835
 20
9.1482972152
 30
0.0
 10
13.1097750689
 20
9.1426332663
 30
0.0
 10
13.1128355181
 20
9.1366601197
 30
0.0
 10
13.1158415465
 20
9.1303807343
 30
0.0
 10
13.1187916213
 20
9.123798209
 30
0.0
 10
13.1216843427
 20
9.1169158322
 30
0.0
 10
13.1245182033
 20
9.1097370116
 30
0.0
 10
13.1272918394
 20
9.1022653384
 30
0.0
 10
13.1300038294
 20
9.0945045384
 30
0.0
 10
13.1326528353
 20
9.0864584797
 30
0.0
 10
13.1361474784
 20
9.0751992519
 30
0.0
 10
13.1403364034
 20
9.0604338238
 30
0.0
 10
13.1450245486
 20
9.0418811192
 30
0.0
 10
13.1494316116
 20
9.0222941672
 30
0.0
 10
13.1535486567
 20
9.0017122377
 30
0.0
 10
13.1573673041
 20
8.9801764342
 30
0.0
 10
13.1608797835
 20
8.9577298971
 30
0.0
 10
13.1640789422
 20
8.9344176202
 30
0.0
 10
13.1669582681
 20
8.9102863789
 30
0.0
 10
13.1695119026
 20
8.8853846209
 30
0.0
 10
13.1717346477
 20
8.8597623633
 30
0.0
 10
13.1736219777
 20
8.8334710854
 30
0.0
 10
13.1751700472
 20
8.8065636232
 30
0.0
 10
13.1763756984
 20
8.7790940614
 30
0.0
 10
13.1772364674
 20
8.7511176244
 30
0.0
 10
13.1777505932
 20
8.722690565
 30
0.0
 10
13.1779170179
 20
8.6938700434
 30
0.0
 10
13.1777353772
 20
8.6647140299
 30
0.0
 10
13.1772060445
 20
8.6352811101
 30
0.0
 10
13.1760349681
 20
8.5956465848
 30
0.0
 10
13.1737097051
 20
8.5458480396
 30
0.0
 10
13.1695762951
 20
8.4860905424
 30
0.0
 10
13.1650228356
 20
8.4364415694
 30
0.0
 10
13.1607254403
 20
8.3970160125
 30
0.0
 10
13.1571968545
 20
8.3677823918
 30
0.0
 10
13.1533618884
 20
8.338869141
 30
0.0
 10
13.1492282402
 20
8.3103343588
 30
0.0
 10
13.144804254
 20
8.282235436
 30
0.0
 10
13.1400988498
 20
8.2546288685
 30
0.0
 10
13.1351215198
 20
8.2275701617
 30
0.0
 10
13.1298823057
 20
8.2011137109
 30
0.0
 10
13.1243917851
 20
8.1753126894
 30
0.0
 10
13.1186610444
 20
8.1502189402
 30
0.0
 10
13.1127016574
 20
8.1258828718
 30
0.0
 10
13.1065256621
 20
8.1023533542
 30
0.0
 10
13.1001455365
 20
8.079677617
 30
0.0
 10
13.0935741716
 20
8.0579011489
 30
0.0
 10
13.0868248491
 20
8.0370675891
 30
0.0
 10
13.0799112103
 20
8.0172186559
 30
0.0
 10
13.0728472195
 20
7.9983939678
 30
0.0
 10
13.0656471371
 20
7.9806312525
 30
0.0
 10
13.0594634348
 20
7.9665555534
 30
0.0
 10
13.0544504748
 20
7.9558620364
 30
0.0
 10
13.050717729
 20
7.9482400546
 30
0.0
 10
13.0469618381
 20
7.9409090618
 30
0.0
 10
13.0431847053
 20
7.9338726993
 30
0.0
 10
13.0393882035
 20
7.9271344882
 30
0.0
 10
13.0355742217
 20
7.920697787
 30
0.0
 10
13.0317446886
 20
7.9145657829
 30
0.0
 10
13.0279014537
 20
7.9087415554
 30
0.0
 10
13.0240465016
 20
7.9032279718
 30
0.0
 10
13.0201816669
 20
7.8980277787
 30
0.0
 10
13.0163088356
 20
7.8931434956
 30
0.0
 10
13.0124298111
 20
7.8885774994
 30
0.0
 10
13.0085466599
 20
7.884332269
 30
0.0
 10
13.0059026036
 20
7.8816629963
 30
0.0
 10
13.004579848
 20
7.8803853124
 30
0.0
  0
SPLINE
  5
38D
100
AcDbEntity
  8
0
100
AcDbSpline
 62
7
  6
CONTINUOUS
 70
0
 71
3
 72
42
 73
38
 74
0
 42
0.0000001
 43
0.0000001
 44
0.0000000001
 40
0.0
 40
0.0
 40
0.0
 40
0.0
 40
0.0299419663
 40
0.0449235352
 40
0.0599142051
 40
0.0899287052
 40
0.1200139767
 40
0.135092661
 40
0.150196701
 40
0.1804840414
 40
0.210897872
 40
0.2414513324
 40
0.2721543376
 40
0.3030133986
 40
0.3340315263
 40
0.3652082187
 40
0.3965395244
 40
0.4280181782
 40
0.4596338019
 40
0.4913731609
 40
0.5232204716
 40
0.55515775
 40
0.5871651943
 40
0.6192215961
 40
0.6513047701
 40
0.6833919991
 40
0.7154604852
 40
0.7474878032
 40
0.7794523473
 40
0.8113337692
 40
0.8431133916
 40
0.8747746171
 40
0.9063032365
 40
0.9376879249
 40
0.9533258257
 40
0.968925233
 40
1.0
 40
1.0
 40
1.0
 40
1.0
 10
11.5350013615
 20
8.1470869944
 30
0.0
 10
11.5313682244
 20
8.1435776529
 30
0.0
 10
11.5257043892
 20
8.1385262558
 30
0.0
 10
11.5177722762
 20
8.1322586043
 30
0.0
 10
11.5095875823
 20
8.1263028142
 30
0.0
 10
11.4989078835
 20
8.119463646
 30
0.0
 10
11.4877089185
 20
8.1134813617
 30
0.0
 10
11.4784726934
 20
8.1092255041
 30
0.0
 10
11.4690456397
 20
8.1053210425
 30
0.0
 10
11.4569511816
 20
8.1011225751
 30
0.0
 10
11.4420465767
 20
8.0972097166
 30
0.0
 10
11.4268167482
 20
8.0944377316
 30
0.0
 10
11.4113460938
 20
8.0928219227
 30
0.0
 10
11.3957195982
 20
8.0923709105
 30
0.0
 10
11.3800232429
 20
8.0930869915
 30
0.0
 10
11.3643432989
 20
8.0949660291
 30
0.0
 10
11.3487659209
 20
8.0979975147
 30
0.0
 10
11.3333766623
 20
8.1021646242
 30
0.0
 10
11.3182600161
 20
8.1074443183
 30
0.0
 10
11.3034989567
 20
8.113807472
 30
0.0
 10
11.2891744906
 20
8.1212190372
 30
0.0
 10
11.2753652182
 20
8.1296382342
 30
0.0
 10
11.2621469079
 20
8.1390187772
 30
0.0
 10
11.2495920862
 20
8.1493091269
 30
0.0
 10
11.237769644
 20
8.1604527714
 30
0.0
 10
11.2267444632
 20
8.172388534
 30
0.0
 10
11.2165770643
 20
8.1850509053
 30
0.0
 10
11.2073232776
 20
8.1983704003
 30
0.0
 10
11.1990339392
 20
8.2122739313
 30
0.0
 10
11.1917546141
 20
8.2266852203
 30
0.0
 10
11.1855253485
 20
8.2415251526
 30
0.0
 10
11.180380441
 20
8.2567124252
 30
0.0
 10
11.1763483089
 20
8.2721631758
 30
0.0
 10
11.1739309602
 20
8.2852052899
 30
0.0
 10
11.1725748949
 20
8.2956844619
 30
0.0
 10
11.1716071066
 20
8.3061536089
 30
0.0
 10
11.1713140704
 20
8.3140315679
 30
0.0
 10
11.1713140704
 20
8.3192739266
 30
0.0
  0
SPLINE
  5
38E
100
AcDbEntity
  8
0
100
AcDbSpline
 62
7
  6
CONTINUOUS
 70
0
 71
3
 72
42
 73
38
 74
0
 42
0.0000001
 43
0.0000001
 44
0.0000000001
 40
0.0
 40
0.0
 40
0.0
 40
0.0
 40
0.0299419663
 40
0.0449235352
 40
0.0599142051
 40
0.0899287052
 40
0.1200139767
 40
0.135092661
 40
0.150196701
 40
0.1804840414
 40
0.210897872
 40
0.2414513324
 40
0.2721543376
 40
0.3030133986
 40
0.3340315263
 40
0.3652082187
 40
0.3965395244
 40
0.4280181782
 40
0.4596338019
 40
0.4913731609
 40
0.5232204716
 40
0.55515775
 40
0.5871651943
 40
0.6192215961
 40
0.6513047701
 40
0.6833919991
 40
0.7154604852
 40
0.7474878032
 40
0.7794523473
 40
0.8113337692
 40
0.8431133916
 40
0.8747746171
 40
0.9063032365
 40
0.9376879249
 40
0.9533258257
 40
0.968925233
 40
1.0
 40
1.0
 40
1.0
 40
1.0
 10
11.1428355504
 20
8.748043628
 30
0.0
 10
11.1392024133
 20
8.7445342864
 30
0.0
 10
11.1335385782
 20
8.7394828894
 30
0.0
 10
11.1256064651
 20
8.7332152379
 30
0.0
 10
11.1174217712
 20
8.7272594478
 30
0.0
 10
11.1067420725
 20
8.7204202796
 30
0.0
 10
11.0955431074
 20
8.7144379952
 30
0.0
 10
11.0863068824
 20
8.7101821376
 30
0.0
 10
11.0768798286
 20
8.7062776761
 30
0.0
 10
11.0647853706
 20
8.7020792086
 30
0.0
 10
11.0498807656
 20
8.6981663501
 30
0.0
 10
11.0346509371
 20
8.6953943651
 30
0.0
 10
11.0191802827
 20
8.6937785562
 30
0.0
 10
11.0035537872
 20
8.6933275441
 30
0.0
 10
10.9878574319
 20
8.694043625
 30
0.0
 10
10.9721774879
 20
8.6959226627
 30
0.0
 10
10.9566001099
 20
8.6989541482
 30
0.0
 10
10.9412108513
 20
8.7031212577
 30
0.0
 10
10.9260942051
 20
8.7084009518
 30
0.0
 10
10.9113331456
 20
8.7147641056
 30
0.0
 10
10.8970086795
 20
8.7221756707
 30
0.0
 10
10.8831994071
 20
8.7305948677
 30
0.0
 10
10.8699810969
 20
8.7399754107
 30
0.0
 10
10.8574262751
 20
8.7502657604
 30
0.0
 10
10.8456038329
 20
8.7614094049
 30
0.0
 10
10.8345786521
 20
8.7733451675
 30
0.0
 10
10.8244112533
 20
8.7860075388
 30
0.0
 10
10.8151574666
 20
8.7993270339
 30
0.0
 10
10.8068681281
 20
8.8132305649
 30
0.0
 10
10.799588803
 20
8.8276418538
 30
0.0
 10
10.7933595375
 20
8.8424817861
 30
0.0
 10
10.78821463
 20
8.8576690587
 30
0.0
 10
10.7841824979
 20
8.8731198093
 30
0.0
 10
10.7817651491
 20
8.8861619234
 30
0.0
 10
10.7804090839
 20
8.8966410954
 30
0.0
 10
10.7794412955
 20
8.9071102424
 30
0.0
 10
10.7791482594
 20
8.9149882014
 30
0.0
 10
10.7791482594
 20
8.9202305601
 30
0.0
  0
SPLINE
  5
38F
100
AcDbEntity
  8
0
100
AcDbSpline
 62
7
  6
CONTINUOUS
 70
0
 71
3
 72
15
 73
11
 74
0
 42
0.0000001
 43
0.0000001
 44
0.0000000001
 40
0.0
 40
0.0
 40
0.0
 40
0.0
 40
0.1273482936
 40
0.2538605366
 40
0.3795879111
 40
0.5046050899
 40
0.6290174366
 40
0.7529533732
 40
0.8765605776
 40
1.0
 40
1.0
 40
1.0
 40
1.0
 10
11.9139149318
 20
7.3380889036
 30
0.0
 10
11.9139149318
 20
7.341553679
 30
0.0
 10
11.9142457467
 20
7.3484652734
 30
0.0
 10
11.9157418336
 20
7.3586997348
 30
0.0
 10
11.9182225948
 20
7.3686770415
 30
0.0
 10
11.9216656275
 20
7.3783038857
 30
0.0
 10
11.9260393256
 20
7.3874914909
 30
0.0
 10
11.931303834
 20
7.3961550183
 30
0.0
 10
11.9374096641
 20
7.4042132787
 30
0.0
 10
11.9420070326
 20
7.4091357334
 30
0.0
 10
11.9444226063
 20
7.4114689782
 30
0.0
  0
SPLINE
  5
390
100
AcDbEntity
  8
0
100
AcDbSpline
 62
7
  6
CONTINUOUS
 70
0
 71
3
 72
23
 73
19
 74
0
 42
0.0000001
 43
0.0000001
 44
0.0000000001
 40
0.0
 40
0.0
 40
0.0
 40
0.0
 40
0.0614488807
 40
0.1232974294
 40
0.1855193177
 40
0.2480712672
 40
0.3108995318
 40
0.3739401513
 40
0.4371217414
 40
0.5003679843
 40
0.5636003151
 40
0.6267406524
 40
0.6897141172
 40
0.7524516838
 40
0.8148926113
 40
0.8769871451
 40
0.9386966623
 40
1.0
 40
1.0
 40
1.0
 40
1.0
 10
12.0225815937
 20
7.2218861831
 30
0.0
 10
12.0190149006
 20
7.2221335341
 30
0.0
 10
12.0118779557
 20
7.2229813325
 30
0.0
 10
12.0013163637
 20
7.2252839652
 30
0.0
 10
11.9909594905
 20
7.2285994772
 30
0.0
 10
11.9809080833
 20
7.232895747
 30
0.0
 10
11.9712582665
 20
7.2381312401
 30
0.0
 10
11.9621027161
 20
7.2442555397
 30
0.0
 10
11.9535292333
 20
7.2512097222
 30
0.0
 10
11.9456200737
 20
7.2589269604
 30
0.0
 10
11.9384511423
 20
7.2673331591
 30
0.0
 10
11.9320912883
 20
7.2763476539
 30
0.0
 10
11.9266016557
 20
7.2858839592
 30
0.0
 10
11.9220351023
 20
7.2958506142
 30
0.0
 10
11.9184356422
 20
7.3061518892
 30
0.0
 10
11.9158381677
 20
7.316689237
 30
0.0
 10
11.9142678353
 20
7.3273601383
 30
0.0
 10
11.9139149318
 20
7.334522112
 30
0.0
 10
11.9139149318
 20
7.3380889036
 30
0.0
  0
SPLINE
  5
391
100
AcDbEntity
  8
0
100
AcDbSpline
 62
7
  6
CONTINUOUS
 70
0
 71
3
 72
42
 73
38
 74
0
 42
0.0000001
 43
0.0000001
 44
0.0000000001
 40
0.0
 40
0.0
 40
0.0
 40
0.0
 40
0.0299419663
 40
0.0449235352
 40
0.0599142051
 40
0.0899287052
 40
0.1200139767
 40
0.135092661
 40
0.150196701
 40
0.1804840414
 40
0.210897872
 40
0.2414513324
 40
0.2721543376
 40
0.3030133986
 40
0.3340315263
 40
0.3652082187
 40
0.3965395244
 40
0.4280181782
 40
0.4596338019
 40
0.4913731609
 40
0.5232204716
 40
0.55515775
 40
0.5871651943
 40
0.6192215961
 40
0.6513047701
 40
0.6833919991
 40
0.7154604852
 40
0.7474878032
 40
0.7794523473
 40
0.8113337692
 40
0.8431133916
 40
0.8747746171
 40
0.9063032365
 40
0.9376879249
 40
0.9533258257
 40
0.968925233
 40
1.0
 40
1.0
 40
1.0
 40
1.0
 10
10.7506696242
 20
8.2014805852
 30
0.0
 10
10.7470364871
 20
8.1979712436
 30
0.0
 10
10.741372652
 20
8.1929198466
 30
0.0
 10
10.7334405389
 20
8.1866521951
 30
0.0
 10
10.725255845
 20
8.180696405
 30
0.0
 10
10.7145761463
 20
8.1738572368
 30
0.0
 10
10.7033771812
 20
8.1678749524
 30
0.0
 10
10.6941409562
 20
8.1636190948
 30
0.0
 10
10.6847139024
 20
8.1597146333
 30
0.0
 10
10.6726194444
 20
8.1555161658
 30
0.0
 10
10.6577148394
 20
8.1516033073
 30
0.0
 10
10.6424850109
 20
8.1488313223
 30
0.0
 10
10.6270143565
 20
8.1472155134
 30
0.0
 10
10.6113878609
 20
8.1467645013
 30
0.0
 10
10.5956915057
 20
8.1474805822
 30
0.0
 10
10.5800115617
 20
8.1493596199
 30
0.0
 10
10.5644341837
 20
8.1523911054
 30
0.0
 10
10.549044925
 20
8.1565582149
 30
0.0
 10
10.5339282789
 20
8.161837909
 30
0.0
 10
10.5191672194
 20
8.1682010628
 30
0.0
 10
10.5048427533
 20
8.1756126279
 30
0.0
 10
10.4910334809
 20
8.1840318249
 30
0.0
 10
10.4778151707
 20
8.1934123679
 30
0.0
 10
10.4652603489
 20
8.2037027176
 30
0.0
 10
10.4534379067
 20
8.2148463621
 30
0.0
 10
10.4424127259
 20
8.2267821247
 30
0.0
 10
10.432245327
 20
8.239444496
 30
0.0
 10
10.4229915404
 20
8.2527639911
 30
0.0
 10
10.4147022019
 20
8.2666675221
 30
0.0
 10
10.4074228768
 20
8.281078811
 30
0.0
 10
10.4011936113
 20
8.2959187433
 30
0.0
 10
10.3960487038
 20
8.3111060159
 30
0.0
 10
10.3920165717
 20
8.3265567665
 30
0.0
 10
10.3895992229
 20
8.3395988806
 30
0.0
 10
10.3882431577
 20
8.3500780526
 30
0.0
 10
10.3872753693
 20
8.3605471996
 30
0.0
 10
10.3869823331
 20
8.3684251586
 30
0.0
 10
10.3869823331
 20
8.3736675173
 30
0.0
  0
SPLINE
  5
392
100
AcDbEntity
  8
0
100
AcDbSpline
 62
7
  6
CONTINUOUS
 70
0
 71
3
 72
42
 73
38
 74
0
 42
0.0000001
 43
0.0000001
 44
0.0000000001
 40
0.0
 40
0.0
 40
0.0
 40
0.0
 40
0.0299419663
 40
0.0449235352
 40
0.0599142051
 40
0.0899287052
 40
0.1200139767
 40
0.135092661
 40
0.150196701
 40
0.1804840414
 40
0.210897872
 40
0.2414513324
 40
0.2721543376
 40
0.3030133986
 40
0.3340315263
 40
0.3652082187
 40
0.3965395244
 40
0.4280181782
 40
0.4596338019
 40
0.4913731609
 40
0.5232204716
 40
0.55515775
 40
0.5871651943
 40
0.6192215961
 40
0.6513047701
 40
0.6833919991
 40
0.7154604852
 40
0.7474878032
 40
0.7794523473
 40
0.8113337692
 40
0.8431133916
 40
0.8747746171
 40
0.9063032365
 40
0.9376879249
 40
0.9533258257
 40
0.968925233
 40
1.0
 40
1.0
 40
1.0
 40
1.0
 10
10.2367971067
 20
7.814042033
 30
0.0
 10
10.2331639696
 20
7.8105326915
 30
0.0
 10
10.2275001344
 20
7.8054812944
 30
0.0
 10
10.2195680214
 20
7.7992136429
 30
0.0
 10
10.2113833275
 20
7.7932578528
 30
0.0
 10
10.2007036287
 20
7.7864186846
 30
0.0
 10
10.1895046637
 20
7.7804364003
 30
0.0
 10
10.1802684386
 20
7.7761805427
 30
0.0
 10
10.1708413849
 20
7.7722760811
 30
0.0
 10
10.1587469268
 20
7.7680776137
 30
0.0
 10
10.1438423219
 20
7.7641647552
 30
0.0
 10
10.1286124934
 20
7.7613927702
 30
0.0
 10
10.113141839
 20
7.7597769613
 30
0.0
 10
10.0975153434
 20
7.7593259491
 30
0.0
 10
10.0818189881
 20
7.7600420301
 30
0.0
 10
10.0661390441
 20
7.7619210677
 30
0.0
 10
10.0505616661
 20
7.7649525533
 30
0.0
 10
10.0351724075
 20
7.7691196628
 30
0.0
 10
10.0200557613
 20
7.7743993569
 30
0.0
 10
10.0052947018
 20
7.7807625106
 30
0.0
 10
9.9909702358
 20
7.7881740758
 30
0.0
 10
9.9771609634
 20
7.7965932727
 30
0.0
 10
9.9639426531
 20
7.8059738158
 30
0.0
 10
9.9513878314
 20
7.8162641655
 30
0.0
 10
9.9395653892
 20
7.82740781
 30
0.0
 10
9.9285402084
 20
7.8393435726
 30
0.0
 10
9.9183728095
 20
7.8520059439
 30
0.0
 10
9.9091190228
 20
7.8653254389
 30
0.0
 10
9.9008296844
 20
7.8792289699
 30
0.0
 10
9.8935503593
 20
7.8936402589
 30
0.0
 10
9.8873210937
 20
7.9084801911
 30
0.0
 10
9.8821761862
 20
7.9236674637
 30
0.0
 10
9.8781440541
 20
7.9391182143
 30
0.0
 10
9.8757267054
 20
7.9521603284
 30
0.0
 10
9.8743706401
 20
7.9626395005
 30
0.0
 10
9.8734028518
 20
7.9731086475
 30
0.0
 10
9.8731098156
 20
7.9809866064
 30
0.0
 10
9.8731098156
 20
7.9862289652
 30
0.0
  0
SPLINE
  5
393
100
AcDbEntity
  8
0
100
AcDbSpline
 62
7
  6
CONTINUOUS
 70
0
 71
3
 72
15
 73
11
 74
0
 42
0.0000001
 43
0.0000001
 44
0.0000000001
 40
0.0
 40
0.0
 40
0.0
 40
0.0
 40
0.1233171261
 40
0.2468171865
 40
0.3706749939
 40
0.4950495802
 40
0.6200773232
 40
0.7458671315
 40
0.872492731
 40
1.0
 40
1.0
 40
1.0
 40
1.0
 10
10.0491139344
 20
7.3919175031
 30
0.0
 10
10.0465894008
 20
7.389479012
 30
0.0
 10
10.0412694302
 20
7.3848665862
 30
0.0
 10
10.0325867139
 20
7.378839396
 30
0.0
 10
10.0232828889
 20
7.3737585548
 30
0.0
 10
10.0134531883
 20
7.3696762843
 30
0.0
 10
10.0031967665
 20
7.3666331138
 30
0.0
 10
9.9926169422
 20
7.3646594707
 30
0.0
 10
9.9818217113
 20
7.3637745515
 30
0.0
 10
9.9745754291
 20
7.3639158931
 30
0.0
 10
9.9709549471
 20
7.3641669743
 30
0.0
  0
SPLINE
  5
394
100
AcDbEntity
  8
0
100
AcDbSpline
 62
7
  6
CONTINUOUS
 70
0
 71
3
 72
15
 73
11
 74
0
 42
0.0000001
 43
0.0000001
 44
0.0000000001
 40
0.0
 40
0.0
 40
0.0
 40
0.0
 40
0.1233171261
 40
0.2468171865
 40
0.3706749939
 40
0.4950495802
 40
0.6200773232
 40
0.7458671315
 40
0.872492731
 40
1.0
 40
1.0
 40
1.0
 40
1.0
 10
12.1007405811
 20
7.2496367119
 30
0.0
 10
12.0982160474
 20
7.2471982208
 30
0.0
 10
12.0928960768
 20
7.242585795
 30
0.0
 10
12.0842133605
 20
7.2365586048
 30
0.0
 10
12.0749095356
 20
7.2314777636
 30
0.0
 10
12.0650798349
 20
7.2273954931
 30
0.0
 10
12.0548234131
 20
7.2243523226
 30
0.0
 10
12.0442435888
 20
7.2223786795
 30
0.0
 10
12.0334483579
 20
7.2214937603
 30
0.0
 10
12.0262020757
 20
7.2216351019
 30
0.0
 10
12.0225815937
 20
7.2218861831
 30
0.0
  0
SPLINE
  5
395
100
AcDbEntity
  8
0
100
AcDbSpline
 62
7
  6
CONTINUOUS
 70
0
 71
3
 72
15
 73
11
 74
0
 42
0.0000001
 43
0.0000001
 44
0.0000000001
 40
0.0
 40
0.0
 40
0.0
 40
0.0
 40
0.1233171261
 40
0.2468171865
 40
0.3706749939
 40
0.4950495802
 40
0.6200773232
 40
0.7458671315
 40
0.872492731
 40
1.0
 40
1.0
 40
1.0
 40
1.0
 10
12.1007405811
 20
9.0008603037
 30
0.0
 10
12.0982160474
 20
8.9984218126
 30
0.0
 10
12.0928960768
 20
8.9938093869
 30
0.0
 10
12.0842133605
 20
8.9877821967
 30
0.0
 10
12.0749095356
 20
8.9827013554
 30
0.0
 10
12.0650798349
 20
8.9786190849
 30
0.0
 10
12.0548234131
 20
8.9755759144
 30
0.0
 10
12.0442435888
 20
8.9736022713
 30
0.0
 10
12.0334483579
 20
8.9727173522
 30
0.0
 10
12.0262020757
 20
8.9728586937
 30
0.0
 10
12.0225815937
 20
8.973109775
 30
0.0
  0
SPLINE
  5
396
100
AcDbEntity
  8
0
100
AcDbSpline
 62
7
  6
CONTINUOUS
 70
0
 71
3
 72
15
 73
11
 74
0
 42
0.0000001
 43
0.0000001
 44
0.0000000001
 40
0.0
 40
0.0
 40
0.0
 40
0.0
 40
0.1233171261
 40
0.2468171865
 40
0.3706749939
 40
0.4950495802
 40
0.6200773232
 40
0.7458671315
 40
0.872492731
 40
1.0
 40
1.0
 40
1.0
 40
1.0
 10
10.0491139344
 20
9.1431410949
 30
0.0
 10
10.0465894008
 20
9.1407026038
 30
0.0
 10
10.0412694302
 20
9.1360901781
 30
0.0
 10
10.0325867139
 20
9.1300629879
 30
0.0
 10
10.0232828889
 20
9.1249821466
 30
0.0
 10
10.0134531883
 20
9.1208998761
 30
0.0
 10
10.0031967665
 20
9.1178567056
 30
0.0
 10
9.9926169422
 20
9.1158830625
 30
0.0
 10
9.9818217113
 20
9.1149981433
 30
0.0
 10
9.9745754291
 20
9.1151394849
 30
0.0
 10
9.9709549471
 20
9.1153905662
 30
0.0
  0
SPLINE
  5
397
100
AcDbEntity
  8
0
100
AcDbSpline
 62
7
  6
CONTINUOUS
 70
0
 71
3
 72
21
 73
17
 74
0
 42
0.0000001
 43
0.0000001
 44
0.0000000001
 40
0.0
 40
0.0
 40
0.0
 40
0.0
 40
0.1273176366
 40
0.2537999756
 40
0.3167619475
 40
0.3795355041
 40
0.4421314991
 40
0.5045621439
 40
0.5668413432
 40
0.6289845283
 40
0.6910084528
 40
0.7529310935
 40
0.8147714495
 40
0.8765493365
 40
0.9382852194
 40
1.0
 40
1.0
 40
1.0
 40
1.0
 10
12.0464430535
 20
9.918044102
 30
0.0
 10
12.0464430535
 20
9.9247888562
 30
0.0
 10
12.0470868848
 20
9.9382427956
 30
0.0
 10
12.0495184266
 20
9.9548747715
 30
0.0
 10
12.0524246598
 20
9.9679211027
 30
0.0
 10
12.0550749882
 20
9.9775440812
 30
0.0
 10
12.0581929213
 20
9.9869960754
 30
0.0
 10
12.0617713148
 20
9.996255548
 30
0.0
 10
12.0658018919
 20
10.0053010907
 30
0.0
 10
12.0702754143
 20
10.0141118432
 30
0.0
 10
12.0751815914
 20
10.0226674656
 30
0.0
 10
12.0805090804
 20
10.0309482528
 30
0.0
 10
12.0862456101
 20
10.0389350716
 30
0.0
 10
12.0923780522
 20
10.0466095344
 30
0.0
 10
12.0988919763
 20
10.0539537332
 30
0.0
 10
12.1034797757
 20
10.0586192481
 30
0.0
 10
12.1058312995
 20
10.060890646
 30
0.0
  0
SPLINE
  5
398
100
AcDbEntity
  8
0
100
AcDbSpline
 62
7
  6
CONTINUOUS
 70
0
 71
3
 72
42
 73
38
 74
0
 42
0.0000001
 43
0.0000001
 44
0.0000000001
 40
0.0
 40
0.0
 40
0.0
 40
0.0
 40
0.0299419663
 40
0.0449235352
 40
0.0599142051
 40
0.0899287052
 40
0.1200139767
 40
0.135092661
 40
0.150196701
 40
0.1804840414
 40
0.210897872
 40
0.2414513324
 40
0.2721543376
 40
0.3030133986
 40
0.3340315263
 40
0.3652082187
 40
0.3965395244
 40
0.4280181782
 40
0.4596338019
 40
0.4913731609
 40
0.5232204716
 40
0.55515775
 40
0.5871651943
 40
0.6192215961
 40
0.6513047701
 40
0.6833919991
 40
0.7154604852
 40
0.7474878032
 40
0.7794523473
 40
0.8113337692
 40
0.8431133916
 40
0.8747746171
 40
0.9063032365
 40
0.9376879249
 40
0.9533258257
 40
0.968925233
 40
1.0
 40
1.0
 40
1.0
 40
1.0
 10
9.3925778433
 20
6.4546099337
 30
0.0
 10
9.3889447062
 20
6.4511005922
 30
0.0
 10
9.383280871
 20
6.4460491951
 30
0.0
 10
9.375348758
 20
6.4397815436
 30
0.0
 10
9.367164064
 20
6.4338257535
 30
0.0
 10
9.3564843653
 20
6.4269865853
 30
0.0
 10
9.3452854002
 20
6.421004301
 30
0.0
 10
9.3360491752
 20
6.4167484434
 30
0.0
 10
9.3266221215
 20
6.4128439818
 30
0.0
 10
9.3145276634
 20
6.4086455144
 30
0.0
 10
9.2996230584
 20
6.4047326559
 30
0.0
 10
9.28439323
 20
6.4019606708
 30
0.0
 10
9.2689225756
 20
6.400344862
 30
0.0
 10
9.25329608
 20
6.3998938498
 30
0.0
 10
9.2375997247
 20
6.4006099308
 30
0.0
 10
9.2219197807
 20
6.4024889684
 30
0.0
 10
9.2063424027
 20
6.405520454
 30
0.0
 10
9.1909531441
 20
6.4096875635
 30
0.0
 10
9.1758364979
 20
6.4149672576
 30
0.0
 10
9.1610754384
 20
6.4213304113
 30
0.0
 10
9.1467509724
 20
6.4287419765
 30
0.0
 10
9.1329417
 20
6.4371611734
 30
0.0
 10
9.1197233897
 20
6.4465417165
 30
0.0
 10
9.107168568
 20
6.4568320662
 30
0.0
 10
9.0953461257
 20
6.4679757107
 30
0.0
 10
9.084320945
 20
6.4799114733
 30
0.0
 10
9.0741535461
 20
6.4925738445
 30
0.0
 10
9.0648997594
 20
6.5058933396
 30
0.0
 10
9.056610421
 20
6.5197968706
 30
0.0
 10
9.0493310959
 20
6.5342081596
 30
0.0
 10
9.0431018303
 20
6.5490480918
 30
0.0
 10
9.0379569228
 20
6.5642353644
 30
0.0
 10
9.0339247907
 20
6.579686115
 30
0.0
 10
9.031507442
 20
6.5927282291
 30
0.0
 10
9.0301513767
 20
6.6032074012
 30
0.0
 10
9.0291835884
 20
6.6136765482
 30
0.0
 10
9.0288905522
 20
6.6215545071
 30
0.0
 10
9.0288905522
 20
6.6267968659
 30
0.0
  0
SPLINE
  5
399
100
AcDbEntity
  8
0
100
AcDbSpline
 62
7
  6
CONTINUOUS
 70
0
 71
3
 72
42
 73
38
 74
0
 42
0.0000001
 43
0.0000001
 44
0.0000000001
 40
0.0
 40
0.0
 40
0.0
 40
0.0
 40
0.0299419663
 40
0.0449235352
 40
0.0599142051
 40
0.0899287052
 40
0.1200139767
 40
0.135092661
 40
0.150196701
 40
0.1804840414
 40
0.210897872
 40
0.2414513324
 40
0.2721543376
 40
0.3030133986
 40
0.3340315263
 40
0.3652082187
 40
0.3965395244
 40
0.4280181782
 40
0.4596338019
 40
0.4913731609
 40
0.5232204716
 40
0.55515775
 40
0.5871651943
 40
0.6192215961
 40
0.6513047701
 40
0.6833919991
 40
0.7154604852
 40
0.7474878032
 40
0.7794523473
 40
0.8113337692
 40
0.8431133916
 40
0.8747746171
 40
0.9063032365
 40
0.9376879249
 40
0.9533258257
 40
0.968925233
 40
1.0
 40
1.0
 40
1.0
 40
1.0
 10
12.4101303446
 20
6.245341957
 30
0.0
 10
12.4064972075
 20
6.2418326154
 30
0.0
 10
12.4008333724
 20
6.2367812184
 30
0.0
 10
12.3929012593
 20
6.2305135669
 30
0.0
 10
12.3847165654
 20
6.2245577768
 30
0.0
 10
12.3740368667
 20
6.2177186086
 30
0.0
 10
12.3628379016
 20
6.2117363242
 30
0.0
 10
12.3536016766
 20
6.2074804666
 30
0.0
 10
12.3441746228
 20
6.2035760051
 30
0.0
 10
12.3320801648
 20
6.1993775376
 30
0.0
 10
12.3171755598
 20
6.1954646791
 30
0.0
 10
12.3019457313
 20
6.1926926941
 30
0.0
 10
12.2864750769
 20
6.1910768852
 30
0.0
 10
12.2708485813
 20
6.1906258731
 30
0.0
 10
12.2551522261
 20
6.191341954
 30
0.0
 10
12.2394722821
 20
6.1932209917
 30
0.0
 10
12.2238949041
 20
6.1962524772
 30
0.0
 10
12.2085056454
 20
6.2004195867
 30
0.0
 10
12.1933889993
 20
6.2056992808
 30
0.0
 10
12.1786279398
 20
6.2120624346
 30
0.0
 10
12.1643034737
 20
6.2194739997
 30
0.0
 10
12.1504942013
 20
6.2278931967
 30
0.0
 10
12.1372758911
 20
6.2372737397
 30
0.0
 10
12.1247210693
 20
6.2475640894
 30
0.0
 10
12.1128986271
 20
6.2587077339
 30
0.0
 10
12.1018734463
 20
6.2706434965
 30
0.0
 10
12.0917060474
 20
6.2833058678
 30
0.0
 10
12.0824522608
 20
6.2966253629
 30
0.0
 10
12.0741629223
 20
6.3105288939
 30
0.0
 10
12.0668835972
 20
6.3249401828
 30
0.0
 10
12.0606543317
 20
6.3397801151
 30
0.0
 10
12.0555094242
 20
6.3549673877
 30
0.0
 10
12.0514772921
 20
6.3704181383
 30
0.0
 10
12.0490599433
 20
6.3834602524
 30
0.0
 10
12.0477038781
 20
6.3939394245
 30
0.0
 10
12.0467360897
 20
6.4044085714
 30
0.0
 10
12.0464430535
 20
6.4122865304
 30
0.0
 10
12.0464430535
 20
6.4175288892
 30
0.0
  0
SPLINE
  5
39A
100
AcDbEntity
  8
0
100
AcDbSpline
 62
7
  6
CONTINUOUS
 70
0
 71
3
 72
42
 73
38
 74
0
 42
0.0000001
 43
0.0000001
 44
0.0000000001
 40
0.0
 40
0.0
 40
0.0
 40
0.0
 40
0.0299419663
 40
0.0449235352
 40
0.0599142051
 40
0.0899287052
 40
0.1200139767
 40
0.135092661
 40
0.150196701
 40
0.1804840414
 40
0.210897872
 40
0.2414513324
 40
0.2721543376
 40
0.3030133986
 40
0.3340315263
 40
0.3652082187
 40
0.3965395244
 40
0.4280181782
 40
0.4596338019
 40
0.4913731609
 40
0.5232204716
 40
0.55515775
 40
0.5871651943
 40
0.6192215961
 40
0.6513047701
 40
0.6833919991
 40
0.7154604852
 40
0.7474878032
 40
0.7794523473
 40
0.8113337692
 40
0.8431133916
 40
0.8747746171
 40
0.9063032365
 40
0.9376879249
 40
0.9533258257
 40
0.968925233
 40
1.0
 40
1.0
 40
1.0
 40
1.0
 10
12.4101303446
 20
9.7458571698
 30
0.0
 10
12.4064972075
 20
9.7423478283
 30
0.0
 10
12.4008333724
 20
9.7372964312
 30
0.0
 10
12.3929012593
 20
9.7310287797
 30
0.0
 10
12.3847165654
 20
9.7250729896
 30
0.0
 10
12.3740368667
 20
9.7182338214
 30
0.0
 10
12.3628379016
 20
9.712251537
 30
0.0
 10
12.3536016766
 20
9.7079956794
 30
0.0
 10
12.3441746228
 20
9.7040912179
 30
0.0
 10
12.3320801648
 20
9.6998927504
 30
0.0
 10
12.3171755598
 20
9.6959798919
 30
0.0
 10
12.3019457313
 20
9.6932079069
 30
0.0
 10
12.2864750769
 20
9.691592098
 30
0.0
 10
12.2708485813
 20
9.6911410859
 30
0.0
 10
12.2551522261
 20
9.6918571668
 30
0.0
 10
12.2394722821
 20
9.6937362045
 30
0.0
 10
12.2238949041
 20
9.69676769
 30
0.0
 10
12.2085056454
 20
9.7009347995
 30
0.0
 10
12.1933889993
 20
9.7062144936
 30
0.0
 10
12.1786279398
 20
9.7125776474
 30
0.0
 10
12.1643034737
 20
9.7199892125
 30
0.0
 10
12.1504942013
 20
9.7284084095
 30
0.0
 10
12.1372758911
 20
9.7377889525
 30
0.0
 10
12.1247210693
 20
9.7480793022
 30
0.0
 10
12.1128986271
 20
9.7592229467
 30
0.0
 10
12.1018734463
 20
9.7711587093
 30
0.0
 10
12.0917060474
 20
9.7838210806
 30
0.0
 10
12.0824522608
 20
9.7971405757
 30
0.0
 10
12.0741629223
 20
9.8110441067
 30
0.0
 10
12.0668835972
 20
9.8254553957
 30
0.0
 10
12.0606543317
 20
9.8402953279
 30
0.0
 10
12.0555094242
 20
9.8554826005
 30
0.0
 10
12.0514772921
 20
9.8709333511
 30
0.0
 10
12.0490599433
 20
9.8839754652
 30
0.0
 10
12.0477038781
 20
9.8944546373
 30
0.0
 10
12.0467360897
 20
9.9049237842
 30
0.0
 10
12.0464430535
 20
9.9128017432
 30
0.0
 10
12.0464430535
 20
9.918044102
 30
0.0
  0
SPLINE
  5
39B
100
AcDbEntity
  8
0
100
AcDbSpline
 62
7
  6
CONTINUOUS
 70
0
 71
3
 72
42
 73
38
 74
0
 42
0.0000001
 43
0.0000001
 44
0.0000000001
 40
0.0
 40
0.0
 40
0.0
 40
0.0
 40
0.0299419663
 40
0.0449235352
 40
0.0599142051
 40
0.0899287052
 40
0.1200139767
 40
0.135092661
 40
0.150196701
 40
0.1804840414
 40
0.210897872
 40
0.2414513324
 40
0.2721543376
 40
0.3030133986
 40
0.3340315263
 40
0.3652082187
 40
0.3965395244
 40
0.4280181782
 40
0.4596338019
 40
0.4913731609
 40
0.5232204716
 40
0.55515775
 40
0.5871651943
 40
0.6192215961
 40
0.6513047701
 40
0.6833919991
 40
0.7154604852
 40
0.7474878032
 40
0.7794523473
 40
0.8113337692
 40
0.8431133916
 40
0.8747746171
 40
0.9063032365
 40
0.9376879249
 40
0.9533258257
 40
0.968925233
 40
1.0
 40
1.0
 40
1.0
 40
1.0
 10
9.3925778433
 20
9.9551251465
 30
0.0
 10
9.3889447062
 20
9.951615805
 30
0.0
 10
9.383280871
 20
9.9465644079
 30
0.0
 10
9.375348758
 20
9.9402967564
 30
0.0
 10
9.367164064
 20
9.9343409663
 30
0.0
 10
9.3564843653
 20
9.9275017981
 30
0.0
 10
9.3452854002
 20
9.9215195138
 30
0.0
 10
9.3360491752
 20
9.9172636562
 30
0.0
 10
9.3266221215
 20
9.9133591946
 30
0.0
 10
9.3145276634
 20
9.9091607272
 30
0.0
 10
9.2996230584
 20
9.9052478687
 30
0.0
 10
9.28439323
 20
9.9024758837
 30
0.0
 10
9.2689225756
 20
9.9008600748
 30
0.0
 10
9.25329608
 20
9.9004090626
 30
0.0
 10
9.2375997247
 20
9.9011251436
 30
0.0
 10
9.2219197807
 20
9.9030041812
 30
0.0
 10
9.2063424027
 20
9.9060356668
 30
0.0
 10
9.1909531441
 20
9.9102027763
 30
0.0
 10
9.1758364979
 20
9.9154824704
 30
0.0
 10
9.1610754384
 20
9.9218456241
 30
0.0
 10
9.1467509724
 20
9.9292571893
 30
0.0
 10
9.1329417
 20
9.9376763863
 30
0.0
 10
9.1197233897
 20
9.9470569293
 30
0.0
 10
9.107168568
 20
9.957347279
 30
0.0
 10
9.0953461257
 20
9.9684909235
 30
0.0
 10
9.084320945
 20
9.9804266861
 30
0.0
 10
9.0741535461
 20
9.9930890574
 30
0.0
 10
9.0648997594
 20
10.0064085524
 30
0.0
 10
9.056610421
 20
10.0203120834
 30
0.0
 10
9.0493310959
 20
10.0347233724
 30
0.0
 10
9.0431018303
 20
10.0495633047
 30
0.0
 10
9.0379569228
 20
10.0647505772
 30
0.0
 10
9.0339247907
 20
10.0802013279
 30
0.0
 10
9.031507442
 20
10.093243442
 30
0.0
 10
9.0301513767
 20
10.103722614
 30
0.0
 10
9.0291835884
 20
10.114191761
 30
0.0
 10
9.0288905522
 20
10.1220697199
 30
0.0
 10
9.0288905522
 20
10.1273120787
 30
0.0
  0
SPLINE
  5
39C
100
AcDbEntity
  8
0
100
AcDbSpline
 62
4
  6
CONTINUOUS
 70
0
 71
3
 72
313
 73
309
 74
0
 42
0.0000001
 43
0.0000001
 44
0.0000000001
 40
0.0
 40
0.0
 40
0.0
 40
0.0
 40
0.015625
 40
0.0234375
 40
0.03125
 40
0.0390625
 40
0.046875
 40
0.05078125
 40
0.0546875
 40
0.056640625
 40
0.05859375
 40
0.060546875
 40
0.0615234375
 40
0.0620117188
 40
0.0625
 40
0.0629882812
 40
0.0634765625
 40
0.064453125
 40
0.06640625
 40
0.068359375
 40
0.0703125
 40
0.07421875
 40
0.078125
 40
0.0859375
 40
0.09375
 40
0.1015625
 40
0.109375
 40
0.11328125
 40
0.1171875
 40
0.119140625
 40
0.12109375
 40
0.123046875
 40
0.1240234375
 40
0.1245117188
 40
0.125
 40
0.1254882812
 40
0.1259765625
 40
0.126953125
 40
0.12890625
 40
0.130859375
 40
0.1328125
 40
0.13671875
 40
0.140625
 40
0.1484375
 40
0.15625
 40
0.1640625
 40
0.171875
 40
0.17578125
 40
0.1796875
 40
0.181640625
 40
0.18359375
 40
0.185546875
 40
0.1865234375
 40
0.1870117188
 40
0.1875
 40
0.1879882812
 40
0.1884765625
 40
0.189453125
 40
0.19140625
 40
0.193359375
 40
0.1953125
 40
0.19921875
 40
0.203125
 40
0.2109375
 40
0.21875
 40
0.2265625
 40
0.234375
 40
0.23828125
 40
0.2421875
 40
0.244140625
 40
0.24609375
 40
0.248046875
 40
0.2490234375
 40
0.2495117188
 40
0.25
 40
0.2504882812
 40
0.2509765625
 40
0.251953125
 40
0.25390625
 40
0.255859375
 40
0.2578125
 40
0.26171875
 40
0.265625
 40
0.2734375
 40
0.28125
 40
0.2890625
 40
0.296875
 40
0.30078125
 40
0.3046875
 40
0.306640625
 40
0.30859375
 40
0.310546875
 40
0.3115234375
 40
0.3120117188
 40
0.3125
 40
0.3129882812
 40
0.3134765625
 40
0.314453125
 40
0.31640625
 40
0.318359375
 40
0.3203125
 40
0.32421875
 40
0.328125
 40
0.3359375
 40
0.34375
 40
0.3515625
 40
0.359375
 40
0.36328125
 40
0.3671875
 40
0.369140625
 40
0.37109375
 40
0.373046875
 40
0.3740234375
 40
0.3745117188
 40
0.375
 40
0.3754882812
 40
0.3759765625
 40
0.376953125
 40
0.37890625
 40
0.380859375
 40
0.3828125
 40
0.38671875
 40
0.390625
 40
0.3984375
 40
0.40625
 40
0.4140625
 40
0.421875
 40
0.42578125
 40
0.4296875
 40
0.431640625
 40
0.43359375
 40
0.435546875
 40
0.4365234375
 40
0.4370117188
 40
0.4375
 40
0.4379882812
 40
0.4384765625
 40
0.439453125
 40
0.44140625
 40
0.443359375
 40
0.4453125
 40
0.44921875
 40
0.453125
 40
0.4609375
 40
0.46875
 40
0.4765625
 40
0.484375
 40
0.48828125
 40
0.4921875
 40
0.494140625
 40
0.49609375
 40
0.498046875
 40
0.4990234375
 40
0.4995117188
 40
0.5
 40
0.5004882812
 40
0.5009765625
 40
0.501953125
 40
0.50390625
 40
0.505859375
 40
0.5078125
 40
0.51171875
 40
0.515625
 40
0.5234375
 40
0.53125
 40
0.5390625
 40
0.546875
 40
0.55078125
 40
0.5546875
 40
0.556640625
 40
0.55859375
 40
0.560546875
 40
0.5615234375
 40
0.5620117188
 40
0.5625
 40
0.5629882812
 40
0.5634765625
 40
0.564453125
 40
0.56640625
 40
0.568359375
 40
0.5703125
 40
0.57421875
 40
0.578125
 40
0.5859375
 40
0.59375
 40
0.6015625
 40
0.609375
 40
0.61328125
 40
0.6171875
 40
0.619140625
 40
0.62109375
 40
0.623046875
 40
0.6240234375
 40
0.6245117188
 40
0.625
 40
0.6254882812
 40
0.6259765625
 40
0.626953125
 40
0.62890625
 40
0.630859375
 40
0.6328125
 40
0.63671875
 40
0.640625
 40
0.6484375
 40
0.65625
 40
0.6640625
 40
0.671875
 40
0.67578125
 40
0.6796875
 40
0.681640625
 40
0.68359375
 40
0.685546875
 40
0.6865234375
 40
0.6870117188
 40
0.6875
 40
0.6879882812
 40
0.6884765625
 40
0.689453125
 40
0.69140625
 40
0.693359375
 40
0.6953125
 40
0.69921875
 40
0.703125
 40
0.7109375
 40
0.71875
 40
0.7265625
 40
0.734375
 40
0.73828125
 40
0.7421875
 40
0.744140625
 40
0.74609375
 40
0.748046875
 40
0.7490234375
 40
0.7495117188
 40
0.75
 40
0.7504882812
 40
0.7509765625
 40
0.751953125
 40
0.75390625
 40
0.755859375
 40
0.7578125
 40
0.76171875
 40
0.765625
 40
0.7734375
 40
0.78125
 40
0.7890625
 40
0.796875
 40
0.80078125
 40
0.8046875
 40
0.806640625
 40
0.80859375
 40
0.810546875
 40
0.8115234375
 40
0.8120117188
 40
0.8125
 40
0.8129882812
 40
0.8134765625
 40
0.814453125
 40
0.81640625
 40
0.818359375
 40
0.8203125
 40
0.82421875
 40
0.828125
 40
0.8359375
 40
0.84375
 40
0.8515625
 40
0.859375
 40
0.86328125
 40
0.8671875
 40
0.869140625
 40
0.87109375
 40
0.873046875
 40
0.8740234375
 40
0.8745117188
 40
0.875
 40
0.8754882812
 40
0.8759765625
 40
0.876953125
 40
0.87890625
 40
0.880859375
 40
0.8828125
 40
0.88671875
 40
0.890625
 40
0.8984375
 40
0.90625
 40
0.9140625
 40
0.921875
 40
0.92578125
 40
0.9296875
 40
0.931640625
 40
0.93359375
 40
0.935546875
 40
0.9365234375
 40
0.9370117188
 40
0.9375
 40
0.9379882812
 40
0.9384765625
 40
0.939453125
 40
0.94140625
 40
0.943359375
 40
0.9453125
 40
0.94921875
 40
0.953125
 40
0.9609375
 40
0.96875
 40
0.9765625
 40
0.984375
 40
1.0
 40
1.0
 40
1.0
 40
1.0
 10
11.1365407441
 20
7.1780291397
 30
0.0
 10
11.1337265043
 20
7.1779483692
 30
0.0
 10
11.1295051446
 20
7.1778272138
 30
0.0
 10
11.1238766651
 20
7.1776656724
 30
0.0
 10
11.119655305
 20
7.1775445185
 30
0.0
 10
11.1154339466
 20
7.1774233561
 30
0.0
 10
11.1119161428
 20
7.177322414
 30
0.0
 10
11.1091019113
 20
7.177241601
 30
0.0
 10
11.1073429902
 20
7.1771912278
 30
0.0
 10
11.1059359137
 20
7.1771506202
 30
0.0
 10
11.1048804412
 20
7.1771210105
 30
0.0
 10
11.1040014063
 20
7.1770936448
 30
0.0
 10
11.1033850504
 20
7.1770797696
 30
0.0
 10
11.1030344576
 20
7.1770635954
 30
0.0
 10
11.102766976
 20
7.1770746927
 30
0.0
 10
11.102516837
 20
7.1769970009
 30
0.0
 10
11.102177269
 20
7.1769243824
 30
0.0
 10
11.1015858436
 20
7.1767828703
 30
0.0
 10
11.1007394766
 20
7.1765882543
 30
0.0
 10
11.0997244669
 20
7.1763514859
 30
0.0
 10
11.0983709003
 20
7.1760369227
 30
0.0
 10
11.0966790175
 20
7.1756433324
 30
0.0
 10
11.0939719629
 20
7.1750138038
 30
0.0
 10
11.0905881593
 20
7.1742268186
 30
0.0
 10
11.0865275879
 20
7.1732824703
 30
0.0
 10
11.0824670214
 20
7.1723381053
 30
0.0
 10
11.0790832054
 20
7.1715511617
 30
0.0
 10
11.0763761754
 20
7.1709215498
 30
0.0
 10
11.07468423
 20
7.1705281714
 30
0.0
 10
11.073330792
 20
7.1702131733
 30
0.0
 10
11.0723153894
 20
7.1699777336
 30
0.0
 10
11.0714702518
 20
7.1697789605
 30
0.0
 10
11.0708766317
 20
7.1696448694
 30
0.0
 10
11.0705405801
 20
7.1695603606
 30
0.0
 10
11.0702796402
 20
7.1695191921
 30
0.0
 10
11.0700527249
 20
7.1693931141
 30
0.0
 10
11.069738303
 20
7.1692546275
 30
0.0
 10
11.0691935943
 20
7.1689984767
 30
0.0
 10
11.068412548
 20
7.1686397614
 30
0.0
 10
11.06747653
 20
7.168206215
 30
0.0
 10
11.0662280737
 20
7.1676292317
 30
0.0
 10
11.0646676513
 20
7.1669076333
 30
0.0
 10
11.0621708927
 20
7.1657532824
 30
0.0
 10
11.0590499732
 20
7.1643102723
 30
0.0
 10
11.0553048564
 20
7.1625786929
 30
0.0
 10
11.0515597471
 20
7.1608470973
 30
0.0
 10
11.0484388089
 20
7.1594041276
 30
0.0
 10
11.0459420876
 20
7.1582496959
 30
0.0
 10
11.0443815705
 20
7.1575283026
 30
0.0
 10
11.0431333086
 20
7.1569508985
 30
0.0
 10
11.0421966966
 20
7.1565186377
 30
0.0
 10
11.0414175085
 20
7.1561558999
 30
0.0
 10
11.0408694828
 20
7.15590693
 30
0.0
 10
11.0405603756
 20
7.1557569377
 30
0.0
 10
11.0403171352
 20
7.1556662014
 30
0.0
 10
11.0401175095
 20
7.1554922956
 30
0.0
 10
11.0398361285
 20
7.1552894317
 30
0.0
 10
11.0393508
 20
7.1549209034
 30
0.0
 10
11.0386537679
 20
7.1544015009
 30
0.0
 10
11.0378189154
 20
7.1537751932
 30
0.0
 10
11.0367052248
 20
7.1529411728
 30
0.0
 10
11.0353133013
 20
7.1518982854
 30
0.0
 10
11.0330861175
 20
7.150229868
 30
0.0
 10
11.0303021746
 20
7.1481442764
 30
0.0
 10
11.0269614256
 20
7.1456415979
 30
0.0
 10
11.0236206876
 20
7.1431389053
 30
0.0
 10
11.0208367174
 20
7.1410533489
 30
0.0
 10
11.0186095881
 20
7.1393848611
 30
0.0
 10
11.017217526
 20
7.1383421526
 30
0.0
 10
11.0161041197
 20
7.1375077651
 30
0.0
 10
11.0152683987
 20
7.1368825789
 30
0.0
 10
11.0145740842
 20
7.1363596675
 30
0.0
 10
11.0140839041
 20
7.1359974031
 30
0.0
 10
11.0138102966
 20
7.1357845028
 30
0.0
 10
11.0135867934
 20
7.1356414256
 30
0.0
 10
11.0134332329
 20
7.1354349025
 30
0.0
 10
11.0132040888
 20
7.135181669
 30
0.0
 10
11.0128144536
 20
7.1347281993
 30
0.0
 10
11.0122518891
 20
7.1340857762
 30
0.0
 10
11.0115793553
 20
7.1333125611
 30
0.0
 10
11.0106817552
 20
7.1322824135
 30
0.0
 10
11.0095600593
 20
7.1309944531
 30
0.0
 10
11.0077651758
 20
7.1289338707
 30
0.0
 10
11.0055216301
 20
7.1263580894
 30
0.0
 10
11.0028293483
 20
7.123267176
 30
0.0
 10
11.0001370804
 20
7.1201762513
 30
0.0
 10
10.9978935001
 20
7.1176004984
 30
0.0
 10
10.9960986858
 20
7.1155398593
 30
0.0
 10
10.994976814
 20
7.1142520431
 30
0.0
 10
10.9940795748
 20
7.1132215994
 30
0.0
 10
10.9934059385
 20
7.1124492889
 30
0.0
 10
10.9928468236
 20
7.1118040355
 30
0.0
 10
10.9924510302
 20
7.1113556183
 30
0.0
 10
10.992231753
 20
7.1110942894
 30
0.0
 10
10.9920478848
 20
7.1109126329
 30
0.0
 10
10.9919382125
 20
7.110676161
 30
0.0
 10
10.9917661024
 20
7.1103799853
 30
0.0
 10
10.991476968
 20
7.1098527694
 30
0.0
 10
10.9910576146
 20
7.1091042613
 30
0.0
 10
10.9905570889
 20
7.1082040581
 30
0.0
 10
10.9898887789
 20
7.1070044834
 30
0.0
 10
10.9890537141
 20
7.1055047766
 30
0.0
 10
10.9877174299
 20
7.103105379
 30
0.0
 10
10.986047137
 20
7.1001060861
 30
0.0
 10
10.9840427569
 20
7.0965069553
 30
0.0
 10
10.9820383918
 20
7.0929078153
 30
0.0
 10
10.9803680614
 20
7.0899085452
 30
0.0
 10
10.9790318524
 20
7.0875091021
 30
0.0
 10
10.9781965965
 20
7.086009511
 30
0.0
 10
10.9775286786
 20
7.0848096988
 30
0.0
 10
10.9770269549
 20
7.0839102211
 30
0.0
 10
10.97661135
 20
7.0831594431
 30
0.0
 10
10.9763155239
 20
7.0826362793
 30
0.0
 10
10.9761541355
 20
7.0823336112
 30
0.0
 10
10.9760115297
 20
7.0821170821
 30
0.0
 10
10.9759513544
 20
7.0818605238
 30
0.0
 10
10.975842368
 20
7.0815324088
 30
0.0
 10
10.9756650382
 20
7.080951702
 30
0.0
 10
10.9754047061
 20
7.080125522
 30
0.0
 10
10.9750953054
 20
7.0791326502
 30
0.0
 10
10.9746817241
 20
7.0778093296
 30
0.0
 10
10.974165106
 20
7.0761550048
 30
0.0
 10
10.9733383166
 20
7.0735081825
 30
0.0
 10
10.9723048991
 20
7.0701996209
 30
0.0
 10
10.9710647664
 20
7.0662293623
 30
0.0
 10
10.9698246499
 20
7.0622590967
 30
0.0
 10
10.9687911916
 20
7.0589505524
 30
0.0
 10
10.9679644838
 20
7.0563036955
 30
0.0
 10
10.9674476584
 20
7.0546494584
 30
0.0
 10
10.9670345026
 20
7.0533259578
 30
0.0
 10
10.966723802
 20
7.0523336362
 30
0.0
 10
10.966467537
 20
7.0515057348
 30
0.0
 10
10.9662829467
 20
7.050928101
 30
0.0
 10
10.9661855935
 20
7.0505950622
 30
0.0
 10
10.9660896849
 20
7.0503536283
 30
0.0
 10
10.9660812873
 20
7.0500802947
 30
0.0
 10
10.9660395658
 20
7.0497269769
 30
0.0
 10
10.9659807752
 20
7.0491034866
 30
0.0
 10
10.9658893531
 20
7.0482154964
 30
0.0
 10
10.9657828292
 20
7.0471487481
 30
0.0
 10
10.9656396857
 20
7.0457268223
 30
0.0
 10
10.965461137
 20
7.0439492762
 30
0.0
 10
10.9651752462
 20
7.0411052801
 30
0.0
 10
10.9648179563
 20
7.0375502583
 30
0.0
 10
10.9643891747
 20
7.0332842435
 30
0.0
 10
10.9639604103
 20
7.0290182258
 30
0.0
 10
10.9636030775
 20
7.0254632113
 30
0.0
 10
10.9633172724
 20
7.0226192006
 30
0.0
 10
10.9631385061
 20
7.0208416914
 30
0.0
 10
10.9629958093
 20
7.01941969
 30
0.0
 10
10.9628879207
 20
7.0183531725
 30
0.0
 10
10.9628007682
 20
7.0174644601
 30
0.0
 10
10.9627343557
 20
7.0168422591
 30
0.0
 10
10.9627048464
 20
7.0164868755
 30
0.0
 10
10.9626589367
 20
7.0162198876
 30
0.0
 10
10.9627039173
 20
7.0159546204
 30
0.0
 10
10.9627321878
 20
7.0156003306
 30
0.0
 10
10.9627964326
 20
7.014980603
 30
0.0
 10
10.9628804882
 20
7.0140951318
 30
0.0
 10
10.9629846604
 20
7.0130326289
 30
0.0
 10
10.9631224021
 20
7.0116159365
 30
0.0
 10
10.9632949746
 20
7.0098450784
 30
0.0
 10
10.9635708696
 20
7.0070117014
 30
0.0
 10
10.9639158147
 20
7.0034699816
 30
0.0
 10
10.964329714
 20
6.9992199169
 30
0.0
 10
10.9647436304
 20
6.9949698534
 30
0.0
 10
10.9650885327
 20
6.9914281305
 30
0.0
 10
10.9653645133
 20
6.9885947597
 30
0.0
 10
10.9655368681
 20
6.9868238858
 30
0.0
 10
10.9656750567
 20
6.9854072259
 30
0.0
 10
10.9657778638
 20
6.9843446236
 30
0.0
 10
10.9658661907
 20
6.9834594632
 30
0.0
 10
10.9659228103
 20
6.9828391808
 30
0.0
 10
10.9659632983
 20
6.9824857801
 30
0.0
 10
10.9659707509
 20
6.9822177817
 30
0.0
 10
10.9660657899
 20
6.9819610517
 30
0.0
 10
10.9661619575
 20
6.9816148145
 30
0.0
 10
10.966344485
 20
6.9810107308
 30
0.0
 10
10.9665977968
 20
6.9801467965
 30
0.0
 10
10.9669049563
 20
6.9791104852
 30
0.0
 10
10.9673133898
 20
6.9777285937
 30
0.0
 10
10.9678243125
 20
6.9760012783
 30
0.0
 10
10.968641576
 20
6.9732375463
 30
0.0
 10
10.9696632288
 20
6.9697828908
 30
0.0
 10
10.9708891787
 20
6.9656372994
 30
0.0
 10
10.9721151449
 20
6.9614917119
 30
0.0
 10
10.9731367569
 20
6.9580370469
 30
0.0
 10
10.973954102
 20
6.9552733339
 30
0.0
 10
10.9744648172
 20
6.9535459702
 30
0.0
 10
10.9748736766
 20
6.9521641778
 30
0.0
 10
10.9751795347
 20
6.9511275638
 30
0.0
 10
10.9754369183
 20
6.9502645765
 30
0.0
 10
10.975612177
 20
6.9496588023
 30
0.0
 10
10.975719991
 20
6.9493152737
 30
0.0
 10
10.9757792559
 20
6.9490502238
 30
0.0
 10
10.9759210704
 20
6.9488134736
 30
0.0
 10
10.9760813623
 20
6.9484879354
 30
0.0
 10
10.9763752888
 20
6.9479228428
 30
0.0
 10
10.9767881698
 20
6.9471131632
 30
0.0
 10
10.9772866293
 20
6.9461425768
 30
0.0
 10
10.9779501933
 20
6.9448481022
 30
0.0
 10
10.9787800074
 20
6.9432301321
 30
0.0
 10
10.9801075091
 20
6.9406413109
 30
0.0
 10
10.9817669557
 20
6.9374053084
 30
0.0
 10
10.9837582599
 20
6.9335220942
 30
0.0
 10
10.9857495797
 20
6.9296388863
 30
0.0
 10
10.9874089872
 20
6.9264028678
 30
0.0
 10
10.988736567
 20
6.9238140786
 30
0.0
 10
10.9895661826
 20
6.9221960274
 30
0.0
 10
10.990230154
 20
6.920901719
 30
0.0
 10
10.990727369
 20
6.919930625
 30
0.0
 10
10.9911441437
 20
6.9191225335
 30
0.0
 10
10.9914311193
 20
6.9185546059
 30
0.0
 10
10.9916025482
 20
6.9182336101
 30
0.0
 10
10.9917101533
 20
6.9179829073
 30
0.0
 10
10.9918979032
 20
6.9177702611
 30
0.0
 10
10.9921202809
 20
6.9174734582
 30
0.0
 10
10.9925224669
 20
6.916960238
 30
0.0
 10
10.9930902087
 20
6.9162238328
 30
0.0
 10
10.9937744136
 20
6.9153415306
 30
0.0
 10
10.9946856688
 20
6.9141646442
 30
0.0
 10
10.9958250863
 20
6.9126937018
 30
0.0
 10
10.9976479595
 20
6.9103401013
 30
0.0
 10
10.9999266182
 20
6.9073981329
 30
0.0
 10
11.0026609784
 20
6.9038677554
 30
0.0
 10
11.005395352
 20
6.9003373879
 30
0.0
 10
11.0076739773
 20
6.8973953945
 30
0.0
 10
11.0094969171
 20
6.8950418439
 30
0.0
 10
11.0106361654
 20
6.8935707747
 30
0.0
 10
11.011547768
 20
6.8923941486
 30
0.0
 10
11.0122309116
 20
6.8915110513
 30
0.0
 10
11.0128019738
 20
6.8907771336
 30
0.0
 10
11.0131982324
 20
6.8902594729
 30
0.0
 10
11.0134301074
 20
6.8899697848
 30
0.0
 10
11.0135886846
 20
6.8897352842
 30
0.0
 10
11.0138058572
 20
6.8895666627
 30
0.0
 10
11.0140749819
 20
6.8893188548
 30
0.0
 10
11.0145554729
 20
6.8888958974
 30
0.0
 10
11.0152369099
 20
6.888286075
 30
0.0
 10
11.0160567654
 20
6.8875566841
 30
0.0
 10
11.0171491618
 20
6.8865833261
 30
0.0
 10
11.0185149121
 20
6.8853669151
 30
0.0
 10
11.0206999701
 20
6.8834204972
 30
0.0
 10
11.0234313418
 20
6.8809875303
 30
0.0
 10
11.0267089655
 20
6.8780679445
 30
0.0
 10
11.0299865997
 20
6.8751483719
 30
0.0
 10
11.0327179454
 20
6.8727153722
 30
0.0
 10
11.0349030553
 20
6.8707690199
 30
0.0
 10
11.0362686736
 20
6.8695524422
 30
0.0
 10
11.037361341
 20
6.8685794263
 30
0.0
 10
11.0381803684
 20
6.8678489902
 30
0.0
 10
11.0388643965
 20
6.8672424378
 30
0.0
 10
11.039340262
 20
6.8668136431
 30
0.0
 10
11.0396167979
 20
6.866575188
 30
0.0
 10
11.0398112057
 20
6.8663778375
 30
0.0
 10
11.0400552834
 20
6.8662512384
 30
0.0
 10
11.040363395
 20
6.8660577608
 30
0.0
 10
11.0409106624
 20
6.8657306732
 30
0.0
 10
11.0416882527
 20
6.8652573937
 30
0.0
 10
11.0426231676
 20
6.8646920315
 30
0.0
 10
11.0438690897
 20
6.8639373165
 30
0.0
 10
11.0454267084
 20
6.8629942304
 30
0.0
 10
11.0479187776
 20
6.8614851206
 30
0.0
 10
11.0510339057
 20
6.8595987929
 30
0.0
 10
11.0547720408
 20
6.8573351723
 30
0.0
 10
11.058510184
 20
6.8550715661
 30
0.0
 10
11.0616252919
 20
6.8531852022
 30
0.0
 10
11.0641174014
 20
6.8516761648
 30
0.0
 10
11.0656749177
 20
6.8507328948
 30
0.0
 10
11.0669210501
 20
6.8499785573
 30
0.0
 10
11.0678553226
 20
6.8494120415
 30
0.0
 10
11.0686349228
 20
6.8489423712
 30
0.0
 10
11.0691786022
 20
6.8486088408
 30
0.0
 10
11.0694924627
 20
6.8484256861
 30
0.0
 10
11.0697188816
 20
6.8482673781
 30
0.0
 10
11.069979613
 20
6.848189121
 30
0.0
 10
11.0703152862
 20
6.8480568556
 30
0.0
 10
11.0709082909
 20
6.8478384008
 30
0.0
 10
11.071752525
 20
6.8475195208
 30
0.0
 10
11.0727668538
 20
6.8471397762
 30
0.0
 10
11.0741188563
 20
6.8466324332
 30
0.0
 10
11.0758090087
 20
6.8459986027
 30
0.0
 10
11.0785131691
 20
6.8449842791
 30
0.0
 10
11.0818933984
 20
6.8437164419
 30
0.0
 10
11.0859496606
 20
6.8421950064
 30
0.0
 10
11.0900059285
 20
6.8406735868
 30
0.0
 10
11.0933861434
 20
6.8394057099
 30
0.0
 10
11.0960903326
 20
6.8383914659
 30
0.0
 10
11.0977804117
 20
6.8377574331
 30
0.0
 10
11.0991325648
 20
6.8372505051
 30
0.0
 10
11.1001464335
 20
6.8368694925
 30
0.0
 10
11.100992107
 20
6.8365545799
 30
0.0
 10
11.1015825421
 20
6.8363290428
 30
0.0
 10
11.1019223324
 20
6.836208125
 30
0.0
 10
11.1021704176
 20
6.8360950116
 30
0.0
 10
11.1024443337
 20
6.8360676179
 30
0.0
 10
11.102800545
 20
6.836001193
 30
0.0
 10
11.1034281128
 20
6.8358988804
 30
0.0
 10
11.1043224434
 20
6.8357454363
 30
0.0
 10
11.1053965797
 20
6.8355644208
 30
0.0
 10
11.1068284332
 20
6.835321978
 30
0.0
 10
11.1086183624
 20
6.8350192972
 30
0.0
 10
11.1114821864
 20
6.8345347997
 30
0.0
 10
11.115061988
 20
6.8339292492
 30
0.0
 10
11.1193577406
 20
6.833202558
 30
0.0
 10
11.1236534957
 20
6.832475875
 30
0.0
 10
11.1293811683
 20
6.8315069615
 30
0.0
 10
11.133676923
 20
6.830780277
 30
0.0
 10
11.1365407593
 20
6.8302958205
 30
0.0
  0
SPLINE
  5
39D
100
AcDbEntity
  8
0
100
AcDbSpline
 62
4
  6
CONTINUOUS
 70
0
 71
3
 72
313
 73
309
 74
0
 42
0.0000001
 43
0.0000001
 44
0.0000000001
 40
0.0
 40
0.0
 40
0.0
 40
0.0
 40
0.015625
 40
0.0234375
 40
0.03125
 40
0.0390625
 40
0.046875
 40
0.05078125
 40
0.0546875
 40
0.056640625
 40
0.05859375
 40
0.060546875
 40
0.0615234375
 40
0.0620117188
 40
0.0625
 40
0.0629882812
 40
0.0634765625
 40
0.064453125
 40
0.06640625
 40
0.068359375
 40
0.0703125
 40
0.07421875
 40
0.078125
 40
0.0859375
 40
0.09375
 40
0.1015625
 40
0.109375
 40
0.11328125
 40
0.1171875
 40
0.119140625
 40
0.12109375
 40
0.123046875
 40
0.1240234375
 40
0.1245117188
 40
0.125
 40
0.1254882812
 40
0.1259765625
 40
0.126953125
 40
0.12890625
 40
0.130859375
 40
0.1328125
 40
0.13671875
 40
0.140625
 40
0.1484375
 40
0.15625
 40
0.1640625
 40
0.171875
 40
0.17578125
 40
0.1796875
 40
0.181640625
 40
0.18359375
 40
0.185546875
 40
0.1865234375
 40
0.1870117188
 40
0.1875
 40
0.1879882812
 40
0.1884765625
 40
0.189453125
 40
0.19140625
 40
0.193359375
 40
0.1953125
 40
0.19921875
 40
0.203125
 40
0.2109375
 40
0.21875
 40
0.2265625
 40
0.234375
 40
0.23828125
 40
0.2421875
 40
0.244140625
 40
0.24609375
 40
0.248046875
 40
0.2490234375
 40
0.2495117188
 40
0.25
 40
0.2504882812
 40
0.2509765625
 40
0.251953125
 40
0.25390625
 40
0.255859375
 40
0.2578125
 40
0.26171875
 40
0.265625
 40
0.2734375
 40
0.28125
 40
0.2890625
 40
0.296875
 40
0.30078125
 40
0.3046875
 40
0.306640625
 40
0.30859375
 40
0.310546875
 40
0.3115234375
 40
0.3120117188
 40
0.3125
 40
0.3129882812
 40
0.3134765625
 40
0.314453125
 40
0.31640625
 40
0.318359375
 40
0.3203125
 40
0.32421875
 40
0.328125
 40
0.3359375
 40
0.34375
 40
0.3515625
 40
0.359375
 40
0.36328125
 40
0.3671875
 40
0.369140625
 40
0.37109375
 40
0.373046875
 40
0.3740234375
 40
0.3745117188
 40
0.375
 40
0.3754882812
 40
0.3759765625
 40
0.376953125
 40
0.37890625
 40
0.380859375
 40
0.3828125
 40
0.38671875
 40
0.390625
 40
0.3984375
 40
0.40625
 40
0.4140625
 40
0.421875
 40
0.42578125
 40
0.4296875
 40
0.431640625
 40
0.43359375
 40
0.435546875
 40
0.4365234375
 40
0.4370117188
 40
0.4375
 40
0.4379882812
 40
0.4384765625
 40
0.439453125
 40
0.44140625
 40
0.443359375
 40
0.4453125
 40
0.44921875
 40
0.453125
 40
0.4609375
 40
0.46875
 40
0.4765625
 40
0.484375
 40
0.48828125
 40
0.4921875
 40
0.494140625
 40
0.49609375
 40
0.498046875
 40
0.4990234375
 40
0.4995117188
 40
0.5
 40
0.5004882812
 40
0.5009765625
 40
0.501953125
 40
0.50390625
 40
0.505859375
 40
0.5078125
 40
0.51171875
 40
0.515625
 40
0.5234375
 40
0.53125
 40
0.5390625
 40
0.546875
 40
0.55078125
 40
0.5546875
 40
0.556640625
 40
0.55859375
 40
0.560546875
 40
0.5615234375
 40
0.5620117188
 40
0.5625
 40
0.5629882812
 40
0.5634765625
 40
0.564453125
 40
0.56640625
 40
0.568359375
 40
0.5703125
 40
0.57421875
 40
0.578125
 40
0.5859375
 40
0.59375
 40
0.6015625
 40
0.609375
 40
0.61328125
 40
0.6171875
 40
0.619140625
 40
0.62109375
 40
0.623046875
 40
0.6240234375
 40
0.6245117188
 40
0.625
 40
0.6254882812
 40
0.6259765625
 40
0.626953125
 40
0.62890625
 40
0.630859375
 40
0.6328125
 40
0.63671875
 40
0.640625
 40
0.6484375
 40
0.65625
 40
0.6640625
 40
0.671875
 40
0.67578125
 40
0.6796875
 40
0.681640625
 40
0.68359375
 40
0.685546875
 40
0.6865234375
 40
0.6870117188
 40
0.6875
 40
0.6879882812
 40
0.6884765625
 40
0.689453125
 40
0.69140625
 40
0.693359375
 40
0.6953125
 40
0.69921875
 40
0.703125
 40
0.7109375
 40
0.71875
 40
0.7265625
 40
0.734375
 40
0.73828125
 40
0.7421875
 40
0.744140625
 40
0.74609375
 40
0.748046875
 40
0.7490234375
 40
0.7495117188
 40
0.75
 40
0.7504882812
 40
0.7509765625
 40
0.751953125
 40
0.75390625
 40
0.755859375
 40
0.7578125
 40
0.76171875
 40
0.765625
 40
0.7734375
 40
0.78125
 40
0.7890625
 40
0.796875
 40
0.80078125
 40
0.8046875
 40
0.806640625
 40
0.80859375
 40
0.810546875
 40
0.8115234375
 40
0.8120117188
 40
0.8125
 40
0.8129882812
 40
0.8134765625
 40
0.814453125
 40
0.81640625
 40
0.818359375
 40
0.8203125
 40
0.82421875
 40
0.828125
 40
0.8359375
 40
0.84375
 40
0.8515625
 40
0.859375
 40
0.86328125
 40
0.8671875
 40
0.869140625
 40
0.87109375
 40
0.873046875
 40
0.8740234375
 40
0.8745117188
 40
0.875
 40
0.8754882812
 40
0.8759765625
 40
0.876953125
 40
0.87890625
 40
0.880859375
 40
0.8828125
 40
0.88671875
 40
0.890625
 40
0.8984375
 40
0.90625
 40
0.9140625
 40
0.921875
 40
0.92578125
 40
0.9296875
 40
0.931640625
 40
0.93359375
 40
0.935546875
 40
0.9365234375
 40
0.9370117188
 40
0.9375
 40
0.9379882812
 40
0.9384765625
 40
0.939453125
 40
0.94140625
 40
0.943359375
 40
0.9453125
 40
0.94921875
 40
0.953125
 40
0.9609375
 40
0.96875
 40
0.9765625
 40
0.984375
 40
1.0
 40
1.0
 40
1.0
 40
1.0
 10
11.1365407441
 20
6.8302958216
 30
0.0
 10
11.1393549839
 20
6.830376592
 30
0.0
 10
11.1435763437
 20
6.8304977475
 30
0.0
 10
11.1492048232
 20
6.8306592889
 30
0.0
 10
11.1534261833
 20
6.8307804428
 30
0.0
 10
11.1576475417
 20
6.8309016051
 30
0.0
 10
11.1611653455
 20
6.8310025473
 30
0.0
 10
11.163979577
 20
6.8310833603
 30
0.0
 10
11.165738498
 20
6.8311337335
 30
0.0
 10
11.1671455745
 20
6.831174341
 30
0.0
 10
11.1682010471
 20
6.8312039508
 30
0.0
 10
11.169080082
 20
6.8312313165
 30
0.0
 10
11.1696964379
 20
6.8312451916
 30
0.0
 10
11.1700470307
 20
6.8312613659
 30
0.0
 10
11.1703145123
 20
6.8312502686
 30
0.0
 10
11.1705646513
 20
6.8313279604
 30
0.0
 10
11.1709042192
 20
6.8314005789
 30
0.0
 10
11.1714956447
 20
6.8315420909
 30
0.0
 10
11.1723420117
 20
6.831736707
 30
0.0
 10
11.1733570214
 20
6.8319734753
 30
0.0
 10
11.174710588
 20
6.8322880386
 30
0.0
 10
11.1764024707
 20
6.8326816289
 30
0.0
 10
11.1791095254
 20
6.8333111574
 30
0.0
 10
11.182493329
 20
6.8340981427
 30
0.0
 10
11.1865539004
 20
6.835042491
 30
0.0
 10
11.1906144669
 20
6.835986856
 30
0.0
 10
11.1939982829
 20
6.8367737995
 30
0.0
 10
11.1967053128
 20
6.8374034114
 30
0.0
 10
11.1983972583
 20
6.8377967898
 30
0.0
 10
11.1997506962
 20
6.838111788
 30
0.0
 10
11.2007660988
 20
6.8383472277
 30
0.0
 10
11.2016112365
 20
6.8385460008
 30
0.0
 10
11.2022048565
 20
6.8386800919
 30
0.0
 10
11.2025409082
 20
6.8387646006
 30
0.0
 10
11.2028018481
 20
6.8388057692
 30
0.0
 10
11.2030287634
 20
6.8389318471
 30
0.0
 10
11.2033431853
 20
6.8390703337
 30
0.0
 10
11.203887894
 20
6.8393264846
 30
0.0
 10
11.2046689402
 20
6.8396851999
 30
0.0
 10
11.2056049583
 20
6.8401187463
 30
0.0
 10
11.2068534146
 20
6.8406957295
 30
0.0
 10
11.208413837
 20
6.8414173279
 30
0.0
 10
11.2109105955
 20
6.8425716789
 30
0.0
 10
11.2140315151
 20
6.8440146889
 30
0.0
 10
11.2177766319
 20
6.8457462684
 30
0.0
 10
11.2215217412
 20
6.847477864
 30
0.0
 10
11.2246426794
 20
6.8489208337
 30
0.0
 10
11.2271394007
 20
6.8500752653
 30
0.0
 10
11.2286999178
 20
6.8507966587
 30
0.0
 10
11.2299481797
 20
6.8513740628
 30
0.0
 10
11.2308847916
 20
6.8518063235
 30
0.0
 10
11.2316639798
 20
6.8521690614
 30
0.0
 10
11.2322120055
 20
6.8524180313
 30
0.0
 10
11.2325211127
 20
6.8525680235
 30
0.0
 10
11.232764353
 20
6.8526587599
 30
0.0
 10
11.2329639788
 20
6.8528326656
 30
0.0
 10
11.2332453597
 20
6.8530355295
 30
0.0
 10
11.2337306882
 20
6.8534040579
 30
0.0
 10
11.2344277204
 20
6.8539234604
 30
0.0
 10
11.2352625729
 20
6.8545497681
 30
0.0
 10
11.2363762635
 20
6.8553837885
 30
0.0
 10
11.237768187
 20
6.8564266758
 30
0.0
 10
11.2399953708
 20
6.8580950933
 30
0.0
 10
11.2427793137
 20
6.8601806849
 30
0.0
 10
11.2461200627
 20
6.8626833634
 30
0.0
 10
11.2494608007
 20
6.8651860559
 30
0.0
 10
11.2522447709
 20
6.8672716123
 30
0.0
 10
11.2544719002
 20
6.8689401002
 30
0.0
 10
11.2558639622
 20
6.8699828086
 30
0.0
 10
11.2569773685
 20
6.8708171962
 30
0.0
 10
11.2578130896
 20
6.8714423824
 30
0.0
 10
11.2585074041
 20
6.8719652937
 30
0.0
 10
11.2589975841
 20
6.8723275582
 30
0.0
 10
11.2592711916
 20
6.8725404584
 30
0.0
 10
11.2594946949
 20
6.8726835357
 30
0.0
 10
11.2596482553
 20
6.8728900588
 30
0.0
 10
11.2598773994
 20
6.8731432923
 30
0.0
 10
11.2602670347
 20
6.873596762
 30
0.0
 10
11.2608295992
 20
6.8742391851
 30
0.0
 10
11.2615021329
 20
6.8750124002
 30
0.0
 10
11.262399733
 20
6.8760425478
 30
0.0
 10
11.263521429
 20
6.8773305082
 30
0.0
 10
11.2653163125
 20
6.8793910906
 30
0.0
 10
11.2675598582
 20
6.8819668719
 30
0.0
 10
11.2702521399
 20
6.8850577852
 30
0.0
 10
11.2729444079
 20
6.88814871
 30
0.0
 10
11.2751879881
 20
6.8907244628
 30
0.0
 10
11.2769828025
 20
6.892785102
 30
0.0
 10
11.2781046743
 20
6.8940729182
 30
0.0
 10
11.2790019135
 20
6.8951033619
 30
0.0
 10
11.2796755498
 20
6.8958756724
 30
0.0
 10
11.2802346647
 20
6.8965209258
 30
0.0
 10
11.280630458
 20
6.8969693429
 30
0.0
 10
11.2808497353
 20
6.8972306719
 30
0.0
 10
11.2810336035
 20
6.8974123284
 30
0.0
 10
11.2811432758
 20
6.8976488003
 30
0.0
 10
11.2813153858
 20
6.897944976
 30
0.0
 10
11.2816045203
 20
6.8984721918
 30
0.0
 10
11.2820238737
 20
6.8992206999
 30
0.0
 10
11.2825243993
 20
6.9001209032
 30
0.0
 10
11.2831927094
 20
6.9013204779
 30
0.0
 10
11.2840277742
 20
6.9028201847
 30
0.0
 10
11.2853640584
 20
6.9052195822
 30
0.0
 10
11.2870343512
 20
6.9082188751
 30
0.0
 10
11.2890387314
 20
6.911818006
 30
0.0
 10
11.2910430964
 20
6.9154171459
 30
0.0
 10
11.2927134269
 20
6.9184164161
 30
0.0
 10
11.2940496359
 20
6.9208158592
 30
0.0
 10
11.2948848918
 20
6.9223154503
 30
0.0
 10
11.2955528097
 20
6.9235152624
 30
0.0
 10
11.2960545334
 20
6.9244147402
 30
0.0
 10
11.2964701383
 20
6.9251655182
 30
0.0
 10
11.2967659644
 20
6.9256886819
 30
0.0
 10
11.2969273528
 20
6.9259913501
 30
0.0
 10
11.2970699586
 20
6.9262078792
 30
0.0
 10
11.2971301339
 20
6.9264644375
 30
0.0
 10
11.2972391203
 20
6.9267925525
 30
0.0
 10
11.2974164501
 20
6.9273732593
 30
0.0
 10
11.2976767822
 20
6.9281994393
 30
0.0
 10
11.2979861829
 20
6.9291923111
 30
0.0
 10
11.2983997642
 20
6.9305156316
 30
0.0
 10
11.2989163822
 20
6.9321699564
 30
0.0
 10
11.2997431717
 20
6.9348167788
 30
0.0
 10
11.3007765891
 20
6.9381253403
 30
0.0
 10
11.3020167219
 20
6.942095599
 30
0.0
 10
11.3032568384
 20
6.9460658646
 30
0.0
 10
11.3042902966
 20
6.9493744089
 30
0.0
 10
11.3051170045
 20
6.9520212658
 30
0.0
 10
11.3056338299
 20
6.9536755028
 30
0.0
 10
11.3060469857
 20
6.9549990035
 30
0.0
 10
11.3063576863
 20
6.9559913251
 30
0.0
 10
11.3066139512
 20
6.9568192265
 30
0.0
 10
11.3067985415
 20
6.9573968602
 30
0.0
 10
11.3068958948
 20
6.9577298991
 30
0.0
 10
11.3069918034
 20
6.957971333
 30
0.0
 10
11.3070002009
 20
6.9582446665
 30
0.0
 10
11.3070419225
 20
6.9585979843
 30
0.0
 10
11.3071007131
 20
6.9592214747
 30
0.0
 10
11.3071921352
 20
6.9601094648
 30
0.0
 10
11.3072986591
 20
6.9611762131
 30
0.0
 10
11.3074418026
 20
6.962598139
 30
0.0
 10
11.3076203513
 20
6.964375685
 30
0.0
 10
11.307906242
 20
6.9672196812
 30
0.0
 10
11.308263532
 20
6.970774703
 30
0.0
 10
11.3086923135
 20
6.9750407178
 30
0.0
 10
11.309121078
 20
6.9793067354
 30
0.0
 10
11.3094784107
 20
6.98286175
 30
0.0
 10
11.3097642159
 20
6.9857057606
 30
0.0
 10
11.3099429822
 20
6.9874832699
 30
0.0
 10
11.310085679
 20
6.9889052713
 30
0.0
 10
11.3101935675
 20
6.9899717887
 30
0.0
 10
11.31028072
 20
6.9908605011
 30
0.0
 10
11.3103471326
 20
6.9914827021
 30
0.0
 10
11.3103766419
 20
6.9918380858
 30
0.0
 10
11.3104225515
 20
6.9921050737
 30
0.0
 10
11.310377571
 20
6.9923703409
 30
0.0
 10
11.3103493004
 20
6.9927246307
 30
0.0
 10
11.3102850557
 20
6.9933443582
 30
0.0
 10
11.3102010001
 20
6.9942298295
 30
0.0
 10
11.3100968279
 20
6.9952923324
 30
0.0
 10
11.3099590861
 20
6.9967090248
 30
0.0
 10
11.3097865136
 20
6.9984798828
 30
0.0
 10
11.3095106186
 20
7.0013132599
 30
0.0
 10
11.3091656736
 20
7.0048549797
 30
0.0
 10
11.3087517743
 20
7.0091050444
 30
0.0
 10
11.3083378579
 20
7.0133551078
 30
0.0
 10
11.3079929556
 20
7.0168968308
 30
0.0
 10
11.3077169749
 20
7.0197302016
 30
0.0
 10
11.3075446201
 20
7.0215010755
 30
0.0
 10
11.3074064315
 20
7.0229177354
 30
0.0
 10
11.3073036245
 20
7.0239803376
 30
0.0
 10
11.3072152975
 20
7.024865498
 30
0.0
 10
11.307158678
 20
7.0254857805
 30
0.0
 10
11.30711819
 20
7.0258391812
 30
0.0
 10
11.3071107374
 20
7.0261071796
 30
0.0
 10
11.3070156984
 20
7.0263639095
 30
0.0
 10
11.3069195308
 20
7.0267101467
 30
0.0
 10
11.3067370033
 20
7.0273142305
 30
0.0
 10
11.3064836915
 20
7.0281781648
 30
0.0
 10
11.3061765319
 20
7.029214476
 30
0.0
 10
11.3057680985
 20
7.0305963676
 30
0.0
 10
11.3052571757
 20
7.032323683
 30
0.0
 10
11.3044399123
 20
7.035087415
 30
0.0
 10
11.3034182595
 20
7.0385420705
 30
0.0
 10
11.3021923096
 20
7.0426876618
 30
0.0
 10
11.3009663434
 20
7.0468332494
 30
0.0
 10
11.2999447314
 20
7.0502879144
 30
0.0
 10
11.2991273863
 20
7.0530516274
 30
0.0
 10
11.2986166711
 20
7.0547789911
 30
0.0
 10
11.2982078117
 20
7.0561607835
 30
0.0
 10
11.2979019536
 20
7.0571973975
 30
0.0
 10
11.29764457
 20
7.0580603847
 30
0.0
 10
11.2974693113
 20
7.058666159
 30
0.0
 10
11.2973614972
 20
7.0590096876
 30
0.0
 10
11.2973022324
 20
7.0592747375
 30
0.0
 10
11.2971604178
 20
7.0595114877
 30
0.0
 10
11.297000126
 20
7.0598370259
 30
0.0
 10
11.2967061995
 20
7.0604021184
 30
0.0
 10
11.2962933184
 20
7.0612117981
 30
0.0
 10
11.295794859
 20
7.0621823844
 30
0.0
 10
11.295131295
 20
7.063476859
 30
0.0
 10
11.2943014809
 20
7.0650948292
 30
0.0
 10
11.2929739791
 20
7.0676836503
 30
0.0
 10
11.2913145326
 20
7.0709196529
 30
0.0
 10
11.2893232284
 20
7.0748028671
 30
0.0
 10
11.2873319086
 20
7.0786860749
 30
0.0
 10
11.2856725011
 20
7.0819220934
 30
0.0
 10
11.2843449213
 20
7.0845108827
 30
0.0
 10
11.2835153057
 20
7.0861289338
 30
0.0
 10
11.2828513343
 20
7.0874232423
 30
0.0
 10
11.2823541193
 20
7.0883943362
 30
0.0
 10
11.2819373446
 20
7.0892024278
 30
0.0
 10
11.281650369
 20
7.0897703553
 30
0.0
 10
11.2814789401
 20
7.0900913512
 30
0.0
 10
11.2813713349
 20
7.0903420539
 30
0.0
 10
11.2811835851
 20
7.0905547002
 30
0.0
 10
11.2809612074
 20
7.0908515031
 30
0.0
 10
11.2805590214
 20
7.0913647233
 30
0.0
 10
11.2799912795
 20
7.0921011285
 30
0.0
 10
11.2793070746
 20
7.0929834307
 30
0.0
 10
11.2783958195
 20
7.0941603171
 30
0.0
 10
11.2772564019
 20
7.0956312595
 30
0.0
 10
11.2754335287
 20
7.09798486
 30
0.0
 10
11.2731548701
 20
7.1009268284
 30
0.0
 10
11.2704205098
 20
7.1044572059
 30
0.0
 10
11.2676861363
 20
7.1079875734
 30
0.0
 10
11.2654075109
 20
7.1109295668
 30
0.0
 10
11.2635845711
 20
7.1132831173
 30
0.0
 10
11.2624453229
 20
7.1147541865
 30
0.0
 10
11.2615337203
 20
7.1159308127
 30
0.0
 10
11.2608505767
 20
7.1168139099
 30
0.0
 10
11.2602795144
 20
7.1175478277
 30
0.0
 10
11.2598832559
 20
7.1180654884
 30
0.0
 10
11.2596513809
 20
7.1183551765
 30
0.0
 10
11.2594928036
 20
7.1185896771
 30
0.0
 10
11.2592756311
 20
7.1187582985
 30
0.0
 10
11.2590065064
 20
7.1190061065
 30
0.0
 10
11.2585260154
 20
7.1194290639
 30
0.0
 10
11.2578445783
 20
7.1200388862
 30
0.0
 10
11.2570247228
 20
7.1207682771
 30
0.0
 10
11.2559323265
 20
7.1217416352
 30
0.0
 10
11.2545665762
 20
7.1229580462
 30
0.0
 10
11.2523815182
 20
7.124904464
 30
0.0
 10
11.2496501465
 20
7.127337431
 30
0.0
 10
11.2463725227
 20
7.1302570167
 30
0.0
 10
11.2430948886
 20
7.1331765894
 30
0.0
 10
11.2403635429
 20
7.1356095891
 30
0.0
 10
11.2381784329
 20
7.1375559414
 30
0.0
 10
11.2368128147
 20
7.138772519
 30
0.0
 10
11.2357201473
 20
7.139745535
 30
0.0
 10
11.2349011199
 20
7.140475971
 30
0.0
 10
11.2342170918
 20
7.1410825235
 30
0.0
 10
11.2337412262
 20
7.1415113182
 30
0.0
 10
11.2334646904
 20
7.1417497733
 30
0.0
 10
11.2332702826
 20
7.1419471237
 30
0.0
 10
11.2330262048
 20
7.1420737228
 30
0.0
 10
11.2327180933
 20
7.1422672005
 30
0.0
 10
11.2321708259
 20
7.1425942881
 30
0.0
 10
11.2313932355
 20
7.1430675675
 30
0.0
 10
11.2304583207
 20
7.1436329298
 30
0.0
 10
11.2292123986
 20
7.1443876448
 30
0.0
 10
11.2276547798
 20
7.1453307309
 30
0.0
 10
11.2251627106
 20
7.1468398406
 30
0.0
 10
11.2220475825
 20
7.1487261683
 30
0.0
 10
11.2183094474
 20
7.150989789
 30
0.0
 10
11.2145713043
 20
7.1532533952
 30
0.0
 10
11.2114561963
 20
7.1551397591
 30
0.0
 10
11.2089640868
 20
7.1566487965
 30
0.0
 10
11.2074065706
 20
7.1575920665
 30
0.0
 10
11.2061604381
 20
7.158346404
 30
0.0
 10
11.2052261657
 20
7.1589129197
 30
0.0
 10
11.2044465655
 20
7.1593825901
 30
0.0
 10
11.2039028861
 20
7.1597161205
 30
0.0
 10
11.2035890256
 20
7.1598992752
 30
0.0
 10
11.2033626067
 20
7.1600575832
 30
0.0
 10
11.2031018753
 20
7.1601358403
 30
0.0
 10
11.202766202
 20
7.1602681057
 30
0.0
 10
11.2021731974
 20
7.1604865605
 30
0.0
 10
11.2013289633
 20
7.1608054404
 30
0.0
 10
11.2003146345
 20
7.161185185
 30
0.0
 10
11.198962632
 20
7.161692528
 30
0.0
 10
11.1972724796
 20
7.1623263586
 30
0.0
 10
11.1945683192
 20
7.1633406822
 30
0.0
 10
11.1911880899
 20
7.1646085193
 30
0.0
 10
11.1871318277
 20
7.1661299548
 30
0.0
 10
11.1830755598
 20
7.1676513744
 30
0.0
 10
11.1796953449
 20
7.1689192514
 30
0.0
 10
11.1769911556
 20
7.1699334954
 30
0.0
 10
11.1753010766
 20
7.1705675282
 30
0.0
 10
11.1739489235
 20
7.1710744561
 30
0.0
 10
11.1729350548
 20
7.1714554688
 30
0.0
 10
11.1720893813
 20
7.1717703814
 30
0.0
 10
11.1714989462
 20
7.1719959185
 30
0.0
 10
11.1711591559
 20
7.1721168363
 30
0.0
 10
11.1709110707
 20
7.1722299496
 30
0.0
 10
11.1706371546
 20
7.1722573433
 30
0.0
 10
11.1702809433
 20
7.1723237682
 30
0.0
 10
11.1696533755
 20
7.1724260808
 30
0.0
 10
11.1687590448
 20
7.172579525
 30
0.0
 10
11.1676849086
 20
7.1727605405
 30
0.0
 10
11.1662530551
 20
7.1730029833
 30
0.0
 10
11.1644631258
 20
7.1733056641
 30
0.0
 10
11.1615993018
 20
7.1737901616
 30
0.0
 10
11.1580195003
 20
7.1743957121
 30
0.0
 10
11.1537237477
 20
7.1751224032
 30
0.0
 10
11.1494279926
 20
7.1758490862
 30
0.0
 10
11.14370032
 20
7.1768179998
 30
0.0
 10
11.1394045653
 20
7.1775446842
 30
0.0
 10
11.1365407289
 20
7.1780291407
 30
0.0
  0
ENDSEC
  0
SECTION
  2
OBJECTS
  0
DICTIONARY
  5
C
100
AcDbDictionary
280
0
281
1
  3
ACAD_GROUP
350
D
  3
ACAD_MLINESTYLE
350
17
  3
ACAD_LAYOUT
350
1A
  3
ACAD_PLOTSETTINGS
350
19
  3
ACAD_PLOTSTYLENAME
350
E
  3
ACAD_IMAGE_DICT
350
       39F
  3
ACAD_IMAGE_VARS
350
       3A0
  3
ACAD_TABLESTYLE
350
       3A1
  0
IMAGEDEF_REACTOR
  5
39E
100
AcDbRasterImageDefReactor
 90
2
330
28B
  0
DICTIONARY
  5
D
102
{ACAD_REACTORS
330
C
102
}
100
AcDbDictionary
280
0
281
1
  0
ACDBDICTIONARYWDFLT
  5
E
102
{ACAD_REACTORS
330
C
102
}
100
AcDbDictionary
281
1
  3
Normal
350
F
100
AcDbDictionaryWithDefault
340
F
  0
DICTIONARY
  5
39F
330
C
100
AcDbDictionary
281
1
  3
U4H_assy_2_img_1
350
       3A4
  0
RASTERVARIABLES
  5
3A0
330
C
100
AcDbRasterVariables
 90
0
 70
0
 71
1
 72
5
  0
DICTIONARY
  5
17
102
{ACAD_REACTORS
330
C
102
}
100
AcDbDictionary
280
0
281
1
  3
Standard
350
18
  0
DICTIONARY
  5
3A1
330
C
100
AcDbDictionary
281
1
  3
Standard
350
       3A5
  3
Standard1
350
       3A6
  0
DICTIONARY
  5
19
102
{ACAD_REACTORS
330
C
102
}
100
AcDbDictionary
281
1
  0
DICTIONARY
  5
1A
102
{ACAD_REACTORS
330
C
102
}
100
AcDbDictionary
281
1
  3
Model
350
3A2
  3
Layout1
350
3A3
  0
ACDBPLACEHOLDER
  5
F
102
{ACAD_REACTORS
330
E
102
}
  0
MLINESTYLE
  5
18
102
{ACAD_REACTORS
330
17
102
}
100
AcDbMlineStyle
  2
STANDARD
 70
0
  3

 62
256
 51
90.0
 52
90.0
 71
2
 49
0.5
 62
256
  6
BYLAYER
 49
-0.5
 62
256
  6
BYLAYER
  0
LAYOUT
  5
3A2
102
{ACAD_REACTORS
330
1A
102
}
100
AcDbPlotSettings
  1

  2
none_device
  4
ANSI_C_(22.00_x_17.00_Inches)
  6

 40
0.0
 41
0.0
 42
0.0
 43
0.0
 44
558.8
 45
431.8
 46
0.0
 47
0.0
 48
0.0
 49
0.0
140
0.0
141
0.0
142
1.0
143
1.0
 70
1024
 72
0
 73
0
 74
0
  7

 75
0
147
1.0
148
0.0
149
0.0
100
AcDbLayout
  1
Model
 70
0
 71
0
 10
0.0
 20
0.0
 11
22.0
 21
17.0
 12
0.0
 22
0.0
 32
0.0
 14
0.0
 24
0.0
 34
0.0
 15
0.0
 25
0.0
 35
0.0
146
0.0
 13
0.0
 23
0.0
 33
0.0
 16
1.0
 26
0.0
 36
0.0
 17
0.0
 27
1.0
 37
0.0
 76
0
330
20C
345
0
346
0
  0
LAYOUT
  5
3A3
102
{ACAD_REACTORS
330
1A
102
}
100
AcDbPlotSettings
  1

  2
none_device
  4
ANSI_C_(22.00_x_17.00_Inches)
  6

 40
0.0
 41
0.0
 42
0.0
 43
0.0
 44
558.8
 45
431.8
 46
0.0
 47
0.0
 48
0.0
 49
0.0
140
0.0
141
0.0
142
1.0
143
1.0
 70
0
 72
0
 73
0
 74
0
  7

 75
0
147
1.0
148
0.0
149
0.0
100
AcDbLayout
  1
Layout1
 70
0
 71
1
 10
0.0
 20
0.0
 11
22.0
 21
17.0
 12
0.0
 22
0.0
 32
0.0
 14
0.0
 24
0.0
 34
0.0
 15
0.0
 25
0.0
 35
0.0
146
0.0
 13
0.0
 23
0.0
 33
0.0
 16
1.0
 26
0.0
 36
0.0
 17
0.0
 27
1.0
 37
0.0
 76
0
330
20D
345
0
346
0
  0
IMAGEDEF
  5
3A4
102
{ACAD_REACTORS
330
39F
330
39E
102
}
100
AcDbRasterImageDef
 90
0
  1
U4H_assy_2_img_1.png
 10
369.0
 20
92.0
 11
0.0066666667
 21
0.0066666667
280
1
281
0
  0
TABLESTYLE
  5
3A5
102
{ACAD_REACTORS
330
3A1
330
28E
330
28F
102
}
330
3A1
100
AcDbTableStyle
  3
Standard
 70
0
 71
0
 40
0.06
 41
0.06
280
1
281
1
  7
Standard
140
0.18
170
1
 62
0
 63
7
283
0
  7
Standard
140
0.18
170
1
 62
0
 63
7
283
0
  7
Standard
140
0.18
170
1
 62
0
 63
7
283
0
  0
TABLESTYLE
  5
3A6
102
{ACAD_REACTORS
330
3A1
330
28D
102
}
330
3A1
100
AcDbTableStyle
  3
Standard1
 70
1
 71
0
 40
0.06
 41
0.06
280
1
281
1
  7
Standard
140
0.18
170
1
 62
0
 63
7
283
0
  7
Standard
140
0.18
170
1
 62
0
 63
7
283
0
  7
Standard
140
0.18
170
1
 62
0
 63
7
283
0
  0
ENDSEC
  0
EOF
