999
DXF file: U4A_assy_2.dxf
999
Pro/ENGINEER 2014200 by Parametric Technology Corporation
  0
SECTION
  2
HEADER
  9
$ACADVER
  1
AC1021
  9
$DWGCODEPAGE
  3
ANSI_1252
  9
$EXTMAX
 10
22.0
 20
17.0
 30
0.0
  9
$EXTMIN
 10
0.0
 20
0.0
 30
0.0
  9
$LIMMIN
 10
0.0
 20
0.0
  9
$LIMMAX
 10
22.0
 20
17.0
  9
$VIEWCTR
 10
11.0
 20
8.5
  9
$VIEWSIZE
 40
17.0
  9
$CLAYER
  8
0
  9
$LTSCALE
 40
1.21
  9
$CELTYPE
  6
BYLAYER
  9
$DIMSCALE
 40
1.0
  9
$DIMASZ
 40
0.1875
  9
$DIMEXO
 40
0.0625
  9
$DIMDLI
 40
0.836
  9
$DIMEXE
 40
0.125
  9
$DIMCEN
 40
0.198
  9
$DIMLFAC
 40
1.0
  9
$DIMBLK
  1
_FILLED
  9
$DIMTXT
 40
0.1
  9
$DIMTOL
 70
0
  9
$DIMLIM
 70
0
  9
$DIMTFAC
 40
1.0
  9
$DIMGAP
 40
0.09
  9
$DIMDSEP
 70
46
  9
$AUNITS
 70
0
  9
$PDMODE
 70
3
  9
$PDSIZE
 40
0.3125
  9
$HANDSEED
  5
3BF
  9
$TILEMODE
 70
1
  9
$MEASUREMENT
 70
0
  9
$INSUNITS
 70
1
  0
ENDSEC
  0
SECTION
  2
CLASSES
  0
CLASS
  1
ACDBDICTIONARYWDFLT
  2
AcDbDictionaryWithDefault
  3
AutoCAD 2000
 90
0
 91
1
280
0
281
0
  0
CLASS
  1
ACDBPLACEHOLDER
  2
AcDbPlaceHolder
  3
AutoCAD 2000
 90
0
 91
1
280
0
281
0
  0
CLASS
  1
LAYOUT
  2
AcDbLayout
  3
AutoCAD 2000
 90
0
 91
0
280
0
281
0
  0
CLASS
  1
RASTERVARIABLES
  2
AcDbRasterVariables
  3
ISM
 90
0
 91
1
280
0
281
0
  0
CLASS
  1
IMAGEDEF
  2
AcDbRasterImageDef
  3
ISM
 90
0
 91
1
280
0
281
0
  0
CLASS
  1
IMAGEDEF_REACTOR
  2
AcDbRasterImageDefReactor
  3
ISM
 90
0
 91
1
280
0
281
0
  0
CLASS
  1
IMAGE
  2
AcDbRasterImage
  3
ISM
 90
127
 91
1
280
0
281
1
  0
CLASS
  1
TABLESTYLE
  2
AcDbTableStyle
  3
ObjectDBX Classes
 90
2047
 91
1
280
0
281
0
  0
CLASS
  1
ACAD_TABLE
  2
AcDbTable
  3
ObjectDBX Classes
 90
1025
 91
2
280
0
281
1
  0
ENDSEC
  0
SECTION
  2
TABLES
  0
TABLE
  2
VPORT
  5
8
100
AcDbSymbolTable
 70
2
  0
VPORT
  5
1F4
100
AcDbSymbolTableRecord
100
AcDbViewportTableRecord
  2
*ACTIVE
 70
0
 10
0.0
 20
0.0
 11
1.0
 21
1.0
 12
11.0
 22
8.5
 13
0.0
 23
0.0
 14
1.0
 24
1.0
 15
0.0
 25
0.0
 16
0.0
 26
0.0
 36
1.0
 17
0.0
 27
0.0
 37
0.0
 40
17.0
 41
1.2941176471
 42
50.0
 43
0.0
 44
0.0
 50
0.0
 51
0.0
 71
0
 72
100
 73
1
 74
1
 75
0
 76
0
 77
0
 78
0
  0
ENDTAB
  0
TABLE
  2
LTYPE
  5
5
100
AcDbSymbolTable
 70
6
  0
LTYPE
  5
14
100
AcDbSymbolTableRecord
100
AcDbLinetypeTableRecord
  2
BYBLOCK
 70
0
  3

 72
65
 73
0
 40
0.0
  0
LTYPE
  5
15
100
AcDbSymbolTableRecord
100
AcDbLinetypeTableRecord
  2
BYLAYER
 70
0
  3

 72
65
 73
0
 40
0.0
  0
LTYPE
  5
16
100
AcDbSymbolTableRecord
100
AcDbLinetypeTableRecord
  2
CONTINUOUS
 70
64
  3
Solid line
 72
65
 73
0
 40
0.0
  0
LTYPE
  5
1F5
100
AcDbSymbolTableRecord
100
AcDbLinetypeTableRecord
  2
CENTER
 70
64
  3
____ _ ____ _ ____ _ ____ _ ____ _ ____ _ ____
 72
65
 73
4
 40
0.6
 49
0.375
 74
0
 49
-0.075
 74
0
 49
0.075
 74
0
 49
-0.075
 74
0
  0
LTYPE
  5
1F6
100
AcDbSymbolTableRecord
100
AcDbLinetypeTableRecord
  2
HIDDEN
 70
64
  3
- - - - - - - - - - - - - - - - - - - -
 72
65
 73
2
 40
0.2
 49
0.1
 74
0
 49
-0.1
 74
0
  0
LTYPE
  5
1F7
100
AcDbSymbolTableRecord
100
AcDbLinetypeTableRecord
  2
PHANTOM
 70
64
  3
_____ _ _ _____ _ _ _____ _ _ _____
 72
65
 73
6
 40
0.8
 49
0.45
 74
0
 49
-0.05
 74
0
 49
0.1
 74
0
 49
-0.05
 74
0
 49
0.1
 74
0
 49
-0.05
 74
0
  0
LTYPE
  5
1F8
100
AcDbSymbolTableRecord
100
AcDbLinetypeTableRecord
  2
DOT
 70
64
  3
. . . . . . . . . . . . . . . . . . . .
 72
65
 73
2
 40
0.2
 49
0.1
 74
0
 49
-0.1
 74
0
  0
LTYPE
  5
1F9
100
AcDbSymbolTableRecord
100
AcDbLinetypeTableRecord
  2
DASHED
 70
64
  3
- - - - - - - - - - - - - - - - - - - -
 72
65
 73
2
 40
0.2
 49
0.1
 74
0
 49
-0.1
 74
0
  0
ENDTAB
  0
TABLE
  2
LAYER
  5
2
100
AcDbSymbolTable
 70
36
  0
LAYER
  5
10
100
AcDbSymbolTableRecord
100
AcDbLayerTableRecord
  2
0
 70
0
 62
7
  6
CONTINUOUS
370
-3
390
F
  0
LAYER
  5
1FA
100
AcDbSymbolTableRecord
100
AcDbLayerTableRecord
  2
DEFAULT_1
 70
0
 62
7
  6
CENTER
370
-3
390
F
  0
LAYER
  5
1FB
100
AcDbSymbolTableRecord
100
AcDbLayerTableRecord
  2
DEFAULT_2
 70
0
 62
8
  6
HIDDEN
370
-3
390
F
  0
LAYER
  5
1FC
100
AcDbSymbolTableRecord
100
AcDbLayerTableRecord
  2
DEFAULT_3
 70
0
 62
7
  6
PHANTOM
370
-3
390
F
  0
LAYER
  5
1FD
100
AcDbSymbolTableRecord
100
AcDbLayerTableRecord
  2
01___PRT_ALL_DTM_PLN
 70
0
 62
7
  6
CONTINUOUS
370
-3
390
F
  0
LAYER
  5
1FE
100
AcDbSymbolTableRecord
100
AcDbLayerTableRecord
  2
01___PRT_DEF_DTM_PLN
 70
0
 62
7
  6
CONTINUOUS
370
-3
390
F
  0
LAYER
  5
1FF
100
AcDbSymbolTableRecord
100
AcDbLayerTableRecord
  2
02___PRT_ALL_AXES
 70
0
 62
7
  6
CONTINUOUS
370
-3
390
F
  0
LAYER
  5
200
100
AcDbSymbolTableRecord
100
AcDbLayerTableRecord
  2
03___PRT_ALL_CURVES
 70
0
 62
7
  6
CONTINUOUS
370
-3
390
F
  0
LAYER
  5
201
100
AcDbSymbolTableRecord
100
AcDbLayerTableRecord
  2
04___PRT_ALL_DTM_PNT
 70
0
 62
7
  6
CONTINUOUS
370
-3
390
F
  0
LAYER
  5
202
100
AcDbSymbolTableRecord
100
AcDbLayerTableRecord
  2
05___PRT_ALL_DTM_CSYS
 70
0
 62
7
  6
CONTINUOUS
370
-3
390
F
  0
LAYER
  5
203
100
AcDbSymbolTableRecord
100
AcDbLayerTableRecord
  2
05___PRT_DEF_DTM_CSYS
 70
0
 62
7
  6
CONTINUOUS
370
-3
390
F
  0
LAYER
  5
204
100
AcDbSymbolTableRecord
100
AcDbLayerTableRecord
  2
06___PRT_ALL_SURFS
 70
0
 62
7
  6
CONTINUOUS
370
-3
390
F
  0
LAYER
  5
205
100
AcDbSymbolTableRecord
100
AcDbLayerTableRecord
  2
DATUM_PLANES
 70
0
 62
7
  6
CONTINUOUS
370
-3
390
F
  0
LAYER
  5
206
100
AcDbSymbolTableRecord
100
AcDbLayerTableRecord
  2
DIMENSIONS
 70
0
 62
7
  6
CONTINUOUS
370
-3
390
F
  0
LAYER
  5
207
100
AcDbSymbolTableRecord
100
AcDbLayerTableRecord
  2
DTM_500001
 70
0
 62
7
  6
CONTINUOUS
370
-3
390
F
  0
LAYER
  5
208
100
AcDbSymbolTableRecord
100
AcDbLayerTableRecord
  2
PARAMETERDIMENSIONS
 70
0
 62
7
  6
CONTINUOUS
370
-3
390
F
  0
LAYER
  5
209
100
AcDbSymbolTableRecord
100
AcDbLayerTableRecord
  2
PORT_AREAS
 70
0
 62
7
  6
CONTINUOUS
370
-3
390
F
  0
LAYER
  5
20A
100
AcDbSymbolTableRecord
100
AcDbLayerTableRecord
  2
SUNNBOMCOSMETIC
 70
0
 62
7
  6
CONTINUOUS
370
-3
390
F
  0
LAYER
  5
20B
100
AcDbSymbolTableRecord
100
AcDbLayerTableRecord
  2
SUNNBOMSTAMPING
 70
0
 62
7
  6
CONTINUOUS
370
-3
390
F
  0
LAYER
  5
20C
100
AcDbSymbolTableRecord
100
AcDbLayerTableRecord
  2
THREADS
 70
0
 62
7
  6
CONTINUOUS
370
-3
390
F
  0
ENDTAB
  0
TABLE
  2
STYLE
  5
3
100
AcDbSymbolTable
 70
1
  0
STYLE
  5
11
100
AcDbSymbolTableRecord
100
AcDbTextStyleTableRecord
  2
STANDARD
 70
0
 40
0.0
 41
0.8
 50
0.0
 71
0
 42
0.2
  3
txt
  4

  0
STYLE
  5
20D
100
AcDbSymbolTableRecord
100
AcDbTextStyleTableRecord
  2
TEXTSTYLE_1
 70
0
 40
0.0
 41
0.8
 50
0.0
 71
0
 42
0.2
  3
gdt
  4

  0
ENDTAB
  0
TABLE
  2
VIEW
  5
6
100
AcDbSymbolTable
 70
0
  0
ENDTAB
  0
TABLE
  2
UCS
  5
7
100
AcDbSymbolTable
 70
0
  0
ENDTAB
  0
TABLE
  2
APPID
  5
9
100
AcDbSymbolTable
 70
1
  0
APPID
  5
20E
100
AcDbSymbolTableRecord
100
AcDbRegAppTableRecord
  2
ACAD
 70
0
  0
ENDTAB
  0
TABLE
  2
BLOCK_RECORD
  5
1
100
AcDbSymbolTable
 70
0
  0
BLOCK_RECORD
  5
20F
100
AcDbSymbolTableRecord
100
AcDbBlockTableRecord
  2
*Model_Space
  0
BLOCK_RECORD
  5
210
100
AcDbSymbolTableRecord
100
AcDbBlockTableRecord
  2
*Paper_Space
  0
BLOCK_RECORD
  5
211
100
AcDbSymbolTableRecord
100
AcDbBlockTableRecord
  2
SUN_FIRST_THIRD_ANGLE_BL0
  0
BLOCK_RECORD
  5
212
100
AcDbSymbolTableRecord
100
AcDbBlockTableRecord
  2
*T1
  0
BLOCK_RECORD
  5
213
100
AcDbSymbolTableRecord
100
AcDbBlockTableRecord
  2
*T2
  0
ENDTAB
  0
TABLE
  2
DIMSTYLE
  5
A
100
AcDbSymbolTable
 70
1
100
AcDbDimStyleTable
 71
0
  0
DIMSTYLE
105
214
100
AcDbSymbolTableRecord
100
AcDbDimStyleTableRecord
  2
STANDARD
 70
0
  3

  4

 40
1.0
 41
0.1875
 42
0.0625
 43
0.38
 44
0.125
 45
0.0
 46
0.0
 47
0.001
 48
0.001
140
0.1
141
0.09
142
0.0
143
25.4
144
1.0
145
0.0
146
1.0
147
0.09
 71
0.0
 72
0.0
 73
1
 74
1
 75
0
 76
0
 77
0
 78
4
170
0
171
2
172
0
173
0
174
0
175
0
176
0
177
0
178
0
270
2
271
3
272
3
273
2
274
2
275
0
280
0
281
0
282
0
283
1
284
4
285
0
286
0
287
3
288
0
340
11
278
46
  0
ENDTAB
  0
ENDSEC
  0
SECTION
  2
BLOCKS
  0
BLOCK
  5
20
100
AcDbEntity
  8
0
100
AcDbBlockBegin
  2
*Model_Space
 70
0
 10
0.0
 20
0.0
 30
0.0
  3
*Model_Space
  1

  0
ENDBLK
  5
21
100
AcDbEntity
  8
0
100
AcDbBlockEnd
  0
BLOCK
  5
1C
100
AcDbEntity
  8
0
100
AcDbBlockBegin
  2
*Paper_Space
 70
0
 10
0.0
 20
0.0
 30
0.0
  3
*Paper_Space
  1

  0
ENDBLK
  5
1D
100
AcDbEntity
  8
0
100
AcDbBlockEnd
  0
BLOCK
  5
215
100
AcDbEntity
  8
0
100
AcDbBlockBegin
 62
2
  6
CONTINUOUS
  2
SUN_FIRST_THIRD_ANGLE_BL0
 70
64
 10
20.4816717061
 20
1.2289683772
  3
SUN_FIRST_THIRD_ANGLE_BL0
  1

  0
TEXT
  5
216
100
AcDbEntity
  8
0
100
AcDbText
 62
2
  6
CONTINUOUS
 10
19.4750896608
 20
1.4136269581
  7
STANDARD
 40
0.08
  1
FIRST ANGLE
 41
0.8
 72
0
100
AcDbText
  0
TEXT
  5
217
100
AcDbEntity
  8
0
100
AcDbText
 62
2
  6
CONTINUOUS
 10
20.7842537513
 20
1.4047600029
  7
STANDARD
 40
0.08
  1
THIRD ANGLE
 41
0.8
 72
0
100
AcDbText
  0
LINE
  5
218
100
AcDbEntity
  8
0
100
AcDbLine
 62
7
  6
CONTINUOUS
 10
19.4767170086
 20
1.1727031207
 11
19.6334271527
 21
1.1717972817
  0
LINE
  5
219
100
AcDbEntity
  8
0
100
AcDbLine
 62
7
  6
CONTINUOUS
 10
19.6596964832
 20
1.1717972817
 11
19.6950230232
 21
1.171593082
  0
LINE
  5
21A
100
AcDbEntity
  8
0
100
AcDbLine
 62
7
  6
CONTINUOUS
 10
19.7194818561
 20
1.1708914427
 11
19.8852396156
 21
1.1699333054
  0
LINE
  5
21B
100
AcDbEntity
  8
0
100
AcDbLine
 62
7
  6
CONTINUOUS
 10
19.4758111696
 20
1.2723454088
 11
19.88525039
 21
1.3511534004
  0
LINE
  5
21C
100
AcDbEntity
  8
0
100
AcDbLine
 62
7
  6
CONTINUOUS
 10
19.88525039
 20
1.3511534004
 11
19.8831348489
 21
0.9851647912
  0
LINE
  5
21D
100
AcDbEntity
  8
0
100
AcDbLine
 62
7
  6
CONTINUOUS
 10
19.8831348489
 20
0.9851647912
 11
19.4767170086
 21
1.0658141206
  0
LINE
  5
21E
100
AcDbEntity
  8
0
100
AcDbLine
 62
7
  6
CONTINUOUS
 10
19.4767170086
 20
1.0658141206
 11
19.4779056764
 21
1.2714536432
  0
CIRCLE
  5
21F
100
AcDbEntity
  8
0
100
AcDbCircle
 62
7
  6
CONTINUOUS
 10
20.2068232291
 20
1.1717972817
 40
0.175742101
  0
CIRCLE
  5
220
100
AcDbEntity
  8
0
100
AcDbCircle
 62
7
  6
CONTINUOUS
 10
20.2068232291
 20
1.1717972817
 40
0.1005522074
  0
LINE
  5
221
100
AcDbEntity
  8
0
100
AcDbLine
 62
7
  6
CONTINUOUS
 10
20.2077290681
 20
1.3756110529
 11
20.2071171714
 21
1.2379342989
  0
LINE
  5
222
100
AcDbEntity
  8
0
100
AcDbLine
 62
7
  6
CONTINUOUS
 10
20.2077290681
 20
1.2016899681
 11
20.2074674401
 21
1.1428236749
  0
LINE
  5
223
100
AcDbEntity
  8
0
100
AcDbLine
 62
7
  6
CONTINUOUS
 10
20.208634907
 20
1.101141841
 11
20.2080230104
 21
0.963465087
  0
LINE
  5
224
100
AcDbEntity
  8
0
100
AcDbLine
 62
7
  6
CONTINUOUS
 10
20.0066328138
 20
1.1745147986
 11
20.1443095678
 21
1.1739029019
  0
LINE
  5
225
100
AcDbEntity
  8
0
100
AcDbLine
 62
7
  6
CONTINUOUS
 10
20.1832714155
 20
1.1727031207
 11
20.238153505
 21
1.172335442
  0
LINE
  5
226
100
AcDbEntity
  8
0
100
AcDbLine
 62
7
  6
CONTINUOUS
 10
20.2756669918
 20
1.1717972817
 11
20.407916871
 21
1.1712095044
  0
CIRCLE
  5
227
100
AcDbEntity
  8
0
100
AcDbCircle
 62
7
  6
CONTINUOUS
 10
20.7509457401
 20
1.1693297793
 40
0.1722024983
  0
CIRCLE
  5
228
100
AcDbEntity
  8
0
100
AcDbCircle
 62
7
  6
CONTINUOUS
 10
20.7509457401
 20
1.1693297793
 40
0.0985164967
  0
LINE
  5
229
100
AcDbEntity
  8
0
100
AcDbLine
 62
7
  6
CONTINUOUS
 10
20.7169767782
 20
1.170462078
 11
20.7825395137
 21
1.1682766535
  0
LINE
  5
22A
100
AcDbEntity
  8
0
100
AcDbLine
 62
7
  6
CONTINUOUS
 10
20.8177513651
 20
1.1693297793
 11
20.947965719
 21
1.1693297793
  0
LINE
  5
22B
100
AcDbEntity
  8
0
100
AcDbLine
 62
7
  6
CONTINUOUS
 10
20.6875370113
 20
1.170462078
 11
20.5573226574
 21
1.170462078
  0
LINE
  5
22C
100
AcDbEntity
  8
0
100
AcDbLine
 62
7
  6
CONTINUOUS
 10
20.7486811426
 20
1.1987695462
 11
20.7486811426
 21
1.1432869085
  0
LINE
  5
22D
100
AcDbEntity
  8
0
100
AcDbLine
 62
7
  6
CONTINUOUS
 10
20.7498134414
 20
1.1059210505
 11
20.7498134414
 21
0.9757066966
  0
LINE
  5
22E
100
AcDbEntity
  8
0
100
AcDbLine
 62
7
  6
CONTINUOUS
 10
20.7486811426
 20
1.2338708068
 11
20.7486811426
 21
1.3640851607
  0
LINE
  5
22F
100
AcDbEntity
  8
0
100
AcDbLine
 62
7
  6
CONTINUOUS
 10
21.0702539817
 20
1.2701043662
 11
21.4790138229
 21
1.3448360823
  0
LINE
  5
230
100
AcDbEntity
  8
0
100
AcDbLine
 62
7
  6
CONTINUOUS
 10
21.4790138229
 20
1.3448360823
 11
21.4790138229
 21
0.9779712941
  0
LINE
  5
231
100
AcDbEntity
  8
0
100
AcDbLine
 62
7
  6
CONTINUOUS
 10
21.4790138229
 20
0.9779712941
 11
21.069121683
 21
1.0617614
  0
LINE
  5
232
100
AcDbEntity
  8
0
100
AcDbLine
 62
7
  6
CONTINUOUS
 10
21.0702539817
 20
1.2701043662
 11
21.069121683
 21
1.0617614
  0
LINE
  5
233
100
AcDbEntity
  8
0
100
AcDbLine
 62
7
  6
CONTINUOUS
 10
21.4790138229
 20
1.1693297793
 11
21.3159628059
 21
1.1693297793
  0
LINE
  5
234
100
AcDbEntity
  8
0
100
AcDbLine
 62
7
  6
CONTINUOUS
 10
21.2876553377
 20
1.1693297793
 11
21.2502894796
 21
1.1693297793
  0
LINE
  5
235
100
AcDbEntity
  8
0
100
AcDbLine
 62
7
  6
CONTINUOUS
 10
21.2208497126
 20
1.1659328831
 11
21.0713862804
 21
1.1659328831
  0
LINE
  5
236
100
AcDbEntity
  8
0
100
AcDbLine
 62
7
  6
CONTINUOUS
 10
20.4796138713
 20
1.5284908897
 11
20.4766766948
 21
0.9294458646
  0
ENDBLK
  5
237
100
AcDbEntity
  8
0
  6
BYBLOCK
 62
0
100
AcDbBlockEnd
  0
BLOCK
  5
238
100
AcDbEntity
  8
0
100
AcDbBlockBegin
  2
*T1
 70
1
 10
0.0
 20
0.0
  3
*T1
  1

  0
LINE
  5
239
100
AcDbEntity
  8
0
100
AcDbLine
 62
2
  6
CONTINUOUS
 10
9.275
 20
0.0
 11
-0.0
 21
0.0
  0
LINE
  5
23A
100
AcDbEntity
  8
0
100
AcDbLine
 62
2
  6
CONTINUOUS
 10
9.275
 20
0.0
 11
9.275
 21
1.25
  0
LINE
  5
23B
100
AcDbEntity
  8
0
100
AcDbLine
 62
2
  6
CONTINUOUS
 10
9.275
 20
0.625
 11
-0.0
 21
0.625
  0
LINE
  5
23C
100
AcDbEntity
  8
0
100
AcDbLine
 62
2
  6
CONTINUOUS
 10
9.275
 20
1.25
 11
-0.0
 21
1.25
  0
LINE
  5
23D
100
AcDbEntity
  8
0
100
AcDbLine
 62
2
  6
CONTINUOUS
 10
6.8
 20
0.0
 11
6.8
 21
1.25
  0
LINE
  5
23E
100
AcDbEntity
  8
0
100
AcDbLine
 62
2
  6
CONTINUOUS
 10
6.4
 20
0.0
 11
6.4
 21
0.625
  0
LINE
  5
23F
100
AcDbEntity
  8
0
100
AcDbLine
 62
2
  6
CONTINUOUS
 10
5.9
 20
0.0
 11
5.9
 21
0.625
  0
LINE
  5
240
100
AcDbEntity
  8
0
100
AcDbLine
 62
2
  6
CONTINUOUS
 10
5.2
 20
0.0
 11
5.2
 21
0.625
  0
LINE
  5
241
100
AcDbEntity
  8
0
100
AcDbLine
 62
2
  6
CONTINUOUS
 10
4.1
 20
0.0
 11
4.1
 21
1.25
  0
LINE
  5
242
100
AcDbEntity
  8
0
100
AcDbLine
 62
2
  6
CONTINUOUS
 10
-0.0
 20
0.0
 11
-0.0
 21
1.25
  0
MTEXT
  5
243
100
AcDbEntity
  8
0
100
AcDbMText
 62
2
  6
CONTINUOUS
  7
STANDARD
 71
2
 72
1
 10
6.6
 20
0.325
 30
0.0
 11
1.0
 21
0.0
 31
0.0
 44
0.9
  1
2
 40
0.125
 41
0.2
  0
MTEXT
  5
244
100
AcDbEntity
  8
0
100
AcDbMText
 62
2
  6
CONTINUOUS
  7
STANDARD
 71
2
 72
1
 10
6.15
 20
0.325
 30
0.0
 11
1.0
 21
0.0
 31
0.0
 44
0.9
  1
C
 40
0.125
 41
0.2
  0
MTEXT
  5
245
100
AcDbEntity
  8
0
100
AcDbMText
 62
2
  6
CONTINUOUS
  7
STANDARD
 71
2
 72
1
 10
5.55
 20
0.325
 30
0.0
 11
1.0
 21
0.0
 31
0.0
 44
0.9
  1
1.000
 40
0.125
 41
1.0
  0
MTEXT
  5
246
100
AcDbEntity
  8
0
100
AcDbMText
 62
2
  6
CONTINUOUS
  7
STANDARD
 71
2
 72
1
 10
4.65
 20
0.325
 30
0.0
 11
1.0
 21
0.0
 31
0.0
 44
0.9
  1
Jan-03-20
 40
0.125
 41
1.8
  0
MTEXT
  5
247
100
AcDbEntity
  8
0
100
AcDbMText
 62
2
  6
CONTINUOUS
  7
STANDARD
 71
2
 72
1
 10
2.05
 20
0.4625
 30
0.0
 11
1.0
 21
0.0
 31
0.0
 44
0.9
  1
T-9A Sandwich ISO 05 - X&Y (Euro)\PBlocking valves on A and B
 40
0.125
 41
6.6
  0
MTEXT
  5
248
100
AcDbEntity
  8
0
100
AcDbMText
 62
2
  6
CONTINUOUS
  7
STANDARD
 71
1
 72
1
 10
6.45
 20
0.5625
 30
0.0
 11
1.0
 21
0.0
 31
0.0
 44
0.9
  1
SHEET
 40
0.06
 41
0.48
  0
MTEXT
  5
249
100
AcDbEntity
  8
0
100
AcDbMText
 62
2
  6
CONTINUOUS
  7
STANDARD
 71
1
 72
1
 10
5.95
 20
0.5625
 30
0.0
 11
1.0
 21
0.0
 31
0.0
 44
0.9
  1
DWG SIZE
 40
0.06
 41
0.768
  0
MTEXT
  5
24A
100
AcDbEntity
  8
0
100
AcDbMText
 62
2
  6
CONTINUOUS
  7
STANDARD
 71
1
 72
1
 10
5.25
 20
0.5625
 30
0.0
 11
1.0
 21
0.0
 31
0.0
 44
0.9
  1
SCALE
 40
0.06
 41
0.48
  0
MTEXT
  5
24B
100
AcDbEntity
  8
0
100
AcDbMText
 62
2
  6
CONTINUOUS
  7
STANDARD
 71
1
 72
1
 10
4.15
 20
0.5625
 30
0.0
 11
1.0
 21
0.0
 31
0.0
 44
0.9
  1
DATE
 40
0.06
 41
0.384
  0
MTEXT
  5
24C
100
AcDbEntity
  8
0
100
AcDbMText
 62
2
  6
CONTINUOUS
  7
STANDARD
 71
1
 72
1
 10
0.05
 20
0.5625
 30
0.0
 11
1.0
 21
0.0
 31
0.0
 44
0.9
  1
DESCRIPTION
 40
0.06
 41
1.056
  0
MTEXT
  5
24D
100
AcDbEntity
  8
0
100
AcDbMText
 62
2
  6
CONTINUOUS
  7
STANDARD
 71
2
 72
1
 10
5.45
 20
1.0375
 30
0.0
 11
1.0
 21
0.0
 31
0.0
 44
0.9
  1
ALL DIMENSIONS IN INCH\PVIEWS ARE THIRD ANGLE
 40
0.12
 41
4.224
  0
MTEXT
  5
24E
100
AcDbEntity
  8
0
100
AcDbMText
 62
2
  6
CONTINUOUS
  7
STANDARD
 71
2
 72
1
 10
2.05
 20
0.95
 30
0.0
 11
1.0
 21
0.0
 31
0.0
 44
0.9
  1
U4A
 40
0.125
 41
0.6
  0
MTEXT
  5
24F
100
AcDbEntity
  8
0
100
AcDbMText
 62
2
  6
CONTINUOUS
  7
STANDARD
 71
1
 72
1
 10
0.05
 20
1.1875
 30
0.0
 11
1.0
 21
0.0
 31
0.0
 44
0.9
  1
MODEL
 40
0.06
 41
0.48
  0
ENDBLK
  5
250
100
AcDbEntity
  8
0
  6
BYBLOCK
 62
0
100
AcDbBlockEnd
  0
BLOCK
  5
251
100
AcDbEntity
  8
0
100
AcDbBlockBegin
  2
*T2
 70
1
 10
0.0
 20
0.0
  3
*T2
  1

  0
LINE
  5
252
100
AcDbEntity
  8
0
100
AcDbLine
 62
2
  6
CONTINUOUS
 10
0.0
 20
0.0
 11
9.055
 21
0.0
  0
LINE
  5
253
100
AcDbEntity
  8
0
100
AcDbLine
 62
2
  6
CONTINUOUS
 10
0.0
 20
0.0
 11
0.0
 21
-1.844
  0
LINE
  5
254
100
AcDbEntity
  8
0
100
AcDbLine
 62
2
  6
CONTINUOUS
 10
0.0
 20
-0.344
 11
9.055
 21
-0.344
  0
LINE
  5
255
100
AcDbEntity
  8
0
100
AcDbLine
 62
2
  6
CONTINUOUS
 10
0.0
 20
-0.594
 11
9.055
 21
-0.594
  0
LINE
  5
256
100
AcDbEntity
  8
0
100
AcDbLine
 62
2
  6
CONTINUOUS
 10
0.0
 20
-0.844
 11
9.055
 21
-0.844
  0
LINE
  5
257
100
AcDbEntity
  8
0
100
AcDbLine
 62
2
  6
CONTINUOUS
 10
0.0
 20
-1.094
 11
9.055
 21
-1.094
  0
LINE
  5
258
100
AcDbEntity
  8
0
100
AcDbLine
 62
2
  6
CONTINUOUS
 10
0.0
 20
-1.344
 11
9.055
 21
-1.344
  0
LINE
  5
259
100
AcDbEntity
  8
0
100
AcDbLine
 62
2
  6
CONTINUOUS
 10
0.0
 20
-1.594
 11
9.055
 21
-1.594
  0
LINE
  5
25A
100
AcDbEntity
  8
0
100
AcDbLine
 62
2
  6
CONTINUOUS
 10
0.0
 20
-1.844
 11
9.055
 21
-1.844
  0
LINE
  5
25B
100
AcDbEntity
  8
0
100
AcDbLine
 62
2
  6
CONTINUOUS
 10
3.055
 20
0.0
 11
3.055
 21
-1.844
  0
LINE
  5
25C
100
AcDbEntity
  8
0
100
AcDbLine
 62
2
  6
CONTINUOUS
 10
9.055
 20
0.0
 11
9.055
 21
-1.844
  0
MTEXT
  5
25D
100
AcDbEntity
  8
0
100
AcDbMText
 62
2
  6
CONTINUOUS
  7
STANDARD
 71
2
 72
1
 10
1.5275
 20
-0.0995
 30
0.0
 11
1.0
 21
0.0
 31
0.0
 44
0.9
  1
Technical Data
 40
0.145
 41
3.248
  0
MTEXT
  5
25E
100
AcDbEntity
  8
0
100
AcDbMText
 62
2
  6
CONTINUOUS
  7
STANDARD
 71
2
 72
1
 10
4.555
 20
-0.0995
 30
0.0
 11
1.0
 21
0.0
 31
0.0
 44
0.9
  1
U.S. Units
 40
0.145
 41
2.32
  0
MTEXT
  5
25F
100
AcDbEntity
  8
0
100
AcDbMText
 62
2
  6
CONTINUOUS
  7
STANDARD
 71
2
 72
1
 10
7.555
 20
-0.0995
 30
0.0
 11
1.0
 21
0.0
 31
0.0
 44
0.9
  1
Metric Units
 40
0.145
 41
2.784
  0
MTEXT
  5
260
100
AcDbEntity
  8
0
100
AcDbMText
 62
2
  6
CONTINUOUS
  7
STANDARD
 71
2
 72
1
 10
1.5275
 20
-0.4065
 30
0.0
 11
1.0
 21
0.0
 31
0.0
 44
0.9
  1
Cavity
 40
0.125
 41
1.2
  0
MTEXT
  5
261
100
AcDbEntity
  8
0
100
AcDbMText
 62
2
  6
CONTINUOUS
  7
STANDARD
 71
2
 72
1
 10
6.055
 20
-0.4065
 30
0.0
 11
1.0
 21
0.0
 31
0.0
 44
0.9
  1
T-9A
 40
0.125
 41
0.8
  0
MTEXT
  5
262
100
AcDbEntity
  8
0
100
AcDbMText
 62
2
  6
CONTINUOUS
  7
STANDARD
 71
2
 72
1
 10
1.5275
 20
-0.6565
 30
0.0
 11
1.0
 21
0.0
 31
0.0
 44
0.9
  1
Body Features
 40
0.125
 41
2.6
  0
MTEXT
  5
263
100
AcDbEntity
  8
0
100
AcDbMText
 62
2
  6
CONTINUOUS
  7
STANDARD
 71
2
 72
1
 10
6.055
 20
-0.6565
 30
0.0
 11
1.0
 21
0.0
 31
0.0
 44
0.9
  1
Blocking valves on A and B
 40
0.125
 41
5.2
  0
MTEXT
  5
264
100
AcDbEntity
  8
0
100
AcDbMText
 62
2
  6
CONTINUOUS
  7
STANDARD
 71
2
 72
1
 10
1.5275
 20
-0.9065
 30
0.0
 11
1.0
 21
0.0
 31
0.0
 44
0.9
  1
Body Type
 40
0.125
 41
1.8
  0
MTEXT
  5
265
100
AcDbEntity
  8
0
100
AcDbMText
 62
2
  6
CONTINUOUS
  7
STANDARD
 71
2
 72
1
 10
6.055
 20
-0.9065
 30
0.0
 11
1.0
 21
0.0
 31
0.0
 44
0.9
  1
Sandwich
 40
0.125
 41
1.6
  0
MTEXT
  5
266
100
AcDbEntity
  8
0
100
AcDbMText
 62
2
  6
CONTINUOUS
  7
STANDARD
 71
2
 72
1
 10
1.5275
 20
-1.1565
 30
0.0
 11
1.0
 21
0.0
 31
0.0
 44
0.9
  1
Interface
 40
0.125
 41
1.8
  0
MTEXT
  5
267
100
AcDbEntity
  8
0
100
AcDbMText
 62
2
  6
CONTINUOUS
  7
STANDARD
 71
2
 72
1
 10
6.055
 20
-1.1565
 30
0.0
 11
1.0
 21
0.0
 31
0.0
 44
0.9
  1
ISO 05 - X&Y (Euro)
 40
0.125
 41
3.8
  0
MTEXT
  5
268
100
AcDbEntity
  8
0
100
AcDbMText
 62
2
  6
CONTINUOUS
  7
STANDARD
 71
2
 72
1
 10
1.5275
 20
-1.4065
 30
0.0
 11
1.0
 21
0.0
 31
0.0
 44
0.9
  1
Open Cavity Quantity
 40
0.125
 41
4.0
  0
MTEXT
  5
269
100
AcDbEntity
  8
0
100
AcDbMText
 62
2
  6
CONTINUOUS
  7
STANDARD
 71
2
 72
1
 10
6.055
 20
-1.4065
 30
0.0
 11
1.0
 21
0.0
 31
0.0
 44
0.9
  1
1
 40
0.125
 41
0.2
  0
MTEXT
  5
26A
100
AcDbEntity
  8
0
100
AcDbMText
 62
2
  6
CONTINUOUS
  7
STANDARD
 71
2
 72
1
 10
1.5275
 20
-1.6565
 30
0.0
 11
1.0
 21
0.0
 31
0.0
 44
0.9
  1
Weight
 40
0.125
 41
1.2
  0
MTEXT
  5
26B
100
AcDbEntity
  8
0
100
AcDbMText
 62
2
  6
CONTINUOUS
  7
STANDARD
 71
2
 72
1
 10
4.555
 20
-1.6565
 30
0.0
 11
1.0
 21
0.0
 31
0.0
 44
0.9
  1
5.454 lb.
 40
0.125
 41
1.8
  0
MTEXT
  5
26C
100
AcDbEntity
  8
0
100
AcDbMText
 62
2
  6
CONTINUOUS
  7
STANDARD
 71
2
 72
1
 10
7.555
 20
-1.6565
 30
0.0
 11
1.0
 21
0.0
 31
0.0
 44
0.9
  1
2,474 kg.
 40
0.125
 41
1.8
  0
ENDBLK
  5
26D
100
AcDbEntity
  8
0
  6
BYBLOCK
 62
0
100
AcDbBlockEnd
  0
ENDSEC
  0
SECTION
  2
ENTITIES
  0
IMAGE
  5
26E
100
AcDbEntity
  8
0
100
AcDbRasterImage
 62
7
  6
CONTINUOUS
 10
19.2297077316
 20
0.3094318264
 30
0.0
 11
0.0066666667
 21
0.0
 31
0.0
 12
0.0
 22
0.0066666667
 32
0.0
 13
369.0
 23
92.0
340
       3BC
 70
9
280
0
281
50
282
50
283
0
360
       3B6
 71
1
 91
2
 14
-0.5
 24
-0.5
 14
368.5
 24
91.5
  0
INSERT
  5
26F
100
AcDbEntity
  8
0
100
AcDbBlockReference
 62
2
  6
CONTINUOUS
  2
SUN_FIRST_THIRD_ANGLE_BL0
 10
20.4816717061
 20
1.2289683772
  0
ACAD_TABLE
  5
270
100
AcDbEntity
  8
0
 62
2
  6
CONTINUOUS
100
AcDbBlockReference
  2
*T1
 10
12.42375
 20
0.30125
 30
0.0
100
AcDbTable
342
       3BE
343
212
 11
1.0
 21
0.0
 31
0.0
 90
6
 91
4
 92
6
 93
20
 94
0
 95
0
 96
0
 70
1
 41
0.0
141
0.525
141
0.1
141
0.525
141
0.1
142
4.1
142
1.1
142
0.7
142
0.5
142
0.4
142
2.475
171
1
172
0
173
0
174
0
175
1
176
1
 91
33
178
0
145
0.0
301
CELL_VALUE
 90
4
  1
T-9A Sandwich ISO 05 - X&Y (Euro)\PBlocking valves on A and B
304
ACVALUE_END
170
2
140
0.125
171
1
172
0
173
0
174
0
175
1
176
1
 91
33
178
0
145
0.0
301
CELL_VALUE
 90
4
  1
Jan-03-20
304
ACVALUE_END
170
5
140
0.125
171
1
172
0
173
0
174
0
175
1
176
1
 91
33
178
0
145
0.0
301
CELL_VALUE
 90
4
  1
1.000
304
ACVALUE_END
170
5
140
0.125
171
1
172
0
173
0
174
0
175
1
176
1
 91
33
178
0
145
0.0
301
CELL_VALUE
 90
4
  1
C
304
ACVALUE_END
170
5
140
0.125
171
1
172
0
173
0
174
0
175
1
176
1
 91
33
178
0
145
0.0
301
CELL_VALUE
 90
4
  1
2
304
ACVALUE_END
170
5
140
0.125
171
1
172
0
173
0
174
0
175
1
176
1
 91
33
178
0
145
0.0
301
CELL_VALUE
 90
4
  1
 
304
ACVALUE_END
170
1
140
0.125
171
1
172
0
173
0
174
0
175
1
176
1
 91
33
178
0
145
0.0
301
CELL_VALUE
 90
4
  1
DESCRIPTION
304
ACVALUE_END
170
1
140
0.06
171
1
172
0
173
0
174
0
175
1
176
1
 91
33
178
0
145
0.0
301
CELL_VALUE
 90
4
  1
DATE
304
ACVALUE_END
170
1
140
0.06
171
1
172
0
173
0
174
0
175
1
176
1
 91
33
178
0
145
0.0
301
CELL_VALUE
 90
4
  1
SCALE
304
ACVALUE_END
170
1
140
0.06
171
1
172
0
173
0
174
0
175
1
176
1
 91
33
178
0
145
0.0
301
CELL_VALUE
 90
4
  1
DWG SIZE
304
ACVALUE_END
170
1
140
0.06
171
1
172
0
173
0
174
0
175
1
176
1
 91
33
178
0
145
0.0
301
CELL_VALUE
 90
4
  1
SHEET
304
ACVALUE_END
170
1
140
0.06
171
1
172
0
173
0
174
0
175
1
176
1
 91
33
178
0
145
0.0
301
CELL_VALUE
 90
4
  1
 
304
ACVALUE_END
170
1
140
0.125
171
1
172
0
173
0
174
0
175
1
176
1
 91
33
178
0
145
0.0
301
CELL_VALUE
 90
4
  1
U4A
304
ACVALUE_END
170
5
140
0.125
171
1
172
0
173
0
174
0
175
4
176
1
 91
33
178
0
145
0.0
301
CELL_VALUE
 90
4
  1
ALL DIMENSIONS IN INCH\PVIEWS ARE THIRD ANGLE
304
ACVALUE_END
170
5
140
0.12
171
1
172
0
173
1
174
0
175
1
176
1
 91
1
178
0
145
0.0
170
1
171
1
172
0
173
1
174
0
175
1
176
1
 91
1
178
0
145
0.0
170
1
171
1
172
0
173
1
174
0
175
1
176
1
 91
1
178
0
145
0.0
170
5
171
1
172
0
173
0
174
0
175
1
176
1
 91
33
178
0
145
0.0
301
CELL_VALUE
 90
4
  1
 
304
ACVALUE_END
170
1
140
0.125
171
1
172
0
173
0
174
0
175
1
176
1
 91
33
178
0
145
0.0
301
CELL_VALUE
 90
4
  1
MODEL
304
ACVALUE_END
170
1
140
0.06
171
1
172
0
173
0
174
0
175
1
176
1
 91
33
178
0
145
0.0
301
CELL_VALUE
 90
4
  1
 
304
ACVALUE_END
170
1
140
0.125
171
1
172
0
173
0
174
0
175
1
176
1
 91
33
178
0
145
0.0
301
CELL_VALUE
 90
4
  1
 
304
ACVALUE_END
170
1
140
0.125
171
1
172
0
173
0
174
0
175
1
176
1
 91
33
178
0
145
0.0
301
CELL_VALUE
 90
4
  1
 
304
ACVALUE_END
170
1
140
0.125
171
1
172
0
173
0
174
0
175
1
176
1
 91
33
178
0
145
0.0
301
CELL_VALUE
 90
4
  1
 
304
ACVALUE_END
170
1
140
0.125
171
1
172
0
173
0
174
0
175
1
176
1
 91
33
178
0
145
0.0
301
CELL_VALUE
 90
4
  1
 
304
ACVALUE_END
170
1
140
0.125
  0
ACAD_TABLE
  5
271
100
AcDbEntity
  8
0
 62
2
  6
CONTINUOUS
100
AcDbBlockReference
  2
*T2
 10
12.4237499994
 20
16.47875
 30
0.0
100
AcDbTable
342
       3BD
343
213
 11
1.0
 21
0.0
 31
0.0
 90
22
 91
7
 92
3
 93
16
 94
0
 95
0
 96
0
 41
0.028
141
0.344
141
0.25
141
0.25
141
0.25
141
0.25
141
0.25
141
0.25
142
3.055
142
3.0
142
3.0
171
1
172
0
173
0
174
0
175
1
176
1
 91
33
178
0
145
0.0
301
CELL_VALUE
 90
4
  1
Technical Data
304
ACVALUE_END
170
5
140
0.145
171
1
172
0
173
0
174
0
175
1
176
1
 91
33
178
0
145
0.0
301
CELL_VALUE
 90
4
  1
U.S. Units
304
ACVALUE_END
170
5
140
0.145
171
1
172
0
173
0
174
0
175
1
176
1
 91
33
178
0
145
0.0
301
CELL_VALUE
 90
4
  1
Metric Units
304
ACVALUE_END
170
5
140
0.145
171
1
172
0
173
0
174
0
175
1
176
1
 91
33
178
0
145
0.0
301
CELL_VALUE
 90
4
  1
Cavity
304
ACVALUE_END
170
5
140
0.125
171
1
172
0
173
0
174
0
175
2
176
1
 91
33
178
0
145
0.0
301
CELL_VALUE
 90
4
  1
T-9A
304
ACVALUE_END
170
5
140
0.125
171
1
172
0
173
1
174
0
175
1
176
1
 91
1
178
0
145
0.0
170
1
171
1
172
0
173
0
174
0
175
1
176
1
 91
33
178
0
145
0.0
301
CELL_VALUE
 90
4
  1
Body Features
304
ACVALUE_END
170
5
140
0.125
171
1
172
0
173
0
174
0
175
2
176
1
 91
33
178
0
145
0.0
301
CELL_VALUE
 90
4
  1
Blocking valves on A and B
304
ACVALUE_END
170
5
140
0.125
171
1
172
0
173
1
174
0
175
1
176
1
 91
1
178
0
145
0.0
170
1
171
1
172
0
173
0
174
0
175
1
176
1
 91
33
178
0
145
0.0
301
CELL_VALUE
 90
4
  1
Body Type
304
ACVALUE_END
170
5
140
0.125
171
1
172
0
173
0
174
0
175
2
176
1
 91
33
178
0
145
0.0
301
CELL_VALUE
 90
4
  1
Sandwich
304
ACVALUE_END
170
5
140
0.125
171
1
172
0
173
1
174
0
175
1
176
1
 91
1
178
0
145
0.0
170
1
171
1
172
0
173
0
174
0
175
1
176
1
 91
33
178
0
145
0.0
301
CELL_VALUE
 90
4
  1
Interface
304
ACVALUE_END
170
5
140
0.125
171
1
172
0
173
0
174
0
175
2
176
1
 91
33
178
0
145
0.0
301
CELL_VALUE
 90
4
  1
ISO 05 - X&Y (Euro)
304
ACVALUE_END
170
5
140
0.125
171
1
172
0
173
1
174
0
175
1
176
1
 91
1
178
0
145
0.0
170
1
171
1
172
0
173
0
174
0
175
1
176
1
 91
33
178
0
145
0.0
301
CELL_VALUE
 90
4
  1
Open Cavity Quantity
304
ACVALUE_END
170
5
140
0.125
171
1
172
0
173
0
174
0
175
2
176
1
 91
33
178
0
145
0.0
301
CELL_VALUE
 90
4
  1
1
304
ACVALUE_END
170
5
140
0.125
171
1
172
0
173
1
174
0
175
1
176
1
 91
1
178
0
145
0.0
170
1
171
1
172
0
173
0
174
0
175
1
176
1
 91
33
178
0
145
0.0
301
CELL_VALUE
 90
4
  1
Weight
304
ACVALUE_END
170
5
140
0.125
171
1
172
0
173
0
174
0
175
1
176
1
 91
33
178
0
145
0.0
301
CELL_VALUE
 90
4
  1
5.454 lb.
304
ACVALUE_END
170
5
140
0.125
171
1
172
0
173
0
174
0
175
1
176
1
 91
33
178
0
145
0.0
301
CELL_VALUE
 90
4
  1
2,474 kg.
304
ACVALUE_END
170
5
140
0.125
  0
MTEXT
  5
272
100
AcDbEntity
  8
0
100
AcDbMText
 62
2
  6
CONTINUOUS
  7
STANDARD
 71
1
 72
1
 10
0.52125
 20
5.75995
 30
0.0
 11
1.0
 21
0.0
 31
0.0
 44
0.6
  3
Notes\P \P1. Important: Carefully consider\P   the maximum system pressure. The\P   pressure rating of the manifold is\P   dependent on the manifold material,\P   with the port type/size a secondary\P   consideration. Manifolds\P   constructed of alu
  1
minum are not\P   rated for pressures higher than\P   3000 psi (210 bar), regardless of\P   the port type/size specified.
 40
0.1
 41
3.04
  0
LINE
  5
273
100
AcDbEntity
  8
0
100
AcDbLine
 62
7
  6
CONTINUOUS
 10
0.30125
 20
0.30125
 11
0.30125
 21
16.69875
  0
LINE
  5
274
100
AcDbEntity
  8
0
100
AcDbLine
 62
7
  6
CONTINUOUS
 10
0.30125
 20
0.30125
 11
21.69875
 21
0.30125
  0
LINE
  5
275
100
AcDbEntity
  8
0
100
AcDbLine
 62
7
  6
CONTINUOUS
 10
0.30125
 20
16.69875
 11
21.69875
 21
16.69875
  0
LINE
  5
276
100
AcDbEntity
  8
0
100
AcDbLine
 62
7
  6
CONTINUOUS
 10
21.69875
 20
0.30125
 11
21.69875
 21
16.69875
  0
LINE
  5
277
100
AcDbEntity
  8
0
100
AcDbLine
 62
7
  6
CONTINUOUS
 10
9.0018527647
 20
6.5822816203
 11
8.9799324461
 21
6.5921082171
  0
LINE
  5
278
100
AcDbEntity
  8
0
100
AcDbLine
 62
7
  6
CONTINUOUS
 10
10.9117842131
 20
6.0959116357
 11
9.3421546524
 21
6.2047658155
  0
LINE
  5
279
100
AcDbEntity
  8
0
100
AcDbLine
 62
7
  6
CONTINUOUS
 10
10.9037608294
 20
6.118105344
 11
9.3341312686
 21
6.2269595238
  0
LINE
  5
27A
100
AcDbEntity
  8
0
100
AcDbLine
 62
4
  6
CONTINUOUS
 10
9.1235594291
 20
7.0838501392
 11
9.1139001701
 21
7.091764455
  0
LINE
  5
27B
100
AcDbEntity
  8
0
100
AcDbLine
 62
4
  6
CONTINUOUS
 10
9.1139001701
 20
7.091764455
 11
9.1042409112
 21
7.1069232148
  0
LINE
  5
27C
100
AcDbEntity
  8
0
100
AcDbLine
 62
7
  6
CONTINUOUS
 10
9.3341312686
 20
6.2269595238
 11
9.3421546524
 21
6.2047658155
  0
LINE
  5
27D
100
AcDbEntity
  8
0
100
AcDbLine
 62
7
  6
CONTINUOUS
 10
11.2360393333
 20
6.4273402555
 11
11.2740064195
 21
6.4330136467
  0
LINE
  5
27E
100
AcDbEntity
  8
0
100
AcDbLine
 62
4
  6
CONTINUOUS
 10
9.2104927584
 20
7.1285324001
 11
9.2008334951
 21
7.1364467162
  0
LINE
  5
27F
100
AcDbEntity
  8
0
100
AcDbLine
 62
4
  6
CONTINUOUS
 10
9.1525372032
 20
7.3716182823
 11
9.2201520147
 21
7.3089736275
  0
LINE
  5
280
100
AcDbEntity
  8
0
100
AcDbLine
 62
4
  6
CONTINUOUS
 10
9.2201520147
 20
7.1133736404
 11
9.2104927584
 21
7.1285324001
  0
LINE
  5
281
100
AcDbEntity
  8
0
100
AcDbLine
 62
4
  6
CONTINUOUS
 10
9.1139001701
 20
7.4467422093
 11
9.1042409112
 21
7.4619009691
  0
LINE
  5
282
100
AcDbEntity
  8
0
100
AcDbLine
 62
7
  6
CONTINUOUS
 10
8.9799324461
 20
6.5921082171
 11
8.9799324461
 21
8.8794207093
  0
LINE
  5
283
100
AcDbEntity
  8
0
100
AcDbLine
 62
7
  6
CONTINUOUS
 10
9.0018527647
 20
6.5822816203
 11
9.0018527647
 21
8.8695941124
  0
LINE
  5
284
100
AcDbEntity
  8
0
100
AcDbLine
 62
4
  6
CONTINUOUS
 10
9.1042409112
 20
7.1069232148
 11
9.1042409112
 21
7.1214121028
  0
LINE
  5
285
100
AcDbEntity
  8
0
100
AcDbLine
 62
4
  6
CONTINUOUS
 10
9.1042409112
 20
7.4619009691
 11
9.1042409112
 21
7.490878745
  0
LINE
  5
286
100
AcDbEntity
  8
0
100
AcDbLine
 62
7
  6
CONTINUOUS
 10
9.3233541443
 20
9.6518176831
 11
10.2615723468
 21
10.5580669293
  0
LINE
  5
287
100
AcDbEntity
  8
0
100
AcDbLine
 62
7
  6
CONTINUOUS
 10
11.4548589762
 20
6.4613306957
 11
11.7381688531
 21
6.441683089
  0
LINE
  5
288
100
AcDbEntity
  8
0
100
AcDbLine
 62
7
  6
CONTINUOUS
 10
10.6077516541
 20
6.4827994366
 11
10.6681220218
 21
6.4437578894
  0
LINE
  5
289
100
AcDbEntity
  8
0
100
AcDbLine
 62
4
  6
CONTINUOUS
 10
9.1332186871
 20
7.4309135777
 11
9.1139001701
 21
7.4467422093
  0
LINE
  5
28A
100
AcDbEntity
  8
0
100
AcDbLine
 62
4
  6
CONTINUOUS
 10
9.162196463
 20
7.2550373069
 11
9.162196463
 21
7.2188150871
  0
LINE
  5
28B
100
AcDbEntity
  8
0
100
AcDbLine
 62
4
  6
CONTINUOUS
 10
9.162196463
 20
7.0159706561
 11
9.162196463
 21
6.9725039923
  0
LINE
  5
28C
100
AcDbEntity
  8
0
100
AcDbLine
 62
4
  6
CONTINUOUS
 10
9.2201520147
 20
7.4828402826
 11
9.2201520147
 21
7.4538625068
  0
LINE
  5
28D
100
AcDbEntity
  8
0
100
AcDbLine
 62
4
  6
CONTINUOUS
 10
9.2201520147
 20
7.2510180758
 11
9.2201520147
 21
7.1930625241
  0
LINE
  5
28E
100
AcDbEntity
  8
0
100
AcDbLine
 62
4
  6
CONTINUOUS
 10
9.2201520147
 20
7.0988847525
 11
9.2201520147
 21
7.1133736404
  0
LINE
  5
28F
100
AcDbEntity
  8
0
100
AcDbLine
 62
7
  6
CONTINUOUS
 10
9.3233541443
 20
9.6518176831
 11
9.3233541443
 21
9.3575137332
  0
LINE
  5
290
100
AcDbEntity
  8
0
100
AcDbLine
 62
7
  6
CONTINUOUS
 10
9.3341312686
 20
9.1788290238
 11
9.3421546524
 21
9.2165227203
  0
LINE
  5
291
100
AcDbEntity
  8
0
100
AcDbLine
 62
7
  6
CONTINUOUS
 10
10.5448822237
 20
10.5384193226
 11
10.8276858074
 21
10.811586624
  0
LINE
  5
292
100
AcDbEntity
  8
0
100
AcDbLine
 62
7
  6
CONTINUOUS
 10
9.4858997018
 20
9.5145206945
 11
9.081624673
 21
9.12402098
  0
LINE
  5
293
100
AcDbEntity
  8
0
100
AcDbLine
 62
7
  6
CONTINUOUS
 10
11.0882157869
 20
10.9040883643
 11
10.6986102074
 21
10.5277582507
  0
LINE
  5
294
100
AcDbEntity
  8
0
100
AcDbLine
 62
7
  6
CONTINUOUS
 10
9.3421546524
 20
9.2165227203
 11
9.7464296813
 21
9.6070224348
  0
LINE
  5
295
100
AcDbEntity
  8
0
100
AcDbLine
 62
4
  6
CONTINUOUS
 10
9.2201520147
 20
6.8743069896
 11
9.1042409112
 21
6.8823454519
  0
LINE
  5
296
100
AcDbEntity
  8
0
100
AcDbLine
 62
4
  6
CONTINUOUS
 10
9.1428779469
 20
7.0825103954
 11
9.1235594291
 21
7.0838501392
  0
LINE
  5
297
100
AcDbEntity
  8
0
100
AcDbLine
 62
4
  6
CONTINUOUS
 10
9.2008334951
 20
7.1364467162
 11
9.1911742388
 21
7.1371165879
  0
LINE
  5
298
100
AcDbEntity
  8
0
100
AcDbLine
 62
4
  6
CONTINUOUS
 10
9.162196463
 20
7.4216595181
 11
9.1332186871
 21
7.4309135777
  0
LINE
  5
299
100
AcDbEntity
  8
0
100
AcDbLine
 62
7
  6
CONTINUOUS
 10
9.6118820507
 20
8.1173538052
 11
9.6118820507
 21
8.0606394933
  0
LINE
  5
29A
100
AcDbEntity
  8
0
100
AcDbLine
 62
4
  6
CONTINUOUS
 10
9.1042409112
 20
7.2590565381
 11
9.2201520147
 21
7.2510180758
  0
LINE
  5
29B
100
AcDbEntity
  8
0
100
AcDbLine
 62
4
  6
CONTINUOUS
 10
9.2201520147
 20
7.3669291792
 11
9.1042409112
 21
7.3749676415
  0
LINE
  5
29C
100
AcDbEntity
  8
0
100
AcDbLine
 62
4
  6
CONTINUOUS
 10
9.1042409112
 20
7.490878745
 11
9.2201520147
 21
7.4828402826
  0
LINE
  5
29D
100
AcDbEntity
  8
0
100
AcDbLine
 62
7
  6
CONTINUOUS
 10
9.6118820507
 20
8.0606394933
 11
9.6722524184
 21
8.021597946
  0
LINE
  5
29E
100
AcDbEntity
  8
0
100
AcDbLine
 62
4
  6
CONTINUOUS
 10
9.2201520147
 20
7.4538625068
 11
9.2104927584
 21
7.4400434905
  0
LINE
  5
29F
100
AcDbEntity
  8
0
100
AcDbLine
 62
7
  6
CONTINUOUS
 10
9.4918916577
 20
8.2215744151
 11
9.5115618889
 21
8.2405744006
  0
LINE
  5
2A0
100
AcDbEntity
  8
0
100
AcDbLine
 62
7
  6
CONTINUOUS
 10
10.9037608294
 20
6.118105344
 11
10.9117842131
 21
6.0959116357
  0
LINE
  5
2A1
100
AcDbEntity
  8
0
100
AcDbLine
 62
4
  6
CONTINUOUS
 10
9.1042409112
 20
7.1214121028
 11
9.1139001701
 21
7.1352311188
  0
LINE
  5
2A2
100
AcDbEntity
  8
0
100
AcDbLine
 62
4
  6
CONTINUOUS
 10
9.1815149825
 20
7.1305420157
 11
9.1525372032
 21
7.0890849677
  0
LINE
  5
2A3
100
AcDbEntity
  8
0
100
AcDbLine
 62
4
  6
CONTINUOUS
 10
9.2104927584
 20
7.0850657363
 11
9.2201520147
 21
7.0988847525
  0
LINE
  5
2A4
100
AcDbEntity
  8
0
100
AcDbLine
 62
7
  6
CONTINUOUS
 10
9.5810389253
 20
8.0308473202
 11
9.6118820507
 21
8.0606394933
  0
LINE
  5
2A5
100
AcDbEntity
  8
0
100
AcDbLine
 62
4
  6
CONTINUOUS
 10
9.1911742388
 20
7.4268943465
 11
9.162196463
 21
7.4216595181
  0
LINE
  5
2A6
100
AcDbEntity
  8
0
100
AcDbLine
 62
7
  6
CONTINUOUS
 10
10.6077516541
 20
6.5395137486
 11
10.6077516541
 21
6.4827994366
  0
LINE
  5
2A7
100
AcDbEntity
  8
0
100
AcDbLine
 62
7
  6
CONTINUOUS
 10
9.641409293
 20
7.9918057729
 11
9.6722524184
 21
8.021597946
  0
LINE
  5
2A8
100
AcDbEntity
  8
0
100
AcDbLine
 62
7
  6
CONTINUOUS
 10
12.6578453476
 20
10.7952341845
 11
12.2682397681
 21
10.418904071
  0
LINE
  5
2A9
100
AcDbEntity
  8
0
100
AcDbLine
 62
7
  6
CONTINUOUS
 10
10.9117842131
 20
9.1076685405
 11
11.316059242
 21
9.498168255
  0
LINE
  5
2AA
100
AcDbEntity
  8
0
100
AcDbLine
 62
7
  6
CONTINUOUS
 10
9.7961906737
 20
7.9065409108
 11
9.8158609049
 21
7.9255408963
  0
LINE
  5
2AB
100
AcDbEntity
  8
0
100
AcDbLine
 62
7
  6
CONTINUOUS
 10
9.0018527647
 20
8.8695941124
 11
8.9799324461
 21
8.8794207093
  0
LINE
  5
2AC
100
AcDbEntity
  8
0
100
AcDbLine
 62
7
  6
CONTINUOUS
 10
10.9037608294
 20
9.0699748441
 11
10.9117842131
 21
9.1076685405
  0
LINE
  5
2AD
100
AcDbEntity
  8
0
100
AcDbLine
 62
7
  6
CONTINUOUS
 10
9.3912518865
 20
7.4148922815
 11
9.2693307899
 21
7.2971255386
  0
LINE
  5
2AE
100
AcDbEntity
  8
0
100
AcDbLine
 62
7
  6
CONTINUOUS
 10
12.6763870556
 20
10.3905989604
 11
11.7381688531
 21
9.4843497142
  0
LINE
  5
2AF
100
AcDbEntity
  8
0
100
AcDbLine
 62
4
  6
CONTINUOUS
 10
10.8477371307
 20
8.2494423823
 11
10.9636482341
 21
8.24140392
  0
LINE
  5
2B0
100
AcDbEntity
  8
0
100
AcDbLine
 62
4
  6
CONTINUOUS
 10
10.8477371307
 20
8.2132201625
 11
10.8477371307
 21
8.2856646022
  0
LINE
  5
2B1
100
AcDbEntity
  8
0
100
AcDbLine
 62
4
  6
CONTINUOUS
 10
10.9056926824
 20
8.3396009227
 11
10.9056926824
 21
8.3830675865
  0
LINE
  5
2B2
100
AcDbEntity
  8
0
100
AcDbLine
 62
4
  6
CONTINUOUS
 10
10.9250111985
 20
8.5700833859
 11
10.9250111985
 21
8.6135500497
  0
LINE
  5
2B3
100
AcDbEntity
  8
0
100
AcDbLine
 62
4
  6
CONTINUOUS
 10
10.9153519422
 20
8.4765754861
 11
10.9056926824
 21
8.4555120261
  0
LINE
  5
2B4
100
AcDbEntity
  8
0
100
AcDbLine
 62
4
  6
CONTINUOUS
 10
10.8477371307
 20
8.4812645892
 11
10.857396387
 21
8.4950836054
  0
LINE
  5
2B5
100
AcDbEntity
  8
0
100
AcDbLine
 62
4
  6
CONTINUOUS
 10
10.9636482341
 20
8.4732261269
 11
10.9539889752
 21
8.4594071108
  0
LINE
  5
2B6
100
AcDbEntity
  8
0
100
AcDbLine
 62
7
  6
CONTINUOUS
 10
9.8806484493
 20
7.6635057519
 11
9.7587273527
 21
7.545739009
  0
LINE
  5
2B7
100
AcDbEntity
  8
0
100
AcDbLine
 62
7
  6
CONTINUOUS
 10
9.9345692579
 20
7.6597663311
 11
9.8126481614
 21
7.5419995882
  0
LINE
  5
2B8
100
AcDbEntity
  8
0
100
AcDbLine
 62
4
  6
CONTINUOUS
 10
9.2104927584
 20
7.4400434905
 11
9.1911742388
 21
7.4268943465
  0
LINE
  5
2B9
100
AcDbEntity
  8
0
100
AcDbLine
 62
4
  6
CONTINUOUS
 10
10.857396387
 20
8.4950836054
 11
10.8670556502
 21
8.5016581772
  0
LINE
  5
2BA
100
AcDbEntity
  8
0
100
AcDbLine
 62
4
  6
CONTINUOUS
 10
10.9539889752
 20
8.4594071108
 11
10.9443297163
 21
8.4528325387
  0
LINE
  5
2BB
100
AcDbEntity
  8
0
100
AcDbLine
 62
7
  6
CONTINUOUS
 10
9.6722524184
 20
8.021597946
 11
9.703281143
 21
8.0373605391
  0
LINE
  5
2BC
100
AcDbEntity
  8
0
100
AcDbLine
 62
4
  6
CONTINUOUS
 10
10.8670556502
 20
8.5016581772
 11
10.8863741629
 21
8.5075628778
  0
LINE
  5
2BD
100
AcDbEntity
  8
0
100
AcDbLine
 62
4
  6
CONTINUOUS
 10
10.9056926824
 20
8.4555120261
 11
10.8863741629
 21
8.4496073261
  0
LINE
  5
2BE
100
AcDbEntity
  8
0
100
AcDbLine
 62
4
  6
CONTINUOUS
 10
10.8863741629
 20
8.5075628778
 11
10.9250111985
 21
8.5048833903
  0
LINE
  5
2BF
100
AcDbEntity
  8
0
100
AcDbLine
 62
4
  6
CONTINUOUS
 10
10.8863741629
 20
8.4496073261
 11
10.8670556502
 21
8.4581915134
  0
LINE
  5
2C0
100
AcDbEntity
  8
0
100
AcDbLine
 62
4
  6
CONTINUOUS
 10
10.8863741629
 20
8.5075628778
 11
10.9056926824
 21
8.4989786899
  0
LINE
  5
2C1
100
AcDbEntity
  8
0
100
AcDbLine
 62
4
  6
CONTINUOUS
 10
10.9250111985
 20
8.5048833903
 11
10.9443297163
 21
8.4962992025
  0
LINE
  5
2C2
100
AcDbEntity
  8
0
100
AcDbLine
 62
4
  6
CONTINUOUS
 10
10.8670556502
 20
8.4581915134
 11
10.857396387
 21
8.4661058296
  0
LINE
  5
2C3
100
AcDbEntity
  8
0
100
AcDbLine
 62
4
  6
CONTINUOUS
 10
10.9443297163
 20
8.4962992025
 11
10.9539889752
 21
8.4883848867
  0
LINE
  5
2C4
100
AcDbEntity
  8
0
100
AcDbLine
 62
4
  6
CONTINUOUS
 10
10.857396387
 20
8.4661058296
 11
10.8477371307
 21
8.4812645892
  0
LINE
  5
2C5
100
AcDbEntity
  8
0
100
AcDbLine
 62
4
  6
CONTINUOUS
 10
10.9539889752
 20
8.4883848867
 11
10.9636482341
 21
8.4732261269
  0
LINE
  5
2C6
100
AcDbEntity
  8
0
100
AcDbLine
 62
4
  6
CONTINUOUS
 10
10.9056926824
 20
8.4989786899
 11
10.9153519422
 21
8.4765754861
  0
LINE
  5
2C7
100
AcDbEntity
  8
0
100
AcDbLine
 62
7
  6
CONTINUOUS
 10
11.2360393333
 20
8.7146527476
 11
11.2360393333
 21
6.4273402555
  0
LINE
  5
2C8
100
AcDbEntity
  8
0
100
AcDbLine
 62
7
  6
CONTINUOUS
 10
13.0200675539
 20
10.4078917829
 11
12.6763870556
 21
10.0759218939
  0
LINE
  5
2C9
100
AcDbEntity
  8
0
100
AcDbLine
 62
7
  6
CONTINUOUS
 10
11.2740064195
 20
8.7203261389
 11
11.6782814483
 21
9.1108258534
  0
LINE
  5
2CA
100
AcDbEntity
  8
0
100
AcDbLine
 62
4
  6
CONTINUOUS
 10
9.1139001701
 20
7.1352311188
 11
9.1332186871
 21
7.148380263
  0
LINE
  5
2CB
100
AcDbEntity
  8
0
100
AcDbLine
 62
4
  6
CONTINUOUS
 10
9.1911742388
 20
7.1371165879
 11
9.1815149825
 21
7.1305420157
  0
LINE
  5
2CC
100
AcDbEntity
  8
0
100
AcDbLine
 62
4
  6
CONTINUOUS
 10
9.1525372032
 20
7.0890849677
 11
9.1428779469
 21
7.0825103954
  0
LINE
  5
2CD
100
AcDbEntity
  8
0
100
AcDbLine
 62
4
  6
CONTINUOUS
 10
9.2008334951
 20
7.0784911645
 11
9.2104927584
 21
7.0850657363
  0
LINE
  5
2CE
100
AcDbEntity
  8
0
100
AcDbLine
 62
4
  6
CONTINUOUS
 10
10.8477371307
 20
8.5971756926
 11
10.9636482341
 21
8.6253594501
  0
LINE
  5
2CF
100
AcDbEntity
  8
0
100
AcDbLine
 62
7
  6
CONTINUOUS
 10
11.2360393333
 20
8.7146527476
 11
11.2740064195
 21
8.7203261389
  0
LINE
  5
2D0
100
AcDbEntity
  8
0
100
AcDbLine
 62
4
  6
CONTINUOUS
 10
10.9636482341
 20
8.5529150105
 11
10.8477371307
 21
8.5971756926
  0
LINE
  5
2D1
100
AcDbEntity
  8
0
100
AcDbLine
 62
7
  6
CONTINUOUS
 10
11.2740064195
 20
8.7203261389
 11
11.2740064195
 21
6.4330136467
  0
LINE
  5
2D2
100
AcDbEntity
  8
0
100
AcDbLine
 62
7
  6
CONTINUOUS
 10
10.4239658208
 20
7.3432733269
 11
10.3020447242
 21
7.225506584
  0
LINE
  5
2D3
100
AcDbEntity
  8
0
100
AcDbLine
 62
7
  6
CONTINUOUS
 10
10.4509262251
 20
7.2947068265
 11
10.3290051285
 21
7.1769400835
  0
LINE
  5
2D4
100
AcDbEntity
  8
0
100
AcDbLine
 62
4
  6
CONTINUOUS
 10
9.1815149825
 20
7.3406308906
 11
9.1042409112
 21
7.3170120898
  0
LINE
  5
2D5
100
AcDbEntity
  8
0
100
AcDbLine
 62
7
  6
CONTINUOUS
 10
9.3341312686
 20
9.1788290238
 11
10.9037608294
 21
9.0699748441
  0
LINE
  5
2D6
100
AcDbEntity
  8
0
100
AcDbLine
 62
7
  6
CONTINUOUS
 10
9.3421546524
 20
9.2165227203
 11
10.9117842131
 21
9.1076685405
  0
LINE
  5
2D7
100
AcDbEntity
  8
0
100
AcDbLine
 62
7
  6
CONTINUOUS
 10
11.6782814483
 20
9.1108258534
 11
11.6782814483
 21
6.8235133612
  0
LINE
  5
2D8
100
AcDbEntity
  8
0
100
AcDbLine
 62
7
  6
CONTINUOUS
 10
11.7381688531
 20
9.4843497142
 11
11.7381688531
 21
6.441683089
  0
LINE
  5
2D9
100
AcDbEntity
  8
0
100
AcDbLine
 62
7
  6
CONTINUOUS
 10
10.4509262251
 20
6.7296003519
 11
10.3290051285
 21
6.6118336089
  0
LINE
  5
2DA
100
AcDbEntity
  8
0
100
AcDbLine
 62
7
  6
CONTINUOUS
 10
10.4239658208
 20
6.6847732722
 11
10.3020447242
 21
6.5670065293
  0
LINE
  5
2DB
100
AcDbEntity
  8
0
100
AcDbLine
 62
7
  6
CONTINUOUS
 10
10.4877612611
 20
6.6437343585
 11
10.5074314923
 21
6.662734344
  0
LINE
  5
2DC
100
AcDbEntity
  8
0
100
AcDbLine
 62
7
  6
CONTINUOUS
 10
9.7464296813
 20
9.6070224348
 11
11.316059242
 21
9.498168255
  0
LINE
  5
2DD
100
AcDbEntity
  8
0
100
AcDbLine
 62
7
  6
CONTINUOUS
 10
9.3233541443
 20
9.6518176831
 11
11.7381688531
 21
9.4843497142
  0
LINE
  5
2DE
100
AcDbEntity
  8
0
100
AcDbLine
 62
7
  6
CONTINUOUS
 10
10.5769085287
 20
6.4530072635
 11
10.6077516541
 21
6.4827994366
  0
LINE
  5
2DF
100
AcDbEntity
  8
0
100
AcDbLine
 62
7
  6
CONTINUOUS
 10
10.6372788964
 20
6.4139657163
 11
10.6681220218
 21
6.4437578894
  0
LINE
  5
2E0
100
AcDbEntity
  8
0
100
AcDbLine
 62
7
  6
CONTINUOUS
 10
10.7920602772
 20
6.3287008542
 11
10.8117305084
 21
6.3477008396
  0
LINE
  5
2E1
100
AcDbEntity
  8
0
100
AcDbLine
 62
7
  6
CONTINUOUS
 10
12.6763870556
 20
10.3905989604
 11
12.6763870556
 21
7.3479323352
  0
LINE
  5
2E2
100
AcDbEntity
  8
0
100
AcDbLine
 62
7
  6
CONTINUOUS
 10
13.0200675539
 20
8.1205792907
 11
12.6763870556
 21
7.7886094017
  0
LINE
  5
2E3
100
AcDbEntity
  8
0
100
AcDbLine
 62
7
  6
CONTINUOUS
 10
11.2740064195
 20
6.4330136467
 11
11.6782814483
 21
6.8235133612
  0
LINE
  5
2E4
100
AcDbEntity
  8
0
100
AcDbLine
 62
7
  6
CONTINUOUS
 10
10.6681220218
 20
6.4437578894
 11
10.6991507464
 21
6.4595204825
  0
LINE
  5
2E5
100
AcDbEntity
  8
0
100
AcDbLine
 62
7
  6
CONTINUOUS
 10
12.6763870556
 20
7.6422362851
 11
12.918375327
 21
7.87597902
  0
LINE
  5
2E6
100
AcDbEntity
  8
0
100
AcDbLine
 62
7
  6
CONTINUOUS
 10
11.5765892215
 20
6.5789130905
 11
11.1723141926
 21
6.188413376
  0
LINE
  5
2E7
100
AcDbEntity
  8
0
100
AcDbLine
 62
7
  6
CONTINUOUS
 10
13.0200675539
 20
8.1205792907
 11
13.0200675539
 21
10.4078917829
  0
LINE
  5
2E8
100
AcDbEntity
  8
0
100
AcDbLine
 62
7
  6
CONTINUOUS
 10
12.6763870556
 20
7.3479323352
 11
11.7381688531
 21
6.441683089
  0
LINE
  5
2E9
100
AcDbEntity
  8
0
100
AcDbLine
 62
7
  6
CONTINUOUS
 10
10.2615723468
 20
10.5580669293
 11
12.6763870556
 21
10.3905989604
  0
LINE
  5
2EA
100
AcDbEntity
  8
0
100
AcDbLine
 62
7
  6
CONTINUOUS
 10
12.6578453476
 20
10.7952341845
 11
11.0882157869
 21
10.9040883643
  0
ARC
  5
2EB
100
AcDbEntity
  8
0
100
AcDbCircle
 62
7
  6
CONTINUOUS
 10
9.8521633074
 20
6.994085904
 40
0.6699925153
100
AcDbArc
 50
26.6598562642
 51
31.4115094164
  0
ARC
  5
2EC
100
AcDbEntity
  8
0
100
AcDbCircle
 62
7
  6
CONTINUOUS
 10
9.8402404879
 20
6.987317284
 40
0.6689722376
100
AcDbArc
 50
206.6562307081
 51
211.4151349724
  0
ARC
  5
2ED
100
AcDbEntity
  8
0
100
AcDbCircle
 62
7
  6
CONTINUOUS
 10
9.7311350262
 20
6.8768147839
 40
0.6689722376
100
AcDbArc
 50
26.6562307081
 51
31.4151349724
  0
ARC
  5
2EE
100
AcDbEntity
  8
0
100
AcDbCircle
 62
7
  6
CONTINUOUS
 10
9.8286193977
 20
6.9382798159
 40
0.6200987324
100
AcDbArc
 50
263.5283744339
 51
266.0300335618
  0
ARC
  5
2EF
100
AcDbEntity
  8
0
100
AcDbCircle
 62
7
  6
CONTINUOUS
 10
9.7427561164
 20
6.9258522519
 40
0.6200987324
100
AcDbArc
 50
83.5283744339
 51
86.0300335618
  0
ARC
  5
2F0
100
AcDbEntity
  8
0
100
AcDbCircle
 62
7
  6
CONTINUOUS
 10
9.8647624256
 20
7.044551574
 40
0.6191624918
100
AcDbArc
 50
83.5264827432
 51
86.0319252525
  0
ARC
  5
2F1
100
AcDbEntity
  8
0
100
AcDbCircle
 62
7
  6
CONTINUOUS
 10
9.8650865832
 20
7.0492255705
 40
0.614477268
100
AcDbArc
 50
86.031919382
 51
88.5488078504
  0
ARC
  5
2F2
100
AcDbEntity
  8
0
100
AcDbCircle
 62
7
  6
CONTINUOUS
 10
9.8282100274
 20
6.9326732402
 40
0.614477268
100
AcDbArc
 50
266.031919382
 51
268.5488078504
  0
ARC
  5
2F3
100
AcDbEntity
  8
0
100
AcDbCircle
 62
7
  6
CONTINUOUS
 10
9.7431654866
 20
6.9314588276
 40
0.614477268
100
AcDbArc
 50
86.031919382
 51
88.5488078504
  0
ARC
  5
2F4
100
AcDbEntity
  8
0
100
AcDbCircle
 62
7
  6
CONTINUOUS
 10
9.9111762397
 20
7.0502581932
 40
0.5932525789
100
AcDbArc
 50
24.3647495294
 51
29.7502751185
  0
ARC
  5
2F5
100
AcDbEntity
  8
0
100
AcDbCircle
 62
7
  6
CONTINUOUS
 10
9.9587902603
 20
6.9950653217
 40
0.5591685417
100
AcDbArc
 50
326.2950117378
 51
331.6569605865
  0
ARC
  5
2F6
100
AcDbEntity
  8
0
100
AcDbCircle
 62
7
  6
CONTINUOUS
 10
9.7345063504
 20
6.9868334891
 40
0.5591685417
100
AcDbArc
 50
146.2950117378
 51
151.6569605865
  0
ARC
  5
2F7
100
AcDbEntity
  8
0
100
AcDbCircle
 62
7
  6
CONTINUOUS
 10
9.8368691637
 20
6.8772985788
 40
0.5591685417
100
AcDbArc
 50
326.2950117378
 51
331.6569605865
  0
ARC
  5
2F8
100
AcDbEntity
  8
0
100
AcDbCircle
 62
7
  6
CONTINUOUS
 10
10.3888953782
 20
8.8235946326
 40
0.5400379292
100
AcDbArc
 50
302.9947950184
 51
303.480370238
  0
ARC
  5
2F9
100
AcDbEntity
  8
0
100
AcDbCircle
 62
7
  6
CONTINUOUS
 10
9.9516978983
 20
7.1858624126
 40
0.4852907537
100
AcDbArc
 50
133.8225783545
 51
134.6323347692
  0
ARC
  5
2FA
100
AcDbEntity
  8
0
100
AcDbCircle
 62
7
  6
CONTINUOUS
 10
9.9272197122
 20
7.1671037437
 40
0.4822786459
100
AcDbArc
 50
127.6001567771
 51
130.8286337854
  0
ARC
  5
2FB
100
AcDbEntity
  8
0
100
AcDbCircle
 62
7
  6
CONTINUOUS
 10
10.3628943869
 20
8.3788183842
 40
0.3320394891
100
AcDbArc
 50
0.0217219446
 51
8.4948495094
  0
ARC
  5
2FC
100
AcDbEntity
  8
0
100
AcDbCircle
 62
7
  6
CONTINUOUS
 10
10.3996121702
 20
8.3688614304
 40
0.3069539334
100
AcDbArc
 50
311.9250124207
 51
313.1963451609
  0
ARC
  5
2FD
100
AcDbEntity
  8
0
100
AcDbCircle
 62
7
  6
CONTINUOUS
 10
10.3362702138
 20
8.4344363723
 40
0.3068743872
100
AcDbArc
 50
135.1753105711
 51
136.0876586105
  0
ARC
  5
2FE
100
AcDbEntity
  8
0
100
AcDbCircle
 62
7
  6
CONTINUOUS
 10
10.4238263451
 20
8.4274306345
 40
0.2686283707
100
AcDbArc
 50
350.6936204316
 51
351.8124995035
  0
ARC
  5
2FF
100
AcDbEntity
  8
0
100
AcDbCircle
 62
7
  6
CONTINUOUS
 10
10.6477460367
 20
8.688863901
 40
0.2096863052
100
AcDbArc
 50
173.7988400432
 51
180.0112009304
  0
ARC
  5
300
100
AcDbEntity
  8
0
100
AcDbCircle
 62
7
  6
CONTINUOUS
 10
10.6512151806
 20
8.6906642013
 40
0.2009079983
100
AcDbArc
 50
175.0944227742
 51
180.0031844488
  0
ARC
  5
301
100
AcDbEntity
  8
0
100
AcDbCircle
 62
7
  6
CONTINUOUS
 10
10.6407754186
 20
6.5245009799
 40
0.1920679931
100
AcDbArc
 50
113.0784760628
 51
133.9685666007
  0
ARC
  5
302
100
AcDbEntity
  8
0
100
AcDbCircle
 62
7
  6
CONTINUOUS
 10
9.6449058152
 20
8.1023410366
 40
0.1920679931
100
AcDbArc
 50
113.0784760624
 51
133.9685666004
  0
ARC
  5
303
100
AcDbEntity
  8
0
100
AcDbCircle
 62
7
  6
CONTINUOUS
 10
10.6782762297
 20
6.4857029347
 40
0.1919769828
100
AcDbArc
 50
314.0401908553
 51
334.27820438
  0
ARC
  5
304
100
AcDbEntity
  8
0
100
AcDbCircle
 62
7
  6
CONTINUOUS
 10
9.6824066263
 20
8.0635429913
 40
0.1919769828
100
AcDbArc
 50
314.0401908553
 51
334.27820438
  0
ARC
  5
305
100
AcDbEntity
  8
0
100
AcDbCircle
 62
7
  6
CONTINUOUS
 10
10.6204165593
 20
6.5063808924
 40
0.1909538695
100
AcDbArc
 50
125.8987524149
 51
134.00315076
  0
ARC
  5
306
100
AcDbEntity
  8
0
100
AcDbCircle
 62
7
  6
CONTINUOUS
 10
9.6245469559
 20
8.0842209491
 40
0.1909538695
100
AcDbArc
 50
125.8987524149
 51
134.0031507599
  0
ARC
  5
307
100
AcDbEntity
  8
0
100
AcDbCircle
 62
7
  6
CONTINUOUS
 10
10.7010290273
 20
6.549883221
 40
0.0599115862
100
AcDbArc
 50
178.3696698885
 51
180.0000563382
  0
ARC
  5
308
100
AcDbEntity
  8
0
100
AcDbCircle
 62
7
  6
CONTINUOUS
 10
9.7051594239
 20
8.1277232776
 40
0.0599115862
100
AcDbArc
 50
178.3696698884
 51
180.0000563382
  0
ARC
  5
309
100
AcDbEntity
  8
0
100
AcDbCircle
 62
7
  6
CONTINUOUS
 10
10.6733650241
 20
6.5081906129
 40
0.0550707706
100
AcDbArc
 50
296.9306324497
 51
297.9805709709
  0
ARC
  5
30A
100
AcDbEntity
  8
0
100
AcDbCircle
 62
7
  6
CONTINUOUS
 10
9.6774954206
 20
8.0860306695
 40
0.0550707706
100
AcDbArc
 50
296.9306324496
 51
297.9805709709
  0
SPLINE
  5
30B
100
AcDbEntity
  8
0
100
AcDbSpline
 62
7
  6
CONTINUOUS
 70
0
 71
3
 72
17
 73
13
 74
0
 42
0.0000001
 43
0.0000001
 44
0.0000000001
 40
0.0
 40
0.0
 40
0.0
 40
0.0
 40
0.1273148359
 40
0.1907080938
 40
0.253886694
 40
0.3795973721
 40
0.5046020162
 40
0.5668927094
 40
0.6290466736
 40
0.7529728785
 40
0.8765701029
 40
1.0
 40
1.0
 40
1.0
 40
1.0
 10
10.4283730007
 20
6.5008878004
 30
0.0
 10
10.4283730007
 20
6.5076313113
 30
0.0
 10
10.4288581412
 20
6.5177416558
 30
0.0
 10
10.43047981
 20
6.5310950851
 30
0.0
 10
10.4327399816
 20
6.5442701916
 30
0.0
 10
10.4367582486
 20
6.5604330717
 30
0.0
 10
10.442352627
 20
6.5760712284
 30
0.0
 10
10.4477318222
 20
6.5881447418
 30
0.0
 10
10.4536897789
 20
6.5998791215
 30
0.0
 10
10.462223586
 20
6.613923829
 30
0.0
 10
10.4741097832
 20
6.6296093803
 30
0.0
 10
10.4830588917
 20
6.6391923633
 30
0.0
 10
10.4877613021
 20
6.6437343162
 30
0.0
  0
SPLINE
  5
30C
100
AcDbEntity
  8
0
100
AcDbSpline
 62
7
  6
CONTINUOUS
 70
0
 71
3
 72
15
 73
11
 74
0
 42
0.0000001
 43
0.0000001
 44
0.0000000001
 40
0.0
 40
0.0
 40
0.0
 40
0.0
 40
0.1240777136
 40
0.2511220676
 40
0.3805653088
 40
0.5108217172
 40
0.639494926
 40
0.764424719
 40
0.8845808224
 40
1.0
 40
1.0
 40
1.0
 40
1.0
 10
10.6372788964
 20
6.5533851085
 30
0.0
 10
10.6400253675
 20
6.5522023415
 30
0.0
 10
10.6455510455
 20
6.5497307632
 30
0.0
 10
10.6537905567
 20
6.5456968539
 30
0.0
 10
10.6619830676
 20
6.5412448326
 30
0.0
 10
10.6699795675
 20
6.5363720327
 30
0.0
 10
10.6776158817
 20
6.5311420473
 30
0.0
 10
10.6847757427
 20
6.5256699532
 30
0.0
 10
10.6914266178
 20
6.5200754496
 30
0.0
 10
10.6956243284
 20
6.5162507091
 30
0.0
 10
10.6976492642
 20
6.5143435612
 30
0.0
  0
SPLINE
  5
30D
100
AcDbEntity
  8
0
100
AcDbSpline
 62
7
  6
CONTINUOUS
 70
0
 71
3
 72
15
 73
11
 74
0
 42
0.0000001
 43
0.0000001
 44
0.0000000001
 40
0.0
 40
0.0
 40
0.0
 40
0.0
 40
0.1387137725
 40
0.2777269652
 40
0.4154031561
 40
0.5490459746
 40
0.6755623724
 40
0.7928750885
 40
0.9006878119
 40
1.0
 40
1.0
 40
1.0
 40
1.0
 10
10.5769085287
 20
6.5227169597
 30
0.0
 10
10.5796309863
 20
6.524266992
 30
0.0
 10
10.5850926806
 20
6.5273513282
 30
0.0
 10
10.5933035572
 20
6.5318901425
 30
0.0
 10
10.6014662124
 20
6.5362783682
 30
0.0
 10
10.609441387
 20
6.5404175169
 30
0.0
 10
10.6170739409
 20
6.5442159561
 30
0.0
 10
10.6242474985
 20
6.5476243977
 30
0.0
 10
10.6309216061
 20
6.5506493995
 30
0.0
 10
10.6352140666
 20
6.5525092203
 30
0.0
 10
10.6372788964
 20
6.5533851085
 30
0.0
  0
SPLINE
  5
30E
100
AcDbEntity
  8
0
100
AcDbSpline
 62
7
  6
CONTINUOUS
 70
0
 71
3
 72
11
 73
7
 74
0
 42
0.0000001
 43
0.0000001
 44
0.0000000001
 40
0.0
 40
0.0
 40
0.0
 40
0.0
 40
0.2732656329
 40
0.5313487246
 40
0.7731209783
 40
1.0
 40
1.0
 40
1.0
 40
1.0
 10
10.700151732
 20
6.4819062055
 30
0.0
 10
10.700151732
 20
6.4848724462
 30
0.0
 10
10.7000371888
 20
6.4906409533
 30
0.0
 10
10.6995192352
 20
6.4990193304
 30
0.0
 10
10.6987191091
 20
6.5068690556
 30
0.0
 10
10.6980238413
 20
6.5119094904
 30
0.0
 10
10.6976492642
 20
6.5143435612
 30
0.0
  0
SPLINE
  5
30F
100
AcDbEntity
  8
0
100
AcDbSpline
 62
7
  6
CONTINUOUS
 70
0
 71
3
 72
11
 73
7
 74
0
 42
0.0000001
 43
0.0000001
 44
0.0000000001
 40
0.0
 40
0.0
 40
0.0
 40
0.0
 40
0.249272203
 40
0.5008802135
 40
0.7525275855
 40
1.0
 40
1.0
 40
1.0
 40
1.0
 10
10.6976492642
 20
6.4446338651
 30
0.0
 10
10.6980151026
 20
6.4477178954
 30
0.0
 10
10.6986939377
 20
6.4539217632
 30
0.0
 10
10.6994969181
 20
6.4632640428
 30
0.0
 10
10.7000235826
 20
6.4726039804
 30
0.0
 10
10.700151732
 20
6.4788229759
 30
0.0
 10
10.700151732
 20
6.4819062055
 30
0.0
  0
SPLINE
  5
310
100
AcDbEntity
  8
0
100
AcDbSpline
 62
7
  6
CONTINUOUS
 70
0
 71
3
 72
38
 73
34
 74
0
 42
0.0000001
 43
0.0000001
 44
0.0000000001
 40
0.0
 40
0.0
 40
0.0
 40
0.0
 40
0.029944812
 40
0.0599139139
 40
0.0899312717
 40
0.1200193174
 40
0.1350994304
 40
0.150204915
 40
0.1804950416
 40
0.2109117799
 40
0.2414680483
 40
0.2721739917
 40
0.3030358878
 40
0.3340569838
 40
0.365236542
 40
0.3965708423
 40
0.4280523939
 40
0.4596710329
 40
0.4914133205
 40
0.5232636592
 40
0.5552038952
 40
0.5872143744
 40
0.6192737535
 40
0.6513599477
 40
0.6834501859
 40
0.7155217223
 40
0.7475519957
 40
0.7795193843
 40
0.8114039982
 40
0.8431871813
 40
0.8748506854
 40
0.9377293214
 40
1.0
 40
1.0
 40
1.0
 40
1.0
 10
10.7920602362
 20
6.3287008965
 30
0.0
 10
10.7884270092
 20
6.325191644
 30
0.0
 10
10.7808749649
 20
6.3184563517
 30
0.0
 10
10.7687757634
 20
6.3092800249
 30
0.0
 10
10.7559667465
 20
6.3010780576
 30
0.0
 10
10.7447678652
 20
6.2950950703
 30
0.0
 10
10.7355314805
 20
6.2908396438
 30
0.0
 10
10.7261044529
 20
6.2869351489
 30
0.0
 10
10.7140101186
 20
6.2827362928
 30
0.0
 10
10.6991053864
 20
6.2788240286
 30
0.0
 10
10.6838756718
 20
6.2760514075
 30
0.0
 10
10.6684049694
 20
6.2744362635
 30
0.0
 10
10.6527784939
 20
6.2739845773
 30
0.0
 10
10.6370821905
 20
6.2747013457
 30
0.0
 10
10.6214021654
 20
6.2765796962
 30
0.0
 10
10.6058249423
 20
6.2796118715
 30
0.0
 10
10.5904355008
 20
6.2837782969
 30
0.0
 10
10.5753191111
 20
6.2890586656
 30
0.0
 10
10.5605577683
 20
6.2954211523
 30
0.0
 10
10.5462336552
 20
6.3028333591
 30
0.0
 10
10.5324240014
 20
6.3112519211
 30
0.0
 10
10.5192061373
 20
6.3206330637
 30
0.0
 10
10.5066508423
 20
6.3309228224
 30
0.0
 10
10.4948289256
 20
6.3420670036
 30
0.0
 10
10.4838031848
 20
6.3540022465
 30
0.0
 10
10.4736364143
 20
6.3666651097
 30
0.0
 10
10.4643819999
 20
6.3799841079
 30
0.0
 10
10.4560932709
 20
6.3938880374
 30
0.0
 10
10.4488132693
 20
6.4082989199
 30
0.0
 10
10.4425847899
 20
6.4231398337
 30
0.0
 10
10.4357413895
 20
6.4433362302
 30
0.0
 10
10.4299502009
 20
6.4692434889
 30
0.0
 10
10.4283730007
 20
6.490383638
 30
0.0
 10
10.4283730007
 20
6.5008878004
 30
0.0
  0
SPLINE
  5
311
100
AcDbEntity
  8
0
100
AcDbSpline
 62
7
  6
CONTINUOUS
 70
0
 71
3
 72
58
 73
54
 74
0
 42
0.0000001
 43
0.0000001
 44
0.0000000001
 40
0.0
 40
0.0
 40
0.0
 40
0.0
 40
0.0311036881
 40
0.0465905488
 40
0.0620239956
 40
0.0927288498
 40
0.1080185634
 40
0.1232684009
 40
0.1384815121
 40
0.1536613576
 40
0.1688121874
 40
0.1839387771
 40
0.1990460596
 40
0.2141392863
 40
0.2442942278
 40
0.2744567609
 40
0.2895594381
 40
0.3046798642
 40
0.3198230822
 40
0.334993731
 40
0.3654247619
 40
0.3960145868
 40
0.4113820902
 40
0.4267979847
 40
0.4422641616
 40
0.4577821839
 40
0.4889672415
 40
0.5203640478
 40
0.5361444902
 40
0.551974645
 40
0.5678524977
 40
0.58377545
 40
0.6157360994
 40
0.6478378676
 40
0.6639359765
 40
0.6800567845
 40
0.6961955629
 40
0.7123475841
 40
0.728507911
 40
0.7446714551
 40
0.7769797727
 40
0.793122956
 40
0.8092494136
 40
0.8253545969
 40
0.8414340341
 40
0.8574834655
 40
0.8734987676
 40
0.9054016335
 40
0.921291582
 40
0.9371359134
 40
0.9529341635
 40
0.9686840572
 40
1.0
 40
1.0
 40
1.0
 40
1.0
 10
10.8318526222
 20
6.4686192103
 30
0.0
 10
10.8318526222
 20
6.4622281305
 30
0.0
 10
10.831382336
 20
6.4526459204
 30
0.0
 10
10.8298107481
 20
6.4399947276
 30
0.0
 10
10.8276209052
 20
6.4275185724
 30
0.0
 10
10.824500455
 20
6.415261707
 30
0.0
 10
10.820468794
 20
6.4033362695
 30
0.0
 10
10.8170035062
 20
6.3945924048
 30
0.0
 10
10.8131022106
 20
6.3860593139
 30
0.0
 10
10.8087732557
 20
6.3777578062
 30
0.0
 10
10.8040268016
 20
6.3697083619
 30
0.0
 10
10.7988754716
 20
6.3619297501
 30
0.0
 10
10.7933309058
 20
6.3544407343
 30
0.0
 10
10.7854351023
 20
6.3448712823
 30
0.0
 10
10.7746430788
 20
6.3337098405
 30
0.0
 10
10.7627345243
 20
6.3237453637
 30
0.0
 10
10.7526186979
 20
6.3165521595
 30
0.0
 10
10.7447451664
 20
6.311553732
 30
0.0
 10
10.7366091276
 20
6.3069666725
 30
0.0
 10
10.725428266
 20
6.3014080199
 30
0.0
 10
10.7108813677
 20
6.2955412931
 30
0.0
 10
10.6957711868
 20
6.2911869611
 30
0.0
 10
10.6834184225
 20
6.2886269446
 30
0.0
 10
10.674023482
 20
6.287169275
 30
0.0
 10
10.6645365188
 20
6.2861815785
 30
0.0
 10
10.6517762486
 20
6.2854943301
 30
0.0
 10
10.6357041998
 20
6.28582344
 30
0.0
 10
10.6196885459
 20
6.2877275177
 30
0.0
 10
10.6069718854
 20
6.2901782936
 30
0.0
 10
10.5974862489
 20
6.2924830578
 30
0.0
 10
10.588093009
 20
6.2952447812
 30
0.0
 10
10.575708198
 20
6.2995311735
 30
0.0
 10
10.5605722777
 20
6.3060012395
 30
0.0
 10
10.5460723798
 20
6.313867568
 30
0.0
 10
10.5349169118
 20
6.3209620676
 30
0.0
 10
10.5267836676
 20
6.326676479
 30
0.0
 10
10.5189130439
 20
6.3327653537
 30
0.0
 10
10.5113243609
 20
6.3392146835
 30
0.0
 10
10.5040348756
 20
6.3460082096
 30
0.0
 10
10.4947414104
 20
6.3554999374
 30
0.0
 10
10.4861123101
 20
6.3656195783
 30
0.0
 10
10.4782141155
 20
6.3762865466
 30
0.0
 10
10.4726708399
 20
6.3845417337
 30
0.0
 10
10.4675204839
 20
6.3930319591
 30
0.0
 10
10.4627747075
 20
6.4017367875
 30
0.0
 10
10.4584459922
 20
6.4106361888
 30
0.0
 10
10.4532516817
 20
6.4227139273
 30
0.0
 10
10.4489183875
 20
6.4351127449
 30
0.0
 10
10.4454905171
 20
6.4477352623
 30
0.0
 10
10.4433800437
 20
6.4572752624
 30
0.0
 10
10.4417331506
 20
6.4668771372
 30
0.0
 10
10.440164948
 20
6.4797019905
 30
0.0
 10
10.4396867135
 20
6.4893813152
 30
0.0
 10
10.4396867135
 20
6.4958160085
 30
0.0
  0
SPLINE
  5
312
100
AcDbEntity
  8
0
100
AcDbSpline
 62
7
  6
CONTINUOUS
 70
0
 71
3
 72
17
 73
13
 74
0
 42
0.0000001
 43
0.0000001
 44
0.0000000001
 40
0.0
 40
0.0
 40
0.0
 40
0.0
 40
0.1273148359
 40
0.1907080938
 40
0.253886694
 40
0.3795973721
 40
0.5046020162
 40
0.5668927094
 40
0.6290466736
 40
0.7529728785
 40
0.8765701029
 40
1.0
 40
1.0
 40
1.0
 40
1.0
 10
10.8514485376
 20
6.4715474123
 30
0.0
 10
10.8514485376
 20
6.4648039014
 30
0.0
 10
10.8509633971
 20
6.4546935569
 30
0.0
 10
10.8493417283
 20
6.4413401276
 30
0.0
 10
10.8470815567
 20
6.428165021
 30
0.0
 10
10.8430632897
 20
6.412002141
 30
0.0
 10
10.8374689113
 20
6.3963639843
 30
0.0
 10
10.8320897161
 20
6.3842904709
 30
0.0
 10
10.8261317594
 20
6.3725560912
 30
0.0
 10
10.8175979523
 20
6.3585113837
 30
0.0
 10
10.8057117551
 20
6.3428258324
 30
0.0
 10
10.7967626466
 20
6.3332428494
 30
0.0
 10
10.7920602362
 20
6.3287008965
 30
0.0
  0
SPLINE
  5
313
100
AcDbEntity
  8
0
100
AcDbSpline
 62
7
  6
CONTINUOUS
 70
0
 71
3
 72
49
 73
45
 74
0
 42
0.0000001
 43
0.0000001
 44
0.0000000001
 40
0.0
 40
0.0
 40
0.0
 40
0.0
 40
0.0313124516
 40
0.0628593141
 40
0.0787075028
 40
0.0945995998
 40
0.126502659
 40
0.1585608398
 40
0.1907402095
 40
0.2068682324
 40
0.2230127563
 40
0.2391689252
 40
0.255331956
 40
0.2714969196
 40
0.2876586436
 40
0.3038119942
 40
0.3199521348
 40
0.3521652624
 40
0.3842696438
 40
0.4162330966
 40
0.4480275395
 40
0.4796318702
 40
0.5110311876
 40
0.5422189324
 40
0.573196104
 40
0.6039722241
 40
0.6345646967
 40
0.6649982209
 40
0.6953044026
 40
0.7104261239
 40
0.7255300429
 40
0.7556952105
 40
0.7707772913
 40
0.7858628248
 40
0.8160556666
 40
0.8311837819
 40
0.8463363278
 40
0.8615175372
 40
0.8767311605
 40
0.9072608757
 40
0.9225962674
 40
0.9379813914
 40
0.9688998926
 40
1.0
 40
1.0
 40
1.0
 40
1.0
 10
10.7111118868
 20
6.4769926088
 30
0.0
 10
10.7111118868
 20
6.4794645672
 30
0.0
 10
10.7108663406
 20
6.4844300095
 30
0.0
 10
10.7099614797
 20
6.4905873024
 30
0.0
 10
10.7088818571
 20
6.4954671944
 30
0.0
 10
10.7075645066
 20
6.5003174052
 30
0.0
 10
10.7054817239
 20
6.5062782103
 30
0.0
 10
10.7023155513
 20
6.5131875383
 30
0.0
 10
10.6991457752
 20
6.5186948455
 30
0.0
 10
10.6963080754
 20
6.5229199556
 30
0.0
 10
10.6940323844
 20
6.5259938509
 30
0.0
 10
10.6916165181
 20
6.5289623092
 30
0.0
 10
10.6890658092
 20
6.5318179249
 30
0.0
 10
10.6863868101
 20
6.5345541466
 30
0.0
 10
10.6835861332
 20
6.5371645394
 30
0.0
 10
10.680670218
 20
6.5396426687
 30
0.0
 10
10.6766410823
 20
6.5427594173
 30
0.0
 10
10.6713537362
 20
6.5462967975
 30
0.0
 10
10.6646631993
 20
6.5499261767
 30
0.0
 10
10.65769435
 20
6.5529054339
 30
0.0
 10
10.6505135739
 20
6.5552036372
 30
0.0
 10
10.6431904258
 20
6.556800757
 30
0.0
 10
10.6357947544
 20
6.5576787447
 30
0.0
 10
10.6283979917
 20
6.5578314907
 30
0.0
 10
10.6210712704
 20
6.5572546028
 30
0.0
 10
10.6138850623
 20
6.5559558986
 30
0.0
 10
10.6069090141
 20
6.5539452208
 30
0.0
 10
10.6002103611
 20
6.5512440555
 30
0.0
 10
10.5949081284
 20
6.5484343936
 30
0.0
 10
10.5908720266
 20
6.5458723474
 30
0.0
 10
10.586985197
 20
6.5431085237
 30
0.0
 10
10.5833235561
 20
6.5400439836
 30
0.0
 10
10.5799220131
 20
6.5367074495
 30
0.0
 10
10.5766995051
 20
6.533194735
 30
0.0
 10
10.5737560115
 20
6.5294295344
 30
0.0
 10
10.5711190101
 20
6.5254478587
 30
0.0
 10
10.5692956169
 20
6.5223545881
 30
0.0
 10
10.5676322727
 20
6.5191648123
 30
0.0
 10
10.5656310434
 20
6.514789438
 30
0.0
 10
10.5639679296
 20
6.510252674
 30
0.0
 10
10.5626547868
 20
6.5055973338
 30
0.0
 10
10.5615722797
 20
6.5008511996
 30
0.0
 10
10.5606681071
 20
6.4947971041
 30
0.0
 10
10.5604274489
 20
6.489897805
 30
0.0
 10
10.5604274489
 20
6.48744261
 30
0.0
  0
SPLINE
  5
314
100
AcDbEntity
  8
0
100
AcDbSpline
 62
7
  6
CONTINUOUS
 70
0
 71
3
 72
23
 73
19
 74
0
 42
0.0000001
 43
0.0000001
 44
0.0000000001
 40
0.0
 40
0.0
 40
0.0
 40
0.0
 40
0.061242766
 40
0.122959969
 40
0.1850386674
 40
0.2474376473
 40
0.3101333753
 40
0.3730736554
 40
0.4361841498
 40
0.4993920833
 40
0.5626218374
 40
0.6257992135
 40
0.6888482708
 40
0.7516992755
 40
0.8142887097
 40
0.8765618576
 40
0.938476233
 40
1.0
 40
1.0
 40
1.0
 40
1.0
 10
10.6411174411
 20
6.549883162
 30
0.0
 10
10.6411174411
 20
6.5479322412
 30
0.0
 10
10.6413087556
 20
6.5440128374
 30
0.0
 10
10.6421541575
 20
6.5381708212
 30
0.0
 10
10.6435557472
 20
6.5323983716
 30
0.0
 10
10.6454977385
 20
6.5267519918
 30
0.0
 10
10.6479631186
 20
6.5212836851
 30
0.0
 10
10.6509273518
 20
6.5160430133
 30
0.0
 10
10.6543638975
 20
6.5110793455
 30
0.0
 10
10.6582405743
 20
6.5064393303
 30
0.0
 10
10.6625206304
 20
6.5021655179
 30
0.0
 10
10.6671651155
 20
6.4982987591
 30
0.0
 10
10.6721295372
 20
6.494873442
 30
0.0
 10
10.677369135
 20
6.4919238368
 30
0.0
 10
10.6828335741
 20
6.489474804
 30
0.0
 10
10.6884734931
 20
6.4875522895
 30
0.0
 10
10.6942345015
 20
6.4861713181
 30
0.0
 10
10.6981350553
 20
6.4856203774
 30
0.0
 10
10.7000865917
 20
6.4854398093
 30
0.0
  0
SPLINE
  5
315
100
AcDbEntity
  8
0
100
AcDbSpline
 62
7
  6
CONTINUOUS
 70
0
 71
3
 72
49
 73
45
 74
0
 42
0.0000001
 43
0.0000001
 44
0.0000000001
 40
0.0
 40
0.0
 40
0.0
 40
0.0
 40
0.0313124516
 40
0.0628593141
 40
0.0787075028
 40
0.0945995998
 40
0.126502659
 40
0.1585608398
 40
0.1907402095
 40
0.2068682324
 40
0.2230127563
 40
0.2391689252
 40
0.255331956
 40
0.2714969196
 40
0.2876586436
 40
0.3038119942
 40
0.3199521348
 40
0.3521652624
 40
0.3842696438
 40
0.4162330966
 40
0.4480275395
 40
0.4796318702
 40
0.5110311876
 40
0.5422189324
 40
0.573196104
 40
0.6039722241
 40
0.6345646967
 40
0.6649982209
 40
0.6953044026
 40
0.7104261239
 40
0.7255300429
 40
0.7556952105
 40
0.7707772913
 40
0.7858628248
 40
0.8160556666
 40
0.8311837819
 40
0.8463363278
 40
0.8615175372
 40
0.8767311605
 40
0.9072608757
 40
0.9225962674
 40
0.9379813914
 40
0.9688998926
 40
1.0
 40
1.0
 40
1.0
 40
1.0
 10
10.5604274489
 20
6.48744261
 30
0.0
 10
10.5604274489
 20
6.4849706516
 30
0.0
 10
10.560672995
 20
6.4800052094
 30
0.0
 10
10.5615778559
 20
6.4738479164
 30
0.0
 10
10.5626574786
 20
6.4689680244
 30
0.0
 10
10.5639748291
 20
6.4641178136
 30
0.0
 10
10.5660576118
 20
6.4581570085
 30
0.0
 10
10.5692237844
 20
6.4512476805
 30
0.0
 10
10.5723935605
 20
6.4457403733
 30
0.0
 10
10.5752312603
 20
6.4415152632
 30
0.0
 10
10.5775069513
 20
6.4384413679
 30
0.0
 10
10.5799228176
 20
6.4354729096
 30
0.0
 10
10.5824735265
 20
6.432617294
 30
0.0
 10
10.5851525256
 20
6.4298810722
 30
0.0
 10
10.5879532025
 20
6.4272706794
 30
0.0
 10
10.5908691177
 20
6.4247925501
 30
0.0
 10
10.5948982534
 20
6.4216758015
 30
0.0
 10
10.6001855995
 20
6.4181384213
 30
0.0
 10
10.6068761364
 20
6.4145090422
 30
0.0
 10
10.6138449857
 20
6.4115297849
 30
0.0
 10
10.6210257618
 20
6.4092315816
 30
0.0
 10
10.6283489099
 20
6.4076344618
 30
0.0
 10
10.6357445813
 20
6.4067564742
 30
0.0
 10
10.643141344
 20
6.4066037282
 30
0.0
 10
10.6504680653
 20
6.407180616
 30
0.0
 10
10.6576542734
 20
6.4084793202
 30
0.0
 10
10.6646303216
 20
6.410489998
 30
0.0
 10
10.6713289746
 20
6.4131911633
 30
0.0
 10
10.6766312072
 20
6.4160008252
 30
0.0
 10
10.6806673091
 20
6.4185628714
 30
0.0
 10
10.6845541387
 20
6.4213266951
 30
0.0
 10
10.6882157796
 20
6.4243912352
 30
0.0
 10
10.6916173226
 20
6.4277277694
 30
0.0
 10
10.6948398306
 20
6.4312404838
 30
0.0
 10
10.6977833241
 20
6.4350056844
 30
0.0
 10
10.7004203256
 20
6.4389873601
 30
0.0
 10
10.7022437188
 20
6.4420806308
 30
0.0
 10
10.7039070629
 20
6.4452704065
 30
0.0
 10
10.7059082923
 20
6.4496457808
 30
0.0
 10
10.7075714061
 20
6.4541825448
 30
0.0
 10
10.7088845489
 20
6.458837885
 30
0.0
 10
10.709967056
 20
6.4635840193
 30
0.0
 10
10.7108712286
 20
6.4696381147
 30
0.0
 10
10.7111118868
 20
6.4745374139
 30
0.0
 10
10.7111118868
 20
6.4769926088
 30
0.0
  0
SPLINE
  5
316
100
AcDbEntity
  8
0
100
AcDbSpline
 62
7
  6
CONTINUOUS
 70
0
 71
3
 72
13
 73
9
 74
0
 42
0.0000001
 43
0.0000001
 44
0.0000000001
 40
0.0
 40
0.0
 40
0.0
 40
0.0
 40
0.2525061031
 40
0.5033171101
 40
0.6280725826
 40
0.7524088264
 40
0.8763708792
 40
1.0
 40
1.0
 40
1.0
 40
1.0
 10
10.6077516541
 20
6.5176542847
 30
0.0
 10
10.6077516541
 20
6.5198154078
 30
0.0
 10
10.6079839599
 20
6.5241266175
 30
0.0
 10
10.6088587859
 20
6.5294420025
 30
0.0
 10
10.6099043758
 20
6.5335927524
 30
0.0
 10
10.6108563407
 20
6.5366422262
 30
0.0
 10
10.6119750495
 20
6.5396240882
 30
0.0
 10
10.612831027
 20
6.5415640418
 30
0.0
 10
10.6132855057
 20
6.5425195697
 30
0.0
  0
SPLINE
  5
317
100
AcDbEntity
  8
0
100
AcDbSpline
 62
7
  6
CONTINUOUS
 70
0
 71
3
 72
19
 73
15
 74
0
 42
0.0000001
 43
0.0000001
 44
0.0000000001
 40
0.0
 40
0.0
 40
0.0
 40
0.0
 40
0.1259165152
 40
0.1890435013
 40
0.2521765074
 40
0.3783027214
 40
0.5041309176
 40
0.5668776413
 40
0.6294512568
 40
0.6918223904
 40
0.7539712289
 40
0.8158897976
 40
0.8775715464
 40
1.0
 40
1.0
 40
1.0
 40
1.0
 10
10.6379368379
 20
6.463278663
 30
0.0
 10
10.6356535526
 20
6.4647552648
 30
0.0
 10
10.6323579808
 20
6.4671873203
 30
0.0
 10
10.628288093
 20
6.4708091597
 30
0.0
 10
10.624443552
 20
6.4746767909
 30
0.0
 10
10.6200962542
 20
6.4799343858
 30
0.0
 10
10.616427445
 20
6.4856766377
 30
0.0
 10
10.6139414216
 20
6.4905000793
 30
0.0
 10
10.6123097647
 20
6.4942132679
 30
0.0
 10
10.6109169428
 20
6.4980086517
 30
0.0
 10
10.6097692335
 20
6.5018704167
 30
0.0
 10
10.6088707863
 20
6.5057827546
 30
0.0
 10
10.6080142664
 20
6.5110285928
 30
0.0
 10
10.6077516541
 20
6.5150104646
 30
0.0
 10
10.6077516541
 20
6.5176542847
 30
0.0
  0
SPLINE
  5
318
100
AcDbEntity
  8
0
100
AcDbSpline
 62
7
  6
CONTINUOUS
 70
0
 71
3
 72
17
 73
13
 74
0
 42
0.0000001
 43
0.0000001
 44
0.0000000001
 40
0.0
 40
0.0
 40
0.0
 40
0.0
 40
0.1214811947
 40
0.1825928933
 40
0.2439208635
 40
0.305493007
 40
0.3673350785
 40
0.4918016094
 40
0.6173948385
 40
0.7440422234
 40
0.8716680821
 40
1.0
 40
1.0
 40
1.0
 40
1.0
 10
10.6983072056
 20
6.4590919638
 30
0.0
 10
10.6960215186
 20
6.4579308347
 30
0.0
 10
10.6924579203
 20
6.4564229299
 30
0.0
 10
10.6875344152
 20
6.4549114985
 30
0.0
 10
10.6837499194
 20
6.4540266746
 30
0.0
 10
10.6798994261
 20
6.4533963848
 30
0.0
 10
10.6746887177
 20
6.452898456
 30
0.0
 10
10.6680857058
 20
6.4529268731
 30
0.0
 10
10.6601865405
 20
6.453997607
 30
0.0
 10
10.6524234794
 20
6.4560839644
 30
0.0
 10
10.6449324109
 20
6.4591505291
 30
0.0
 10
10.6402110017
 20
6.4618079601
 30
0.0
 10
10.6379368379
 20
6.463278663
 30
0.0
  0
SPLINE
  5
319
100
AcDbEntity
  8
0
100
AcDbSpline
 62
7
  6
CONTINUOUS
 70
0
 71
3
 72
11
 73
7
 74
0
 42
0.0000001
 43
0.0000001
 44
0.0000000001
 40
0.0
 40
0.0
 40
0.0
 40
0.0
 40
0.2268797892
 40
0.4686527917
 40
0.7267359359
 40
1.0
 40
1.0
 40
1.0
 40
1.0
 10
10.5769085287
 20
6.5227169597
 30
0.0
 10
10.5772831139
 20
6.5202828367
 30
0.0
 10
10.5779783947
 20
6.5152422942
 30
0.0
 10
10.5787785269
 20
6.5073924096
 30
0.0
 10
10.5792964775
 20
6.4990138885
 30
0.0
 10
10.5794109966
 20
6.4932452934
 30
0.0
 10
10.5794109966
 20
6.4902790162
 30
0.0
  0
SPLINE
  5
31A
100
AcDbEntity
  8
0
100
AcDbSpline
 62
7
  6
CONTINUOUS
 70
0
 71
3
 72
11
 73
7
 74
0
 42
0.0000001
 43
0.0000001
 44
0.0000000001
 40
0.0
 40
0.0
 40
0.0
 40
0.0
 40
0.2474744049
 40
0.499121966
 40
0.750729073
 40
1.0
 40
1.0
 40
1.0
 40
1.0
 10
10.5794109966
 20
6.4902790162
 30
0.0
 10
10.5794109966
 20
6.4871958102
 30
0.0
 10
10.5792828222
 20
6.4809768858
 30
0.0
 10
10.5787561563
 20
6.47163708
 30
0.0
 10
10.5779531821
 20
6.4622949726
 30
0.0
 10
10.5772743595
 20
6.4560912295
 30
0.0
 10
10.5769085287
 20
6.4530072635
 30
0.0
  0
SPLINE
  5
31B
100
AcDbEntity
  8
0
100
AcDbSpline
 62
7
  6
CONTINUOUS
 70
0
 71
3
 72
15
 73
11
 74
0
 42
0.0000001
 43
0.0000001
 44
0.0000000001
 40
0.0
 40
0.0
 40
0.0
 40
0.0
 40
0.1154191779
 40
0.2355752813
 40
0.3605050746
 40
0.4891782854
 40
0.6194346919
 40
0.7488779326
 40
0.8759222867
 40
1.0
 40
1.0
 40
1.0
 40
1.0
 10
10.6372788964
 20
6.4139657163
 30
0.0
 10
10.6352539607
 20
6.4158728642
 30
0.0
 10
10.63105625
 20
6.4196976047
 30
0.0
 10
10.6244053749
 20
6.4252921083
 30
0.0
 10
10.617245514
 20
6.4307642024
 30
0.0
 10
10.6096091997
 20
6.4359941878
 30
0.0
 10
10.6016126998
 20
6.4408669876
 30
0.0
 10
10.5934201889
 20
6.445319009
 30
0.0
 10
10.5851806778
 20
6.4493529183
 30
0.0
 10
10.5796549998
 20
6.4518244966
 30
0.0
 10
10.5769085287
 20
6.4530072635
 30
0.0
  0
SPLINE
  5
31C
100
AcDbEntity
  8
0
100
AcDbSpline
 62
7
  6
CONTINUOUS
 70
0
 71
3
 72
15
 73
11
 74
0
 42
0.0000001
 43
0.0000001
 44
0.0000000001
 40
0.0
 40
0.0
 40
0.0
 40
0.0
 40
0.0993121883
 40
0.2071249118
 40
0.3244376282
 40
0.450954028
 40
0.5845968446
 40
0.7222730351
 40
0.8612862279
 40
1.0
 40
1.0
 40
1.0
 40
1.0
 10
10.6976492642
 20
6.4446338651
 30
0.0
 10
10.6955844343
 20
6.4437579769
 30
0.0
 10
10.6912919738
 20
6.4418981561
 30
0.0
 10
10.6846178662
 20
6.4388731543
 30
0.0
 10
10.6774443085
 20
6.4354647127
 30
0.0
 10
10.6698117546
 20
6.4316662735
 30
0.0
 10
10.6618365801
 20
6.4275271247
 30
0.0
 10
10.6536739249
 20
6.4231388991
 30
0.0
 10
10.6454630483
 20
6.4186000848
 30
0.0
 10
10.640001354
 20
6.4155157486
 30
0.0
 10
10.6372788964
 20
6.4139657163
 30
0.0
  0
SPLINE
  5
31D
100
AcDbEntity
  8
0
100
AcDbSpline
 62
7
  6
CONTINUOUS
 70
0
 71
3
 72
40
 73
36
 74
0
 42
0.0000001
 43
0.0000001
 44
0.0000000001
 40
0.0
 40
0.0
 40
0.0
 40
0.0
 40
0.0299275589
 40
0.0599160714
 40
0.0899846757
 40
0.1201507588
 40
0.150429626
 40
0.1656180488
 40
0.1808392746
 40
0.2113800023
 40
0.2420644903
 40
0.2728972301
 40
0.3038801423
 40
0.3350117637
 40
0.3662882351
 40
0.3977024366
 40
0.4292451487
 40
0.4609043058
 40
0.4926660988
 40
0.5245145436
 40
0.5564322949
 40
0.58840068
 40
0.6204000814
 40
0.6524105147
 40
0.6844115406
 40
0.7163831542
 40
0.7483054209
 40
0.7801599929
 40
0.8119295892
 40
0.8435979117
 40
0.8751488956
 40
0.9065716384
 40
0.9378631313
 40
0.969015287
 40
1.0
 40
1.0
 40
1.0
 40
1.0
 10
10.5084498569
 20
6.6610639162
 30
0.0
 10
10.5123214671
 20
6.66386645
 30
0.0
 10
10.5202863471
 20
6.6691883883
 30
0.0
 10
10.5328076166
 20
6.6762664474
 30
0.0
 10
10.5458555373
 20
6.6824108569
 30
0.0
 10
10.559363356
 20
6.6875934512
 30
0.0
 10
10.5709388016
 20
6.6910847585
 30
0.0
 10
10.5803584067
 20
6.6933744306
 30
0.0
 10
10.5898956368
 20
6.6953304734
 30
0.0
 10
10.6019820097
 20
6.6971332907
 30
0.0
 10
10.6166527571
 20
6.6982598342
 30
0.0
 10
10.631437282
 20
6.6983463049
 30
0.0
 10
10.6462625051
 20
6.6973923278
 30
0.0
 10
10.6610560237
 20
6.6954033866
 30
0.0
 10
10.6757450569
 20
6.6923881483
 30
0.0
 10
10.6902581027
 20
6.6883632298
 30
0.0
 10
10.7045234146
 20
6.6833463241
 30
0.0
 10
10.7184720797
 20
6.677364555
 30
0.0
 10
10.73203463
 20
6.6704446522
 30
0.0
 10
10.7451460965
 20
6.6626232848
 30
0.0
 10
10.7577407162
 20
6.6539361502
 30
0.0
 10
10.7697585329
 20
6.6444282968
 30
0.0
 10
10.7811390428
 20
6.6341441148
 30
0.0
 10
10.7918281226
 20
6.623135792
 30
0.0
 10
10.8017720355
 20
6.6114557745
 30
0.0
 10
10.8109231856
 20
6.5991623111
 30
0.0
 10
10.8192360779
 20
6.586314962
 30
0.0
 10
10.826670232
 20
6.5729767747
 30
0.0
 10
10.8331892838
 20
6.5592129689
 30
0.0
 10
10.8387604666
 20
6.5450909919
 30
0.0
 10
10.843358103
 20
6.5306807248
 30
0.0
 10
10.8469577921
 20
6.5160512312
 30
0.0
 10
10.849543213
 20
6.5012731496
 30
0.0
 10
10.8510989889
 20
6.4864224714
 30
0.0
 10
10.8514485376
 20
6.4764957358
 30
0.0
 10
10.8514485376
 20
6.4715474123
 30
0.0
  0
SPLINE
  5
31E
100
AcDbEntity
  8
0
100
AcDbSpline
 62
7
  6
CONTINUOUS
 70
0
 71
3
 72
58
 73
54
 74
0
 42
0.0000001
 43
0.0000001
 44
0.0000000001
 40
0.0
 40
0.0
 40
0.0
 40
0.0
 40
0.0311036881
 40
0.0465905488
 40
0.0620239956
 40
0.0927288498
 40
0.1080185634
 40
0.1232684009
 40
0.1384815121
 40
0.1536613576
 40
0.1688121874
 40
0.1839387771
 40
0.1990460596
 40
0.2141392863
 40
0.2442942278
 40
0.2744567609
 40
0.2895594381
 40
0.3046798642
 40
0.3198230822
 40
0.334993731
 40
0.3654247619
 40
0.3960145868
 40
0.4113820902
 40
0.4267979847
 40
0.4422641616
 40
0.4577821839
 40
0.4889672415
 40
0.5203640478
 40
0.5361444902
 40
0.551974645
 40
0.5678524977
 40
0.58377545
 40
0.6157360994
 40
0.6478378676
 40
0.6639359765
 40
0.6800567845
 40
0.6961955629
 40
0.7123475841
 40
0.728507911
 40
0.7446714551
 40
0.7769797727
 40
0.793122956
 40
0.8092494136
 40
0.8253545969
 40
0.8414340341
 40
0.8574834655
 40
0.8734987676
 40
0.9054016335
 40
0.921291582
 40
0.9371359134
 40
0.9529341635
 40
0.9686840572
 40
1.0
 40
1.0
 40
1.0
 40
1.0
 10
10.4396867135
 20
6.4958160085
 30
0.0
 10
10.4396867135
 20
6.5022070883
 30
0.0
 10
10.4401569997
 20
6.5117892984
 30
0.0
 10
10.4417285876
 20
6.5244404912
 30
0.0
 10
10.4439184305
 20
6.5369166464
 30
0.0
 10
10.4470388807
 20
6.5491735118
 30
0.0
 10
10.4510705417
 20
6.5610989493
 30
0.0
 10
10.4545358295
 20
6.569842814
 30
0.0
 10
10.4584371251
 20
6.5783759049
 30
0.0
 10
10.46276608
 20
6.5866774126
 30
0.0
 10
10.4675125341
 20
6.5947268569
 30
0.0
 10
10.4726638641
 20
6.6025054687
 30
0.0
 10
10.4782084298
 20
6.6099944845
 30
0.0
 10
10.4861042334
 20
6.6195639365
 30
0.0
 10
10.4968962569
 20
6.6307253783
 30
0.0
 10
10.5088048114
 20
6.6406898551
 30
0.0
 10
10.5189206378
 20
6.6478830594
 30
0.0
 10
10.5267941693
 20
6.6528814868
 30
0.0
 10
10.5349302081
 20
6.6574685463
 30
0.0
 10
10.5461110697
 20
6.6630271989
 30
0.0
 10
10.560657968
 20
6.6688939257
 30
0.0
 10
10.5757681489
 20
6.6732482578
 30
0.0
 10
10.5881209132
 20
6.6758082743
 30
0.0
 10
10.5975158537
 20
6.6772659439
 30
0.0
 10
10.6070028169
 20
6.6782536403
 30
0.0
 10
10.6197630871
 20
6.6789408887
 30
0.0
 10
10.6358351359
 20
6.6786117789
 30
0.0
 10
10.6518507898
 20
6.6767077011
 30
0.0
 10
10.6645674503
 20
6.6742569252
 30
0.0
 10
10.6740530868
 20
6.671952161
 30
0.0
 10
10.6834463267
 20
6.6691904376
 30
0.0
 10
10.6958311377
 20
6.6649040453
 30
0.0
 10
10.710967058
 20
6.6584339793
 30
0.0
 10
10.7254669559
 20
6.6505676508
 30
0.0
 10
10.7366224238
 20
6.6434731512
 30
0.0
 10
10.7447556681
 20
6.6377587398
 30
0.0
 10
10.7526262918
 20
6.6316698652
 30
0.0
 10
10.7602149748
 20
6.6252205353
 30
0.0
 10
10.7675044601
 20
6.6184270092
 30
0.0
 10
10.7767979253
 20
6.6089352814
 30
0.0
 10
10.7854270256
 20
6.5988156405
 30
0.0
 10
10.7933252202
 20
6.5881486722
 30
0.0
 10
10.7988684958
 20
6.5798934851
 30
0.0
 10
10.8040188518
 20
6.5714032598
 30
0.0
 10
10.8087646282
 20
6.5626984314
 30
0.0
 10
10.8130933435
 20
6.5537990301
 30
0.0
 10
10.818287654
 20
6.5417212915
 30
0.0
 10
10.8226209482
 20
6.5293224739
 30
0.0
 10
10.8260488186
 20
6.5166999565
 30
0.0
 10
10.828159292
 20
6.5071599565
 30
0.0
 10
10.8298061851
 20
6.4975580817
 30
0.0
 10
10.8313743877
 20
6.4847332283
 30
0.0
 10
10.8318526222
 20
6.4750539036
 30
0.0
 10
10.8318526222
 20
6.4686192103
 30
0.0
  0
SPLINE
  5
31F
100
AcDbEntity
  8
0
100
AcDbSpline
 62
7
  6
CONTINUOUS
 70
0
 71
3
 72
17
 73
13
 74
0
 42
0.0000001
 43
0.0000001
 44
0.0000000001
 40
0.0
 40
0.0
 40
0.0
 40
0.0
 40
0.1273148359
 40
0.1907080938
 40
0.253886694
 40
0.3795973721
 40
0.5046020162
 40
0.5668927094
 40
0.6290466736
 40
0.7529728785
 40
0.8765701029
 40
1.0
 40
1.0
 40
1.0
 40
1.0
 10
9.4325033972
 20
8.0787278571
 30
0.0
 10
9.4325033972
 20
8.0854713679
 30
0.0
 10
9.4329885378
 20
8.0955817124
 30
0.0
 10
9.4346102066
 20
8.1089351417
 30
0.0
 10
9.4368703782
 20
8.1221102483
 30
0.0
 10
9.4408886452
 20
8.1382731283
 30
0.0
 10
9.4464830236
 20
8.153911285
 30
0.0
 10
9.4518622188
 20
8.1659847984
 30
0.0
 10
9.4578201755
 20
8.1777191782
 30
0.0
 10
9.4663539826
 20
8.1917638856
 30
0.0
 10
9.4782401798
 20
8.2074494369
 30
0.0
 10
9.4871892883
 20
8.21703242
 30
0.0
 10
9.4918916986
 20
8.2215743728
 30
0.0
  0
SPLINE
  5
320
100
AcDbEntity
  8
0
100
AcDbSpline
 62
7
  6
CONTINUOUS
 70
0
 71
3
 72
15
 73
11
 74
0
 42
0.0000001
 43
0.0000001
 44
0.0000000001
 40
0.0
 40
0.0
 40
0.0
 40
0.0
 40
0.1240777136
 40
0.2511220676
 40
0.3805653088
 40
0.5108217172
 40
0.639494926
 40
0.764424719
 40
0.8845808224
 40
1.0
 40
1.0
 40
1.0
 40
1.0
 10
9.641409293
 20
8.1312251651
 30
0.0
 10
9.6441557641
 20
8.1300423982
 30
0.0
 10
9.6496814421
 20
8.1275708198
 30
0.0
 10
9.6579209532
 20
8.1235369106
 30
0.0
 10
9.6661134642
 20
8.1190848892
 30
0.0
 10
9.6741099641
 20
8.1142120893
 30
0.0
 10
9.6817462783
 20
8.1089821039
 30
0.0
 10
9.6889061393
 20
8.1035100098
 30
0.0
 10
9.6955570143
 20
8.0979155063
 30
0.0
 10
9.699754725
 20
8.0940907658
 30
0.0
 10
9.7017796608
 20
8.0921836178
 30
0.0
  0
SPLINE
  5
321
100
AcDbEntity
  8
0
100
AcDbSpline
 62
7
  6
CONTINUOUS
 70
0
 71
3
 72
15
 73
11
 74
0
 42
0.0000001
 43
0.0000001
 44
0.0000000001
 40
0.0
 40
0.0
 40
0.0
 40
0.0
 40
0.1387137725
 40
0.2777269652
 40
0.4154031561
 40
0.5490459746
 40
0.6755623724
 40
0.7928750885
 40
0.9006878119
 40
1.0
 40
1.0
 40
1.0
 40
1.0
 10
9.5810389253
 20
8.1005570163
 30
0.0
 10
9.5837613829
 20
8.1021070487
 30
0.0
 10
9.5892230771
 20
8.1051913848
 30
0.0
 10
9.5974339538
 20
8.1097301991
 30
0.0
 10
9.605596609
 20
8.1141184248
 30
0.0
 10
9.6135717836
 20
8.1182575736
 30
0.0
 10
9.6212043375
 20
8.1220560127
 30
0.0
 10
9.6283778951
 20
8.1254644544
 30
0.0
 10
9.6350520027
 20
8.1284894562
 30
0.0
 10
9.6393444632
 20
8.130349277
 30
0.0
 10
9.641409293
 20
8.1312251651
 30
0.0
  0
SPLINE
  5
322
100
AcDbEntity
  8
0
100
AcDbSpline
 62
7
  6
CONTINUOUS
 70
0
 71
3
 72
11
 73
7
 74
0
 42
0.0000001
 43
0.0000001
 44
0.0000000001
 40
0.0
 40
0.0
 40
0.0
 40
0.0
 40
0.2732656329
 40
0.5313487246
 40
0.7731209783
 40
1.0
 40
1.0
 40
1.0
 40
1.0
 10
9.7042821286
 20
8.0597462621
 30
0.0
 10
9.7042821286
 20
8.0627125028
 30
0.0
 10
9.7041675853
 20
8.06848101
 30
0.0
 10
9.7036496318
 20
8.0768593871
 30
0.0
 10
9.7028495057
 20
8.0847091122
 30
0.0
 10
9.7021542379
 20
8.0897495471
 30
0.0
 10
9.7017796608
 20
8.0921836178
 30
0.0
  0
SPLINE
  5
323
100
AcDbEntity
  8
0
100
AcDbSpline
 62
7
  6
CONTINUOUS
 70
0
 71
3
 72
11
 73
7
 74
0
 42
0.0000001
 43
0.0000001
 44
0.0000000001
 40
0.0
 40
0.0
 40
0.0
 40
0.0
 40
0.249272203
 40
0.5008802135
 40
0.7525275855
 40
1.0
 40
1.0
 40
1.0
 40
1.0
 10
9.7017796608
 20
8.0224739217
 30
0.0
 10
9.7021454992
 20
8.025557952
 30
0.0
 10
9.7028243342
 20
8.0317618198
 30
0.0
 10
9.7036273147
 20
8.0411040994
 30
0.0
 10
9.7041539791
 20
8.0504440371
 30
0.0
 10
9.7042821286
 20
8.0566630325
 30
0.0
 10
9.7042821286
 20
8.0597462621
 30
0.0
  0
SPLINE
  5
324
100
AcDbEntity
  8
0
100
AcDbSpline
 62
7
  6
CONTINUOUS
 70
0
 71
3
 72
38
 73
34
 74
0
 42
0.0000001
 43
0.0000001
 44
0.0000000001
 40
0.0
 40
0.0
 40
0.0
 40
0.0
 40
0.029944812
 40
0.0599139139
 40
0.0899312717
 40
0.1200193174
 40
0.1350994304
 40
0.150204915
 40
0.1804950416
 40
0.2109117799
 40
0.2414680483
 40
0.2721739917
 40
0.3030358878
 40
0.3340569838
 40
0.365236542
 40
0.3965708423
 40
0.4280523939
 40
0.4596710329
 40
0.4914133205
 40
0.5232636592
 40
0.5552038952
 40
0.5872143744
 40
0.6192737535
 40
0.6513599477
 40
0.6834501859
 40
0.7155217223
 40
0.7475519957
 40
0.7795193843
 40
0.8114039982
 40
0.8431871813
 40
0.8748506854
 40
0.9377293214
 40
1.0
 40
1.0
 40
1.0
 40
1.0
 10
9.7961906328
 20
7.9065409532
 30
0.0
 10
9.7925574058
 20
7.9030317006
 30
0.0
 10
9.7850053615
 20
7.8962964083
 30
0.0
 10
9.77290616
 20
7.8871200815
 30
0.0
 10
9.7600971431
 20
7.8789181142
 30
0.0
 10
9.7488982618
 20
7.872935127
 30
0.0
 10
9.7396618771
 20
7.8686797004
 30
0.0
 10
9.7302348495
 20
7.8647752055
 30
0.0
 10
9.7181405152
 20
7.8605763494
 30
0.0
 10
9.703235783
 20
7.8566640852
 30
0.0
 10
9.6880060684
 20
7.8538914641
 30
0.0
 10
9.672535366
 20
7.8522763201
 30
0.0
 10
9.6569088905
 20
7.851824634
 30
0.0
 10
9.641212587
 20
7.8525414023
 30
0.0
 10
9.625532562
 20
7.8544197528
 30
0.0
 10
9.6099553388
 20
7.8574519281
 30
0.0
 10
9.5945658974
 20
7.8616183536
 30
0.0
 10
9.5794495077
 20
7.8668987222
 30
0.0
 10
9.5646881649
 20
7.8732612089
 30
0.0
 10
9.5503640518
 20
7.8806734158
 30
0.0
 10
9.536554398
 20
7.8890919778
 30
0.0
 10
9.5233365339
 20
7.8984731203
 30
0.0
 10
9.5107812388
 20
7.908762879
 30
0.0
 10
9.4989593222
 20
7.9199070603
 30
0.0
 10
9.4879335814
 20
7.9318423032
 30
0.0
 10
9.4777668109
 20
7.9445051664
 30
0.0
 10
9.4685123965
 20
7.9578241646
 30
0.0
 10
9.4602236675
 20
7.971728094
 30
0.0
 10
9.4529436659
 20
7.9861389766
 30
0.0
 10
9.4467151865
 20
8.0009798904
 30
0.0
 10
9.4398717861
 20
8.0211762869
 30
0.0
 10
9.4340805975
 20
8.0470835456
 30
0.0
 10
9.4325033972
 20
8.0682236946
 30
0.0
 10
9.4325033972
 20
8.0787278571
 30
0.0
  0
SPLINE
  5
325
100
AcDbEntity
  8
0
100
AcDbSpline
 62
7
  6
CONTINUOUS
 70
0
 71
3
 72
58
 73
54
 74
0
 42
0.0000001
 43
0.0000001
 44
0.0000000001
 40
0.0
 40
0.0
 40
0.0
 40
0.0
 40
0.0311036881
 40
0.0465905488
 40
0.0620239956
 40
0.0927288498
 40
0.1080185634
 40
0.1232684009
 40
0.1384815121
 40
0.1536613576
 40
0.1688121874
 40
0.1839387771
 40
0.1990460596
 40
0.2141392863
 40
0.2442942278
 40
0.2744567609
 40
0.2895594381
 40
0.3046798642
 40
0.3198230822
 40
0.334993731
 40
0.3654247619
 40
0.3960145868
 40
0.4113820902
 40
0.4267979847
 40
0.4422641616
 40
0.4577821839
 40
0.4889672415
 40
0.5203640478
 40
0.5361444902
 40
0.551974645
 40
0.5678524977
 40
0.58377545
 40
0.6157360994
 40
0.6478378676
 40
0.6639359765
 40
0.6800567845
 40
0.6961955629
 40
0.7123475841
 40
0.728507911
 40
0.7446714551
 40
0.7769797727
 40
0.793122956
 40
0.8092494136
 40
0.8253545969
 40
0.8414340341
 40
0.8574834655
 40
0.8734987676
 40
0.9054016335
 40
0.921291582
 40
0.9371359134
 40
0.9529341635
 40
0.9686840572
 40
1.0
 40
1.0
 40
1.0
 40
1.0
 10
9.8359830188
 20
8.046459267
 30
0.0
 10
9.8359830188
 20
8.0400681871
 30
0.0
 10
9.8355127326
 20
8.030485977
 30
0.0
 10
9.8339411447
 20
8.0178347843
 30
0.0
 10
9.8317513017
 20
8.005358629
 30
0.0
 10
9.8286308516
 20
7.9931017636
 30
0.0
 10
9.8245991906
 20
7.9811763262
 30
0.0
 10
9.8211339028
 20
7.9724324615
 30
0.0
 10
9.8172326072
 20
7.9638993705
 30
0.0
 10
9.8129036523
 20
7.9555978628
 30
0.0
 10
9.8081571981
 20
7.9475484186
 30
0.0
 10
9.8030058682
 20
7.9397698068
 30
0.0
 10
9.7974613024
 20
7.9322807909
 30
0.0
 10
9.7895654989
 20
7.9227113389
 30
0.0
 10
9.7787734753
 20
7.9115498972
 30
0.0
 10
9.7668649209
 20
7.9015854203
 30
0.0
 10
9.7567490945
 20
7.8943922161
 30
0.0
 10
9.748875563
 20
7.8893937887
 30
0.0
 10
9.7407395242
 20
7.8848067291
 30
0.0
 10
9.7295586626
 20
7.8792480765
 30
0.0
 10
9.7150117642
 20
7.8733813498
 30
0.0
 10
9.6999015834
 20
7.8690270177
 30
0.0
 10
9.6875488191
 20
7.8664670012
 30
0.0
 10
9.6781538786
 20
7.8650093316
 30
0.0
 10
9.6686669154
 20
7.8640216352
 30
0.0
 10
9.6559066451
 20
7.8633343868
 30
0.0
 10
9.6398345964
 20
7.8636634966
 30
0.0
 10
9.6238189425
 20
7.8655675743
 30
0.0
 10
9.611102282
 20
7.8680183502
 30
0.0
 10
9.6016166455
 20
7.8703231144
 30
0.0
 10
9.5922234056
 20
7.8730848378
 30
0.0
 10
9.5798385945
 20
7.8773712302
 30
0.0
 10
9.5647026743
 20
7.8838412962
 30
0.0
 10
9.5502027764
 20
7.8917076246
 30
0.0
 10
9.5390473084
 20
7.8988021242
 30
0.0
 10
9.5309140642
 20
7.9045165356
 30
0.0
 10
9.5230434405
 20
7.9106054103
 30
0.0
 10
9.5154547575
 20
7.9170547401
 30
0.0
 10
9.5081652722
 20
7.9238482663
 30
0.0
 10
9.498871807
 20
7.9333399941
 30
0.0
 10
9.4902427067
 20
7.9434596349
 30
0.0
 10
9.4823445121
 20
7.9541266033
 30
0.0
 10
9.4768012364
 20
7.9623817903
 30
0.0
 10
9.4716508805
 20
7.9708720157
 30
0.0
 10
9.4669051041
 20
7.9795768441
 30
0.0
 10
9.4625763888
 20
7.9884762454
 30
0.0
 10
9.4573820783
 20
8.0005539839
 30
0.0
 10
9.4530487841
 20
8.0129528016
 30
0.0
 10
9.4496209137
 20
8.025575319
 30
0.0
 10
9.4475104403
 20
8.035115319
 30
0.0
 10
9.4458635471
 20
8.0447171938
 30
0.0
 10
9.4442953446
 20
8.0575420472
 30
0.0
 10
9.4438171101
 20
8.0672213719
 30
0.0
 10
9.4438171101
 20
8.0736560651
 30
0.0
  0
SPLINE
  5
326
100
AcDbEntity
  8
0
100
AcDbSpline
 62
7
  6
CONTINUOUS
 70
0
 71
3
 72
17
 73
13
 74
0
 42
0.0000001
 43
0.0000001
 44
0.0000000001
 40
0.0
 40
0.0
 40
0.0
 40
0.0
 40
0.1273148359
 40
0.1907080938
 40
0.253886694
 40
0.3795973721
 40
0.5046020162
 40
0.5668927094
 40
0.6290466736
 40
0.7529728785
 40
0.8765701029
 40
1.0
 40
1.0
 40
1.0
 40
1.0
 10
9.8555789342
 20
8.0493874689
 30
0.0
 10
9.8555789342
 20
8.0426439581
 30
0.0
 10
9.8550937937
 20
8.0325336135
 30
0.0
 10
9.8534721249
 20
8.0191801843
 30
0.0
 10
9.8512119533
 20
8.0060050777
 30
0.0
 10
9.8471936862
 20
7.9898421977
 30
0.0
 10
9.8415993078
 20
7.9742040409
 30
0.0
 10
9.8362201127
 20
7.9621305275
 30
0.0
 10
9.830262156
 20
7.9503961478
 30
0.0
 10
9.8217283488
 20
7.9363514403
 30
0.0
 10
9.8098421517
 20
7.920665889
 30
0.0
 10
9.8008930432
 20
7.911082906
 30
0.0
 10
9.7961906328
 20
7.9065409532
 30
0.0
  0
SPLINE
  5
327
100
AcDbEntity
  8
0
100
AcDbSpline
 62
7
  6
CONTINUOUS
 70
0
 71
3
 72
49
 73
45
 74
0
 42
0.0000001
 43
0.0000001
 44
0.0000000001
 40
0.0
 40
0.0
 40
0.0
 40
0.0
 40
0.0313124516
 40
0.0628593141
 40
0.0787075028
 40
0.0945995998
 40
0.126502659
 40
0.1585608398
 40
0.1907402095
 40
0.2068682324
 40
0.2230127563
 40
0.2391689252
 40
0.255331956
 40
0.2714969196
 40
0.2876586436
 40
0.3038119942
 40
0.3199521348
 40
0.3521652624
 40
0.3842696438
 40
0.4162330966
 40
0.4480275395
 40
0.4796318702
 40
0.5110311876
 40
0.5422189324
 40
0.573196104
 40
0.6039722241
 40
0.6345646967
 40
0.6649982209
 40
0.6953044026
 40
0.7104261239
 40
0.7255300429
 40
0.7556952105
 40
0.7707772913
 40
0.7858628248
 40
0.8160556666
 40
0.8311837819
 40
0.8463363278
 40
0.8615175372
 40
0.8767311605
 40
0.9072608757
 40
0.9225962674
 40
0.9379813914
 40
0.9688998926
 40
1.0
 40
1.0
 40
1.0
 40
1.0
 10
9.7152422833
 20
8.0548326654
 30
0.0
 10
9.7152422833
 20
8.0573046238
 30
0.0
 10
9.7149967372
 20
8.0622700661
 30
0.0
 10
9.7140918763
 20
8.068427359
 30
0.0
 10
9.7130122537
 20
8.073307251
 30
0.0
 10
9.7116949032
 20
8.0781574618
 30
0.0
 10
9.7096121205
 20
8.084118267
 30
0.0
 10
9.7064459479
 20
8.0910275949
 30
0.0
 10
9.7032761718
 20
8.0965349021
 30
0.0
 10
9.700438472
 20
8.1007600123
 30
0.0
 10
9.698162781
 20
8.1038339076
 30
0.0
 10
9.6957469147
 20
8.1068023658
 30
0.0
 10
9.6931962057
 20
8.1096579815
 30
0.0
 10
9.6905172067
 20
8.1123942033
 30
0.0
 10
9.6877165297
 20
8.1150045961
 30
0.0
 10
9.6848006146
 20
8.1174827253
 30
0.0
 10
9.6807714789
 20
8.1205994739
 30
0.0
 10
9.6754841328
 20
8.1241368541
 30
0.0
 10
9.6687935958
 20
8.1277662333
 30
0.0
 10
9.6618247466
 20
8.1307454906
 30
0.0
 10
9.6546439705
 20
8.1330436938
 30
0.0
 10
9.6473208224
 20
8.1346408137
 30
0.0
 10
9.639925151
 20
8.1355188013
 30
0.0
 10
9.6325283883
 20
8.1356715473
 30
0.0
 10
9.625201667
 20
8.1350946594
 30
0.0
 10
9.6180154589
 20
8.1337959552
 30
0.0
 10
9.6110394107
 20
8.1317852774
 30
0.0
 10
9.6043407577
 20
8.1290841122
 30
0.0
 10
9.599038525
 20
8.1262744502
 30
0.0
 10
9.5950024232
 20
8.1237124041
 30
0.0
 10
9.5911155936
 20
8.1209485803
 30
0.0
 10
9.5874539527
 20
8.1178840402
 30
0.0
 10
9.5840524097
 20
8.1145475061
 30
0.0
 10
9.5808299017
 20
8.1110347916
 30
0.0
 10
9.5778864081
 20
8.107269591
 30
0.0
 10
9.5752494067
 20
8.1032879154
 30
0.0
 10
9.5734260135
 20
8.1001946447
 30
0.0
 10
9.5717626693
 20
8.0970048689
 30
0.0
 10
9.56976144
 20
8.0926294947
 30
0.0
 10
9.5680983262
 20
8.0880927307
 30
0.0
 10
9.5667851834
 20
8.0834373904
 30
0.0
 10
9.5657026763
 20
8.0786912562
 30
0.0
 10
9.5647985037
 20
8.0726371607
 30
0.0
 10
9.5645578455
 20
8.0677378616
 30
0.0
 10
9.5645578455
 20
8.0652826667
 30
0.0
  0
SPLINE
  5
328
100
AcDbEntity
  8
0
100
AcDbSpline
 62
7
  6
CONTINUOUS
 70
0
 71
3
 72
23
 73
19
 74
0
 42
0.0000001
 43
0.0000001
 44
0.0000000001
 40
0.0
 40
0.0
 40
0.0
 40
0.0
 40
0.061242766
 40
0.122959969
 40
0.1850386674
 40
0.2474376473
 40
0.3101333753
 40
0.3730736554
 40
0.4361841498
 40
0.4993920833
 40
0.5626218374
 40
0.6257992135
 40
0.6888482708
 40
0.7516992755
 40
0.8142887097
 40
0.8765618576
 40
0.938476233
 40
1.0
 40
1.0
 40
1.0
 40
1.0
 10
9.6452478377
 20
8.1277232187
 30
0.0
 10
9.6452478377
 20
8.1257722979
 30
0.0
 10
9.6454391522
 20
8.121852894
 30
0.0
 10
9.6462845541
 20
8.1160108778
 30
0.0
 10
9.6476861438
 20
8.1102384283
 30
0.0
 10
9.6496281351
 20
8.1045920484
 30
0.0
 10
9.6520935152
 20
8.0991237418
 30
0.0
 10
9.6550577484
 20
8.09388307
 30
0.0
 10
9.6584942941
 20
8.0889194021
 30
0.0
 10
9.6623709709
 20
8.0842793869
 30
0.0
 10
9.666651027
 20
8.0800055745
 30
0.0
 10
9.671295512
 20
8.0761388158
 30
0.0
 10
9.6762599338
 20
8.0727134986
 30
0.0
 10
9.6814995315
 20
8.0697638935
 30
0.0
 10
9.6869639707
 20
8.0673148607
 30
0.0
 10
9.6926038897
 20
8.0653923462
 30
0.0
 10
9.6983648981
 20
8.0640113747
 30
0.0
 10
9.7022654519
 20
8.063460434
 30
0.0
 10
9.7042169883
 20
8.0632798659
 30
0.0
  0
SPLINE
  5
329
100
AcDbEntity
  8
0
100
AcDbSpline
 62
7
  6
CONTINUOUS
 70
0
 71
3
 72
49
 73
45
 74
0
 42
0.0000001
 43
0.0000001
 44
0.0000000001
 40
0.0
 40
0.0
 40
0.0
 40
0.0
 40
0.0313124516
 40
0.0628593141
 40
0.0787075028
 40
0.0945995998
 40
0.126502659
 40
0.1585608398
 40
0.1907402095
 40
0.2068682324
 40
0.2230127563
 40
0.2391689252
 40
0.255331956
 40
0.2714969196
 40
0.2876586436
 40
0.3038119942
 40
0.3199521348
 40
0.3521652624
 40
0.3842696438
 40
0.4162330966
 40
0.4480275395
 40
0.4796318702
 40
0.5110311876
 40
0.5422189324
 40
0.573196104
 40
0.6039722241
 40
0.6345646967
 40
0.6649982209
 40
0.6953044026
 40
0.7104261239
 40
0.7255300429
 40
0.7556952105
 40
0.7707772913
 40
0.7858628248
 40
0.8160556666
 40
0.8311837819
 40
0.8463363278
 40
0.8615175372
 40
0.8767311605
 40
0.9072608757
 40
0.9225962674
 40
0.9379813914
 40
0.9688998926
 40
1.0
 40
1.0
 40
1.0
 40
1.0
 10
9.5645578455
 20
8.0652826667
 30
0.0
 10
9.5645578455
 20
8.0628107083
 30
0.0
 10
9.5648033916
 20
8.057845266
 30
0.0
 10
9.5657082525
 20
8.0516879731
 30
0.0
 10
9.5667878752
 20
8.0468080811
 30
0.0
 10
9.5681052257
 20
8.0419578702
 30
0.0
 10
9.5701880084
 20
8.0359970651
 30
0.0
 10
9.573354181
 20
8.0290877372
 30
0.0
 10
9.5765239571
 20
8.0235804299
 30
0.0
 10
9.5793616569
 20
8.0193553198
 30
0.0
 10
9.5816373479
 20
8.0162814245
 30
0.0
 10
9.5840532142
 20
8.0133129663
 30
0.0
 10
9.5866039231
 20
8.0104573506
 30
0.0
 10
9.5892829222
 20
8.0077211288
 30
0.0
 10
9.5920835991
 20
8.005110736
 30
0.0
 10
9.5949995142
 20
8.0026326067
 30
0.0
 10
9.59902865
 20
7.9995158581
 30
0.0
 10
9.6043159961
 20
7.995978478
 30
0.0
 10
9.611006533
 20
7.9923490988
 30
0.0
 10
9.6179753823
 20
7.9893698415
 30
0.0
 10
9.6251561584
 20
7.9870716383
 30
0.0
 10
9.6324793065
 20
7.9854745184
 30
0.0
 10
9.6398749779
 20
7.9845965308
 30
0.0
 10
9.6472717405
 20
7.9844437848
 30
0.0
 10
9.6545984619
 20
7.9850206727
 30
0.0
 10
9.66178467
 20
7.9863193769
 30
0.0
 10
9.6687607181
 20
7.9883300546
 30
0.0
 10
9.6754593712
 20
7.9910312199
 30
0.0
 10
9.6807616038
 20
7.9938408819
 30
0.0
 10
9.6847977056
 20
7.996402928
 30
0.0
 10
9.6886845353
 20
7.9991667517
 30
0.0
 10
9.6923461761
 20
8.0022312918
 30
0.0
 10
9.6957477192
 20
8.005567826
 30
0.0
 10
9.6989702272
 20
8.0090805405
 30
0.0
 10
9.7019137207
 20
8.0128457411
 30
0.0
 10
9.7045507222
 20
8.0168274167
 30
0.0
 10
9.7063741154
 20
8.0199206874
 30
0.0
 10
9.7080374595
 20
8.0231104632
 30
0.0
 10
9.7100386889
 20
8.0274858374
 30
0.0
 10
9.7117018027
 20
8.0320226014
 30
0.0
 10
9.7130149455
 20
8.0366779417
 30
0.0
 10
9.7140974526
 20
8.0414240759
 30
0.0
 10
9.7150016251
 20
8.0474781714
 30
0.0
 10
9.7152422833
 20
8.0523774705
 30
0.0
 10
9.7152422833
 20
8.0548326654
 30
0.0
  0
SPLINE
  5
32A
100
AcDbEntity
  8
0
100
AcDbSpline
 62
7
  6
CONTINUOUS
 70
0
 71
3
 72
13
 73
9
 74
0
 42
0.0000001
 43
0.0000001
 44
0.0000000001
 40
0.0
 40
0.0
 40
0.0
 40
0.0
 40
0.2525061031
 40
0.5033171101
 40
0.6280725826
 40
0.7524088264
 40
0.8763708792
 40
1.0
 40
1.0
 40
1.0
 40
1.0
 10
9.6118820507
 20
8.0954943413
 30
0.0
 10
9.6118820507
 20
8.0976554644
 30
0.0
 10
9.6121143565
 20
8.1019666741
 30
0.0
 10
9.6129891824
 20
8.1072820591
 30
0.0
 10
9.6140347724
 20
8.1114328091
 30
0.0
 10
9.6149867373
 20
8.1144822828
 30
0.0
 10
9.6161054461
 20
8.1174641448
 30
0.0
 10
9.6169614236
 20
8.1194040985
 30
0.0
 10
9.6174159023
 20
8.1203596263
 30
0.0
  0
SPLINE
  5
32B
100
AcDbEntity
  8
0
100
AcDbSpline
 62
7
  6
CONTINUOUS
 70
0
 71
3
 72
19
 73
15
 74
0
 42
0.0000001
 43
0.0000001
 44
0.0000000001
 40
0.0
 40
0.0
 40
0.0
 40
0.0
 40
0.1259165152
 40
0.1890435013
 40
0.2521765074
 40
0.3783027214
 40
0.5041309176
 40
0.5668776413
 40
0.6294512568
 40
0.6918223904
 40
0.7539712289
 40
0.8158897976
 40
0.8775715464
 40
1.0
 40
1.0
 40
1.0
 40
1.0
 10
9.6420672345
 20
8.0411187196
 30
0.0
 10
9.6397839492
 20
8.0425953214
 30
0.0
 10
9.6364883774
 20
8.045027377
 30
0.0
 10
9.6324184896
 20
8.0486492164
 30
0.0
 10
9.6285739486
 20
8.0525168475
 30
0.0
 10
9.6242266508
 20
8.0577744424
 30
0.0
 10
9.6205578416
 20
8.0635166943
 30
0.0
 10
9.6180718182
 20
8.068340136
 30
0.0
 10
9.6164401613
 20
8.0720533246
 30
0.0
 10
9.6150473394
 20
8.0758487083
 30
0.0
 10
9.6138996301
 20
8.0797104733
 30
0.0
 10
9.6130011828
 20
8.0836228112
 30
0.0
 10
9.612144663
 20
8.0888686494
 30
0.0
 10
9.6118820507
 20
8.0928505213
 30
0.0
 10
9.6118820507
 20
8.0954943413
 30
0.0
  0
SPLINE
  5
32C
100
AcDbEntity
  8
0
100
AcDbSpline
 62
7
  6
CONTINUOUS
 70
0
 71
3
 72
17
 73
13
 74
0
 42
0.0000001
 43
0.0000001
 44
0.0000000001
 40
0.0
 40
0.0
 40
0.0
 40
0.0
 40
0.1214811947
 40
0.1825928933
 40
0.2439208635
 40
0.305493007
 40
0.3673350785
 40
0.4918016094
 40
0.6173948385
 40
0.7440422234
 40
0.8716680821
 40
1.0
 40
1.0
 40
1.0
 40
1.0
 10
9.7024376022
 20
8.0369320204
 30
0.0
 10
9.7001519152
 20
8.0357708913
 30
0.0
 10
9.6965883169
 20
8.0342629866
 30
0.0
 10
9.6916648118
 20
8.0327515551
 30
0.0
 10
9.687880316
 20
8.0318667313
 30
0.0
 10
9.6840298227
 20
8.0312364414
 30
0.0
 10
9.6788191143
 20
8.0307385126
 30
0.0
 10
9.6722161024
 20
8.0307669298
 30
0.0
 10
9.6643169371
 20
8.0318376636
 30
0.0
 10
9.656553876
 20
8.033924021
 30
0.0
 10
9.6490628075
 20
8.0369905858
 30
0.0
 10
9.6443413983
 20
8.0396480168
 30
0.0
 10
9.6420672345
 20
8.0411187196
 30
0.0
  0
SPLINE
  5
32D
100
AcDbEntity
  8
0
100
AcDbSpline
 62
7
  6
CONTINUOUS
 70
0
 71
3
 72
11
 73
7
 74
0
 42
0.0000001
 43
0.0000001
 44
0.0000000001
 40
0.0
 40
0.0
 40
0.0
 40
0.0
 40
0.2268797892
 40
0.4686527917
 40
0.7267359359
 40
1.0
 40
1.0
 40
1.0
 40
1.0
 10
9.5810389253
 20
8.1005570163
 30
0.0
 10
9.5814135105
 20
8.0981228933
 30
0.0
 10
9.5821087913
 20
8.0930823509
 30
0.0
 10
9.5829089235
 20
8.0852324662
 30
0.0
 10
9.5834268741
 20
8.0768539451
 30
0.0
 10
9.5835413931
 20
8.07108535
 30
0.0
 10
9.5835413931
 20
8.0681190728
 30
0.0
  0
SPLINE
  5
32E
100
AcDbEntity
  8
0
100
AcDbSpline
 62
7
  6
CONTINUOUS
 70
0
 71
3
 72
11
 73
7
 74
0
 42
0.0000001
 43
0.0000001
 44
0.0000000001
 40
0.0
 40
0.0
 40
0.0
 40
0.0
 40
0.2474744049
 40
0.499121966
 40
0.750729073
 40
1.0
 40
1.0
 40
1.0
 40
1.0
 10
9.5835413931
 20
8.0681190728
 30
0.0
 10
9.5835413931
 20
8.0650358669
 30
0.0
 10
9.5834132188
 20
8.0588169424
 30
0.0
 10
9.5828865529
 20
8.0494771366
 30
0.0
 10
9.5820835787
 20
8.0401350293
 30
0.0
 10
9.5814047561
 20
8.0339312862
 30
0.0
 10
9.5810389253
 20
8.0308473202
 30
0.0
  0
SPLINE
  5
32F
100
AcDbEntity
  8
0
100
AcDbSpline
 62
7
  6
CONTINUOUS
 70
0
 71
3
 72
15
 73
11
 74
0
 42
0.0000001
 43
0.0000001
 44
0.0000000001
 40
0.0
 40
0.0
 40
0.0
 40
0.0
 40
0.1154191779
 40
0.2355752813
 40
0.3605050746
 40
0.4891782854
 40
0.6194346919
 40
0.7488779326
 40
0.8759222867
 40
1.0
 40
1.0
 40
1.0
 40
1.0
 10
9.641409293
 20
7.9918057729
 30
0.0
 10
9.6393843573
 20
7.9937129208
 30
0.0
 10
9.6351866466
 20
7.9975376613
 30
0.0
 10
9.6285357715
 20
8.0031321649
 30
0.0
 10
9.6213759105
 20
8.008604259
 30
0.0
 10
9.6137395963
 20
8.0138342444
 30
0.0
 10
9.6057430964
 20
8.0187070443
 30
0.0
 10
9.5975505855
 20
8.0231590656
 30
0.0
 10
9.5893110744
 20
8.0271929749
 30
0.0
 10
9.5837853964
 20
8.0296645532
 30
0.0
 10
9.5810389253
 20
8.0308473202
 30
0.0
  0
SPLINE
  5
330
100
AcDbEntity
  8
0
100
AcDbSpline
 62
7
  6
CONTINUOUS
 70
0
 71
3
 72
15
 73
11
 74
0
 42
0.0000001
 43
0.0000001
 44
0.0000000001
 40
0.0
 40
0.0
 40
0.0
 40
0.0
 40
0.0993121883
 40
0.2071249118
 40
0.3244376282
 40
0.450954028
 40
0.5845968446
 40
0.7222730351
 40
0.8612862279
 40
1.0
 40
1.0
 40
1.0
 40
1.0
 10
9.7017796608
 20
8.0224739217
 30
0.0
 10
9.6997148309
 20
8.0215980336
 30
0.0
 10
9.6954223704
 20
8.0197382128
 30
0.0
 10
9.6887482628
 20
8.016713211
 30
0.0
 10
9.6815747051
 20
8.0133047693
 30
0.0
 10
9.6739421512
 20
8.0095063301
 30
0.0
 10
9.6659669767
 20
8.0053671814
 30
0.0
 10
9.6578043215
 20
8.0009789557
 30
0.0
 10
9.6495934449
 20
7.9964401415
 30
0.0
 10
9.6441317506
 20
7.9933558053
 30
0.0
 10
9.641409293
 20
7.9918057729
 30
0.0
  0
SPLINE
  5
331
100
AcDbEntity
  8
0
100
AcDbSpline
 62
7
  6
CONTINUOUS
 70
0
 71
3
 72
40
 73
36
 74
0
 42
0.0000001
 43
0.0000001
 44
0.0000000001
 40
0.0
 40
0.0
 40
0.0
 40
0.0
 40
0.0299275589
 40
0.0599160714
 40
0.0899846757
 40
0.1201507588
 40
0.150429626
 40
0.1656180488
 40
0.1808392746
 40
0.2113800023
 40
0.2420644903
 40
0.2728972301
 40
0.3038801423
 40
0.3350117637
 40
0.3662882351
 40
0.3977024366
 40
0.4292451487
 40
0.4609043058
 40
0.4926660988
 40
0.5245145436
 40
0.5564322949
 40
0.58840068
 40
0.6204000814
 40
0.6524105147
 40
0.6844115406
 40
0.7163831542
 40
0.7483054209
 40
0.7801599929
 40
0.8119295892
 40
0.8435979117
 40
0.8751488956
 40
0.9065716384
 40
0.9378631313
 40
0.969015287
 40
1.0
 40
1.0
 40
1.0
 40
1.0
 10
9.5125802535
 20
8.2389039728
 30
0.0
 10
9.5164518636
 20
8.2417065067
 30
0.0
 10
9.5244167437
 20
8.2470284449
 30
0.0
 10
9.5369380132
 20
8.254106504
 30
0.0
 10
9.5499859339
 20
8.2602509135
 30
0.0
 10
9.5634937526
 20
8.2654335078
 30
0.0
 10
9.5750691982
 20
8.2689248151
 30
0.0
 10
9.5844888033
 20
8.2712144872
 30
0.0
 10
9.5940260334
 20
8.2731705301
 30
0.0
 10
9.6061124063
 20
8.2749733474
 30
0.0
 10
9.6207831537
 20
8.2760998908
 30
0.0
 10
9.6355676786
 20
8.2761863615
 30
0.0
 10
9.6503929017
 20
8.2752323845
 30
0.0
 10
9.6651864202
 20
8.2732434432
 30
0.0
 10
9.6798754535
 20
8.2702282049
 30
0.0
 10
9.6943884993
 20
8.2662032864
 30
0.0
 10
9.7086538112
 20
8.2611863807
 30
0.0
 10
9.7226024763
 20
8.2552046117
 30
0.0
 10
9.7361650266
 20
8.2482847088
 30
0.0
 10
9.7492764931
 20
8.2404633414
 30
0.0
 10
9.7618711128
 20
8.2317762068
 30
0.0
 10
9.7738889295
 20
8.2222683534
 30
0.0
 10
9.7852694394
 20
8.2119841714
 30
0.0
 10
9.7959585192
 20
8.2009758487
 30
0.0
 10
9.8059024321
 20
8.1892958312
 30
0.0
 10
9.8150535822
 20
8.1770023677
 30
0.0
 10
9.8233664745
 20
8.1641550186
 30
0.0
 10
9.8308006286
 20
8.1508168313
 30
0.0
 10
9.8373196804
 20
8.1370530255
 30
0.0
 10
9.8428908632
 20
8.1229310486
 30
0.0
 10
9.8474884995
 20
8.1085207815
 30
0.0
 10
9.8510881887
 20
8.0938912878
 30
0.0
 10
9.8536736096
 20
8.0791132063
 30
0.0
 10
9.8552293855
 20
8.064262528
 30
0.0
 10
9.8555789342
 20
8.0543357924
 30
0.0
 10
9.8555789342
 20
8.0493874689
 30
0.0
  0
SPLINE
  5
332
100
AcDbEntity
  8
0
100
AcDbSpline
 62
7
  6
CONTINUOUS
 70
0
 71
3
 72
58
 73
54
 74
0
 42
0.0000001
 43
0.0000001
 44
0.0000000001
 40
0.0
 40
0.0
 40
0.0
 40
0.0
 40
0.0311036881
 40
0.0465905488
 40
0.0620239956
 40
0.0927288498
 40
0.1080185634
 40
0.1232684009
 40
0.1384815121
 40
0.1536613576
 40
0.1688121874
 40
0.1839387771
 40
0.1990460596
 40
0.2141392863
 40
0.2442942278
 40
0.2744567609
 40
0.2895594381
 40
0.3046798642
 40
0.3198230822
 40
0.334993731
 40
0.3654247619
 40
0.3960145868
 40
0.4113820902
 40
0.4267979847
 40
0.4422641616
 40
0.4577821839
 40
0.4889672415
 40
0.5203640478
 40
0.5361444902
 40
0.551974645
 40
0.5678524977
 40
0.58377545
 40
0.6157360994
 40
0.6478378676
 40
0.6639359765
 40
0.6800567845
 40
0.6961955629
 40
0.7123475841
 40
0.728507911
 40
0.7446714551
 40
0.7769797727
 40
0.793122956
 40
0.8092494136
 40
0.8253545969
 40
0.8414340341
 40
0.8574834655
 40
0.8734987676
 40
0.9054016335
 40
0.921291582
 40
0.9371359134
 40
0.9529341635
 40
0.9686840572
 40
1.0
 40
1.0
 40
1.0
 40
1.0
 10
9.4438171101
 20
8.0736560651
 30
0.0
 10
9.4438171101
 20
8.080047145
 30
0.0
 10
9.4442873962
 20
8.0896293551
 30
0.0
 10
9.4458589842
 20
8.1022805478
 30
0.0
 10
9.4480488271
 20
8.1147567031
 30
0.0
 10
9.4511692773
 20
8.1270135684
 30
0.0
 10
9.4552009383
 20
8.1389390059
 30
0.0
 10
9.4586662261
 20
8.1476828706
 30
0.0
 10
9.4625675217
 20
8.1562159616
 30
0.0
 10
9.4668964765
 20
8.1645174693
 30
0.0
 10
9.4716429307
 20
8.1725669135
 30
0.0
 10
9.4767942607
 20
8.1803455253
 30
0.0
 10
9.4823388264
 20
8.1878345411
 30
0.0
 10
9.49023463
 20
8.1974039932
 30
0.0
 10
9.5010266535
 20
8.2085654349
 30
0.0
 10
9.512935208
 20
8.2185299117
 30
0.0
 10
9.5230510344
 20
8.225723116
 30
0.0
 10
9.5309245658
 20
8.2307215434
 30
0.0
 10
9.5390606047
 20
8.235308603
 30
0.0
 10
9.5502414663
 20
8.2408672556
 30
0.0
 10
9.5647883646
 20
8.2467339823
 30
0.0
 10
9.5798985455
 20
8.2510883144
 30
0.0
 10
9.5922513098
 20
8.2536483309
 30
0.0
 10
9.6016462503
 20
8.2551060005
 30
0.0
 10
9.6111332134
 20
8.2560936969
 30
0.0
 10
9.6238934837
 20
8.2567809453
 30
0.0
 10
9.6399655325
 20
8.2564518355
 30
0.0
 10
9.6559811864
 20
8.2545477578
 30
0.0
 10
9.6686978469
 20
8.2520969819
 30
0.0
 10
9.6781834834
 20
8.2497922177
 30
0.0
 10
9.6875767233
 20
8.2470304943
 30
0.0
 10
9.6999615343
 20
8.2427441019
 30
0.0
 10
9.7150974546
 20
8.2362740359
 30
0.0
 10
9.7295973525
 20
8.2284077075
 30
0.0
 10
9.7407528204
 20
8.2213132078
 30
0.0
 10
9.7488860646
 20
8.2155987964
 30
0.0
 10
9.7567566884
 20
8.2095099218
 30
0.0
 10
9.7643453714
 20
8.203060592
 30
0.0
 10
9.7716348567
 20
8.1962670658
 30
0.0
 10
9.7809283219
 20
8.186775338
 30
0.0
 10
9.7895574222
 20
8.1766556971
 30
0.0
 10
9.7974556168
 20
8.1659887288
 30
0.0
 10
9.8029988924
 20
8.1577335418
 30
0.0
 10
9.8081492484
 20
8.1492433164
 30
0.0
 10
9.8128950248
 20
8.140538488
 30
0.0
 10
9.8172237401
 20
8.1316390867
 30
0.0
 10
9.8224180506
 20
8.1195613482
 30
0.0
 10
9.8267513448
 20
8.1071625305
 30
0.0
 10
9.8301792152
 20
8.0945400131
 30
0.0
 10
9.8322896886
 20
8.0850000131
 30
0.0
 10
9.8339365817
 20
8.0753981383
 30
0.0
 10
9.8355047843
 20
8.0625732849
 30
0.0
 10
9.8359830188
 20
8.0528939602
 30
0.0
 10
9.8359830188
 20
8.046459267
 30
0.0
  0
SPLINE
  5
333
100
AcDbEntity
  8
0
100
AcDbSpline
 62
7
  6
CONTINUOUS
 70
0
 71
3
 72
15
 73
11
 74
0
 42
0.0000001
 43
0.0000001
 44
0.0000000001
 40
0.0
 40
0.0
 40
0.0
 40
0.0
 40
0.1308537427
 40
0.2612484863
 40
0.3906118196
 40
0.5182256991
 40
0.6433659152
 40
0.7654873328
 40
0.8843458564
 40
1.0
 40
1.0
 40
1.0
 40
1.0
 10
10.4509262251
 20
6.7296003519
 30
0.0
 10
10.4525699604
 20
6.7542169803
 30
0.0
 10
10.4555581576
 20
6.8033842424
 30
0.0
 10
10.4589668216
 20
6.8769550322
 30
0.0
 10
10.4611129889
 20
6.9499634372
 30
0.0
 10
10.4618563589
 20
7.0220096113
 30
0.0
 10
10.4611409891
 20
7.0926908955
 30
0.0
 10
10.4590164627
 20
7.1616920948
 30
0.0
 10
10.4556200822
 20
7.228850716
 30
0.0
 10
10.4525930136
 20
7.2729649419
 30
0.0
 10
10.4509262251
 20
7.2947068265
 30
0.0
  0
SPLINE
  5
334
100
AcDbEntity
  8
0
100
AcDbSpline
 62
7
  6
CONTINUOUS
 70
0
 71
3
 72
19
 73
15
 74
0
 42
0.0000001
 43
0.0000001
 44
0.0000000001
 40
0.0
 40
0.0
 40
0.0
 40
0.0
 40
0.1209535502
 40
0.2437779128
 40
0.3058580615
 40
0.3683344785
 40
0.431152153
 40
0.4942432529
 40
0.5575308052
 40
0.6209340247
 40
0.6843741832
 40
0.7477793373
 40
0.8742479861
 40
1.0
 40
1.0
 40
1.0
 40
1.0
 10
10.4239658208
 20
7.3432733269
 30
0.0
 10
10.4055119644
 20
7.3578804798
 30
0.0
 10
10.3680402868
 20
7.3869712215
 30
0.0
 10
10.3202411642
 20
7.4224380898
 30
0.0
 10
10.2810645876
 20
7.4504088456
 30
0.0
 10
10.2511226715
 20
7.4712142223
 30
0.0
 10
10.2207465289
 20
7.4917338835
 30
0.0
 10
10.1899667871
 20
7.5119322215
 30
0.0
 10
10.1588232884
 20
7.5317778568
 30
0.0
 10
10.1273627703
 20
7.5512462889
 30
0.0
 10
10.0956353501
 20
7.570321029
 30
0.0
 10
10.0530813637
 20
7.5951966702
 30
0.0
 10
9.9995219754
 20
7.6252608663
 30
0.0
 10
9.956243837
 20
7.6484108119
 30
0.0
 10
9.9345692579
 20
7.6597663311
 30
0.0
  0
SPLINE
  5
335
100
AcDbEntity
  8
0
100
AcDbSpline
 62
7
  6
CONTINUOUS
 70
0
 71
3
 72
15
 73
11
 74
0
 42
0.0000001
 43
0.0000001
 44
0.0000000001
 40
0.0
 40
0.0
 40
0.0
 40
0.0
 40
0.1123473098
 40
0.228765499
 40
0.3494221498
 40
0.4741361588
 40
0.6023568613
 40
0.7332830648
 40
0.8660699808
 40
1.0
 40
1.0
 40
1.0
 40
1.0
 10
9.8806484493
 20
7.6635057519
 30
0.0
 10
9.8620187006
 20
7.6548081161
 30
0.0
 10
9.824147993
 20
7.6369605151
 30
0.0
 10
9.7665222169
 20
7.6092399154
 30
0.0
 10
9.7071057167
 20
7.5800264681
 30
0.0
 10
9.6460196608
 20
7.5493194194
 30
0.0
 10
9.5835276831
 20
7.5172306593
 30
0.0
 10
9.5199818876
 20
7.4839650835
 30
0.0
 10
9.4557449032
 20
7.4497711556
 30
0.0
 10
9.4127923113
 20
7.4265858908
 30
0.0
 10
9.3912518865
 20
7.4148922815
 30
0.0
  0
SPLINE
  5
336
100
AcDbEntity
  8
0
100
AcDbSpline
 62
7
  6
CONTINUOUS
 70
0
 71
3
 72
15
 73
11
 74
0
 42
0.0000001
 43
0.0000001
 44
0.0000000001
 40
0.0
 40
0.0
 40
0.0
 40
0.0
 40
0.1308537427
 40
0.2612484863
 40
0.3906118196
 40
0.5182256991
 40
0.6433659152
 40
0.7654873328
 40
0.8843458564
 40
1.0
 40
1.0
 40
1.0
 40
1.0
 10
9.2423703856
 20
7.2522984589
 30
0.0
 10
9.2407266502
 20
7.2276818305
 30
0.0
 10
9.237738453
 20
7.1785145684
 30
0.0
 10
9.234329789
 20
7.1049437786
 30
0.0
 10
9.2321836217
 20
7.0319353736
 30
0.0
 10
9.2314402518
 20
6.9598891995
 30
0.0
 10
9.2321556216
 20
6.8892079153
 30
0.0
 10
9.234280148
 20
6.820206716
 30
0.0
 10
9.2376765284
 20
6.7530480947
 30
0.0
 10
9.2407035971
 20
6.7089338689
 30
0.0
 10
9.2423703856
 20
6.6871919843
 30
0.0
  0
SPLINE
  5
337
100
AcDbEntity
  8
0
100
AcDbSpline
 62
7
  6
CONTINUOUS
 70
0
 71
3
 72
19
 73
15
 74
0
 42
0.0000001
 43
0.0000001
 44
0.0000000001
 40
0.0
 40
0.0
 40
0.0
 40
0.0
 40
0.1209535502
 40
0.2437779128
 40
0.3058580615
 40
0.3683344785
 40
0.431152153
 40
0.4942432529
 40
0.5575308052
 40
0.6209340247
 40
0.6843741832
 40
0.7477793373
 40
0.8742479861
 40
1.0
 40
1.0
 40
1.0
 40
1.0
 10
9.2693307899
 20
6.6386254839
 30
0.0
 10
9.2877846463
 20
6.624018331
 30
0.0
 10
9.3252563239
 20
6.5949275893
 30
0.0
 10
9.3730554464
 20
6.5594607209
 30
0.0
 10
9.412232023
 20
6.5314899652
 30
0.0
 10
9.4421739392
 20
6.5106845885
 30
0.0
 10
9.4725500818
 20
6.4901649273
 30
0.0
 10
9.5033298236
 20
6.4699665893
 30
0.0
 10
9.5344733222
 20
6.450120954
 30
0.0
 10
9.5659338403
 20
6.4306525219
 30
0.0
 10
9.5976612605
 20
6.4115777818
 30
0.0
 10
9.640215247
 20
6.3867021406
 30
0.0
 10
9.6937746352
 20
6.3566379445
 30
0.0
 10
9.7370527736
 20
6.3334879989
 30
0.0
 10
9.7587273527
 20
6.3221324797
 30
0.0
  0
SPLINE
  5
338
100
AcDbEntity
  8
0
100
AcDbSpline
 62
7
  6
CONTINUOUS
 70
0
 71
3
 72
15
 73
11
 74
0
 42
0.0000001
 43
0.0000001
 44
0.0000000001
 40
0.0
 40
0.0
 40
0.0
 40
0.0
 40
0.1123473098
 40
0.228765499
 40
0.3494221498
 40
0.4741361588
 40
0.6023568613
 40
0.7332830648
 40
0.8660699808
 40
1.0
 40
1.0
 40
1.0
 40
1.0
 10
9.8126481614
 20
6.3183930589
 30
0.0
 10
9.83127791
 20
6.3270906947
 30
0.0
 10
9.8691486177
 20
6.3449382957
 30
0.0
 10
9.9267743937
 20
6.3726588954
 30
0.0
 10
9.986190894
 20
6.4018723427
 30
0.0
 10
10.0472769499
 20
6.4325793914
 30
0.0
 10
10.1097689276
 20
6.4646681515
 30
0.0
 10
10.1733147231
 20
6.4979337273
 30
0.0
 10
10.2375517074
 20
6.5321276552
 30
0.0
 10
10.2805042994
 20
6.55531292
 30
0.0
 10
10.3020447242
 20
6.5670065293
 30
0.0
  0
SPLINE
  5
339
100
AcDbEntity
  8
0
100
AcDbSpline
 62
7
  6
CONTINUOUS
 70
0
 71
3
 72
39
 73
35
 74
0
 42
0.0000001
 43
0.0000001
 44
0.0000000001
 40
0.0
 40
0.0
 40
0.0
 40
0.0
 40
0.031190719
 40
0.0621706961
 40
0.0929497854
 40
0.1235450799
 40
0.1539815444
 40
0.1842905038
 40
0.2145086562
 40
0.244676539
 40
0.2748367926
 40
0.3050324226
 40
0.3353049004
 40
0.3656924521
 40
0.3962284914
 40
0.4269402609
 40
0.457847884
 40
0.488963621
 40
0.520291589
 40
0.551827748
 40
0.5835601969
 40
0.6154698091
 40
0.647530981
 40
0.6797127113
 40
0.7119797217
 40
0.7442937372
 40
0.7766148754
 40
0.8089029633
 40
0.8411190141
 40
0.8732265515
 40
0.9051928721
 40
0.936990484
 40
0.968597556
 40
1.0
 40
1.0
 40
1.0
 40
1.0
 10
9.7742564292
 20
6.3825205384
 30
0.0
 10
9.7918121094
 20
6.3813030479
 30
0.0
 10
9.8269482889
 20
6.3805801431
 30
0.0
 10
9.8793118718
 20
6.3846991516
 30
0.0
 10
9.9306753493
 20
6.3939856907
 30
0.0
 10
9.980536591
 20
6.4083529524
 30
0.0
 10
10.0284154001
 20
6.4276637929
 30
0.0
 10
10.0738481417
 20
6.4517333375
 30
0.0
 10
10.1163950484
 20
6.4803299895
 30
0.0
 10
10.1556439962
 20
6.5131778419
 30
0.0
 10
10.1912149456
 20
6.5499593032
 30
0.0
 10
10.2227637737
 20
6.5903182885
 30
0.0
 10
10.2499857926
 20
6.6338638779
 30
0.0
 10
10.2726187347
 20
6.6801743366
 30
0.0
 10
10.2904452918
 20
6.7288014222
 30
0.0
 10
10.3032950684
 20
6.779274964
 30
0.0
 10
10.3110460691
 20
6.8311075196
 30
0.0
 10
10.3136256715
 20
6.8837991906
 30
0.0
 10
10.3110110922
 20
6.9368424316
 30
0.0
 10
10.3032294654
 20
6.9897269008
 30
0.0
 10
10.2903573895
 20
7.0419442922
 30
0.0
 10
10.2725201112
 20
7.0929930916
 30
0.0
 10
10.2498902512
 20
7.1423833076
 30
0.0
 10
10.2226860974
 20
7.1896410237
 30
0.0
 10
10.1911695347
 20
7.2343128731
 30
0.0
 10
10.1556435191
 20
7.2759702779
 30
0.0
 10
10.1164492357
 20
7.3142134714
 30
0.0
 10
10.073962844
 20
7.3486752824
 30
0.0
 10
10.0285920068
 20
7.3790245884
 30
0.0
 10
9.9807718266
 20
7.4049694117
 30
0.0
 10
9.9309615488
 20
7.4262598304
 30
0.0
 10
9.87963741
 20
7.4426901181
 30
0.0
 10
9.8272988214
 20
7.4541008017
 30
0.0
 10
9.7919312787
 20
7.4583021436
 30
0.0
 10
9.7742564292
 20
7.4595278986
 30
0.0
  0
SPLINE
  5
33A
100
AcDbEntity
  8
0
100
AcDbSpline
 62
7
  6
CONTINUOUS
 70
0
 71
3
 72
15
 73
11
 74
0
 42
0.0000001
 43
0.0000001
 44
0.0000000001
 40
0.0
 40
0.0
 40
0.0
 40
0.0
 40
0.1156541436
 40
0.2345126673
 40
0.3566340849
 40
0.481774301
 40
0.6093881804
 40
0.7387515138
 40
0.8691462573
 40
1.0
 40
1.0
 40
1.0
 40
1.0
 10
10.3290051285
 20
6.6118336089
 30
0.0
 10
10.32733834
 20
6.6335754935
 30
0.0
 10
10.3243112713
 20
6.6776897194
 30
0.0
 10
10.3209148909
 20
6.7448483407
 30
0.0
 10
10.3187903645
 20
6.8138495399
 30
0.0
 10
10.3180749947
 20
6.8845308241
 30
0.0
 10
10.3188183647
 20
6.9565769983
 30
0.0
 10
10.320964532
 20
7.0295854032
 30
0.0
 10
10.3243731959
 20
7.103156193
 30
0.0
 10
10.3273613932
 20
7.1523234552
 30
0.0
 10
10.3290051285
 20
7.1769400835
 30
0.0
  0
SPLINE
  5
33B
100
AcDbEntity
  8
0
100
AcDbSpline
 62
7
  6
CONTINUOUS
 70
0
 71
3
 72
19
 73
15
 74
0
 42
0.0000001
 43
0.0000001
 44
0.0000000001
 40
0.0
 40
0.0
 40
0.0
 40
0.0
 40
0.1257520139
 40
0.2522206627
 40
0.3156258169
 40
0.3790659753
 40
0.4424691949
 40
0.5057567472
 40
0.5688478471
 40
0.6316655216
 40
0.6941419386
 40
0.7562220872
 40
0.8790464498
 40
1.0
 40
1.0
 40
1.0
 40
1.0
 10
10.3020447242
 20
7.225506584
 30
0.0
 10
10.2803701451
 20
7.2368621032
 30
0.0
 10
10.2370920067
 20
7.2600120489
 30
0.0
 10
10.1835326184
 20
7.2900762449
 30
0.0
 10
10.140978632
 20
7.3149518862
 30
0.0
 10
10.1092512117
 20
7.3340266262
 30
0.0
 10
10.0777906937
 20
7.3534950583
 30
0.0
 10
10.046647195
 20
7.3733406937
 30
0.0
 10
10.0158674532
 20
7.3935390317
 30
0.0
 10
9.9854913106
 20
7.4140586929
 30
0.0
 10
9.9555493944
 20
7.4348640696
 30
0.0
 10
9.9163728178
 20
7.4628348253
 30
0.0
 10
9.8685736953
 20
7.4983016937
 30
0.0
 10
9.8311020177
 20
7.5273924353
 30
0.0
 10
9.8126481614
 20
7.5419995882
 30
0.0
  0
SPLINE
  5
33C
100
AcDbEntity
  8
0
100
AcDbSpline
 62
7
  6
CONTINUOUS
 70
0
 71
3
 72
15
 73
11
 74
0
 42
0.0000001
 43
0.0000001
 44
0.0000000001
 40
0.0
 40
0.0
 40
0.0
 40
0.0
 40
0.1339300193
 40
0.2667169352
 40
0.3976431388
 40
0.5258638413
 40
0.6505778503
 40
0.771234501
 40
0.8876526902
 40
1.0
 40
1.0
 40
1.0
 40
1.0
 10
9.7587273527
 20
7.545739009
 30
0.0
 10
9.7371869279
 20
7.5340453997
 30
0.0
 10
9.6942343359
 20
7.5108601349
 30
0.0
 10
9.6299973516
 20
7.476666207
 30
0.0
 10
9.5664515561
 20
7.4434006312
 30
0.0
 10
9.5039595784
 20
7.4113118711
 30
0.0
 10
9.4428735225
 20
7.3806048224
 30
0.0
 10
9.3834570222
 20
7.3513913751
 30
0.0
 10
9.3258312462
 20
7.3236707754
 30
0.0
 10
9.2879605385
 20
7.3058231744
 30
0.0
 10
9.2693307899
 20
7.2971255386
 30
0.0
  0
SPLINE
  5
33D
100
AcDbEntity
  8
0
100
AcDbSpline
 62
7
  6
CONTINUOUS
 70
0
 71
3
 72
39
 73
35
 74
0
 42
0.0000001
 43
0.0000001
 44
0.0000000001
 40
0.0
 40
0.0
 40
0.0
 40
0.0
 40
0.031190719
 40
0.0621706961
 40
0.0929497854
 40
0.1235450799
 40
0.1539815444
 40
0.1842905038
 40
0.2145086562
 40
0.244676539
 40
0.2748367926
 40
0.3050324226
 40
0.3353049004
 40
0.3656924521
 40
0.3962284914
 40
0.4269402609
 40
0.457847884
 40
0.488963621
 40
0.520291589
 40
0.551827748
 40
0.5835601969
 40
0.6154698091
 40
0.647530981
 40
0.6797127113
 40
0.7119797217
 40
0.7442937372
 40
0.7766148754
 40
0.8089029633
 40
0.8411190141
 40
0.8732265515
 40
0.9051928721
 40
0.936990484
 40
0.968597556
 40
1.0
 40
1.0
 40
1.0
 40
1.0
 10
9.7742564292
 20
7.4595278986
 30
0.0
 10
9.756700749
 20
7.4607453891
 30
0.0
 10
9.7215645695
 20
7.4614682939
 30
0.0
 10
9.6692009865
 20
7.4573492853
 30
0.0
 10
9.6178375091
 20
7.4480627463
 30
0.0
 10
9.5679762674
 20
7.4336954846
 30
0.0
 10
9.5200974583
 20
7.4143846441
 30
0.0
 10
9.4746647167
 20
7.3903150994
 30
0.0
 10
9.43211781
 20
7.3617184475
 30
0.0
 10
9.3928688622
 20
7.328870595
 30
0.0
 10
9.3572979128
 20
7.2920891337
 30
0.0
 10
9.3257490847
 20
7.2517301484
 30
0.0
 10
9.2985270658
 20
7.208184559
 30
0.0
 10
9.2758941237
 20
7.1618741004
 30
0.0
 10
9.2580675666
 20
7.1132470148
 30
0.0
 10
9.24521779
 20
7.062773473
 30
0.0
 10
9.2374667893
 20
7.0109409174
 30
0.0
 10
9.2348871869
 20
6.9582492464
 30
0.0
 10
9.2375017662
 20
6.9052060054
 30
0.0
 10
9.245283393
 20
6.8523215362
 30
0.0
 10
9.2581554689
 20
6.8001041448
 30
0.0
 10
9.2759927472
 20
6.7490553453
 30
0.0
 10
9.2986226071
 20
6.6996651294
 30
0.0
 10
9.325826761
 20
6.6524074132
 30
0.0
 10
9.3573433237
 20
6.6077355638
 30
0.0
 10
9.3928693393
 20
6.5660781591
 30
0.0
 10
9.4320636227
 20
6.5278349655
 30
0.0
 10
9.4745500144
 20
6.4933731546
 30
0.0
 10
9.5199208516
 20
6.4630238486
 30
0.0
 10
9.5677410318
 20
6.4370790253
 30
0.0
 10
9.6175513096
 20
6.4157886065
 30
0.0
 10
9.6688754484
 20
6.3993583189
 30
0.0
 10
9.721214037
 20
6.3879476352
 30
0.0
 10
9.7565815797
 20
6.3837462934
 30
0.0
 10
9.7742564292
 20
6.3825205384
 30
0.0
  0
SPLINE
  5
33E
100
AcDbEntity
  8
0
100
AcDbSpline
 62
7
  6
CONTINUOUS
 70
0
 71
3
 72
32
 73
28
 74
0
 42
0.0000001
 43
0.0000001
 44
0.0000000001
 40
0.0
 40
0.0
 40
0.0
 40
0.0
 40
0.0958350133
 40
0.1891086299
 40
0.2792520242
 40
0.3657239766
 40
0.4480156633
 40
0.5256576281
 40
0.5982269975
 40
0.6324943547
 40
0.6653613378
 40
0.6967924401
 40
0.7267581378
 40
0.7552341308
 40
0.7822036768
 40
0.8076572578
 40
0.8315954232
 40
0.8540292433
 40
0.8749840421
 40
0.8945012056
 40
0.9126433592
 40
0.9294981369
 40
0.9451849406
 40
0.9598599088
 40
0.973721248
 40
0.9870091801
 40
1.0
 40
1.0
 40
1.0
 40
1.0
 10
12.1136303154
 20
10.1910177601
 30
0.0
 10
12.109970842
 20
10.1912715454
 30
0.0
 10
12.1027549793
 20
10.1918528223
 30
0.0
 10
12.0921228254
 20
10.1929623901
 30
0.0
 10
12.081877073
 20
10.1942920854
 30
0.0
 10
12.0720861157
 20
10.1958328561
 30
0.0
 10
12.0628150507
 20
10.1975741924
 30
0.0
 10
12.0541256313
 20
10.1995042673
 30
0.0
 10
12.0472920456
 20
10.2012913719
 30
0.0
 10
12.0421656353
 20
10.202814255
 30
0.0
 10
12.03857492
 20
10.203973349
 30
0.0
 10
12.0351703328
 20
10.2051693463
 30
0.0
 10
12.0319574935
 20
10.2064002026
 30
0.0
 10
12.0289417162
 20
10.2076639302
 30
0.0
 10
12.0261279348
 20
10.2089583588
 30
0.0
 10
12.0235207621
 20
10.2102814357
 30
0.0
 10
12.0211243931
 20
10.2116309373
 30
0.0
 10
12.0189427007
 20
10.2130048009
 30
0.0
 10
12.016979109
 20
10.2144008401
 30
0.0
 10
12.0152367556
 20
10.2158170996
 30
0.0
 10
12.0137183531
 20
10.2172515895
 30
0.0
 10
12.0124264831
 20
10.2187026296
 30
0.0
 10
12.0113635043
 20
10.2201685703
 30
0.0
 10
12.0105320356
 20
10.2216478794
 30
0.0
 10
12.0099348046
 20
10.2231388001
 30
0.0
 10
12.0095748537
 20
10.2246381998
 30
0.0
 10
12.0094943582
 20
10.2256458026
 30
0.0
 10
12.0094943665
 20
10.2261430503
 30
0.0
  0
SPLINE
  5
33F
100
AcDbEntity
  8
0
100
AcDbSpline
 62
7
  6
CONTINUOUS
 70
0
 71
3
 72
32
 73
28
 74
0
 42
0.0000001
 43
0.0000001
 44
0.0000000001
 40
0.0
 40
0.0
 40
0.0
 40
0.0
 40
0.0958350133
 40
0.1891086299
 40
0.2792520242
 40
0.3657239766
 40
0.4480156633
 40
0.5256576281
 40
0.5982269975
 40
0.6324943547
 40
0.6653613378
 40
0.6967924401
 40
0.7267581378
 40
0.7552341308
 40
0.7822036768
 40
0.8076572578
 40
0.8315954232
 40
0.8540292433
 40
0.8749840421
 40
0.8945012056
 40
0.9126433592
 40
0.9294981369
 40
0.9451849406
 40
0.9598599088
 40
0.973721248
 40
0.9870091801
 40
1.0
 40
1.0
 40
1.0
 40
1.0
 10
11.5636402985
 20
9.659768167
 30
0.0
 10
11.559980825
 20
9.6600219523
 30
0.0
 10
11.5527649624
 20
9.6606032293
 30
0.0
 10
11.5421328085
 20
9.661712797
 30
0.0
 10
11.5318870561
 20
9.6630424923
 30
0.0
 10
11.5220960988
 20
9.6645832631
 30
0.0
 10
11.5128250338
 20
9.6663245993
 30
0.0
 10
11.5041356144
 20
9.6682546743
 30
0.0
 10
11.4973020286
 20
9.6700417788
 30
0.0
 10
11.4921756183
 20
9.671564662
 30
0.0
 10
11.4885849031
 20
9.672723756
 30
0.0
 10
11.4851803159
 20
9.6739197533
 30
0.0
 10
11.4819674765
 20
9.6751506095
 30
0.0
 10
11.4789516992
 20
9.6764143371
 30
0.0
 10
11.4761379178
 20
9.6777087658
 30
0.0
 10
11.4735307452
 20
9.6790318426
 30
0.0
 10
11.4711343762
 20
9.6803813443
 30
0.0
 10
11.4689526837
 20
9.6817552079
 30
0.0
 10
11.4669890921
 20
9.683151247
 30
0.0
 10
11.4652467387
 20
9.6845675065
 30
0.0
 10
11.4637283362
 20
9.6860019965
 30
0.0
 10
11.4624364662
 20
9.6874530365
 30
0.0
 10
11.4613734874
 20
9.6889189772
 30
0.0
 10
11.4605420187
 20
9.6903982864
 30
0.0
 10
11.4599447877
 20
9.6918892071
 30
0.0
 10
11.4595848368
 20
9.6933886068
 30
0.0
 10
11.4595043412
 20
9.6943962095
 30
0.0
 10
11.4595043496
 20
9.6948934573
 30
0.0
  0
SPLINE
  5
340
100
AcDbEntity
  8
0
100
AcDbSpline
 62
7
  6
CONTINUOUS
 70
0
 71
3
 72
32
 73
28
 74
0
 42
0.0000001
 43
0.0000001
 44
0.0000000001
 40
0.0
 40
0.0
 40
0.0
 40
0.0
 40
0.0958350133
 40
0.1891086299
 40
0.2792520242
 40
0.3657239766
 40
0.4480156633
 40
0.5256576281
 40
0.5982269975
 40
0.6324943547
 40
0.6653613378
 40
0.6967924401
 40
0.7267581378
 40
0.7552341308
 40
0.7822036768
 40
0.8076572578
 40
0.8315954232
 40
0.8540292433
 40
0.8749840421
 40
0.8945012056
 40
0.9126433592
 40
0.9294981369
 40
0.9451849406
 40
0.9598599088
 40
0.973721248
 40
0.9870091801
 40
1.0
 40
1.0
 40
1.0
 40
1.0
 10
10.3633727234
 20
10.3123985363
 30
0.0
 10
10.35971325
 20
10.3126523217
 30
0.0
 10
10.3524973873
 20
10.3132335986
 30
0.0
 10
10.3418652334
 20
10.3143431663
 30
0.0
 10
10.331619481
 20
10.3156728616
 30
0.0
 10
10.3218285237
 20
10.3172136324
 30
0.0
 10
10.3125574587
 20
10.3189549686
 30
0.0
 10
10.3038680393
 20
10.3208850436
 30
0.0
 10
10.2970344536
 20
10.3226721481
 30
0.0
 10
10.2919080433
 20
10.3241950313
 30
0.0
 10
10.288317328
 20
10.3253541253
 30
0.0
 10
10.2849127408
 20
10.3265501226
 30
0.0
 10
10.2816999014
 20
10.3277809788
 30
0.0
 10
10.2786841241
 20
10.3290447064
 30
0.0
 10
10.2758703428
 20
10.3303391351
 30
0.0
 10
10.2732631701
 20
10.331662212
 30
0.0
 10
10.2708668011
 20
10.3330117136
 30
0.0
 10
10.2686851086
 20
10.3343855772
 30
0.0
 10
10.266721517
 20
10.3357816164
 30
0.0
 10
10.2649791636
 20
10.3371978759
 30
0.0
 10
10.2634607611
 20
10.3386323658
 30
0.0
 10
10.2621688911
 20
10.3400834059
 30
0.0
 10
10.2611059123
 20
10.3415493465
 30
0.0
 10
10.2602744436
 20
10.3430286557
 30
0.0
 10
10.2596772126
 20
10.3445195764
 30
0.0
 10
10.2593172617
 20
10.3460189761
 30
0.0
 10
10.2592367662
 20
10.3470265789
 30
0.0
 10
10.2592367745
 20
10.3475238266
 30
0.0
  0
SPLINE
  5
341
100
AcDbEntity
  8
0
100
AcDbSpline
 62
7
  6
CONTINUOUS
 70
0
 71
3
 72
32
 73
28
 74
0
 42
0.0000001
 43
0.0000001
 44
0.0000000001
 40
0.0
 40
0.0
 40
0.0
 40
0.0
 40
0.0958350133
 40
0.1891086299
 40
0.2792520242
 40
0.3657239766
 40
0.4480156633
 40
0.5256576281
 40
0.5982269975
 40
0.6324943547
 40
0.6653613378
 40
0.6967924401
 40
0.7267581378
 40
0.7552341308
 40
0.7822036768
 40
0.8076572578
 40
0.8315954232
 40
0.8540292433
 40
0.8749840421
 40
0.8945012056
 40
0.9126433592
 40
0.9294981369
 40
0.9451849406
 40
0.9598599088
 40
0.973721248
 40
0.9870091801
 40
1.0
 40
1.0
 40
1.0
 40
1.0
 10
9.8133827065
 20
9.7811489433
 30
0.0
 10
9.809723233
 20
9.7814027286
 30
0.0
 10
9.8025073703
 20
9.7819840056
 30
0.0
 10
9.7918752165
 20
9.7830935733
 30
0.0
 10
9.781629464
 20
9.7844232686
 30
0.0
 10
9.7718385068
 20
9.7859640394
 30
0.0
 10
9.7625674417
 20
9.7877053756
 30
0.0
 10
9.7538780224
 20
9.7896354506
 30
0.0
 10
9.7470444366
 20
9.7914225551
 30
0.0
 10
9.7419180263
 20
9.7929454383
 30
0.0
 10
9.7383273111
 20
9.7941045322
 30
0.0
 10
9.7349227239
 20
9.7953005296
 30
0.0
 10
9.7317098845
 20
9.7965313858
 30
0.0
 10
9.7286941072
 20
9.7977951134
 30
0.0
 10
9.7258803258
 20
9.799089542
 30
0.0
 10
9.7232731532
 20
9.8004126189
 30
0.0
 10
9.7208767842
 20
9.8017621205
 30
0.0
 10
9.7186950917
 20
9.8031359841
 30
0.0
 10
9.7167315001
 20
9.8045320233
 30
0.0
 10
9.7149891467
 20
9.8059482828
 30
0.0
 10
9.7134707441
 20
9.8073827727
 30
0.0
 10
9.7121788742
 20
9.8088338128
 30
0.0
 10
9.7111158954
 20
9.8102997535
 30
0.0
 10
9.7102844267
 20
9.8117790626
 30
0.0
 10
9.7096871956
 20
9.8132699834
 30
0.0
 10
9.7093272448
 20
9.8147693831
 30
0.0
 10
9.7092467492
 20
9.8157769858
 30
0.0
 10
9.7092467576
 20
9.8162742335
 30
0.0
  0
SPLINE
  5
342
100
AcDbEntity
  8
0
100
AcDbSpline
 62
7
  6
CONTINUOUS
 70
0
 71
3
 72
34
 73
30
 74
0
 42
0.0000001
 43
0.0000001
 44
0.0000000001
 40
0.0
 40
0.0
 40
0.0
 40
0.0
 40
0.0968304316
 40
0.1922840069
 40
0.2850752232
 40
0.3740753997
 40
0.4583573151
 40
0.4985007366
 40
0.5372144866
 40
0.5744420681
 40
0.6101386012
 40
0.644269505
 40
0.676810848
 40
0.7077479021
 40
0.7370744515
 40
0.7647933907
 40
0.7909154915
 40
0.8154603905
 40
0.8384569289
 40
0.8599439164
 40
0.8799722721
 40
0.8986066226
 40
0.9159288634
 40
0.9320415076
 40
0.9470722834
 40
0.9611783068
 40
0.9745491713
 40
0.987406788
 40
1.0
 40
1.0
 40
1.0
 40
1.0
 10
11.0451930747
 20
10.0703714722
 30
0.0
 10
11.0385520573
 20
10.0703714718
 30
0.0
 10
11.0253634499
 20
10.0705825265
 30
0.0
 10
11.005831338
 20
10.0715260366
 30
0.0
 10
10.9868759695
 20
10.0730713966
 30
0.0
 10
10.9687462647
 20
10.0751810341
 30
0.0
 10
10.9542745472
 20
10.077404485
 30
0.0
 10
10.9432713903
 20
10.0794375579
 30
0.0
 10
10.9354736627
 20
10.0810474604
 30
0.0
 10
10.9280104597
 20
10.0827602336
 30
0.0
 10
10.9208937659
 20
10.0845690601
 30
0.0
 10
10.9141335689
 20
10.0864672276
 30
0.0
 10
10.9077380383
 20
10.0884481476
 30
0.0
 10
10.9017137597
 20
10.0905054519
 30
0.0
 10
10.8960659429
 20
10.0926330106
 30
0.0
 10
10.8907986196
 20
10.0948248861
 30
0.0
 10
10.885914818
 20
10.0970754441
 30
0.0
 10
10.8814167319
 20
10.099379273
 30
0.0
 10
10.8773058668
 20
10.10173125
 30
0.0
 10
10.8735831659
 20
10.1041265456
 30
0.0
 10
10.8702491502
 20
10.1065606272
 30
0.0
 10
10.867304043
 20
10.1090293322
 30
0.0
 10
10.8647479375
 20
10.1115288603
 30
0.0
 10
10.8625810119
 20
10.1140558222
 30
0.0
 10
10.8608037956
 20
10.1166071676
 30
0.0
 10
10.859417503
 20
10.1191798662
 30
0.0
 10
10.8584241842
 20
10.1217707471
 30
0.0
 10
10.8578265387
 20
10.1243745047
 30
0.0
 10
10.8576930395
 20
10.1261227917
 30
0.0
 10
10.8576930396
 20
10.1269864845
 30
0.0
  0
SPLINE
  5
343
100
AcDbEntity
  8
0
100
AcDbSpline
 62
7
  6
CONTINUOUS
 70
0
 71
3
 72
33
 73
29
 74
0
 42
0.0000001
 43
0.0000001
 44
0.0000000001
 40
0.0
 40
0.0
 40
0.0
 40
0.0
 40
0.0958076184
 40
0.1890186026
 40
0.2790584777
 40
0.3653819741
 40
0.4474850745
 40
0.5249097121
 40
0.5617408519
 40
0.5972556104
 40
0.6314135138
 40
0.6641782944
 40
0.6955187874
 40
0.725409213
 40
0.753829661
 40
0.7807672375
 40
0.8062163212
 40
0.8301806758
 40
0.8526739208
 40
0.8737227249
 40
0.893368184
 40
0.9116702777
 40
0.9287108748
 40
0.9445993575
 40
0.9594768564
 40
0.9735207996
 40
0.9869458346
 40
1.0
 40
1.0
 40
1.0
 40
1.0
 10
10.3086103472
 20
10.0095022152
 30
0.0
 10
10.3029484199
 20
10.0098948711
 30
0.0
 10
10.291786267
 20
10.0107954429
 30
0.0
 10
10.2753435734
 20
10.0125180173
 30
0.0
 10
10.259506703
 20
10.0145843106
 30
0.0
 10
10.2443818386
 20
10.0169794671
 30
0.0
 10
10.2300693415
 20
10.0196862483
 30
0.0
 10
10.218715102
 20
10.0222257561
 30
0.0
 10
10.2101152541
 20
10.0244092978
 30
0.0
 10
10.204032239
 20
10.0260850946
 30
0.0
 10
10.1982177239
 20
10.0278233378
 30
0.0
 10
10.1926806868
 20
10.0296210844
 30
0.0
 10
10.1874295697
 20
10.0314752226
 30
0.0
 10
10.1824722568
 20
10.0333825904
 30
0.0
 10
10.1778160782
 20
10.0353399992
 30
0.0
 10
10.1734677768
 20
10.03734414
 30
0.0
 10
10.1694335515
 20
10.0393917943
 30
0.0
 10
10.1657189754
 20
10.0414795833
 30
0.0
 10
10.1623291119
 20
10.0436043364
 30
0.0
 10
10.1592683697
 20
10.0457627393
 30
0.0
 10
10.1565407254
 20
10.0479518036
 30
0.0
 10
10.1541495507
 20
10.0501684996
 30
0.0
 10
10.1520979861
 20
10.0524102084
 30
0.0
 10
10.15038885
 20
10.0546743858
 30
0.0
 10
10.1490251739
 20
10.0569586443
 30
0.0
 10
10.1480101578
 20
10.0592605013
 30
0.0
 10
10.147347385
 20
10.0615757271
 30
0.0
 10
10.1471408612
 20
10.0631377172
 30
0.0
 10
10.1470984832
 20
10.063909868
 30
0.0
  0
SPLINE
  5
344
100
AcDbEntity
  8
0
100
AcDbSpline
 62
7
  6
CONTINUOUS
 70
0
 71
3
 72
33
 73
29
 74
0
 42
0.0000001
 43
0.0000001
 44
0.0000000001
 40
0.0
 40
0.0
 40
0.0
 40
0.0
 40
0.1040678356
 40
0.2033817966
 40
0.2974247694
 40
0.3857622167
 40
0.4680528404
 40
0.5068537844
 40
0.5440618226
 40
0.5796629224
 40
0.613651686
 40
0.6460286695
 40
0.6768031645
 40
0.7059917576
 40
0.7336199924
 40
0.7597227459
 40
0.7843446531
 40
0.8075424604
 40
0.8293845971
 40
0.8499548915
 40
0.8693521681
 40
0.9050769139
 40
0.9217334418
 40
0.9377983795
 40
0.9534595795
 40
0.9689147523
 40
0.9843635116
 40
1.0
 40
1.0
 40
1.0
 40
1.0
 10
10.7350778637
 20
9.8752081054
 30
0.0
 10
10.7312301378
 20
9.8757376153
 30
0.0
 10
10.723723248
 20
9.8768689523
 30
0.0
 10
10.7127967391
 20
9.8788349234
 30
0.0
 10
10.7025108922
 20
9.8810194154
 30
0.0
 10
10.6929235089
 20
9.8834064911
 30
0.0
 10
10.6854159448
 20
9.8855906332
 30
0.0
 10
10.6798024708
 20
9.8874343203
 30
0.0
 10
10.6758770788
 20
9.8888293912
 30
0.0
 10
10.6721568933
 20
9.8902616321
 30
0.0
 10
10.6686448338
 20
9.8917286072
 30
0.0
 10
10.665343311
 20
9.893228019
 30
0.0
 10
10.6622542169
 20
9.8947574772
 30
0.0
 10
10.6593789759
 20
9.896314711
 30
0.0
 10
10.6567185722
 20
9.8978974709
 30
0.0
 10
10.6542735593
 20
9.8995035495
 30
0.0
 10
10.6520441703
 20
9.901130885
 30
0.0
 10
10.6500302099
 20
9.9027774292
 30
0.0
 10
10.6482314068
 20
9.9044412146
 30
0.0
 10
10.6466467747
 20
9.9061208402
 30
0.0
 10
10.6448681032
 20
9.9083174654
 30
0.0
 10
10.6434400103
 20
9.9106057363
 30
0.0
 10
10.6424366607
 20
9.9129595165
 30
0.0
 10
10.6419113169
 20
9.914691145
 30
0.0
 10
10.6415949374
 20
9.9164273776
 30
0.0
 10
10.6414859277
 20
9.9181659509
 30
0.0
 10
10.6415823648
 20
9.9199040491
 30
0.0
 10
10.6417801763
 20
9.9210501544
 30
0.0
 10
10.6419105886
 20
9.9216189767
 30
0.0
  0
SPLINE
  5
345
100
AcDbEntity
  8
0
100
AcDbSpline
 62
7
  6
CONTINUOUS
 70
0
 71
3
 72
15
 73
11
 74
0
 42
0.0000001
 43
0.0000001
 44
0.0000000001
 40
0.0
 40
0.0
 40
0.0
 40
0.0
 40
0.1655331063
 40
0.3188006101
 40
0.4598365908
 40
0.5889054804
 40
0.7064897582
 40
0.8133664121
 40
0.9106767374
 40
1.0
 40
1.0
 40
1.0
 40
1.0
 10
10.9274569379
 20
9.7318556536
 30
0.0
 10
10.9258051563
 20
9.732567153
 30
0.0
 10
10.9226526232
 20
9.7340057666
 30
0.0
 10
10.9182176563
 20
9.7363115403
 30
0.0
 10
10.9142683982
 20
9.7386763796
 30
0.0
 10
10.9108138707
 20
9.7410938947
 30
0.0
 10
10.9078605255
 20
9.7435582896
 30
0.0
 10
10.9054129073
 20
9.7460649507
 30
0.0
 10
10.9034751292
 20
9.7486086701
 30
0.0
 10
10.902490011
 20
9.7503926848
 30
0.0
 10
10.9020972934
 20
9.7512801661
 30
0.0
  0
SPLINE
  5
346
100
AcDbEntity
  8
0
100
AcDbSpline
 62
7
  6
CONTINUOUS
 70
0
 71
3
 72
50
 73
46
 74
0
 42
0.0000001
 43
0.0000001
 44
0.0000000001
 40
0.0
 40
0.0
 40
0.0
 40
0.0
 40
0.0081903396
 40
0.0171035399
 40
0.0267656677
 40
0.0371921506
 40
0.0483900155
 40
0.0603571917
 40
0.0730851912
 40
0.0865602068
 40
0.1156726031
 40
0.1475116463
 40
0.1818469454
 40
0.2184159466
 40
0.2569325215
 40
0.2970937267
 40
0.3385851846
 40
0.3810854144
 40
0.4242693097
 40
0.4678109283
 40
0.5113857332
 40
0.5546724208
 40
0.5973544886
 40
0.6391216931
 40
0.6796715503
 40
0.7187110505
 40
0.7559587777
 40
0.7911476806
 40
0.8240288291
 40
0.8543766178
 40
0.881996262
 40
0.8947352403
 40
0.9067393118
 40
0.9179993037
 40
0.9285109498
 40
0.9382774988
 40
0.947310404
 40
0.9556328492
 40
0.9632822714
 40
0.9703150745
 40
0.9768112274
 40
0.9828786454
 40
0.9886550816
 40
0.9943034954
 40
1.0
 40
1.0
 40
1.0
 40
1.0
 10
10.2533221004
 20
9.7049537772
 30
0.0
 10
10.2530594545
 20
9.7047000808
 30
0.0
 10
10.2524844695
 20
9.7041974025
 30
0.0
 10
10.251525375
 20
9.7034856971
 30
0.0
 10
10.2504363845
 20
9.7027869141
 30
0.0
 10
10.2492201699
 20
9.7021025139
 30
0.0
 10
10.247879413
 20
9.7014339293
 30
0.0
 10
10.2464172311
 20
9.7007825268
 30
0.0
 10
10.2448370378
 20
9.7001497527
 30
0.0
 10
10.2425173963
 20
9.6993110401
 30
0.0
 10
10.239346126
 20
9.698327921
 30
0.0
 10
10.2352301427
 20
9.69727043
 30
0.0
 10
10.2307487409
 20
9.6963158203
 30
0.0
 10
10.2259428623
 20
9.6954718668
 30
0.0
 10
10.2208554558
 20
9.6947452458
 30
0.0
 10
10.2155311884
 20
9.6941414256
 30
0.0
 10
10.2100158135
 20
9.6936647228
 30
0.0
 10
10.2043557489
 20
9.6933183321
 30
0.0
 10
10.1985976945
 20
9.6931043749
 30
0.0
 10
10.1927883312
 20
9.6930239448
 30
0.0
 10
10.1869740764
 20
9.693077154
 30
0.0
 10
10.1812008896
 20
9.6932631731
 30
0.0
 10
10.1755141109
 20
9.6935802624
 30
0.0
 10
10.1699583195
 20
9.6940257928
 30
0.0
 10
10.1645771951
 20
9.6945962581
 30
0.0
 10
10.1594133709
 20
9.6952872774
 30
0.0
 10
10.1545082476
 20
9.6960935872
 30
0.0
 10
10.149901805
 20
9.6970090387
 30
0.0
 10
10.1456322088
 20
9.6980265591
 30
0.0
 10
10.1417358174
 20
9.6991382454
 30
0.0
 10
10.1387518917
 20
9.7001614597
 30
0.0
 10
10.1365837633
 20
9.7010283484
 30
0.0
 10
10.1351159044
 20
9.7016789953
 30
0.0
 10
10.1337654035
 20
9.7023463167
 30
0.0
 10
10.1325354872
 20
9.7030291151
 30
0.0
 10
10.1314290478
 20
9.7037259686
 30
0.0
 10
10.1304487788
 20
9.7044356615
 30
0.0
 10
10.1295970376
 20
9.7051569103
 30
0.0
 10
10.1288760128
 20
9.7058886649
 30
0.0
 10
10.1282877633
 20
9.7066299951
 30
0.0
 10
10.1278344293
 20
9.7073801061
 30
0.0
 10
10.1275185918
 20
9.7081380503
 30
0.0
 10
10.127343005
 20
9.7089021451
 30
0.0
 10
10.1273101779
 20
9.709669021
 30
0.0
 10
10.1273829137
 20
9.7101728913
 30
0.0
 10
10.1274409216
 20
9.7104201552
 30
0.0
  0
SPLINE
  5
347
100
AcDbEntity
  8
0
100
AcDbSpline
 62
7
  6
CONTINUOUS
 70
0
 71
3
 72
39
 73
35
 74
0
 42
0.0000001
 43
0.0000001
 44
0.0000000001
 40
0.0
 40
0.0
 40
0.0
 40
0.0
 40
0.03823453
 40
0.0777638281
 40
0.1183769043
 40
0.15986509
 40
0.244592107
 40
0.3302248379
 40
0.4151110517
 40
0.4977300781
 40
0.5377608976
 40
0.5767302181
 40
0.6144963995
 40
0.6509286993
 40
0.685906965
 40
0.7193218755
 40
0.7510748841
 40
0.7810780368
 40
0.8092547522
 40
0.8355411589
 40
0.8598875863
 40
0.8822617444
 40
0.9026539982
 40
0.9210849985
 40
0.9376180109
 40
0.9523781997
 40
0.9591618752
 40
0.9655926283
 40
0.9717169483
 40
0.9775907652
 40
0.983279423
 40
0.9888567477
 40
0.994402674
 40
1.0
 40
1.0
 40
1.0
 40
1.0
 10
10.9205207514
 20
10.3428284239
 30
0.0
 10
10.9185664685
 20
10.342536397
 30
0.0
 10
10.9145839175
 20
10.3419937207
 30
0.0
 10
10.9085039322
 20
10.3413103246
 30
0.0
 10
10.9022428511
 20
10.3407462158
 30
0.0
 10
10.8936410258
 20
10.3401525324
 30
0.0
 10
10.8826978005
 20
10.3397285099
 30
0.0
 10
10.8695036266
 20
10.3397129882
 30
0.0
 10
10.8564267046
 20
10.3401780153
 30
0.0
 10
10.8457265855
 20
10.3409567775
 30
0.0
 10
10.8374171265
 20
10.3418089168
 30
0.0
 10
10.8314273533
 20
10.3425463254
 30
0.0
 10
10.8256386372
 20
10.3433841504
 30
0.0
 10
10.820073575
 20
10.3443176894
 30
0.0
 10
10.8147532894
 20
10.3453420163
 30
0.0
 10
10.8096974708
 20
10.3464520372
 30
0.0
 10
10.8049244779
 20
10.347642503
 30
0.0
 10
10.8004514396
 20
10.3489080593
 30
0.0
 10
10.7962943279
 20
10.3502432505
 30
0.0
 10
10.7924679991
 20
10.3516425036
 30
0.0
 10
10.7889862494
 20
10.3531001851
 30
0.0
 10
10.7858618038
 20
10.3546106823
 30
0.0
 10
10.7831063368
 20
10.3561683759
 30
0.0
 10
10.7807301934
 20
10.3577681577
 30
0.0
 10
10.7787432891
 20
10.3594050266
 30
0.0
 10
10.7773823559
 20
10.3608362141
 30
0.0
 10
10.7765165366
 20
10.3619959401
 30
0.0
 10
10.7759897904
 20
10.3628469723
 30
0.0
 10
10.7755685124
 20
10.3637029766
 30
0.0
 10
10.7752539515
 20
10.3645632264
 30
0.0
 10
10.7750474781
 20
10.3654267862
 30
0.0
 10
10.7749502617
 20
10.3662924912
 30
0.0
 10
10.7749632217
 20
10.3671587607
 30
0.0
 10
10.7750450667
 20
10.3677306022
 30
0.0
 10
10.7751034398
 20
10.3680139241
 30
0.0
  0
SPLINE
  5
348
100
AcDbEntity
  8
0
100
AcDbSpline
 62
7
  6
CONTINUOUS
 70
0
 71
3
 72
23
 73
19
 74
0
 42
0.0000001
 43
0.0000001
 44
0.0000000001
 40
0.0
 40
0.0
 40
0.0
 40
0.0
 40
0.0637764154
 40
0.1273451281
 40
0.190701988
 40
0.253856063
 40
0.3168132283
 40
0.3795820791
 40
0.4421733864
 40
0.5045993414
 40
0.5668738629
 40
0.629012379
 40
0.6910316532
 40
0.7529496461
 40
0.8147853522
 40
0.8765586034
 40
0.9382898574
 40
1.0
 40
1.0
 40
1.0
 40
1.0
 10
10.7004334309
 20
8.3702564523
 30
0.0
 10
10.7004334309
 20
8.3648178762
 30
0.0
 10
10.7001730896
 20
8.3539565941
 30
0.0
 10
10.6989981957
 20
8.3377307686
 30
0.0
 10
10.697041922
 20
8.3216335183
 30
0.0
 10
10.6943089811
 20
8.3057027431
 30
0.0
 10
10.6908054908
 20
8.2899747883
 30
0.0
 10
10.686539556
 20
8.274486013
 30
0.0
 10
10.6815209895
 20
8.2592721114
 30
0.0
 10
10.6757612542
 20
8.2443681825
 30
0.0
 10
10.6692736514
 20
8.2298085882
 30
0.0
 10
10.6620731312
 20
8.2156268967
 30
0.0
 10
10.6541762377
 20
8.2018558418
 30
0.0
 10
10.6456011394
 20
8.1885271991
 30
0.0
 10
10.6363676727
 20
8.1756717166
 30
0.0
 10
10.626497009
 20
8.1633189504
 30
0.0
 10
10.616012255
 20
8.151497821
 30
0.0
 10
10.6086277651
 20
8.1439882803
 30
0.0
 10
10.6048427795
 20
8.1403322638
 30
0.0
  0
SPLINE
  5
349
100
AcDbEntity
  8
0
100
AcDbSpline
 62
7
  6
CONTINUOUS
 70
0
 71
3
 72
19
 73
15
 74
0
 42
0.0000001
 43
0.0000001
 44
0.0000000001
 40
0.0
 40
0.0
 40
0.0
 40
0.0
 40
0.12732766
 40
0.2538196711
 40
0.3795264658
 40
0.5045235362
 40
0.5668075958
 40
0.6289556124
 40
0.6909843715
 40
0.7529118454
 40
0.8147570127
 40
0.8765397119
 40
0.9382804145
 40
1.0
 40
1.0
 40
1.0
 40
1.0
 10
10.8593282562
 20
6.4621586364
 30
0.0
 10
10.8593282562
 20
6.4548903062
 30
0.0
 10
10.8586342907
 20
6.4403913495
 30
0.0
 10
10.8554957462
 20
6.4189214913
 30
0.0
 10
10.8502920665
 20
6.3979921054
 30
0.0
 10
10.8442640271
 20
6.3811385162
 30
0.0
 10
10.8384667033
 20
6.3681283718
 30
0.0
 10
10.8336458258
 20
6.358633489
 30
0.0
 10
10.8283588457
 20
6.3494137634
 30
0.0
 10
10.8226177964
 20
6.3404901553
 30
0.0
 10
10.8164359234
 20
6.3318833822
 30
0.0
 10
10.8098274729
 20
6.3236131551
 30
0.0
 10
10.8028078947
 20
6.3156988537
 30
0.0
 10
10.7978639344
 20
6.3106711989
 30
0.0
 10
10.7953298701
 20
6.3082234817
 30
0.0
  0
SPLINE
  5
34A
100
AcDbEntity
  8
0
100
AcDbSpline
 62
7
  6
CONTINUOUS
 70
0
 71
3
 72
19
 73
15
 74
0
 42
0.0000001
 43
0.0000001
 44
0.0000000001
 40
0.0
 40
0.0
 40
0.0
 40
0.0
 40
0.12732766
 40
0.2538196711
 40
0.3795264658
 40
0.5045235362
 40
0.5668075958
 40
0.6289556124
 40
0.6909843715
 40
0.7529118454
 40
0.8147570127
 40
0.8765397119
 40
0.9382804145
 40
1.0
 40
1.0
 40
1.0
 40
1.0
 10
9.8634586528
 20
8.039998693
 30
0.0
 10
9.8634586528
 20
8.0327303628
 30
0.0
 10
9.8627646873
 20
8.0182314061
 30
0.0
 10
9.8596261428
 20
7.996761548
 30
0.0
 10
9.8544224631
 20
7.975832162
 30
0.0
 10
9.8483944237
 20
7.9589785728
 30
0.0
 10
9.8425970999
 20
7.9459684285
 30
0.0
 10
9.8377762224
 20
7.9364735456
 30
0.0
 10
9.8324892423
 20
7.92725382
 30
0.0
 10
9.826748193
 20
7.9183302119
 30
0.0
 10
9.8205663199
 20
7.9097234389
 30
0.0
 10
9.8139578695
 20
7.9014532117
 30
0.0
 10
9.8069382913
 20
7.8935389104
 30
0.0
 10
9.801994331
 20
7.8885112555
 30
0.0
 10
9.7994602667
 20
7.8860635384
 30
0.0
  0
SPLINE
  5
34B
100
AcDbEntity
  8
0
100
AcDbSpline
 62
7
  6
CONTINUOUS
 70
0
 71
3
 72
23
 73
19
 74
0
 42
0.0000001
 43
0.0000001
 44
0.0000000001
 40
0.0
 40
0.0
 40
0.0
 40
0.0
 40
0.0638607871
 40
0.1275035019
 40
0.1909230262
 40
0.2541276227
 40
0.3171224329
 40
0.3799159103
 40
0.442518817
 40
0.5049436704
 40
0.567204993
 40
0.6293190716
 40
0.6913037885
 40
0.753178437
 40
0.8149635222
 40
0.8766805516
 40
0.9383517893
 40
1.0
 40
1.0
 40
1.0
 40
1.0
 10
11.0882157869
 20
10.9040883643
 30
0.0
 10
11.0821694383
 20
10.90450768
 30
0.0
 10
11.0700742962
 20
10.9050440274
 30
0.0
 10
11.051947259
 20
10.9049360575
 30
0.0
 10
11.0339105531
 20
10.9039142252
 30
0.0
 10
11.0160105219
 20
10.9019812987
 30
0.0
 10
10.9982917937
 20
10.8991419107
 30
0.0
 10
10.9807991094
 20
10.8954032475
 30
0.0
 10
10.9635764905
 20
10.8907746994
 30
0.0
 10
10.9466673251
 20
10.8852678111
 30
0.0
 10
10.9301142181
 20
10.8788964138
 30
0.0
 10
10.9139588536
 20
10.8716765624
 30
0.0
 10
10.8982419392
 20
10.8636264061
 30
0.0
 10
10.8830031012
 20
10.8547661353
 30
0.0
 10
10.8682807688
 20
10.8451181071
 30
0.0
 10
10.8541118999
 20
10.8347065137
 30
0.0
 10
10.8405326746
 20
10.8235580397
 30
0.0
 10
10.8318940992
 20
10.8156514838
 30
0.0
 10
10.8276858155
 20
10.8115866156
 30
0.0
  0
SPLINE
  5
34C
100
AcDbEntity
  8
0
100
AcDbSpline
 62
7
  6
CONTINUOUS
 70
0
 71
3
 72
31
 73
27
 74
0
 42
0.0000001
 43
0.0000001
 44
0.0000000001
 40
0.0
 40
0.0
 40
0.0
 40
0.0
 40
0.0306036682
 40
0.0613127484
 40
0.0921222156
 40
0.1230317024
 40
0.1540373442
 40
0.1851347988
 40
0.2163190656
 40
0.247584203
 40
0.3103129016
 40
0.3732774728
 40
0.4364088903
 40
0.4996322917
 40
0.5628696032
 40
0.626042268
 40
0.6890739844
 40
0.7518933681
 40
0.7832116573
 40
0.8144536871
 40
0.8456129934
 40
0.8766840121
 40
0.9076618002
 40
0.9385418586
 40
0.969323164
 40
1.0
 40
1.0
 40
1.0
 40
1.0
 10
13.0200675539
 20
10.4078917829
 30
0.0
 10
13.0200675539
 20
10.4138279649
 30
0.0
 10
13.0197750202
 20
10.4257227955
 30
0.0
 10
13.0184652874
 20
10.443550342
 30
0.0
 10
13.0162867104
 20
10.4613528265
 30
0.0
 10
13.0132448564
 20
10.4790864516
 30
0.0
 10
13.0093469043
 20
10.4967089791
 30
0.0
 10
13.0046024115
 20
10.5141777438
 30
0.0
 10
12.9990226193
 20
10.5314511632
 30
0.0
 10
12.9904795191
 20
10.5541871724
 30
0.0
 10
12.9777781235
 20
10.5819092447
 30
0.0
 10
12.9594797695
 20
10.6136956713
 30
0.0
 10
12.9382802042
 20
10.6437443646
 30
0.0
 10
12.9143837427
 20
10.6717649224
 30
0.0
 10
12.8880199828
 20
10.6974890663
 30
0.0
 10
12.8594413363
 20
10.7206697512
 30
0.0
 10
12.8289240531
 20
10.7410835806
 30
0.0
 10
12.8020855372
 20
10.7556443777
 30
0.0
 10
12.779943982
 20
10.7657221359
 30
0.0
 10
12.7630576355
 20
10.7724728959
 30
0.0
 10
12.7459180335
 20
10.77840593
 30
0.0
 10
12.728565979
 20
10.7835071681
 30
0.0
 10
12.7110434723
 20
10.7877641429
 30
0.0
 10
12.693392253
 20
10.7911667826
 30
0.0
 10
12.6756557248
 20
10.7937065118
 30
0.0
 10
12.6637814643
 20
10.7948225134
 30
0.0
 10
12.6578453476
 20
10.7952341845
 30
0.0
  0
SPLINE
  5
34D
100
AcDbEntity
  8
0
100
AcDbSpline
 62
7
  6
CONTINUOUS
 70
0
 71
3
 72
51
 73
47
 74
0
 42
0.0000001
 43
0.0000001
 44
0.0000000001
 40
0.0
 40
0.0
 40
0.0
 40
0.0
 40
0.0031350753
 40
0.0064193518
 40
0.0099109575
 40
0.0136545226
 40
0.017680613
 40
0.0220074136
 40
0.0266433256
 40
0.0315893171
 40
0.0368402611
 40
0.0423868261
 40
0.0482163157
 40
0.0543138569
 40
0.0672441115
 40
0.0810415903
 40
0.0955673429
 40
0.1106915228
 40
0.1262983495
 40
0.1422880061
 40
0.1585770701
 40
0.1750974135
 40
0.208615024
 40
0.2425337561
 40
0.276663905
 40
0.3108978816
 40
0.345178347
 40
0.3794769703
 40
0.4137801915
 40
0.4480800974
 40
0.4823652021
 40
0.5166147009
 40
0.5507921819
 40
0.584840745
 40
0.6186844921
 40
0.6522342275
 40
0.6854018229
 40
0.7181200182
 40
0.7503585007
 40
0.8134839849
 40
0.8445462488
 40
0.8754251165
 40
0.9062616027
 40
0.9372037278
 40
0.9684031735
 40
1.0
 40
1.0
 40
1.0
 40
1.0
 10
10.3850847732
 20
8.4719371111
 30
0.0
 10
10.3848140099
 20
8.4716755738
 30
0.0
 10
10.3843055046
 20
8.4710907067
 30
0.0
 10
10.3836747011
 20
8.4700765735
 30
0.0
 10
10.3831643397
 20
8.4689170153
 30
0.0
 10
10.3827752139
 20
8.4676189506
 30
0.0
 10
10.3825075764
 20
8.4661889284
 30
0.0
 10
10.3823618569
 20
8.4646342172
 30
0.0
 10
10.3823380625
 20
8.4629627556
 30
0.0
 10
10.3824361352
 20
8.4611831265
 30
0.0
 10
10.3826553074
 20
8.4593043922
 30
0.0
 10
10.3829947181
 20
8.457336038
 30
0.0
 10
10.3834526601
 20
8.4552876428
 30
0.0
 10
10.384234398
 20
8.4524061868
 30
0.0
 10
10.3855047906
 20
8.4486703819
 30
0.0
 10
10.3874306984
 20
8.4441026883
 30
0.0
 10
10.3897609403
 20
8.4394313578
 30
0.0
 10
10.3924661198
 20
8.4347150171
 30
0.0
 10
10.3955158214
 20
8.4300032771
 30
0.0
 10
10.3988796539
 20
8.4253371898
 30
0.0
 10
10.4025283225
 20
8.4207494337
 30
0.0
 10
10.4077610776
 20
8.4147424528
 30
0.0
 10
10.4148644471
 20
8.4075715306
 30
0.0
 10
10.4241001423
 20
8.3995901709
 30
0.0
 10
10.4339491085
 20
8.3922362951
 30
0.0
 10
10.4442966408
 20
8.3855248417
 30
0.0
 10
10.4550523937
 20
8.3794501434
 30
0.0
 10
10.466143887
 20
8.3739958494
 30
0.0
 10
10.4775118641
 20
8.3691401123
 30
0.0
 10
10.4891061485
 20
8.3648592998
 30
0.0
 10
10.500882031
 20
8.3611299123
 30
0.0
 10
10.5127969264
 20
8.3579297934
 30
0.0
 10
10.5248076986
 20
8.3552394698
 30
0.0
 10
10.5368687146
 20
8.3530429197
 30
0.0
 10
10.5489313112
 20
8.3513283017
 30
0.0
 10
10.5609455744
 20
8.3500886837
 30
0.0
 10
10.5728638248
 20
8.3493226985
 30
0.0
 10
10.5846463348
 20
8.3490345433
 30
0.0
 10
10.6000267215
 20
8.3492974781
 30
0.0
 10
10.6151822306
 20
8.350551884
 30
0.0
 10
10.6300201064
 20
8.352902815
 30
0.0
 10
10.6409231278
 20
8.3552170112
 30
0.0
 10
10.651670626
 20
8.3581159619
 30
0.0
 10
10.6622754889
 20
8.3616259263
 30
0.0
 10
10.6727458506
 20
8.3657731626
 30
0.0
 10
10.6795874754
 20
8.3689552416
 30
0.0
 10
10.6829799691
 20
8.370653998
 30
0.0
  0
SPLINE
  5
34E
100
AcDbEntity
  8
0
100
AcDbSpline
 62
7
  6
CONTINUOUS
 70
0
 71
3
 72
31
 73
27
 74
0
 42
0.0000001
 43
0.0000001
 44
0.0000000001
 40
0.0
 40
0.0
 40
0.0
 40
0.0
 40
0.030676836
 40
0.0614581414
 40
0.0923381998
 40
0.1233159879
 40
0.1543870066
 40
0.1855463129
 40
0.2167883427
 40
0.2481066319
 40
0.3109260156
 40
0.373957732
 40
0.4371303968
 40
0.5003677083
 40
0.5635911097
 40
0.6267225272
 40
0.6896870984
 40
0.752415797
 40
0.7836809344
 40
0.8148652012
 40
0.8459626558
 40
0.8769682976
 40
0.9078777844
 40
0.9386872516
 40
0.9693963318
 40
1.0
 40
1.0
 40
1.0
 40
1.0
 10
9.3421546524
 20
6.2047658155
 30
0.0
 10
9.3362185357
 20
6.2051774866
 30
0.0
 10
9.3243442752
 20
6.2062934882
 30
0.0
 10
9.306607747
 20
6.2088332174
 30
0.0
 10
9.2889565277
 20
6.2122358571
 30
0.0
 10
9.271434021
 20
6.2164928319
 30
0.0
 10
9.2540819665
 20
6.22159407
 30
0.0
 10
9.2369423645
 20
6.2275271041
 30
0.0
 10
9.220056018
 20
6.2342778641
 30
0.0
 10
9.1979144628
 20
6.2443556223
 30
0.0
 10
9.1710759469
 20
6.2589164194
 30
0.0
 10
9.1405586637
 20
6.2793302488
 30
0.0
 10
9.1119800172
 20
6.3025109337
 30
0.0
 10
9.0856162573
 20
6.3282350776
 30
0.0
 10
9.0617197958
 20
6.3562556354
 30
0.0
 10
9.0405202305
 20
6.3863043287
 30
0.0
 10
9.0222218765
 20
6.4180907553
 30
0.0
 10
9.0095204809
 20
6.4458128276
 30
0.0
 10
9.0009773807
 20
6.4685488368
 30
0.0
 10
8.9953975885
 20
6.4858222562
 30
0.0
 10
8.9906530957
 20
6.5032910209
 30
0.0
 10
8.9867551436
 20
6.5209135484
 30
0.0
 10
8.9837132896
 20
6.5386471735
 30
0.0
 10
8.9815347126
 20
6.556449658
 30
0.0
 10
8.9802249798
 20
6.5742772045
 30
0.0
 10
8.9799324461
 20
6.5861720351
 30
0.0
 10
8.9799324461
 20
6.5921082171
 30
0.0
  0
SPLINE
  5
34F
100
AcDbEntity
  8
0
100
AcDbSpline
 62
7
  6
CONTINUOUS
 70
0
 71
3
 72
21
 73
17
 74
0
 42
0.0000001
 43
0.0000001
 44
0.0000000001
 40
0.0
 40
0.0
 40
0.0
 40
0.0
 40
0.12731758
 40
0.2538000122
 40
0.3167619425
 40
0.3795355005
 40
0.4421315041
 40
0.5045621466
 40
0.5668413435
 40
0.6289845285
 40
0.6910084568
 40
0.7529310961
 40
0.8147714484
 40
0.8765493394
 40
0.9382852242
 40
1.0
 40
1.0
 40
1.0
 40
1.0
 10
8.9799324461
 20
8.8794207093
 30
0.0
 10
8.9799324461
 20
8.8909699424
 30
0.0
 10
8.9810349025
 20
8.9140075153
 30
0.0
 10
8.9851984858
 20
8.942486932
 30
0.0
 10
8.990174924
 20
8.964826546
 30
0.0
 10
8.994713171
 20
8.9813042442
 30
0.0
 10
9.0000520769
 20
8.9974891754
 30
0.0
 10
9.0061794691
 20
9.0133444379
 30
0.0
 10
9.0130811639
 20
9.0288333728
 30
0.0
 10
9.0207412881
 20
9.0439202883
 30
0.0
 10
9.0291422705
 20
9.0585703336
 30
0.0
 10
9.0382647093
 20
9.0727497495
 30
0.0
 10
9.0480875328
 20
9.0864258114
 30
0.0
 10
9.0585882647
 20
9.0995670391
 30
0.0
 10
9.069742279
 20
9.1121426941
 30
0.0
 10
9.0775980885
 20
9.1201316025
 30
0.0
 10
9.0816246811
 20
9.1240209716
 30
0.0
  0
SPLINE
  5
350
100
AcDbEntity
  8
0
100
AcDbSpline
 62
7
  6
CONTINUOUS
 70
0
 71
3
 72
36
 73
32
 74
0
 42
0.0000001
 43
0.0000001
 44
0.0000000001
 40
0.0
 40
0.0
 40
0.0
 40
0.0
 40
0.0055578162
 40
0.0111785519
 40
0.0169227929
 40
0.0228470355
 40
0.0354212926
 40
0.0421661849
 40
0.0492574986
 40
0.0645751423
 40
0.0815411183
 40
0.1002533171
 40
0.1207645483
 40
0.1430942648
 40
0.1672365547
 40
0.1931652558
 40
0.2208381065
 40
0.2501997028
 40
0.2811832043
 40
0.3137119696
 40
0.3477010678
 40
0.3830580585
 40
0.4196837418
 40
0.4574732145
 40
0.4963164277
 40
0.5766983366
 40
0.6598712021
 40
0.7448277752
 40
0.8305324215
 40
0.9159365645
 40
1.0
 40
1.0
 40
1.0
 40
1.0
 10
12.290494356
 20
10.226142416
 30
0.0
 10
12.2904943501
 20
10.2257948475
 30
0.0
 10
12.2904554051
 20
10.2250951686
 30
0.0
 10
12.2902807052
 20
10.2240494096
 30
0.0
 10
12.2899900261
 20
10.2230059152
 30
0.0
 10
12.2894377912
 20
10.2215917406
 30
0.0
 10
12.2886546804
 20
10.2202102025
 30
0.0
 10
12.28767995
 20
10.2188758524
 30
0.0
 10
12.2865015973
 20
10.2174826644
 30
0.0
 10
12.2847298598
 20
10.2157637525
 30
0.0
 10
12.2822199191
 20
10.2137893278
 30
0.0
 10
12.2792809609
 20
10.2118567269
 30
0.0
 10
12.2759219986
 20
10.2099713124
 30
0.0
 10
12.272153022
 20
10.2081385449
 30
0.0
 10
12.2679857062
 20
10.2063641993
 30
0.0
 10
12.2634331861
 20
10.2046539512
 30
0.0
 10
12.2585100041
 20
10.2030133784
 30
0.0
 10
12.2532320007
 20
10.2014479029
 30
0.0
 10
12.247616267
 20
10.1999626942
 30
0.0
 10
12.2416810596
 20
10.1985626505
 30
0.0
 10
12.2354457095
 20
10.1972524232
 30
0.0
 10
12.2289305621
 20
10.1960363592
 30
0.0
 10
12.2221569145
 20
10.1949184712
 30
0.0
 10
12.2151468984
 20
10.1939024345
 30
0.0
 10
12.205404356
 20
10.1926741392
 30
0.0
 10
12.1928061225
 20
10.1914251891
 30
0.0
 10
12.1772969701
 20
10.1903914266
 30
0.0
 10
12.1614308554
 20
10.1898201502
 30
0.0
 10
12.145415291
 20
10.1897190213
 30
0.0
 10
12.1294596967
 20
10.1900893802
 30
0.0
 10
12.1188747838
 20
10.1906540549
 30
0.0
 10
12.1136303154
 20
10.1910177601
 30
0.0
  0
SPLINE
  5
351
100
AcDbEntity
  8
0
100
AcDbSpline
 62
7
  6
CONTINUOUS
 70
0
 71
3
 72
36
 73
32
 74
0
 42
0.0000001
 43
0.0000001
 44
0.0000000001
 40
0.0
 40
0.0
 40
0.0
 40
0.0
 40
0.0055578162
 40
0.0111785519
 40
0.0169227929
 40
0.0228470355
 40
0.0354212926
 40
0.0421661849
 40
0.0492574986
 40
0.0645751423
 40
0.0815411183
 40
0.1002533171
 40
0.1207645483
 40
0.1430942648
 40
0.1672365547
 40
0.1931652558
 40
0.2208381065
 40
0.2501997028
 40
0.2811832043
 40
0.3137119696
 40
0.3477010678
 40
0.3830580585
 40
0.4196837418
 40
0.4574732145
 40
0.4963164277
 40
0.5766983366
 40
0.6598712021
 40
0.7448277752
 40
0.8305324215
 40
0.9159365645
 40
1.0
 40
1.0
 40
1.0
 40
1.0
 10
11.740504339
 20
9.6948928229
 30
0.0
 10
11.7405043332
 20
9.6945452545
 30
0.0
 10
11.7404653882
 20
9.6938455755
 30
0.0
 10
11.7402906883
 20
9.6927998165
 30
0.0
 10
11.7400000091
 20
9.6917563222
 30
0.0
 10
11.7394477743
 20
9.6903421475
 30
0.0
 10
11.7386646634
 20
9.6889606094
 30
0.0
 10
11.7376899331
 20
9.6876262594
 30
0.0
 10
11.7365115803
 20
9.6862330714
 30
0.0
 10
11.7347398429
 20
9.6845141595
 30
0.0
 10
11.7322299022
 20
9.6825397347
 30
0.0
 10
11.7292909439
 20
9.6806071339
 30
0.0
 10
11.7259319817
 20
9.6787217193
 30
0.0
 10
11.7221630051
 20
9.6768889519
 30
0.0
 10
11.7179956892
 20
9.6751146063
 30
0.0
 10
11.7134431691
 20
9.6734043581
 30
0.0
 10
11.7085199872
 20
9.6717637853
 30
0.0
 10
11.7032419838
 20
9.6701983099
 30
0.0
 10
11.6976262501
 20
9.6687131011
 30
0.0
 10
11.6916910426
 20
9.6673130574
 30
0.0
 10
11.6854556926
 20
9.6660028302
 30
0.0
 10
11.6789405452
 20
9.6647867662
 30
0.0
 10
11.6721668975
 20
9.6636688781
 30
0.0
 10
11.6651568814
 20
9.6626528415
 30
0.0
 10
11.6554143391
 20
9.6614245462
 30
0.0
 10
11.6428161056
 20
9.6601755961
 30
0.0
 10
11.6273069532
 20
9.6591418335
 30
0.0
 10
11.6114408384
 20
9.6585705572
 30
0.0
 10
11.5954252741
 20
9.6584694282
 30
0.0
 10
11.5794696797
 20
9.6588397872
 30
0.0
 10
11.5688847669
 20
9.6594044619
 30
0.0
 10
11.5636402985
 20
9.659768167
 30
0.0
  0
SPLINE
  5
352
100
AcDbEntity
  8
0
100
AcDbSpline
 62
7
  6
CONTINUOUS
 70
0
 71
3
 72
36
 73
32
 74
0
 42
0.0000001
 43
0.0000001
 44
0.0000000001
 40
0.0
 40
0.0
 40
0.0
 40
0.0
 40
0.0055578162
 40
0.0111785519
 40
0.0169227929
 40
0.0228470355
 40
0.0354212926
 40
0.0421661849
 40
0.0492574986
 40
0.0645751423
 40
0.0815411183
 40
0.1002533171
 40
0.1207645483
 40
0.1430942648
 40
0.1672365547
 40
0.1931652558
 40
0.2208381065
 40
0.2501997028
 40
0.2811832043
 40
0.3137119696
 40
0.3477010678
 40
0.3830580585
 40
0.4196837418
 40
0.4574732145
 40
0.4963164277
 40
0.5766983366
 40
0.6598712021
 40
0.7448277752
 40
0.8305324215
 40
0.9159365645
 40
1.0
 40
1.0
 40
1.0
 40
1.0
 10
10.540236764
 20
10.3475231922
 30
0.0
 10
10.5402367581
 20
10.3471756238
 30
0.0
 10
10.5401978131
 20
10.3464759448
 30
0.0
 10
10.5400231132
 20
10.3454301858
 30
0.0
 10
10.5397324341
 20
10.3443866915
 30
0.0
 10
10.5391801992
 20
10.3429725168
 30
0.0
 10
10.5383970884
 20
10.3415909787
 30
0.0
 10
10.537422358
 20
10.3402566287
 30
0.0
 10
10.5362440053
 20
10.3388634407
 30
0.0
 10
10.5344722678
 20
10.3371445288
 30
0.0
 10
10.5319623271
 20
10.335170104
 30
0.0
 10
10.5290233688
 20
10.3332375032
 30
0.0
 10
10.5256644066
 20
10.3313520886
 30
0.0
 10
10.52189543
 20
10.3295193212
 30
0.0
 10
10.5177281142
 20
10.3277449756
 30
0.0
 10
10.513175594
 20
10.3260347274
 30
0.0
 10
10.5082524121
 20
10.3243941546
 30
0.0
 10
10.5029744087
 20
10.3228286792
 30
0.0
 10
10.497358675
 20
10.3213434705
 30
0.0
 10
10.4914234675
 20
10.3199434267
 30
0.0
 10
10.4851881175
 20
10.3186331995
 30
0.0
 10
10.4786729701
 20
10.3174171355
 30
0.0
 10
10.4718993225
 20
10.3162992474
 30
0.0
 10
10.4648893064
 20
10.3152832108
 30
0.0
 10
10.455146764
 20
10.3140549155
 30
0.0
 10
10.4425485305
 20
10.3128059654
 30
0.0
 10
10.4270393781
 20
10.3117722028
 30
0.0
 10
10.4111732633
 20
10.3112009265
 30
0.0
 10
10.395157699
 20
10.3110997975
 30
0.0
 10
10.3792021047
 20
10.3114701565
 30
0.0
 10
10.3686171918
 20
10.3120348312
 30
0.0
 10
10.3633727234
 20
10.3123985363
 30
0.0
  0
SPLINE
  5
353
100
AcDbEntity
  8
0
100
AcDbSpline
 62
7
  6
CONTINUOUS
 70
0
 71
3
 72
36
 73
32
 74
0
 42
0.0000001
 43
0.0000001
 44
0.0000000001
 40
0.0
 40
0.0
 40
0.0
 40
0.0
 40
0.0055578162
 40
0.0111785519
 40
0.0169227929
 40
0.0228470355
 40
0.0354212926
 40
0.0421661849
 40
0.0492574986
 40
0.0645751423
 40
0.0815411183
 40
0.1002533171
 40
0.1207645483
 40
0.1430942648
 40
0.1672365547
 40
0.1931652558
 40
0.2208381065
 40
0.2501997028
 40
0.2811832043
 40
0.3137119696
 40
0.3477010678
 40
0.3830580585
 40
0.4196837418
 40
0.4574732145
 40
0.4963164277
 40
0.5766983366
 40
0.6598712021
 40
0.7448277752
 40
0.8305324215
 40
0.9159365645
 40
1.0
 40
1.0
 40
1.0
 40
1.0
 10
9.990246747
 20
9.8162735992
 30
0.0
 10
9.9902467412
 20
9.8159260307
 30
0.0
 10
9.9902077961
 20
9.8152263518
 30
0.0
 10
9.9900330962
 20
9.8141805928
 30
0.0
 10
9.9897424171
 20
9.8131370985
 30
0.0
 10
9.9891901823
 20
9.8117229238
 30
0.0
 10
9.9884070714
 20
9.8103413857
 30
0.0
 10
9.9874323411
 20
9.8090070356
 30
0.0
 10
9.9862539883
 20
9.8076138476
 30
0.0
 10
9.9844822509
 20
9.8058949357
 30
0.0
 10
9.9819723102
 20
9.803920511
 30
0.0
 10
9.9790333519
 20
9.8019879101
 30
0.0
 10
9.9756743897
 20
9.8001024956
 30
0.0
 10
9.9719054131
 20
9.7982697281
 30
0.0
 10
9.9677380972
 20
9.7964953825
 30
0.0
 10
9.9631855771
 20
9.7947851344
 30
0.0
 10
9.9582623951
 20
9.7931445616
 30
0.0
 10
9.9529843917
 20
9.7915790861
 30
0.0
 10
9.947368658
 20
9.7900938774
 30
0.0
 10
9.9414334506
 20
9.7886938337
 30
0.0
 10
9.9351981006
 20
9.7873836064
 30
0.0
 10
9.9286829532
 20
9.7861675425
 30
0.0
 10
9.9219093055
 20
9.7850496544
 30
0.0
 10
9.9148992894
 20
9.7840336178
 30
0.0
 10
9.9051567471
 20
9.7828053225
 30
0.0
 10
9.8925585136
 20
9.7815563723
 30
0.0
 10
9.8770493611
 20
9.7805226098
 30
0.0
 10
9.8611832464
 20
9.7799513335
 30
0.0
 10
9.8451676821
 20
9.7798502045
 30
0.0
 10
9.8292120877
 20
9.7802205635
 30
0.0
 10
9.8186271748
 20
9.7807852382
 30
0.0
 10
9.8133827065
 20
9.7811489433
 30
0.0
  0
SPLINE
  5
354
100
AcDbEntity
  8
0
100
AcDbSpline
 62
7
  6
CONTINUOUS
 70
0
 71
3
 72
34
 73
30
 74
0
 42
0.0000001
 43
0.0000001
 44
0.0000000001
 40
0.0
 40
0.0
 40
0.0
 40
0.0
 40
0.0125932126
 40
0.0254508304
 40
0.0388216963
 40
0.0529277212
 40
0.0679584986
 40
0.0840711442
 40
0.1013933863
 40
0.1200277378
 40
0.1400560944
 40
0.1615430825
 40
0.1845396213
 40
0.2090845205
 40
0.2352066211
 40
0.2629255601
 40
0.292252109
 40
0.3231891625
 40
0.3557305048
 40
0.3898614077
 40
0.4255579399
 40
0.4627855205
 40
0.5014992693
 40
0.5416426897
 40
0.625924603
 40
0.7149247776
 40
0.8077159926
 40
0.9031695674
 40
1.0
 40
1.0
 40
1.0
 40
1.0
 10
11.2326930431
 20
10.12698647
 30
0.0
 10
11.2326930429
 20
10.1261227776
 30
0.0
 10
11.2325595431
 20
10.1243744911
 30
0.0
 10
11.231961897
 20
10.1217707345
 30
0.0
 10
11.2309685778
 20
10.1191798545
 30
0.0
 10
11.2295822851
 20
10.1166071568
 30
0.0
 10
11.227805069
 20
10.1140558123
 30
0.0
 10
11.2256381437
 20
10.1115288514
 30
0.0
 10
11.2230820388
 20
10.1090293241
 30
0.0
 10
11.2201369324
 20
10.10656062
 30
0.0
 10
11.2168029178
 20
10.1041265392
 30
0.0
 10
11.2130802182
 20
10.1017312444
 30
0.0
 10
11.2089693545
 20
10.0993792682
 30
0.0
 10
11.20447127
 20
10.0970754401
 30
0.0
 10
11.1995874702
 20
10.0948248828
 30
0.0
 10
11.1943201489
 20
10.0926330081
 30
0.0
 10
11.1886723343
 20
10.09050545
 30
0.0
 10
11.1826480581
 20
10.0884481464
 30
0.0
 10
11.17625253
 20
10.086467227
 30
0.0
 10
11.1694923358
 20
10.0845690601
 30
0.0
 10
11.1623756448
 20
10.0827602341
 30
0.0
 10
11.1549124448
 20
10.0810474613
 30
0.0
 10
11.1471147203
 20
10.0794375592
 30
0.0
 10
11.1361115677
 20
10.0774044867
 30
0.0
 10
11.1216398559
 20
10.0751810361
 30
0.0
 10
11.1035101582
 20
10.0730713986
 30
0.0
 10
11.0845547969
 20
10.0715260384
 30
0.0
 10
11.0650226923
 20
10.0705825274
 30
0.0
 10
11.0518340897
 20
10.0703714726
 30
0.0
 10
11.0451930747
 20
10.0703714722
 30
0.0
  0
SPLINE
  5
355
100
AcDbEntity
  8
0
100
AcDbSpline
 62
7
  6
CONTINUOUS
 70
0
 71
3
 72
42
 73
38
 74
0
 42
0.0000001
 43
0.0000001
 44
0.0000000001
 40
0.0
 40
0.0
 40
0.0
 40
0.0
 40
0.0056152344
 40
0.0112614969
 40
0.0169999433
 40
0.0228884157
 40
0.0289799893
 40
0.035321952
 40
0.041955387
 40
0.0489154625
 40
0.0562315256
 40
0.0639278769
 40
0.072024368
 40
0.0805367331
 40
0.0894775195
 40
0.09885624
 40
0.10867985
 40
0.1189533294
 40
0.1408575501
 40
0.1645768205
 40
0.190095364
 40
0.2173806589
 40
0.2463863588
 40
0.2770542915
 40
0.309315835
 40
0.3430929543
 40
0.3782991661
 40
0.4148402344
 40
0.4526147285
 40
0.4915144772
 40
0.5314251775
 40
0.5722269336
 40
0.6559963489
 40
0.7417746917
 40
0.8284583189
 40
0.9149128855
 40
1.0
 40
1.0
 40
1.0
 40
1.0
 10
10.5856067227
 20
10.0666439497
 30
0.0
 10
10.5856369996
 20
10.0660922867
 30
0.0
 10
10.5856372685
 20
10.0649816289
 30
0.0
 10
10.5854546072
 20
10.063315834
 30
0.0
 10
10.5850893893
 20
10.0616527669
 30
0.0
 10
10.584542578
 20
10.0599943772
 30
0.0
 10
10.5838151484
 20
10.0583420951
 30
0.0
 10
10.5829082391
 20
10.0566972332
 30
0.0
 10
10.5818230589
 20
10.0550608924
 30
0.0
 10
10.5805606868
 20
10.0534342122
 30
0.0
 10
10.5791223678
 20
10.0518182054
 30
0.0
 10
10.5775093106
 20
10.0502139495
 30
0.0
 10
10.5757227807
 20
10.0486225791
 30
0.0
 10
10.5737642117
 20
10.0470451525
 30
0.0
 10
10.5716350519
 20
10.0454828659
 30
0.0
 10
10.569336919
 20
10.0439368739
 30
0.0
 10
10.5668715467
 20
10.0424082861
 30
0.0
 10
10.5632867006
 20
10.0403509486
 30
0.0
 10
10.5583890347
 20
10.0378413627
 30
0.0
 10
10.5519982576
 20
10.0349793216
 30
0.0
 10
10.5449925187
 20
10.0322146652
 30
0.0
 10
10.5373928091
 20
10.0295564228
 30
0.0
 10
10.5292218062
 20
10.0270134081
 30
0.0
 10
10.5205042837
 20
10.0245942111
 30
0.0
 10
10.5112669386
 20
10.022307118
 30
0.0
 10
10.5015383875
 20
10.0201600611
 30
0.0
 10
10.4913490924
 20
10.0181606056
 30
0.0
 10
10.4807313059
 20
10.0163159066
 30
0.0
 10
10.4697190175
 20
10.0146326748
 30
0.0
 10
10.4583479011
 20
10.0131171316
 30
0.0
 10
10.4466551752
 20
10.0117749355
 30
0.0
 10
10.4305466831
 20
10.0102098084
 30
0.0
 10
10.4098989033
 20
10.0087303563
 30
0.0
 10
10.384703997
 20
10.0077242811
 30
0.0
 10
10.3592257221
 20
10.0074903906
 30
0.0
 10
10.3338205033
 20
10.0080346188
 30
0.0
 10
10.3169621654
 20
10.0089230146
 30
0.0
 10
10.3086103472
 20
10.0095022152
 30
0.0
  0
SPLINE
  5
356
100
AcDbEntity
  8
0
100
AcDbSpline
 62
7
  6
CONTINUOUS
 70
0
 71
3
 72
46
 73
42
 74
0
 42
0.0000001
 43
0.0000001
 44
0.0000000001
 40
0.0
 40
0.0
 40
0.0
 40
0.0
 40
0.0056647185
 40
0.011511142
 40
0.0175872345
 40
0.0239339164
 40
0.0305854161
 40
0.0375698576
 40
0.0449099735
 40
0.0526239221
 40
0.0607259656
 40
0.0692271137
 40
0.0781356879
 40
0.0874577543
 40
0.0971975063
 40
0.1073575775
 40
0.1289409252
 40
0.1522082225
 40
0.1771440806
 40
0.203722789
 40
0.2319100876
 40
0.2616640572
 40
0.2929355596
 40
0.3256682108
 40
0.359797889
 40
0.3952519436
 40
0.431948398
 40
0.469794897
 40
0.5086875126
 40
0.5485094558
 40
0.589129908
 40
0.6304031184
 40
0.6721677306
 40
0.7142465754
 40
0.7564471012
 40
0.7985626361
 40
0.8403745335
 40
0.8816554671
 40
0.9221733402
 40
0.9616968374
 40
1.0
 40
1.0
 40
1.0
 40
1.0
 10
11.0276360928
 20
9.9258543073
 30
0.0
 10
11.0275064074
 20
9.9252886551
 30
0.0
 10
11.0271803783
 20
9.9241527226
 30
0.0
 10
11.0265111519
 20
9.9224770386
 30
0.0
 10
11.0256580135
 20
9.9208083852
 30
0.0
 10
11.0246234976
 20
9.9191481373
 30
0.0
 10
11.0234099644
 20
9.9174972207
 30
0.0
 10
11.0220197029
 20
9.9158566091
 30
0.0
 10
11.0204548848
 20
9.9142272773
 30
0.0
 10
11.0187176653
 20
9.9126102019
 30
0.0
 10
11.0168101582
 20
9.9110063885
 30
0.0
 10
11.014734462
 20
9.9094168727
 30
0.0
 10
11.0124926898
 20
9.9078426823
 30
0.0
 10
11.0100869458
 20
9.9062848846
 30
0.0
 10
11.0075193493
 20
9.9047445065
 30
0.0
 10
11.0038076792
 20
9.9026734794
 30
0.0
 10
10.9987675982
 20
9.9001452797
 30
0.0
 10
10.9922255607
 20
9.8972559335
 30
0.0
 10
10.9850901132
 20
9.8944613651
 30
0.0
 10
10.9773794159
 20
9.8917702406
 30
0.0
 10
10.9691121264
 20
9.8891913308
 30
0.0
 10
10.9603079969
 20
9.8867335565
 30
0.0
 10
10.9509879791
 20
9.8844059976
 30
0.0
 10
10.941174534
 20
9.8822179115
 30
0.0
 10
10.9308919589
 20
9.8801787416
 30
0.0
 10
10.9201667619
 20
9.8782981046
 30
0.0
 10
10.9090280561
 20
9.8765857726
 30
0.0
 10
10.8975079764
 20
9.8750516248
 30
0.0
 10
10.8856421285
 20
9.8737055774
 30
0.0
 10
10.8734700396
 20
9.8725574768
 30
0.0
 10
10.8610355689
 20
9.8716169543
 30
0.0
 10
10.848387247
 20
9.8708932513
 30
0.0
 10
10.8355785095
 20
9.870394998
 30
0.0
 10
10.8226677879
 20
9.870129958
 30
0.0
 10
10.8097183939
 20
9.8701047389
 30
0.0
 10
10.7967981565
 20
9.8703244883
 30
0.0
 10
10.7839787542
 20
9.8707925811
 30
0.0
 10
10.7713347871
 20
9.8715103433
 30
0.0
 10
10.7589424332
 20
9.8724768003
 30
0.0
 10
10.7468782049
 20
9.8736885235
 30
0.0
 10
10.7389652344
 20
9.8746731397
 30
0.0
 10
10.7350778637
 20
9.8752081054
 30
0.0
  0
SPLINE
  5
357
100
AcDbEntity
  8
0
100
AcDbSpline
 62
7
  6
CONTINUOUS
 70
0
 71
3
 72
59
 73
55
 74
0
 42
0.0000001
 43
0.0000001
 44
0.0000000001
 40
0.0
 40
0.0
 40
0.0
 40
0.0
 40
0.0029368028
 40
0.0057961818
 40
0.0085973555
 40
0.0113605869
 40
0.0141066642
 40
0.0168564641
 40
0.0196304303
 40
0.0224480508
 40
0.0282809093
 40
0.0344855386
 40
0.0411589553
 40
0.0483717556
 40
0.0561725932
 40
0.0645929423
 40
0.0736511705
 40
0.0833558979
 40
0.0937083692
 40
0.1047043715
 40
0.1163355269
 40
0.1285903434
 40
0.1414549222
 40
0.154913556
 40
0.1689491028
 40
0.1835433531
 40
0.1986772079
 40
0.2143309136
 40
0.2471149928
 40
0.2817290396
 40
0.3179991667
 40
0.3557458664
 40
0.3947834981
 40
0.4349191663
 40
0.475951172
 40
0.5176671876
 40
0.5598422999
 40
0.6022370853
 40
0.644595922
 40
0.6866458052
 40
0.7280959989
 40
0.7686389196
 40
0.8079527141
 40
0.8457060834
 40
0.8638938847
 40
0.8815670166
 40
0.8986851571
 40
0.9152093664
 40
0.9311024684
 40
0.9463297181
 40
0.9608591134
 40
0.9746622757
 40
0.9877162861
 40
1.0
 40
1.0
 40
1.0
 40
1.0
 10
11.3368030101
 20
9.7721464458
 30
0.0
 10
11.3369755457
 20
9.7717565421
 30
0.0
 10
11.3372864981
 20
9.770973442
 30
0.0
 10
11.3376498446
 20
9.7697778097
 30
0.0
 10
11.3379032594
 20
9.7685797376
 30
0.0
 10
11.3380470998
 20
9.7673801726
 30
0.0
 10
11.3380817875
 20
9.7661799508
 30
0.0
 10
11.3380078842
 20
9.7649799838
 30
0.0
 10
11.3378261818
 20
9.7637810611
 30
0.0
 10
11.3374371335
 20
9.7621668957
 30
0.0
 10
11.336670011
 20
9.7601407819
 30
0.0
 10
11.3353434682
 20
9.7577610423
 30
0.0
 10
11.3336115655
 20
9.7554058951
 30
0.0
 10
11.3314844264
 20
9.753077826
 30
0.0
 10
11.3289714023
 20
9.7507787635
 30
0.0
 10
11.3260817139
 20
9.748511342
 30
0.0
 10
11.3228248633
 20
9.7462783234
 30
0.0
 10
11.3192105684
 20
9.7440827878
 30
0.0
 10
11.315248932
 20
9.7419277248
 30
0.0
 10
11.3109502619
 20
9.7398161858
 30
0.0
 10
11.3063251001
 20
9.7377510754
 30
0.0
 10
11.3013841248
 20
9.7357352157
 30
0.0
 10
11.2961381107
 20
9.7337713147
 30
0.0
 10
11.2905979077
 20
9.7318619343
 30
0.0
 10
11.2847743791
 20
9.7300095615
 30
0.0
 10
11.2786784248
 20
9.7282165327
 30
0.0
 10
11.2723209124
 20
9.7264850988
 30
0.0
 10
11.2633715306
 20
9.7242267135
 30
0.0
 10
11.2516040814
 20
9.721586165
 30
0.0
 10
11.2368225691
 20
9.7187411249
 30
0.0
 10
11.2212573988
 20
9.7161881182
 30
0.0
 10
11.2049967313
 20
9.7139414296
 30
0.0
 10
11.1881301967
 20
9.7120147423
 30
0.0
 10
11.1707500116
 20
9.7104211271
 30
0.0
 10
11.1529518248
 20
9.7091730997
 30
0.0
 10
11.1348357453
 20
9.708282564
 30
0.0
 10
11.116507365
 20
9.7077606825
 30
0.0
 10
11.0980787525
 20
9.7076176505
 30
0.0
 10
11.0796693296
 20
9.7078623684
 30
0.0
 10
11.0614065137
 20
9.7085020019
 30
0.0
 10
11.0434260242
 20
9.7095414416
 30
0.0
 10
11.025871571
 20
9.710982624
 30
0.0
 10
11.0088941736
 20
9.7128239088
 30
0.0
 10
10.9951915124
 20
9.714709171
 30
0.0
 10
10.9846421321
 20
9.7164246357
 30
0.0
 10
10.9770722408
 20
9.7177900839
 30
0.0
 10
10.9697657286
 20
9.7192480961
 30
0.0
 10
10.9627420795
 20
9.7207960242
 30
0.0
 10
10.9560202942
 20
9.7224308972
 30
0.0
 10
10.9496187044
 20
9.7241493304
 30
0.0
 10
10.9435547959
 20
9.725947498
 30
0.0
 10
10.9378448692
 20
9.7278213973
 30
0.0
 10
10.9325044924
 20
9.7297665256
 30
0.0
 10
10.9290948305
 20
9.7311501368
 30
0.0
 10
10.9274569379
 20
9.7318556536
 30
0.0
  0
SPLINE
  5
358
100
AcDbEntity
  8
0
100
AcDbSpline
 62
7
  6
CONTINUOUS
 70
0
 71
3
 72
11
 73
7
 74
0
 42
0.0000001
 43
0.0000001
 44
0.0000000001
 40
0.0
 40
0.0
 40
0.0
 40
0.0
 40
0.2226546938
 40
0.4603623163
 40
0.7182390721
 40
1.0
 40
1.0
 40
1.0
 40
1.0
 10
10.2552865716
 20
9.7080810587
 30
0.0
 10
10.2552231643
 20
9.7078107793
 30
0.0
 10
10.2550385261
 20
9.7072635227
 30
0.0
 10
10.2546136473
 20
9.7064713818
 30
0.0
 10
10.2540369375
 20
9.7056889842
 30
0.0
 10
10.2535747847
 20
9.7051978515
 30
0.0
 10
10.2533221004
 20
9.7049537772
 30
0.0
  0
SPLINE
  5
359
100
AcDbEntity
  8
0
100
AcDbSpline
 62
7
  6
CONTINUOUS
 70
0
 71
3
 72
24
 73
20
 74
0
 42
0.0000001
 43
0.0000001
 44
0.0000000001
 40
0.0
 40
0.0
 40
0.0
 40
0.0
 40
0.0149869103
 40
0.0304291967
 40
0.0631970758
 40
0.0992895626
 40
0.1394117212
 40
0.1840585523
 40
0.2335567344
 40
0.2881052739
 40
0.3478017651
 40
0.4126606641
 40
0.4826291925
 40
0.5575945509
 40
0.6373909374
 40
0.7218042708
 40
0.8105767821
 40
0.9034262311
 40
1.0
 40
1.0
 40
1.0
 40
1.0
 10
10.9659053186
 20
10.362486321
 30
0.0
 10
10.9658535615
 20
10.3622351106
 30
0.0
 10
10.965720773
 20
10.3617303686
 30
0.0
 10
10.9653398096
 20
10.3607164807
 30
0.0
 10
10.9646360846
 20
10.3594471913
 30
0.0
 10
10.9634760408
 20
10.3579786705
 30
0.0
 10
10.9619869905
 20
10.3565358242
 30
0.0
 10
10.9601710563
 20
10.3551219607
 30
0.0
 10
10.9580306954
 20
10.3537404967
 30
0.0
 10
10.9555696071
 20
10.3523960279
 30
0.0
 10
10.9527931247
 20
10.3510935357
 30
0.0
 10
10.9497083862
 20
10.3498382152
 30
0.0
 10
10.9463243392
 20
10.3486354007
 30
0.0
 10
10.9426517905
 20
10.3474903559
 30
0.0
 10
10.9387034228
 20
10.3464081768
 30
0.0
 10
10.9344937412
 20
10.3453937817
 30
0.0
 10
10.9300387613
 20
10.3444517502
 30
0.0
 10
10.9253565336
 20
10.3435864353
 30
0.0
 10
10.9221553706
 20
10.3430726838
 30
0.0
 10
10.9205207514
 20
10.3428284239
 30
0.0
  0
SPLINE
  5
35A
100
AcDbEntity
  8
0
100
AcDbSpline
 62
7
  6
CONTINUOUS
 70
0
 71
3
 72
23
 73
19
 74
0
 42
0.0000001
 43
0.0000001
 44
0.0000000001
 40
0.0
 40
0.0
 40
0.0
 40
0.0
 40
0.0616482107
 40
0.1233194484
 40
0.1850364778
 40
0.246821563
 40
0.3086962115
 40
0.3706809284
 40
0.432795007
 40
0.4950563296
 40
0.557481183
 40
0.6200840897
 40
0.6828775671
 40
0.7458723773
 40
0.8090769738
 40
0.8724964981
 40
0.9361392129
 40
1.0
 40
1.0
 40
1.0
 40
1.0
 10
11.1723141845
 20
6.1884133844
 30
0.0
 10
11.1681059008
 20
6.1843485162
 30
0.0
 10
11.1594673254
 20
6.1764419603
 30
0.0
 10
11.1458881001
 20
6.1652934863
 30
0.0
 10
11.1317192312
 20
6.1548818929
 30
0.0
 10
11.1169968988
 20
6.1452338647
 30
0.0
 10
11.1017580608
 20
6.1363735939
 30
0.0
 10
11.0860411464
 20
6.1283234376
 30
0.0
 10
11.0698857819
 20
6.1211035862
 30
0.0
 10
11.0533326749
 20
6.1147321889
 30
0.0
 10
11.0364235095
 20
6.1092253006
 30
0.0
 10
11.0192008906
 20
6.1045967525
 30
0.0
 10
11.0017082063
 20
6.1008580893
 30
0.0
 10
10.9839894781
 20
6.0980187013
 30
0.0
 10
10.9660894469
 20
6.0960857748
 30
0.0
 10
10.948052741
 20
6.0950639425
 30
0.0
 10
10.9299257038
 20
6.0949559726
 30
0.0
 10
10.9178305617
 20
6.09549232
 30
0.0
 10
10.9117842131
 20
6.0959116357
 30
0.0
  0
SPLINE
  5
35B
100
AcDbEntity
  8
0
100
AcDbSpline
 62
7
  6
CONTINUOUS
 70
0
 71
3
 72
42
 73
38
 74
0
 42
0.0000001
 43
0.0000001
 44
0.0000000001
 40
0.0
 40
0.0
 40
0.0
 40
0.0
 40
0.0299419644
 40
0.0449235317
 40
0.0599142035
 40
0.0899287023
 40
0.1200139727
 40
0.1350926544
 40
0.1501966973
 40
0.1804840373
 40
0.210897868
 40
0.2414513286
 40
0.2721543342
 40
0.3030133956
 40
0.3340315238
 40
0.3652082165
 40
0.3965395222
 40
0.4280181758
 40
0.459633799
 40
0.4913731572
 40
0.5232204671
 40
0.5551577446
 40
0.5871651885
 40
0.6192215901
 40
0.6513047644
 40
0.683391994
 40
0.715460481
 40
0.7474877999
 40
0.7794523452
 40
0.8113337678
 40
0.8431133918
 40
0.8747746145
 40
0.906303246
 40
0.9376878974
 40
0.9533257627
 40
0.9689252947
 40
1.0
 40
1.0
 40
1.0
 40
1.0
 10
9.4715400219
 20
8.2255518002
 30
0.0
 10
9.4754551833
 20
8.2293335543
 30
0.0
 10
9.4815586965
 20
8.2347770404
 30
0.0
 10
9.4901064978
 20
8.2415312776
 30
0.0
 10
9.4989265789
 20
8.2479493233
 30
0.0
 10
9.5104352711
 20
8.2553194146
 30
0.0
 10
9.5225035737
 20
8.2617660489
 30
0.0
 10
9.5324567512
 20
8.2663522958
 30
0.0
 10
9.5426155969
 20
8.2705598102
 30
0.0
 10
9.5556488871
 20
8.2750841958
 30
0.0
 10
9.5717104705
 20
8.2793007815
 30
0.0
 10
9.5881225202
 20
8.2822879383
 30
0.0
 10
9.6047940905
 20
8.2840291682
 30
0.0
 10
9.6216335986
 20
8.2845151835
 30
0.0
 10
9.6385483887
 20
8.2837435093
 30
0.0
 10
9.655445493
 20
8.2817186033
 30
0.0
 10
9.6722320689
 20
8.2784517905
 30
0.0
 10
9.6888159221
 20
8.2739612012
 30
0.0
 10
9.7051060009
 20
8.2682716636
 30
0.0
 10
9.7210128905
 20
8.2614145639
 30
0.0
 10
9.7364492965
 20
8.2534276715
 30
0.0
 10
9.7513305175
 20
8.2443549307
 30
0.0
 10
9.7655749032
 20
8.2342462197
 30
0.0
 10
9.7791042973
 20
8.2231570782
 30
0.0
 10
9.7918444608
 20
8.2111484044
 30
0.0
 10
9.8037254752
 20
8.1982861239
 30
0.0
 10
9.8146821217
 20
8.1846408309
 30
0.0
 10
9.8246542361
 20
8.1702874044
 30
0.0
 10
9.8335870359
 20
8.1553046056
 30
0.0
 10
9.8414314196
 20
8.1397746339
 30
0.0
 10
9.8481442303
 20
8.1237827454
 30
0.0
 10
9.8536885131
 20
8.1074165534
 30
0.0
 10
9.8580336307
 20
8.0907664357
 30
0.0
 10
9.860638632
 20
8.0767119351
 30
0.0
 10
9.8620999556
 20
8.0654193032
 30
0.0
 10
9.8631428671
 20
8.0541374801
 30
0.0
 10
9.8634586528
 20
8.0456479805
 30
0.0
 10
9.8634586528
 20
8.039998693
 30
0.0
  0
SPLINE
  5
35C
100
AcDbEntity
  8
0
100
AcDbSpline
 62
7
  6
CONTINUOUS
 70
0
 71
3
 72
42
 73
38
 74
0
 42
0.0000001
 43
0.0000001
 44
0.0000000001
 40
0.0
 40
0.0
 40
0.0
 40
0.0
 40
0.0299419644
 40
0.0449235317
 40
0.0599142035
 40
0.0899287023
 40
0.1200139727
 40
0.1350926544
 40
0.1501966973
 40
0.1804840373
 40
0.210897868
 40
0.2414513286
 40
0.2721543342
 40
0.3030133956
 40
0.3340315238
 40
0.3652082165
 40
0.3965395222
 40
0.4280181758
 40
0.459633799
 40
0.4913731572
 40
0.5232204671
 40
0.5551577446
 40
0.5871651885
 40
0.6192215901
 40
0.6513047644
 40
0.683391994
 40
0.715460481
 40
0.7474877999
 40
0.7794523452
 40
0.8113337678
 40
0.8431133918
 40
0.8747746145
 40
0.906303246
 40
0.9376878974
 40
0.9533257627
 40
0.9689252947
 40
1.0
 40
1.0
 40
1.0
 40
1.0
 10
10.4674096253
 20
6.6477117436
 30
0.0
 10
10.4713247867
 20
6.6514934977
 30
0.0
 10
10.4774282999
 20
6.6569369838
 30
0.0
 10
10.4859761012
 20
6.663691221
 30
0.0
 10
10.4947961823
 20
6.6701092667
 30
0.0
 10
10.5063048746
 20
6.677479358
 30
0.0
 10
10.5183731771
 20
6.6839259923
 30
0.0
 10
10.5283263546
 20
6.6885122392
 30
0.0
 10
10.5384852003
 20
6.6927197536
 30
0.0
 10
10.5515184905
 20
6.6972441392
 30
0.0
 10
10.5675800739
 20
6.7014607248
 30
0.0
 10
10.5839921236
 20
6.7044478816
 30
0.0
 10
10.6006636939
 20
6.7061891116
 30
0.0
 10
10.617503202
 20
6.7066751269
 30
0.0
 10
10.6344179921
 20
6.7059034527
 30
0.0
 10
10.6513150964
 20
6.7038785467
 30
0.0
 10
10.6681016723
 20
6.7006117339
 30
0.0
 10
10.6846855255
 20
6.6961211445
 30
0.0
 10
10.7009756043
 20
6.6904316069
 30
0.0
 10
10.7168824939
 20
6.6835745072
 30
0.0
 10
10.7323188999
 20
6.6755876148
 30
0.0
 10
10.7472001209
 20
6.666514874
 30
0.0
 10
10.7614445066
 20
6.6564061631
 30
0.0
 10
10.7749739007
 20
6.6453170216
 30
0.0
 10
10.7877140643
 20
6.6333083478
 30
0.0
 10
10.7995950786
 20
6.6204460672
 30
0.0
 10
10.8105517251
 20
6.6068007743
 30
0.0
 10
10.8205238395
 20
6.5924473478
 30
0.0
 10
10.8294566393
 20
6.577464549
 30
0.0
 10
10.837301023
 20
6.5619345773
 30
0.0
 10
10.8440138337
 20
6.5459426888
 30
0.0
 10
10.8495581165
 20
6.5295764967
 30
0.0
 10
10.8539032341
 20
6.5129263791
 30
0.0
 10
10.8565082354
 20
6.4988718785
 30
0.0
 10
10.8579695591
 20
6.4875792466
 30
0.0
 10
10.8590124705
 20
6.4762974234
 30
0.0
 10
10.8593282562
 20
6.4678079238
 30
0.0
 10
10.8593282562
 20
6.4621586364
 30
0.0
  0
SPLINE
  5
35D
100
AcDbEntity
  8
0
100
AcDbSpline
 62
7
  6
CONTINUOUS
 70
0
 71
3
 72
15
 73
11
 74
0
 42
0.0000001
 43
0.0000001
 44
0.0000000001
 40
0.0
 40
0.0
 40
0.0
 40
0.0
 40
0.1239711796
 40
0.2480480952
 40
0.3723337845
 40
0.4969259811
 40
0.6219146634
 40
0.7473799319
 40
0.8733898774
 40
1.0
 40
1.0
 40
1.0
 40
1.0
 10
10.6146593524
 20
8.2408808391
 30
0.0
 10
10.6195333095
 20
8.2455887494
 30
0.0
 10
10.6289063285
 20
8.2554103173
 30
0.0
 10
10.6417277885
 20
8.2712435633
 30
0.0
 10
10.6532439391
 20
8.2880927623
 30
0.0
 10
10.6633870802
 20
8.3058593006
 30
0.0
 10
10.6720991235
 20
8.3244406753
 30
0.0
 10
10.6793299313
 20
8.3437298359
 30
0.0
 10
10.6850378345
 20
8.3636137879
 30
0.0
 10
10.6877997674
 20
8.3771601727
 30
0.0
 10
10.6889189531
 20
8.3839897465
 30
0.0
  0
SPLINE
  5
35E
100
AcDbEntity
  8
0
100
AcDbSpline
 62
7
  6
CONTINUOUS
 70
0
 71
3
 72
21
 73
17
 74
0
 42
0.0000001
 43
0.0000001
 44
0.0000000001
 40
0.0
 40
0.0
 40
0.0
 40
0.0
 40
0.0617147758
 40
0.1234506606
 40
0.1852285516
 40
0.2470689039
 40
0.3089915432
 40
0.3710154715
 40
0.4331586565
 40
0.4954378534
 40
0.5578684959
 40
0.6204644995
 40
0.6832380575
 40
0.7461999878
 40
0.87268242
 40
1.0
 40
1.0
 40
1.0
 40
1.0
 10
10.6007366839
 20
8.169386366
 30
0.0
 10
10.6042666634
 20
8.1727960462
 30
0.0
 10
10.6111535898
 20
8.1797996559
 30
0.0
 10
10.6209319423
 20
8.1908243135
 30
0.0
 10
10.6301375839
 20
8.2023447898
 30
0.0
 10
10.6387489259
 20
8.2143341373
 30
0.0
 10
10.6467462639
 20
8.2267647586
 30
0.0
 10
10.6541111251
 20
8.239607965
 30
0.0
 10
10.6608265007
 20
8.2528341609
 30
0.0
 10
10.6668769865
 20
8.2664127939
 30
0.0
 10
10.6722486669
 20
8.280312574
 30
0.0
 10
10.6769291078
 20
8.2945013636
 30
0.0
 10
10.6809076376
 20
8.3089468124
 30
0.0
 10
10.6852703151
 20
8.3285312074
 30
0.0
 10
10.6889203898
 20
8.3534981626
 30
0.0
 10
10.6898868766
 20
8.3736944349
 30
0.0
 10
10.6898868766
 20
8.3838192626
 30
0.0
  0
SPLINE
  5
35F
100
AcDbEntity
  8
0
100
AcDbSpline
 62
7
  6
CONTINUOUS
 70
0
 71
3
 72
15
 73
11
 74
0
 42
0.0000001
 43
0.0000001
 44
0.0000000001
 40
0.0
 40
0.0
 40
0.0
 40
0.0
 40
0.1238992181
 40
0.2479122359
 40
0.3721497238
 40
0.4967162083
 40
0.6217072719
 40
0.7472070622
 40
0.8732861798
 40
1.0
 40
1.0
 40
1.0
 40
1.0
 10
10.2158748117
 20
8.6537329506
 30
0.0
 10
10.2209336422
 20
8.658619436
 30
0.0
 10
10.2314746677
 20
8.6679738132
 30
0.0
 10
10.2484213401
 20
8.6806279404
 30
0.0
 10
10.266405316
 20
8.6918331325
 30
0.0
 10
10.2853131438
 20
8.7015184288
 30
0.0
 10
10.305027302
 20
8.7096241214
 30
0.0
 10
10.3254254176
 20
8.7161000028
 30
0.0
 10
10.3463787838
 20
8.7209059575
 30
0.0
 10
10.3605983331
 20
8.7229720105
 30
0.0
 10
10.3677525201
 20
8.7237204932
 30
0.0
  0
SPLINE
  5
360
100
AcDbEntity
  8
0
100
AcDbSpline
 62
7
  6
CONTINUOUS
 70
0
 71
3
 72
41
 73
37
 74
0
 42
0.0000001
 43
0.0000001
 44
0.0000000001
 40
0.0
 40
0.0
 40
0.0
 40
0.0
 40
0.0299421703
 40
0.0599087166
 40
0.0899234211
 40
0.1200088977
 40
0.150186053
 40
0.1804736004
 40
0.2108876395
 40
0.2414413098
 40
0.2721445264
 40
0.3030038
 40
0.3340221415
 40
0.3651990482
 40
0.3965305685
 40
0.4280094374
 40
0.4596252765
 40
0.4913648514
 40
0.5232123788
 40
0.5551498746
 40
0.5871575376
 40
0.6192141589
 40
0.6512975532
 40
0.6833850026
 40
0.7154537088
 40
0.731476412
 40
0.7474860771
 40
0.7794508401
 40
0.8113324799
 40
0.8431123195
 40
0.8747737613
 40
0.9063025943
 40
0.937687506
 40
0.953325536
 40
0.9689249997
 40
1.0
 40
1.0
 40
1.0
 40
1.0
 10
10.1439408009
 20
8.642296235
 30
0.0
 10
10.149394668
 20
8.6475642381
 30
0.0
 10
10.160731206
 20
8.6576751396
 30
0.0
 10
10.1788941416
 20
8.6714494202
 30
0.0
 10
10.1981223235
 20
8.683762741
 30
0.0
 10
10.2183083257
 20
8.6945460152
 30
0.0
 10
10.239341164
 20
8.7037403345
 30
0.0
 10
10.2611047622
 20
8.7112951562
 30
0.0
 10
10.2834791901
 20
8.717169144
 30
0.0
 10
10.3063411808
 20
8.7213302268
 30
0.0
 10
10.3295648603
 20
8.7237558001
 30
0.0
 10
10.3530224326
 20
8.7244328223
 30
0.0
 10
10.3765848862
 20
8.7233578757
 30
0.0
 10
10.4001226996
 20
8.7205371642
 30
0.0
 10
10.4235065468
 20
8.7159864665
 30
0.0
 10
10.4466079993
 20
8.7097310388
 30
0.0
 10
10.4693002221
 20
8.7018054672
 30
0.0
 10
10.4914586599
 20
8.6922534732
 30
0.0
 10
10.5129617115
 20
8.6811276685
 30
0.0
 10
10.5336913847
 20
8.6684892702
 30
0.0
 10
10.5535339476
 20
8.6544077466
 30
0.0
 10
10.5723804965
 20
8.638960507
 30
0.0
 10
10.5901277276
 20
8.6222322205
 30
0.0
 10
10.6066778193
 20
8.6043153249
 30
0.0
 10
10.6194016486
 20
8.5884690544
 30
0.0
 10
10.6288948135
 20
8.5752976243
 30
0.0
 10
10.6379103296
 20
8.5618264448
 30
0.0
 10
10.6482756372
 20
8.5444411016
 30
0.0
 10
10.6592026749
 20
8.52280809
 30
0.0
 10
10.6685537498
 20
8.5005311515
 30
0.0
 10
10.676276964
 20
8.4777329331
 30
0.0
 10
10.6823297721
 20
8.454539162
 30
0.0
 10
10.6859585513
 20
8.4349610974
 30
0.0
 10
10.687994202
 20
8.4192303828
 30
0.0
 10
10.6894469881
 20
8.4035147137
 30
0.0
 10
10.6898868766
 20
8.3916887901
 30
0.0
 10
10.6898868766
 20
8.3838192626
 30
0.0
  0
SPLINE
  5
361
100
AcDbEntity
  8
0
100
AcDbSpline
 62
7
  6
CONTINUOUS
 70
0
 71
3
 72
41
 73
37
 74
0
 42
0.0000001
 43
0.0000001
 44
0.0000000001
 40
0.0
 40
0.0
 40
0.0
 40
0.0
 40
0.0299421701
 40
0.0599087164
 40
0.0899234211
 40
0.1200088983
 40
0.1501860543
 40
0.1804736026
 40
0.2108876422
 40
0.2414413123
 40
0.2721445279
 40
0.3030038001
 40
0.33402214
 40
0.3651990456
 40
0.3965305656
 40
0.428009435
 40
0.4596252751
 40
0.4913648511
 40
0.523212379
 40
0.5551498748
 40
0.5871575372
 40
0.6192141578
 40
0.6512975514
 40
0.6833850007
 40
0.7154537075
 40
0.7314764095
 40
0.7474860758
 40
0.7794508394
 40
0.8113324795
 40
0.8431123195
 40
0.8747737607
 40
0.9063025939
 40
0.9376875098
 40
0.9533255635
 40
0.9689249841
 40
1.0
 40
1.0
 40
1.0
 40
1.0
 10
10.1150463344
 20
8.6474066081
 30
0.0
 10
10.1208941918
 20
8.6530552063
 30
0.0
 10
10.1330497343
 20
8.6638965401
 30
0.0
 10
10.1525248069
 20
8.6786659413
 30
0.0
 10
10.1731420943
 20
8.6918688278
 30
0.0
 10
10.1947863981
 20
8.7034311325
 30
0.0
 10
10.2173387211
 20
8.7132896838
 30
0.0
 10
10.240674599
 20
8.7213902874
 30
0.0
 10
10.2646654348
 20
8.7276886257
 30
0.0
 10
10.2891790551
 20
8.7321503146
 30
0.0
 10
10.3140804924
 20
8.7347511202
 30
0.0
 10
10.3392327192
 20
8.7354770611
 30
0.0
 10
10.3644974051
 20
8.7343244698
 30
0.0
 10
10.3897356723
 20
8.7312999953
 30
0.0
 10
10.4148088516
 20
8.7264205527
 30
0.0
 10
10.4395792352
 20
8.7197132184
 30
0.0
 10
10.463910823
 20
8.7112150749
 30
0.0
 10
10.4876700614
 20
8.7009730068
 30
0.0
 10
10.5107265651
 20
8.6890434297
 30
0.0
 10
10.5329538186
 20
8.6754919856
 30
0.0
 10
10.5542298754
 20
8.660393163
 30
0.0
 10
10.5744379648
 20
8.6438299636
 30
0.0
 10
10.593467324
 20
8.6258931755
 30
0.0
 10
10.611213054
 20
8.6066819053
 30
0.0
 10
10.6248561207
 20
8.5896908634
 30
0.0
 10
10.6350350698
 20
8.5755678588
 30
0.0
 10
10.6447019366
 20
8.5611235009
 30
0.0
 10
10.6558160508
 20
8.542482167
 30
0.0
 10
10.667532499
 20
8.5192863145
 30
0.0
 10
10.6775591236
 20
8.4954000108
 30
0.0
 10
10.6858402881
 20
8.4709547703
 30
0.0
 10
10.6923303726
 20
8.4460854001
 30
0.0
 10
10.6962213063
 20
8.4250929409
 30
0.0
 10
10.6984040243
 20
8.4082257899
 30
0.0
 10
10.6999617628
 20
8.3913747675
 30
0.0
 10
10.7004334309
 20
8.3786945059
 30
0.0
 10
10.7004334309
 20
8.3702564523
 30
0.0
  0
SPLINE
  5
362
100
AcDbEntity
  8
0
100
AcDbSpline
 62
7
  6
CONTINUOUS
 70
0
 71
3
 72
15
 73
11
 74
0
 42
0.0000001
 43
0.0000001
 44
0.0000000001
 40
0.0
 40
0.0
 40
0.0
 40
0.0
 40
0.1241556855
 40
0.248454609
 40
0.3729481509
 40
0.4976873465
 40
0.6227199784
 40
0.7480902392
 40
0.8738383423
 40
1.0
 40
1.0
 40
1.0
 40
1.0
 10
9.6088543958
 20
7.5304385747
 30
0.0
 10
9.6157338453
 20
7.5360276661
 30
0.0
 10
9.6298138152
 20
7.5468330661
 30
0.0
 10
9.6518106801
 20
7.5618575467
 30
0.0
 10
9.6746390203
 20
7.5756679392
 30
0.0
 10
9.6982381168
 20
7.588226823
 30
0.0
 10
9.7225462737
 20
7.5995008013
 30
0.0
 10
9.7474998832
 20
7.6094595712
 30
0.0
 10
9.7730323672
 20
7.6180759091
 30
0.0
 10
9.7903676675
 20
7.6229018148
 30
0.0
 10
9.7991061342
 20
7.6250842916
 30
0.0
  0
SPLINE
  5
363
100
AcDbEntity
  8
0
100
AcDbSpline
 62
7
  6
CONTINUOUS
 70
0
 71
3
 72
25
 73
21
 74
0
 42
0.0000001
 43
0.0000001
 44
0.0000000001
 40
0.0
 40
0.0
 40
0.0
 40
0.0
 40
0.0611225902
 40
0.0917962779
 40
0.1225407251
 40
0.1842280109
 40
0.2461758479
 40
0.277244985
 40
0.308371538
 40
0.3707776175
 40
0.433374733
 40
0.4961337364
 40
0.5590231913
 40
0.6220098432
 40
0.6850590862
 40
0.7481354502
 40
0.8112030921
 40
0.8742262881
 40
0.9371699261
 40
1.0
 40
1.0
 40
1.0
 40
1.0
 10
9.9758042354
 20
7.6379104214
 30
0.0
 10
9.9870912455
 20
7.636826528
 30
0.0
 10
10.0039975144
 20
7.6346659825
 30
0.0
 10
10.0263910615
 20
7.6307391945
 30
0.0
 10
10.0487560698
 20
7.6261014999
 30
0.0
 10
10.0765186726
 20
7.6189931098
 30
0.0
 10
10.1038531054
 20
7.6101862318
 30
0.0
 10
10.1254333788
 20
7.6021354454
 30
0.0
 10
10.1468396055
 20
7.5934051243
 30
0.0
 10
10.1731547816
 20
7.5812597095
 30
0.0
 10
10.2038697821
 20
7.5647896565
 30
0.0
 10
10.2336282048
 20
7.5464756593
 30
0.0
 10
10.2623093937
 20
7.5263910594
 30
0.0
 10
10.289797995
 20
7.5046160917
 30
0.0
 10
10.3159832439
 20
7.4812380431
 30
0.0
 10
10.3407597782
 20
7.4563507166
 30
0.0
 10
10.364027904
 20
7.4300542377
 30
0.0
 10
10.3856943811
 20
7.4024540153
 30
0.0
 10
10.405671524
 20
7.3736625749
 30
0.0
 10
10.4178251374
 20
7.3537265076
 30
0.0
 10
10.4235940306
 20
7.3435985752
 30
0.0
  0
SPLINE
  5
364
100
AcDbEntity
  8
0
100
AcDbSpline
 62
7
  6
CONTINUOUS
 70
0
 71
3
 72
15
 73
11
 74
0
 42
0.0000001
 43
0.0000001
 44
0.0000000001
 40
0.0
 40
0.0
 40
0.0
 40
0.0
 40
0.1265012677
 40
0.2526284894
 40
0.3783487244
 40
0.5036330225
 40
0.6284574585
 40
0.7528014759
 40
0.8766531723
 40
1.0
 40
1.0
 40
1.0
 40
1.0
 10
10.4515073396
 20
7.2879031536
 30
0.0
 10
10.4553784458
 20
7.2790247494
 30
0.0
 10
10.4626665681
 20
7.2610973038
 30
0.0
 10
10.4722142699
 20
7.2337350339
 30
0.0
 10
10.480337482
 20
7.2060127815
 30
0.0
 10
10.4870137169
 20
7.1780095526
 30
0.0
 10
10.4922249918
 20
7.1498041177
 30
0.0
 10
10.4959575994
 20
7.1214754988
 30
0.0
 10
10.4982017651
 20
7.0931044655
 30
0.0
 10
10.4987031405
 20
7.0741738642
 30
0.0
 10
10.4987031405
 20
7.0647297506
 30
0.0
  0
SPLINE
  5
365
100
AcDbEntity
  8
0
100
AcDbSpline
 62
7
  6
CONTINUOUS
 70
0
 71
3
 72
15
 73
11
 74
0
 42
0.0000001
 43
0.0000001
 44
0.0000000001
 40
0.0
 40
0.0
 40
0.0
 40
0.0
 40
0.126597812
 40
0.2527177376
 40
0.3783600535
 40
0.5035399278
 40
0.6282712823
 40
0.7525747545
 40
0.8764747573
 40
1.0
 40
1.0
 40
1.0
 40
1.0
 10
10.4987031405
 20
7.0647297506
 30
0.0
 10
10.4987031405
 20
7.0560304111
 30
0.0
 10
10.4982794019
 20
7.0386615103
 30
0.0
 10
10.4963666126
 20
7.012722351
 30
0.0
 10
10.4931829736
 20
6.9870057685
 30
0.0
 10
10.4887371266
 20
6.961574018
 30
0.0
 10
10.4830402896
 20
6.9364871954
 30
0.0
 10
10.4761067539
 20
6.9118047033
 30
0.0
 10
10.4679540241
 20
6.8875857258
 30
0.0
 10
10.4617096345
 20
6.8717622885
 30
0.0
 10
10.4583915908
 20
6.8639494664
 30
0.0
  0
SPLINE
  5
366
100
AcDbEntity
  8
0
100
AcDbSpline
 62
7
  6
CONTINUOUS
 70
0
 71
3
 72
21
 73
17
 74
0
 42
0.0000001
 43
0.0000001
 44
0.0000000001
 40
0.0
 40
0.0
 40
0.0
 40
0.0
 40
0.0617147758
 40
0.1234506606
 40
0.1852285516
 40
0.2470689039
 40
0.3089915432
 40
0.3710154715
 40
0.4331586565
 40
0.4954378534
 40
0.5578684959
 40
0.6204644995
 40
0.6832380575
 40
0.7461999878
 40
0.87268242
 40
1.0
 40
1.0
 40
1.0
 40
1.0
 10
12.9183753189
 20
7.8759790284
 30
0.0
 10
12.9224019115
 20
7.8798683975
 30
0.0
 10
12.930257721
 20
7.8878573059
 30
0.0
 10
12.9414117353
 20
7.9004329609
 30
0.0
 10
12.9519124672
 20
7.9135741886
 30
0.0
 10
12.9617352907
 20
7.9272502505
 30
0.0
 10
12.9708577295
 20
7.9414296664
 30
0.0
 10
12.9792587119
 20
7.9560797117
 30
0.0
 10
12.9869188361
 20
7.9711666272
 30
0.0
 10
12.9938205309
 20
7.9866555621
 30
0.0
 10
12.9999479231
 20
8.0025108246
 30
0.0
 10
13.005286829
 20
8.0186957558
 30
0.0
 10
13.009825076
 20
8.035173454
 30
0.0
 10
13.0148015142
 20
8.057513068
 30
0.0
 10
13.0189650975
 20
8.0859924847
 30
0.0
 10
13.0200675539
 20
8.1090300576
 30
0.0
 10
13.0200675539
 20
8.1205792907
 30
0.0
  0
SPLINE
  5
367
100
AcDbEntity
  8
0
100
AcDbSpline
 62
7
  6
CONTINUOUS
 70
0
 71
3
 72
14
 73
10
 74
0
 42
0.0000001
 43
0.0000001
 44
0.0000000001
 40
0.0
 40
0.0
 40
0.0
 40
0.0
 40
0.2756307684
 40
0.4042973616
 40
0.5280689052
 40
0.6481405342
 40
0.7658626844
 40
0.8826688651
 40
1.0
 40
1.0
 40
1.0
 40
1.0
 10
10.3910903382
 20
8.4738003614
 30
0.0
 10
10.3904963593
 20
8.4738415107
 30
0.0
 10
10.3896175658
 20
8.473840801
 30
0.0
 10
10.3884868574
 20
8.4736792227
 30
0.0
 10
10.3877044089
 20
8.473484855
 30
0.0
 10
10.3869700107
 20
8.4732142132
 30
0.0
 10
10.3862852137
 20
8.4728669682
 30
0.0
 10
10.3856518495
 20
8.4724436192
 30
0.0
 10
10.3852670699
 20
8.4721131962
 30
0.0
 10
10.3850847732
 20
8.4719371111
 30
0.0
  0
SPLINE
  5
368
100
AcDbEntity
  8
0
100
AcDbSpline
 62
7
  6
CONTINUOUS
 70
0
 71
3
 72
15
 73
11
 74
0
 42
0.0000001
 43
0.0000001
 44
0.0000000001
 40
0.0
 40
0.0
 40
0.0
 40
0.0
 40
0.123651287
 40
0.2476394101
 40
0.371993985
 40
0.4967404038
 40
0.6219002849
 40
0.7474888797
 40
0.873521172
 40
1.0
 40
1.0
 40
1.0
 40
1.0
 10
10.4574857296
 20
6.8461888228
 30
0.0
 10
10.461217541
 20
6.8544932259
 30
0.0
 10
10.4682424462
 20
6.8713305214
 30
0.0
 10
10.4774183178
 20
6.8971507262
 30
0.0
 10
10.4852235626
 20
6.9235026167
 30
0.0
 10
10.4916372491
 20
6.9503156775
 30
0.0
 10
10.4966425612
 20
6.9775192402
 30
0.0
 10
10.5002264945
 20
7.0050418128
 30
0.0
 10
10.5023794659
 20
7.0328096393
 30
0.0
 10
10.5028563565
 20
7.0514054985
 30
0.0
 10
10.5028563565
 20
7.0607180572
 30
0.0
  0
SPLINE
  5
369
100
AcDbEntity
  8
0
100
AcDbSpline
 62
7
  6
CONTINUOUS
 70
0
 71
3
 72
15
 73
11
 74
0
 42
0.0000001
 43
0.0000001
 44
0.0000000001
 40
0.0
 40
0.0
 40
0.0
 40
0.0
 40
0.1234776164
 40
0.247420554
 40
0.3718183884
 40
0.496659076
 40
0.6219231962
 40
0.7475875052
 40
0.873623841
 40
1.0
 40
1.0
 40
1.0
 40
1.0
 10
10.5028563565
 20
7.0607180572
 30
0.0
 10
10.5028563565
 20
7.0706625721
 30
0.0
 10
10.5023105496
 20
7.090593267
 30
0.0
 10
10.4998678222
 20
7.1204524994
 30
0.0
 10
10.4958068236
 20
7.150246532
 30
0.0
 10
10.4901398892
 20
7.1798851727
 30
0.0
 10
10.482883966
 20
7.2092802833
 30
0.0
 10
10.4740607332
 20
7.2383442841
 30
0.0
 10
10.4636970084
 20
7.2669895052
 30
0.0
 10
10.4557903446
 20
7.2857291536
 30
0.0
 10
10.4515923471
 20
7.295001024
 30
0.0
  0
SPLINE
  5
36A
100
AcDbEntity
  8
0
100
AcDbSpline
 62
7
  6
CONTINUOUS
 70
0
 71
3
 72
26
 73
22
 74
0
 42
0.0000001
 43
0.0000001
 44
0.0000000001
 40
0.0
 40
0.0
 40
0.0
 40
0.0
 40
0.0628138165
 40
0.1257300321
 40
0.1887174186
 40
0.2517436781
 40
0.3147759668
 40
0.3462875354
 40
0.3777882815
 40
0.4407341888
 40
0.5035889516
 40
0.5663222338
 40
0.6289054823
 40
0.6913123836
 40
0.7224457818
 40
0.7535264604
 40
0.8155126315
 40
0.8772607973
 40
0.9080449458
 40
0.9387648069
 40
1.0
 40
1.0
 40
1.0
 40
1.0
 10
10.4262360118
 20
7.3446423868
 30
0.0
 10
10.42032542
 20
7.3549857302
 30
0.0
 10
10.4078710683
 20
7.3753399872
 30
0.0
 10
10.3873926836
 20
7.404718477
 30
0.0
 10
10.3651787539
 20
7.4328607962
 30
0.0
 10
10.3413204079
 20
7.4596513676
 30
0.0
 10
10.320144078
 20
7.4807644756
 30
0.0
 10
10.3024789106
 20
7.4968747442
 30
0.0
 10
10.2843557259
 20
7.5124428434
 30
0.0
 10
10.2608672351
 20
7.530866987
 30
0.0
 10
10.2314521953
 20
7.5512328583
 30
0.0
 10
10.2009312415
 20
7.5697701999
 30
0.0
 10
10.1694289095
 20
7.5864032561
 30
0.0
 10
10.1424407854
 20
7.5986321278
 30
0.0
 10
10.1204876721
 20
7.6073972802
 30
0.0
 10
10.0983528094
 20
7.6154626854
 30
0.0
 10
10.070315572
 20
7.6242469876
 30
0.0
 10
10.0418451701
 20
7.6312755844
 30
0.0
 10
10.0189112281
 20
7.6358155416
 30
0.0
 10
9.9959437978
 20
7.639622839
 30
0.0
 10
9.9786089459
 20
7.6416668882
 30
0.0
 10
9.9670379843
 20
7.6426613401
 30
0.0
  0
SPLINE
  5
36B
100
AcDbEntity
  8
0
100
AcDbSpline
 62
7
  6
CONTINUOUS
 70
0
 71
3
 72
15
 73
11
 74
0
 42
0.0000001
 43
0.0000001
 44
0.0000000001
 40
0.0
 40
0.0
 40
0.0
 40
0.0
 40
0.1263161705
 40
0.2521452529
 40
0.3775337162
 40
0.5025360897
 40
0.627213987
 40
0.7516350611
 40
0.8758717578
 40
1.0
 40
1.0
 40
1.0
 40
1.0
 10
9.8204959694
 20
7.6352637024
 30
0.0
 10
9.8090483133
 20
7.6330720447
 30
0.0
 10
9.7863364213
 20
7.6279282621
 30
0.0
 10
9.752935711
 20
7.6179414613
 30
0.0
 10
9.7204062933
 20
7.6057400402
 30
0.0
 10
9.6888890138
 20
7.5913762165
 30
0.0
 10
9.6585180232
 20
7.5749110995
 30
0.0
 10
9.629422735
 20
7.5564144417
 30
0.0
 10
9.6017290052
 20
7.5359665837
 30
0.0
 10
9.5842717517
 20
7.5210849226
 30
0.0
 10
9.5758206105
 20
7.5133541426
 30
0.0
  0
SPLINE
  5
36C
100
AcDbEntity
  8
0
100
AcDbSpline
 62
7
  6
CONTINUOUS
 70
0
 71
3
 72
41
 73
37
 74
0
 42
0.0000001
 43
0.0000001
 44
0.0000000001
 40
0.0
 40
0.0
 40
0.0
 40
0.0
 40
0.0310549855
 40
0.0466435335
 40
0.0622700596
 40
0.0936305983
 40
0.1251333443
 40
0.1567674463
 40
0.1885192676
 40
0.2203728637
 40
0.2523102682
 40
0.2683066745
 40
0.28431657
 40
0.3163615255
 40
0.3484281344
 40
0.3804942843
 40
0.4125378712
 40
0.4445372271
 40
0.4764715401
 40
0.5083212646
 40
0.5400685124
 40
0.5716974205
 40
0.6031944887
 40
0.6345488791
 40
0.6657526723
 40
0.696801072
 40
0.7276925518
 40
0.7584289365
 40
0.7890154141
 40
0.8194604714
 40
0.8497757527
 40
0.8799758391
 40
0.9100779503
 40
0.9401015751
 40
0.9700680358
 40
1.0
 40
1.0
 40
1.0
 40
1.0
 10
10.0274790666
 20
8.4252324135
 30
0.0
 10
10.0274790666
 20
8.4169151659
 30
0.0
 10
10.0279373028
 20
8.4044168391
 30
0.0
 10
10.029450928
 20
8.3878057499
 30
0.0
 10
10.0315718454
 20
8.3711779846
 30
0.0
 10
10.0353528598
 20
8.3504797514
 30
0.0
 10
10.0416607378
 20
8.3259485663
 30
0.0
 10
10.0497111487
 20
8.3018219234
 30
0.0
 10
10.0594610012
 20
8.2782291123
 30
0.0
 10
10.0708577074
 20
8.2552963483
 30
0.0
 10
10.0816725037
 20
8.2368449735
 30
0.0
 10
10.0910820573
 20
8.2225325444
 30
0.0
 10
10.1009927938
 20
8.2085271609
 30
0.0
 10
10.1142811633
 20
8.1916552599
 30
0.0
 10
10.1315750144
 20
8.1725388945
 30
0.0
 10
10.1501314079
 20
8.1546451938
 30
0.0
 10
10.1698509615
 20
8.1380702335
 30
0.0
 10
10.190628643
 20
8.1229022876
 30
0.0
 10
10.2123536436
 20
8.1092223699
 30
0.0
 10
10.2349101432
 20
8.0971035326
 30
0.0
 10
10.2581778727
 20
8.0866105523
 30
0.0
 10
10.2820327609
 20
8.0777995662
 30
0.0
 10
10.3063475829
 20
8.0707177771
 30
0.0
 10
10.3309926307
 20
8.0654031976
 30
0.0
 10
10.355836395
 20
8.0618844425
 30
0.0
 10
10.3807462581
 20
8.0601805692
 30
0.0
 10
10.4055891925
 20
8.0603009659
 30
0.0
 10
10.4302324651
 20
8.0622452899
 30
0.0
 10
10.4545443407
 20
8.0660034535
 30
0.0
 10
10.4783947878
 20
8.0715556651
 30
0.0
 10
10.5016561637
 20
8.0788725069
 30
0.0
 10
10.5242039506
 20
8.0879151154
 30
0.0
 10
10.5459172623
 20
8.0986352253
 30
0.0
 10
10.5666801384
 20
8.1109759689
 30
0.0
 10
10.5863798399
 20
8.124870109
 30
0.0
 10
10.5987412993
 20
8.1351253182
 30
0.0
 10
10.6047057185
 20
8.1404815853
 30
0.0
  0
SPLINE
  5
36D
100
AcDbEntity
  8
0
100
AcDbSpline
 62
7
  6
CONTINUOUS
 70
0
 71
3
 72
21
 73
17
 74
0
 42
0.0000001
 43
0.0000001
 44
0.0000000001
 40
0.0
 40
0.0
 40
0.0
 40
0.0
 40
0.1272641377
 40
0.2537288085
 40
0.3166919981
 40
0.3794731628
 40
0.4420818402
 40
0.5045287721
 40
0.5668261586
 40
0.6289875852
 40
0.6910278609
 40
0.7529629176
 40
0.8148096402
 40
0.8765857325
 40
0.9383095696
 40
1.0
 40
1.0
 40
1.0
 40
1.0
 10
10.0274790666
 20
8.4252324135
 30
0.0
 10
10.0274790666
 20
8.4356116811
 30
0.0
 10
10.0284263287
 20
8.4563172006
 30
0.0
 10
10.0320030884
 20
8.4819365245
 30
0.0
 10
10.03627992
 20
8.5020630657
 30
0.0
 10
10.0401816258
 20
8.51692698
 30
0.0
 10
10.0447735719
 20
8.531547995
 30
0.0
 10
10.0500460832
 20
8.5458956942
 30
0.0
 10
10.0559880544
 20
8.5599397591
 30
0.0
 10
10.0625870776
 20
8.5736505807
 30
0.0
 10
10.0698292035
 20
8.5869992829
 30
0.0
 10
10.0776991749
 20
8.5999577574
 30
0.0
 10
10.0861804819
 20
8.6124986137
 30
0.0
 10
10.0952553016
 20
8.6245955389
 30
0.0
 10
10.1049041475
 20
8.6362227272
 30
0.0
 10
10.1117078905
 20
8.6436467163
 30
0.0
 10
10.115197372
 20
8.6472712569
 30
0.0
  0
SPLINE
  5
36E
100
AcDbEntity
  8
0
100
AcDbSpline
 62
7
  6
CONTINUOUS
 70
0
 71
3
 72
40
 73
36
 74
0
 42
0.0000001
 43
0.0000001
 44
0.0000000001
 40
0.0
 40
0.0
 40
0.0
 40
0.0
 40
0.0311273134
 40
0.0620555449
 40
0.0927959905
 40
0.1233658009
 40
0.1537887127
 40
0.1840939434
 40
0.2143151742
 40
0.2444893043
 40
0.2746550499
 40
0.3048514531
 40
0.3351163687
 40
0.3654850211
 40
0.3959886756
 40
0.4266535152
 40
0.4574997415
 40
0.48854093
 40
0.5197836763
 40
0.5512274844
 40
0.5828649214
 40
0.6146820032
 40
0.6466587595
 40
0.6787699908
 40
0.7109861508
 40
0.7432743324
 40
0.7755993454
 40
0.8079248365
 40
0.840214436
 40
0.8724329074
 40
0.9045472744
 40
0.9365278863
 40
0.9683494043
 40
0.9841981132
 40
1.0
 40
1.0
 40
1.0
 40
1.0
 10
10.041002029
 20
8.4242945928
 30
0.0
 10
10.041002029
 20
8.4344490213
 30
0.0
 10
10.0419464283
 20
8.4547062347
 30
0.0
 10
10.0462169506
 20
8.4847198241
 30
0.0
 10
10.0533003232
 20
8.5140131518
 30
0.0
 10
10.0631357105
 20
8.5423263174
 30
0.0
 10
10.075637672
 20
8.569411979
 30
0.0
 10
10.0906974664
 20
8.5950321789
 30
0.0
 10
10.1081835396
 20
8.6189620174
 30
0.0
 10
10.1279427616
 20
8.6409913567
 30
0.0
 10
10.1498019658
 20
8.6609266806
 30
0.0
 10
10.1735691972
 20
8.6785931625
 30
0.0
 10
10.1990357479
 20
8.6938360464
 30
0.0
 10
10.2259780276
 20
8.7065220087
 30
0.0
 10
10.2541595085
 20
8.7165406131
 30
0.0
 10
10.2833330841
 20
8.7238048307
 30
0.0
 10
10.3132431648
 20
8.728251985
 30
0.0
 10
10.3436280048
 20
8.7298442651
 30
0.0
 10
10.3742220161
 20
8.728568627
 30
0.0
 10
10.4047580461
 20
8.7244372446
 30
0.0
 10
10.4349697146
 20
8.7174870915
 30
0.0
 10
10.4645936236
 20
8.7077794729
 30
0.0
 10
10.4933717159
 20
8.6953998172
 30
0.0
 10
10.5210533616
 20
8.6804565183
 30
0.0
 10
10.5473975169
 20
8.6630801628
 30
0.0
 10
10.5721748968
 20
8.6434225162
 30
0.0
 10
10.595169707
 20
8.6216548983
 30
0.0
 10
10.6161816946
 20
8.5979670231
 30
0.0
 10
10.6350278296
 20
8.5725651993
 30
0.0
 10
10.6515436479
 20
8.5456706633
 30
0.0
 10
10.665585148
 20
8.5175171497
 30
0.0
 10
10.6770292134
 20
8.4883515659
 30
0.0
 10
10.6843292346
 20
8.4633739921
 30
0.0
 10
10.6887755102
 20
8.4431453179
 30
0.0
 10
10.690531519
 20
8.4329660832
 30
0.0
 10
10.6912911194
 20
8.4278674252
 30
0.0
  0
SPLINE
  5
36F
100
AcDbEntity
  8
0
100
AcDbSpline
 62
7
  6
CONTINUOUS
 70
0
 71
3
 72
21
 73
17
 74
0
 42
0.0000001
 43
0.0000001
 44
0.0000000001
 40
0.0
 40
0.0
 40
0.0
 40
0.0
 40
0.12731758
 40
0.2538000122
 40
0.3167619425
 40
0.3795355005
 40
0.4421315041
 40
0.5045621466
 40
0.5668413435
 40
0.6289845285
 40
0.6910084568
 40
0.7529310961
 40
0.8147714484
 40
0.8765493394
 40
0.9382852242
 40
1.0
 40
1.0
 40
1.0
 40
1.0
 10
10.0547906082
 20
8.4278633384
 30
0.0
 10
10.0547906082
 20
8.437988166
 30
0.0
 10
10.055757095
 20
8.4581844383
 30
0.0
 10
10.0594071697
 20
8.4831513936
 30
0.0
 10
10.0637698472
 20
8.5027357886
 30
0.0
 10
10.067748377
 20
8.5171812373
 30
0.0
 10
10.0724288179
 20
8.5313700269
 30
0.0
 10
10.0778004983
 20
8.5452698071
 30
0.0
 10
10.0838509841
 20
8.55884844
 30
0.0
 10
10.0905663597
 20
8.5720746359
 30
0.0
 10
10.0979312209
 20
8.5849178423
 30
0.0
 10
10.1059285589
 20
8.5973484636
 30
0.0
 10
10.1145399009
 20
8.6093378112
 30
0.0
 10
10.1237455425
 20
8.6208582875
 30
0.0
 10
10.133523895
 20
8.6318829451
 30
0.0
 10
10.1404108214
 20
8.6388865547
 30
0.0
 10
10.1439408009
 20
8.642296235
 30
0.0
  0
SPLINE
  5
370
100
AcDbEntity
  8
0
100
AcDbSpline
 62
7
  6
CONTINUOUS
 70
0
 71
3
 72
15
 73
11
 74
0
 42
0.0000001
 43
0.0000001
 44
0.0000000001
 40
0.0
 40
0.0
 40
0.0
 40
0.0
 40
0.1272174544
 40
0.2536779506
 40
0.3794192843
 40
0.5044970338
 40
0.6289895343
 40
0.7529936412
 40
0.8766220972
 40
1.0
 40
1.0
 40
1.0
 40
1.0
 10
10.0869132616
 20
8.4588914408
 30
0.0
 10
10.0869132616
 20
8.4680435561
 30
0.0
 10
10.0877031846
 20
8.4863036233
 30
0.0
 10
10.0912746137
 20
8.5133988102
 30
0.0
 10
10.0972025985
 20
8.5399227662
 30
0.0
 10
10.1054433736
 20
8.5656731011
 30
0.0
 10
10.115935242
 20
8.590456071
 30
0.0
 10
10.128600119
 20
8.6140850816
 30
0.0
 10
10.1433408864
 20
8.6363794632
 30
0.0
 10
10.154490273
 20
8.6502550425
 30
0.0
 10
10.1603653842
 20
8.6569082061
 30
0.0
  0
SPLINE
  5
371
100
AcDbEntity
  8
0
100
AcDbSpline
 62
7
  6
CONTINUOUS
 70
0
 71
3
 72
21
 73
17
 74
0
 42
0.0000001
 43
0.0000001
 44
0.0000000001
 40
0.0
 40
0.0
 40
0.0
 40
0.0
 40
0.1273176899
 40
0.2537999351
 40
0.3167619508
 40
0.3795355113
 40
0.4421314924
 40
0.5045621415
 40
0.5668413449
 40
0.6289845255
 40
0.6910084484
 40
0.7529310939
 40
0.814771448
 40
0.8765493308
 40
0.9382852181
 40
1.0
 40
1.0
 40
1.0
 40
1.0
 10
10.1380463535
 20
8.4665322177
 30
0.0
 10
10.1380463535
 20
8.4753712383
 30
0.0
 10
10.1388900908
 20
8.4930026567
 30
0.0
 10
10.1420766492
 20
8.5147988993
 30
0.0
 10
10.1458852623
 20
8.5318961474
 30
0.0
 10
10.1493585189
 20
8.5445070887
 30
0.0
 10
10.153444598
 20
8.556893943
 30
0.0
 10
10.1581340789
 20
8.5690285083
 30
0.0
 10
10.1634161502
 20
8.5808827197
 30
0.0
 10
10.169278739
 20
8.5924292186
 30
0.0
 10
10.1757082832
 20
8.603641389
 30
0.0
 10
10.1826899555
 20
8.6144933917
 30
0.0
 10
10.1902077225
 20
8.6249601154
 30
0.0
 10
10.198244294
 20
8.6350175227
 30
0.0
 10
10.2067807803
 20
8.6446421398
 30
0.0
 10
10.2127931431
 20
8.6507562688
 30
0.0
 10
10.2158748117
 20
8.6537329506
 30
0.0
  0
SPLINE
  5
372
100
AcDbEntity
  8
0
100
AcDbSpline
 62
7
  6
CONTINUOUS
 70
0
 71
3
 72
33
 73
29
 74
0
 42
0.0000001
 43
0.0000001
 44
0.0000000001
 40
0.0
 40
0.0
 40
0.0
 40
0.0
 40
0.1040678306
 40
0.2033817923
 40
0.2974247657
 40
0.3857622136
 40
0.4680528379
 40
0.5068537822
 40
0.5440618207
 40
0.5796629208
 40
0.6136516847
 40
0.6460286684
 40
0.6768031637
 40
0.705991757
 40
0.733619992
 40
0.7597227457
 40
0.784344653
 40
0.8075424604
 40
0.8293845972
 40
0.8499548917
 40
0.8693521683
 40
0.9050769142
 40
0.9217334421
 40
0.9377983797
 40
0.9534595797
 40
0.9689147524
 40
0.9843635116
 40
1.0
 40
1.0
 40
1.0
 40
1.0
 10
10.9344688158
 20
9.9722651793
 30
0.0
 10
10.9383165416
 20
9.9717356693
 30
0.0
 10
10.9458234313
 20
9.9706043318
 30
0.0
 10
10.9567499403
 20
9.9686383611
 30
0.0
 10
10.9670357875
 20
9.966453869
 30
0.0
 10
10.976623171
 20
9.9640667933
 30
0.0
 10
10.9841307353
 20
9.9618826512
 30
0.0
 10
10.9897442095
 20
9.9600389641
 30
0.0
 10
10.9936696016
 20
9.9586438932
 30
0.0
 10
10.9973897872
 20
9.9572116523
 30
0.0
 10
11.0009018468
 20
9.9557446772
 30
0.0
 10
11.0042033697
 20
9.9542452653
 30
0.0
 10
11.0072924638
 20
9.9527158071
 30
0.0
 10
11.010167705
 20
9.9511585733
 30
0.0
 10
11.0128281087
 20
9.9495758134
 30
0.0
 10
11.0152731217
 20
9.9479697348
 30
0.0
 10
11.0175025107
 20
9.9463423993
 30
0.0
 10
11.0195164712
 20
9.9446958551
 30
0.0
 10
11.0213152744
 20
9.9430320696
 30
0.0
 10
11.0228999065
 20
9.941352444
 30
0.0
 10
11.0246785781
 20
9.9391558188
 30
0.0
 10
11.026106671
 20
9.9368675478
 30
0.0
 10
11.0271100207
 20
9.9345137676
 30
0.0
 10
11.0276353645
 20
9.9327821391
 30
0.0
 10
11.027951744
 20
9.9310459065
 30
0.0
 10
11.0280607538
 20
9.9293073331
 30
0.0
 10
11.0279643166
 20
9.9275692349
 30
0.0
 10
11.0277665051
 20
9.9264231296
 30
0.0
 10
11.0276360928
 20
9.9258543073
 30
0.0
  0
SPLINE
  5
373
100
AcDbEntity
  8
0
100
AcDbSpline
 62
7
  6
CONTINUOUS
 70
0
 71
3
 72
17
 73
13
 74
0
 42
0.0000001
 43
0.0000001
 44
0.0000000001
 40
0.0
 40
0.0
 40
0.0
 40
0.0
 40
0.1268327206
 40
0.2530850181
 40
0.3787710789
 40
0.4414192008
 40
0.5039363133
 40
0.6285792429
 40
0.7527637695
 40
0.8147101562
 40
0.8765628428
 40
1.0
 40
1.0
 40
1.0
 40
1.0
 10
10.2281800115
 20
8.553594651
 30
0.0
 10
10.2281800115
 20
8.5597302047
 30
0.0
 10
10.2285867816
 20
8.5719773397
 30
0.0
 10
10.2304243478
 20
8.5902210523
 30
0.0
 10
10.2329739432
 20
8.6052372908
 30
0.0
 10
10.2356171748
 20
8.617082981
 30
0.0
 10
10.238652785
 20
8.628782162
 30
0.0
 10
10.243187366
 20
8.6431580647
 30
0.0
 10
10.2486996719
 20
8.6571586718
 30
0.0
 10
10.2536755369
 20
8.6680767774
 30
0.0
 10
10.2590150385
 20
8.6787807482
 30
0.0
 10
10.2634386176
 20
8.6865878516
 30
0.0
 10
10.2665644916
 20
8.6916756065
 30
0.0
  0
SPLINE
  5
374
100
AcDbEntity
  8
0
100
AcDbSpline
 62
7
  6
CONTINUOUS
 70
0
 71
3
 72
15
 73
11
 74
0
 42
0.0000001
 43
0.0000001
 44
0.0000000001
 40
0.0
 40
0.0
 40
0.0
 40
0.0
 40
0.1271896963
 40
0.2536372854
 40
0.3793786929
 40
0.5044658077
 40
0.6289727805
 40
0.7529909674
 40
0.8766271144
 40
1.0
 40
1.0
 40
1.0
 40
1.0
 10
10.2732181604
 20
8.5652513772
 30
0.0
 10
10.2732181604
 20
8.5722127112
 30
0.0
 10
10.2738069925
 20
8.5861022756
 30
0.0
 10
10.2764691413
 20
8.6067199457
 30
0.0
 10
10.2808886388
 20
8.6269178012
 30
0.0
 10
10.2870341581
 20
8.6465478629
 30
0.0
 10
10.2948614646
 20
8.6654683221
 30
0.0
 10
10.3043146863
 20
8.6835423969
 30
0.0
 10
10.3153242248
 20
8.7006373732
 30
0.0
 10
10.3236579711
 20
8.7113105137
 30
0.0
 10
10.3280516236
 20
8.7164380048
 30
0.0
  0
SPLINE
  5
375
100
AcDbEntity
  8
0
100
AcDbSpline
 62
7
  6
CONTINUOUS
 70
0
 71
3
 72
15
 73
11
 74
0
 42
0.0000001
 43
0.0000001
 44
0.0000000001
 40
0.0
 40
0.0
 40
0.0
 40
0.0
 40
0.1272007975
 40
0.253653564
 40
0.3793950902
 40
0.5044785531
 40
0.6289798351
 40
0.7529924083
 40
0.8766253758
 40
1.0
 40
1.0
 40
1.0
 40
1.0
 10
10.2812415477
 20
8.5688481622
 30
0.0
 10
10.2812415477
 20
8.5757513896
 30
0.0
 10
10.2818301698
 20
8.589524822
 30
0.0
 10
10.284491423
 20
8.6099671237
 30
0.0
 10
10.2889091266
 20
8.6299873864
 30
0.0
 10
10.2950514588
 20
8.6494365433
 30
0.0
 10
10.3028734939
 20
8.6681718031
 30
0.0
 10
10.3123184914
 20
8.686055507
 30
0.0
 10
10.3233157719
 20
8.7029542056
 30
0.0
 10
10.3316376799
 20
8.7134918001
 30
0.0
 10
10.3360242097
 20
8.7185503714
 30
0.0
  0
SPLINE
  5
376
100
AcDbEntity
  8
0
100
AcDbSpline
 62
7
  6
CONTINUOUS
 70
0
 71
3
 72
11
 73
7
 74
0
 42
0.0000001
 43
0.0000001
 44
0.0000000001
 40
0.0
 40
0.0
 40
0.0
 40
0.0
 40
0.2522909495
 40
0.5029875889
 40
0.7521797784
 40
1.0
 40
1.0
 40
1.0
 40
1.0
 10
10.3519870214
 20
8.6371830464
 30
0.0
 10
10.3519870214
 20
8.6446160679
 30
0.0
 10
10.3526694065
 20
8.6594445275
 30
0.0
 10
10.3557554497
 20
8.6814213469
 30
0.0
 10
10.3608738612
 20
8.7028805081
 30
0.0
 10
10.365626928
 20
8.716758914
 30
0.0
 10
10.3683246589
 20
8.7235435508
 30
0.0
  0
SPLINE
  5
377
100
AcDbEntity
  8
0
100
AcDbSpline
 62
7
  6
CONTINUOUS
 70
0
 71
3
 72
8
 73
4
 74
0
 42
0.0000001
 43
0.0000001
 44
0.0000000001
 40
0.0
 40
0.0
 40
0.0
 40
0.0
 40
1.0
 40
1.0
 40
1.0
 40
1.0
 10
10.3683246589
 20
8.7235435508
 30
0.0
 10
10.368336531
 20
8.7235733899
 30
0.0
 10
10.3683484031
 20
8.723603229
 30
0.0
 10
10.3683602752
 20
8.7236330681
 30
0.0
  0
SPLINE
  5
378
100
AcDbEntity
  8
0
100
AcDbSpline
 62
7
  6
CONTINUOUS
 70
0
 71
3
 72
11
 73
7
 74
0
 42
0.0000001
 43
0.0000001
 44
0.0000000001
 40
0.0
 40
0.0
 40
0.0
 40
0.0
 40
0.2521607862
 40
0.5028257246
 40
0.7520693597
 40
1.0
 40
1.0
 40
1.0
 40
1.0
 10
10.3906612106
 20
8.6471926593
 30
0.0
 10
10.3906612106
 20
8.653399975
 30
0.0
 10
10.3911953014
 20
8.6657846513
 30
0.0
 10
10.3936103027
 20
8.6841631193
 30
0.0
 10
10.3976182904
 20
8.7021547097
 30
0.0
 10
10.4013434379
 20
8.7138331908
 30
0.0
 10
10.4034596614
 20
8.7195577394
 30
0.0
  0
SPLINE
  5
379
100
AcDbEntity
  8
0
100
AcDbSpline
 62
7
  6
CONTINUOUS
 70
0
 71
3
 72
11
 73
7
 74
0
 42
0.0000001
 43
0.0000001
 44
0.0000000001
 40
0.0
 40
0.0
 40
0.0
 40
0.0
 40
0.2520613847
 40
0.5027015502
 40
0.7519832811
 40
1.0
 40
1.0
 40
1.0
 40
1.0
 10
10.398684598
 20
8.6507894443
 30
0.0
 10
10.398684598
 20
8.656576439
 30
0.0
 10
10.3991576102
 20
8.6681235635
 30
0.0
 10
10.4012960986
 20
8.6852747283
 30
0.0
 10
10.4048468098
 20
8.7020953846
 30
0.0
 10
10.4081488688
 20
8.713041862
 30
0.0
 10
10.4100259777
 20
8.7184176996
 30
0.0
  0
SPLINE
  5
37A
100
AcDbEntity
  8
0
100
AcDbSpline
 62
7
  6
CONTINUOUS
 70
0
 71
3
 72
23
 73
19
 74
0
 42
0.0000001
 43
0.0000001
 44
0.0000000001
 40
0.0
 40
0.0
 40
0.0
 40
0.0
 40
0.0614245661
 40
0.1232859531
 40
0.1855568515
 40
0.2481901847
 40
0.3111243428
 40
0.3742852742
 40
0.4375896516
 40
0.5009483382
 40
0.5642700148
 40
0.6274648529
 40
0.6904481451
 40
0.7531438126
 40
0.81548763
 40
0.8774300752
 40
0.9389387314
 40
1.0
 40
1.0
 40
1.0
 40
1.0
 10
10.4503071826
 20
8.690653035
 30
0.0
 10
10.4503071826
 20
8.683500949
 30
0.0
 10
10.4510695328
 20
8.6691348984
 30
0.0
 10
10.4544577344
 20
8.647759506
 30
0.0
 10
10.4600558654
 20
8.6267063746
 30
0.0
 10
10.4678009803
 20
8.6062127913
 30
0.0
 10
10.477606103
 20
8.5865057187
 30
0.0
 10
10.4893618209
 20
8.5678044169
 30
0.0
 10
10.5029370391
 20
8.5503165757
 30
0.0
 10
10.5181806553
 20
8.5342365181
 30
0.0
 10
10.5349232485
 20
8.5197430918
 30
0.0
 10
10.5529786811
 20
8.5069974664
 30
0.0
 10
10.572146394
 20
8.4961416951
 30
0.0
 10
10.5922134896
 20
8.4872969727
 30
0.0
 10
10.6129566784
 20
8.4805622022
 30
0.0
 10
10.6341462082
 20
8.4760132889
 30
0.0
 10
10.6555429751
 20
8.4737015682
 30
0.0
 10
10.6698463984
 20
8.4736700444
 30
0.0
 10
10.6769467739
 20
8.474035705
 30
0.0
  0
SPLINE
  5
37B
100
AcDbEntity
  8
0
100
AcDbSpline
 62
7
  6
CONTINUOUS
 70
0
 71
3
 72
39
 73
35
 74
0
 42
0.0000001
 43
0.0000001
 44
0.0000000001
 40
0.0
 40
0.0
 40
0.0
 40
0.0
 40
0.0313281614
 40
0.0628641203
 40
0.0945965856
 40
0.1265061994
 40
0.1585673748
 40
0.1907491066
 40
0.2230161151
 40
0.2553301373
 40
0.287651269
 40
0.3199393593
 40
0.3521554097
 40
0.3842629354
 40
0.4162292816
 40
0.4480268214
 40
0.4796340302
 40
0.5110363798
 40
0.5422270022
 40
0.5732071183
 40
0.6039861352
 40
0.634581456
 40
0.6650179099
 40
0.6953268687
 40
0.7255450242
 40
0.7557129009
 40
0.7858731604
 40
0.816068789
 40
0.8463412673
 40
0.8767288221
 40
0.9072648631
 40
0.9379766473
 40
0.9688840719
 40
1.0
 40
1.0
 40
1.0
 40
1.0
 10
10.041002029
 20
8.4242945928
 30
0.0
 10
10.041002029
 20
8.4135625381
 30
0.0
 10
10.0420639158
 20
8.3920129332
 30
0.0
 10
10.046788751
 20
8.3599053653
 30
0.0
 10
10.0546043506
 20
8.3281996467
 30
0.0
 10
10.0654346963
 20
8.2972042736
 30
0.0
 10
10.0791749785
 20
8.2672157172
 30
0.0
 10
10.0956926846
 20
8.2385220447
 30
0.0
 10
10.1148287255
 20
8.2113983913
 30
0.0
 10
10.1363992718
 20
8.1861050955
 30
0.0
 10
10.160197031
 20
8.1628847564
 30
0.0
 10
10.1859937282
 20
8.1419604445
 30
0.0
 10
10.2135417642
 20
8.1235330957
 30
0.0
 10
10.242576937
 20
8.1077800519
 30
0.0
 10
10.2728206691
 20
8.0948530755
 30
0.0
 10
10.3039827271
 20
8.0848769919
 30
0.0
 10
10.3357639483
 20
8.0779486319
 30
0.0
 10
10.3678589599
 20
8.0741354747
 30
0.0
 10
10.3999591441
 20
8.0734755434
 30
0.0
 10
10.4317554687
 20
8.0759762438
 30
0.0
 10
10.4629414506
 20
8.0816149114
 30
0.0
 10
10.493216111
 20
8.0903382965
 30
0.0
 10
10.5222868865
 20
8.1020633574
 30
0.0
 10
10.5498725088
 20
8.1166777932
 30
0.0
 10
10.5757059485
 20
8.1340409232
 30
0.0
 10
10.599536899
 20
8.1539853505
 30
0.0
 10
10.6211347284
 20
8.1763180907
 30
0.0
 10
10.6402903592
 20
8.2008230834
 30
0.0
 10
10.6568189133
 20
8.2272628441
 30
0.0
 10
10.6705610668
 20
8.2553814456
 30
0.0
 10
10.6813849017
 20
8.2849064249
 30
0.0
 10
10.6891869652
 20
8.3155532924
 30
0.0
 10
10.6938931929
 20
8.347022225
 30
0.0
 10
10.6949338522
 20
8.3682849167
 30
0.0
 10
10.6949338522
 20
8.3789442669
 30
0.0
  0
SPLINE
  5
37C
100
AcDbEntity
  8
0
100
AcDbSpline
 62
7
  6
CONTINUOUS
 70
0
 71
3
 72
41
 73
37
 74
0
 42
0.0000001
 43
0.0000001
 44
0.0000000001
 40
0.0
 40
0.0
 40
0.0
 40
0.0
 40
0.0310750003
 40
0.046674464
 40
0.062312494
 40
0.0936974057
 40
0.1252262387
 40
0.1568876805
 40
0.1886675201
 40
0.2205491599
 40
0.2525139229
 40
0.268523588
 40
0.2845462912
 40
0.3166149974
 40
0.3487024468
 40
0.3807858411
 40
0.4128424624
 40
0.4448501254
 40
0.4767876212
 40
0.5086351486
 40
0.5403747235
 40
0.5719905626
 40
0.6034694315
 40
0.6348009518
 40
0.6659778585
 40
0.6969962
 40
0.7278554736
 40
0.7585586902
 40
0.7891123605
 40
0.8195263996
 40
0.849813947
 40
0.8799911023
 40
0.9100765789
 40
0.9400912834
 40
0.9700578297
 40
1.0
 40
1.0
 40
1.0
 40
1.0
 10
10.0547906082
 20
8.4278633384
 30
0.0
 10
10.0547906082
 20
8.4199938109
 30
0.0
 10
10.0552304968
 20
8.4081678873
 30
0.0
 10
10.0566832828
 20
8.3924522181
 30
0.0
 10
10.0587189335
 20
8.3767215035
 30
0.0
 10
10.0623477127
 20
8.3571434389
 30
0.0
 10
10.0684005208
 20
8.3339496678
 30
0.0
 10
10.076123735
 20
8.3111514495
 30
0.0
 10
10.08547481
 20
8.2888745109
 30
0.0
 10
10.0964018476
 20
8.2672414993
 30
0.0
 10
10.1067671552
 20
8.2498561561
 30
0.0
 10
10.1157826713
 20
8.2363849767
 30
0.0
 10
10.1252758363
 20
8.2232135465
 30
0.0
 10
10.1379996655
 20
8.207367276
 30
0.0
 10
10.1545497572
 20
8.1894503805
 30
0.0
 10
10.1722969883
 20
8.172722094
 30
0.0
 10
10.1911435372
 20
8.1572748543
 30
0.0
 10
10.2109861001
 20
8.1431933307
 30
0.0
 10
10.2317157733
 20
8.1305549324
 30
0.0
 10
10.2532188249
 20
8.1194291277
 30
0.0
 10
10.2753772627
 20
8.1098771337
 30
0.0
 10
10.2980694855
 20
8.1019515621
 30
0.0
 10
10.321170938
 20
8.0956961344
 30
0.0
 10
10.3445547852
 20
8.0911454367
 30
0.0
 10
10.3680925986
 20
8.0883247252
 30
0.0
 10
10.3916550522
 20
8.0872497786
 30
0.0
 10
10.4151126246
 20
8.0879268008
 30
0.0
 10
10.4383363041
 20
8.0903523741
 30
0.0
 10
10.4611982947
 20
8.094513457
 30
0.0
 10
10.4835727226
 20
8.1003874447
 30
0.0
 10
10.5053363208
 20
8.1079422664
 30
0.0
 10
10.5263691592
 20
8.1171365857
 30
0.0
 10
10.5465551613
 20
8.1279198599
 30
0.0
 10
10.5657833432
 20
8.1402331807
 30
0.0
 10
10.5839462789
 20
8.1540074613
 30
0.0
 10
10.5952828168
 20
8.1641183628
 30
0.0
 10
10.6007366839
 20
8.169386366
 30
0.0
  0
SPLINE
  5
37D
100
AcDbEntity
  8
0
100
AcDbSpline
 62
7
  6
CONTINUOUS
 70
0
 71
3
 72
44
 73
40
 74
0
 42
0.0000001
 43
0.0000001
 44
0.0000000001
 40
0.0
 40
0.0
 40
0.0
 40
0.0
 40
0.0310315912
 40
0.0466074312
 40
0.0622205917
 40
0.0935528579
 40
0.1250253994
 40
0.1566278604
 40
0.18834723
 40
0.2201682739
 40
0.2520738012
 40
0.2840450206
 40
0.3160619019
 40
0.3481035586
 40
0.3801486412
 40
0.4121757361
 40
0.4441637657
 40
0.4760923842
 40
0.5079423636
 40
0.5396959646
 40
0.5713372875
 40
0.6028525954
 40
0.6342306064
 40
0.6654627461
 40
0.6965433551
 40
0.727469845
 40
0.7582427966
 40
0.7888659956
 40
0.8193463995
 40
0.8345387205
 40
0.8496993469
 40
0.8648299882
 40
0.8799325071
 40
0.9100560024
 40
0.9400930982
 40
0.955088134
 40
0.9700691454
 40
0.9850388414
 40
1.0
 40
1.0
 40
1.0
 40
1.0
 10
10.0869132616
 20
8.4588914408
 30
0.0
 10
10.0869132616
 20
8.4512602342
 30
0.0
 10
10.087326867
 20
8.439793235
 30
0.0
 10
10.0886933122
 20
8.4245509841
 30
0.0
 10
10.0906080163
 20
8.4092926723
 30
0.0
 10
10.0940216455
 20
8.3902954018
 30
0.0
 10
10.0997177396
 20
8.3677697443
 30
0.0
 10
10.1069891072
 20
8.3456016265
 30
0.0
 10
10.1157979714
 20
8.3239061894
 30
0.0
 10
10.1260987115
 20
8.3027952393
 30
0.0
 10
10.1378380232
 20
8.2823777898
 30
0.0
 10
10.1509552063
 20
8.2627592048
 30
0.0
 10
10.165382476
 20
8.2440407433
 30
0.0
 10
10.18104531
 20
8.22631902
 30
0.0
 10
10.1978628307
 20
8.2096855181
 30
0.0
 10
10.2157482186
 20
8.1942261196
 30
0.0
 10
10.2346091564
 20
8.1800206673
 30
0.0
 10
10.2543483007
 20
8.1671425548
 30
0.0
 10
10.2748637786
 20
8.1556583514
 30
0.0
 10
10.2960497074
 20
8.1456274595
 30
0.0
 10
10.3177967346
 20
8.1371018091
 30
0.0
 10
10.3399925948
 20
8.1301255889
 30
0.0
 10
10.3625226828
 20
8.1247350172
 30
0.0
 10
10.3852706309
 20
8.1209581479
 30
0.0
 10
10.4081189278
 20
8.1188147293
 30
0.0
 10
10.4309494241
 20
8.1183160659
 30
0.0
 10
10.4536442855
 20
8.1194650564
 30
0.0
 10
10.4760853053
 20
8.1222557748
 30
0.0
 10
10.4945011947
 20
8.1259425978
 30
0.0
 10
10.5089857163
 20
8.1296956721
 30
0.0
 10
10.5197034135
 20
8.1329050955
 30
0.0
 10
10.5302721137
 20
8.136507687
 30
0.0
 10
10.5441332468
 20
8.1418240348
 30
0.0
 10
10.5610279724
 20
8.1494288986
 30
0.0
 10
10.5772715137
 20
8.1582858048
 30
0.0
 10
10.5898042285
 20
8.1660849482
 30
0.0
 10
10.5989599205
 20
8.1722820604
 30
0.0
 10
10.6078637979
 20
8.1788212359
 30
0.0
 10
10.6136259118
 20
8.1834045787
 30
0.0
 10
10.6164606649
 20
8.1857499464
 30
0.0
  0
SPLINE
  5
37E
100
AcDbEntity
  8
0
100
AcDbSpline
 62
7
  6
CONTINUOUS
 70
0
 71
3
 72
40
 73
36
 74
0
 42
0.0000001
 43
0.0000001
 44
0.0000000001
 40
0.0
 40
0.0
 40
0.0
 40
0.0
 40
0.0310751026
 40
0.0466747499
 40
0.0623128135
 40
0.0936978535
 40
0.1252268452
 40
0.1568884395
 40
0.1886684333
 40
0.2205502276
 40
0.2525151451
 40
0.284542837
 40
0.3166116973
 40
0.3486993002
 40
0.3807828479
 40
0.4128396226
 40
0.444847439
 40
0.4767850884
 40
0.5086327693
 40
0.5403724975
 40
0.5719884894
 40
0.6034675105
 40
0.6347991821
 40
0.6659762393
 40
0.6969947303
 40
0.7278541529
 40
0.758557518
 40
0.7891113365
 40
0.8195255235
 40
0.8498132183
 40
0.8799905205
 40
0.9100761434
 40
0.9400909936
 40
0.970057685
 40
1.0
 40
1.0
 40
1.0
 40
1.0
 10
10.1380463535
 20
8.4665322177
 30
0.0
 10
10.1380463535
 20
8.4596621008
 30
0.0
 10
10.138430379
 20
8.4493380112
 30
0.0
 10
10.1396986676
 20
8.4356181683
 30
0.0
 10
10.1414757899
 20
8.4218851841
 30
0.0
 10
10.1446437333
 20
8.4047934716
 30
0.0
 10
10.1499278466
 20
8.3845452298
 30
0.0
 10
10.1566702597
 20
8.3646422742
 30
0.0
 10
10.1648337252
 20
8.3451945095
 30
0.0
 10
10.1743732974
 20
8.326308483
 30
0.0
 10
10.1852364948
 20
8.3080878749
 30
0.0
 10
10.1973636044
 20
8.2906326478
 30
0.0
 10
10.210688005
 20
8.2740385835
 30
0.0
 10
10.2251365308
 20
8.258396742
 30
0.0
 10
10.2406298692
 20
8.2437929734
 30
0.0
 10
10.2570829922
 20
8.2303074497
 30
0.0
 10
10.2744056177
 20
8.2180142293
 30
0.0
 10
10.2925026995
 20
8.2069808541
 30
0.0
 10
10.3112749429
 20
8.1972679811
 30
0.0
 10
10.3306193421
 20
8.188929051
 30
0.0
 10
10.3504297385
 20
8.1820099953
 30
0.0
 10
10.3705973945
 20
8.176548983
 30
0.0
 10
10.3910115822
 20
8.1725762079
 30
0.0
 10
10.411560183
 20
8.170113718
 30
0.0
 10
10.4321302945
 20
8.1691752875
 30
0.0
 10
10.4526088442
 20
8.1697663311
 30
0.0
 10
10.4728832051
 20
8.1718838633
 30
0.0
 10
10.4928418111
 20
8.1755165001
 30
0.0
 10
10.5123747735
 20
8.1806445095
 30
0.0
 10
10.5313744792
 20
8.1872398948
 30
0.0
 10
10.5497362286
 20
8.1952665692
 30
0.0
 10
10.5673586844
 20
8.2046804107
 30
0.0
 10
10.5841449631
 20
8.2154299853
 30
0.0
 10
10.6000012575
 20
8.2274550041
 30
0.0
 10
10.6098981321
 20
8.2362818249
 30
0.0
 10
10.6146593524
 20
8.2408808391
 30
0.0
  0
SPLINE
  5
37F
100
AcDbEntity
  8
0
100
AcDbSpline
 62
7
  6
CONTINUOUS
 70
0
 71
3
 72
41
 73
37
 74
0
 42
0.0000001
 43
0.0000001
 44
0.0000000001
 40
0.0
 40
0.0
 40
0.0
 40
0.0
 40
0.0309273043
 40
0.0619964414
 40
0.0932030003
 40
0.1245413157
 40
0.1560027921
 40
0.1875770387
 40
0.2192516745
 40
0.2510126914
 40
0.2828446523
 40
0.3147309671
 40
0.3466541639
 40
0.3785961757
 40
0.4105386326
 40
0.4424631574
 40
0.4743516613
 40
0.5061866369
 40
0.5379514437
 40
0.5696305849
 40
0.6012099696
 40
0.6326771576
 40
0.6640215841
 40
0.6952347587
 40
0.7263104348
 40
0.7572447472
 40
0.7880363111
 40
0.8186862814
 40
0.8491983667
 40
0.864406798
 40
0.8795832999
 40
0.9098407446
 40
0.9399861813
 40
0.9550232349
 40
0.970037368
 40
1.0
 40
1.0
 40
1.0
 40
1.0
 10
10.2281800115
 20
8.553594651
 30
0.0
 10
10.2281800115
 20
8.5474124851
 30
0.0
 10
10.2285948631
 20
8.5350159371
 30
0.0
 10
10.2304487251
 20
8.5164648768
 30
0.0
 10
10.23352731
 20
8.497993371
 30
0.0
 10
10.237816668
 20
8.4796847912
 30
0.0
 10
10.2432976733
 20
8.4616202585
 30
0.0
 10
10.2499457803
 20
8.4438802394
 30
0.0
 10
10.2577313394
 20
8.426543617
 30
0.0
 10
10.2666196242
 20
8.4096875054
 30
0.0
 10
10.2765710341
 20
8.3933868684
 30
0.0
 10
10.2875412504
 20
8.3777141997
 30
0.0
 10
10.2994814398
 20
8.3627392011
 30
0.0
 10
10.3123384678
 20
8.3485284765
 30
0.0
 10
10.3260551342
 20
8.3351452377
 30
0.0
 10
10.3405704254
 20
8.3226490261
 30
0.0
 10
10.3558197834
 20
8.3110954493
 30
0.0
 10
10.3717353904
 20
8.3005359364
 30
0.0
 10
10.3882464669
 20
8.2910175085
 30
0.0
 10
10.4052795838
 20
8.2825825715
 30
0.0
 10
10.4227589862
 20
8.2752687282
 30
0.0
 10
10.4406069264
 20
8.2691086114
 30
0.0
 10
10.4587440067
 20
8.2641297379
 30
0.0
 10
10.4770895242
 20
8.2603543841
 30
0.0
 10
10.4955618426
 20
8.2577994879
 30
0.0
 10
10.514078688
 20
8.256476557
 30
0.0
 10
10.5325577472
 20
8.2563916613
 30
0.0
 10
10.5509161583
 20
8.2575452254
 30
0.0
 10
10.5660646625
 20
8.2595369798
 30
0.0
 10
10.5780380804
 20
8.261743268
 30
0.0
 10
10.5898787797
 20
8.2643493954
 30
0.0
 10
10.6044578742
 20
8.2683601004
 30
0.0
 10
10.6186960379
 20
8.2733674405
 30
0.0
 10
10.6298235312
 20
8.2779527201
 30
0.0
 10
10.6407490871
 20
8.2829112507
 30
0.0
 10
10.6487366212
 20
8.2870594403
 30
0.0
 10
10.6539505034
 20
8.2900069063
 30
0.0
  0
SPLINE
  5
380
100
AcDbEntity
  8
0
100
AcDbSpline
 62
7
  6
CONTINUOUS
 70
0
 71
3
 72
41
 73
37
 74
0
 42
0.0000001
 43
0.0000001
 44
0.0000000001
 40
0.0
 40
0.0
 40
0.0
 40
0.0
 40
0.0310227477
 40
0.0621972858
 40
0.0935188053
 40
0.1249799355
 40
0.1565703689
 40
0.1882773888
 40
0.2200860213
 40
0.251979383
 40
0.2839389996
 40
0.3159451649
 40
0.3479773102
 40
0.380014388
 40
0.4120352593
 40
0.4440190845
 40
0.4759457082
 40
0.507796037
 40
0.5395524021
 40
0.5711989031
 40
0.6027217263
 40
0.6341094329
 40
0.6653532096
 40
0.6964470769
 40
0.727388048
 40
0.7581762327
 40
0.7888148816
 40
0.819310364
 40
0.8496720789
 40
0.864809143
 40
0.8799175892
 40
0.910051215
 40
0.9400955017
 40
0.9550928028
 40
0.9700751197
 40
1.0
 40
1.0
 40
1.0
 40
1.0
 10
10.2732181604
 20
8.5652513772
 30
0.0
 10
10.2732181604
 20
8.5593673362
 30
0.0
 10
10.2736409691
 20
8.5475662574
 30
0.0
 10
10.2755293034
 20
8.5299154734
 30
0.0
 10
10.278663538
 20
8.5123576441
 30
0.0
 10
10.2830274943
 20
8.4949835008
 30
0.0
 10
10.2885988038
 20
8.4778812635
 30
0.0
 10
10.2953489249
 20
8.4611381756
 30
0.0
 10
10.3032433525
 20
8.4448395187
 30
0.0
 10
10.3122417628
 20
8.4290683318
 30
0.0
 10
10.3222982329
 20
8.4139049541
 30
0.0
 10
10.3333614684
 20
8.3994266307
 30
0.0
 10
10.345375065
 20
8.3857071208
 30
0.0
 10
10.3582777929
 20
8.3728163267
 30
0.0
 10
10.3720039066
 20
8.3608199403
 30
0.0
 10
10.3864834768
 20
8.3497791121
 30
0.0
 10
10.4016427424
 20
8.3397501419
 30
0.0
 10
10.4174044829
 20
8.3307841941
 30
0.0
 10
10.433688407
 20
8.3229270381
 30
0.0
 10
10.4504115566
 20
8.3162188161
 30
0.0
 10
10.4674887245
 20
8.3106938382
 30
0.0
 10
10.4848328823
 20
8.3063804064
 30
0.0
 10
10.5023556192
 20
8.303300668
 30
0.0
 10
10.5199675823
 20
8.3014704977
 30
0.0
 10
10.5375789448
 20
8.3008994175
 30
0.0
 10
10.5550997915
 20
8.3015905166
 30
0.0
 10
10.5724408253
 20
8.3035405204
 30
0.0
 10
10.5895128909
 20
8.3067394524
 30
0.0
 10
10.6034591813
 20
8.3104370849
 30
0.0
 10
10.6143905703
 20
8.3140007378
 30
0.0
 10
10.6251404273
 20
8.3179558694
 30
0.0
 10
10.6382562055
 20
8.3236382538
 30
0.0
 10
10.650886518
 20
8.3302858205
 30
0.0
 10
10.6606444682
 20
8.3361552475
 30
0.0
 10
10.67015248
 20
8.3423791492
 30
0.0
 10
10.6770092242
 20
8.3474505172
 30
0.0
 10
10.6814399645
 20
8.3509978205
 30
0.0
  0
SPLINE
  5
381
100
AcDbEntity
  8
0
100
AcDbSpline
 62
7
  6
CONTINUOUS
 70
0
 71
3
 72
41
 73
37
 74
0
 42
0.0000001
 43
0.0000001
 44
0.0000000001
 40
0.0
 40
0.0
 40
0.0
 40
0.0
 40
0.0310247478
 40
0.0622014985
 40
0.0935254374
 40
0.1249891522
 40
0.1565822971
 40
0.1882921015
 40
0.2201035325
 40
0.2519996414
 40
0.2839618851
 40
0.3159704878
 40
0.3480048121
 40
0.3800437451
 40
0.4120660886
 40
0.4440509511
 40
0.4759781358
 40
0.5078285197
 40
0.5395844184
 40
0.5712299306
 40
0.6027512586
 40
0.6341369965
 40
0.6653783816
 40
0.6964695024
 40
0.7274074569
 40
0.7581924559
 40
0.788827864
 40
0.8193201771
 40
0.8496789286
 40
0.8648146406
 40
0.879921839
 40
0.9100533338
 40
0.9400961141
 40
0.955092946
 40
0.9700749979
 40
1.0
 40
1.0
 40
1.0
 40
1.0
 10
10.2812415477
 20
8.5688481622
 30
0.0
 10
10.2812415477
 20
8.5630516611
 30
0.0
 10
10.2816586608
 20
8.5514261037
 30
0.0
 10
10.2835215344
 20
8.5340380495
 30
0.0
 10
10.2866134742
 20
8.5167419506
 30
0.0
 10
10.2909184769
 20
8.4996274381
 30
0.0
 10
10.2964144117
 20
8.4827816611
 30
0.0
 10
10.3030730442
 20
8.4662907979
 30
0.0
 10
10.3108602399
 20
8.4502390836
 30
0.0
 10
10.3197361103
 20
8.4347085306
 30
0.0
 10
10.3296552295
 20
8.4197784769
 30
0.0
 10
10.3405668604
 20
8.4055251945
 30
0.0
 10
10.3524152139
 20
8.3920215022
 30
0.0
 10
10.3651397315
 20
8.3793363978
 30
0.0
 10
10.3786753922
 20
8.3675347086
 30
0.0
 10
10.3929530415
 20
8.3566767637
 30
0.0
 10
10.4078997409
 20
8.3468180879
 30
0.0
 10
10.4234391368
 20
8.33800912
 30
0.0
 10
10.439491846
 20
8.3302949568
 30
0.0
 10
10.4559758564
 20
8.3237151227
 30
0.0
 10
10.4728069406
 20
8.3183033681
 30
0.0
 10
10.4898990805
 20
8.3140874954
 30
0.0
 10
10.5071649022
 20
8.3110892145
 30
0.0
 10
10.5245161121
 20
8.3093240271
 30
0.0
 10
10.541863961
 20
8.308801148
 30
0.0
 10
10.5591196264
 20
8.3095234264
 30
0.0
 10
10.576194911
 20
8.3114874165
 30
0.0
 10
10.5930017754
 20
8.3146830393
 30
0.0
 10
10.6067281578
 20
8.3183634495
 30
0.0
 10
10.6174850497
 20
8.3219046422
 30
0.0
 10
10.6280619108
 20
8.3258316538
 30
0.0
 10
10.6409637967
 20
8.3314681779
 30
0.0
 10
10.6533838928
 20
8.3380555841
 30
0.0
 10
10.6629767511
 20
8.3438684859
 30
0.0
 10
10.6723221425
 20
8.3500304956
 30
0.0
 10
10.6790593225
 20
8.3550491632
 30
0.0
 10
10.6834117079
 20
8.3585586306
 30
0.0
  0
SPLINE
  5
382
100
AcDbEntity
  8
0
100
AcDbSpline
 62
7
  6
CONTINUOUS
 70
0
 71
3
 72
23
 73
19
 74
0
 42
0.0000001
 43
0.0000001
 44
0.0000000001
 40
0.0
 40
0.0
 40
0.0
 40
0.0
 40
0.0640190137
 40
0.1278948541
 40
0.1916026676
 40
0.2551280157
 40
0.3184538932
 40
0.3815672069
 40
0.4444570397
 40
0.5071151424
 40
0.5695360975
 40
0.6317173453
 40
0.6936592799
 40
0.7553653031
 40
0.8168416908
 40
0.8780979596
 40
0.9391458674
 40
1.0
 40
1.0
 40
1.0
 40
1.0
 10
10.4811038762
 20
8.4138997429
 30
0.0
 10
10.4850738724
 20
8.4115252118
 30
0.0
 10
10.4931308584
 20
8.4069882923
 30
0.0
 10
10.5055408952
 20
8.400836574
 30
0.0
 10
10.518226551
 20
8.3953637227
 30
0.0
 10
10.5311479103
 20
8.390586841
 30
0.0
 10
10.5442653638
 20
8.3865207227
 30
0.0
 10
10.557538248
 20
8.3831779887
 30
0.0
 10
10.5709255541
 20
8.3805690048
 30
0.0
 10
10.5843858819
 20
8.3787018782
 30
0.0
 10
10.597877605
 20
8.3775824302
 30
0.0
 10
10.6113589938
 20
8.3772141859
 30
0.0
 10
10.6247883365
 20
8.3775983534
 30
0.0
 10
10.6381240805
 20
8.3787337929
 30
0.0
 10
10.6513249254
 20
8.380617004
 30
0.0
 10
10.6643501332
 20
8.383242298
 30
0.0
 10
10.6771587916
 20
8.3866013624
 30
0.0
 10
10.6855409587
 20
8.3893275969
 30
0.0
 10
10.6896810978
 20
8.3908091511
 30
0.0
  0
SPLINE
  5
383
100
AcDbEntity
  8
0
100
AcDbSpline
 62
7
  6
CONTINUOUS
 70
0
 71
3
 72
21
 73
17
 74
0
 42
0.0000001
 43
0.0000001
 44
0.0000000001
 40
0.0
 40
0.0
 40
0.0
 40
0.0
 40
0.0611358719
 40
0.1225259113
 40
0.1841619955
 40
0.2460370541
 40
0.3081379976
 40
0.370449707
 40
0.432953815
 40
0.4956294516
 40
0.6213500406
 40
0.7474551669
 40
0.8106063662
 40
0.8737667611
 40
0.9369086785
 40
1.0
 40
1.0
 40
1.0
 40
1.0
 10
10.3519870214
 20
8.6371830464
 30
0.0
 10
10.3519870214
 20
8.6323073767
 30
0.0
 10
10.3522819764
 20
8.622533281
 30
0.0
 10
10.3536010643
 20
8.6078972056
 30
0.0
 10
10.3557930265
 20
8.5933061365
 30
0.0
 10
10.358849682
 20
8.5788137391
 30
0.0
 10
10.3627600345
 20
8.564472183
 30
0.0
 10
10.3675097216
 20
8.5503336087
 30
0.0
 10
10.3730818192
 20
8.5364487008
 30
0.0
 10
10.3815871312
 20
8.5183266
 30
0.0
 10
10.3941703186
 20
8.4965631807
 30
0.0
 10
10.4091478686
 20
8.4763265138
 30
0.0
 10
10.4224485011
 20
8.4612041059
 30
0.0
 10
10.4330539962
 20
8.4504307681
 30
0.0
 10
10.4442435504
 20
8.4402738726
 30
0.0
 10
10.4520713169
 20
8.4339332687
 30
0.0
 10
10.4560689103
 20
8.4308777097
 30
0.0
  0
SPLINE
  5
384
100
AcDbEntity
  8
0
100
AcDbSpline
 62
7
  6
CONTINUOUS
 70
0
 71
3
 72
37
 73
33
 74
0
 42
0.0000001
 43
0.0000001
 44
0.0000000001
 40
0.0
 40
0.0
 40
0.0
 40
0.0
 40
0.0308100313
 40
0.0617507115
 40
0.0928161268
 40
0.1240036238
 40
0.1553060288
 40
0.1867154569
 40
0.2182223358
 40
0.2498157358
 40
0.281483565
 40
0.3132126982
 40
0.3449891763
 40
0.3767983987
 40
0.4404289166
 40
0.504008043
 40
0.5357537454
 40
0.567442495
 40
0.5990608864
 40
0.6305964696
 40
0.6620379299
 40
0.6933752621
 40
0.7245999203
 40
0.7557049487
 40
0.7866850946
 40
0.8175369092
 40
0.8482588266
 40
0.8788512059
 40
0.909316347
 40
0.9396584765
 40
0.9698837132
 40
1.0
 40
1.0
 40
1.0
 40
1.0
 10
10.3906612106
 20
8.6471926593
 30
0.0
 10
10.3906612106
 20
8.6427912225
 30
0.0
 10
10.3909310133
 20
8.6339673834
 30
0.0
 10
10.3921373363
 20
8.6207552625
 30
0.0
 10
10.3941418785
 20
8.60758553
 30
0.0
 10
10.39693681
 20
8.5945080048
 30
0.0
 10
10.400511897
 20
8.581570941
 30
0.0
 10
10.4048537284
 20
8.568822538
 30
0.0
 10
10.4099461177
 20
8.5563101247
 30
0.0
 10
10.4157700823
 20
8.5440801962
 30
0.0
 10
10.4223039696
 20
8.5321781564
 30
0.0
 10
10.4295233907
 20
8.5206483258
 30
0.0
 10
10.437401881
 20
8.5095331743
 30
0.0
 10
10.4487443081
 20
8.4953228374
 30
0.0
 10
10.4644141662
 20
8.4788032942
 30
0.0
 10
10.4818525194
 20
8.4641766076
 30
0.0
 10
10.4967082788
 20
8.4537438936
 30
0.0
 10
10.5082560075
 20
8.4465849593
 30
0.0
 10
10.520169652
 20
8.4401164913
 30
0.0
 10
10.5324053556
 20
8.4343622316
 30
0.0
 10
10.5449175589
 20
8.4293437042
 30
0.0
 10
10.5576597925
 20
8.4250795573
 30
0.0
 10
10.5705847027
 20
8.4215856934
 30
0.0
 10
10.5836442613
 20
8.4188751595
 30
0.0
 10
10.5967899293
 20
8.4169581213
 30
0.0
 10
10.6099728318
 20
8.4158417787
 30
0.0
 10
10.62314394
 20
8.4155303299
 30
0.0
 10
10.636254277
 20
8.4160250092
 30
0.0
 10
10.649255016
 20
8.417324043
 30
0.0
 10
10.6620979433
 20
8.4194227599
 30
0.0
 10
10.6747345811
 20
8.4223132037
 30
0.0
 10
10.6830057923
 20
8.4247655461
 30
0.0
 10
10.687089465
 20
8.4261196746
 30
0.0
  0
SPLINE
  5
385
100
AcDbEntity
  8
0
100
AcDbSpline
 62
7
  6
CONTINUOUS
 70
0
 71
3
 72
37
 73
33
 74
0
 42
0.0000001
 43
0.0000001
 44
0.0000000001
 40
0.0
 40
0.0
 40
0.0
 40
0.0
 40
0.0307985524
 40
0.0617266061
 40
0.0927781911
 40
0.1239508554
 40
0.1552375927
 40
0.1866307203
 40
0.2181209282
 40
0.2496975644
 40
0.281348842
 40
0.3130619537
 40
0.3448232657
 40
0.3766185068
 40
0.4402263659
 40
0.5037911663
 40
0.5355331788
 40
0.5672209591
 40
0.5988412154
 40
0.630381554
 40
0.6618306618
 40
0.6931784691
 40
0.7244162938
 40
0.7555369701
 40
0.7865349678
 40
0.8174064987
 40
0.8481495872
 40
0.878764117
 40
0.9092518518
 40
0.9396164406
 40
0.9698633904
 40
1.0
 40
1.0
 40
1.0
 40
1.0
 10
10.398684598
 20
8.6507894443
 30
0.0
 10
10.398684598
 20
8.6465099154
 30
0.0
 10
10.3989444832
 20
8.6379306665
 30
0.0
 10
10.4001065313
 20
8.6250841026
 30
0.0
 10
10.4020376105
 20
8.6122774847
 30
0.0
 10
10.404730303
 20
8.5995583769
 30
0.0
 10
10.4081749445
 20
8.586972836
 30
0.0
 10
10.4123588468
 20
8.5745668892
 30
0.0
 10
10.4172666931
 20
8.5623857421
 30
0.0
 10
10.4228805316
 20
8.5504738247
 30
0.0
 10
10.4291798771
 20
8.5388745454
 30
0.0
 10
10.4361416591
 20
8.5276303071
 30
0.0
 10
10.4437408121
 20
8.5167817534
 30
0.0
 10
10.4546843574
 20
8.5028987638
 30
0.0
 10
10.4698097847
 20
8.4867324418
 30
0.0
 10
10.4866530911
 20
8.4723758594
 30
0.0
 10
10.5010110466
 20
8.46210376
 30
0.0
 10
10.5121772593
 20
8.455036389
 30
0.0
 10
10.5237029631
 20
8.4486300356
 30
0.0
 10
10.5355465121
 20
8.4429077853
 30
0.0
 10
10.547664607
 20
8.4378906109
 30
0.0
 10
10.5600130811
 20
8.4335968216
 30
0.0
 10
10.572546894
 20
8.4300421368
 30
0.0
 10
10.585220335
 20
8.4272395993
 30
0.0
 10
10.5979871667
 20
8.4251995065
 30
0.0
 10
10.6108007989
 20
8.4239293388
 30
0.0
 10
10.6236144631
 20
8.4234337933
 30
0.0
 10
10.6363813949
 20
8.4237147577
 30
0.0
 10
10.6490549241
 20
8.4247712945
 30
0.0
 10
10.661588925
 20
8.4265996597
 30
0.0
 10
10.6739369669
 20
8.4291930432
 30
0.0
 10
10.6820304959
 20
8.4314300132
 30
0.0
 10
10.6860294558
 20
8.4326725502
 30
0.0
  0
SPLINE
  5
386
100
AcDbEntity
  8
0
100
AcDbSpline
 62
7
  6
CONTINUOUS
 70
0
 71
3
 72
26
 73
22
 74
0
 42
0.0000001
 43
0.0000001
 44
0.0000000001
 40
0.0
 40
0.0
 40
0.0
 40
0.0
 40
0.0614444942
 40
0.1233312674
 40
0.1856318489
 40
0.2482974647
 40
0.3112642637
 40
0.3744556441
 40
0.4377855829
 40
0.501162309
 40
0.5644921255
 40
0.6276832674
 40
0.6906497219
 40
0.7533148901
 40
0.8156149163
 40
0.8466228325
 40
0.8775228809
 40
0.908311904
 40
0.9389879821
 40
0.9695504601
 40
1.0
 40
1.0
 40
1.0
 40
1.0
 10
10.4380597355
 20
8.6888229088
 30
0.0
 10
10.4380597355
 20
8.6812335608
 30
0.0
 10
10.4388791183
 20
8.6659882539
 30
0.0
 10
10.4425200045
 20
8.6433104413
 30
0.0
 10
10.4485343808
 20
8.6209854994
 30
0.0
 10
10.4568528348
 20
8.599271475
 30
0.0
 10
10.4673795979
 20
8.5784149849
 30
0.0
 10
10.4799942139
 20
8.5586540176
 30
0.0
 10
10.4945523734
 20
8.5402135945
 30
0.0
 10
10.5108879752
 20
8.5233039301
 30
0.0
 10
10.5288147929
 20
8.5081178495
 30
0.0
 10
10.5481283465
 20
8.4948286025
 30
0.0
 10
10.568609122
 20
8.4835881065
 30
0.0
 10
10.5900220163
 20
8.4745252903
 30
0.0
 10
10.6084757734
 20
8.4688639575
 30
0.0
 10
10.6234547433
 20
8.4655214621
 30
0.0
 10
10.634750037
 20
8.463615142
 30
0.0
 10
10.6460891311
 20
8.4623116194
 30
0.0
 10
10.6574400597
 20
8.4616145645
 30
0.0
 10
10.668769787
 20
8.4615260814
 30
0.0
 10
10.6763020614
 20
8.4618736294
 30
0.0
 10
10.680052947
 20
8.4621491404
 30
0.0
  0
SPLINE
  5
387
100
AcDbEntity
  8
0
100
AcDbSpline
 62
7
  6
CONTINUOUS
 70
0
 71
3
 72
23
 73
19
 74
0
 42
0.0000001
 43
0.0000001
 44
0.0000000001
 40
0.0
 40
0.0
 40
0.0
 40
0.0
 40
0.0616452429
 40
0.123609246
 40
0.1858619617
 40
0.2483678599
 40
0.3110843369
 40
0.373963588
 40
0.4369536644
 40
0.4999998511
 40
0.5630460304
 40
0.6260360848
 40
0.6889152976
 40
0.7516317284
 40
0.8141375405
 40
0.8763902528
 40
0.9383538894
 40
1.0
 40
1.0
 40
1.0
 40
1.0
 10
10.5330720335
 20
8.6683309559
 30
0.0
 10
10.5335325878
 20
8.6649773608
 30
0.0
 10
10.5347317557
 20
8.6582875179
 30
0.0
 10
10.5373391264
 20
8.6484093414
 30
0.0
 10
10.5407424248
 20
8.638725672
 30
0.0
 10
10.5449178534
 20
8.6293041511
 30
0.0
 10
10.5498366112
 20
8.6202094188
 30
0.0
 10
10.5554647081
 20
8.6115041682
 30
0.0
 10
10.5617633247
 20
8.6032483283
 30
0.0
 10
10.568689037
 20
8.5954987588
 30
0.0
 10
10.5761941248
 20
8.5883088386
 30
0.0
 10
10.584226894
 20
8.5817281088
 30
0.0
 10
10.5927320224
 20
8.5758019351
 30
0.0
 10
10.6016509625
 20
8.5705711949
 30
0.0
 10
10.6109222349
 20
8.5660720134
 30
0.0
 10
10.6204822296
 20
8.5623354575
 30
0.0
 10
10.6302642092
 20
8.5593875371
 30
0.0
 10
10.6369085578
 20
8.5579575007
 30
0.0
 10
10.6402442383
 20
8.557381074
 30
0.0
  0
SPLINE
  5
388
100
AcDbEntity
  8
0
100
AcDbSpline
 62
7
  6
CONTINUOUS
 70
0
 71
3
 72
33
 73
29
 74
0
 42
0.0000001
 43
0.0000001
 44
0.0000000001
 40
0.0
 40
0.0
 40
0.0
 40
0.0
 40
0.0958076183
 40
0.1890186003
 40
0.2790584748
 40
0.3653819713
 40
0.4474850725
 40
0.5249097113
 40
0.5617408518
 40
0.597255611
 40
0.6314135152
 40
0.6641782965
 40
0.6955187903
 40
0.7254092165
 40
0.7538296651
 40
0.7807672422
 40
0.8062163263
 40
0.8301806813
 40
0.8526739264
 40
0.8737227305
 40
0.8933681895
 40
0.9116702829
 40
0.9287108795
 40
0.9445993616
 40
0.9594768597
 40
0.9735208019
 40
0.9869458357
 40
1.0
 40
1.0
 40
1.0
 40
1.0
 10
10.4240948141
 20
10.1210516052
 30
0.0
 10
10.4297567428
 20
10.1206589491
 30
0.0
 10
10.4409188986
 20
10.119758379
 30
0.0
 10
10.4573615961
 20
10.1180358045
 30
0.0
 10
10.4731984705
 20
10.1159695118
 30
0.0
 10
10.4883233388
 20
10.1135743555
 30
0.0
 10
10.5026358398
 20
10.1108675745
 30
0.0
 10
10.5139900824
 20
10.1083280667
 30
0.0
 10
10.5225899328
 20
10.1061445249
 30
0.0
 10
10.5286729496
 20
10.104468728
 30
0.0
 10
10.5344874664
 20
10.1027304848
 30
0.0
 10
10.5400245051
 20
10.100932738
 30
0.0
 10
10.5452756239
 20
10.0990785996
 30
0.0
 10
10.5502329382
 20
10.0971712317
 30
0.0
 10
10.5548891182
 20
10.0952138226
 30
0.0
 10
10.559237421
 20
10.0932096816
 30
0.0
 10
10.5632716474
 20
10.091162027
 30
0.0
 10
10.5669862247
 20
10.0890742378
 30
0.0
 10
10.5703760892
 20
10.0869494844
 30
0.0
 10
10.5734368324
 20
10.0847910812
 30
0.0
 10
10.5761644775
 20
10.0826020166
 30
0.0
 10
10.578555653
 20
10.0803853202
 30
0.0
 10
10.5806072182
 20
10.0781436112
 30
0.0
 10
10.5823163549
 20
10.0758794333
 30
0.0
 10
10.5836800314
 20
10.0735951745
 30
0.0
 10
10.5846950478
 20
10.0712933172
 30
0.0
 10
10.5853578207
 20
10.0689780909
 30
0.0
 10
10.5855643446
 20
10.0674161006
 30
0.0
 10
10.5856067227
 20
10.0666439497
 30
0.0
  0
SPLINE
  5
389
100
AcDbEntity
  8
0
100
AcDbSpline
 62
7
  6
CONTINUOUS
 70
0
 71
3
 72
13
 73
9
 74
0
 42
0.0000001
 43
0.0000001
 44
0.0000000001
 40
0.0
 40
0.0
 40
0.0
 40
0.0
 40
0.2516992525
 40
0.5020501116
 40
0.6268454411
 40
0.7514081012
 40
0.8757786936
 40
1.0
 40
1.0
 40
1.0
 40
1.0
 10
10.7323701029
 20
6.290102898
 30
0.0
 10
10.7396585535
 20
6.2917477687
 30
0.0
 10
10.7540373578
 20
6.295784393
 30
0.0
 10
10.7713598366
 20
6.3026791508
 30
0.0
 10
10.7846676219
 20
6.3092462225
 30
0.0
 10
10.7943459597
 20
6.3146807749
 30
0.0
 10
10.8037053938
 20
6.3206150124
 30
0.0
 10
10.809720683
 20
6.3248970049
 30
0.0
 10
10.8126662983
 20
6.3271154056
 30
0.0
  0
SPLINE
  5
38A
100
AcDbEntity
  8
0
100
AcDbSpline
 62
7
  6
CONTINUOUS
 70
0
 71
3
 72
15
 73
11
 74
0
 42
0.0000001
 43
0.0000001
 44
0.0000000001
 40
0.0
 40
0.0
 40
0.0
 40
0.0
 40
0.1260118876
 40
0.2516725023
 40
0.3770089621
 40
0.5020518989
 40
0.6268350012
 40
0.7513945889
 40
0.8757693827
 40
1.0
 40
1.0
 40
1.0
 40
1.0
 10
10.4477354637
 20
6.5877190678
 30
0.0
 10
10.4486986893
 20
6.5912317513
 30
0.0
 10
10.4508001198
 20
6.5982000284
 30
0.0
 10
10.4544748239
 20
6.6084639387
 30
0.0
 10
10.4586591056
 20
6.6185008807
 30
0.0
 10
10.4633428213
 20
6.6282865559
 30
0.0
 10
10.4685148983
 20
6.6377976117
 30
0.0
 10
10.4741630281
 20
6.6470113814
 30
0.0
 10
10.4802734221
 20
6.6559055971
 30
0.0
 10
10.4846482083
 20
6.6616112087
 30
0.0
 10
10.4869068816
 20
6.6644027539
 30
0.0
  0
SPLINE
  5
38B
100
AcDbEntity
  8
0
100
AcDbSpline
 62
7
  6
CONTINUOUS
 70
0
 71
3
 72
23
 73
19
 74
0
 42
0.0000001
 43
0.0000001
 44
0.0000000001
 40
0.0
 40
0.0
 40
0.0
 40
0.0
 40
0.0619845586
 40
0.1239522256
 40
0.1859228349
 40
0.247916191
 40
0.3099518784
 40
0.3720490787
 40
0.4342263897
 40
0.4965016501
 40
0.5588917722
 40
0.6214125859
 40
0.6840787
 40
0.7469033783
 40
0.8098984258
 40
0.8730740903
 40
0.936438979
 40
1.0
 40
1.0
 40
1.0
 40
1.0
 10
9.5129435997
 20
7.4803396368
 30
0.0
 10
9.5184630176
 20
7.486752907
 30
0.0
 10
9.5298210823
 20
7.4993056588
 30
0.0
 10
9.5477711687
 20
7.5172620654
 30
0.0
 10
9.5665934617
 20
7.5343047538
 30
0.0
 10
9.5862468313
 20
7.5503963442
 30
0.0
 10
9.6066890348
 20
7.5655023012
 30
0.0
 10
9.6278759246
 20
7.5795900363
 30
0.0
 10
9.6497618098
 20
7.5926292056
 30
0.0
 10
9.672299484
 20
7.6045917116
 30
0.0
 10
9.6954403476
 20
7.6154517722
 30
0.0
 10
9.7191344926
 20
7.6251860046
 30
0.0
 10
9.7433308099
 20
7.6337734824
 30
0.0
 10
9.7679771409
 20
7.6411957415
 30
0.0
 10
9.7930202979
 20
7.6474368222
 30
0.0
 10
9.8184065017
 20
7.6524833162
 30
0.0
 10
9.8440802798
 20
7.6563243396
 30
0.0
 10
9.8613257238
 20
7.6580733048
 30
0.0
 10
9.8699761754
 20
7.6587454122
 30
0.0
  0
SPLINE
  5
38C
100
AcDbEntity
  8
0
100
AcDbSpline
 62
7
  6
CONTINUOUS
 70
0
 71
3
 72
37
 73
33
 74
0
 42
0.0000001
 43
0.0000001
 44
0.0000000001
 40
0.0
 40
0.0
 40
0.0
 40
0.0
 40
0.0306220678
 40
0.0613496101
 40
0.0921809837
 40
0.1231135268
 40
0.1541435939
 40
0.1852666015
 40
0.2164770803
 40
0.2477687344
 40
0.2791345067
 40
0.3105666498
 40
0.3420568017
 40
0.3735960661
 40
0.4051750976
 40
0.4367841885
 40
0.5000351774
 40
0.5632848262
 40
0.5948922537
 40
0.6264689757
 40
0.6580053061
 40
0.689491927
 40
0.7209199758
 40
0.7522811286
 40
0.7835676798
 40
0.814772618
 40
0.8458897055
 40
0.8769134992
 40
0.9078395862
 40
0.938664059
 40
0.9693850874
 40
1.0
 40
1.0
 40
1.0
 40
1.0
 10
9.9345619935
 20
7.660009711
 30
0.0
 10
9.9440194678
 20
7.6596507464
 30
0.0
 10
9.962952308
 20
7.6584563881
 30
0.0
 10
9.9912726978
 20
7.6552510082
 30
0.0
 10
10.0194957621
 20
7.6506366733
 30
0.0
 10
10.0475498593
 20
7.6446250334
 30
0.0
 10
10.0753649729
 20
7.6372312056
 30
0.0
 10
10.1028713727
 20
7.6284737778
 30
0.0
 10
10.1300001945
 20
7.6183747401
 30
0.0
 10
10.1566835001
 20
7.6069594362
 30
0.0
 10
10.1828544793
 20
7.5942564936
 30
0.0
 10
10.2084475922
 20
7.5802977696
 30
0.0
 10
10.2333987935
 20
7.5651182084
 30
0.0
 10
10.2576454665
 20
7.5487559936
 30
0.0
 10
10.2811274476
 20
7.5312515943
 30
0.0
 10
10.3113399224
 20
7.5064474615
 30
0.0
 10
10.3468976722
 20
7.4728170676
 30
0.0
 10
10.3791630039
 20
7.4360168516
 30
0.0
 10
10.4028090199
 20
7.4048916782
 30
0.0
 10
10.4194139767
 20
7.3807678738
 30
0.0
 10
10.4348483042
 20
7.3559234321
 30
0.0
 10
10.4490738441
 20
7.3304199986
 30
0.0
 10
10.4620548075
 20
7.3043215773
 30
0.0
 10
10.4737586875
 20
7.2776934728
 30
0.0
 10
10.4841561187
 20
7.2506023689
 30
0.0
 10
10.4932210179
 20
7.2231160969
 30
0.0
 10
10.5009306267
 20
7.1953035017
 30
0.0
 10
10.5072656206
 20
7.167234199
 30
0.0
 10
10.5122099924
 20
7.1389786221
 30
0.0
 10
10.5157514477
 20
7.110607144
 30
0.0
 10
10.5178808294
 20
7.0821919585
 30
0.0
 10
10.518356388
 20
7.0632316652
 30
0.0
 10
10.518356388
 20
7.0537695924
 30
0.0
  0
SPLINE
  5
38D
100
AcDbEntity
  8
0
100
AcDbSpline
 62
7
  6
CONTINUOUS
 70
0
 71
3
 72
13
 73
9
 74
0
 42
0.0000001
 43
0.0000001
 44
0.0000000001
 40
0.0
 40
0.0
 40
0.0
 40
0.0
 40
0.2516992525
 40
0.5020501116
 40
0.6268454411
 40
0.7514081012
 40
0.8757786936
 40
1.0
 40
1.0
 40
1.0
 40
1.0
 10
9.7365004995
 20
7.8679429546
 30
0.0
 10
9.7437889501
 20
7.8695878253
 30
0.0
 10
9.7581677544
 20
7.8736244496
 30
0.0
 10
9.7754902332
 20
7.8805192074
 30
0.0
 10
9.7887980185
 20
7.8870862791
 30
0.0
 10
9.7984763563
 20
7.8925208315
 30
0.0
 10
9.8078357904
 20
7.898455069
 30
0.0
 10
9.8138510796
 20
7.9027370615
 30
0.0
 10
9.8167966949
 20
7.9049554622
 30
0.0
  0
SPLINE
  5
38E
100
AcDbEntity
  8
0
100
AcDbSpline
 62
7
  6
CONTINUOUS
 70
0
 71
3
 72
15
 73
11
 74
0
 42
0.0000001
 43
0.0000001
 44
0.0000000001
 40
0.0
 40
0.0
 40
0.0
 40
0.0
 40
0.1260118876
 40
0.2516725023
 40
0.3770089621
 40
0.5020518989
 40
0.6268350012
 40
0.7513945889
 40
0.8757693827
 40
1.0
 40
1.0
 40
1.0
 40
1.0
 10
9.4518658602
 20
8.1655591244
 30
0.0
 10
9.4528290859
 20
8.1690718079
 30
0.0
 10
9.4549305164
 20
8.176040085
 30
0.0
 10
9.4586052205
 20
8.1863039953
 30
0.0
 10
9.4627895022
 20
8.1963409373
 30
0.0
 10
9.4674732179
 20
8.2061266125
 30
0.0
 10
9.4726452949
 20
8.2156376684
 30
0.0
 10
9.4782934247
 20
8.224851438
 30
0.0
 10
9.4844038187
 20
8.2337456537
 30
0.0
 10
9.4887786048
 20
8.2394512654
 30
0.0
 10
9.4910372782
 20
8.2422428105
 30
0.0
  0
SPLINE
  5
38F
100
AcDbEntity
  8
0
100
AcDbSpline
 62
7
  6
CONTINUOUS
 70
0
 71
3
 72
15
 73
11
 74
0
 42
0.0000001
 43
0.0000001
 44
0.0000000001
 40
0.0
 40
0.0
 40
0.0
 40
0.0
 40
0.1266810615
 40
0.2528410586
 40
0.3784917445
 40
0.5036514148
 40
0.6283460917
 40
0.752608532
 40
0.8764780705
 40
1.0
 40
1.0
 40
1.0
 40
1.0
 10
10.518356388
 20
7.0537695924
 30
0.0
 10
10.518356388
 20
7.0425460957
 30
0.0
 10
10.5176897493
 20
7.0201393695
 30
0.0
 10
10.5146787435
 20
6.9867223083
 30
0.0
 10
10.5096693107
 20
6.9536807743
 30
0.0
 10
10.5026790262
 20
6.9211337382
 30
0.0
 10
10.493732646
 20
6.8891966562
 30
0.0
 10
10.4828615839
 20
6.8579828259
 30
0.0
 10
10.4701051539
 20
6.8276048122
 30
0.0
 10
10.4603597626
 20
6.8079533793
 30
0.0
 10
10.4551903427
 20
6.7983076719
 30
0.0
  0
SPLINE
  5
390
100
AcDbEntity
  8
0
100
AcDbSpline
 62
7
  6
CONTINUOUS
 70
0
 71
3
 72
21
 73
17
 74
0
 42
0.0000001
 43
0.0000001
 44
0.0000000001
 40
0.0
 40
0.0
 40
0.0
 40
0.0
 40
0.1273175725
 40
0.2538000026
 40
0.3167619332
 40
0.3795354925
 40
0.4421314982
 40
0.5045621433
 40
0.5668413429
 40
0.6289845306
 40
0.6910084612
 40
0.7529311022
 40
0.8147714553
 40
0.8765493457
 40
0.9382852283
 40
1.0
 40
1.0
 40
1.0
 40
1.0
 10
11.6782814483
 20
6.8235133612
 30
0.0
 10
11.6782814483
 20
6.811964203
 30
0.0
 10
11.6771790062
 20
6.7889267792
 30
0.0
 10
11.673015477
 20
6.7604475432
 30
0.0
 10
11.6680391032
 20
6.7381080656
 30
0.0
 10
11.6635009147
 20
6.7216304651
 30
0.0
 10
11.6581620772
 20
6.7054456262
 30
0.0
 10
11.6520347632
 20
6.6895904501
 30
0.0
 10
11.6451331558
 20
6.6741015949
 30
0.0
 10
11.6374731279
 20
6.6590147517
 30
0.0
 10
11.6290722503
 20
6.6443647709
 30
0.0
 10
11.6199499242
 20
6.6301854109
 30
0.0
 10
11.6101272208
 20
6.616509396
 30
0.0
 10
11.599626616
 20
6.6033682055
 30
0.0
 10
11.5884727349
 20
6.5907925777
 30
0.0
 10
11.5806170178
 20
6.5828036803
 30
0.0
 10
11.5765904722
 20
6.5789143149
 30
0.0
  0
SPLINE
  5
391
100
AcDbEntity
  8
0
100
AcDbSpline
 62
7
  6
CONTINUOUS
 70
0
 71
3
 72
31
 73
27
 74
0
 42
0.0000001
 43
0.0000001
 44
0.0000000001
 40
0.0
 40
0.0
 40
0.0
 40
0.0
 40
0.030676836
 40
0.0614581414
 40
0.0923381998
 40
0.1233159879
 40
0.1543870066
 40
0.1855463129
 40
0.2167883427
 40
0.2481066319
 40
0.3109260156
 40
0.373957732
 40
0.4371303968
 40
0.5003677083
 40
0.5635911097
 40
0.6267225272
 40
0.6896870984
 40
0.752415797
 40
0.7836809344
 40
0.8148652012
 40
0.8459626558
 40
0.8769682976
 40
0.9078777844
 40
0.9386872516
 40
0.9693963318
 40
1.0
 40
1.0
 40
1.0
 40
1.0
 10
11.316059242
 20
9.498168255
 30
0.0
 10
11.3219953588
 20
9.4977565839
 30
0.0
 10
11.3338696192
 20
9.4966405823
 30
0.0
 10
11.3516061474
 20
9.4941008531
 30
0.0
 10
11.3692573667
 20
9.4906982134
 30
0.0
 10
11.3867798734
 20
9.4864412386
 30
0.0
 10
11.4041319279
 20
9.4813400005
 30
0.0
 10
11.4212715299
 20
9.4754069664
 30
0.0
 10
11.4381578765
 20
9.4686562064
 30
0.0
 10
11.4602994317
 20
9.4585784482
 30
0.0
 10
11.4871379475
 20
9.4440176511
 30
0.0
 10
11.5176552307
 20
9.4236038216
 30
0.0
 10
11.5462338773
 20
9.4004231367
 30
0.0
 10
11.5725976371
 20
9.3746989929
 30
0.0
 10
11.5964940986
 20
9.3466784351
 30
0.0
 10
11.617693664
 20
9.3166297418
 30
0.0
 10
11.6359920179
 20
9.2848433152
 30
0.0
 10
11.6486934135
 20
9.2571212429
 30
0.0
 10
11.6572365137
 20
9.2343852337
 30
0.0
 10
11.6628163059
 20
9.2171118143
 30
0.0
 10
11.6675607988
 20
9.1996430496
 30
0.0
 10
11.6714587508
 20
9.1820205221
 30
0.0
 10
11.6745006049
 20
9.164286897
 30
0.0
 10
11.6766791818
 20
9.1464844125
 30
0.0
 10
11.6779889146
 20
9.128656866
 30
0.0
 10
11.6782814483
 20
9.1167620354
 30
0.0
 10
11.6782814483
 20
9.1108258534
 30
0.0
  0
SPLINE
  5
392
100
AcDbEntity
  8
0
100
AcDbSpline
 62
7
  6
CONTINUOUS
 70
0
 71
3
 72
23
 73
19
 74
0
 42
0.0000001
 43
0.0000001
 44
0.0000000001
 40
0.0
 40
0.0
 40
0.0
 40
0.0
 40
0.0614487945
 40
0.1232975465
 40
0.1855192708
 40
0.2480712759
 40
0.3108995325
 40
0.3739401507
 40
0.4371217412
 40
0.5003679844
 40
0.5636003153
 40
0.626740653
 40
0.6897141164
 40
0.7524516751
 40
0.8148926582
 40
0.8769870283
 40
0.9386967483
 40
1.0
 40
1.0
 40
1.0
 40
1.0
 10
10.9037608294
 20
9.0699748441
 30
0.0
 10
10.9146669693
 20
9.0692185007
 30
0.0
 10
10.936490177
 20
9.0666260903
 30
0.0
 10
10.9687851881
 20
9.059585234
 30
0.0
 10
11.0004542167
 20
9.0494471038
 30
0.0
 10
11.0311891544
 20
9.0363100446
 30
0.0
 10
11.0606961594
 20
9.0203010692
 30
0.0
 10
11.0886917935
 20
9.0015743158
 30
0.0
 10
11.1149076042
 20
8.9803099796
 30
0.0
 10
11.1390920968
 20
8.9567124179
 30
0.0
 10
11.1610130559
 20
8.9310080924
 30
0.0
 10
11.1804600672
 20
8.9034437656
 30
0.0
 10
11.1972461502
 20
8.8742838672
 30
0.0
 10
11.2112096558
 20
8.8438080414
 30
0.0
 10
11.2222160279
 20
8.8123090622
 30
0.0
 10
11.2301585586
 20
8.7800881803
 30
0.0
 10
11.2349602026
 20
8.7474589311
 30
0.0
 10
11.2360393333
 20
8.725559189
 30
0.0
 10
11.2360393333
 20
8.7146527476
 30
0.0
  0
SPLINE
  5
393
100
AcDbEntity
  8
0
100
AcDbSpline
 62
7
  6
CONTINUOUS
 70
0
 71
3
 72
31
 73
27
 74
0
 42
0.0000001
 43
0.0000001
 44
0.0000000001
 40
0.0
 40
0.0
 40
0.0
 40
0.0
 40
0.030676836
 40
0.0614581414
 40
0.0923381998
 40
0.1233159879
 40
0.1543870066
 40
0.1855463129
 40
0.2167883427
 40
0.2481066319
 40
0.3109260156
 40
0.373957732
 40
0.4371303968
 40
0.5003677083
 40
0.5635911097
 40
0.6267225272
 40
0.6896870984
 40
0.752415797
 40
0.7836809344
 40
0.8148652012
 40
0.8459626558
 40
0.8769682976
 40
0.9078777844
 40
0.9386872516
 40
0.9693963318
 40
1.0
 40
1.0
 40
1.0
 40
1.0
 10
10.9117842131
 20
9.1076685405
 30
0.0
 10
10.9177203299
 20
9.1072568695
 30
0.0
 10
10.9295945903
 20
9.1061408678
 30
0.0
 10
10.9473311185
 20
9.1036011386
 30
0.0
 10
10.9649823378
 20
9.1001984989
 30
0.0
 10
10.9825048446
 20
9.0959415241
 30
0.0
 10
10.999856899
 20
9.090840286
 30
0.0
 10
11.016996501
 20
9.0849072519
 30
0.0
 10
11.0338828476
 20
9.0781564919
 30
0.0
 10
11.0560244028
 20
9.0680787337
 30
0.0
 10
11.0828629187
 20
9.0535179366
 30
0.0
 10
11.1133802019
 20
9.0331041072
 30
0.0
 10
11.1419588484
 20
9.0099234223
 30
0.0
 10
11.1683226082
 20
8.9841992784
 30
0.0
 10
11.1922190697
 20
8.9561787206
 30
0.0
 10
11.2134186351
 20
8.9261300273
 30
0.0
 10
11.231716989
 20
8.8943436007
 30
0.0
 10
11.2444183846
 20
8.8666215284
 30
0.0
 10
11.2529614848
 20
8.8438855192
 30
0.0
 10
11.258541277
 20
8.8266120998
 30
0.0
 10
11.2632857699
 20
8.8091433352
 30
0.0
 10
11.2671837219
 20
8.7915208077
 30
0.0
 10
11.270225576
 20
8.7737871825
 30
0.0
 10
11.272404153
 20
8.7559846981
 30
0.0
 10
11.2737138857
 20
8.7381571515
 30
0.0
 10
11.2740064195
 20
8.7262623209
 30
0.0
 10
11.2740064195
 20
8.7203261389
 30
0.0
  0
SPLINE
  5
394
100
AcDbEntity
  8
0
100
AcDbSpline
 62
7
  6
CONTINUOUS
 70
0
 71
3
 72
35
 73
31
 74
0
 42
0.0000001
 43
0.0000001
 44
0.0000000001
 40
0.0
 40
0.0
 40
0.0
 40
0.0
 40
0.0636206327
 40
0.1268147931
 40
0.1582698996
 40
0.1896292837
 40
0.220898732
 40
0.2520847535
 40
0.2831947517
 40
0.3142369322
 40
0.3452201906
 40
0.3761540556
 40
0.4070485779
 40
0.4379142163
 40
0.4687617439
 40
0.4996021322
 40
0.5304464206
 40
0.5613056065
 40
0.5921905365
 40
0.6231117787
 40
0.6540795075
 40
0.6851034151
 40
0.7161926024
 40
0.7473554732
 40
0.7785996834
 40
0.8099320367
 40
0.841358399
 40
0.872883878
 40
0.9362262577
 40
1.0
 40
1.0
 40
1.0
 40
1.0
 10
11.2360393333
 20
6.4273402555
 30
0.0
 10
11.2360393333
 20
6.4165077001
 30
0.0
 10
11.234982076
 20
6.3949006112
 30
0.0
 10
11.2309887258
 20
6.3682021489
 30
0.0
 10
11.2262168818
 20
6.3472762443
 30
0.0
 10
11.2218660709
 20
6.3318514571
 30
0.0
 10
11.2167487109
 20
6.3167123916
 30
0.0
 10
11.210877063
 20
6.3018951184
 30
0.0
 10
11.2042653281
 20
6.2874354603
 30
0.0
 10
11.1969293532
 20
6.2733682894
 30
0.0
 10
11.1888867831
 20
6.2597275628
 30
0.0
 10
11.1801570697
 20
6.246546139
 30
0.0
 10
11.1707612093
 20
6.233855839
 30
0.0
 10
11.1607218021
 20
6.2216873219
 30
0.0
 10
11.1500631323
 20
6.2100698826
 30
0.0
 10
11.1388108889
 20
6.1990315512
 30
0.0
 10
11.1269921509
 20
6.188599022
 30
0.0
 10
11.1146354923
 20
6.1787973889
 30
0.0
 10
11.1017707268
 20
6.1696502699
 30
0.0
 10
11.0884288346
 20
6.1611797974
 30
0.0
 10
11.0746420423
 20
6.1534063323
 30
0.0
 10
11.0604436264
 20
6.1463485591
 30
0.0
 10
11.0458677937
 20
6.1400235538
 30
0.0
 10
11.030949723
 20
6.1344465177
 30
0.0
 10
11.0157253833
 20
6.1296307998
 30
0.0
 10
11.0002315784
 20
6.1255880459
 30
0.0
 10
10.9845052306
 20
6.1223279535
 30
0.0
 10
10.9632478442
 20
6.1190302438
 30
0.0
 10
10.9362727946
 20
6.1169078291
 30
0.0
 10
10.9145934362
 20
6.1173541002
 30
0.0
 10
10.9037608294
 20
6.118105344
 30
0.0
  0
SPLINE
  5
395
100
AcDbEntity
  8
0
100
AcDbSpline
 62
7
  6
CONTINUOUS
 70
0
 71
3
 72
21
 73
17
 74
0
 42
0.0000001
 43
0.0000001
 44
0.0000000001
 40
0.0
 40
0.0
 40
0.0
 40
0.0
 40
0.12731758
 40
0.2538000122
 40
0.3167619425
 40
0.3795355005
 40
0.4421315041
 40
0.5045621466
 40
0.5668413435
 40
0.6289845285
 40
0.6910084568
 40
0.7529310961
 40
0.8147714484
 40
0.8765493394
 40
0.9382852242
 40
1.0
 40
1.0
 40
1.0
 40
1.0
 10
11.2740064195
 20
6.4330136467
 30
0.0
 10
11.2740064195
 20
6.4214644136
 30
0.0
 10
11.2729039631
 20
6.3984268407
 30
0.0
 10
11.2687403797
 20
6.3699474241
 30
0.0
 10
11.2637639415
 20
6.34760781
 30
0.0
 10
11.2592256946
 20
6.3311301118
 30
0.0
 10
11.2538867887
 20
6.3149451807
 30
0.0
 10
11.2477593965
 20
6.2990899182
 30
0.0
 10
11.2408577017
 20
6.2836009832
 30
0.0
 10
11.2331975775
 20
6.2685140677
 30
0.0
 10
11.2247965951
 20
6.2538640224
 30
0.0
 10
11.2156741563
 20
6.2396846065
 30
0.0
 10
11.2058513327
 20
6.2260085447
 30
0.0
 10
11.1953506009
 20
6.2128673169
 30
0.0
 10
11.1841965866
 20
6.2002916619
 30
0.0
 10
11.176340777
 20
6.1923027535
 30
0.0
 10
11.1723141845
 20
6.1884133844
 30
0.0
  0
SPLINE
  5
396
100
AcDbEntity
  8
0
100
AcDbSpline
 62
7
  6
CONTINUOUS
 70
0
 71
3
 72
23
 73
19
 74
0
 42
0.0000001
 43
0.0000001
 44
0.0000000001
 40
0.0
 40
0.0
 40
0.0
 40
0.0
 40
0.0614487945
 40
0.1232975465
 40
0.1855192708
 40
0.2480712759
 40
0.3108995325
 40
0.3739401507
 40
0.4371217412
 40
0.5003679844
 40
0.5636003153
 40
0.626740653
 40
0.6897141164
 40
0.7524516751
 40
0.8148926582
 40
0.8769870283
 40
0.9386967483
 40
1.0
 40
1.0
 40
1.0
 40
1.0
 10
9.3341312686
 20
6.2269595238
 30
0.0
 10
9.3232251287
 20
6.2277158672
 30
0.0
 10
9.301401921
 20
6.2303082775
 30
0.0
 10
9.2691069099
 20
6.2373491339
 30
0.0
 10
9.2374378813
 20
6.2474872641
 30
0.0
 10
9.2067029436
 20
6.2606243233
 30
0.0
 10
9.1771959386
 20
6.2766332987
 30
0.0
 10
9.1492003045
 20
6.2953600521
 30
0.0
 10
9.1229844938
 20
6.3166243883
 30
0.0
 10
9.0988000012
 20
6.34022195
 30
0.0
 10
9.0768790421
 20
6.3659262755
 30
0.0
 10
9.0574320308
 20
6.3934906023
 30
0.0
 10
9.0406459478
 20
6.4226505007
 30
0.0
 10
9.0266824422
 20
6.4531263265
 30
0.0
 10
9.0156760701
 20
6.4846253057
 30
0.0
 10
9.0077335394
 20
6.5168461876
 30
0.0
 10
9.0029318954
 20
6.5494754368
 30
0.0
 10
9.0018527647
 20
6.5713751789
 30
0.0
 10
9.0018527647
 20
6.5822816203
 30
0.0
  0
SPLINE
  5
397
100
AcDbEntity
  8
0
100
AcDbSpline
 62
7
  6
CONTINUOUS
 70
0
 71
3
 72
35
 73
31
 74
0
 42
0.0000001
 43
0.0000001
 44
0.0000000001
 40
0.0
 40
0.0
 40
0.0
 40
0.0
 40
0.0636206327
 40
0.1268147931
 40
0.1582698996
 40
0.1896292837
 40
0.220898732
 40
0.2520847535
 40
0.2831947517
 40
0.3142369322
 40
0.3452201906
 40
0.3761540556
 40
0.4070485779
 40
0.4379142163
 40
0.4687617439
 40
0.4996021322
 40
0.5304464206
 40
0.5613056065
 40
0.5921905365
 40
0.6231117787
 40
0.6540795075
 40
0.6851034151
 40
0.7161926024
 40
0.7473554732
 40
0.7785996834
 40
0.8099320367
 40
0.841358399
 40
0.872883878
 40
0.9362262577
 40
1.0
 40
1.0
 40
1.0
 40
1.0
 10
9.0018527647
 20
8.8695941124
 30
0.0
 10
9.0018527647
 20
8.8804266678
 30
0.0
 10
9.002910022
 20
8.9020337567
 30
0.0
 10
9.0069033722
 20
8.928732219
 30
0.0
 10
9.0116752162
 20
8.9496581236
 30
0.0
 10
9.0160260271
 20
8.9650829108
 30
0.0
 10
9.0211433871
 20
8.9802219763
 30
0.0
 10
9.027015035
 20
8.9950392495
 30
0.0
 10
9.0336267699
 20
9.0094989076
 30
0.0
 10
9.0409627448
 20
9.0235660785
 30
0.0
 10
9.0490053149
 20
9.0372068051
 30
0.0
 10
9.0577350283
 20
9.0503882289
 30
0.0
 10
9.0671308887
 20
9.0630785289
 30
0.0
 10
9.0771702959
 20
9.075247046
 30
0.0
 10
9.0878289657
 20
9.0868644853
 30
0.0
 10
9.0990812091
 20
9.0979028167
 30
0.0
 10
9.1108999471
 20
9.1083353459
 30
0.0
 10
9.1232566057
 20
9.118136979
 30
0.0
 10
9.1361213712
 20
9.127284098
 30
0.0
 10
9.1494632634
 20
9.1357545705
 30
0.0
 10
9.1632500557
 20
9.1435280356
 30
0.0
 10
9.1774484716
 20
9.1505858088
 30
0.0
 10
9.1920243043
 20
9.1569108141
 30
0.0
 10
9.206942375
 20
9.1624878502
 30
0.0
 10
9.2221667147
 20
9.1673035681
 30
0.0
 10
9.2376605196
 20
9.171346322
 30
0.0
 10
9.2533868674
 20
9.1746064144
 30
0.0
 10
9.2746442538
 20
9.1779041241
 30
0.0
 10
9.3016193034
 20
9.1800265388
 30
0.0
 10
9.3232986618
 20
9.1795802677
 30
0.0
 10
9.3341312686
 20
9.1788290238
 30
0.0
  0
SPLINE
  5
398
100
AcDbEntity
  8
0
100
AcDbSpline
 62
7
  6
CONTINUOUS
 70
0
 71
3
 72
15
 73
11
 74
0
 42
0.0000001
 43
0.0000001
 44
0.0000000001
 40
0.0
 40
0.0
 40
0.0
 40
0.0
 40
0.1655331138
 40
0.318800627
 40
0.4598366059
 40
0.588905495
 40
0.7064897711
 40
0.8133664217
 40
0.9106767426
 40
1.0
 40
1.0
 40
1.0
 40
1.0
 10
11.3114433591
 20
9.7915709609
 30
0.0
 10
11.3130951412
 20
9.7908594613
 30
0.0
 10
11.3162476752
 20
9.7894208476
 30
0.0
 10
11.3206826435
 20
9.7871150738
 30
0.0
 10
11.3246319026
 20
9.7847502341
 30
0.0
 10
11.3280864309
 20
9.7823327187
 30
0.0
 10
11.3310397768
 20
9.7798683235
 30
0.0
 10
11.3334873955
 20
9.777361662
 30
0.0
 10
11.335425174
 20
9.7748179422
 30
0.0
 10
11.3364102924
 20
9.7730339273
 30
0.0
 10
11.3368030101
 20
9.7721464458
 30
0.0
  0
SPLINE
  5
399
100
AcDbEntity
  8
0
100
AcDbSpline
 62
7
  6
CONTINUOUS
 70
0
 71
3
 72
23
 73
19
 74
0
 42
0.0000001
 43
0.0000001
 44
0.0000000001
 40
0.0
 40
0.0
 40
0.0
 40
0.0
 40
0.0637764154
 40
0.1273451281
 40
0.190701988
 40
0.253856063
 40
0.3168132283
 40
0.3795820791
 40
0.4421733864
 40
0.5045993414
 40
0.5668738629
 40
0.629012379
 40
0.6910316532
 40
0.7529496461
 40
0.8147853522
 40
0.8765586034
 40
0.9382898574
 40
1.0
 40
1.0
 40
1.0
 40
1.0
 10
10.019455683
 20
8.4174824195
 30
0.0
 10
10.019455683
 20
8.4229209956
 30
0.0
 10
10.0197160243
 20
8.4337822778
 30
0.0
 10
10.0208909181
 20
8.4500081033
 30
0.0
 10
10.0228471918
 20
8.4661053536
 30
0.0
 10
10.0255801327
 20
8.4820361287
 30
0.0
 10
10.029083623
 20
8.4977640835
 30
0.0
 10
10.0333495579
 20
8.5132528588
 30
0.0
 10
10.0383681243
 20
8.5284667605
 30
0.0
 10
10.0441278596
 20
8.5433706893
 30
0.0
 10
10.0506154625
 20
8.5579302837
 30
0.0
 10
10.0578159827
 20
8.5721119751
 30
0.0
 10
10.0657128762
 20
8.58588303
 30
0.0
 10
10.0742879745
 20
8.5992116727
 30
0.0
 10
10.0835214412
 20
8.6120671552
 30
0.0
 10
10.0933921049
 20
8.6244199215
 30
0.0
 10
10.1038768588
 20
8.6362410508
 30
0.0
 10
10.1112613487
 20
8.6437505916
 30
0.0
 10
10.1150463344
 20
8.6474066081
 30
0.0
  0
SPLINE
  5
39A
100
AcDbEntity
  8
0
100
AcDbSpline
 62
7
  6
CONTINUOUS
 70
0
 71
3
 72
36
 73
32
 74
0
 42
0.0000001
 43
0.0000001
 44
0.0000000001
 40
0.0
 40
0.0
 40
0.0
 40
0.0
 40
0.0055578162
 40
0.0111785519
 40
0.0169227929
 40
0.0228470355
 40
0.0354212926
 40
0.0421661849
 40
0.0492574986
 40
0.0645751423
 40
0.0815411183
 40
0.1002533171
 40
0.1207645483
 40
0.1430942648
 40
0.1672365547
 40
0.1931652558
 40
0.2208381065
 40
0.2501997028
 40
0.2811832043
 40
0.3137119696
 40
0.3477010678
 40
0.3830580585
 40
0.4196837418
 40
0.4574732145
 40
0.4963164277
 40
0.5766983366
 40
0.6598712021
 40
0.7448277752
 40
0.8305324215
 40
0.9159365645
 40
1.0
 40
1.0
 40
1.0
 40
1.0
 10
12.0094943665
 20
10.2261430503
 30
0.0
 10
12.0094943724
 20
10.2264906188
 30
0.0
 10
12.0095333174
 20
10.2271902977
 30
0.0
 10
12.0097080173
 20
10.2282360567
 30
0.0
 10
12.0099986965
 20
10.229279551
 30
0.0
 10
12.0105509313
 20
10.2306937257
 30
0.0
 10
12.0113340422
 20
10.2320752638
 30
0.0
 10
12.0123087725
 20
10.2334096139
 30
0.0
 10
12.0134871252
 20
10.2348028019
 30
0.0
 10
12.0152588627
 20
10.2365217138
 30
0.0
 10
12.0177688034
 20
10.2384961385
 30
0.0
 10
12.0207077617
 20
10.2404287394
 30
0.0
 10
12.0240667239
 20
10.2423141539
 30
0.0
 10
12.0278357005
 20
10.2441469214
 30
0.0
 10
12.0320030163
 20
10.245921267
 30
0.0
 10
12.0365555365
 20
10.2476315151
 30
0.0
 10
12.0414787184
 20
10.2492720879
 30
0.0
 10
12.0467567218
 20
10.2508375634
 30
0.0
 10
12.0523724555
 20
10.2523227721
 30
0.0
 10
12.058307663
 20
10.2537228158
 30
0.0
 10
12.064543013
 20
10.2550330431
 30
0.0
 10
12.0710581604
 20
10.2562491071
 30
0.0
 10
12.0778318081
 20
10.2573669951
 30
0.0
 10
12.0848418242
 20
10.2583830318
 30
0.0
 10
12.0945843665
 20
10.259611327
 30
0.0
 10
12.1071826
 20
10.2608602772
 30
0.0
 10
12.1226917524
 20
10.2618940397
 30
0.0
 10
12.1385578672
 20
10.2624653161
 30
0.0
 10
12.1545734315
 20
10.262566445
 30
0.0
 10
12.1705290259
 20
10.262196086
 30
0.0
 10
12.1811139387
 20
10.2616314114
 30
0.0
 10
12.1863584071
 20
10.2612677062
 30
0.0
  0
SPLINE
  5
39B
100
AcDbEntity
  8
0
100
AcDbSpline
 62
7
  6
CONTINUOUS
 70
0
 71
3
 72
32
 73
28
 74
0
 42
0.0000001
 43
0.0000001
 44
0.0000000001
 40
0.0
 40
0.0
 40
0.0
 40
0.0
 40
0.0958350133
 40
0.1891086299
 40
0.2792520242
 40
0.3657239766
 40
0.4480156633
 40
0.5256576281
 40
0.5982269975
 40
0.6324943547
 40
0.6653613378
 40
0.6967924401
 40
0.7267581378
 40
0.7552341308
 40
0.7822036768
 40
0.8076572578
 40
0.8315954232
 40
0.8540292433
 40
0.8749840421
 40
0.8945012056
 40
0.9126433592
 40
0.9294981369
 40
0.9451849406
 40
0.9598599088
 40
0.973721248
 40
0.9870091801
 40
1.0
 40
1.0
 40
1.0
 40
1.0
 10
11.6363683901
 20
9.7300181132
 30
0.0
 10
11.6400278636
 20
9.7297643278
 30
0.0
 10
11.6472437263
 20
9.7291830509
 30
0.0
 10
11.6578758801
 20
9.7280734832
 30
0.0
 10
11.6681216326
 20
9.7267437879
 30
0.0
 10
11.6779125899
 20
9.7252030171
 30
0.0
 10
11.6871836549
 20
9.7234616809
 30
0.0
 10
11.6958730743
 20
9.7215316059
 30
0.0
 10
11.70270666
 20
9.7197445014
 30
0.0
 10
11.7078330703
 20
9.7182216182
 30
0.0
 10
11.7114237856
 20
9.7170625242
 30
0.0
 10
11.7148283728
 20
9.7158665269
 30
0.0
 10
11.7180412121
 20
9.7146356707
 30
0.0
 10
11.7210569894
 20
9.7133719431
 30
0.0
 10
11.7238707708
 20
9.7120775144
 30
0.0
 10
11.7264779435
 20
9.7107544376
 30
0.0
 10
11.7288743124
 20
9.7094049359
 30
0.0
 10
11.7310560049
 20
9.7080310723
 30
0.0
 10
11.7330195966
 20
9.7066350331
 30
0.0
 10
11.73476195
 20
9.7052187737
 30
0.0
 10
11.7362803525
 20
9.7037842837
 30
0.0
 10
11.7375722224
 20
9.7023332437
 30
0.0
 10
11.7386352012
 20
9.700867303
 30
0.0
 10
11.73946667
 20
9.6993879938
 30
0.0
 10
11.740063901
 20
9.6978970731
 30
0.0
 10
11.7404238518
 20
9.6963976734
 30
0.0
 10
11.7405043474
 20
9.6953900707
 30
0.0
 10
11.740504339
 20
9.6948928229
 30
0.0
  0
SPLINE
  5
39C
100
AcDbEntity
  8
0
100
AcDbSpline
 62
7
  6
CONTINUOUS
 70
0
 71
3
 72
36
 73
32
 74
0
 42
0.0000001
 43
0.0000001
 44
0.0000000001
 40
0.0
 40
0.0
 40
0.0
 40
0.0
 40
0.0055578162
 40
0.0111785519
 40
0.0169227929
 40
0.0228470355
 40
0.0354212926
 40
0.0421661849
 40
0.0492574986
 40
0.0645751423
 40
0.0815411183
 40
0.1002533171
 40
0.1207645483
 40
0.1430942648
 40
0.1672365547
 40
0.1931652558
 40
0.2208381065
 40
0.2501997028
 40
0.2811832043
 40
0.3137119696
 40
0.3477010678
 40
0.3830580585
 40
0.4196837418
 40
0.4574732145
 40
0.4963164277
 40
0.5766983366
 40
0.6598712021
 40
0.7448277752
 40
0.8305324215
 40
0.9159365645
 40
1.0
 40
1.0
 40
1.0
 40
1.0
 10
11.4595043496
 20
9.6948934573
 30
0.0
 10
11.4595043554
 20
9.6952410257
 30
0.0
 10
11.4595433005
 20
9.6959407047
 30
0.0
 10
11.4597180004
 20
9.6969864637
 30
0.0
 10
11.4600086795
 20
9.698029958
 30
0.0
 10
11.4605609143
 20
9.6994441327
 30
0.0
 10
11.4613440252
 20
9.7008256708
 30
0.0
 10
11.4623187556
 20
9.7021600208
 30
0.0
 10
11.4634971083
 20
9.7035532088
 30
0.0
 10
11.4652688458
 20
9.7052721207
 30
0.0
 10
11.4677787865
 20
9.7072465455
 30
0.0
 10
11.4707177447
 20
9.7091791463
 30
0.0
 10
11.474076707
 20
9.7110645609
 30
0.0
 10
11.4778456836
 20
9.7128973283
 30
0.0
 10
11.4820129994
 20
9.7146716739
 30
0.0
 10
11.4865655195
 20
9.7163819221
 30
0.0
 10
11.4914887015
 20
9.7180224949
 30
0.0
 10
11.4967667049
 20
9.7195879703
 30
0.0
 10
11.5023824386
 20
9.721073179
 30
0.0
 10
11.508317646
 20
9.7224732228
 30
0.0
 10
11.514552996
 20
9.72378345
 30
0.0
 10
11.5210681434
 20
9.724999514
 30
0.0
 10
11.5278417911
 20
9.7261174021
 30
0.0
 10
11.5348518072
 20
9.7271334387
 30
0.0
 10
11.5445943495
 20
9.728361734
 30
0.0
 10
11.5571925831
 20
9.7296106841
 30
0.0
 10
11.5727017355
 20
9.7306444467
 30
0.0
 10
11.5885678502
 20
9.731215723
 30
0.0
 10
11.6045834146
 20
9.731316852
 30
0.0
 10
11.6205390089
 20
9.730946493
 30
0.0
 10
11.6311239218
 20
9.7303818183
 30
0.0
 10
11.6363683901
 20
9.7300181132
 30
0.0
  0
SPLINE
  5
39D
100
AcDbEntity
  8
0
100
AcDbSpline
 62
7
  6
CONTINUOUS
 70
0
 71
3
 72
36
 73
32
 74
0
 42
0.0000001
 43
0.0000001
 44
0.0000000001
 40
0.0
 40
0.0
 40
0.0
 40
0.0
 40
0.0055578162
 40
0.0111785519
 40
0.0169227929
 40
0.0228470355
 40
0.0354212926
 40
0.0421661849
 40
0.0492574986
 40
0.0645751423
 40
0.0815411183
 40
0.1002533171
 40
0.1207645483
 40
0.1430942648
 40
0.1672365547
 40
0.1931652558
 40
0.2208381065
 40
0.2501997028
 40
0.2811832043
 40
0.3137119696
 40
0.3477010678
 40
0.3830580585
 40
0.4196837418
 40
0.4574732145
 40
0.4963164277
 40
0.5766983366
 40
0.6598712021
 40
0.7448277752
 40
0.8305324215
 40
0.9159365645
 40
1.0
 40
1.0
 40
1.0
 40
1.0
 10
10.2592367745
 20
10.3475238266
 30
0.0
 10
10.2592367804
 20
10.3478713951
 30
0.0
 10
10.2592757254
 20
10.348571074
 30
0.0
 10
10.2594504253
 20
10.349616833
 30
0.0
 10
10.2597411044
 20
10.3506603273
 30
0.0
 10
10.2602933393
 20
10.352074502
 30
0.0
 10
10.2610764501
 20
10.3534560401
 30
0.0
 10
10.2620511805
 20
10.3547903902
 30
0.0
 10
10.2632295332
 20
10.3561835781
 30
0.0
 10
10.2650012707
 20
10.35790249
 30
0.0
 10
10.2675112114
 20
10.3598769148
 30
0.0
 10
10.2704501697
 20
10.3618095156
 30
0.0
 10
10.2738091319
 20
10.3636949302
 30
0.0
 10
10.2775781085
 20
10.3655276976
 30
0.0
 10
10.2817454243
 20
10.3673020433
 30
0.0
 10
10.2862979445
 20
10.3690122914
 30
0.0
 10
10.2912211264
 20
10.3706528642
 30
0.0
 10
10.2964991298
 20
10.3722183397
 30
0.0
 10
10.3021148635
 20
10.3737035484
 30
0.0
 10
10.308050071
 20
10.3751035921
 30
0.0
 10
10.314285421
 20
10.3764138193
 30
0.0
 10
10.3208005684
 20
10.3776298833
 30
0.0
 10
10.327574216
 20
10.3787477714
 30
0.0
 10
10.3345842321
 20
10.379763808
 30
0.0
 10
10.3443267745
 20
10.3809921033
 30
0.0
 10
10.356925008
 20
10.3822410534
 30
0.0
 10
10.3724341604
 20
10.383274816
 30
0.0
 10
10.3883002752
 20
10.3838460923
 30
0.0
 10
10.4043158395
 20
10.3839472213
 30
0.0
 10
10.4202714338
 20
10.3835768623
 30
0.0
 10
10.4308563467
 20
10.3830121876
 30
0.0
 10
10.4361008151
 20
10.3826484825
 30
0.0
  0
SPLINE
  5
39E
100
AcDbEntity
  8
0
100
AcDbSpline
 62
7
  6
CONTINUOUS
 70
0
 71
3
 72
36
 73
32
 74
0
 42
0.0000001
 43
0.0000001
 44
0.0000000001
 40
0.0
 40
0.0
 40
0.0
 40
0.0
 40
0.0055578162
 40
0.0111785519
 40
0.0169227929
 40
0.0228470355
 40
0.0354212926
 40
0.0421661849
 40
0.0492574986
 40
0.0645751423
 40
0.0815411183
 40
0.1002533171
 40
0.1207645483
 40
0.1430942648
 40
0.1672365547
 40
0.1931652558
 40
0.2208381065
 40
0.2501997028
 40
0.2811832043
 40
0.3137119696
 40
0.3477010678
 40
0.3830580585
 40
0.4196837418
 40
0.4574732145
 40
0.4963164277
 40
0.5766983366
 40
0.6598712021
 40
0.7448277752
 40
0.8305324215
 40
0.9159365645
 40
1.0
 40
1.0
 40
1.0
 40
1.0
 10
9.7092467576
 20
9.8162742335
 30
0.0
 10
9.7092467634
 20
9.816621802
 30
0.0
 10
9.7092857085
 20
9.8173214809
 30
0.0
 10
9.7094604084
 20
9.8183672399
 30
0.0
 10
9.7097510875
 20
9.8194107343
 30
0.0
 10
9.7103033223
 20
9.8208249089
 30
0.0
 10
9.7110864332
 20
9.8222064471
 30
0.0
 10
9.7120611635
 20
9.8235407971
 30
0.0
 10
9.7132395163
 20
9.8249339851
 30
0.0
 10
9.7150112537
 20
9.826652897
 30
0.0
 10
9.7175211944
 20
9.8286273217
 30
0.0
 10
9.7204601527
 20
9.8305599226
 30
0.0
 10
9.7238191149
 20
9.8324453371
 30
0.0
 10
9.7275880916
 20
9.8342781046
 30
0.0
 10
9.7317554074
 20
9.8360524502
 30
0.0
 10
9.7363079275
 20
9.8377626984
 30
0.0
 10
9.7412311095
 20
9.8394032712
 30
0.0
 10
9.7465091129
 20
9.8409687466
 30
0.0
 10
9.7521248466
 20
9.8424539553
 30
0.0
 10
9.758060054
 20
9.8438539991
 30
0.0
 10
9.764295404
 20
9.8451642263
 30
0.0
 10
9.7708105514
 20
9.8463802903
 30
0.0
 10
9.7775841991
 20
9.8474981784
 30
0.0
 10
9.7845942152
 20
9.848514215
 30
0.0
 10
9.7943367575
 20
9.8497425103
 30
0.0
 10
9.806934991
 20
9.8509914604
 30
0.0
 10
9.8224441435
 20
9.852025223
 30
0.0
 10
9.8383102582
 20
9.8525964993
 30
0.0
 10
9.8543258225
 20
9.8526976283
 30
0.0
 10
9.8702814169
 20
9.8523272693
 30
0.0
 10
9.8808663298
 20
9.8517625946
 30
0.0
 10
9.8861107981
 20
9.8513988895
 30
0.0
  0
SPLINE
  5
39F
100
AcDbEntity
  8
0
100
AcDbSpline
 62
7
  6
CONTINUOUS
 70
0
 71
3
 72
19
 73
15
 74
0
 42
0.0000001
 43
0.0000001
 44
0.0000000001
 40
0.0
 40
0.0
 40
0.0
 40
0.0
 40
0.12732766
 40
0.2538196711
 40
0.3795264658
 40
0.5045235362
 40
0.5668075958
 40
0.6289556124
 40
0.6909843715
 40
0.7529118454
 40
0.8147570127
 40
0.8765397119
 40
0.9382804145
 40
1.0
 40
1.0
 40
1.0
 40
1.0
 10
10.4034112392
 20
6.4937765889
 30
0.0
 10
10.4034112392
 20
6.5010449192
 30
0.0
 10
10.4041052047
 20
6.5155438759
 30
0.0
 10
10.4072437492
 20
6.537013734
 30
0.0
 10
10.4124474289
 20
6.5579431199
 30
0.0
 10
10.4184754683
 20
6.5747967092
 30
0.0
 10
10.4242727921
 20
6.5878068535
 30
0.0
 10
10.4290936696
 20
6.5973017364
 30
0.0
 10
10.4343806497
 20
6.606521462
 30
0.0
 10
10.440121699
 20
6.6154450701
 30
0.0
 10
10.4463035721
 20
6.6240518431
 30
0.0
 10
10.4529120225
 20
6.6323220702
 30
0.0
 10
10.4599316008
 20
6.6402363716
 30
0.0
 10
10.464875561
 20
6.6452640265
 30
0.0
 10
10.4674096253
 20
6.6477117436
 30
0.0
  0
SPLINE
  5
3A0
100
AcDbEntity
  8
0
100
AcDbSpline
 62
7
  6
CONTINUOUS
 70
0
 71
3
 72
34
 73
30
 74
0
 42
0.0000001
 43
0.0000001
 44
0.0000000001
 40
0.0
 40
0.0
 40
0.0
 40
0.0
 40
0.0125932129
 40
0.025450831
 40
0.0388216972
 40
0.0529277224
 40
0.0679584999
 40
0.0840711456
 40
0.1013933878
 40
0.1200277393
 40
0.1400560958
 40
0.1615430839
 40
0.1845396224
 40
0.2090845214
 40
0.2352066218
 40
0.2629255605
 40
0.2922521091
 40
0.3231891622
 40
0.3557305041
 40
0.3898614066
 40
0.4255579384
 40
0.4627855185
 40
0.501499267
 40
0.541642687
 40
0.6259245997
 40
0.7149247741
 40
0.8077159894
 40
0.9031695653
 40
1.0
 40
1.0
 40
1.0
 40
1.0
 10
10.8576930396
 20
10.1269864845
 30
0.0
 10
10.8576930398
 20
10.1278501769
 30
0.0
 10
10.8578265396
 20
10.1295984632
 30
0.0
 10
10.8584241857
 20
10.1322022198
 30
0.0
 10
10.8594175047
 20
10.1347930996
 30
0.0
 10
10.8608037973
 20
10.1373657972
 30
0.0
 10
10.8625810133
 20
10.1399171415
 30
0.0
 10
10.8647479383
 20
10.1424441024
 30
0.0
 10
10.867304043
 20
10.1449436296
 30
0.0
 10
10.8702491491
 20
10.1474123336
 30
0.0
 10
10.8735831634
 20
10.1498464142
 30
0.0
 10
10.8773058627
 20
10.152241709
 30
0.0
 10
10.881416726
 20
10.1545936851
 30
0.0
 10
10.8859148101
 20
10.1568975131
 30
0.0
 10
10.8907986093
 20
10.1591480703
 30
0.0
 10
10.8960659301
 20
10.1613399449
 30
0.0
 10
10.9017137442
 20
10.1634675029
 30
0.0
 10
10.9077380199
 20
10.1655248066
 30
0.0
 10
10.9141335474
 20
10.1675057259
 30
0.0
 10
10.920893741
 20
10.1694038928
 30
0.0
 10
10.9280104314
 20
10.1712127188
 30
0.0
 10
10.9354736307
 20
10.1729254916
 30
0.0
 10
10.9432713545
 20
10.1745353938
 30
0.0
 10
10.9542745062
 20
10.1765684663
 30
0.0
 10
10.9687462168
 20
10.1787919171
 30
0.0
 10
10.986875913
 20
10.1809015547
 30
0.0
 10
11.005831273
 20
10.1824469152
 30
0.0
 10
11.0253633764
 20
10.1833904266
 30
0.0
 10
11.0385519783
 20
10.1836014817
 30
0.0
 10
11.045192993
 20
10.1836014821
 30
0.0
  0
SPLINE
  5
3A1
100
AcDbEntity
  8
0
100
AcDbSpline
 62
7
  6
CONTINUOUS
 70
0
 71
3
 72
19
 73
15
 74
0
 42
0.0000001
 43
0.0000001
 44
0.0000000001
 40
0.0
 40
0.0
 40
0.0
 40
0.0
 40
0.12732766
 40
0.2538196711
 40
0.3795264658
 40
0.5045235362
 40
0.5668075958
 40
0.6289556124
 40
0.6909843715
 40
0.7529118454
 40
0.8147570127
 40
0.8765397119
 40
0.9382804145
 40
1.0
 40
1.0
 40
1.0
 40
1.0
 10
9.4075416358
 20
8.0716166456
 30
0.0
 10
9.4075416358
 20
8.0788849758
 30
0.0
 10
9.4082356013
 20
8.0933839325
 30
0.0
 10
9.4113741458
 20
8.1148537906
 30
0.0
 10
9.4165778255
 20
8.1357831766
 30
0.0
 10
9.4226058649
 20
8.1526367658
 30
0.0
 10
9.4284031887
 20
8.1656469101
 30
0.0
 10
9.4332240662
 20
8.175141793
 30
0.0
 10
9.4385110463
 20
8.1843615186
 30
0.0
 10
9.4442520956
 20
8.1932851267
 30
0.0
 10
9.4504339687
 20
8.2018918997
 30
0.0
 10
9.4570424191
 20
8.2101621269
 30
0.0
 10
9.4640619973
 20
8.2180764282
 30
0.0
 10
9.4690059576
 20
8.2231040831
 30
0.0
 10
9.4715400219
 20
8.2255518002
 30
0.0
  0
SPLINE
  5
3A2
100
AcDbEntity
  8
0
100
AcDbSpline
 62
7
  6
CONTINUOUS
 70
0
 71
3
 72
42
 73
38
 74
0
 42
0.0000001
 43
0.0000001
 44
0.0000000001
 40
0.0
 40
0.0
 40
0.0
 40
0.0
 40
0.0056152347
 40
0.0112614974
 40
0.0169999439
 40
0.0228884165
 40
0.0289799902
 40
0.0353219531
 40
0.0419553881
 40
0.0489154636
 40
0.0562315265
 40
0.0639278778
 40
0.0720243687
 40
0.0805367337
 40
0.0894775198
 40
0.09885624
 40
0.1086798497
 40
0.1189533287
 40
0.1408575485
 40
0.1645768179
 40
0.1900953604
 40
0.2173806541
 40
0.2463863528
 40
0.2770542842
 40
0.3093158266
 40
0.3430929447
 40
0.3782991552
 40
0.4148402225
 40
0.4526147156
 40
0.4915144636
 40
0.5314251633
 40
0.5722269191
 40
0.6559963345
 40
0.7417746786
 40
0.8284583088
 40
0.9149128801
 40
1.0
 40
1.0
 40
1.0
 40
1.0
 10
10.1470984832
 20
10.063909868
 30
0.0
 10
10.1470682062
 20
10.0644615309
 30
0.0
 10
10.1470679373
 20
10.0655721886
 30
0.0
 10
10.1472505986
 20
10.0672379834
 30
0.0
 10
10.1476158163
 20
10.0689010502
 30
0.0
 10
10.1481626275
 20
10.0705594398
 30
0.0
 10
10.1488900569
 20
10.0722117217
 30
0.0
 10
10.1497969661
 20
10.0738565834
 30
0.0
 10
10.150882146
 20
10.075492924
 30
0.0
 10
10.1521445178
 20
10.0771196041
 30
0.0
 10
10.1535828365
 20
10.0787356107
 30
0.0
 10
10.1551958933
 20
10.0803398664
 30
0.0
 10
10.1569824228
 20
10.0819312367
 30
0.0
 10
10.1589409913
 20
10.083508663
 30
0.0
 10
10.1610701507
 20
10.0850709495
 30
0.0
 10
10.1633682831
 20
10.0866169414
 30
0.0
 10
10.1658336548
 20
10.088145529
 30
0.0
 10
10.1694185002
 20
10.0902028664
 30
0.0
 10
10.1743161649
 20
10.0927124521
 30
0.0
 10
10.1807069408
 20
10.0955744929
 30
0.0
 10
10.1877126781
 20
10.0983391491
 30
0.0
 10
10.1953123861
 20
10.1009973914
 30
0.0
 10
10.2034833874
 20
10.1035404059
 30
0.0
 10
10.2122009081
 20
10.1059596029
 30
0.0
 10
10.2214382513
 20
10.108246696
 30
0.0
 10
10.2311668006
 20
10.1103937529
 30
0.0
 10
10.2413560937
 20
10.1123932085
 30
0.0
 10
10.2519738781
 20
10.1142379075
 30
0.0
 10
10.2629861646
 20
10.1159211395
 30
0.0
 10
10.274357279
 20
10.1174366829
 30
0.0
 10
10.2860500029
 20
10.1187788792
 30
0.0
 10
10.3021584924
 20
10.1203440068
 30
0.0
 10
10.3228062691
 20
10.1218234595
 30
0.0
 10
10.348001172
 20
10.1228295356
 30
0.0
 10
10.373479444
 20
10.1230634273
 30
0.0
 10
10.3988846602
 20
10.1225192005
 30
0.0
 10
10.4157429966
 20
10.1216308057
 30
0.0
 10
10.4240948141
 20
10.1210516052
 30
0.0
  0
SPLINE
  5
3A3
100
AcDbEntity
  8
0
100
AcDbSpline
 62
7
  6
CONTINUOUS
 70
0
 71
3
 72
32
 73
28
 74
0
 42
0.0000001
 43
0.0000001
 44
0.0000000001
 40
0.0
 40
0.0
 40
0.0
 40
0.0
 40
0.0958350133
 40
0.1891086299
 40
0.2792520242
 40
0.3657239766
 40
0.4480156633
 40
0.5256576281
 40
0.5982269975
 40
0.6324943547
 40
0.6653613378
 40
0.6967924401
 40
0.7267581378
 40
0.7552341308
 40
0.7822036768
 40
0.8076572578
 40
0.8315954232
 40
0.8540292433
 40
0.8749840421
 40
0.8945012056
 40
0.9126433592
 40
0.9294981369
 40
0.9451849406
 40
0.9598599088
 40
0.973721248
 40
0.9870091801
 40
1.0
 40
1.0
 40
1.0
 40
1.0
 10
9.8861107981
 20
9.8513988895
 30
0.0
 10
9.8897702716
 20
9.8511451041
 30
0.0
 10
9.8969861343
 20
9.8505638272
 30
0.0
 10
9.9076182881
 20
9.8494542595
 30
0.0
 10
9.9178640406
 20
9.8481245642
 30
0.0
 10
9.9276549978
 20
9.8465837934
 30
0.0
 10
9.9369260629
 20
9.8448424571
 30
0.0
 10
9.9456154822
 20
9.8429123822
 30
0.0
 10
9.952449068
 20
9.8411252776
 30
0.0
 10
9.9575754783
 20
9.8396023945
 30
0.0
 10
9.9611661936
 20
9.8384433005
 30
0.0
 10
9.9645707807
 20
9.8372473032
 30
0.0
 10
9.9677836201
 20
9.8360164469
 30
0.0
 10
9.9707993974
 20
9.8347527194
 30
0.0
 10
9.9736131788
 20
9.8334582907
 30
0.0
 10
9.9762203514
 20
9.8321352138
 30
0.0
 10
9.9786167204
 20
9.8307857122
 30
0.0
 10
9.9807984129
 20
9.8294118486
 30
0.0
 10
9.9827620045
 20
9.8280158094
 30
0.0
 10
9.9845043579
 20
9.8265995499
 30
0.0
 10
9.9860227605
 20
9.82516506
 30
0.0
 10
9.9873146304
 20
9.8237140199
 30
0.0
 10
9.9883776092
 20
9.8222480793
 30
0.0
 10
9.9892090779
 20
9.8207687701
 30
0.0
 10
9.989806309
 20
9.8192778494
 30
0.0
 10
9.9901662598
 20
9.8177784497
 30
0.0
 10
9.9902467554
 20
9.8167708469
 30
0.0
 10
9.990246747
 20
9.8162735992
 30
0.0
  0
SPLINE
  5
3A4
100
AcDbEntity
  8
0
100
AcDbSpline
 62
7
  6
CONTINUOUS
 70
0
 71
3
 72
32
 73
28
 74
0
 42
0.0000001
 43
0.0000001
 44
0.0000000001
 40
0.0
 40
0.0
 40
0.0
 40
0.0
 40
0.0958350133
 40
0.1891086299
 40
0.2792520242
 40
0.3657239766
 40
0.4480156633
 40
0.5256576281
 40
0.5982269975
 40
0.6324943547
 40
0.6653613378
 40
0.6967924401
 40
0.7267581378
 40
0.7552341308
 40
0.7822036768
 40
0.8076572578
 40
0.8315954232
 40
0.8540292433
 40
0.8749840421
 40
0.8945012056
 40
0.9126433592
 40
0.9294981369
 40
0.9451849406
 40
0.9598599088
 40
0.973721248
 40
0.9870091801
 40
1.0
 40
1.0
 40
1.0
 40
1.0
 10
12.1863584071
 20
10.2612677062
 30
0.0
 10
12.1900178805
 20
10.2610139209
 30
0.0
 10
12.1972337432
 20
10.260432644
 30
0.0
 10
12.2078658971
 20
10.2593230762
 30
0.0
 10
12.2181116495
 20
10.2579933809
 30
0.0
 10
12.2279026068
 20
10.2564526102
 30
0.0
 10
12.2371736718
 20
10.2547112739
 30
0.0
 10
12.2458630912
 20
10.2527811989
 30
0.0
 10
12.252696677
 20
10.2509940944
 30
0.0
 10
12.2578230872
 20
10.2494712113
 30
0.0
 10
12.2614138025
 20
10.2483121173
 30
0.0
 10
12.2648183897
 20
10.24711612
 30
0.0
 10
12.2680312291
 20
10.2458852637
 30
0.0
 10
12.2710470064
 20
10.2446215361
 30
0.0
 10
12.2738607877
 20
10.2433271075
 30
0.0
 10
12.2764679604
 20
10.2420040306
 30
0.0
 10
12.2788643294
 20
10.240654529
 30
0.0
 10
12.2810460219
 20
10.2392806654
 30
0.0
 10
12.2830096135
 20
10.2378846262
 30
0.0
 10
12.2847519669
 20
10.2364683667
 30
0.0
 10
12.2862703694
 20
10.2350338768
 30
0.0
 10
12.2875622394
 20
10.2335828367
 30
0.0
 10
12.2886252182
 20
10.232116896
 30
0.0
 10
12.2894566869
 20
10.2306375869
 30
0.0
 10
12.2900539179
 20
10.2291466661
 30
0.0
 10
12.2904138688
 20
10.2276472665
 30
0.0
 10
12.2904943643
 20
10.2266396637
 30
0.0
 10
12.290494356
 20
10.226142416
 30
0.0
  0
SPLINE
  5
3A5
100
AcDbEntity
  8
0
100
AcDbSpline
 62
7
  6
CONTINUOUS
 70
0
 71
3
 72
46
 73
42
 74
0
 42
0.0000001
 43
0.0000001
 44
0.0000000001
 40
0.0
 40
0.0
 40
0.0
 40
0.0
 40
0.0056647185
 40
0.011511142
 40
0.0175872345
 40
0.0239339164
 40
0.0305854161
 40
0.0375698576
 40
0.0449099735
 40
0.052623922
 40
0.0607259655
 40
0.0692271136
 40
0.0781356878
 40
0.0874577541
 40
0.0971975061
 40
0.1073575772
 40
0.1289409248
 40
0.152208222
 40
0.17714408
 40
0.2037227883
 40
0.2319100868
 40
0.2616640562
 40
0.2929355585
 40
0.3256682096
 40
0.3597978876
 40
0.395251942
 40
0.4319483962
 40
0.4697948951
 40
0.5086875106
 40
0.5485094536
 40
0.5891299057
 40
0.630403116
 40
0.672167728
 40
0.7142465728
 40
0.7564470986
 40
0.7985626335
 40
0.8403745309
 40
0.8816554647
 40
0.9221733379
 40
0.9616968353
 40
1.0
 40
1.0
 40
1.0
 40
1.0
 10
10.6419105886
 20
9.9216189767
 30
0.0
 10
10.6420402741
 20
9.9221846289
 30
0.0
 10
10.6423663032
 20
9.9233205614
 30
0.0
 10
10.6430355295
 20
9.9249962454
 30
0.0
 10
10.6438886679
 20
9.9266648988
 30
0.0
 10
10.6449231838
 20
9.9283251466
 30
0.0
 10
10.646136717
 20
9.9299760633
 30
0.0
 10
10.6475269785
 20
9.9316166748
 30
0.0
 10
10.6490917965
 20
9.9332460066
 30
0.0
 10
10.6508290161
 20
9.934863082
 30
0.0
 10
10.6527365231
 20
9.9364668955
 30
0.0
 10
10.6548122193
 20
9.9380564112
 30
0.0
 10
10.6570539915
 20
9.9396306015
 30
0.0
 10
10.6594597355
 20
9.9411883993
 30
0.0
 10
10.6620273319
 20
9.9427287774
 30
0.0
 10
10.6657390019
 20
9.9447998044
 30
0.0
 10
10.6707790829
 20
9.9473280041
 30
0.0
 10
10.6773211203
 20
9.9502173504
 30
0.0
 10
10.6844565678
 20
9.9530119187
 30
0.0
 10
10.692167265
 20
9.9557030432
 30
0.0
 10
10.7004345544
 20
9.958281953
 30
0.0
 10
10.7092386837
 20
9.9607397273
 30
0.0
 10
10.7185587015
 20
9.9630672862
 30
0.0
 10
10.7283721464
 20
9.9652553723
 30
0.0
 10
10.7386547214
 20
9.9672945422
 30
0.0
 10
10.7493799183
 20
9.9691751792
 30
0.0
 10
10.7605186239
 20
9.9708875112
 30
0.0
 10
10.7720387036
 20
9.9724216591
 30
0.0
 10
10.7839045514
 20
9.9737677064
 30
0.0
 10
10.7960766402
 20
9.974915807
 30
0.0
 10
10.8085111107
 20
9.9758563295
 30
0.0
 10
10.8211594325
 20
9.9765800326
 30
0.0
 10
10.8339681699
 20
9.9770782859
 30
0.0
 10
10.8468788914
 20
9.977343326
 30
0.0
 10
10.8598282853
 20
9.9773685452
 30
0.0
 10
10.8727485226
 20
9.9771487958
 30
0.0
 10
10.8855679248
 20
9.976680703
 30
0.0
 10
10.8982118919
 20
9.9759629409
 30
0.0
 10
10.9106042457
 20
9.9749964839
 30
0.0
 10
10.9226684742
 20
9.9737847606
 30
0.0
 10
10.930581445
 20
9.972800145
 30
0.0
 10
10.9344688158
 20
9.9722651793
 30
0.0
  0
SPLINE
  5
3A6
100
AcDbEntity
  8
0
100
AcDbSpline
 62
7
  6
CONTINUOUS
 70
0
 71
3
 72
23
 73
19
 74
0
 42
0.0000001
 43
0.0000001
 44
0.0000000001
 40
0.0
 40
0.0
 40
0.0
 40
0.0
 40
0.0629011584
 40
0.1260811308
 40
0.1893884846
 40
0.2526993761
 40
0.3158997638
 40
0.3788792676
 40
0.4415391796
 40
0.5038151013
 40
0.5657052757
 40
0.627286885
 40
0.6887092119
 40
0.7501668094
 40
0.8118654869
 40
0.8739893281
 40
0.9366792272
 40
1.0
 40
1.0
 40
1.0
 40
1.0
 10
10.6897048819
 20
8.3905432775
 30
0.0
 10
10.6854221414
 20
8.3889200813
 30
0.0
 10
10.6767499299
 20
8.3858927213
 30
0.0
 10
10.6634998818
 20
8.3820487281
 30
0.0
 10
10.6500286997
 20
8.3789317653
 30
0.0
 10
10.6363996635
 20
8.3765880567
 30
0.0
 10
10.6226780924
 20
8.3750636829
 30
0.0
 10
10.6089346913
 20
8.3744012986
 30
0.0
 10
10.595243965
 20
8.3746333397
 30
0.0
 10
10.5816781634
 20
8.3757743974
 30
0.0
 10
10.5682980387
 20
8.377816562
 30
0.0
 10
10.5551446446
 20
8.3807307404
 30
0.0
 10
10.5422362602
 20
8.3844731996
 30
0.0
 10
10.5295714262
 20
8.38899375
 30
0.0
 10
10.5171360633
 20
8.3942418011
 30
0.0
 10
10.5049104928
 20
8.4001679472
 30
0.0
 10
10.4928764847
 20
8.4067221604
 30
0.0
 10
10.4850104117
 20
8.4114509848
 30
0.0
 10
10.4811038762
 20
8.4138997429
 30
0.0
  0
SPLINE
  5
3A7
100
AcDbEntity
  8
0
100
AcDbSpline
 62
7
  6
CONTINUOUS
 70
0
 71
3
 72
59
 73
55
 74
0
 42
0.0000001
 43
0.0000001
 44
0.0000000001
 40
0.0
 40
0.0
 40
0.0
 40
0.0
 40
0.0029368028
 40
0.0057961818
 40
0.0085973555
 40
0.0113605868
 40
0.0141066641
 40
0.016856464
 40
0.0196304303
 40
0.0224480507
 40
0.0282809091
 40
0.0344855384
 40
0.041158955
 40
0.0483717552
 40
0.0561725927
 40
0.0645929416
 40
0.0736511697
 40
0.0833558969
 40
0.093708368
 40
0.1047043701
 40
0.1163355252
 40
0.1285903415
 40
0.14145492
 40
0.1549135535
 40
0.1689491001
 40
0.1835433501
 40
0.1986772046
 40
0.2143309101
 40
0.2471149887
 40
0.2817290349
 40
0.3179991615
 40
0.3557458606
 40
0.3947834917
 40
0.4349191595
 40
0.4759511647
 40
0.51766718
 40
0.559842292
 40
0.6022370772
 40
0.6445959138
 40
0.686645797
 40
0.7280959909
 40
0.7686389119
 40
0.807952707
 40
0.8457060771
 40
0.8638938788
 40
0.8815670113
 40
0.8986851523
 40
0.9152093623
 40
0.9311024649
 40
0.9463297154
 40
0.9608591115
 40
0.9746622747
 40
0.9877162858
 40
1.0
 40
1.0
 40
1.0
 40
1.0
 10
10.9020972934
 20
9.7512801661
 30
0.0
 10
10.9019247578
 20
9.7516700699
 30
0.0
 10
10.9016138054
 20
9.75245317
 30
0.0
 10
10.9012504589
 20
9.7536488022
 30
0.0
 10
10.9009970441
 20
9.7548468743
 30
0.0
 10
10.9008532037
 20
9.7560464393
 30
0.0
 10
10.900818516
 20
9.757246661
 30
0.0
 10
10.9008924193
 20
9.758446628
 30
0.0
 10
10.9010741217
 20
9.7596455507
 30
0.0
 10
10.90146317
 20
9.761259716
 30
0.0
 10
10.9022302924
 20
9.7632858298
 30
0.0
 10
10.9035568351
 20
9.7656655693
 30
0.0
 10
10.9052887377
 20
9.7680207165
 30
0.0
 10
10.9074158767
 20
9.7703487855
 30
0.0
 10
10.9099289007
 20
9.7726478481
 30
0.0
 10
10.912818589
 20
9.7749152695
 30
0.0
 10
10.9160754394
 20
9.7771482881
 30
0.0
 10
10.9196897341
 20
9.7793438236
 30
0.0
 10
10.9236513705
 20
9.7814988865
 30
0.0
 10
10.9279500404
 20
9.7836104255
 30
0.0
 10
10.932575202
 20
9.7856755359
 30
0.0
 10
10.9375161771
 20
9.7876913956
 30
0.0
 10
10.942762191
 20
9.7896552966
 30
0.0
 10
10.9483023938
 20
9.791564677
 30
0.0
 10
10.9541259221
 20
9.7934170497
 30
0.0
 10
10.9602218762
 20
9.7952100785
 30
0.0
 10
10.9665793883
 20
9.7969415124
 30
0.0
 10
10.9755287699
 20
9.7991998977
 30
0.0
 10
10.9872962187
 20
9.8018404463
 30
0.0
 10
11.0020777305
 20
9.8046854863
 30
0.0
 10
11.0176429003
 20
9.8072384931
 30
0.0
 10
11.0339035673
 20
9.8094851817
 30
0.0
 10
11.0507701014
 20
9.8114118691
 30
0.0
 10
11.068150286
 20
9.8130054844
 30
0.0
 10
11.0859484723
 20
9.8142535118
 30
0.0
 10
11.1040645513
 20
9.8151440477
 30
0.0
 10
11.1223929312
 20
9.8156659293
 30
0.0
 10
11.1408215433
 20
9.8158089615
 30
0.0
 10
11.1592309658
 20
9.8155642437
 30
0.0
 10
11.1774937815
 20
9.8149246105
 30
0.0
 10
11.1954742709
 20
9.8138851709
 30
0.0
 10
11.2130287239
 20
9.8124439887
 30
0.0
 10
11.2300061213
 20
9.8106027042
 30
0.0
 10
11.2437087826
 20
9.8087174422
 30
0.0
 10
11.254258163
 20
9.8070019776
 30
0.0
 10
11.2618280544
 20
9.8056365296
 30
0.0
 10
11.2691345668
 20
9.8041785176
 30
0.0
 10
11.2761582161
 20
9.8026305895
 30
0.0
 10
11.2828800016
 20
9.8009957167
 30
0.0
 10
11.2892815917
 20
9.7992772837
 30
0.0
 10
11.2953455005
 20
9.7974791162
 30
0.0
 10
11.3010554275
 20
9.795605217
 30
0.0
 10
11.3063958045
 20
9.7936600889
 30
0.0
 10
11.3098054666
 20
9.7922764776
 30
0.0
 10
11.3114433591
 20
9.7915709609
 30
0.0
  0
SPLINE
  5
3A8
100
AcDbEntity
  8
0
100
AcDbSpline
 62
7
  6
CONTINUOUS
 70
0
 71
3
 72
11
 73
7
 74
0
 42
0.0000001
 43
0.0000001
 44
0.0000000001
 40
0.0
 40
0.0
 40
0.0
 40
0.0
 40
0.2226547032
 40
0.4603623206
 40
0.7182390663
 40
1.0
 40
1.0
 40
1.0
 40
1.0
 10
10.1274409216
 20
9.7104201552
 30
0.0
 10
10.1275043288
 20
9.7106904344
 30
0.0
 10
10.1276889667
 20
9.7112376904
 30
0.0
 10
10.1281138449
 20
9.7120298305
 30
0.0
 10
10.1286905539
 20
9.7128122274
 30
0.0
 10
10.1291527062
 20
9.7133033595
 30
0.0
 10
10.1294053902
 20
9.7135474336
 30
0.0
  0
SPLINE
  5
3A9
100
AcDbEntity
  8
0
100
AcDbSpline
 62
7
  6
CONTINUOUS
 70
0
 71
3
 72
26
 73
22
 74
0
 42
0.0000001
 43
0.0000001
 44
0.0000000001
 40
0.0
 40
0.0
 40
0.0
 40
0.0
 40
0.1495859821
 40
0.2977828206
 40
0.3708055493
 40
0.4427201402
 40
0.5131618572
 40
0.5817085448
 40
0.647878834
 40
0.7111382343
 40
0.7709143312
 40
0.7993148827
 40
0.8266281354
 40
0.8527866236
 40
0.8777293682
 40
0.9014036986
 40
0.923769102
 40
0.9448011113
 40
0.9644959925
 40
0.9828767199
 40
1.0
 40
1.0
 40
1.0
 40
1.0
 10
10.4560689103
 20
8.4308777097
 30
0.0
 10
10.4529024386
 20
8.43317117
 30
0.0
 10
10.4466439465
 20
8.4377991163
 30
0.0
 10
10.4389296176
 20
8.4436663249
 30
0.0
 10
10.4328485923
 20
8.4483272158
 30
0.0
 10
10.4283794978
 20
8.4517503754
 30
0.0
 10
10.4239911661
 20
8.4550865582
 30
0.0
 10
10.419697613
 20
8.4582991576
 30
0.0
 10
10.4155153424
 20
8.4613466708
 30
0.0
 10
10.4114635092
 20
8.464182659
 30
0.0
 10
10.4081596267
 20
8.4663638893
 30
0.0
 10
10.4055929085
 20
8.4679529866
 30
0.0
 10
10.4037481667
 20
8.4690379597
 30
0.0
 10
10.4019542043
 20
8.470029693
 30
0.0
 10
10.4002145664
 20
8.4709213054
 30
0.0
 10
10.3985329243
 20
8.4717061971
 30
0.0
 10
10.3969129282
 20
8.4723779221
 30
0.0
 10
10.3953583058
 20
8.4729305407
 30
0.0
 10
10.3938725969
 20
8.4733584107
 30
0.0
 10
10.3924595762
 20
8.473656507
 30
0.0
 10
10.3915368269
 20
8.4737694299
 30
0.0
 10
10.3910903382
 20
8.4738003614
 30
0.0
  0
LINE
  5
3AA
100
AcDbEntity
  8
0
100
AcDbLine
 62
7
  6
CONTINUOUS
 10
10.4811038762
 20
8.4138997429
 11
10.4560689103
 21
8.4308777097
  0
SPLINE
  5
3AB
100
AcDbEntity
  8
0
100
AcDbSpline
 62
7
  6
CONTINUOUS
 70
0
 71
3
 72
50
 73
46
 74
0
 42
0.0000001
 43
0.0000001
 44
0.0000000001
 40
0.0
 40
0.0
 40
0.0
 40
0.0
 40
0.0081903368
 40
0.0171035314
 40
0.0267656553
 40
0.0371921362
 40
0.0483899988
 40
0.0603571723
 40
0.0730851693
 40
0.0865601826
 40
0.1156725748
 40
0.1475116146
 40
0.1818469109
 40
0.21841591
 40
0.2569324835
 40
0.297093688
 40
0.3385851457
 40
0.3810853759
 40
0.4242692721
 40
0.4678108921
 40
0.5113856987
 40
0.5546723883
 40
0.5973544585
 40
0.6391216655
 40
0.6796715255
 40
0.7187110284
 40
0.7559587585
 40
0.7911476641
 40
0.8240288154
 40
0.8543766067
 40
0.8819962533
 40
0.8947352328
 40
0.9067393053
 40
0.9179992982
 40
0.9285109452
 40
0.938277495
 40
0.947310401
 40
0.9556328468
 40
0.9632822696
 40
0.9703150731
 40
0.9768112264
 40
0.9828786447
 40
0.9886550812
 40
0.9943034952
 40
1.0
 40
1.0
 40
1.0
 40
1.0
 10
10.1294053902
 20
9.7135474336
 30
0.0
 10
10.129668036
 20
9.7138011299
 30
0.0
 10
10.1302430205
 20
9.7143038083
 30
0.0
 10
10.131202114
 20
9.715015514
 30
0.0
 10
10.132291104
 20
9.7157142971
 30
0.0
 10
10.1335073181
 20
9.7163986973
 30
0.0
 10
10.1348480747
 20
9.717067282
 30
0.0
 10
10.1363102563
 20
9.7177186847
 30
0.0
 10
10.1378904492
 20
9.7183514589
 30
0.0
 10
10.1402100903
 20
9.7191901717
 30
0.0
 10
10.1433813602
 20
9.720173291
 30
0.0
 10
10.147497343
 20
9.7212307822
 30
0.0
 10
10.1519787446
 20
9.7221853921
 30
0.0
 10
10.156784623
 20
9.7230293459
 30
0.0
 10
10.1618720294
 20
9.7237559671
 30
0.0
 10
10.1671962969
 20
9.7243597876
 30
0.0
 10
10.1727116718
 20
9.7248364905
 30
0.0
 10
10.1783717366
 20
9.7251828815
 30
0.0
 10
10.1841297913
 20
9.7253968389
 30
0.0
 10
10.189939155
 20
9.7254772692
 30
0.0
 10
10.1957534102
 20
9.7254240601
 30
0.0
 10
10.2015265975
 20
9.7252380411
 30
0.0
 10
10.2072133767
 20
9.7249209519
 30
0.0
 10
10.2127691686
 20
9.7244754216
 30
0.0
 10
10.2181502936
 20
9.7239049563
 30
0.0
 10
10.2233141183
 20
9.7232139371
 30
0.0
 10
10.2282192421
 20
9.7224076273
 30
0.0
 10
10.2328256852
 20
9.7214921758
 30
0.0
 10
10.2370952819
 20
9.7204746555
 30
0.0
 10
10.2409916738
 20
9.7193629691
 30
0.0
 10
10.2439755999
 20
9.7183397548
 30
0.0
 10
10.2461437285
 20
9.7174728661
 30
0.0
 10
10.2476115876
 20
9.7168222192
 30
0.0
 10
10.2489620887
 20
9.7161548977
 30
0.0
 10
10.2501920052
 20
9.7154720993
 30
0.0
 10
10.2512984447
 20
9.7147752457
 30
0.0
 10
10.2522787139
 20
9.7140655528
 30
0.0
 10
10.2531304552
 20
9.713344304
 30
0.0
 10
10.2538514802
 20
9.7126125493
 30
0.0
 10
10.2544397297
 20
9.7118712191
 30
0.0
 10
10.2548930638
 20
9.711121108
 30
0.0
 10
10.2552089014
 20
9.7103631638
 30
0.0
 10
10.2553844882
 20
9.7095990689
 30
0.0
 10
10.2554173153
 20
9.708832193
 30
0.0
 10
10.2553445795
 20
9.7083283226
 30
0.0
 10
10.2552865716
 20
9.7080810587
 30
0.0
  0
SPLINE
  5
3AC
100
AcDbEntity
  8
0
100
AcDbSpline
 62
7
  6
CONTINUOUS
 70
0
 71
3
 72
32
 73
28
 74
0
 42
0.0000001
 43
0.0000001
 44
0.0000000001
 40
0.0
 40
0.0
 40
0.0
 40
0.0
 40
0.0958350133
 40
0.1891086299
 40
0.2792520242
 40
0.3657239766
 40
0.4480156633
 40
0.5256576281
 40
0.5982269975
 40
0.6324943547
 40
0.6653613378
 40
0.6967924401
 40
0.7267581378
 40
0.7552341308
 40
0.7822036768
 40
0.8076572578
 40
0.8315954232
 40
0.8540292433
 40
0.8749840421
 40
0.8945012056
 40
0.9126433592
 40
0.9294981369
 40
0.9451849406
 40
0.9598599088
 40
0.973721248
 40
0.9870091801
 40
1.0
 40
1.0
 40
1.0
 40
1.0
 10
10.4361008151
 20
10.3826484825
 30
0.0
 10
10.4397602885
 20
10.3823946972
 30
0.0
 10
10.4469761512
 20
10.3818134202
 30
0.0
 10
10.4576083051
 20
10.3807038525
 30
0.0
 10
10.4678540575
 20
10.3793741572
 30
0.0
 10
10.4776450148
 20
10.3778333864
 30
0.0
 10
10.4869160798
 20
10.3760920502
 30
0.0
 10
10.4956054992
 20
10.3741619752
 30
0.0
 10
10.5024390849
 20
10.3723748707
 30
0.0
 10
10.5075654952
 20
10.3708519875
 30
0.0
 10
10.5111562105
 20
10.3696928935
 30
0.0
 10
10.5145607977
 20
10.3684968962
 30
0.0
 10
10.5177736371
 20
10.36726604
 30
0.0
 10
10.5207894144
 20
10.3660023124
 30
0.0
 10
10.5236031957
 20
10.3647078838
 30
0.0
 10
10.5262103684
 20
10.3633848069
 30
0.0
 10
10.5286067374
 20
10.3620353053
 30
0.0
 10
10.5307884299
 20
10.3606614417
 30
0.0
 10
10.5327520215
 20
10.3592654025
 30
0.0
 10
10.5344943749
 20
10.357849143
 30
0.0
 10
10.5360127774
 20
10.356414653
 30
0.0
 10
10.5373046474
 20
10.354963613
 30
0.0
 10
10.5383676262
 20
10.3534976723
 30
0.0
 10
10.5391990949
 20
10.3520183632
 30
0.0
 10
10.5397963259
 20
10.3505274424
 30
0.0
 10
10.5401562768
 20
10.3490280427
 30
0.0
 10
10.5402367723
 20
10.34802044
 30
0.0
 10
10.540236764
 20
10.3475231922
 30
0.0
  0
SPLINE
  5
3AD
100
AcDbEntity
  8
0
100
AcDbSpline
 62
7
  6
CONTINUOUS
 70
0
 71
3
 72
24
 73
20
 74
0
 42
0.0000001
 43
0.0000001
 44
0.0000000001
 40
0.0
 40
0.0
 40
0.0
 40
0.0
 40
0.0149869102
 40
0.0304291966
 40
0.0631970754
 40
0.0992895616
 40
0.1394117193
 40
0.1840585492
 40
0.2335567298
 40
0.2881052676
 40
0.3478017567
 40
0.4126606533
 40
0.4826291792
 40
0.5575945345
 40
0.6373909189
 40
0.7218042492
 40
0.8105767532
 40
0.9034262133
 40
1.0
 40
1.0
 40
1.0
 40
1.0
 10
10.7751034398
 20
10.3680139241
 30
0.0
 10
10.7751551969
 20
10.3682651345
 30
0.0
 10
10.7752879854
 20
10.3687698764
 30
0.0
 10
10.7756689488
 20
10.3697837643
 30
0.0
 10
10.7763726737
 20
10.3710530537
 30
0.0
 10
10.7775327174
 20
10.3725215744
 30
0.0
 10
10.7790217676
 20
10.3739644206
 30
0.0
 10
10.7808377016
 20
10.3753782841
 30
0.0
 10
10.7829780623
 20
10.376759748
 30
0.0
 10
10.7854391504
 20
10.3781042168
 30
0.0
 10
10.7882156325
 20
10.3794067089
 30
0.0
 10
10.7913003708
 20
10.3806620294
 30
0.0
 10
10.7946844174
 20
10.3818648438
 30
0.0
 10
10.7983569658
 20
10.3830098887
 30
0.0
 10
10.8023053332
 20
10.3840920677
 30
0.0
 10
10.8065150144
 20
10.3851064627
 30
0.0
 10
10.8109699939
 20
10.3860484946
 30
0.0
 10
10.8156522219
 20
10.386913809
 30
0.0
 10
10.8188533854
 20
10.38742756
 30
0.0
 10
10.8204880048
 20
10.3876718199
 30
0.0
  0
SPLINE
  5
3AE
100
AcDbEntity
  8
0
100
AcDbSpline
 62
7
  6
CONTINUOUS
 70
0
 71
3
 72
39
 73
35
 74
0
 42
0.0000001
 43
0.0000001
 44
0.0000000001
 40
0.0
 40
0.0
 40
0.0
 40
0.0
 40
0.0382345222
 40
0.0777638166
 40
0.1183768938
 40
0.1598650788
 40
0.2445920959
 40
0.3302248272
 40
0.4151110418
 40
0.4977300694
 40
0.5377608895
 40
0.5767302105
 40
0.6144963926
 40
0.6509286931
 40
0.6859069595
 40
0.7193218706
 40
0.7510748798
 40
0.7810780331
 40
0.8092547492
 40
0.8355411563
 40
0.8598875842
 40
0.8822617428
 40
0.902653997
 40
0.9210849976
 40
0.9376180103
 40
0.9523781994
 40
0.9591618749
 40
0.9655926281
 40
0.9717169481
 40
0.9775907651
 40
0.9832794229
 40
0.9888567477
 40
0.9944026739
 40
1.0
 40
1.0
 40
1.0
 40
1.0
 10
10.8204880048
 20
10.3876718199
 30
0.0
 10
10.8224422873
 20
10.3879638468
 30
0.0
 10
10.8264248376
 20
10.3885065241
 30
0.0
 10
10.8325048225
 20
10.3891899203
 30
0.0
 10
10.8387659035
 20
10.3897540289
 30
0.0
 10
10.8473677289
 20
10.3903477126
 30
0.0
 10
10.8583109545
 20
10.3907717351
 30
0.0
 10
10.8715051286
 20
10.3907872571
 30
0.0
 10
10.8845820509
 20
10.39032223
 30
0.0
 10
10.8952821704
 20
10.3895434679
 30
0.0
 10
10.9035916295
 20
10.3886913286
 30
0.0
 10
10.909581403
 20
10.3879539201
 30
0.0
 10
10.9153701193
 20
10.387116095
 30
0.0
 10
10.9209351817
 20
10.3861825561
 30
0.0
 10
10.9262554675
 20
10.3851582292
 30
0.0
 10
10.9313112863
 20
10.3840482082
 30
0.0
 10
10.9360842794
 20
10.3828577424
 30
0.0
 10
10.9405573178
 20
10.3815921861
 30
0.0
 10
10.9447144296
 20
10.3802569949
 30
0.0
 10
10.9485407586
 20
10.3788577418
 30
0.0
 10
10.9520225084
 20
10.3774000603
 30
0.0
 10
10.9551469541
 20
10.3758895631
 30
0.0
 10
10.9579024212
 20
10.3743318695
 30
0.0
 10
10.9602785648
 20
10.3727320876
 30
0.0
 10
10.9622654692
 20
10.3710952187
 30
0.0
 10
10.9636264024
 20
10.3696640311
 30
0.0
 10
10.9644922218
 20
10.3685043052
 30
0.0
 10
10.965018968
 20
10.367653273
 30
0.0
 10
10.965440246
 20
10.3667972686
 30
0.0
 10
10.9657548069
 20
10.3659370188
 30
0.0
 10
10.9659612803
 20
10.3650734589
 30
0.0
 10
10.9660584968
 20
10.364207754
 30
0.0
 10
10.9660455367
 20
10.3633414844
 30
0.0
 10
10.9659636917
 20
10.362769643
 30
0.0
 10
10.9659053186
 20
10.362486321
 30
0.0
  0
SPLINE
  5
3AF
100
AcDbEntity
  8
0
100
AcDbSpline
 62
7
  6
CONTINUOUS
 70
0
 71
3
 72
23
 73
19
 74
0
 42
0.0000001
 43
0.0000001
 44
0.0000000001
 40
0.0
 40
0.0
 40
0.0
 40
0.0
 40
0.0616482107
 40
0.1233194484
 40
0.1850364778
 40
0.246821563
 40
0.3086962115
 40
0.3706809284
 40
0.432795007
 40
0.4950563296
 40
0.557481183
 40
0.6200840897
 40
0.6828775671
 40
0.7458723773
 40
0.8090769738
 40
0.8724964981
 40
0.9361392129
 40
1.0
 40
1.0
 40
1.0
 40
1.0
 10
9.0816246811
 20
9.1240209716
 30
0.0
 10
9.0858329647
 20
9.1280858399
 30
0.0
 10
9.0944715401
 20
9.1359923958
 30
0.0
 10
9.1080507654
 20
9.1471408697
 30
0.0
 10
9.1222196344
 20
9.1575524631
 30
0.0
 10
9.1369419667
 20
9.1672004914
 30
0.0
 10
9.1521808048
 20
9.1760607621
 30
0.0
 10
9.1678977192
 20
9.1841109184
 30
0.0
 10
9.1840530836
 20
9.1913307698
 30
0.0
 10
9.2006061907
 20
9.1977021671
 30
0.0
 10
9.2175153561
 20
9.2032090555
 30
0.0
 10
9.234737975
 20
9.2078376035
 30
0.0
 10
9.2522306593
 20
9.2115762668
 30
0.0
 10
9.2699493874
 20
9.2144156547
 30
0.0
 10
9.2878494187
 20
9.2163485812
 30
0.0
 10
9.3058861245
 20
9.2173704136
 30
0.0
 10
9.3240131617
 20
9.2174783835
 30
0.0
 10
9.3361083039
 20
9.216942036
 30
0.0
 10
9.3421546524
 20
9.2165227203
 30
0.0
  0
SPLINE
  5
3B0
100
AcDbEntity
  8
0
100
AcDbSpline
 62
7
  6
CONTINUOUS
 70
0
 71
3
 72
23
 73
19
 74
0
 42
0.0000001
 43
0.0000001
 44
0.0000000001
 40
0.0
 40
0.0
 40
0.0
 40
0.0
 40
0.0616482149
 40
0.1233194547
 40
0.1850364846
 40
0.2468215689
 40
0.3086962155
 40
0.3706809299
 40
0.4327950056
 40
0.4950563252
 40
0.557481176
 40
0.6200840805
 40
0.6828775566
 40
0.7458723664
 40
0.8090769636
 40
0.8724964899
 40
0.9361392081
 40
1.0
 40
1.0
 40
1.0
 40
1.0
 10
9.4858984511
 20
9.51451947
 30
0.0
 10
9.4901067391
 20
9.5185843861
 30
0.0
 10
9.498745327
 20
9.5264910359
 30
0.0
 10
9.5123245822
 20
9.5376396448
 30
0.0
 10
9.5264934914
 20
9.5480513663
 30
0.0
 10
9.5412158739
 20
9.5576995152
 30
0.0
 10
9.5564547714
 20
9.5665598985
 30
0.0
 10
9.5721717538
 20
9.5746101586
 30
0.0
 10
9.5883271943
 20
9.5818301048
 30
0.0
 10
9.6048803846
 20
9.5882015872
 30
0.0
 10
9.6217896398
 20
9.5937085507
 30
0.0
 10
9.6390123543
 20
9.5983371634
 30
0.0
 10
9.6565051392
 20
9.6020758806
 30
0.0
 10
9.6742239721
 20
9.6049153116
 30
0.0
 10
9.6921241116
 20
9.60684827
 30
0.0
 10
9.7101609281
 20
9.6078701229
 30
0.0
 10
9.7282880778
 20
9.607978102
 30
0.0
 10
9.7403832951
 20
9.6074417531
 30
0.0
 10
9.7464296813
 20
9.6070224348
 30
0.0
  0
SPLINE
  5
3B1
100
AcDbEntity
  8
0
100
AcDbSpline
 62
7
  6
CONTINUOUS
 70
0
 71
3
 72
42
 73
38
 74
0
 42
0.0000001
 43
0.0000001
 44
0.0000000001
 40
0.0
 40
0.0
 40
0.0
 40
0.0
 40
0.0299419644
 40
0.0449235317
 40
0.0599142035
 40
0.0899287023
 40
0.1200139727
 40
0.1350926544
 40
0.1501966973
 40
0.1804840373
 40
0.210897868
 40
0.2414513286
 40
0.2721543342
 40
0.3030133956
 40
0.3340315238
 40
0.3652082165
 40
0.3965395222
 40
0.4280181758
 40
0.459633799
 40
0.4913731572
 40
0.5232204671
 40
0.5551577446
 40
0.5871651885
 40
0.6192215901
 40
0.6513047644
 40
0.683391994
 40
0.715460481
 40
0.7474877999
 40
0.7794523452
 40
0.8113337678
 40
0.8431133918
 40
0.8747746145
 40
0.906303246
 40
0.9376878974
 40
0.9533257627
 40
0.9689252947
 40
1.0
 40
1.0
 40
1.0
 40
1.0
 10
9.7994602667
 20
7.8860635384
 30
0.0
 10
9.7955451053
 20
7.8822817843
 30
0.0
 10
9.7894415921
 20
7.8768382982
 30
0.0
 10
9.7808937908
 20
7.870084061
 30
0.0
 10
9.7720737097
 20
7.8636660153
 30
0.0
 10
9.7605650175
 20
7.856295924
 30
0.0
 10
9.7484967149
 20
7.8498492897
 30
0.0
 10
9.7385435374
 20
7.8452630428
 30
0.0
 10
9.7283846917
 20
7.8410555284
 30
0.0
 10
9.7153514015
 20
7.8365311428
 30
0.0
 10
9.6992898181
 20
7.8323145571
 30
0.0
 10
9.6828777684
 20
7.8293274003
 30
0.0
 10
9.6662061981
 20
7.8275861704
 30
0.0
 10
9.64936669
 20
7.8271001551
 30
0.0
 10
9.6324518999
 20
7.8278718293
 30
0.0
 10
9.6155547956
 20
7.8298967353
 30
0.0
 10
9.5987682197
 20
7.8331635481
 30
0.0
 10
9.5821843665
 20
7.8376541374
 30
0.0
 10
9.5658942877
 20
7.843343675
 30
0.0
 10
9.5499873981
 20
7.8502007747
 30
0.0
 10
9.5345509921
 20
7.8581876671
 30
0.0
 10
9.5196697711
 20
7.8672604079
 30
0.0
 10
9.5054253854
 20
7.8773691189
 30
0.0
 10
9.4918959913
 20
7.8884582604
 30
0.0
 10
9.4791558278
 20
7.9004669342
 30
0.0
 10
9.4672748134
 20
7.9133292147
 30
0.0
 10
9.4563181669
 20
7.9269745077
 30
0.0
 10
9.4463460525
 20
7.9413279342
 30
0.0
 10
9.4374132527
 20
7.956310733
 30
0.0
 10
9.429568869
 20
7.9718407047
 30
0.0
 10
9.4228560583
 20
7.9878325932
 30
0.0
 10
9.4173117755
 20
8.0041987852
 30
0.0
 10
9.4129666579
 20
8.0208489029
 30
0.0
 10
9.4103616566
 20
8.0349034035
 30
0.0
 10
9.408900333
 20
8.0461960354
 30
0.0
 10
9.4078574215
 20
8.0574778586
 30
0.0
 10
9.4075416358
 20
8.0659673581
 30
0.0
 10
9.4075416358
 20
8.0716166456
 30
0.0
  0
SPLINE
  5
3B2
100
AcDbEntity
  8
0
100
AcDbSpline
 62
7
  6
CONTINUOUS
 70
0
 71
3
 72
42
 73
38
 74
0
 42
0.0000001
 43
0.0000001
 44
0.0000000001
 40
0.0
 40
0.0
 40
0.0
 40
0.0
 40
0.0299419644
 40
0.0449235317
 40
0.0599142035
 40
0.0899287023
 40
0.1200139727
 40
0.1350926544
 40
0.1501966973
 40
0.1804840373
 40
0.210897868
 40
0.2414513286
 40
0.2721543342
 40
0.3030133956
 40
0.3340315238
 40
0.3652082165
 40
0.3965395222
 40
0.4280181758
 40
0.459633799
 40
0.4913731572
 40
0.5232204671
 40
0.5551577446
 40
0.5871651885
 40
0.6192215901
 40
0.6513047644
 40
0.683391994
 40
0.715460481
 40
0.7474877999
 40
0.7794523452
 40
0.8113337678
 40
0.8431133918
 40
0.8747746145
 40
0.906303246
 40
0.9376878974
 40
0.9533257627
 40
0.9689252947
 40
1.0
 40
1.0
 40
1.0
 40
1.0
 10
10.7953298701
 20
6.3082234817
 30
0.0
 10
10.7914147087
 20
6.3044417277
 30
0.0
 10
10.7853111955
 20
6.2989982415
 30
0.0
 10
10.7767633942
 20
6.2922440043
 30
0.0
 10
10.7679433131
 20
6.2858259586
 30
0.0
 10
10.7564346209
 20
6.2784558674
 30
0.0
 10
10.7443663184
 20
6.272009233
 30
0.0
 10
10.7344131408
 20
6.2674229862
 30
0.0
 10
10.7242542951
 20
6.2632154717
 30
0.0
 10
10.7112210049
 20
6.2586910861
 30
0.0
 10
10.6951594215
 20
6.2544745005
 30
0.0
 10
10.6787473718
 20
6.2514873437
 30
0.0
 10
10.6620758015
 20
6.2497461138
 30
0.0
 10
10.6452362935
 20
6.2492600984
 30
0.0
 10
10.6283215033
 20
6.2500317727
 30
0.0
 10
10.611424399
 20
6.2520566786
 30
0.0
 10
10.5946378231
 20
6.2553234915
 30
0.0
 10
10.5780539699
 20
6.2598140808
 30
0.0
 10
10.5617638911
 20
6.2655036184
 30
0.0
 10
10.5458570015
 20
6.2723607181
 30
0.0
 10
10.5304205955
 20
6.2803476105
 30
0.0
 10
10.5155393745
 20
6.2894203513
 30
0.0
 10
10.5012949888
 20
6.2995290623
 30
0.0
 10
10.4877655947
 20
6.3106182038
 30
0.0
 10
10.4750254312
 20
6.3226268775
 30
0.0
 10
10.4631444168
 20
6.3354891581
 30
0.0
 10
10.4521877703
 20
6.349134451
 30
0.0
 10
10.4422156559
 20
6.3634878776
 30
0.0
 10
10.4332828561
 20
6.3784706763
 30
0.0
 10
10.4254384724
 20
6.3940006481
 30
0.0
 10
10.4187256617
 20
6.4099925365
 30
0.0
 10
10.4131813789
 20
6.4263587286
 30
0.0
 10
10.4088362613
 20
6.4430088462
 30
0.0
 10
10.40623126
 20
6.4570633469
 30
0.0
 10
10.4047699364
 20
6.4683559787
 30
0.0
 10
10.4037270249
 20
6.4796378019
 30
0.0
 10
10.4034112392
 20
6.4881273015
 30
0.0
 10
10.4034112392
 20
6.4937765889
 30
0.0
  0
SPLINE
  5
3B3
100
AcDbEntity
  8
0
100
AcDbSpline
 62
7
  6
CONTINUOUS
 70
0
 71
3
 72
41
 73
37
 74
0
 42
0.0000001
 43
0.0000001
 44
0.0000000001
 40
0.0
 40
0.0
 40
0.0
 40
0.0
 40
0.0299421701
 40
0.0599087164
 40
0.0899234211
 40
0.1200088983
 40
0.1501860543
 40
0.1804736026
 40
0.2108876422
 40
0.2414413123
 40
0.2721445279
 40
0.3030038001
 40
0.33402214
 40
0.3651990456
 40
0.3965305656
 40
0.428009435
 40
0.4596252751
 40
0.4913648511
 40
0.523212379
 40
0.5551498748
 40
0.5871575372
 40
0.6192141578
 40
0.6512975514
 40
0.6833850007
 40
0.7154537075
 40
0.7314764095
 40
0.7474860758
 40
0.7794508394
 40
0.8113324795
 40
0.8431123195
 40
0.8747737607
 40
0.9063025939
 40
0.9376875098
 40
0.9533255635
 40
0.9689249841
 40
1.0
 40
1.0
 40
1.0
 40
1.0
 10
10.6048427795
 20
8.1403322638
 30
0.0
 10
10.5989949221
 20
8.1346836656
 30
0.0
 10
10.5868393796
 20
8.1238423318
 30
0.0
 10
10.567364307
 20
8.1090729306
 30
0.0
 10
10.5467470196
 20
8.095870044
 30
0.0
 10
10.5251027157
 20
8.0843077394
 30
0.0
 10
10.5025503928
 20
8.074449188
 30
0.0
 10
10.4792145149
 20
8.0663485844
 30
0.0
 10
10.4552236791
 20
8.0600502461
 30
0.0
 10
10.4307100587
 20
8.0555885573
 30
0.0
 10
10.4058086215
 20
8.0529877516
 30
0.0
 10
10.3806563947
 20
8.0522618107
 30
0.0
 10
10.3553917088
 20
8.053414402
 30
0.0
 10
10.3301534416
 20
8.0564388766
 30
0.0
 10
10.3050802622
 20
8.0613183191
 30
0.0
 10
10.2803098786
 20
8.0680256534
 30
0.0
 10
10.2559782909
 20
8.0765237969
 30
0.0
 10
10.2322190524
 20
8.086765865
 30
0.0
 10
10.2091625488
 20
8.0986954421
 30
0.0
 10
10.1869352952
 20
8.1122468862
 30
0.0
 10
10.1656592384
 20
8.1273457089
 30
0.0
 10
10.1454511491
 20
8.1439089083
 30
0.0
 10
10.1264217899
 20
8.1618456963
 30
0.0
 10
10.1086760599
 20
8.1810569665
 30
0.0
 10
10.0950329932
 20
8.1980480084
 30
0.0
 10
10.0848540441
 20
8.212171013
 30
0.0
 10
10.0751871773
 20
8.2266153709
 30
0.0
 10
10.0640730631
 20
8.2452567049
 30
0.0
 10
10.0523566148
 20
8.2684525574
 30
0.0
 10
10.0423299903
 20
8.2923388611
 30
0.0
 10
10.0340488258
 20
8.3167841015
 30
0.0
 10
10.0275587412
 20
8.3416534717
 30
0.0
 10
10.0236678075
 20
8.362645931
 30
0.0
 10
10.0214850896
 20
8.3795130819
 30
0.0
 10
10.019927351
 20
8.3963641044
 30
0.0
 10
10.019455683
 20
8.409044366
 30
0.0
 10
10.019455683
 20
8.4174824195
 30
0.0
  0
SPLINE
  5
3B4
100
AcDbEntity
  8
0
100
AcDbSpline
 62
7
  6
CONTINUOUS
 70
0
 71
3
 72
34
 73
30
 74
0
 42
0.0000001
 43
0.0000001
 44
0.0000000001
 40
0.0
 40
0.0
 40
0.0
 40
0.0
 40
0.0968304296
 40
0.1922840038
 40
0.2850752198
 40
0.3740753965
 40
0.4583573125
 40
0.4985007343
 40
0.5372144847
 40
0.5744420666
 40
0.6101386002
 40
0.6442695044
 40
0.6768108477
 40
0.7077479022
 40
0.737074452
 40
0.7647933914
 40
0.7909154925
 40
0.8154603917
 40
0.8384569303
 40
0.8599439179
 40
0.8799722736
 40
0.8986066241
 40
0.9159288648
 40
0.9320415089
 40
0.9470722845
 40
0.9611783077
 40
0.9745491719
 40
0.9874067883
 40
1.0
 40
1.0
 40
1.0
 40
1.0
 10
11.045192993
 20
10.1836014821
 30
0.0
 10
11.0518340107
 20
10.1836014825
 30
0.0
 10
11.0650226189
 20
10.1833904287
 30
0.0
 10
11.0845547319
 20
10.1824469187
 30
0.0
 10
11.1035101019
 20
10.1809015591
 30
0.0
 10
11.121639808
 20
10.1787919218
 30
0.0
 10
11.1361115267
 20
10.1765684709
 30
0.0
 10
11.1471146845
 20
10.1745353981
 30
0.0
 10
11.1549124128
 20
10.1729254956
 30
0.0
 10
11.1623756165
 20
10.1712127224
 30
0.0
 10
11.169492311
 20
10.1694038959
 30
0.0
 10
11.1762525085
 20
10.1675057284
 30
0.0
 10
11.1826480397
 20
10.1655248084
 30
0.0
 10
11.1886723189
 20
10.1634675041
 30
0.0
 10
11.1943201362
 20
10.1613399453
 30
0.0
 10
11.19958746
 20
10.1591480698
 30
0.0
 10
11.204471262
 20
10.1568975117
 30
0.0
 10
11.2089693486
 20
10.1545936827
 30
0.0
 10
11.2130802141
 20
10.1522417057
 30
0.0
 10
11.2168029153
 20
10.1498464099
 30
0.0
 10
11.2201369313
 20
10.1474123282
 30
0.0
 10
11.2230820388
 20
10.1449436231
 30
0.0
 10
11.2256381445
 20
10.1424440949
 30
0.0
 10
11.2278050704
 20
10.1399171329
 30
0.0
 10
11.2295822868
 20
10.1373657874
 30
0.0
 10
11.2309685796
 20
10.1347930887
 30
0.0
 10
11.2319618985
 20
10.1322022076
 30
0.0
 10
11.232559544
 20
10.1295984499
 30
0.0
 10
11.2326930432
 20
10.1278501628
 30
0.0
 10
11.2326930431
 20
10.12698647
 30
0.0
  0
ELLIPSE
  5
3B5
100
AcDbEntity
  8
0
100
AcDbEllipse
 62
7
  6
CONTINUOUS
 10
11.6047354608
 20
10.2304629469
 30
0.0
 11
0.2101302922
 21
-0.0055815383
 31
0.0
 40
0.2663352177
 41
0.0
 42
6.2831853072
  0
ENDSEC
  0
SECTION
  2
OBJECTS
  0
DICTIONARY
  5
C
100
AcDbDictionary
280
0
281
1
  3
ACAD_GROUP
350
D
  3
ACAD_MLINESTYLE
350
17
  3
ACAD_LAYOUT
350
1A
  3
ACAD_PLOTSETTINGS
350
19
  3
ACAD_PLOTSTYLENAME
350
E
  3
ACAD_IMAGE_DICT
350
       3B7
  3
ACAD_IMAGE_VARS
350
       3B8
  3
ACAD_TABLESTYLE
350
       3B9
  0
IMAGEDEF_REACTOR
  5
3B6
100
AcDbRasterImageDefReactor
 90
2
330
26E
  0
DICTIONARY
  5
D
102
{ACAD_REACTORS
330
C
102
}
100
AcDbDictionary
280
0
281
1
  0
ACDBDICTIONARYWDFLT
  5
E
102
{ACAD_REACTORS
330
C
102
}
100
AcDbDictionary
281
1
  3
Normal
350
F
100
AcDbDictionaryWithDefault
340
F
  0
DICTIONARY
  5
3B7
330
C
100
AcDbDictionary
281
1
  3
U4A_assy_2_img_1
350
       3BC
  0
RASTERVARIABLES
  5
3B8
330
C
100
AcDbRasterVariables
 90
0
 70
0
 71
1
 72
5
  0
DICTIONARY
  5
17
102
{ACAD_REACTORS
330
C
102
}
100
AcDbDictionary
280
0
281
1
  3
Standard
350
18
  0
DICTIONARY
  5
3B9
330
C
100
AcDbDictionary
281
1
  3
Standard
350
       3BD
  3
Standard1
350
       3BE
  0
DICTIONARY
  5
19
102
{ACAD_REACTORS
330
C
102
}
100
AcDbDictionary
281
1
  0
DICTIONARY
  5
1A
102
{ACAD_REACTORS
330
C
102
}
100
AcDbDictionary
281
1
  3
Model
350
3BA
  3
Layout1
350
3BB
  0
ACDBPLACEHOLDER
  5
F
102
{ACAD_REACTORS
330
E
102
}
  0
MLINESTYLE
  5
18
102
{ACAD_REACTORS
330
17
102
}
100
AcDbMlineStyle
  2
STANDARD
 70
0
  3

 62
256
 51
90.0
 52
90.0
 71
2
 49
0.5
 62
256
  6
BYLAYER
 49
-0.5
 62
256
  6
BYLAYER
  0
LAYOUT
  5
3BA
102
{ACAD_REACTORS
330
1A
102
}
100
AcDbPlotSettings
  1

  2
none_device
  4
ANSI_C_(22.00_x_17.00_Inches)
  6

 40
0.0
 41
0.0
 42
0.0
 43
0.0
 44
558.8
 45
431.8
 46
0.0
 47
0.0
 48
0.0
 49
0.0
140
0.0
141
0.0
142
1.0
143
1.0
 70
1024
 72
0
 73
0
 74
0
  7

 75
0
147
1.0
148
0.0
149
0.0
100
AcDbLayout
  1
Model
 70
0
 71
0
 10
0.0
 20
0.0
 11
22.0
 21
17.0
 12
0.0
 22
0.0
 32
0.0
 14
0.0
 24
0.0
 34
0.0
 15
0.0
 25
0.0
 35
0.0
146
0.0
 13
0.0
 23
0.0
 33
0.0
 16
1.0
 26
0.0
 36
0.0
 17
0.0
 27
1.0
 37
0.0
 76
0
330
20F
345
0
346
0
  0
LAYOUT
  5
3BB
102
{ACAD_REACTORS
330
1A
102
}
100
AcDbPlotSettings
  1

  2
none_device
  4
ANSI_C_(22.00_x_17.00_Inches)
  6

 40
0.0
 41
0.0
 42
0.0
 43
0.0
 44
558.8
 45
431.8
 46
0.0
 47
0.0
 48
0.0
 49
0.0
140
0.0
141
0.0
142
1.0
143
1.0
 70
0
 72
0
 73
0
 74
0
  7

 75
0
147
1.0
148
0.0
149
0.0
100
AcDbLayout
  1
Layout1
 70
0
 71
1
 10
0.0
 20
0.0
 11
22.0
 21
17.0
 12
0.0
 22
0.0
 32
0.0
 14
0.0
 24
0.0
 34
0.0
 15
0.0
 25
0.0
 35
0.0
146
0.0
 13
0.0
 23
0.0
 33
0.0
 16
1.0
 26
0.0
 36
0.0
 17
0.0
 27
1.0
 37
0.0
 76
0
330
210
345
0
346
0
  0
IMAGEDEF
  5
3BC
102
{ACAD_REACTORS
330
3B7
330
3B6
102
}
100
AcDbRasterImageDef
 90
0
  1
U4A_assy_2_img_1.png
 10
369.0
 20
92.0
 11
0.0066666667
 21
0.0066666667
280
1
281
0
  0
TABLESTYLE
  5
3BD
102
{ACAD_REACTORS
330
3B9
330
271
102
}
330
3B9
100
AcDbTableStyle
  3
Standard
 70
0
 71
0
 40
0.06
 41
0.06
280
1
281
1
  7
Standard
140
0.18
170
1
 62
0
 63
7
283
0
  7
Standard
140
0.18
170
1
 62
0
 63
7
283
0
  7
Standard
140
0.18
170
1
 62
0
 63
7
283
0
  0
TABLESTYLE
  5
3BE
102
{ACAD_REACTORS
330
3B9
330
270
102
}
330
3B9
100
AcDbTableStyle
  3
Standard1
 70
1
 71
0
 40
0.06
 41
0.06
280
1
281
1
  7
Standard
140
0.18
170
1
 62
0
 63
7
283
0
  7
Standard
140
0.18
170
1
 62
0
 63
7
283
0
  7
Standard
140
0.18
170
1
 62
0
 63
7
283
0
  0
ENDSEC
  0
EOF
