999
DXF file: U3Y_assy_2.dxf
999
Pro/ENGINEER 2014200 by Parametric Technology Corporation
  0
SECTION
  2
HEADER
  9
$ACADVER
  1
AC1021
  9
$DWGCODEPAGE
  3
ANSI_1252
  9
$EXTMAX
 10
22.0
 20
17.0
 30
0.0
  9
$EXTMIN
 10
0.0
 20
0.0
 30
0.0
  9
$LIMMIN
 10
0.0
 20
0.0
  9
$LIMMAX
 10
22.0
 20
17.0
  9
$VIEWCTR
 10
11.0
 20
8.5
  9
$VIEWSIZE
 40
17.0
  9
$CLAYER
  8
0
  9
$LTSCALE
 40
1.21
  9
$CELTYPE
  6
BYLAYER
  9
$DIMSCALE
 40
1.0
  9
$DIMASZ
 40
0.1875
  9
$DIMEXO
 40
0.0625
  9
$DIMDLI
 40
0.836
  9
$DIMEXE
 40
0.125
  9
$DIMCEN
 40
0.198
  9
$DIMLFAC
 40
1.0
  9
$DIMBLK
  1
_FILLED
  9
$DIMTXT
 40
0.1
  9
$DIMTOL
 70
0
  9
$DIMLIM
 70
0
  9
$DIMTFAC
 40
1.0
  9
$DIMGAP
 40
0.09
  9
$DIMDSEP
 70
46
  9
$AUNITS
 70
0
  9
$PDMODE
 70
3
  9
$PDSIZE
 40
0.3125
  9
$HANDSEED
  5
3B4
  9
$TILEMODE
 70
1
  9
$MEASUREMENT
 70
0
  9
$INSUNITS
 70
1
  0
ENDSEC
  0
SECTION
  2
CLASSES
  0
CLASS
  1
ACDBDICTIONARYWDFLT
  2
AcDbDictionaryWithDefault
  3
AutoCAD 2000
 90
0
 91
1
280
0
281
0
  0
CLASS
  1
ACDBPLACEHOLDER
  2
AcDbPlaceHolder
  3
AutoCAD 2000
 90
0
 91
1
280
0
281
0
  0
CLASS
  1
LAYOUT
  2
AcDbLayout
  3
AutoCAD 2000
 90
0
 91
0
280
0
281
0
  0
CLASS
  1
RASTERVARIABLES
  2
AcDbRasterVariables
  3
ISM
 90
0
 91
1
280
0
281
0
  0
CLASS
  1
IMAGEDEF
  2
AcDbRasterImageDef
  3
ISM
 90
0
 91
1
280
0
281
0
  0
CLASS
  1
IMAGEDEF_REACTOR
  2
AcDbRasterImageDefReactor
  3
ISM
 90
0
 91
1
280
0
281
0
  0
CLASS
  1
IMAGE
  2
AcDbRasterImage
  3
ISM
 90
127
 91
1
280
0
281
1
  0
CLASS
  1
TABLESTYLE
  2
AcDbTableStyle
  3
ObjectDBX Classes
 90
2047
 91
1
280
0
281
0
  0
CLASS
  1
ACAD_TABLE
  2
AcDbTable
  3
ObjectDBX Classes
 90
1025
 91
2
280
0
281
1
  0
ENDSEC
  0
SECTION
  2
TABLES
  0
TABLE
  2
VPORT
  5
8
100
AcDbSymbolTable
 70
2
  0
VPORT
  5
1F4
100
AcDbSymbolTableRecord
100
AcDbViewportTableRecord
  2
*ACTIVE
 70
0
 10
0.0
 20
0.0
 11
1.0
 21
1.0
 12
11.0
 22
8.5
 13
0.0
 23
0.0
 14
1.0
 24
1.0
 15
0.0
 25
0.0
 16
0.0
 26
0.0
 36
1.0
 17
0.0
 27
0.0
 37
0.0
 40
17.0
 41
1.2941176471
 42
50.0
 43
0.0
 44
0.0
 50
0.0
 51
0.0
 71
0
 72
100
 73
1
 74
1
 75
0
 76
0
 77
0
 78
0
  0
ENDTAB
  0
TABLE
  2
LTYPE
  5
5
100
AcDbSymbolTable
 70
6
  0
LTYPE
  5
14
100
AcDbSymbolTableRecord
100
AcDbLinetypeTableRecord
  2
BYBLOCK
 70
0
  3

 72
65
 73
0
 40
0.0
  0
LTYPE
  5
15
100
AcDbSymbolTableRecord
100
AcDbLinetypeTableRecord
  2
BYLAYER
 70
0
  3

 72
65
 73
0
 40
0.0
  0
LTYPE
  5
16
100
AcDbSymbolTableRecord
100
AcDbLinetypeTableRecord
  2
CONTINUOUS
 70
64
  3
Solid line
 72
65
 73
0
 40
0.0
  0
LTYPE
  5
1F5
100
AcDbSymbolTableRecord
100
AcDbLinetypeTableRecord
  2
CENTER
 70
64
  3
____ _ ____ _ ____ _ ____ _ ____ _ ____ _ ____
 72
65
 73
4
 40
0.6
 49
0.375
 74
0
 49
-0.075
 74
0
 49
0.075
 74
0
 49
-0.075
 74
0
  0
LTYPE
  5
1F6
100
AcDbSymbolTableRecord
100
AcDbLinetypeTableRecord
  2
HIDDEN
 70
64
  3
- - - - - - - - - - - - - - - - - - - -
 72
65
 73
2
 40
0.2
 49
0.1
 74
0
 49
-0.1
 74
0
  0
LTYPE
  5
1F7
100
AcDbSymbolTableRecord
100
AcDbLinetypeTableRecord
  2
PHANTOM
 70
64
  3
_____ _ _ _____ _ _ _____ _ _ _____
 72
65
 73
6
 40
0.8
 49
0.45
 74
0
 49
-0.05
 74
0
 49
0.1
 74
0
 49
-0.05
 74
0
 49
0.1
 74
0
 49
-0.05
 74
0
  0
LTYPE
  5
1F8
100
AcDbSymbolTableRecord
100
AcDbLinetypeTableRecord
  2
DOT
 70
64
  3
. . . . . . . . . . . . . . . . . . . .
 72
65
 73
2
 40
0.2
 49
0.1
 74
0
 49
-0.1
 74
0
  0
LTYPE
  5
1F9
100
AcDbSymbolTableRecord
100
AcDbLinetypeTableRecord
  2
DASHED
 70
64
  3
- - - - - - - - - - - - - - - - - - - -
 72
65
 73
2
 40
0.2
 49
0.1
 74
0
 49
-0.1
 74
0
  0
ENDTAB
  0
TABLE
  2
LAYER
  5
2
100
AcDbSymbolTable
 70
36
  0
LAYER
  5
10
100
AcDbSymbolTableRecord
100
AcDbLayerTableRecord
  2
0
 70
0
 62
7
  6
CONTINUOUS
370
-3
390
F
  0
LAYER
  5
1FA
100
AcDbSymbolTableRecord
100
AcDbLayerTableRecord
  2
DEFAULT_1
 70
0
 62
7
  6
CENTER
370
-3
390
F
  0
LAYER
  5
1FB
100
AcDbSymbolTableRecord
100
AcDbLayerTableRecord
  2
DEFAULT_2
 70
0
 62
8
  6
HIDDEN
370
-3
390
F
  0
LAYER
  5
1FC
100
AcDbSymbolTableRecord
100
AcDbLayerTableRecord
  2
DEFAULT_3
 70
0
 62
7
  6
PHANTOM
370
-3
390
F
  0
LAYER
  5
1FD
100
AcDbSymbolTableRecord
100
AcDbLayerTableRecord
  2
01___PRT_ALL_DTM_PLN
 70
0
 62
7
  6
CONTINUOUS
370
-3
390
F
  0
LAYER
  5
1FE
100
AcDbSymbolTableRecord
100
AcDbLayerTableRecord
  2
01___PRT_DEF_DTM_PLN
 70
0
 62
7
  6
CONTINUOUS
370
-3
390
F
  0
LAYER
  5
1FF
100
AcDbSymbolTableRecord
100
AcDbLayerTableRecord
  2
02___PRT_ALL_AXES
 70
0
 62
7
  6
CONTINUOUS
370
-3
390
F
  0
LAYER
  5
200
100
AcDbSymbolTableRecord
100
AcDbLayerTableRecord
  2
03___PRT_ALL_CURVES
 70
0
 62
7
  6
CONTINUOUS
370
-3
390
F
  0
LAYER
  5
201
100
AcDbSymbolTableRecord
100
AcDbLayerTableRecord
  2
04___PRT_ALL_DTM_PNT
 70
0
 62
7
  6
CONTINUOUS
370
-3
390
F
  0
LAYER
  5
202
100
AcDbSymbolTableRecord
100
AcDbLayerTableRecord
  2
05___PRT_ALL_DTM_CSYS
 70
0
 62
7
  6
CONTINUOUS
370
-3
390
F
  0
LAYER
  5
203
100
AcDbSymbolTableRecord
100
AcDbLayerTableRecord
  2
05___PRT_DEF_DTM_CSYS
 70
0
 62
7
  6
CONTINUOUS
370
-3
390
F
  0
LAYER
  5
204
100
AcDbSymbolTableRecord
100
AcDbLayerTableRecord
  2
06___PRT_ALL_SURFS
 70
0
 62
7
  6
CONTINUOUS
370
-3
390
F
  0
LAYER
  5
205
100
AcDbSymbolTableRecord
100
AcDbLayerTableRecord
  2
DATUM_PLANES
 70
0
 62
7
  6
CONTINUOUS
370
-3
390
F
  0
LAYER
  5
206
100
AcDbSymbolTableRecord
100
AcDbLayerTableRecord
  2
DIMENSIONS
 70
0
 62
7
  6
CONTINUOUS
370
-3
390
F
  0
LAYER
  5
207
100
AcDbSymbolTableRecord
100
AcDbLayerTableRecord
  2
DTM_500001
 70
0
 62
7
  6
CONTINUOUS
370
-3
390
F
  0
LAYER
  5
208
100
AcDbSymbolTableRecord
100
AcDbLayerTableRecord
  2
PARAMETERDIMENSIONS
 70
0
 62
7
  6
CONTINUOUS
370
-3
390
F
  0
LAYER
  5
209
100
AcDbSymbolTableRecord
100
AcDbLayerTableRecord
  2
PORT_AREAS
 70
0
 62
7
  6
CONTINUOUS
370
-3
390
F
  0
LAYER
  5
20A
100
AcDbSymbolTableRecord
100
AcDbLayerTableRecord
  2
SUNNBOMCOSMETIC
 70
0
 62
7
  6
CONTINUOUS
370
-3
390
F
  0
LAYER
  5
20B
100
AcDbSymbolTableRecord
100
AcDbLayerTableRecord
  2
SUNNBOMSTAMPING
 70
0
 62
7
  6
CONTINUOUS
370
-3
390
F
  0
LAYER
  5
20C
100
AcDbSymbolTableRecord
100
AcDbLayerTableRecord
  2
THREADS
 70
0
 62
7
  6
CONTINUOUS
370
-3
390
F
  0
ENDTAB
  0
TABLE
  2
STYLE
  5
3
100
AcDbSymbolTable
 70
1
  0
STYLE
  5
11
100
AcDbSymbolTableRecord
100
AcDbTextStyleTableRecord
  2
STANDARD
 70
0
 40
0.0
 41
0.8
 50
0.0
 71
0
 42
0.2
  3
txt
  4

  0
STYLE
  5
20D
100
AcDbSymbolTableRecord
100
AcDbTextStyleTableRecord
  2
TEXTSTYLE_1
 70
0
 40
0.0
 41
0.8
 50
0.0
 71
0
 42
0.2
  3
gdt
  4

  0
ENDTAB
  0
TABLE
  2
VIEW
  5
6
100
AcDbSymbolTable
 70
0
  0
ENDTAB
  0
TABLE
  2
UCS
  5
7
100
AcDbSymbolTable
 70
0
  0
ENDTAB
  0
TABLE
  2
APPID
  5
9
100
AcDbSymbolTable
 70
1
  0
APPID
  5
20E
100
AcDbSymbolTableRecord
100
AcDbRegAppTableRecord
  2
ACAD
 70
0
  0
ENDTAB
  0
TABLE
  2
BLOCK_RECORD
  5
1
100
AcDbSymbolTable
 70
0
  0
BLOCK_RECORD
  5
20F
100
AcDbSymbolTableRecord
100
AcDbBlockTableRecord
  2
*Model_Space
  0
BLOCK_RECORD
  5
210
100
AcDbSymbolTableRecord
100
AcDbBlockTableRecord
  2
*Paper_Space
  0
BLOCK_RECORD
  5
211
100
AcDbSymbolTableRecord
100
AcDbBlockTableRecord
  2
SUN_FIRST_THIRD_ANGLE_BL0
  0
BLOCK_RECORD
  5
212
100
AcDbSymbolTableRecord
100
AcDbBlockTableRecord
  2
*T1
  0
BLOCK_RECORD
  5
213
100
AcDbSymbolTableRecord
100
AcDbBlockTableRecord
  2
*T2
  0
ENDTAB
  0
TABLE
  2
DIMSTYLE
  5
A
100
AcDbSymbolTable
 70
1
100
AcDbDimStyleTable
 71
0
  0
DIMSTYLE
105
214
100
AcDbSymbolTableRecord
100
AcDbDimStyleTableRecord
  2
STANDARD
 70
0
  3

  4

 40
1.0
 41
0.1875
 42
0.0625
 43
0.38
 44
0.125
 45
0.0
 46
0.0
 47
0.001
 48
0.001
140
0.1
141
0.09
142
0.0
143
25.4
144
1.0
145
0.0
146
1.0
147
0.09
 71
0.0
 72
0.0
 73
1
 74
1
 75
0
 76
0
 77
0
 78
4
170
0
171
2
172
0
173
0
174
0
175
0
176
0
177
0
178
0
270
2
271
3
272
3
273
2
274
2
275
0
280
0
281
0
282
0
283
1
284
4
285
0
286
0
287
3
288
0
340
11
278
46
  0
ENDTAB
  0
ENDSEC
  0
SECTION
  2
BLOCKS
  0
BLOCK
  5
20
100
AcDbEntity
  8
0
100
AcDbBlockBegin
  2
*Model_Space
 70
0
 10
0.0
 20
0.0
 30
0.0
  3
*Model_Space
  1

  0
ENDBLK
  5
21
100
AcDbEntity
  8
0
100
AcDbBlockEnd
  0
BLOCK
  5
1C
100
AcDbEntity
  8
0
100
AcDbBlockBegin
  2
*Paper_Space
 70
0
 10
0.0
 20
0.0
 30
0.0
  3
*Paper_Space
  1

  0
ENDBLK
  5
1D
100
AcDbEntity
  8
0
100
AcDbBlockEnd
  0
BLOCK
  5
215
100
AcDbEntity
  8
0
100
AcDbBlockBegin
 62
2
  6
CONTINUOUS
  2
SUN_FIRST_THIRD_ANGLE_BL0
 70
64
 10
20.4816717061
 20
1.2289683772
  3
SUN_FIRST_THIRD_ANGLE_BL0
  1

  0
TEXT
  5
216
100
AcDbEntity
  8
0
100
AcDbText
 62
2
  6
CONTINUOUS
 10
19.4750896608
 20
1.4136269581
  7
STANDARD
 40
0.08
  1
FIRST ANGLE
 41
0.8
 72
0
100
AcDbText
  0
TEXT
  5
217
100
AcDbEntity
  8
0
100
AcDbText
 62
2
  6
CONTINUOUS
 10
20.7842537513
 20
1.4047600029
  7
STANDARD
 40
0.08
  1
THIRD ANGLE
 41
0.8
 72
0
100
AcDbText
  0
LINE
  5
218
100
AcDbEntity
  8
0
100
AcDbLine
 62
7
  6
CONTINUOUS
 10
19.4767170086
 20
1.1727031207
 11
19.6334271527
 21
1.1717972817
  0
LINE
  5
219
100
AcDbEntity
  8
0
100
AcDbLine
 62
7
  6
CONTINUOUS
 10
19.6596964832
 20
1.1717972817
 11
19.6950230232
 21
1.171593082
  0
LINE
  5
21A
100
AcDbEntity
  8
0
100
AcDbLine
 62
7
  6
CONTINUOUS
 10
19.7194818561
 20
1.1708914427
 11
19.8852396156
 21
1.1699333054
  0
LINE
  5
21B
100
AcDbEntity
  8
0
100
AcDbLine
 62
7
  6
CONTINUOUS
 10
19.4758111696
 20
1.2723454088
 11
19.88525039
 21
1.3511534004
  0
LINE
  5
21C
100
AcDbEntity
  8
0
100
AcDbLine
 62
7
  6
CONTINUOUS
 10
19.88525039
 20
1.3511534004
 11
19.8831348489
 21
0.9851647912
  0
LINE
  5
21D
100
AcDbEntity
  8
0
100
AcDbLine
 62
7
  6
CONTINUOUS
 10
19.8831348489
 20
0.9851647912
 11
19.4767170086
 21
1.0658141206
  0
LINE
  5
21E
100
AcDbEntity
  8
0
100
AcDbLine
 62
7
  6
CONTINUOUS
 10
19.4767170086
 20
1.0658141206
 11
19.4779056764
 21
1.2714536432
  0
CIRCLE
  5
21F
100
AcDbEntity
  8
0
100
AcDbCircle
 62
7
  6
CONTINUOUS
 10
20.2068232291
 20
1.1717972817
 40
0.175742101
  0
CIRCLE
  5
220
100
AcDbEntity
  8
0
100
AcDbCircle
 62
7
  6
CONTINUOUS
 10
20.2068232291
 20
1.1717972817
 40
0.1005522074
  0
LINE
  5
221
100
AcDbEntity
  8
0
100
AcDbLine
 62
7
  6
CONTINUOUS
 10
20.2077290681
 20
1.3756110529
 11
20.2071171714
 21
1.2379342989
  0
LINE
  5
222
100
AcDbEntity
  8
0
100
AcDbLine
 62
7
  6
CONTINUOUS
 10
20.2077290681
 20
1.2016899681
 11
20.2074674401
 21
1.1428236749
  0
LINE
  5
223
100
AcDbEntity
  8
0
100
AcDbLine
 62
7
  6
CONTINUOUS
 10
20.208634907
 20
1.101141841
 11
20.2080230104
 21
0.963465087
  0
LINE
  5
224
100
AcDbEntity
  8
0
100
AcDbLine
 62
7
  6
CONTINUOUS
 10
20.0066328138
 20
1.1745147986
 11
20.1443095678
 21
1.1739029019
  0
LINE
  5
225
100
AcDbEntity
  8
0
100
AcDbLine
 62
7
  6
CONTINUOUS
 10
20.1832714155
 20
1.1727031207
 11
20.238153505
 21
1.172335442
  0
LINE
  5
226
100
AcDbEntity
  8
0
100
AcDbLine
 62
7
  6
CONTINUOUS
 10
20.2756669918
 20
1.1717972817
 11
20.407916871
 21
1.1712095044
  0
CIRCLE
  5
227
100
AcDbEntity
  8
0
100
AcDbCircle
 62
7
  6
CONTINUOUS
 10
20.7509457401
 20
1.1693297793
 40
0.1722024983
  0
CIRCLE
  5
228
100
AcDbEntity
  8
0
100
AcDbCircle
 62
7
  6
CONTINUOUS
 10
20.7509457401
 20
1.1693297793
 40
0.0985164967
  0
LINE
  5
229
100
AcDbEntity
  8
0
100
AcDbLine
 62
7
  6
CONTINUOUS
 10
20.7169767782
 20
1.170462078
 11
20.7825395137
 21
1.1682766535
  0
LINE
  5
22A
100
AcDbEntity
  8
0
100
AcDbLine
 62
7
  6
CONTINUOUS
 10
20.8177513651
 20
1.1693297793
 11
20.947965719
 21
1.1693297793
  0
LINE
  5
22B
100
AcDbEntity
  8
0
100
AcDbLine
 62
7
  6
CONTINUOUS
 10
20.6875370113
 20
1.170462078
 11
20.5573226574
 21
1.170462078
  0
LINE
  5
22C
100
AcDbEntity
  8
0
100
AcDbLine
 62
7
  6
CONTINUOUS
 10
20.7486811426
 20
1.1987695462
 11
20.7486811426
 21
1.1432869085
  0
LINE
  5
22D
100
AcDbEntity
  8
0
100
AcDbLine
 62
7
  6
CONTINUOUS
 10
20.7498134414
 20
1.1059210505
 11
20.7498134414
 21
0.9757066966
  0
LINE
  5
22E
100
AcDbEntity
  8
0
100
AcDbLine
 62
7
  6
CONTINUOUS
 10
20.7486811426
 20
1.2338708068
 11
20.7486811426
 21
1.3640851607
  0
LINE
  5
22F
100
AcDbEntity
  8
0
100
AcDbLine
 62
7
  6
CONTINUOUS
 10
21.0702539817
 20
1.2701043662
 11
21.4790138229
 21
1.3448360823
  0
LINE
  5
230
100
AcDbEntity
  8
0
100
AcDbLine
 62
7
  6
CONTINUOUS
 10
21.4790138229
 20
1.3448360823
 11
21.4790138229
 21
0.9779712941
  0
LINE
  5
231
100
AcDbEntity
  8
0
100
AcDbLine
 62
7
  6
CONTINUOUS
 10
21.4790138229
 20
0.9779712941
 11
21.069121683
 21
1.0617614
  0
LINE
  5
232
100
AcDbEntity
  8
0
100
AcDbLine
 62
7
  6
CONTINUOUS
 10
21.0702539817
 20
1.2701043662
 11
21.069121683
 21
1.0617614
  0
LINE
  5
233
100
AcDbEntity
  8
0
100
AcDbLine
 62
7
  6
CONTINUOUS
 10
21.4790138229
 20
1.1693297793
 11
21.3159628059
 21
1.1693297793
  0
LINE
  5
234
100
AcDbEntity
  8
0
100
AcDbLine
 62
7
  6
CONTINUOUS
 10
21.2876553377
 20
1.1693297793
 11
21.2502894796
 21
1.1693297793
  0
LINE
  5
235
100
AcDbEntity
  8
0
100
AcDbLine
 62
7
  6
CONTINUOUS
 10
21.2208497126
 20
1.1659328831
 11
21.0713862804
 21
1.1659328831
  0
LINE
  5
236
100
AcDbEntity
  8
0
100
AcDbLine
 62
7
  6
CONTINUOUS
 10
20.4796138713
 20
1.5284908897
 11
20.4766766948
 21
0.9294458646
  0
ENDBLK
  5
237
100
AcDbEntity
  8
0
  6
BYBLOCK
 62
0
100
AcDbBlockEnd
  0
BLOCK
  5
238
100
AcDbEntity
  8
0
100
AcDbBlockBegin
  2
*T1
 70
1
 10
0.0
 20
0.0
  3
*T1
  1

  0
LINE
  5
239
100
AcDbEntity
  8
0
100
AcDbLine
 62
2
  6
CONTINUOUS
 10
9.275
 20
0.0
 11
-0.0
 21
0.0
  0
LINE
  5
23A
100
AcDbEntity
  8
0
100
AcDbLine
 62
2
  6
CONTINUOUS
 10
9.275
 20
0.0
 11
9.275
 21
1.25
  0
LINE
  5
23B
100
AcDbEntity
  8
0
100
AcDbLine
 62
2
  6
CONTINUOUS
 10
9.275
 20
0.625
 11
-0.0
 21
0.625
  0
LINE
  5
23C
100
AcDbEntity
  8
0
100
AcDbLine
 62
2
  6
CONTINUOUS
 10
9.275
 20
1.25
 11
-0.0
 21
1.25
  0
LINE
  5
23D
100
AcDbEntity
  8
0
100
AcDbLine
 62
2
  6
CONTINUOUS
 10
6.8
 20
0.0
 11
6.8
 21
1.25
  0
LINE
  5
23E
100
AcDbEntity
  8
0
100
AcDbLine
 62
2
  6
CONTINUOUS
 10
6.4
 20
0.0
 11
6.4
 21
0.625
  0
LINE
  5
23F
100
AcDbEntity
  8
0
100
AcDbLine
 62
2
  6
CONTINUOUS
 10
5.9
 20
0.0
 11
5.9
 21
0.625
  0
LINE
  5
240
100
AcDbEntity
  8
0
100
AcDbLine
 62
2
  6
CONTINUOUS
 10
5.2
 20
0.0
 11
5.2
 21
0.625
  0
LINE
  5
241
100
AcDbEntity
  8
0
100
AcDbLine
 62
2
  6
CONTINUOUS
 10
4.1
 20
0.0
 11
4.1
 21
1.25
  0
LINE
  5
242
100
AcDbEntity
  8
0
100
AcDbLine
 62
2
  6
CONTINUOUS
 10
-0.0
 20
0.0
 11
-0.0
 21
1.25
  0
MTEXT
  5
243
100
AcDbEntity
  8
0
100
AcDbMText
 62
2
  6
CONTINUOUS
  7
STANDARD
 71
2
 72
1
 10
6.6
 20
0.325
 30
0.0
 11
1.0
 21
0.0
 31
0.0
 44
0.9
  1
2
 40
0.125
 41
0.2
  0
MTEXT
  5
244
100
AcDbEntity
  8
0
100
AcDbMText
 62
2
  6
CONTINUOUS
  7
STANDARD
 71
2
 72
1
 10
6.15
 20
0.325
 30
0.0
 11
1.0
 21
0.0
 31
0.0
 44
0.9
  1
C
 40
0.125
 41
0.2
  0
MTEXT
  5
245
100
AcDbEntity
  8
0
100
AcDbMText
 62
2
  6
CONTINUOUS
  7
STANDARD
 71
2
 72
1
 10
5.55
 20
0.325
 30
0.0
 11
1.0
 21
0.0
 31
0.0
 44
0.9
  1
1.000
 40
0.125
 41
1.0
  0
MTEXT
  5
246
100
AcDbEntity
  8
0
100
AcDbMText
 62
2
  6
CONTINUOUS
  7
STANDARD
 71
2
 72
1
 10
4.65
 20
0.325
 30
0.0
 11
1.0
 21
0.0
 31
0.0
 44
0.9
  1
Aug-13-19
 40
0.125
 41
1.8
  0
MTEXT
  5
247
100
AcDbEntity
  8
0
100
AcDbMText
 62
2
  6
CONTINUOUS
  7
STANDARD
 71
2
 72
1
 10
2.05
 20
0.4625
 30
0.0
 11
1.0
 21
0.0
 31
0.0
 44
0.9
  1
T-9A Sandwich ISO 05\PBlocking valves on A and B
 40
0.125
 41
5.2
  0
MTEXT
  5
248
100
AcDbEntity
  8
0
100
AcDbMText
 62
2
  6
CONTINUOUS
  7
STANDARD
 71
1
 72
1
 10
6.45
 20
0.5625
 30
0.0
 11
1.0
 21
0.0
 31
0.0
 44
0.9
  1
SHEET
 40
0.06
 41
0.48
  0
MTEXT
  5
249
100
AcDbEntity
  8
0
100
AcDbMText
 62
2
  6
CONTINUOUS
  7
STANDARD
 71
1
 72
1
 10
5.95
 20
0.5625
 30
0.0
 11
1.0
 21
0.0
 31
0.0
 44
0.9
  1
DWG SIZE
 40
0.06
 41
0.768
  0
MTEXT
  5
24A
100
AcDbEntity
  8
0
100
AcDbMText
 62
2
  6
CONTINUOUS
  7
STANDARD
 71
1
 72
1
 10
5.25
 20
0.5625
 30
0.0
 11
1.0
 21
0.0
 31
0.0
 44
0.9
  1
SCALE
 40
0.06
 41
0.48
  0
MTEXT
  5
24B
100
AcDbEntity
  8
0
100
AcDbMText
 62
2
  6
CONTINUOUS
  7
STANDARD
 71
1
 72
1
 10
4.15
 20
0.5625
 30
0.0
 11
1.0
 21
0.0
 31
0.0
 44
0.9
  1
DATE
 40
0.06
 41
0.384
  0
MTEXT
  5
24C
100
AcDbEntity
  8
0
100
AcDbMText
 62
2
  6
CONTINUOUS
  7
STANDARD
 71
1
 72
1
 10
0.05
 20
0.5625
 30
0.0
 11
1.0
 21
0.0
 31
0.0
 44
0.9
  1
DESCRIPTION
 40
0.06
 41
1.056
  0
MTEXT
  5
24D
100
AcDbEntity
  8
0
100
AcDbMText
 62
2
  6
CONTINUOUS
  7
STANDARD
 71
2
 72
1
 10
5.45
 20
1.0375
 30
0.0
 11
1.0
 21
0.0
 31
0.0
 44
0.9
  1
ALL DIMENSIONS IN INCH\PVIEWS ARE THIRD ANGLE
 40
0.12
 41
4.224
  0
MTEXT
  5
24E
100
AcDbEntity
  8
0
100
AcDbMText
 62
2
  6
CONTINUOUS
  7
STANDARD
 71
2
 72
1
 10
2.05
 20
0.95
 30
0.0
 11
1.0
 21
0.0
 31
0.0
 44
0.9
  1
U3Y
 40
0.125
 41
0.6
  0
MTEXT
  5
24F
100
AcDbEntity
  8
0
100
AcDbMText
 62
2
  6
CONTINUOUS
  7
STANDARD
 71
1
 72
1
 10
0.05
 20
1.1875
 30
0.0
 11
1.0
 21
0.0
 31
0.0
 44
0.9
  1
MODEL
 40
0.06
 41
0.48
  0
ENDBLK
  5
250
100
AcDbEntity
  8
0
  6
BYBLOCK
 62
0
100
AcDbBlockEnd
  0
BLOCK
  5
251
100
AcDbEntity
  8
0
100
AcDbBlockBegin
  2
*T2
 70
1
 10
0.0
 20
0.0
  3
*T2
  1

  0
LINE
  5
252
100
AcDbEntity
  8
0
100
AcDbLine
 62
2
  6
CONTINUOUS
 10
0.0
 20
0.0
 11
9.055
 21
0.0
  0
LINE
  5
253
100
AcDbEntity
  8
0
100
AcDbLine
 62
2
  6
CONTINUOUS
 10
0.0
 20
0.0
 11
0.0
 21
-1.844
  0
LINE
  5
254
100
AcDbEntity
  8
0
100
AcDbLine
 62
2
  6
CONTINUOUS
 10
0.0
 20
-0.344
 11
9.055
 21
-0.344
  0
LINE
  5
255
100
AcDbEntity
  8
0
100
AcDbLine
 62
2
  6
CONTINUOUS
 10
0.0
 20
-0.594
 11
9.055
 21
-0.594
  0
LINE
  5
256
100
AcDbEntity
  8
0
100
AcDbLine
 62
2
  6
CONTINUOUS
 10
0.0
 20
-0.844
 11
9.055
 21
-0.844
  0
LINE
  5
257
100
AcDbEntity
  8
0
100
AcDbLine
 62
2
  6
CONTINUOUS
 10
0.0
 20
-1.094
 11
9.055
 21
-1.094
  0
LINE
  5
258
100
AcDbEntity
  8
0
100
AcDbLine
 62
2
  6
CONTINUOUS
 10
0.0
 20
-1.344
 11
9.055
 21
-1.344
  0
LINE
  5
259
100
AcDbEntity
  8
0
100
AcDbLine
 62
2
  6
CONTINUOUS
 10
0.0
 20
-1.594
 11
9.055
 21
-1.594
  0
LINE
  5
25A
100
AcDbEntity
  8
0
100
AcDbLine
 62
2
  6
CONTINUOUS
 10
0.0
 20
-1.844
 11
9.055
 21
-1.844
  0
LINE
  5
25B
100
AcDbEntity
  8
0
100
AcDbLine
 62
2
  6
CONTINUOUS
 10
3.055
 20
0.0
 11
3.055
 21
-1.844
  0
LINE
  5
25C
100
AcDbEntity
  8
0
100
AcDbLine
 62
2
  6
CONTINUOUS
 10
9.055
 20
0.0
 11
9.055
 21
-1.844
  0
MTEXT
  5
25D
100
AcDbEntity
  8
0
100
AcDbMText
 62
2
  6
CONTINUOUS
  7
STANDARD
 71
2
 72
1
 10
1.5275
 20
-0.0995
 30
0.0
 11
1.0
 21
0.0
 31
0.0
 44
0.9
  1
Technical Data
 40
0.145
 41
3.248
  0
MTEXT
  5
25E
100
AcDbEntity
  8
0
100
AcDbMText
 62
2
  6
CONTINUOUS
  7
STANDARD
 71
2
 72
1
 10
4.555
 20
-0.0995
 30
0.0
 11
1.0
 21
0.0
 31
0.0
 44
0.9
  1
U.S. Units
 40
0.145
 41
2.32
  0
MTEXT
  5
25F
100
AcDbEntity
  8
0
100
AcDbMText
 62
2
  6
CONTINUOUS
  7
STANDARD
 71
2
 72
1
 10
7.555
 20
-0.0995
 30
0.0
 11
1.0
 21
0.0
 31
0.0
 44
0.9
  1
Metric Units
 40
0.145
 41
2.784
  0
MTEXT
  5
260
100
AcDbEntity
  8
0
100
AcDbMText
 62
2
  6
CONTINUOUS
  7
STANDARD
 71
2
 72
1
 10
1.5275
 20
-0.4065
 30
0.0
 11
1.0
 21
0.0
 31
0.0
 44
0.9
  1
Cavity
 40
0.125
 41
1.2
  0
MTEXT
  5
261
100
AcDbEntity
  8
0
100
AcDbMText
 62
2
  6
CONTINUOUS
  7
STANDARD
 71
2
 72
1
 10
6.055
 20
-0.4065
 30
0.0
 11
1.0
 21
0.0
 31
0.0
 44
0.9
  1
T-9A
 40
0.125
 41
0.8
  0
MTEXT
  5
262
100
AcDbEntity
  8
0
100
AcDbMText
 62
2
  6
CONTINUOUS
  7
STANDARD
 71
2
 72
1
 10
1.5275
 20
-0.6565
 30
0.0
 11
1.0
 21
0.0
 31
0.0
 44
0.9
  1
Body Features
 40
0.125
 41
2.6
  0
MTEXT
  5
263
100
AcDbEntity
  8
0
100
AcDbMText
 62
2
  6
CONTINUOUS
  7
STANDARD
 71
2
 72
1
 10
6.055
 20
-0.6565
 30
0.0
 11
1.0
 21
0.0
 31
0.0
 44
0.9
  1
Blocking valves on A and B
 40
0.125
 41
5.2
  0
MTEXT
  5
264
100
AcDbEntity
  8
0
100
AcDbMText
 62
2
  6
CONTINUOUS
  7
STANDARD
 71
2
 72
1
 10
1.5275
 20
-0.9065
 30
0.0
 11
1.0
 21
0.0
 31
0.0
 44
0.9
  1
Body Type
 40
0.125
 41
1.8
  0
MTEXT
  5
265
100
AcDbEntity
  8
0
100
AcDbMText
 62
2
  6
CONTINUOUS
  7
STANDARD
 71
2
 72
1
 10
6.055
 20
-0.9065
 30
0.0
 11
1.0
 21
0.0
 31
0.0
 44
0.9
  1
Sandwich
 40
0.125
 41
1.6
  0
MTEXT
  5
266
100
AcDbEntity
  8
0
100
AcDbMText
 62
2
  6
CONTINUOUS
  7
STANDARD
 71
2
 72
1
 10
1.5275
 20
-1.1565
 30
0.0
 11
1.0
 21
0.0
 31
0.0
 44
0.9
  1
Interface
 40
0.125
 41
1.8
  0
MTEXT
  5
267
100
AcDbEntity
  8
0
100
AcDbMText
 62
2
  6
CONTINUOUS
  7
STANDARD
 71
2
 72
1
 10
6.055
 20
-1.1565
 30
0.0
 11
1.0
 21
0.0
 31
0.0
 44
0.9
  1
ISO 05
 40
0.125
 41
1.2
  0
MTEXT
  5
268
100
AcDbEntity
  8
0
100
AcDbMText
 62
2
  6
CONTINUOUS
  7
STANDARD
 71
2
 72
1
 10
1.5275
 20
-1.4065
 30
0.0
 11
1.0
 21
0.0
 31
0.0
 44
0.9
  1
Open Cavity Quantity
 40
0.125
 41
4.0
  0
MTEXT
  5
269
100
AcDbEntity
  8
0
100
AcDbMText
 62
2
  6
CONTINUOUS
  7
STANDARD
 71
2
 72
1
 10
6.055
 20
-1.4065
 30
0.0
 11
1.0
 21
0.0
 31
0.0
 44
0.9
  1
1
 40
0.125
 41
0.2
  0
MTEXT
  5
26A
100
AcDbEntity
  8
0
100
AcDbMText
 62
2
  6
CONTINUOUS
  7
STANDARD
 71
2
 72
1
 10
1.5275
 20
-1.6565
 30
0.0
 11
1.0
 21
0.0
 31
0.0
 44
0.9
  1
Weight
 40
0.125
 41
1.2
  0
MTEXT
  5
26B
100
AcDbEntity
  8
0
100
AcDbMText
 62
2
  6
CONTINUOUS
  7
STANDARD
 71
2
 72
1
 10
4.555
 20
-1.6565
 30
0.0
 11
1.0
 21
0.0
 31
0.0
 44
0.9
  1
5.430 lb.
 40
0.125
 41
1.8
  0
MTEXT
  5
26C
100
AcDbEntity
  8
0
100
AcDbMText
 62
2
  6
CONTINUOUS
  7
STANDARD
 71
2
 72
1
 10
7.555
 20
-1.6565
 30
0.0
 11
1.0
 21
0.0
 31
0.0
 44
0.9
  1
2,463 kg.
 40
0.125
 41
1.8
  0
ENDBLK
  5
26D
100
AcDbEntity
  8
0
  6
BYBLOCK
 62
0
100
AcDbBlockEnd
  0
ENDSEC
  0
SECTION
  2
ENTITIES
  0
IMAGE
  5
26E
100
AcDbEntity
  8
0
100
AcDbRasterImage
 62
7
  6
CONTINUOUS
 10
19.2297077316
 20
0.3094318264
 30
0.0
 11
0.0066666667
 21
0.0
 31
0.0
 12
0.0
 22
0.0066666667
 32
0.0
 13
369.0
 23
92.0
340
       3B1
 70
9
280
0
281
50
282
50
283
0
360
       3AB
 71
1
 91
2
 14
-0.5
 24
-0.5
 14
368.5
 24
91.5
  0
INSERT
  5
26F
100
AcDbEntity
  8
0
100
AcDbBlockReference
 62
2
  6
CONTINUOUS
  2
SUN_FIRST_THIRD_ANGLE_BL0
 10
20.4816717061
 20
1.2289683772
  0
ACAD_TABLE
  5
270
100
AcDbEntity
  8
0
 62
2
  6
CONTINUOUS
100
AcDbBlockReference
  2
*T1
 10
12.42375
 20
0.30125
 30
0.0
100
AcDbTable
342
       3B3
343
212
 11
1.0
 21
0.0
 31
0.0
 90
6
 91
4
 92
6
 93
20
 94
0
 95
0
 96
0
 70
1
 41
0.0
141
0.525
141
0.1
141
0.525
141
0.1
142
4.1
142
1.1
142
0.7
142
0.5
142
0.4
142
2.475
171
1
172
0
173
0
174
0
175
1
176
1
 91
33
178
0
145
0.0
301
CELL_VALUE
 90
4
  1
T-9A Sandwich ISO 05\PBlocking valves on A and B
304
ACVALUE_END
170
2
140
0.125
171
1
172
0
173
0
174
0
175
1
176
1
 91
33
178
0
145
0.0
301
CELL_VALUE
 90
4
  1
Aug-13-19
304
ACVALUE_END
170
5
140
0.125
171
1
172
0
173
0
174
0
175
1
176
1
 91
33
178
0
145
0.0
301
CELL_VALUE
 90
4
  1
1.000
304
ACVALUE_END
170
5
140
0.125
171
1
172
0
173
0
174
0
175
1
176
1
 91
33
178
0
145
0.0
301
CELL_VALUE
 90
4
  1
C
304
ACVALUE_END
170
5
140
0.125
171
1
172
0
173
0
174
0
175
1
176
1
 91
33
178
0
145
0.0
301
CELL_VALUE
 90
4
  1
2
304
ACVALUE_END
170
5
140
0.125
171
1
172
0
173
0
174
0
175
1
176
1
 91
33
178
0
145
0.0
301
CELL_VALUE
 90
4
  1
 
304
ACVALUE_END
170
1
140
0.125
171
1
172
0
173
0
174
0
175
1
176
1
 91
33
178
0
145
0.0
301
CELL_VALUE
 90
4
  1
DESCRIPTION
304
ACVALUE_END
170
1
140
0.06
171
1
172
0
173
0
174
0
175
1
176
1
 91
33
178
0
145
0.0
301
CELL_VALUE
 90
4
  1
DATE
304
ACVALUE_END
170
1
140
0.06
171
1
172
0
173
0
174
0
175
1
176
1
 91
33
178
0
145
0.0
301
CELL_VALUE
 90
4
  1
SCALE
304
ACVALUE_END
170
1
140
0.06
171
1
172
0
173
0
174
0
175
1
176
1
 91
33
178
0
145
0.0
301
CELL_VALUE
 90
4
  1
DWG SIZE
304
ACVALUE_END
170
1
140
0.06
171
1
172
0
173
0
174
0
175
1
176
1
 91
33
178
0
145
0.0
301
CELL_VALUE
 90
4
  1
SHEET
304
ACVALUE_END
170
1
140
0.06
171
1
172
0
173
0
174
0
175
1
176
1
 91
33
178
0
145
0.0
301
CELL_VALUE
 90
4
  1
 
304
ACVALUE_END
170
1
140
0.125
171
1
172
0
173
0
174
0
175
1
176
1
 91
33
178
0
145
0.0
301
CELL_VALUE
 90
4
  1
U3Y
304
ACVALUE_END
170
5
140
0.125
171
1
172
0
173
0
174
0
175
4
176
1
 91
33
178
0
145
0.0
301
CELL_VALUE
 90
4
  1
ALL DIMENSIONS IN INCH\PVIEWS ARE THIRD ANGLE
304
ACVALUE_END
170
5
140
0.12
171
1
172
0
173
1
174
0
175
1
176
1
 91
1
178
0
145
0.0
170
1
171
1
172
0
173
1
174
0
175
1
176
1
 91
1
178
0
145
0.0
170
1
171
1
172
0
173
1
174
0
175
1
176
1
 91
1
178
0
145
0.0
170
5
171
1
172
0
173
0
174
0
175
1
176
1
 91
33
178
0
145
0.0
301
CELL_VALUE
 90
4
  1
 
304
ACVALUE_END
170
1
140
0.125
171
1
172
0
173
0
174
0
175
1
176
1
 91
33
178
0
145
0.0
301
CELL_VALUE
 90
4
  1
MODEL
304
ACVALUE_END
170
1
140
0.06
171
1
172
0
173
0
174
0
175
1
176
1
 91
33
178
0
145
0.0
301
CELL_VALUE
 90
4
  1
 
304
ACVALUE_END
170
1
140
0.125
171
1
172
0
173
0
174
0
175
1
176
1
 91
33
178
0
145
0.0
301
CELL_VALUE
 90
4
  1
 
304
ACVALUE_END
170
1
140
0.125
171
1
172
0
173
0
174
0
175
1
176
1
 91
33
178
0
145
0.0
301
CELL_VALUE
 90
4
  1
 
304
ACVALUE_END
170
1
140
0.125
171
1
172
0
173
0
174
0
175
1
176
1
 91
33
178
0
145
0.0
301
CELL_VALUE
 90
4
  1
 
304
ACVALUE_END
170
1
140
0.125
171
1
172
0
173
0
174
0
175
1
176
1
 91
33
178
0
145
0.0
301
CELL_VALUE
 90
4
  1
 
304
ACVALUE_END
170
1
140
0.125
  0
ACAD_TABLE
  5
271
100
AcDbEntity
  8
0
 62
2
  6
CONTINUOUS
100
AcDbBlockReference
  2
*T2
 10
12.4237499994
 20
16.47875
 30
0.0
100
AcDbTable
342
       3B2
343
213
 11
1.0
 21
0.0
 31
0.0
 90
22
 91
7
 92
3
 93
16
 94
0
 95
0
 96
0
 41
0.028
141
0.344
141
0.25
141
0.25
141
0.25
141
0.25
141
0.25
141
0.25
142
3.055
142
3.0
142
3.0
171
1
172
0
173
0
174
0
175
1
176
1
 91
33
178
0
145
0.0
301
CELL_VALUE
 90
4
  1
Technical Data
304
ACVALUE_END
170
5
140
0.145
171
1
172
0
173
0
174
0
175
1
176
1
 91
33
178
0
145
0.0
301
CELL_VALUE
 90
4
  1
U.S. Units
304
ACVALUE_END
170
5
140
0.145
171
1
172
0
173
0
174
0
175
1
176
1
 91
33
178
0
145
0.0
301
CELL_VALUE
 90
4
  1
Metric Units
304
ACVALUE_END
170
5
140
0.145
171
1
172
0
173
0
174
0
175
1
176
1
 91
33
178
0
145
0.0
301
CELL_VALUE
 90
4
  1
Cavity
304
ACVALUE_END
170
5
140
0.125
171
1
172
0
173
0
174
0
175
2
176
1
 91
33
178
0
145
0.0
301
CELL_VALUE
 90
4
  1
T-9A
304
ACVALUE_END
170
5
140
0.125
171
1
172
0
173
1
174
0
175
1
176
1
 91
1
178
0
145
0.0
170
1
171
1
172
0
173
0
174
0
175
1
176
1
 91
33
178
0
145
0.0
301
CELL_VALUE
 90
4
  1
Body Features
304
ACVALUE_END
170
5
140
0.125
171
1
172
0
173
0
174
0
175
2
176
1
 91
33
178
0
145
0.0
301
CELL_VALUE
 90
4
  1
Blocking valves on A and B
304
ACVALUE_END
170
5
140
0.125
171
1
172
0
173
1
174
0
175
1
176
1
 91
1
178
0
145
0.0
170
1
171
1
172
0
173
0
174
0
175
1
176
1
 91
33
178
0
145
0.0
301
CELL_VALUE
 90
4
  1
Body Type
304
ACVALUE_END
170
5
140
0.125
171
1
172
0
173
0
174
0
175
2
176
1
 91
33
178
0
145
0.0
301
CELL_VALUE
 90
4
  1
Sandwich
304
ACVALUE_END
170
5
140
0.125
171
1
172
0
173
1
174
0
175
1
176
1
 91
1
178
0
145
0.0
170
1
171
1
172
0
173
0
174
0
175
1
176
1
 91
33
178
0
145
0.0
301
CELL_VALUE
 90
4
  1
Interface
304
ACVALUE_END
170
5
140
0.125
171
1
172
0
173
0
174
0
175
2
176
1
 91
33
178
0
145
0.0
301
CELL_VALUE
 90
4
  1
ISO 05
304
ACVALUE_END
170
5
140
0.125
171
1
172
0
173
1
174
0
175
1
176
1
 91
1
178
0
145
0.0
170
1
171
1
172
0
173
0
174
0
175
1
176
1
 91
33
178
0
145
0.0
301
CELL_VALUE
 90
4
  1
Open Cavity Quantity
304
ACVALUE_END
170
5
140
0.125
171
1
172
0
173
0
174
0
175
2
176
1
 91
33
178
0
145
0.0
301
CELL_VALUE
 90
4
  1
1
304
ACVALUE_END
170
5
140
0.125
171
1
172
0
173
1
174
0
175
1
176
1
 91
1
178
0
145
0.0
170
1
171
1
172
0
173
0
174
0
175
1
176
1
 91
33
178
0
145
0.0
301
CELL_VALUE
 90
4
  1
Weight
304
ACVALUE_END
170
5
140
0.125
171
1
172
0
173
0
174
0
175
1
176
1
 91
33
178
0
145
0.0
301
CELL_VALUE
 90
4
  1
5.430 lb.
304
ACVALUE_END
170
5
140
0.125
171
1
172
0
173
0
174
0
175
1
176
1
 91
33
178
0
145
0.0
301
CELL_VALUE
 90
4
  1
2,463 kg.
304
ACVALUE_END
170
5
140
0.125
  0
MTEXT
  5
272
100
AcDbEntity
  8
0
100
AcDbMText
 62
2
  6
CONTINUOUS
  7
STANDARD
 71
1
 72
1
 10
0.52125
 20
5.75995
 30
0.0
 11
1.0
 21
0.0
 31
0.0
 44
0.6
  3
Notes\P \P1. Important: Carefully consider\P   the maximum system pressure. The\P   pressure rating of the manifold is\P   dependent on the manifold material,\P   with the port type/size a secondary\P   consideration. Manifolds\P   constructed of alu
  1
minum are not\P   rated for pressures higher than\P   3000 psi (210 bar), regardless of\P   the port type/size specified.
 40
0.1
 41
3.04
  0
LINE
  5
273
100
AcDbEntity
  8
0
100
AcDbLine
 62
7
  6
CONTINUOUS
 10
0.30125
 20
0.30125
 11
0.30125
 21
16.69875
  0
LINE
  5
274
100
AcDbEntity
  8
0
100
AcDbLine
 62
7
  6
CONTINUOUS
 10
0.30125
 20
0.30125
 11
21.69875
 21
0.30125
  0
LINE
  5
275
100
AcDbEntity
  8
0
100
AcDbLine
 62
7
  6
CONTINUOUS
 10
0.30125
 20
16.69875
 11
21.69875
 21
16.69875
  0
LINE
  5
276
100
AcDbEntity
  8
0
100
AcDbLine
 62
7
  6
CONTINUOUS
 10
21.69875
 20
0.30125
 11
21.69875
 21
16.69875
  0
LINE
  5
277
100
AcDbEntity
  8
0
100
AcDbLine
 62
7
  6
CONTINUOUS
 10
9.0019821647
 20
6.5824066111
 11
8.9800618461
 21
6.592233208
  0
LINE
  5
278
100
AcDbEntity
  8
0
100
AcDbLine
 62
7
  6
CONTINUOUS
 10
10.9119136132
 20
6.0960366266
 11
9.3422840525
 21
6.2048908063
  0
LINE
  5
279
100
AcDbEntity
  8
0
100
AcDbLine
 62
7
  6
CONTINUOUS
 10
10.9038902294
 20
6.1182303349
 11
9.3342606687
 21
6.2270845146
  0
LINE
  5
27A
100
AcDbEntity
  8
0
100
AcDbLine
 62
4
  6
CONTINUOUS
 10
9.1236888291
 20
7.08397513
 11
9.1140295702
 21
7.0918894459
  0
LINE
  5
27B
100
AcDbEntity
  8
0
100
AcDbLine
 62
4
  6
CONTINUOUS
 10
9.1140295702
 20
7.0918894459
 11
9.1043703113
 21
7.1070482057
  0
LINE
  5
27C
100
AcDbEntity
  8
0
100
AcDbLine
 62
7
  6
CONTINUOUS
 10
9.3342606687
 20
6.2270845146
 11
9.3422840525
 21
6.2048908063
  0
LINE
  5
27D
100
AcDbEntity
  8
0
100
AcDbLine
 62
7
  6
CONTINUOUS
 10
11.2361687333
 20
6.4274652463
 11
11.2741358195
 21
6.4331386376
  0
LINE
  5
27E
100
AcDbEntity
  8
0
100
AcDbLine
 62
4
  6
CONTINUOUS
 10
9.2106221584
 20
7.1286573909
 11
9.2009628952
 21
7.1365717071
  0
LINE
  5
27F
100
AcDbEntity
  8
0
100
AcDbLine
 62
4
  6
CONTINUOUS
 10
9.1526666032
 20
7.3717432731
 11
9.2202814147
 21
7.3090986183
  0
LINE
  5
280
100
AcDbEntity
  8
0
100
AcDbLine
 62
4
  6
CONTINUOUS
 10
9.2202814147
 20
7.1134986313
 11
9.2106221584
 21
7.1286573909
  0
LINE
  5
281
100
AcDbEntity
  8
0
100
AcDbLine
 62
4
  6
CONTINUOUS
 10
9.1140295702
 20
7.4468672001
 11
9.1043703113
 21
7.4620259599
  0
LINE
  5
282
100
AcDbEntity
  8
0
100
AcDbLine
 62
7
  6
CONTINUOUS
 10
8.9800618461
 20
6.592233208
 11
8.9800618461
 21
8.8795457002
  0
LINE
  5
283
100
AcDbEntity
  8
0
100
AcDbLine
 62
7
  6
CONTINUOUS
 10
9.0019821647
 20
6.5824066111
 11
9.0019821647
 21
8.8697191033
  0
LINE
  5
284
100
AcDbEntity
  8
0
100
AcDbLine
 62
4
  6
CONTINUOUS
 10
9.1043703113
 20
7.1070482057
 11
9.1043703113
 21
7.1215370936
  0
LINE
  5
285
100
AcDbEntity
  8
0
100
AcDbLine
 62
4
  6
CONTINUOUS
 10
9.1043703113
 20
7.4620259599
 11
9.1043703113
 21
7.4910037358
  0
LINE
  5
286
100
AcDbEntity
  8
0
100
AcDbLine
 62
7
  6
CONTINUOUS
 10
9.4044938292
 20
9.7301926049
 11
10.180691462
 21
10.4799419891
  0
LINE
  5
287
100
AcDbEntity
  8
0
100
AcDbLine
 62
7
  6
CONTINUOUS
 10
11.5359986611
 20
6.5397056176
 11
11.819308538
 21
6.5200580109
  0
LINE
  5
288
100
AcDbEntity
  8
0
100
AcDbLine
 62
7
  6
CONTINUOUS
 10
10.6078810541
 20
6.4829244275
 11
10.6682514218
 21
6.4438828802
  0
LINE
  5
289
100
AcDbEntity
  8
0
100
AcDbLine
 62
4
  6
CONTINUOUS
 10
9.1333480871
 20
7.4310385685
 11
9.1140295702
 21
7.4468672001
  0
LINE
  5
28A
100
AcDbEntity
  8
0
100
AcDbLine
 62
4
  6
CONTINUOUS
 10
9.162325863
 20
7.2551622978
 11
9.162325863
 21
7.218940078
  0
LINE
  5
28B
100
AcDbEntity
  8
0
100
AcDbLine
 62
4
  6
CONTINUOUS
 10
9.162325863
 20
7.0160956469
 11
9.162325863
 21
6.9726289832
  0
LINE
  5
28C
100
AcDbEntity
  8
0
100
AcDbLine
 62
4
  6
CONTINUOUS
 10
9.2202814147
 20
7.4829652735
 11
9.2202814147
 21
7.4539874976
  0
LINE
  5
28D
100
AcDbEntity
  8
0
100
AcDbLine
 62
4
  6
CONTINUOUS
 10
9.2202814147
 20
7.2511430666
 11
9.2202814147
 21
7.1931875149
  0
LINE
  5
28E
100
AcDbEntity
  8
0
100
AcDbLine
 62
4
  6
CONTINUOUS
 10
9.2202814147
 20
7.0990097434
 11
9.2202814147
 21
7.1134986313
  0
LINE
  5
28F
100
AcDbEntity
  8
0
100
AcDbLine
 62
7
  6
CONTINUOUS
 10
9.3342606687
 20
9.1789540147
 11
9.3422840525
 21
9.2166477111
  0
LINE
  5
290
100
AcDbEntity
  8
0
100
AcDbLine
 62
7
  6
CONTINUOUS
 10
10.4640013389
 20
10.4602943824
 11
10.8275564074
 21
10.8114616332
  0
LINE
  5
291
100
AcDbEntity
  8
0
100
AcDbLine
 62
7
  6
CONTINUOUS
 10
9.5670393867
 20
9.5928956163
 11
9.081754073
 21
9.1241459709
  0
LINE
  5
292
100
AcDbEntity
  8
0
100
AcDbLine
 62
7
  6
CONTINUOUS
 10
11.0880863868
 20
10.9039633734
 11
10.6177293226
 21
10.4496333106
  0
LINE
  5
293
100
AcDbEntity
  8
0
100
AcDbLine
 62
7
  6
CONTINUOUS
 10
9.3422840525
 20
9.2166477111
 11
9.8275693662
 21
9.6853973566
  0
LINE
  5
294
100
AcDbEntity
  8
0
100
AcDbLine
 62
4
  6
CONTINUOUS
 10
9.2202814147
 20
6.8744319805
 11
9.1043703113
 21
6.8824704428
  0
LINE
  5
295
100
AcDbEntity
  8
0
100
AcDbLine
 62
7
  6
CONTINUOUS
 10
9.4044938292
 20
9.7301926049
 11
9.4044938292
 21
9.4358886551
  0
LINE
  5
296
100
AcDbEntity
  8
0
100
AcDbLine
 62
7
  6
CONTINUOUS
 10
9.5212144351
 20
8.5120777478
 11
9.5212144351
 21
8.4553634358
  0
LINE
  5
297
100
AcDbEntity
  8
0
100
AcDbLine
 62
4
  6
CONTINUOUS
 10
9.1430073469
 20
7.0826353863
 11
9.1236888291
 21
7.08397513
  0
LINE
  5
298
100
AcDbEntity
  8
0
100
AcDbLine
 62
4
  6
CONTINUOUS
 10
9.2009628952
 20
7.1365717071
 11
9.1913036388
 21
7.1372415788
  0
LINE
  5
299
100
AcDbEntity
  8
0
100
AcDbLine
 62
4
  6
CONTINUOUS
 10
9.162325863
 20
7.421784509
 11
9.1333480871
 21
7.4310385685
  0
LINE
  5
29A
100
AcDbEntity
  8
0
100
AcDbLine
 62
4
  6
CONTINUOUS
 10
9.1043703113
 20
7.2591815289
 11
9.2202814147
 21
7.2511430666
  0
LINE
  5
29B
100
AcDbEntity
  8
0
100
AcDbLine
 62
4
  6
CONTINUOUS
 10
9.2202814147
 20
7.36705417
 11
9.1043703113
 21
7.3750926324
  0
LINE
  5
29C
100
AcDbEntity
  8
0
100
AcDbLine
 62
7
  6
CONTINUOUS
 10
9.4012240422
 20
8.6162983577
 11
9.4208942734
 21
8.6352983431
  0
LINE
  5
29D
100
AcDbEntity
  8
0
100
AcDbLine
 62
4
  6
CONTINUOUS
 10
9.1043703113
 20
7.4910037358
 11
9.2202814147
 21
7.4829652735
  0
LINE
  5
29E
100
AcDbEntity
  8
0
100
AcDbLine
 62
4
  6
CONTINUOUS
 10
9.2202814147
 20
7.4539874976
 11
9.2106221584
 21
7.4401684814
  0
LINE
  5
29F
100
AcDbEntity
  8
0
100
AcDbLine
 62
7
  6
CONTINUOUS
 10
9.4903713098
 20
8.4255712627
 11
9.5212144351
 21
8.4553634358
  0
LINE
  5
2A0
100
AcDbEntity
  8
0
100
AcDbLine
 62
7
  6
CONTINUOUS
 10
9.5507416775
 20
8.3865297154
 11
9.5815848029
 21
8.4163218885
  0
LINE
  5
2A1
100
AcDbEntity
  8
0
100
AcDbLine
 62
7
  6
CONTINUOUS
 10
9.5212144351
 20
8.4553634358
 11
9.5815848029
 21
8.4163218885
  0
LINE
  5
2A2
100
AcDbEntity
  8
0
100
AcDbLine
 62
7
  6
CONTINUOUS
 10
10.9038902294
 20
6.1182303349
 11
10.9119136132
 21
6.0960366266
  0
LINE
  5
2A3
100
AcDbEntity
  8
0
100
AcDbLine
 62
4
  6
CONTINUOUS
 10
9.1043703113
 20
7.1215370936
 11
9.1140295702
 21
7.1353561097
  0
LINE
  5
2A4
100
AcDbEntity
  8
0
100
AcDbLine
 62
4
  6
CONTINUOUS
 10
9.1816443825
 20
7.1306670065
 11
9.1526666032
 21
7.0892099585
  0
LINE
  5
2A5
100
AcDbEntity
  8
0
100
AcDbLine
 62
4
  6
CONTINUOUS
 10
9.2106221584
 20
7.0851907271
 11
9.2202814147
 21
7.0990097434
  0
LINE
  5
2A6
100
AcDbEntity
  8
0
100
AcDbLine
 62
7
  6
CONTINUOUS
 10
9.7055230582
 20
8.3012648533
 11
9.7251932894
 21
8.3202648388
  0
LINE
  5
2A7
100
AcDbEntity
  8
0
100
AcDbLine
 62
4
  6
CONTINUOUS
 10
9.1913036388
 20
7.4270193373
 11
9.162325863
 21
7.421784509
  0
LINE
  5
2A8
100
AcDbEntity
  8
0
100
AcDbLine
 62
7
  6
CONTINUOUS
 10
10.6078810541
 20
6.5396387394
 11
10.6078810541
 21
6.4829244275
  0
LINE
  5
2A9
100
AcDbEntity
  8
0
100
AcDbLine
 62
7
  6
CONTINUOUS
 10
12.6577159475
 20
10.7951091937
 11
12.1873588833
 21
10.3407791308
  0
LINE
  5
2AA
100
AcDbEntity
  8
0
100
AcDbLine
 62
7
  6
CONTINUOUS
 10
10.9119136132
 20
9.1077935314
 11
11.3971989269
 21
9.5765431768
  0
LINE
  5
2AB
100
AcDbEntity
  8
0
100
AcDbLine
 62
7
  6
CONTINUOUS
 10
9.5815848029
 20
8.4163218885
 11
9.6126135274
 21
8.4320844817
  0
LINE
  5
2AC
100
AcDbEntity
  8
0
100
AcDbLine
 62
4
  6
CONTINUOUS
 10
11.1521332249
 20
8.0864753555
 11
11.0362221215
 21
8.058291598
  0
LINE
  5
2AD
100
AcDbEntity
  8
0
100
AcDbLine
 62
7
  6
CONTINUOUS
 10
9.0019821647
 20
8.8697191033
 11
8.9800618461
 21
8.8795457002
  0
LINE
  5
2AE
100
AcDbEntity
  8
0
100
AcDbLine
 62
7
  6
CONTINUOUS
 10
10.9038902294
 20
9.0700998349
 11
10.9119136132
 21
9.1077935314
  0
LINE
  5
2AF
100
AcDbEntity
  8
0
100
AcDbLine
 62
7
  6
CONTINUOUS
 10
9.3913812865
 20
7.4150172724
 11
9.2694601899
 21
7.2972505294
  0
LINE
  5
2B0
100
AcDbEntity
  8
0
100
AcDbLine
 62
7
  6
CONTINUOUS
 10
12.5955061708
 20
10.3124740203
 11
11.819308538
 21
9.5627246361
  0
LINE
  5
2B1
100
AcDbEntity
  8
0
100
AcDbLine
 62
4
  6
CONTINUOUS
 10
11.1134961928
 20
8.1760881703
 11
11.0748591571
 21
8.1787676579
  0
LINE
  5
2B2
100
AcDbEntity
  8
0
100
AcDbLine
 62
4
  6
CONTINUOUS
 10
11.0362221215
 20
8.1307360376
 11
11.1521332249
 21
8.0864753555
  0
LINE
  5
2B3
100
AcDbEntity
  8
0
100
AcDbLine
 62
4
  6
CONTINUOUS
 10
11.0748591571
 20
8.1787676579
 11
11.0555406393
 21
8.1873518456
  0
LINE
  5
2B4
100
AcDbEntity
  8
0
100
AcDbLine
 62
4
  6
CONTINUOUS
 10
11.1134961928
 20
8.1760881703
 11
11.0941776732
 21
8.1846723582
  0
LINE
  5
2B5
100
AcDbEntity
  8
0
100
AcDbLine
 62
4
  6
CONTINUOUS
 10
11.1134961928
 20
8.2340437221
 11
11.1328147054
 21
8.2254595347
  0
LINE
  5
2B6
100
AcDbEntity
  8
0
100
AcDbLine
 62
4
  6
CONTINUOUS
 10
11.0555406393
 20
8.1873518456
 11
11.0458813804
 21
8.1952661614
  0
LINE
  5
2B7
100
AcDbEntity
  8
0
100
AcDbLine
 62
7
  6
CONTINUOUS
 10
9.8807778493
 20
7.6636307428
 11
9.7588567527
 21
7.5458639998
  0
LINE
  5
2B8
100
AcDbEntity
  8
0
100
AcDbLine
 62
7
  6
CONTINUOUS
 10
9.934698658
 20
7.659891322
 11
9.8127775614
 21
7.542124579
  0
LINE
  5
2B9
100
AcDbEntity
  8
0
100
AcDbLine
 62
4
  6
CONTINUOUS
 10
9.2106221584
 20
7.4401684814
 11
9.1913036388
 21
7.4270193373
  0
LINE
  5
2BA
100
AcDbEntity
  8
0
100
AcDbLine
 62
4
  6
CONTINUOUS
 10
11.1521332249
 20
8.4342086658
 11
11.0362221215
 21
8.4422471281
  0
LINE
  5
2BB
100
AcDbEntity
  8
0
100
AcDbLine
 62
4
  6
CONTINUOUS
 10
11.1328147054
 20
8.2254595347
 11
11.1424739686
 21
8.2175452185
  0
LINE
  5
2BC
100
AcDbEntity
  8
0
100
AcDbLine
 62
4
  6
CONTINUOUS
 10
11.0458813804
 20
8.1952661614
 11
11.0362221215
 21
8.2104249212
  0
LINE
  5
2BD
100
AcDbEntity
  8
0
100
AcDbLine
 62
4
  6
CONTINUOUS
 10
11.1424739686
 20
8.2175452185
 11
11.1521332249
 21
8.2023864589
  0
LINE
  5
2BE
100
AcDbEntity
  8
0
100
AcDbLine
 62
4
  6
CONTINUOUS
 10
11.0941776732
 20
8.1846723582
 11
11.0845184134
 21
8.207075562
  0
LINE
  5
2BF
100
AcDbEntity
  8
0
100
AcDbLine
 62
4
  6
CONTINUOUS
 10
11.0748591571
 20
8.1135676622
 11
11.0748591571
 21
8.0701009984
  0
LINE
  5
2C0
100
AcDbEntity
  8
0
100
AcDbLine
 62
4
  6
CONTINUOUS
 10
11.0941776732
 20
8.3440501254
 11
11.0941776732
 21
8.3005834616
  0
LINE
  5
2C1
100
AcDbEntity
  8
0
100
AcDbLine
 62
4
  6
CONTINUOUS
 10
11.1521332249
 20
8.4704308856
 11
11.1521332249
 21
8.397986446
  0
LINE
  5
2C2
100
AcDbEntity
  8
0
100
AcDbLine
 62
7
  6
CONTINUOUS
 10
11.2361687333
 20
8.7147777385
 11
11.2361687333
 21
6.4274652463
  0
LINE
  5
2C3
100
AcDbEntity
  8
0
100
AcDbLine
 62
4
  6
CONTINUOUS
 10
11.0845184134
 20
8.207075562
 11
11.0941776732
 21
8.228139022
  0
LINE
  5
2C4
100
AcDbEntity
  8
0
100
AcDbLine
 62
4
  6
CONTINUOUS
 10
11.0362221215
 20
8.2104249212
 11
11.0458813804
 21
8.2242439373
  0
LINE
  5
2C5
100
AcDbEntity
  8
0
100
AcDbLine
 62
7
  6
CONTINUOUS
 10
13.0199381539
 20
10.407766792
 11
12.5955061708
 21
9.9977969538
  0
LINE
  5
2C6
100
AcDbEntity
  8
0
100
AcDbLine
 62
7
  6
CONTINUOUS
 10
11.2741358195
 20
8.7204511297
 11
11.7594211333
 21
9.1892007752
  0
LINE
  5
2C7
100
AcDbEntity
  8
0
100
AcDbLine
 62
4
  6
CONTINUOUS
 10
9.1140295702
 20
7.1353561097
 11
9.1333480871
 21
7.1485052539
  0
LINE
  5
2C8
100
AcDbEntity
  8
0
100
AcDbLine
 62
4
  6
CONTINUOUS
 10
9.1913036388
 20
7.1372415788
 11
9.1816443825
 21
7.1306670065
  0
LINE
  5
2C9
100
AcDbEntity
  8
0
100
AcDbLine
 62
4
  6
CONTINUOUS
 10
9.1526666032
 20
7.0892099585
 11
9.1430073469
 21
7.0826353863
  0
LINE
  5
2CA
100
AcDbEntity
  8
0
100
AcDbLine
 62
4
  6
CONTINUOUS
 10
9.2009628952
 20
7.0786161553
 11
9.2106221584
 21
7.0851907271
  0
LINE
  5
2CB
100
AcDbEntity
  8
0
100
AcDbLine
 62
7
  6
CONTINUOUS
 10
11.2361687333
 20
8.7147777385
 11
11.2741358195
 21
8.7204511297
  0
LINE
  5
2CC
100
AcDbEntity
  8
0
100
AcDbLine
 62
7
  6
CONTINUOUS
 10
11.2741358195
 20
8.7204511297
 11
11.2741358195
 21
6.4331386376
  0
LINE
  5
2CD
100
AcDbEntity
  8
0
100
AcDbLine
 62
4
  6
CONTINUOUS
 10
11.1521332249
 20
8.2023864589
 11
11.1424739686
 21
8.1885674427
  0
LINE
  5
2CE
100
AcDbEntity
  8
0
100
AcDbLine
 62
7
  6
CONTINUOUS
 10
10.4240952208
 20
7.3433983178
 11
10.3021741242
 21
7.2256315748
  0
LINE
  5
2CF
100
AcDbEntity
  8
0
100
AcDbLine
 62
4
  6
CONTINUOUS
 10
11.0458813804
 20
8.2242439373
 11
11.0555406393
 21
8.2308185094
  0
LINE
  5
2D0
100
AcDbEntity
  8
0
100
AcDbLine
 62
4
  6
CONTINUOUS
 10
11.1424739686
 20
8.1885674427
 11
11.1328147054
 21
8.1819928709
  0
LINE
  5
2D1
100
AcDbEntity
  8
0
100
AcDbLine
 62
4
  6
CONTINUOUS
 10
11.0941776732
 20
8.228139022
 11
11.1134961928
 21
8.2340437221
  0
LINE
  5
2D2
100
AcDbEntity
  8
0
100
AcDbLine
 62
4
  6
CONTINUOUS
 10
11.1328147054
 20
8.1819928709
 11
11.1134961928
 21
8.1760881703
  0
LINE
  5
2D3
100
AcDbEntity
  8
0
100
AcDbLine
 62
7
  6
CONTINUOUS
 10
10.4510556251
 20
7.2948318173
 11
10.3291345285
 21
7.1770650744
  0
LINE
  5
2D4
100
AcDbEntity
  8
0
100
AcDbLine
 62
4
  6
CONTINUOUS
 10
9.1816443825
 20
7.3407558815
 11
9.1043703113
 21
7.3171370807
  0
LINE
  5
2D5
100
AcDbEntity
  8
0
100
AcDbLine
 62
7
  6
CONTINUOUS
 10
9.3342606687
 20
9.1789540147
 11
10.9038902294
 21
9.0700998349
  0
LINE
  5
2D6
100
AcDbEntity
  8
0
100
AcDbLine
 62
7
  6
CONTINUOUS
 10
9.3422840525
 20
9.2166477111
 11
10.9119136132
 21
9.1077935314
  0
LINE
  5
2D7
100
AcDbEntity
  8
0
100
AcDbLine
 62
7
  6
CONTINUOUS
 10
11.7594211333
 20
9.1892007752
 11
11.7594211333
 21
6.901888283
  0
LINE
  5
2D8
100
AcDbEntity
  8
0
100
AcDbLine
 62
7
  6
CONTINUOUS
 10
11.819308538
 20
9.5627246361
 11
11.819308538
 21
6.5200580109
  0
LINE
  5
2D9
100
AcDbEntity
  8
0
100
AcDbLine
 62
7
  6
CONTINUOUS
 10
10.4510556251
 20
6.7297253427
 11
10.3291345285
 21
6.6119585998
  0
LINE
  5
2DA
100
AcDbEntity
  8
0
100
AcDbLine
 62
7
  6
CONTINUOUS
 10
10.4240952208
 20
6.684898263
 11
10.3021741242
 21
6.5671315201
  0
LINE
  5
2DB
100
AcDbEntity
  8
0
100
AcDbLine
 62
7
  6
CONTINUOUS
 10
10.4878906612
 20
6.6438593494
 11
10.5075608924
 21
6.6628593348
  0
LINE
  5
2DC
100
AcDbEntity
  8
0
100
AcDbLine
 62
7
  6
CONTINUOUS
 10
10.5770379288
 20
6.4531322544
 11
10.6078810541
 21
6.4829244275
  0
LINE
  5
2DD
100
AcDbEntity
  8
0
100
AcDbLine
 62
7
  6
CONTINUOUS
 10
10.6374082965
 20
6.4140907071
 11
10.6682514218
 21
6.4438828802
  0
LINE
  5
2DE
100
AcDbEntity
  8
0
100
AcDbLine
 62
7
  6
CONTINUOUS
 10
9.8275693662
 20
9.6853973566
 11
11.3971989269
 21
9.5765431768
  0
LINE
  5
2DF
100
AcDbEntity
  8
0
100
AcDbLine
 62
7
  6
CONTINUOUS
 10
9.4044938292
 20
9.7301926049
 11
11.819308538
 21
9.5627246361
  0
LINE
  5
2E0
100
AcDbEntity
  8
0
100
AcDbLine
 62
7
  6
CONTINUOUS
 10
10.7921896772
 20
6.328825845
 11
10.8118599084
 21
6.3478258305
  0
LINE
  5
2E1
100
AcDbEntity
  8
0
100
AcDbLine
 62
7
  6
CONTINUOUS
 10
12.5955061708
 20
10.3124740203
 11
12.5955061708
 21
7.2698073951
  0
LINE
  5
2E2
100
AcDbEntity
  8
0
100
AcDbLine
 62
7
  6
CONTINUOUS
 10
13.0199381539
 20
8.1204542998
 11
12.5955061708
 21
7.7104844616
  0
LINE
  5
2E3
100
AcDbEntity
  8
0
100
AcDbLine
 62
7
  6
CONTINUOUS
 10
11.2741358195
 20
6.4331386376
 11
11.7594211333
 21
6.901888283
  0
LINE
  5
2E4
100
AcDbEntity
  8
0
100
AcDbLine
 62
7
  6
CONTINUOUS
 10
10.6682514218
 20
6.4438828802
 11
10.6992801464
 21
6.4596454733
  0
LINE
  5
2E5
100
AcDbEntity
  8
0
100
AcDbLine
 62
7
  6
CONTINUOUS
 10
12.5955061708
 20
7.5641113449
 11
12.918245927
 21
7.8758540291
  0
LINE
  5
2E6
100
AcDbEntity
  8
0
100
AcDbLine
 62
7
  6
CONTINUOUS
 10
11.6577289064
 20
6.6572880123
 11
11.1724435926
 21
6.1885383668
  0
LINE
  5
2E7
100
AcDbEntity
  8
0
100
AcDbLine
 62
7
  6
CONTINUOUS
 10
13.0199381539
 20
8.1204542998
 11
13.0199381539
 21
10.407766792
  0
LINE
  5
2E8
100
AcDbEntity
  8
0
100
AcDbLine
 62
7
  6
CONTINUOUS
 10
12.5955061708
 20
7.2698073951
 11
11.819308538
 21
6.5200580109
  0
LINE
  5
2E9
100
AcDbEntity
  8
0
100
AcDbLine
 62
7
  6
CONTINUOUS
 10
10.180691462
 20
10.4799419891
 11
12.5955061708
 21
10.3124740203
  0
LINE
  5
2EA
100
AcDbEntity
  8
0
100
AcDbLine
 62
7
  6
CONTINUOUS
 10
12.6577159475
 20
10.7951091937
 11
11.0880863868
 21
10.9039633734
  0
ARC
  5
2EB
100
AcDbEntity
  8
0
100
AcDbCircle
 62
7
  6
CONTINUOUS
 10
9.8522927074
 20
6.9942108949
 40
0.6699925153
100
AcDbArc
 50
26.6598562642
 51
31.4115094164
  0
ARC
  5
2EC
100
AcDbEntity
  8
0
100
AcDbCircle
 62
7
  6
CONTINUOUS
 10
9.8403698879
 20
6.9874422748
 40
0.6689722376
100
AcDbArc
 50
206.6562307081
 51
211.4151349724
  0
ARC
  5
2ED
100
AcDbEntity
  8
0
100
AcDbCircle
 62
7
  6
CONTINUOUS
 10
9.7312644262
 20
6.8769397747
 40
0.6689722376
100
AcDbArc
 50
26.6562307081
 51
31.4151349724
  0
ARC
  5
2EE
100
AcDbEntity
  8
0
100
AcDbCircle
 62
7
  6
CONTINUOUS
 10
9.8287487977
 20
6.9384048068
 40
0.6200987324
100
AcDbArc
 50
263.5283744339
 51
266.0300335618
  0
ARC
  5
2EF
100
AcDbEntity
  8
0
100
AcDbCircle
 62
7
  6
CONTINUOUS
 10
9.7428855164
 20
6.9259772428
 40
0.6200987324
100
AcDbArc
 50
83.5283744338
 51
86.0300335618
  0
ARC
  5
2F0
100
AcDbEntity
  8
0
100
AcDbCircle
 62
7
  6
CONTINUOUS
 10
9.8648918257
 20
7.0446765648
 40
0.6191624918
100
AcDbArc
 50
83.5264827432
 51
86.0319252524
  0
ARC
  5
2F1
100
AcDbEntity
  8
0
100
AcDbCircle
 62
7
  6
CONTINUOUS
 10
9.8652159832
 20
7.0493505614
 40
0.614477268
100
AcDbArc
 50
86.031919382
 51
88.5488078504
  0
ARC
  5
2F2
100
AcDbEntity
  8
0
100
AcDbCircle
 62
7
  6
CONTINUOUS
 10
9.8283394275
 20
6.9327982311
 40
0.614477268
100
AcDbArc
 50
266.031919382
 51
268.5488078505
  0
ARC
  5
2F3
100
AcDbEntity
  8
0
100
AcDbCircle
 62
7
  6
CONTINUOUS
 10
9.7432948867
 20
6.9315838185
 40
0.614477268
100
AcDbArc
 50
86.031919382
 51
88.5488078504
  0
ARC
  5
2F4
100
AcDbEntity
  8
0
100
AcDbCircle
 62
7
  6
CONTINUOUS
 10
9.9113056397
 20
7.050383184
 40
0.5932525789
100
AcDbArc
 50
24.3647495294
 51
29.7502751184
  0
ARC
  5
2F5
100
AcDbEntity
  8
0
100
AcDbCircle
 62
7
  6
CONTINUOUS
 10
9.9589196603
 20
6.9951903125
 40
0.5591685417
100
AcDbArc
 50
326.2950117378
 51
331.6569605865
  0
ARC
  5
2F6
100
AcDbEntity
  8
0
100
AcDbCircle
 62
7
  6
CONTINUOUS
 10
9.7346357504
 20
6.9869584799
 40
0.5591685417
100
AcDbArc
 50
146.2950117378
 51
151.6569605865
  0
ARC
  5
2F7
100
AcDbEntity
  8
0
100
AcDbCircle
 62
7
  6
CONTINUOUS
 10
9.8369985637
 20
6.8774235696
 40
0.5591685417
100
AcDbArc
 50
326.2950117378
 51
331.6569605865
  0
ARC
  5
2F8
100
AcDbEntity
  8
0
100
AcDbCircle
 62
7
  6
CONTINUOUS
 10
9.9518272983
 20
7.1859874035
 40
0.4852907537
100
AcDbArc
 50
133.8225783545
 51
134.6323347692
  0
ARC
  5
2F9
100
AcDbEntity
  8
0
100
AcDbCircle
 62
7
  6
CONTINUOUS
 10
9.9273491122
 20
7.1672287346
 40
0.4822786459
100
AcDbArc
 50
127.6001567771
 51
130.8286337854
  0
ARC
  5
2FA
100
AcDbEntity
  8
0
100
AcDbCircle
 62
7
  6
CONTINUOUS
 10
10.363023787
 20
8.3789433751
 40
0.3320394891
100
AcDbArc
 50
0.0217219446
 51
8.4948495094
  0
ARC
  5
2FB
100
AcDbEntity
  8
0
100
AcDbCircle
 62
7
  6
CONTINUOUS
 10
10.3997415702
 20
8.3689864212
 40
0.3069539333
100
AcDbArc
 50
311.9250124207
 51
313.1963451609
  0
ARC
  5
2FC
100
AcDbEntity
  8
0
100
AcDbCircle
 62
7
  6
CONTINUOUS
 10
10.3363996138
 20
8.4345613631
 40
0.3068743872
100
AcDbArc
 50
135.1753105712
 51
136.0876586105
  0
ARC
  5
2FD
100
AcDbEntity
  8
0
100
AcDbCircle
 62
7
  6
CONTINUOUS
 10
10.4239557452
 20
8.4275556254
 40
0.2686283707
100
AcDbArc
 50
350.6936204317
 51
351.8124995035
  0
ARC
  5
2FE
100
AcDbEntity
  8
0
100
AcDbCircle
 62
7
  6
CONTINUOUS
 10
10.6478754367
 20
8.6889888919
 40
0.2096863052
100
AcDbArc
 50
173.7988400432
 51
180.0112009303
  0
ARC
  5
2FF
100
AcDbEntity
  8
0
100
AcDbCircle
 62
7
  6
CONTINUOUS
 10
10.6513445806
 20
8.6907891921
 40
0.2009079983
100
AcDbArc
 50
175.0944227742
 51
180.0031844488
  0
ARC
  5
300
100
AcDbEntity
  8
0
100
AcDbCircle
 62
7
  6
CONTINUOUS
 10
10.6409048186
 20
6.5246259708
 40
0.1920679931
100
AcDbArc
 50
113.0784760593
 51
133.9685665972
  0
ARC
  5
301
100
AcDbEntity
  8
0
100
AcDbCircle
 62
7
  6
CONTINUOUS
 10
9.5542381997
 20
8.4970649791
 40
0.1920679931
100
AcDbArc
 50
113.0784760662
 51
133.9685666041
  0
ARC
  5
302
100
AcDbEntity
  8
0
100
AcDbCircle
 62
7
  6
CONTINUOUS
 10
10.6784056298
 20
6.4858279255
 40
0.1919769828
100
AcDbArc
 50
314.0401908553
 51
334.27820438
  0
ARC
  5
303
100
AcDbEntity
  8
0
100
AcDbCircle
 62
7
  6
CONTINUOUS
 10
9.5917390108
 20
8.4582669338
 40
0.1919769828
100
AcDbArc
 50
314.0401908553
 51
334.27820438
  0
ARC
  5
304
100
AcDbEntity
  8
0
100
AcDbCircle
 62
7
  6
CONTINUOUS
 10
10.6205459594
 20
6.5065058833
 40
0.1909538695
100
AcDbArc
 50
125.8987524149
 51
134.00315076
  0
ARC
  5
305
100
AcDbEntity
  8
0
100
AcDbCircle
 62
7
  6
CONTINUOUS
 10
9.5338793404
 20
8.4789448916
 40
0.1909538695
100
AcDbArc
 50
125.8987524149
 51
134.00315076
  0
ARC
  5
306
100
AcDbEntity
  8
0
100
AcDbCircle
 62
7
  6
CONTINUOUS
 10
10.2469892265
 20
8.637476261
 40
0.1055354473
100
AcDbArc
 50
355.7628736161
 51
359.9660330274
  0
ARC
  5
307
100
AcDbEntity
  8
0
100
AcDbCircle
 62
7
  6
CONTINUOUS
 10
10.2555620423
 20
8.6374472196
 40
0.0969626188
100
AcDbArc
 50
359.9801906
 51
4.420461159
  0
ARC
  5
308
100
AcDbEntity
  8
0
100
AcDbCircle
 62
7
  6
CONTINUOUS
 10
10.7011584273
 20
6.5500082118
 40
0.0599115862
100
AcDbArc
 50
178.3696698884
 51
180.0000563382
  0
ARC
  5
309
100
AcDbEntity
  8
0
100
AcDbCircle
 62
7
  6
CONTINUOUS
 10
9.6144918083
 20
8.5224472201
 40
0.0599115861
100
AcDbArc
 50
178.3696698882
 51
180.0000563384
  0
ARC
  5
30A
100
AcDbEntity
  8
0
100
AcDbCircle
 62
7
  6
CONTINUOUS
 10
10.6734944241
 20
6.5083156038
 40
0.0550707706
100
AcDbArc
 50
296.9306324496
 51
297.9805709709
  0
ARC
  5
30B
100
AcDbEntity
  8
0
100
AcDbCircle
 62
7
  6
CONTINUOUS
 10
9.5868278051
 20
8.4807546121
 40
0.0550707705
100
AcDbArc
 50
296.9306324495
 51
297.980570971
  0
SPLINE
  5
30C
100
AcDbEntity
  8
0
100
AcDbSpline
 62
7
  6
CONTINUOUS
 70
0
 71
3
 72
17
 73
13
 74
0
 42
0.0000001
 43
0.0000001
 44
0.0000000001
 40
0.0
 40
0.0
 40
0.0
 40
0.0
 40
0.1273148359
 40
0.1907080938
 40
0.253886694
 40
0.3795973721
 40
0.5046020162
 40
0.5668927094
 40
0.6290466736
 40
0.7529728785
 40
0.8765701029
 40
1.0
 40
1.0
 40
1.0
 40
1.0
 10
10.4285024007
 20
6.5010127913
 30
0.0
 10
10.4285024007
 20
6.5077563021
 30
0.0
 10
10.4289875413
 20
6.5178666466
 30
0.0
 10
10.43060921
 20
6.5312200759
 30
0.0
 10
10.4328693816
 20
6.5443951825
 30
0.0
 10
10.4368876487
 20
6.5605580625
 30
0.0
 10
10.4424820271
 20
6.5761962192
 30
0.0
 10
10.4478612222
 20
6.5882697327
 30
0.0
 10
10.4538191789
 20
6.6000041124
 30
0.0
 10
10.4623529861
 20
6.6140488198
 30
0.0
 10
10.4742391833
 20
6.6297343711
 30
0.0
 10
10.4831882918
 20
6.6393173542
 30
0.0
 10
10.4878907021
 20
6.643859307
 30
0.0
  0
SPLINE
  5
30D
100
AcDbEntity
  8
0
100
AcDbSpline
 62
7
  6
CONTINUOUS
 70
0
 71
3
 72
15
 73
11
 74
0
 42
0.0000001
 43
0.0000001
 44
0.0000000001
 40
0.0
 40
0.0
 40
0.0
 40
0.0
 40
0.1240777136
 40
0.2511220676
 40
0.3805653088
 40
0.5108217172
 40
0.639494926
 40
0.764424719
 40
0.8845808224
 40
1.0
 40
1.0
 40
1.0
 40
1.0
 10
10.6374082965
 20
6.5535100993
 30
0.0
 10
10.6401547675
 20
6.5523273324
 30
0.0
 10
10.6456804456
 20
6.549855754
 30
0.0
 10
10.6539199567
 20
6.5458218448
 30
0.0
 10
10.6621124676
 20
6.5413698234
 30
0.0
 10
10.6701089676
 20
6.5364970235
 30
0.0
 10
10.6777452818
 20
6.5312670381
 30
0.0
 10
10.6849051427
 20
6.525794944
 30
0.0
 10
10.6915560178
 20
6.5202004405
 30
0.0
 10
10.6957537284
 20
6.5163757
 30
0.0
 10
10.6977786642
 20
6.5144685521
 30
0.0
  0
SPLINE
  5
30E
100
AcDbEntity
  8
0
100
AcDbSpline
 62
7
  6
CONTINUOUS
 70
0
 71
3
 72
15
 73
11
 74
0
 42
0.0000001
 43
0.0000001
 44
0.0000000001
 40
0.0
 40
0.0
 40
0.0
 40
0.0
 40
0.1387137725
 40
0.2777269652
 40
0.4154031561
 40
0.5490459746
 40
0.6755623724
 40
0.7928750885
 40
0.9006878119
 40
1.0
 40
1.0
 40
1.0
 40
1.0
 10
10.5770379288
 20
6.5228419505
 30
0.0
 10
10.5797603864
 20
6.5243919829
 30
0.0
 10
10.5852220806
 20
6.5274763191
 30
0.0
 10
10.5934329572
 20
6.5320151333
 30
0.0
 10
10.6015956125
 20
6.536403359
 30
0.0
 10
10.609570787
 20
6.5405425078
 30
0.0
 10
10.6172033409
 20
6.544340947
 30
0.0
 10
10.6243768985
 20
6.5477493886
 30
0.0
 10
10.6310510062
 20
6.5507743904
 30
0.0
 10
10.6353434667
 20
6.5526342112
 30
0.0
 10
10.6374082965
 20
6.5535100993
 30
0.0
  0
SPLINE
  5
30F
100
AcDbEntity
  8
0
100
AcDbSpline
 62
7
  6
CONTINUOUS
 70
0
 71
3
 72
11
 73
7
 74
0
 42
0.0000001
 43
0.0000001
 44
0.0000000001
 40
0.0
 40
0.0
 40
0.0
 40
0.0
 40
0.2732656329
 40
0.5313487246
 40
0.7731209783
 40
1.0
 40
1.0
 40
1.0
 40
1.0
 10
10.700281132
 20
6.4820311963
 30
0.0
 10
10.700281132
 20
6.484997437
 30
0.0
 10
10.7001665888
 20
6.4907659442
 30
0.0
 10
10.6996486352
 20
6.4991443213
 30
0.0
 10
10.6988485092
 20
6.5069940464
 30
0.0
 10
10.6981532414
 20
6.5120344813
 30
0.0
 10
10.6977786642
 20
6.5144685521
 30
0.0
  0
SPLINE
  5
310
100
AcDbEntity
  8
0
100
AcDbSpline
 62
7
  6
CONTINUOUS
 70
0
 71
3
 72
11
 73
7
 74
0
 42
0.0000001
 43
0.0000001
 44
0.0000000001
 40
0.0
 40
0.0
 40
0.0
 40
0.0
 40
0.249272203
 40
0.5008802135
 40
0.7525275855
 40
1.0
 40
1.0
 40
1.0
 40
1.0
 10
10.6977786642
 20
6.4447588559
 30
0.0
 10
10.6981445026
 20
6.4478428862
 30
0.0
 10
10.6988233377
 20
6.454046754
 30
0.0
 10
10.6996263181
 20
6.4633890336
 30
0.0
 10
10.7001529826
 20
6.4727289713
 30
0.0
 10
10.700281132
 20
6.4789479667
 30
0.0
 10
10.700281132
 20
6.4820311963
 30
0.0
  0
SPLINE
  5
311
100
AcDbEntity
  8
0
100
AcDbSpline
 62
7
  6
CONTINUOUS
 70
0
 71
3
 72
38
 73
34
 74
0
 42
0.0000001
 43
0.0000001
 44
0.0000000001
 40
0.0
 40
0.0
 40
0.0
 40
0.0
 40
0.029944812
 40
0.0599139139
 40
0.0899312717
 40
0.1200193174
 40
0.1350994304
 40
0.150204915
 40
0.1804950416
 40
0.2109117799
 40
0.2414680483
 40
0.2721739917
 40
0.3030358878
 40
0.3340569838
 40
0.365236542
 40
0.3965708423
 40
0.4280523939
 40
0.4596710329
 40
0.4914133205
 40
0.5232636592
 40
0.5552038952
 40
0.5872143744
 40
0.6192737535
 40
0.6513599477
 40
0.6834501859
 40
0.7155217223
 40
0.7475519957
 40
0.7795193843
 40
0.8114039982
 40
0.8431871813
 40
0.8748506854
 40
0.9377293214
 40
1.0
 40
1.0
 40
1.0
 40
1.0
 10
10.7921896363
 20
6.3288258874
 30
0.0
 10
10.7885564093
 20
6.3253166348
 30
0.0
 10
10.7810043649
 20
6.3185813426
 30
0.0
 10
10.7689051634
 20
6.3094050157
 30
0.0
 10
10.7560961465
 20
6.3012030484
 30
0.0
 10
10.7448972652
 20
6.2952200612
 30
0.0
 10
10.7356608805
 20
6.2909646346
 30
0.0
 10
10.726233853
 20
6.2870601397
 30
0.0
 10
10.7141395186
 20
6.2828612836
 30
0.0
 10
10.6992347864
 20
6.2789490194
 30
0.0
 10
10.6840050719
 20
6.2761763983
 30
0.0
 10
10.6685343694
 20
6.2745612543
 30
0.0
 10
10.6529078939
 20
6.2741095682
 30
0.0
 10
10.6372115905
 20
6.2748263365
 30
0.0
 10
10.6215315655
 20
6.276704687
 30
0.0
 10
10.6059543423
 20
6.2797368623
 30
0.0
 10
10.5905649009
 20
6.2839032878
 30
0.0
 10
10.5754485112
 20
6.2891836564
 30
0.0
 10
10.5606871683
 20
6.2955461431
 30
0.0
 10
10.5463630553
 20
6.30295835
 30
0.0
 10
10.5325534014
 20
6.311376912
 30
0.0
 10
10.5193355374
 20
6.3207580545
 30
0.0
 10
10.5067802423
 20
6.3310478133
 30
0.0
 10
10.4949583256
 20
6.3421919945
 30
0.0
 10
10.4839325849
 20
6.3541272374
 30
0.0
 10
10.4737658144
 20
6.3667901006
 30
0.0
 10
10.4645114
 20
6.3801090988
 30
0.0
 10
10.456222671
 20
6.3940130282
 30
0.0
 10
10.4489426693
 20
6.4084239108
 30
0.0
 10
10.44271419
 20
6.4232648246
 30
0.0
 10
10.4358707896
 20
6.4434612211
 30
0.0
 10
10.4300796009
 20
6.4693684798
 30
0.0
 10
10.4285024007
 20
6.4905086288
 30
0.0
 10
10.4285024007
 20
6.5010127913
 30
0.0
  0
SPLINE
  5
312
100
AcDbEntity
  8
0
100
AcDbSpline
 62
7
  6
CONTINUOUS
 70
0
 71
3
 72
23
 73
19
 74
0
 42
0.0000001
 43
0.0000001
 44
0.0000000001
 40
0.0
 40
0.0
 40
0.0
 40
0.0
 40
0.061242766
 40
0.122959969
 40
0.1850386674
 40
0.2474376473
 40
0.3101333753
 40
0.3730736554
 40
0.4361841498
 40
0.4993920833
 40
0.5626218374
 40
0.6257992135
 40
0.6888482708
 40
0.7516992755
 40
0.8142887097
 40
0.8765618576
 40
0.938476233
 40
1.0
 40
1.0
 40
1.0
 40
1.0
 10
10.6412468412
 20
6.5500081529
 30
0.0
 10
10.6412468412
 20
6.5480572321
 30
0.0
 10
10.6414381557
 20
6.5441378282
 30
0.0
 10
10.6422835576
 20
6.538295812
 30
0.0
 10
10.6436851472
 20
6.5325233625
 30
0.0
 10
10.6456271386
 20
6.5268769826
 30
0.0
 10
10.6480925187
 20
6.521408676
 30
0.0
 10
10.6510567518
 20
6.5161680042
 30
0.0
 10
10.6544932976
 20
6.5112043363
 30
0.0
 10
10.6583699743
 20
6.5065643211
 30
0.0
 10
10.6626500304
 20
6.5022905087
 30
0.0
 10
10.6672945155
 20
6.49842375
 30
0.0
 10
10.6722589372
 20
6.4949984328
 30
0.0
 10
10.677498535
 20
6.4920488277
 30
0.0
 10
10.6829629741
 20
6.4895997949
 30
0.0
 10
10.6886028931
 20
6.4876772804
 30
0.0
 10
10.6943639016
 20
6.4862963089
 30
0.0
 10
10.6982644554
 20
6.4857453682
 30
0.0
 10
10.7002159918
 20
6.4855648001
 30
0.0
  0
SPLINE
  5
313
100
AcDbEntity
  8
0
100
AcDbSpline
 62
7
  6
CONTINUOUS
 70
0
 71
3
 72
49
 73
45
 74
0
 42
0.0000001
 43
0.0000001
 44
0.0000000001
 40
0.0
 40
0.0
 40
0.0
 40
0.0
 40
0.0313124516
 40
0.0628593141
 40
0.0787075028
 40
0.0945995998
 40
0.126502659
 40
0.1585608398
 40
0.1907402095
 40
0.2068682324
 40
0.2230127563
 40
0.2391689252
 40
0.255331956
 40
0.2714969196
 40
0.2876586436
 40
0.3038119942
 40
0.3199521348
 40
0.3521652624
 40
0.3842696438
 40
0.4162330966
 40
0.4480275395
 40
0.4796318702
 40
0.5110311876
 40
0.5422189324
 40
0.573196104
 40
0.6039722241
 40
0.6345646967
 40
0.6649982209
 40
0.6953044026
 40
0.7104261239
 40
0.7255300429
 40
0.7556952105
 40
0.7707772913
 40
0.7858628248
 40
0.8160556666
 40
0.8311837819
 40
0.8463363278
 40
0.8615175372
 40
0.8767311605
 40
0.9072608757
 40
0.9225962674
 40
0.9379813914
 40
0.9688998926
 40
1.0
 40
1.0
 40
1.0
 40
1.0
 10
10.7112412868
 20
6.4771175996
 30
0.0
 10
10.7112412868
 20
6.479589558
 30
0.0
 10
10.7109957407
 20
6.4845550003
 30
0.0
 10
10.7100908798
 20
6.4907122932
 30
0.0
 10
10.7090112571
 20
6.4955921852
 30
0.0
 10
10.7076939066
 20
6.5004423961
 30
0.0
 10
10.7056111239
 20
6.5064032012
 30
0.0
 10
10.7024449513
 20
6.5133125291
 30
0.0
 10
10.6992751752
 20
6.5188198364
 30
0.0
 10
10.6964374754
 20
6.5230449465
 30
0.0
 10
10.6941617844
 20
6.5261188418
 30
0.0
 10
10.6917459181
 20
6.5290873
 30
0.0
 10
10.6891952092
 20
6.5319429157
 30
0.0
 10
10.6865162101
 20
6.5346791375
 30
0.0
 10
10.6837155332
 20
6.5372895303
 30
0.0
 10
10.6807996181
 20
6.5397676596
 30
0.0
 10
10.6767704823
 20
6.5428844082
 30
0.0
 10
10.6714831362
 20
6.5464217883
 30
0.0
 10
10.6647925993
 20
6.5500511675
 30
0.0
 10
10.65782375
 20
6.5530304248
 30
0.0
 10
10.6506429739
 20
6.555328628
 30
0.0
 10
10.6433198258
 20
6.5569257479
 30
0.0
 10
10.6359241544
 20
6.5578037355
 30
0.0
 10
10.6285273918
 20
6.5579564815
 30
0.0
 10
10.6212006704
 20
6.5573795936
 30
0.0
 10
10.6140144623
 20
6.5560808894
 30
0.0
 10
10.6070384142
 20
6.5540702117
 30
0.0
 10
10.6003397611
 20
6.5513690464
 30
0.0
 10
10.5950375285
 20
6.5485593844
 30
0.0
 10
10.5910014267
 20
6.5459973383
 30
0.0
 10
10.5871145971
 20
6.5432335145
 30
0.0
 10
10.5834529562
 20
6.5401689745
 30
0.0
 10
10.5800514131
 20
6.5368324403
 30
0.0
 10
10.5768289051
 20
6.5333197258
 30
0.0
 10
10.5738854116
 20
6.5295545252
 30
0.0
 10
10.5712484101
 20
6.5255728496
 30
0.0
 10
10.569425017
 20
6.5224795789
 30
0.0
 10
10.5677616728
 20
6.5192898031
 30
0.0
 10
10.5657604434
 20
6.5149144289
 30
0.0
 10
10.5640973296
 20
6.5103776649
 30
0.0
 10
10.5627841868
 20
6.5057223246
 30
0.0
 10
10.5617016797
 20
6.5009761904
 30
0.0
 10
10.5607975072
 20
6.4949220949
 30
0.0
 10
10.560556849
 20
6.4900227958
 30
0.0
 10
10.560556849
 20
6.4875676009
 30
0.0
  0
SPLINE
  5
314
100
AcDbEntity
  8
0
100
AcDbSpline
 62
7
  6
CONTINUOUS
 70
0
 71
3
 72
13
 73
9
 74
0
 42
0.0000001
 43
0.0000001
 44
0.0000000001
 40
0.0
 40
0.0
 40
0.0
 40
0.0
 40
0.2525061031
 40
0.5033171101
 40
0.6280725826
 40
0.7524088264
 40
0.8763708792
 40
1.0
 40
1.0
 40
1.0
 40
1.0
 10
10.6078810541
 20
6.5177792755
 30
0.0
 10
10.6078810541
 20
6.5199403986
 30
0.0
 10
10.6081133599
 20
6.5242516084
 30
0.0
 10
10.6089881859
 20
6.5295669934
 30
0.0
 10
10.6100337759
 20
6.5337177433
 30
0.0
 10
10.6109857408
 20
6.536767217
 30
0.0
 10
10.6121044496
 20
6.539749079
 30
0.0
 10
10.612960427
 20
6.5416890327
 30
0.0
 10
10.6134149057
 20
6.5426445605
 30
0.0
  0
SPLINE
  5
315
100
AcDbEntity
  8
0
100
AcDbSpline
 62
7
  6
CONTINUOUS
 70
0
 71
3
 72
19
 73
15
 74
0
 42
0.0000001
 43
0.0000001
 44
0.0000000001
 40
0.0
 40
0.0
 40
0.0
 40
0.0
 40
0.1259165152
 40
0.1890435013
 40
0.2521765074
 40
0.3783027214
 40
0.5041309176
 40
0.5668776413
 40
0.6294512568
 40
0.6918223904
 40
0.7539712289
 40
0.8158897976
 40
0.8775715464
 40
1.0
 40
1.0
 40
1.0
 40
1.0
 10
10.638066238
 20
6.4634036538
 30
0.0
 10
10.6357829526
 20
6.4648802556
 30
0.0
 10
10.6324873809
 20
6.4673123112
 30
0.0
 10
10.628417493
 20
6.4709341506
 30
0.0
 10
10.624572952
 20
6.4748017817
 30
0.0
 10
10.6202256542
 20
6.4800593766
 30
0.0
 10
10.616556845
 20
6.4858016286
 30
0.0
 10
10.6140708217
 20
6.4906250702
 30
0.0
 10
10.6124391647
 20
6.4943382588
 30
0.0
 10
10.6110463428
 20
6.4981336425
 30
0.0
 10
10.6098986336
 20
6.5019954075
 30
0.0
 10
10.6090001863
 20
6.5059077455
 30
0.0
 10
10.6081436664
 20
6.5111535836
 30
0.0
 10
10.6078810541
 20
6.5151354555
 30
0.0
 10
10.6078810541
 20
6.5177792755
 30
0.0
  0
SPLINE
  5
316
100
AcDbEntity
  8
0
100
AcDbSpline
 62
7
  6
CONTINUOUS
 70
0
 71
3
 72
17
 73
13
 74
0
 42
0.0000001
 43
0.0000001
 44
0.0000000001
 40
0.0
 40
0.0
 40
0.0
 40
0.0
 40
0.1214811947
 40
0.1825928933
 40
0.2439208635
 40
0.305493007
 40
0.3673350785
 40
0.4918016094
 40
0.6173948385
 40
0.7440422234
 40
0.8716680821
 40
1.0
 40
1.0
 40
1.0
 40
1.0
 10
10.6984366057
 20
6.4592169546
 30
0.0
 10
10.6961509186
 20
6.4580558255
 30
0.0
 10
10.6925873203
 20
6.4565479208
 30
0.0
 10
10.6876638152
 20
6.4550364893
 30
0.0
 10
10.6838793195
 20
6.4541516655
 30
0.0
 10
10.6800288261
 20
6.4535213756
 30
0.0
 10
10.6748181177
 20
6.4530234468
 30
0.0
 10
10.6682151058
 20
6.453051864
 30
0.0
 10
10.6603159405
 20
6.4541225978
 30
0.0
 10
10.6525528795
 20
6.4562089552
 30
0.0
 10
10.6450618109
 20
6.45927552
 30
0.0
 10
10.6403404017
 20
6.461932951
 30
0.0
 10
10.638066238
 20
6.4634036538
 30
0.0
  0
SPLINE
  5
317
100
AcDbEntity
  8
0
100
AcDbSpline
 62
7
  6
CONTINUOUS
 70
0
 71
3
 72
11
 73
7
 74
0
 42
0.0000001
 43
0.0000001
 44
0.0000000001
 40
0.0
 40
0.0
 40
0.0
 40
0.0
 40
0.2268797892
 40
0.4686527917
 40
0.7267359359
 40
1.0
 40
1.0
 40
1.0
 40
1.0
 10
10.5770379288
 20
6.5228419505
 30
0.0
 10
10.577412514
 20
6.5204078276
 30
0.0
 10
10.5781077947
 20
6.5153672851
 30
0.0
 10
10.5789079269
 20
6.5075174004
 30
0.0
 10
10.5794258776
 20
6.4991388793
 30
0.0
 10
10.5795403966
 20
6.4933702842
 30
0.0
 10
10.5795403966
 20
6.490404007
 30
0.0
  0
SPLINE
  5
318
100
AcDbEntity
  8
0
100
AcDbSpline
 62
7
  6
CONTINUOUS
 70
0
 71
3
 72
11
 73
7
 74
0
 42
0.0000001
 43
0.0000001
 44
0.0000000001
 40
0.0
 40
0.0
 40
0.0
 40
0.0
 40
0.2474744049
 40
0.499121966
 40
0.750729073
 40
1.0
 40
1.0
 40
1.0
 40
1.0
 10
10.5795403966
 20
6.490404007
 30
0.0
 10
10.5795403966
 20
6.4873208011
 30
0.0
 10
10.5794122222
 20
6.4811018766
 30
0.0
 10
10.5788855563
 20
6.4717620708
 30
0.0
 10
10.5780825822
 20
6.4624199635
 30
0.0
 10
10.5774037595
 20
6.4562162204
 30
0.0
 10
10.5770379288
 20
6.4531322544
 30
0.0
  0
SPLINE
  5
319
100
AcDbEntity
  8
0
100
AcDbSpline
 62
7
  6
CONTINUOUS
 70
0
 71
3
 72
15
 73
11
 74
0
 42
0.0000001
 43
0.0000001
 44
0.0000000001
 40
0.0
 40
0.0
 40
0.0
 40
0.0
 40
0.1154191779
 40
0.2355752813
 40
0.3605050746
 40
0.4891782854
 40
0.6194346919
 40
0.7488779326
 40
0.8759222867
 40
1.0
 40
1.0
 40
1.0
 40
1.0
 10
10.6374082965
 20
6.4140907071
 30
0.0
 10
10.6353833607
 20
6.415997855
 30
0.0
 10
10.6311856501
 20
6.4198225955
 30
0.0
 10
10.624534775
 20
6.4254170991
 30
0.0
 10
10.617374914
 20
6.4308891932
 30
0.0
 10
10.6097385998
 20
6.4361191786
 30
0.0
 10
10.6017420998
 20
6.4409919785
 30
0.0
 10
10.593549589
 20
6.4454439998
 30
0.0
 10
10.5853100779
 20
6.4494779091
 30
0.0
 10
10.5797843998
 20
6.4519494875
 30
0.0
 10
10.5770379288
 20
6.4531322544
 30
0.0
  0
SPLINE
  5
31A
100
AcDbEntity
  8
0
100
AcDbSpline
 62
7
  6
CONTINUOUS
 70
0
 71
3
 72
15
 73
11
 74
0
 42
0.0000001
 43
0.0000001
 44
0.0000000001
 40
0.0
 40
0.0
 40
0.0
 40
0.0
 40
0.0993121883
 40
0.2071249118
 40
0.3244376282
 40
0.450954028
 40
0.5845968446
 40
0.7222730351
 40
0.8612862279
 40
1.0
 40
1.0
 40
1.0
 40
1.0
 10
10.6977786642
 20
6.4447588559
 30
0.0
 10
10.6957138344
 20
6.4438829678
 30
0.0
 10
10.6914213739
 20
6.442023147
 30
0.0
 10
10.6847472662
 20
6.4389981452
 30
0.0
 10
10.6775737086
 20
6.4355897035
 30
0.0
 10
10.6699411547
 20
6.4317912644
 30
0.0
 10
10.6619659801
 20
6.4276521156
 30
0.0
 10
10.6538033249
 20
6.4232638899
 30
0.0
 10
10.6455924483
 20
6.4187250757
 30
0.0
 10
10.6401307541
 20
6.4156407395
 30
0.0
 10
10.6374082965
 20
6.4140907071
 30
0.0
  0
SPLINE
  5
31B
100
AcDbEntity
  8
0
100
AcDbSpline
 62
7
  6
CONTINUOUS
 70
0
 71
3
 72
49
 73
45
 74
0
 42
0.0000001
 43
0.0000001
 44
0.0000000001
 40
0.0
 40
0.0
 40
0.0
 40
0.0
 40
0.0313124516
 40
0.0628593141
 40
0.0787075028
 40
0.0945995998
 40
0.126502659
 40
0.1585608398
 40
0.1907402095
 40
0.2068682324
 40
0.2230127563
 40
0.2391689252
 40
0.255331956
 40
0.2714969196
 40
0.2876586436
 40
0.3038119942
 40
0.3199521348
 40
0.3521652624
 40
0.3842696438
 40
0.4162330966
 40
0.4480275395
 40
0.4796318702
 40
0.5110311876
 40
0.5422189324
 40
0.573196104
 40
0.6039722241
 40
0.6345646967
 40
0.6649982209
 40
0.6953044026
 40
0.7104261239
 40
0.7255300429
 40
0.7556952105
 40
0.7707772913
 40
0.7858628248
 40
0.8160556666
 40
0.8311837819
 40
0.8463363278
 40
0.8615175372
 40
0.8767311605
 40
0.9072608757
 40
0.9225962674
 40
0.9379813914
 40
0.9688998926
 40
1.0
 40
1.0
 40
1.0
 40
1.0
 10
10.560556849
 20
6.4875676009
 30
0.0
 10
10.560556849
 20
6.4850956425
 30
0.0
 10
10.5608023951
 20
6.4801302002
 30
0.0
 10
10.561707256
 20
6.4739729073
 30
0.0
 10
10.5627868786
 20
6.4690930153
 30
0.0
 10
10.5641042291
 20
6.4642428045
 30
0.0
 10
10.5661870118
 20
6.4582819993
 30
0.0
 10
10.5693531844
 20
6.4513726714
 30
0.0
 10
10.5725229605
 20
6.4458653641
 30
0.0
 10
10.5753606604
 20
6.441640254
 30
0.0
 10
10.5776363513
 20
6.4385663587
 30
0.0
 10
10.5800522176
 20
6.4355979005
 30
0.0
 10
10.5826029266
 20
6.4327422848
 30
0.0
 10
10.5852819257
 20
6.430006063
 30
0.0
 10
10.5880826026
 20
6.4273956702
 30
0.0
 10
10.5909985177
 20
6.424917541
 30
0.0
 10
10.5950276534
 20
6.4218007924
 30
0.0
 10
10.6003149995
 20
6.4182634122
 30
0.0
 10
10.6070055365
 20
6.414634033
 30
0.0
 10
10.6139743857
 20
6.4116547757
 30
0.0
 10
10.6211551619
 20
6.4093565725
 30
0.0
 10
10.6284783099
 20
6.4077594526
 30
0.0
 10
10.6358739813
 20
6.406881465
 30
0.0
 10
10.643270744
 20
6.406728719
 30
0.0
 10
10.6505974653
 20
6.4073056069
 30
0.0
 10
10.6577836734
 20
6.4086043111
 30
0.0
 10
10.6647597216
 20
6.4106149889
 30
0.0
 10
10.6714583747
 20
6.4133161541
 30
0.0
 10
10.6767606073
 20
6.4161258161
 30
0.0
 10
10.6807967091
 20
6.4186878622
 30
0.0
 10
10.6846835387
 20
6.421451686
 30
0.0
 10
10.6883451796
 20
6.4245162261
 30
0.0
 10
10.6917467227
 20
6.4278527602
 30
0.0
 10
10.6949692307
 20
6.4313654747
 30
0.0
 10
10.6979127242
 20
6.4351306753
 30
0.0
 10
10.7005497256
 20
6.4391123509
 30
0.0
 10
10.7023731188
 20
6.4422056216
 30
0.0
 10
10.704036463
 20
6.4453953974
 30
0.0
 10
10.7060376923
 20
6.4497707716
 30
0.0
 10
10.7077008061
 20
6.4543075356
 30
0.0
 10
10.709013949
 20
6.4589628759
 30
0.0
 10
10.710096456
 20
6.4637090101
 30
0.0
 10
10.7110006286
 20
6.4697631056
 30
0.0
 10
10.7112412868
 20
6.4746624047
 30
0.0
 10
10.7112412868
 20
6.4771175996
 30
0.0
  0
SPLINE
  5
31C
100
AcDbEntity
  8
0
100
AcDbSpline
 62
7
  6
CONTINUOUS
 70
0
 71
3
 72
40
 73
36
 74
0
 42
0.0000001
 43
0.0000001
 44
0.0000000001
 40
0.0
 40
0.0
 40
0.0
 40
0.0
 40
0.0299275589
 40
0.0599160714
 40
0.0899846757
 40
0.1201507588
 40
0.150429626
 40
0.1656180488
 40
0.1808392746
 40
0.2113800023
 40
0.2420644903
 40
0.2728972301
 40
0.3038801423
 40
0.3350117637
 40
0.3662882351
 40
0.3977024366
 40
0.4292451487
 40
0.4609043058
 40
0.4926660988
 40
0.5245145436
 40
0.5564322949
 40
0.58840068
 40
0.6204000814
 40
0.6524105147
 40
0.6844115406
 40
0.7163831542
 40
0.7483054209
 40
0.7801599929
 40
0.8119295892
 40
0.8435979117
 40
0.8751488956
 40
0.9065716384
 40
0.9378631313
 40
0.969015287
 40
1.0
 40
1.0
 40
1.0
 40
1.0
 10
10.508579257
 20
6.661188907
 30
0.0
 10
10.5124508671
 20
6.6639914409
 30
0.0
 10
10.5204157472
 20
6.6693133791
 30
0.0
 10
10.5329370167
 20
6.6763914382
 30
0.0
 10
10.5459849373
 20
6.6825358477
 30
0.0
 10
10.559492756
 20
6.687718442
 30
0.0
 10
10.5710682017
 20
6.6912097493
 30
0.0
 10
10.5804878067
 20
6.6934994214
 30
0.0
 10
10.5900250368
 20
6.6954554643
 30
0.0
 10
10.6021114098
 20
6.6972582816
 30
0.0
 10
10.6167821572
 20
6.698384825
 30
0.0
 10
10.631566682
 20
6.6984712957
 30
0.0
 10
10.6463919051
 20
6.6975173187
 30
0.0
 10
10.6611854237
 20
6.6955283774
 30
0.0
 10
10.675874457
 20
6.6925131391
 30
0.0
 10
10.6903875028
 20
6.6884882206
 30
0.0
 10
10.7046528147
 20
6.6834713149
 30
0.0
 10
10.7186014798
 20
6.6774895459
 30
0.0
 10
10.73216403
 20
6.670569643
 30
0.0
 10
10.7452754965
 20
6.6627482756
 30
0.0
 10
10.7578701162
 20
6.6540611411
 30
0.0
 10
10.7698879329
 20
6.6445532876
 30
0.0
 10
10.7812684428
 20
6.6342691056
 30
0.0
 10
10.7919575227
 20
6.6232607829
 30
0.0
 10
10.8019014356
 20
6.6115807654
 30
0.0
 10
10.8110525857
 20
6.5992873019
 30
0.0
 10
10.8193654779
 20
6.5864399529
 30
0.0
 10
10.8267996321
 20
6.5731017655
 30
0.0
 10
10.8333186839
 20
6.5593379597
 30
0.0
 10
10.8388898667
 20
6.5452159828
 30
0.0
 10
10.843487503
 20
6.5308057157
 30
0.0
 10
10.8470871922
 20
6.516176222
 30
0.0
 10
10.849672613
 20
6.5013981405
 30
0.0
 10
10.8512283889
 20
6.4865474622
 30
0.0
 10
10.8515779377
 20
6.4766207266
 30
0.0
 10
10.8515779377
 20
6.4716724031
 30
0.0
  0
SPLINE
  5
31D
100
AcDbEntity
  8
0
100
AcDbSpline
 62
7
  6
CONTINUOUS
 70
0
 71
3
 72
58
 73
54
 74
0
 42
0.0000001
 43
0.0000001
 44
0.0000000001
 40
0.0
 40
0.0
 40
0.0
 40
0.0
 40
0.0311036881
 40
0.0465905488
 40
0.0620239956
 40
0.0927288498
 40
0.1080185634
 40
0.1232684009
 40
0.1384815121
 40
0.1536613576
 40
0.1688121874
 40
0.1839387771
 40
0.1990460596
 40
0.2141392863
 40
0.2442942278
 40
0.2744567609
 40
0.2895594381
 40
0.3046798642
 40
0.3198230822
 40
0.334993731
 40
0.3654247619
 40
0.3960145868
 40
0.4113820902
 40
0.4267979847
 40
0.4422641616
 40
0.4577821839
 40
0.4889672415
 40
0.5203640478
 40
0.5361444902
 40
0.551974645
 40
0.5678524977
 40
0.58377545
 40
0.6157360994
 40
0.6478378676
 40
0.6639359765
 40
0.6800567845
 40
0.6961955629
 40
0.7123475841
 40
0.728507911
 40
0.7446714551
 40
0.7769797727
 40
0.793122956
 40
0.8092494136
 40
0.8253545969
 40
0.8414340341
 40
0.8574834655
 40
0.8734987676
 40
0.9054016335
 40
0.921291582
 40
0.9371359134
 40
0.9529341635
 40
0.9686840572
 40
1.0
 40
1.0
 40
1.0
 40
1.0
 10
10.4398161135
 20
6.4959409993
 30
0.0
 10
10.4398161135
 20
6.5023320792
 30
0.0
 10
10.4402863997
 20
6.5119142893
 30
0.0
 10
10.4418579876
 20
6.524565482
 30
0.0
 10
10.4440478306
 20
6.5370416373
 30
0.0
 10
10.4471682807
 20
6.5492985027
 30
0.0
 10
10.4511999417
 20
6.5612239401
 30
0.0
 10
10.4546652295
 20
6.5699678048
 30
0.0
 10
10.4585665251
 20
6.5785008958
 30
0.0
 10
10.46289548
 20
6.5868024035
 30
0.0
 10
10.4676419342
 20
6.5948518477
 30
0.0
 10
10.4727932641
 20
6.6026304595
 30
0.0
 10
10.4783378299
 20
6.6101194754
 30
0.0
 10
10.4862336334
 20
6.6196889274
 30
0.0
 10
10.497025657
 20
6.6308503691
 30
0.0
 10
10.5089342114
 20
6.640814846
 30
0.0
 10
10.5190500378
 20
6.6480080502
 30
0.0
 10
10.5269235693
 20
6.6530064776
 30
0.0
 10
10.5350596082
 20
6.6575935372
 30
0.0
 10
10.5462404697
 20
6.6631521898
 30
0.0
 10
10.5607873681
 20
6.6690189165
 30
0.0
 10
10.5758975489
 20
6.6733732486
 30
0.0
 10
10.5882503132
 20
6.6759332651
 30
0.0
 10
10.5976452537
 20
6.6773909347
 30
0.0
 10
10.6071322169
 20
6.6783786311
 30
0.0
 10
10.6198924872
 20
6.6790658795
 30
0.0
 10
10.635964536
 20
6.6787367697
 30
0.0
 10
10.6519801898
 20
6.676832692
 30
0.0
 10
10.6646968503
 20
6.6743819161
 30
0.0
 10
10.6741824868
 20
6.6720771519
 30
0.0
 10
10.6835757267
 20
6.6693154285
 30
0.0
 10
10.6959605378
 20
6.6650290361
 30
0.0
 10
10.711096458
 20
6.6585589701
 30
0.0
 10
10.725596356
 20
6.6506926417
 30
0.0
 10
10.7367518239
 20
6.6435981421
 30
0.0
 10
10.7448850681
 20
6.6378837307
 30
0.0
 10
10.7527556918
 20
6.631794856
 30
0.0
 10
10.7603443749
 20
6.6253455262
 30
0.0
 10
10.7676338601
 20
6.618552
 30
0.0
 10
10.7769273254
 20
6.6090602722
 30
0.0
 10
10.7855564257
 20
6.5989406314
 30
0.0
 10
10.7934546202
 20
6.588273663
 30
0.0
 10
10.7989978959
 20
6.580018476
 30
0.0
 10
10.8041482518
 20
6.5715282506
 30
0.0
 10
10.8088940282
 20
6.5628234222
 30
0.0
 10
10.8132227435
 20
6.5539240209
 30
0.0
 10
10.818417054
 20
6.5418462824
 30
0.0
 10
10.8227503482
 20
6.5294474647
 30
0.0
 10
10.8261782186
 20
6.5168249473
 30
0.0
 10
10.828288692
 20
6.5072849473
 30
0.0
 10
10.8299355852
 20
6.4976830725
 30
0.0
 10
10.8315037878
 20
6.4848582191
 30
0.0
 10
10.8319820222
 20
6.4751788944
 30
0.0
 10
10.8319820222
 20
6.4687442012
 30
0.0
  0
SPLINE
  5
31E
100
AcDbEntity
  8
0
100
AcDbSpline
 62
7
  6
CONTINUOUS
 70
0
 71
3
 72
58
 73
54
 74
0
 42
0.0000001
 43
0.0000001
 44
0.0000000001
 40
0.0
 40
0.0
 40
0.0
 40
0.0
 40
0.0311036881
 40
0.0465905488
 40
0.0620239956
 40
0.0927288498
 40
0.1080185634
 40
0.1232684009
 40
0.1384815121
 40
0.1536613576
 40
0.1688121874
 40
0.1839387771
 40
0.1990460596
 40
0.2141392863
 40
0.2442942278
 40
0.2744567609
 40
0.2895594381
 40
0.3046798642
 40
0.3198230822
 40
0.334993731
 40
0.3654247619
 40
0.3960145868
 40
0.4113820902
 40
0.4267979847
 40
0.4422641616
 40
0.4577821839
 40
0.4889672415
 40
0.5203640478
 40
0.5361444902
 40
0.551974645
 40
0.5678524977
 40
0.58377545
 40
0.6157360994
 40
0.6478378676
 40
0.6639359765
 40
0.6800567845
 40
0.6961955629
 40
0.7123475841
 40
0.728507911
 40
0.7446714551
 40
0.7769797727
 40
0.793122956
 40
0.8092494136
 40
0.8253545969
 40
0.8414340341
 40
0.8574834655
 40
0.8734987676
 40
0.9054016335
 40
0.921291582
 40
0.9371359134
 40
0.9529341635
 40
0.9686840572
 40
1.0
 40
1.0
 40
1.0
 40
1.0
 10
10.8319820222
 20
6.4687442012
 30
0.0
 10
10.8319820222
 20
6.4623531213
 30
0.0
 10
10.8315117361
 20
6.4527709112
 30
0.0
 10
10.8299401481
 20
6.4401197185
 30
0.0
 10
10.8277503052
 20
6.4276435632
 30
0.0
 10
10.824629855
 20
6.4153866979
 30
0.0
 10
10.820598194
 20
6.4034612604
 30
0.0
 10
10.8171329062
 20
6.3947173957
 30
0.0
 10
10.8132316106
 20
6.3861843047
 30
0.0
 10
10.8089026558
 20
6.377882797
 30
0.0
 10
10.8041562016
 20
6.3698333528
 30
0.0
 10
10.7990048716
 20
6.362054741
 30
0.0
 10
10.7934603059
 20
6.3545657252
 30
0.0
 10
10.7855645023
 20
6.3449962731
 30
0.0
 10
10.7747724788
 20
6.3338348314
 30
0.0
 10
10.7628639243
 20
6.3238703546
 30
0.0
 10
10.7527480979
 20
6.3166771503
 30
0.0
 10
10.7448745665
 20
6.3116787229
 30
0.0
 10
10.7367385276
 20
6.3070916633
 30
0.0
 10
10.7255576661
 20
6.3015330107
 30
0.0
 10
10.7110107677
 20
6.295666284
 30
0.0
 10
10.6959005868
 20
6.2913119519
 30
0.0
 10
10.6835478226
 20
6.2887519354
 30
0.0
 10
10.674152882
 20
6.2872942658
 30
0.0
 10
10.6646659189
 20
6.2863065694
 30
0.0
 10
10.6519056486
 20
6.285619321
 30
0.0
 10
10.6358335998
 20
6.2859484308
 30
0.0
 10
10.619817946
 20
6.2878525085
 30
0.0
 10
10.6071012854
 20
6.2903032844
 30
0.0
 10
10.5976156489
 20
6.2926080486
 30
0.0
 10
10.588222409
 20
6.295369772
 30
0.0
 10
10.575837598
 20
6.2996561644
 30
0.0
 10
10.5607016777
 20
6.3061262304
 30
0.0
 10
10.5462017798
 20
6.3139925588
 30
0.0
 10
10.5350463119
 20
6.3210870585
 30
0.0
 10
10.5269130677
 20
6.3268014699
 30
0.0
 10
10.5190424439
 20
6.3328903445
 30
0.0
 10
10.5114537609
 20
6.3393396743
 30
0.0
 10
10.5041642757
 20
6.3461332005
 30
0.0
 10
10.4948708104
 20
6.3556249283
 30
0.0
 10
10.4862417101
 20
6.3657445692
 30
0.0
 10
10.4783435155
 20
6.3764115375
 30
0.0
 10
10.4728002399
 20
6.3846667245
 30
0.0
 10
10.467649884
 20
6.3931569499
 30
0.0
 10
10.4629041076
 20
6.4018617783
 30
0.0
 10
10.4585753922
 20
6.4107611796
 30
0.0
 10
10.4533810817
 20
6.4228389181
 30
0.0
 10
10.4490477876
 20
6.4352377358
 30
0.0
 10
10.4456199172
 20
6.4478602532
 30
0.0
 10
10.4435094437
 20
6.4574002532
 30
0.0
 10
10.4418625506
 20
6.467002128
 30
0.0
 10
10.440294348
 20
6.4798269814
 30
0.0
 10
10.4398161135
 20
6.4895063061
 30
0.0
 10
10.4398161135
 20
6.4959409993
 30
0.0
  0
SPLINE
  5
31F
100
AcDbEntity
  8
0
100
AcDbSpline
 62
7
  6
CONTINUOUS
 70
0
 71
3
 72
17
 73
13
 74
0
 42
0.0000001
 43
0.0000001
 44
0.0000000001
 40
0.0
 40
0.0
 40
0.0
 40
0.0
 40
0.1273148359
 40
0.1907080938
 40
0.253886694
 40
0.3795973721
 40
0.5046020162
 40
0.5668927094
 40
0.6290466736
 40
0.7529728785
 40
0.8765701029
 40
1.0
 40
1.0
 40
1.0
 40
1.0
 10
10.8515779377
 20
6.4716724031
 30
0.0
 10
10.8515779377
 20
6.4649288923
 30
0.0
 10
10.8510927971
 20
6.4548185478
 30
0.0
 10
10.8494711284
 20
6.4414651185
 30
0.0
 10
10.8472109567
 20
6.4282900119
 30
0.0
 10
10.8431926897
 20
6.4121271319
 30
0.0
 10
10.8375983113
 20
6.3964889751
 30
0.0
 10
10.8322191161
 20
6.3844154617
 30
0.0
 10
10.8262611595
 20
6.372681082
 30
0.0
 10
10.8177273523
 20
6.3586363746
 30
0.0
 10
10.8058411551
 20
6.3429508232
 30
0.0
 10
10.7968920466
 20
6.3333678402
 30
0.0
 10
10.7921896363
 20
6.3288258874
 30
0.0
  0
SPLINE
  5
320
100
AcDbEntity
  8
0
100
AcDbSpline
 62
7
  6
CONTINUOUS
 70
0
 71
3
 72
17
 73
13
 74
0
 42
0.0000001
 43
0.0000001
 44
0.0000000001
 40
0.0
 40
0.0
 40
0.0
 40
0.0
 40
0.1273148359
 40
0.1907080938
 40
0.253886694
 40
0.3795973721
 40
0.5046020162
 40
0.5668927094
 40
0.6290466736
 40
0.7529728785
 40
0.8765701029
 40
1.0
 40
1.0
 40
1.0
 40
1.0
 10
9.3418357817
 20
8.4734517996
 30
0.0
 10
9.3418357817
 20
8.4801953104
 30
0.0
 10
9.3423209223
 20
8.490305655
 30
0.0
 10
9.3439425911
 20
8.5036590842
 30
0.0
 10
9.3462027627
 20
8.5168341908
 30
0.0
 10
9.3502210297
 20
8.5329970708
 30
0.0
 10
9.3558154081
 20
8.5486352276
 30
0.0
 10
9.3611946033
 20
8.560708741
 30
0.0
 10
9.3671525599
 20
8.5724431207
 30
0.0
 10
9.3756863671
 20
8.5864878281
 30
0.0
 10
9.3875725643
 20
8.6021733795
 30
0.0
 10
9.3965216728
 20
8.6117563625
 30
0.0
 10
9.4012240831
 20
8.6162983153
 30
0.0
  0
SPLINE
  5
321
100
AcDbEntity
  8
0
100
AcDbSpline
 62
7
  6
CONTINUOUS
 70
0
 71
3
 72
15
 73
11
 74
0
 42
0.0000001
 43
0.0000001
 44
0.0000000001
 40
0.0
 40
0.0
 40
0.0
 40
0.0
 40
0.1240777136
 40
0.2511220676
 40
0.3805653088
 40
0.5108217172
 40
0.639494926
 40
0.764424719
 40
0.8845808224
 40
1.0
 40
1.0
 40
1.0
 40
1.0
 10
9.5507416775
 20
8.5259491077
 30
0.0
 10
9.5534881486
 20
8.5247663407
 30
0.0
 10
9.5590138266
 20
8.5222947624
 30
0.0
 10
9.5672533377
 20
8.5182608531
 30
0.0
 10
9.5754458487
 20
8.5138088317
 30
0.0
 10
9.5834423486
 20
8.5089360318
 30
0.0
 10
9.5910786628
 20
8.5037060464
 30
0.0
 10
9.5982385238
 20
8.4982339524
 30
0.0
 10
9.6048893988
 20
8.4926394488
 30
0.0
 10
9.6090871095
 20
8.4888147083
 30
0.0
 10
9.6111120452
 20
8.4869075604
 30
0.0
  0
SPLINE
  5
322
100
AcDbEntity
  8
0
100
AcDbSpline
 62
7
  6
CONTINUOUS
 70
0
 71
3
 72
15
 73
11
 74
0
 42
0.0000001
 43
0.0000001
 44
0.0000000001
 40
0.0
 40
0.0
 40
0.0
 40
0.0
 40
0.1387137725
 40
0.2777269652
 40
0.4154031561
 40
0.5490459746
 40
0.6755623724
 40
0.7928750885
 40
0.9006878119
 40
1.0
 40
1.0
 40
1.0
 40
1.0
 10
9.4903713098
 20
8.4952809588
 30
0.0
 10
9.4930937674
 20
8.4968309912
 30
0.0
 10
9.4985554616
 20
8.4999153274
 30
0.0
 10
9.5067663383
 20
8.5044541417
 30
0.0
 10
9.5149289935
 20
8.5088423673
 30
0.0
 10
9.5229041681
 20
8.5129815161
 30
0.0
 10
9.5305367219
 20
8.5167799553
 30
0.0
 10
9.5377102796
 20
8.5201883969
 30
0.0
 10
9.5443843872
 20
8.5232133987
 30
0.0
 10
9.5486768477
 20
8.5250732195
 30
0.0
 10
9.5507416775
 20
8.5259491077
 30
0.0
  0
SPLINE
  5
323
100
AcDbEntity
  8
0
100
AcDbSpline
 62
7
  6
CONTINUOUS
 70
0
 71
3
 72
11
 73
7
 74
0
 42
0.0000001
 43
0.0000001
 44
0.0000000001
 40
0.0
 40
0.0
 40
0.0
 40
0.0
 40
0.2732656329
 40
0.5313487246
 40
0.7731209783
 40
1.0
 40
1.0
 40
1.0
 40
1.0
 10
9.6136145131
 20
8.4544702046
 30
0.0
 10
9.6136145131
 20
8.4574364453
 30
0.0
 10
9.6134999698
 20
8.4632049525
 30
0.0
 10
9.6129820163
 20
8.4715833296
 30
0.0
 10
9.6121818902
 20
8.4794330547
 30
0.0
 10
9.6114866224
 20
8.4844734896
 30
0.0
 10
9.6111120452
 20
8.4869075604
 30
0.0
  0
SPLINE
  5
324
100
AcDbEntity
  8
0
100
AcDbSpline
 62
7
  6
CONTINUOUS
 70
0
 71
3
 72
11
 73
7
 74
0
 42
0.0000001
 43
0.0000001
 44
0.0000000001
 40
0.0
 40
0.0
 40
0.0
 40
0.0
 40
0.249272203
 40
0.5008802135
 40
0.7525275855
 40
1.0
 40
1.0
 40
1.0
 40
1.0
 10
9.6111120452
 20
8.4171978643
 30
0.0
 10
9.6114778837
 20
8.4202818945
 30
0.0
 10
9.6121567187
 20
8.4264857624
 30
0.0
 10
9.6129596991
 20
8.435828042
 30
0.0
 10
9.6134863636
 20
8.4451679796
 30
0.0
 10
9.6136145131
 20
8.451386975
 30
0.0
 10
9.6136145131
 20
8.4544702046
 30
0.0
  0
SPLINE
  5
325
100
AcDbEntity
  8
0
100
AcDbSpline
 62
7
  6
CONTINUOUS
 70
0
 71
3
 72
38
 73
34
 74
0
 42
0.0000001
 43
0.0000001
 44
0.0000000001
 40
0.0
 40
0.0
 40
0.0
 40
0.0
 40
0.029944812
 40
0.0599139139
 40
0.0899312717
 40
0.1200193174
 40
0.1350994304
 40
0.150204915
 40
0.1804950416
 40
0.2109117799
 40
0.2414680483
 40
0.2721739917
 40
0.3030358878
 40
0.3340569838
 40
0.365236542
 40
0.3965708423
 40
0.4280523939
 40
0.4596710329
 40
0.4914133205
 40
0.5232636592
 40
0.5552038952
 40
0.5872143744
 40
0.6192737535
 40
0.6513599477
 40
0.6834501859
 40
0.7155217223
 40
0.7475519957
 40
0.7795193843
 40
0.8114039982
 40
0.8431871813
 40
0.8748506854
 40
0.9377293214
 40
1.0
 40
1.0
 40
1.0
 40
1.0
 10
9.7055230173
 20
8.3012648957
 30
0.0
 10
9.7018897903
 20
8.2977556431
 30
0.0
 10
9.694337746
 20
8.2910203509
 30
0.0
 10
9.6822385445
 20
8.2818440241
 30
0.0
 10
9.6694295275
 20
8.2736420567
 30
0.0
 10
9.6582306462
 20
8.2676590695
 30
0.0
 10
9.6489942616
 20
8.263403643
 30
0.0
 10
9.639567234
 20
8.2594991481
 30
0.0
 10
9.6274728997
 20
8.2553002919
 30
0.0
 10
9.6125681675
 20
8.2513880277
 30
0.0
 10
9.5973384529
 20
8.2486154067
 30
0.0
 10
9.5818677505
 20
8.2470002626
 30
0.0
 10
9.566241275
 20
8.2465485765
 30
0.0
 10
9.5505449715
 20
8.2472653449
 30
0.0
 10
9.5348649465
 20
8.2491436954
 30
0.0
 10
9.5192877233
 20
8.2521758707
 30
0.0
 10
9.5038982819
 20
8.2563422961
 30
0.0
 10
9.4887818922
 20
8.2616226648
 30
0.0
 10
9.4740205494
 20
8.2679851515
 30
0.0
 10
9.4596964363
 20
8.2753973583
 30
0.0
 10
9.4458867824
 20
8.2838159203
 30
0.0
 10
9.4326689184
 20
8.2931970628
 30
0.0
 10
9.4201136233
 20
8.3034868216
 30
0.0
 10
9.4082917067
 20
8.3146310028
 30
0.0
 10
9.3972659659
 20
8.3265662457
 30
0.0
 10
9.3870991954
 20
8.3392291089
 30
0.0
 10
9.377844781
 20
8.3525481071
 30
0.0
 10
9.369556052
 20
8.3664520366
 30
0.0
 10
9.3622760504
 20
8.3808629191
 30
0.0
 10
9.356047571
 20
8.3957038329
 30
0.0
 10
9.3492041706
 20
8.4159002294
 30
0.0
 10
9.343412982
 20
8.4418074881
 30
0.0
 10
9.3418357817
 20
8.4629476372
 30
0.0
 10
9.3418357817
 20
8.4734517996
 30
0.0
  0
SPLINE
  5
326
100
AcDbEntity
  8
0
100
AcDbSpline
 62
7
  6
CONTINUOUS
 70
0
 71
3
 72
23
 73
19
 74
0
 42
0.0000001
 43
0.0000001
 44
0.0000000001
 40
0.0
 40
0.0
 40
0.0
 40
0.0
 40
0.061242766
 40
0.122959969
 40
0.1850386674
 40
0.2474376473
 40
0.3101333753
 40
0.3730736554
 40
0.4361841498
 40
0.4993920833
 40
0.5626218374
 40
0.6257992135
 40
0.6888482708
 40
0.7516992755
 40
0.8142887097
 40
0.8765618576
 40
0.938476233
 40
1.0
 40
1.0
 40
1.0
 40
1.0
 10
9.5545802222
 20
8.5224471612
 30
0.0
 10
9.5545802222
 20
8.5204962404
 30
0.0
 10
9.5547715367
 20
8.5165768365
 30
0.0
 10
9.5556169386
 20
8.5107348203
 30
0.0
 10
9.5570185283
 20
8.5049623708
 30
0.0
 10
9.5589605196
 20
8.4993159909
 30
0.0
 10
9.5614258997
 20
8.4938476843
 30
0.0
 10
9.5643901329
 20
8.4886070125
 30
0.0
 10
9.5678266786
 20
8.4836433447
 30
0.0
 10
9.5717033554
 20
8.4790033294
 30
0.0
 10
9.5759834115
 20
8.474729517
 30
0.0
 10
9.5806278965
 20
8.4708627583
 30
0.0
 10
9.5855923183
 20
8.4674374412
 30
0.0
 10
9.590831916
 20
8.464487836
 30
0.0
 10
9.5962963552
 20
8.4620388032
 30
0.0
 10
9.6019362742
 20
8.4601162887
 30
0.0
 10
9.6076972826
 20
8.4587353173
 30
0.0
 10
9.6115978364
 20
8.4581843765
 30
0.0
 10
9.6135493728
 20
8.4580038084
 30
0.0
  0
SPLINE
  5
327
100
AcDbEntity
  8
0
100
AcDbSpline
 62
7
  6
CONTINUOUS
 70
0
 71
3
 72
49
 73
45
 74
0
 42
0.0000001
 43
0.0000001
 44
0.0000000001
 40
0.0
 40
0.0
 40
0.0
 40
0.0
 40
0.0313124516
 40
0.0628593141
 40
0.0787075028
 40
0.0945995998
 40
0.126502659
 40
0.1585608398
 40
0.1907402095
 40
0.2068682324
 40
0.2230127563
 40
0.2391689252
 40
0.255331956
 40
0.2714969196
 40
0.2876586436
 40
0.3038119942
 40
0.3199521348
 40
0.3521652624
 40
0.3842696438
 40
0.4162330966
 40
0.4480275395
 40
0.4796318702
 40
0.5110311876
 40
0.5422189324
 40
0.573196104
 40
0.6039722241
 40
0.6345646967
 40
0.6649982209
 40
0.6953044026
 40
0.7104261239
 40
0.7255300429
 40
0.7556952105
 40
0.7707772913
 40
0.7858628248
 40
0.8160556666
 40
0.8311837819
 40
0.8463363278
 40
0.8615175372
 40
0.8767311605
 40
0.9072608757
 40
0.9225962674
 40
0.9379813914
 40
0.9688998926
 40
1.0
 40
1.0
 40
1.0
 40
1.0
 10
9.6245746678
 20
8.449556608
 30
0.0
 10
9.6245746678
 20
8.4520285664
 30
0.0
 10
9.6243291217
 20
8.4569940086
 30
0.0
 10
9.6234242608
 20
8.4631513016
 30
0.0
 10
9.6223446382
 20
8.4680311936
 30
0.0
 10
9.6210272877
 20
8.4728814044
 30
0.0
 10
9.618944505
 20
8.4788422095
 30
0.0
 10
9.6157783324
 20
8.4857515375
 30
0.0
 10
9.6126085563
 20
8.4912588447
 30
0.0
 10
9.6097708564
 20
8.4954839548
 30
0.0
 10
9.6074951655
 20
8.4985578501
 30
0.0
 10
9.6050792992
 20
8.5015263084
 30
0.0
 10
9.6025285902
 20
8.504381924
 30
0.0
 10
9.5998495911
 20
8.5071181458
 30
0.0
 10
9.5970489142
 20
8.5097285386
 30
0.0
 10
9.5941329991
 20
8.5122066679
 30
0.0
 10
9.5901038634
 20
8.5153234165
 30
0.0
 10
9.5848165173
 20
8.5188607966
 30
0.0
 10
9.5781259803
 20
8.5224901758
 30
0.0
 10
9.5711571311
 20
8.5254694331
 30
0.0
 10
9.5639763549
 20
8.5277676363
 30
0.0
 10
9.5566532069
 20
8.5293647562
 30
0.0
 10
9.5492575355
 20
8.5302427438
 30
0.0
 10
9.5418607728
 20
8.5303954898
 30
0.0
 10
9.5345340515
 20
8.5298186019
 30
0.0
 10
9.5273478434
 20
8.5285198978
 30
0.0
 10
9.5203717952
 20
8.52650922
 30
0.0
 10
9.5136731421
 20
8.5238080547
 30
0.0
 10
9.5083709095
 20
8.5209983928
 30
0.0
 10
9.5043348077
 20
8.5184363466
 30
0.0
 10
9.5004479781
 20
8.5156725229
 30
0.0
 10
9.4967863372
 20
8.5126079828
 30
0.0
 10
9.4933847942
 20
8.5092714486
 30
0.0
 10
9.4901622861
 20
8.5057587342
 30
0.0
 10
9.4872187926
 20
8.5019935335
 30
0.0
 10
9.4845817912
 20
8.4980118579
 30
0.0
 10
9.482758398
 20
8.4949185872
 30
0.0
 10
9.4810950538
 20
8.4917288115
 30
0.0
 10
9.4790938245
 20
8.4873534372
 30
0.0
 10
9.4774307107
 20
8.4828166732
 30
0.0
 10
9.4761175678
 20
8.478161333
 30
0.0
 10
9.4750350608
 20
8.4734151987
 30
0.0
 10
9.4741308882
 20
8.4673611032
 30
0.0
 10
9.47389023
 20
8.4624618041
 30
0.0
 10
9.47389023
 20
8.4600066092
 30
0.0
  0
SPLINE
  5
328
100
AcDbEntity
  8
0
100
AcDbSpline
 62
7
  6
CONTINUOUS
 70
0
 71
3
 72
13
 73
9
 74
0
 42
0.0000001
 43
0.0000001
 44
0.0000000001
 40
0.0
 40
0.0
 40
0.0
 40
0.0
 40
0.2525061031
 40
0.5033171101
 40
0.6280725826
 40
0.7524088264
 40
0.8763708792
 40
1.0
 40
1.0
 40
1.0
 40
1.0
 10
9.5212144351
 20
8.4902182839
 30
0.0
 10
9.5212144351
 20
8.4923794069
 30
0.0
 10
9.521446741
 20
8.4966906167
 30
0.0
 10
9.5223215669
 20
8.5020060017
 30
0.0
 10
9.5233671569
 20
8.5061567516
 30
0.0
 10
9.5243191218
 20
8.5092062253
 30
0.0
 10
9.5254378306
 20
8.5121880873
 30
0.0
 10
9.5262938081
 20
8.514128041
 30
0.0
 10
9.5267482867
 20
8.5150835688
 30
0.0
  0
SPLINE
  5
329
100
AcDbEntity
  8
0
100
AcDbSpline
 62
7
  6
CONTINUOUS
 70
0
 71
3
 72
19
 73
15
 74
0
 42
0.0000001
 43
0.0000001
 44
0.0000000001
 40
0.0
 40
0.0
 40
0.0
 40
0.0
 40
0.1259165152
 40
0.1890435013
 40
0.2521765074
 40
0.3783027214
 40
0.5041309176
 40
0.5668776413
 40
0.6294512568
 40
0.6918223904
 40
0.7539712289
 40
0.8158897976
 40
0.8775715464
 40
1.0
 40
1.0
 40
1.0
 40
1.0
 10
9.551399619
 20
8.4358426622
 30
0.0
 10
9.5491163337
 20
8.437319264
 30
0.0
 10
9.5458207619
 20
8.4397513195
 30
0.0
 10
9.5417508741
 20
8.4433731589
 30
0.0
 10
9.537906333
 20
8.44724079
 30
0.0
 10
9.5335590353
 20
8.4524983849
 30
0.0
 10
9.5298902261
 20
8.4582406369
 30
0.0
 10
9.5274042027
 20
8.4630640785
 30
0.0
 10
9.5257725457
 20
8.4667772671
 30
0.0
 10
9.5243797239
 20
8.4705726509
 30
0.0
 10
9.5232320146
 20
8.4744344159
 30
0.0
 10
9.5223335673
 20
8.4783467538
 30
0.0
 10
9.5214770475
 20
8.4835925919
 30
0.0
 10
9.5212144351
 20
8.4875744638
 30
0.0
 10
9.5212144351
 20
8.4902182839
 30
0.0
  0
SPLINE
  5
32A
100
AcDbEntity
  8
0
100
AcDbSpline
 62
7
  6
CONTINUOUS
 70
0
 71
3
 72
17
 73
13
 74
0
 42
0.0000001
 43
0.0000001
 44
0.0000000001
 40
0.0
 40
0.0
 40
0.0
 40
0.0
 40
0.1214811947
 40
0.1825928933
 40
0.2439208635
 40
0.305493007
 40
0.3673350785
 40
0.4918016094
 40
0.6173948385
 40
0.7440422234
 40
0.8716680821
 40
1.0
 40
1.0
 40
1.0
 40
1.0
 10
9.6117699867
 20
8.4316559629
 30
0.0
 10
9.6094842997
 20
8.4304948338
 30
0.0
 10
9.6059207013
 20
8.4289869291
 30
0.0
 10
9.6009971963
 20
8.4274754976
 30
0.0
 10
9.5972127005
 20
8.4265906738
 30
0.0
 10
9.5933622072
 20
8.425960384
 30
0.0
 10
9.5881514988
 20
8.4254624551
 30
0.0
 10
9.5815484869
 20
8.4254908723
 30
0.0
 10
9.5736493216
 20
8.4265616061
 30
0.0
 10
9.5658862605
 20
8.4286479635
 30
0.0
 10
9.558395192
 20
8.4317145283
 30
0.0
 10
9.5536737828
 20
8.4343719593
 30
0.0
 10
9.551399619
 20
8.4358426622
 30
0.0
  0
SPLINE
  5
32B
100
AcDbEntity
  8
0
100
AcDbSpline
 62
7
  6
CONTINUOUS
 70
0
 71
3
 72
11
 73
7
 74
0
 42
0.0000001
 43
0.0000001
 44
0.0000000001
 40
0.0
 40
0.0
 40
0.0
 40
0.0
 40
0.2268797892
 40
0.4686527917
 40
0.7267359359
 40
1.0
 40
1.0
 40
1.0
 40
1.0
 10
9.4903713098
 20
8.4952809588
 30
0.0
 10
9.490745895
 20
8.4928468359
 30
0.0
 10
9.4914411757
 20
8.4878062934
 30
0.0
 10
9.492241308
 20
8.4799564087
 30
0.0
 10
9.4927592586
 20
8.4715778877
 30
0.0
 10
9.4928737776
 20
8.4658092925
 30
0.0
 10
9.4928737776
 20
8.4628430154
 30
0.0
  0
SPLINE
  5
32C
100
AcDbEntity
  8
0
100
AcDbSpline
 62
7
  6
CONTINUOUS
 70
0
 71
3
 72
11
 73
7
 74
0
 42
0.0000001
 43
0.0000001
 44
0.0000000001
 40
0.0
 40
0.0
 40
0.0
 40
0.0
 40
0.2474744049
 40
0.499121966
 40
0.750729073
 40
1.0
 40
1.0
 40
1.0
 40
1.0
 10
9.4928737776
 20
8.4628430154
 30
0.0
 10
9.4928737776
 20
8.4597598094
 30
0.0
 10
9.4927456033
 20
8.453540885
 30
0.0
 10
9.4922189373
 20
8.4442010792
 30
0.0
 10
9.4914159632
 20
8.4348589718
 30
0.0
 10
9.4907371406
 20
8.4286552287
 30
0.0
 10
9.4903713098
 20
8.4255712627
 30
0.0
  0
SPLINE
  5
32D
100
AcDbEntity
  8
0
100
AcDbSpline
 62
7
  6
CONTINUOUS
 70
0
 71
3
 72
15
 73
11
 74
0
 42
0.0000001
 43
0.0000001
 44
0.0000000001
 40
0.0
 40
0.0
 40
0.0
 40
0.0
 40
0.1154191779
 40
0.2355752813
 40
0.3605050746
 40
0.4891782854
 40
0.6194346919
 40
0.7488779326
 40
0.8759222867
 40
1.0
 40
1.0
 40
1.0
 40
1.0
 10
9.5507416775
 20
8.3865297154
 30
0.0
 10
9.5487167418
 20
8.3884368633
 30
0.0
 10
9.5445190311
 20
8.3922616039
 30
0.0
 10
9.537868156
 20
8.3978561074
 30
0.0
 10
9.530708295
 20
8.4033282015
 30
0.0
 10
9.5230719808
 20
8.408558187
 30
0.0
 10
9.5150754809
 20
8.4134309868
 30
0.0
 10
9.50688297
 20
8.4178830082
 30
0.0
 10
9.4986434589
 20
8.4219169174
 30
0.0
 10
9.4931177809
 20
8.4243884958
 30
0.0
 10
9.4903713098
 20
8.4255712627
 30
0.0
  0
SPLINE
  5
32E
100
AcDbEntity
  8
0
100
AcDbSpline
 62
7
  6
CONTINUOUS
 70
0
 71
3
 72
15
 73
11
 74
0
 42
0.0000001
 43
0.0000001
 44
0.0000000001
 40
0.0
 40
0.0
 40
0.0
 40
0.0
 40
0.0993121883
 40
0.2071249118
 40
0.3244376282
 40
0.450954028
 40
0.5845968446
 40
0.7222730351
 40
0.8612862279
 40
1.0
 40
1.0
 40
1.0
 40
1.0
 10
9.6111120452
 20
8.4171978643
 30
0.0
 10
9.6090472154
 20
8.4163219761
 30
0.0
 10
9.6047547549
 20
8.4144621553
 30
0.0
 10
9.5980806473
 20
8.4114371535
 30
0.0
 10
9.5909070896
 20
8.4080287119
 30
0.0
 10
9.5832745357
 20
8.4042302727
 30
0.0
 10
9.5752993612
 20
8.4000911239
 30
0.0
 10
9.567136706
 20
8.3957028983
 30
0.0
 10
9.5589258293
 20
8.391164084
 30
0.0
 10
9.5534641351
 20
8.3880797478
 30
0.0
 10
9.5507416775
 20
8.3865297154
 30
0.0
  0
SPLINE
  5
32F
100
AcDbEntity
  8
0
100
AcDbSpline
 62
7
  6
CONTINUOUS
 70
0
 71
3
 72
49
 73
45
 74
0
 42
0.0000001
 43
0.0000001
 44
0.0000000001
 40
0.0
 40
0.0
 40
0.0
 40
0.0
 40
0.0313124516
 40
0.0628593141
 40
0.0787075028
 40
0.0945995998
 40
0.126502659
 40
0.1585608398
 40
0.1907402095
 40
0.2068682324
 40
0.2230127563
 40
0.2391689252
 40
0.255331956
 40
0.2714969196
 40
0.2876586436
 40
0.3038119942
 40
0.3199521348
 40
0.3521652624
 40
0.3842696438
 40
0.4162330966
 40
0.4480275395
 40
0.4796318702
 40
0.5110311876
 40
0.5422189324
 40
0.573196104
 40
0.6039722241
 40
0.6345646967
 40
0.6649982209
 40
0.6953044026
 40
0.7104261239
 40
0.7255300429
 40
0.7556952105
 40
0.7707772913
 40
0.7858628248
 40
0.8160556666
 40
0.8311837819
 40
0.8463363278
 40
0.8615175372
 40
0.8767311605
 40
0.9072608757
 40
0.9225962674
 40
0.9379813914
 40
0.9688998926
 40
1.0
 40
1.0
 40
1.0
 40
1.0
 10
9.47389023
 20
8.4600066092
 30
0.0
 10
9.47389023
 20
8.4575346508
 30
0.0
 10
9.4741357761
 20
8.4525692085
 30
0.0
 10
9.475040637
 20
8.4464119156
 30
0.0
 10
9.4761202597
 20
8.4415320236
 30
0.0
 10
9.4774376102
 20
8.4366818128
 30
0.0
 10
9.4795203929
 20
8.4307210076
 30
0.0
 10
9.4826865655
 20
8.4238116797
 30
0.0
 10
9.4858563416
 20
8.4183043725
 30
0.0
 10
9.4886940414
 20
8.4140792623
 30
0.0
 10
9.4909697324
 20
8.4110053671
 30
0.0
 10
9.4933855987
 20
8.4080369088
 30
0.0
 10
9.4959363076
 20
8.4051812931
 30
0.0
 10
9.4986153067
 20
8.4024450714
 30
0.0
 10
9.5014159836
 20
8.3998346786
 30
0.0
 10
9.5043318987
 20
8.3973565493
 30
0.0
 10
9.5083610345
 20
8.3942398007
 30
0.0
 10
9.5136483806
 20
8.3907024205
 30
0.0
 10
9.5203389175
 20
8.3870730413
 30
0.0
 10
9.5273077668
 20
8.384093784
 30
0.0
 10
9.5344885429
 20
8.3817955808
 30
0.0
 10
9.541811691
 20
8.380198461
 30
0.0
 10
9.5492073624
 20
8.3793204733
 30
0.0
 10
9.556604125
 20
8.3791677273
 30
0.0
 10
9.5639308464
 20
8.3797446152
 30
0.0
 10
9.5711170545
 20
8.3810433194
 30
0.0
 10
9.5780931026
 20
8.3830539972
 30
0.0
 10
9.5847917557
 20
8.3857551625
 30
0.0
 10
9.5900939883
 20
8.3885648244
 30
0.0
 10
9.5941300901
 20
8.3911268706
 30
0.0
 10
9.5980169197
 20
8.3938906943
 30
0.0
 10
9.6016785606
 20
8.3969552344
 30
0.0
 10
9.6050801037
 20
8.4002917685
 30
0.0
 10
9.6083026117
 20
8.403804483
 30
0.0
 10
9.6112461052
 20
8.4075696836
 30
0.0
 10
9.6138831067
 20
8.4115513593
 30
0.0
 10
9.6157064998
 20
8.4146446299
 30
0.0
 10
9.617369844
 20
8.4178344057
 30
0.0
 10
9.6193710734
 20
8.4222097799
 30
0.0
 10
9.6210341872
 20
8.426746544
 30
0.0
 10
9.62234733
 20
8.4314018842
 30
0.0
 10
9.6234298371
 20
8.4361480184
 30
0.0
 10
9.6243340096
 20
8.4422021139
 30
0.0
 10
9.6245746678
 20
8.447101413
 30
0.0
 10
9.6245746678
 20
8.449556608
 30
0.0
  0
SPLINE
  5
330
100
AcDbEntity
  8
0
100
AcDbSpline
 62
7
  6
CONTINUOUS
 70
0
 71
3
 72
40
 73
36
 74
0
 42
0.0000001
 43
0.0000001
 44
0.0000000001
 40
0.0
 40
0.0
 40
0.0
 40
0.0
 40
0.0299275589
 40
0.0599160714
 40
0.0899846757
 40
0.1201507588
 40
0.150429626
 40
0.1656180488
 40
0.1808392746
 40
0.2113800023
 40
0.2420644903
 40
0.2728972301
 40
0.3038801423
 40
0.3350117637
 40
0.3662882351
 40
0.3977024366
 40
0.4292451487
 40
0.4609043058
 40
0.4926660988
 40
0.5245145436
 40
0.5564322949
 40
0.58840068
 40
0.6204000814
 40
0.6524105147
 40
0.6844115406
 40
0.7163831542
 40
0.7483054209
 40
0.7801599929
 40
0.8119295892
 40
0.8435979117
 40
0.8751488956
 40
0.9065716384
 40
0.9378631313
 40
0.969015287
 40
1.0
 40
1.0
 40
1.0
 40
1.0
 10
9.421912638
 20
8.6336279154
 30
0.0
 10
9.4257842481
 20
8.6364304492
 30
0.0
 10
9.4337491282
 20
8.6417523875
 30
0.0
 10
9.4462703977
 20
8.6488304466
 30
0.0
 10
9.4593183184
 20
8.654974856
 30
0.0
 10
9.472826137
 20
8.6601574503
 30
0.0
 10
9.4844015827
 20
8.6636487576
 30
0.0
 10
9.4938211878
 20
8.6659384298
 30
0.0
 10
9.5033584178
 20
8.6678944726
 30
0.0
 10
9.5154447908
 20
8.6696972899
 30
0.0
 10
9.5301155382
 20
8.6708238333
 30
0.0
 10
9.544900063
 20
8.670910304
 30
0.0
 10
9.5597252862
 20
8.669956327
 30
0.0
 10
9.5745188047
 20
8.6679673857
 30
0.0
 10
9.589207838
 20
8.6649521474
 30
0.0
 10
9.6037208838
 20
8.660927229
 30
0.0
 10
9.6179861957
 20
8.6559103232
 30
0.0
 10
9.6319348608
 20
8.6499285542
 30
0.0
 10
9.645497411
 20
8.6430086513
 30
0.0
 10
9.6586088775
 20
8.635187284
 30
0.0
 10
9.6712034973
 20
8.6265001494
 30
0.0
 10
9.683221314
 20
8.616992296
 30
0.0
 10
9.6946018239
 20
8.6067081139
 30
0.0
 10
9.7052909037
 20
8.5956997912
 30
0.0
 10
9.7152348166
 20
8.5840197737
 30
0.0
 10
9.7243859667
 20
8.5717263103
 30
0.0
 10
9.732698859
 20
8.5588789612
 30
0.0
 10
9.7401330131
 20
8.5455407738
 30
0.0
 10
9.7466520649
 20
8.531776968
 30
0.0
 10
9.7522232477
 20
8.5176549911
 30
0.0
 10
9.756820884
 20
8.503244724
 30
0.0
 10
9.7604205732
 20
8.4886152304
 30
0.0
 10
9.7630059941
 20
8.4738371488
 30
0.0
 10
9.76456177
 20
8.4589864705
 30
0.0
 10
9.7649113187
 20
8.4490597349
 30
0.0
 10
9.7649113187
 20
8.4441114114
 30
0.0
  0
SPLINE
  5
331
100
AcDbEntity
  8
0
100
AcDbSpline
 62
7
  6
CONTINUOUS
 70
0
 71
3
 72
58
 73
54
 74
0
 42
0.0000001
 43
0.0000001
 44
0.0000000001
 40
0.0
 40
0.0
 40
0.0
 40
0.0
 40
0.0311036881
 40
0.0465905488
 40
0.0620239956
 40
0.0927288498
 40
0.1080185634
 40
0.1232684009
 40
0.1384815121
 40
0.1536613576
 40
0.1688121874
 40
0.1839387771
 40
0.1990460596
 40
0.2141392863
 40
0.2442942278
 40
0.2744567609
 40
0.2895594381
 40
0.3046798642
 40
0.3198230822
 40
0.334993731
 40
0.3654247619
 40
0.3960145868
 40
0.4113820902
 40
0.4267979847
 40
0.4422641616
 40
0.4577821839
 40
0.4889672415
 40
0.5203640478
 40
0.5361444902
 40
0.551974645
 40
0.5678524977
 40
0.58377545
 40
0.6157360994
 40
0.6478378676
 40
0.6639359765
 40
0.6800567845
 40
0.6961955629
 40
0.7123475841
 40
0.728507911
 40
0.7446714551
 40
0.7769797727
 40
0.793122956
 40
0.8092494136
 40
0.8253545969
 40
0.8414340341
 40
0.8574834655
 40
0.8734987676
 40
0.9054016335
 40
0.921291582
 40
0.9371359134
 40
0.9529341635
 40
0.9686840572
 40
1.0
 40
1.0
 40
1.0
 40
1.0
 10
9.3531494946
 20
8.4683800077
 30
0.0
 10
9.3531494946
 20
8.4747710875
 30
0.0
 10
9.3536197807
 20
8.4843532976
 30
0.0
 10
9.3551913687
 20
8.4970044904
 30
0.0
 10
9.3573812116
 20
8.5094806456
 30
0.0
 10
9.3605016618
 20
8.521737511
 30
0.0
 10
9.3645333228
 20
8.5336629485
 30
0.0
 10
9.3679986106
 20
8.5424068132
 30
0.0
 10
9.3718999062
 20
8.5509399041
 30
0.0
 10
9.376228861
 20
8.5592414118
 30
0.0
 10
9.3809753152
 20
8.5672908561
 30
0.0
 10
9.3861266452
 20
8.5750694679
 30
0.0
 10
9.3916712109
 20
8.5825584837
 30
0.0
 10
9.3995670145
 20
8.5921279357
 30
0.0
 10
9.410359038
 20
8.6032893775
 30
0.0
 10
9.4222675925
 20
8.6132538543
 30
0.0
 10
9.4323834189
 20
8.6204470585
 30
0.0
 10
9.4402569503
 20
8.6254454859
 30
0.0
 10
9.4483929892
 20
8.6300325455
 30
0.0
 10
9.4595738507
 20
8.6355911981
 30
0.0
 10
9.4741207491
 20
8.6414579249
 30
0.0
 10
9.48923093
 20
8.6458122569
 30
0.0
 10
9.5015836943
 20
8.6483722734
 30
0.0
 10
9.5109786348
 20
8.649829943
 30
0.0
 10
9.5204655979
 20
8.6508176395
 30
0.0
 10
9.5332258682
 20
8.6515048879
 30
0.0
 10
9.549297917
 20
8.651175778
 30
0.0
 10
9.5653135708
 20
8.6492717003
 30
0.0
 10
9.5780302314
 20
8.6468209244
 30
0.0
 10
9.5875158679
 20
8.6445161602
 30
0.0
 10
9.5969091078
 20
8.6417544368
 30
0.0
 10
9.6092939188
 20
8.6374680445
 30
0.0
 10
9.6244298391
 20
8.6309979784
 30
0.0
 10
9.638929737
 20
8.62313165
 30
0.0
 10
9.6500852049
 20
8.6160371504
 30
0.0
 10
9.6582184491
 20
8.610322739
 30
0.0
 10
9.6660890729
 20
8.6042338643
 30
0.0
 10
9.6736777559
 20
8.5977845345
 30
0.0
 10
9.6809672411
 20
8.5909910083
 30
0.0
 10
9.6902607064
 20
8.5814992806
 30
0.0
 10
9.6988898067
 20
8.5713796397
 30
0.0
 10
9.7067880013
 20
8.5607126714
 30
0.0
 10
9.7123312769
 20
8.5524574843
 30
0.0
 10
9.7174816328
 20
8.5439672589
 30
0.0
 10
9.7222274092
 20
8.5352624305
 30
0.0
 10
9.7265561246
 20
8.5263630292
 30
0.0
 10
9.7317504351
 20
8.5142852907
 30
0.0
 10
9.7360837292
 20
8.5018864731
 30
0.0
 10
9.7395115996
 20
8.4892639557
 30
0.0
 10
9.7416220731
 20
8.4797239556
 30
0.0
 10
9.7432689662
 20
8.4701220808
 30
0.0
 10
9.7448371688
 20
8.4572972274
 30
0.0
 10
9.7453154033
 20
8.4476179028
 30
0.0
 10
9.7453154033
 20
8.4411832095
 30
0.0
  0
SPLINE
  5
332
100
AcDbEntity
  8
0
100
AcDbSpline
 62
7
  6
CONTINUOUS
 70
0
 71
3
 72
58
 73
54
 74
0
 42
0.0000001
 43
0.0000001
 44
0.0000000001
 40
0.0
 40
0.0
 40
0.0
 40
0.0
 40
0.0311036881
 40
0.0465905488
 40
0.0620239956
 40
0.0927288498
 40
0.1080185634
 40
0.1232684009
 40
0.1384815121
 40
0.1536613576
 40
0.1688121874
 40
0.1839387771
 40
0.1990460596
 40
0.2141392863
 40
0.2442942278
 40
0.2744567609
 40
0.2895594381
 40
0.3046798642
 40
0.3198230822
 40
0.334993731
 40
0.3654247619
 40
0.3960145868
 40
0.4113820902
 40
0.4267979847
 40
0.4422641616
 40
0.4577821839
 40
0.4889672415
 40
0.5203640478
 40
0.5361444902
 40
0.551974645
 40
0.5678524977
 40
0.58377545
 40
0.6157360994
 40
0.6478378676
 40
0.6639359765
 40
0.6800567845
 40
0.6961955629
 40
0.7123475841
 40
0.728507911
 40
0.7446714551
 40
0.7769797727
 40
0.793122956
 40
0.8092494136
 40
0.8253545969
 40
0.8414340341
 40
0.8574834655
 40
0.8734987676
 40
0.9054016335
 40
0.921291582
 40
0.9371359134
 40
0.9529341635
 40
0.9686840572
 40
1.0
 40
1.0
 40
1.0
 40
1.0
 10
9.7453154033
 20
8.4411832095
 30
0.0
 10
9.7453154033
 20
8.4347921296
 30
0.0
 10
9.7448451171
 20
8.4252099196
 30
0.0
 10
9.7432735292
 20
8.4125587268
 30
0.0
 10
9.7410836862
 20
8.4000825716
 30
0.0
 10
9.7379632361
 20
8.3878257062
 30
0.0
 10
9.7339315751
 20
8.3759002687
 30
0.0
 10
9.7304662873
 20
8.367156404
 30
0.0
 10
9.7265649917
 20
8.3586233131
 30
0.0
 10
9.7222360368
 20
8.3503218054
 30
0.0
 10
9.7174895826
 20
8.3422723611
 30
0.0
 10
9.7123382527
 20
8.3344937493
 30
0.0
 10
9.7067936869
 20
8.3270047335
 30
0.0
 10
9.6988978834
 20
8.3174352815
 30
0.0
 10
9.6881058598
 20
8.3062738397
 30
0.0
 10
9.6761973054
 20
8.2963093629
 30
0.0
 10
9.666081479
 20
8.2891161586
 30
0.0
 10
9.6582079475
 20
8.2841177312
 30
0.0
 10
9.6500719086
 20
8.2795306717
 30
0.0
 10
9.6388910471
 20
8.2739720191
 30
0.0
 10
9.6243441487
 20
8.2681052923
 30
0.0
 10
9.6092339679
 20
8.2637509602
 30
0.0
 10
9.5968812036
 20
8.2611909437
 30
0.0
 10
9.5874862631
 20
8.2597332741
 30
0.0
 10
9.5779992999
 20
8.2587455777
 30
0.0
 10
9.5652390296
 20
8.2580583293
 30
0.0
 10
9.5491669808
 20
8.2583874391
 30
0.0
 10
9.533151327
 20
8.2602915169
 30
0.0
 10
9.5204346665
 20
8.2627422928
 30
0.0
 10
9.51094903
 20
8.2650470569
 30
0.0
 10
9.5015557901
 20
8.2678087804
 30
0.0
 10
9.489170979
 20
8.2720951727
 30
0.0
 10
9.4740350588
 20
8.2785652387
 30
0.0
 10
9.4595351608
 20
8.2864315672
 30
0.0
 10
9.4483796929
 20
8.2935260668
 30
0.0
 10
9.4402464487
 20
8.2992404782
 30
0.0
 10
9.432375825
 20
8.3053293528
 30
0.0
 10
9.4247871419
 20
8.3117786827
 30
0.0
 10
9.4174976567
 20
8.3185722088
 30
0.0
 10
9.4082041914
 20
8.3280639366
 30
0.0
 10
9.3995750911
 20
8.3381835775
 30
0.0
 10
9.3916768966
 20
8.3488505458
 30
0.0
 10
9.3861336209
 20
8.3571057328
 30
0.0
 10
9.380983265
 20
8.3655959582
 30
0.0
 10
9.3762374886
 20
8.3743007866
 30
0.0
 10
9.3719087733
 20
8.3832001879
 30
0.0
 10
9.3667144628
 20
8.3952779264
 30
0.0
 10
9.3623811686
 20
8.4076767441
 30
0.0
 10
9.3589532982
 20
8.4202992615
 30
0.0
 10
9.3568428248
 20
8.4298392615
 30
0.0
 10
9.3551959316
 20
8.4394411363
 30
0.0
 10
9.3536277291
 20
8.4522659897
 30
0.0
 10
9.3531494946
 20
8.4619453144
 30
0.0
 10
9.3531494946
 20
8.4683800077
 30
0.0
  0
SPLINE
  5
333
100
AcDbEntity
  8
0
100
AcDbSpline
 62
7
  6
CONTINUOUS
 70
0
 71
3
 72
17
 73
13
 74
0
 42
0.0000001
 43
0.0000001
 44
0.0000000001
 40
0.0
 40
0.0
 40
0.0
 40
0.0
 40
0.1273148359
 40
0.1907080938
 40
0.253886694
 40
0.3795973721
 40
0.5046020162
 40
0.5668927094
 40
0.6290466736
 40
0.7529728785
 40
0.8765701029
 40
1.0
 40
1.0
 40
1.0
 40
1.0
 10
9.7649113187
 20
8.4441114114
 30
0.0
 10
9.7649113187
 20
8.4373679006
 30
0.0
 10
9.7644261781
 20
8.4272575561
 30
0.0
 10
9.7628045094
 20
8.4139041268
 30
0.0
 10
9.7605443378
 20
8.4007290202
 30
0.0
 10
9.7565260707
 20
8.3845661402
 30
0.0
 10
9.7509316923
 20
8.3689279835
 30
0.0
 10
9.7455524972
 20
8.3568544701
 30
0.0
 10
9.7395945405
 20
8.3451200903
 30
0.0
 10
9.7310607333
 20
8.3310753829
 30
0.0
 10
9.7191745362
 20
8.3153898316
 30
0.0
 10
9.7102254277
 20
8.3058068485
 30
0.0
 10
9.7055230173
 20
8.3012648957
 30
0.0
  0
SPLINE
  5
334
100
AcDbEntity
  8
0
100
AcDbSpline
 62
7
  6
CONTINUOUS
 70
0
 71
3
 72
15
 73
11
 74
0
 42
0.0000001
 43
0.0000001
 44
0.0000000001
 40
0.0
 40
0.0
 40
0.0
 40
0.0
 40
0.1308537427
 40
0.2612484863
 40
0.3906118196
 40
0.5182256991
 40
0.6433659152
 40
0.7654873328
 40
0.8843458564
 40
1.0
 40
1.0
 40
1.0
 40
1.0
 10
10.4510556251
 20
6.7297253427
 30
0.0
 10
10.4526993605
 20
6.7543419711
 30
0.0
 10
10.4556875577
 20
6.8035092333
 30
0.0
 10
10.4590962216
 20
6.8770800231
 30
0.0
 10
10.461242389
 20
6.950088428
 30
0.0
 10
10.4619857589
 20
7.0221346022
 30
0.0
 10
10.4612703891
 20
7.0928158864
 30
0.0
 10
10.4591458627
 20
7.1618170856
 30
0.0
 10
10.4557494823
 20
7.2289757069
 30
0.0
 10
10.4527224136
 20
7.2730899328
 30
0.0
 10
10.4510556251
 20
7.2948318173
 30
0.0
  0
SPLINE
  5
335
100
AcDbEntity
  8
0
100
AcDbSpline
 62
7
  6
CONTINUOUS
 70
0
 71
3
 72
19
 73
15
 74
0
 42
0.0000001
 43
0.0000001
 44
0.0000000001
 40
0.0
 40
0.0
 40
0.0
 40
0.0
 40
0.1209535502
 40
0.2437779128
 40
0.3058580615
 40
0.3683344785
 40
0.431152153
 40
0.4942432529
 40
0.5575308052
 40
0.6209340247
 40
0.6843741832
 40
0.7477793373
 40
0.8742479861
 40
1.0
 40
1.0
 40
1.0
 40
1.0
 10
10.4240952208
 20
7.3433983178
 30
0.0
 10
10.4056413644
 20
7.3580054706
 30
0.0
 10
10.3681696868
 20
7.3870962123
 30
0.0
 10
10.3203705643
 20
7.4225630807
 30
0.0
 10
10.2811939877
 20
7.4505338364
 30
0.0
 10
10.2512520715
 20
7.4713392131
 30
0.0
 10
10.2208759289
 20
7.4918588743
 30
0.0
 10
10.1900961871
 20
7.5120572123
 30
0.0
 10
10.1589526885
 20
7.5319028477
 30
0.0
 10
10.1274921704
 20
7.5513712798
 30
0.0
 10
10.0957647501
 20
7.5704460198
 30
0.0
 10
10.0532107637
 20
7.5953216611
 30
0.0
 10
9.9996513754
 20
7.6253858571
 30
0.0
 10
9.9563732371
 20
7.6485358028
 30
0.0
 10
9.934698658
 20
7.659891322
 30
0.0
  0
SPLINE
  5
336
100
AcDbEntity
  8
0
100
AcDbSpline
 62
7
  6
CONTINUOUS
 70
0
 71
3
 72
15
 73
11
 74
0
 42
0.0000001
 43
0.0000001
 44
0.0000000001
 40
0.0
 40
0.0
 40
0.0
 40
0.0
 40
0.1123473098
 40
0.228765499
 40
0.3494221498
 40
0.4741361588
 40
0.6023568613
 40
0.7332830648
 40
0.8660699808
 40
1.0
 40
1.0
 40
1.0
 40
1.0
 10
9.8807778493
 20
7.6636307428
 30
0.0
 10
9.8621481007
 20
7.6549331069
 30
0.0
 10
9.824277393
 20
7.637085506
 30
0.0
 10
9.766651617
 20
7.6093649062
 30
0.0
 10
9.7072351167
 20
7.5801514589
 30
0.0
 10
9.6461490608
 20
7.5494444103
 30
0.0
 10
9.5836570831
 20
7.5173556501
 30
0.0
 10
9.5201112876
 20
7.4840900743
 30
0.0
 10
9.4558743033
 20
7.4498961464
 30
0.0
 10
9.4129217113
 20
7.4267108816
 30
0.0
 10
9.3913812865
 20
7.4150172724
 30
0.0
  0
SPLINE
  5
337
100
AcDbEntity
  8
0
100
AcDbSpline
 62
7
  6
CONTINUOUS
 70
0
 71
3
 72
15
 73
11
 74
0
 42
0.0000001
 43
0.0000001
 44
0.0000000001
 40
0.0
 40
0.0
 40
0.0
 40
0.0
 40
0.1308537427
 40
0.2612484863
 40
0.3906118196
 40
0.5182256991
 40
0.6433659152
 40
0.7654873328
 40
0.8843458564
 40
1.0
 40
1.0
 40
1.0
 40
1.0
 10
9.2424997856
 20
7.2524234497
 30
0.0
 10
9.2408560502
 20
7.2278068214
 30
0.0
 10
9.237867853
 20
7.1786395592
 30
0.0
 10
9.2344591891
 20
7.1050687694
 30
0.0
 10
9.2323130218
 20
7.0320603645
 30
0.0
 10
9.2315696518
 20
6.9600141903
 30
0.0
 10
9.2322850216
 20
6.8893329061
 30
0.0
 10
9.234409548
 20
6.8203317068
 30
0.0
 10
9.2378059284
 20
6.7531730856
 30
0.0
 10
9.2408329971
 20
6.7090588597
 30
0.0
 10
9.2424997856
 20
6.6873169752
 30
0.0
  0
SPLINE
  5
338
100
AcDbEntity
  8
0
100
AcDbSpline
 62
7
  6
CONTINUOUS
 70
0
 71
3
 72
19
 73
15
 74
0
 42
0.0000001
 43
0.0000001
 44
0.0000000001
 40
0.0
 40
0.0
 40
0.0
 40
0.0
 40
0.1209535502
 40
0.2437779128
 40
0.3058580615
 40
0.3683344785
 40
0.431152153
 40
0.4942432529
 40
0.5575308052
 40
0.6209340247
 40
0.6843741832
 40
0.7477793373
 40
0.8742479861
 40
1.0
 40
1.0
 40
1.0
 40
1.0
 10
9.2694601899
 20
6.6387504747
 30
0.0
 10
9.2879140463
 20
6.6241433218
 30
0.0
 10
9.3253857239
 20
6.5950525802
 30
0.0
 10
9.3731848464
 20
6.5595857118
 30
0.0
 10
9.412361423
 20
6.5316149561
 30
0.0
 10
9.4423033392
 20
6.5108095794
 30
0.0
 10
9.4726794818
 20
6.4902899181
 30
0.0
 10
9.5034592236
 20
6.4700915801
 30
0.0
 10
9.5346027223
 20
6.4502459448
 30
0.0
 10
9.5660632404
 20
6.4307775127
 30
0.0
 10
9.5977906606
 20
6.4117027727
 30
0.0
 10
9.640344647
 20
6.3868271314
 30
0.0
 10
9.6939040353
 20
6.3567629354
 30
0.0
 10
9.7371821737
 20
6.3336129897
 30
0.0
 10
9.7588567527
 20
6.3222574705
 30
0.0
  0
SPLINE
  5
339
100
AcDbEntity
  8
0
100
AcDbSpline
 62
7
  6
CONTINUOUS
 70
0
 71
3
 72
15
 73
11
 74
0
 42
0.0000001
 43
0.0000001
 44
0.0000000001
 40
0.0
 40
0.0
 40
0.0
 40
0.0
 40
0.1123473098
 40
0.228765499
 40
0.3494221498
 40
0.4741361588
 40
0.6023568613
 40
0.7332830648
 40
0.8660699808
 40
1.0
 40
1.0
 40
1.0
 40
1.0
 10
9.8127775614
 20
6.3185180497
 30
0.0
 10
9.83140731
 20
6.3272156856
 30
0.0
 10
9.8692780177
 20
6.3450632865
 30
0.0
 10
9.9269037938
 20
6.3727838863
 30
0.0
 10
9.986320294
 20
6.4019973336
 30
0.0
 10
10.0474063499
 20
6.4327043822
 30
0.0
 10
10.1098983276
 20
6.4647931424
 30
0.0
 10
10.1734441231
 20
6.4980587181
 30
0.0
 10
10.2376811075
 20
6.5322526461
 30
0.0
 10
10.2806336994
 20
6.5554379108
 30
0.0
 10
10.3021741242
 20
6.5671315201
 30
0.0
  0
SPLINE
  5
33A
100
AcDbEntity
  8
0
100
AcDbSpline
 62
7
  6
CONTINUOUS
 70
0
 71
3
 72
39
 73
35
 74
0
 42
0.0000001
 43
0.0000001
 44
0.0000000001
 40
0.0
 40
0.0
 40
0.0
 40
0.0
 40
0.031190719
 40
0.0621706961
 40
0.0929497854
 40
0.1235450799
 40
0.1539815444
 40
0.1842905038
 40
0.2145086562
 40
0.244676539
 40
0.2748367926
 40
0.3050324226
 40
0.3353049004
 40
0.3656924521
 40
0.3962284914
 40
0.4269402609
 40
0.457847884
 40
0.488963621
 40
0.520291589
 40
0.551827748
 40
0.5835601969
 40
0.6154698091
 40
0.647530981
 40
0.6797127113
 40
0.7119797217
 40
0.7442937372
 40
0.7766148754
 40
0.8089029633
 40
0.8411190141
 40
0.8732265515
 40
0.9051928721
 40
0.936990484
 40
0.968597556
 40
1.0
 40
1.0
 40
1.0
 40
1.0
 10
9.7743858292
 20
6.3826455293
 30
0.0
 10
9.7919415094
 20
6.3814280387
 30
0.0
 10
9.8270776889
 20
6.3807051339
 30
0.0
 10
9.8794412719
 20
6.3848241425
 30
0.0
 10
9.9308047493
 20
6.3941106815
 30
0.0
 10
9.9806659911
 20
6.4084779432
 30
0.0
 10
10.0285448002
 20
6.4277887837
 30
0.0
 10
10.0739775417
 20
6.4518583284
 30
0.0
 10
10.1165244484
 20
6.4804549803
 30
0.0
 10
10.1557733963
 20
6.5133028328
 30
0.0
 10
10.1913443456
 20
6.5500842941
 30
0.0
 10
10.2228931737
 20
6.5904432794
 30
0.0
 10
10.2501151927
 20
6.6339888688
 30
0.0
 10
10.2727481347
 20
6.6802993274
 30
0.0
 10
10.2905746918
 20
6.728926413
 30
0.0
 10
10.3034244684
 20
6.7793999548
 30
0.0
 10
10.3111754691
 20
6.8312325105
 30
0.0
 10
10.3137550715
 20
6.8839241815
 30
0.0
 10
10.3111404922
 20
6.9369674225
 30
0.0
 10
10.3033588654
 20
6.9898518916
 30
0.0
 10
10.2904867895
 20
7.042069283
 30
0.0
 10
10.2726495112
 20
7.0931180825
 30
0.0
 10
10.2500196513
 20
7.1425082984
 30
0.0
 10
10.2228154974
 20
7.1897660146
 30
0.0
 10
10.1912989348
 20
7.234437864
 30
0.0
 10
10.1557729191
 20
7.2760952687
 30
0.0
 10
10.1165786357
 20
7.3143384623
 30
0.0
 10
10.0740922441
 20
7.3488002732
 30
0.0
 10
10.0287214069
 20
7.3791495792
 30
0.0
 10
9.9809012266
 20
7.4050944025
 30
0.0
 10
9.9310909488
 20
7.4263848213
 30
0.0
 10
9.8797668101
 20
7.442815109
 30
0.0
 10
9.8274282214
 20
7.4542257926
 30
0.0
 10
9.7920606787
 20
7.4584271344
 30
0.0
 10
9.7743858292
 20
7.4596528894
 30
0.0
  0
SPLINE
  5
33B
100
AcDbEntity
  8
0
100
AcDbSpline
 62
7
  6
CONTINUOUS
 70
0
 71
3
 72
15
 73
11
 74
0
 42
0.0000001
 43
0.0000001
 44
0.0000000001
 40
0.0
 40
0.0
 40
0.0
 40
0.0
 40
0.1156541436
 40
0.2345126673
 40
0.3566340849
 40
0.481774301
 40
0.6093881804
 40
0.7387515138
 40
0.8691462573
 40
1.0
 40
1.0
 40
1.0
 40
1.0
 10
10.3291345285
 20
6.6119585998
 30
0.0
 10
10.32746774
 20
6.6337004843
 30
0.0
 10
10.3244406714
 20
6.6778147102
 30
0.0
 10
10.3210442909
 20
6.7449733315
 30
0.0
 10
10.3189197645
 20
6.8139745308
 30
0.0
 10
10.3182043947
 20
6.884655815
 30
0.0
 10
10.3189477647
 20
6.9567019891
 30
0.0
 10
10.321093932
 20
7.0297103941
 30
0.0
 10
10.324502596
 20
7.1032811839
 30
0.0
 10
10.3274907932
 20
7.152448446
 30
0.0
 10
10.3291345285
 20
7.1770650744
 30
0.0
  0
SPLINE
  5
33C
100
AcDbEntity
  8
0
100
AcDbSpline
 62
7
  6
CONTINUOUS
 70
0
 71
3
 72
19
 73
15
 74
0
 42
0.0000001
 43
0.0000001
 44
0.0000000001
 40
0.0
 40
0.0
 40
0.0
 40
0.0
 40
0.1257520139
 40
0.2522206627
 40
0.3156258169
 40
0.3790659753
 40
0.4424691949
 40
0.5057567472
 40
0.5688478471
 40
0.6316655216
 40
0.6941419386
 40
0.7562220872
 40
0.8790464498
 40
1.0
 40
1.0
 40
1.0
 40
1.0
 10
10.3021741242
 20
7.2256315748
 30
0.0
 10
10.2804995451
 20
7.2369870941
 30
0.0
 10
10.2372214067
 20
7.2601370397
 30
0.0
 10
10.1836620184
 20
7.2902012358
 30
0.0
 10
10.141108032
 20
7.315076877
 30
0.0
 10
10.1093806118
 20
7.3341516171
 30
0.0
 10
10.0779200937
 20
7.3536200492
 30
0.0
 10
10.046776595
 20
7.3734656845
 30
0.0
 10
10.0159968532
 20
7.3936640225
 30
0.0
 10
9.9856207106
 20
7.4141836837
 30
0.0
 10
9.9556787945
 20
7.4349890604
 30
0.0
 10
9.9165022179
 20
7.4629598161
 30
0.0
 10
9.8687030954
 20
7.4984266845
 30
0.0
 10
9.8312314178
 20
7.5275174262
 30
0.0
 10
9.8127775614
 20
7.542124579
 30
0.0
  0
SPLINE
  5
33D
100
AcDbEntity
  8
0
100
AcDbSpline
 62
7
  6
CONTINUOUS
 70
0
 71
3
 72
15
 73
11
 74
0
 42
0.0000001
 43
0.0000001
 44
0.0000000001
 40
0.0
 40
0.0
 40
0.0
 40
0.0
 40
0.1339300193
 40
0.2667169352
 40
0.3976431388
 40
0.5258638413
 40
0.6505778503
 40
0.771234501
 40
0.8876526902
 40
1.0
 40
1.0
 40
1.0
 40
1.0
 10
9.7588567527
 20
7.5458639998
 30
0.0
 10
9.7373163279
 20
7.5341703905
 30
0.0
 10
9.694363736
 20
7.5109851258
 30
0.0
 10
9.6301267516
 20
7.4767911978
 30
0.0
 10
9.5665809561
 20
7.4435256221
 30
0.0
 10
9.5040889784
 20
7.4114368619
 30
0.0
 10
9.4430029225
 20
7.3807298133
 30
0.0
 10
9.3835864223
 20
7.351516366
 30
0.0
 10
9.3259606462
 20
7.3237957662
 30
0.0
 10
9.2880899386
 20
7.3059481653
 30
0.0
 10
9.2694601899
 20
7.2972505294
 30
0.0
  0
SPLINE
  5
33E
100
AcDbEntity
  8
0
100
AcDbSpline
 62
7
  6
CONTINUOUS
 70
0
 71
3
 72
39
 73
35
 74
0
 42
0.0000001
 43
0.0000001
 44
0.0000000001
 40
0.0
 40
0.0
 40
0.0
 40
0.0
 40
0.031190719
 40
0.0621706961
 40
0.0929497854
 40
0.1235450799
 40
0.1539815444
 40
0.1842905038
 40
0.2145086562
 40
0.244676539
 40
0.2748367926
 40
0.3050324226
 40
0.3353049004
 40
0.3656924521
 40
0.3962284914
 40
0.4269402609
 40
0.457847884
 40
0.488963621
 40
0.520291589
 40
0.551827748
 40
0.5835601969
 40
0.6154698091
 40
0.647530981
 40
0.6797127113
 40
0.7119797217
 40
0.7442937372
 40
0.7766148754
 40
0.8089029633
 40
0.8411190141
 40
0.8732265515
 40
0.9051928721
 40
0.936990484
 40
0.968597556
 40
1.0
 40
1.0
 40
1.0
 40
1.0
 10
9.7743858292
 20
7.4596528894
 30
0.0
 10
9.756830149
 20
7.46087038
 30
0.0
 10
9.7216939695
 20
7.4615932848
 30
0.0
 10
9.6693303866
 20
7.4574742762
 30
0.0
 10
9.6179669091
 20
7.4481877371
 30
0.0
 10
9.5681056674
 20
7.4338204754
 30
0.0
 10
9.5202268583
 20
7.414509635
 30
0.0
 10
9.4747941167
 20
7.3904400903
 30
0.0
 10
9.4322472101
 20
7.3618434384
 30
0.0
 10
9.3929982622
 20
7.3289955859
 30
0.0
 10
9.3574273129
 20
7.2922141246
 30
0.0
 10
9.3258784847
 20
7.2518551393
 30
0.0
 10
9.2986564658
 20
7.2083095499
 30
0.0
 10
9.2760235237
 20
7.1619990912
 30
0.0
 10
9.2581969666
 20
7.1133720056
 30
0.0
 10
9.2453471901
 20
7.0628984639
 30
0.0
 10
9.2375961893
 20
7.0110659082
 30
0.0
 10
9.235016587
 20
6.9583742372
 30
0.0
 10
9.2376311662
 20
6.9053309962
 30
0.0
 10
9.2454127931
 20
6.852446527
 30
0.0
 10
9.2582848689
 20
6.8002291356
 30
0.0
 10
9.2761221473
 20
6.7491803362
 30
0.0
 10
9.2987520072
 20
6.6997901202
 30
0.0
 10
9.325956161
 20
6.6525324041
 30
0.0
 10
9.3574727237
 20
6.6078605547
 30
0.0
 10
9.3929987393
 20
6.56620315
 30
0.0
 10
9.4321930227
 20
6.5279599564
 30
0.0
 10
9.4746794144
 20
6.4934981454
 30
0.0
 10
9.5200502516
 20
6.4631488394
 30
0.0
 10
9.5678704319
 20
6.4372040162
 30
0.0
 10
9.6176807097
 20
6.4159135974
 30
0.0
 10
9.6690048484
 20
6.3994833097
 30
0.0
 10
9.7213434371
 20
6.3880726261
 30
0.0
 10
9.7567109797
 20
6.3838712842
 30
0.0
 10
9.7743858292
 20
6.3826455293
 30
0.0
  0
SPLINE
  5
33F
100
AcDbEntity
  8
0
100
AcDbSpline
 62
7
  6
CONTINUOUS
 70
0
 71
3
 72
32
 73
28
 74
0
 42
0.0000001
 43
0.0000001
 44
0.0000000001
 40
0.0
 40
0.0
 40
0.0
 40
0.0
 40
0.0958350133
 40
0.1891086299
 40
0.2792520242
 40
0.3657239766
 40
0.4480156633
 40
0.5256576281
 40
0.5982269975
 40
0.6324943547
 40
0.6653613378
 40
0.6967924401
 40
0.7267581378
 40
0.7552341308
 40
0.7822036768
 40
0.8076572578
 40
0.8315954232
 40
0.8540292433
 40
0.8749840421
 40
0.8945012056
 40
0.9126433592
 40
0.9294981369
 40
0.9451849406
 40
0.9598599088
 40
0.973721248
 40
0.9870091801
 40
1.0
 40
1.0
 40
1.0
 40
1.0
 10
12.1137597155
 20
10.1911427509
 30
0.0
 10
12.110100242
 20
10.1913965362
 30
0.0
 10
12.1028843793
 20
10.1919778132
 30
0.0
 10
12.0922522255
 20
10.1930873809
 30
0.0
 10
12.082006473
 20
10.1944170762
 30
0.0
 10
12.0722155158
 20
10.195957847
 30
0.0
 10
12.0629444507
 20
10.1976991832
 30
0.0
 10
12.0542550314
 20
10.1996292582
 30
0.0
 10
12.0474214456
 20
10.2014163627
 30
0.0
 10
12.0422950353
 20
10.2029392459
 30
0.0
 10
12.0387043201
 20
10.2040983399
 30
0.0
 10
12.0352997329
 20
10.2052943372
 30
0.0
 10
12.0320868935
 20
10.2065251934
 30
0.0
 10
12.0290711162
 20
10.207788921
 30
0.0
 10
12.0262573348
 20
10.2090833496
 30
0.0
 10
12.0236501622
 20
10.2104064265
 30
0.0
 10
12.0212537932
 20
10.2117559281
 30
0.0
 10
12.0190721007
 20
10.2131297917
 30
0.0
 10
12.0171085091
 20
10.2145258309
 30
0.0
 10
12.0153661557
 20
10.2159420904
 30
0.0
 10
12.0138477531
 20
10.2173765804
 30
0.0
 10
12.0125558832
 20
10.2188276204
 30
0.0
 10
12.0114929044
 20
10.2202935611
 30
0.0
 10
12.0106614357
 20
10.2217728702
 30
0.0
 10
12.0100642046
 20
10.223263791
 30
0.0
 10
12.0097042538
 20
10.2247631907
 30
0.0
 10
12.0096237582
 20
10.2257707934
 30
0.0
 10
12.0096237666
 20
10.2262680412
 30
0.0
  0
SPLINE
  5
340
100
AcDbEntity
  8
0
100
AcDbSpline
 62
7
  6
CONTINUOUS
 70
0
 71
3
 72
32
 73
28
 74
0
 42
0.0000001
 43
0.0000001
 44
0.0000000001
 40
0.0
 40
0.0
 40
0.0
 40
0.0
 40
0.0958350133
 40
0.1891086299
 40
0.2792520242
 40
0.3657239766
 40
0.4480156633
 40
0.5256576281
 40
0.5982269975
 40
0.6324943547
 40
0.6653613378
 40
0.6967924401
 40
0.7267581378
 40
0.7552341308
 40
0.7822036768
 40
0.8076572578
 40
0.8315954232
 40
0.8540292433
 40
0.8749840421
 40
0.8945012056
 40
0.9126433592
 40
0.9294981369
 40
0.9451849406
 40
0.9598599088
 40
0.973721248
 40
0.9870091801
 40
1.0
 40
1.0
 40
1.0
 40
1.0
 10
11.5637696985
 20
9.6598931578
 30
0.0
 10
11.5601102251
 20
9.6601469432
 30
0.0
 10
11.5528943624
 20
9.6607282201
 30
0.0
 10
11.5422622085
 20
9.6618377879
 30
0.0
 10
11.5320164561
 20
9.6631674832
 30
0.0
 10
11.5222254988
 20
9.6647082539
 30
0.0
 10
11.5129544338
 20
9.6664495902
 30
0.0
 10
11.5042650144
 20
9.6683796651
 30
0.0
 10
11.4974314287
 20
9.6701667697
 30
0.0
 10
11.4923050184
 20
9.6716896528
 30
0.0
 10
11.4887143031
 20
9.6728487468
 30
0.0
 10
11.4853097159
 20
9.6740447441
 30
0.0
 10
11.4820968765
 20
9.6752756004
 30
0.0
 10
11.4790810993
 20
9.6765393279
 30
0.0
 10
11.4762673179
 20
9.6778337566
 30
0.0
 10
11.4736601452
 20
9.6791568335
 30
0.0
 10
11.4712637762
 20
9.6805063351
 30
0.0
 10
11.4690820838
 20
9.6818801987
 30
0.0
 10
11.4671184921
 20
9.6832762379
 30
0.0
 10
11.4653761387
 20
9.6846924974
 30
0.0
 10
11.4638577362
 20
9.6861269873
 30
0.0
 10
11.4625658662
 20
9.6875780274
 30
0.0
 10
11.4615028874
 20
9.689043968
 30
0.0
 10
11.4606714187
 20
9.6905232772
 30
0.0
 10
11.4600741877
 20
9.6920141979
 30
0.0
 10
11.4597142368
 20
9.6935135976
 30
0.0
 10
11.4596337413
 20
9.6945212004
 30
0.0
 10
11.4596337496
 20
9.6950184481
 30
0.0
  0
SPLINE
  5
341
100
AcDbEntity
  8
0
100
AcDbSpline
 62
7
  6
CONTINUOUS
 70
0
 71
3
 72
32
 73
28
 74
0
 42
0.0000001
 43
0.0000001
 44
0.0000000001
 40
0.0
 40
0.0
 40
0.0
 40
0.0
 40
0.0958350133
 40
0.1891086299
 40
0.2792520242
 40
0.3657239766
 40
0.4480156633
 40
0.5256576281
 40
0.5982269975
 40
0.6324943547
 40
0.6653613378
 40
0.6967924401
 40
0.7267581378
 40
0.7552341308
 40
0.7822036768
 40
0.8076572578
 40
0.8315954232
 40
0.8540292433
 40
0.8749840421
 40
0.8945012056
 40
0.9126433592
 40
0.9294981369
 40
0.9451849406
 40
0.9598599088
 40
0.973721248
 40
0.9870091801
 40
1.0
 40
1.0
 40
1.0
 40
1.0
 10
10.3635021235
 20
10.3125235272
 30
0.0
 10
10.35984265
 20
10.3127773125
 30
0.0
 10
10.3526267873
 20
10.3133585894
 30
0.0
 10
10.3419946335
 20
10.3144681572
 30
0.0
 10
10.331748881
 20
10.3157978525
 30
0.0
 10
10.3219579237
 20
10.3173386232
 30
0.0
 10
10.3126868587
 20
10.3190799595
 30
0.0
 10
10.3039974394
 20
10.3210100345
 30
0.0
 10
10.2971638536
 20
10.322797139
 30
0.0
 10
10.2920374433
 20
10.3243200221
 30
0.0
 10
10.288446728
 20
10.3254791161
 30
0.0
 10
10.2850421408
 20
10.3266751134
 30
0.0
 10
10.2818293015
 20
10.3279059697
 30
0.0
 10
10.2788135242
 20
10.3291696973
 30
0.0
 10
10.2759997428
 20
10.3304641259
 30
0.0
 10
10.2733925701
 20
10.3317872028
 30
0.0
 10
10.2709962012
 20
10.3331367044
 30
0.0
 10
10.2688145087
 20
10.334510568
 30
0.0
 10
10.2668509171
 20
10.3359066072
 30
0.0
 10
10.2651085636
 20
10.3373228667
 30
0.0
 10
10.2635901611
 20
10.3387573566
 30
0.0
 10
10.2622982912
 20
10.3402083967
 30
0.0
 10
10.2612353124
 20
10.3416743374
 30
0.0
 10
10.2604038436
 20
10.3431536465
 30
0.0
 10
10.2598066126
 20
10.3446445673
 30
0.0
 10
10.2594466618
 20
10.346143967
 30
0.0
 10
10.2593661662
 20
10.3471515697
 30
0.0
 10
10.2593661746
 20
10.3476488174
 30
0.0
  0
SPLINE
  5
342
100
AcDbEntity
  8
0
100
AcDbSpline
 62
7
  6
CONTINUOUS
 70
0
 71
3
 72
32
 73
28
 74
0
 42
0.0000001
 43
0.0000001
 44
0.0000000001
 40
0.0
 40
0.0
 40
0.0
 40
0.0
 40
0.0958350133
 40
0.1891086299
 40
0.2792520242
 40
0.3657239766
 40
0.4480156633
 40
0.5256576281
 40
0.5982269975
 40
0.6324943547
 40
0.6653613378
 40
0.6967924401
 40
0.7267581378
 40
0.7552341308
 40
0.7822036768
 40
0.8076572578
 40
0.8315954232
 40
0.8540292433
 40
0.8749840421
 40
0.8945012056
 40
0.9126433592
 40
0.9294981369
 40
0.9451849406
 40
0.9598599088
 40
0.973721248
 40
0.9870091801
 40
1.0
 40
1.0
 40
1.0
 40
1.0
 10
9.8135121065
 20
9.7812739341
 30
0.0
 10
9.8098526331
 20
9.7815277195
 30
0.0
 10
9.8026367704
 20
9.7821089964
 30
0.0
 10
9.7920046165
 20
9.7832185641
 30
0.0
 10
9.7817588641
 20
9.7845482594
 30
0.0
 10
9.7719679068
 20
9.7860890302
 30
0.0
 10
9.7626968418
 20
9.7878303664
 30
0.0
 10
9.7540074224
 20
9.7897604414
 30
0.0
 10
9.7471738366
 20
9.7915475459
 30
0.0
 10
9.7420474264
 20
9.7930704291
 30
0.0
 10
9.7384567111
 20
9.7942295231
 30
0.0
 10
9.7350521239
 20
9.7954255204
 30
0.0
 10
9.7318392845
 20
9.7966563766
 30
0.0
 10
9.7288235072
 20
9.7979201042
 30
0.0
 10
9.7260097259
 20
9.7992145329
 30
0.0
 10
9.7234025532
 20
9.8005376097
 30
0.0
 10
9.7210061842
 20
9.8018871114
 30
0.0
 10
9.7188244917
 20
9.803260975
 30
0.0
 10
9.7168609001
 20
9.8046570142
 30
0.0
 10
9.7151185467
 20
9.8060732736
 30
0.0
 10
9.7136001442
 20
9.8075077636
 30
0.0
 10
9.7123082742
 20
9.8089588037
 30
0.0
 10
9.7112452954
 20
9.8104247443
 30
0.0
 10
9.7104138267
 20
9.8119040535
 30
0.0
 10
9.7098165957
 20
9.8133949742
 30
0.0
 10
9.7094566448
 20
9.8148943739
 30
0.0
 10
9.7093761493
 20
9.8159019767
 30
0.0
 10
9.7093761576
 20
9.8163992244
 30
0.0
  0
SPLINE
  5
343
100
AcDbEntity
  8
0
100
AcDbSpline
 62
7
  6
CONTINUOUS
 70
0
 71
3
 72
34
 73
30
 74
0
 42
0.0000001
 43
0.0000001
 44
0.0000000001
 40
0.0
 40
0.0
 40
0.0
 40
0.0
 40
0.0968304313
 40
0.1922840065
 40
0.2850752228
 40
0.3740753993
 40
0.4583573148
 40
0.4985007363
 40
0.5372144863
 40
0.5744420679
 40
0.6101386011
 40
0.644269505
 40
0.6768108479
 40
0.7077479021
 40
0.7370744516
 40
0.7647933908
 40
0.7909154916
 40
0.8154603906
 40
0.8384569291
 40
0.8599439166
 40
0.8799722723
 40
0.8986066228
 40
0.9159288636
 40
0.9320415077
 40
0.9470722835
 40
0.9611783069
 40
0.9745491713
 40
0.987406788
 40
1.0
 40
1.0
 40
1.0
 40
1.0
 10
11.0453224766
 20
10.0704964631
 30
0.0
 10
11.0386814592
 20
10.0704964627
 30
0.0
 10
11.0254928516
 20
10.0707075172
 30
0.0
 10
11.0059607397
 20
10.0716510273
 30
0.0
 10
10.9870053709
 20
10.0731963873
 30
0.0
 10
10.968875666
 20
10.0753060247
 30
0.0
 10
10.9544039484
 20
10.0775294757
 30
0.0
 10
10.9434007913
 20
10.0795625486
 30
0.0
 10
10.9356030636
 20
10.0811724511
 30
0.0
 10
10.9281398606
 20
10.0828852243
 30
0.0
 10
10.9210231666
 20
10.0846940508
 30
0.0
 10
10.9142629696
 20
10.0865922183
 30
0.0
 10
10.907867439
 20
10.0885731383
 30
0.0
 10
10.9018431603
 20
10.0906304425
 30
0.0
 10
10.8961953434
 20
10.0927580013
 30
0.0
 10
10.89092802
 20
10.0949498768
 30
0.0
 10
10.8860442184
 20
10.0972004347
 30
0.0
 10
10.8815461322
 20
10.0995042637
 30
0.0
 10
10.877435267
 20
10.1018562407
 30
0.0
 10
10.8737125661
 20
10.1042515363
 30
0.0
 10
10.8703785504
 20
10.1066856179
 30
0.0
 10
10.8674334432
 20
10.1091543229
 30
0.0
 10
10.8648773376
 20
10.1116538511
 30
0.0
 10
10.862710412
 20
10.114180813
 30
0.0
 10
10.8609331957
 20
10.1167321584
 30
0.0
 10
10.859546903
 20
10.119304857
 30
0.0
 10
10.8585535842
 20
10.1218957379
 30
0.0
 10
10.8579559387
 20
10.1244994956
 30
0.0
 10
10.8578224395
 20
10.1262477826
 30
0.0
 10
10.8578224397
 20
10.1271114753
 30
0.0
  0
SPLINE
  5
344
100
AcDbEntity
  8
0
100
AcDbSpline
 62
7
  6
CONTINUOUS
 70
0
 71
3
 72
33
 73
29
 74
0
 42
0.0000001
 43
0.0000001
 44
0.0000000001
 40
0.0
 40
0.0
 40
0.0
 40
0.0
 40
0.095807616
 40
0.1890185992
 40
0.2790584741
 40
0.3653819708
 40
0.4474850718
 40
0.5249097104
 40
0.5617408508
 40
0.5972556099
 40
0.6314135139
 40
0.664178295
 40
0.6955187886
 40
0.7254092147
 40
0.7538296632
 40
0.7807672402
 40
0.8062163242
 40
0.8301806791
 40
0.8526739243
 40
0.8737227284
 40
0.8933681874
 40
0.911670281
 40
0.9287108778
 40
0.9445993601
 40
0.9594768586
 40
0.9735208011
 40
0.9869458353
 40
1.0
 40
1.0
 40
1.0
 40
1.0
 10
10.308739777
 20
10.0096272038
 30
0.0
 10
10.3030778488
 20
10.0100198599
 30
0.0
 10
10.2919156942
 20
10.0109204311
 30
0.0
 10
10.2754729981
 20
10.0126430052
 30
0.0
 10
10.2596361249
 20
10.0147092983
 30
0.0
 10
10.2445112579
 20
10.0171044546
 30
0.0
 10
10.2301987582
 20
10.0198112357
 30
0.0
 10
10.2188445166
 20
10.0223507435
 30
0.0
 10
10.210244667
 20
10.0245342852
 30
0.0
 10
10.2041616507
 20
10.0262100821
 30
0.0
 10
10.1983471345
 20
10.0279483253
 30
0.0
 10
10.1928100963
 20
10.0297460721
 30
0.0
 10
10.187558978
 20
10.0316002104
 30
0.0
 10
10.1826016641
 20
10.0335075783
 30
0.0
 10
10.1779454846
 20
10.0354649873
 30
0.0
 10
10.1735971823
 20
10.0374691282
 30
0.0
 10
10.1695629562
 20
10.0395167827
 30
0.0
 10
10.1658483794
 20
10.0416045719
 30
0.0
 10
10.1624585151
 20
10.0437293252
 30
0.0
 10
10.1593977722
 20
10.0458877283
 30
0.0
 10
10.1566701274
 20
10.0480767927
 30
0.0
 10
10.1542789521
 20
10.050293489
 30
0.0
 10
10.1522273872
 20
10.052535198
 30
0.0
 10
10.1505182507
 20
10.0547993757
 30
0.0
 10
10.1491545743
 20
10.0570836344
 30
0.0
 10
10.148139558
 20
10.0593854916
 30
0.0
 10
10.1474767851
 20
10.0617007177
 30
0.0
 10
10.1472702612
 20
10.0632627079
 30
0.0
 10
10.1472278832
 20
10.0640348588
 30
0.0
  0
SPLINE
  5
345
100
AcDbEntity
  8
0
100
AcDbSpline
 62
7
  6
CONTINUOUS
 70
0
 71
3
 72
33
 73
29
 74
0
 42
0.0000001
 43
0.0000001
 44
0.0000000001
 40
0.0
 40
0.0
 40
0.0
 40
0.0
 40
0.1040678356
 40
0.2033817966
 40
0.2974247694
 40
0.3857622167
 40
0.4680528403
 40
0.5068537844
 40
0.5440618226
 40
0.5796629224
 40
0.613651686
 40
0.6460286695
 40
0.6768031645
 40
0.7059917576
 40
0.7336199924
 40
0.7597227459
 40
0.7843446531
 40
0.8075424604
 40
0.8293845971
 40
0.8499548915
 40
0.8693521681
 40
0.9050769139
 40
0.9217334418
 40
0.9377983795
 40
0.9534595795
 40
0.9689147523
 40
0.9843635116
 40
1.0
 40
1.0
 40
1.0
 40
1.0
 10
10.7352072638
 20
9.8753330962
 30
0.0
 10
10.7313595379
 20
9.8758626062
 30
0.0
 10
10.723852648
 20
9.8769939432
 30
0.0
 10
10.7129261392
 20
9.8789599142
 30
0.0
 10
10.7026402923
 20
9.8811444063
 30
0.0
 10
10.693052909
 20
9.8835314819
 30
0.0
 10
10.6855453449
 20
9.885715624
 30
0.0
 10
10.6799318708
 20
9.8875593111
 30
0.0
 10
10.6760064789
 20
9.888954382
 30
0.0
 10
10.6722862933
 20
9.8903866229
 30
0.0
 10
10.6687742339
 20
9.891853598
 30
0.0
 10
10.665472711
 20
9.8933530099
 30
0.0
 10
10.662383617
 20
9.8948824681
 30
0.0
 10
10.6595083759
 20
9.8964397018
 30
0.0
 10
10.6568479723
 20
9.8980224617
 30
0.0
 10
10.6544029593
 20
9.8996285403
 30
0.0
 10
10.6521735704
 20
9.9012558759
 30
0.0
 10
10.65015961
 20
9.90290242
 30
0.0
 10
10.6483608069
 20
9.9045662054
 30
0.0
 10
10.6467761748
 20
9.906245831
 30
0.0
 10
10.6449975032
 20
9.9084424563
 30
0.0
 10
10.6435694104
 20
9.9107307272
 30
0.0
 10
10.6425660607
 20
9.9130845073
 30
0.0
 10
10.6420407169
 20
9.9148161359
 30
0.0
 10
10.6417243375
 20
9.9165523685
 30
0.0
 10
10.6416153277
 20
9.9182909417
 30
0.0
 10
10.6417117648
 20
9.9200290399
 30
0.0
 10
10.6419095764
 20
9.9211751453
 30
0.0
 10
10.6420399886
 20
9.9217439676
 30
0.0
  0
SPLINE
  5
346
100
AcDbEntity
  8
0
100
AcDbSpline
 62
7
  6
CONTINUOUS
 70
0
 71
3
 72
23
 73
19
 74
0
 42
0.0000001
 43
0.0000001
 44
0.0000000001
 40
0.0
 40
0.0
 40
0.0
 40
0.0
 40
0.0637764154
 40
0.1273451281
 40
0.190701988
 40
0.253856063
 40
0.3168132283
 40
0.3795820791
 40
0.4421733864
 40
0.5045993414
 40
0.5668738629
 40
0.629012379
 40
0.6910316532
 40
0.7529496461
 40
0.8147853522
 40
0.8765586034
 40
0.9382898574
 40
1.0
 40
1.0
 40
1.0
 40
1.0
 10
10.7005628309
 20
8.3703814432
 30
0.0
 10
10.7005628309
 20
8.3649428671
 30
0.0
 10
10.7003024897
 20
8.3540815849
 30
0.0
 10
10.6991275958
 20
8.3378557594
 30
0.0
 10
10.6971713221
 20
8.3217585091
 30
0.0
 10
10.6944383812
 20
8.305827734
 30
0.0
 10
10.6909348909
 20
8.2900997792
 30
0.0
 10
10.686668956
 20
8.2746110039
 30
0.0
 10
10.6816503896
 20
8.2593971022
 30
0.0
 10
10.6758906543
 20
8.2444931733
 30
0.0
 10
10.6694030514
 20
8.229933579
 30
0.0
 10
10.6622025312
 20
8.2157518876
 30
0.0
 10
10.6543056377
 20
8.2019808327
 30
0.0
 10
10.6457305395
 20
8.18865219
 30
0.0
 10
10.6364970727
 20
8.1757967074
 30
0.0
 10
10.626626409
 20
8.1634439412
 30
0.0
 10
10.6161416551
 20
8.1516228119
 30
0.0
 10
10.6087571652
 20
8.1441132711
 30
0.0
 10
10.6049721795
 20
8.1404572546
 30
0.0
  0
SPLINE
  5
347
100
AcDbEntity
  8
0
100
AcDbSpline
 62
7
  6
CONTINUOUS
 70
0
 71
3
 72
19
 73
15
 74
0
 42
0.0000001
 43
0.0000001
 44
0.0000000001
 40
0.0
 40
0.0
 40
0.0
 40
0.0
 40
0.12732766
 40
0.2538196711
 40
0.3795264658
 40
0.5045235362
 40
0.5668075958
 40
0.6289556124
 40
0.6909843715
 40
0.7529118454
 40
0.8147570127
 40
0.8765397119
 40
0.9382804145
 40
1.0
 40
1.0
 40
1.0
 40
1.0
 10
10.8594576563
 20
6.4622836272
 30
0.0
 10
10.8594576563
 20
6.455015297
 30
0.0
 10
10.8587636907
 20
6.4405163403
 30
0.0
 10
10.8556251463
 20
6.4190464822
 30
0.0
 10
10.8504214666
 20
6.3981170962
 30
0.0
 10
10.8443934272
 20
6.381263507
 30
0.0
 10
10.8385961034
 20
6.3682533627
 30
0.0
 10
10.8337752258
 20
6.3587584798
 30
0.0
 10
10.8284882458
 20
6.3495387542
 30
0.0
 10
10.8227471965
 20
6.3406151461
 30
0.0
 10
10.8165653234
 20
6.3320083731
 30
0.0
 10
10.809956873
 20
6.3237381459
 30
0.0
 10
10.8029372947
 20
6.3158238446
 30
0.0
 10
10.7979933344
 20
6.3107961897
 30
0.0
 10
10.7954592702
 20
6.3083484726
 30
0.0
  0
SPLINE
  5
348
100
AcDbEntity
  8
0
100
AcDbSpline
 62
7
  6
CONTINUOUS
 70
0
 71
3
 72
19
 73
15
 74
0
 42
0.0000001
 43
0.0000001
 44
0.0000000001
 40
0.0
 40
0.0
 40
0.0
 40
0.0
 40
0.12732766
 40
0.2538196711
 40
0.3795264658
 40
0.5045235362
 40
0.5668075958
 40
0.6289556124
 40
0.6909843715
 40
0.7529118454
 40
0.8147570127
 40
0.8765397119
 40
0.9382804145
 40
1.0
 40
1.0
 40
1.0
 40
1.0
 10
9.7727910373
 20
8.4347226356
 30
0.0
 10
9.7727910373
 20
8.4274543053
 30
0.0
 10
9.7720970718
 20
8.4129553486
 30
0.0
 10
9.7689585273
 20
8.3914854905
 30
0.0
 10
9.7637548476
 20
8.3705561046
 30
0.0
 10
9.7577268082
 20
8.3537025153
 30
0.0
 10
9.7519294844
 20
8.340692371
 30
0.0
 10
9.7471086069
 20
8.3311974881
 30
0.0
 10
9.7418216268
 20
8.3219777625
 30
0.0
 10
9.7360805775
 20
8.3130541544
 30
0.0
 10
9.7298987044
 20
8.3044473814
 30
0.0
 10
9.723290254
 20
8.2961771543
 30
0.0
 10
9.7162706757
 20
8.2882628529
 30
0.0
 10
9.7113267154
 20
8.283235198
 30
0.0
 10
9.7087926512
 20
8.2807874809
 30
0.0
  0
SPLINE
  5
349
100
AcDbEntity
  8
0
100
AcDbSpline
 62
7
  6
CONTINUOUS
 70
0
 71
3
 72
23
 73
19
 74
0
 42
0.0000001
 43
0.0000001
 44
0.0000000001
 40
0.0
 40
0.0
 40
0.0
 40
0.0
 40
0.0638607871
 40
0.1275035019
 40
0.1909230262
 40
0.2541276227
 40
0.3171224329
 40
0.3799159103
 40
0.442518817
 40
0.5049436704
 40
0.567204993
 40
0.6293190716
 40
0.6913037885
 40
0.753178437
 40
0.8149635222
 40
0.8766805516
 40
0.9383517893
 40
1.0
 40
1.0
 40
1.0
 40
1.0
 10
11.0880863868
 20
10.9039633734
 30
0.0
 10
11.0820400383
 20
10.9043826891
 30
0.0
 10
11.0699448962
 20
10.9049190366
 30
0.0
 10
11.0518178589
 20
10.9048110667
 30
0.0
 10
11.0337811531
 20
10.9037892343
 30
0.0
 10
11.0158811218
 20
10.9018563079
 30
0.0
 10
10.9981623937
 20
10.8990169199
 30
0.0
 10
10.9806697094
 20
10.8952782566
 30
0.0
 10
10.9634470905
 20
10.8906497086
 30
0.0
 10
10.9465379251
 20
10.8851428202
 30
0.0
 10
10.929984818
 20
10.8787714229
 30
0.0
 10
10.9138294536
 20
10.8715515715
 30
0.0
 10
10.8981125392
 20
10.8635014152
 30
0.0
 10
10.8828737012
 20
10.8546411445
 30
0.0
 10
10.8681513688
 20
10.8449931163
 30
0.0
 10
10.8539824998
 20
10.8345815228
 30
0.0
 10
10.8404032745
 20
10.8234330489
 30
0.0
 10
10.8317646992
 20
10.815526493
 30
0.0
 10
10.8275564155
 20
10.8114616247
 30
0.0
  0
SPLINE
  5
34A
100
AcDbEntity
  8
0
100
AcDbSpline
 62
7
  6
CONTINUOUS
 70
0
 71
3
 72
31
 73
27
 74
0
 42
0.0000001
 43
0.0000001
 44
0.0000000001
 40
0.0
 40
0.0
 40
0.0
 40
0.0
 40
0.0306036682
 40
0.0613127484
 40
0.0921222156
 40
0.1230317024
 40
0.1540373442
 40
0.1851347988
 40
0.2163190656
 40
0.247584203
 40
0.3103129016
 40
0.3732774728
 40
0.4364088903
 40
0.4996322917
 40
0.5628696032
 40
0.626042268
 40
0.6890739844
 40
0.7518933681
 40
0.7832116573
 40
0.8144536871
 40
0.8456129934
 40
0.8766840121
 40
0.9076618002
 40
0.9385418586
 40
0.969323164
 40
1.0
 40
1.0
 40
1.0
 40
1.0
 10
13.0199381539
 20
10.407766792
 30
0.0
 10
13.0199381539
 20
10.4137029741
 30
0.0
 10
13.0196456201
 20
10.4255978047
 30
0.0
 10
13.0183358874
 20
10.4434253512
 30
0.0
 10
13.0161573104
 20
10.4612278356
 30
0.0
 10
13.0131154563
 20
10.4789614608
 30
0.0
 10
13.0092175043
 20
10.4965839883
 30
0.0
 10
13.0044730114
 20
10.514052753
 30
0.0
 10
12.9988932192
 20
10.5313261724
 30
0.0
 10
12.990350119
 20
10.5540621815
 30
0.0
 10
12.9776487235
 20
10.5817842538
 30
0.0
 10
12.9593503695
 20
10.6135706805
 30
0.0
 10
12.9381508041
 20
10.6436193737
 30
0.0
 10
12.9142543426
 20
10.6716399316
 30
0.0
 10
12.8878905828
 20
10.6973640754
 30
0.0
 10
12.8593119363
 20
10.7205447603
 30
0.0
 10
12.8287946531
 20
10.7409585897
 30
0.0
 10
12.8019561372
 20
10.7555193869
 30
0.0
 10
12.779814582
 20
10.765597145
 30
0.0
 10
12.7629282354
 20
10.772347905
 30
0.0
 10
12.7457886334
 20
10.7782809391
 30
0.0
 10
12.728436579
 20
10.7833821773
 30
0.0
 10
12.7109140722
 20
10.7876391521
 30
0.0
 10
12.6932628529
 20
10.7910417918
 30
0.0
 10
12.6755263247
 20
10.7935815209
 30
0.0
 10
12.6636520643
 20
10.7946975226
 30
0.0
 10
12.6577159475
 20
10.7951091937
 30
0.0
  0
SPLINE
  5
34B
100
AcDbEntity
  8
0
100
AcDbSpline
 62
7
  6
CONTINUOUS
 70
0
 71
3
 72
23
 73
19
 74
0
 42
0.0000001
 43
0.0000001
 44
0.0000000001
 40
0.0
 40
0.0
 40
0.0
 40
0.0
 40
0.0145593571
 40
0.0307182357
 40
0.0484689205
 40
0.0677907122
 40
0.0886531771
 40
0.1110130517
 40
0.1600163118
 40
0.2143407176
 40
0.2734622693
 40
0.3368222809
 40
0.4038438078
 40
0.4739397666
 40
0.5465166596
 40
0.6966768696
 40
0.8494755003
 40
1.0
 40
1.0
 40
1.0
 40
1.0
 10
10.3437061458
 20
8.6816488196
 30
0.0
 10
10.343425158
 20
8.6813774062
 30
0.0
 10
10.3428531006
 20
8.6807830963
 30
0.0
 10
10.3420041271
 20
8.6797972362
 30
0.0
 10
10.3411223457
 20
8.6786730264
 30
0.0
 10
10.3402108333
 20
8.6774133583
 30
0.0
 10
10.3392728203
 20
8.6760214184
 30
0.0
 10
10.3379509724
 20
8.6739290327
 30
0.0
 10
10.3362663044
 20
8.6710056952
 30
0.0
 10
10.3342595302
 20
8.6671348231
 30
0.0
 10
10.3322472169
 20
8.6628372267
 30
0.0
 10
10.3302676326
 20
8.6581522308
 30
0.0
 10
10.3283596993
 20
8.6531213087
 30
0.0
 10
10.326561927
 20
8.647788108
 30
0.0
 10
10.3243367954
 20
8.6402507049
 30
0.0
 10
10.322058354
 20
8.6304225158
 30
0.0
 10
10.3203143313
 20
8.6183654791
 30
0.0
 10
10.3198934723
 20
8.6102220189
 30
0.0
 10
10.3198934723
 20
8.6061830566
 30
0.0
  0
SPLINE
  5
34C
100
AcDbEntity
  8
0
100
AcDbSpline
 62
7
  6
CONTINUOUS
 70
0
 71
3
 72
25
 73
21
 74
0
 42
0.0000001
 43
0.0000001
 44
0.0000000001
 40
0.0
 40
0.0
 40
0.0
 40
0.0
 40
0.178686318
 40
0.2641914081
 40
0.3465670413
 40
0.4254324439
 40
0.5004473613
 40
0.5713080004
 40
0.6377493131
 40
0.6995479364
 40
0.728654822
 40
0.7565400838
 40
0.8085899117
 40
0.855681082
 40
0.8979126937
 40
0.9355752436
 40
0.9528790574
 40
0.9692885652
 40
0.9849404237
 40
1.0
 40
1.0
 40
1.0
 40
1.0
 10
10.3198934723
 20
8.6061830566
 30
0.0
 10
10.3198934723
 20
8.6029742503
 30
0.0
 10
10.3200883621
 20
8.5982257896
 30
0.0
 10
10.3207743137
 20
8.5920384388
 30
0.0
 10
10.321472741
 20
8.5876609188
 30
0.0
 10
10.3223509745
 20
8.5835082875
 30
0.0
 10
10.3233947282
 20
8.5796076661
 30
0.0
 10
10.3245875016
 20
8.5759839821
 30
0.0
 10
10.3259109094
 20
8.572660044
 30
0.0
 10
10.327129507
 20
8.5701078607
 30
0.0
 10
10.3281567064
 20
8.5682376552
 30
0.0
 10
10.3291669904
 20
8.5665597933
 30
0.0
 10
10.3304640248
 20
8.5646793491
 30
0.0
 10
10.3321064438
 20
8.562737065
 30
0.0
 10
10.3337768529
 20
8.5611760897
 30
0.0
 10
10.3352171471
 20
8.560174806
 30
0.0
 10
10.3363621943
 20
8.5595947957
 30
0.0
 10
10.3371908956
 20
8.5592751909
 30
0.0
 10
10.3380110563
 20
8.5590597654
 30
0.0
 10
10.3385592655
 20
8.5589852409
 30
0.0
 10
10.3388290569
 20
8.5589665754
 30
0.0
  0
SPLINE
  5
34D
100
AcDbEntity
  8
0
100
AcDbSpline
 62
7
  6
CONTINUOUS
 70
0
 71
3
 72
31
 73
27
 74
0
 42
0.0000001
 43
0.0000001
 44
0.0000000001
 40
0.0
 40
0.0
 40
0.0
 40
0.0
 40
0.030676836
 40
0.0614581414
 40
0.0923381998
 40
0.1233159879
 40
0.1543870066
 40
0.1855463129
 40
0.2167883427
 40
0.2481066319
 40
0.3109260156
 40
0.373957732
 40
0.4371303968
 40
0.5003677083
 40
0.5635911097
 40
0.6267225272
 40
0.6896870984
 40
0.752415797
 40
0.7836809344
 40
0.8148652012
 40
0.8459626558
 40
0.8769682976
 40
0.9078777844
 40
0.9386872516
 40
0.9693963318
 40
1.0
 40
1.0
 40
1.0
 40
1.0
 10
9.3422840525
 20
6.2048908063
 30
0.0
 10
9.3363479357
 20
6.2053024774
 30
0.0
 10
9.3244736753
 20
6.2064184791
 30
0.0
 10
9.3067371471
 20
6.2089582082
 30
0.0
 10
9.2890859278
 20
6.2123608479
 30
0.0
 10
9.271563421
 20
6.2166178227
 30
0.0
 10
9.2542113666
 20
6.2217190609
 30
0.0
 10
9.2370717646
 20
6.227652095
 30
0.0
 10
9.220185418
 20
6.234402855
 30
0.0
 10
9.1980438628
 20
6.2444806131
 30
0.0
 10
9.1712053469
 20
6.2590414103
 30
0.0
 10
9.1406880637
 20
6.2794552397
 30
0.0
 10
9.1121094172
 20
6.3026359246
 30
0.0
 10
9.0857456574
 20
6.3283600684
 30
0.0
 10
9.0618491959
 20
6.3563806263
 30
0.0
 10
9.0406496305
 20
6.3864293195
 30
0.0
 10
9.0223512765
 20
6.4182157462
 30
0.0
 10
9.009649881
 20
6.4459378185
 30
0.0
 10
9.0011067808
 20
6.4686738276
 30
0.0
 10
8.9955269886
 20
6.485947247
 30
0.0
 10
8.9907824957
 20
6.5034160117
 30
0.0
 10
8.9868845437
 20
6.5210385392
 30
0.0
 10
8.9838426896
 20
6.5387721644
 30
0.0
 10
8.9816641126
 20
6.5565746488
 30
0.0
 10
8.9803543799
 20
6.5744021953
 30
0.0
 10
8.9800618461
 20
6.5862970259
 30
0.0
 10
8.9800618461
 20
6.592233208
 30
0.0
  0
SPLINE
  5
34E
100
AcDbEntity
  8
0
100
AcDbSpline
 62
7
  6
CONTINUOUS
 70
0
 71
3
 72
21
 73
17
 74
0
 42
0.0000001
 43
0.0000001
 44
0.0000000001
 40
0.0
 40
0.0
 40
0.0
 40
0.0
 40
0.12731758
 40
0.2538000122
 40
0.3167619425
 40
0.3795355005
 40
0.4421315041
 40
0.5045621466
 40
0.5668413435
 40
0.6289845285
 40
0.6910084568
 40
0.7529310961
 40
0.8147714484
 40
0.8765493394
 40
0.9382852242
 40
1.0
 40
1.0
 40
1.0
 40
1.0
 10
8.9800618461
 20
8.8795457002
 30
0.0
 10
8.9800618461
 20
8.8910949332
 30
0.0
 10
8.9811643025
 20
8.9141325062
 30
0.0
 10
8.9853278859
 20
8.9426119228
 30
0.0
 10
8.9903043241
 20
8.9649515369
 30
0.0
 10
8.994842571
 20
8.9814292351
 30
0.0
 10
9.0001814769
 20
8.9976141662
 30
0.0
 10
9.0063088691
 20
9.0134694287
 30
0.0
 10
9.0132105639
 20
9.0289583636
 30
0.0
 10
9.0208706881
 20
9.0440452791
 30
0.0
 10
9.0292716705
 20
9.0586953244
 30
0.0
 10
9.0383941093
 20
9.0728747404
 30
0.0
 10
9.0482169329
 20
9.0865508022
 30
0.0
 10
9.0587176647
 20
9.0996920299
 30
0.0
 10
9.069871679
 20
9.112267685
 30
0.0
 10
9.0777274886
 20
9.1202565934
 30
0.0
 10
9.0817540811
 20
9.1241459624
 30
0.0
  0
SPLINE
  5
34F
100
AcDbEntity
  8
0
100
AcDbSpline
 62
7
  6
CONTINUOUS
 70
0
 71
3
 72
36
 73
32
 74
0
 42
0.0000001
 43
0.0000001
 44
0.0000000001
 40
0.0
 40
0.0
 40
0.0
 40
0.0
 40
0.0055578162
 40
0.0111785519
 40
0.0169227929
 40
0.0228470355
 40
0.0354212926
 40
0.0421661849
 40
0.0492574986
 40
0.0645751423
 40
0.0815411183
 40
0.1002533171
 40
0.1207645483
 40
0.1430942648
 40
0.1672365547
 40
0.1931652558
 40
0.2208381065
 40
0.2501997028
 40
0.2811832043
 40
0.3137119696
 40
0.3477010678
 40
0.3830580585
 40
0.4196837418
 40
0.4574732145
 40
0.4963164277
 40
0.5766983366
 40
0.6598712021
 40
0.7448277752
 40
0.8305324215
 40
0.9159365645
 40
1.0
 40
1.0
 40
1.0
 40
1.0
 10
12.290623756
 20
10.2262674068
 30
0.0
 10
12.2906237502
 20
10.2259198384
 30
0.0
 10
12.2905848051
 20
10.2252201594
 30
0.0
 10
12.2904101052
 20
10.2241744004
 30
0.0
 10
12.2901194261
 20
10.2231309061
 30
0.0
 10
12.2895671913
 20
10.2217167314
 30
0.0
 10
12.2887840804
 20
10.2203351933
 30
0.0
 10
12.2878093501
 20
10.2190008433
 30
0.0
 10
12.2866309973
 20
10.2176076553
 30
0.0
 10
12.2848592599
 20
10.2158887434
 30
0.0
 10
12.2823493192
 20
10.2139143186
 30
0.0
 10
12.2794103609
 20
10.2119817178
 30
0.0
 10
12.2760513987
 20
10.2100963032
 30
0.0
 10
12.272282422
 20
10.2082635358
 30
0.0
 10
12.2681151062
 20
10.2064891902
 30
0.0
 10
12.2635625861
 20
10.204778942
 30
0.0
 10
12.2586394041
 20
10.2031383692
 30
0.0
 10
12.2533614007
 20
10.2015728937
 30
0.0
 10
12.247745667
 20
10.200087685
 30
0.0
 10
12.2418104596
 20
10.1986876413
 30
0.0
 10
12.2355751096
 20
10.1973774141
 30
0.0
 10
12.2290599622
 20
10.1961613501
 30
0.0
 10
12.2222863145
 20
10.195043462
 30
0.0
 10
12.2152762984
 20
10.1940274254
 30
0.0
 10
12.2055337561
 20
10.1927991301
 30
0.0
 10
12.1929355226
 20
10.19155018
 30
0.0
 10
12.1774263701
 20
10.1905164174
 30
0.0
 10
12.1615602554
 20
10.1899451411
 30
0.0
 10
12.1455446911
 20
10.1898440121
 30
0.0
 10
12.1295890967
 20
10.1902143711
 30
0.0
 10
12.1190041838
 20
10.1907790458
 30
0.0
 10
12.1137597155
 20
10.1911427509
 30
0.0
  0
SPLINE
  5
350
100
AcDbEntity
  8
0
100
AcDbSpline
 62
7
  6
CONTINUOUS
 70
0
 71
3
 72
36
 73
32
 74
0
 42
0.0000001
 43
0.0000001
 44
0.0000000001
 40
0.0
 40
0.0
 40
0.0
 40
0.0
 40
0.0055578162
 40
0.0111785519
 40
0.0169227929
 40
0.0228470355
 40
0.0354212926
 40
0.0421661849
 40
0.0492574986
 40
0.0645751423
 40
0.0815411183
 40
0.1002533171
 40
0.1207645483
 40
0.1430942648
 40
0.1672365547
 40
0.1931652558
 40
0.2208381065
 40
0.2501997028
 40
0.2811832043
 40
0.3137119696
 40
0.3477010678
 40
0.3830580585
 40
0.4196837418
 40
0.4574732145
 40
0.4963164277
 40
0.5766983366
 40
0.6598712021
 40
0.7448277752
 40
0.8305324215
 40
0.9159365645
 40
1.0
 40
1.0
 40
1.0
 40
1.0
 10
11.7406337391
 20
9.6950178138
 30
0.0
 10
11.7406337332
 20
9.6946702453
 30
0.0
 10
11.7405947882
 20
9.6939705664
 30
0.0
 10
11.7404200883
 20
9.6929248074
 30
0.0
 10
11.7401294092
 20
9.691881313
 30
0.0
 10
11.7395771743
 20
9.6904671384
 30
0.0
 10
11.7387940635
 20
9.6890856003
 30
0.0
 10
11.7378193331
 20
9.6877512502
 30
0.0
 10
11.7366409804
 20
9.6863580622
 30
0.0
 10
11.7348692429
 20
9.6846391503
 30
0.0
 10
11.7323593022
 20
9.6826647256
 30
0.0
 10
11.7294203439
 20
9.6807321247
 30
0.0
 10
11.7260613817
 20
9.6788467102
 30
0.0
 10
11.7222924051
 20
9.6770139427
 30
0.0
 10
11.7181250893
 20
9.6752395971
 30
0.0
 10
11.7135725691
 20
9.673529349
 30
0.0
 10
11.7086493872
 20
9.6718887761
 30
0.0
 10
11.7033713838
 20
9.6703233007
 30
0.0
 10
11.6977556501
 20
9.668838092
 30
0.0
 10
11.6918204426
 20
9.6674380483
 30
0.0
 10
11.6855850926
 20
9.666127821
 30
0.0
 10
11.6790699452
 20
9.664911757
 30
0.0
 10
11.6722962976
 20
9.663793869
 30
0.0
 10
11.6652862815
 20
9.6627778323
 30
0.0
 10
11.6555437391
 20
9.661549537
 30
0.0
 10
11.6429455056
 20
9.6603005869
 30
0.0
 10
11.6274363532
 20
9.6592668244
 30
0.0
 10
11.6115702384
 20
9.658695548
 30
0.0
 10
11.5955546741
 20
9.6585944191
 30
0.0
 10
11.5795990798
 20
9.658964778
 30
0.0
 10
11.5690141669
 20
9.6595294527
 30
0.0
 10
11.5637696985
 20
9.6598931578
 30
0.0
  0
SPLINE
  5
351
100
AcDbEntity
  8
0
100
AcDbSpline
 62
7
  6
CONTINUOUS
 70
0
 71
3
 72
36
 73
32
 74
0
 42
0.0000001
 43
0.0000001
 44
0.0000000001
 40
0.0
 40
0.0
 40
0.0
 40
0.0
 40
0.0055578162
 40
0.0111785519
 40
0.0169227929
 40
0.0228470355
 40
0.0354212926
 40
0.0421661849
 40
0.0492574986
 40
0.0645751423
 40
0.0815411183
 40
0.1002533171
 40
0.1207645483
 40
0.1430942648
 40
0.1672365547
 40
0.1931652558
 40
0.2208381065
 40
0.2501997028
 40
0.2811832043
 40
0.3137119696
 40
0.3477010678
 40
0.3830580585
 40
0.4196837418
 40
0.4574732145
 40
0.4963164277
 40
0.5766983366
 40
0.6598712021
 40
0.7448277752
 40
0.8305324215
 40
0.9159365645
 40
1.0
 40
1.0
 40
1.0
 40
1.0
 10
10.540366164
 20
10.3476481831
 30
0.0
 10
10.5403661582
 20
10.3473006146
 30
0.0
 10
10.5403272131
 20
10.3466009357
 30
0.0
 10
10.5401525132
 20
10.3455551767
 30
0.0
 10
10.5398618341
 20
10.3445116824
 30
0.0
 10
10.5393095993
 20
10.3430975077
 30
0.0
 10
10.5385264884
 20
10.3417159696
 30
0.0
 10
10.537551758
 20
10.3403816195
 30
0.0
 10
10.5363734053
 20
10.3389884315
 30
0.0
 10
10.5346016679
 20
10.3372695196
 30
0.0
 10
10.5320917271
 20
10.3352950949
 30
0.0
 10
10.5291527689
 20
10.333362494
 30
0.0
 10
10.5257938066
 20
10.3314770795
 30
0.0
 10
10.52202483
 20
10.329644312
 30
0.0
 10
10.5178575142
 20
10.3278699664
 30
0.0
 10
10.5133049941
 20
10.3261597183
 30
0.0
 10
10.5083818121
 20
10.3245191455
 30
0.0
 10
10.5031038087
 20
10.32295367
 30
0.0
 10
10.497488075
 20
10.3214684613
 30
0.0
 10
10.4915528676
 20
10.3200684176
 30
0.0
 10
10.4853175176
 20
10.3187581903
 30
0.0
 10
10.4788023702
 20
10.3175421263
 30
0.0
 10
10.4720287225
 20
10.3164242383
 30
0.0
 10
10.4650187064
 20
10.3154082017
 30
0.0
 10
10.4552761641
 20
10.3141799064
 30
0.0
 10
10.4426779305
 20
10.3129309562
 30
0.0
 10
10.4271687781
 20
10.3118971937
 30
0.0
 10
10.4113026634
 20
10.3113259174
 30
0.0
 10
10.3952870991
 20
10.3112247884
 30
0.0
 10
10.3793315047
 20
10.3115951474
 30
0.0
 10
10.3687465918
 20
10.3121598221
 30
0.0
 10
10.3635021235
 20
10.3125235272
 30
0.0
  0
SPLINE
  5
352
100
AcDbEntity
  8
0
100
AcDbSpline
 62
7
  6
CONTINUOUS
 70
0
 71
3
 72
36
 73
32
 74
0
 42
0.0000001
 43
0.0000001
 44
0.0000000001
 40
0.0
 40
0.0
 40
0.0
 40
0.0
 40
0.0055578162
 40
0.0111785519
 40
0.0169227929
 40
0.0228470355
 40
0.0354212926
 40
0.0421661849
 40
0.0492574986
 40
0.0645751423
 40
0.0815411183
 40
0.1002533171
 40
0.1207645483
 40
0.1430942648
 40
0.1672365547
 40
0.1931652558
 40
0.2208381065
 40
0.2501997028
 40
0.2811832043
 40
0.3137119696
 40
0.3477010678
 40
0.3830580585
 40
0.4196837418
 40
0.4574732145
 40
0.4963164277
 40
0.5766983366
 40
0.6598712021
 40
0.7448277752
 40
0.8305324215
 40
0.9159365645
 40
1.0
 40
1.0
 40
1.0
 40
1.0
 10
9.9903761471
 20
9.81639859
 30
0.0
 10
9.9903761412
 20
9.8160510216
 30
0.0
 10
9.9903371962
 20
9.8153513426
 30
0.0
 10
9.9901624963
 20
9.8143055836
 30
0.0
 10
9.9898718171
 20
9.8132620893
 30
0.0
 10
9.9893195823
 20
9.8118479146
 30
0.0
 10
9.9885364715
 20
9.8104663765
 30
0.0
 10
9.9875617411
 20
9.8091320265
 30
0.0
 10
9.9863833884
 20
9.8077388385
 30
0.0
 10
9.9846116509
 20
9.8060199266
 30
0.0
 10
9.9821017102
 20
9.8040455018
 30
0.0
 10
9.9791627519
 20
9.802112901
 30
0.0
 10
9.9758037897
 20
9.8002274864
 30
0.0
 10
9.9720348131
 20
9.798394719
 30
0.0
 10
9.9678674973
 20
9.7966203734
 30
0.0
 10
9.9633149771
 20
9.7949101252
 30
0.0
 10
9.9583917952
 20
9.7932695524
 30
0.0
 10
9.9531137918
 20
9.791704077
 30
0.0
 10
9.9474980581
 20
9.7902188683
 30
0.0
 10
9.9415628506
 20
9.7888188245
 30
0.0
 10
9.9353275006
 20
9.7875085973
 30
0.0
 10
9.9288123532
 20
9.7862925333
 30
0.0
 10
9.9220387056
 20
9.7851746452
 30
0.0
 10
9.9150286894
 20
9.7841586086
 30
0.0
 10
9.9052861471
 20
9.7829303133
 30
0.0
 10
9.8926879136
 20
9.7816813632
 30
0.0
 10
9.8771787612
 20
9.7806476006
 30
0.0
 10
9.8613126464
 20
9.7800763243
 30
0.0
 10
9.8452970821
 20
9.7799751953
 30
0.0
 10
9.8293414878
 20
9.7803455543
 30
0.0
 10
9.8187565749
 20
9.780910229
 30
0.0
 10
9.8135121065
 20
9.7812739341
 30
0.0
  0
SPLINE
  5
353
100
AcDbEntity
  8
0
100
AcDbSpline
 62
7
  6
CONTINUOUS
 70
0
 71
3
 72
34
 73
30
 74
0
 42
0.0000001
 43
0.0000001
 44
0.0000000001
 40
0.0
 40
0.0
 40
0.0
 40
0.0
 40
0.0125932127
 40
0.0254508305
 40
0.0388216964
 40
0.0529277214
 40
0.0679584988
 40
0.0840711444
 40
0.1013933865
 40
0.120027738
 40
0.1400560946
 40
0.1615430827
 40
0.1845396214
 40
0.2090845206
 40
0.2352066212
 40
0.2629255602
 40
0.2922521091
 40
0.3231891625
 40
0.3557305048
 40
0.3898614076
 40
0.4255579397
 40
0.4627855202
 40
0.501499269
 40
0.5416426894
 40
0.6259246026
 40
0.7149247772
 40
0.8077159922
 40
0.9031695671
 40
1.0
 40
1.0
 40
1.0
 40
1.0
 10
11.2328224431
 20
10.1271114609
 30
0.0
 10
11.2328224429
 20
10.1262477684
 30
0.0
 10
11.2326889431
 20
10.124499482
 30
0.0
 10
11.232091297
 20
10.1218957253
 30
0.0
 10
11.2310979779
 20
10.1193048454
 30
0.0
 10
11.2297116852
 20
10.1167321477
 30
0.0
 10
11.2279344691
 20
10.1141808033
 30
0.0
 10
11.2257675438
 20
10.1116538423
 30
0.0
 10
11.223211439
 20
10.109154315
 30
0.0
 10
11.2202663326
 20
10.1066856109
 30
0.0
 10
11.216932318
 20
10.1042515302
 30
0.0
 10
11.2132096184
 20
10.1018562354
 30
0.0
 10
11.2090987548
 20
10.0995042592
 30
0.0
 10
11.2046006703
 20
10.0972004311
 30
0.0
 10
11.1997168707
 20
10.0949498739
 30
0.0
 10
11.1944495494
 20
10.0927579991
 30
0.0
 10
11.1888017349
 20
10.0906304411
 30
0.0
 10
11.1827774587
 20
10.0885731374
 30
0.0
 10
11.1763819307
 20
10.086592218
 30
0.0
 10
11.1696217365
 20
10.0846940511
 30
0.0
 10
11.1625050456
 20
10.0828852251
 30
0.0
 10
11.1550418457
 20
10.0811724523
 30
0.0
 10
11.1472441213
 20
10.0795625502
 30
0.0
 10
11.1362409689
 20
10.0775294777
 30
0.0
 10
11.1217692572
 20
10.0753060271
 30
0.0
 10
11.1036395597
 20
10.0731963896
 30
0.0
 10
11.0846841986
 20
10.0716510294
 30
0.0
 10
11.0651520941
 20
10.0707075183
 30
0.0
 10
11.0519634916
 20
10.0704964635
 30
0.0
 10
11.0453224766
 20
10.0704964631
 30
0.0
  0
SPLINE
  5
354
100
AcDbEntity
  8
0
100
AcDbSpline
 62
7
  6
CONTINUOUS
 70
0
 71
3
 72
42
 73
38
 74
0
 42
0.0000001
 43
0.0000001
 44
0.0000000001
 40
0.0
 40
0.0
 40
0.0
 40
0.0
 40
0.0056152346
 40
0.0112614972
 40
0.0169999437
 40
0.0228884162
 40
0.0289799899
 40
0.0353219527
 40
0.0419553877
 40
0.0489154632
 40
0.0562315262
 40
0.0639278775
 40
0.0720243684
 40
0.0805367334
 40
0.0894775196
 40
0.0988562399
 40
0.1086798497
 40
0.1189533288
 40
0.1408575489
 40
0.1645768186
 40
0.1900953613
 40
0.2173806554
 40
0.2463863544
 40
0.2770542863
 40
0.3093158289
 40
0.3430929474
 40
0.3782991583
 40
0.4148402258
 40
0.4526147193
 40
0.4915144675
 40
0.5314251673
 40
0.5722269231
 40
0.6559963384
 40
0.7417746819
 40
0.8284583111
 40
0.9149128806
 40
1.0
 40
1.0
 40
1.0
 40
1.0
 10
10.5857361227
 20
10.0667689406
 30
0.0
 10
10.5857663997
 20
10.0662172776
 30
0.0
 10
10.5857666686
 20
10.0651066199
 30
0.0
 10
10.5855840072
 20
10.0634408251
 30
0.0
 10
10.5852187895
 20
10.0617777581
 30
0.0
 10
10.5846719782
 20
10.0601193685
 30
0.0
 10
10.5839445488
 20
10.0584670865
 30
0.0
 10
10.5830376396
 20
10.0568222248
 30
0.0
 10
10.5819524595
 20
10.0551858841
 30
0.0
 10
10.5806900876
 20
10.053559204
 30
0.0
 10
10.5792517689
 20
10.0519431973
 30
0.0
 10
10.5776387119
 20
10.0503389415
 30
0.0
 10
10.5758521823
 20
10.0487475712
 30
0.0
 10
10.5738936136
 20
10.0471701448
 30
0.0
 10
10.5717644541
 20
10.0456078583
 30
0.0
 10
10.5694663216
 20
10.0440618664
 30
0.0
 10
10.5670009496
 20
10.0425332787
 30
0.0
 10
10.563416104
 20
10.0404759412
 30
0.0
 10
10.5585184389
 20
10.0379663555
 30
0.0
 10
10.5521276627
 20
10.0351043146
 30
0.0
 10
10.5451219248
 20
10.0323396583
 30
0.0
 10
10.5375222163
 20
10.029681416
 30
0.0
 10
10.5293512145
 20
10.0271384014
 30
0.0
 10
10.5206336933
 20
10.0247192044
 30
0.0
 10
10.5113963494
 20
10.0224321113
 30
0.0
 10
10.5016677995
 20
10.0202850545
 30
0.0
 10
10.4914785058
 20
10.0182855989
 30
0.0
 10
10.4808607207
 20
10.0164408999
 30
0.0
 10
10.4698484336
 20
10.0147576679
 30
0.0
 10
10.4584773185
 20
10.0132421246
 30
0.0
 10
10.446784594
 20
10.0118999283
 30
0.0
 10
10.4306761036
 20
10.0103348009
 30
0.0
 10
10.4100283259
 20
10.0088553484
 30
0.0
 10
10.384833422
 20
10.0078492726
 30
0.0
 10
10.359355149
 20
10.0076153812
 30
0.0
 10
10.3339499319
 20
10.0081596089
 30
0.0
 10
10.3170915948
 20
10.0090480033
 30
0.0
 10
10.308739777
 20
10.0096272038
 30
0.0
  0
SPLINE
  5
355
100
AcDbEntity
  8
0
100
AcDbSpline
 62
7
  6
CONTINUOUS
 70
0
 71
3
 72
46
 73
42
 74
0
 42
0.0000001
 43
0.0000001
 44
0.0000000001
 40
0.0
 40
0.0
 40
0.0
 40
0.0
 40
0.0056647185
 40
0.011511142
 40
0.0175872345
 40
0.0239339164
 40
0.0305854161
 40
0.0375698576
 40
0.0449099735
 40
0.0526239221
 40
0.0607259656
 40
0.0692271137
 40
0.0781356879
 40
0.0874577543
 40
0.0971975063
 40
0.1073575775
 40
0.1289409252
 40
0.1522082225
 40
0.1771440806
 40
0.203722789
 40
0.2319100876
 40
0.2616640572
 40
0.2929355596
 40
0.3256682108
 40
0.359797889
 40
0.3952519436
 40
0.431948398
 40
0.469794897
 40
0.5086875126
 40
0.5485094558
 40
0.589129908
 40
0.6304031184
 40
0.6721677306
 40
0.7142465754
 40
0.7564471012
 40
0.7985626361
 40
0.8403745335
 40
0.8816554671
 40
0.9221733402
 40
0.9616968374
 40
1.0
 40
1.0
 40
1.0
 40
1.0
 10
11.0277654929
 20
9.9259792981
 30
0.0
 10
11.0276358074
 20
9.925413646
 30
0.0
 10
11.0273097783
 20
9.9242777135
 30
0.0
 10
11.0266405519
 20
9.9226020295
 30
0.0
 10
11.0257874136
 20
9.9209333761
 30
0.0
 10
11.0247528976
 20
9.9192731282
 30
0.0
 10
11.0235393644
 20
9.9176222115
 30
0.0
 10
11.0221491029
 20
9.9159816
 30
0.0
 10
11.0205842849
 20
9.9143522682
 30
0.0
 10
11.0188470653
 20
9.9127351928
 30
0.0
 10
11.0169395582
 20
9.9111313793
 30
0.0
 10
11.014863862
 20
9.9095418635
 30
0.0
 10
11.0126220898
 20
9.9079676732
 30
0.0
 10
11.0102163458
 20
9.9064098754
 30
0.0
 10
11.0076487493
 20
9.9048694973
 30
0.0
 10
11.0039370793
 20
9.9027984703
 30
0.0
 10
10.9988969983
 20
9.9002702706
 30
0.0
 10
10.9923549607
 20
9.8973809243
 30
0.0
 10
10.9852195132
 20
9.894586356
 30
0.0
 10
10.9775088159
 20
9.8918952314
 30
0.0
 10
10.9692415264
 20
9.8893163216
 30
0.0
 10
10.960437397
 20
9.8868585474
 30
0.0
 10
10.9511173791
 20
9.8845309884
 30
0.0
 10
10.941303934
 20
9.8823429024
 30
0.0
 10
10.931021359
 20
9.8803037324
 30
0.0
 10
10.9202961619
 20
9.8784230954
 30
0.0
 10
10.9091574562
 20
9.8767107634
 30
0.0
 10
10.8976373764
 20
9.8751766156
 30
0.0
 10
10.8857715285
 20
9.8738305682
 30
0.0
 10
10.8735994396
 20
9.8726824677
 30
0.0
 10
10.861164969
 20
9.8717419452
 30
0.0
 10
10.848516647
 20
9.8710182421
 30
0.0
 10
10.8357079095
 20
9.8705199888
 30
0.0
 10
10.8227971879
 20
9.8702549488
 30
0.0
 10
10.8098477939
 20
9.8702297297
 30
0.0
 10
10.7969275565
 20
9.8704494791
 30
0.0
 10
10.7841081543
 20
9.870917572
 30
0.0
 10
10.7714641871
 20
9.8716353341
 30
0.0
 10
10.7590718333
 20
9.8726017912
 30
0.0
 10
10.7470076049
 20
9.8738135143
 30
0.0
 10
10.7390946344
 20
9.8747981305
 30
0.0
 10
10.7352072638
 20
9.8753330962
 30
0.0
  0
SPLINE
  5
356
100
AcDbEntity
  8
0
100
AcDbSpline
 62
7
  6
CONTINUOUS
 70
0
 71
3
 72
23
 73
19
 74
0
 42
0.0000001
 43
0.0000001
 44
0.0000000001
 40
0.0
 40
0.0
 40
0.0
 40
0.0
 40
0.0616482107
 40
0.1233194484
 40
0.1850364778
 40
0.246821563
 40
0.3086962115
 40
0.3706809284
 40
0.432795007
 40
0.4950563296
 40
0.557481183
 40
0.6200840897
 40
0.6828775671
 40
0.7458723773
 40
0.8090769738
 40
0.8724964981
 40
0.9361392129
 40
1.0
 40
1.0
 40
1.0
 40
1.0
 10
11.1724435845
 20
6.1885383753
 30
0.0
 10
11.1682353008
 20
6.184473507
 30
0.0
 10
11.1595967255
 20
6.1765669511
 30
0.0
 10
11.1460175002
 20
6.1654184772
 30
0.0
 10
11.1318486312
 20
6.1550068837
 30
0.0
 10
11.1171262988
 20
6.1453588555
 30
0.0
 10
11.1018874608
 20
6.1364985848
 30
0.0
 10
11.0861705464
 20
6.1284484285
 30
0.0
 10
11.070015182
 20
6.1212285771
 30
0.0
 10
11.0534620749
 20
6.1148571798
 30
0.0
 10
11.0365529095
 20
6.1093502914
 30
0.0
 10
11.0193302906
 20
6.1047217434
 30
0.0
 10
11.0018376063
 20
6.1009830801
 30
0.0
 10
10.9841188782
 20
6.0981436921
 30
0.0
 10
10.9662188469
 20
6.0962107657
 30
0.0
 10
10.9481821411
 20
6.0951889333
 30
0.0
 10
10.9300551038
 20
6.0950809634
 30
0.0
 10
10.9179599617
 20
6.0956173109
 30
0.0
 10
10.9119136132
 20
6.0960366266
 30
0.0
  0
SPLINE
  5
357
100
AcDbEntity
  8
0
100
AcDbSpline
 62
7
  6
CONTINUOUS
 70
0
 71
3
 72
42
 73
38
 74
0
 42
0.0000001
 43
0.0000001
 44
0.0000000001
 40
0.0
 40
0.0
 40
0.0
 40
0.0
 40
0.0299419644
 40
0.0449235317
 40
0.0599142035
 40
0.0899287023
 40
0.1200139727
 40
0.1350926544
 40
0.1501966973
 40
0.1804840373
 40
0.210897868
 40
0.2414513286
 40
0.2721543342
 40
0.3030133956
 40
0.3340315238
 40
0.3652082165
 40
0.3965395222
 40
0.4280181758
 40
0.459633799
 40
0.4913731572
 40
0.5232204671
 40
0.5551577446
 40
0.5871651885
 40
0.6192215901
 40
0.6513047644
 40
0.683391994
 40
0.715460481
 40
0.7474877999
 40
0.7794523452
 40
0.8113337678
 40
0.8431133918
 40
0.8747746145
 40
0.906303246
 40
0.9376878974
 40
0.9533257627
 40
0.9689252947
 40
1.0
 40
1.0
 40
1.0
 40
1.0
 10
9.3808724064
 20
8.6202757428
 30
0.0
 10
9.3847875678
 20
8.6240574968
 30
0.0
 10
9.390891081
 20
8.629500983
 30
0.0
 10
9.3994388823
 20
8.6362552202
 30
0.0
 10
9.4082589634
 20
8.6426732659
 30
0.0
 10
9.4197676556
 20
8.6500433571
 30
0.0
 10
9.4318359581
 20
8.6564899915
 30
0.0
 10
9.4417891357
 20
8.6610762383
 30
0.0
 10
9.4519479814
 20
8.6652837528
 30
0.0
 10
9.4649812716
 20
8.6698081384
 30
0.0
 10
9.481042855
 20
8.674024724
 30
0.0
 10
9.4974549047
 20
8.6770118808
 30
0.0
 10
9.514126475
 20
8.6787531107
 30
0.0
 10
9.530965983
 20
8.6792391261
 30
0.0
 10
9.5478807732
 20
8.6784674518
 30
0.0
 10
9.5647778775
 20
8.6764425459
 30
0.0
 10
9.5815644534
 20
8.673175733
 30
0.0
 10
9.5981483066
 20
8.6686851437
 30
0.0
 10
9.6144383853
 20
8.6629956061
 30
0.0
 10
9.630345275
 20
8.6561385064
 30
0.0
 10
9.645781681
 20
8.648151614
 30
0.0
 10
9.660662902
 20
8.6390788732
 30
0.0
 10
9.6749072877
 20
8.6289701622
 30
0.0
 10
9.6884366818
 20
8.6178810207
 30
0.0
 10
9.7011768453
 20
8.605872347
 30
0.0
 10
9.7130578597
 20
8.5930100664
 30
0.0
 10
9.7240145062
 20
8.5793647735
 30
0.0
 10
9.7339866206
 20
8.5650113469
 30
0.0
 10
9.7429194204
 20
8.5500285482
 30
0.0
 10
9.7507638041
 20
8.5344985764
 30
0.0
 10
9.7574766148
 20
8.518506688
 30
0.0
 10
9.7630208976
 20
8.5021404959
 30
0.0
 10
9.7673660152
 20
8.4854903783
 30
0.0
 10
9.7699710165
 20
8.4714358776
 30
0.0
 10
9.7714323401
 20
8.4601432458
 30
0.0
 10
9.7724752516
 20
8.4488614226
 30
0.0
 10
9.7727910373
 20
8.440371923
 30
0.0
 10
9.7727910373
 20
8.4347226356
 30
0.0
  0
SPLINE
  5
358
100
AcDbEntity
  8
0
100
AcDbSpline
 62
7
  6
CONTINUOUS
 70
0
 71
3
 72
42
 73
38
 74
0
 42
0.0000001
 43
0.0000001
 44
0.0000000001
 40
0.0
 40
0.0
 40
0.0
 40
0.0
 40
0.0299419644
 40
0.0449235317
 40
0.0599142035
 40
0.0899287023
 40
0.1200139727
 40
0.1350926544
 40
0.1501966973
 40
0.1804840373
 40
0.210897868
 40
0.2414513286
 40
0.2721543342
 40
0.3030133956
 40
0.3340315238
 40
0.3652082165
 40
0.3965395222
 40
0.4280181758
 40
0.459633799
 40
0.4913731572
 40
0.5232204671
 40
0.5551577446
 40
0.5871651885
 40
0.6192215901
 40
0.6513047644
 40
0.683391994
 40
0.715460481
 40
0.7474877999
 40
0.7794523452
 40
0.8113337678
 40
0.8431133918
 40
0.8747746145
 40
0.906303246
 40
0.9376878974
 40
0.9533257627
 40
0.9689252947
 40
1.0
 40
1.0
 40
1.0
 40
1.0
 10
10.4675390253
 20
6.6478367345
 30
0.0
 10
10.4714541867
 20
6.6516184885
 30
0.0
 10
10.4775577
 20
6.6570619746
 30
0.0
 10
10.4861055013
 20
6.6638162119
 30
0.0
 10
10.4949255823
 20
6.6702342575
 30
0.0
 10
10.5064342746
 20
6.6776043488
 30
0.0
 10
10.5185025771
 20
6.6840509831
 30
0.0
 10
10.5284557547
 20
6.68863723
 30
0.0
 10
10.5386146004
 20
6.6928447444
 30
0.0
 10
10.5516478905
 20
6.69736913
 30
0.0
 10
10.5677094739
 20
6.7015857157
 30
0.0
 10
10.5841215237
 20
6.7045728725
 30
0.0
 10
10.600793094
 20
6.7063141024
 30
0.0
 10
10.617632602
 20
6.7068001177
 30
0.0
 10
10.6345473922
 20
6.7060284435
 30
0.0
 10
10.6514444964
 20
6.7040035375
 30
0.0
 10
10.6682310724
 20
6.7007367247
 30
0.0
 10
10.6848149255
 20
6.6962461354
 30
0.0
 10
10.7011050043
 20
6.6905565978
 30
0.0
 10
10.7170118939
 20
6.6836994981
 30
0.0
 10
10.7324483
 20
6.6757126057
 30
0.0
 10
10.7473295209
 20
6.6666398649
 30
0.0
 10
10.7615739067
 20
6.6565311539
 30
0.0
 10
10.7751033008
 20
6.6454420124
 30
0.0
 10
10.7878434643
 20
6.6334333386
 30
0.0
 10
10.7997244786
 20
6.6205710581
 30
0.0
 10
10.8106811251
 20
6.6069257652
 30
0.0
 10
10.8206532396
 20
6.5925723386
 30
0.0
 10
10.8295860394
 20
6.5775895398
 30
0.0
 10
10.837430423
 20
6.5620595681
 30
0.0
 10
10.8441432338
 20
6.5460676797
 30
0.0
 10
10.8496875166
 20
6.5297014876
 30
0.0
 10
10.8540326341
 20
6.5130513699
 30
0.0
 10
10.8566376354
 20
6.4989968693
 30
0.0
 10
10.8580989591
 20
6.4877042374
 30
0.0
 10
10.8591418705
 20
6.4764224143
 30
0.0
 10
10.8594576563
 20
6.4679329147
 30
0.0
 10
10.8594576563
 20
6.4622836272
 30
0.0
  0
SPLINE
  5
359
100
AcDbEntity
  8
0
100
AcDbSpline
 62
7
  6
CONTINUOUS
 70
0
 71
3
 72
21
 73
17
 74
0
 42
0.0000001
 43
0.0000001
 44
0.0000000001
 40
0.0
 40
0.0
 40
0.0
 40
0.0
 40
0.0617147758
 40
0.1234506606
 40
0.1852285516
 40
0.2470689039
 40
0.3089915432
 40
0.3710154715
 40
0.4331586565
 40
0.4954378534
 40
0.5578684959
 40
0.6204644995
 40
0.6832380575
 40
0.7461999878
 40
0.87268242
 40
1.0
 40
1.0
 40
1.0
 40
1.0
 10
12.9182459189
 20
7.8758540376
 30
0.0
 10
12.9222725114
 20
7.8797434066
 30
0.0
 10
12.930128321
 20
7.887732315
 30
0.0
 10
12.9412823353
 20
7.9003079701
 30
0.0
 10
12.9517830671
 20
7.9134491978
 30
0.0
 10
12.9616058907
 20
7.9271252596
 30
0.0
 10
12.9707283295
 20
7.9413046756
 30
0.0
 10
12.9791293119
 20
7.9559547209
 30
0.0
 10
12.9867894361
 20
7.9710416364
 30
0.0
 10
12.9936911309
 20
7.9865305713
 30
0.0
 10
12.9998185231
 20
8.0023858338
 30
0.0
 10
13.005157429
 20
8.0185707649
 30
0.0
 10
13.0096956759
 20
8.0350484631
 30
0.0
 10
13.0146721141
 20
8.0573880772
 30
0.0
 10
13.0188356975
 20
8.0858674938
 30
0.0
 10
13.0199381539
 20
8.1089050668
 30
0.0
 10
13.0199381539
 20
8.1204542998
 30
0.0
  0
SPLINE
  5
35A
100
AcDbEntity
  8
0
100
AcDbSpline
 62
7
  6
CONTINUOUS
 70
0
 71
3
 72
15
 73
11
 74
0
 42
0.0000001
 43
0.0000001
 44
0.0000000001
 40
0.0
 40
0.0
 40
0.0
 40
0.0
 40
0.1239711796
 40
0.2480480952
 40
0.3723337845
 40
0.4969259811
 40
0.6219146634
 40
0.7473799319
 40
0.8733898774
 40
1.0
 40
1.0
 40
1.0
 40
1.0
 10
10.6147887524
 20
8.2410058299
 30
0.0
 10
10.6196627095
 20
8.2457137402
 30
0.0
 10
10.6290357286
 20
8.2555353081
 30
0.0
 10
10.6418571885
 20
8.2713685542
 30
0.0
 10
10.6533733392
 20
8.2882177532
 30
0.0
 10
10.6635164802
 20
8.3059842915
 30
0.0
 10
10.6722285235
 20
8.3245656661
 30
0.0
 10
10.6794593313
 20
8.3438548268
 30
0.0
 10
10.6851672346
 20
8.3637387787
 30
0.0
 10
10.6879291674
 20
8.3772851636
 30
0.0
 10
10.6890483531
 20
8.3841147374
 30
0.0
  0
SPLINE
  5
35B
100
AcDbEntity
  8
0
100
AcDbSpline
 62
7
  6
CONTINUOUS
 70
0
 71
3
 72
21
 73
17
 74
0
 42
0.0000001
 43
0.0000001
 44
0.0000000001
 40
0.0
 40
0.0
 40
0.0
 40
0.0
 40
0.0617147758
 40
0.1234506606
 40
0.1852285516
 40
0.2470689039
 40
0.3089915432
 40
0.3710154715
 40
0.4331586565
 40
0.4954378534
 40
0.5578684959
 40
0.6204644995
 40
0.6832380575
 40
0.7461999878
 40
0.87268242
 40
1.0
 40
1.0
 40
1.0
 40
1.0
 10
10.600866084
 20
8.1695113568
 30
0.0
 10
10.6043960634
 20
8.172921037
 30
0.0
 10
10.6112829898
 20
8.1799246467
 30
0.0
 10
10.6210613424
 20
8.1909493043
 30
0.0
 10
10.6302669839
 20
8.2024697806
 30
0.0
 10
10.6388783259
 20
8.2144591281
 30
0.0
 10
10.6468756639
 20
8.2268897494
 30
0.0
 10
10.6542405252
 20
8.2397329558
 30
0.0
 10
10.6609559007
 20
8.2529591518
 30
0.0
 10
10.6670063865
 20
8.2665377847
 30
0.0
 10
10.672378067
 20
8.2804375648
 30
0.0
 10
10.6770585078
 20
8.2946263545
 30
0.0
 10
10.6810370376
 20
8.3090718032
 30
0.0
 10
10.6853997151
 20
8.3286561982
 30
0.0
 10
10.6890497899
 20
8.3536231535
 30
0.0
 10
10.6900162766
 20
8.3738194257
 30
0.0
 10
10.6900162766
 20
8.3839442534
 30
0.0
  0
SPLINE
  5
35C
100
AcDbEntity
  8
0
100
AcDbSpline
 62
7
  6
CONTINUOUS
 70
0
 71
3
 72
15
 73
11
 74
0
 42
0.0000001
 43
0.0000001
 44
0.0000000001
 40
0.0
 40
0.0
 40
0.0
 40
0.0
 40
0.1238992181
 40
0.2479122359
 40
0.3721497238
 40
0.4967162083
 40
0.6217072719
 40
0.7472070622
 40
0.8732861798
 40
1.0
 40
1.0
 40
1.0
 40
1.0
 10
10.2160042118
 20
8.6538579415
 30
0.0
 10
10.2210630422
 20
8.6587444268
 30
0.0
 10
10.2316040677
 20
8.6680988041
 30
0.0
 10
10.2485507401
 20
8.6807529313
 30
0.0
 10
10.2665347161
 20
8.6919581234
 30
0.0
 10
10.2854425438
 20
8.7016434197
 30
0.0
 10
10.3051567021
 20
8.7097491123
 30
0.0
 10
10.3255548177
 20
8.7162249936
 30
0.0
 10
10.3465081839
 20
8.7210309484
 30
0.0
 10
10.3607277332
 20
8.7230970014
 30
0.0
 10
10.3678819201
 20
8.723845484
 30
0.0
  0
SPLINE
  5
35D
100
AcDbEntity
  8
0
100
AcDbSpline
 62
7
  6
CONTINUOUS
 70
0
 71
3
 72
41
 73
37
 74
0
 42
0.0000001
 43
0.0000001
 44
0.0000000001
 40
0.0
 40
0.0
 40
0.0
 40
0.0
 40
0.0299421703
 40
0.0599087166
 40
0.0899234211
 40
0.1200088977
 40
0.150186053
 40
0.1804736004
 40
0.2108876395
 40
0.2414413098
 40
0.2721445264
 40
0.3030038
 40
0.3340221415
 40
0.3651990482
 40
0.3965305685
 40
0.4280094374
 40
0.4596252765
 40
0.4913648514
 40
0.5232123788
 40
0.5551498746
 40
0.5871575376
 40
0.6192141589
 40
0.6512975532
 40
0.6833850026
 40
0.7154537088
 40
0.731476412
 40
0.7474860771
 40
0.7794508401
 40
0.8113324799
 40
0.8431123195
 40
0.8747737613
 40
0.9063025943
 40
0.937687506
 40
0.953325536
 40
0.9689249997
 40
1.0
 40
1.0
 40
1.0
 40
1.0
 10
10.1440702009
 20
8.6424212258
 30
0.0
 10
10.149524068
 20
8.6476892289
 30
0.0
 10
10.160860606
 20
8.6578001304
 30
0.0
 10
10.1790235416
 20
8.671574411
 30
0.0
 10
10.1982517235
 20
8.6838877319
 30
0.0
 10
10.2184377257
 20
8.6946710061
 30
0.0
 10
10.2394705641
 20
8.7038653254
 30
0.0
 10
10.2612341623
 20
8.711420147
 30
0.0
 10
10.2836085901
 20
8.7172941348
 30
0.0
 10
10.3064705808
 20
8.7214552177
 30
0.0
 10
10.3296942603
 20
8.723880791
 30
0.0
 10
10.3531518326
 20
8.7245578132
 30
0.0
 10
10.3767142862
 20
8.7234828666
 30
0.0
 10
10.4002520996
 20
8.720662155
 30
0.0
 10
10.4236359468
 20
8.7161114574
 30
0.0
 10
10.4467373993
 20
8.7098560296
 30
0.0
 10
10.4694296222
 20
8.7019304581
 30
0.0
 10
10.4915880599
 20
8.692378464
 30
0.0
 10
10.5130911115
 20
8.6812526594
 30
0.0
 10
10.5338207847
 20
8.6686142611
 30
0.0
 10
10.5536633476
 20
8.6545327374
 30
0.0
 10
10.5725098965
 20
8.6390854978
 30
0.0
 10
10.5902571276
 20
8.6223572113
 30
0.0
 10
10.6068072194
 20
8.6044403158
 30
0.0
 10
10.6195310486
 20
8.5885940453
 30
0.0
 10
10.6290242135
 20
8.5754226151
 30
0.0
 10
10.6380397296
 20
8.5619514357
 30
0.0
 10
10.6484050373
 20
8.5445660925
 30
0.0
 10
10.6593320749
 20
8.5229330808
 30
0.0
 10
10.6686831499
 20
8.5006561423
 30
0.0
 10
10.676406364
 20
8.477857924
 30
0.0
 10
10.6824591722
 20
8.4546641529
 30
0.0
 10
10.6860879513
 20
8.4350860883
 30
0.0
 10
10.6881236021
 20
8.4193553737
 30
0.0
 10
10.6895763881
 20
8.4036397045
 30
0.0
 10
10.6900162766
 20
8.3918137809
 30
0.0
 10
10.6900162766
 20
8.3839442534
 30
0.0
  0
SPLINE
  5
35E
100
AcDbEntity
  8
0
100
AcDbSpline
 62
7
  6
CONTINUOUS
 70
0
 71
3
 72
41
 73
37
 74
0
 42
0.0000001
 43
0.0000001
 44
0.0000000001
 40
0.0
 40
0.0
 40
0.0
 40
0.0
 40
0.0299421701
 40
0.0599087164
 40
0.0899234211
 40
0.1200088983
 40
0.1501860543
 40
0.1804736026
 40
0.2108876422
 40
0.2414413123
 40
0.2721445279
 40
0.3030038001
 40
0.33402214
 40
0.3651990456
 40
0.3965305656
 40
0.428009435
 40
0.4596252751
 40
0.4913648511
 40
0.523212379
 40
0.5551498748
 40
0.5871575372
 40
0.6192141578
 40
0.6512975514
 40
0.6833850007
 40
0.7154537075
 40
0.7314764095
 40
0.7474860758
 40
0.7794508394
 40
0.8113324795
 40
0.8431123195
 40
0.8747737607
 40
0.9063025939
 40
0.9376875098
 40
0.9533255635
 40
0.9689249841
 40
1.0
 40
1.0
 40
1.0
 40
1.0
 10
10.1151757344
 20
8.6475315989
 30
0.0
 10
10.1210235918
 20
8.6531801971
 30
0.0
 10
10.1331791343
 20
8.6640215309
 30
0.0
 10
10.1526542069
 20
8.6787909321
 30
0.0
 10
10.1732714943
 20
8.6919938186
 30
0.0
 10
10.1949157982
 20
8.7035561233
 30
0.0
 10
10.2174681212
 20
8.7134146747
 30
0.0
 10
10.240803999
 20
8.7215152783
 30
0.0
 10
10.2647948348
 20
8.7278136165
 30
0.0
 10
10.2893084552
 20
8.7322753054
 30
0.0
 10
10.3142098924
 20
8.7348761111
 30
0.0
 10
10.3393621192
 20
8.735602052
 30
0.0
 10
10.3646268051
 20
8.7344494606
 30
0.0
 10
10.3898650723
 20
8.7314249861
 30
0.0
 10
10.4149382517
 20
8.7265455436
 30
0.0
 10
10.4397086353
 20
8.7198382093
 30
0.0
 10
10.4640402231
 20
8.7113400657
 30
0.0
 10
10.4877994615
 20
8.7010979976
 30
0.0
 10
10.5108559651
 20
8.6891684206
 30
0.0
 10
10.5330832187
 20
8.6756169764
 30
0.0
 10
10.5543592755
 20
8.6605181538
 30
0.0
 10
10.5745673648
 20
8.6439549544
 30
0.0
 10
10.593596724
 20
8.6260181664
 30
0.0
 10
10.611342454
 20
8.6068068962
 30
0.0
 10
10.6249855207
 20
8.5898158543
 30
0.0
 10
10.6351644698
 20
8.5756928496
 30
0.0
 10
10.6448313366
 20
8.5612484918
 30
0.0
 10
10.6559454508
 20
8.5426071578
 30
0.0
 10
10.6676618991
 20
8.5194113053
 30
0.0
 10
10.6776885236
 20
8.4955250016
 30
0.0
 10
10.6859696881
 20
8.4710797612
 30
0.0
 10
10.6924597727
 20
8.446210391
 30
0.0
 10
10.6963507064
 20
8.4252179317
 30
0.0
 10
10.6985334243
 20
8.4083507808
 30
0.0
 10
10.7000911629
 20
8.3914997583
 30
0.0
 10
10.7005628309
 20
8.3788194967
 30
0.0
 10
10.7005628309
 20
8.3703814432
 30
0.0
  0
SPLINE
  5
35F
100
AcDbEntity
  8
0
100
AcDbSpline
 62
7
  6
CONTINUOUS
 70
0
 71
3
 72
15
 73
11
 74
0
 42
0.0000001
 43
0.0000001
 44
0.0000000001
 40
0.0
 40
0.0
 40
0.0
 40
0.0
 40
0.1241556855
 40
0.248454609
 40
0.3729481509
 40
0.4976873465
 40
0.6227199784
 40
0.7480902392
 40
0.8738383423
 40
1.0
 40
1.0
 40
1.0
 40
1.0
 10
9.6089837958
 20
7.5305635656
 30
0.0
 10
9.6158632454
 20
7.536152657
 30
0.0
 10
9.6299432152
 20
7.5469580569
 30
0.0
 10
9.6519400801
 20
7.5619825375
 30
0.0
 10
9.6747684204
 20
7.5757929301
 30
0.0
 10
9.6983675169
 20
7.5883518139
 30
0.0
 10
9.7226756737
 20
7.5996257922
 30
0.0
 10
9.7476292832
 20
7.609584562
 30
0.0
 10
9.7731617672
 20
7.6182008999
 30
0.0
 10
9.7904970675
 20
7.6230268056
 30
0.0
 10
9.7992355342
 20
7.6252092824
 30
0.0
  0
SPLINE
  5
360
100
AcDbEntity
  8
0
100
AcDbSpline
 62
7
  6
CONTINUOUS
 70
0
 71
3
 72
25
 73
21
 74
0
 42
0.0000001
 43
0.0000001
 44
0.0000000001
 40
0.0
 40
0.0
 40
0.0
 40
0.0
 40
0.0611225902
 40
0.0917962779
 40
0.1225407251
 40
0.1842280109
 40
0.2461758479
 40
0.277244985
 40
0.308371538
 40
0.3707776175
 40
0.433374733
 40
0.4961337364
 40
0.5590231913
 40
0.6220098432
 40
0.6850590862
 40
0.7481354502
 40
0.8112030921
 40
0.8742262881
 40
0.9371699261
 40
1.0
 40
1.0
 40
1.0
 40
1.0
 10
9.9759336354
 20
7.6380354123
 30
0.0
 10
9.9872206455
 20
7.6369515189
 30
0.0
 10
10.0041269144
 20
7.6347909733
 30
0.0
 10
10.0265204615
 20
7.6308641854
 30
0.0
 10
10.0488854699
 20
7.6262264908
 30
0.0
 10
10.0766480727
 20
7.6191181007
 30
0.0
 10
10.1039825054
 20
7.6103112226
 30
0.0
 10
10.1255627789
 20
7.6022604362
 30
0.0
 10
10.1469690056
 20
7.5935301151
 30
0.0
 10
10.1732841817
 20
7.5813847004
 30
0.0
 10
10.2039991822
 20
7.5649146474
 30
0.0
 10
10.2337576049
 20
7.5466006502
 30
0.0
 10
10.2624387937
 20
7.5265160502
 30
0.0
 10
10.2899273951
 20
7.5047410825
 30
0.0
 10
10.316112644
 20
7.4813630339
 30
0.0
 10
10.3408891783
 20
7.4564757074
 30
0.0
 10
10.364157304
 20
7.4301792285
 30
0.0
 10
10.3858237811
 20
7.4025790061
 30
0.0
 10
10.405800924
 20
7.3737875658
 30
0.0
 10
10.4179545374
 20
7.3538514984
 30
0.0
 10
10.4237234307
 20
7.3437235661
 30
0.0
  0
SPLINE
  5
361
100
AcDbEntity
  8
0
100
AcDbSpline
 62
7
  6
CONTINUOUS
 70
0
 71
3
 72
15
 73
11
 74
0
 42
0.0000001
 43
0.0000001
 44
0.0000000001
 40
0.0
 40
0.0
 40
0.0
 40
0.0
 40
0.1265012677
 40
0.2526284894
 40
0.3783487244
 40
0.5036330225
 40
0.6284574585
 40
0.7528014759
 40
0.8766531723
 40
1.0
 40
1.0
 40
1.0
 40
1.0
 10
10.4516367396
 20
7.2880281444
 30
0.0
 10
10.4555078459
 20
7.2791497402
 30
0.0
 10
10.4627959681
 20
7.2612222946
 30
0.0
 10
10.4723436699
 20
7.2338600248
 30
0.0
 10
10.480466882
 20
7.2061377724
 30
0.0
 10
10.4871431169
 20
7.1781345435
 30
0.0
 10
10.4923543918
 20
7.1499291085
 30
0.0
 10
10.4960869995
 20
7.1216004897
 30
0.0
 10
10.4983311651
 20
7.0932294564
 30
0.0
 10
10.4988325406
 20
7.0742988551
 30
0.0
 10
10.4988325406
 20
7.0648547414
 30
0.0
  0
SPLINE
  5
362
100
AcDbEntity
  8
0
100
AcDbSpline
 62
7
  6
CONTINUOUS
 70
0
 71
3
 72
15
 73
11
 74
0
 42
0.0000001
 43
0.0000001
 44
0.0000000001
 40
0.0
 40
0.0
 40
0.0
 40
0.0
 40
0.126597812
 40
0.2527177376
 40
0.3783600535
 40
0.5035399278
 40
0.6282712823
 40
0.7525747545
 40
0.8764747573
 40
1.0
 40
1.0
 40
1.0
 40
1.0
 10
10.4988325406
 20
7.0648547414
 30
0.0
 10
10.4988325406
 20
7.0561554019
 30
0.0
 10
10.498408802
 20
7.0387865011
 30
0.0
 10
10.4964960126
 20
7.0128473418
 30
0.0
 10
10.4933123736
 20
6.9871307593
 30
0.0
 10
10.4888665266
 20
6.9616990089
 30
0.0
 10
10.4831696897
 20
6.9366121862
 30
0.0
 10
10.4762361539
 20
6.9119296942
 30
0.0
 10
10.4680834241
 20
6.8877107167
 30
0.0
 10
10.4618390345
 20
6.8718872794
 30
0.0
 10
10.4585209909
 20
6.8640744572
 30
0.0
  0
SPLINE
  5
363
100
AcDbEntity
  8
0
100
AcDbSpline
 62
7
  6
CONTINUOUS
 70
0
 71
3
 72
15
 73
11
 74
0
 42
0.0000001
 43
0.0000001
 44
0.0000000001
 40
0.0
 40
0.0
 40
0.0
 40
0.0
 40
0.0915808247
 40
0.1893676641
 40
0.2956114147
 40
0.412036633
 40
0.5399156046
 40
0.6801756265
 40
0.8334117897
 40
1.0
 40
1.0
 40
1.0
 40
1.0
 10
10.3474759017
 20
8.6836671266
 30
0.0
 10
10.3473422416
 20
8.6836763653
 30
0.0
 10
10.3470636194
 20
8.6836695583
 30
0.0
 10
10.3466373068
 20
8.6835881026
 30
0.0
 10
10.3461923977
 20
8.6834362122
 30
0.0
 10
10.3457288654
 20
8.683214594
 30
0.0
 10
10.3452464609
 20
8.6829237033
 30
0.0
 10
10.344745251
 20
8.6825638754
 30
0.0
 10
10.3442254895
 20
8.6821355869
 30
0.0
 10
10.3438814366
 20
8.6818181375
 30
0.0
 10
10.3437061458
 20
8.6816488196
 30
0.0
  0
SPLINE
  5
364
100
AcDbEntity
  8
0
100
AcDbSpline
 62
7
  6
CONTINUOUS
 70
0
 71
3
 72
15
 73
11
 74
0
 42
0.0000001
 43
0.0000001
 44
0.0000000001
 40
0.0
 40
0.0
 40
0.0
 40
0.0
 40
0.1234776164
 40
0.247420554
 40
0.3718183884
 40
0.496659076
 40
0.6219231962
 40
0.7475875052
 40
0.873623841
 40
1.0
 40
1.0
 40
1.0
 40
1.0
 10
10.5029857565
 20
7.060843048
 30
0.0
 10
10.5029857565
 20
7.070787563
 30
0.0
 10
10.5024399497
 20
7.0907182578
 30
0.0
 10
10.4999972222
 20
7.1205774903
 30
0.0
 10
10.4959362236
 20
7.1503715228
 30
0.0
 10
10.4902692893
 20
7.1800101636
 30
0.0
 10
10.4830133661
 20
7.2094052741
 30
0.0
 10
10.4741901333
 20
7.238469275
 30
0.0
 10
10.4638264085
 20
7.2671144961
 30
0.0
 10
10.4559197447
 20
7.2858541444
 30
0.0
 10
10.4517217471
 20
7.2951260148
 30
0.0
  0
SPLINE
  5
365
100
AcDbEntity
  8
0
100
AcDbSpline
 62
7
  6
CONTINUOUS
 70
0
 71
3
 72
26
 73
22
 74
0
 42
0.0000001
 43
0.0000001
 44
0.0000000001
 40
0.0
 40
0.0
 40
0.0
 40
0.0
 40
0.0628138165
 40
0.1257300321
 40
0.1887174186
 40
0.2517436781
 40
0.3147759668
 40
0.3462875354
 40
0.3777882815
 40
0.4407341888
 40
0.5035889516
 40
0.5663222338
 40
0.6289054823
 40
0.6913123836
 40
0.7224457818
 40
0.7535264604
 40
0.8155126315
 40
0.8772607973
 40
0.9080449458
 40
0.9387648069
 40
1.0
 40
1.0
 40
1.0
 40
1.0
 10
10.4263654119
 20
7.3447673777
 30
0.0
 10
10.42045482
 20
7.355110721
 30
0.0
 10
10.4080004684
 20
7.3754649781
 30
0.0
 10
10.3875220837
 20
7.4048434679
 30
0.0
 10
10.3653081539
 20
7.4329857871
 30
0.0
 10
10.341449808
 20
7.4597763584
 30
0.0
 10
10.320273478
 20
7.4808894664
 30
0.0
 10
10.3026083106
 20
7.496999735
 30
0.0
 10
10.284485126
 20
7.5125678342
 30
0.0
 10
10.2609966352
 20
7.5309919778
 30
0.0
 10
10.2315815953
 20
7.5513578492
 30
0.0
 10
10.2010606416
 20
7.5698951908
 30
0.0
 10
10.1695583096
 20
7.586528247
 30
0.0
 10
10.1425701855
 20
7.5987571186
 30
0.0
 10
10.1206170722
 20
7.607522271
 30
0.0
 10
10.0984822095
 20
7.6155876763
 30
0.0
 10
10.070444972
 20
7.6243719784
 30
0.0
 10
10.0419745701
 20
7.6314005753
 30
0.0
 10
10.0190406282
 20
7.6359405325
 30
0.0
 10
9.9960731979
 20
7.6397478298
 30
0.0
 10
9.978738346
 20
7.6417918791
 30
0.0
 10
9.9671673843
 20
7.6427863309
 30
0.0
  0
SPLINE
  5
366
100
AcDbEntity
  8
0
100
AcDbSpline
 62
7
  6
CONTINUOUS
 70
0
 71
3
 72
15
 73
11
 74
0
 42
0.0000001
 43
0.0000001
 44
0.0000000001
 40
0.0
 40
0.0
 40
0.0
 40
0.0
 40
0.1263161705
 40
0.2521452529
 40
0.3775337162
 40
0.5025360897
 40
0.627213987
 40
0.7516350611
 40
0.8758717578
 40
1.0
 40
1.0
 40
1.0
 40
1.0
 10
9.8206253694
 20
7.6353886932
 30
0.0
 10
9.8091777133
 20
7.6331970355
 30
0.0
 10
9.7864658213
 20
7.628053253
 30
0.0
 10
9.753065111
 20
7.6180664522
 30
0.0
 10
9.7205356933
 20
7.605865031
 30
0.0
 10
9.6890184138
 20
7.5915012073
 30
0.0
 10
9.6586474232
 20
7.5750360903
 30
0.0
 10
9.6295521351
 20
7.5565394326
 30
0.0
 10
9.6018584052
 20
7.5360915745
 30
0.0
 10
9.5844011518
 20
7.5212099135
 30
0.0
 10
9.5759500105
 20
7.5134791334
 30
0.0
  0
SPLINE
  5
367
100
AcDbEntity
  8
0
100
AcDbSpline
 62
7
  6
CONTINUOUS
 70
0
 71
3
 72
41
 73
37
 74
0
 42
0.0000001
 43
0.0000001
 44
0.0000000001
 40
0.0
 40
0.0
 40
0.0
 40
0.0
 40
0.0310549855
 40
0.0466435335
 40
0.0622700596
 40
0.0936305983
 40
0.1251333443
 40
0.1567674463
 40
0.1885192676
 40
0.2203728637
 40
0.2523102682
 40
0.2683066745
 40
0.28431657
 40
0.3163615255
 40
0.3484281344
 40
0.3804942843
 40
0.4125378712
 40
0.4445372271
 40
0.4764715401
 40
0.5083212646
 40
0.5400685124
 40
0.5716974205
 40
0.6031944887
 40
0.6345488791
 40
0.6657526723
 40
0.696801072
 40
0.7276925518
 40
0.7584289365
 40
0.7890154141
 40
0.8194604714
 40
0.8497757527
 40
0.8799758391
 40
0.9100779503
 40
0.9401015751
 40
0.9700680358
 40
1.0
 40
1.0
 40
1.0
 40
1.0
 10
10.0276084667
 20
8.4253574043
 30
0.0
 10
10.0276084667
 20
8.4170401567
 30
0.0
 10
10.0280667029
 20
8.40454183
 30
0.0
 10
10.029580328
 20
8.3879307407
 30
0.0
 10
10.0317012454
 20
8.3713029754
 30
0.0
 10
10.0354822599
 20
8.3506047423
 30
0.0
 10
10.0417901379
 20
8.3260735572
 30
0.0
 10
10.0498405488
 20
8.3019469143
 30
0.0
 10
10.0595904012
 20
8.2783541031
 30
0.0
 10
10.0709871074
 20
8.2554213392
 30
0.0
 10
10.0818019038
 20
8.2369699643
 30
0.0
 10
10.0912114574
 20
8.2226575352
 30
0.0
 10
10.1011221938
 20
8.2086521518
 30
0.0
 10
10.1144105633
 20
8.1917802507
 30
0.0
 10
10.1317044144
 20
8.1726638853
 30
0.0
 10
10.1502608079
 20
8.1547701847
 30
0.0
 10
10.1699803615
 20
8.1381952244
 30
0.0
 10
10.190758043
 20
8.1230272785
 30
0.0
 10
10.2124830436
 20
8.1093473607
 30
0.0
 10
10.2350395432
 20
8.0972285235
 30
0.0
 10
10.2583072728
 20
8.0867355431
 30
0.0
 10
10.2821621609
 20
8.077924557
 30
0.0
 10
10.3064769829
 20
8.070842768
 30
0.0
 10
10.3311220307
 20
8.0655281884
 30
0.0
 10
10.3559657951
 20
8.0620094333
 30
0.0
 10
10.3808756581
 20
8.06030556
 30
0.0
 10
10.4057185925
 20
8.0604259568
 30
0.0
 10
10.4303618652
 20
8.0623702807
 30
0.0
 10
10.4546737408
 20
8.0661284444
 30
0.0
 10
10.4785241878
 20
8.071680656
 30
0.0
 10
10.5017855638
 20
8.0789974977
 30
0.0
 10
10.5243333506
 20
8.0880401062
 30
0.0
 10
10.5460466623
 20
8.0987602161
 30
0.0
 10
10.5668095384
 20
8.1111009597
 30
0.0
 10
10.5865092399
 20
8.1249950998
 30
0.0
 10
10.5988706994
 20
8.135250309
 30
0.0
 10
10.6048351185
 20
8.1406065761
 30
0.0
  0
SPLINE
  5
368
100
AcDbEntity
  8
0
100
AcDbSpline
 62
7
  6
CONTINUOUS
 70
0
 71
3
 72
21
 73
17
 74
0
 42
0.0000001
 43
0.0000001
 44
0.0000000001
 40
0.0
 40
0.0
 40
0.0
 40
0.0
 40
0.1272641377
 40
0.2537288085
 40
0.3166919981
 40
0.3794731628
 40
0.4420818402
 40
0.5045287721
 40
0.5668261586
 40
0.6289875852
 40
0.6910278609
 40
0.7529629176
 40
0.8148096402
 40
0.8765857325
 40
0.9383095696
 40
1.0
 40
1.0
 40
1.0
 40
1.0
 10
10.0276084667
 20
8.4253574043
 30
0.0
 10
10.0276084667
 20
8.4357366719
 30
0.0
 10
10.0285557288
 20
8.4564421914
 30
0.0
 10
10.0321324885
 20
8.4820615154
 30
0.0
 10
10.03640932
 20
8.5021880565
 30
0.0
 10
10.0403110258
 20
8.5170519708
 30
0.0
 10
10.0449029719
 20
8.5316729859
 30
0.0
 10
10.0501754832
 20
8.546020685
 30
0.0
 10
10.0561174544
 20
8.5600647499
 30
0.0
 10
10.0627164777
 20
8.5737755716
 30
0.0
 10
10.0699586035
 20
8.5871242738
 30
0.0
 10
10.0778285749
 20
8.6000827482
 30
0.0
 10
10.086309882
 20
8.6126236046
 30
0.0
 10
10.0953847017
 20
8.6247205297
 30
0.0
 10
10.1050335475
 20
8.6363477181
 30
0.0
 10
10.1118372905
 20
8.6437717071
 30
0.0
 10
10.1153267721
 20
8.6473962478
 30
0.0
  0
SPLINE
  5
369
100
AcDbEntity
  8
0
100
AcDbSpline
 62
7
  6
CONTINUOUS
 70
0
 71
3
 72
40
 73
36
 74
0
 42
0.0000001
 43
0.0000001
 44
0.0000000001
 40
0.0
 40
0.0
 40
0.0
 40
0.0
 40
0.0311273134
 40
0.0620555449
 40
0.0927959905
 40
0.1233658009
 40
0.1537887127
 40
0.1840939434
 40
0.2143151742
 40
0.2444893043
 40
0.2746550499
 40
0.3048514531
 40
0.3351163687
 40
0.3654850211
 40
0.3959886756
 40
0.4266535152
 40
0.4574997415
 40
0.48854093
 40
0.5197836763
 40
0.5512274844
 40
0.5828649214
 40
0.6146820032
 40
0.6466587595
 40
0.6787699908
 40
0.7109861508
 40
0.7432743324
 40
0.7755993454
 40
0.8079248365
 40
0.840214436
 40
0.8724329074
 40
0.9045472744
 40
0.9365278863
 40
0.9683494043
 40
0.9841981132
 40
1.0
 40
1.0
 40
1.0
 40
1.0
 10
10.041131429
 20
8.4244195837
 30
0.0
 10
10.041131429
 20
8.4345740121
 30
0.0
 10
10.0420758284
 20
8.4548312256
 30
0.0
 10
10.0463463507
 20
8.4848448149
 30
0.0
 10
10.0534297232
 20
8.5141381427
 30
0.0
 10
10.0632651105
 20
8.5424513082
 30
0.0
 10
10.075767072
 20
8.5695369699
 30
0.0
 10
10.0908268665
 20
8.5951571697
 30
0.0
 10
10.1083129396
 20
8.6190870082
 30
0.0
 10
10.1280721616
 20
8.6411163476
 30
0.0
 10
10.1499313658
 20
8.6610516714
 30
0.0
 10
10.1736985972
 20
8.6787181533
 30
0.0
 10
10.199165148
 20
8.6939610372
 30
0.0
 10
10.2261074277
 20
8.7066469996
 30
0.0
 10
10.2542889085
 20
8.7166656039
 30
0.0
 10
10.2834624841
 20
8.7239298216
 30
0.0
 10
10.3133725648
 20
8.7283769758
 30
0.0
 10
10.3437574049
 20
8.729969256
 30
0.0
 10
10.3743514162
 20
8.7286936179
 30
0.0
 10
10.4048874462
 20
8.7245622355
 30
0.0
 10
10.4350991147
 20
8.7176120823
 30
0.0
 10
10.4647230236
 20
8.7079044637
 30
0.0
 10
10.4935011159
 20
8.6955248081
 30
0.0
 10
10.5211827616
 20
8.6805815091
 30
0.0
 10
10.5475269169
 20
8.6632051536
 30
0.0
 10
10.5723042968
 20
8.643547507
 30
0.0
 10
10.595299107
 20
8.6217798892
 30
0.0
 10
10.6163110946
 20
8.5980920139
 30
0.0
 10
10.6351572296
 20
8.5726901901
 30
0.0
 10
10.6516730479
 20
8.5457956541
 30
0.0
 10
10.665714548
 20
8.5176421405
 30
0.0
 10
10.6771586134
 20
8.4884765567
 30
0.0
 10
10.6844586346
 20
8.4634989829
 30
0.0
 10
10.6889049103
 20
8.4432703088
 30
0.0
 10
10.690660919
 20
8.433091074
 30
0.0
 10
10.6914205194
 20
8.4279924161
 30
0.0
  0
SPLINE
  5
36A
100
AcDbEntity
  8
0
100
AcDbSpline
 62
7
  6
CONTINUOUS
 70
0
 71
3
 72
21
 73
17
 74
0
 42
0.0000001
 43
0.0000001
 44
0.0000000001
 40
0.0
 40
0.0
 40
0.0
 40
0.0
 40
0.12731758
 40
0.2538000122
 40
0.3167619425
 40
0.3795355005
 40
0.4421315041
 40
0.5045621466
 40
0.5668413435
 40
0.6289845285
 40
0.6910084568
 40
0.7529310961
 40
0.8147714484
 40
0.8765493394
 40
0.9382852242
 40
1.0
 40
1.0
 40
1.0
 40
1.0
 10
10.0549200082
 20
8.4279883292
 30
0.0
 10
10.0549200082
 20
8.4381131569
 30
0.0
 10
10.055886495
 20
8.4583094292
 30
0.0
 10
10.0595365697
 20
8.4832763844
 30
0.0
 10
10.0638992472
 20
8.5028607794
 30
0.0
 10
10.0678777771
 20
8.5173062282
 30
0.0
 10
10.0725582179
 20
8.5314950178
 30
0.0
 10
10.0779298984
 20
8.5453947979
 30
0.0
 10
10.0839803842
 20
8.5589734309
 30
0.0
 10
10.0906957597
 20
8.5721996268
 30
0.0
 10
10.0980606209
 20
8.5850428332
 30
0.0
 10
10.1060579589
 20
8.5974734545
 30
0.0
 10
10.1146693009
 20
8.609462802
 30
0.0
 10
10.1238749425
 20
8.6209832783
 30
0.0
 10
10.1336532951
 20
8.6320079359
 30
0.0
 10
10.1405402214
 20
8.6390115456
 30
0.0
 10
10.1440702009
 20
8.6424212258
 30
0.0
  0
SPLINE
  5
36B
100
AcDbEntity
  8
0
100
AcDbSpline
 62
7
  6
CONTINUOUS
 70
0
 71
3
 72
15
 73
11
 74
0
 42
0.0000001
 43
0.0000001
 44
0.0000000001
 40
0.0
 40
0.0
 40
0.0
 40
0.0
 40
0.1272174544
 40
0.2536779506
 40
0.3794192843
 40
0.5044970338
 40
0.6289895343
 40
0.7529936412
 40
0.8766220972
 40
1.0
 40
1.0
 40
1.0
 40
1.0
 10
10.0870426617
 20
8.4590164316
 30
0.0
 10
10.0870426617
 20
8.468168547
 30
0.0
 10
10.0878325846
 20
8.4864286142
 30
0.0
 10
10.0914040137
 20
8.513523801
 30
0.0
 10
10.0973319985
 20
8.5400477571
 30
0.0
 10
10.1055727737
 20
8.565798092
 30
0.0
 10
10.116064642
 20
8.5905810618
 30
0.0
 10
10.128729519
 20
8.6142100725
 30
0.0
 10
10.1434702865
 20
8.6365044541
 30
0.0
 10
10.154619673
 20
8.6503800334
 30
0.0
 10
10.1604947843
 20
8.6570331969
 30
0.0
  0
SPLINE
  5
36C
100
AcDbEntity
  8
0
100
AcDbSpline
 62
7
  6
CONTINUOUS
 70
0
 71
3
 72
21
 73
17
 74
0
 42
0.0000001
 43
0.0000001
 44
0.0000000001
 40
0.0
 40
0.0
 40
0.0
 40
0.0
 40
0.1273176899
 40
0.2537999351
 40
0.3167619508
 40
0.3795355113
 40
0.4421314924
 40
0.5045621415
 40
0.5668413449
 40
0.6289845255
 40
0.6910084484
 40
0.7529310939
 40
0.814771448
 40
0.8765493308
 40
0.9382852181
 40
1.0
 40
1.0
 40
1.0
 40
1.0
 10
10.1381757535
 20
8.4666572085
 30
0.0
 10
10.1381757535
 20
8.4754962292
 30
0.0
 10
10.1390194908
 20
8.4931276476
 30
0.0
 10
10.1422060492
 20
8.5149238902
 30
0.0
 10
10.1460146623
 20
8.5320211383
 30
0.0
 10
10.149487919
 20
8.5446320795
 30
0.0
 10
10.153573998
 20
8.5570189339
 30
0.0
 10
10.158263479
 20
8.5691534992
 30
0.0
 10
10.1635455503
 20
8.5810077105
 30
0.0
 10
10.169408139
 20
8.5925542094
 30
0.0
 10
10.1758376833
 20
8.6037663799
 30
0.0
 10
10.1828193555
 20
8.6146183825
 30
0.0
 10
10.1903371225
 20
8.6250851063
 30
0.0
 10
10.1983736941
 20
8.6351425135
 30
0.0
 10
10.2069101804
 20
8.6447671306
 30
0.0
 10
10.2129225431
 20
8.6508812596
 30
0.0
 10
10.2160042118
 20
8.6538579415
 30
0.0
  0
SPLINE
  5
36D
100
AcDbEntity
  8
0
100
AcDbSpline
 62
7
  6
CONTINUOUS
 70
0
 71
3
 72
17
 73
13
 74
0
 42
0.0000001
 43
0.0000001
 44
0.0000000001
 40
0.0
 40
0.0
 40
0.0
 40
0.0
 40
0.1268327206
 40
0.2530850181
 40
0.3787710789
 40
0.4414192008
 40
0.5039363133
 40
0.6285792429
 40
0.7527637695
 40
0.8147101562
 40
0.8765628428
 40
1.0
 40
1.0
 40
1.0
 40
1.0
 10
10.2283094116
 20
8.5537196418
 30
0.0
 10
10.2283094116
 20
8.5598551956
 30
0.0
 10
10.2287161817
 20
8.5721023305
 30
0.0
 10
10.2305537478
 20
8.5903460431
 30
0.0
 10
10.2331033432
 20
8.6053622817
 30
0.0
 10
10.2357465748
 20
8.6172079718
 30
0.0
 10
10.238782185
 20
8.6289071528
 30
0.0
 10
10.243316766
 20
8.6432830555
 30
0.0
 10
10.248829072
 20
8.6572836626
 30
0.0
 10
10.253804937
 20
8.6682017682
 30
0.0
 10
10.2591444385
 20
8.6789057391
 30
0.0
 10
10.2635680176
 20
8.6867128424
 30
0.0
 10
10.2666938916
 20
8.6918005973
 30
0.0
  0
SPLINE
  5
36E
100
AcDbEntity
  8
0
100
AcDbSpline
 62
7
  6
CONTINUOUS
 70
0
 71
3
 72
15
 73
11
 74
0
 42
0.0000001
 43
0.0000001
 44
0.0000000001
 40
0.0
 40
0.0
 40
0.0
 40
0.0
 40
0.1271896963
 40
0.2536372854
 40
0.3793786929
 40
0.5044658077
 40
0.6289727805
 40
0.7529909674
 40
0.8766271144
 40
1.0
 40
1.0
 40
1.0
 40
1.0
 10
10.2733475604
 20
8.5653763681
 30
0.0
 10
10.2733475604
 20
8.5723377021
 30
0.0
 10
10.2739363925
 20
8.5862272665
 30
0.0
 10
10.2765985414
 20
8.6068449366
 30
0.0
 10
10.2810180388
 20
8.6270427921
 30
0.0
 10
10.2871635581
 20
8.6466728537
 30
0.0
 10
10.2949908646
 20
8.6655933129
 30
0.0
 10
10.3044440864
 20
8.6836673877
 30
0.0
 10
10.3154536249
 20
8.7007623641
 30
0.0
 10
10.3237873711
 20
8.7114355045
 30
0.0
 10
10.3281810237
 20
8.7165629956
 30
0.0
  0
SPLINE
  5
36F
100
AcDbEntity
  8
0
100
AcDbSpline
 62
7
  6
CONTINUOUS
 70
0
 71
3
 72
15
 73
11
 74
0
 42
0.0000001
 43
0.0000001
 44
0.0000000001
 40
0.0
 40
0.0
 40
0.0
 40
0.0
 40
0.1272007975
 40
0.253653564
 40
0.3793950902
 40
0.5044785531
 40
0.6289798351
 40
0.7529924083
 40
0.8766253758
 40
1.0
 40
1.0
 40
1.0
 40
1.0
 10
10.2813709478
 20
8.5689731531
 30
0.0
 10
10.2813709478
 20
8.5758763804
 30
0.0
 10
10.2819595698
 20
8.5896498129
 30
0.0
 10
10.2846208231
 20
8.6100921146
 30
0.0
 10
10.2890385266
 20
8.6301123772
 30
0.0
 10
10.2951808589
 20
8.6495615342
 30
0.0
 10
10.3030028939
 20
8.6682967939
 30
0.0
 10
10.3124478914
 20
8.6861804979
 30
0.0
 10
10.3234451719
 20
8.7030791965
 30
0.0
 10
10.3317670799
 20
8.7136167909
 30
0.0
 10
10.3361536098
 20
8.7186753622
 30
0.0
  0
SPLINE
  5
370
100
AcDbEntity
  8
0
100
AcDbSpline
 62
7
  6
CONTINUOUS
 70
0
 71
3
 72
11
 73
7
 74
0
 42
0.0000001
 43
0.0000001
 44
0.0000000001
 40
0.0
 40
0.0
 40
0.0
 40
0.0
 40
0.252076388
 40
0.5027063705
 40
0.7519755813
 40
1.0
 40
1.0
 40
1.0
 40
1.0
 10
10.3522362255
 20
8.6449206217
 30
0.0
 10
10.3524501647
 20
8.6517085804
 30
0.0
 10
10.3534502026
 20
8.6652347081
 30
0.0
 10
10.3566754087
 20
8.6852604
 30
0.0
 10
10.3615980599
 20
8.7048254916
 30
0.0
 10
10.3660003842
 20
8.7175011391
 30
0.0
 10
10.3684705512
 20
8.7237099696
 30
0.0
  0
SPLINE
  5
371
100
AcDbEntity
  8
0
100
AcDbSpline
 62
7
  6
CONTINUOUS
 70
0
 71
3
 72
11
 73
7
 74
0
 42
0.0000001
 43
0.0000001
 44
0.0000000001
 40
0.0
 40
0.0
 40
0.0
 40
0.0
 40
0.2521607862
 40
0.5028257246
 40
0.7520693597
 40
1.0
 40
1.0
 40
1.0
 40
1.0
 10
10.3907906107
 20
8.6473176501
 30
0.0
 10
10.3907906107
 20
8.6535249658
 30
0.0
 10
10.3913247014
 20
8.6659096421
 30
0.0
 10
10.3937397027
 20
8.6842881101
 30
0.0
 10
10.3977476904
 20
8.7022797005
 30
0.0
 10
10.4014728379
 20
8.7139581816
 30
0.0
 10
10.4035890615
 20
8.7196827303
 30
0.0
  0
SPLINE
  5
372
100
AcDbEntity
  8
0
100
AcDbSpline
 62
7
  6
CONTINUOUS
 70
0
 71
3
 72
11
 73
7
 74
0
 42
0.0000001
 43
0.0000001
 44
0.0000000001
 40
0.0
 40
0.0
 40
0.0
 40
0.0
 40
0.2520613847
 40
0.5027015502
 40
0.7519832811
 40
1.0
 40
1.0
 40
1.0
 40
1.0
 10
10.398813998
 20
8.6509144351
 30
0.0
 10
10.398813998
 20
8.6567014298
 30
0.0
 10
10.3992870103
 20
8.6682485543
 30
0.0
 10
10.4014254986
 20
8.6853997191
 30
0.0
 10
10.4049762098
 20
8.7022203754
 30
0.0
 10
10.4082782689
 20
8.7131668528
 30
0.0
 10
10.4101553778
 20
8.7185426905
 30
0.0
  0
SPLINE
  5
373
100
AcDbEntity
  8
0
100
AcDbSpline
 62
7
  6
CONTINUOUS
 70
0
 71
3
 72
23
 73
19
 74
0
 42
0.0000001
 43
0.0000001
 44
0.0000000001
 40
0.0
 40
0.0
 40
0.0
 40
0.0
 40
0.0614245661
 40
0.1232859531
 40
0.1855568515
 40
0.2481901847
 40
0.3111243428
 40
0.3742852742
 40
0.4375896516
 40
0.5009483382
 40
0.5642700148
 40
0.6274648529
 40
0.6904481451
 40
0.7531438126
 40
0.81548763
 40
0.8774300752
 40
0.9389387314
 40
1.0
 40
1.0
 40
1.0
 40
1.0
 10
10.4504365827
 20
8.6907780258
 30
0.0
 10
10.4504365827
 20
8.6836259398
 30
0.0
 10
10.4511989328
 20
8.6692598892
 30
0.0
 10
10.4545871344
 20
8.6478844968
 30
0.0
 10
10.4601852655
 20
8.6268313654
 30
0.0
 10
10.4679303803
 20
8.6063377822
 30
0.0
 10
10.477735503
 20
8.5866307095
 30
0.0
 10
10.489491221
 20
8.5679294078
 30
0.0
 10
10.5030664391
 20
8.5504415666
 30
0.0
 10
10.5183100553
 20
8.5343615089
 30
0.0
 10
10.5350526486
 20
8.5198680827
 30
0.0
 10
10.5531080811
 20
8.5071224572
 30
0.0
 10
10.572275794
 20
8.496266686
 30
0.0
 10
10.5923428897
 20
8.4874219635
 30
0.0
 10
10.6130860785
 20
8.4806871931
 30
0.0
 10
10.6342756083
 20
8.4761382797
 30
0.0
 10
10.6556723751
 20
8.473826559
 30
0.0
 10
10.6699757985
 20
8.4737950352
 30
0.0
 10
10.6770761739
 20
8.4741606959
 30
0.0
  0
SPLINE
  5
374
100
AcDbEntity
  8
0
100
AcDbSpline
 62
7
  6
CONTINUOUS
 70
0
 71
3
 72
39
 73
35
 74
0
 42
0.0000001
 43
0.0000001
 44
0.0000000001
 40
0.0
 40
0.0
 40
0.0
 40
0.0
 40
0.0313281614
 40
0.0628641203
 40
0.0945965856
 40
0.1265061994
 40
0.1585673748
 40
0.1907491066
 40
0.2230161151
 40
0.2553301373
 40
0.287651269
 40
0.3199393593
 40
0.3521554097
 40
0.3842629354
 40
0.4162292816
 40
0.4480268214
 40
0.4796340302
 40
0.5110363798
 40
0.5422270022
 40
0.5732071183
 40
0.6039861352
 40
0.634581456
 40
0.6650179099
 40
0.6953268687
 40
0.7255450242
 40
0.7557129009
 40
0.7858731604
 40
0.816068789
 40
0.8463412673
 40
0.8767288221
 40
0.9072648631
 40
0.9379766473
 40
0.9688840719
 40
1.0
 40
1.0
 40
1.0
 40
1.0
 10
10.041131429
 20
8.4244195837
 30
0.0
 10
10.041131429
 20
8.413687529
 30
0.0
 10
10.0421933159
 20
8.392137924
 30
0.0
 10
10.046918151
 20
8.3600303562
 30
0.0
 10
10.0547337506
 20
8.3283246376
 30
0.0
 10
10.0655640964
 20
8.2973292645
 30
0.0
 10
10.0793043786
 20
8.267340708
 30
0.0
 10
10.0958220846
 20
8.2386470356
 30
0.0
 10
10.1149581255
 20
8.2115233821
 30
0.0
 10
10.1365286719
 20
8.1862300863
 30
0.0
 10
10.160326431
 20
8.1630097472
 30
0.0
 10
10.1861231283
 20
8.1420854354
 30
0.0
 10
10.2136711643
 20
8.1236580866
 30
0.0
 10
10.2427063371
 20
8.1079050428
 30
0.0
 10
10.2729500691
 20
8.0949780663
 30
0.0
 10
10.3041121271
 20
8.0850019828
 30
0.0
 10
10.3358933483
 20
8.0780736227
 30
0.0
 10
10.3679883599
 20
8.0742604656
 30
0.0
 10
10.4000885441
 20
8.0736005342
 30
0.0
 10
10.4318848688
 20
8.0761012347
 30
0.0
 10
10.4630708506
 20
8.0817399023
 30
0.0
 10
10.493345511
 20
8.0904632874
 30
0.0
 10
10.5224162865
 20
8.1021883482
 30
0.0
 10
10.5500019088
 20
8.1168027841
 30
0.0
 10
10.5758353486
 20
8.1341659141
 30
0.0
 10
10.599666299
 20
8.1541103413
 30
0.0
 10
10.6212641284
 20
8.1764430816
 30
0.0
 10
10.6404197592
 20
8.2009480742
 30
0.0
 10
10.6569483133
 20
8.227387835
 30
0.0
 10
10.6706904668
 20
8.2555064364
 30
0.0
 10
10.6815143018
 20
8.2850314158
 30
0.0
 10
10.6893163652
 20
8.3156782832
 30
0.0
 10
10.6940225929
 20
8.3471472158
 30
0.0
 10
10.6950632522
 20
8.3684099076
 30
0.0
 10
10.6950632522
 20
8.3790692577
 30
0.0
  0
SPLINE
  5
375
100
AcDbEntity
  8
0
100
AcDbSpline
 62
7
  6
CONTINUOUS
 70
0
 71
3
 72
41
 73
37
 74
0
 42
0.0000001
 43
0.0000001
 44
0.0000000001
 40
0.0
 40
0.0
 40
0.0
 40
0.0
 40
0.0310750003
 40
0.046674464
 40
0.062312494
 40
0.0936974057
 40
0.1252262387
 40
0.1568876805
 40
0.1886675201
 40
0.2205491599
 40
0.2525139229
 40
0.268523588
 40
0.2845462912
 40
0.3166149974
 40
0.3487024468
 40
0.3807858411
 40
0.4128424624
 40
0.4448501254
 40
0.4767876212
 40
0.5086351486
 40
0.5403747235
 40
0.5719905626
 40
0.6034694315
 40
0.6348009518
 40
0.6659778585
 40
0.6969962
 40
0.7278554736
 40
0.7585586902
 40
0.7891123605
 40
0.8195263996
 40
0.849813947
 40
0.8799911023
 40
0.9100765789
 40
0.9400912834
 40
0.9700578297
 40
1.0
 40
1.0
 40
1.0
 40
1.0
 10
10.0549200082
 20
8.4279883292
 30
0.0
 10
10.0549200082
 20
8.4201188017
 30
0.0
 10
10.0553598968
 20
8.4082928781
 30
0.0
 10
10.0568126828
 20
8.392577209
 30
0.0
 10
10.0588483335
 20
8.3768464943
 30
0.0
 10
10.0624771127
 20
8.3572684297
 30
0.0
 10
10.0685299208
 20
8.3340746586
 30
0.0
 10
10.076253135
 20
8.3112764403
 30
0.0
 10
10.08560421
 20
8.2889995018
 30
0.0
 10
10.0965312476
 20
8.2673664902
 30
0.0
 10
10.1068965553
 20
8.249981147
 30
0.0
 10
10.1159120714
 20
8.2365099675
 30
0.0
 10
10.1254052363
 20
8.2233385374
 30
0.0
 10
10.1381290655
 20
8.2074922668
 30
0.0
 10
10.1546791572
 20
8.1895753713
 30
0.0
 10
10.1724263883
 20
8.1728470848
 30
0.0
 10
10.1912729372
 20
8.1573998452
 30
0.0
 10
10.2111155002
 20
8.1433183215
 30
0.0
 10
10.2318451733
 20
8.1306799233
 30
0.0
 10
10.2533482249
 20
8.1195541186
 30
0.0
 10
10.2755066627
 20
8.1100021245
 30
0.0
 10
10.2981988855
 20
8.102076553
 30
0.0
 10
10.3213003381
 20
8.0958211252
 30
0.0
 10
10.3446841853
 20
8.0912704276
 30
0.0
 10
10.3682219987
 20
8.0884497161
 30
0.0
 10
10.3917844523
 20
8.0873747695
 30
0.0
 10
10.4152420246
 20
8.0880517917
 30
0.0
 10
10.4384657041
 20
8.0904773649
 30
0.0
 10
10.4613276948
 20
8.0946384478
 30
0.0
 10
10.4837021226
 20
8.1005124356
 30
0.0
 10
10.5054657208
 20
8.1080672573
 30
0.0
 10
10.5264985592
 20
8.1172615765
 30
0.0
 10
10.5466845613
 20
8.1280448508
 30
0.0
 10
10.5659127432
 20
8.1403581716
 30
0.0
 10
10.5840756789
 20
8.1541324522
 30
0.0
 10
10.5954122169
 20
8.1642433537
 30
0.0
 10
10.600866084
 20
8.1695113568
 30
0.0
  0
SPLINE
  5
376
100
AcDbEntity
  8
0
100
AcDbSpline
 62
7
  6
CONTINUOUS
 70
0
 71
3
 72
44
 73
40
 74
0
 42
0.0000001
 43
0.0000001
 44
0.0000000001
 40
0.0
 40
0.0
 40
0.0
 40
0.0
 40
0.0310315912
 40
0.0466074312
 40
0.0622205917
 40
0.0935528579
 40
0.1250253994
 40
0.1566278604
 40
0.18834723
 40
0.2201682739
 40
0.2520738012
 40
0.2840450206
 40
0.3160619019
 40
0.3481035586
 40
0.3801486412
 40
0.4121757361
 40
0.4441637657
 40
0.4760923842
 40
0.5079423636
 40
0.5396959646
 40
0.5713372875
 40
0.6028525954
 40
0.6342306064
 40
0.6654627461
 40
0.6965433551
 40
0.727469845
 40
0.7582427966
 40
0.7888659956
 40
0.8193463995
 40
0.8345387205
 40
0.8496993469
 40
0.8648299882
 40
0.8799325071
 40
0.9100560024
 40
0.9400930982
 40
0.955088134
 40
0.9700691454
 40
0.9850388414
 40
1.0
 40
1.0
 40
1.0
 40
1.0
 10
10.0870426617
 20
8.4590164316
 30
0.0
 10
10.0870426617
 20
8.451385225
 30
0.0
 10
10.087456267
 20
8.4399182258
 30
0.0
 10
10.0888227123
 20
8.424675975
 30
0.0
 10
10.0907374164
 20
8.4094176632
 30
0.0
 10
10.0941510456
 20
8.3904203926
 30
0.0
 10
10.0998471396
 20
8.3678947352
 30
0.0
 10
10.1071185073
 20
8.3457266174
 30
0.0
 10
10.1159273714
 20
8.3240311803
 30
0.0
 10
10.1262281116
 20
8.3029202302
 30
0.0
 10
10.1379674232
 20
8.2825027806
 30
0.0
 10
10.1510846063
 20
8.2628841956
 30
0.0
 10
10.165511876
 20
8.2441657341
 30
0.0
 10
10.1811747101
 20
8.2264440109
 30
0.0
 10
10.1979922307
 20
8.2098105089
 30
0.0
 10
10.2158776186
 20
8.1943511105
 30
0.0
 10
10.2347385565
 20
8.1801456581
 30
0.0
 10
10.2544777008
 20
8.1672675457
 30
0.0
 10
10.2749931786
 20
8.1557833423
 30
0.0
 10
10.2961791074
 20
8.1457524503
 30
0.0
 10
10.3179261347
 20
8.1372267999
 30
0.0
 10
10.3401219948
 20
8.1302505798
 30
0.0
 10
10.3626520828
 20
8.1248600081
 30
0.0
 10
10.3854000309
 20
8.1210831388
 30
0.0
 10
10.4082483278
 20
8.1189397202
 30
0.0
 10
10.4310788241
 20
8.1184410567
 30
0.0
 10
10.4537736855
 20
8.1195900472
 30
0.0
 10
10.4762147054
 20
8.1223807656
 30
0.0
 10
10.4946305947
 20
8.1260675887
 30
0.0
 10
10.5091151163
 20
8.1298206629
 30
0.0
 10
10.5198328135
 20
8.1330300864
 30
0.0
 10
10.5304015138
 20
8.1366326778
 30
0.0
 10
10.5442626468
 20
8.1419490257
 30
0.0
 10
10.5611573725
 20
8.1495538895
 30
0.0
 10
10.5774009137
 20
8.1584107957
 30
0.0
 10
10.5899336285
 20
8.1662099391
 30
0.0
 10
10.5990893205
 20
8.1724070513
 30
0.0
 10
10.607993198
 20
8.1789462268
 30
0.0
 10
10.6137553118
 20
8.1835295695
 30
0.0
 10
10.6165900649
 20
8.1858749372
 30
0.0
  0
SPLINE
  5
377
100
AcDbEntity
  8
0
100
AcDbSpline
 62
7
  6
CONTINUOUS
 70
0
 71
3
 72
40
 73
36
 74
0
 42
0.0000001
 43
0.0000001
 44
0.0000000001
 40
0.0
 40
0.0
 40
0.0
 40
0.0
 40
0.0310751026
 40
0.0466747499
 40
0.0623128135
 40
0.0936978535
 40
0.1252268452
 40
0.1568884395
 40
0.1886684333
 40
0.2205502276
 40
0.2525151451
 40
0.284542837
 40
0.3166116973
 40
0.3486993002
 40
0.3807828479
 40
0.4128396226
 40
0.444847439
 40
0.4767850884
 40
0.5086327693
 40
0.5403724975
 40
0.5719884894
 40
0.6034675105
 40
0.6347991821
 40
0.6659762393
 40
0.6969947303
 40
0.7278541529
 40
0.758557518
 40
0.7891113365
 40
0.8195255235
 40
0.8498132183
 40
0.8799905205
 40
0.9100761434
 40
0.9400909936
 40
0.970057685
 40
1.0
 40
1.0
 40
1.0
 40
1.0
 10
10.1381757535
 20
8.4666572085
 30
0.0
 10
10.1381757535
 20
8.4597870917
 30
0.0
 10
10.1385597791
 20
8.4494630021
 30
0.0
 10
10.1398280676
 20
8.4357431591
 30
0.0
 10
10.1416051899
 20
8.4220101749
 30
0.0
 10
10.1447731333
 20
8.4049184624
 30
0.0
 10
10.1500572466
 20
8.3846702207
 30
0.0
 10
10.1567996597
 20
8.364767265
 30
0.0
 10
10.1649631252
 20
8.3453195003
 30
0.0
 10
10.1745026974
 20
8.3264334739
 30
0.0
 10
10.1853658949
 20
8.3082128658
 30
0.0
 10
10.1974930044
 20
8.2907576386
 30
0.0
 10
10.210817405
 20
8.2741635743
 30
0.0
 10
10.2252659308
 20
8.2585217329
 30
0.0
 10
10.2407592693
 20
8.2439179643
 30
0.0
 10
10.2572123923
 20
8.2304324406
 30
0.0
 10
10.2745350177
 20
8.2181392202
 30
0.0
 10
10.2926320995
 20
8.2071058449
 30
0.0
 10
10.3114043429
 20
8.1973929719
 30
0.0
 10
10.3307487422
 20
8.1890540418
 30
0.0
 10
10.3505591385
 20
8.1821349862
 30
0.0
 10
10.3707267945
 20
8.1766739739
 30
0.0
 10
10.3911409822
 20
8.1727011988
 30
0.0
 10
10.411689583
 20
8.1702387089
 30
0.0
 10
10.4322596946
 20
8.1693002783
 30
0.0
 10
10.4527382443
 20
8.1698913219
 30
0.0
 10
10.4730126052
 20
8.1720088541
 30
0.0
 10
10.4929712111
 20
8.175641491
 30
0.0
 10
10.5125041735
 20
8.1807695004
 30
0.0
 10
10.5315038792
 20
8.1873648856
 30
0.0
 10
10.5498656287
 20
8.19539156
 30
0.0
 10
10.5674880845
 20
8.2048054015
 30
0.0
 10
10.5842743631
 20
8.2155549762
 30
0.0
 10
10.6001306575
 20
8.2275799949
 30
0.0
 10
10.6100275322
 20
8.2364068157
 30
0.0
 10
10.6147887524
 20
8.2410058299
 30
0.0
  0
SPLINE
  5
378
100
AcDbEntity
  8
0
100
AcDbSpline
 62
7
  6
CONTINUOUS
 70
0
 71
3
 72
41
 73
37
 74
0
 42
0.0000001
 43
0.0000001
 44
0.0000000001
 40
0.0
 40
0.0
 40
0.0
 40
0.0
 40
0.0309273043
 40
0.0619964414
 40
0.0932030003
 40
0.1245413157
 40
0.1560027921
 40
0.1875770387
 40
0.2192516745
 40
0.2510126914
 40
0.2828446523
 40
0.3147309671
 40
0.3466541639
 40
0.3785961757
 40
0.4105386326
 40
0.4424631574
 40
0.4743516613
 40
0.5061866369
 40
0.5379514437
 40
0.5696305849
 40
0.6012099696
 40
0.6326771576
 40
0.6640215841
 40
0.6952347587
 40
0.7263104348
 40
0.7572447472
 40
0.7880363111
 40
0.8186862814
 40
0.8491983667
 40
0.864406798
 40
0.8795832999
 40
0.9098407446
 40
0.9399861813
 40
0.9550232349
 40
0.970037368
 40
1.0
 40
1.0
 40
1.0
 40
1.0
 10
10.2283094116
 20
8.5537196418
 30
0.0
 10
10.2283094116
 20
8.547537476
 30
0.0
 10
10.2287242631
 20
8.5351409279
 30
0.0
 10
10.2305781251
 20
8.5165898677
 30
0.0
 10
10.23365671
 20
8.4981183619
 30
0.0
 10
10.237946068
 20
8.479809782
 30
0.0
 10
10.2434270733
 20
8.4617452494
 30
0.0
 10
10.2500751804
 20
8.4440052303
 30
0.0
 10
10.2578607394
 20
8.4266686078
 30
0.0
 10
10.2667490242
 20
8.4098124962
 30
0.0
 10
10.2767004342
 20
8.3935118593
 30
0.0
 10
10.2876706505
 20
8.3778391905
 30
0.0
 10
10.2996108398
 20
8.3628641919
 30
0.0
 10
10.3124678678
 20
8.3486534673
 30
0.0
 10
10.3261845342
 20
8.3352702286
 30
0.0
 10
10.3406998255
 20
8.3227740169
 30
0.0
 10
10.3559491835
 20
8.3112204402
 30
0.0
 10
10.3718647905
 20
8.3006609272
 30
0.0
 10
10.388375867
 20
8.2911424994
 30
0.0
 10
10.4054089838
 20
8.2827075623
 30
0.0
 10
10.4228883863
 20
8.275393719
 30
0.0
 10
10.4407363264
 20
8.2692336022
 30
0.0
 10
10.4588734068
 20
8.2642547288
 30
0.0
 10
10.4772189242
 20
8.260479375
 30
0.0
 10
10.4956912426
 20
8.2579244787
 30
0.0
 10
10.514208088
 20
8.2566015479
 30
0.0
 10
10.5326871472
 20
8.2565166522
 30
0.0
 10
10.5510455583
 20
8.2576702163
 30
0.0
 10
10.5661940626
 20
8.2596619706
 30
0.0
 10
10.5781674804
 20
8.2618682589
 30
0.0
 10
10.5900081797
 20
8.2644743862
 30
0.0
 10
10.6045872742
 20
8.2684850913
 30
0.0
 10
10.618825438
 20
8.2734924314
 30
0.0
 10
10.6299529312
 20
8.2780777109
 30
0.0
 10
10.6408784871
 20
8.2830362415
 30
0.0
 10
10.6488660212
 20
8.2871844311
 30
0.0
 10
10.6540799034
 20
8.2901318972
 30
0.0
  0
SPLINE
  5
379
100
AcDbEntity
  8
0
100
AcDbSpline
 62
7
  6
CONTINUOUS
 70
0
 71
3
 72
41
 73
37
 74
0
 42
0.0000001
 43
0.0000001
 44
0.0000000001
 40
0.0
 40
0.0
 40
0.0
 40
0.0
 40
0.0310227477
 40
0.0621972858
 40
0.0935188053
 40
0.1249799355
 40
0.1565703689
 40
0.1882773888
 40
0.2200860213
 40
0.251979383
 40
0.2839389996
 40
0.3159451649
 40
0.3479773102
 40
0.380014388
 40
0.4120352593
 40
0.4440190845
 40
0.4759457082
 40
0.507796037
 40
0.5395524021
 40
0.5711989031
 40
0.6027217263
 40
0.6341094329
 40
0.6653532096
 40
0.6964470769
 40
0.727388048
 40
0.7581762327
 40
0.7888148816
 40
0.819310364
 40
0.8496720789
 40
0.864809143
 40
0.8799175892
 40
0.910051215
 40
0.9400955017
 40
0.9550928028
 40
0.9700751197
 40
1.0
 40
1.0
 40
1.0
 40
1.0
 10
10.2733475604
 20
8.5653763681
 30
0.0
 10
10.2733475604
 20
8.559492327
 30
0.0
 10
10.2737703692
 20
8.5476912483
 30
0.0
 10
10.2756587034
 20
8.5300404643
 30
0.0
 10
10.278792938
 20
8.5124826349
 30
0.0
 10
10.2831568943
 20
8.4951084916
 30
0.0
 10
10.2887282039
 20
8.4780062543
 30
0.0
 10
10.295478325
 20
8.4612631665
 30
0.0
 10
10.3033727526
 20
8.4449645096
 30
0.0
 10
10.3123711628
 20
8.4291933226
 30
0.0
 10
10.322427633
 20
8.4140299449
 30
0.0
 10
10.3334908685
 20
8.3995516215
 30
0.0
 10
10.345504465
 20
8.3858321117
 30
0.0
 10
10.3584071929
 20
8.3729413175
 30
0.0
 10
10.3721333067
 20
8.3609449311
 30
0.0
 10
10.3866128768
 20
8.3499041029
 30
0.0
 10
10.4017721424
 20
8.3398751328
 30
0.0
 10
10.4175338829
 20
8.3309091849
 30
0.0
 10
10.433817807
 20
8.3230520289
 30
0.0
 10
10.4505409566
 20
8.3163438069
 30
0.0
 10
10.4676181246
 20
8.3108188291
 30
0.0
 10
10.4849622823
 20
8.3065053972
 30
0.0
 10
10.5024850192
 20
8.3034256589
 30
0.0
 10
10.5200969823
 20
8.3015954885
 30
0.0
 10
10.5377083448
 20
8.3010244083
 30
0.0
 10
10.5552291916
 20
8.3017155074
 30
0.0
 10
10.5725702254
 20
8.3036655112
 30
0.0
 10
10.5896422909
 20
8.3068644433
 30
0.0
 10
10.6035885814
 20
8.3105620758
 30
0.0
 10
10.6145199703
 20
8.3141257286
 30
0.0
 10
10.6252698273
 20
8.3180808602
 30
0.0
 10
10.6383856055
 20
8.3237632447
 30
0.0
 10
10.6510159181
 20
8.3304108113
 30
0.0
 10
10.6607738682
 20
8.3362802383
 30
0.0
 10
10.67028188
 20
8.3425041401
 30
0.0
 10
10.6771386243
 20
8.3475755081
 30
0.0
 10
10.6815693646
 20
8.3511228113
 30
0.0
  0
SPLINE
  5
37A
100
AcDbEntity
  8
0
100
AcDbSpline
 62
7
  6
CONTINUOUS
 70
0
 71
3
 72
41
 73
37
 74
0
 42
0.0000001
 43
0.0000001
 44
0.0000000001
 40
0.0
 40
0.0
 40
0.0
 40
0.0
 40
0.0310247478
 40
0.0622014985
 40
0.0935254374
 40
0.1249891522
 40
0.1565822971
 40
0.1882921015
 40
0.2201035325
 40
0.2519996414
 40
0.2839618851
 40
0.3159704878
 40
0.3480048121
 40
0.3800437451
 40
0.4120660886
 40
0.4440509511
 40
0.4759781358
 40
0.5078285197
 40
0.5395844184
 40
0.5712299306
 40
0.6027512586
 40
0.6341369965
 40
0.6653783816
 40
0.6964695024
 40
0.7274074569
 40
0.7581924559
 40
0.788827864
 40
0.8193201771
 40
0.8496789286
 40
0.8648146406
 40
0.879921839
 40
0.9100533338
 40
0.9400961141
 40
0.955092946
 40
0.9700749979
 40
1.0
 40
1.0
 40
1.0
 40
1.0
 10
10.2813709478
 20
8.5689731531
 30
0.0
 10
10.2813709478
 20
8.563176652
 30
0.0
 10
10.2817880608
 20
8.5515510945
 30
0.0
 10
10.2836509345
 20
8.5341630403
 30
0.0
 10
10.2867428743
 20
8.5168669414
 30
0.0
 10
10.291047877
 20
8.4997524289
 30
0.0
 10
10.2965438118
 20
8.482906652
 30
0.0
 10
10.3032024442
 20
8.4664157888
 30
0.0
 10
10.31098964
 20
8.4503640744
 30
0.0
 10
10.3198655103
 20
8.4348335215
 30
0.0
 10
10.3297846296
 20
8.4199034677
 30
0.0
 10
10.3406962604
 20
8.4056501854
 30
0.0
 10
10.3525446139
 20
8.3921464931
 30
0.0
 10
10.3652691315
 20
8.3794613886
 30
0.0
 10
10.3788047923
 20
8.3676596994
 30
0.0
 10
10.3930824415
 20
8.3568017545
 30
0.0
 10
10.4080291409
 20
8.3469430787
 30
0.0
 10
10.4235685368
 20
8.3381341109
 30
0.0
 10
10.439621246
 20
8.3304199477
 30
0.0
 10
10.4561052564
 20
8.3238401136
 30
0.0
 10
10.4729363407
 20
8.318428359
 30
0.0
 10
10.4900284806
 20
8.3142124862
 30
0.0
 10
10.5072943023
 20
8.3112142054
 30
0.0
 10
10.5246455122
 20
8.309449018
 30
0.0
 10
10.5419933611
 20
8.3089261388
 30
0.0
 10
10.5592490264
 20
8.3096484173
 30
0.0
 10
10.576324311
 20
8.3116124074
 30
0.0
 10
10.5931311755
 20
8.3148080301
 30
0.0
 10
10.6068575578
 20
8.3184884403
 30
0.0
 10
10.6176144498
 20
8.3220296331
 30
0.0
 10
10.6281913108
 20
8.3259566446
 30
0.0
 10
10.6410931968
 20
8.3315931688
 30
0.0
 10
10.6535132929
 20
8.338180575
 30
0.0
 10
10.6631061511
 20
8.3439934767
 30
0.0
 10
10.6724515425
 20
8.3501554865
 30
0.0
 10
10.6791887225
 20
8.355174154
 30
0.0
 10
10.6835411079
 20
8.3586836215
 30
0.0
  0
SPLINE
  5
37B
100
AcDbEntity
  8
0
100
AcDbSpline
 62
7
  6
CONTINUOUS
 70
0
 71
3
 72
37
 73
33
 74
0
 42
0.0000001
 43
0.0000001
 44
0.0000000001
 40
0.0
 40
0.0
 40
0.0
 40
0.0
 40
0.0308828453
 40
0.0618939917
 40
0.0930276464
 40
0.1242796855
 40
0.155642344
 40
0.1871070643
 40
0.2186636544
 40
0.250300708
 40
0.2820057225
 40
0.3137652761
 40
0.3455652173
 40
0.3773908529
 40
0.441033368
 40
0.5045974823
 40
0.5363262183
 40
0.5679923225
 40
0.5995828975
 40
0.6310860688
 40
0.6624911581
 40
0.6937888402
 40
0.7249712849
 40
0.7560322809
 40
0.7869673419
 40
0.8177737917
 40
0.8484508289
 40
0.8789995621
 40
0.9094230159
 40
0.9397261082
 40
0.9699155976
 40
1.0
 40
1.0
 40
1.0
 40
1.0
 10
10.3522362255
 20
8.6296788358
 30
0.0
 10
10.3523907713
 20
8.6247539011
 30
0.0
 10
10.3529997297
 20
8.6148904278
 30
0.0
 10
10.3548013421
 20
8.6001491681
 30
0.0
 10
10.3574866331
 20
8.5854826629
 30
0.0
 10
10.3610453695
 20
8.5709457899
 30
0.0
 10
10.3654645638
 20
8.5565917533
 30
0.0
 10
10.3707278013
 20
8.5424735012
 30
0.0
 10
10.3768157009
 20
8.5286429792
 30
0.0
 10
10.3837057801
 20
8.5151511074
 30
0.0
 10
10.3913726605
 20
8.5020475093
 30
0.0
 10
10.3997879741
 20
8.4893805174
 30
0.0
 10
10.4089211434
 20
8.4771963497
 30
0.0
 10
10.4220074175
 20
8.4616581136
 30
0.0
 10
10.4399809733
 20
8.4436661931
 30
0.0
 10
10.459862804
 20
8.4278326129
 30
0.0
 10
10.4767346094
 20
8.4166061741
 30
0.0
 10
10.4898178283
 20
8.4089404704
 30
0.0
 10
10.5032868281
 20
8.4020544113
 30
0.0
 10
10.5170924768
 20
8.3959730225
 30
0.0
 10
10.5311838349
 20
8.3907188298
 30
0.0
 10
10.5455090603
 20
8.3863112025
 30
0.0
 10
10.5600154051
 20
8.382766438
 30
0.0
 10
10.5746494575
 20
8.3800976597
 30
0.0
 10
10.5893573211
 20
8.378314779
 30
0.0
 10
10.6040848162
 20
8.3774244531
 30
0.0
 10
10.6187776705
 20
8.3774300307
 30
0.0
 10
10.6333817452
 20
8.3783315743
 30
0.0
 10
10.6478431477
 20
8.3801258236
 30
0.0
 10
10.6621087405
 20
8.3828063245
 30
0.0
 10
10.6761251754
 20
8.3863630055
 30
0.0
 10
10.6852855989
 20
8.3893150554
 30
0.0
 10
10.6898049605
 20
8.3909321693
 30
0.0
  0
SPLINE
  5
37C
100
AcDbEntity
  8
0
100
AcDbSpline
 62
7
  6
CONTINUOUS
 70
0
 71
3
 72
37
 73
33
 74
0
 42
0.0000001
 43
0.0000001
 44
0.0000000001
 40
0.0
 40
0.0
 40
0.0
 40
0.0
 40
0.0308100313
 40
0.0617507115
 40
0.0928161268
 40
0.1240036238
 40
0.1553060288
 40
0.1867154569
 40
0.2182223358
 40
0.2498157358
 40
0.281483565
 40
0.3132126982
 40
0.3449891763
 40
0.3767983987
 40
0.4404289166
 40
0.504008043
 40
0.5357537454
 40
0.567442495
 40
0.5990608864
 40
0.6305964696
 40
0.6620379299
 40
0.6933752621
 40
0.7245999203
 40
0.7557049487
 40
0.7866850946
 40
0.8175369092
 40
0.8482588266
 40
0.8788512059
 40
0.909316347
 40
0.9396584765
 40
0.9698837132
 40
1.0
 40
1.0
 40
1.0
 40
1.0
 10
10.3907906107
 20
8.6473176501
 30
0.0
 10
10.3907906107
 20
8.6429162133
 30
0.0
 10
10.3910604133
 20
8.6340923743
 30
0.0
 10
10.3922667363
 20
8.6208802533
 30
0.0
 10
10.3942712786
 20
8.6077105209
 30
0.0
 10
10.39706621
 20
8.5946329956
 30
0.0
 10
10.4006412971
 20
8.5816959319
 30
0.0
 10
10.4049831285
 20
8.5689475289
 30
0.0
 10
10.4100755177
 20
8.5564351155
 30
0.0
 10
10.4158994824
 20
8.5442051871
 30
0.0
 10
10.4224333696
 20
8.5323031472
 30
0.0
 10
10.4296527907
 20
8.5207733166
 30
0.0
 10
10.4375312811
 20
8.5096581652
 30
0.0
 10
10.4488737081
 20
8.4954478282
 30
0.0
 10
10.4645435663
 20
8.4789282851
 30
0.0
 10
10.4819819194
 20
8.4643015985
 30
0.0
 10
10.4968376788
 20
8.4538688844
 30
0.0
 10
10.5083854075
 20
8.4467099502
 30
0.0
 10
10.5202990521
 20
8.4402414821
 30
0.0
 10
10.5325347556
 20
8.4344872225
 30
0.0
 10
10.5450469589
 20
8.4294686951
 30
0.0
 10
10.5577891925
 20
8.4252045482
 30
0.0
 10
10.5707141027
 20
8.4217106842
 30
0.0
 10
10.5837736613
 20
8.4190001503
 30
0.0
 10
10.5969193293
 20
8.4170831122
 30
0.0
 10
10.6101022319
 20
8.4159667696
 30
0.0
 10
10.6232733401
 20
8.4156553207
 30
0.0
 10
10.636383677
 20
8.4161500001
 30
0.0
 10
10.6493844161
 20
8.4174490338
 30
0.0
 10
10.6622273433
 20
8.4195477507
 30
0.0
 10
10.6748639811
 20
8.4224381946
 30
0.0
 10
10.6831351923
 20
8.4248905369
 30
0.0
 10
10.687218865
 20
8.4262446654
 30
0.0
  0
SPLINE
  5
37D
100
AcDbEntity
  8
0
100
AcDbSpline
 62
7
  6
CONTINUOUS
 70
0
 71
3
 72
37
 73
33
 74
0
 42
0.0000001
 43
0.0000001
 44
0.0000000001
 40
0.0
 40
0.0
 40
0.0
 40
0.0
 40
0.0307985524
 40
0.0617266061
 40
0.0927781911
 40
0.1239508554
 40
0.1552375927
 40
0.1866307203
 40
0.2181209282
 40
0.2496975644
 40
0.281348842
 40
0.3130619537
 40
0.3448232657
 40
0.3766185068
 40
0.4402263659
 40
0.5037911663
 40
0.5355331788
 40
0.5672209591
 40
0.5988412154
 40
0.630381554
 40
0.6618306618
 40
0.6931784691
 40
0.7244162938
 40
0.7555369701
 40
0.7865349678
 40
0.8174064987
 40
0.8481495872
 40
0.878764117
 40
0.9092518518
 40
0.9396164406
 40
0.9698633904
 40
1.0
 40
1.0
 40
1.0
 40
1.0
 10
10.398813998
 20
8.6509144351
 30
0.0
 10
10.398813998
 20
8.6466349062
 30
0.0
 10
10.3990738832
 20
8.6380556574
 30
0.0
 10
10.4002359313
 20
8.6252090935
 30
0.0
 10
10.4021670105
 20
8.6124024755
 30
0.0
 10
10.404859703
 20
8.5996833678
 30
0.0
 10
10.4083043445
 20
8.5870978269
 30
0.0
 10
10.4124882469
 20
8.5746918801
 30
0.0
 10
10.4173960931
 20
8.562510733
 30
0.0
 10
10.4230099317
 20
8.5505988156
 30
0.0
 10
10.4293092772
 20
8.5389995362
 30
0.0
 10
10.4362710591
 20
8.527755298
 30
0.0
 10
10.4438702122
 20
8.5169067442
 30
0.0
 10
10.4548137574
 20
8.5030237546
 30
0.0
 10
10.4699391847
 20
8.4868574326
 30
0.0
 10
10.4867824912
 20
8.4725008502
 30
0.0
 10
10.5011404466
 20
8.4622287508
 30
0.0
 10
10.5123066593
 20
8.4551613798
 30
0.0
 10
10.5238323631
 20
8.4487550264
 30
0.0
 10
10.5356759121
 20
8.4430327762
 30
0.0
 10
10.547794007
 20
8.4380156017
 30
0.0
 10
10.5601424811
 20
8.4337218125
 30
0.0
 10
10.572676294
 20
8.4301671277
 30
0.0
 10
10.585349735
 20
8.4273645901
 30
0.0
 10
10.5981165667
 20
8.4253244974
 30
0.0
 10
10.6109301989
 20
8.4240543296
 30
0.0
 10
10.6237438632
 20
8.4235587842
 30
0.0
 10
10.6365107949
 20
8.4238397485
 30
0.0
 10
10.6491843241
 20
8.4248962853
 30
0.0
 10
10.6617183251
 20
8.4267246505
 30
0.0
 10
10.674066367
 20
8.429318034
 30
0.0
 10
10.6821598959
 20
8.4315550041
 30
0.0
 10
10.6861588558
 20
8.4327975411
 30
0.0
  0
SPLINE
  5
37E
100
AcDbEntity
  8
0
100
AcDbSpline
 62
7
  6
CONTINUOUS
 70
0
 71
3
 72
26
 73
22
 74
0
 42
0.0000001
 43
0.0000001
 44
0.0000000001
 40
0.0
 40
0.0
 40
0.0
 40
0.0
 40
0.0614444942
 40
0.1233312674
 40
0.1856318489
 40
0.2482974647
 40
0.3112642637
 40
0.3744556441
 40
0.4377855829
 40
0.501162309
 40
0.5644921255
 40
0.6276832674
 40
0.6906497219
 40
0.7533148901
 40
0.8156149163
 40
0.8466228325
 40
0.8775228809
 40
0.908311904
 40
0.9389879821
 40
0.9695504601
 40
1.0
 40
1.0
 40
1.0
 40
1.0
 10
10.4381891355
 20
8.6889478996
 30
0.0
 10
10.4381891355
 20
8.6813585516
 30
0.0
 10
10.4390085183
 20
8.6661132448
 30
0.0
 10
10.4426494045
 20
8.6434354321
 30
0.0
 10
10.4486637808
 20
8.6211104903
 30
0.0
 10
10.4569822349
 20
8.5993964658
 30
0.0
 10
10.4675089979
 20
8.5785399757
 30
0.0
 10
10.480123614
 20
8.5587790085
 30
0.0
 10
10.4946817734
 20
8.5403385853
 30
0.0
 10
10.5110173752
 20
8.5234289209
 30
0.0
 10
10.5289441929
 20
8.5082428404
 30
0.0
 10
10.5482577465
 20
8.4949535934
 30
0.0
 10
10.5687385221
 20
8.4837130973
 30
0.0
 10
10.5901514163
 20
8.4746502811
 30
0.0
 10
10.6086051734
 20
8.4689889483
 30
0.0
 10
10.6235841433
 20
8.465646453
 30
0.0
 10
10.634879437
 20
8.4637401329
 30
0.0
 10
10.6462185311
 20
8.4624366102
 30
0.0
 10
10.6575694597
 20
8.4617395554
 30
0.0
 10
10.6688991871
 20
8.4616510723
 30
0.0
 10
10.6764314615
 20
8.4619986203
 30
0.0
 10
10.6801823471
 20
8.4622741312
 30
0.0
  0
SPLINE
  5
37F
100
AcDbEntity
  8
0
100
AcDbSpline
 62
7
  6
CONTINUOUS
 70
0
 71
3
 72
23
 73
19
 74
0
 42
0.0000001
 43
0.0000001
 44
0.0000000001
 40
0.0
 40
0.0
 40
0.0
 40
0.0
 40
0.0616452429
 40
0.123609246
 40
0.1858619617
 40
0.2483678599
 40
0.3110843369
 40
0.373963588
 40
0.4369536644
 40
0.4999998511
 40
0.5630460304
 40
0.6260360848
 40
0.6889152976
 40
0.7516317284
 40
0.8141375405
 40
0.8763902528
 40
0.9383538894
 40
1.0
 40
1.0
 40
1.0
 40
1.0
 10
10.5332014336
 20
8.6684559467
 30
0.0
 10
10.5336619878
 20
8.6651023517
 30
0.0
 10
10.5348611557
 20
8.6584125088
 30
0.0
 10
10.5374685264
 20
8.6485343322
 30
0.0
 10
10.5408718249
 20
8.6388506629
 30
0.0
 10
10.5450472534
 20
8.629429142
 30
0.0
 10
10.5499660113
 20
8.6203344096
 30
0.0
 10
10.5555941081
 20
8.611629159
 30
0.0
 10
10.5618927247
 20
8.6033733191
 30
0.0
 10
10.5688184371
 20
8.5956237496
 30
0.0
 10
10.5763235248
 20
8.5884338294
 30
0.0
 10
10.584356294
 20
8.5818530996
 30
0.0
 10
10.5928614225
 20
8.5759269259
 30
0.0
 10
10.6017803626
 20
8.5706961857
 30
0.0
 10
10.6110516349
 20
8.5661970043
 30
0.0
 10
10.6206116296
 20
8.5624604483
 30
0.0
 10
10.6303936092
 20
8.5595125279
 30
0.0
 10
10.6370379578
 20
8.5580824915
 30
0.0
 10
10.6403736383
 20
8.5575060648
 30
0.0
  0
SPLINE
  5
380
100
AcDbEntity
  8
0
100
AcDbSpline
 62
7
  6
CONTINUOUS
 70
0
 71
3
 72
13
 73
9
 74
0
 42
0.0000001
 43
0.0000001
 44
0.0000000001
 40
0.0
 40
0.0
 40
0.0
 40
0.0
 40
0.2516992525
 40
0.5020501116
 40
0.6268454411
 40
0.7514081012
 40
0.8757786936
 40
1.0
 40
1.0
 40
1.0
 40
1.0
 10
10.732499503
 20
6.2902278888
 30
0.0
 10
10.7397879535
 20
6.2918727595
 30
0.0
 10
10.7541667579
 20
6.2959093838
 30
0.0
 10
10.7714892366
 20
6.3028041416
 30
0.0
 10
10.7847970219
 20
6.3093712134
 30
0.0
 10
10.7944753597
 20
6.3148057657
 30
0.0
 10
10.8038347939
 20
6.3207400032
 30
0.0
 10
10.809850083
 20
6.3250219957
 30
0.0
 10
10.8127956984
 20
6.3272403965
 30
0.0
  0
SPLINE
  5
381
100
AcDbEntity
  8
0
100
AcDbSpline
 62
7
  6
CONTINUOUS
 70
0
 71
3
 72
15
 73
11
 74
0
 42
0.0000001
 43
0.0000001
 44
0.0000000001
 40
0.0
 40
0.0
 40
0.0
 40
0.0
 40
0.1260118876
 40
0.2516725023
 40
0.3770089621
 40
0.5020518989
 40
0.6268350012
 40
0.7513945889
 40
0.8757693827
 40
1.0
 40
1.0
 40
1.0
 40
1.0
 10
10.4478648637
 20
6.5878440586
 30
0.0
 10
10.4488280894
 20
6.5913567421
 30
0.0
 10
10.4509295198
 20
6.5983250193
 30
0.0
 10
10.454604224
 20
6.6085889295
 30
0.0
 10
10.4587885056
 20
6.6186258715
 30
0.0
 10
10.4634722213
 20
6.6284115468
 30
0.0
 10
10.4686442983
 20
6.6379226026
 30
0.0
 10
10.4742924282
 20
6.6471363722
 30
0.0
 10
10.4804028221
 20
6.656030588
 30
0.0
 10
10.4847776083
 20
6.6617361996
 30
0.0
 10
10.4870362817
 20
6.6645277447
 30
0.0
  0
SPLINE
  5
382
100
AcDbEntity
  8
0
100
AcDbSpline
 62
7
  6
CONTINUOUS
 70
0
 71
3
 72
13
 73
9
 74
0
 42
0.0000001
 43
0.0000001
 44
0.0000000001
 40
0.0
 40
0.0
 40
0.0
 40
0.0
 40
0.2516992525
 40
0.5020501116
 40
0.6268454411
 40
0.7514081012
 40
0.8757786936
 40
1.0
 40
1.0
 40
1.0
 40
1.0
 10
9.645832884
 20
8.2626668972
 30
0.0
 10
9.6531213346
 20
8.2643117678
 30
0.0
 10
9.6675001389
 20
8.2683483922
 30
0.0
 10
9.6848226177
 20
8.27524315
 30
0.0
 10
9.698130403
 20
8.2818102217
 30
0.0
 10
9.7078087408
 20
8.2872447741
 30
0.0
 10
9.7171681749
 20
8.2931790115
 30
0.0
 10
9.723183464
 20
8.2974610041
 30
0.0
 10
9.7261290794
 20
8.2996794048
 30
0.0
  0
SPLINE
  5
383
100
AcDbEntity
  8
0
100
AcDbSpline
 62
7
  6
CONTINUOUS
 70
0
 71
3
 72
15
 73
11
 74
0
 42
0.0000001
 43
0.0000001
 44
0.0000000001
 40
0.0
 40
0.0
 40
0.0
 40
0.0
 40
0.1260118876
 40
0.2516725023
 40
0.3770089621
 40
0.5020518989
 40
0.6268350012
 40
0.7513945889
 40
0.8757693827
 40
1.0
 40
1.0
 40
1.0
 40
1.0
 10
9.3611982447
 20
8.5602830669
 30
0.0
 10
9.3621614704
 20
8.5637957505
 30
0.0
 10
9.3642629009
 20
8.5707640276
 30
0.0
 10
9.367937605
 20
8.5810279379
 30
0.0
 10
9.3721218867
 20
8.5910648799
 30
0.0
 10
9.3768056024
 20
8.6008505551
 30
0.0
 10
9.3819776794
 20
8.6103616109
 30
0.0
 10
9.3876258092
 20
8.6195753805
 30
0.0
 10
9.3937362032
 20
8.6284695963
 30
0.0
 10
9.3981109893
 20
8.6341752079
 30
0.0
 10
9.4003696627
 20
8.636966753
 30
0.0
  0
SPLINE
  5
384
100
AcDbEntity
  8
0
100
AcDbSpline
 62
7
  6
CONTINUOUS
 70
0
 71
3
 72
21
 73
17
 74
0
 42
0.0000001
 43
0.0000001
 44
0.0000000001
 40
0.0
 40
0.0
 40
0.0
 40
0.0
 40
0.1273175725
 40
0.2538000026
 40
0.3167619332
 40
0.3795354925
 40
0.4421314982
 40
0.5045621433
 40
0.5668413429
 40
0.6289845306
 40
0.6910084612
 40
0.7529311022
 40
0.8147714553
 40
0.8765493457
 40
0.9382852283
 40
1.0
 40
1.0
 40
1.0
 40
1.0
 10
11.7594211333
 20
6.901888283
 30
0.0
 10
11.7594211333
 20
6.8903391249
 30
0.0
 10
11.7583186912
 20
6.8673017011
 30
0.0
 10
11.7541551619
 20
6.838822465
 30
0.0
 10
11.7491787881
 20
6.8164829875
 30
0.0
 10
11.7446405996
 20
6.8000053869
 30
0.0
 10
11.7393017621
 20
6.7838205481
 30
0.0
 10
11.7331744481
 20
6.7679653719
 30
0.0
 10
11.7262728407
 20
6.7524765167
 30
0.0
 10
11.7186128128
 20
6.7373896736
 30
0.0
 10
11.7102119352
 20
6.7227396927
 30
0.0
 10
11.7010896091
 20
6.7085603327
 30
0.0
 10
11.6912669057
 20
6.6948843178
 30
0.0
 10
11.6807663009
 20
6.6817431274
 30
0.0
 10
11.6696124198
 20
6.6691674995
 30
0.0
 10
11.6617567027
 20
6.6611786022
 30
0.0
 10
11.6577301572
 20
6.6572892368
 30
0.0
  0
SPLINE
  5
385
100
AcDbEntity
  8
0
100
AcDbSpline
 62
7
  6
CONTINUOUS
 70
0
 71
3
 72
31
 73
27
 74
0
 42
0.0000001
 43
0.0000001
 44
0.0000000001
 40
0.0
 40
0.0
 40
0.0
 40
0.0
 40
0.030676836
 40
0.0614581414
 40
0.0923381998
 40
0.1233159879
 40
0.1543870066
 40
0.1855463129
 40
0.2167883427
 40
0.2481066319
 40
0.3109260156
 40
0.373957732
 40
0.4371303968
 40
0.5003677083
 40
0.5635911097
 40
0.6267225272
 40
0.6896870984
 40
0.752415797
 40
0.7836809344
 40
0.8148652012
 40
0.8459626558
 40
0.8769682976
 40
0.9078777844
 40
0.9386872516
 40
0.9693963318
 40
1.0
 40
1.0
 40
1.0
 40
1.0
 10
11.3971989269
 20
9.5765431768
 30
0.0
 10
11.4031350437
 20
9.5761315058
 30
0.0
 10
11.4150093041
 20
9.5750155041
 30
0.0
 10
11.4327458323
 20
9.5724757749
 30
0.0
 10
11.4503970516
 20
9.5690731352
 30
0.0
 10
11.4679195584
 20
9.5648161604
 30
0.0
 10
11.4852716128
 20
9.5597149223
 30
0.0
 10
11.5024112148
 20
9.5537818882
 30
0.0
 10
11.5192975614
 20
9.5470311282
 30
0.0
 10
11.5414391166
 20
9.53695337
 30
0.0
 10
11.5682776325
 20
9.5223925729
 30
0.0
 10
11.5987949157
 20
9.5019787435
 30
0.0
 10
11.6273735622
 20
9.4787980586
 30
0.0
 10
11.653737322
 20
9.4530739147
 30
0.0
 10
11.6776337835
 20
9.4250533569
 30
0.0
 10
11.6988333489
 20
9.3950046636
 30
0.0
 10
11.7171317028
 20
9.363218237
 30
0.0
 10
11.7298330984
 20
9.3354961647
 30
0.0
 10
11.7383761986
 20
9.3127601555
 30
0.0
 10
11.7439559908
 20
9.2954867361
 30
0.0
 10
11.7487004837
 20
9.2780179715
 30
0.0
 10
11.7525984357
 20
9.260395444
 30
0.0
 10
11.7556402898
 20
9.2426618188
 30
0.0
 10
11.7578188668
 20
9.2248593344
 30
0.0
 10
11.7591285995
 20
9.2070317878
 30
0.0
 10
11.7594211333
 20
9.1951369572
 30
0.0
 10
11.7594211333
 20
9.1892007752
 30
0.0
  0
SPLINE
  5
386
100
AcDbEntity
  8
0
100
AcDbSpline
 62
7
  6
CONTINUOUS
 70
0
 71
3
 72
23
 73
19
 74
0
 42
0.0000001
 43
0.0000001
 44
0.0000000001
 40
0.0
 40
0.0
 40
0.0
 40
0.0
 40
0.0614487945
 40
0.1232975465
 40
0.1855192708
 40
0.2480712759
 40
0.3108995325
 40
0.3739401507
 40
0.4371217412
 40
0.5003679844
 40
0.5636003153
 40
0.626740653
 40
0.6897141164
 40
0.7524516751
 40
0.8148926582
 40
0.8769870283
 40
0.9386967483
 40
1.0
 40
1.0
 40
1.0
 40
1.0
 10
10.9038902294
 20
9.0700998349
 30
0.0
 10
10.9147963694
 20
9.0693434916
 30
0.0
 10
10.936619577
 20
9.0667510812
 30
0.0
 10
10.9689145881
 20
9.0597102248
 30
0.0
 10
11.0005836167
 20
9.0495720946
 30
0.0
 10
11.0313185545
 20
9.0364350354
 30
0.0
 10
11.0608255595
 20
9.0204260601
 30
0.0
 10
11.0888211935
 20
9.0016993066
 30
0.0
 10
11.1150370043
 20
8.9804349705
 30
0.0
 10
11.1392214968
 20
8.9568374087
 30
0.0
 10
11.161142456
 20
8.9311330832
 30
0.0
 10
11.1805894672
 20
8.9035687565
 30
0.0
 10
11.1973755502
 20
8.874408858
 30
0.0
 10
11.2113390558
 20
8.8439330323
 30
0.0
 10
11.222345428
 20
8.812434053
 30
0.0
 10
11.2302879586
 20
8.7802131711
 30
0.0
 10
11.2350896026
 20
8.747583922
 30
0.0
 10
11.2361687333
 20
8.7256841798
 30
0.0
 10
11.2361687333
 20
8.7147777385
 30
0.0
  0
SPLINE
  5
387
100
AcDbEntity
  8
0
100
AcDbSpline
 62
7
  6
CONTINUOUS
 70
0
 71
3
 72
31
 73
27
 74
0
 42
0.0000001
 43
0.0000001
 44
0.0000000001
 40
0.0
 40
0.0
 40
0.0
 40
0.0
 40
0.030676836
 40
0.0614581414
 40
0.0923381998
 40
0.1233159879
 40
0.1543870066
 40
0.1855463129
 40
0.2167883427
 40
0.2481066319
 40
0.3109260156
 40
0.373957732
 40
0.4371303968
 40
0.5003677083
 40
0.5635911097
 40
0.6267225272
 40
0.6896870984
 40
0.752415797
 40
0.7836809344
 40
0.8148652012
 40
0.8459626558
 40
0.8769682976
 40
0.9078777844
 40
0.9386872516
 40
0.9693963318
 40
1.0
 40
1.0
 40
1.0
 40
1.0
 10
10.9119136132
 20
9.1077935314
 30
0.0
 10
10.9178497299
 20
9.1073818603
 30
0.0
 10
10.9297239903
 20
9.1062658587
 30
0.0
 10
10.9474605186
 20
9.1037261295
 30
0.0
 10
10.9651117378
 20
9.1003234898
 30
0.0
 10
10.9826342446
 20
9.096066515
 30
0.0
 10
10.999986299
 20
9.0909652769
 30
0.0
 10
11.0171259011
 20
9.0850322428
 30
0.0
 10
11.0340122476
 20
9.0782814827
 30
0.0
 10
11.0561538028
 20
9.0682037246
 30
0.0
 10
11.0829923187
 20
9.0536429274
 30
0.0
 10
11.1135096019
 20
9.033229098
 30
0.0
 10
11.1420882484
 20
9.0100484131
 30
0.0
 10
11.1684520082
 20
8.9843242693
 30
0.0
 10
11.1923484698
 20
8.9563037114
 30
0.0
 10
11.2135480351
 20
8.9262550182
 30
0.0
 10
11.2318463891
 20
8.8944685916
 30
0.0
 10
11.2445477847
 20
8.8667465193
 30
0.0
 10
11.2530908848
 20
8.8440105101
 30
0.0
 10
11.2586706771
 20
8.8267370907
 30
0.0
 10
11.2634151699
 20
8.809268326
 30
0.0
 10
11.267313122
 20
8.7916457985
 30
0.0
 10
11.270354976
 20
8.7739121733
 30
0.0
 10
11.272533553
 20
8.7561096889
 30
0.0
 10
11.2738432858
 20
8.7382821424
 30
0.0
 10
11.2741358195
 20
8.7263873118
 30
0.0
 10
11.2741358195
 20
8.7204511297
 30
0.0
  0
SPLINE
  5
388
100
AcDbEntity
  8
0
100
AcDbSpline
 62
7
  6
CONTINUOUS
 70
0
 71
3
 72
35
 73
31
 74
0
 42
0.0000001
 43
0.0000001
 44
0.0000000001
 40
0.0
 40
0.0
 40
0.0
 40
0.0
 40
0.0636206327
 40
0.1268147931
 40
0.1582698996
 40
0.1896292837
 40
0.220898732
 40
0.2520847535
 40
0.2831947517
 40
0.3142369322
 40
0.3452201906
 40
0.3761540556
 40
0.4070485779
 40
0.4379142163
 40
0.4687617439
 40
0.4996021322
 40
0.5304464206
 40
0.5613056065
 40
0.5921905365
 40
0.6231117787
 40
0.6540795075
 40
0.6851034151
 40
0.7161926024
 40
0.7473554732
 40
0.7785996834
 40
0.8099320367
 40
0.841358399
 40
0.872883878
 40
0.9362262577
 40
1.0
 40
1.0
 40
1.0
 40
1.0
 10
11.2361687333
 20
6.4274652463
 30
0.0
 10
11.2361687333
 20
6.4166326909
 30
0.0
 10
11.2351114761
 20
6.3950256021
 30
0.0
 10
11.2311181258
 20
6.3683271397
 30
0.0
 10
11.2263462818
 20
6.3474012351
 30
0.0
 10
11.2219954709
 20
6.3319764479
 30
0.0
 10
11.2168781109
 20
6.3168373824
 30
0.0
 10
11.2110064631
 20
6.3020201093
 30
0.0
 10
11.2043947281
 20
6.2875604512
 30
0.0
 10
11.1970587532
 20
6.2734932802
 30
0.0
 10
11.1890161831
 20
6.2598525537
 30
0.0
 10
11.1802864697
 20
6.2466711298
 30
0.0
 10
11.1708906094
 20
6.2339808299
 30
0.0
 10
11.1608512021
 20
6.2218123128
 30
0.0
 10
11.1501925323
 20
6.2101948734
 30
0.0
 10
11.1389402889
 20
6.1991565421
 30
0.0
 10
11.1271215509
 20
6.1887240128
 30
0.0
 10
11.1147648924
 20
6.1789223798
 30
0.0
 10
11.1019001268
 20
6.1697752608
 30
0.0
 10
11.0885582347
 20
6.1613047882
 30
0.0
 10
11.0747714423
 20
6.1535313231
 30
0.0
 10
11.0605730265
 20
6.1464735499
 30
0.0
 10
11.0459971937
 20
6.1401485447
 30
0.0
 10
11.031079123
 20
6.1345715085
 30
0.0
 10
11.0158547833
 20
6.1297557907
 30
0.0
 10
11.0003609784
 20
6.1257130367
 30
0.0
 10
10.9846346306
 20
6.1224529443
 30
0.0
 10
10.9633772442
 20
6.1191552346
 30
0.0
 10
10.9364021946
 20
6.1170328199
 30
0.0
 10
10.9147228362
 20
6.1174790911
 30
0.0
 10
10.9038902294
 20
6.1182303349
 30
0.0
  0
SPLINE
  5
389
100
AcDbEntity
  8
0
100
AcDbSpline
 62
7
  6
CONTINUOUS
 70
0
 71
3
 72
21
 73
17
 74
0
 42
0.0000001
 43
0.0000001
 44
0.0000000001
 40
0.0
 40
0.0
 40
0.0
 40
0.0
 40
0.12731758
 40
0.2538000122
 40
0.3167619425
 40
0.3795355005
 40
0.4421315041
 40
0.5045621466
 40
0.5668413435
 40
0.6289845285
 40
0.6910084568
 40
0.7529310961
 40
0.8147714484
 40
0.8765493394
 40
0.9382852242
 40
1.0
 40
1.0
 40
1.0
 40
1.0
 10
11.2741358195
 20
6.4331386376
 30
0.0
 10
11.2741358195
 20
6.4215894045
 30
0.0
 10
11.2730333631
 20
6.3985518315
 30
0.0
 10
11.2688697798
 20
6.3700724149
 30
0.0
 10
11.2638933415
 20
6.3477328009
 30
0.0
 10
11.2593550946
 20
6.3312551026
 30
0.0
 10
11.2540161887
 20
6.3150701715
 30
0.0
 10
11.2478887965
 20
6.299214909
 30
0.0
 10
11.2409871017
 20
6.2837259741
 30
0.0
 10
11.2333269775
 20
6.2686390586
 30
0.0
 10
11.2249259951
 20
6.2539890133
 30
0.0
 10
11.2158035563
 20
6.2398095973
 30
0.0
 10
11.2059807328
 20
6.2261335355
 30
0.0
 10
11.1954800009
 20
6.2129923078
 30
0.0
 10
11.1843259866
 20
6.2004166527
 30
0.0
 10
11.176470177
 20
6.1924277444
 30
0.0
 10
11.1724435845
 20
6.1885383753
 30
0.0
  0
SPLINE
  5
38A
100
AcDbEntity
  8
0
100
AcDbSpline
 62
7
  6
CONTINUOUS
 70
0
 71
3
 72
23
 73
19
 74
0
 42
0.0000001
 43
0.0000001
 44
0.0000000001
 40
0.0
 40
0.0
 40
0.0
 40
0.0
 40
0.0614487945
 40
0.1232975465
 40
0.1855192708
 40
0.2480712759
 40
0.3108995325
 40
0.3739401507
 40
0.4371217412
 40
0.5003679844
 40
0.5636003153
 40
0.626740653
 40
0.6897141164
 40
0.7524516751
 40
0.8148926582
 40
0.8769870283
 40
0.9386967483
 40
1.0
 40
1.0
 40
1.0
 40
1.0
 10
9.3342606687
 20
6.2270845146
 30
0.0
 10
9.3233545287
 20
6.227840858
 30
0.0
 10
9.3015313211
 20
6.2304332684
 30
0.0
 10
9.2692363099
 20
6.2374741247
 30
0.0
 10
9.2375672814
 20
6.247612255
 30
0.0
 10
9.2068323436
 20
6.2607493141
 30
0.0
 10
9.1773253386
 20
6.2767582895
 30
0.0
 10
9.1493297045
 20
6.295485043
 30
0.0
 10
9.1231138938
 20
6.3167493791
 30
0.0
 10
9.0989294012
 20
6.3403469409
 30
0.0
 10
9.0770084421
 20
6.3660512664
 30
0.0
 10
9.0575614309
 20
6.3936155931
 30
0.0
 10
9.0407753478
 20
6.4227754916
 30
0.0
 10
9.0268118423
 20
6.4532513173
 30
0.0
 10
9.0158054701
 20
6.4847502966
 30
0.0
 10
9.0078629394
 20
6.5169711785
 30
0.0
 10
9.0030612955
 20
6.5496004276
 30
0.0
 10
9.0019821647
 20
6.5715001698
 30
0.0
 10
9.0019821647
 20
6.5824066111
 30
0.0
  0
SPLINE
  5
38B
100
AcDbEntity
  8
0
100
AcDbSpline
 62
7
  6
CONTINUOUS
 70
0
 71
3
 72
32
 73
28
 74
0
 42
0.0000001
 43
0.0000001
 44
0.0000000001
 40
0.0
 40
0.0
 40
0.0
 40
0.0
 40
0.0958350133
 40
0.1891086299
 40
0.2792520242
 40
0.3657239766
 40
0.4480156633
 40
0.5256576281
 40
0.5982269975
 40
0.6324943547
 40
0.6653613378
 40
0.6967924401
 40
0.7267581378
 40
0.7552341308
 40
0.7822036768
 40
0.8076572578
 40
0.8315954232
 40
0.8540292433
 40
0.8749840421
 40
0.8945012056
 40
0.9126433592
 40
0.9294981369
 40
0.9451849406
 40
0.9598599088
 40
0.973721248
 40
0.9870091801
 40
1.0
 40
1.0
 40
1.0
 40
1.0
 10
9.8862401982
 20
9.8515238803
 30
0.0
 10
9.8898996716
 20
9.851270095
 30
0.0
 10
9.8971155343
 20
9.850688818
 30
0.0
 10
9.9077476882
 20
9.8495792503
 30
0.0
 10
9.9179934406
 20
9.848249555
 30
0.0
 10
9.9277843979
 20
9.8467087842
 30
0.0
 10
9.9370554629
 20
9.844967448
 30
0.0
 10
9.9457448823
 20
9.843037373
 30
0.0
 10
9.952578468
 20
9.8412502685
 30
0.0
 10
9.9577048783
 20
9.8397273853
 30
0.0
 10
9.9612955936
 20
9.8385682913
 30
0.0
 10
9.9647001808
 20
9.837372294
 30
0.0
 10
9.9679130201
 20
9.8361414378
 30
0.0
 10
9.9709287974
 20
9.8348777102
 30
0.0
 10
9.9737425788
 20
9.8335832816
 30
0.0
 10
9.9763497515
 20
9.8322602047
 30
0.0
 10
9.9787461205
 20
9.8309107031
 30
0.0
 10
9.9809278129
 20
9.8295368395
 30
0.0
 10
9.9828914046
 20
9.8281408003
 30
0.0
 10
9.984633758
 20
9.8267245408
 30
0.0
 10
9.9861521605
 20
9.8252900508
 30
0.0
 10
9.9874440305
 20
9.8238390108
 30
0.0
 10
9.9885070093
 20
9.8223730701
 30
0.0
 10
9.989338478
 20
9.820893761
 30
0.0
 10
9.989935709
 20
9.8194028402
 30
0.0
 10
9.9902956599
 20
9.8179034405
 30
0.0
 10
9.9903761554
 20
9.8168958378
 30
0.0
 10
9.9903761471
 20
9.81639859
 30
0.0
  0
SPLINE
  5
38C
100
AcDbEntity
  8
0
100
AcDbSpline
 62
7
  6
CONTINUOUS
 70
0
 71
3
 72
35
 73
31
 74
0
 42
0.0000001
 43
0.0000001
 44
0.0000000001
 40
0.0
 40
0.0
 40
0.0
 40
0.0
 40
0.0636206327
 40
0.1268147931
 40
0.1582698996
 40
0.1896292837
 40
0.220898732
 40
0.2520847535
 40
0.2831947517
 40
0.3142369322
 40
0.3452201906
 40
0.3761540556
 40
0.4070485779
 40
0.4379142163
 40
0.4687617439
 40
0.4996021322
 40
0.5304464206
 40
0.5613056065
 40
0.5921905365
 40
0.6231117787
 40
0.6540795075
 40
0.6851034151
 40
0.7161926024
 40
0.7473554732
 40
0.7785996834
 40
0.8099320367
 40
0.841358399
 40
0.872883878
 40
0.9362262577
 40
1.0
 40
1.0
 40
1.0
 40
1.0
 10
9.0019821647
 20
8.8697191033
 30
0.0
 10
9.0019821647
 20
8.8805516587
 30
0.0
 10
9.003039422
 20
8.9021587475
 30
0.0
 10
9.0070327723
 20
8.9288572098
 30
0.0
 10
9.0118046162
 20
8.9497831145
 30
0.0
 10
9.0161554271
 20
8.9652079017
 30
0.0
 10
9.0212727871
 20
8.9803469672
 30
0.0
 10
9.027144435
 20
8.9951642403
 30
0.0
 10
9.0337561699
 20
9.0096238984
 30
0.0
 10
9.0410921448
 20
9.0236910693
 30
0.0
 10
9.049134715
 20
9.0373317959
 30
0.0
 10
9.0578644283
 20
9.0505132198
 30
0.0
 10
9.0672602887
 20
9.0632035197
 30
0.0
 10
9.077299696
 20
9.0753720368
 30
0.0
 10
9.0879583657
 20
9.0869894762
 30
0.0
 10
9.0992106091
 20
9.0980278075
 30
0.0
 10
9.1110293472
 20
9.1084603368
 30
0.0
 10
9.1233860057
 20
9.1182619698
 30
0.0
 10
9.1362507713
 20
9.1274090888
 30
0.0
 10
9.1495926634
 20
9.1358795614
 30
0.0
 10
9.1633794558
 20
9.1436530265
 30
0.0
 10
9.1775778716
 20
9.1507107997
 30
0.0
 10
9.1921537044
 20
9.1570358049
 30
0.0
 10
9.2070717751
 20
9.1626128411
 30
0.0
 10
9.2222961148
 20
9.1674285589
 30
0.0
 10
9.2377899196
 20
9.1714713129
 30
0.0
 10
9.2535162674
 20
9.1747314052
 30
0.0
 10
9.2747736539
 20
9.178029115
 30
0.0
 10
9.3017487035
 20
9.1801515297
 30
0.0
 10
9.3234280618
 20
9.1797052585
 30
0.0
 10
9.3342606687
 20
9.1789540147
 30
0.0
  0
SPLINE
  5
38D
100
AcDbEntity
  8
0
100
AcDbSpline
 62
7
  6
CONTINUOUS
 70
0
 71
3
 72
34
 73
30
 74
0
 42
0.0000001
 43
0.0000001
 44
0.0000000001
 40
0.0
 40
0.0
 40
0.0
 40
0.0
 40
0.0968304296
 40
0.1922840038
 40
0.2850752198
 40
0.3740753965
 40
0.4583573125
 40
0.4985007343
 40
0.5372144847
 40
0.5744420666
 40
0.6101386002
 40
0.6442695044
 40
0.6768108477
 40
0.7077479022
 40
0.737074452
 40
0.7647933914
 40
0.7909154925
 40
0.8154603917
 40
0.8384569303
 40
0.8599439179
 40
0.8799722736
 40
0.8986066241
 40
0.9159288648
 40
0.9320415089
 40
0.9470722845
 40
0.9611783077
 40
0.9745491719
 40
0.9874067883
 40
1.0
 40
1.0
 40
1.0
 40
1.0
 10
11.045322393
 20
10.183726473
 30
0.0
 10
11.0519634107
 20
10.1837264733
 30
0.0
 10
11.0651520189
 20
10.1835154195
 30
0.0
 10
11.084684132
 20
10.1825719095
 30
0.0
 10
11.1036395019
 20
10.1810265499
 30
0.0
 10
11.121769208
 20
10.1789169126
 30
0.0
 10
11.1362409267
 20
10.1766934618
 30
0.0
 10
11.1472440846
 20
10.1746603889
 30
0.0
 10
11.1550418129
 20
10.1730504865
 30
0.0
 10
11.1625050165
 20
10.1713377133
 30
0.0
 10
11.169621711
 20
10.1695288868
 30
0.0
 10
11.1763819086
 20
10.1676307193
 30
0.0
 10
11.1827774397
 20
10.1656497993
 30
0.0
 10
11.1888017189
 20
10.1635924949
 30
0.0
 10
11.1944495362
 20
10.1614649361
 30
0.0
 10
11.19971686
 20
10.1592730606
 30
0.0
 10
11.204600662
 20
10.1570225026
 30
0.0
 10
11.2090987486
 20
10.1547186736
 30
0.0
 10
11.2132096141
 20
10.1523666965
 30
0.0
 10
11.2169323154
 20
10.1499714007
 30
0.0
 10
11.2202663313
 20
10.1475373191
 30
0.0
 10
11.2232114388
 20
10.145068614
 30
0.0
 10
11.2257675446
 20
10.1425690857
 30
0.0
 10
11.2279344704
 20
10.1400421237
 30
0.0
 10
11.2297116869
 20
10.1374907782
 30
0.0
 10
11.2310979796
 20
10.1349180795
 30
0.0
 10
11.2320912985
 20
10.1323271985
 30
0.0
 10
11.2326889441
 20
10.1297234407
 30
0.0
 10
11.2328224433
 20
10.1279751536
 30
0.0
 10
11.2328224431
 20
10.1271114609
 30
0.0
  0
SPLINE
  5
38E
100
AcDbEntity
  8
0
100
AcDbSpline
 62
7
  6
CONTINUOUS
 70
0
 71
3
 72
32
 73
28
 74
0
 42
0.0000001
 43
0.0000001
 44
0.0000000001
 40
0.0
 40
0.0
 40
0.0
 40
0.0
 40
0.0958350133
 40
0.1891086299
 40
0.2792520242
 40
0.3657239766
 40
0.4480156633
 40
0.5256576281
 40
0.5982269975
 40
0.6324943547
 40
0.6653613378
 40
0.6967924401
 40
0.7267581378
 40
0.7552341308
 40
0.7822036768
 40
0.8076572578
 40
0.8315954232
 40
0.8540292433
 40
0.8749840421
 40
0.8945012056
 40
0.9126433592
 40
0.9294981369
 40
0.9451849406
 40
0.9598599088
 40
0.973721248
 40
0.9870091801
 40
1.0
 40
1.0
 40
1.0
 40
1.0
 10
11.6364977902
 20
9.730143104
 30
0.0
 10
11.6401572636
 20
9.7298893187
 30
0.0
 10
11.6473731263
 20
9.7293080418
 30
0.0
 10
11.6580052802
 20
9.728198474
 30
0.0
 10
11.6682510326
 20
9.7268687787
 30
0.0
 10
11.6780419899
 20
9.725328008
 30
0.0
 10
11.6873130549
 20
9.7235866717
 30
0.0
 10
11.6960024743
 20
9.7216565967
 30
0.0
 10
11.70283606
 20
9.7198694922
 30
0.0
 10
11.7079624703
 20
9.7183466091
 30
0.0
 10
11.7115531856
 20
9.7171875151
 30
0.0
 10
11.7149577728
 20
9.7159915178
 30
0.0
 10
11.7181706122
 20
9.7147606615
 30
0.0
 10
11.7211863895
 20
9.7134969339
 30
0.0
 10
11.7240001708
 20
9.7122025053
 30
0.0
 10
11.7266073435
 20
9.7108794284
 30
0.0
 10
11.7290037125
 20
9.7095299268
 30
0.0
 10
11.731185405
 20
9.7081560632
 30
0.0
 10
11.7331489966
 20
9.706760024
 30
0.0
 10
11.73489135
 20
9.7053437645
 30
0.0
 10
11.7364097525
 20
9.7039092746
 30
0.0
 10
11.7377016225
 20
9.7024582345
 30
0.0
 10
11.7387646013
 20
9.7009922938
 30
0.0
 10
11.73959607
 20
9.6995129847
 30
0.0
 10
11.740193301
 20
9.6980220639
 30
0.0
 10
11.7405532519
 20
9.6965226642
 30
0.0
 10
11.7406337474
 20
9.6955150615
 30
0.0
 10
11.7406337391
 20
9.6950178138
 30
0.0
  0
SPLINE
  5
38F
100
AcDbEntity
  8
0
100
AcDbSpline
 62
7
  6
CONTINUOUS
 70
0
 71
3
 72
33
 73
29
 74
0
 42
0.0000001
 43
0.0000001
 44
0.0000000001
 40
0.0
 40
0.0
 40
0.0
 40
0.0
 40
0.0958076183
 40
0.1890186003
 40
0.2790584748
 40
0.3653819713
 40
0.4474850725
 40
0.5249097113
 40
0.5617408518
 40
0.597255611
 40
0.6314135152
 40
0.6641782965
 40
0.6955187903
 40
0.7254092165
 40
0.7538296651
 40
0.7807672422
 40
0.8062163263
 40
0.8301806813
 40
0.8526739264
 40
0.8737227305
 40
0.8933681895
 40
0.9116702829
 40
0.9287108795
 40
0.9445993616
 40
0.9594768597
 40
0.9735208019
 40
0.9869458357
 40
1.0
 40
1.0
 40
1.0
 40
1.0
 10
10.4242242141
 20
10.121176596
 30
0.0
 10
10.4298861429
 20
10.1207839399
 30
0.0
 10
10.4410482986
 20
10.1198833699
 30
0.0
 10
10.4574909961
 20
10.1181607954
 30
0.0
 10
10.4733278705
 20
10.1160945027
 30
0.0
 10
10.4884527389
 20
10.1136993463
 30
0.0
 10
10.5027652398
 20
10.1109925654
 30
0.0
 10
10.5141194825
 20
10.1084530575
 30
0.0
 10
10.5227193328
 20
10.1062695158
 30
0.0
 10
10.5288023496
 20
10.1045937188
 30
0.0
 10
10.5346168664
 20
10.1028554756
 30
0.0
 10
10.5401539052
 20
10.1010577288
 30
0.0
 10
10.5454050239
 20
10.0992035905
 30
0.0
 10
10.5503623383
 20
10.0972962225
 30
0.0
 10
10.5550185182
 20
10.0953388134
 30
0.0
 10
10.559366821
 20
10.0933346725
 30
0.0
 10
10.5634010475
 20
10.0912870179
 30
0.0
 10
10.5671156247
 20
10.0891992286
 30
0.0
 10
10.5705054892
 20
10.0870744752
 30
0.0
 10
10.5735662324
 20
10.084916072
 30
0.0
 10
10.5762938776
 20
10.0827270074
 30
0.0
 10
10.5786850531
 20
10.0805103111
 30
0.0
 10
10.5807366182
 20
10.078268602
 30
0.0
 10
10.5824457549
 20
10.0760044242
 30
0.0
 10
10.5838094314
 20
10.0737201653
 30
0.0
 10
10.5848244478
 20
10.071418308
 30
0.0
 10
10.5854872208
 20
10.0691030818
 30
0.0
 10
10.5856937447
 20
10.0675410915
 30
0.0
 10
10.5857361227
 20
10.0667689406
 30
0.0
  0
SPLINE
  5
390
100
AcDbEntity
  8
0
100
AcDbSpline
 62
7
  6
CONTINUOUS
 70
0
 71
3
 72
36
 73
32
 74
0
 42
0.0000001
 43
0.0000001
 44
0.0000000001
 40
0.0
 40
0.0
 40
0.0
 40
0.0
 40
0.0055578162
 40
0.0111785519
 40
0.0169227929
 40
0.0228470355
 40
0.0354212926
 40
0.0421661849
 40
0.0492574986
 40
0.0645751423
 40
0.0815411183
 40
0.1002533171
 40
0.1207645483
 40
0.1430942648
 40
0.1672365547
 40
0.1931652558
 40
0.2208381065
 40
0.2501997028
 40
0.2811832043
 40
0.3137119696
 40
0.3477010678
 40
0.3830580585
 40
0.4196837418
 40
0.4574732145
 40
0.4963164277
 40
0.5766983366
 40
0.6598712021
 40
0.7448277752
 40
0.8305324215
 40
0.9159365645
 40
1.0
 40
1.0
 40
1.0
 40
1.0
 10
12.0096237666
 20
10.2262680412
 30
0.0
 10
12.0096237724
 20
10.2266156096
 30
0.0
 10
12.0096627175
 20
10.2273152886
 30
0.0
 10
12.0098374174
 20
10.2283610476
 30
0.0
 10
12.0101280965
 20
10.2294045419
 30
0.0
 10
12.0106803313
 20
10.2308187166
 30
0.0
 10
12.0114634422
 20
10.2322002547
 30
0.0
 10
12.0124381725
 20
10.2335346047
 30
0.0
 10
12.0136165253
 20
10.2349277927
 30
0.0
 10
12.0153882627
 20
10.2366467046
 30
0.0
 10
12.0178982034
 20
10.2386211294
 30
0.0
 10
12.0208371617
 20
10.2405537302
 30
0.0
 10
12.0241961239
 20
10.2424391448
 30
0.0
 10
12.0279651006
 20
10.2442719122
 30
0.0
 10
12.0321324164
 20
10.2460462578
 30
0.0
 10
12.0366849365
 20
10.247756506
 30
0.0
 10
12.0416081185
 20
10.2493970788
 30
0.0
 10
12.0468861219
 20
10.2509625542
 30
0.0
 10
12.0525018556
 20
10.2524477629
 30
0.0
 10
12.058437063
 20
10.2538478067
 30
0.0
 10
12.064672413
 20
10.2551580339
 30
0.0
 10
12.0711875604
 20
10.2563740979
 30
0.0
 10
12.0779612081
 20
10.257491986
 30
0.0
 10
12.0849712242
 20
10.2585080226
 30
0.0
 10
12.0947137665
 20
10.2597363179
 30
0.0
 10
12.107312
 20
10.260985268
 30
0.0
 10
12.1228211525
 20
10.2620190306
 30
0.0
 10
12.1386872672
 20
10.2625903069
 30
0.0
 10
12.1547028315
 20
10.2626914359
 30
0.0
 10
12.1706584259
 20
10.2623210769
 30
0.0
 10
12.1812433388
 20
10.2617564022
 30
0.0
 10
12.1864878071
 20
10.2613926971
 30
0.0
  0
SPLINE
  5
391
100
AcDbEntity
  8
0
100
AcDbSpline
 62
7
  6
CONTINUOUS
 70
0
 71
3
 72
23
 73
19
 74
0
 42
0.0000001
 43
0.0000001
 44
0.0000000001
 40
0.0
 40
0.0
 40
0.0
 40
0.0
 40
0.0619845586
 40
0.1239522256
 40
0.1859228349
 40
0.247916191
 40
0.3099518784
 40
0.3720490787
 40
0.4342263897
 40
0.4965016501
 40
0.5588917722
 40
0.6214125859
 40
0.6840787
 40
0.7469033783
 40
0.8098984258
 40
0.8730740903
 40
0.936438979
 40
1.0
 40
1.0
 40
1.0
 40
1.0
 10
9.5130729997
 20
7.4804646276
 30
0.0
 10
9.5185924176
 20
7.4868778978
 30
0.0
 10
9.5299504823
 20
7.4994306497
 30
0.0
 10
9.5479005687
 20
7.5173870562
 30
0.0
 10
9.5667228618
 20
7.5344297446
 30
0.0
 10
9.5863762313
 20
7.550521335
 30
0.0
 10
9.6068184348
 20
7.565627292
 30
0.0
 10
9.6280053246
 20
7.5797150272
 30
0.0
 10
9.6498912098
 20
7.5927541964
 30
0.0
 10
9.672428884
 20
7.6047167024
 30
0.0
 10
9.6955697477
 20
7.6155767631
 30
0.0
 10
9.7192638926
 20
7.6253109955
 30
0.0
 10
9.74346021
 20
7.6338984732
 30
0.0
 10
9.7681065409
 20
7.6413207323
 30
0.0
 10
9.7931496979
 20
7.647561813
 30
0.0
 10
9.8185359017
 20
7.652608307
 30
0.0
 10
9.8442096799
 20
7.6564493305
 30
0.0
 10
9.8614551239
 20
7.6581982956
 30
0.0
 10
9.8701055754
 20
7.6588704031
 30
0.0
  0
SPLINE
  5
392
100
AcDbEntity
  8
0
100
AcDbSpline
 62
7
  6
CONTINUOUS
 70
0
 71
3
 72
37
 73
33
 74
0
 42
0.0000001
 43
0.0000001
 44
0.0000000001
 40
0.0
 40
0.0
 40
0.0
 40
0.0
 40
0.0306220678
 40
0.0613496101
 40
0.0921809837
 40
0.1231135268
 40
0.1541435939
 40
0.1852666015
 40
0.2164770803
 40
0.2477687344
 40
0.2791345067
 40
0.3105666498
 40
0.3420568017
 40
0.3735960661
 40
0.4051750976
 40
0.4367841885
 40
0.5000351774
 40
0.5632848262
 40
0.5948922537
 40
0.6264689757
 40
0.6580053061
 40
0.689491927
 40
0.7209199758
 40
0.7522811286
 40
0.7835676798
 40
0.814772618
 40
0.8458897055
 40
0.8769134992
 40
0.9078395862
 40
0.938664059
 40
0.9693850874
 40
1.0
 40
1.0
 40
1.0
 40
1.0
 10
9.9346913936
 20
7.6601347018
 30
0.0
 10
9.9441488679
 20
7.6597757373
 30
0.0
 10
9.9630817081
 20
7.658581379
 30
0.0
 10
9.9914020978
 20
7.655375999
 30
0.0
 10
10.0196251622
 20
7.6507616642
 30
0.0
 10
10.0476792593
 20
7.6447500242
 30
0.0
 10
10.0754943729
 20
7.6373561965
 30
0.0
 10
10.1030007728
 20
7.6285987686
 30
0.0
 10
10.1301295946
 20
7.6184997309
 30
0.0
 10
10.1568129001
 20
7.607084427
 30
0.0
 10
10.1829838794
 20
7.5943814844
 30
0.0
 10
10.2085769923
 20
7.5804227605
 30
0.0
 10
10.2335281936
 20
7.5652431993
 30
0.0
 10
10.2577748665
 20
7.5488809845
 30
0.0
 10
10.2812568477
 20
7.5313765851
 30
0.0
 10
10.3114693224
 20
7.5065724523
 30
0.0
 10
10.3470270722
 20
7.4729420584
 30
0.0
 10
10.3792924039
 20
7.4361418425
 30
0.0
 10
10.4029384199
 20
7.405016669
 30
0.0
 10
10.4195433767
 20
7.3808928647
 30
0.0
 10
10.4349777042
 20
7.3560484229
 30
0.0
 10
10.4492032441
 20
7.3305449894
 30
0.0
 10
10.4621842075
 20
7.3044465681
 30
0.0
 10
10.4738880876
 20
7.2778184636
 30
0.0
 10
10.4842855188
 20
7.2507273597
 30
0.0
 10
10.493350418
 20
7.2232410878
 30
0.0
 10
10.5010600268
 20
7.1954284926
 30
0.0
 10
10.5073950206
 20
7.1673591899
 30
0.0
 10
10.5123393925
 20
7.1391036129
 30
0.0
 10
10.5158808478
 20
7.1107321349
 30
0.0
 10
10.5180102295
 20
7.0823169493
 30
0.0
 10
10.5184857881
 20
7.063356656
 30
0.0
 10
10.5184857881
 20
7.0538945832
 30
0.0
  0
SPLINE
  5
393
100
AcDbEntity
  8
0
100
AcDbSpline
 62
7
  6
CONTINUOUS
 70
0
 71
3
 72
19
 73
15
 74
0
 42
0.0000001
 43
0.0000001
 44
0.0000000001
 40
0.0
 40
0.0
 40
0.0
 40
0.0
 40
0.12732766
 40
0.2538196711
 40
0.3795264658
 40
0.5045235362
 40
0.5668075958
 40
0.6289556124
 40
0.6909843715
 40
0.7529118454
 40
0.8147570127
 40
0.8765397119
 40
0.9382804145
 40
1.0
 40
1.0
 40
1.0
 40
1.0
 10
10.4035406392
 20
6.4939015798
 30
0.0
 10
10.4035406392
 20
6.50116991
 30
0.0
 10
10.4042346048
 20
6.5156688667
 30
0.0
 10
10.4073731492
 20
6.5371387248
 30
0.0
 10
10.4125768289
 20
6.5580681108
 30
0.0
 10
10.4186048683
 20
6.5749217
 30
0.0
 10
10.4244021921
 20
6.5879318443
 30
0.0
 10
10.4292230697
 20
6.5974267272
 30
0.0
 10
10.4345100497
 20
6.6066464528
 30
0.0
 10
10.440251099
 20
6.6155700609
 30
0.0
 10
10.4464329721
 20
6.6241768339
 30
0.0
 10
10.4530414225
 20
6.6324470611
 30
0.0
 10
10.4600610008
 20
6.6403613624
 30
0.0
 10
10.4650049611
 20
6.6453890173
 30
0.0
 10
10.4675390253
 20
6.6478367345
 30
0.0
  0
SPLINE
  5
394
100
AcDbEntity
  8
0
100
AcDbSpline
 62
7
  6
CONTINUOUS
 70
0
 71
3
 72
33
 73
29
 74
0
 42
0.0000001
 43
0.0000001
 44
0.0000000001
 40
0.0
 40
0.0
 40
0.0
 40
0.0
 40
0.1040678336
 40
0.2033817947
 40
0.2974247671
 40
0.3857622137
 40
0.4680528367
 40
0.5068537803
 40
0.5440618182
 40
0.5796629176
 40
0.6136516809
 40
0.646028664
 40
0.6768031588
 40
0.7059917517
 40
0.7336199864
 40
0.7597227398
 40
0.784344647
 40
0.8075424544
 40
0.8293845912
 40
0.8499548858
 40
0.8693521628
 40
0.9050769095
 40
0.921733438
 40
0.9377983764
 40
0.9534595771
 40
0.9689147507
 40
0.9843635108
 40
1.0
 40
1.0
 40
1.0
 40
1.0
 10
10.9345982312
 20
9.9723901678
 30
0.0
 10
10.9384459566
 20
9.9718606579
 30
0.0
 10
10.9459528453
 20
9.9707293204
 30
0.0
 10
10.9568793527
 20
9.9687633494
 30
0.0
 10
10.9671651983
 20
9.9665788573
 30
0.0
 10
10.9767525803
 20
9.9641917816
 30
0.0
 10
10.9842601433
 20
9.9620076396
 30
0.0
 10
10.9898736166
 20
9.9601639526
 30
0.0
 10
10.993799008
 20
9.9587688817
 30
0.0
 10
10.997519193
 20
9.9573366408
 30
0.0
 10
11.0010312519
 20
9.9558696658
 30
0.0
 10
11.0043327743
 20
9.954370254
 30
0.0
 10
11.0074218679
 20
9.9528407959
 30
0.0
 10
11.0102971085
 20
9.9512835622
 30
0.0
 10
11.0129575117
 20
9.9497008024
 30
0.0
 10
11.0154025243
 20
9.9480947239
 30
0.0
 10
11.0176319129
 20
9.9464673885
 30
0.0
 10
11.019645873
 20
9.9448208444
 30
0.0
 10
11.0214446758
 20
9.9431570591
 30
0.0
 10
11.0230293076
 20
9.9414774336
 30
0.0
 10
11.0248079789
 20
9.9392808085
 30
0.0
 10
11.0262360715
 20
9.9369925377
 30
0.0
 10
11.027239421
 20
9.9346387578
 30
0.0
 10
11.0277647647
 20
9.9329071293
 30
0.0
 10
11.0280811441
 20
9.9311708969
 30
0.0
 10
11.0281901538
 20
9.9294323237
 30
0.0
 10
11.0280937167
 20
9.9276942256
 30
0.0
 10
11.0278959051
 20
9.9265481204
 30
0.0
 10
11.0277654929
 20
9.9259792981
 30
0.0
  0
SPLINE
  5
395
100
AcDbEntity
  8
0
100
AcDbSpline
 62
7
  6
CONTINUOUS
 70
0
 71
3
 72
36
 73
32
 74
0
 42
0.0000001
 43
0.0000001
 44
0.0000000001
 40
0.0
 40
0.0
 40
0.0
 40
0.0
 40
0.0055578162
 40
0.0111785519
 40
0.0169227929
 40
0.0228470355
 40
0.0354212926
 40
0.0421661849
 40
0.0492574986
 40
0.0645751423
 40
0.0815411183
 40
0.1002533171
 40
0.1207645483
 40
0.1430942648
 40
0.1672365547
 40
0.1931652558
 40
0.2208381065
 40
0.2501997028
 40
0.2811832043
 40
0.3137119696
 40
0.3477010678
 40
0.3830580585
 40
0.4196837418
 40
0.4574732145
 40
0.4963164277
 40
0.5766983366
 40
0.6598712021
 40
0.7448277752
 40
0.8305324215
 40
0.9159365645
 40
1.0
 40
1.0
 40
1.0
 40
1.0
 10
11.4596337496
 20
9.6950184481
 30
0.0
 10
11.4596337555
 20
9.6953660166
 30
0.0
 10
11.4596727005
 20
9.6960656955
 30
0.0
 10
11.4598474004
 20
9.6971114545
 30
0.0
 10
11.4601380795
 20
9.6981549488
 30
0.0
 10
11.4606903144
 20
9.6995691235
 30
0.0
 10
11.4614734252
 20
9.7009506616
 30
0.0
 10
11.4624481556
 20
9.7022850117
 30
0.0
 10
11.4636265083
 20
9.7036781997
 30
0.0
 10
11.4653982458
 20
9.7053971116
 30
0.0
 10
11.4679081865
 20
9.7073715363
 30
0.0
 10
11.4708471448
 20
9.7093041372
 30
0.0
 10
11.474206107
 20
9.7111895517
 30
0.0
 10
11.4779750836
 20
9.7130223192
 30
0.0
 10
11.4821423994
 20
9.7147966648
 30
0.0
 10
11.4866949196
 20
9.7165069129
 30
0.0
 10
11.4916181015
 20
9.7181474857
 30
0.0
 10
11.4968961049
 20
9.7197129612
 30
0.0
 10
11.5025118386
 20
9.7211981699
 30
0.0
 10
11.5084470461
 20
9.7225982136
 30
0.0
 10
11.5146823961
 20
9.7239084409
 30
0.0
 10
11.5211975435
 20
9.7251245049
 30
0.0
 10
11.5279711911
 20
9.7262423929
 30
0.0
 10
11.5349812072
 20
9.7272584295
 30
0.0
 10
11.5447237496
 20
9.7284867248
 30
0.0
 10
11.5573219831
 20
9.729735675
 30
0.0
 10
11.5728311355
 20
9.7307694375
 30
0.0
 10
11.5886972503
 20
9.7313407138
 30
0.0
 10
11.6047128146
 20
9.7314418428
 30
0.0
 10
11.6206684089
 20
9.7310714838
 30
0.0
 10
11.6312533218
 20
9.7305068092
 30
0.0
 10
11.6364977902
 20
9.730143104
 30
0.0
  0
SPLINE
  5
396
100
AcDbEntity
  8
0
100
AcDbSpline
 62
7
  6
CONTINUOUS
 70
0
 71
3
 72
36
 73
32
 74
0
 42
0.0000001
 43
0.0000001
 44
0.0000000001
 40
0.0
 40
0.0
 40
0.0
 40
0.0
 40
0.0055578162
 40
0.0111785519
 40
0.0169227929
 40
0.0228470355
 40
0.0354212926
 40
0.0421661849
 40
0.0492574986
 40
0.0645751423
 40
0.0815411183
 40
0.1002533171
 40
0.1207645483
 40
0.1430942648
 40
0.1672365547
 40
0.1931652558
 40
0.2208381065
 40
0.2501997028
 40
0.2811832043
 40
0.3137119696
 40
0.3477010678
 40
0.3830580585
 40
0.4196837418
 40
0.4574732145
 40
0.4963164277
 40
0.5766983366
 40
0.6598712021
 40
0.7448277752
 40
0.8305324215
 40
0.9159365645
 40
1.0
 40
1.0
 40
1.0
 40
1.0
 10
10.2593661746
 20
10.3476488174
 30
0.0
 10
10.2593661804
 20
10.3479963859
 30
0.0
 10
10.2594051254
 20
10.3486960648
 30
0.0
 10
10.2595798253
 20
10.3497418238
 30
0.0
 10
10.2598705045
 20
10.3507853182
 30
0.0
 10
10.2604227393
 20
10.3521994928
 30
0.0
 10
10.2612058502
 20
10.3535810309
 30
0.0
 10
10.2621805805
 20
10.354915381
 30
0.0
 10
10.2633589333
 20
10.356308569
 30
0.0
 10
10.2651306707
 20
10.3580274809
 30
0.0
 10
10.2676406114
 20
10.3600019056
 30
0.0
 10
10.2705795697
 20
10.3619345065
 30
0.0
 10
10.2739385319
 20
10.363819921
 30
0.0
 10
10.2777075085
 20
10.3656526885
 30
0.0
 10
10.2818748244
 20
10.3674270341
 30
0.0
 10
10.2864273445
 20
10.3691372822
 30
0.0
 10
10.2913505265
 20
10.3707778551
 30
0.0
 10
10.2966285298
 20
10.3723433305
 30
0.0
 10
10.3022442635
 20
10.3738285392
 30
0.0
 10
10.308179471
 20
10.375228583
 30
0.0
 10
10.314414821
 20
10.3765388102
 30
0.0
 10
10.3209299684
 20
10.3777548742
 30
0.0
 10
10.3277036161
 20
10.3788727623
 30
0.0
 10
10.3347136322
 20
10.3798887989
 30
0.0
 10
10.3444561745
 20
10.3811170942
 30
0.0
 10
10.357054408
 20
10.3823660443
 30
0.0
 10
10.3725635604
 20
10.3833998068
 30
0.0
 10
10.3884296752
 20
10.3839710832
 30
0.0
 10
10.4044452395
 20
10.3840722121
 30
0.0
 10
10.4204008339
 20
10.3837018532
 30
0.0
 10
10.4309857467
 20
10.3831371785
 30
0.0
 10
10.4362302151
 20
10.3827734734
 30
0.0
  0
SPLINE
  5
397
100
AcDbEntity
  8
0
100
AcDbSpline
 62
7
  6
CONTINUOUS
 70
0
 71
3
 72
19
 73
15
 74
0
 42
0.0000001
 43
0.0000001
 44
0.0000000001
 40
0.0
 40
0.0
 40
0.0
 40
0.0
 40
0.12732766
 40
0.2538196711
 40
0.3795264658
 40
0.5045235362
 40
0.5668075958
 40
0.6289556124
 40
0.6909843715
 40
0.7529118454
 40
0.8147570127
 40
0.8765397119
 40
0.9382804145
 40
1.0
 40
1.0
 40
1.0
 40
1.0
 10
9.3168740203
 20
8.4663405881
 30
0.0
 10
9.3168740203
 20
8.4736089183
 30
0.0
 10
9.3175679858
 20
8.488107875
 30
0.0
 10
9.3207065303
 20
8.5095777332
 30
0.0
 10
9.32591021
 20
8.5305071191
 30
0.0
 10
9.3319382494
 20
8.5473607083
 30
0.0
 10
9.3377355732
 20
8.5603708527
 30
0.0
 10
9.3425564507
 20
8.5698657355
 30
0.0
 10
9.3478434308
 20
8.5790854611
 30
0.0
 10
9.3535844801
 20
8.5880090692
 30
0.0
 10
9.3597663531
 20
8.5966158423
 30
0.0
 10
9.3663748036
 20
8.6048860694
 30
0.0
 10
9.3733943818
 20
8.6128003708
 30
0.0
 10
9.3783383421
 20
8.6178280256
 30
0.0
 10
9.3808724064
 20
8.6202757428
 30
0.0
  0
SPLINE
  5
398
100
AcDbEntity
  8
0
100
AcDbSpline
 62
7
  6
CONTINUOUS
 70
0
 71
3
 72
36
 73
32
 74
0
 42
0.0000001
 43
0.0000001
 44
0.0000000001
 40
0.0
 40
0.0
 40
0.0
 40
0.0
 40
0.0055578162
 40
0.0111785519
 40
0.0169227929
 40
0.0228470355
 40
0.0354212926
 40
0.0421661849
 40
0.0492574986
 40
0.0645751423
 40
0.0815411183
 40
0.1002533171
 40
0.1207645483
 40
0.1430942648
 40
0.1672365547
 40
0.1931652558
 40
0.2208381065
 40
0.2501997028
 40
0.2811832043
 40
0.3137119696
 40
0.3477010678
 40
0.3830580585
 40
0.4196837418
 40
0.4574732145
 40
0.4963164277
 40
0.5766983366
 40
0.6598712021
 40
0.7448277752
 40
0.8305324215
 40
0.9159365645
 40
1.0
 40
1.0
 40
1.0
 40
1.0
 10
9.7093761576
 20
9.8163992244
 30
0.0
 10
9.7093761635
 20
9.8167467929
 30
0.0
 10
9.7094151085
 20
9.8174464718
 30
0.0
 10
9.7095898084
 20
9.8184922308
 30
0.0
 10
9.7098804875
 20
9.8195357251
 30
0.0
 10
9.7104327224
 20
9.8209498998
 30
0.0
 10
9.7112158332
 20
9.8223314379
 30
0.0
 10
9.7121905636
 20
9.823665788
 30
0.0
 10
9.7133689163
 20
9.8250589759
 30
0.0
 10
9.7151406538
 20
9.8267778878
 30
0.0
 10
9.7176505945
 20
9.8287523126
 30
0.0
 10
9.7205895528
 20
9.8306849134
 30
0.0
 10
9.723948515
 20
9.832570328
 30
0.0
 10
9.7277174916
 20
9.8344030954
 30
0.0
 10
9.7318848074
 20
9.8361774411
 30
0.0
 10
9.7364373276
 20
9.8378876892
 30
0.0
 10
9.7413605095
 20
9.839528262
 30
0.0
 10
9.7466385129
 20
9.8410937375
 30
0.0
 10
9.7522542466
 20
9.8425789462
 30
0.0
 10
9.758189454
 20
9.8439789899
 30
0.0
 10
9.7644248041
 20
9.8452892171
 30
0.0
 10
9.7709399515
 20
9.8465052811
 30
0.0
 10
9.7777135991
 20
9.8476231692
 30
0.0
 10
9.7847236152
 20
9.8486392058
 30
0.0
 10
9.7944661576
 20
9.8498675011
 30
0.0
 10
9.8070643911
 20
9.8511164512
 30
0.0
 10
9.8225735435
 20
9.8521502138
 30
0.0
 10
9.8384396582
 20
9.8527214901
 30
0.0
 10
9.8544552226
 20
9.8528226191
 30
0.0
 10
9.8704108169
 20
9.8524522601
 30
0.0
 10
9.8809957298
 20
9.8518875854
 30
0.0
 10
9.8862401982
 20
9.8515238803
 30
0.0
  0
SPLINE
  5
399
100
AcDbEntity
  8
0
100
AcDbSpline
 62
7
  6
CONTINUOUS
 70
0
 71
3
 72
34
 73
30
 74
0
 42
0.0000001
 43
0.0000001
 44
0.0000000001
 40
0.0
 40
0.0
 40
0.0
 40
0.0
 40
0.0125932129
 40
0.025450831
 40
0.0388216972
 40
0.0529277224
 40
0.0679584999
 40
0.0840711456
 40
0.1013933878
 40
0.1200277393
 40
0.1400560958
 40
0.1615430839
 40
0.1845396224
 40
0.2090845214
 40
0.2352066218
 40
0.2629255605
 40
0.2922521091
 40
0.3231891622
 40
0.3557305041
 40
0.3898614066
 40
0.4255579384
 40
0.4627855185
 40
0.501499267
 40
0.541642687
 40
0.6259245997
 40
0.7149247741
 40
0.8077159894
 40
0.9031695653
 40
1.0
 40
1.0
 40
1.0
 40
1.0
 10
10.8578224397
 20
10.1271114753
 30
0.0
 10
10.8578224398
 20
10.1279751677
 30
0.0
 10
10.8579559396
 20
10.1297234541
 30
0.0
 10
10.8585535857
 20
10.1323272106
 30
0.0
 10
10.8595469047
 20
10.1349180905
 30
0.0
 10
10.8609331973
 20
10.137490788
 30
0.0
 10
10.8627104133
 20
10.1400421324
 30
0.0
 10
10.8648773384
 20
10.1425690932
 30
0.0
 10
10.867433443
 20
10.1450686204
 30
0.0
 10
10.8703785492
 20
10.1475373244
 30
0.0
 10
10.8737125634
 20
10.1499714051
 30
0.0
 10
10.8774352627
 20
10.1523666998
 30
0.0
 10
10.881546126
 20
10.1547186759
 30
0.0
 10
10.8860442101
 20
10.157022504
 30
0.0
 10
10.8909280094
 20
10.1592730611
 30
0.0
 10
10.8961953302
 20
10.1614649358
 30
0.0
 10
10.9018431443
 20
10.1635924938
 30
0.0
 10
10.90786742
 20
10.1656497974
 30
0.0
 10
10.9142629474
 20
10.1676307168
 30
0.0
 10
10.9210231411
 20
10.1695288837
 30
0.0
 10
10.9281398314
 20
10.1713377097
 30
0.0
 10
10.9356030308
 20
10.1730504825
 30
0.0
 10
10.9434007546
 20
10.1746603846
 30
0.0
 10
10.9544039062
 20
10.1766934571
 30
0.0
 10
10.9688756168
 20
10.1789169079
 30
0.0
 10
10.9870053131
 20
10.1810265455
 30
0.0
 10
11.0059606731
 20
10.1825719061
 30
0.0
 10
11.0254927764
 20
10.1835154174
 30
0.0
 10
11.0386813783
 20
10.1837264726
 30
0.0
 10
11.045322393
 20
10.183726473
 30
0.0
  0
SPLINE
  5
39A
100
AcDbEntity
  8
0
100
AcDbSpline
 62
7
  6
CONTINUOUS
 70
0
 71
3
 72
42
 73
38
 74
0
 42
0.0000001
 43
0.0000001
 44
0.0000000001
 40
0.0
 40
0.0
 40
0.0
 40
0.0
 40
0.0056152347
 40
0.0112614974
 40
0.0169999439
 40
0.0228884165
 40
0.0289799902
 40
0.0353219531
 40
0.0419553881
 40
0.0489154636
 40
0.0562315265
 40
0.0639278778
 40
0.0720243687
 40
0.0805367337
 40
0.0894775198
 40
0.09885624
 40
0.1086798497
 40
0.1189533287
 40
0.1408575485
 40
0.1645768179
 40
0.1900953604
 40
0.2173806541
 40
0.2463863528
 40
0.2770542842
 40
0.3093158266
 40
0.3430929447
 40
0.3782991552
 40
0.4148402225
 40
0.4526147156
 40
0.4915144636
 40
0.5314251633
 40
0.5722269191
 40
0.6559963345
 40
0.7417746786
 40
0.8284583088
 40
0.9149128801
 40
1.0
 40
1.0
 40
1.0
 40
1.0
 10
10.1472278832
 20
10.0640348588
 30
0.0
 10
10.1471976062
 20
10.0645865218
 30
0.0
 10
10.1471973373
 20
10.0656971794
 30
0.0
 10
10.1473799986
 20
10.0673629742
 30
0.0
 10
10.1477452164
 20
10.0690260411
 30
0.0
 10
10.1482920276
 20
10.0706844306
 30
0.0
 10
10.149019457
 20
10.0723367125
 30
0.0
 10
10.1499263661
 20
10.0739815742
 30
0.0
 10
10.151011546
 20
10.0756179149
 30
0.0
 10
10.1522739179
 20
10.0772445949
 30
0.0
 10
10.1537122365
 20
10.0788606015
 30
0.0
 10
10.1553252934
 20
10.0804648573
 30
0.0
 10
10.1571118228
 20
10.0820562275
 30
0.0
 10
10.1590703914
 20
10.0836336539
 30
0.0
 10
10.1611995507
 20
10.0851959404
 30
0.0
 10
10.1634976831
 20
10.0867419322
 30
0.0
 10
10.1659630549
 20
10.0882705198
 30
0.0
 10
10.1695479002
 20
10.0903278573
 30
0.0
 10
10.174445565
 20
10.0928374429
 30
0.0
 10
10.1808363408
 20
10.0956994837
 30
0.0
 10
10.1878420782
 20
10.09846414
 30
0.0
 10
10.1954417862
 20
10.1011223823
 30
0.0
 10
10.2036127874
 20
10.1036653968
 30
0.0
 10
10.2123303081
 20
10.1060845938
 30
0.0
 10
10.2215676514
 20
10.1083716869
 30
0.0
 10
10.2312962006
 20
10.1105187437
 30
0.0
 10
10.2414854937
 20
10.1125181993
 30
0.0
 10
10.2521032782
 20
10.1143628984
 30
0.0
 10
10.2631155646
 20
10.1160461303
 30
0.0
 10
10.274486679
 20
10.1175616738
 30
0.0
 10
10.286179403
 20
10.1189038701
 30
0.0
 10
10.3022878924
 20
10.1204689977
 30
0.0
 10
10.3229356692
 20
10.1219484504
 30
0.0
 10
10.348130572
 20
10.1229545265
 30
0.0
 10
10.373608844
 20
10.1231884182
 30
0.0
 10
10.3990140602
 20
10.1226441913
 30
0.0
 10
10.4158723967
 20
10.1217557965
 30
0.0
 10
10.4242242141
 20
10.121176596
 30
0.0
  0
SPLINE
  5
39B
100
AcDbEntity
  8
0
100
AcDbSpline
 62
7
  6
CONTINUOUS
 70
0
 71
3
 72
46
 73
42
 74
0
 42
0.0000001
 43
0.0000001
 44
0.0000000001
 40
0.0
 40
0.0
 40
0.0
 40
0.0
 40
0.0056647185
 40
0.0115111419
 40
0.0175872344
 40
0.0239339163
 40
0.030585416
 40
0.0375698575
 40
0.0449099734
 40
0.052623922
 40
0.0607259657
 40
0.0692271138
 40
0.0781356881
 40
0.0874577546
 40
0.0971975067
 40
0.107357578
 40
0.128940926
 40
0.1522082236
 40
0.1771440821
 40
0.2037227909
 40
0.2319100899
 40
0.26166406
 40
0.2929355629
 40
0.3256682145
 40
0.3597978932
 40
0.3952519482
 40
0.4319484031
 40
0.4697949026
 40
0.5086875185
 40
0.548509462
 40
0.5891299145
 40
0.630403125
 40
0.6721677371
 40
0.7142465818
 40
0.7564471073
 40
0.7985626416
 40
0.8403745383
 40
0.8816554709
 40
0.9221733428
 40
0.9616968384
 40
1.0
 40
1.0
 40
1.0
 40
1.0
 10
10.6420399886
 20
9.9217439676
 30
0.0
 10
10.6421696741
 20
9.9223096197
 30
0.0
 10
10.6424957032
 20
9.9234455523
 30
0.0
 10
10.6431649296
 20
9.9251212364
 30
0.0
 10
10.644018068
 20
9.9267898898
 30
0.0
 10
10.645052584
 20
9.9284501378
 30
0.0
 10
10.6462661173
 20
9.9301010545
 30
0.0
 10
10.6476563789
 20
9.9317416661
 30
0.0
 10
10.6492211971
 20
9.9333709979
 30
0.0
 10
10.6509584168
 20
9.9349880734
 30
0.0
 10
10.6528659239
 20
9.9365918869
 30
0.0
 10
10.6549416203
 20
9.9381814028
 30
0.0
 10
10.6571833926
 20
9.9397555931
 30
0.0
 10
10.6595891368
 20
9.941313391
 30
0.0
 10
10.6621567334
 20
9.9428537691
 30
0.0
 10
10.6658684037
 20
9.9449247962
 30
0.0
 10
10.670908485
 20
9.947452996
 30
0.0
 10
10.677450523
 20
9.9503423423
 30
0.0
 10
10.684585971
 20
9.9531369107
 30
0.0
 10
10.6922966688
 20
9.9558280353
 30
0.0
 10
10.7005639588
 20
9.9584069451
 30
0.0
 10
10.7093680888
 20
9.9608647194
 30
0.0
 10
10.7186881073
 20
9.9631922784
 30
0.0
 10
10.7285015529
 20
9.9653803645
 30
0.0
 10
10.7387841286
 20
9.9674195344
 30
0.0
 10
10.7495093263
 20
9.9693001714
 30
0.0
 10
10.7606480327
 20
9.9710125033
 30
0.0
 10
10.7721681131
 20
9.9725466511
 30
0.0
 10
10.7840339617
 20
9.9738926983
 30
0.0
 10
10.7962060512
 20
9.9750407988
 30
0.0
 10
10.8086405225
 20
9.9759813212
 30
0.0
 10
10.821288845
 20
9.9767050241
 30
0.0
 10
10.8340975831
 20
9.9772032772
 30
0.0
 10
10.8470083052
 20
9.977468317
 30
0.0
 10
10.8599576997
 20
9.9774935359
 30
0.0
 10
10.8728779375
 20
9.9772737862
 30
0.0
 10
10.8856973401
 20
9.9768056931
 30
0.0
 10
10.8983413075
 20
9.9760879307
 30
0.0
 10
10.9107336615
 20
9.9751214733
 30
0.0
 10
10.9227978899
 20
9.9739097498
 30
0.0
 10
10.9307108605
 20
9.9729251335
 30
0.0
 10
10.9345982312
 20
9.9723901678
 30
0.0
  0
SPLINE
  5
39C
100
AcDbEntity
  8
0
100
AcDbSpline
 62
7
  6
CONTINUOUS
 70
0
 71
3
 72
28
 73
24
 74
0
 42
0.0000001
 43
0.0000001
 44
0.0000000001
 40
0.0
 40
0.0
 40
0.0
 40
0.0
 40
0.2045468907
 40
0.300427239
 40
0.3913688952
 40
0.4769095078
 40
0.5566389643
 40
0.6301949433
 40
0.6972654575
 40
0.7575960941
 40
0.8110025243
 40
0.8350795953
 40
0.8574020879
 40
0.8779823686
 40
0.8968466363
 40
0.9140404864
 40
0.929636866
 40
0.9437445513
 40
0.956522997
 40
0.9681973824
 40
0.9790717821
 40
0.9895280996
 40
1.0
 40
1.0
 40
1.0
 40
1.0
 10
10.3522362255
 20
8.6449206217
 30
0.0
 10
10.3522287046
 20
8.6476603175
 30
0.0
 10
10.3522108576
 20
8.6516842384
 30
0.0
 10
10.3521566893
 20
8.656925981
 30
0.0
 10
10.35209825
 20
8.660573572
 30
0.0
 10
10.352015792
 20
8.6640043368
 30
0.0
 10
10.351903148
 20
8.6672012872
 30
0.0
 10
10.351753641
 20
8.6701491021
 30
0.0
 10
10.3515602884
 20
8.6728340666
 30
0.0
 10
10.3513157937
 20
8.6752438321
 30
0.0
 10
10.3510554956
 20
8.6770721378
 30
0.0
 10
10.3508082669
 20
8.6783861022
 30
0.0
 10
10.3506116138
 20
8.6792616372
 30
0.0
 10
10.350396509
 20
8.6800607952
 30
0.0
 10
10.3501620533
 20
8.6807826932
 30
0.0
 10
10.3499073501
 20
8.6814265576
 30
0.0
 10
10.349631547
 20
8.6819917768
 30
0.0
 10
10.3493335285
 20
8.682477767
 30
0.0
 10
10.3490120686
 20
8.682883932
 30
0.0
 10
10.3486657619
 20
8.6832093601
 30
0.0
 10
10.3482932106
 20
8.6834522685
 30
0.0
 10
10.3478945255
 20
8.6836103781
 30
0.0
 10
10.3476158287
 20
8.6836574547
 30
0.0
 10
10.3474759017
 20
8.6836671266
 30
0.0
  0
SPLINE
  5
39D
100
AcDbEntity
  8
0
100
AcDbSpline
 62
7
  6
CONTINUOUS
 70
0
 71
3
 72
28
 73
24
 74
0
 42
0.0000001
 43
0.0000001
 44
0.0000000001
 40
0.0
 40
0.0
 40
0.0
 40
0.0
 40
0.0149842022
 40
0.0310221876
 40
0.0482076875
 40
0.066611525
 40
0.0862832344
 40
0.1072514589
 40
0.1295287999
 40
0.1531145644
 40
0.1779973783
 40
0.2041566041
 40
0.2601800878
 40
0.3208913831
 40
0.3859136527
 40
0.4548111563
 40
0.5270998677
 40
0.6022536577
 40
0.679707038
 40
0.7588581063
 40
0.8390701041
 40
0.9196800641
 40
1.0
 40
1.0
 40
1.0
 40
1.0
 10
10.3437061458
 20
8.5609080841
 30
0.0
 10
10.3439585593
 20
8.5611518969
 30
0.0
 10
10.3444525069
 20
8.5616868522
 30
0.0
 10
10.3451356719
 20
8.5625875262
 30
0.0
 10
10.34578361
 20
8.5636098956
 30
0.0
 10
10.3463957727
 20
8.5647513112
 30
0.0
 10
10.3469717447
 20
8.5660093547
 30
0.0
 10
10.347511554
 20
8.5673811509
 30
0.0
 10
10.3480151674
 20
8.5688636808
 30
0.0
 10
10.3484829846
 20
8.5704535983
 30
0.0
 10
10.3489155318
 20
8.5721473989
 30
0.0
 10
10.349458639
 20
8.5745957597
 30
0.0
 10
10.3500442891
 20
8.577892332
 30
0.0
 10
10.3506089915
 20
8.5821124765
 30
0.0
 10
10.3510620402
 20
8.5866489518
 30
0.0
 10
10.351416394
 20
8.5914658566
 30
0.0
 10
10.3516856914
 20
8.5965257545
 30
0.0
 10
10.3518837779
 20
8.6017893631
 30
0.0
 10
10.3520241273
 20
8.6072155363
 30
0.0
 10
10.3521193495
 20
8.6127611306
 30
0.0
 10
10.3521807355
 20
8.6183811114
 30
0.0
 10
10.3522178353
 20
8.6240286676
 30
0.0
 10
10.3522314119
 20
8.6277977079
 30
0.0
 10
10.3522362255
 20
8.6296788358
 30
0.0
  0
SPLINE
  5
39E
100
AcDbEntity
  8
0
100
AcDbSpline
 62
7
  6
CONTINUOUS
 70
0
 71
3
 72
15
 73
11
 74
0
 42
0.0000001
 43
0.0000001
 44
0.0000000001
 40
0.0
 40
0.0
 40
0.0
 40
0.0
 40
0.1266810615
 40
0.2528410586
 40
0.3784917445
 40
0.5036514148
 40
0.6283460917
 40
0.752608532
 40
0.8764780705
 40
1.0
 40
1.0
 40
1.0
 40
1.0
 10
10.5184857881
 20
7.0538945832
 30
0.0
 10
10.5184857881
 20
7.0426710865
 30
0.0
 10
10.5178191494
 20
7.0202643604
 30
0.0
 10
10.5148081435
 20
6.9868472992
 30
0.0
 10
10.5097987107
 20
6.9538057651
 30
0.0
 10
10.5028084263
 20
6.921258729
 30
0.0
 10
10.493862046
 20
6.889321647
 30
0.0
 10
10.482990984
 20
6.8581078167
 30
0.0
 10
10.470234554
 20
6.827729803
 30
0.0
 10
10.4604891627
 20
6.8080783701
 30
0.0
 10
10.4553197427
 20
6.7984326628
 30
0.0
  0
SPLINE
  5
39F
100
AcDbEntity
  8
0
100
AcDbSpline
 62
7
  6
CONTINUOUS
 70
0
 71
3
 72
23
 73
19
 74
0
 42
0.0000001
 43
0.0000001
 44
0.0000000001
 40
0.0
 40
0.0
 40
0.0
 40
0.0
 40
0.0616482107
 40
0.1233194484
 40
0.1850364778
 40
0.246821563
 40
0.3086962115
 40
0.3706809284
 40
0.432795007
 40
0.4950563296
 40
0.557481183
 40
0.6200840897
 40
0.6828775671
 40
0.7458723773
 40
0.8090769738
 40
0.8724964981
 40
0.9361392129
 40
1.0
 40
1.0
 40
1.0
 40
1.0
 10
9.0817540811
 20
9.1241459624
 30
0.0
 10
9.0859623648
 20
9.1282108307
 30
0.0
 10
9.0946009402
 20
9.1361173866
 30
0.0
 10
9.1081801655
 20
9.1472658605
 30
0.0
 10
9.1223490344
 20
9.157677454
 30
0.0
 10
9.1370713668
 20
9.1673254822
 30
0.0
 10
9.1523102048
 20
9.176185753
 30
0.0
 10
9.1680271192
 20
9.1842359092
 30
0.0
 10
9.1841824837
 20
9.1914557606
 30
0.0
 10
9.2007355907
 20
9.1978271579
 30
0.0
 10
9.2176447561
 20
9.2033340463
 30
0.0
 10
9.234867375
 20
9.2079625943
 30
0.0
 10
9.2523600593
 20
9.2117012576
 30
0.0
 10
9.2700787874
 20
9.2145406456
 30
0.0
 10
9.2879788187
 20
9.2164735721
 30
0.0
 10
9.3060155246
 20
9.2174954044
 30
0.0
 10
9.3241425618
 20
9.2176033743
 30
0.0
 10
9.3362377039
 20
9.2170670268
 30
0.0
 10
9.3422840525
 20
9.2166477111
 30
0.0
  0
SPLINE
  5
3A0
100
AcDbEntity
  8
0
100
AcDbSpline
 62
7
  6
CONTINUOUS
 70
0
 71
3
 72
23
 73
19
 74
0
 42
0.0000001
 43
0.0000001
 44
0.0000000001
 40
0.0
 40
0.0
 40
0.0
 40
0.0
 40
0.0616482149
 40
0.1233194547
 40
0.1850364846
 40
0.2468215689
 40
0.3086962155
 40
0.3706809299
 40
0.4327950056
 40
0.4950563252
 40
0.557481176
 40
0.6200840805
 40
0.6828775566
 40
0.7458723664
 40
0.8090769636
 40
0.8724964899
 40
0.9361392081
 40
1.0
 40
1.0
 40
1.0
 40
1.0
 10
9.567038136
 20
9.5928943919
 30
0.0
 10
9.571246424
 20
9.596959308
 30
0.0
 10
9.5798850119
 20
9.6048659578
 30
0.0
 10
9.5934642671
 20
9.6160145666
 30
0.0
 10
9.6076331763
 20
9.6264262882
 30
0.0
 10
9.6223555588
 20
9.636074437
 30
0.0
 10
9.6375944563
 20
9.6449348203
 30
0.0
 10
9.6533114387
 20
9.6529850805
 30
0.0
 10
9.6694668792
 20
9.6602050266
 30
0.0
 10
9.6860200695
 20
9.6665765091
 30
0.0
 10
9.7029293247
 20
9.6720834725
 30
0.0
 10
9.7201520393
 20
9.6767120852
 30
0.0
 10
9.7376448241
 20
9.6804508025
 30
0.0
 10
9.7553636571
 20
9.6832902335
 30
0.0
 10
9.7732637965
 20
9.6852231918
 30
0.0
 10
9.7913006131
 20
9.6862450447
 30
0.0
 10
9.8094277627
 20
9.6863530238
 30
0.0
 10
9.82152298
 20
9.6858166749
 30
0.0
 10
9.8275693662
 20
9.6853973566
 30
0.0
  0
SPLINE
  5
3A1
100
AcDbEntity
  8
0
100
AcDbSpline
 62
7
  6
CONTINUOUS
 70
0
 71
3
 72
32
 73
28
 74
0
 42
0.0000001
 43
0.0000001
 44
0.0000000001
 40
0.0
 40
0.0
 40
0.0
 40
0.0
 40
0.0958350133
 40
0.1891086299
 40
0.2792520242
 40
0.3657239766
 40
0.4480156633
 40
0.5256576281
 40
0.5982269975
 40
0.6324943547
 40
0.6653613378
 40
0.6967924401
 40
0.7267581378
 40
0.7552341308
 40
0.7822036768
 40
0.8076572578
 40
0.8315954232
 40
0.8540292433
 40
0.8749840421
 40
0.8945012056
 40
0.9126433592
 40
0.9294981369
 40
0.9451849406
 40
0.9598599088
 40
0.973721248
 40
0.9870091801
 40
1.0
 40
1.0
 40
1.0
 40
1.0
 10
12.1864878071
 20
10.2613926971
 30
0.0
 10
12.1901472806
 20
10.2611389117
 30
0.0
 10
12.1973631433
 20
10.2605576348
 30
0.0
 10
12.2079952971
 20
10.2594480671
 30
0.0
 10
12.2182410496
 20
10.2581183718
 30
0.0
 10
12.2280320068
 20
10.256577601
 30
0.0
 10
12.2373030719
 20
10.2548362648
 30
0.0
 10
12.2459924912
 20
10.2529061898
 30
0.0
 10
12.252826077
 20
10.2511190853
 30
0.0
 10
12.2579524873
 20
10.2495962021
 30
0.0
 10
12.2615432026
 20
10.2484371081
 30
0.0
 10
12.2649477897
 20
10.2472411108
 30
0.0
 10
12.2681606291
 20
10.2460102546
 30
0.0
 10
12.2711764064
 20
10.244746527
 30
0.0
 10
12.2739901878
 20
10.2434520983
 30
0.0
 10
12.2765973604
 20
10.2421290215
 30
0.0
 10
12.2789937294
 20
10.2407795198
 30
0.0
 10
12.2811754219
 20
10.2394056562
 30
0.0
 10
12.2831390135
 20
10.238009617
 30
0.0
 10
12.2848813669
 20
10.2365933576
 30
0.0
 10
12.2863997695
 20
10.2351588676
 30
0.0
 10
12.2876916394
 20
10.2337078275
 30
0.0
 10
12.2887546182
 20
10.2322418869
 30
0.0
 10
12.2895860869
 20
10.2307625777
 30
0.0
 10
12.290183318
 20
10.229271657
 30
0.0
 10
12.2905432688
 20
10.2277722573
 30
0.0
 10
12.2906237644
 20
10.2267646546
 30
0.0
 10
12.290623756
 20
10.2262674068
 30
0.0
  0
SPLINE
  5
3A2
100
AcDbEntity
  8
0
100
AcDbSpline
 62
7
  6
CONTINUOUS
 70
0
 71
3
 72
42
 73
38
 74
0
 42
0.0000001
 43
0.0000001
 44
0.0000000001
 40
0.0
 40
0.0
 40
0.0
 40
0.0
 40
0.0299419644
 40
0.0449235317
 40
0.0599142035
 40
0.0899287023
 40
0.1200139727
 40
0.1350926544
 40
0.1501966973
 40
0.1804840373
 40
0.210897868
 40
0.2414513286
 40
0.2721543342
 40
0.3030133956
 40
0.3340315238
 40
0.3652082165
 40
0.3965395222
 40
0.4280181758
 40
0.459633799
 40
0.4913731572
 40
0.5232204671
 40
0.5551577446
 40
0.5871651885
 40
0.6192215901
 40
0.6513047644
 40
0.683391994
 40
0.715460481
 40
0.7474877999
 40
0.7794523452
 40
0.8113337678
 40
0.8431133918
 40
0.8747746145
 40
0.906303246
 40
0.9376878974
 40
0.9533257627
 40
0.9689252947
 40
1.0
 40
1.0
 40
1.0
 40
1.0
 10
9.7087926512
 20
8.2807874809
 30
0.0
 10
9.7048774898
 20
8.2770057268
 30
0.0
 10
9.6987739766
 20
8.2715622407
 30
0.0
 10
9.6902261753
 20
8.2648080035
 30
0.0
 10
9.6814060942
 20
8.2583899578
 30
0.0
 10
9.6698974019
 20
8.2510198665
 30
0.0
 10
9.6578290994
 20
8.2445732322
 30
0.0
 10
9.6478759219
 20
8.2399869853
 30
0.0
 10
9.6377170761
 20
8.2357794709
 30
0.0
 10
9.624683786
 20
8.2312550853
 30
0.0
 10
9.6086222026
 20
8.2270384997
 30
0.0
 10
9.5922101529
 20
8.2240513429
 30
0.0
 10
9.5755385826
 20
8.2223101129
 30
0.0
 10
9.5586990745
 20
8.2218240976
 30
0.0
 10
9.5417842844
 20
8.2225957718
 30
0.0
 10
9.5248871801
 20
8.2246206778
 30
0.0
 10
9.5081006042
 20
8.2278874906
 30
0.0
 10
9.491516751
 20
8.23237808
 30
0.0
 10
9.4752266722
 20
8.2380676176
 30
0.0
 10
9.4593197826
 20
8.2449247173
 30
0.0
 10
9.4438833765
 20
8.2529116097
 30
0.0
 10
9.4290021556
 20
8.2619843505
 30
0.0
 10
9.4147577699
 20
8.2720930614
 30
0.0
 10
9.4012283758
 20
8.2831822029
 30
0.0
 10
9.3884882122
 20
8.2951908767
 30
0.0
 10
9.3766071979
 20
8.3080531573
 30
0.0
 10
9.3656505514
 20
8.3216984502
 30
0.0
 10
9.355678437
 20
8.3360518767
 30
0.0
 10
9.3467456372
 20
8.3510346755
 30
0.0
 10
9.3389012535
 20
8.3665646472
 30
0.0
 10
9.3321884428
 20
8.3825565357
 30
0.0
 10
9.3266441599
 20
8.3989227278
 30
0.0
 10
9.3222990424
 20
8.4155728454
 30
0.0
 10
9.3196940411
 20
8.429627346
 30
0.0
 10
9.3182327174
 20
8.4409199779
 30
0.0
 10
9.317189806
 20
8.4522018011
 30
0.0
 10
9.3168740203
 20
8.4606913007
 30
0.0
 10
9.3168740203
 20
8.4663405881
 30
0.0
  0
SPLINE
  5
3A3
100
AcDbEntity
  8
0
100
AcDbSpline
 62
7
  6
CONTINUOUS
 70
0
 71
3
 72
42
 73
38
 74
0
 42
0.0000001
 43
0.0000001
 44
0.0000000001
 40
0.0
 40
0.0
 40
0.0
 40
0.0
 40
0.0299419644
 40
0.0449235317
 40
0.0599142035
 40
0.0899287023
 40
0.1200139727
 40
0.1350926544
 40
0.1501966973
 40
0.1804840373
 40
0.210897868
 40
0.2414513286
 40
0.2721543342
 40
0.3030133956
 40
0.3340315238
 40
0.3652082165
 40
0.3965395222
 40
0.4280181758
 40
0.459633799
 40
0.4913731572
 40
0.5232204671
 40
0.5551577446
 40
0.5871651885
 40
0.6192215901
 40
0.6513047644
 40
0.683391994
 40
0.715460481
 40
0.7474877999
 40
0.7794523452
 40
0.8113337678
 40
0.8431133918
 40
0.8747746145
 40
0.906303246
 40
0.9376878974
 40
0.9533257627
 40
0.9689252947
 40
1.0
 40
1.0
 40
1.0
 40
1.0
 10
10.7954592702
 20
6.3083484726
 30
0.0
 10
10.7915441088
 20
6.3045667185
 30
0.0
 10
10.7854405955
 20
6.2991232324
 30
0.0
 10
10.7768927942
 20
6.2923689952
 30
0.0
 10
10.7680727132
 20
6.2859509495
 30
0.0
 10
10.7565640209
 20
6.2785808582
 30
0.0
 10
10.7444957184
 20
6.2721342239
 30
0.0
 10
10.7345425408
 20
6.267547977
 30
0.0
 10
10.7243836951
 20
6.2633404626
 30
0.0
 10
10.711350405
 20
6.258816077
 30
0.0
 10
10.6952888216
 20
6.2545994913
 30
0.0
 10
10.6788767718
 20
6.2516123345
 30
0.0
 10
10.6622052015
 20
6.2498711046
 30
0.0
 10
10.6453656935
 20
6.2493850893
 30
0.0
 10
10.6284509033
 20
6.2501567635
 30
0.0
 10
10.6115537991
 20
6.2521816695
 30
0.0
 10
10.5947672231
 20
6.2554484823
 30
0.0
 10
10.57818337
 20
6.2599390716
 30
0.0
 10
10.5618932912
 20
6.2656286093
 30
0.0
 10
10.5459864016
 20
6.272485709
 30
0.0
 10
10.5305499955
 20
6.2804726014
 30
0.0
 10
10.5156687745
 20
6.2895453421
 30
0.0
 10
10.5014243888
 20
6.2996540531
 30
0.0
 10
10.4878949947
 20
6.3107431946
 30
0.0
 10
10.4751548312
 20
6.3227518684
 30
0.0
 10
10.4632738169
 20
6.3356141489
 30
0.0
 10
10.4523171704
 20
6.3492594419
 30
0.0
 10
10.4423450559
 20
6.3636128684
 30
0.0
 10
10.4334122561
 20
6.3785956672
 30
0.0
 10
10.4255678724
 20
6.3941256389
 30
0.0
 10
10.4188550617
 20
6.4101175274
 30
0.0
 10
10.4133107789
 20
6.4264837194
 30
0.0
 10
10.4089656614
 20
6.4431338371
 30
0.0
 10
10.40636066
 20
6.4571883377
 30
0.0
 10
10.4048993364
 20
6.4684809696
 30
0.0
 10
10.403856425
 20
6.4797627928
 30
0.0
 10
10.4035406392
 20
6.4882522923
 30
0.0
 10
10.4035406392
 20
6.4939015798
 30
0.0
  0
SPLINE
  5
3A4
100
AcDbEntity
  8
0
100
AcDbSpline
 62
7
  6
CONTINUOUS
 70
0
 71
3
 72
32
 73
28
 74
0
 42
0.0000001
 43
0.0000001
 44
0.0000000001
 40
0.0
 40
0.0
 40
0.0
 40
0.0
 40
0.0958350133
 40
0.1891086299
 40
0.2792520242
 40
0.3657239766
 40
0.4480156633
 40
0.5256576281
 40
0.5982269975
 40
0.6324943547
 40
0.6653613378
 40
0.6967924401
 40
0.7267581378
 40
0.7552341308
 40
0.7822036768
 40
0.8076572578
 40
0.8315954232
 40
0.8540292433
 40
0.8749840421
 40
0.8945012056
 40
0.9126433592
 40
0.9294981369
 40
0.9451849406
 40
0.9598599088
 40
0.973721248
 40
0.9870091801
 40
1.0
 40
1.0
 40
1.0
 40
1.0
 10
10.4362302151
 20
10.3827734734
 30
0.0
 10
10.4398896886
 20
10.382519688
 30
0.0
 10
10.4471055512
 20
10.3819384111
 30
0.0
 10
10.4577377051
 20
10.3808288433
 30
0.0
 10
10.4679834575
 20
10.379499148
 30
0.0
 10
10.4777744148
 20
10.3779583773
 30
0.0
 10
10.4870454798
 20
10.376217041
 30
0.0
 10
10.4957348992
 20
10.3742869661
 30
0.0
 10
10.502568485
 20
10.3724998615
 30
0.0
 10
10.5076948953
 20
10.3709769784
 30
0.0
 10
10.5112856105
 20
10.3698178844
 30
0.0
 10
10.5146901977
 20
10.3686218871
 30
0.0
 10
10.5179030371
 20
10.3673910308
 30
0.0
 10
10.5209188144
 20
10.3661273033
 30
0.0
 10
10.5237325958
 20
10.3648328746
 30
0.0
 10
10.5263397684
 20
10.3635097977
 30
0.0
 10
10.5287361374
 20
10.3621602961
 30
0.0
 10
10.5309178299
 20
10.3607864325
 30
0.0
 10
10.5328814215
 20
10.3593903933
 30
0.0
 10
10.5346237749
 20
10.3579741338
 30
0.0
 10
10.5361421774
 20
10.3565396439
 30
0.0
 10
10.5374340474
 20
10.3550886038
 30
0.0
 10
10.5384970262
 20
10.3536226632
 30
0.0
 10
10.5393284949
 20
10.352143354
 30
0.0
 10
10.5399257259
 20
10.3506524333
 30
0.0
 10
10.5402856768
 20
10.3491530336
 30
0.0
 10
10.5403661724
 20
10.3481454308
 30
0.0
 10
10.540366164
 20
10.3476481831
 30
0.0
  0
SPLINE
  5
3A5
100
AcDbEntity
  8
0
100
AcDbSpline
 62
7
  6
CONTINUOUS
 70
0
 71
3
 72
23
 73
19
 74
0
 42
0.0000001
 43
0.0000001
 44
0.0000000001
 40
0.0
 40
0.0
 40
0.0
 40
0.0
 40
0.0637764154
 40
0.1273451281
 40
0.190701988
 40
0.253856063
 40
0.3168132283
 40
0.3795820791
 40
0.4421733864
 40
0.5045993414
 40
0.5668738629
 40
0.629012379
 40
0.6910316532
 40
0.7529496461
 40
0.8147853522
 40
0.8765586034
 40
0.9382898574
 40
1.0
 40
1.0
 40
1.0
 40
1.0
 10
10.019585083
 20
8.4176074104
 30
0.0
 10
10.019585083
 20
8.4230459865
 30
0.0
 10
10.0198454243
 20
8.4339072686
 30
0.0
 10
10.0210203182
 20
8.4501330941
 30
0.0
 10
10.0229765919
 20
8.4662303444
 30
0.0
 10
10.0257095328
 20
8.4821611196
 30
0.0
 10
10.0292130231
 20
8.4978890743
 30
0.0
 10
10.0334789579
 20
8.5133778496
 30
0.0
 10
10.0384975244
 20
8.5285917513
 30
0.0
 10
10.0442572597
 20
8.5434956802
 30
0.0
 10
10.0507448626
 20
8.5580552745
 30
0.0
 10
10.0579453827
 20
8.572236966
 30
0.0
 10
10.0658422763
 20
8.5860080209
 30
0.0
 10
10.0744173745
 20
8.5993366635
 30
0.0
 10
10.0836508412
 20
8.6121921461
 30
0.0
 10
10.093521505
 20
8.6245449123
 30
0.0
 10
10.1040062589
 20
8.6363660416
 30
0.0
 10
10.1113907488
 20
8.6438755824
 30
0.0
 10
10.1151757344
 20
8.6475315989
 30
0.0
  0
SPLINE
  5
3A6
100
AcDbEntity
  8
0
100
AcDbSpline
 62
7
  6
CONTINUOUS
 70
0
 71
3
 72
41
 73
37
 74
0
 42
0.0000001
 43
0.0000001
 44
0.0000000001
 40
0.0
 40
0.0
 40
0.0
 40
0.0
 40
0.0299421701
 40
0.0599087164
 40
0.0899234211
 40
0.1200088983
 40
0.1501860543
 40
0.1804736026
 40
0.2108876422
 40
0.2414413123
 40
0.2721445279
 40
0.3030038001
 40
0.33402214
 40
0.3651990456
 40
0.3965305656
 40
0.428009435
 40
0.4596252751
 40
0.4913648511
 40
0.523212379
 40
0.5551498748
 40
0.5871575372
 40
0.6192141578
 40
0.6512975514
 40
0.6833850007
 40
0.7154537075
 40
0.7314764095
 40
0.7474860758
 40
0.7794508394
 40
0.8113324795
 40
0.8431123195
 40
0.8747737607
 40
0.9063025939
 40
0.9376875098
 40
0.9533255635
 40
0.9689249841
 40
1.0
 40
1.0
 40
1.0
 40
1.0
 10
10.6049721795
 20
8.1404572546
 30
0.0
 10
10.5991243222
 20
8.1348086564
 30
0.0
 10
10.5869687796
 20
8.1239673226
 30
0.0
 10
10.567493707
 20
8.1091979214
 30
0.0
 10
10.5468764196
 20
8.0959950349
 30
0.0
 10
10.5252321158
 20
8.0844327302
 30
0.0
 10
10.5026797928
 20
8.0745741789
 30
0.0
 10
10.4793439149
 20
8.0664735752
 30
0.0
 10
10.4553530792
 20
8.060175237
 30
0.0
 10
10.4308394588
 20
8.0557135481
 30
0.0
 10
10.4059380215
 20
8.0531127424
 30
0.0
 10
10.3807857947
 20
8.0523868015
 30
0.0
 10
10.3555211088
 20
8.0535393929
 30
0.0
 10
10.3302828416
 20
8.0565638674
 30
0.0
 10
10.3052096623
 20
8.0614433099
 30
0.0
 10
10.2804392787
 20
8.0681506442
 30
0.0
 10
10.2561076909
 20
8.0766487878
 30
0.0
 10
10.2323484525
 20
8.0868908559
 30
0.0
 10
10.2092919488
 20
8.098820433
 30
0.0
 10
10.1870646953
 20
8.1123718771
 30
0.0
 10
10.1657886385
 20
8.1274706997
 30
0.0
 10
10.1455805492
 20
8.1440338991
 30
0.0
 10
10.1265511899
 20
8.1619706872
 30
0.0
 10
10.10880546
 20
8.1811819573
 30
0.0
 10
10.0951623932
 20
8.1981729993
 30
0.0
 10
10.0849834442
 20
8.2122960039
 30
0.0
 10
10.0753165774
 20
8.2267403617
 30
0.0
 10
10.0642024631
 20
8.2453816957
 30
0.0
 10
10.0524860149
 20
8.2685775482
 30
0.0
 10
10.0424593903
 20
8.2924638519
 30
0.0
 10
10.0341782258
 20
8.3169090924
 30
0.0
 10
10.0276881413
 20
8.3417784625
 30
0.0
 10
10.0237972076
 20
8.3627709218
 30
0.0
 10
10.0216144896
 20
8.3796380728
 30
0.0
 10
10.0200567511
 20
8.3964890952
 30
0.0
 10
10.019585083
 20
8.4091693568
 30
0.0
 10
10.019585083
 20
8.4176074104
 30
0.0
  0
SPLINE
  5
3A7
100
AcDbEntity
  8
0
100
AcDbSpline
 62
7
  6
CONTINUOUS
 70
0
 71
3
 72
15
 73
11
 74
0
 42
0.0000001
 43
0.0000001
 44
0.0000000001
 40
0.0
 40
0.0
 40
0.0
 40
0.0
 40
0.123651287
 40
0.2476394101
 40
0.371993985
 40
0.4967404038
 40
0.6219002849
 40
0.7474888797
 40
0.873521172
 40
1.0
 40
1.0
 40
1.0
 40
1.0
 10
10.4576151296
 20
6.8463138136
 30
0.0
 10
10.4613469411
 20
6.8546182167
 30
0.0
 10
10.4683718463
 20
6.8714555122
 30
0.0
 10
10.4775477179
 20
6.897275717
 30
0.0
 10
10.4853529627
 20
6.9236276075
 30
0.0
 10
10.4917666491
 20
6.9504406683
 30
0.0
 10
10.4967719613
 20
6.977644231
 30
0.0
 10
10.5003558945
 20
7.0051668037
 30
0.0
 10
10.5025088659
 20
7.0329346302
 30
0.0
 10
10.5029857565
 20
7.0515304894
 30
0.0
 10
10.5029857565
 20
7.060843048
 30
0.0
  0
SPLINE
  5
3A8
100
AcDbEntity
  8
0
100
AcDbSpline
 62
7
  6
CONTINUOUS
 70
0
 71
3
 72
14
 73
10
 74
0
 42
0.0000001
 43
0.0000001
 44
0.0000000001
 40
0.0
 40
0.0
 40
0.0
 40
0.0
 40
0.121247593
 40
0.2410006902
 40
0.3605554696
 40
0.4812488916
 40
0.6043952886
 40
0.731232446
 40
1.0
 40
1.0
 40
1.0
 40
1.0
 10
10.3388290569
 20
8.5589665754
 30
0.0
 10
10.3390472221
 20
8.5589514816
 30
0.0
 10
10.3394828771
 20
8.5589446324
 30
0.0
 10
10.3401315017
 20
8.5590072702
 30
0.0
 10
10.3407679064
 20
8.5591430993
 30
0.0
 10
10.3413906
 20
8.5593519487
 30
0.0
 10
10.3419984701
 20
8.5596335299
 30
0.0
 10
10.342802652
 20
8.5601143247
 30
0.0
 10
10.3433574804
 20
8.5605712993
 30
0.0
 10
10.3437061458
 20
8.5609080841
 30
0.0
  0
ELLIPSE
  5
3A9
100
AcDbEntity
  8
0
100
AcDbEllipse
 62
7
  6
CONTINUOUS
 10
11.6048648609
 20
10.2305879377
 30
0.0
 11
0.2101302922
 21
-0.0055815383
 31
0.0
 40
0.2663352177
 41
0.0
 42
6.2831853072
  0
ELLIPSE
  5
3AA
100
AcDbEntity
  8
0
100
AcDbEllipse
 62
7
  6
CONTINUOUS
 10
11.1195795518
 20
9.7618382968
 30
0.0
 11
0.2186119105
 21
0.0049854128
 31
0.0
 40
0.2461154038
 41
0.0
 42
6.2831853072
  0
ENDSEC
  0
SECTION
  2
OBJECTS
  0
DICTIONARY
  5
C
100
AcDbDictionary
280
0
281
1
  3
ACAD_GROUP
350
D
  3
ACAD_MLINESTYLE
350
17
  3
ACAD_LAYOUT
350
1A
  3
ACAD_PLOTSETTINGS
350
19
  3
ACAD_PLOTSTYLENAME
350
E
  3
ACAD_IMAGE_DICT
350
       3AC
  3
ACAD_IMAGE_VARS
350
       3AD
  3
ACAD_TABLESTYLE
350
       3AE
  0
IMAGEDEF_REACTOR
  5
3AB
100
AcDbRasterImageDefReactor
 90
2
330
26E
  0
DICTIONARY
  5
D
102
{ACAD_REACTORS
330
C
102
}
100
AcDbDictionary
280
0
281
1
  0
ACDBDICTIONARYWDFLT
  5
E
102
{ACAD_REACTORS
330
C
102
}
100
AcDbDictionary
281
1
  3
Normal
350
F
100
AcDbDictionaryWithDefault
340
F
  0
DICTIONARY
  5
3AC
330
C
100
AcDbDictionary
281
1
  3
U3Y_assy_2_img_1
350
       3B1
  0
RASTERVARIABLES
  5
3AD
330
C
100
AcDbRasterVariables
 90
0
 70
0
 71
1
 72
5
  0
DICTIONARY
  5
17
102
{ACAD_REACTORS
330
C
102
}
100
AcDbDictionary
280
0
281
1
  3
Standard
350
18
  0
DICTIONARY
  5
3AE
330
C
100
AcDbDictionary
281
1
  3
Standard
350
       3B2
  3
Standard1
350
       3B3
  0
DICTIONARY
  5
19
102
{ACAD_REACTORS
330
C
102
}
100
AcDbDictionary
281
1
  0
DICTIONARY
  5
1A
102
{ACAD_REACTORS
330
C
102
}
100
AcDbDictionary
281
1
  3
Model
350
3AF
  3
Layout1
350
3B0
  0
ACDBPLACEHOLDER
  5
F
102
{ACAD_REACTORS
330
E
102
}
  0
MLINESTYLE
  5
18
102
{ACAD_REACTORS
330
17
102
}
100
AcDbMlineStyle
  2
STANDARD
 70
0
  3

 62
256
 51
90.0
 52
90.0
 71
2
 49
0.5
 62
256
  6
BYLAYER
 49
-0.5
 62
256
  6
BYLAYER
  0
LAYOUT
  5
3AF
102
{ACAD_REACTORS
330
1A
102
}
100
AcDbPlotSettings
  1

  2
none_device
  4
ANSI_C_(22.00_x_17.00_Inches)
  6

 40
0.0
 41
0.0
 42
0.0
 43
0.0
 44
558.8
 45
431.8
 46
0.0
 47
0.0
 48
0.0
 49
0.0
140
0.0
141
0.0
142
1.0
143
1.0
 70
1024
 72
0
 73
0
 74
0
  7

 75
0
147
1.0
148
0.0
149
0.0
100
AcDbLayout
  1
Model
 70
0
 71
0
 10
0.0
 20
0.0
 11
22.0
 21
17.0
 12
0.0
 22
0.0
 32
0.0
 14
0.0
 24
0.0
 34
0.0
 15
0.0
 25
0.0
 35
0.0
146
0.0
 13
0.0
 23
0.0
 33
0.0
 16
1.0
 26
0.0
 36
0.0
 17
0.0
 27
1.0
 37
0.0
 76
0
330
20F
345
0
346
0
  0
LAYOUT
  5
3B0
102
{ACAD_REACTORS
330
1A
102
}
100
AcDbPlotSettings
  1

  2
none_device
  4
ANSI_C_(22.00_x_17.00_Inches)
  6

 40
0.0
 41
0.0
 42
0.0
 43
0.0
 44
558.8
 45
431.8
 46
0.0
 47
0.0
 48
0.0
 49
0.0
140
0.0
141
0.0
142
1.0
143
1.0
 70
0
 72
0
 73
0
 74
0
  7

 75
0
147
1.0
148
0.0
149
0.0
100
AcDbLayout
  1
Layout1
 70
0
 71
1
 10
0.0
 20
0.0
 11
22.0
 21
17.0
 12
0.0
 22
0.0
 32
0.0
 14
0.0
 24
0.0
 34
0.0
 15
0.0
 25
0.0
 35
0.0
146
0.0
 13
0.0
 23
0.0
 33
0.0
 16
1.0
 26
0.0
 36
0.0
 17
0.0
 27
1.0
 37
0.0
 76
0
330
210
345
0
346
0
  0
IMAGEDEF
  5
3B1
102
{ACAD_REACTORS
330
3AC
330
3AB
102
}
100
AcDbRasterImageDef
 90
0
  1
U3Y_assy_2_img_1.png
 10
369.0
 20
92.0
 11
0.0066666667
 21
0.0066666667
280
1
281
0
  0
TABLESTYLE
  5
3B2
102
{ACAD_REACTORS
330
3AE
330
271
102
}
330
3AE
100
AcDbTableStyle
  3
Standard
 70
0
 71
0
 40
0.06
 41
0.06
280
1
281
1
  7
Standard
140
0.18
170
1
 62
0
 63
7
283
0
  7
Standard
140
0.18
170
1
 62
0
 63
7
283
0
  7
Standard
140
0.18
170
1
 62
0
 63
7
283
0
  0
TABLESTYLE
  5
3B3
102
{ACAD_REACTORS
330
3AE
330
270
102
}
330
3AE
100
AcDbTableStyle
  3
Standard1
 70
1
 71
0
 40
0.06
 41
0.06
280
1
281
1
  7
Standard
140
0.18
170
1
 62
0
 63
7
283
0
  7
Standard
140
0.18
170
1
 62
0
 63
7
283
0
  7
Standard
140
0.18
170
1
 62
0
 63
7
283
0
  0
ENDSEC
  0
EOF
