999
DXF file: U3X_assy_2.dxf
999
Pro/ENGINEER 2014200 by Parametric Technology Corporation
  0
SECTION
  2
HEADER
  9
$ACADVER
  1
AC1021
  9
$DWGCODEPAGE
  3
ANSI_1252
  9
$EXTMAX
 10
22.0
 20
17.0
 30
0.0
  9
$EXTMIN
 10
0.0
 20
0.0
 30
0.0
  9
$LIMMIN
 10
0.0
 20
0.0
  9
$LIMMAX
 10
22.0
 20
17.0
  9
$VIEWCTR
 10
11.0
 20
8.5
  9
$VIEWSIZE
 40
17.0
  9
$CLAYER
  8
0
  9
$LTSCALE
 40
1.21
  9
$CELTYPE
  6
BYLAYER
  9
$DIMSCALE
 40
1.0
  9
$DIMASZ
 40
0.1875
  9
$DIMEXO
 40
0.0625
  9
$DIMDLI
 40
0.836
  9
$DIMEXE
 40
0.125
  9
$DIMCEN
 40
0.198
  9
$DIMLFAC
 40
1.0
  9
$DIMBLK
  1
_FILLED
  9
$DIMTXT
 40
0.1
  9
$DIMTOL
 70
0
  9
$DIMLIM
 70
0
  9
$DIMTFAC
 40
1.0
  9
$DIMGAP
 40
0.09
  9
$DIMDSEP
 70
46
  9
$AUNITS
 70
0
  9
$PDMODE
 70
3
  9
$PDSIZE
 40
0.3125
  9
$HANDSEED
  5
3D6
  9
$TILEMODE
 70
1
  9
$MEASUREMENT
 70
0
  9
$INSUNITS
 70
1
  0
ENDSEC
  0
SECTION
  2
CLASSES
  0
CLASS
  1
ACDBDICTIONARYWDFLT
  2
AcDbDictionaryWithDefault
  3
AutoCAD 2000
 90
0
 91
1
280
0
281
0
  0
CLASS
  1
ACDBPLACEHOLDER
  2
AcDbPlaceHolder
  3
AutoCAD 2000
 90
0
 91
1
280
0
281
0
  0
CLASS
  1
LAYOUT
  2
AcDbLayout
  3
AutoCAD 2000
 90
0
 91
0
280
0
281
0
  0
CLASS
  1
RASTERVARIABLES
  2
AcDbRasterVariables
  3
ISM
 90
0
 91
1
280
0
281
0
  0
CLASS
  1
IMAGEDEF
  2
AcDbRasterImageDef
  3
ISM
 90
0
 91
1
280
0
281
0
  0
CLASS
  1
IMAGEDEF_REACTOR
  2
AcDbRasterImageDefReactor
  3
ISM
 90
0
 91
1
280
0
281
0
  0
CLASS
  1
IMAGE
  2
AcDbRasterImage
  3
ISM
 90
127
 91
1
280
0
281
1
  0
CLASS
  1
TABLESTYLE
  2
AcDbTableStyle
  3
ObjectDBX Classes
 90
2047
 91
1
280
0
281
0
  0
CLASS
  1
ACAD_TABLE
  2
AcDbTable
  3
ObjectDBX Classes
 90
1025
 91
2
280
0
281
1
  0
ENDSEC
  0
SECTION
  2
TABLES
  0
TABLE
  2
VPORT
  5
8
100
AcDbSymbolTable
 70
2
  0
VPORT
  5
1F4
100
AcDbSymbolTableRecord
100
AcDbViewportTableRecord
  2
*ACTIVE
 70
0
 10
0.0
 20
0.0
 11
1.0
 21
1.0
 12
11.0
 22
8.5
 13
0.0
 23
0.0
 14
1.0
 24
1.0
 15
0.0
 25
0.0
 16
0.0
 26
0.0
 36
1.0
 17
0.0
 27
0.0
 37
0.0
 40
17.0
 41
1.2941176471
 42
50.0
 43
0.0
 44
0.0
 50
0.0
 51
0.0
 71
0
 72
100
 73
1
 74
1
 75
0
 76
0
 77
0
 78
0
  0
ENDTAB
  0
TABLE
  2
LTYPE
  5
5
100
AcDbSymbolTable
 70
6
  0
LTYPE
  5
14
100
AcDbSymbolTableRecord
100
AcDbLinetypeTableRecord
  2
BYBLOCK
 70
0
  3

 72
65
 73
0
 40
0.0
  0
LTYPE
  5
15
100
AcDbSymbolTableRecord
100
AcDbLinetypeTableRecord
  2
BYLAYER
 70
0
  3

 72
65
 73
0
 40
0.0
  0
LTYPE
  5
16
100
AcDbSymbolTableRecord
100
AcDbLinetypeTableRecord
  2
CONTINUOUS
 70
64
  3
Solid line
 72
65
 73
0
 40
0.0
  0
LTYPE
  5
1F5
100
AcDbSymbolTableRecord
100
AcDbLinetypeTableRecord
  2
CENTER
 70
64
  3
____ _ ____ _ ____ _ ____ _ ____ _ ____ _ ____
 72
65
 73
4
 40
0.6
 49
0.375
 74
0
 49
-0.075
 74
0
 49
0.075
 74
0
 49
-0.075
 74
0
  0
LTYPE
  5
1F6
100
AcDbSymbolTableRecord
100
AcDbLinetypeTableRecord
  2
HIDDEN
 70
64
  3
- - - - - - - - - - - - - - - - - - - -
 72
65
 73
2
 40
0.2
 49
0.1
 74
0
 49
-0.1
 74
0
  0
LTYPE
  5
1F7
100
AcDbSymbolTableRecord
100
AcDbLinetypeTableRecord
  2
PHANTOM
 70
64
  3
_____ _ _ _____ _ _ _____ _ _ _____
 72
65
 73
6
 40
0.8
 49
0.45
 74
0
 49
-0.05
 74
0
 49
0.1
 74
0
 49
-0.05
 74
0
 49
0.1
 74
0
 49
-0.05
 74
0
  0
LTYPE
  5
1F8
100
AcDbSymbolTableRecord
100
AcDbLinetypeTableRecord
  2
DOT
 70
64
  3
. . . . . . . . . . . . . . . . . . . .
 72
65
 73
2
 40
0.2
 49
0.1
 74
0
 49
-0.1
 74
0
  0
LTYPE
  5
1F9
100
AcDbSymbolTableRecord
100
AcDbLinetypeTableRecord
  2
DASHED
 70
64
  3
- - - - - - - - - - - - - - - - - - - -
 72
65
 73
2
 40
0.2
 49
0.1
 74
0
 49
-0.1
 74
0
  0
ENDTAB
  0
TABLE
  2
LAYER
  5
2
100
AcDbSymbolTable
 70
36
  0
LAYER
  5
10
100
AcDbSymbolTableRecord
100
AcDbLayerTableRecord
  2
0
 70
0
 62
7
  6
CONTINUOUS
370
-3
390
F
  0
LAYER
  5
1FA
100
AcDbSymbolTableRecord
100
AcDbLayerTableRecord
  2
DEFAULT_1
 70
0
 62
7
  6
CENTER
370
-3
390
F
  0
LAYER
  5
1FB
100
AcDbSymbolTableRecord
100
AcDbLayerTableRecord
  2
DEFAULT_2
 70
0
 62
8
  6
HIDDEN
370
-3
390
F
  0
LAYER
  5
1FC
100
AcDbSymbolTableRecord
100
AcDbLayerTableRecord
  2
DEFAULT_3
 70
0
 62
7
  6
PHANTOM
370
-3
390
F
  0
LAYER
  5
1FD
100
AcDbSymbolTableRecord
100
AcDbLayerTableRecord
  2
01___PRT_ALL_DTM_PLN
 70
0
 62
7
  6
CONTINUOUS
370
-3
390
F
  0
LAYER
  5
1FE
100
AcDbSymbolTableRecord
100
AcDbLayerTableRecord
  2
01___PRT_DEF_DTM_PLN
 70
0
 62
7
  6
CONTINUOUS
370
-3
390
F
  0
LAYER
  5
1FF
100
AcDbSymbolTableRecord
100
AcDbLayerTableRecord
  2
02___PRT_ALL_AXES
 70
0
 62
7
  6
CONTINUOUS
370
-3
390
F
  0
LAYER
  5
200
100
AcDbSymbolTableRecord
100
AcDbLayerTableRecord
  2
03___PRT_ALL_CURVES
 70
0
 62
7
  6
CONTINUOUS
370
-3
390
F
  0
LAYER
  5
201
100
AcDbSymbolTableRecord
100
AcDbLayerTableRecord
  2
04___PRT_ALL_DTM_PNT
 70
0
 62
7
  6
CONTINUOUS
370
-3
390
F
  0
LAYER
  5
202
100
AcDbSymbolTableRecord
100
AcDbLayerTableRecord
  2
05___PRT_ALL_DTM_CSYS
 70
0
 62
7
  6
CONTINUOUS
370
-3
390
F
  0
LAYER
  5
203
100
AcDbSymbolTableRecord
100
AcDbLayerTableRecord
  2
05___PRT_DEF_DTM_CSYS
 70
0
 62
7
  6
CONTINUOUS
370
-3
390
F
  0
LAYER
  5
204
100
AcDbSymbolTableRecord
100
AcDbLayerTableRecord
  2
06___PRT_ALL_SURFS
 70
0
 62
7
  6
CONTINUOUS
370
-3
390
F
  0
LAYER
  5
205
100
AcDbSymbolTableRecord
100
AcDbLayerTableRecord
  2
DATUM_PLANES
 70
0
 62
7
  6
CONTINUOUS
370
-3
390
F
  0
LAYER
  5
206
100
AcDbSymbolTableRecord
100
AcDbLayerTableRecord
  2
DIMENSIONS
 70
0
 62
7
  6
CONTINUOUS
370
-3
390
F
  0
LAYER
  5
207
100
AcDbSymbolTableRecord
100
AcDbLayerTableRecord
  2
DTM_500001
 70
0
 62
7
  6
CONTINUOUS
370
-3
390
F
  0
LAYER
  5
208
100
AcDbSymbolTableRecord
100
AcDbLayerTableRecord
  2
PARAMETERDIMENSIONS
 70
0
 62
7
  6
CONTINUOUS
370
-3
390
F
  0
LAYER
  5
209
100
AcDbSymbolTableRecord
100
AcDbLayerTableRecord
  2
PLANE
 70
0
 62
7
  6
CONTINUOUS
370
-3
390
F
  0
LAYER
  5
20A
100
AcDbSymbolTableRecord
100
AcDbLayerTableRecord
  2
PORT_AREAS
 70
0
 62
7
  6
CONTINUOUS
370
-3
390
F
  0
LAYER
  5
20B
100
AcDbSymbolTableRecord
100
AcDbLayerTableRecord
  2
SUNNBOMCOSMETIC
 70
0
 62
7
  6
CONTINUOUS
370
-3
390
F
  0
LAYER
  5
20C
100
AcDbSymbolTableRecord
100
AcDbLayerTableRecord
  2
SUNNBOMSTAMPING
 70
0
 62
7
  6
CONTINUOUS
370
-3
390
F
  0
LAYER
  5
20D
100
AcDbSymbolTableRecord
100
AcDbLayerTableRecord
  2
THREADS
 70
0
 62
7
  6
CONTINUOUS
370
-3
390
F
  0
ENDTAB
  0
TABLE
  2
STYLE
  5
3
100
AcDbSymbolTable
 70
1
  0
STYLE
  5
11
100
AcDbSymbolTableRecord
100
AcDbTextStyleTableRecord
  2
STANDARD
 70
0
 40
0.0
 41
0.8
 50
0.0
 71
0
 42
0.2
  3
txt
  4

  0
STYLE
  5
20E
100
AcDbSymbolTableRecord
100
AcDbTextStyleTableRecord
  2
TEXTSTYLE_1
 70
0
 40
0.0
 41
0.8
 50
0.0
 71
0
 42
0.2
  3
gdt
  4

  0
ENDTAB
  0
TABLE
  2
VIEW
  5
6
100
AcDbSymbolTable
 70
0
  0
ENDTAB
  0
TABLE
  2
UCS
  5
7
100
AcDbSymbolTable
 70
0
  0
ENDTAB
  0
TABLE
  2
APPID
  5
9
100
AcDbSymbolTable
 70
1
  0
APPID
  5
20F
100
AcDbSymbolTableRecord
100
AcDbRegAppTableRecord
  2
ACAD
 70
0
  0
ENDTAB
  0
TABLE
  2
BLOCK_RECORD
  5
1
100
AcDbSymbolTable
 70
0
  0
BLOCK_RECORD
  5
210
100
AcDbSymbolTableRecord
100
AcDbBlockTableRecord
  2
*Model_Space
  0
BLOCK_RECORD
  5
211
100
AcDbSymbolTableRecord
100
AcDbBlockTableRecord
  2
*Paper_Space
  0
BLOCK_RECORD
  5
212
100
AcDbSymbolTableRecord
100
AcDbBlockTableRecord
  2
SUN_FIRST_THIRD_ANGLE_BL0
  0
BLOCK_RECORD
  5
213
100
AcDbSymbolTableRecord
100
AcDbBlockTableRecord
  2
*T1
  0
BLOCK_RECORD
  5
214
100
AcDbSymbolTableRecord
100
AcDbBlockTableRecord
  2
*T2
  0
ENDTAB
  0
TABLE
  2
DIMSTYLE
  5
A
100
AcDbSymbolTable
 70
1
100
AcDbDimStyleTable
 71
0
  0
DIMSTYLE
105
215
100
AcDbSymbolTableRecord
100
AcDbDimStyleTableRecord
  2
STANDARD
 70
0
  3

  4

 40
1.0
 41
0.1875
 42
0.0625
 43
0.38
 44
0.125
 45
0.0
 46
0.0
 47
0.001
 48
0.001
140
0.1
141
0.09
142
0.0
143
25.4
144
1.0
145
0.0
146
1.0
147
0.09
 71
0.0
 72
0.0
 73
1
 74
1
 75
0
 76
0
 77
0
 78
4
170
0
171
2
172
0
173
0
174
0
175
0
176
0
177
0
178
0
270
2
271
3
272
3
273
2
274
2
275
0
280
0
281
0
282
0
283
1
284
4
285
0
286
0
287
3
288
0
340
11
278
46
  0
ENDTAB
  0
ENDSEC
  0
SECTION
  2
BLOCKS
  0
BLOCK
  5
20
100
AcDbEntity
  8
0
100
AcDbBlockBegin
  2
*Model_Space
 70
0
 10
0.0
 20
0.0
 30
0.0
  3
*Model_Space
  1

  0
ENDBLK
  5
21
100
AcDbEntity
  8
0
100
AcDbBlockEnd
  0
BLOCK
  5
1C
100
AcDbEntity
  8
0
100
AcDbBlockBegin
  2
*Paper_Space
 70
0
 10
0.0
 20
0.0
 30
0.0
  3
*Paper_Space
  1

  0
ENDBLK
  5
1D
100
AcDbEntity
  8
0
100
AcDbBlockEnd
  0
BLOCK
  5
216
100
AcDbEntity
  8
0
100
AcDbBlockBegin
 62
2
  6
CONTINUOUS
  2
SUN_FIRST_THIRD_ANGLE_BL0
 70
64
 10
20.4816717061
 20
1.2289683772
  3
SUN_FIRST_THIRD_ANGLE_BL0
  1

  0
TEXT
  5
217
100
AcDbEntity
  8
0
100
AcDbText
 62
2
  6
CONTINUOUS
 10
19.4750896608
 20
1.4136269581
  7
STANDARD
 40
0.08
  1
FIRST ANGLE
 41
0.8
 72
0
100
AcDbText
  0
TEXT
  5
218
100
AcDbEntity
  8
0
100
AcDbText
 62
2
  6
CONTINUOUS
 10
20.7842537513
 20
1.4047600029
  7
STANDARD
 40
0.08
  1
THIRD ANGLE
 41
0.8
 72
0
100
AcDbText
  0
LINE
  5
219
100
AcDbEntity
  8
0
100
AcDbLine
 62
7
  6
CONTINUOUS
 10
19.4767170086
 20
1.1727031207
 11
19.6334271527
 21
1.1717972817
  0
LINE
  5
21A
100
AcDbEntity
  8
0
100
AcDbLine
 62
7
  6
CONTINUOUS
 10
19.6596964832
 20
1.1717972817
 11
19.6950230232
 21
1.171593082
  0
LINE
  5
21B
100
AcDbEntity
  8
0
100
AcDbLine
 62
7
  6
CONTINUOUS
 10
19.7194818561
 20
1.1708914427
 11
19.8852396156
 21
1.1699333054
  0
LINE
  5
21C
100
AcDbEntity
  8
0
100
AcDbLine
 62
7
  6
CONTINUOUS
 10
19.4758111696
 20
1.2723454088
 11
19.88525039
 21
1.3511534004
  0
LINE
  5
21D
100
AcDbEntity
  8
0
100
AcDbLine
 62
7
  6
CONTINUOUS
 10
19.88525039
 20
1.3511534004
 11
19.8831348489
 21
0.9851647912
  0
LINE
  5
21E
100
AcDbEntity
  8
0
100
AcDbLine
 62
7
  6
CONTINUOUS
 10
19.8831348489
 20
0.9851647912
 11
19.4767170086
 21
1.0658141206
  0
LINE
  5
21F
100
AcDbEntity
  8
0
100
AcDbLine
 62
7
  6
CONTINUOUS
 10
19.4767170086
 20
1.0658141206
 11
19.4779056764
 21
1.2714536432
  0
CIRCLE
  5
220
100
AcDbEntity
  8
0
100
AcDbCircle
 62
7
  6
CONTINUOUS
 10
20.2068232291
 20
1.1717972817
 40
0.175742101
  0
CIRCLE
  5
221
100
AcDbEntity
  8
0
100
AcDbCircle
 62
7
  6
CONTINUOUS
 10
20.2068232291
 20
1.1717972817
 40
0.1005522074
  0
LINE
  5
222
100
AcDbEntity
  8
0
100
AcDbLine
 62
7
  6
CONTINUOUS
 10
20.2077290681
 20
1.3756110529
 11
20.2071171714
 21
1.2379342989
  0
LINE
  5
223
100
AcDbEntity
  8
0
100
AcDbLine
 62
7
  6
CONTINUOUS
 10
20.2077290681
 20
1.2016899681
 11
20.2074674401
 21
1.1428236749
  0
LINE
  5
224
100
AcDbEntity
  8
0
100
AcDbLine
 62
7
  6
CONTINUOUS
 10
20.208634907
 20
1.101141841
 11
20.2080230104
 21
0.963465087
  0
LINE
  5
225
100
AcDbEntity
  8
0
100
AcDbLine
 62
7
  6
CONTINUOUS
 10
20.0066328138
 20
1.1745147986
 11
20.1443095678
 21
1.1739029019
  0
LINE
  5
226
100
AcDbEntity
  8
0
100
AcDbLine
 62
7
  6
CONTINUOUS
 10
20.1832714155
 20
1.1727031207
 11
20.238153505
 21
1.172335442
  0
LINE
  5
227
100
AcDbEntity
  8
0
100
AcDbLine
 62
7
  6
CONTINUOUS
 10
20.2756669918
 20
1.1717972817
 11
20.407916871
 21
1.1712095044
  0
CIRCLE
  5
228
100
AcDbEntity
  8
0
100
AcDbCircle
 62
7
  6
CONTINUOUS
 10
20.7509457401
 20
1.1693297793
 40
0.1722024983
  0
CIRCLE
  5
229
100
AcDbEntity
  8
0
100
AcDbCircle
 62
7
  6
CONTINUOUS
 10
20.7509457401
 20
1.1693297793
 40
0.0985164967
  0
LINE
  5
22A
100
AcDbEntity
  8
0
100
AcDbLine
 62
7
  6
CONTINUOUS
 10
20.7169767782
 20
1.170462078
 11
20.7825395137
 21
1.1682766535
  0
LINE
  5
22B
100
AcDbEntity
  8
0
100
AcDbLine
 62
7
  6
CONTINUOUS
 10
20.8177513651
 20
1.1693297793
 11
20.947965719
 21
1.1693297793
  0
LINE
  5
22C
100
AcDbEntity
  8
0
100
AcDbLine
 62
7
  6
CONTINUOUS
 10
20.6875370113
 20
1.170462078
 11
20.5573226574
 21
1.170462078
  0
LINE
  5
22D
100
AcDbEntity
  8
0
100
AcDbLine
 62
7
  6
CONTINUOUS
 10
20.7486811426
 20
1.1987695462
 11
20.7486811426
 21
1.1432869085
  0
LINE
  5
22E
100
AcDbEntity
  8
0
100
AcDbLine
 62
7
  6
CONTINUOUS
 10
20.7498134414
 20
1.1059210505
 11
20.7498134414
 21
0.9757066966
  0
LINE
  5
22F
100
AcDbEntity
  8
0
100
AcDbLine
 62
7
  6
CONTINUOUS
 10
20.7486811426
 20
1.2338708068
 11
20.7486811426
 21
1.3640851607
  0
LINE
  5
230
100
AcDbEntity
  8
0
100
AcDbLine
 62
7
  6
CONTINUOUS
 10
21.0702539817
 20
1.2701043662
 11
21.4790138229
 21
1.3448360823
  0
LINE
  5
231
100
AcDbEntity
  8
0
100
AcDbLine
 62
7
  6
CONTINUOUS
 10
21.4790138229
 20
1.3448360823
 11
21.4790138229
 21
0.9779712941
  0
LINE
  5
232
100
AcDbEntity
  8
0
100
AcDbLine
 62
7
  6
CONTINUOUS
 10
21.4790138229
 20
0.9779712941
 11
21.069121683
 21
1.0617614
  0
LINE
  5
233
100
AcDbEntity
  8
0
100
AcDbLine
 62
7
  6
CONTINUOUS
 10
21.0702539817
 20
1.2701043662
 11
21.069121683
 21
1.0617614
  0
LINE
  5
234
100
AcDbEntity
  8
0
100
AcDbLine
 62
7
  6
CONTINUOUS
 10
21.4790138229
 20
1.1693297793
 11
21.3159628059
 21
1.1693297793
  0
LINE
  5
235
100
AcDbEntity
  8
0
100
AcDbLine
 62
7
  6
CONTINUOUS
 10
21.2876553377
 20
1.1693297793
 11
21.2502894796
 21
1.1693297793
  0
LINE
  5
236
100
AcDbEntity
  8
0
100
AcDbLine
 62
7
  6
CONTINUOUS
 10
21.2208497126
 20
1.1659328831
 11
21.0713862804
 21
1.1659328831
  0
LINE
  5
237
100
AcDbEntity
  8
0
100
AcDbLine
 62
7
  6
CONTINUOUS
 10
20.4796138713
 20
1.5284908897
 11
20.4766766948
 21
0.9294458646
  0
ENDBLK
  5
238
100
AcDbEntity
  8
0
  6
BYBLOCK
 62
0
100
AcDbBlockEnd
  0
BLOCK
  5
239
100
AcDbEntity
  8
0
100
AcDbBlockBegin
  2
*T1
 70
1
 10
0.0
 20
0.0
  3
*T1
  1

  0
LINE
  5
23A
100
AcDbEntity
  8
0
100
AcDbLine
 62
2
  6
CONTINUOUS
 10
9.275
 20
0.0
 11
-0.0
 21
0.0
  0
LINE
  5
23B
100
AcDbEntity
  8
0
100
AcDbLine
 62
2
  6
CONTINUOUS
 10
9.275
 20
0.0
 11
9.275
 21
1.25
  0
LINE
  5
23C
100
AcDbEntity
  8
0
100
AcDbLine
 62
2
  6
CONTINUOUS
 10
9.275
 20
0.625
 11
-0.0
 21
0.625
  0
LINE
  5
23D
100
AcDbEntity
  8
0
100
AcDbLine
 62
2
  6
CONTINUOUS
 10
9.275
 20
1.25
 11
-0.0
 21
1.25
  0
LINE
  5
23E
100
AcDbEntity
  8
0
100
AcDbLine
 62
2
  6
CONTINUOUS
 10
6.8
 20
0.0
 11
6.8
 21
1.25
  0
LINE
  5
23F
100
AcDbEntity
  8
0
100
AcDbLine
 62
2
  6
CONTINUOUS
 10
6.4
 20
0.0
 11
6.4
 21
0.625
  0
LINE
  5
240
100
AcDbEntity
  8
0
100
AcDbLine
 62
2
  6
CONTINUOUS
 10
5.9
 20
0.0
 11
5.9
 21
0.625
  0
LINE
  5
241
100
AcDbEntity
  8
0
100
AcDbLine
 62
2
  6
CONTINUOUS
 10
5.2
 20
0.0
 11
5.2
 21
0.625
  0
LINE
  5
242
100
AcDbEntity
  8
0
100
AcDbLine
 62
2
  6
CONTINUOUS
 10
4.1
 20
0.0
 11
4.1
 21
1.25
  0
LINE
  5
243
100
AcDbEntity
  8
0
100
AcDbLine
 62
2
  6
CONTINUOUS
 10
-0.0
 20
0.0
 11
-0.0
 21
1.25
  0
MTEXT
  5
244
100
AcDbEntity
  8
0
100
AcDbMText
 62
2
  6
CONTINUOUS
  7
STANDARD
 71
2
 72
1
 10
6.6
 20
0.325
 30
0.0
 11
1.0
 21
0.0
 31
0.0
 44
0.9
  1
2
 40
0.125
 41
0.2
  0
MTEXT
  5
245
100
AcDbEntity
  8
0
100
AcDbMText
 62
2
  6
CONTINUOUS
  7
STANDARD
 71
2
 72
1
 10
6.15
 20
0.325
 30
0.0
 11
1.0
 21
0.0
 31
0.0
 44
0.9
  1
C
 40
0.125
 41
0.2
  0
MTEXT
  5
246
100
AcDbEntity
  8
0
100
AcDbMText
 62
2
  6
CONTINUOUS
  7
STANDARD
 71
2
 72
1
 10
5.55
 20
0.325
 30
0.0
 11
1.0
 21
0.0
 31
0.0
 44
0.9
  1
1.000
 40
0.125
 41
1.0
  0
MTEXT
  5
247
100
AcDbEntity
  8
0
100
AcDbMText
 62
2
  6
CONTINUOUS
  7
STANDARD
 71
2
 72
1
 10
4.65
 20
0.325
 30
0.0
 11
1.0
 21
0.0
 31
0.0
 44
0.9
  1
Apr-01-24
 40
0.125
 41
1.8
  0
MTEXT
  5
248
100
AcDbEntity
  8
0
100
AcDbMText
 62
2
  6
CONTINUOUS
  7
STANDARD
 71
2
 72
1
 10
2.05
 20
0.4625
 30
0.0
 11
1.0
 21
0.0
 31
0.0
 44
0.9
  1
T-9A Sandwich ISO 03\PBlocking valves on A and B
 40
0.125
 41
5.2
  0
MTEXT
  5
249
100
AcDbEntity
  8
0
100
AcDbMText
 62
2
  6
CONTINUOUS
  7
STANDARD
 71
1
 72
1
 10
6.45
 20
0.5625
 30
0.0
 11
1.0
 21
0.0
 31
0.0
 44
0.9
  1
SHEET
 40
0.06
 41
0.48
  0
MTEXT
  5
24A
100
AcDbEntity
  8
0
100
AcDbMText
 62
2
  6
CONTINUOUS
  7
STANDARD
 71
1
 72
1
 10
5.95
 20
0.5625
 30
0.0
 11
1.0
 21
0.0
 31
0.0
 44
0.9
  1
DWG SIZE
 40
0.06
 41
0.768
  0
MTEXT
  5
24B
100
AcDbEntity
  8
0
100
AcDbMText
 62
2
  6
CONTINUOUS
  7
STANDARD
 71
1
 72
1
 10
5.25
 20
0.5625
 30
0.0
 11
1.0
 21
0.0
 31
0.0
 44
0.9
  1
SCALE
 40
0.06
 41
0.48
  0
MTEXT
  5
24C
100
AcDbEntity
  8
0
100
AcDbMText
 62
2
  6
CONTINUOUS
  7
STANDARD
 71
1
 72
1
 10
4.15
 20
0.5625
 30
0.0
 11
1.0
 21
0.0
 31
0.0
 44
0.9
  1
DATE
 40
0.06
 41
0.384
  0
MTEXT
  5
24D
100
AcDbEntity
  8
0
100
AcDbMText
 62
2
  6
CONTINUOUS
  7
STANDARD
 71
1
 72
1
 10
0.05
 20
0.5625
 30
0.0
 11
1.0
 21
0.0
 31
0.0
 44
0.9
  1
DESCRIPTION
 40
0.06
 41
1.056
  0
MTEXT
  5
24E
100
AcDbEntity
  8
0
100
AcDbMText
 62
2
  6
CONTINUOUS
  7
STANDARD
 71
2
 72
1
 10
5.45
 20
1.0375
 30
0.0
 11
1.0
 21
0.0
 31
0.0
 44
0.9
  1
ALL DIMENSIONS IN INCH\PVIEWS ARE THIRD ANGLE
 40
0.12
 41
4.224
  0
MTEXT
  5
24F
100
AcDbEntity
  8
0
100
AcDbMText
 62
2
  6
CONTINUOUS
  7
STANDARD
 71
2
 72
1
 10
2.05
 20
0.95
 30
0.0
 11
1.0
 21
0.0
 31
0.0
 44
0.9
  1
U3X
 40
0.125
 41
0.6
  0
MTEXT
  5
250
100
AcDbEntity
  8
0
100
AcDbMText
 62
2
  6
CONTINUOUS
  7
STANDARD
 71
1
 72
1
 10
0.05
 20
1.1875
 30
0.0
 11
1.0
 21
0.0
 31
0.0
 44
0.9
  1
MODEL
 40
0.06
 41
0.48
  0
ENDBLK
  5
251
100
AcDbEntity
  8
0
  6
BYBLOCK
 62
0
100
AcDbBlockEnd
  0
BLOCK
  5
252
100
AcDbEntity
  8
0
100
AcDbBlockBegin
  2
*T2
 70
1
 10
0.0
 20
0.0
  3
*T2
  1

  0
LINE
  5
253
100
AcDbEntity
  8
0
100
AcDbLine
 62
2
  6
CONTINUOUS
 10
0.0
 20
0.0
 11
9.055
 21
0.0
  0
LINE
  5
254
100
AcDbEntity
  8
0
100
AcDbLine
 62
2
  6
CONTINUOUS
 10
0.0
 20
0.0
 11
0.0
 21
-2.594
  0
LINE
  5
255
100
AcDbEntity
  8
0
100
AcDbLine
 62
2
  6
CONTINUOUS
 10
0.0
 20
-0.344
 11
9.055
 21
-0.344
  0
LINE
  5
256
100
AcDbEntity
  8
0
100
AcDbLine
 62
2
  6
CONTINUOUS
 10
0.0
 20
-0.594
 11
9.055
 21
-0.594
  0
LINE
  5
257
100
AcDbEntity
  8
0
100
AcDbLine
 62
2
  6
CONTINUOUS
 10
0.0
 20
-0.844
 11
9.055
 21
-0.844
  0
LINE
  5
258
100
AcDbEntity
  8
0
100
AcDbLine
 62
2
  6
CONTINUOUS
 10
0.0
 20
-1.094
 11
9.055
 21
-1.094
  0
LINE
  5
259
100
AcDbEntity
  8
0
100
AcDbLine
 62
2
  6
CONTINUOUS
 10
0.0
 20
-1.344
 11
9.055
 21
-1.344
  0
LINE
  5
25A
100
AcDbEntity
  8
0
100
AcDbLine
 62
2
  6
CONTINUOUS
 10
0.0
 20
-1.594
 11
9.055
 21
-1.594
  0
LINE
  5
25B
100
AcDbEntity
  8
0
100
AcDbLine
 62
2
  6
CONTINUOUS
 10
0.0
 20
-1.844
 11
9.055
 21
-1.844
  0
LINE
  5
25C
100
AcDbEntity
  8
0
100
AcDbLine
 62
2
  6
CONTINUOUS
 10
0.0
 20
-2.094
 11
9.055
 21
-2.094
  0
LINE
  5
25D
100
AcDbEntity
  8
0
100
AcDbLine
 62
2
  6
CONTINUOUS
 10
0.0
 20
-2.344
 11
9.055
 21
-2.344
  0
LINE
  5
25E
100
AcDbEntity
  8
0
100
AcDbLine
 62
2
  6
CONTINUOUS
 10
0.0
 20
-2.594
 11
9.055
 21
-2.594
  0
LINE
  5
25F
100
AcDbEntity
  8
0
100
AcDbLine
 62
2
  6
CONTINUOUS
 10
3.055
 20
0.0
 11
3.055
 21
-2.594
  0
LINE
  5
260
100
AcDbEntity
  8
0
100
AcDbLine
 62
2
  6
CONTINUOUS
 10
9.055
 20
0.0
 11
9.055
 21
-2.594
  0
MTEXT
  5
261
100
AcDbEntity
  8
0
100
AcDbMText
 62
2
  6
CONTINUOUS
  7
STANDARD
 71
2
 72
1
 10
1.5275
 20
-0.0995
 30
0.0
 11
1.0
 21
0.0
 31
0.0
 44
0.9
  1
Technical Data
 40
0.145
 41
3.248
  0
MTEXT
  5
262
100
AcDbEntity
  8
0
100
AcDbMText
 62
2
  6
CONTINUOUS
  7
STANDARD
 71
2
 72
1
 10
4.555
 20
-0.0995
 30
0.0
 11
1.0
 21
0.0
 31
0.0
 44
0.9
  1
U.S. Units
 40
0.145
 41
2.32
  0
MTEXT
  5
263
100
AcDbEntity
  8
0
100
AcDbMText
 62
2
  6
CONTINUOUS
  7
STANDARD
 71
2
 72
1
 10
7.555
 20
-0.0995
 30
0.0
 11
1.0
 21
0.0
 31
0.0
 44
0.9
  1
Metric Units
 40
0.145
 41
2.784
  0
MTEXT
  5
264
100
AcDbEntity
  8
0
100
AcDbMText
 62
2
  6
CONTINUOUS
  7
STANDARD
 71
2
 72
1
 10
1.5275
 20
-0.4065
 30
0.0
 11
1.0
 21
0.0
 31
0.0
 44
0.9
  1
Cavity
 40
0.125
 41
1.2
  0
MTEXT
  5
265
100
AcDbEntity
  8
0
100
AcDbMText
 62
2
  6
CONTINUOUS
  7
STANDARD
 71
2
 72
1
 10
6.055
 20
-0.4065
 30
0.0
 11
1.0
 21
0.0
 31
0.0
 44
0.9
  1
T-9A
 40
0.125
 41
0.8
  0
MTEXT
  5
266
100
AcDbEntity
  8
0
100
AcDbMText
 62
2
  6
CONTINUOUS
  7
STANDARD
 71
2
 72
1
 10
1.5275
 20
-0.6565
 30
0.0
 11
1.0
 21
0.0
 31
0.0
 44
0.9
  1
Body Features
 40
0.125
 41
2.6
  0
MTEXT
  5
267
100
AcDbEntity
  8
0
100
AcDbMText
 62
2
  6
CONTINUOUS
  7
STANDARD
 71
2
 72
1
 10
6.055
 20
-0.6565
 30
0.0
 11
1.0
 21
0.0
 31
0.0
 44
0.9
  1
Blocking valves on A and B
 40
0.125
 41
5.2
  0
MTEXT
  5
268
100
AcDbEntity
  8
0
100
AcDbMText
 62
2
  6
CONTINUOUS
  7
STANDARD
 71
2
 72
1
 10
1.5275
 20
-0.9065
 30
0.0
 11
1.0
 21
0.0
 31
0.0
 44
0.9
  1
Body Type
 40
0.125
 41
1.8
  0
MTEXT
  5
269
100
AcDbEntity
  8
0
100
AcDbMText
 62
2
  6
CONTINUOUS
  7
STANDARD
 71
2
 72
1
 10
6.055
 20
-0.9065
 30
0.0
 11
1.0
 21
0.0
 31
0.0
 44
0.9
  1
Sandwich
 40
0.125
 41
1.6
  0
MTEXT
  5
26A
100
AcDbEntity
  8
0
100
AcDbMText
 62
2
  6
CONTINUOUS
  7
STANDARD
 71
2
 72
1
 10
1.5275
 20
-1.1565
 30
0.0
 11
1.0
 21
0.0
 31
0.0
 44
0.9
  1
Interface
 40
0.125
 41
1.8
  0
MTEXT
  5
26B
100
AcDbEntity
  8
0
100
AcDbMText
 62
2
  6
CONTINUOUS
  7
STANDARD
 71
2
 72
1
 10
6.055
 20
-1.1565
 30
0.0
 11
1.0
 21
0.0
 31
0.0
 44
0.9
  1
ISO 03
 40
0.125
 41
1.2
  0
MTEXT
  5
26C
100
AcDbEntity
  8
0
100
AcDbMText
 62
2
  6
CONTINUOUS
  7
STANDARD
 71
2
 72
1
 10
1.5275
 20
-1.4065
 30
0.0
 11
1.0
 21
0.0
 31
0.0
 44
0.9
  1
Open Cavity Quantity
 40
0.125
 41
4.0
  0
MTEXT
  5
26D
100
AcDbEntity
  8
0
100
AcDbMText
 62
2
  6
CONTINUOUS
  7
STANDARD
 71
2
 72
1
 10
6.055
 20
-1.4065
 30
0.0
 11
1.0
 21
0.0
 31
0.0
 44
0.9
  1
1
 40
0.125
 41
0.2
  0
MTEXT
  5
26E
100
AcDbEntity
  8
0
100
AcDbMText
 62
2
  6
CONTINUOUS
  7
STANDARD
 71
2
 72
1
 10
1.5275
 20
-1.6565
 30
0.0
 11
1.0
 21
0.0
 31
0.0
 44
0.9
  1
Stack Height
 40
0.125
 41
2.4
  0
MTEXT
  5
26F
100
AcDbEntity
  8
0
100
AcDbMText
 62
2
  6
CONTINUOUS
  7
STANDARD
 71
2
 72
1
 10
4.555
 20
-1.6565
 30
0.0
 11
1.0
 21
0.0
 31
0.0
 44
0.9
  1
2.74 in.
 40
0.125
 41
1.6
  0
MTEXT
  5
270
100
AcDbEntity
  8
0
100
AcDbMText
 62
2
  6
CONTINUOUS
  7
STANDARD
 71
2
 72
1
 10
7.555
 20
-1.6565
 30
0.0
 11
1.0
 21
0.0
 31
0.0
 44
0.9
  1
70 mm
 40
0.125
 41
1.0
  0
MTEXT
  5
271
100
AcDbEntity
  8
0
100
AcDbMText
 62
2
  6
CONTINUOUS
  7
STANDARD
 71
2
 72
1
 10
1.5275
 20
-1.9065
 30
0.0
 11
1.0
 21
0.0
 31
0.0
 44
0.9
  1
Weight
 40
0.125
 41
1.2
  0
MTEXT
  5
272
100
AcDbEntity
  8
0
100
AcDbMText
 62
2
  6
CONTINUOUS
  7
STANDARD
 71
2
 72
1
 10
4.555
 20
-1.9065
 30
0.0
 11
1.0
 21
0.0
 31
0.0
 44
0.9
  1
2.952 lb.
 40
0.125
 41
1.8
  0
MTEXT
  5
273
100
AcDbEntity
  8
0
100
AcDbMText
 62
2
  6
CONTINUOUS
  7
STANDARD
 71
2
 72
1
 10
7.555
 20
-1.9065
 30
0.0
 11
1.0
 21
0.0
 31
0.0
 44
0.9
  1
1,339 kg.
 40
0.125
 41
1.8
  0
MTEXT
  5
274
100
AcDbEntity
  8
0
100
AcDbMText
 62
2
  6
CONTINUOUS
  7
STANDARD
 71
2
 72
1
 10
1.5275
 20
-2.1565
 30
0.0
 11
1.0
 21
0.0
 31
0.0
 44
0.9
  1
Seal Plate Included (see notes)
 40
0.125
 41
6.2
  0
MTEXT
  5
275
100
AcDbEntity
  8
0
100
AcDbMText
 62
2
  6
CONTINUOUS
  7
STANDARD
 71
2
 72
1
 10
6.055
 20
-2.1565
 30
0.0
 11
1.0
 21
0.0
 31
0.0
 44
0.9
  1
No
 40
0.125
 41
0.4
  0
MTEXT
  5
276
100
AcDbEntity
  8
0
100
AcDbMText
 62
2
  6
CONTINUOUS
  7
STANDARD
 71
2
 72
1
 10
1.5275
 20
-2.4065
 30
0.0
 11
1.0
 21
0.0
 31
0.0
 44
0.9
  1
Includes integral cartridge(s)
 40
0.125
 41
6.0
  0
MTEXT
  5
277
100
AcDbEntity
  8
0
100
AcDbMText
 62
2
  6
CONTINUOUS
  7
STANDARD
 71
2
 72
1
 10
6.055
 20
-2.4065
 30
0.0
 11
1.0
 21
0.0
 31
0.0
 44
0.9
  1
Yes (see Included Components)
 40
0.125
 41
5.8
  0
ENDBLK
  5
278
100
AcDbEntity
  8
0
  6
BYBLOCK
 62
0
100
AcDbBlockEnd
  0
ENDSEC
  0
SECTION
  2
ENTITIES
  0
IMAGE
  5
279
100
AcDbEntity
  8
0
100
AcDbRasterImage
 62
7
  6
CONTINUOUS
 10
19.2297077316
 20
0.3094318264
 30
0.0
 11
0.0066666667
 21
0.0
 31
0.0
 12
0.0
 22
0.0066666667
 32
0.0
 13
369.0
 23
92.0
340
       3D3
 70
9
280
0
281
50
282
50
283
0
360
       3CD
 71
1
 91
2
 14
-0.5
 24
-0.5
 14
368.5
 24
91.5
  0
INSERT
  5
27A
100
AcDbEntity
  8
0
100
AcDbBlockReference
 62
2
  6
CONTINUOUS
  2
SUN_FIRST_THIRD_ANGLE_BL0
 10
20.4816717061
 20
1.2289683772
  0
ACAD_TABLE
  5
27B
100
AcDbEntity
  8
0
 62
2
  6
CONTINUOUS
100
AcDbBlockReference
  2
*T1
 10
12.42375
 20
0.30125
 30
0.0
100
AcDbTable
342
       3D5
343
213
 11
1.0
 21
0.0
 31
0.0
 90
6
 91
4
 92
6
 93
20
 94
0
 95
0
 96
0
 70
1
 41
0.0
141
0.525
141
0.1
141
0.525
141
0.1
142
4.1
142
1.1
142
0.7
142
0.5
142
0.4
142
2.475
171
1
172
0
173
0
174
0
175
1
176
1
 91
33
178
0
145
0.0
301
CELL_VALUE
 90
4
  1
T-9A Sandwich ISO 03\PBlocking valves on A and B
304
ACVALUE_END
170
2
140
0.125
171
1
172
0
173
0
174
0
175
1
176
1
 91
33
178
0
145
0.0
301
CELL_VALUE
 90
4
  1
Apr-01-24
304
ACVALUE_END
170
5
140
0.125
171
1
172
0
173
0
174
0
175
1
176
1
 91
33
178
0
145
0.0
301
CELL_VALUE
 90
4
  1
1.000
304
ACVALUE_END
170
5
140
0.125
171
1
172
0
173
0
174
0
175
1
176
1
 91
33
178
0
145
0.0
301
CELL_VALUE
 90
4
  1
C
304
ACVALUE_END
170
5
140
0.125
171
1
172
0
173
0
174
0
175
1
176
1
 91
33
178
0
145
0.0
301
CELL_VALUE
 90
4
  1
2
304
ACVALUE_END
170
5
140
0.125
171
1
172
0
173
0
174
0
175
1
176
1
 91
33
178
0
145
0.0
301
CELL_VALUE
 90
4
  1
 
304
ACVALUE_END
170
1
140
0.125
171
1
172
0
173
0
174
0
175
1
176
1
 91
33
178
0
145
0.0
301
CELL_VALUE
 90
4
  1
DESCRIPTION
304
ACVALUE_END
170
1
140
0.06
171
1
172
0
173
0
174
0
175
1
176
1
 91
33
178
0
145
0.0
301
CELL_VALUE
 90
4
  1
DATE
304
ACVALUE_END
170
1
140
0.06
171
1
172
0
173
0
174
0
175
1
176
1
 91
33
178
0
145
0.0
301
CELL_VALUE
 90
4
  1
SCALE
304
ACVALUE_END
170
1
140
0.06
171
1
172
0
173
0
174
0
175
1
176
1
 91
33
178
0
145
0.0
301
CELL_VALUE
 90
4
  1
DWG SIZE
304
ACVALUE_END
170
1
140
0.06
171
1
172
0
173
0
174
0
175
1
176
1
 91
33
178
0
145
0.0
301
CELL_VALUE
 90
4
  1
SHEET
304
ACVALUE_END
170
1
140
0.06
171
1
172
0
173
0
174
0
175
1
176
1
 91
33
178
0
145
0.0
301
CELL_VALUE
 90
4
  1
 
304
ACVALUE_END
170
1
140
0.125
171
1
172
0
173
0
174
0
175
1
176
1
 91
33
178
0
145
0.0
301
CELL_VALUE
 90
4
  1
U3X
304
ACVALUE_END
170
5
140
0.125
171
1
172
0
173
0
174
0
175
4
176
1
 91
33
178
0
145
0.0
301
CELL_VALUE
 90
4
  1
ALL DIMENSIONS IN INCH\PVIEWS ARE THIRD ANGLE
304
ACVALUE_END
170
5
140
0.12
171
1
172
0
173
1
174
0
175
1
176
1
 91
1
178
0
145
0.0
170
1
171
1
172
0
173
1
174
0
175
1
176
1
 91
1
178
0
145
0.0
170
1
171
1
172
0
173
1
174
0
175
1
176
1
 91
1
178
0
145
0.0
170
5
171
1
172
0
173
0
174
0
175
1
176
1
 91
33
178
0
145
0.0
301
CELL_VALUE
 90
4
  1
 
304
ACVALUE_END
170
1
140
0.125
171
1
172
0
173
0
174
0
175
1
176
1
 91
33
178
0
145
0.0
301
CELL_VALUE
 90
4
  1
MODEL
304
ACVALUE_END
170
1
140
0.06
171
1
172
0
173
0
174
0
175
1
176
1
 91
33
178
0
145
0.0
301
CELL_VALUE
 90
4
  1
 
304
ACVALUE_END
170
1
140
0.125
171
1
172
0
173
0
174
0
175
1
176
1
 91
33
178
0
145
0.0
301
CELL_VALUE
 90
4
  1
 
304
ACVALUE_END
170
1
140
0.125
171
1
172
0
173
0
174
0
175
1
176
1
 91
33
178
0
145
0.0
301
CELL_VALUE
 90
4
  1
 
304
ACVALUE_END
170
1
140
0.125
171
1
172
0
173
0
174
0
175
1
176
1
 91
33
178
0
145
0.0
301
CELL_VALUE
 90
4
  1
 
304
ACVALUE_END
170
1
140
0.125
171
1
172
0
173
0
174
0
175
1
176
1
 91
33
178
0
145
0.0
301
CELL_VALUE
 90
4
  1
 
304
ACVALUE_END
170
1
140
0.125
  0
ACAD_TABLE
  5
27C
100
AcDbEntity
  8
0
 62
2
  6
CONTINUOUS
100
AcDbBlockReference
  2
*T2
 10
12.4237499994
 20
16.47875
 30
0.0
100
AcDbTable
342
       3D4
343
214
 11
1.0
 21
0.0
 31
0.0
 90
22
 91
10
 92
3
 93
16
 94
0
 95
0
 96
0
 41
0.028
141
0.344
141
0.25
141
0.25
141
0.25
141
0.25
141
0.25
141
0.25
141
0.25
141
0.25
141
0.25
142
3.055
142
3.0
142
3.0
171
1
172
0
173
0
174
0
175
1
176
1
 91
33
178
0
145
0.0
301
CELL_VALUE
 90
4
  1
Technical Data
304
ACVALUE_END
170
5
140
0.145
171
1
172
0
173
0
174
0
175
1
176
1
 91
33
178
0
145
0.0
301
CELL_VALUE
 90
4
  1
U.S. Units
304
ACVALUE_END
170
5
140
0.145
171
1
172
0
173
0
174
0
175
1
176
1
 91
33
178
0
145
0.0
301
CELL_VALUE
 90
4
  1
Metric Units
304
ACVALUE_END
170
5
140
0.145
171
1
172
0
173
0
174
0
175
1
176
1
 91
33
178
0
145
0.0
301
CELL_VALUE
 90
4
  1
Cavity
304
ACVALUE_END
170
5
140
0.125
171
1
172
0
173
0
174
0
175
2
176
1
 91
33
178
0
145
0.0
301
CELL_VALUE
 90
4
  1
T-9A
304
ACVALUE_END
170
5
140
0.125
171
1
172
0
173
1
174
0
175
1
176
1
 91
1
178
0
145
0.0
170
1
171
1
172
0
173
0
174
0
175
1
176
1
 91
33
178
0
145
0.0
301
CELL_VALUE
 90
4
  1
Body Features
304
ACVALUE_END
170
5
140
0.125
171
1
172
0
173
0
174
0
175
2
176
1
 91
33
178
0
145
0.0
301
CELL_VALUE
 90
4
  1
Blocking valves on A and B
304
ACVALUE_END
170
5
140
0.125
171
1
172
0
173
1
174
0
175
1
176
1
 91
1
178
0
145
0.0
170
1
171
1
172
0
173
0
174
0
175
1
176
1
 91
33
178
0
145
0.0
301
CELL_VALUE
 90
4
  1
Body Type
304
ACVALUE_END
170
5
140
0.125
171
1
172
0
173
0
174
0
175
2
176
1
 91
33
178
0
145
0.0
301
CELL_VALUE
 90
4
  1
Sandwich
304
ACVALUE_END
170
5
140
0.125
171
1
172
0
173
1
174
0
175
1
176
1
 91
1
178
0
145
0.0
170
1
171
1
172
0
173
0
174
0
175
1
176
1
 91
33
178
0
145
0.0
301
CELL_VALUE
 90
4
  1
Interface
304
ACVALUE_END
170
5
140
0.125
171
1
172
0
173
0
174
0
175
2
176
1
 91
33
178
0
145
0.0
301
CELL_VALUE
 90
4
  1
ISO 03
304
ACVALUE_END
170
5
140
0.125
171
1
172
0
173
1
174
0
175
1
176
1
 91
1
178
0
145
0.0
170
1
171
1
172
0
173
0
174
0
175
1
176
1
 91
33
178
0
145
0.0
301
CELL_VALUE
 90
4
  1
Open Cavity Quantity
304
ACVALUE_END
170
5
140
0.125
171
1
172
0
173
0
174
0
175
2
176
1
 91
33
178
0
145
0.0
301
CELL_VALUE
 90
4
  1
1
304
ACVALUE_END
170
5
140
0.125
171
1
172
0
173
1
174
0
175
1
176
1
 91
1
178
0
145
0.0
170
1
171
1
172
0
173
0
174
0
175
1
176
1
 91
33
178
0
145
0.0
301
CELL_VALUE
 90
4
  1
Stack Height
304
ACVALUE_END
170
5
140
0.125
171
1
172
0
173
0
174
0
175
1
176
1
 91
33
178
0
145
0.0
301
CELL_VALUE
 90
4
  1
2.74 in.
304
ACVALUE_END
170
5
140
0.125
171
1
172
0
173
0
174
0
175
1
176
1
 91
33
178
0
145
0.0
301
CELL_VALUE
 90
4
  1
70 mm
304
ACVALUE_END
170
5
140
0.125
171
1
172
0
173
0
174
0
175
1
176
1
 91
33
178
0
145
0.0
301
CELL_VALUE
 90
4
  1
Weight
304
ACVALUE_END
170
5
140
0.125
171
1
172
0
173
0
174
0
175
1
176
1
 91
33
178
0
145
0.0
301
CELL_VALUE
 90
4
  1
2.952 lb.
304
ACVALUE_END
170
5
140
0.125
171
1
172
0
173
0
174
0
175
1
176
1
 91
33
178
0
145
0.0
301
CELL_VALUE
 90
4
  1
1,339 kg.
304
ACVALUE_END
170
5
140
0.125
171
1
172
0
173
0
174
0
175
1
176
1
 91
33
178
0
145
0.0
301
CELL_VALUE
 90
4
  1
Seal Plate Included (see notes)
304
ACVALUE_END
170
5
140
0.125
171
1
172
0
173
0
174
0
175
2
176
1
 91
33
178
0
145
0.0
301
CELL_VALUE
 90
4
  1
No
304
ACVALUE_END
170
5
140
0.125
171
1
172
0
173
1
174
0
175
1
176
1
 91
1
178
0
145
0.0
170
1
171
1
172
0
173
0
174
0
175
1
176
1
 91
33
178
0
145
0.0
301
CELL_VALUE
 90
4
  1
Includes integral cartridge(s)
304
ACVALUE_END
170
5
140
0.125
171
1
172
0
173
0
174
0
175
2
176
1
 91
33
178
0
145
0.0
301
CELL_VALUE
 90
4
  1
Yes (see Included Components)
304
ACVALUE_END
170
5
140
0.125
171
1
172
0
173
1
174
0
175
1
176
1
 91
1
178
0
145
0.0
170
1
  0
MTEXT
  5
27D
100
AcDbEntity
  8
0
100
AcDbMText
 62
2
  6
CONTINUOUS
  7
STANDARD
 71
1
 72
1
 10
0.52125
 20
5.75995
 30
0.0
 11
1.0
 21
0.0
 31
0.0
 44
0.6
  3
Notes\P \P1. Important: Carefully consider\P   the maximum system pressure. The\P   pressure rating of the manifold is\P   dependent on the manifold material,\P   with the port type/size a secondary\P   consideration. Manifolds\P   constructed of alu
  3
minum are not\P   rated for pressures higher than\P   3000 psi (210 bar), regardless of\P   the port type/size specified.\P2. Seal retainer plate is not\P   required for this model.\P3. This drawing is for reference\P   only. It is generated by an\P 
  1
  automated process and does not fall\P   under Sun's document control\P   process.
 40
0.1
 41
3.04
  0
LINE
  5
27E
100
AcDbEntity
  8
0
100
AcDbLine
 62
7
  6
CONTINUOUS
 10
0.30125
 20
0.30125
 11
0.30125
 21
16.69875
  0
LINE
  5
27F
100
AcDbEntity
  8
0
100
AcDbLine
 62
7
  6
CONTINUOUS
 10
0.30125
 20
0.30125
 11
21.69875
 21
0.30125
  0
LINE
  5
280
100
AcDbEntity
  8
0
100
AcDbLine
 62
7
  6
CONTINUOUS
 10
0.30125
 20
16.69875
 11
21.69875
 21
16.69875
  0
LINE
  5
281
100
AcDbEntity
  8
0
100
AcDbLine
 62
7
  6
CONTINUOUS
 10
21.69875
 20
0.30125
 11
21.69875
 21
16.69875
  0
LINE
  5
282
100
AcDbEntity
  8
0
100
AcDbLine
 62
7
  6
CONTINUOUS
 10
10.6536765004
 20
6.4119201884
 11
9.8084913523
 21
6.4705339775
  0
LINE
  5
283
100
AcDbEntity
  8
0
100
AcDbLine
 62
7
  6
CONTINUOUS
 10
10.6456531166
 20
6.4341138967
 11
9.8004679685
 21
6.4927276858
  0
LINE
  5
284
100
AcDbEntity
  8
0
100
AcDbLine
 62
7
  6
CONTINUOUS
 10
9.4681894646
 20
6.8480497823
 11
9.446269146
 21
6.8578763791
  0
LINE
  5
285
100
AcDbEntity
  8
0
100
AcDbLine
 62
4
  6
CONTINUOUS
 10
9.6069607779
 20
6.8181414924
 11
9.5989113916
 21
6.8247367561
  0
LINE
  5
286
100
AcDbEntity
  8
0
100
AcDbLine
 62
4
  6
CONTINUOUS
 10
9.5828126276
 20
6.8500013566
 11
9.5667138636
 21
6.8631918834
  0
LINE
  5
287
100
AcDbEntity
  8
0
100
AcDbLine
 62
4
  6
CONTINUOUS
 10
9.6230595391
 20
6.8653213344
 11
9.6294160137
 21
6.8601131577
  0
LINE
  5
288
100
AcDbEntity
  8
0
100
AcDbLine
 62
4
  6
CONTINUOUS
 10
9.5586644816
 20
7.0146760315
 11
9.5506150989
 21
7.021271295
  0
LINE
  5
289
100
AcDbEntity
  8
0
100
AcDbLine
 62
4
  6
CONTINUOUS
 10
9.5989113916
 20
6.8247367561
 11
9.5828126276
 21
6.8500013566
  0
LINE
  5
28A
100
AcDbEntity
  8
0
100
AcDbLine
 62
4
  6
CONTINUOUS
 10
9.5667138636
 20
6.8631918834
 11
9.5425657161
 21
6.8709036
  0
LINE
  5
28B
100
AcDbEntity
  8
0
100
AcDbLine
 62
4
  6
CONTINUOUS
 10
9.6311089254
 20
7.0519112503
 11
9.6230595391
 21
7.058506514
  0
LINE
  5
28C
100
AcDbEntity
  8
0
100
AcDbLine
 62
4
  6
CONTINUOUS
 10
9.5667138636
 20
7.1107103948
 11
9.5506150989
 21
7.1239009216
  0
LINE
  5
28D
100
AcDbEntity
  8
0
100
AcDbLine
 62
4
  6
CONTINUOUS
 10
9.5506150989
 20
7.021271295
 11
9.5425657161
 21
7.0339035953
  0
LINE
  5
28E
100
AcDbEntity
  8
0
100
AcDbLine
 62
4
  6
CONTINUOUS
 10
9.5506150989
 20
7.1239009216
 11
9.5425657161
 21
7.1365332219
  0
LINE
  5
28F
100
AcDbEntity
  8
0
100
AcDbLine
 62
4
  6
CONTINUOUS
 10
9.6391583059
 20
7.0392789502
 11
9.6311089254
 21
7.0519112503
  0
LINE
  5
290
100
AcDbEntity
  8
0
100
AcDbLine
 62
7
  6
CONTINUOUS
 10
10.9779316205
 20
6.7433488081
 11
11.0158987067
 21
6.7490221994
  0
LINE
  5
291
100
AcDbEntity
  8
0
100
AcDbLine
 62
4
  6
CONTINUOUS
 10
9.6230595391
 20
6.8170250395
 11
9.6069607779
 21
6.8181414924
  0
LINE
  5
292
100
AcDbEntity
  8
0
100
AcDbLine
 62
4
  6
CONTINUOUS
 10
9.590862011
 20
7.1029986782
 11
9.5667138636
 21
7.1107103948
  0
LINE
  5
293
100
AcDbEntity
  8
0
100
AcDbLine
 62
4
  6
CONTINUOUS
 10
9.5667138636
 20
7.3038955744
 11
9.5506150989
 21
7.3170861012
  0
LINE
  5
294
100
AcDbEntity
  8
0
100
AcDbLine
 62
4
  6
CONTINUOUS
 10
9.5828126276
 20
7.2544828264
 11
9.6391583059
 21
7.2022789454
  0
LINE
  5
295
100
AcDbEntity
  8
0
100
AcDbLine
 62
4
  6
CONTINUOUS
 10
9.5506150989
 20
7.3170861012
 11
9.5425657161
 21
7.3297184015
  0
LINE
  5
296
100
AcDbEntity
  8
0
100
AcDbLine
 62
7
  6
CONTINUOUS
 10
9.8004679685
 20
6.4927276858
 11
9.8084913523
 21
6.4705339775
  0
LINE
  5
297
100
AcDbEntity
  8
0
100
AcDbLine
 62
7
  6
CONTINUOUS
 10
9.446269146
 20
6.8578763791
 11
9.446269146
 21
8.766545925
  0
LINE
  5
298
100
AcDbEntity
  8
0
100
AcDbLine
 62
7
  6
CONTINUOUS
 10
9.8636436665
 20
9.6084098923
 11
10.4459860374
 21
10.1709094614
  0
LINE
  5
299
100
AcDbEntity
  8
0
100
AcDbLine
 62
7
  6
CONTINUOUS
 10
11.5540139626
 20
6.8290905386
 11
11.2706711976
 21
6.8487404261
  0
LINE
  5
29A
100
AcDbEntity
  8
0
100
AcDbLine
 62
4
  6
CONTINUOUS
 10
9.574763247
 20
7.0135595784
 11
9.5586644816
 21
7.0146760315
  0
LINE
  5
29B
100
AcDbEntity
  8
0
100
AcDbLine
 62
4
  6
CONTINUOUS
 10
9.590862011
 20
7.2961838578
 11
9.5667138636
 21
7.3038955744
  0
LINE
  5
29C
100
AcDbEntity
  8
0
100
AcDbLine
 62
7
  6
CONTINUOUS
 10
9.4681894646
 20
6.8480497823
 11
9.4681894646
 21
8.7567193281
  0
LINE
  5
29D
100
AcDbEntity
  8
0
100
AcDbLine
 62
4
  6
CONTINUOUS
 10
9.5425657161
 20
6.8709036
 11
9.5425657161
 21
6.8226073051
  0
LINE
  5
29E
100
AcDbEntity
  8
0
100
AcDbLine
 62
4
  6
CONTINUOUS
 10
9.5425657161
 20
7.0339035953
 11
9.5425657161
 21
7.045977669
  0
LINE
  5
29F
100
AcDbEntity
  8
0
100
AcDbLine
 62
4
  6
CONTINUOUS
 10
9.5425657161
 20
7.1365332219
 11
9.5425657161
 21
7.1606813694
  0
LINE
  5
2A0
100
AcDbEntity
  8
0
100
AcDbLine
 62
4
  6
CONTINUOUS
 10
9.5425657161
 20
7.3297184015
 11
9.5425657161
 21
7.353866549
  0
LINE
  5
2A1
100
AcDbEntity
  8
0
100
AcDbLine
 62
4
  6
CONTINUOUS
 10
9.590862011
 20
6.9581097935
 11
9.590862011
 21
6.9218875723
  0
LINE
  5
2A2
100
AcDbEntity
  8
0
100
AcDbLine
 62
7
  6
CONTINUOUS
 10
10.0252232981
 20
9.4721458425
 11
9.5479613728
 21
9.0111461957
  0
LINE
  5
2A3
100
AcDbEntity
  8
0
100
AcDbLine
 62
7
  6
CONTINUOUS
 10
10.7293288024
 20
10.1512595739
 11
11.0857935202
 21
10.4955780713
  0
LINE
  5
2A4
100
AcDbEntity
  8
0
100
AcDbLine
 62
4
  6
CONTINUOUS
 10
9.6230595391
 20
7.058506514
 11
9.6150101585
 21
7.0590647405
  0
LINE
  5
2A5
100
AcDbEntity
  8
0
100
AcDbLine
 62
4
  6
CONTINUOUS
 10
9.5425657161
 20
7.1606813694
 11
9.6391583059
 21
7.1539826505
  0
LINE
  5
2A6
100
AcDbEntity
  8
0
100
AcDbLine
 62
4
  6
CONTINUOUS
 10
9.6391583059
 20
7.3471678301
 11
9.6391583059
 21
7.3230196827
  0
LINE
  5
2A7
100
AcDbEntity
  8
0
100
AcDbLine
 62
4
  6
CONTINUOUS
 10
9.6391583059
 20
7.1539826505
 11
9.6391583059
 21
7.1298345031
  0
LINE
  5
2A8
100
AcDbEntity
  8
0
100
AcDbLine
 62
4
  6
CONTINUOUS
 10
9.6391583059
 20
6.8393218185
 11
9.6391583059
 21
6.8340196969
  0
LINE
  5
2A9
100
AcDbEntity
  8
0
100
AcDbLine
 62
4
  6
CONTINUOUS
 10
9.6391583059
 20
7.0272048764
 11
9.6391583059
 21
7.0392789502
  0
LINE
  5
2AA
100
AcDbEntity
  8
0
100
AcDbLine
 62
7
  6
CONTINUOUS
 10
9.8004679685
 20
9.0659542395
 11
9.8084913523
 21
9.103647936
  0
LINE
  5
2AB
100
AcDbEntity
  8
0
100
AcDbLine
 62
7
  6
CONTINUOUS
 10
9.8084913523
 20
9.103647936
 11
10.2857532776
 21
9.5646475828
  0
LINE
  5
2AC
100
AcDbEntity
  8
0
100
AcDbLine
 62
7
  6
CONTINUOUS
 10
11.3463234996
 20
10.5880798116
 11
10.8830567861
 21
10.140598502
  0
LINE
  5
2AD
100
AcDbEntity
  8
0
100
AcDbLine
 62
4
  6
CONTINUOUS
 10
9.6391583059
 20
7.2505752403
 11
9.5425657161
 21
7.2572739592
  0
LINE
  5
2AE
100
AcDbEntity
  8
0
100
AcDbLine
 62
4
  6
CONTINUOUS
 10
9.5425657161
 20
7.353866549
 11
9.6391583059
 21
7.3471678301
  0
LINE
  5
2AF
100
AcDbEntity
  8
0
100
AcDbLine
 62
7
  6
CONTINUOUS
 10
9.8087254566
 20
8.7253964928
 11
9.8087254566
 21
8.6686821808
  0
LINE
  5
2B0
100
AcDbEntity
  8
0
100
AcDbLine
 62
7
  6
CONTINUOUS
 10
9.8636436665
 20
9.6084098923
 11
9.8636436665
 21
9.3160718941
  0
LINE
  5
2B1
100
AcDbEntity
  8
0
100
AcDbLine
 62
7
  6
CONTINUOUS
 10
9.6887350637
 20
8.8296171027
 11
9.7084052949
 21
8.8486170881
  0
LINE
  5
2B2
100
AcDbEntity
  8
0
100
AcDbLine
 62
4
  6
CONTINUOUS
 10
9.6150101585
 20
7.1073610354
 11
9.590862011
 21
7.1029986782
  0
LINE
  5
2B3
100
AcDbEntity
  8
0
100
AcDbLine
 62
7
  6
CONTINUOUS
 10
10.2615842384
 20
7.4306530627
 11
10.1213157023
 21
7.4403807187
  0
LINE
  5
2B4
100
AcDbEntity
  8
0
100
AcDbLine
 62
7
  6
CONTINUOUS
 10
10.5925064217
 20
7.1356614427
 11
10.5223721536
 21
7.2620013863
  0
LINE
  5
2B5
100
AcDbEntity
  8
0
100
AcDbLine
 62
7
  6
CONTINUOUS
 10
10.6456531166
 20
6.4341138967
 11
10.6536765004
 21
6.4119201884
  0
LINE
  5
2B6
100
AcDbEntity
  8
0
100
AcDbLine
 62
7
  6
CONTINUOUS
 10
9.7778823313
 20
8.6388900077
 11
9.8087254566
 21
8.6686821808
  0
LINE
  5
2B7
100
AcDbEntity
  8
0
100
AcDbLine
 62
7
  6
CONTINUOUS
 10
9.838252699
 20
8.5998484604
 11
9.8690958244
 21
8.6296406335
  0
LINE
  5
2B8
100
AcDbEntity
  8
0
100
AcDbLine
 62
4
  6
CONTINUOUS
 10
9.6150101585
 20
7.3005462149
 11
9.590862011
 21
7.2961838578
  0
LINE
  5
2B9
100
AcDbEntity
  8
0
100
AcDbLine
 62
7
  6
CONTINUOUS
 10
10.5322038983
 20
7.7047428852
 11
10.592574266
 21
7.6657013379
  0
LINE
  5
2BA
100
AcDbEntity
  8
0
100
AcDbLine
 62
7
  6
CONTINUOUS
 10
9.9930340797
 20
8.5145835983
 11
10.0127043109
 21
8.5335835838
  0
LINE
  5
2BB
100
AcDbEntity
  8
0
100
AcDbLine
 62
7
  6
CONTINUOUS
 10
10.6536765004
 20
9.0450341469
 11
11.1309384257
 21
9.5060337937
  0
LINE
  5
2BC
100
AcDbEntity
  8
0
100
AcDbLine
 62
7
  6
CONTINUOUS
 10
12.1915086477
 20
10.5294660225
 11
11.7282419342
 21
10.0819847129
  0
LINE
  5
2BD
100
AcDbEntity
  8
0
100
AcDbLine
 62
7
  6
CONTINUOUS
 10
9.8690958244
 20
8.6296406335
 11
9.900124549
 21
8.6454032267
  0
LINE
  5
2BE
100
AcDbEntity
  8
0
100
AcDbLine
 62
7
  6
CONTINUOUS
 10
9.8087254566
 20
8.6686821808
 11
9.8690958244
 21
8.6296406335
  0
LINE
  5
2BF
100
AcDbEntity
  8
0
100
AcDbLine
 62
7
  6
CONTINUOUS
 10
10.5322038983
 20
7.7614571972
 11
10.5322038983
 21
7.7047428852
  0
LINE
  5
2C0
100
AcDbEntity
  8
0
100
AcDbLine
 62
7
  6
CONTINUOUS
 10
10.6456531166
 20
9.0073404504
 11
10.6536765004
 21
9.0450341469
  0
LINE
  5
2C1
100
AcDbEntity
  8
0
100
AcDbLine
 62
4
  6
CONTINUOUS
 10
9.6391583059
 20
7.3230196827
 11
9.6311089254
 21
7.3115038354
  0
LINE
  5
2C2
100
AcDbEntity
  8
0
100
AcDbLine
 62
4
  6
CONTINUOUS
 10
9.5425657161
 20
7.045977669
 11
9.5506150989
 21
7.0574935162
  0
LINE
  5
2C3
100
AcDbEntity
  8
0
100
AcDbLine
 62
4
  6
CONTINUOUS
 10
9.6391583059
 20
7.1298345031
 11
9.6311089254
 21
7.1183186558
  0
LINE
  5
2C4
100
AcDbEntity
  8
0
100
AcDbLine
 62
7
  6
CONTINUOUS
 10
12.1363563335
 20
10.0536818832
 11
11.5540139626
 21
9.4911823141
  0
LINE
  5
2C5
100
AcDbEntity
  8
0
100
AcDbLine
 62
4
  6
CONTINUOUS
 10
10.8127583083
 20
8.1853398869
 11
10.909350898
 21
8.1484559837
  0
LINE
  5
2C6
100
AcDbEntity
  8
0
100
AcDbLine
 62
7
  6
CONTINUOUS
 10
9.4681894646
 20
8.7567193281
 11
9.446269146
 21
8.766545925
  0
LINE
  5
2C7
100
AcDbEntity
  8
0
100
AcDbLine
 62
4
  6
CONTINUOUS
 10
10.8449558391
 20
8.1710329068
 11
10.8449558391
 21
8.1348106856
  0
LINE
  5
2C8
100
AcDbEntity
  8
0
100
AcDbLine
 62
4
  6
CONTINUOUS
 10
9.6069607779
 20
7.05358593
 11
9.5828126276
 21
7.0190383888
  0
LINE
  5
2C9
100
AcDbEntity
  8
0
100
AcDbLine
 62
4
  6
CONTINUOUS
 10
9.6311089254
 20
7.0156890292
 11
9.6391583059
 21
7.0272048764
  0
LINE
  5
2CA
100
AcDbEntity
  8
0
100
AcDbLine
 62
4
  6
CONTINUOUS
 10
9.6391583059
 20
6.8340196969
 11
9.6311089254
 21
6.8225038496
  0
LINE
  5
2CB
100
AcDbEntity
  8
0
100
AcDbLine
 62
4
  6
CONTINUOUS
 10
10.909350898
 20
8.1484559837
 11
10.8127583083
 21
8.1249695182
  0
LINE
  5
2CC
100
AcDbEntity
  8
0
100
AcDbLine
 62
4
  6
CONTINUOUS
 10
10.87715337
 20
8.2231333322
 11
10.8449558391
 21
8.2253662385
  0
LINE
  5
2CD
100
AcDbEntity
  8
0
100
AcDbLine
 62
4
  6
CONTINUOUS
 10
10.8449558391
 20
8.2253662385
 11
10.8288570737
 21
8.2325197286
  0
LINE
  5
2CE
100
AcDbEntity
  8
0
100
AcDbLine
 62
4
  6
CONTINUOUS
 10
10.87715337
 20
8.2231333322
 11
10.8610546031
 21
8.2302868223
  0
LINE
  5
2CF
100
AcDbEntity
  8
0
100
AcDbLine
 62
4
  6
CONTINUOUS
 10
10.87715337
 20
8.2714296271
 11
10.8932521312
 21
8.2642761374
  0
LINE
  5
2D0
100
AcDbEntity
  8
0
100
AcDbLine
 62
4
  6
CONTINUOUS
 10
10.8288570737
 20
8.2325197286
 11
10.820807691
 21
8.239114992
  0
LINE
  5
2D1
100
AcDbEntity
  8
0
100
AcDbLine
 62
4
  6
CONTINUOUS
 10
10.8932521312
 20
8.2642761374
 11
10.9013015175
 21
8.2576808737
  0
LINE
  5
2D2
100
AcDbEntity
  8
0
100
AcDbLine
 62
4
  6
CONTINUOUS
 10
10.820807691
 20
8.239114992
 11
10.8127583083
 21
8.2517472923
  0
LINE
  5
2D3
100
AcDbEntity
  8
0
100
AcDbLine
 62
4
  6
CONTINUOUS
 10
10.9013015175
 20
8.2576808737
 11
10.909350898
 21
8.2450485735
  0
LINE
  5
2D4
100
AcDbEntity
  8
0
100
AcDbLine
 62
4
  6
CONTINUOUS
 10
10.8610546031
 20
8.2302868223
 11
10.8530052197
 21
8.2489561596
  0
LINE
  5
2D5
100
AcDbEntity
  8
0
100
AcDbLine
 62
4
  6
CONTINUOUS
 10
10.8610546031
 20
8.3631016333
 11
10.8610546031
 21
8.3268794121
  0
LINE
  5
2D6
100
AcDbEntity
  8
0
100
AcDbLine
 62
4
  6
CONTINUOUS
 10
10.909350898
 20
8.4684189374
 11
10.909350898
 21
8.4080485688
  0
LINE
  5
2D7
100
AcDbEntity
  8
0
100
AcDbLine
 62
7
  6
CONTINUOUS
 10
10.9779316205
 20
8.652018354
 11
10.9779316205
 21
6.7433488081
  0
LINE
  5
2D8
100
AcDbEntity
  8
0
100
AcDbLine
 62
7
  6
CONTINUOUS
 10
11.0158987067
 20
8.6576917452
 11
11.0158987067
 21
6.7490221994
  0
LINE
  5
2D9
100
AcDbEntity
  8
0
100
AcDbLine
 62
4
  6
CONTINUOUS
 10
10.8530052197
 20
8.2489561596
 11
10.8610546031
 21
8.2665090435
  0
LINE
  5
2DA
100
AcDbEntity
  8
0
100
AcDbLine
 62
4
  6
CONTINUOUS
 10
10.8127583083
 20
8.2517472923
 11
10.820807691
 21
8.2632631395
  0
LINE
  5
2DB
100
AcDbEntity
  8
0
100
AcDbLine
 62
7
  6
CONTINUOUS
 10
11.0158987067
 20
8.6576917452
 11
11.493160632
 21
9.1186913921
  0
LINE
  5
2DC
100
AcDbEntity
  8
0
100
AcDbLine
 62
7
  6
CONTINUOUS
 10
12.553730854
 20
10.1421236209
 11
12.1363563335
 21
9.7389707684
  0
LINE
  5
2DD
100
AcDbEntity
  8
0
100
AcDbLine
 62
4
  6
CONTINUOUS
 10
10.909350898
 20
8.4382337531
 11
10.8127583083
 21
8.4449324719
  0
LINE
  5
2DE
100
AcDbEntity
  8
0
100
AcDbLine
 62
4
  6
CONTINUOUS
 10
10.909350898
 20
8.2450485735
 11
10.9013015175
 21
8.2335327262
  0
LINE
  5
2DF
100
AcDbEntity
  8
0
100
AcDbLine
 62
7
  6
CONTINUOUS
 10
9.919165891
 20
7.4136034555
 11
9.8183724341
 21
7.3162444466
  0
LINE
  5
2E0
100
AcDbEntity
  8
0
100
AcDbLine
 62
7
  6
CONTINUOUS
 10
9.9687107241
 20
7.4387722324
 11
9.8679172671
 21
7.3414132235
  0
LINE
  5
2E1
100
AcDbEntity
  8
0
100
AcDbLine
 62
7
  6
CONTINUOUS
 10
10.4122135053
 20
7.8656778071
 11
10.4318837365
 21
7.8846777925
  0
LINE
  5
2E2
100
AcDbEntity
  8
0
100
AcDbLine
 62
4
  6
CONTINUOUS
 10
10.820807691
 20
8.2632631395
 11
10.8288570737
 21
8.2687419498
  0
LINE
  5
2E3
100
AcDbEntity
  8
0
100
AcDbLine
 62
4
  6
CONTINUOUS
 10
10.9013015175
 20
8.2335327262
 11
10.8932521312
 21
8.2280539162
  0
LINE
  5
2E4
100
AcDbEntity
  8
0
100
AcDbLine
 62
4
  6
CONTINUOUS
 10
10.8610546031
 20
8.2665090435
 11
10.87715337
 21
8.2714296271
  0
LINE
  5
2E5
100
AcDbEntity
  8
0
100
AcDbLine
 62
7
  6
CONTINUOUS
 10
10.9779316205
 20
8.652018354
 11
11.0158987067
 21
8.6576917452
  0
LINE
  5
2E6
100
AcDbEntity
  8
0
100
AcDbLine
 62
7
  6
CONTINUOUS
 10
10.5013607729
 20
7.6749507121
 11
10.5322038983
 21
7.7047428852
  0
LINE
  5
2E7
100
AcDbEntity
  8
0
100
AcDbLine
 62
7
  6
CONTINUOUS
 10
10.5617311407
 20
7.6359091649
 11
10.592574266
 21
7.6657013379
  0
LINE
  5
2E8
100
AcDbEntity
  8
0
100
AcDbLine
 62
7
  6
CONTINUOUS
 10
10.390636703
 20
7.4095115664
 11
10.2898432461
 21
7.3121525574
  0
LINE
  5
2E9
100
AcDbEntity
  8
0
100
AcDbLine
 62
4
  6
CONTINUOUS
 10
9.6311089254
 20
7.3115038354
 11
9.6150101585
 21
7.3005462149
  0
LINE
  5
2EA
100
AcDbEntity
  8
0
100
AcDbLine
 62
4
  6
CONTINUOUS
 10
10.8932521312
 20
8.2280539162
 11
10.87715337
 21
8.2231333322
  0
LINE
  5
2EB
100
AcDbEntity
  8
0
100
AcDbLine
 62
7
  6
CONTINUOUS
 10
11.493160632
 20
9.1186913921
 11
11.493160632
 21
7.2100218462
  0
LINE
  5
2EC
100
AcDbEntity
  8
0
100
AcDbLine
 62
7
  6
CONTINUOUS
 10
10.5223721536
 20
6.717917209
 11
10.5925064217
 21
6.8345294966
  0
LINE
  5
2ED
100
AcDbEntity
  8
0
100
AcDbLine
 62
7
  6
CONTINUOUS
 10
10.4401815361
 20
7.3774708978
 11
10.3393880791
 21
7.2801118889
  0
LINE
  5
2EE
100
AcDbEntity
  8
0
100
AcDbLine
 62
7
  6
CONTINUOUS
 10
10.7165125214
 20
7.5506443028
 11
10.7361827526
 21
7.5696442882
  0
LINE
  5
2EF
100
AcDbEntity
  8
0
100
AcDbLine
 62
4
  6
CONTINUOUS
 10
9.6311089254
 20
7.1183186558
 11
9.6150101585
 21
7.1073610354
  0
LINE
  5
2F0
100
AcDbEntity
  8
0
100
AcDbLine
 62
4
  6
CONTINUOUS
 10
9.5506150989
 20
7.0574935162
 11
9.5667138636
 21
7.0684511367
  0
LINE
  5
2F1
100
AcDbEntity
  8
0
100
AcDbLine
 62
4
  6
CONTINUOUS
 10
9.6150101585
 20
7.0590647405
 11
9.6069607779
 21
7.05358593
  0
LINE
  5
2F2
100
AcDbEntity
  8
0
100
AcDbLine
 62
4
  6
CONTINUOUS
 10
9.5828126276
 20
7.0190383888
 11
9.574763247
 21
7.0135595784
  0
LINE
  5
2F3
100
AcDbEntity
  8
0
100
AcDbLine
 62
4
  6
CONTINUOUS
 10
9.6230595391
 20
7.0102102191
 11
9.6311089254
 21
7.0156890292
  0
LINE
  5
2F4
100
AcDbEntity
  8
0
100
AcDbLine
 62
7
  6
CONTINUOUS
 10
9.8004679685
 20
9.0659542395
 11
10.6456531166
 21
9.0073404504
  0
LINE
  5
2F5
100
AcDbEntity
  8
0
100
AcDbLine
 62
7
  6
CONTINUOUS
 10
9.8084913523
 20
9.103647936
 11
10.6536765004
 21
9.0450341469
  0
LINE
  5
2F6
100
AcDbEntity
  8
0
100
AcDbLine
 62
7
  6
CONTINUOUS
 10
11.5540139626
 20
9.4911823141
 11
11.5540139626
 21
6.8290905386
  0
LINE
  5
2F7
100
AcDbEntity
  8
0
100
AcDbLine
 62
4
  6
CONTINUOUS
 10
9.6311089254
 20
6.8225038496
 11
9.6230595391
 21
6.8170250395
  0
LINE
  5
2F8
100
AcDbEntity
  8
0
100
AcDbLine
 62
7
  6
CONTINUOUS
 10
10.592574266
 20
7.6657013379
 11
10.6236029906
 21
7.6814639311
  0
LINE
  5
2F9
100
AcDbEntity
  8
0
100
AcDbLine
 62
7
  6
CONTINUOUS
 10
10.6511445255
 20
6.9974419486
 11
10.5503510686
 21
6.9000829396
  0
LINE
  5
2FA
100
AcDbEntity
  8
0
100
AcDbLine
 62
7
  6
CONTINUOUS
 10
10.6511445255
 20
6.9402325031
 11
10.5503510686
 21
6.8428734942
  0
LINE
  5
2FB
100
AcDbEntity
  8
0
100
AcDbLine
 62
4
  6
CONTINUOUS
 10
9.6069607779
 20
7.228659999
 11
9.5425657161
 21
7.2089776643
  0
LINE
  5
2FC
100
AcDbEntity
  8
0
100
AcDbLine
 62
7
  6
CONTINUOUS
 10
10.555992598
 20
6.7484193827
 11
10.5192463349
 21
6.712925216
  0
LINE
  5
2FD
100
AcDbEntity
  8
0
100
AcDbLine
 62
7
  6
CONTINUOUS
 10
10.4401815361
 20
6.5894642199
 11
10.3393880791
 21
6.4921052109
  0
LINE
  5
2FE
100
AcDbEntity
  8
0
100
AcDbLine
 62
7
  6
CONTINUOUS
 10
10.2857532776
 20
9.5646475828
 11
11.1309384257
 21
9.5060337937
  0
LINE
  5
2FF
100
AcDbEntity
  8
0
100
AcDbLine
 62
7
  6
CONTINUOUS
 10
11.5540139626
 20
9.4911823141
 11
9.8636436665
 21
9.6084098923
  0
LINE
  5
300
100
AcDbEntity
  8
0
100
AcDbLine
 62
7
  6
CONTINUOUS
 10
12.1363563335
 20
10.0536818832
 11
12.1363563335
 21
7.3915901077
  0
LINE
  5
301
100
AcDbEntity
  8
0
100
AcDbLine
 62
7
  6
CONTINUOUS
 10
11.0158987067
 20
6.7490221994
 11
11.493160632
 21
7.2100218462
  0
LINE
  5
302
100
AcDbEntity
  8
0
100
AcDbLine
 62
7
  6
CONTINUOUS
 10
12.553730854
 20
8.233454075
 11
12.1363563335
 21
7.8303012225
  0
LINE
  5
303
100
AcDbEntity
  8
0
100
AcDbLine
 62
7
  6
CONTINUOUS
 10
11.3914684051
 20
6.9654215755
 11
10.9142064798
 21
6.5044219287
  0
LINE
  5
304
100
AcDbEntity
  8
0
100
AcDbLine
 62
7
  6
CONTINUOUS
 10
12.1363563335
 20
7.6839281059
 11
12.4520386272
 21
7.9888538043
  0
LINE
  5
305
100
AcDbEntity
  8
0
100
AcDbLine
 62
7
  6
CONTINUOUS
 10
12.553730854
 20
8.233454075
 11
12.553730854
 21
10.1421236209
  0
LINE
  5
306
100
AcDbEntity
  8
0
100
AcDbLine
 62
7
  6
CONTINUOUS
 10
12.1363563335
 20
7.3915901077
 11
11.5540139626
 21
6.8290905386
  0
LINE
  5
307
100
AcDbEntity
  8
0
100
AcDbLine
 62
7
  6
CONTINUOUS
 10
12.1363563335
 20
10.0536818832
 11
10.4459860374
 21
10.1709094614
  0
LINE
  5
308
100
AcDbEntity
  8
0
100
AcDbLine
 62
7
  6
CONTINUOUS
 10
12.1915086477
 20
10.5294660225
 11
11.3463234996
 21
10.5880798116
  0
ARC
  5
309
100
AcDbEntity
  8
0
100
AcDbCircle
 62
7
  6
CONTINUOUS
 10
4.7886315928
 20
10.2961285583
 40
6.7586520313
100
AcDbArc
 50
326.7404586854
 51
328.0332674866
  0
ARC
  5
30A
100
AcDbEntity
  8
0
100
AcDbCircle
 62
7
  6
CONTINUOUS
 10
7.685871043
 20
8.5161328825
 40
3.3580220087
100
AcDbArc
 50
329.9489227799
 51
332.0115022404
  0
ARC
  5
30B
100
AcDbEntity
  8
0
100
AcDbCircle
 62
7
  6
CONTINUOUS
 10
10.1240361809
 20
6.946562743
 40
0.5180985527
100
AcDbArc
 50
233.8449640121
 51
240.3734973828
  0
ARC
  5
30C
100
AcDbEntity
  8
0
100
AcDbCircle
 62
7
  6
CONTINUOUS
 10
10.1345177892
 20
6.9591459234
 40
0.5180985527
100
AcDbArc
 50
53.8449640121
 51
60.3734973828
  0
ARC
  5
30D
100
AcDbEntity
  8
0
100
AcDbCircle
 62
7
  6
CONTINUOUS
 10
10.0337243323
 20
6.8617869145
 40
0.5180985527
100
AcDbArc
 50
53.8449640121
 51
60.3734973828
  0
ARC
  5
30E
100
AcDbEntity
  8
0
100
AcDbCircle
 62
7
  6
CONTINUOUS
 10
10.081364575
 20
6.9369466399
 40
0.4748220756
100
AcDbArc
 50
180.0018192381
 51
183.4628535462
  0
ARC
  5
30F
100
AcDbEntity
  8
0
100
AcDbCircle
 62
7
  6
CONTINUOUS
 10
10.0763959382
 20
6.8714030176
 40
0.4748220756
100
AcDbArc
 50
0.0018192382
 51
3.4628535462
  0
ARC
  5
310
100
AcDbEntity
  8
0
100
AcDbCircle
 62
7
  6
CONTINUOUS
 10
10.1796775795
 20
6.9688372258
 40
0.4723338982
100
AcDbArc
 50
356.5280210439
 51
3.4719789561
  0
ARC
  5
311
100
AcDbEntity
  8
0
100
AcDbCircle
 62
7
  6
CONTINUOUS
 10
10.075419761
 20
6.9369764781
 40
0.4688772636
100
AcDbArc
 50
176.5152525739
 51
180.0054884677
  0
ARC
  5
312
100
AcDbEntity
  8
0
100
AcDbCircle
 62
7
  6
CONTINUOUS
 10
10.0823407522
 20
6.8713731794
 40
0.4688772636
100
AcDbArc
 50
356.515252574
 51
0.0054884677
  0
ARC
  5
313
100
AcDbEntity
  8
0
100
AcDbCircle
 62
7
  6
CONTINUOUS
 10
10.1189287707
 20
6.8647312141
 40
0.4329577866
100
AcDbArc
 50
293.2510152967
 51
300.6101268332
  0
ARC
  5
314
100
AcDbEntity
  8
0
100
AcDbCircle
 62
7
  6
CONTINUOUS
 10
10.1396251995
 20
7.0409774523
 40
0.4329577866
100
AcDbArc
 50
113.2510152967
 51
120.6101268332
  0
ARC
  5
315
100
AcDbEntity
  8
0
100
AcDbCircle
 62
7
  6
CONTINUOUS
 10
10.0388317425
 20
6.9436184434
 40
0.4329577866
100
AcDbArc
 50
113.2510152967
 51
120.6101268332
  0
ARC
  5
316
100
AcDbEntity
  8
0
100
AcDbCircle
 62
7
  6
CONTINUOUS
 10
10.2718199679
 20
7.0105061063
 40
0.387935047
100
AcDbArc
 50
309.3870745335
 51
317.3108555349
  0
ARC
  5
317
100
AcDbEntity
  8
0
100
AcDbCircle
 62
7
  6
CONTINUOUS
 10
10.2875260649
 20
7.0263329488
 40
0.3864072194
100
AcDbArc
 50
316.6843336589
 51
318.5299341261
  0
ARC
  5
318
100
AcDbEntity
  8
0
100
AcDbCircle
 62
7
  6
CONTINUOUS
 10
10.2878358305
 20
7.0260408384
 40
0.3859814458
100
AcDbArc
 50
314.0072378303
 51
316.684338206
  0
ARC
  5
319
100
AcDbEntity
  8
0
100
AcDbCircle
 62
7
  6
CONTINUOUS
 10
10.414159263
 20
8.3120095956
 40
0.3440820157
100
AcDbArc
 50
83.8399768584
 51
86.0320076143
  0
ARC
  5
31A
100
AcDbEntity
  8
0
100
AcDbCircle
 62
7
  6
CONTINUOUS
 10
10.4284549956
 20
8.327931893
 40
0.3273080882
100
AcDbArc
 50
87.449430607
 51
88.3375324398
  0
ARC
  5
31B
100
AcDbEntity
  8
0
100
AcDbCircle
 62
7
  6
CONTINUOUS
 10
10.4827198342
 20
8.2947910538
 40
0.3070342885
100
AcDbArc
 50
310.5953507539
 51
312.3031208121
  0
ARC
  5
31C
100
AcDbEntity
  8
0
100
AcDbCircle
 62
7
  6
CONTINUOUS
 10
10.4194681678
 20
8.3602662049
 40
0.3069286262
100
AcDbArc
 50
135.7204164047
 51
137.4150865158
  0
ARC
  5
31D
100
AcDbEntity
  8
0
100
AcDbCircle
 62
7
  6
CONTINUOUS
 10
10.747872045
 20
8.5978795779
 40
0.210421704
100
AcDbArc
 50
266.0127690703
 51
274.2005573765
  0
ARC
  5
31E
100
AcDbEntity
  8
0
100
AcDbCircle
 62
7
  6
CONTINUOUS
 10
10.7498055464
 20
8.6009471281
 40
0.201306481
100
AcDbArc
 50
266.0187227936
 51
272.9241493041
  0
ARC
  5
31F
100
AcDbEntity
  8
0
100
AcDbCircle
 62
7
  6
CONTINUOUS
 10
10.5652394873
 20
7.7464282331
 40
0.1920879411
100
AcDbArc
 50
112.9322910359
 51
133.9677512286
  0
ARC
  5
320
100
AcDbEntity
  8
0
100
AcDbCircle
 62
7
  6
CONTINUOUS
 10
9.8417610457
 20
8.7103675287
 40
0.1920879411
100
AcDbArc
 50
112.9322910342
 51
133.9677512269
  0
ARC
  5
321
100
AcDbEntity
  8
0
100
AcDbCircle
 62
7
  6
CONTINUOUS
 10
10.6027248447
 20
7.7076493024
 40
0.1919816149
100
AcDbArc
 50
314.040363831
 51
334.3147185723
  0
ARC
  5
322
100
AcDbEntity
  8
0
100
AcDbCircle
 62
7
  6
CONTINUOUS
 10
9.8792464031
 20
8.671588598
 40
0.1919816149
100
AcDbArc
 50
314.040363831
 51
334.3147185723
  0
ARC
  5
323
100
AcDbEntity
  8
0
100
AcDbCircle
 62
7
  6
CONTINUOUS
 10
10.5448688035
 20
7.728324341
 40
0.1909538695
100
AcDbArc
 50
125.8987524149
 51
134.00315076
  0
ARC
  5
324
100
AcDbEntity
  8
0
100
AcDbCircle
 62
7
  6
CONTINUOUS
 10
9.8213903619
 20
8.6922636366
 40
0.1909538695
100
AcDbArc
 50
125.8987524149
 51
134.00315076
  0
ARC
  5
325
100
AcDbEntity
  8
0
100
AcDbCircle
 62
7
  6
CONTINUOUS
 10
10.6254812715
 20
7.7718266695
 40
0.0599115862
100
AcDbArc
 50
178.3696698884
 51
180.0000563382
  0
ARC
  5
326
100
AcDbEntity
  8
0
100
AcDbCircle
 62
7
  6
CONTINUOUS
 10
9.9020028299
 20
8.7357659651
 40
0.0599115862
100
AcDbArc
 50
178.3696698884
 51
180.0000563382
  0
ARC
  5
327
100
AcDbEntity
  8
0
100
AcDbCircle
 62
7
  6
CONTINUOUS
 10
9.8743388266
 20
8.6940733571
 40
0.0550707706
100
AcDbArc
 50
296.9306324499
 51
297.9805709708
  0
ARC
  5
328
100
AcDbEntity
  8
0
100
AcDbCircle
 62
7
  6
CONTINUOUS
 10
10.5978172683
 20
7.7301340615
 40
0.0550707705
100
AcDbArc
 50
296.9306324494
 51
297.9805709712
  0
SPLINE
  5
329
100
AcDbEntity
  8
0
100
AcDbSpline
 62
7
  6
CONTINUOUS
 70
0
 71
3
 72
17
 73
13
 74
0
 42
0.0000001
 43
0.0000001
 44
0.0000000001
 40
0.0
 40
0.0
 40
0.0
 40
0.0
 40
0.1273148359
 40
0.1907080938
 40
0.253886694
 40
0.3795973721
 40
0.5046020162
 40
0.5668927094
 40
0.6290466736
 40
0.7529728785
 40
0.8765701029
 40
1.0
 40
1.0
 40
1.0
 40
1.0
 10
10.3528252449
 20
7.722831249
 30
0.0
 10
10.3528252449
 20
7.7295747598
 30
0.0
 10
10.3533103854
 20
7.7396851044
 30
0.0
 10
10.3549320542
 20
7.7530385337
 30
0.0
 10
10.3571922258
 20
7.7662136402
 30
0.0
 10
10.3612104929
 20
7.7823765202
 30
0.0
 10
10.3668048713
 20
7.798014677
 30
0.0
 10
10.3721840664
 20
7.8100881904
 30
0.0
 10
10.3781420231
 20
7.8218225701
 30
0.0
 10
10.3866758302
 20
7.8358672776
 30
0.0
 10
10.3985620274
 20
7.8515528289
 30
0.0
 10
10.4075111359
 20
7.8611358119
 30
0.0
 10
10.4122135463
 20
7.8656777647
 30
0.0
  0
SPLINE
  5
32A
100
AcDbEntity
  8
0
100
AcDbSpline
 62
7
  6
CONTINUOUS
 70
0
 71
3
 72
15
 73
11
 74
0
 42
0.0000001
 43
0.0000001
 44
0.0000000001
 40
0.0
 40
0.0
 40
0.0
 40
0.0
 40
0.1240777136
 40
0.2511220676
 40
0.3805653088
 40
0.5108217172
 40
0.639494926
 40
0.764424719
 40
0.8845808224
 40
1.0
 40
1.0
 40
1.0
 40
1.0
 10
10.5617311407
 20
7.7753285571
 30
0.0
 10
10.5644776117
 20
7.7741457901
 30
0.0
 10
10.5700032898
 20
7.7716742118
 30
0.0
 10
10.5782428009
 20
7.7676403025
 30
0.0
 10
10.5864353118
 20
7.7631882811
 30
0.0
 10
10.5944318117
 20
7.7583154813
 30
0.0
 10
10.6020681259
 20
7.7530854958
 30
0.0
 10
10.6092279869
 20
7.7476134018
 30
0.0
 10
10.615878862
 20
7.7420188982
 30
0.0
 10
10.6200765726
 20
7.7381941577
 30
0.0
 10
10.6221015084
 20
7.7362870098
 30
0.0
  0
SPLINE
  5
32B
100
AcDbEntity
  8
0
100
AcDbSpline
 62
7
  6
CONTINUOUS
 70
0
 71
3
 72
15
 73
11
 74
0
 42
0.0000001
 43
0.0000001
 44
0.0000000001
 40
0.0
 40
0.0
 40
0.0
 40
0.0
 40
0.1387137725
 40
0.2777269652
 40
0.4154031561
 40
0.5490459746
 40
0.6755623724
 40
0.7928750885
 40
0.9006878119
 40
1.0
 40
1.0
 40
1.0
 40
1.0
 10
10.5013607729
 20
7.7446604082
 30
0.0
 10
10.5040832305
 20
7.7462104406
 30
0.0
 10
10.5095449248
 20
7.7492947768
 30
0.0
 10
10.5177558014
 20
7.7538335911
 30
0.0
 10
10.5259184566
 20
7.7582218167
 30
0.0
 10
10.5338936312
 20
7.7623609655
 30
0.0
 10
10.5415261851
 20
7.7661594047
 30
0.0
 10
10.5486997427
 20
7.7695678463
 30
0.0
 10
10.5553738503
 20
7.7725928481
 30
0.0
 10
10.5596663108
 20
7.7744526689
 30
0.0
 10
10.5617311407
 20
7.7753285571
 30
0.0
  0
SPLINE
  5
32C
100
AcDbEntity
  8
0
100
AcDbSpline
 62
7
  6
CONTINUOUS
 70
0
 71
3
 72
11
 73
7
 74
0
 42
0.0000001
 43
0.0000001
 44
0.0000000001
 40
0.0
 40
0.0
 40
0.0
 40
0.0
 40
0.2732656329
 40
0.5313487246
 40
0.7731209783
 40
1.0
 40
1.0
 40
1.0
 40
1.0
 10
10.6246039762
 20
7.703849654
 30
0.0
 10
10.6246039762
 20
7.7068158947
 30
0.0
 10
10.624489433
 20
7.7125844019
 30
0.0
 10
10.6239714794
 20
7.720962779
 30
0.0
 10
10.6231713534
 20
7.7288125041
 30
0.0
 10
10.6224760855
 20
7.733852939
 30
0.0
 10
10.6221015084
 20
7.7362870098
 30
0.0
  0
SPLINE
  5
32D
100
AcDbEntity
  8
0
100
AcDbSpline
 62
7
  6
CONTINUOUS
 70
0
 71
3
 72
11
 73
7
 74
0
 42
0.0000001
 43
0.0000001
 44
0.0000000001
 40
0.0
 40
0.0
 40
0.0
 40
0.0
 40
0.249272203
 40
0.5008802135
 40
0.7525275855
 40
1.0
 40
1.0
 40
1.0
 40
1.0
 10
10.6221015084
 20
7.6665773137
 30
0.0
 10
10.6224673468
 20
7.6696613439
 30
0.0
 10
10.6231461819
 20
7.6758652118
 30
0.0
 10
10.6239491623
 20
7.6852074914
 30
0.0
 10
10.6244758268
 20
7.694547429
 30
0.0
 10
10.6246039762
 20
7.7007664244
 30
0.0
 10
10.6246039762
 20
7.703849654
 30
0.0
  0
SPLINE
  5
32E
100
AcDbEntity
  8
0
100
AcDbSpline
 62
7
  6
CONTINUOUS
 70
0
 71
3
 72
38
 73
34
 74
0
 42
0.0000001
 43
0.0000001
 44
0.0000000001
 40
0.0
 40
0.0
 40
0.0
 40
0.0
 40
0.029944812
 40
0.0599139139
 40
0.0899312717
 40
0.1200193174
 40
0.1350994304
 40
0.150204915
 40
0.1804950416
 40
0.2109117799
 40
0.2414680483
 40
0.2721739917
 40
0.3030358878
 40
0.3340569838
 40
0.365236542
 40
0.3965708423
 40
0.4280523939
 40
0.4596710329
 40
0.4914133205
 40
0.5232636592
 40
0.5552038952
 40
0.5872143744
 40
0.6192737535
 40
0.6513599477
 40
0.6834501859
 40
0.7155217223
 40
0.7475519957
 40
0.7795193843
 40
0.8114039982
 40
0.8431871813
 40
0.8748506854
 40
0.9377293214
 40
1.0
 40
1.0
 40
1.0
 40
1.0
 10
10.7165124804
 20
7.5506443451
 30
0.0
 10
10.7128792534
 20
7.5471350925
 30
0.0
 10
10.7053272091
 20
7.5403998003
 30
0.0
 10
10.6932280076
 20
7.5312234735
 30
0.0
 10
10.6804189907
 20
7.5230215062
 30
0.0
 10
10.6692201094
 20
7.5170385189
 30
0.0
 10
10.6599837247
 20
7.5127830924
 30
0.0
 10
10.6505566971
 20
7.5088785975
 30
0.0
 10
10.6384623628
 20
7.5046797413
 30
0.0
 10
10.6235576306
 20
7.5007674771
 30
0.0
 10
10.608327916
 20
7.4979948561
 30
0.0
 10
10.5928572136
 20
7.496379712
 30
0.0
 10
10.5772307381
 20
7.4959280259
 30
0.0
 10
10.5615344347
 20
7.4966447943
 30
0.0
 10
10.5458544097
 20
7.4985231448
 30
0.0
 10
10.5302771865
 20
7.5015553201
 30
0.0
 10
10.514887745
 20
7.5057217455
 30
0.0
 10
10.4997713553
 20
7.5110021142
 30
0.0
 10
10.4850100125
 20
7.5173646009
 30
0.0
 10
10.4706858994
 20
7.5247768077
 30
0.0
 10
10.4568762456
 20
7.5331953697
 30
0.0
 10
10.4436583815
 20
7.5425765122
 30
0.0
 10
10.4311030865
 20
7.552866271
 30
0.0
 10
10.4192811698
 20
7.5640104522
 30
0.0
 10
10.408255429
 20
7.5759456951
 30
0.0
 10
10.3980886585
 20
7.5886085583
 30
0.0
 10
10.3888342441
 20
7.6019275565
 30
0.0
 10
10.3805455151
 20
7.615831486
 30
0.0
 10
10.3732655135
 20
7.6302423685
 30
0.0
 10
10.3670370341
 20
7.6450832823
 30
0.0
 10
10.3601936338
 20
7.6652796788
 30
0.0
 10
10.3544024451
 20
7.6911869375
 30
0.0
 10
10.3528252449
 20
7.7123270866
 30
0.0
 10
10.3528252449
 20
7.722831249
 30
0.0
  0
SPLINE
  5
32F
100
AcDbEntity
  8
0
100
AcDbSpline
 62
7
  6
CONTINUOUS
 70
0
 71
3
 72
23
 73
19
 74
0
 42
0.0000001
 43
0.0000001
 44
0.0000000001
 40
0.0
 40
0.0
 40
0.0
 40
0.0
 40
0.061242766
 40
0.122959969
 40
0.1850386674
 40
0.2474376473
 40
0.3101333753
 40
0.3730736554
 40
0.4361841498
 40
0.4993920833
 40
0.5626218374
 40
0.6257992135
 40
0.6888482708
 40
0.7516992755
 40
0.8142887097
 40
0.8765618576
 40
0.938476233
 40
1.0
 40
1.0
 40
1.0
 40
1.0
 10
10.5655696853
 20
7.7718266106
 30
0.0
 10
10.5655696853
 20
7.7698756898
 30
0.0
 10
10.5657609998
 20
7.7659562859
 30
0.0
 10
10.5666064018
 20
7.7601142697
 30
0.0
 10
10.5680079914
 20
7.7543418202
 30
0.0
 10
10.5699499827
 20
7.7486954403
 30
0.0
 10
10.5724153628
 20
7.7432271337
 30
0.0
 10
10.575379596
 20
7.7379864619
 30
0.0
 10
10.5788161417
 20
7.7330227941
 30
0.0
 10
10.5826928185
 20
7.7283827788
 30
0.0
 10
10.5869728746
 20
7.7241089664
 30
0.0
 10
10.5916173597
 20
7.7202422077
 30
0.0
 10
10.5965817814
 20
7.7168168906
 30
0.0
 10
10.6018213792
 20
7.7138672854
 30
0.0
 10
10.6072858183
 20
7.7114182526
 30
0.0
 10
10.6129257373
 20
7.7094957381
 30
0.0
 10
10.6186867457
 20
7.7081147667
 30
0.0
 10
10.6225872995
 20
7.7075638259
 30
0.0
 10
10.6245388359
 20
7.7073832578
 30
0.0
  0
SPLINE
  5
330
100
AcDbEntity
  8
0
100
AcDbSpline
 62
7
  6
CONTINUOUS
 70
0
 71
3
 72
49
 73
45
 74
0
 42
0.0000001
 43
0.0000001
 44
0.0000000001
 40
0.0
 40
0.0
 40
0.0
 40
0.0
 40
0.0313124516
 40
0.0628593141
 40
0.0787075028
 40
0.0945995998
 40
0.126502659
 40
0.1585608398
 40
0.1907402095
 40
0.2068682324
 40
0.2230127563
 40
0.2391689252
 40
0.255331956
 40
0.2714969196
 40
0.2876586436
 40
0.3038119942
 40
0.3199521348
 40
0.3521652624
 40
0.3842696438
 40
0.4162330966
 40
0.4480275395
 40
0.4796318702
 40
0.5110311876
 40
0.5422189324
 40
0.573196104
 40
0.6039722241
 40
0.6345646967
 40
0.6649982209
 40
0.6953044026
 40
0.7104261239
 40
0.7255300429
 40
0.7556952105
 40
0.7707772913
 40
0.7858628248
 40
0.8160556666
 40
0.8311837819
 40
0.8463363278
 40
0.8615175372
 40
0.8767311605
 40
0.9072608757
 40
0.9225962674
 40
0.9379813914
 40
0.9688998926
 40
1.0
 40
1.0
 40
1.0
 40
1.0
 10
10.635564131
 20
7.6989360574
 30
0.0
 10
10.635564131
 20
7.7014080158
 30
0.0
 10
10.6353185848
 20
7.706373458
 30
0.0
 10
10.6344137239
 20
7.712530751
 30
0.0
 10
10.6333341013
 20
7.717410643
 30
0.0
 10
10.6320167508
 20
7.7222608538
 30
0.0
 10
10.6299339681
 20
7.7282216589
 30
0.0
 10
10.6267677955
 20
7.7351309869
 30
0.0
 10
10.6235980194
 20
7.7406382941
 30
0.0
 10
10.6207603196
 20
7.7448634042
 30
0.0
 10
10.6184846286
 20
7.7479372995
 30
0.0
 10
10.6160687623
 20
7.7509057578
 30
0.0
 10
10.6135180534
 20
7.7537613734
 30
0.0
 10
10.6108390543
 20
7.7564975952
 30
0.0
 10
10.6080383774
 20
7.759107988
 30
0.0
 10
10.6051224622
 20
7.7615861173
 30
0.0
 10
10.6010933265
 20
7.7647028659
 30
0.0
 10
10.5958059804
 20
7.7682402461
 30
0.0
 10
10.5891154435
 20
7.7718696252
 30
0.0
 10
10.5821465942
 20
7.7748488825
 30
0.0
 10
10.5749658181
 20
7.7771470858
 30
0.0
 10
10.56764267
 20
7.7787442056
 30
0.0
 10
10.5602469986
 20
7.7796221932
 30
0.0
 10
10.5528502359
 20
7.7797749392
 30
0.0
 10
10.5455235146
 20
7.7791980513
 30
0.0
 10
10.5383373065
 20
7.7778993472
 30
0.0
 10
10.5313612583
 20
7.7758886694
 30
0.0
 10
10.5246626053
 20
7.7731875041
 30
0.0
 10
10.5193603726
 20
7.7703778422
 30
0.0
 10
10.5153242708
 20
7.767815796
 30
0.0
 10
10.5114374412
 20
7.7650519723
 30
0.0
 10
10.5077758003
 20
7.7619874322
 30
0.0
 10
10.5043742573
 20
7.758650898
 30
0.0
 10
10.5011517493
 20
7.7551381836
 30
0.0
 10
10.4982082558
 20
7.751372983
 30
0.0
 10
10.4955712543
 20
7.7473913073
 30
0.0
 10
10.4937478611
 20
7.7442980366
 30
0.0
 10
10.4920845169
 20
7.7411082609
 30
0.0
 10
10.4900832876
 20
7.7367328866
 30
0.0
 10
10.4884201738
 20
7.7321961226
 30
0.0
 10
10.487107031
 20
7.7275407824
 30
0.0
 10
10.4860245239
 20
7.7227946481
 30
0.0
 10
10.4851203513
 20
7.7167405527
 30
0.0
 10
10.4848796931
 20
7.7118412535
 30
0.0
 10
10.4848796931
 20
7.7093860586
 30
0.0
  0
SPLINE
  5
331
100
AcDbEntity
  8
0
100
AcDbSpline
 62
7
  6
CONTINUOUS
 70
0
 71
3
 72
13
 73
9
 74
0
 42
0.0000001
 43
0.0000001
 44
0.0000000001
 40
0.0
 40
0.0
 40
0.0
 40
0.0
 40
0.2525061031
 40
0.5033171101
 40
0.6280725826
 40
0.7524088264
 40
0.8763708792
 40
1.0
 40
1.0
 40
1.0
 40
1.0
 10
10.5322038983
 20
7.7395977333
 30
0.0
 10
10.5322038983
 20
7.7417588563
 30
0.0
 10
10.5324362041
 20
7.7460700661
 30
0.0
 10
10.5333110301
 20
7.7513854511
 30
0.0
 10
10.53435662
 20
7.755536201
 30
0.0
 10
10.5353085849
 20
7.7585856747
 30
0.0
 10
10.5364272937
 20
7.7615675368
 30
0.0
 10
10.5372832712
 20
7.7635074904
 30
0.0
 10
10.5377377499
 20
7.7644630182
 30
0.0
  0
SPLINE
  5
332
100
AcDbEntity
  8
0
100
AcDbSpline
 62
7
  6
CONTINUOUS
 70
0
 71
3
 72
19
 73
15
 74
0
 42
0.0000001
 43
0.0000001
 44
0.0000000001
 40
0.0
 40
0.0
 40
0.0
 40
0.0
 40
0.1259165152
 40
0.1890435013
 40
0.2521765074
 40
0.3783027214
 40
0.5041309176
 40
0.5668776413
 40
0.6294512568
 40
0.6918223904
 40
0.7539712289
 40
0.8158897976
 40
0.8775715464
 40
1.0
 40
1.0
 40
1.0
 40
1.0
 10
10.5623890821
 20
7.6852221116
 30
0.0
 10
10.5601057968
 20
7.6866987134
 30
0.0
 10
10.556810225
 20
7.6891307689
 30
0.0
 10
10.5527403372
 20
7.6927526083
 30
0.0
 10
10.5488957962
 20
7.6966202394
 30
0.0
 10
10.5445484984
 20
7.7018778343
 30
0.0
 10
10.5408796892
 20
7.7076200863
 30
0.0
 10
10.5383936658
 20
7.7124435279
 30
0.0
 10
10.5367620089
 20
7.7161567165
 30
0.0
 10
10.535369187
 20
7.7199521003
 30
0.0
 10
10.5342214777
 20
7.7238138653
 30
0.0
 10
10.5333230305
 20
7.7277262032
 30
0.0
 10
10.5324665106
 20
7.7329720413
 30
0.0
 10
10.5322038983
 20
7.7369539132
 30
0.0
 10
10.5322038983
 20
7.7395977333
 30
0.0
  0
SPLINE
  5
333
100
AcDbEntity
  8
0
100
AcDbSpline
 62
7
  6
CONTINUOUS
 70
0
 71
3
 72
17
 73
13
 74
0
 42
0.0000001
 43
0.0000001
 44
0.0000000001
 40
0.0
 40
0.0
 40
0.0
 40
0.0
 40
0.1214811947
 40
0.1825928933
 40
0.2439208635
 40
0.305493007
 40
0.3673350785
 40
0.4918016094
 40
0.6173948385
 40
0.7440422234
 40
0.8716680821
 40
1.0
 40
1.0
 40
1.0
 40
1.0
 10
10.6227594498
 20
7.6810354124
 30
0.0
 10
10.6204737628
 20
7.6798742833
 30
0.0
 10
10.6169101645
 20
7.6783663785
 30
0.0
 10
10.6119866594
 20
7.676854947
 30
0.0
 10
10.6082021636
 20
7.6759701232
 30
0.0
 10
10.6043516703
 20
7.6753398334
 30
0.0
 10
10.5991409619
 20
7.6748419045
 30
0.0
 10
10.59253795
 20
7.6748703217
 30
0.0
 10
10.5846387847
 20
7.6759410555
 30
0.0
 10
10.5768757236
 20
7.6780274129
 30
0.0
 10
10.5693846551
 20
7.6810939777
 30
0.0
 10
10.5646632459
 20
7.6837514087
 30
0.0
 10
10.5623890821
 20
7.6852221116
 30
0.0
  0
SPLINE
  5
334
100
AcDbEntity
  8
0
100
AcDbSpline
 62
7
  6
CONTINUOUS
 70
0
 71
3
 72
11
 73
7
 74
0
 42
0.0000001
 43
0.0000001
 44
0.0000000001
 40
0.0
 40
0.0
 40
0.0
 40
0.0
 40
0.2268797892
 40
0.4686527917
 40
0.7267359359
 40
1.0
 40
1.0
 40
1.0
 40
1.0
 10
10.5013607729
 20
7.7446604082
 30
0.0
 10
10.5017353581
 20
7.7422262853
 30
0.0
 10
10.5024306389
 20
7.7371857428
 30
0.0
 10
10.5032307711
 20
7.7293358581
 30
0.0
 10
10.5037487217
 20
7.7209573371
 30
0.0
 10
10.5038632408
 20
7.715188742
 30
0.0
 10
10.5038632408
 20
7.7122224648
 30
0.0
  0
SPLINE
  5
335
100
AcDbEntity
  8
0
100
AcDbSpline
 62
7
  6
CONTINUOUS
 70
0
 71
3
 72
11
 73
7
 74
0
 42
0.0000001
 43
0.0000001
 44
0.0000000001
 40
0.0
 40
0.0
 40
0.0
 40
0.0
 40
0.2474744049
 40
0.499121966
 40
0.750729073
 40
1.0
 40
1.0
 40
1.0
 40
1.0
 10
10.5038632408
 20
7.7122224648
 30
0.0
 10
10.5038632408
 20
7.7091392588
 30
0.0
 10
10.5037350664
 20
7.7029203344
 30
0.0
 10
10.5032084005
 20
7.6935805286
 30
0.0
 10
10.5024054263
 20
7.6842384212
 30
0.0
 10
10.5017266037
 20
7.6780346781
 30
0.0
 10
10.5013607729
 20
7.6749507121
 30
0.0
  0
SPLINE
  5
336
100
AcDbEntity
  8
0
100
AcDbSpline
 62
7
  6
CONTINUOUS
 70
0
 71
3
 72
15
 73
11
 74
0
 42
0.0000001
 43
0.0000001
 44
0.0000000001
 40
0.0
 40
0.0
 40
0.0
 40
0.0
 40
0.1154191779
 40
0.2355752813
 40
0.3605050746
 40
0.4891782854
 40
0.6194346919
 40
0.7488779326
 40
0.8759222867
 40
1.0
 40
1.0
 40
1.0
 40
1.0
 10
10.5617311407
 20
7.6359091649
 30
0.0
 10
10.5597062049
 20
7.6378163128
 30
0.0
 10
10.5555084942
 20
7.6416410533
 30
0.0
 10
10.5488576191
 20
7.6472355568
 30
0.0
 10
10.5416977582
 20
7.6527076509
 30
0.0
 10
10.5340614439
 20
7.6579376364
 30
0.0
 10
10.526064944
 20
7.6628104362
 30
0.0
 10
10.5178724331
 20
7.6672624576
 30
0.0
 10
10.509632922
 20
7.6712963668
 30
0.0
 10
10.504107244
 20
7.6737679452
 30
0.0
 10
10.5013607729
 20
7.6749507121
 30
0.0
  0
SPLINE
  5
337
100
AcDbEntity
  8
0
100
AcDbSpline
 62
7
  6
CONTINUOUS
 70
0
 71
3
 72
15
 73
11
 74
0
 42
0.0000001
 43
0.0000001
 44
0.0000000001
 40
0.0
 40
0.0
 40
0.0
 40
0.0
 40
0.0993121883
 40
0.2071249118
 40
0.3244376282
 40
0.450954028
 40
0.5845968446
 40
0.7222730351
 40
0.8612862279
 40
1.0
 40
1.0
 40
1.0
 40
1.0
 10
10.6221015084
 20
7.6665773137
 30
0.0
 10
10.6200366785
 20
7.6657014255
 30
0.0
 10
10.6157442181
 20
7.6638416047
 30
0.0
 10
10.6090701104
 20
7.6608166029
 30
0.0
 10
10.6018965527
 20
7.6574081613
 30
0.0
 10
10.5942639988
 20
7.6536097221
 30
0.0
 10
10.5862888243
 20
7.6494705733
 30
0.0
 10
10.5781261691
 20
7.6450823477
 30
0.0
 10
10.5699152925
 20
7.6405435334
 30
0.0
 10
10.5644535983
 20
7.6374591972
 30
0.0
 10
10.5617311407
 20
7.6359091649
 30
0.0
  0
SPLINE
  5
338
100
AcDbEntity
  8
0
100
AcDbSpline
 62
7
  6
CONTINUOUS
 70
0
 71
3
 72
49
 73
45
 74
0
 42
0.0000001
 43
0.0000001
 44
0.0000000001
 40
0.0
 40
0.0
 40
0.0
 40
0.0
 40
0.0313124516
 40
0.0628593141
 40
0.0787075028
 40
0.0945995998
 40
0.126502659
 40
0.1585608398
 40
0.1907402095
 40
0.2068682324
 40
0.2230127563
 40
0.2391689252
 40
0.255331956
 40
0.2714969196
 40
0.2876586436
 40
0.3038119942
 40
0.3199521348
 40
0.3521652624
 40
0.3842696438
 40
0.4162330966
 40
0.4480275395
 40
0.4796318702
 40
0.5110311876
 40
0.5422189324
 40
0.573196104
 40
0.6039722241
 40
0.6345646967
 40
0.6649982209
 40
0.6953044026
 40
0.7104261239
 40
0.7255300429
 40
0.7556952105
 40
0.7707772913
 40
0.7858628248
 40
0.8160556666
 40
0.8311837819
 40
0.8463363278
 40
0.8615175372
 40
0.8767311605
 40
0.9072608757
 40
0.9225962674
 40
0.9379813914
 40
0.9688998926
 40
1.0
 40
1.0
 40
1.0
 40
1.0
 10
10.4848796931
 20
7.7093860586
 30
0.0
 10
10.4848796931
 20
7.7069141002
 30
0.0
 10
10.4851252393
 20
7.7019486579
 30
0.0
 10
10.4860301002
 20
7.695791365
 30
0.0
 10
10.4871097228
 20
7.690911473
 30
0.0
 10
10.4884270733
 20
7.6860612622
 30
0.0
 10
10.490509856
 20
7.680100457
 30
0.0
 10
10.4936760286
 20
7.6731911291
 30
0.0
 10
10.4968458047
 20
7.6676838219
 30
0.0
 10
10.4996835045
 20
7.6634587118
 30
0.0
 10
10.5019591955
 20
7.6603848165
 30
0.0
 10
10.5043750618
 20
7.6574163582
 30
0.0
 10
10.5069257707
 20
7.6545607425
 30
0.0
 10
10.5096047698
 20
7.6518245208
 30
0.0
 10
10.5124054467
 20
7.649214128
 30
0.0
 10
10.5153213619
 20
7.6467359987
 30
0.0
 10
10.5193504976
 20
7.6436192501
 30
0.0
 10
10.5246378437
 20
7.6400818699
 30
0.0
 10
10.5313283806
 20
7.6364524907
 30
0.0
 10
10.5382972299
 20
7.6334732334
 30
0.0
 10
10.545478006
 20
7.6311750302
 30
0.0
 10
10.5528011541
 20
7.6295779104
 30
0.0
 10
10.5601968255
 20
7.6286999227
 30
0.0
 10
10.5675935882
 20
7.6285471767
 30
0.0
 10
10.5749203095
 20
7.6291240646
 30
0.0
 10
10.5821065176
 20
7.6304227688
 30
0.0
 10
10.5890825658
 20
7.6324334466
 30
0.0
 10
10.5957812188
 20
7.6351346119
 30
0.0
 10
10.6010834515
 20
7.6379442738
 30
0.0
 10
10.6051195533
 20
7.64050632
 30
0.0
 10
10.6090063829
 20
7.6432701437
 30
0.0
 10
10.6126680238
 20
7.6463346838
 30
0.0
 10
10.6160695668
 20
7.6496712179
 30
0.0
 10
10.6192920748
 20
7.6531839324
 30
0.0
 10
10.6222355683
 20
7.656949133
 30
0.0
 10
10.6248725698
 20
7.6609308087
 30
0.0
 10
10.626695963
 20
7.6640240793
 30
0.0
 10
10.6283593072
 20
7.6672138551
 30
0.0
 10
10.6303605365
 20
7.6715892294
 30
0.0
 10
10.6320236503
 20
7.6761259934
 30
0.0
 10
10.6333367931
 20
7.6807813336
 30
0.0
 10
10.6344193002
 20
7.6855274678
 30
0.0
 10
10.6353234728
 20
7.6915815633
 30
0.0
 10
10.635564131
 20
7.6964808624
 30
0.0
 10
10.635564131
 20
7.6989360574
 30
0.0
  0
SPLINE
  5
339
100
AcDbEntity
  8
0
100
AcDbSpline
 62
7
  6
CONTINUOUS
 70
0
 71
3
 72
40
 73
36
 74
0
 42
0.0000001
 43
0.0000001
 44
0.0000000001
 40
0.0
 40
0.0
 40
0.0
 40
0.0
 40
0.0299275589
 40
0.0599160714
 40
0.0899846757
 40
0.1201507588
 40
0.150429626
 40
0.1656180488
 40
0.1808392746
 40
0.2113800023
 40
0.2420644903
 40
0.2728972301
 40
0.3038801423
 40
0.3350117637
 40
0.3662882351
 40
0.3977024366
 40
0.4292451487
 40
0.4609043058
 40
0.4926660988
 40
0.5245145436
 40
0.5564322949
 40
0.58840068
 40
0.6204000814
 40
0.6524105147
 40
0.6844115406
 40
0.7163831542
 40
0.7483054209
 40
0.7801599929
 40
0.8119295892
 40
0.8435979117
 40
0.8751488956
 40
0.9065716384
 40
0.9378631313
 40
0.969015287
 40
1.0
 40
1.0
 40
1.0
 40
1.0
 10
10.4329021011
 20
7.8830073648
 30
0.0
 10
10.4367737113
 20
7.8858098986
 30
0.0
 10
10.4447385913
 20
7.8911318369
 30
0.0
 10
10.4572598608
 20
7.898209896
 30
0.0
 10
10.4703077815
 20
7.9043543055
 30
0.0
 10
10.4838156002
 20
7.9095368997
 30
0.0
 10
10.4953910459
 20
7.913028207
 30
0.0
 10
10.5048106509
 20
7.9153178792
 30
0.0
 10
10.514347881
 20
7.917273922
 30
0.0
 10
10.5264342539
 20
7.9190767393
 30
0.0
 10
10.5411050013
 20
7.9202032827
 30
0.0
 10
10.5558895262
 20
7.9202897534
 30
0.0
 10
10.5707147493
 20
7.9193357764
 30
0.0
 10
10.5855082679
 20
7.9173468351
 30
0.0
 10
10.6001973011
 20
7.9143315968
 30
0.0
 10
10.6147103469
 20
7.9103066784
 30
0.0
 10
10.6289756588
 20
7.9052897726
 30
0.0
 10
10.6429243239
 20
7.8993080036
 30
0.0
 10
10.6564868742
 20
7.8923881007
 30
0.0
 10
10.6695983407
 20
7.8845667334
 30
0.0
 10
10.6821929604
 20
7.8758795988
 30
0.0
 10
10.6942107771
 20
7.8663717454
 30
0.0
 10
10.705591287
 20
7.8560875633
 30
0.0
 10
10.7162803668
 20
7.8450792406
 30
0.0
 10
10.7262242797
 20
7.8333992231
 30
0.0
 10
10.7353754298
 20
7.8211057597
 30
0.0
 10
10.7436883221
 20
7.8082584106
 30
0.0
 10
10.7511224762
 20
7.7949202233
 30
0.0
 10
10.7576415281
 20
7.7811564175
 30
0.0
 10
10.7632127108
 20
7.7670344405
 30
0.0
 10
10.7678103472
 20
7.7526241734
 30
0.0
 10
10.7714100363
 20
7.7379946798
 30
0.0
 10
10.7739954572
 20
7.7232165982
 30
0.0
 10
10.7755512331
 20
7.7083659199
 30
0.0
 10
10.7759007818
 20
7.6984391844
 30
0.0
 10
10.7759007818
 20
7.6934908609
 30
0.0
  0
SPLINE
  5
33A
100
AcDbEntity
  8
0
100
AcDbSpline
 62
7
  6
CONTINUOUS
 70
0
 71
3
 72
58
 73
54
 74
0
 42
0.0000001
 43
0.0000001
 44
0.0000000001
 40
0.0
 40
0.0
 40
0.0
 40
0.0
 40
0.0311036881
 40
0.0465905488
 40
0.0620239956
 40
0.0927288498
 40
0.1080185634
 40
0.1232684009
 40
0.1384815121
 40
0.1536613576
 40
0.1688121874
 40
0.1839387771
 40
0.1990460596
 40
0.2141392863
 40
0.2442942278
 40
0.2744567609
 40
0.2895594381
 40
0.3046798642
 40
0.3198230822
 40
0.334993731
 40
0.3654247619
 40
0.3960145868
 40
0.4113820902
 40
0.4267979847
 40
0.4422641616
 40
0.4577821839
 40
0.4889672415
 40
0.5203640478
 40
0.5361444902
 40
0.551974645
 40
0.5678524977
 40
0.58377545
 40
0.6157360994
 40
0.6478378676
 40
0.6639359765
 40
0.6800567845
 40
0.6961955629
 40
0.7123475841
 40
0.728507911
 40
0.7446714551
 40
0.7769797727
 40
0.793122956
 40
0.8092494136
 40
0.8253545969
 40
0.8414340341
 40
0.8574834655
 40
0.8734987676
 40
0.9054016335
 40
0.921291582
 40
0.9371359134
 40
0.9529341635
 40
0.9686840572
 40
1.0
 40
1.0
 40
1.0
 40
1.0
 10
10.3641389577
 20
7.7177594571
 30
0.0
 10
10.3641389577
 20
7.7241505369
 30
0.0
 10
10.3646092439
 20
7.733732747
 30
0.0
 10
10.3661808318
 20
7.7463839398
 30
0.0
 10
10.3683706747
 20
7.758860095
 30
0.0
 10
10.3714911249
 20
7.7711169604
 30
0.0
 10
10.3755227859
 20
7.7830423979
 30
0.0
 10
10.3789880737
 20
7.7917862626
 30
0.0
 10
10.3828893693
 20
7.8003193535
 30
0.0
 10
10.3872183242
 20
7.8086208612
 30
0.0
 10
10.3919647783
 20
7.8166703055
 30
0.0
 10
10.3971161083
 20
7.8244489173
 30
0.0
 10
10.4026606741
 20
7.8319379331
 30
0.0
 10
10.4105564776
 20
7.8415073851
 30
0.0
 10
10.4213485011
 20
7.8526688269
 30
0.0
 10
10.4332570556
 20
7.8626333037
 30
0.0
 10
10.443372882
 20
7.8698265079
 30
0.0
 10
10.4512464135
 20
7.8748249354
 30
0.0
 10
10.4593824523
 20
7.8794119949
 30
0.0
 10
10.4705633139
 20
7.8849706475
 30
0.0
 10
10.4851102122
 20
7.8908373743
 30
0.0
 10
10.5002203931
 20
7.8951917063
 30
0.0
 10
10.5125731574
 20
7.8977517228
 30
0.0
 10
10.5219680979
 20
7.8992093924
 30
0.0
 10
10.5314550611
 20
7.9001970889
 30
0.0
 10
10.5442153313
 20
7.9008843373
 30
0.0
 10
10.5602873801
 20
7.9005552274
 30
0.0
 10
10.576303034
 20
7.8986511497
 30
0.0
 10
10.5890196945
 20
7.8962003738
 30
0.0
 10
10.598505331
 20
7.8938956096
 30
0.0
 10
10.6078985709
 20
7.8911338862
 30
0.0
 10
10.6202833819
 20
7.8868474939
 30
0.0
 10
10.6354193022
 20
7.8803774279
 30
0.0
 10
10.6499192001
 20
7.8725110994
 30
0.0
 10
10.661074668
 20
7.8654165998
 30
0.0
 10
10.6692079123
 20
7.8597021884
 30
0.0
 10
10.677078536
 20
7.8536133137
 30
0.0
 10
10.684667219
 20
7.8471639839
 30
0.0
 10
10.6919567043
 20
7.8403704578
 30
0.0
 10
10.7012501695
 20
7.83087873
 30
0.0
 10
10.7098792698
 20
7.8207590891
 30
0.0
 10
10.7177774644
 20
7.8100921208
 30
0.0
 10
10.72332074
 20
7.8018369337
 30
0.0
 10
10.728471096
 20
7.7933467083
 30
0.0
 10
10.7332168724
 20
7.7846418799
 30
0.0
 10
10.7375455877
 20
7.7757424786
 30
0.0
 10
10.7427398982
 20
7.7636647401
 30
0.0
 10
10.7470731924
 20
7.7512659225
 30
0.0
 10
10.7505010628
 20
7.7386434051
 30
0.0
 10
10.7526115362
 20
7.729103405
 30
0.0
 10
10.7542584293
 20
7.7195015302
 30
0.0
 10
10.7558266319
 20
7.7066766769
 30
0.0
 10
10.7563048664
 20
7.6969973522
 30
0.0
 10
10.7563048664
 20
7.6905626589
 30
0.0
  0
SPLINE
  5
33B
100
AcDbEntity
  8
0
100
AcDbSpline
 62
7
  6
CONTINUOUS
 70
0
 71
3
 72
58
 73
54
 74
0
 42
0.0000001
 43
0.0000001
 44
0.0000000001
 40
0.0
 40
0.0
 40
0.0
 40
0.0
 40
0.0311036881
 40
0.0465905488
 40
0.0620239956
 40
0.0927288498
 40
0.1080185634
 40
0.1232684009
 40
0.1384815121
 40
0.1536613576
 40
0.1688121874
 40
0.1839387771
 40
0.1990460596
 40
0.2141392863
 40
0.2442942278
 40
0.2744567609
 40
0.2895594381
 40
0.3046798642
 40
0.3198230822
 40
0.334993731
 40
0.3654247619
 40
0.3960145868
 40
0.4113820902
 40
0.4267979847
 40
0.4422641616
 40
0.4577821839
 40
0.4889672415
 40
0.5203640478
 40
0.5361444902
 40
0.551974645
 40
0.5678524977
 40
0.58377545
 40
0.6157360994
 40
0.6478378676
 40
0.6639359765
 40
0.6800567845
 40
0.6961955629
 40
0.7123475841
 40
0.728507911
 40
0.7446714551
 40
0.7769797727
 40
0.793122956
 40
0.8092494136
 40
0.8253545969
 40
0.8414340341
 40
0.8574834655
 40
0.8734987676
 40
0.9054016335
 40
0.921291582
 40
0.9371359134
 40
0.9529341635
 40
0.9686840572
 40
1.0
 40
1.0
 40
1.0
 40
1.0
 10
10.7563048664
 20
7.6905626589
 30
0.0
 10
10.7563048664
 20
7.6841715791
 30
0.0
 10
10.7558345802
 20
7.674589369
 30
0.0
 10
10.7542629923
 20
7.6619381762
 30
0.0
 10
10.7520731494
 20
7.649462021
 30
0.0
 10
10.7489526992
 20
7.6372051556
 30
0.0
 10
10.7449210382
 20
7.6252797181
 30
0.0
 10
10.7414557504
 20
7.6165358534
 30
0.0
 10
10.7375544548
 20
7.6080027625
 30
0.0
 10
10.7332254999
 20
7.5997012548
 30
0.0
 10
10.7284790458
 20
7.5916518105
 30
0.0
 10
10.7233277158
 20
7.5838731987
 30
0.0
 10
10.71778315
 20
7.5763841829
 30
0.0
 10
10.7098873465
 20
7.5668147309
 30
0.0
 10
10.699095323
 20
7.5556532891
 30
0.0
 10
10.6871867685
 20
7.5456888123
 30
0.0
 10
10.6770709421
 20
7.538495608
 30
0.0
 10
10.6691974106
 20
7.5334971806
 30
0.0
 10
10.6610613718
 20
7.5289101211
 30
0.0
 10
10.6498805102
 20
7.5233514685
 30
0.0
 10
10.6353336119
 20
7.5174847417
 30
0.0
 10
10.620223431
 20
7.5131304096
 30
0.0
 10
10.6078706667
 20
7.5105703931
 30
0.0
 10
10.5984757262
 20
7.5091127235
 30
0.0
 10
10.588988763
 20
7.5081250271
 30
0.0
 10
10.5762284928
 20
7.5074377787
 30
0.0
 10
10.560156444
 20
7.5077668885
 30
0.0
 10
10.5441407901
 20
7.5096709663
 30
0.0
 10
10.5314241296
 20
7.5121217422
 30
0.0
 10
10.5219384931
 20
7.5144265064
 30
0.0
 10
10.5125452532
 20
7.5171882298
 30
0.0
 10
10.5001604422
 20
7.5214746221
 30
0.0
 10
10.4850245219
 20
7.5279446881
 30
0.0
 10
10.470524624
 20
7.5358110166
 30
0.0
 10
10.4593691561
 20
7.5429055162
 30
0.0
 10
10.4512359118
 20
7.5486199276
 30
0.0
 10
10.4433652881
 20
7.5547088022
 30
0.0
 10
10.4357766051
 20
7.5611581321
 30
0.0
 10
10.4284871198
 20
7.5679516582
 30
0.0
 10
10.4191936546
 20
7.577443386
 30
0.0
 10
10.4105645543
 20
7.5875630269
 30
0.0
 10
10.4026663597
 20
7.5982299952
 30
0.0
 10
10.3971230841
 20
7.6064851822
 30
0.0
 10
10.3919727281
 20
7.6149754076
 30
0.0
 10
10.3872269517
 20
7.623680236
 30
0.0
 10
10.3828982364
 20
7.6325796373
 30
0.0
 10
10.3777039259
 20
7.6446573759
 30
0.0
 10
10.3733706317
 20
7.6570561935
 30
0.0
 10
10.3699427613
 20
7.6696787109
 30
0.0
 10
10.3678322879
 20
7.6792187109
 30
0.0
 10
10.3661853948
 20
7.6888205857
 30
0.0
 10
10.3646171922
 20
7.7016454391
 30
0.0
 10
10.3641389577
 20
7.7113247638
 30
0.0
 10
10.3641389577
 20
7.7177594571
 30
0.0
  0
SPLINE
  5
33C
100
AcDbEntity
  8
0
100
AcDbSpline
 62
7
  6
CONTINUOUS
 70
0
 71
3
 72
17
 73
13
 74
0
 42
0.0000001
 43
0.0000001
 44
0.0000000001
 40
0.0
 40
0.0
 40
0.0
 40
0.0
 40
0.1273148359
 40
0.1907080938
 40
0.253886694
 40
0.3795973721
 40
0.5046020162
 40
0.5668927094
 40
0.6290466736
 40
0.7529728785
 40
0.8765701029
 40
1.0
 40
1.0
 40
1.0
 40
1.0
 10
10.7759007818
 20
7.6934908609
 30
0.0
 10
10.7759007818
 20
7.68674735
 30
0.0
 10
10.7754156413
 20
7.6766370055
 30
0.0
 10
10.7737939725
 20
7.6632835762
 30
0.0
 10
10.7715338009
 20
7.6501084696
 30
0.0
 10
10.7675155339
 20
7.6339455896
 30
0.0
 10
10.7619211555
 20
7.6183074329
 30
0.0
 10
10.7565419603
 20
7.6062339195
 30
0.0
 10
10.7505840036
 20
7.5944995397
 30
0.0
 10
10.7420501965
 20
7.5804548323
 30
0.0
 10
10.7301639993
 20
7.564769281
 30
0.0
 10
10.7212148908
 20
7.5551862979
 30
0.0
 10
10.7165124804
 20
7.5506443451
 30
0.0
  0
SPLINE
  5
33D
100
AcDbEntity
  8
0
100
AcDbSpline
 62
7
  6
CONTINUOUS
 70
0
 71
3
 72
17
 73
13
 74
0
 42
0.0000001
 43
0.0000001
 44
0.0000000001
 40
0.0
 40
0.0
 40
0.0
 40
0.0
 40
0.1273148359
 40
0.1907080938
 40
0.253886694
 40
0.3795973721
 40
0.5046020162
 40
0.5668927094
 40
0.6290466736
 40
0.7529728785
 40
0.8765701029
 40
1.0
 40
1.0
 40
1.0
 40
1.0
 10
9.6293468032
 20
8.6867705446
 30
0.0
 10
9.6293468032
 20
8.6935140554
 30
0.0
 10
9.6298319438
 20
8.7036244
 30
0.0
 10
9.6314536126
 20
8.7169778292
 30
0.0
 10
9.6337137842
 20
8.7301529358
 30
0.0
 10
9.6377320512
 20
8.7463158158
 30
0.0
 10
9.6433264296
 20
8.7619539726
 30
0.0
 10
9.6487056248
 20
8.774027486
 30
0.0
 10
9.6546635815
 20
8.7857618657
 30
0.0
 10
9.6631973886
 20
8.7998065731
 30
0.0
 10
9.6750835858
 20
8.8154921245
 30
0.0
 10
9.6840326943
 20
8.8250751075
 30
0.0
 10
9.6887351046
 20
8.8296170603
 30
0.0
  0
SPLINE
  5
33E
100
AcDbEntity
  8
0
100
AcDbSpline
 62
7
  6
CONTINUOUS
 70
0
 71
3
 72
15
 73
11
 74
0
 42
0.0000001
 43
0.0000001
 44
0.0000000001
 40
0.0
 40
0.0
 40
0.0
 40
0.0
 40
0.1240777136
 40
0.2511220676
 40
0.3805653088
 40
0.5108217172
 40
0.639494926
 40
0.764424719
 40
0.8845808224
 40
1.0
 40
1.0
 40
1.0
 40
1.0
 10
9.838252699
 20
8.7392678527
 30
0.0
 10
9.8409991701
 20
8.7380850857
 30
0.0
 10
9.8465248481
 20
8.7356135074
 30
0.0
 10
9.8547643592
 20
8.7315795981
 30
0.0
 10
9.8629568702
 20
8.7271275767
 30
0.0
 10
9.8709533701
 20
8.7222547768
 30
0.0
 10
9.8785896843
 20
8.7170247914
 30
0.0
 10
9.8857495453
 20
8.7115526974
 30
0.0
 10
9.8924004203
 20
8.7059581938
 30
0.0
 10
9.896598131
 20
8.7021334533
 30
0.0
 10
9.8986230668
 20
8.7002263054
 30
0.0
  0
SPLINE
  5
33F
100
AcDbEntity
  8
0
100
AcDbSpline
 62
7
  6
CONTINUOUS
 70
0
 71
3
 72
15
 73
11
 74
0
 42
0.0000001
 43
0.0000001
 44
0.0000000001
 40
0.0
 40
0.0
 40
0.0
 40
0.0
 40
0.1387137725
 40
0.2777269652
 40
0.4154031561
 40
0.5490459746
 40
0.6755623724
 40
0.7928750885
 40
0.9006878119
 40
1.0
 40
1.0
 40
1.0
 40
1.0
 10
9.7778823313
 20
8.7085997038
 30
0.0
 10
9.7806047889
 20
8.7101497362
 30
0.0
 10
9.7860664831
 20
8.7132340724
 30
0.0
 10
9.7942773598
 20
8.7177728867
 30
0.0
 10
9.802440015
 20
8.7221611123
 30
0.0
 10
9.8104151896
 20
8.7263002611
 30
0.0
 10
9.8180477435
 20
8.7300987003
 30
0.0
 10
9.8252213011
 20
8.7335071419
 30
0.0
 10
9.8318954087
 20
8.7365321437
 30
0.0
 10
9.8361878692
 20
8.7383919645
 30
0.0
 10
9.838252699
 20
8.7392678527
 30
0.0
  0
SPLINE
  5
340
100
AcDbEntity
  8
0
100
AcDbSpline
 62
7
  6
CONTINUOUS
 70
0
 71
3
 72
11
 73
7
 74
0
 42
0.0000001
 43
0.0000001
 44
0.0000000001
 40
0.0
 40
0.0
 40
0.0
 40
0.0
 40
0.2732656329
 40
0.5313487246
 40
0.7731209783
 40
1.0
 40
1.0
 40
1.0
 40
1.0
 10
9.9011255346
 20
8.6677889496
 30
0.0
 10
9.9011255346
 20
8.6707551903
 30
0.0
 10
9.9010109913
 20
8.6765236975
 30
0.0
 10
9.9004930378
 20
8.6849020746
 30
0.0
 10
9.8996929117
 20
8.6927517997
 30
0.0
 10
9.8989976439
 20
8.6977922346
 30
0.0
 10
9.8986230668
 20
8.7002263054
 30
0.0
  0
SPLINE
  5
341
100
AcDbEntity
  8
0
100
AcDbSpline
 62
7
  6
CONTINUOUS
 70
0
 71
3
 72
11
 73
7
 74
0
 42
0.0000001
 43
0.0000001
 44
0.0000000001
 40
0.0
 40
0.0
 40
0.0
 40
0.0
 40
0.249272203
 40
0.5008802135
 40
0.7525275855
 40
1.0
 40
1.0
 40
1.0
 40
1.0
 10
9.8986230668
 20
8.6305166093
 30
0.0
 10
9.8989889052
 20
8.6336006395
 30
0.0
 10
9.8996677402
 20
8.6398045074
 30
0.0
 10
9.9004707207
 20
8.649146787
 30
0.0
 10
9.9009973851
 20
8.6584867246
 30
0.0
 10
9.9011255346
 20
8.66470572
 30
0.0
 10
9.9011255346
 20
8.6677889496
 30
0.0
  0
SPLINE
  5
342
100
AcDbEntity
  8
0
100
AcDbSpline
 62
7
  6
CONTINUOUS
 70
0
 71
3
 72
38
 73
34
 74
0
 42
0.0000001
 43
0.0000001
 44
0.0000000001
 40
0.0
 40
0.0
 40
0.0
 40
0.0
 40
0.029944812
 40
0.0599139139
 40
0.0899312717
 40
0.1200193174
 40
0.1350994304
 40
0.150204915
 40
0.1804950416
 40
0.2109117799
 40
0.2414680483
 40
0.2721739917
 40
0.3030358878
 40
0.3340569838
 40
0.365236542
 40
0.3965708423
 40
0.4280523939
 40
0.4596710329
 40
0.4914133205
 40
0.5232636592
 40
0.5552038952
 40
0.5872143744
 40
0.6192737535
 40
0.6513599477
 40
0.6834501859
 40
0.7155217223
 40
0.7475519957
 40
0.7795193843
 40
0.8114039982
 40
0.8431871813
 40
0.8748506854
 40
0.9377293214
 40
1.0
 40
1.0
 40
1.0
 40
1.0
 10
9.9930340388
 20
8.5145836407
 30
0.0
 10
9.9894008118
 20
8.5110743881
 30
0.0
 10
9.9818487675
 20
8.5043390959
 30
0.0
 10
9.969749566
 20
8.4951627691
 30
0.0
 10
9.9569405491
 20
8.4869608017
 30
0.0
 10
9.9457416678
 20
8.4809778145
 30
0.0
 10
9.9365052831
 20
8.476722388
 30
0.0
 10
9.9270782555
 20
8.4728178931
 30
0.0
 10
9.9149839212
 20
8.4686190369
 30
0.0
 10
9.900079189
 20
8.4647067727
 30
0.0
 10
9.8848494744
 20
8.4619341517
 30
0.0
 10
9.869378772
 20
8.4603190076
 30
0.0
 10
9.8537522965
 20
8.4598673215
 30
0.0
 10
9.838055993
 20
8.4605840899
 30
0.0
 10
9.822375968
 20
8.4624624404
 30
0.0
 10
9.8067987448
 20
8.4654946157
 30
0.0
 10
9.7914093034
 20
8.4696610411
 30
0.0
 10
9.7762929137
 20
8.4749414098
 30
0.0
 10
9.7615315709
 20
8.4813038965
 30
0.0
 10
9.7472074578
 20
8.4887161033
 30
0.0
 10
9.7333978039
 20
8.4971346653
 30
0.0
 10
9.7201799399
 20
8.5065158078
 30
0.0
 10
9.7076246448
 20
8.5168055666
 30
0.0
 10
9.6958027282
 20
8.5279497478
 30
0.0
 10
9.6847769874
 20
8.5398849907
 30
0.0
 10
9.6746102169
 20
8.5525478539
 30
0.0
 10
9.6653558025
 20
8.5658668521
 30
0.0
 10
9.6570670735
 20
8.5797707816
 30
0.0
 10
9.6497870719
 20
8.5941816641
 30
0.0
 10
9.6435585925
 20
8.6090225779
 30
0.0
 10
9.6367151921
 20
8.6292189744
 30
0.0
 10
9.6309240035
 20
8.6551262331
 30
0.0
 10
9.6293468032
 20
8.6762663822
 30
0.0
 10
9.6293468032
 20
8.6867705446
 30
0.0
  0
SPLINE
  5
343
100
AcDbEntity
  8
0
100
AcDbSpline
 62
7
  6
CONTINUOUS
 70
0
 71
3
 72
23
 73
19
 74
0
 42
0.0000001
 43
0.0000001
 44
0.0000000001
 40
0.0
 40
0.0
 40
0.0
 40
0.0
 40
0.061242766
 40
0.122959969
 40
0.1850386674
 40
0.2474376473
 40
0.3101333753
 40
0.3730736554
 40
0.4361841498
 40
0.4993920833
 40
0.5626218374
 40
0.6257992135
 40
0.6888482708
 40
0.7516992755
 40
0.8142887097
 40
0.8765618576
 40
0.938476233
 40
1.0
 40
1.0
 40
1.0
 40
1.0
 10
9.8420912437
 20
8.7357659062
 30
0.0
 10
9.8420912437
 20
8.7338149854
 30
0.0
 10
9.8422825582
 20
8.7298955815
 30
0.0
 10
9.8431279601
 20
8.7240535653
 30
0.0
 10
9.8445295498
 20
8.7182811158
 30
0.0
 10
9.8464715411
 20
8.7126347359
 30
0.0
 10
9.8489369212
 20
8.7071664293
 30
0.0
 10
9.8519011544
 20
8.7019257575
 30
0.0
 10
9.8553377001
 20
8.6969620897
 30
0.0
 10
9.8592143769
 20
8.6923220744
 30
0.0
 10
9.863494433
 20
8.688048262
 30
0.0
 10
9.868138918
 20
8.6841815033
 30
0.0
 10
9.8731033398
 20
8.6807561862
 30
0.0
 10
9.8783429375
 20
8.677806581
 30
0.0
 10
9.8838073767
 20
8.6753575482
 30
0.0
 10
9.8894472957
 20
8.6734350337
 30
0.0
 10
9.8952083041
 20
8.6720540623
 30
0.0
 10
9.8991088579
 20
8.6715031215
 30
0.0
 10
9.9010603943
 20
8.6713225534
 30
0.0
  0
SPLINE
  5
344
100
AcDbEntity
  8
0
100
AcDbSpline
 62
7
  6
CONTINUOUS
 70
0
 71
3
 72
49
 73
45
 74
0
 42
0.0000001
 43
0.0000001
 44
0.0000000001
 40
0.0
 40
0.0
 40
0.0
 40
0.0
 40
0.0313124516
 40
0.0628593141
 40
0.0787075028
 40
0.0945995998
 40
0.126502659
 40
0.1585608398
 40
0.1907402095
 40
0.2068682324
 40
0.2230127563
 40
0.2391689252
 40
0.255331956
 40
0.2714969196
 40
0.2876586436
 40
0.3038119942
 40
0.3199521348
 40
0.3521652624
 40
0.3842696438
 40
0.4162330966
 40
0.4480275395
 40
0.4796318702
 40
0.5110311876
 40
0.5422189324
 40
0.573196104
 40
0.6039722241
 40
0.6345646967
 40
0.6649982209
 40
0.6953044026
 40
0.7104261239
 40
0.7255300429
 40
0.7556952105
 40
0.7707772913
 40
0.7858628248
 40
0.8160556666
 40
0.8311837819
 40
0.8463363278
 40
0.8615175372
 40
0.8767311605
 40
0.9072608757
 40
0.9225962674
 40
0.9379813914
 40
0.9688998926
 40
1.0
 40
1.0
 40
1.0
 40
1.0
 10
9.9120856893
 20
8.662875353
 30
0.0
 10
9.9120856893
 20
8.6653473114
 30
0.0
 10
9.9118401432
 20
8.6703127536
 30
0.0
 10
9.9109352823
 20
8.6764700466
 30
0.0
 10
9.9098556597
 20
8.6813499386
 30
0.0
 10
9.9085383092
 20
8.6862001494
 30
0.0
 10
9.9064555265
 20
8.6921609545
 30
0.0
 10
9.9032893539
 20
8.6990702825
 30
0.0
 10
9.9001195778
 20
8.7045775897
 30
0.0
 10
9.8972818779
 20
8.7088026998
 30
0.0
 10
9.895006187
 20
8.7118765951
 30
0.0
 10
9.8925903207
 20
8.7148450534
 30
0.0
 10
9.8900396117
 20
8.717700669
 30
0.0
 10
9.8873606127
 20
8.7204368908
 30
0.0
 10
9.8845599357
 20
8.7230472836
 30
0.0
 10
9.8816440206
 20
8.7255254129
 30
0.0
 10
9.8776148849
 20
8.7286421615
 30
0.0
 10
9.8723275388
 20
8.7321795416
 30
0.0
 10
9.8656370018
 20
8.7358089208
 30
0.0
 10
9.8586681526
 20
8.7387881781
 30
0.0
 10
9.8514873765
 20
8.7410863813
 30
0.0
 10
9.8441642284
 20
8.7426835012
 30
0.0
 10
9.836768557
 20
8.7435614888
 30
0.0
 10
9.8293717943
 20
8.7437142348
 30
0.0
 10
9.822045073
 20
8.7431373469
 30
0.0
 10
9.8148588649
 20
8.7418386428
 30
0.0
 10
9.8078828167
 20
8.739827965
 30
0.0
 10
9.8011841637
 20
8.7371267997
 30
0.0
 10
9.795881931
 20
8.7343171378
 30
0.0
 10
9.7918458292
 20
8.7317550916
 30
0.0
 10
9.7879589996
 20
8.7289912679
 30
0.0
 10
9.7842973587
 20
8.7259267278
 30
0.0
 10
9.7808958157
 20
8.7225901936
 30
0.0
 10
9.7776733076
 20
8.7190774792
 30
0.0
 10
9.7747298141
 20
8.7153122785
 30
0.0
 10
9.7720928127
 20
8.7113306029
 30
0.0
 10
9.7702694195
 20
8.7082373322
 30
0.0
 10
9.7686060753
 20
8.7050475565
 30
0.0
 10
9.766604846
 20
8.7006721822
 30
0.0
 10
9.7649417322
 20
8.6961354182
 30
0.0
 10
9.7636285894
 20
8.691480078
 30
0.0
 10
9.7625460823
 20
8.6867339437
 30
0.0
 10
9.7616419097
 20
8.6806798482
 30
0.0
 10
9.7614012515
 20
8.6757805491
 30
0.0
 10
9.7614012515
 20
8.6733253542
 30
0.0
  0
SPLINE
  5
345
100
AcDbEntity
  8
0
100
AcDbSpline
 62
7
  6
CONTINUOUS
 70
0
 71
3
 72
13
 73
9
 74
0
 42
0.0000001
 43
0.0000001
 44
0.0000000001
 40
0.0
 40
0.0
 40
0.0
 40
0.0
 40
0.2525061031
 40
0.5033171101
 40
0.6280725826
 40
0.7524088264
 40
0.8763708792
 40
1.0
 40
1.0
 40
1.0
 40
1.0
 10
9.8087254566
 20
8.7035370289
 30
0.0
 10
9.8087254566
 20
8.7056981519
 30
0.0
 10
9.8089577625
 20
8.7100093617
 30
0.0
 10
9.8098325884
 20
8.7153247467
 30
0.0
 10
9.8108781784
 20
8.7194754966
 30
0.0
 10
9.8118301433
 20
8.7225249703
 30
0.0
 10
9.8129488521
 20
8.7255068323
 30
0.0
 10
9.8138048296
 20
8.727446786
 30
0.0
 10
9.8142593083
 20
8.7284023138
 30
0.0
  0
SPLINE
  5
346
100
AcDbEntity
  8
0
100
AcDbSpline
 62
7
  6
CONTINUOUS
 70
0
 71
3
 72
19
 73
15
 74
0
 42
0.0000001
 43
0.0000001
 44
0.0000000001
 40
0.0
 40
0.0
 40
0.0
 40
0.0
 40
0.1259165152
 40
0.1890435013
 40
0.2521765074
 40
0.3783027214
 40
0.5041309176
 40
0.5668776413
 40
0.6294512568
 40
0.6918223904
 40
0.7539712289
 40
0.8158897976
 40
0.8775715464
 40
1.0
 40
1.0
 40
1.0
 40
1.0
 10
9.8389106405
 20
8.6491614072
 30
0.0
 10
9.8366273552
 20
8.650638009
 30
0.0
 10
9.8333317834
 20
8.6530700645
 30
0.0
 10
9.8292618956
 20
8.6566919039
 30
0.0
 10
9.8254173546
 20
8.660559535
 30
0.0
 10
9.8210700568
 20
8.6658171299
 30
0.0
 10
9.8174012476
 20
8.6715593819
 30
0.0
 10
9.8149152242
 20
8.6763828235
 30
0.0
 10
9.8132835672
 20
8.6800960121
 30
0.0
 10
9.8118907454
 20
8.6838913959
 30
0.0
 10
9.8107430361
 20
8.6877531609
 30
0.0
 10
9.8098445888
 20
8.6916654988
 30
0.0
 10
9.808988069
 20
8.6969113369
 30
0.0
 10
9.8087254566
 20
8.7008932088
 30
0.0
 10
9.8087254566
 20
8.7035370289
 30
0.0
  0
SPLINE
  5
347
100
AcDbEntity
  8
0
100
AcDbSpline
 62
7
  6
CONTINUOUS
 70
0
 71
3
 72
17
 73
13
 74
0
 42
0.0000001
 43
0.0000001
 44
0.0000000001
 40
0.0
 40
0.0
 40
0.0
 40
0.0
 40
0.1214811947
 40
0.1825928933
 40
0.2439208635
 40
0.305493007
 40
0.3673350785
 40
0.4918016094
 40
0.6173948385
 40
0.7440422234
 40
0.8716680821
 40
1.0
 40
1.0
 40
1.0
 40
1.0
 10
9.8992810082
 20
8.644974708
 30
0.0
 10
9.8969953212
 20
8.6438135788
 30
0.0
 10
9.8934317228
 20
8.6423056741
 30
0.0
 10
9.8885082178
 20
8.6407942426
 30
0.0
 10
9.884723722
 20
8.6399094188
 30
0.0
 10
9.8808732287
 20
8.639279129
 30
0.0
 10
9.8756625203
 20
8.6387812001
 30
0.0
 10
9.8690595084
 20
8.6388096173
 30
0.0
 10
9.8611603431
 20
8.6398803511
 30
0.0
 10
9.853397282
 20
8.6419667085
 30
0.0
 10
9.8459062135
 20
8.6450332733
 30
0.0
 10
9.8411848043
 20
8.6476907043
 30
0.0
 10
9.8389106405
 20
8.6491614072
 30
0.0
  0
SPLINE
  5
348
100
AcDbEntity
  8
0
100
AcDbSpline
 62
7
  6
CONTINUOUS
 70
0
 71
3
 72
11
 73
7
 74
0
 42
0.0000001
 43
0.0000001
 44
0.0000000001
 40
0.0
 40
0.0
 40
0.0
 40
0.0
 40
0.2268797892
 40
0.4686527917
 40
0.7267359359
 40
1.0
 40
1.0
 40
1.0
 40
1.0
 10
9.7778823313
 20
8.7085997038
 30
0.0
 10
9.7782569165
 20
8.7061655809
 30
0.0
 10
9.7789521973
 20
8.7011250384
 30
0.0
 10
9.7797523295
 20
8.6932751537
 30
0.0
 10
9.7802702801
 20
8.6848966327
 30
0.0
 10
9.7803847991
 20
8.6791280375
 30
0.0
 10
9.7803847991
 20
8.6761617604
 30
0.0
  0
SPLINE
  5
349
100
AcDbEntity
  8
0
100
AcDbSpline
 62
7
  6
CONTINUOUS
 70
0
 71
3
 72
11
 73
7
 74
0
 42
0.0000001
 43
0.0000001
 44
0.0000000001
 40
0.0
 40
0.0
 40
0.0
 40
0.0
 40
0.2474744049
 40
0.499121966
 40
0.750729073
 40
1.0
 40
1.0
 40
1.0
 40
1.0
 10
9.7803847991
 20
8.6761617604
 30
0.0
 10
9.7803847991
 20
8.6730785544
 30
0.0
 10
9.7802566248
 20
8.66685963
 30
0.0
 10
9.7797299589
 20
8.6575198242
 30
0.0
 10
9.7789269847
 20
8.6481777168
 30
0.0
 10
9.7782481621
 20
8.6419739737
 30
0.0
 10
9.7778823313
 20
8.6388900077
 30
0.0
  0
SPLINE
  5
34A
100
AcDbEntity
  8
0
100
AcDbSpline
 62
7
  6
CONTINUOUS
 70
0
 71
3
 72
15
 73
11
 74
0
 42
0.0000001
 43
0.0000001
 44
0.0000000001
 40
0.0
 40
0.0
 40
0.0
 40
0.0
 40
0.1154191779
 40
0.2355752813
 40
0.3605050746
 40
0.4891782854
 40
0.6194346919
 40
0.7488779326
 40
0.8759222867
 40
1.0
 40
1.0
 40
1.0
 40
1.0
 10
9.838252699
 20
8.5998484604
 30
0.0
 10
9.8362277633
 20
8.6017556083
 30
0.0
 10
9.8320300526
 20
8.6055803489
 30
0.0
 10
9.8253791775
 20
8.6111748524
 30
0.0
 10
9.8182193165
 20
8.6166469465
 30
0.0
 10
9.8105830023
 20
8.621876932
 30
0.0
 10
9.8025865024
 20
8.6267497318
 30
0.0
 10
9.7943939915
 20
8.6312017532
 30
0.0
 10
9.7861544804
 20
8.6352356624
 30
0.0
 10
9.7806288024
 20
8.6377072408
 30
0.0
 10
9.7778823313
 20
8.6388900077
 30
0.0
  0
SPLINE
  5
34B
100
AcDbEntity
  8
0
100
AcDbSpline
 62
7
  6
CONTINUOUS
 70
0
 71
3
 72
15
 73
11
 74
0
 42
0.0000001
 43
0.0000001
 44
0.0000000001
 40
0.0
 40
0.0
 40
0.0
 40
0.0
 40
0.0993121883
 40
0.2071249118
 40
0.3244376282
 40
0.450954028
 40
0.5845968446
 40
0.7222730351
 40
0.8612862279
 40
1.0
 40
1.0
 40
1.0
 40
1.0
 10
9.8986230668
 20
8.6305166093
 30
0.0
 10
9.8965582369
 20
8.6296407211
 30
0.0
 10
9.8922657764
 20
8.6277809003
 30
0.0
 10
9.8855916688
 20
8.6247558985
 30
0.0
 10
9.8784181111
 20
8.6213474569
 30
0.0
 10
9.8707855572
 20
8.6175490177
 30
0.0
 10
9.8628103827
 20
8.6134098689
 30
0.0
 10
9.8546477275
 20
8.6090216433
 30
0.0
 10
9.8464368509
 20
8.604482829
 30
0.0
 10
9.8409751566
 20
8.6013984928
 30
0.0
 10
9.838252699
 20
8.5998484604
 30
0.0
  0
SPLINE
  5
34C
100
AcDbEntity
  8
0
100
AcDbSpline
 62
7
  6
CONTINUOUS
 70
0
 71
3
 72
49
 73
45
 74
0
 42
0.0000001
 43
0.0000001
 44
0.0000000001
 40
0.0
 40
0.0
 40
0.0
 40
0.0
 40
0.0313124516
 40
0.0628593141
 40
0.0787075028
 40
0.0945995998
 40
0.126502659
 40
0.1585608398
 40
0.1907402095
 40
0.2068682324
 40
0.2230127563
 40
0.2391689252
 40
0.255331956
 40
0.2714969196
 40
0.2876586436
 40
0.3038119942
 40
0.3199521348
 40
0.3521652624
 40
0.3842696438
 40
0.4162330966
 40
0.4480275395
 40
0.4796318702
 40
0.5110311876
 40
0.5422189324
 40
0.573196104
 40
0.6039722241
 40
0.6345646967
 40
0.6649982209
 40
0.6953044026
 40
0.7104261239
 40
0.7255300429
 40
0.7556952105
 40
0.7707772913
 40
0.7858628248
 40
0.8160556666
 40
0.8311837819
 40
0.8463363278
 40
0.8615175372
 40
0.8767311605
 40
0.9072608757
 40
0.9225962674
 40
0.9379813914
 40
0.9688998926
 40
1.0
 40
1.0
 40
1.0
 40
1.0
 10
9.7614012515
 20
8.6733253542
 30
0.0
 10
9.7614012515
 20
8.6708533958
 30
0.0
 10
9.7616467976
 20
8.6658879535
 30
0.0
 10
9.7625516585
 20
8.6597306606
 30
0.0
 10
9.7636312812
 20
8.6548507686
 30
0.0
 10
9.7649486317
 20
8.6500005578
 30
0.0
 10
9.7670314144
 20
8.6440397526
 30
0.0
 10
9.770197587
 20
8.6371304247
 30
0.0
 10
9.7733673631
 20
8.6316231175
 30
0.0
 10
9.7762050629
 20
8.6273980073
 30
0.0
 10
9.7784807539
 20
8.6243241121
 30
0.0
 10
9.7808966202
 20
8.6213556538
 30
0.0
 10
9.7834473291
 20
8.6185000381
 30
0.0
 10
9.7861263282
 20
8.6157638164
 30
0.0
 10
9.7889270051
 20
8.6131534236
 30
0.0
 10
9.7918429202
 20
8.6106752943
 30
0.0
 10
9.795872056
 20
8.6075585457
 30
0.0
 10
9.8011594021
 20
8.6040211655
 30
0.0
 10
9.807849939
 20
8.6003917863
 30
0.0
 10
9.8148187883
 20
8.597412529
 30
0.0
 10
9.8219995644
 20
8.5951143258
 30
0.0
 10
9.8293227125
 20
8.593517206
 30
0.0
 10
9.8367183839
 20
8.5926392183
 30
0.0
 10
9.8441151465
 20
8.5924864723
 30
0.0
 10
9.8514418679
 20
8.5930633602
 30
0.0
 10
9.858628076
 20
8.5943620644
 30
0.0
 10
9.8656041241
 20
8.5963727422
 30
0.0
 10
9.8723027772
 20
8.5990739075
 30
0.0
 10
9.8776050098
 20
8.6018835694
 30
0.0
 10
9.8816411116
 20
8.6044456156
 30
0.0
 10
9.8855279413
 20
8.6072094393
 30
0.0
 10
9.8891895821
 20
8.6102739794
 30
0.0
 10
9.8925911252
 20
8.6136105135
 30
0.0
 10
9.8958136332
 20
8.617123228
 30
0.0
 10
9.8987571267
 20
8.6208884286
 30
0.0
 10
9.9013941282
 20
8.6248701043
 30
0.0
 10
9.9032175214
 20
8.6279633749
 30
0.0
 10
9.9048808655
 20
8.6311531507
 30
0.0
 10
9.9068820949
 20
8.6355285249
 30
0.0
 10
9.9085452087
 20
8.640065289
 30
0.0
 10
9.9098583515
 20
8.6447206292
 30
0.0
 10
9.9109408586
 20
8.6494667634
 30
0.0
 10
9.9118450311
 20
8.6555208589
 30
0.0
 10
9.9120856893
 20
8.660420158
 30
0.0
 10
9.9120856893
 20
8.662875353
 30
0.0
  0
SPLINE
  5
34D
100
AcDbEntity
  8
0
100
AcDbSpline
 62
7
  6
CONTINUOUS
 70
0
 71
3
 72
40
 73
36
 74
0
 42
0.0000001
 43
0.0000001
 44
0.0000000001
 40
0.0
 40
0.0
 40
0.0
 40
0.0
 40
0.0299275589
 40
0.0599160714
 40
0.0899846757
 40
0.1201507588
 40
0.150429626
 40
0.1656180488
 40
0.1808392746
 40
0.2113800023
 40
0.2420644903
 40
0.2728972301
 40
0.3038801423
 40
0.3350117637
 40
0.3662882351
 40
0.3977024366
 40
0.4292451487
 40
0.4609043058
 40
0.4926660988
 40
0.5245145436
 40
0.5564322949
 40
0.58840068
 40
0.6204000814
 40
0.6524105147
 40
0.6844115406
 40
0.7163831542
 40
0.7483054209
 40
0.7801599929
 40
0.8119295892
 40
0.8435979117
 40
0.8751488956
 40
0.9065716384
 40
0.9378631313
 40
0.969015287
 40
1.0
 40
1.0
 40
1.0
 40
1.0
 10
9.7094236595
 20
8.8469466604
 30
0.0
 10
9.7132952696
 20
8.8497491942
 30
0.0
 10
9.7212601497
 20
8.8550711325
 30
0.0
 10
9.7337814192
 20
8.8621491916
 30
0.0
 10
9.7468293399
 20
8.868293601
 30
0.0
 10
9.7603371586
 20
8.8734761953
 30
0.0
 10
9.7719126042
 20
8.8769675026
 30
0.0
 10
9.7813322093
 20
8.8792571748
 30
0.0
 10
9.7908694394
 20
8.8812132176
 30
0.0
 10
9.8029558123
 20
8.8830160349
 30
0.0
 10
9.8176265597
 20
8.8841425783
 30
0.0
 10
9.8324110845
 20
8.884229049
 30
0.0
 10
9.8472363077
 20
8.883275072
 30
0.0
 10
9.8620298262
 20
8.8812861307
 30
0.0
 10
9.8767188595
 20
8.8782708924
 30
0.0
 10
9.8912319053
 20
8.874245974
 30
0.0
 10
9.9054972172
 20
8.8692290682
 30
0.0
 10
9.9194458823
 20
8.8632472992
 30
0.0
 10
9.9330084326
 20
8.8563273963
 30
0.0
 10
9.946119899
 20
8.848506029
 30
0.0
 10
9.9587145188
 20
8.8398188944
 30
0.0
 10
9.9707323355
 20
8.830311041
 30
0.0
 10
9.9821128454
 20
8.8200268589
 30
0.0
 10
9.9928019252
 20
8.8090185362
 30
0.0
 10
10.0027458381
 20
8.7973385187
 30
0.0
 10
10.0118969882
 20
8.7850450553
 30
0.0
 10
10.0202098805
 20
8.7721977062
 30
0.0
 10
10.0276440346
 20
8.7588595188
 30
0.0
 10
10.0341630864
 20
8.7450957131
 30
0.0
 10
10.0397342692
 20
8.7309737361
 30
0.0
 10
10.0443319055
 20
8.716563469
 30
0.0
 10
10.0479315947
 20
8.7019339754
 30
0.0
 10
10.0505170156
 20
8.6871558938
 30
0.0
 10
10.0520727915
 20
8.6723052155
 30
0.0
 10
10.0524223402
 20
8.6623784799
 30
0.0
 10
10.0524223402
 20
8.6574301564
 30
0.0
  0
SPLINE
  5
34E
100
AcDbEntity
  8
0
100
AcDbSpline
 62
7
  6
CONTINUOUS
 70
0
 71
3
 72
58
 73
54
 74
0
 42
0.0000001
 43
0.0000001
 44
0.0000000001
 40
0.0
 40
0.0
 40
0.0
 40
0.0
 40
0.0311036881
 40
0.0465905488
 40
0.0620239956
 40
0.0927288498
 40
0.1080185634
 40
0.1232684009
 40
0.1384815121
 40
0.1536613576
 40
0.1688121874
 40
0.1839387771
 40
0.1990460596
 40
0.2141392863
 40
0.2442942278
 40
0.2744567609
 40
0.2895594381
 40
0.3046798642
 40
0.3198230822
 40
0.334993731
 40
0.3654247619
 40
0.3960145868
 40
0.4113820902
 40
0.4267979847
 40
0.4422641616
 40
0.4577821839
 40
0.4889672415
 40
0.5203640478
 40
0.5361444902
 40
0.551974645
 40
0.5678524977
 40
0.58377545
 40
0.6157360994
 40
0.6478378676
 40
0.6639359765
 40
0.6800567845
 40
0.6961955629
 40
0.7123475841
 40
0.728507911
 40
0.7446714551
 40
0.7769797727
 40
0.793122956
 40
0.8092494136
 40
0.8253545969
 40
0.8414340341
 40
0.8574834655
 40
0.8734987676
 40
0.9054016335
 40
0.921291582
 40
0.9371359134
 40
0.9529341635
 40
0.9686840572
 40
1.0
 40
1.0
 40
1.0
 40
1.0
 10
9.6406605161
 20
8.6816987527
 30
0.0
 10
9.6406605161
 20
8.6880898325
 30
0.0
 10
9.6411308022
 20
8.6976720426
 30
0.0
 10
9.6427023902
 20
8.7103232354
 30
0.0
 10
9.6448922331
 20
8.7227993906
 30
0.0
 10
9.6480126833
 20
8.735056256
 30
0.0
 10
9.6520443443
 20
8.7469816935
 30
0.0
 10
9.6555096321
 20
8.7557255582
 30
0.0
 10
9.6594109277
 20
8.7642586491
 30
0.0
 10
9.6637398825
 20
8.7725601568
 30
0.0
 10
9.6684863367
 20
8.7806096011
 30
0.0
 10
9.6736376667
 20
8.7883882129
 30
0.0
 10
9.6791822324
 20
8.7958772287
 30
0.0
 10
9.687078036
 20
8.8054466807
 30
0.0
 10
9.6978700595
 20
8.8166081225
 30
0.0
 10
9.709778614
 20
8.8265725993
 30
0.0
 10
9.7198944404
 20
8.8337658035
 30
0.0
 10
9.7277679718
 20
8.8387642309
 30
0.0
 10
9.7359040107
 20
8.8433512905
 30
0.0
 10
9.7470848723
 20
8.8489099431
 30
0.0
 10
9.7616317706
 20
8.8547766699
 30
0.0
 10
9.7767419515
 20
8.8591310019
 30
0.0
 10
9.7890947158
 20
8.8616910184
 30
0.0
 10
9.7984896563
 20
8.863148688
 30
0.0
 10
9.8079766194
 20
8.8641363845
 30
0.0
 10
9.8207368897
 20
8.8648236329
 30
0.0
 10
9.8368089385
 20
8.864494523
 30
0.0
 10
9.8528245924
 20
8.8625904453
 30
0.0
 10
9.8655412529
 20
8.8601396694
 30
0.0
 10
9.8750268894
 20
8.8578349052
 30
0.0
 10
9.8844201293
 20
8.8550731818
 30
0.0
 10
9.8968049403
 20
8.8507867895
 30
0.0
 10
9.9119408606
 20
8.8443167234
 30
0.0
 10
9.9264407585
 20
8.836450395
 30
0.0
 10
9.9375962264
 20
8.8293558954
 30
0.0
 10
9.9457294706
 20
8.823641484
 30
0.0
 10
9.9536000944
 20
8.8175526093
 30
0.0
 10
9.9611887774
 20
8.8111032795
 30
0.0
 10
9.9684782627
 20
8.8043097533
 30
0.0
 10
9.9777717279
 20
8.7948180256
 30
0.0
 10
9.9864008282
 20
8.7846983847
 30
0.0
 10
9.9942990228
 20
8.7740314164
 30
0.0
 10
9.9998422984
 20
8.7657762293
 30
0.0
 10
10.0049926544
 20
8.7572860039
 30
0.0
 10
10.0097384307
 20
8.7485811755
 30
0.0
 10
10.0140671461
 20
8.7396817742
 30
0.0
 10
10.0192614566
 20
8.7276040357
 30
0.0
 10
10.0235947507
 20
8.7152052181
 30
0.0
 10
10.0270226212
 20
8.7025827007
 30
0.0
 10
10.0291330946
 20
8.6930427006
 30
0.0
 10
10.0307799877
 20
8.6834408258
 30
0.0
 10
10.0323481903
 20
8.6706159724
 30
0.0
 10
10.0328264248
 20
8.6609366478
 30
0.0
 10
10.0328264248
 20
8.6545019545
 30
0.0
  0
SPLINE
  5
34F
100
AcDbEntity
  8
0
100
AcDbSpline
 62
7
  6
CONTINUOUS
 70
0
 71
3
 72
58
 73
54
 74
0
 42
0.0000001
 43
0.0000001
 44
0.0000000001
 40
0.0
 40
0.0
 40
0.0
 40
0.0
 40
0.0311036881
 40
0.0465905488
 40
0.0620239956
 40
0.0927288498
 40
0.1080185634
 40
0.1232684009
 40
0.1384815121
 40
0.1536613576
 40
0.1688121874
 40
0.1839387771
 40
0.1990460596
 40
0.2141392863
 40
0.2442942278
 40
0.2744567609
 40
0.2895594381
 40
0.3046798642
 40
0.3198230822
 40
0.334993731
 40
0.3654247619
 40
0.3960145868
 40
0.4113820902
 40
0.4267979847
 40
0.4422641616
 40
0.4577821839
 40
0.4889672415
 40
0.5203640478
 40
0.5361444902
 40
0.551974645
 40
0.5678524977
 40
0.58377545
 40
0.6157360994
 40
0.6478378676
 40
0.6639359765
 40
0.6800567845
 40
0.6961955629
 40
0.7123475841
 40
0.728507911
 40
0.7446714551
 40
0.7769797727
 40
0.793122956
 40
0.8092494136
 40
0.8253545969
 40
0.8414340341
 40
0.8574834655
 40
0.8734987676
 40
0.9054016335
 40
0.921291582
 40
0.9371359134
 40
0.9529341635
 40
0.9686840572
 40
1.0
 40
1.0
 40
1.0
 40
1.0
 10
10.0328264248
 20
8.6545019545
 30
0.0
 10
10.0328264248
 20
8.6481108747
 30
0.0
 10
10.0323561386
 20
8.6385286646
 30
0.0
 10
10.0307845507
 20
8.6258774718
 30
0.0
 10
10.0285947077
 20
8.6134013166
 30
0.0
 10
10.0254742576
 20
8.6011444512
 30
0.0
 10
10.0214425966
 20
8.5892190137
 30
0.0
 10
10.0179773088
 20
8.580475149
 30
0.0
 10
10.0140760132
 20
8.5719420581
 30
0.0
 10
10.0097470583
 20
8.5636405504
 30
0.0
 10
10.0050006041
 20
8.5555911061
 30
0.0
 10
9.9998492742
 20
8.5478124943
 30
0.0
 10
9.9943047084
 20
8.5403234785
 30
0.0
 10
9.9864089049
 20
8.5307540265
 30
0.0
 10
9.9756168813
 20
8.5195925847
 30
0.0
 10
9.9637083269
 20
8.5096281079
 30
0.0
 10
9.9535925005
 20
8.5024349036
 30
0.0
 10
9.945718969
 20
8.4974364762
 30
0.0
 10
9.9375829302
 20
8.4928494167
 30
0.0
 10
9.9264020686
 20
8.4872907641
 30
0.0
 10
9.9118551702
 20
8.4814240373
 30
0.0
 10
9.8967449894
 20
8.4770697052
 30
0.0
 10
9.8843922251
 20
8.4745096887
 30
0.0
 10
9.8749972846
 20
8.4730520191
 30
0.0
 10
9.8655103214
 20
8.4720643227
 30
0.0
 10
9.8527500511
 20
8.4713770743
 30
0.0
 10
9.8366780024
 20
8.4717061841
 30
0.0
 10
9.8206623485
 20
8.4736102619
 30
0.0
 10
9.807945688
 20
8.4760610378
 30
0.0
 10
9.7984600515
 20
8.4783658019
 30
0.0
 10
9.7890668116
 20
8.4811275254
 30
0.0
 10
9.7766820005
 20
8.4854139177
 30
0.0
 10
9.7615460803
 20
8.4918839837
 30
0.0
 10
9.7470461823
 20
8.4997503122
 30
0.0
 10
9.7358907144
 20
8.5068448118
 30
0.0
 10
9.7277574702
 20
8.5125592232
 30
0.0
 10
9.7198868465
 20
8.5186480978
 30
0.0
 10
9.7122981634
 20
8.5250974277
 30
0.0
 10
9.7050086782
 20
8.5318909538
 30
0.0
 10
9.695715213
 20
8.5413826816
 30
0.0
 10
9.6870861126
 20
8.5515023225
 30
0.0
 10
9.6791879181
 20
8.5621692908
 30
0.0
 10
9.6736446424
 20
8.5704244778
 30
0.0
 10
9.6684942865
 20
8.5789147032
 30
0.0
 10
9.6637485101
 20
8.5876195316
 30
0.0
 10
9.6594197948
 20
8.5965189329
 30
0.0
 10
9.6542254843
 20
8.6085966714
 30
0.0
 10
9.6498921901
 20
8.6209954891
 30
0.0
 10
9.6464643197
 20
8.6336180065
 30
0.0
 10
9.6443538463
 20
8.6431580065
 30
0.0
 10
9.6427069531
 20
8.6527598813
 30
0.0
 10
9.6411387506
 20
8.6655847347
 30
0.0
 10
9.6406605161
 20
8.6752640594
 30
0.0
 10
9.6406605161
 20
8.6816987527
 30
0.0
  0
SPLINE
  5
350
100
AcDbEntity
  8
0
100
AcDbSpline
 62
7
  6
CONTINUOUS
 70
0
 71
3
 72
17
 73
13
 74
0
 42
0.0000001
 43
0.0000001
 44
0.0000000001
 40
0.0
 40
0.0
 40
0.0
 40
0.0
 40
0.1273148359
 40
0.1907080938
 40
0.253886694
 40
0.3795973721
 40
0.5046020162
 40
0.5668927094
 40
0.6290466736
 40
0.7529728785
 40
0.8765701029
 40
1.0
 40
1.0
 40
1.0
 40
1.0
 10
10.0524223402
 20
8.6574301564
 30
0.0
 10
10.0524223402
 20
8.6506866456
 30
0.0
 10
10.0519371996
 20
8.6405763011
 30
0.0
 10
10.0503155309
 20
8.6272228718
 30
0.0
 10
10.0480553593
 20
8.6140477652
 30
0.0
 10
10.0440370922
 20
8.5978848852
 30
0.0
 10
10.0384427138
 20
8.5822467285
 30
0.0
 10
10.0330635187
 20
8.5701732151
 30
0.0
 10
10.027105562
 20
8.5584388353
 30
0.0
 10
10.0185717548
 20
8.5443941279
 30
0.0
 10
10.0066855577
 20
8.5287085766
 30
0.0
 10
9.9977364492
 20
8.5191255935
 30
0.0
 10
9.9930340388
 20
8.5145836407
 30
0.0
  0
SPLINE
  5
351
100
AcDbEntity
  8
0
100
AcDbSpline
 62
7
  6
CONTINUOUS
 70
0
 71
3
 72
16
 73
12
 74
0
 42
0.0000001
 43
0.0000001
 44
0.0000000001
 40
0.0
 40
0.0
 40
0.0
 40
0.0
 40
0.1163005714
 40
0.2356165526
 40
0.2964223989
 40
0.3579693194
 40
0.4831074917
 40
0.6105254085
 40
0.7395632474
 40
0.8695651688
 40
1.0
 40
1.0
 40
1.0
 40
1.0
 10
9.8679172671
 20
6.4961971001
 30
0.0
 10
9.8841556228
 20
6.4938231869
 30
0.0
 10
9.9170927099
 20
6.4892781086
 30
0.0
 10
9.958626162
 20
6.484304021
 30
0.0
 10
9.9925416177
 20
6.480742485
 30
0.0
 10
10.0273089148
 20
6.4774430555
 30
0.0
 10
10.0714956575
 20
6.4739339306
 30
0.0
 10
10.1252512203
 20
6.4707558269
 30
0.0
 10
10.1797426893
 20
6.4685689316
 30
0.0
 10
10.2346882035
 20
6.4672961227
 30
0.0
 10
10.2714378798
 20
6.4669813645
 30
0.0
 10
10.2898432461
 20
6.4669364341
 30
0.0
  0
SPLINE
  5
352
100
AcDbEntity
  8
0
100
AcDbSpline
 62
7
  6
CONTINUOUS
 70
0
 71
3
 72
11
 73
7
 74
0
 42
0.0000001
 43
0.0000001
 44
0.0000000001
 40
0.0
 40
0.0
 40
0.0
 40
0.0
 40
0.2588743827
 40
0.5119435561
 40
0.7589441138
 40
1.0
 40
1.0
 40
1.0
 40
1.0
 10
10.5223721536
 20
7.2620013863
 30
0.0
 10
10.5158232457
 20
7.2723368194
 30
0.0
 10
10.5025697688
 20
7.2925859125
 30
0.0
 10
10.4820845214
 20
7.3220374758
 30
0.0
 10
10.4613383209
 20
7.3502663874
 30
0.0
 10
10.4472403894
 20
7.3685276298
 30
0.0
 10
10.4401815361
 20
7.3774708978
 30
0.0
  0
SPLINE
  5
353
100
AcDbEntity
  8
0
100
AcDbSpline
 62
7
  6
CONTINUOUS
 70
0
 71
3
 72
11
 73
7
 74
0
 42
0.0000001
 43
0.0000001
 44
0.0000000001
 40
0.0
 40
0.0
 40
0.0
 40
0.0
 40
0.2456152055
 40
0.4944444726
 40
0.7461458865
 40
1.0
 40
1.0
 40
1.0
 40
1.0
 10
10.6511445255
 20
6.9974419486
 30
0.0
 10
10.6468347183
 20
7.0089585643
 30
0.0
 10
10.6379482728
 20
7.0320645367
 30
0.0
 10
10.6238258731
 20
7.0666507685
 30
0.0
 10
10.6087424182
 20
7.101279883
 30
0.0
 10
10.5980401052
 20
7.1242203099
 30
0.0
 10
10.5925064217
 20
7.1356614427
 30
0.0
  0
SPLINE
  5
354
100
AcDbEntity
  8
0
100
AcDbSpline
 62
7
  6
CONTINUOUS
 70
0
 71
3
 72
10
 73
6
 74
0
 42
0.0000001
 43
0.0000001
 44
0.0000000001
 40
0.0
 40
0.0
 40
0.0
 40
0.0
 40
0.5011359422
 40
0.7512504085
 40
1.0
 40
1.0
 40
1.0
 40
1.0
 10
10.1213157023
 20
7.4403807187
 30
0.0
 10
10.0958269405
 20
7.4410394397
 30
0.0
 10
10.0575924641
 20
7.4412180731
 30
0.0
 10
10.006723356
 20
7.4401814245
 30
0.0
 10
9.9813560607
 20
7.4392945406
 30
0.0
 10
9.9687107241
 20
7.4387722324
 30
0.0
  0
SPLINE
  5
355
100
AcDbEntity
  8
0
100
AcDbSpline
 62
7
  6
CONTINUOUS
 70
0
 71
3
 72
11
 73
7
 74
0
 42
0.0000001
 43
0.0000001
 44
0.0000000001
 40
0.0
 40
0.0
 40
0.0
 40
0.0
 40
0.2363587692
 40
0.4815224935
 40
0.7360304203
 40
1.0
 40
1.0
 40
1.0
 40
1.0
 10
10.390636703
 20
7.4095115664
 30
0.0
 10
10.3805504511
 20
7.4116305946
 30
0.0
 10
10.3599584105
 20
7.4157423251
 30
0.0
 10
10.328355256
 20
7.4213524604
 30
0.0
 10
10.2954412765
 20
7.4264186959
 30
0.0
 10
10.2730168683
 20
7.4293171703
 30
0.0
 10
10.2615842384
 20
7.4306530627
 30
0.0
  0
SPLINE
  5
356
100
AcDbEntity
  8
0
100
AcDbSpline
 62
7
  6
CONTINUOUS
 70
0
 71
3
 72
15
 73
11
 74
0
 42
0.0000001
 43
0.0000001
 44
0.0000000001
 40
0.0
 40
0.0
 40
0.0
 40
0.0
 40
0.1338111375
 40
0.2664263589
 40
0.3971636274
 40
0.5252372875
 40
0.6499088899
 40
0.7706644007
 40
0.8873179257
 40
1.0
 40
1.0
 40
1.0
 40
1.0
 10
9.8183724341
 20
7.3162444466
 30
0.0
 10
9.8085989829
 20
7.3008209244
 30
0.0
 10
9.7892031668
 20
7.2700712565
 30
0.0
 10
9.7605197735
 20
7.2240881378
 30
0.0
 10
9.7325182467
 20
7.1786034093
 30
0.0
 10
9.7053834489
 20
7.1338592865
 30
0.0
 10
9.6792715525
 20
7.0900893264
 30
0.0
 10
9.6542753325
 20
7.0474699859
 30
0.0
 10
9.6304081949
 20
7.0060866739
 30
0.0
 10
9.6149586035
 20
6.9788715942
 30
0.0
 10
9.6074094446
 20
6.9654761633
 30
0.0
  0
SPLINE
  5
357
100
AcDbEntity
  8
0
100
AcDbSpline
 62
7
  6
CONTINUOUS
 70
0
 71
3
 72
15
 73
11
 74
0
 42
0.0000001
 43
0.0000001
 44
0.0000000001
 40
0.0
 40
0.0
 40
0.0
 40
0.0
 40
0.1260995893
 40
0.2527795741
 40
0.3796933977
 40
0.5063347437
 40
0.6321205791
 40
0.7565257296
 40
0.8791982474
 40
1.0
 40
1.0
 40
1.0
 40
1.0
 10
9.6074094446
 20
6.9082667179
 30
0.0
 10
9.614853827
 20
6.8915530664
 30
0.0
 10
9.6300579933
 20
6.8581729218
 30
0.0
 10
9.6538751966
 20
6.8084907807
 30
0.0
 10
9.6788349715
 20
6.7592831972
 30
0.0
 10
9.7049328064
 20
6.7108161319
 30
0.0
 10
9.7320802769
 20
6.6633478221
 30
0.0
 10
9.7601172357
 20
6.6170719704
 30
0.0
 10
9.7888498773
 20
6.5720819206
 30
0.0
 10
9.8084925757
 20
6.5427158635
 30
0.0
 10
9.8183724341
 20
6.5282377686
 30
0.0
  0
SPLINE
  5
358
100
AcDbEntity
  8
0
100
AcDbSpline
 62
7
  6
CONTINUOUS
 70
0
 71
3
 72
11
 73
7
 74
0
 42
0.0000001
 43
0.0000001
 44
0.0000000001
 40
0.0
 40
0.0
 40
0.0
 40
0.0
 40
0.2520989818
 40
0.5028155854
 40
0.7521149019
 40
1.0
 40
1.0
 40
1.0
 40
1.0
 10
10.2615842384
 20
7.4306530627
 30
0.0
 10
10.2500345693
 20
7.4333707698
 30
0.0
 10
10.2267711147
 20
7.4378735563
 30
0.0
 10
10.1915500251
 20
7.4417728721
 30
0.0
 10
10.1563258748
 20
7.4427753
 30
0.0
 10
10.13292842
 20
7.4415025721
 30
0.0
 10
10.1213157023
 20
7.4403807187
 30
0.0
  0
SPLINE
  5
359
100
AcDbEntity
  8
0
100
AcDbSpline
 62
7
  6
CONTINUOUS
 70
0
 71
3
 72
11
 73
7
 74
0
 42
0.0000001
 43
0.0000001
 44
0.0000000001
 40
0.0
 40
0.0
 40
0.0
 40
0.0
 40
0.2488470802
 40
0.4985855753
 40
0.7490356844
 40
1.0
 40
1.0
 40
1.0
 40
1.0
 10
10.5925064217
 20
7.1356614427
 30
0.0
 10
10.588372235
 20
7.1469602142
 30
0.0
 10
10.5791935889
 20
7.1692816137
 30
0.0
 10
10.5628378699
 20
7.2016318573
 30
0.0
 10
10.5439754693
 20
7.2327071568
 30
0.0
 10
10.5298212782
 20
7.2524233937
 30
0.0
 10
10.5223721536
 20
7.2620013863
 30
0.0
  0
SPLINE
  5
35A
100
AcDbEntity
  8
0
100
AcDbSpline
 62
7
  6
CONTINUOUS
 70
0
 71
3
 72
11
 73
7
 74
0
 42
0.0000001
 43
0.0000001
 44
0.0000000001
 40
0.0
 40
0.0
 40
0.0
 40
0.0
 40
0.249052842
 40
0.4985892134
 40
0.7488362297
 40
1.0
 40
1.0
 40
1.0
 40
1.0
 10
10.5223721536
 20
6.717917209
 30
0.0
 10
10.5298311361
 20
6.7264733123
 30
0.0
 10
10.5440163298
 20
6.7442701311
 30
0.0
 10
10.5628885106
 20
6.7727573312
 30
0.0
 10
10.5792485005
 20
6.8028670828
 30
0.0
 10
10.5883892938
 20
6.8238483944
 30
0.0
 10
10.5925064217
 20
6.8345294966
 30
0.0
  0
SPLINE
  5
35B
100
AcDbEntity
  8
0
100
AcDbSpline
 62
7
  6
CONTINUOUS
 70
0
 71
3
 72
39
 73
35
 74
0
 42
0.0000001
 43
0.0000001
 44
0.0000000001
 40
0.0
 40
0.0
 40
0.0
 40
0.0
 40
0.0313280664
 40
0.0628640876
 40
0.0945966172
 40
0.1265061998
 40
0.1585673932
 40
0.1907491178
 40
0.2230161303
 40
0.2553301529
 40
0.287651281
 40
0.3199393761
 40
0.352155419
 40
0.384262949
 40
0.4162292869
 40
0.4480268272
 40
0.4796340322
 40
0.5110363789
 40
0.542227001
 40
0.5732071115
 40
0.6039861305
 40
0.6345814433
 40
0.6650179013
 40
0.6953268541
 40
0.7255450137
 40
0.7557128873
 40
0.7858731474
 40
0.8160687789
 40
0.8463412505
 40
0.8767288219
 40
0.9072648312
 40
0.9379766799
 40
0.9688841647
 40
1.0
 40
1.0
 40
1.0
 40
1.0
 10
10.4854120683
 20
6.8668544282
 30
0.0
 10
10.4854120683
 20
6.8804874241
 30
0.0
 10
10.4840631705
 20
6.9078620926
 30
0.0
 10
10.4780611213
 20
6.9486486666
 30
0.0
 10
10.4681329364
 20
6.9889248156
 30
0.0
 10
10.4543749852
 20
7.0282985575
 30
0.0
 10
10.4369205686
 20
7.0663933116
 30
0.0
 10
10.415937971
 20
7.1028431894
 30
0.0
 10
10.3916292204
 20
7.1372986048
 30
0.0
 10
10.3642279773
 20
7.1694289684
 30
0.0
 10
10.3339973944
 20
7.1989259498
 30
0.0
 10
10.3012276227
 20
7.2255063487
 30
0.0
 10
10.2662330491
 20
7.2489147615
 30
0.0
 10
10.2293493866
 20
7.268926016
 30
0.0
 10
10.190930471
 20
7.2853472912
 30
0.0
 10
10.1513449893
 20
7.2980199709
 30
0.0
 10
10.1109729961
 20
7.3068211878
 30
0.0
 10
10.070202375
 20
7.3116650124
 30
0.0
 10
10.029425193
 20
7.3125033974
 30
0.0
 10
9.9890340058
 20
7.3093266792
 30
0.0
 10
9.9494181384
 20
7.3021638637
 30
0.0
 10
9.9109599323
 20
7.2910824528
 30
0.0
 10
9.874031043
 20
7.2761879835
 30
0.0
 10
9.8389887248
 20
7.2576231572
 30
0.0
 10
9.8061722771
 20
7.235566558
 30
0.0
 10
9.7758995317
 20
7.2102310077
 30
0.0
 10
9.7484636311
 20
7.1818614629
 30
0.0
 10
9.7241299941
 20
7.1507325637
 30
0.0
 10
9.7031336171
 20
7.1171458518
 30
0.0
 10
9.6856768233
 20
7.0814265216
 30
0.0
 10
9.6719271415
 20
7.0439206374
 30
0.0
 10
9.6620161533
 20
7.0049895578
 30
0.0
 10
9.6560377403
 20
6.9650142489
 30
0.0
 10
9.6547158085
 20
6.938004049
 30
0.0
 10
9.6547158085
 20
6.9244634095
 30
0.0
  0
SPLINE
  5
35C
100
AcDbEntity
  8
0
100
AcDbSpline
 62
7
  6
CONTINUOUS
 70
0
 71
3
 72
15
 73
11
 74
0
 42
0.0000001
 43
0.0000001
 44
0.0000000001
 40
0.0
 40
0.0
 40
0.0
 40
0.0
 40
0.1126820743
 40
0.2293355993
 40
0.3500911101
 40
0.4747627126
 40
0.6028363726
 40
0.7335736412
 40
0.8661888625
 40
1.0
 40
1.0
 40
1.0
 40
1.0
 10
10.3393880791
 20
6.4921052109
 30
0.0
 10
10.3469372381
 20
6.5055006418
 30
0.0
 10
10.3623868295
 20
6.5327157215
 30
0.0
 10
10.3862539671
 20
6.5740990335
 30
0.0
 10
10.411250187
 20
6.616718374
 30
0.0
 10
10.4373620835
 20
6.6604883341
 30
0.0
 10
10.4644968812
 20
6.7052324569
 30
0.0
 10
10.492498408
 20
6.7507171854
 30
0.0
 10
10.5211818013
 20
6.7967003041
 30
0.0
 10
10.5405776175
 20
6.827449972
 30
0.0
 10
10.5503510686
 20
6.8428734942
 30
0.0
  0
SPLINE
  5
35D
100
AcDbEntity
  8
0
100
AcDbSpline
 62
7
  6
CONTINUOUS
 70
0
 71
3
 72
15
 73
11
 74
0
 42
0.0000001
 43
0.0000001
 44
0.0000000001
 40
0.0
 40
0.0
 40
0.0
 40
0.0
 40
0.1208017526
 40
0.2434742705
 40
0.367879421
 40
0.4936652564
 40
0.6203066023
 40
0.7472204259
 40
0.8739004107
 40
1.0
 40
1.0
 40
1.0
 40
1.0
 10
10.5503510686
 20
6.9000829396
 30
0.0
 10
10.5404712103
 20
6.9145610345
 30
0.0
 10
10.5208285118
 20
6.9439270915
 30
0.0
 10
10.4920958702
 20
6.9889171414
 30
0.0
 10
10.4640589115
 20
7.0351929931
 30
0.0
 10
10.436911441
 20
7.0826613029
 30
0.0
 10
10.410813606
 20
7.1311283682
 30
0.0
 10
10.3858538311
 20
7.1803359517
 30
0.0
 10
10.3620366278
 20
7.2300180928
 30
0.0
 10
10.3468324615
 20
7.2633982373
 30
0.0
 10
10.3393880791
 20
7.2801118889
 30
0.0
  0
SPLINE
  5
35E
100
AcDbEntity
  8
0
100
AcDbSpline
 62
7
  6
CONTINUOUS
 70
0
 71
3
 72
39
 73
35
 74
0
 42
0.0000001
 43
0.0000001
 44
0.0000000001
 40
0.0
 40
0.0
 40
0.0
 40
0.0
 40
0.0313280664
 40
0.0628640876
 40
0.0945966172
 40
0.1265061998
 40
0.1585673932
 40
0.1907491178
 40
0.2230161303
 40
0.2553301529
 40
0.287651281
 40
0.3199393761
 40
0.352155419
 40
0.384262949
 40
0.4162292869
 40
0.4480268272
 40
0.4796340322
 40
0.5110363789
 40
0.542227001
 40
0.5732071115
 40
0.6039861305
 40
0.6345814433
 40
0.6650179013
 40
0.6953268541
 40
0.7255450137
 40
0.7557128873
 40
0.7858731474
 40
0.8160687789
 40
0.8463412505
 40
0.8767288219
 40
0.9072648312
 40
0.9379766799
 40
0.9688841647
 40
1.0
 40
1.0
 40
1.0
 40
1.0
 10
9.6547158085
 20
6.9244634095
 30
0.0
 10
9.6547158085
 20
6.9108304135
 30
0.0
 10
9.6560647063
 20
6.883455745
 30
0.0
 10
9.6620667555
 20
6.842669171
 30
0.0
 10
9.6719949405
 20
6.8023930221
 30
0.0
 10
9.6857528916
 20
6.7630192801
 30
0.0
 10
9.7032073083
 20
6.724924526
 30
0.0
 10
9.7241899058
 20
6.6884746482
 30
0.0
 10
9.7484986564
 20
6.6540192328
 30
0.0
 10
9.7758998995
 20
6.6218888692
 30
0.0
 10
9.8061304824
 20
6.5923918878
 30
0.0
 10
9.8389002541
 20
6.565811489
 30
0.0
 10
9.8738948277
 20
6.5424030761
 30
0.0
 10
9.9107784902
 20
6.5223918216
 30
0.0
 10
9.9491974058
 20
6.5059705464
 30
0.0
 10
9.9887828875
 20
6.4932978667
 30
0.0
 10
10.0291548807
 20
6.4844966499
 30
0.0
 10
10.0699255018
 20
6.4796528252
 30
0.0
 10
10.1107026838
 20
6.4788144403
 30
0.0
 10
10.151093871
 20
6.4819911584
 30
0.0
 10
10.1907097384
 20
6.4891539739
 30
0.0
 10
10.2291679445
 20
6.5002353848
 30
0.0
 10
10.2660968338
 20
6.5151298541
 30
0.0
 10
10.301139152
 20
6.5336946804
 30
0.0
 10
10.3339555997
 20
6.5557512797
 30
0.0
 10
10.3642283451
 20
6.5810868299
 30
0.0
 10
10.3916642457
 20
6.6094563748
 30
0.0
 10
10.4159978827
 20
6.6405852739
 30
0.0
 10
10.4369942597
 20
6.6741719858
 30
0.0
 10
10.4544510535
 20
6.7098913161
 30
0.0
 10
10.4682007353
 20
6.7473972002
 30
0.0
 10
10.4781117235
 20
6.7863282798
 30
0.0
 10
10.4840901366
 20
6.8263035887
 30
0.0
 10
10.4854120683
 20
6.8533137886
 30
0.0
 10
10.4854120683
 20
6.8668544282
 30
0.0
  0
SPLINE
  5
35F
100
AcDbEntity
  8
0
100
AcDbSpline
 62
7
  6
CONTINUOUS
 70
0
 71
3
 72
16
 73
12
 74
0
 42
0.0000001
 43
0.0000001
 44
0.0000000001
 40
0.0
 40
0.0
 40
0.0
 40
0.0
 40
0.1304348312
 40
0.2604367527
 40
0.3894745916
 40
0.5168925084
 40
0.6420306806
 40
0.7035776011
 40
0.7643834475
 40
0.8836994286
 40
1.0
 40
1.0
 40
1.0
 40
1.0
 10
10.2898432461
 20
7.3121525574
 30
0.0
 10
10.2714378798
 20
7.3121974878
 30
0.0
 10
10.2346882035
 20
7.312512246
 30
0.0
 10
10.1797426893
 20
7.3137850549
 30
0.0
 10
10.1252512203
 20
7.3159719503
 30
0.0
 10
10.0714956575
 20
7.3191500539
 30
0.0
 10
10.0273089148
 20
7.3226591788
 30
0.0
 10
9.9925416177
 20
7.3259586084
 30
0.0
 10
9.958626162
 20
7.3295201444
 30
0.0
 10
9.9170927099
 20
7.334494232
 30
0.0
 10
9.8841556228
 20
7.3390393103
 30
0.0
 10
9.8679172671
 20
7.3414132235
 30
0.0
  0
SPLINE
  5
360
100
AcDbEntity
  8
0
100
AcDbSpline
 62
7
  6
CONTINUOUS
 70
0
 71
3
 72
31
 73
27
 74
0
 42
0.0000001
 43
0.0000001
 44
0.0000000001
 40
0.0
 40
0.0
 40
0.0
 40
0.0
 40
0.0958346862
 40
0.1891086058
 40
0.2792517913
 40
0.3657238518
 40
0.4480156048
 40
0.5256577435
 40
0.5982273517
 40
0.6653573694
 40
0.6967887942
 40
0.7267545785
 40
0.7552309605
 40
0.782200609
 40
0.8076546359
 40
0.8315929205
 40
0.854027226
 40
0.8749821598
 40
0.8944998192
 40
0.9126421181
 40
0.9294973557
 40
0.9451842997
 40
0.9598596237
 40
0.9737210651
 40
0.9870091668
 40
1.0
 40
1.0
 40
1.0
 40
1.0
 10
11.7783513184
 20
9.9738755753
 30
0.0
 10
11.7754993079
 20
9.9740733629
 30
0.0
 10
11.7698756073
 20
9.9745263832
 30
0.0
 10
11.7615894157
 20
9.9753911213
 30
0.0
 10
11.7536043581
 20
9.9764274222
 30
0.0
 10
11.7459737396
 20
9.9776282144
 30
0.0
 10
11.738748333
 20
9.9789853327
 30
0.0
 10
11.7319760779
 20
9.9804894985
 30
0.0
 10
11.7257019593
 20
9.9821304926
 30
0.0
 10
11.7208210656
 20
9.9836337941
 30
0.0
 10
11.7172032207
 20
9.9849045657
 30
0.0
 10
11.7146992662
 20
9.9858638712
 30
0.0
 10
11.7123488807
 20
9.9868487257
 30
0.0
 10
11.7101559325
 20
9.9878575653
 30
0.0
 10
11.7081239848
 20
9.9888886727
 30
0.0
 10
11.7062563485
 20
9.989940438
 30
0.0
 10
11.7045559885
 20
9.9910111218
 30
0.0
 10
11.7030256413
 20
9.9920991608
 30
0.0
 10
11.7016676674
 20
9.9932028831
 30
0.0
 10
11.7004842854
 20
9.9943208908
 30
0.0
 10
11.6994773804
 20
9.9954517205
 30
0.0
 10
11.6986489416
 20
9.9965942359
 30
0.0
 10
11.698000835
 20
9.9977471051
 30
0.0
 10
11.6975353817
 20
9.9989090777
 30
0.0
 10
11.6972547467
 20
10.0000776203
 30
0.0
 10
11.6971919976
 20
10.0008629054
 30
0.0
 10
11.6971919945
 20
10.0012504372
 30
0.0
  0
SPLINE
  5
361
100
AcDbEntity
  8
0
100
AcDbSpline
 62
7
  6
CONTINUOUS
 70
0
 71
3
 72
31
 73
27
 74
0
 42
0.0000001
 43
0.0000001
 44
0.0000000001
 40
0.0
 40
0.0
 40
0.0
 40
0.0
 40
0.0958346862
 40
0.1891086058
 40
0.2792517913
 40
0.3657238518
 40
0.4480156048
 40
0.5256577435
 40
0.5982273517
 40
0.6653573694
 40
0.6967887942
 40
0.7267545785
 40
0.7552309605
 40
0.782200609
 40
0.8076546359
 40
0.8315929205
 40
0.854027226
 40
0.8749821598
 40
0.8944998192
 40
0.9126421181
 40
0.9294973557
 40
0.9451842997
 40
0.9598596237
 40
0.9737210651
 40
0.9870091668
 40
1.0
 40
1.0
 40
1.0
 40
1.0
 10
11.3957377804
 20
9.5732992523
 30
0.0
 10
11.3928857698
 20
9.5734970399
 30
0.0
 10
11.3872620692
 20
9.5739500601
 30
0.0
 10
11.3789758776
 20
9.5748147982
 30
0.0
 10
11.37099082
 20
9.5758510992
 30
0.0
 10
11.3633602015
 20
9.5770518913
 30
0.0
 10
11.3561347949
 20
9.5784090097
 30
0.0
 10
11.3493625398
 20
9.5799131755
 30
0.0
 10
11.3430884212
 20
9.5815541695
 30
0.0
 10
11.3382075275
 20
9.5830574711
 30
0.0
 10
11.3345896826
 20
9.5843282427
 30
0.0
 10
11.3320857281
 20
9.5852875481
 30
0.0
 10
11.3297353426
 20
9.5862724027
 30
0.0
 10
11.3275423944
 20
9.5872812422
 30
0.0
 10
11.3255104467
 20
9.5883123497
 30
0.0
 10
11.3236428104
 20
9.589364115
 30
0.0
 10
11.3219424504
 20
9.5904347988
 30
0.0
 10
11.3204121032
 20
9.5915228378
 30
0.0
 10
11.3190541293
 20
9.59262656
 30
0.0
 10
11.3178707473
 20
9.5937445678
 30
0.0
 10
11.3168638423
 20
9.5948753974
 30
0.0
 10
11.3160354035
 20
9.5960179129
 30
0.0
 10
11.3153872969
 20
9.5971707821
 30
0.0
 10
11.3149218436
 20
9.5983327547
 30
0.0
 10
11.3146412086
 20
9.5995012972
 30
0.0
 10
11.3145784595
 20
9.6002865824
 30
0.0
 10
11.3145784564
 20
9.6006741141
 30
0.0
  0
SPLINE
  5
362
100
AcDbEntity
  8
0
100
AcDbSpline
 62
7
  6
CONTINUOUS
 70
0
 71
3
 72
31
 73
27
 74
0
 42
0.0000001
 43
0.0000001
 44
0.0000000001
 40
0.0
 40
0.0
 40
0.0
 40
0.0
 40
0.0958346862
 40
0.1891086058
 40
0.2792517913
 40
0.3657238518
 40
0.4480156048
 40
0.5256577435
 40
0.5982273517
 40
0.6653573694
 40
0.6967887942
 40
0.7267545785
 40
0.7552309605
 40
0.782200609
 40
0.8076546359
 40
0.8315929205
 40
0.854027226
 40
0.8749821598
 40
0.8944998192
 40
0.9126421181
 40
0.9294973557
 40
0.9451842997
 40
0.9598596237
 40
0.9737210651
 40
0.9870091668
 40
1.0
 40
1.0
 40
1.0
 40
1.0
 10
10.6008876551
 20
10.0555329577
 30
0.0
 10
10.5980356446
 20
10.0557307453
 30
0.0
 10
10.592411944
 20
10.0561837656
 30
0.0
 10
10.5841257524
 20
10.0570485037
 30
0.0
 10
10.5761406948
 20
10.0580848046
 30
0.0
 10
10.5685100763
 20
10.0592855968
 30
0.0
 10
10.5612846697
 20
10.0606427151
 30
0.0
 10
10.5545124146
 20
10.0621468809
 30
0.0
 10
10.548238296
 20
10.063787875
 30
0.0
 10
10.5433574023
 20
10.0652911765
 30
0.0
 10
10.5397395574
 20
10.0665619481
 30
0.0
 10
10.5372356029
 20
10.0675212536
 30
0.0
 10
10.5348852174
 20
10.0685061081
 30
0.0
 10
10.5326922692
 20
10.0695149477
 30
0.0
 10
10.5306603215
 20
10.0705460551
 30
0.0
 10
10.5287926852
 20
10.0715978204
 30
0.0
 10
10.5270923252
 20
10.0726685042
 30
0.0
 10
10.525561978
 20
10.0737565432
 30
0.0
 10
10.5242040041
 20
10.0748602655
 30
0.0
 10
10.5230206221
 20
10.0759782732
 30
0.0
 10
10.5220137171
 20
10.0771091029
 30
0.0
 10
10.5211852783
 20
10.0782516183
 30
0.0
 10
10.5205371717
 20
10.0794044875
 30
0.0
 10
10.5200717184
 20
10.0805664601
 30
0.0
 10
10.5197910834
 20
10.0817350027
 30
0.0
 10
10.5197283343
 20
10.0825202878
 30
0.0
 10
10.5197283312
 20
10.0829078196
 30
0.0
  0
SPLINE
  5
363
100
AcDbEntity
  8
0
100
AcDbSpline
 62
7
  6
CONTINUOUS
 70
0
 71
3
 72
31
 73
27
 74
0
 42
0.0000001
 43
0.0000001
 44
0.0000000001
 40
0.0
 40
0.0
 40
0.0
 40
0.0
 40
0.0958346862
 40
0.1891086058
 40
0.2792517913
 40
0.3657238518
 40
0.4480156048
 40
0.5256577435
 40
0.5982273517
 40
0.6653573694
 40
0.6967887942
 40
0.7267545785
 40
0.7552309605
 40
0.782200609
 40
0.8076546359
 40
0.8315929205
 40
0.854027226
 40
0.8749821598
 40
0.8944998192
 40
0.9126421181
 40
0.9294973557
 40
0.9451842997
 40
0.9598596237
 40
0.9737210651
 40
0.9870091668
 40
1.0
 40
1.0
 40
1.0
 40
1.0
 10
10.1583866917
 20
9.6591098417
 30
0.0
 10
10.1555346811
 20
9.6593076293
 30
0.0
 10
10.1499109805
 20
9.6597606496
 30
0.0
 10
10.1416247889
 20
9.6606253877
 30
0.0
 10
10.1336397313
 20
9.6616616887
 30
0.0
 10
10.1260091128
 20
9.6628624808
 30
0.0
 10
10.1187837062
 20
9.6642195991
 30
0.0
 10
10.1120114511
 20
9.6657237649
 30
0.0
 10
10.1057373325
 20
9.667364759
 30
0.0
 10
10.1008564388
 20
9.6688680605
 30
0.0
 10
10.097238594
 20
9.6701388321
 30
0.0
 10
10.0947346394
 20
9.6710981376
 30
0.0
 10
10.0923842539
 20
9.6720829921
 30
0.0
 10
10.0901913057
 20
9.6730918317
 30
0.0
 10
10.088159358
 20
9.6741229391
 30
0.0
 10
10.0862917217
 20
9.6751747044
 30
0.0
 10
10.0845913617
 20
9.6762453882
 30
0.0
 10
10.0830610145
 20
9.6773334273
 30
0.0
 10
10.0817030406
 20
9.6784371495
 30
0.0
 10
10.0805196586
 20
9.6795551573
 30
0.0
 10
10.0795127536
 20
9.6806859869
 30
0.0
 10
10.0786843148
 20
9.6818285023
 30
0.0
 10
10.0780362082
 20
9.6829813715
 30
0.0
 10
10.0775707549
 20
9.6841433442
 30
0.0
 10
10.0772901199
 20
9.6853118867
 30
0.0
 10
10.0772273708
 20
9.6860971718
 30
0.0
 10
10.0772273677
 20
9.6864847036
 30
0.0
  0
SPLINE
  5
364
100
AcDbEntity
  8
0
100
AcDbSpline
 62
7
  6
CONTINUOUS
 70
0
 71
3
 72
55
 73
51
 74
0
 42
0.0000001
 43
0.0000001
 44
0.0000000001
 40
0.0
 40
0.0
 40
0.0
 40
0.0
 40
0.0080497538
 40
0.0167669452
 40
0.0261759931
 40
0.036292863
 40
0.0471254028
 40
0.0586740205
 40
0.0709337773
 40
0.0838952744
 40
0.0975451284
 40
0.1118667699
 40
0.1268405422
 40
0.142444519
 40
0.1754420103
 40
0.2106440498
 40
0.2478078093
 40
0.2866699112
 40
0.3269506751
 40
0.3683578154
 40
0.4105897558
 40
0.4533386621
 40
0.4962932641
 40
0.5391415208
 40
0.5815731777
 40
0.623282269
 40
0.6639696201
 40
0.7033454173
 40
0.7411319273
 40
0.759347027
 40
0.7770676791
 40
0.8109060757
 40
0.8269697758
 40
0.8424284772
 40
0.8572588272
 40
0.8714397705
 40
0.8849525087
 40
0.8977812863
 40
0.9099133031
 40
0.9213398674
 40
0.9320564977
 40
0.9420644871
 40
0.9513716062
 40
0.959994245
 40
0.9679592862
 40
0.9753071529
 40
0.9820952272
 40
0.9884015099
 40
0.9943278213
 40
1.0
 40
1.0
 40
1.0
 40
1.0
 10
11.5292681914
 20
9.794341014
 30
0.0
 10
11.5287660815
 20
9.793856013
 30
0.0
 10
11.5276727858
 20
9.7928942982
 30
0.0
 10
11.5258578612
 20
9.7915279386
 30
0.0
 10
11.5238080158
 20
9.7901845035
 30
0.0
 10
11.5215275212
 20
9.7888665375
 30
0.0
 10
11.5190207077
 20
9.7875764497
 30
0.0
 10
11.516292541
 20
9.7863167309
 30
0.0
 10
11.5133484809
 20
9.7850898795
 30
0.0
 10
11.5101944689
 20
9.7838983401
 30
0.0
 10
11.5068368996
 20
9.7827444558
 30
0.0
 10
11.5032825938
 20
9.7816305849
 30
0.0
 10
11.499538792
 20
9.7805588656
 30
0.0
 10
11.4942045766
 20
9.7791630092
 30
0.0
 10
11.4871162001
 20
9.7775491779
 30
0.0
 10
11.4781373116
 20
9.775845518
 30
0.0
 10
11.4686057595
 20
9.7743540527
 30
0.0
 10
11.4585979711
 20
9.7730864188
 30
0.0
 10
11.4481936004
 20
9.7720524315
 30
0.0
 10
11.4374750899
 20
9.7712599565
 30
0.0
 10
11.4265269016
 20
9.7707149151
 30
0.0
 10
11.4154348796
 20
9.7704212687
 30
0.0
 10
11.4042856111
 20
9.7703810237
 30
0.0
 10
11.3931658217
 20
9.7705942426
 30
0.0
 10
11.3821617868
 20
9.7710590613
 30
0.0
 10
11.3713587729
 20
9.7717717152
 30
0.0
 10
11.360840446
 20
9.7727265571
 30
0.0
 10
11.3506884442
 20
9.7739161258
 30
0.0
 10
11.3425022352
 20
9.7751093715
 30
0.0
 10
11.3361987529
 20
9.7761794892
 30
0.0
 10
11.3302502681
 20
9.7772896247
 30
0.0
 10
11.3245129901
 20
9.7785119469
 30
0.0
 10
11.3190066992
 20
9.7798587657
 30
0.0
 10
11.3151228243
 20
9.7808967306
 30
0.0
 10
11.3114205739
 20
9.781978058
 30
0.0
 10
11.3079073339
 20
9.783100639
 30
0.0
 10
11.3045901547
 20
9.7842623333
 30
0.0
 10
11.3014756845
 20
9.7854608195
 30
0.0
 10
11.298570198
 20
9.7866938409
 30
0.0
 10
11.2958795104
 20
9.7879589337
 30
0.0
 10
11.2934090375
 20
9.7892537537
 30
0.0
 10
11.2911636789
 20
9.7905757882
 30
0.0
 10
11.2891479108
 20
9.7919226911
 30
0.0
 10
11.2873656824
 20
9.793292083
 30
0.0
 10
11.2858205435
 20
9.7946818137
 30
0.0
 10
11.2845156941
 20
9.7960899479
 30
0.0
 10
11.283454202
 20
9.7975147362
 30
0.0
 10
11.2826394112
 20
9.7989548188
 30
0.0
 10
11.2820751039
 20
9.800407567
 30
0.0
 10
11.2818657532
 20
9.8013971237
 30
0.0
 10
11.2818063093
 20
9.8018854263
 30
0.0
  0
SPLINE
  5
365
100
AcDbEntity
  8
0
100
AcDbSpline
 62
7
  6
CONTINUOUS
 70
0
 71
3
 72
31
 73
27
 74
0
 42
0.0000001
 43
0.0000001
 44
0.0000000001
 40
0.0
 40
0.0
 40
0.0
 40
0.0
 40
0.1010093969
 40
0.1974213439
 40
0.2888974865
 40
0.3751630874
 40
0.4559772199
 40
0.5311557102
 40
0.6005749617
 40
0.6641818675
 40
0.6938163693
 40
0.722018749
 40
0.7488092716
 40
0.7742177747
 40
0.7982836217
 40
0.8210566114
 40
0.8426006622
 40
0.8629936055
 40
0.8823301068
 40
0.900723979
 40
0.918308016
 40
0.9352355029
 40
0.9516781865
 40
0.9678223674
 40
0.9838638337
 40
1.0
 40
1.0
 40
1.0
 40
1.0
 10
10.8321110527
 20
9.7135835635
 30
0.0
 10
10.8300323542
 20
9.7139602794
 30
0.0
 10
10.825978081
 20
9.7147447881
 30
0.0
 10
10.8200776248
 20
9.7160490166
 30
0.0
 10
10.8145164839
 20
9.7174491196
 30
0.0
 10
10.8093170584
 20
9.7189388015
 30
0.0
 10
10.8044993157
 20
9.7205115848
 30
0.0
 10
10.8000810293
 20
9.7221605644
 30
0.0
 10
10.7960778057
 20
9.7238786344
 30
0.0
 10
10.7930300967
 20
9.7253957437
 30
0.0
 10
10.7908176128
 20
9.7266442096
 30
0.0
 10
10.7893092481
 20
9.7275711051
 30
0.0
 10
10.7879134894
 20
9.72850984
 30
0.0
 10
10.786631221
 20
9.7294595088
 30
0.0
 10
10.7854631873
 20
9.7304191971
 30
0.0
 10
10.784410078
 20
9.7313881042
 30
0.0
 10
10.7834723866
 20
9.7323653388
 30
0.0
 10
10.7826505782
 20
9.7333501235
 30
0.0
 10
10.7819450774
 20
9.7343417
 30
0.0
 10
10.7813561705
 20
9.7353392425
 30
0.0
 10
10.7808842521
 20
9.7363419798
 30
0.0
 10
10.7805296178
 20
9.7373489907
 30
0.0
 10
10.7802924522
 20
9.7383592028
 30
0.0
 10
10.7801729404
 20
9.7393714608
 30
0.0
 10
10.7801708278
 20
9.7403842353
 30
0.0
 10
10.7802469061
 20
9.7410546144
 30
0.0
 10
10.7803034944
 20
9.7413873157
 30
0.0
  0
SPLINE
  5
366
100
AcDbEntity
  8
0
100
AcDbSpline
 62
7
  6
CONTINUOUS
 70
0
 71
3
 72
32
 73
28
 74
0
 42
0.0000001
 43
0.0000001
 44
0.0000000001
 40
0.0
 40
0.0
 40
0.0
 40
0.0
 40
0.0958350133
 40
0.1891086299
 40
0.2792520242
 40
0.3657239766
 40
0.4480156633
 40
0.5256576281
 40
0.5982269975
 40
0.6324943547
 40
0.6653613378
 40
0.6967924401
 40
0.7267581378
 40
0.7552341308
 40
0.7822036768
 40
0.8076572578
 40
0.8315954232
 40
0.8540292433
 40
0.8749840421
 40
0.8945012056
 40
0.9126433592
 40
0.9294981369
 40
0.9451849406
 40
0.9598599088
 40
0.973721248
 40
0.9870091801
 40
1.0
 40
1.0
 40
1.0
 40
1.0
 10
10.5600268744
 20
9.8280645082
 30
0.0
 10
10.5567711151
 20
9.8282902959
 30
0.0
 10
10.5503513084
 20
9.8288074462
 30
0.0
 10
10.5408920968
 20
9.8297946061
 30
0.0
 10
10.5317766587
 20
9.830977609
 30
0.0
 10
10.5230658426
 20
9.8323484015
 30
0.0
 10
10.5148175641
 20
9.8338976331
 30
0.0
 10
10.507086764
 20
9.8356147816
 30
0.0
 10
10.5010070613
 20
9.8372047323
 30
0.0
 10
10.4964461981
 20
9.8385596105
 30
0.0
 10
10.4932516116
 20
9.8395908329
 30
0.0
 10
10.4902226194
 20
9.8406548875
 30
0.0
 10
10.4873642214
 20
9.8417499553
 30
0.0
 10
10.4846811455
 20
9.8428742681
 30
0.0
 10
10.4821777813
 20
9.844025895
 30
0.0
 10
10.4798582327
 20
9.8452030097
 30
0.0
 10
10.4777262318
 20
9.8464036339
 30
0.0
 10
10.4757852242
 20
9.8476259325
 30
0.0
 10
10.4740382566
 20
9.8488679602
 30
0.0
 10
10.4724881201
 20
9.8501279776
 30
0.0
 10
10.4711372282
 20
9.8514042142
 30
0.0
 10
10.4699878777
 20
9.8526951751
 30
0.0
 10
10.469042167
 20
9.8539993927
 30
0.0
 10
10.4683024262
 20
9.8553155041
 30
0.0
 10
10.4677710818
 20
9.856641946
 30
0.0
 10
10.4674508409
 20
9.8579759315
 30
0.0
 10
10.4673792256
 20
9.8588723752
 30
0.0
 10
10.467379233
 20
9.8593147665
 30
0.0
  0
SPLINE
  5
367
100
AcDbEntity
  8
0
100
AcDbSpline
 62
7
  6
CONTINUOUS
 70
0
 71
3
 72
35
 73
31
 74
0
 42
0.0000001
 43
0.0000001
 44
0.0000000001
 40
0.0
 40
0.0
 40
0.0
 40
0.0
 40
0.0908341181
 40
0.1814355704
 40
0.270765597
 40
0.3578218622
 40
0.4416687016
 40
0.5214542308
 40
0.5595860147
 40
0.5964284467
 40
0.6319042243
 40
0.6659436865
 40
0.6984849134
 40
0.7294735079
 40
0.7588640156
 40
0.7866196902
 40
0.8127135392
 40
0.8371300098
 40
0.859865791
 40
0.8809330722
 40
0.900362542
 40
0.9182080508
 40
0.9345538276
 40
0.9495224534
 40
0.9632858834
 40
0.9760755057
 40
0.982200989
 40
0.9881993226
 40
0.994116343
 40
1.0
 40
1.0
 40
1.0
 40
1.0
 10
11.1043080953
 20
9.8870939526
 30
0.0
 10
11.0998584097
 20
9.8869931949
 30
0.0
 10
11.0909669811
 20
9.8869214572
 30
0.0
 10
11.0777006936
 20
9.8871962264
 30
0.0
 10
11.0646327492
 20
9.8878479074
 30
0.0
 10
11.0519201024
 20
9.8888657579
 30
0.0
 10
11.0397107959
 20
9.8902339384
 30
0.0
 10
11.0299268791
 20
9.8916697716
 30
0.0
 10
11.0224583966
 20
9.8929859571
 30
0.0
 10
11.0171480753
 20
9.8940321261
 30
0.0
 10
11.0120572052
 20
9.8951487755
 30
0.0
 10
11.0071980875
 20
9.8963323705
 30
0.0
 10
11.0025821384
 20
9.8975792188
 30
0.0
 10
10.9982198916
 20
9.8988856032
 30
0.0
 10
10.9941210064
 20
9.9002476641
 30
0.0
 10
10.9902942967
 20
9.9016615278
 30
0.0
 10
10.986747758
 20
9.9031233057
 30
0.0
 10
10.9834885597
 20
9.9046290364
 30
0.0
 10
10.980523105
 20
9.9061748661
 30
0.0
 10
10.9778570153
 20
9.907756958
 30
0.0
 10
10.9754951685
 20
9.9093716205
 30
0.0
 10
10.9734418072
 20
9.9110154905
 30
0.0
 10
10.9717005922
 20
9.9126854429
 30
0.0
 10
10.9702750036
 20
9.9143791632
 30
0.0
 10
10.9691689143
 20
9.9160940907
 30
0.0
 10
10.9685080012
 20
9.9175609605
 30
0.0
 10
10.9681542313
 20
9.918730774
 30
0.0
 10
10.9679745472
 20
9.919597606
 30
0.0
 10
10.9678770874
 20
9.9204655005
 30
0.0
 10
10.9678670536
 20
9.9210446647
 30
0.0
 10
10.9678757083
 20
9.921332831
 30
0.0
  0
SPLINE
  5
368
100
AcDbEntity
  8
0
100
AcDbSpline
 62
7
  6
CONTINUOUS
 70
0
 71
3
 72
31
 73
27
 74
0
 42
0.0000001
 43
0.0000001
 44
0.0000000001
 40
0.0
 40
0.0
 40
0.0
 40
0.0
 40
0.0958332694
 40
0.1891085569
 40
0.2792505589
 40
0.3657227067
 40
0.4480141784
 40
0.5256562668
 40
0.5982258803
 40
0.665355985
 40
0.6967872687
 40
0.7267533121
 40
0.755229545
 40
0.7821994697
 40
0.8076534321
 40
0.8315919435
 40
0.854026311
 40
0.8749814005
 40
0.8944992237
 40
0.9126416298
 40
0.9294970449
 40
0.9451840948
 40
0.9598595209
 40
0.9737210632
 40
0.9870091699
 40
1.0
 40
1.0
 40
1.0
 40
1.0
 10
10.24340866
 20
9.7412347617
 30
0.0
 10
10.2413771262
 20
9.741375649
 30
0.0
 10
10.2373712142
 20
9.7416983513
 30
0.0
 10
10.2314687619
 20
9.7423143156
 30
0.0
 10
10.2257807856
 20
9.7430525088
 30
0.0
 10
10.2203453183
 20
9.7439078527
 30
0.0
 10
10.2151984714
 20
9.7448745619
 30
0.0
 10
10.2103744164
 20
9.7459460087
 30
0.0
 10
10.2059051911
 20
9.7471149285
 30
0.0
 10
10.202428393
 20
9.7481857492
 30
0.0
 10
10.1998513057
 20
9.7490909693
 30
0.0
 10
10.1980676618
 20
9.7497742816
 30
0.0
 10
10.1963934183
 20
9.7504758394
 30
0.0
 10
10.1948313083
 20
9.751194436
 30
0.0
 10
10.1933838941
 20
9.7519289362
 30
0.0
 10
10.1920535108
 20
9.7526781184
 30
0.0
 10
10.1908422895
 20
9.7534407989
 30
0.0
 10
10.1897521676
 20
9.7542158316
 30
0.0
 10
10.1887848286
 20
9.7550020358
 30
0.0
 10
10.1879418616
 20
9.7557984235
 30
0.0
 10
10.1872245935
 20
9.7566039345
 30
0.0
 10
10.186634457
 20
9.7574177774
 30
0.0
 10
10.1861727775
 20
9.7582389942
 30
0.0
 10
10.1858411848
 20
9.75906669
 30
0.0
 10
10.1856412861
 20
9.7598990759
 30
0.0
 10
10.18559654
 20
9.7604584517
 30
0.0
 10
10.1855965335
 20
9.7607345009
 30
0.0
  0
SPLINE
  5
369
100
AcDbEntity
  8
0
100
AcDbSpline
 62
7
  6
CONTINUOUS
 70
0
 71
3
 72
42
 73
38
 74
0
 42
0.0000001
 43
0.0000001
 44
0.0000000001
 40
0.0
 40
0.0
 40
0.0
 40
0.0
 40
0.0311444614
 40
0.0467771749
 40
0.0624471243
 40
0.0938918364
 40
0.1254739609
 40
0.1571813407
 40
0.1889991953
 40
0.220910588
 40
0.2528967324
 40
0.2849373871
 40
0.3170112522
 40
0.3490963865
 40
0.3811706317
 40
0.4132120391
 40
0.4451992945
 40
0.4771121343
 40
0.508931746
 40
0.54064115
 40
0.572225553
 40
0.6036726688
 40
0.634972998
 40
0.6661200609
 40
0.6971105755
 40
0.7279445747
 40
0.758625456
 40
0.7891599579
 40
0.8195580604
 40
0.8498328062
 40
0.864931572
 40
0.8800056552
 40
0.9100837089
 40
0.9400929741
 40
0.955081501
 40
0.9700611858
 40
1.0
 40
1.0
 40
1.0
 40
1.0
 10
9.8323435503
 20
8.8918088653
 30
0.0
 10
9.8379100748
 20
8.8914228256
 30
0.0
 10
9.8462535573
 20
8.890537634
 30
0.0
 10
9.8573010746
 20
8.8887587574
 30
0.0
 10
9.8683310507
 20
8.8865748416
 30
0.0
 10
9.8820080433
 20
8.8830967629
 30
0.0
 10
9.8981337505
 20
8.8777581798
 30
0.0
 10
9.9139081236
 20
8.8712780563
 30
0.0
 10
9.9292465846
 20
8.8636911388
 30
0.0
 10
9.9440675397
 20
8.8550379524
 30
0.0
 10
9.9582919825
 20
8.8453647034
 30
0.0
 10
9.9718441341
 20
8.8347230073
 30
0.0
 10
9.9846517807
 20
8.8231696208
 30
0.0
 10
9.9966466708
 20
8.8107661405
 30
0.0
 10
10.0077648707
 20
8.7975786779
 30
0.0
 10
10.0179471034
 20
8.7836775105
 30
0.0
 10
10.0271390606
 20
8.7691367109
 30
0.0
 10
10.0352916912
 20
8.7540337566
 30
0.0
 10
10.0423614601
 20
8.7384491222
 30
0.0
 10
10.0483105802
 20
8.7224658552
 30
0.0
 10
10.0531072139
 20
8.7061691403
 30
0.0
 10
10.0567256441
 20
8.6896458502
 30
0.0
 10
10.059146414
 20
8.6729840899
 30
0.0
 10
10.0603564348
 20
8.6562727319
 30
0.0
 10
10.0603490631
 20
8.639600952
 30
0.0
 10
10.0591241363
 20
8.6230577419
 30
0.0
 10
10.0566880138
 20
8.6067315017
 30
0.0
 10
10.0530534343
 20
8.5907093307
 30
0.0
 10
10.048239901
 20
8.5750774479
 30
0.0
 10
10.0432619067
 20
8.5624321688
 30
0.0
 10
10.0387192214
 20
8.5525985125
 30
0.0
 10
10.0338168023
 20
8.5429786659
 30
0.0
 10
10.0270100619
 20
8.5313429632
 30
0.0
 10
10.0193278559
 20
8.5202842805
 30
0.0
 10
10.0126893298
 20
8.5118312769
 30
0.0
 10
10.005734081
 20
8.5036542128
 30
0.0
 10
10.0001617342
 20
8.4978328231
 30
0.0
 10
9.9963037327
 20
8.4941062798
 30
0.0
  0
SPLINE
  5
36A
100
AcDbEntity
  8
0
100
AcDbSpline
 62
7
  6
CONTINUOUS
 70
0
 71
3
 72
42
 73
38
 74
0
 42
0.0000001
 43
0.0000001
 44
0.0000000001
 40
0.0
 40
0.0
 40
0.0
 40
0.0
 40
0.0311444614
 40
0.0467771749
 40
0.0624471243
 40
0.0938918364
 40
0.1254739609
 40
0.1571813407
 40
0.1889991953
 40
0.220910588
 40
0.2528967324
 40
0.2849373871
 40
0.3170112522
 40
0.3490963865
 40
0.3811706317
 40
0.4132120391
 40
0.4451992945
 40
0.4771121343
 40
0.508931746
 40
0.54064115
 40
0.572225553
 40
0.6036726688
 40
0.634972998
 40
0.6661200609
 40
0.6971105755
 40
0.7279445747
 40
0.758625456
 40
0.7891599579
 40
0.8195580604
 40
0.8498328062
 40
0.864931572
 40
0.8800056552
 40
0.9100837089
 40
0.9400929741
 40
0.955081501
 40
0.9700611858
 40
1.0
 40
1.0
 40
1.0
 40
1.0
 10
10.5558219919
 20
7.9278695698
 30
0.0
 10
10.5613885164
 20
7.92748353
 30
0.0
 10
10.5697319989
 20
7.9265983384
 30
0.0
 10
10.5807795162
 20
7.9248194618
 30
0.0
 10
10.5918094923
 20
7.922635546
 30
0.0
 10
10.6054864849
 20
7.9191574673
 30
0.0
 10
10.6216121921
 20
7.9138188842
 30
0.0
 10
10.6373865652
 20
7.9073387607
 30
0.0
 10
10.6527250262
 20
7.8997518432
 30
0.0
 10
10.6675459813
 20
7.8910986568
 30
0.0
 10
10.6817704241
 20
7.8814254078
 30
0.0
 10
10.6953225758
 20
7.8707837118
 30
0.0
 10
10.7081302223
 20
7.8592303252
 30
0.0
 10
10.7201251124
 20
7.8468268449
 30
0.0
 10
10.7312433124
 20
7.8336393823
 30
0.0
 10
10.741425545
 20
7.8197382149
 30
0.0
 10
10.7506175023
 20
7.8051974153
 30
0.0
 10
10.7587701328
 20
7.7900944611
 30
0.0
 10
10.7658399017
 20
7.7745098266
 30
0.0
 10
10.7717890218
 20
7.7585265596
 30
0.0
 10
10.7765856555
 20
7.7422298447
 30
0.0
 10
10.7802040857
 20
7.7257065546
 30
0.0
 10
10.7826248556
 20
7.7090447943
 30
0.0
 10
10.7838348764
 20
7.6923334363
 30
0.0
 10
10.7838275047
 20
7.6756616564
 30
0.0
 10
10.7826025779
 20
7.6591184463
 30
0.0
 10
10.7801664555
 20
7.6427922061
 30
0.0
 10
10.7765318759
 20
7.6267700351
 30
0.0
 10
10.7717183426
 20
7.6111381523
 30
0.0
 10
10.7667403483
 20
7.5984928732
 30
0.0
 10
10.7621976631
 20
7.5886592169
 30
0.0
 10
10.7572952439
 20
7.5790393703
 30
0.0
 10
10.7504885035
 20
7.5674036676
 30
0.0
 10
10.7428062975
 20
7.556344985
 30
0.0
 10
10.7361677714
 20
7.5478919813
 30
0.0
 10
10.7292125226
 20
7.5397149172
 30
0.0
 10
10.7236401758
 20
7.5338935275
 30
0.0
 10
10.7197821743
 20
7.5301669842
 30
0.0
  0
SPLINE
  5
36B
100
AcDbEntity
  8
0
100
AcDbSpline
 62
7
  6
CONTINUOUS
 70
0
 71
3
 72
23
 73
19
 74
0
 42
0.0000001
 43
0.0000001
 44
0.0000000001
 40
0.0
 40
0.0
 40
0.0
 40
0.0
 40
0.0638611429
 40
0.1275033697
 40
0.1909230193
 40
0.2541276602
 40
0.3171224166
 40
0.3799159195
 40
0.4425188183
 40
0.5049436681
 40
0.5672049987
 40
0.6293190785
 40
0.6913037901
 40
0.7531784362
 40
0.8149635271
 40
0.8766805602
 40
0.9383517934
 40
1.0
 40
1.0
 40
1.0
 40
1.0
 10
11.3463234996
 20
10.5880798116
 30
0.0
 10
11.3402771174
 20
10.5884991296
 30
0.0
 10
11.3281819882
 20
10.5890354908
 30
0.0
 10
11.3100549515
 20
10.5889274998
 30
0.0
 10
11.2920182761
 20
10.5879056683
 30
0.0
 10
11.2741182331
 20
10.5859727476
 30
0.0
 10
11.2563995019
 20
10.583133369
 30
0.0
 10
11.2389068214
 20
10.5793947015
 30
0.0
 10
11.2216842073
 20
10.5747661309
 30
0.0
 10
11.2047750384
 20
10.5692592564
 30
0.0
 10
11.1882219209
 20
10.5628878835
 30
0.0
 10
11.1720665634
 20
10.5556680135
 30
0.0
 10
11.1563496632
 20
10.5476178321
 30
0.0
 10
11.141110814
 20
10.5387575821
 30
0.0
 10
11.1263884648
 20
10.5291095777
 30
0.0
 10
11.1122196058
 20
10.5186979669
 30
0.0
 10
11.0986404176
 20
10.5075494525
 30
0.0
 10
11.0900017909
 20
10.4996429525
 30
0.0
 10
11.0857935277
 20
10.4955780635
 30
0.0
  0
SPLINE
  5
36C
100
AcDbEntity
  8
0
100
AcDbSpline
 62
7
  6
CONTINUOUS
 70
0
 71
3
 72
35
 73
31
 74
0
 42
0.0000001
 43
0.0000001
 44
0.0000000001
 40
0.0
 40
0.0
 40
0.0
 40
0.0
 40
0.030601779
 40
0.0613085508
 40
0.0921159899
 40
0.123023423
 40
0.1540269411
 40
0.18512231
 40
0.2163044716
 40
0.2475674952
 40
0.2789047587
 40
0.3103089602
 40
0.3417722066
 40
0.3732860852
 40
0.4364132452
 40
0.49963238
 40
0.5628654243
 40
0.6260338285
 40
0.6575781427
 40
0.6890780408
 40
0.7205247869
 40
0.751910111
 40
0.783226283
 40
0.8144662037
 40
0.84562342
 40
0.8766923106
 40
0.9076680406
 40
0.9385460661
 40
0.9693250576
 40
1.0
 40
1.0
 40
1.0
 40
1.0
 10
12.553730854
 20
10.1421236209
 30
0.0
 10
12.553730854
 20
10.148059837
 30
0.0
 10
12.5534383347
 20
10.1599546563
 30
0.0
 10
12.5521285815
 20
10.1777822002
 30
0.0
 10
12.5499500041
 20
10.1955846525
 30
0.0
 10
12.5469081637
 20
10.2133182959
 30
0.0
 10
12.543010221
 20
10.2309408062
 30
0.0
 10
12.5382656813
 20
10.2484096393
 30
0.0
 10
12.5326860144
 20
10.2656827748
 30
0.0
 10
12.5262846618
 20
10.282718623
 30
0.0
 10
12.5190770111
 20
10.2994761899
 30
0.0
 10
12.5110805505
 20
10.3159150491
 30
0.0
 10
12.502314258
 20
10.3319960393
 30
0.0
 10
12.4896229763
 20
10.3529166598
 30
0.0
 10
12.4719430366
 20
10.3779769411
 30
0.0
 10
12.4480470061
 20
10.4059967244
 30
0.0
 10
12.4216839848
 20
10.4317203905
 30
0.0
 10
12.3978521763
 20
10.4510505478
 30
0.0
 10
12.3778137949
 20
10.4651300299
 30
0.0
 10
12.3623407791
 20
10.4749692648
 30
0.0
 10
12.3464565271
 20
10.4840671863
 30
0.0
 10
12.3301988839
 20
10.4924021943
 30
0.0
 10
12.313607063
 20
10.4999540834
 30
0.0
 10
12.2967209908
 20
10.5067046999
 30
0.0
 10
12.2795813238
 20
10.5126377852
 30
0.0
 10
12.2622292859
 20
10.5177390129
 30
0.0
 10
12.24470676
 20
10.5219959753
 30
0.0
 10
12.2270555729
 20
10.5253986131
 30
0.0
 10
12.2093190487
 20
10.5279383626
 30
0.0
 10
12.1974447986
 20
10.5290543491
 30
0.0
 10
12.1915086477
 20
10.5294660225
 30
0.0
  0
SPLINE
  5
36D
100
AcDbEntity
  8
0
100
AcDbSpline
 62
7
  6
CONTINUOUS
 70
0
 71
3
 72
39
 73
35
 74
0
 42
0.0000001
 43
0.0000001
 44
0.0000000001
 40
0.0
 40
0.0
 40
0.0
 40
0.0
 40
0.0311124859
 40
0.0623744448
 40
0.0937804148
 40
0.1253212199
 40
0.1569854887
 40
0.188759365
 40
0.2206269393
 40
0.252570537
 40
0.2845710666
 40
0.3166083818
 40
0.3486616579
 40
0.380709776
 40
0.4127317119
 40
0.4447069237
 40
0.4766157335
 40
0.508439698
 40
0.540161961
 40
0.5717675854
 40
0.6032438567
 40
0.634580554
 40
0.6657701819
 40
0.6968081549
 40
0.7276929311
 40
0.7584260876
 40
0.7890123346
 40
0.8194594627
 40
0.8497782219
 40
0.8799821288
 40
0.9100872053
 40
0.9401116527
 40
0.9700754662
 40
1.0
 40
1.0
 40
1.0
 40
1.0
 10
10.2318256987
 20
7.4822287712
 30
0.0
 10
10.2420914806
 20
7.4815168368
 30
0.0
 10
10.2626287577
 20
7.4793555384
 30
0.0
 10
10.2931952874
 20
7.4739437196
 30
0.0
 10
10.3234493706
 20
7.4663816313
 30
0.0
 10
10.3532350418
 20
7.4567080436
 30
0.0
 10
10.3824012271
 20
7.4449724773
 30
0.0
 10
10.410799408
 20
7.4312348369
 30
0.0
 10
10.4382851579
 20
7.4155652001
 30
0.0
 10
10.4647186618
 20
7.3980434407
 30
0.0
 10
10.4899654769
 20
7.3787588227
 30
0.0
 10
10.5138971855
 20
7.3578095379
 30
0.0
 10
10.5363920464
 20
7.335302213
 30
0.0
 10
10.5573356062
 20
7.3113513722
 30
0.0
 10
10.5766212728
 20
7.2860788587
 30
0.0
 10
10.5941508647
 20
7.2596132312
 30
0.0
 10
10.6098351121
 20
7.2320891157
 30
0.0
 10
10.6235940924
 20
7.2036465169
 30
0.0
 10
10.6353576375
 20
7.1744301176
 30
0.0
 10
10.6450656894
 20
7.1445885526
 30
0.0
 10
10.6526686063
 20
7.1142736625
 30
0.0
 10
10.6581274226
 20
7.0836397334
 30
0.0
 10
10.6614140731
 20
7.0528427234
 30
0.0
 10
10.6625115188
 20
7.0220394718
 30
0.0
 10
10.661413847
 20
6.9913869112
 30
0.0
 10
10.6581263135
 20
6.9610412764
 30
0.0
 10
10.6526653331
 20
6.9311573145
 30
0.0
 10
10.6450584077
 20
6.9018874951
 30
0.0
 10
10.6353440426
 20
6.8733812371
 30
0.0
 10
10.6235714986
 20
6.8457840876
 30
0.0
 10
10.6098007325
 20
6.8192371669
 30
0.0
 10
10.5941014379
 20
6.7938757026
 30
0.0
 10
10.5765551801
 20
6.769831036
 30
0.0
 10
10.5636769667
 20
6.7547507375
 30
0.0
 10
10.5569662354
 20
6.7474756382
 30
0.0
  0
SPLINE
  5
36E
100
AcDbEntity
  8
0
100
AcDbSpline
 62
7
  6
CONTINUOUS
 70
0
 71
3
 72
15
 73
11
 74
0
 42
0.0000001
 43
0.0000001
 44
0.0000000001
 40
0.0
 40
0.0
 40
0.0
 40
0.0
 40
0.1268426297
 40
0.2531164482
 40
0.378831821
 40
0.5040068305
 40
0.6286699215
 40
0.7528581391
 40
0.876617078
 40
1.0
 40
1.0
 40
1.0
 40
1.0
 10
10.2318256987
 20
7.4822287712
 30
0.0
 10
10.2225577086
 20
7.4828715085
 30
0.0
 10
10.2040163213
 20
7.4835594838
 30
0.0
 10
10.1762618361
 20
7.4827832833
 30
0.0
 10
10.14873815
 20
7.4802001023
 30
0.0
 10
10.1215621659
 20
7.4758203894
 30
0.0
 10
10.0948476848
 20
7.4696624378
 30
0.0
 10
10.0687065566
 20
7.4617516641
 30
0.0
 10
10.0432500598
 20
7.4521218554
 30
0.0
 10
10.0267806657
 20
7.4445706856
 30
0.0
 10
10.0187003031
 20
7.4405243962
 30
0.0
  0
SPLINE
  5
36F
100
AcDbEntity
  8
0
100
AcDbSpline
 62
7
  6
CONTINUOUS
 70
0
 71
3
 72
41
 73
37
 74
0
 42
0.0000001
 43
0.0000001
 44
0.0000000001
 40
0.0
 40
0.0
 40
0.0
 40
0.0
 40
0.0312232297
 40
0.0625934283
 40
0.0941040902
 40
0.1257445021
 40
0.1575016824
 40
0.1734216758
 40
0.189364962
 40
0.2213079165
 40
0.2533163438
 40
0.2693411484
 40
0.2853747263
 40
0.3174531252
 40
0.349534714
 40
0.3815980832
 40
0.4136221632
 40
0.4455866193
 40
0.477472237
 40
0.5092612927
 40
0.5409379038
 40
0.5724883515
 40
0.603901372
 40
0.6351684083
 40
0.666283817
 40
0.6972450241
 40
0.7280526226
 40
0.7587104075
 40
0.7892253434
 40
0.8196074606
 40
0.8498696795
 40
0.8800275624
 40
0.9100989962
 40
0.9401038132
 40
0.9700633561
 40
1.0
 40
1.0
 40
1.0
 40
1.0
 10
10.4510812186
 20
8.6541049079
 30
0.0
 10
10.4592522771
 20
8.6532233639
 30
0.0
 10
10.4755755905
 20
8.6508708997
 30
0.0
 10
10.4998011728
 20
8.6456156875
 30
0.0
 10
10.5237076887
 20
8.6386522823
 30
0.0
 10
10.5471697954
 20
8.6300171612
 30
0.0
 10
10.5662376811
 20
8.6214711169
 30
0.0
 10
10.5811515274
 20
8.6138489801
 30
0.0
 10
10.5958405195
 20
8.6057005594
 30
0.0
 10
10.6137018568
 20
8.5945679391
 30
0.0
 10
10.630788828
 20
8.5822433868
 30
0.0
 10
10.643953348
 20
8.5716998898
 30
0.0
 10
10.656770276
 20
8.5607082551
 30
0.0
 10
10.6720940725
 20
8.5461663129
 30
0.0
 10
10.6892689342
 20
8.5275262806
 30
0.0
 10
10.7051471293
 20
8.5077876118
 30
0.0
 10
10.7196461971
 20
8.4870525178
 30
0.0
 10
10.7326914642
 20
8.4654277607
 30
0.0
 10
10.7442155335
 20
8.4430248403
 30
0.0
 10
10.7541588738
 20
8.4199592326
 30
0.0
 10
10.7624700606
 20
8.3963498523
 30
0.0
 10
10.7691060568
 20
8.3723184319
 30
0.0
 10
10.7740324321
 20
8.347988907
 30
0.0
 10
10.7772235461
 20
8.3234867839
 30
0.0
 10
10.7786626862
 20
8.2989385017
 30
0.0
 10
10.7783421618
 20
8.2744707866
 30
0.0
 10
10.7762633545
 20
8.2502100054
 30
0.0
 10
10.7724367237
 20
8.2262815163
 30
0.0
 10
10.7668817658
 20
8.2028090253
 30
0.0
 10
10.7596269304
 20
8.1799139411
 30
0.0
 10
10.7507094987
 20
8.1577147522
 30
0.0
 10
10.740175359
 20
8.1363263667
 30
0.0
 10
10.7280789371
 20
8.1158596534
 30
0.0
 10
10.7144823449
 20
8.0964203033
 30
0.0
 10
10.6994572132
 20
8.0781103082
 30
0.0
 10
10.6885352182
 20
8.0667151885
 30
0.0
 10
10.6828676318
 20
8.061240695
 30
0.0
  0
SPLINE
  5
370
100
AcDbEntity
  8
0
100
AcDbSpline
 62
7
  6
CONTINUOUS
 70
0
 71
3
 72
11
 73
7
 74
0
 42
0.0000001
 43
0.0000001
 44
0.0000000001
 40
0.0
 40
0.0
 40
0.0
 40
0.0
 40
0.2480842715
 40
0.4974916194
 40
0.748163012
 40
1.0
 40
1.0
 40
1.0
 40
1.0
 10
10.4554988256
 20
8.6492581296
 30
0.0
 10
10.4639474879
 20
8.6486722129
 30
0.0
 10
10.4808504967
 20
8.646823215
 30
0.0
 10
10.5059683818
 20
8.6420615086
 30
0.0
 10
10.5307653355
 20
8.6353349827
 30
0.0
 10
10.5469463708
 20
8.629579908
 30
0.0
 10
10.5549311479
 20
8.6263935589
 30
0.0
  0
SPLINE
  5
371
100
AcDbEntity
  8
0
100
AcDbSpline
 62
7
  6
CONTINUOUS
 70
0
 71
3
 72
25
 73
21
 74
0
 42
0.0000001
 43
0.0000001
 44
0.0000000001
 40
0.0
 40
0.0
 40
0.0
 40
0.0
 40
0.0645194669
 40
0.0966880976
 40
0.1287891155
 40
0.1927693734
 40
0.256454095
 40
0.2881872024
 40
0.3198432434
 40
0.3829134852
 40
0.4456769124
 40
0.508142046
 40
0.5703235116
 40
0.6322418225
 40
0.6939230264
 40
0.7553982196
 40
0.816702933
 40
0.8778764016
 40
0.9389607338
 40
1.0
 40
1.0
 40
1.0
 40
1.0
 10
10.7524862531
 20
8.4235206282
 30
0.0
 10
10.7551267675
 20
8.4163610297
 30
0.0
 10
10.758724012
 20
8.4054936733
 30
0.0
 10
10.7627671364
 20
8.3908054009
 30
0.0
 10
10.7662920814
 20
8.3760492145
 30
0.0
 10
10.7697358959
 20
8.3574534077
 30
0.0
 10
10.7718807725
 20
8.3387068046
 30
0.0
 10
10.7728043145
 20
8.3237028961
 30
0.0
 10
10.7731990108
 20
8.3087485735
 30
0.0
 10
10.7727060501
 20
8.2901111639
 30
0.0
 10
10.7705322803
 20
8.2679278864
 30
0.0
 10
10.7667877295
 20
8.2460609673
 30
0.0
 10
10.7614908041
 20
8.224620189
 30
0.0
 10
10.7546677136
 20
8.2037123975
 30
0.0
 10
10.7463523057
 20
8.1834420636
 30
0.0
 10
10.7365858874
 20
8.1639104292
 30
0.0
 10
10.7254171602
 20
8.1452151997
 30
0.0
 10
10.7129014777
 20
8.1274495335
 30
0.0
 10
10.699102459
 20
8.1107033883
 30
0.0
 10
10.6890893464
 20
8.1002706958
 30
0.0
 10
10.6838967742
 20
8.0952550535
 30
0.0
  0
SPLINE
  5
372
100
AcDbEntity
  8
0
100
AcDbSpline
 62
7
  6
CONTINUOUS
 70
0
 71
3
 72
15
 73
11
 74
0
 42
0.0000001
 43
0.0000001
 44
0.0000000001
 40
0.0
 40
0.0
 40
0.0
 40
0.0
 40
0.1266994504
 40
0.2527689948
 40
0.3782639741
 40
0.5032546845
 40
0.6278247195
 40
0.7520688914
 40
0.8760907826
 40
1.0
 40
1.0
 40
1.0
 40
1.0
 10
10.7729062864
 20
8.31524896
 30
0.0
 10
10.7718926372
 20
8.3081654238
 30
0.0
 10
10.7693055329
 20
8.2941075248
 30
0.0
 10
10.763749925
 20
8.2734558874
 30
0.0
 10
10.756562375
 20
8.2534147132
 30
0.0
 10
10.7477870536
 20
8.2341092142
 30
0.0
 10
10.7374777829
 20
8.2156580252
 30
0.0
 10
10.7256975155
 20
8.198174693
 30
0.0
 10
10.7125200847
 20
8.1817683958
 30
0.0
 10
10.7028528715
 20
8.1716114318
 30
0.0
 10
10.6978194366
 20
8.1667495329
 30
0.0
  0
SPLINE
  5
373
100
AcDbEntity
  8
0
100
AcDbSpline
 62
7
  6
CONTINUOUS
 70
0
 71
3
 72
23
 73
19
 74
0
 42
0.0000001
 43
0.0000001
 44
0.0000000001
 40
0.0
 40
0.0
 40
0.0
 40
0.0
 40
0.0959269141
 40
0.1885011685
 40
0.2771886086
 40
0.3615598188
 40
0.4412644517
 40
0.5160511903
 40
0.5857622595
 40
0.6503321211
 40
0.7097806207
 40
0.7642059998
 40
0.8137821473
 40
0.858755341
 40
0.8994389761
 40
0.9362196711
 40
0.969560223
 40
1.0
 40
1.0
 40
1.0
 40
1.0
 10
10.6091462457
 20
8.1406374489
 30
0.0
 10
10.6078057085
 20
8.1403959915
 30
0.0
 10
10.6051632392
 20
8.1399658034
 30
0.0
 10
10.6012573905
 20
8.1394732575
 30
0.0
 10
10.5974990218
 20
8.1391435122
 30
0.0
 10
10.5939129358
 20
8.1389734003
 30
0.0
 10
10.5905201626
 20
8.1389571715
 30
0.0
 10
10.5873380735
 20
8.1390868092
 30
0.0
 10
10.5843800686
 20
8.1393526053
 30
0.0
 10
10.5816557387
 20
8.1397436344
 30
0.0
 10
10.5791711238
 20
8.1402483218
 30
0.0
 10
10.5769290802
 20
8.1408548944
 30
0.0
 10
10.5749296695
 20
8.1415517002
 30
0.0
 10
10.5731706406
 20
8.1423276221
 30
0.0
 10
10.5716479822
 20
8.1431722938
 30
0.0
 10
10.5703562419
 20
8.1440763896
 30
0.0
 10
10.5692896611
 20
8.145031188
 30
0.0
 10
10.5687009974
 20
8.1457244213
 30
0.0
 10
10.5684483484
 20
8.14607512
 30
0.0
  0
SPLINE
  5
374
100
AcDbEntity
  8
0
100
AcDbSpline
 62
7
  6
CONTINUOUS
 70
0
 71
3
 72
23
 73
19
 74
0
 42
0.0000001
 43
0.0000001
 44
0.0000000001
 40
0.0
 40
0.0
 40
0.0
 40
0.0
 40
0.0638611429
 40
0.1275033697
 40
0.1909230193
 40
0.2541276602
 40
0.3171224166
 40
0.3799159195
 40
0.4425188183
 40
0.5049436681
 40
0.5672049987
 40
0.6293190785
 40
0.6913037901
 40
0.7531784362
 40
0.8149635271
 40
0.8766805602
 40
0.9383517934
 40
1.0
 40
1.0
 40
1.0
 40
1.0
 10
10.4379694582
 20
8.6552667996
 30
0.0
 10
10.4322858588
 20
8.6556609586
 30
0.0
 10
10.4209164374
 20
8.656165138
 30
0.0
 10
10.4038770229
 20
8.6560636265
 30
0.0
 10
10.3869225481
 20
8.6551031049
 30
0.0
 10
10.3700965077
 20
8.6532861595
 30
0.0
 10
10.3534409003
 20
8.6506171436
 30
0.0
 10
10.3369977807
 20
8.6471027961
 30
0.0
 10
10.3208085234
 20
8.6427519397
 30
0.0
 10
10.3049139047
 20
8.6375754777
 30
0.0
 10
10.2893539742
 20
8.6315863872
 30
0.0
 10
10.2741679382
 20
8.6247997094
 30
0.0
 10
10.2593940519
 20
8.6172325389
 30
0.0
 10
10.2450695337
 20
8.6089039039
 30
0.0
 10
10.2312305255
 20
8.5998347797
 30
0.0
 10
10.217911798
 20
8.5900478656
 30
0.0
 10
10.2051473611
 20
8.5795682621
 30
0.0
 10
10.197027052
 20
8.572136152
 30
0.0
 10
10.1930712846
 20
8.5683151564
 30
0.0
  0
SPLINE
  5
375
100
AcDbEntity
  8
0
100
AcDbSpline
 62
7
  6
CONTINUOUS
 70
0
 71
3
 72
23
 73
19
 74
0
 42
0.0000001
 43
0.0000001
 44
0.0000000001
 40
0.0
 40
0.0
 40
0.0
 40
0.0
 40
0.0638609742
 40
0.1275034352
 40
0.1909230191
 40
0.2541276449
 40
0.3171224247
 40
0.3799159145
 40
0.4425188174
 40
0.5049436698
 40
0.5672049969
 40
0.6293190749
 40
0.6913037881
 40
0.7531784374
 40
0.8149635266
 40
0.876680556
 40
0.9383517894
 40
1.0
 40
1.0
 40
1.0
 40
1.0
 10
10.4554988256
 20
8.6492581296
 30
0.0
 10
10.4501981778
 20
8.6496257308
 30
0.0
 10
10.4395947756
 20
8.650095935
 30
0.0
 10
10.4237034068
 20
8.6500012718
 30
0.0
 10
10.407891242
 20
8.6491054648
 30
0.0
 10
10.3921988757
 20
8.6474109381
 30
0.0
 10
10.376665456
 20
8.6449217434
 30
0.0
 10
10.361330205
 20
8.641644179
 30
0.0
 10
10.3462317116
 20
8.6375864742
 30
0.0
 10
10.3314080057
 20
8.6327587824
 30
0.0
 10
10.316896446
 20
8.6271731958
 30
0.0
 10
10.302733581
 20
8.6208437816
 30
0.0
 10
10.2889550928
 20
8.6137864666
 30
0.0
 10
10.2755956986
 20
8.6060189847
 30
0.0
 10
10.2626891195
 20
8.5975608801
 30
0.0
 10
10.2502677527
 20
8.5884333708
 30
0.0
 10
10.2383633151
 20
8.5786598582
 30
0.0
 10
10.2307901285
 20
8.5717284826
 30
0.0
 10
10.2271008769
 20
8.5681649372
 30
0.0
  0
SPLINE
  5
376
100
AcDbEntity
  8
0
100
AcDbSpline
 62
7
  6
CONTINUOUS
 70
0
 71
3
 72
15
 73
11
 74
0
 42
0.0000001
 43
0.0000001
 44
0.0000000001
 40
0.0
 40
0.0
 40
0.0
 40
0.0
 40
0.1267132921
 40
0.2527918151
 40
0.3782913234
 40
0.5032823375
 40
0.6278489817
 40
0.7520867998
 40
0.8761002681
 40
1.0
 40
1.0
 40
1.0
 40
1.0
 10
10.4508656881
 20
8.6495842706
 30
0.0
 10
10.4437136405
 20
8.6488347606
 30
0.0
 10
10.4294984397
 20
8.6467669395
 30
0.0
 10
10.4085516568
 20
8.6419593084
 30
0.0
 10
10.3881600477
 20
8.6354827218
 30
0.0
 10
10.3684521971
 20
8.6273772609
 30
0.0
 10
10.3495503704
 20
8.6176931192
 30
0.0
 10
10.3315719877
 20
8.6064899672
 30
0.0
 10
10.3146303758
 20
8.5938387409
 30
0.0
 10
10.3040923733
 20
8.5844867707
 30
0.0
 10
10.2990348938
 20
8.5796016467
 30
0.0
  0
SPLINE
  5
377
100
AcDbEntity
  8
0
100
AcDbSpline
 62
7
  6
CONTINUOUS
 70
0
 71
3
 72
35
 73
31
 74
0
 42
0.0000001
 43
0.0000001
 44
0.0000000001
 40
0.0
 40
0.0
 40
0.0
 40
0.0
 40
0.0306749424
 40
0.0614539339
 40
0.0923319594
 40
0.1233076894
 40
0.15437658
 40
0.1855337963
 40
0.216773717
 40
0.248089889
 40
0.2794752131
 40
0.3109219592
 40
0.3424218573
 40
0.3739661715
 40
0.4371345757
 40
0.50036762
 40
0.5635867548
 40
0.6267139148
 40
0.6582277934
 40
0.6896910398
 40
0.7210952413
 40
0.7524325048
 40
0.7836955284
 40
0.81487769
 40
0.8459730589
 40
0.876976577
 40
0.9078840101
 40
0.9386914492
 40
0.969398221
 40
1.0
 40
1.0
 40
1.0
 40
1.0
 10
9.8084913523
 20
6.4705339775
 30
0.0
 10
9.8025552014
 20
6.4709456509
 30
0.0
 10
9.7906809513
 20
6.4720616374
 30
0.0
 10
9.7729444271
 20
6.4746013869
 30
0.0
 10
9.75529324
 20
6.4780040247
 30
0.0
 10
9.7377707141
 20
6.4822609871
 30
0.0
 10
9.7204186762
 20
6.4873622148
 30
0.0
 10
9.7032790092
 20
6.4932953001
 30
0.0
 10
9.686392937
 20
6.5000459166
 30
0.0
 10
9.6698011161
 20
6.5075978057
 30
0.0
 10
9.6535434729
 20
6.5159328137
 30
0.0
 10
9.6376592209
 20
6.5250307352
 30
0.0
 10
9.6221862051
 20
6.5348699701
 30
0.0
 10
9.6021478237
 20
6.5489494522
 30
0.0
 10
9.5783160152
 20
6.5682796095
 30
0.0
 10
9.5519529939
 20
6.5940032756
 30
0.0
 10
9.5280569634
 20
6.6220230589
 30
0.0
 10
9.5103770237
 20
6.6470833402
 30
0.0
 10
9.497685742
 20
6.6680039607
 30
0.0
 10
9.4889194495
 20
6.6840849509
 30
0.0
 10
9.4809229889
 20
6.7005238101
 30
0.0
 10
9.4737153382
 20
6.717281377
 30
0.0
 10
9.4673139856
 20
6.7343172252
 30
0.0
 10
9.4617343187
 20
6.7515903607
 30
0.0
 10
9.456989779
 20
6.7690591938
 30
0.0
 10
9.4530918363
 20
6.7866817041
 30
0.0
 10
9.4500499959
 20
6.8044153475
 30
0.0
 10
9.4478714185
 20
6.8222177998
 30
0.0
 10
9.4465616653
 20
6.8400453437
 30
0.0
 10
9.446269146
 20
6.851940163
 30
0.0
 10
9.446269146
 20
6.8578763791
 30
0.0
  0
SPLINE
  5
378
100
AcDbEntity
  8
0
100
AcDbSpline
 62
7
  6
CONTINUOUS
 70
0
 71
3
 72
23
 73
19
 74
0
 42
0.0000001
 43
0.0000001
 44
0.0000000001
 40
0.0
 40
0.0
 40
0.0
 40
0.0
 40
0.0637765977
 40
0.1273450691
 40
0.1907019728
 40
0.2538560883
 40
0.3168132203
 40
0.3795820796
 40
0.4421733855
 40
0.5045993402
 40
0.566873864
 40
0.6290123768
 40
0.6910316495
 40
0.7529496457
 40
0.8147853522
 40
0.8765585995
 40
0.9382898533
 40
1.0
 40
1.0
 40
1.0
 40
1.0
 10
9.446269146
 20
8.766545925
 30
0.0
 10
9.446269146
 20
8.7723316625
 30
0.0
 10
9.4465460981
 20
8.7838862164
 30
0.0
 10
9.4477959955
 20
8.8011477361
 30
0.0
 10
9.4498771405
 20
8.8182724607
 30
0.0
 10
9.4527845157
 20
8.8352201053
 30
0.0
 10
9.4565116379
 20
8.8519519779
 30
0.0
 10
9.4610498749
 20
8.868429399
 30
0.0
 10
9.4663887834
 20
8.8846144039
 30
0.0
 10
9.4725161471
 20
8.9004696584
 30
0.0
 10
9.4794178632
 20
8.9159585897
 30
0.0
 10
9.4870780102
 20
8.9310454909
 30
0.0
 10
9.4954789536
 20
8.9456955586
 30
0.0
 10
9.5046013922
 20
8.9598749764
 30
0.0
 10
9.5144242491
 20
8.9735510144
 30
0.0
 10
9.5249249751
 20
8.9866922437
 30
0.0
 10
9.536078941
 20
8.9992679453
 30
0.0
 10
9.5439348069
 20
9.0072567984
 30
0.0
 10
9.5479613804
 20
9.0111461879
 30
0.0
  0
SPLINE
  5
379
100
AcDbEntity
  8
0
100
AcDbSpline
 62
7
  6
CONTINUOUS
 70
0
 71
3
 72
34
 73
30
 74
0
 42
0.0000001
 43
0.0000001
 44
0.0000000001
 40
0.0
 40
0.0
 40
0.0
 40
0.0
 40
0.005557894
 40
0.0111786647
 40
0.0169229746
 40
0.0228472065
 40
0.0354214771
 40
0.0492487627
 40
0.064566391
 40
0.0815324114
 40
0.1002444952
 40
0.1207557632
 40
0.1430856509
 40
0.1672279695
 40
0.1931568119
 40
0.2208299712
 40
0.2501917763
 40
0.2811755432
 40
0.3137047413
 40
0.3476942214
 40
0.3830516063
 40
0.419677827
 40
0.4963082546
 40
0.5766914083
 40
0.6598655715
 40
0.7448235145
 40
0.8305296316
 40
0.9159351011
 40
1.0
 40
1.0
 40
1.0
 40
1.0
 10
11.9161919665
 20
10.0012506716
 30
0.0
 10
11.9161919686
 20
10.0009797896
 30
0.0
 10
11.9161616548
 20
10.0004344883
 30
0.0
 10
11.9160255672
 20
9.9996194482
 30
0.0
 10
11.9157990194
 20
9.9988062095
 30
0.0
 10
11.915368689
 20
9.9977039712
 30
0.0
 10
11.9145873635
 20
9.9963257195
 30
0.0
 10
11.9133162942
 20
9.9947304852
 30
0.0
 10
11.9116998277
 20
9.9931619649
 30
0.0
 10
11.9097435526
 20
9.991623077
 30
0.0
 10
11.9074531577
 20
9.9901168801
 30
0.0
 10
11.9048353373
 20
9.9886474412
 30
0.0
 10
11.9018979779
 20
9.9872190578
 30
0.0
 10
11.898650172
 20
9.9858361724
 30
0.0
 10
11.8951021437
 20
9.9845032553
 30
0.0
 10
11.8912652235
 20
9.983224656
 30
0.0
 10
11.8871517726
 20
9.9820045632
 30
0.0
 10
11.8827751026
 20
9.9808470297
 30
0.0
 10
11.8781494363
 20
9.9797558864
 30
0.0
 10
11.8732898516
 20
9.978734735
 30
0.0
 10
11.8682121928
 20
9.9777869427
 30
0.0
 10
11.8610652279
 20
9.9766075344
 30
0.0
 10
11.8517095098
 20
9.9753483831
 30
0.0
 10
11.8400582303
 20
9.9741931128
 30
0.0
 10
11.8279708449
 20
9.973387462
 30
0.0
 10
11.8156053863
 20
9.9729422069
 30
0.0
 10
11.8031234139
 20
9.9728633923
 30
0.0
 10
11.7906881849
 20
9.9731520282
 30
0.0
 10
11.7824386762
 20
9.9735921161
 30
0.0
 10
11.7783513184
 20
9.9738755753
 30
0.0
  0
SPLINE
  5
37A
100
AcDbEntity
  8
0
100
AcDbSpline
 62
7
  6
CONTINUOUS
 70
0
 71
3
 72
34
 73
30
 74
0
 42
0.0000001
 43
0.0000001
 44
0.0000000001
 40
0.0
 40
0.0
 40
0.0
 40
0.0
 40
0.005557894
 40
0.0111786647
 40
0.0169229746
 40
0.0228472065
 40
0.0354214771
 40
0.0492487627
 40
0.064566391
 40
0.0815324114
 40
0.1002444952
 40
0.1207557632
 40
0.1430856509
 40
0.1672279695
 40
0.1931568119
 40
0.2208299712
 40
0.2501917763
 40
0.2811755432
 40
0.3137047413
 40
0.3476942214
 40
0.3830516063
 40
0.419677827
 40
0.4963082546
 40
0.5766914083
 40
0.6598655715
 40
0.7448235145
 40
0.8305296316
 40
0.9159351011
 40
1.0
 40
1.0
 40
1.0
 40
1.0
 10
11.5335784284
 20
9.6006743485
 30
0.0
 10
11.5335784305
 20
9.6004034666
 30
0.0
 10
11.5335481168
 20
9.5998581652
 30
0.0
 10
11.5334120291
 20
9.5990431252
 30
0.0
 10
11.5331854813
 20
9.5982298865
 30
0.0
 10
11.5327551509
 20
9.5971276482
 30
0.0
 10
11.5319738254
 20
9.5957493965
 30
0.0
 10
11.5307027562
 20
9.5941541621
 30
0.0
 10
11.5290862896
 20
9.5925856418
 30
0.0
 10
11.5271300146
 20
9.591046754
 30
0.0
 10
11.5248396196
 20
9.589540557
 30
0.0
 10
11.5222217992
 20
9.5880711181
 30
0.0
 10
11.5192844398
 20
9.5866427348
 30
0.0
 10
11.5160366339
 20
9.5852598494
 30
0.0
 10
11.5124886056
 20
9.5839269322
 30
0.0
 10
11.5086516855
 20
9.582648333
 30
0.0
 10
11.5045382345
 20
9.5814282402
 30
0.0
 10
11.5001615646
 20
9.5802707066
 30
0.0
 10
11.4955358982
 20
9.5791795633
 30
0.0
 10
11.4906763136
 20
9.578158412
 30
0.0
 10
11.4855986547
 20
9.5772106196
 30
0.0
 10
11.4784516898
 20
9.5760312114
 30
0.0
 10
11.4690959717
 20
9.57477206
 30
0.0
 10
11.4574446922
 20
9.5736167897
 30
0.0
 10
11.4453573068
 20
9.572811139
 30
0.0
 10
11.4329918482
 20
9.5723658838
 30
0.0
 10
11.4205098758
 20
9.5722870692
 30
0.0
 10
11.4080746468
 20
9.5725757052
 30
0.0
 10
11.3998251381
 20
9.5730157931
 30
0.0
 10
11.3957377804
 20
9.5732992523
 30
0.0
  0
SPLINE
  5
37B
100
AcDbEntity
  8
0
100
AcDbSpline
 62
7
  6
CONTINUOUS
 70
0
 71
3
 72
34
 73
30
 74
0
 42
0.0000001
 43
0.0000001
 44
0.0000000001
 40
0.0
 40
0.0
 40
0.0
 40
0.0
 40
0.005557894
 40
0.0111786647
 40
0.0169229746
 40
0.0228472065
 40
0.0354214771
 40
0.0492487627
 40
0.064566391
 40
0.0815324114
 40
0.1002444952
 40
0.1207557632
 40
0.1430856509
 40
0.1672279695
 40
0.1931568119
 40
0.2208299712
 40
0.2501917763
 40
0.2811755432
 40
0.3137047413
 40
0.3476942214
 40
0.3830516063
 40
0.419677827
 40
0.4963082546
 40
0.5766914083
 40
0.6598655715
 40
0.7448235145
 40
0.8305296316
 40
0.9159351011
 40
1.0
 40
1.0
 40
1.0
 40
1.0
 10
10.7387283032
 20
10.082908054
 30
0.0
 10
10.7387283053
 20
10.082637172
 30
0.0
 10
10.7386979915
 20
10.0820918707
 30
0.0
 10
10.7385619039
 20
10.0812768306
 30
0.0
 10
10.7383353561
 20
10.0804635919
 30
0.0
 10
10.7379050257
 20
10.0793613536
 30
0.0
 10
10.7371237002
 20
10.0779831019
 30
0.0
 10
10.7358526309
 20
10.0763878676
 30
0.0
 10
10.7342361644
 20
10.0748193472
 30
0.0
 10
10.7322798893
 20
10.0732804594
 30
0.0
 10
10.7299894944
 20
10.0717742625
 30
0.0
 10
10.727371674
 20
10.0703048236
 30
0.0
 10
10.7244343146
 20
10.0688764402
 30
0.0
 10
10.7211865087
 20
10.0674935548
 30
0.0
 10
10.7176384804
 20
10.0661606377
 30
0.0
 10
10.7138015603
 20
10.0648820384
 30
0.0
 10
10.7096881093
 20
10.0636619456
 30
0.0
 10
10.7053114393
 20
10.0625044121
 30
0.0
 10
10.700685773
 20
10.0614132688
 30
0.0
 10
10.6958261883
 20
10.0603921174
 30
0.0
 10
10.6907485295
 20
10.0594443251
 30
0.0
 10
10.6836015646
 20
10.0582649168
 30
0.0
 10
10.6742458465
 20
10.0570057655
 30
0.0
 10
10.662594567
 20
10.0558504952
 30
0.0
 10
10.6505071816
 20
10.0550448444
 30
0.0
 10
10.638141723
 20
10.0545995893
 30
0.0
 10
10.6256597506
 20
10.0545207747
 30
0.0
 10
10.6132245216
 20
10.0548094106
 30
0.0
 10
10.6049750129
 20
10.0552494985
 30
0.0
 10
10.6008876551
 20
10.0555329577
 30
0.0
  0
SPLINE
  5
37C
100
AcDbEntity
  8
0
100
AcDbSpline
 62
7
  6
CONTINUOUS
 70
0
 71
3
 72
34
 73
30
 74
0
 42
0.0000001
 43
0.0000001
 44
0.0000000001
 40
0.0
 40
0.0
 40
0.0
 40
0.0
 40
0.005557894
 40
0.0111786647
 40
0.0169229746
 40
0.0228472065
 40
0.0354214771
 40
0.0492487627
 40
0.064566391
 40
0.0815324114
 40
0.1002444952
 40
0.1207557632
 40
0.1430856509
 40
0.1672279695
 40
0.1931568119
 40
0.2208299712
 40
0.2501917763
 40
0.2811755432
 40
0.3137047413
 40
0.3476942214
 40
0.3830516063
 40
0.419677827
 40
0.4963082546
 40
0.5766914083
 40
0.6598655715
 40
0.7448235145
 40
0.8305296316
 40
0.9159351011
 40
1.0
 40
1.0
 40
1.0
 40
1.0
 10
10.2962273397
 20
9.686484938
 30
0.0
 10
10.2962273418
 20
9.686214056
 30
0.0
 10
10.2961970281
 20
9.6856687547
 30
0.0
 10
10.2960609404
 20
9.6848537146
 30
0.0
 10
10.2958343926
 20
9.684040476
 30
0.0
 10
10.2954040622
 20
9.6829382376
 30
0.0
 10
10.2946227367
 20
9.6815599859
 30
0.0
 10
10.2933516675
 20
9.6799647516
 30
0.0
 10
10.2917352009
 20
9.6783962313
 30
0.0
 10
10.2897789259
 20
9.6768573434
 30
0.0
 10
10.2874885309
 20
9.6753511465
 30
0.0
 10
10.2848707105
 20
9.6738817076
 30
0.0
 10
10.2819333511
 20
9.6724533242
 30
0.0
 10
10.2786855452
 20
9.6710704389
 30
0.0
 10
10.2751375169
 20
9.6697375217
 30
0.0
 10
10.2713005968
 20
9.6684589224
 30
0.0
 10
10.2671871458
 20
9.6672388296
 30
0.0
 10
10.2628104759
 20
9.6660812961
 30
0.0
 10
10.2581848095
 20
9.6649901528
 30
0.0
 10
10.2533252249
 20
9.6639690014
 30
0.0
 10
10.248247566
 20
9.6630212091
 30
0.0
 10
10.2411006011
 20
9.6618418008
 30
0.0
 10
10.231744883
 20
9.6605826495
 30
0.0
 10
10.2200936035
 20
9.6594273792
 30
0.0
 10
10.2080062181
 20
9.6586217284
 30
0.0
 10
10.1956407595
 20
9.6581764733
 30
0.0
 10
10.1831587871
 20
9.6580976587
 30
0.0
 10
10.1707235581
 20
9.6583862946
 30
0.0
 10
10.1624740494
 20
9.6588263825
 30
0.0
 10
10.1583866917
 20
9.6591098417
 30
0.0
  0
SPLINE
  5
37D
100
AcDbEntity
  8
0
100
AcDbSpline
 62
7
  6
CONTINUOUS
 70
0
 71
3
 72
15
 73
11
 74
0
 42
0.0000001
 43
0.0000001
 44
0.0000000001
 40
0.0
 40
0.0
 40
0.0
 40
0.0
 40
0.1112824554
 40
0.2228557086
 40
0.3367610844
 40
0.4549084124
 40
0.5789971043
 40
0.7104736825
 40
0.8505099239
 40
1.0
 40
1.0
 40
1.0
 40
1.0
 10
11.5334351189
 20
9.8036691642
 30
0.0
 10
11.5334826251
 20
9.8032789235
 30
0.0
 10
11.5335232831
 20
9.8024895897
 30
0.0
 10
11.5334145158
 20
9.8013011047
 30
0.0
 10
11.5331364766
 20
9.8001155983
 30
0.0
 10
11.5326903327
 20
9.7989357052
 30
0.0
 10
11.5320776439
 20
9.7977630853
 30
0.0
 10
11.5312999689
 20
9.7965990495
 30
0.0
 10
11.530358945
 20
9.7954449116
 30
0.0
 10
11.5296480266
 20
9.7947079067
 30
0.0
 10
11.5292681914
 20
9.794341014
 30
0.0
  0
SPLINE
  5
37E
100
AcDbEntity
  8
0
100
AcDbSpline
 62
7
  6
CONTINUOUS
 70
0
 71
3
 72
44
 73
40
 74
0
 42
0.0000001
 43
0.0000001
 44
0.0000000001
 40
0.0
 40
0.0
 40
0.0
 40
0.0
 40
0.0054498413
 40
0.0110784607
 40
0.0169508192
 40
0.0231224686
 40
0.0296394998
 40
0.0365393317
 40
0.043851458
 40
0.0515988948
 40
0.0597990031
 40
0.0684644733
 40
0.077604311
 40
0.0872241206
 40
0.0973270187
 40
0.1079138298
 40
0.1305310711
 40
0.1550515429
 40
0.1814283681
 40
0.2095988948
 40
0.2394873371
 40
0.2710065833
 40
0.3040593143
 40
0.3385386873
 40
0.3743286647
 40
0.4113043147
 40
0.4493320384
 40
0.4882697155
 40
0.5279668695
 40
0.6089940929
 40
0.6910595114
 40
0.7320310241
 40
0.7727100027
 40
0.8129050461
 40
0.8524240752
 40
0.8910768067
 40
0.9286756281
 40
0.9650415841
 40
1.0
 40
1.0
 40
1.0
 40
1.0
 10
11.0338646014
 20
9.7412046134
 30
0.0
 10
11.0338003571
 20
9.7408269003
 30
0.0
 10
11.0336211789
 20
9.7400666119
 30
0.0
 10
11.0332126089
 20
9.7389445973
 30
0.0
 10
11.0326625094
 20
9.7378280677
 30
0.0
 10
11.0319725761
 20
9.7367182836
 30
0.0
 10
11.031144382
 20
9.7356160402
 30
0.0
 10
11.0301793948
 20
9.7345222461
 30
0.0
 10
11.0290791758
 20
9.7334376946
 30
0.0
 10
11.0278452167
 20
9.7323633154
 30
0.0
 10
11.0264791227
 20
9.731300017
 30
0.0
 10
11.0249825724
 20
9.7302487261
 30
0.0
 10
11.0233572946
 20
9.7292104529
 30
0.0
 10
11.021605162
 20
9.7281861312
 30
0.0
 10
11.0197280965
 20
9.7271767439
 30
0.0
 10
11.0170009444
 20
9.7258221742
 30
0.0
 10
11.013286816
 20
9.72418138
 30
0.0
 10
11.0084604898
 20
9.7223280525
 30
0.0
 10
11.0031900531
 20
9.7205567003
 30
0.0
 10
10.9974960944
 20
9.7188745753
 30
0.0
 10
10.9914004232
 20
9.7172887202
 30
0.0
 10
10.9849263841
 20
9.7158059513
 30
0.0
 10
10.978098772
 20
9.7144328335
 30
0.0
 10
10.9709438993
 20
9.7131756651
 30
0.0
 10
10.963489638
 20
9.7120404433
 30
0.0
 10
10.9557654614
 20
9.7110328401
 30
0.0
 10
10.9478024862
 20
9.7101581811
 30
0.0
 10
10.9396334572
 20
9.7094213549
 30
0.0
 10
10.9284366541
 20
9.708623387
 30
0.0
 10
10.9141902364
 20
9.7080025545
 30
0.0
 10
10.8998412225
 20
9.7078876479
 30
0.0
 10
10.8883331194
 20
9.7081064091
 30
0.0
 10
10.8797725407
 20
9.7084266239
 30
0.0
 10
10.8713214759
 20
9.708902484
 30
0.0
 10
10.863023321
 20
9.7095325805
 30
0.0
 10
10.8549214074
 20
9.7103145073
 30
0.0
 10
10.8470582884
 20
9.7112448292
 30
0.0
 10
10.8394757645
 20
9.7123191572
 30
0.0
 10
10.8345293273
 20
9.7131453073
 30
0.0
 10
10.8321110527
 20
9.7135835635
 30
0.0
  0
SPLINE
  5
37F
100
AcDbEntity
  8
0
100
AcDbSpline
 62
7
  6
CONTINUOUS
 70
0
 71
3
 72
36
 73
32
 74
0
 42
0.0000001
 43
0.0000001
 44
0.0000000001
 40
0.0
 40
0.0
 40
0.0
 40
0.0
 40
0.0055578162
 40
0.0111785519
 40
0.0169227929
 40
0.0228470355
 40
0.0354212926
 40
0.0421661849
 40
0.0492574986
 40
0.0645751423
 40
0.0815411183
 40
0.1002533171
 40
0.1207645483
 40
0.1430942648
 40
0.1672365547
 40
0.1931652558
 40
0.2208381065
 40
0.2501997028
 40
0.2811832043
 40
0.3137119696
 40
0.3477010678
 40
0.3830580585
 40
0.4196837418
 40
0.4574732145
 40
0.4963164277
 40
0.5766983366
 40
0.6598712021
 40
0.7448277752
 40
0.8305324215
 40
0.9159365645
 40
1.0
 40
1.0
 40
1.0
 40
1.0
 10
10.7173792236
 20
9.8593142021
 30
0.0
 10
10.7173792184
 20
9.8590049775
 30
0.0
 10
10.7173445698
 20
9.8583824873
 30
0.0
 10
10.7171891429
 20
9.8574520968
 30
0.0
 10
10.7169305315
 20
9.856523721
 30
0.0
 10
10.7164392194
 20
9.8552655585
 30
0.0
 10
10.7157425016
 20
9.8540364321
 30
0.0
 10
10.7148753037
 20
9.8528492879
 30
0.0
 10
10.7138269472
 20
9.8516097968
 30
0.0
 10
10.7122506683
 20
9.8500805158
 30
0.0
 10
10.710017625
 20
9.8483239101
 30
0.0
 10
10.7074028934
 20
9.8466045143
 30
0.0
 10
10.7044144929
 20
9.8449270993
 30
0.0
 10
10.7010613108
 20
9.8432965232
 30
0.0
 10
10.6973537345
 20
9.8417179239
 30
0.0
 10
10.6933034497
 20
9.8401963508
 30
0.0
 10
10.6889233946
 20
9.8387367665
 30
0.0
 10
10.684227662
 20
9.8373439947
 30
0.0
 10
10.6792314576
 20
9.8360226347
 30
0.0
 10
10.673951024
 20
9.8347770442
 30
0.0
 10
10.6684035595
 20
9.8336113616
 30
0.0
 10
10.662607165
 20
9.8325294541
 30
0.0
 10
10.6565807881
 20
9.8315348918
 30
0.0
 10
10.650344119
 20
9.8306309446
 30
0.0
 10
10.6416763767
 20
9.8295381552
 30
0.0
 10
10.6304679839
 20
9.8284269896
 30
0.0
 10
10.6166698056
 20
9.827507272
 30
0.0
 10
10.6025540451
 20
9.8269990191
 30
0.0
 10
10.5883053224
 20
9.8269090467
 30
0.0
 10
10.5741099538
 20
9.8272385475
 30
0.0
 10
10.5646927715
 20
9.8277409272
 30
0.0
 10
10.5600268744
 20
9.8280645082
 30
0.0
  0
SPLINE
  5
380
100
AcDbEntity
  8
0
100
AcDbSpline
 62
7
  6
CONTINUOUS
 70
0
 71
3
 72
33
 73
29
 74
0
 42
0.0000001
 43
0.0000001
 44
0.0000000001
 40
0.0
 40
0.0
 40
0.0
 40
0.0
 40
0.0123710175
 40
0.0251085174
 40
0.0384955952
 40
0.0527743503
 40
0.0681410725
 40
0.0847488575
 40
0.1027131097
 40
0.1221187976
 40
0.143025496
 40
0.1654733895
 40
0.1894856301
 40
0.2150726362
 40
0.2422326571
 40
0.2709546703
 40
0.3012184037
 40
0.3329958504
 40
0.3662517066
 40
0.4009434573
 40
0.4370226777
 40
0.4744339592
 40
0.5530010994
 40
0.6360945432
 40
0.7230778709
 40
0.813243267
 40
0.9058206691
 40
1.0
 40
1.0
 40
1.0
 40
1.0
 10
11.2179561959
 20
9.9202587908
 30
0.0
 10
11.217940901
 20
9.9197495303
 30
0.0
 10
11.2178225919
 20
9.9187166432
 30
0.0
 10
11.2173884991
 20
9.9171854565
 30
0.0
 10
11.2166993412
 20
9.9156647356
 30
0.0
 10
11.2157580916
 20
9.9141577743
 30
0.0
 10
11.2145672844
 20
9.9126663023
 30
0.0
 10
11.2131289955
 20
9.9111921481
 30
0.0
 10
11.2114452189
 20
9.9097371804
 30
0.0
 10
11.2095180105
 20
9.9083036477
 30
0.0
 10
11.2073498159
 20
9.9068938953
 30
0.0
 10
11.2049434278
 20
9.905510583
 30
0.0
 10
11.2023021779
 20
9.9041563289
 30
0.0
 10
11.1994298528
 20
9.9028339687
 30
0.0
 10
11.1963308058
 20
9.9015462379
 30
0.0
 10
11.193009907
 20
9.9002959931
 30
0.0
 10
11.1894725982
 20
9.8990860088
 30
0.0
 10
11.185724884
 20
9.8979190719
 30
0.0
 10
11.18177335
 20
9.8967979412
 30
0.0
 10
11.1776251744
 20
9.8957252833
 30
0.0
 10
11.1732881216
 20
9.8947037594
 30
0.0
 10
11.1671643444
 20
9.8933918623
 30
0.0
 10
11.1590994142
 20
9.8919064856
 30
0.0
 10
11.1489699398
 20
9.8903931997
 30
0.0
 10
11.1383242474
 20
9.8891378215
 30
0.0
 10
11.1272579736
 20
9.8881542756
 30
0.0
 10
11.1158734232
 20
9.8874535816
 30
0.0
 10
11.1081857988
 20
9.8871817584
 30
0.0
 10
11.1043080953
 20
9.8870939526
 30
0.0
  0
SPLINE
  5
381
100
AcDbEntity
  8
0
100
AcDbSpline
 62
7
  6
CONTINUOUS
 70
0
 71
3
 72
34
 73
30
 74
0
 42
0.0000001
 43
0.0000001
 44
0.0000000001
 40
0.0
 40
0.0
 40
0.0
 40
0.0
 40
0.0055579078
 40
0.0111786656
 40
0.0169229159
 40
0.0228471628
 40
0.0354212483
 40
0.0492485142
 40
0.0645659506
 40
0.081531743
 40
0.1002438224
 40
0.1207548527
 40
0.1430846157
 40
0.1672269032
 40
0.1931555627
 40
0.2208286902
 40
0.2501904355
 40
0.2811741528
 40
0.3137033397
 40
0.3476927744
 40
0.3830502311
 40
0.4196764354
 40
0.496307007
 40
0.5766902685
 40
0.6598646038
 40
0.7448227365
 40
0.8305292808
 40
0.9159347399
 40
1.0
 40
1.0
 40
1.0
 40
1.0
 10
10.3415965243
 20
9.7607349926
 30
0.0
 10
10.3415965289
 20
9.7605420348
 30
0.0
 10
10.3415749312
 20
9.7601536005
 30
0.0
 10
10.3414780146
 20
9.7595730231
 30
0.0
 10
10.3413166798
 20
9.7589937179
 30
0.0
 10
10.3410101248
 20
9.7582085762
 30
0.0
 10
10.3404536361
 20
9.7572267753
 30
0.0
 10
10.3395482046
 20
9.7560904628
 30
0.0
 10
10.3383967887
 20
9.7549731433
 30
0.0
 10
10.337003305
 20
9.7538769303
 30
0.0
 10
10.335371797
 20
9.7528040382
 30
0.0
 10
10.3335070735
 20
9.7517572899
 30
0.0
 10
10.3314147208
 20
9.7507398063
 30
0.0
 10
10.3291012233
 20
9.7497547392
 30
0.0
 10
10.3265738729
 20
9.748805244
 30
0.0
 10
10.3238407295
 20
9.7478944611
 30
0.0
 10
10.3209106031
 20
9.7470253445
 30
0.0
 10
10.3177929766
 20
9.7462007916
 30
0.0
 10
10.3144979807
 20
9.7454235351
 30
0.0
 10
10.3110363555
 20
9.7446961261
 30
0.0
 10
10.3074193865
 20
9.7440209885
 30
0.0
 10
10.3023283857
 20
9.7431808449
 30
0.0
 10
10.2956640195
 20
9.7422839162
 30
0.0
 10
10.2873644522
 20
9.7414609666
 30
0.0
 10
10.2787542308
 20
9.740887068
 30
0.0
 10
10.2699459178
 20
9.7405699014
 30
0.0
 10
10.2610546152
 20
9.7405137575
 30
0.0
 10
10.252196603
 20
9.7407193543
 30
0.0
 10
10.2463202195
 20
9.7410328443
 30
0.0
 10
10.24340866
 20
9.7412347617
 30
0.0
  0
SPLINE
  5
382
100
AcDbEntity
  8
0
100
AcDbSpline
 62
7
  6
CONTINUOUS
 70
0
 71
3
 72
23
 73
19
 74
0
 42
0.0000001
 43
0.0000001
 44
0.0000000001
 40
0.0
 40
0.0
 40
0.0
 40
0.0
 40
0.0616482066
 40
0.1233194398
 40
0.1850364729
 40
0.2468215638
 40
0.3086962099
 40
0.3706809215
 40
0.4327950013
 40
0.4950563319
 40
0.5574811817
 40
0.6200840805
 40
0.6828775834
 40
0.7458723398
 40
0.8090769807
 40
0.8724966303
 40
0.9361388571
 40
1.0
 40
1.0
 40
1.0
 40
1.0
 10
10.9142064723
 20
6.5044219365
 30
0.0
 10
10.9099982091
 20
6.5003570475
 30
0.0
 10
10.9013595824
 20
6.4924505475
 30
0.0
 10
10.8877803942
 20
6.4813020331
 30
0.0
 10
10.8736115352
 20
6.4708904223
 30
0.0
 10
10.858889186
 20
6.4612424179
 30
0.0
 10
10.8436503368
 20
6.4523821679
 30
0.0
 10
10.8279334366
 20
6.4443319865
 30
0.0
 10
10.8117780791
 20
6.4371121165
 30
0.0
 10
10.7952249616
 20
6.4307407436
 30
0.0
 10
10.7783157927
 20
6.4252338691
 30
0.0
 10
10.7610931786
 20
6.4206052985
 30
0.0
 10
10.7436004981
 20
6.416866631
 30
0.0
 10
10.7258817669
 20
6.4140272524
 30
0.0
 10
10.7079817239
 20
6.4120943317
 30
0.0
 10
10.6899450485
 20
6.4110725002
 30
0.0
 10
10.6718180118
 20
6.4109645092
 30
0.0
 10
10.6597228826
 20
6.4115008704
 30
0.0
 10
10.6536765004
 20
6.4119201884
 30
0.0
  0
SPLINE
  5
383
100
AcDbEntity
  8
0
100
AcDbSpline
 62
7
  6
CONTINUOUS
 70
0
 71
3
 72
21
 73
17
 74
0
 42
0.0000001
 43
0.0000001
 44
0.0000000001
 40
0.0
 40
0.0
 40
0.0
 40
0.0
 40
0.0616532251
 40
0.1233294846
 40
0.1850515438
 40
0.2468416586
 40
0.3087213407
 40
0.3707111063
 40
0.4328302458
 40
0.4950966346
 40
0.5575265706
 40
0.6201345761
 40
0.6829331563
 40
0.7459331329
 40
0.8725263342
 40
1.0
 40
1.0
 40
1.0
 40
1.0
 10
10.3918618096
 20
7.8696551383
 30
0.0
 10
10.3945102156
 20
7.8722133021
 30
0.0
 10
10.3999467724
 20
7.8771891456
 30
0.0
 10
10.4084926095
 20
7.8842052769
 30
0.0
 10
10.4174095608
 20
7.8907576271
 30
0.0
 10
10.4266748217
 20
7.8968294408
 30
0.0
 10
10.4362651236
 20
7.9024055142
 30
0.0
 10
10.4461562971
 20
7.9074717537
 30
0.0
 10
10.4563234126
 20
7.9120154346
 30
0.0
 10
10.4667408319
 20
7.9160251615
 30
0.0
 10
10.4773823417
 20
7.9194908442
 30
0.0
 10
10.4882210591
 20
7.9224037374
 30
0.0
 10
10.4992299818
 20
7.9247566045
 30
0.0
 10
10.5141194662
 20
7.9271427304
 30
0.0
 10
10.5330267368
 20
7.9286929248
 30
0.0
 10
10.5482270451
 20
7.9283962811
 30
0.0
 10
10.5558219919
 20
7.9278695698
 30
0.0
  0
SPLINE
  5
384
100
AcDbEntity
  8
0
100
AcDbSpline
 62
7
  6
CONTINUOUS
 70
0
 71
3
 72
23
 73
19
 74
0
 42
0.0000001
 43
0.0000001
 44
0.0000000001
 40
0.0
 40
0.0
 40
0.0
 40
0.0
 40
0.0617101467
 40
0.1234414005
 40
0.1852146478
 40
0.2470503543
 40
0.3089683505
 40
0.3709876232
 40
0.433126136
 40
0.4954006598
 40
0.5578266145
 40
0.6204179204
 40
0.6831867797
 40
0.7461439117
 40
0.8092980272
 40
0.8726549309
 40
0.9362234023
 40
1.0
 40
1.0
 40
1.0
 40
1.0
 10
12.4520386196
 20
7.9888538121
 30
0.0
 10
12.4560651931
 20
7.9927432016
 30
0.0
 10
12.463921059
 20
8.0007320547
 30
0.0
 10
12.4750750249
 20
8.0133077563
 30
0.0
 10
12.4855757509
 20
8.0264489856
 30
0.0
 10
12.4953986078
 20
8.0401250236
 30
0.0
 10
12.5045210464
 20
8.0543044414
 30
0.0
 10
12.5129219898
 20
8.0689545091
 30
0.0
 10
12.5205821368
 20
8.0840414103
 30
0.0
 10
12.5274838529
 20
8.0995303416
 30
0.0
 10
12.5336112166
 20
8.1153855961
 30
0.0
 10
12.5389501251
 20
8.131570601
 30
0.0
 10
12.5434883621
 20
8.1480480221
 30
0.0
 10
12.5472154843
 20
8.1647798947
 30
0.0
 10
12.5501228595
 20
8.1817275393
 30
0.0
 10
12.5522040045
 20
8.1988522639
 30
0.0
 10
12.5534539019
 20
8.2161137836
 30
0.0
 10
12.553730854
 20
8.2276683375
 30
0.0
 10
12.553730854
 20
8.233454075
 30
0.0
  0
SPLINE
  5
385
100
AcDbEntity
  8
0
100
AcDbSpline
 62
7
  6
CONTINUOUS
 70
0
 71
3
 72
21
 73
17
 74
0
 42
0.0000001
 43
0.0000001
 44
0.0000000001
 40
0.0
 40
0.0
 40
0.0
 40
0.0
 40
0.0616532251
 40
0.1233294846
 40
0.1850515438
 40
0.2468416586
 40
0.3087213407
 40
0.3707111063
 40
0.4328302458
 40
0.4950966346
 40
0.5575265706
 40
0.6201345761
 40
0.6829331563
 40
0.7459331329
 40
0.8725263342
 40
1.0
 40
1.0
 40
1.0
 40
1.0
 10
9.6683833679
 20
8.8335944339
 30
0.0
 10
9.6710317739
 20
8.8361525977
 30
0.0
 10
9.6764683308
 20
8.8411284412
 30
0.0
 10
9.6850141679
 20
8.8481445725
 30
0.0
 10
9.6939311192
 20
8.8546969227
 30
0.0
 10
9.7031963801
 20
8.8607687364
 30
0.0
 10
9.712786682
 20
8.8663448097
 30
0.0
 10
9.7226778555
 20
8.8714110493
 30
0.0
 10
9.732844971
 20
8.8759547301
 30
0.0
 10
9.7432623903
 20
8.8799644571
 30
0.0
 10
9.7539039
 20
8.8834301398
 30
0.0
 10
9.7647426175
 20
8.886343033
 30
0.0
 10
9.7757515402
 20
8.8886959001
 30
0.0
 10
9.7906410246
 20
8.891082026
 30
0.0
 10
9.8095482952
 20
8.8926322204
 30
0.0
 10
9.8247486035
 20
8.8923355767
 30
0.0
 10
9.8323435503
 20
8.8918088653
 30
0.0
  0
SPLINE
  5
386
100
AcDbEntity
  8
0
100
AcDbSpline
 62
7
  6
CONTINUOUS
 70
0
 71
3
 72
37
 73
33
 74
0
 42
0.0000001
 43
0.0000001
 44
0.0000000001
 40
0.0
 40
0.0
 40
0.0
 40
0.0
 40
0.0034101321
 40
0.0067680043
 40
0.0101552731
 40
0.0136479649
 40
0.0173128929
 40
0.0212062562
 40
0.0253734359
 40
0.0298501588
 40
0.0398359308
 40
0.0513365232
 40
0.0644603148
 40
0.079287645
 40
0.0958814725
 40
0.1142990315
 40
0.1345927369
 40
0.1568153287
 40
0.1810183886
 40
0.2072538979
 40
0.2355719646
 40
0.2660204293
 40
0.2986406515
 40
0.3334663398
 40
0.409788246
 40
0.4948801012
 40
0.588100451
 40
0.6880294919
 40
0.7922869689
 40
0.8975646624
 40
0.9493885453
 40
1.0
 40
1.0
 40
1.0
 40
1.0
 10
10.6923380846
 20
8.1878959083
 30
0.0
 10
10.6924040282
 20
8.1878045134
 30
0.0
 10
10.6925218862
 20
8.1876132175
 30
0.0
 10
10.6926522237
 20
8.1873025379
 30
0.0
 10
10.6927342204
 20
8.1869729582
 30
0.0
 10
10.6927688972
 20
8.1866250797
 30
0.0
 10
10.6927571438
 20
8.186259111
 30
0.0
 10
10.6926997982
 20
8.1858751029
 30
0.0
 10
10.6925976438
 20
8.1854729303
 30
0.0
 10
10.6923950069
 20
8.1848908761
 30
0.0
 10
10.6920214773
 20
8.1841154279
 30
0.0
 10
10.69141669
 20
8.1831428794
 30
0.0
 10
10.6906398826
 20
8.1820942728
 30
0.0
 10
10.6896899407
 20
8.1809686228
 30
0.0
 10
10.6885651107
 20
8.1797646123
 30
0.0
 10
10.6872625436
 20
8.1784817727
 30
0.0
 10
10.6857790415
 20
8.1771194112
 30
0.0
 10
10.6841103451
 20
8.1756776057
 30
0.0
 10
10.6822518499
 20
8.1741564759
 30
0.0
 10
10.6801981585
 20
8.1725570161
 30
0.0
 10
10.6779435611
 20
8.1708807689
 30
0.0
 10
10.6754820633
 20
8.1691302934
 30
0.0
 10
10.6728075403
 20
8.1673094069
 30
0.0
 10
10.6688269925
 20
8.1647145282
 30
0.0
 10
10.6632856301
 20
8.161341047
 30
0.0
 10
10.6559204064
 20
8.1572649251
 30
0.0
 10
10.6476799441
 20
8.153176329
 30
0.0
 10
10.638663992
 20
8.149250356
 30
0.0
 10
10.6290671622
 20
8.1456977456
 30
0.0
 10
10.620786034
 20
8.1432157175
 30
0.0
 10
10.6141121419
 20
8.1416029415
 30
0.0
 10
10.6107924123
 20
8.1409339563
 30
0.0
 10
10.6091462457
 20
8.1406374489
 30
0.0
  0
SPLINE
  5
387
100
AcDbEntity
  8
0
100
AcDbSpline
 62
7
  6
CONTINUOUS
 70
0
 71
3
 72
37
 73
33
 74
0
 42
0.0000001
 43
0.0000001
 44
0.0000000001
 40
0.0
 40
0.0
 40
0.0
 40
0.0
 40
0.0301079682
 40
0.0603228282
 40
0.0906522606
 40
0.1211022267
 40
0.1516768988
 40
0.1823786184
 40
0.2132078897
 40
0.2441633967
 40
0.2752420417
 40
0.3064390087
 40
0.3377478462
 40
0.369160575
 40
0.4006678157
 40
0.432258926
 40
0.4639221505
 40
0.4956447808
 40
0.5591887813
 40
0.6228019789
 40
0.654610165
 40
0.686391607
 40
0.7181320511
 40
0.7498177808
 40
0.7814357928
 40
0.8129739802
 40
0.8444212822
 40
0.8757678217
 40
0.9070052928
 40
0.938126054
 40
0.9691263258
 40
1.0
 40
1.0
 40
1.0
 40
1.0
 10
10.4866171463
 20
8.6454194414
 30
0.0
 10
10.4851525239
 20
8.6414571184
 30
0.0
 10
10.4824664899
 20
8.6334240856
 30
0.0
 10
10.4791888931
 20
8.621126514
 30
0.0
 10
10.4766669302
 20
8.6086026519
 30
0.0
 10
10.4749098001
 20
8.5958980716
 30
0.0
 10
10.4739236952
 20
8.5830581925
 30
0.0
 10
10.4737120883
 20
8.5701291229
 30
0.0
 10
10.4742756526
 20
8.5571572184
 30
0.0
 10
10.4756122989
 20
8.5441889897
 30
0.0
 10
10.4777171742
 20
8.5312709191
 30
0.0
 10
10.4805826854
 20
8.5184493041
 30
0.0
 10
10.4841985191
 20
8.5057700879
 30
0.0
 10
10.4885516468
 20
8.4932786994
 30
0.0
 10
10.4936264436
 20
8.4810198544
 30
0.0
 10
10.499404608
 20
8.4690375631
 30
0.0
 10
10.5058657201
 20
8.4573743566
 30
0.0
 10
10.5153630085
 20
8.4422996833
 30
0.0
 10
10.528819864
 20
8.4244654068
 30
0.0
 10
10.5441908082
 20
8.4082355834
 30
0.0
 10
10.5575106251
 20
8.396344844
 30
0.0
 10
10.5679767929
 20
8.3880047445
 30
0.0
 10
10.5788797036
 20
8.3802745914
 30
0.0
 10
10.5901806404
 20
8.3731817182
 30
0.0
 10
10.6018390419
 20
8.3667516533
 30
0.0
 10
10.6138131829
 20
8.3610074391
 30
0.0
 10
10.62606017
 20
8.3559697181
 30
0.0
 10
10.6385361604
 20
8.3516565496
 30
0.0
 10
10.6511963629
 20
8.3480835086
 30
0.0
 10
10.6639957099
 20
8.3452632625
 30
0.0
 10
10.6768875799
 20
8.3432062739
 30
0.0
 10
10.6855323177
 20
8.3423467179
 30
0.0
 10
10.6898537207
 20
8.3420470276
 30
0.0
  0
SPLINE
  5
388
100
AcDbEntity
  8
0
100
AcDbSpline
 62
7
  6
CONTINUOUS
 70
0
 71
3
 72
23
 73
19
 74
0
 42
0.0000001
 43
0.0000001
 44
0.0000000001
 40
0.0
 40
0.0
 40
0.0
 40
0.0
 40
0.0616875241
 40
0.1236794311
 40
0.1859473961
 40
0.2484562936
 40
0.3111651337
 40
0.3740281096
 40
0.4369957308
 40
0.5000160212
 40
0.5630357578
 40
0.6260017305
 40
0.6888620038
 40
0.7515671457
 40
0.8140714655
 40
0.8763339712
 40
0.9383201211
 40
1.0
 40
1.0
 40
1.0
 40
1.0
 10
10.6165536011
 20
8.5920043094
 30
0.0
 10
10.6170608764
 20
8.5887431801
 30
0.0
 10
10.6183382727
 20
8.582242394
 30
0.0
 10
10.6210181292
 20
8.5726517866
 30
0.0
 10
10.6244494494
 20
8.5632563255
 30
0.0
 10
10.628609582
 20
8.5541182192
 30
0.0
 10
10.6334712799
 20
8.5452969466
 30
0.0
 10
10.6390026961
 20
8.5368501905
 30
0.0
 10
10.6451676399
 20
8.528833111
 30
0.0
 10
10.6519257981
 20
8.5212980864
 30
0.0
 10
10.6592329992
 20
8.5142943497
 30
0.0
 10
10.6670414994
 20
8.5078676765
 30
0.0
 10
10.675300285
 20
8.5020600915
 30
0.0
 10
10.6839554249
 20
8.496909585
 30
0.0
 10
10.6929503251
 20
8.4924499062
 30
0.0
 10
10.7022264517
 20
8.4887102142
 30
0.0
 10
10.711722336
 20
8.4857153028
 30
0.0
 10
10.7181766859
 20
8.4842240423
 30
0.0
 10
10.7214188895
 20
8.483609462
 30
0.0
  0
SPLINE
  5
389
100
AcDbEntity
  8
0
100
AcDbSpline
 62
7
  6
CONTINUOUS
 70
0
 71
3
 72
42
 73
38
 74
0
 42
0.0000001
 43
0.0000001
 44
0.0000000001
 40
0.0
 40
0.0
 40
0.0
 40
0.0
 40
0.0311444614
 40
0.0467771749
 40
0.0624471243
 40
0.0938918364
 40
0.1254739609
 40
0.1571813407
 40
0.1889991953
 40
0.220910588
 40
0.2528967324
 40
0.2849373871
 40
0.3170112522
 40
0.3490963865
 40
0.3811706317
 40
0.4132120391
 40
0.4451992945
 40
0.4771121343
 40
0.508931746
 40
0.54064115
 40
0.572225553
 40
0.6036726688
 40
0.634972998
 40
0.6661200609
 40
0.6971105755
 40
0.7279445747
 40
0.758625456
 40
0.7891599579
 40
0.8195580604
 40
0.8498328062
 40
0.864931572
 40
0.8800056552
 40
0.9100837089
 40
0.9400929741
 40
0.955081501
 40
0.9700611858
 40
1.0
 40
1.0
 40
1.0
 40
1.0
 10
10.5558219919
 20
7.4719525527
 30
0.0
 10
10.5502554674
 20
7.4723385925
 30
0.0
 10
10.5419119849
 20
7.4732237841
 30
0.0
 10
10.5308644676
 20
7.4750026607
 30
0.0
 10
10.5198344915
 20
7.4771865765
 30
0.0
 10
10.5061574989
 20
7.4806646551
 30
0.0
 10
10.4900317917
 20
7.4860032382
 30
0.0
 10
10.4742574186
 20
7.4924833618
 30
0.0
 10
10.4589189576
 20
7.5000702793
 30
0.0
 10
10.4440980025
 20
7.5087234657
 30
0.0
 10
10.4298735597
 20
7.5183967147
 30
0.0
 10
10.4163214081
 20
7.5290384107
 30
0.0
 10
10.4035137615
 20
7.5405917973
 30
0.0
 10
10.3915188714
 20
7.5529952776
 30
0.0
 10
10.3804006715
 20
7.5661827401
 30
0.0
 10
10.3702184388
 20
7.5800839076
 30
0.0
 10
10.3610264816
 20
7.5946247072
 30
0.0
 10
10.352873851
 20
7.6097276614
 30
0.0
 10
10.3458040821
 20
7.6253122959
 30
0.0
 10
10.339854962
 20
7.6412955628
 30
0.0
 10
10.3350583283
 20
7.6575922778
 30
0.0
 10
10.3314398981
 20
7.6741155679
 30
0.0
 10
10.3290191282
 20
7.6907773281
 30
0.0
 10
10.3278091075
 20
7.7074886862
 30
0.0
 10
10.3278164791
 20
7.7241604661
 30
0.0
 10
10.3290414059
 20
7.7407036762
 30
0.0
 10
10.3314775284
 20
7.7570299164
 30
0.0
 10
10.3351121079
 20
7.7730520874
 30
0.0
 10
10.3399256412
 20
7.7886839702
 30
0.0
 10
10.3449036355
 20
7.8013292492
 30
0.0
 10
10.3494463208
 20
7.8111629056
 30
0.0
 10
10.3543487399
 20
7.8207827522
 30
0.0
 10
10.3611554803
 20
7.8324184549
 30
0.0
 10
10.3688376863
 20
7.8434771375
 30
0.0
 10
10.3754762125
 20
7.8519301411
 30
0.0
 10
10.3824314612
 20
7.8601072053
 30
0.0
 10
10.388003808
 20
7.865928595
 30
0.0
 10
10.3918618096
 20
7.8696551383
 30
0.0
  0
SPLINE
  5
38A
100
AcDbEntity
  8
0
100
AcDbSpline
 62
7
  6
CONTINUOUS
 70
0
 71
3
 72
31
 73
27
 74
0
 42
0.0000001
 43
0.0000001
 44
0.0000000001
 40
0.0
 40
0.0
 40
0.0
 40
0.0
 40
0.0958346862
 40
0.1891086058
 40
0.2792517913
 40
0.3657238518
 40
0.4480156048
 40
0.5256577435
 40
0.5982273517
 40
0.6653573694
 40
0.6967887942
 40
0.7267545785
 40
0.7552309605
 40
0.782200609
 40
0.8076546359
 40
0.8315929205
 40
0.854027226
 40
0.8749821598
 40
0.8944998192
 40
0.9126421181
 40
0.9294973557
 40
0.9451842997
 40
0.9598596237
 40
0.9737210651
 40
0.9870091668
 40
1.0
 40
1.0
 40
1.0
 40
1.0
 10
10.2150680158
 20
9.7138597998
 30
0.0
 10
10.2179200263
 20
9.7136620122
 30
0.0
 10
10.2235437269
 20
9.713208992
 30
0.0
 10
10.2318299185
 20
9.7123442539
 30
0.0
 10
10.2398149761
 20
9.7113079529
 30
0.0
 10
10.2474455946
 20
9.7101071608
 30
0.0
 10
10.2546710012
 20
9.7087500424
 30
0.0
 10
10.2614432563
 20
9.7072458766
 30
0.0
 10
10.2677173749
 20
9.7056048826
 30
0.0
 10
10.2725982686
 20
9.704101581
 30
0.0
 10
10.2762161135
 20
9.7028308094
 30
0.0
 10
10.278720068
 20
9.701871504
 30
0.0
 10
10.2810704535
 20
9.7008866494
 30
0.0
 10
10.2832634017
 20
9.6998778099
 30
0.0
 10
10.2852953494
 20
9.6988467024
 30
0.0
 10
10.2871629857
 20
9.6977949371
 30
0.0
 10
10.2888633457
 20
9.6967242533
 30
0.0
 10
10.2903936929
 20
9.6956362143
 30
0.0
 10
10.2917516668
 20
9.6945324921
 30
0.0
 10
10.2929350488
 20
9.6934144843
 30
0.0
 10
10.2939419538
 20
9.6922836547
 30
0.0
 10
10.2947703926
 20
9.6911411392
 30
0.0
 10
10.2954184992
 20
9.68998827
 30
0.0
 10
10.2958839525
 20
9.6888262974
 30
0.0
 10
10.2961645875
 20
9.6876577549
 30
0.0
 10
10.2962273366
 20
9.6868724697
 30
0.0
 10
10.2962273397
 20
9.686484938
 30
0.0
  0
SPLINE
  5
38B
100
AcDbEntity
  8
0
100
AcDbSpline
 62
7
  6
CONTINUOUS
 70
0
 71
3
 72
31
 73
27
 74
0
 42
0.0000001
 43
0.0000001
 44
0.0000000001
 40
0.0
 40
0.0
 40
0.0
 40
0.0
 40
0.1010093646
 40
0.1974212776
 40
0.2888974282
 40
0.3751630176
 40
0.455977141
 40
0.5311556225
 40
0.6005748655
 40
0.6641817651
 40
0.6938162648
 40
0.7220186431
 40
0.7488091655
 40
0.7742176692
 40
0.7982835181
 40
0.8210565109
 40
0.8426005662
 40
0.8629935153
 40
0.8823300238
 40
0.9007239046
 40
0.9183079516
 40
0.9352354498
 40
0.9516781456
 40
0.9678223398
 40
0.9838638198
 40
1.0
 40
1.0
 40
1.0
 40
1.0
 10
10.9820571718
 20
9.7690083444
 30
0.0
 10
10.9841358653
 20
9.7686316294
 30
0.0
 10
10.9881901279
 20
9.7678471181
 30
0.0
 10
10.9940905697
 20
9.7665428883
 30
0.0
 10
10.9996516979
 20
9.7651427869
 30
0.0
 10
11.0048511114
 20
9.7636531049
 30
0.0
 10
11.0096688426
 20
9.7620803225
 30
0.0
 10
11.0140871184
 20
9.760431344
 30
0.0
 10
11.0180903322
 20
9.7587132752
 30
0.0
 10
11.0211380336
 20
9.7571961673
 30
0.0
 10
11.0233505119
 20
9.7559477026
 30
0.0
 10
11.0248588728
 20
9.7550208079
 30
0.0
 10
11.0262546278
 20
9.754082074
 30
0.0
 10
11.0275368929
 20
9.7531324063
 30
0.0
 10
11.0287049235
 20
9.7521727189
 30
0.0
 10
11.02975803
 20
9.7512038129
 30
0.0
 10
11.030695719
 20
9.7502265795
 30
0.0
 10
11.0315175251
 20
9.7492417958
 30
0.0
 10
11.032223024
 20
9.7482502205
 30
0.0
 10
11.0328119292
 20
9.7472526792
 30
0.0
 10
11.0332838462
 20
9.7462499431
 30
0.0
 10
11.0336384795
 20
9.7452429335
 30
0.0
 10
11.0338756442
 20
9.7442327226
 30
0.0
 10
11.0339951554
 20
9.7432204658
 30
0.0
 10
11.0339972678
 20
9.7422076925
 30
0.0
 10
11.0339211896
 20
9.7415373142
 30
0.0
 10
11.0338646014
 20
9.7412046134
 30
0.0
  0
SPLINE
  5
38C
100
AcDbEntity
  8
0
100
AcDbSpline
 62
7
  6
CONTINUOUS
 70
0
 71
3
 72
23
 73
19
 74
0
 42
0.0000001
 43
0.0000001
 44
0.0000000001
 40
0.0
 40
0.0
 40
0.0
 40
0.0
 40
0.0615929175
 40
0.1232458336
 40
0.1849746602
 40
0.2467946908
 40
0.3087204756
 40
0.3707656982
 40
0.4329430706
 40
0.4952642437
 40
0.5577397283
 40
0.6203788098
 40
0.6831894065
 40
0.746178314
 40
0.8093507557
 40
0.8727097579
 40
0.9362609542
 40
1.0
 40
1.0
 40
1.0
 40
1.0
 10
9.9294383185
 20
7.4196005075
 30
0.0
 10
9.9345580131
 20
7.4234834069
 30
0.0
 10
9.9449836722
 20
7.431017229
 30
0.0
 10
9.9611349255
 20
7.4415893662
 30
0.0
 10
9.9777765419
 20
7.4514189344
 30
0.0
 10
9.9948769764
 20
7.4604872628
 30
0.0
 10
10.0124043883
 20
7.4687774986
 30
0.0
 10
10.0303259999
 20
7.4762741102
 30
0.0
 10
10.0486083053
 20
7.482963158
 30
0.0
 10
10.0672171345
 20
7.488832177
 30
0.0
 10
10.0861177266
 20
7.4938701988
 30
0.0
 10
10.1052747633
 20
7.4980678209
 30
0.0
 10
10.1246524491
 20
7.5014172862
 30
0.0
 10
10.144214605
 20
7.5039123499
 30
0.0
 10
10.1639245855
 20
7.5055483237
 30
0.0
 10
10.1837459443
 20
7.5063223012
 30
0.0
 10
10.2036408806
 20
7.5062327029
 30
0.0
 10
10.2169099587
 20
7.5055984177
 30
0.0
 10
10.2235435055
 20
7.5051383796
 30
0.0
  0
SPLINE
  5
38D
100
AcDbEntity
  8
0
100
AcDbSpline
 62
7
  6
CONTINUOUS
 70
0
 71
3
 72
71
 73
67
 74
0
 42
0.0000001
 43
0.0000001
 44
0.0000000001
 40
0.0
 40
0.0
 40
0.0
 40
0.0
 40
0.0156746351
 40
0.0314022609
 40
0.0471806272
 40
0.0630088927
 40
0.0788847467
 40
0.0948057509
 40
0.1107690096
 40
0.1267712316
 40
0.1428087899
 40
0.1588777356
 40
0.1749738414
 40
0.1910926416
 40
0.2072294721
 40
0.2233795107
 40
0.2395378182
 40
0.2556993841
 40
0.2718591706
 40
0.2880121556
 40
0.3041533748
 40
0.320277966
 40
0.3363812139
 40
0.3524585912
 40
0.368505797
 40
0.3845187966
 40
0.4004938613
 40
0.4164276033
 40
0.4323170077
 40
0.4481594614
 40
0.4639527825
 40
0.4796952457
 40
0.4953856016
 40
0.5110230911
 40
0.526607458
 40
0.5421389594
 40
0.5576183675
 40
0.5730469662
 40
0.5884265423
 40
0.6037593738
 40
0.6190482136
 40
0.634296264
 40
0.6495071467
 40
0.6646848678
 40
0.679833781
 40
0.6949585437
 40
0.710064069
 40
0.7251554736
 40
0.7402380236
 40
0.7553170808
 40
0.7703980447
 40
0.7854862949
 40
0.800587132
 40
0.8157057217
 40
0.8308470417
 40
0.8460158298
 40
0.8612165344
 40
0.8764532687
 40
0.891729769
 40
0.9070493679
 40
0.9224149441
 40
0.9378289236
 40
0.9532932898
 40
0.9688092124
 40
0.9843783603
 40
1.0
 40
1.0
 40
1.0
 40
1.0
 10
10.4350812565
 20
8.6711466567
 30
0.0
 10
10.4409672269
 20
8.6707384632
 30
0.0
 10
10.4527410342
 20
8.6696319282
 30
0.0
 10
10.4703275405
 20
8.6671136428
 30
0.0
 10
10.4878294089
 20
8.6637397923
 30
0.0
 10
10.5052037374
 20
8.6595188303
 30
0.0
 10
10.5224090146
 20
8.6544607611
 30
0.0
 10
10.5394037128
 20
8.648577859
 30
0.0
 10
10.556146957
 20
8.6418843256
 30
0.0
 10
10.5725984436
 20
8.6343962998
 30
0.0
 10
10.588718575
 20
8.6261318289
 30
0.0
 10
10.6044685412
 20
8.6171108042
 30
0.0
 10
10.619810443
 20
8.6073549757
 30
0.0
 10
10.6347073642
 20
8.5968878519
 30
0.0
 10
10.6491234531
 20
8.5857346382
 30
0.0
 10
10.6630240036
 20
8.5739221765
 30
0.0
 10
10.6763755502
 20
8.5614788987
 30
0.0
 10
10.6891459726
 20
8.5484347787
 30
0.0
 10
10.7013045351
 20
8.5348212174
 30
0.0
 10
10.7128219663
 20
8.5206709788
 30
0.0
 10
10.7236705181
 20
8.5060181063
 30
0.0
 10
10.7338240772
 20
8.490897875
 30
0.0
 10
10.7432582064
 20
8.4753466848
 30
0.0
 10
10.7519501842
 20
8.4594019624
 30
0.0
 10
10.7598790596
 20
8.4431020767
 30
0.0
 10
10.7670257093
 20
8.4264862525
 30
0.0
 10
10.7733729286
 20
8.4095944935
 30
0.0
 10
10.7789054184
 20
8.3924674592
 30
0.0
 10
10.7836098285
 20
8.375146375
 30
0.0
 10
10.7874747784
 20
8.3576729333
 30
0.0
 10
10.7904909314
 20
8.340089205
 30
0.0
 10
10.7926510087
 20
8.3224375309
 30
0.0
 10
10.7939497717
 20
8.3047604152
 30
0.0
 10
10.7943840426
 20
8.287100429
 30
0.0
 10
10.7939527104
 20
8.2695001107
 30
0.0
 10
10.7926567941
 20
8.2520018607
 30
0.0
 10
10.790499382
 20
8.2346478365
 30
0.0
 10
10.7874856273
 20
8.2174798561
 30
0.0
 10
10.7836227283
 20
8.200539301
 30
0.0
 10
10.7789199488
 20
8.183867011
 30
0.0
 10
10.773388607
 20
8.1675031758
 30
0.0
 10
10.7670420006
 20
8.1514872512
 30
0.0
 10
10.7598953882
 20
8.1358578639
 30
0.0
 10
10.7519659466
 20
8.1206527241
 30
0.0
 10
10.7432727861
 20
8.1059085036
 30
0.0
 10
10.7338368586
 20
8.0916607637
 30
0.0
 10
10.7236809009
 20
8.0779438767
 30
0.0
 10
10.712829379
 20
8.0647909462
 30
0.0
 10
10.7013084493
 20
8.0522337138
 30
0.0
 10
10.6891459159
 20
8.0403024553
 30
0.0
 10
10.6763711168
 20
8.0290259455
 30
0.0
 10
10.6630148641
 20
8.0184313826
 30
0.0
 10
10.6491093639
 20
8.0085443336
 30
0.0
 10
10.6346881728
 20
7.9993886233
 30
0.0
 10
10.6197860914
 20
7.9909863003
 30
0.0
 10
10.6044390683
 20
7.9833576037
 30
0.0
 10
10.5886841169
 20
7.9765209144
 30
0.0
 10
10.5725592323
 20
7.9704927044
 30
0.0
 10
10.5561033132
 20
7.9652874467
 30
0.0
 10
10.5393560416
 20
7.9609176495
 30
0.0
 10
10.5223577965
 20
7.9573938034
 30
0.0
 10
10.5051495209
 20
7.9547243737
 30
0.0
 10
10.4877728058
 20
7.9529157988
 30
0.0
 10
10.4702691892
 20
7.9519722418
 30
0.0
 10
10.4526816297
 20
7.951896122
 30
0.0
 10
10.4409473266
 20
7.9524228038
 30
0.0
 10
10.4350812565
 20
7.9528296171
 30
0.0
  0
SPLINE
  5
38E
100
AcDbEntity
  8
0
100
AcDbSpline
 62
7
  6
CONTINUOUS
 70
0
 71
3
 72
31
 73
27
 74
0
 42
0.0000001
 43
0.0000001
 44
0.0000000001
 40
0.0
 40
0.0
 40
0.0
 40
0.0
 40
0.0958346862
 40
0.1891086058
 40
0.2792517913
 40
0.3657238518
 40
0.4480156048
 40
0.5256577435
 40
0.5982273517
 40
0.6653573694
 40
0.6967887942
 40
0.7267545785
 40
0.7552309605
 40
0.782200609
 40
0.8076546359
 40
0.8315929205
 40
0.854027226
 40
0.8749821598
 40
0.8944998192
 40
0.9126421181
 40
0.9294973557
 40
0.9451842997
 40
0.9598596237
 40
0.9737210651
 40
0.9870091668
 40
1.0
 40
1.0
 40
1.0
 40
1.0
 10
11.4524191045
 20
9.6280492104
 30
0.0
 10
11.455271115
 20
9.6278514228
 30
0.0
 10
11.4608948156
 20
9.6273984025
 30
0.0
 10
11.4691810072
 20
9.6265336644
 30
0.0
 10
11.4771660648
 20
9.6254973634
 30
0.0
 10
11.4847966833
 20
9.6242965713
 30
0.0
 10
11.4920220899
 20
9.622939453
 30
0.0
 10
11.498794345
 20
9.6214352872
 30
0.0
 10
11.5050684636
 20
9.6197942931
 30
0.0
 10
11.5099493573
 20
9.6182909916
 30
0.0
 10
11.5135672022
 20
9.61702022
 30
0.0
 10
11.5160711567
 20
9.6160609145
 30
0.0
 10
11.5184215422
 20
9.61507606
 30
0.0
 10
11.5206144904
 20
9.6140672204
 30
0.0
 10
11.5226464381
 20
9.613036113
 30
0.0
 10
11.5245140744
 20
9.6119843477
 30
0.0
 10
11.5262144344
 20
9.6109136639
 30
0.0
 10
11.5277447816
 20
9.6098256248
 30
0.0
 10
11.5291027555
 20
9.6087219026
 30
0.0
 10
11.5302861375
 20
9.6076038948
 30
0.0
 10
11.5312930425
 20
9.6064730652
 30
0.0
 10
11.5321214813
 20
9.6053305498
 30
0.0
 10
11.5327695879
 20
9.6041776806
 30
0.0
 10
11.5332350412
 20
9.6030157079
 30
0.0
 10
11.5335156762
 20
9.6018471654
 30
0.0
 10
11.5335784253
 20
9.6010618803
 30
0.0
 10
11.5335784284
 20
9.6006743485
 30
0.0
  0
SPLINE
  5
38F
100
AcDbEntity
  8
0
100
AcDbSpline
 62
7
  6
CONTINUOUS
 70
0
 71
3
 72
31
 73
27
 74
0
 42
0.0000001
 43
0.0000001
 44
0.0000000001
 40
0.0
 40
0.0
 40
0.0
 40
0.0
 40
0.0958346862
 40
0.1891086058
 40
0.2792517913
 40
0.3657238518
 40
0.4480156048
 40
0.5256577435
 40
0.5982273517
 40
0.6653573694
 40
0.6967887942
 40
0.7267545785
 40
0.7552309605
 40
0.782200609
 40
0.8076546359
 40
0.8315929205
 40
0.854027226
 40
0.8749821598
 40
0.8944998192
 40
0.9126421181
 40
0.9294973557
 40
0.9451842997
 40
0.9598596237
 40
0.9737210651
 40
0.9870091668
 40
1.0
 40
1.0
 40
1.0
 40
1.0
 10
11.8350326425
 20
10.0286255334
 30
0.0
 10
11.8378846531
 20
10.0284277458
 30
0.0
 10
11.8435083537
 20
10.0279747255
 30
0.0
 10
11.8517945453
 20
10.0271099875
 30
0.0
 10
11.8597796029
 20
10.0260736865
 30
0.0
 10
11.8674102214
 20
10.0248728943
 30
0.0
 10
11.874635628
 20
10.023515776
 30
0.0
 10
11.8814078831
 20
10.0220116102
 30
0.0
 10
11.8876820017
 20
10.0203706162
 30
0.0
 10
11.8925628954
 20
10.0188673146
 30
0.0
 10
11.8961807402
 20
10.017596543
 30
0.0
 10
11.8986846948
 20
10.0166372375
 30
0.0
 10
11.9010350803
 20
10.015652383
 30
0.0
 10
11.9032280285
 20
10.0146435435
 30
0.0
 10
11.9052599762
 20
10.013612436
 30
0.0
 10
11.9071276125
 20
10.0125606707
 30
0.0
 10
11.9088279725
 20
10.0114899869
 30
0.0
 10
11.9103583197
 20
10.0104019479
 30
0.0
 10
11.9117162936
 20
10.0092982256
 30
0.0
 10
11.9128996756
 20
10.0081802179
 30
0.0
 10
11.9139065806
 20
10.0070493883
 30
0.0
 10
11.9147350194
 20
10.0059068728
 30
0.0
 10
11.915383126
 20
10.0047540036
 30
0.0
 10
11.9158485793
 20
10.003592031
 30
0.0
 10
11.9161292143
 20
10.0024234884
 30
0.0
 10
11.9161919634
 20
10.0016382033
 30
0.0
 10
11.9161919665
 20
10.0012506716
 30
0.0
  0
SPLINE
  5
390
100
AcDbEntity
  8
0
100
AcDbSpline
 62
7
  6
CONTINUOUS
 70
0
 71
3
 72
51
 73
47
 74
0
 42
0.0000001
 43
0.0000001
 44
0.0000000001
 40
0.0
 40
0.0
 40
0.0
 40
0.0
 40
0.0312662392
 40
0.0627008745
 40
0.0942960642
 40
0.1260392446
 40
0.1579144615
 40
0.1899025592
 40
0.221981681
 40
0.2541278145
 40
0.2863153737
 40
0.318517804
 40
0.3507082027
 40
0.382859948
 40
0.414947323
 40
0.4469461217
 40
0.4788342321
 40
0.5105921868
 40
0.5422036561
 40
0.5736558897
 40
0.6049400875
 40
0.6360516743
 40
0.6515456942
 40
0.6669968781
 40
0.682405911
 40
0.6977737534
 40
0.7131016407
 40
0.7283910803
 40
0.7436438381
 40
0.7588619289
 40
0.77404761
 40
0.7892033613
 40
0.8043318694
 40
0.8194360148
 40
0.8345188496
 40
0.8495835741
 40
0.8646335195
 40
0.8796721232
 40
0.8947029014
 40
0.9097294272
 40
0.9247553058
 40
0.9397841453
 40
0.954819532
 40
0.9698650075
 40
0.9849240402
 40
1.0
 40
1.0
 40
1.0
 40
1.0
 10
10.2235435055
 20
7.5051383796
 30
0.0
 10
10.2359356158
 20
7.5042789839
 30
0.0
 10
10.2607284562
 20
7.5015570824
 30
0.0
 10
10.2975641748
 20
7.4945301632
 30
0.0
 10
10.3339220476
 20
7.4845932749
 30
0.0
 10
10.3695645355
 20
7.4718110554
 30
0.0
 10
10.4042626726
 20
7.4562664537
 30
0.0
 10
10.4377925823
 20
7.4380600246
 30
0.0
 10
10.4699382333
 20
7.4173094184
 30
0.0
 10
10.5004925079
 20
7.3941486894
 30
0.0
 10
10.529258467
 20
7.3687272217
 30
0.0
 10
10.5560507146
 20
7.3412089836
 30
0.0
 10
10.5806965712
 20
7.31177142
 30
0.0
 10
10.603037023
 20
7.280604211
 30
0.0
 10
10.6229279576
 20
7.2479082512
 30
0.0
 10
10.6402409585
 20
7.2138942466
 30
0.0
 10
10.6548640435
 20
7.1787813756
 30
0.0
 10
10.6667026344
 20
7.142795961
 30
0.0
 10
10.6756799514
 20
7.1061701093
 30
0.0
 10
10.681737483
 20
7.0691395742
 30
0.0
 10
10.684835815
 20
7.0319449191
 30
0.0
 10
10.6849342535
 20
7.000963505
 30
0.0
 10
10.6835166486
 20
6.9763439532
 30
0.0
 10
10.681711561
 20
6.9580110361
 30
0.0
 10
10.6791660911
 20
6.9398170531
 30
0.0
 10
10.6758842942
 20
6.9217910373
 30
0.0
 10
10.6718714481
 20
6.9039622307
 30
0.0
 10
10.6671340769
 20
6.8863594132
 30
0.0
 10
10.6616797713
 20
6.8690110609
 30
0.0
 10
10.6555173132
 20
6.8519452299
 30
0.0
 10
10.6486567087
 20
6.8351894928
 30
0.0
 10
10.6411089972
 20
6.8187709567
 30
0.0
 10
10.6328863366
 20
6.8027161911
 30
0.0
 10
10.6240020711
 20
6.7870511298
 30
0.0
 10
10.6144705301
 20
6.7718011188
 30
0.0
 10
10.6043070762
 20
6.7569908527
 30
0.0
 10
10.593528196
 20
6.742644247
 30
0.0
 10
10.5821513009
 20
6.7287845119
 30
0.0
 10
10.5701947396
 20
6.7154341055
 30
0.0
 10
10.5576778979
 20
6.7026145757
 30
0.0
 10
10.5446210153
 20
6.6903466544
 30
0.0
 10
10.5310451561
 20
6.6786502281
 30
0.0
 10
10.5169723463
 20
6.6675441802
 30
0.0
 10
10.5024252524
 20
6.6570463972
 30
0.0
 10
10.4874277328
 20
6.6471741278
 30
0.0
 10
10.4771508845
 20
6.6410235847
 30
0.0
 10
10.4719469054
 20
6.6380581702
 30
0.0
  0
SPLINE
  5
391
100
AcDbEntity
  8
0
100
AcDbSpline
 62
7
  6
CONTINUOUS
 70
0
 71
3
 72
23
 73
19
 74
0
 42
0.0000001
 43
0.0000001
 44
0.0000000001
 40
0.0
 40
0.0
 40
0.0
 40
0.0
 40
0.0637766017
 40
0.1273450758
 40
0.1907019811
 40
0.2538560972
 40
0.3168132288
 40
0.3795820869
 40
0.442173391
 40
0.5045993435
 40
0.5668738649
 40
0.6290123754
 40
0.6910316459
 40
0.7529496407
 40
0.8147853465
 40
0.8765585942
 40
0.9382898499
 40
1.0
 40
1.0
 40
1.0
 40
1.0
 10
11.493160632
 20
7.2100218462
 30
0.0
 10
11.493160632
 20
7.2042360765
 30
0.0
 10
11.4928836768
 20
7.1926814585
 30
0.0
 10
11.4916337655
 20
7.1754198435
 30
0.0
 10
11.4895525973
 20
7.1582950256
 30
0.0
 10
11.4866451898
 20
7.1413472903
 30
0.0
 10
11.4829180264
 20
7.1246153302
 30
0.0
 10
11.4783797394
 20
7.1081378256
 30
0.0
 10
11.4730407723
 20
7.0919527418
 30
0.0
 10
11.4669133418
 20
7.0760974134
 30
0.0
 10
11.4600115509
 20
7.0606084139
 30
0.0
 10
11.4523513214
 20
7.0455214507
 30
0.0
 10
11.4439502884
 20
7.0308713278
 30
0.0
 10
11.4348277533
 20
7.0166918621
 30
0.0
 10
11.4250047936
 20
7.0030157841
 30
0.0
 10
11.414503959
 20
6.9898745228
 30
0.0
 10
11.403349879
 20
6.977298798
 30
0.0
 10
11.3954939341
 20
6.9693099354
 30
0.0
 10
11.3914673204
 20
6.9654205429
 30
0.0
  0
SPLINE
  5
392
100
AcDbEntity
  8
0
100
AcDbSpline
 62
7
  6
CONTINUOUS
 70
0
 71
3
 72
35
 73
31
 74
0
 42
0.0000001
 43
0.0000001
 44
0.0000000001
 40
0.0
 40
0.0
 40
0.0
 40
0.0
 40
0.0306749424
 40
0.0614539339
 40
0.0923319594
 40
0.1233076894
 40
0.15437658
 40
0.1855337963
 40
0.216773717
 40
0.248089889
 40
0.2794752131
 40
0.3109219592
 40
0.3424218573
 40
0.3739661715
 40
0.4371345757
 40
0.50036762
 40
0.5635867548
 40
0.6267139148
 40
0.6582277934
 40
0.6896910398
 40
0.7210952413
 40
0.7524325048
 40
0.7836955284
 40
0.81487769
 40
0.8459730589
 40
0.876976577
 40
0.9078840101
 40
0.9386914492
 40
0.969398221
 40
1.0
 40
1.0
 40
1.0
 40
1.0
 10
11.1309384257
 20
9.5060337937
 30
0.0
 10
11.1368745765
 20
9.5056221203
 30
0.0
 10
11.1487488267
 20
9.5045061338
 30
0.0
 10
11.1664853508
 20
9.5019663844
 30
0.0
 10
11.184136538
 20
9.4985637465
 30
0.0
 10
11.2016590639
 20
9.4943067841
 30
0.0
 10
11.2190111018
 20
9.4892055564
 30
0.0
 10
11.2361507688
 20
9.4832724711
 30
0.0
 10
11.253036841
 20
9.4765218546
 30
0.0
 10
11.2696286618
 20
9.4689699655
 30
0.0
 10
11.2858863051
 20
9.4606349575
 30
0.0
 10
11.3017705571
 20
9.4515370361
 30
0.0
 10
11.3172435728
 20
9.4416978011
 30
0.0
 10
11.3372819543
 20
9.427618319
 30
0.0
 10
11.3611137627
 20
9.4082881617
 30
0.0
 10
11.387476784
 20
9.3825644956
 30
0.0
 10
11.4113728145
 20
9.3545447124
 30
0.0
 10
11.4290527542
 20
9.329484431
 30
0.0
 10
11.4417440359
 20
9.3085638105
 30
0.0
 10
11.4505103284
 20
9.2924828203
 30
0.0
 10
11.458506789
 20
9.2760439612
 30
0.0
 10
11.4657144397
 20
9.2592863942
 30
0.0
 10
11.4721157923
 20
9.242250546
 30
0.0
 10
11.4776954592
 20
9.2249774105
 30
0.0
 10
11.482439999
 20
9.2075085774
 30
0.0
 10
11.4863379417
 20
9.1898860672
 30
0.0
 10
11.489379782
 20
9.1721524237
 30
0.0
 10
11.4915583594
 20
9.1543499714
 30
0.0
 10
11.4928681127
 20
9.1365224275
 30
0.0
 10
11.493160632
 20
9.1246276082
 30
0.0
 10
11.493160632
 20
9.1186913921
 30
0.0
  0
SPLINE
  5
393
100
AcDbEntity
  8
0
100
AcDbSpline
 62
7
  6
CONTINUOUS
 70
0
 71
3
 72
33
 73
29
 74
0
 42
0.0000001
 43
0.0000001
 44
0.0000000001
 40
0.0
 40
0.0
 40
0.0
 40
0.0
 40
0.0306757991
 40
0.0614560641
 40
0.0923350787
 40
0.1233118197
 40
0.1543817882
 40
0.1855400413
 40
0.216781015
 40
0.2480982457
 40
0.310915506
 40
0.3739450919
 40
0.4371156215
 40
0.5003507955
 40
0.5635720599
 40
0.6267013436
 40
0.6582162838
 40
0.6896805925
 40
0.7210858504
 40
0.7524241656
 40
0.7836882462
 40
0.8148714589
 40
0.8459678624
 40
0.8769724562
 40
0.9078808982
 40
0.938689324
 40
0.9693973663
 40
1.0
 40
1.0
 40
1.0
 40
1.0
 10
10.6456531166
 20
9.0073404504
 30
0.0
 10
10.6510985144
 20
9.0069628108
 30
0.0
 10
10.6619911692
 20
9.0059390653
 30
0.0
 10
10.6782614778
 20
9.0036092871
 30
0.0
 10
10.6944535296
 20
9.0004879323
 30
0.0
 10
10.7105275092
 20
8.9965828674
 30
0.0
 10
10.7264451271
 20
8.9919033316
 30
0.0
 10
10.7421678554
 20
8.9864607616
 30
0.0
 10
10.7576582639
 20
8.9802680645
 30
0.0
 10
10.7779694509
 20
8.9710234005
 30
0.0
 10
10.8025893135
 20
8.9576663003
 30
0.0
 10
10.8305838454
 20
8.9389399959
 30
0.0
 10
10.8567999502
 20
8.9176756486
 30
0.0
 10
10.8809844564
 20
8.8940777813
 30
0.0
 10
10.9029049155
 20
8.8683745323
 30
0.0
 10
10.9191233005
 20
8.8453858093
 30
0.0
 10
10.930765473
 20
8.8261946602
 30
0.0
 10
10.9388070875
 20
8.8114430296
 30
0.0
 10
10.9461424827
 20
8.7963631051
 30
0.0
 10
10.9527542987
 20
8.7809908303
 30
0.0
 10
10.9586265029
 20
8.7653632897
 30
0.0
 10
10.9637449025
 20
8.7495180628
 30
0.0
 10
10.9680972186
 20
8.7334933143
 30
0.0
 10
10.9716729307
 20
8.7173276006
 30
0.0
 10
10.9744633273
 20
8.7010599503
 30
0.0
 10
10.9764618079
 20
8.6847291392
 30
0.0
 10
10.9776632696
 20
8.6683753361
 30
0.0
 10
10.9779316205
 20
8.6574638116
 30
0.0
 10
10.9779316205
 20
8.652018354
 30
0.0
  0
SPLINE
  5
394
100
AcDbEntity
  8
0
100
AcDbSpline
 62
7
  6
CONTINUOUS
 70
0
 71
3
 72
35
 73
31
 74
0
 42
0.0000001
 43
0.0000001
 44
0.0000000001
 40
0.0
 40
0.0
 40
0.0
 40
0.0
 40
0.0306749424
 40
0.0614539339
 40
0.0923319594
 40
0.1233076894
 40
0.15437658
 40
0.1855337963
 40
0.216773717
 40
0.248089889
 40
0.2794752131
 40
0.3109219592
 40
0.3424218573
 40
0.3739661715
 40
0.4371345757
 40
0.50036762
 40
0.5635867548
 40
0.6267139148
 40
0.6582277934
 40
0.6896910398
 40
0.7210952413
 40
0.7524325048
 40
0.7836955284
 40
0.81487769
 40
0.8459730589
 40
0.876976577
 40
0.9078840101
 40
0.9386914492
 40
0.969398221
 40
1.0
 40
1.0
 40
1.0
 40
1.0
 10
10.6536765004
 20
9.0450341469
 30
0.0
 10
10.6596126512
 20
9.0446224734
 30
0.0
 10
10.6714869014
 20
9.0435064869
 30
0.0
 10
10.6892234255
 20
9.0409667375
 30
0.0
 10
10.7068746127
 20
9.0375640996
 30
0.0
 10
10.7243971386
 20
9.0333071372
 30
0.0
 10
10.7417491765
 20
9.0282059095
 30
0.0
 10
10.7588888435
 20
9.0222728243
 30
0.0
 10
10.7757749157
 20
9.0155222078
 30
0.0
 10
10.7923667365
 20
9.0079703186
 30
0.0
 10
10.8086243798
 20
8.9996353107
 30
0.0
 10
10.8245086318
 20
8.9905373892
 30
0.0
 10
10.8399816475
 20
8.9806981543
 30
0.0
 10
10.860020029
 20
8.9666186721
 30
0.0
 10
10.8838518374
 20
8.9472885149
 30
0.0
 10
10.9102148587
 20
8.9215648487
 30
0.0
 10
10.9341108892
 20
8.8935450655
 30
0.0
 10
10.9517908289
 20
8.8684847842
 30
0.0
 10
10.9644821106
 20
8.8475641637
 30
0.0
 10
10.9732484031
 20
8.8314831734
 30
0.0
 10
10.9812448637
 20
8.8150443143
 30
0.0
 10
10.9884525144
 20
8.7982867474
 30
0.0
 10
10.994853867
 20
8.7812508991
 30
0.0
 10
11.0004335339
 20
8.7639777637
 30
0.0
 10
11.0051780737
 20
8.7465089306
 30
0.0
 10
11.0090760164
 20
8.7288864203
 30
0.0
 10
11.0121178567
 20
8.7111527769
 30
0.0
 10
11.0142964341
 20
8.6933503246
 30
0.0
 10
11.0156061874
 20
8.6755227807
 30
0.0
 10
11.0158987067
 20
8.6636279614
 30
0.0
 10
11.0158987067
 20
8.6576917452
 30
0.0
  0
SPLINE
  5
395
100
AcDbEntity
  8
0
100
AcDbSpline
 62
7
  6
CONTINUOUS
 70
0
 71
3
 72
39
 73
35
 74
0
 42
0.0000001
 43
0.0000001
 44
0.0000000001
 40
0.0
 40
0.0
 40
0.0
 40
0.0
 40
0.0318705494
 40
0.0636350198
 40
0.0952912924
 40
0.1268441571
 40
0.1582967608
 40
0.1896536958
 40
0.2209207043
 40
0.2521042851
 40
0.2832118489
 40
0.3142515992
 40
0.3452324375
 40
0.3761638836
 40
0.4070559855
 40
0.4379192107
 40
0.4687643289
 40
0.4996023026
 40
0.5304441758
 40
0.5613009513
 40
0.5921834669
 40
0.6231022865
 40
0.6540675936
 40
0.685089078
 40
0.7161758316
 40
0.7473362636
 40
0.7785780286
 40
0.8099079374
 40
0.8413318452
 40
0.8728548158
 40
0.904480735
 40
0.9362120223
 40
0.9680527341
 40
1.0
 40
1.0
 40
1.0
 40
1.0
 10
10.9779316205
 20
6.7433488081
 30
0.0
 10
10.9779316205
 20
6.7379218501
 30
0.0
 10
10.9776659875
 20
6.7270840748
 30
0.0
 10
10.9764671609
 20
6.7108957464
 30
0.0
 10
10.9744711453
 20
6.6948403106
 30
0.0
 10
10.9716829678
 20
6.6789572924
 30
0.0
 10
10.9681091527
 20
6.6632845843
 30
0.0
 10
10.9637583449
 20
6.6478600721
 30
0.0
 10
10.9586410093
 20
6.632720925
 30
0.0
 10
10.9527693681
 20
6.6179036667
 30
0.0
 10
10.9461575983
 20
6.6034440201
 30
0.0
 10
10.9388216337
 20
6.5893768465
 30
0.0
 10
10.9307790992
 20
6.5757360972
 30
0.0
 10
10.9220493504
 20
6.5625546955
 30
0.0
 10
10.9126534745
 20
6.5498644094
 30
0.0
 10
10.9026141144
 20
6.5376958532
 30
0.0
 10
10.8919554283
 20
6.5260784259
 30
0.0
 10
10.8807031518
 20
6.51504013
 30
0.0
 10
10.8688844468
 20
6.5046075652
 30
0.0
 10
10.8565277991
 20
6.4948059151
 30
0.0
 10
10.8436629979
 20
6.4856588458
 30
0.0
 10
10.8303211185
 20
6.4771883567
 30
0.0
 10
10.8165343457
 20
6.4694148548
 30
0.0
 10
10.8023359097
 20
6.4623571188
 30
0.0
 10
10.787760075
 20
6.4560321239
 30
0.0
 10
10.7728420133
 20
6.4504550522
 30
0.0
 10
10.7576176888
 20
6.44563934
 30
0.0
 10
10.7421238048
 20
6.4415966159
 30
0.0
 10
10.7263977294
 20
6.438336508
 30
0.0
 10
10.7104773543
 20
6.4358668515
 30
0.0
 10
10.694401161
 20
6.4341936208
 30
0.0
 10
10.6782074922
 20
6.4333206805
 30
0.0
 10
10.6619362134
 20
6.4332502925
 30
0.0
 10
10.6510801032
 20
6.4337375339
 30
0.0
 10
10.6456531166
 20
6.4341138967
 30
0.0
  0
SPLINE
  5
396
100
AcDbEntity
  8
0
100
AcDbSpline
 62
7
  6
CONTINUOUS
 70
0
 71
3
 72
23
 73
19
 74
0
 42
0.0000001
 43
0.0000001
 44
0.0000000001
 40
0.0
 40
0.0
 40
0.0
 40
0.0
 40
0.0637765977
 40
0.1273450691
 40
0.1907019728
 40
0.2538560883
 40
0.3168132203
 40
0.3795820796
 40
0.4421733855
 40
0.5045993402
 40
0.566873864
 40
0.6290123768
 40
0.6910316495
 40
0.7529496457
 40
0.8147853522
 40
0.8765585995
 40
0.9382898533
 40
1.0
 40
1.0
 40
1.0
 40
1.0
 10
11.0158987067
 20
6.7490221994
 30
0.0
 10
11.0158987067
 20
6.7432364619
 30
0.0
 10
11.0156217546
 20
6.731681908
 30
0.0
 10
11.0143718572
 20
6.7144203882
 30
0.0
 10
11.0122907122
 20
6.6972956637
 30
0.0
 10
11.0093833369
 20
6.6803480191
 30
0.0
 10
11.0056562147
 20
6.6636161465
 30
0.0
 10
11.0011179777
 20
6.6471387253
 30
0.0
 10
10.9957790693
 20
6.6309537205
 30
0.0
 10
10.9896517055
 20
6.615098466
 30
0.0
 10
10.9827499894
 20
6.5996095347
 30
0.0
 10
10.9750898424
 20
6.5845226335
 30
0.0
 10
10.9666888991
 20
6.5698725657
 30
0.0
 10
10.9575664604
 20
6.5556931479
 30
0.0
 10
10.9477436035
 20
6.54201711
 30
0.0
 10
10.9372428775
 20
6.5288758806
 30
0.0
 10
10.9260889116
 20
6.5163001791
 30
0.0
 10
10.9182330458
 20
6.5083113259
 30
0.0
 10
10.9142064723
 20
6.5044219365
 30
0.0
  0
SPLINE
  5
397
100
AcDbEntity
  8
0
100
AcDbSpline
 62
7
  6
CONTINUOUS
 70
0
 71
3
 72
33
 73
29
 74
0
 42
0.0000001
 43
0.0000001
 44
0.0000000001
 40
0.0
 40
0.0
 40
0.0
 40
0.0
 40
0.0306757991
 40
0.0614560641
 40
0.0923350787
 40
0.1233118197
 40
0.1543817882
 40
0.1855400413
 40
0.216781015
 40
0.2480982457
 40
0.310915506
 40
0.3739450919
 40
0.4371156215
 40
0.5003507955
 40
0.5635720599
 40
0.6267013436
 40
0.6582162838
 40
0.6896805925
 40
0.7210858504
 40
0.7524241656
 40
0.7836882462
 40
0.8148714589
 40
0.8459678624
 40
0.8769724562
 40
0.9078808982
 40
0.938689324
 40
0.9693973663
 40
1.0
 40
1.0
 40
1.0
 40
1.0
 10
9.8004679685
 20
6.4927276858
 30
0.0
 10
9.7950225707
 20
6.4931053254
 30
0.0
 10
9.7841299158
 20
6.4941290709
 30
0.0
 10
9.7678596073
 20
6.4964588492
 30
0.0
 10
9.7516675555
 20
6.499580204
 30
0.0
 10
9.7355935759
 20
6.5034852689
 30
0.0
 10
9.719675958
 20
6.5081648046
 30
0.0
 10
9.7039532297
 20
6.5136073746
 30
0.0
 10
9.6884628212
 20
6.5198000717
 30
0.0
 10
9.6681516342
 20
6.5290447357
 30
0.0
 10
9.6435317716
 20
6.5424018359
 30
0.0
 10
9.6155372397
 20
6.5611281403
 30
0.0
 10
9.5893211349
 20
6.5823924876
 30
0.0
 10
9.5651366287
 20
6.605990355
 30
0.0
 10
9.5432161696
 20
6.6316936039
 30
0.0
 10
9.5269977846
 20
6.6546823269
 30
0.0
 10
9.515355612
 20
6.673873476
 30
0.0
 10
9.5073139975
 20
6.6886251066
 30
0.0
 10
9.4999786024
 20
6.7037050311
 30
0.0
 10
9.4933667864
 20
6.719077306
 30
0.0
 10
9.4874945822
 20
6.7347048465
 30
0.0
 10
9.4823761826
 20
6.7505500734
 30
0.0
 10
9.4780238665
 20
6.766574822
 30
0.0
 10
9.4744481544
 20
6.7827405356
 30
0.0
 10
9.4716577578
 20
6.799008186
 30
0.0
 10
9.4696592772
 20
6.815338997
 30
0.0
 10
9.4684578155
 20
6.8316928001
 30
0.0
 10
9.4681894646
 20
6.8426043246
 30
0.0
 10
9.4681894646
 20
6.8480497823
 30
0.0
  0
SPLINE
  5
398
100
AcDbEntity
  8
0
100
AcDbSpline
 62
7
  6
CONTINUOUS
 70
0
 71
3
 72
39
 73
35
 74
0
 42
0.0000001
 43
0.0000001
 44
0.0000000001
 40
0.0
 40
0.0
 40
0.0
 40
0.0
 40
0.0318705494
 40
0.0636350198
 40
0.0952912924
 40
0.1268441571
 40
0.1582967608
 40
0.1896536958
 40
0.2209207043
 40
0.2521042851
 40
0.2832118489
 40
0.3142515992
 40
0.3452324375
 40
0.3761638836
 40
0.4070559855
 40
0.4379192107
 40
0.4687643289
 40
0.4996023026
 40
0.5304441758
 40
0.5613009513
 40
0.5921834669
 40
0.6231022865
 40
0.6540675936
 40
0.685089078
 40
0.7161758316
 40
0.7473362636
 40
0.7785780286
 40
0.8099079374
 40
0.8413318452
 40
0.8728548158
 40
0.904480735
 40
0.9362120223
 40
0.9680527341
 40
1.0
 40
1.0
 40
1.0
 40
1.0
 10
9.4681894646
 20
8.7567193281
 30
0.0
 10
9.4681894646
 20
8.7621462861
 30
0.0
 10
9.4684550976
 20
8.7729840614
 30
0.0
 10
9.4696539242
 20
8.7891723898
 30
0.0
 10
9.4716499398
 20
8.8052278256
 30
0.0
 10
9.4744381173
 20
8.8211108438
 30
0.0
 10
9.4780119324
 20
8.8367835519
 30
0.0
 10
9.4823627402
 20
8.8522080641
 30
0.0
 10
9.4874800757
 20
8.8673472112
 30
0.0
 10
9.493351717
 20
8.8821644695
 30
0.0
 10
9.4999634868
 20
8.8966241161
 30
0.0
 10
9.5072994514
 20
8.9106912897
 30
0.0
 10
9.5153419858
 20
8.9243320391
 30
0.0
 10
9.5240717346
 20
8.9375134407
 30
0.0
 10
9.5334676106
 20
8.9502037268
 30
0.0
 10
9.5435069707
 20
8.962372283
 30
0.0
 10
9.5541656568
 20
8.9739897104
 30
0.0
 10
9.5654179333
 20
8.9850280062
 30
0.0
 10
9.5772366383
 20
8.995460571
 30
0.0
 10
9.589593286
 20
9.0052622212
 30
0.0
 10
9.6024580871
 20
9.0144092904
 30
0.0
 10
9.6157999666
 20
9.0228797795
 30
0.0
 10
9.6295867394
 20
9.0306532814
 30
0.0
 10
9.6437851754
 20
9.0377110174
 30
0.0
 10
9.6583610101
 20
9.0440360123
 30
0.0
 10
9.6732790718
 20
9.049613084
 30
0.0
 10
9.6885033963
 20
9.0544287962
 30
0.0
 10
9.7039972803
 20
9.0584715203
 30
0.0
 10
9.7197233557
 20
9.0617316282
 30
0.0
 10
9.7356437308
 20
9.0642012848
 30
0.0
 10
9.7517199241
 20
9.0658745154
 30
0.0
 10
9.7679135929
 20
9.0667474557
 30
0.0
 10
9.7841848717
 20
9.0668178437
 30
0.0
 10
9.7950409819
 20
9.0663306023
 30
0.0
 10
9.8004679685
 20
9.0659542395
 30
0.0
  0
SPLINE
  5
399
100
AcDbEntity
  8
0
100
AcDbSpline
 62
7
  6
CONTINUOUS
 70
0
 71
3
 72
34
 73
30
 74
0
 42
0.0000001
 43
0.0000001
 44
0.0000000001
 40
0.0
 40
0.0
 40
0.0
 40
0.0
 40
0.005557894
 40
0.0111786647
 40
0.0169229746
 40
0.0228472065
 40
0.0354214771
 40
0.0492487627
 40
0.064566391
 40
0.0815324114
 40
0.1002444952
 40
0.1207557632
 40
0.1430856509
 40
0.1672279695
 40
0.1931568119
 40
0.2208299712
 40
0.2501917763
 40
0.2811755432
 40
0.3137047413
 40
0.3476942214
 40
0.3830516063
 40
0.419677827
 40
0.4963082546
 40
0.5766914083
 40
0.6598655715
 40
0.7448235145
 40
0.8305296316
 40
0.9159351011
 40
1.0
 40
1.0
 40
1.0
 40
1.0
 10
11.6971919945
 20
10.0012504372
 30
0.0
 10
11.6971919924
 20
10.0015213191
 30
0.0
 10
11.6972223061
 20
10.0020666205
 30
0.0
 10
11.6973583938
 20
10.0028816605
 30
0.0
 10
11.6975849416
 20
10.0036948992
 30
0.0
 10
11.698015272
 20
10.0047971375
 30
0.0
 10
11.6987965975
 20
10.0061753892
 30
0.0
 10
11.7000676667
 20
10.0077706236
 30
0.0
 10
11.7016841333
 20
10.0093391439
 30
0.0
 10
11.7036404083
 20
10.0108780317
 30
0.0
 10
11.7059308033
 20
10.0123842286
 30
0.0
 10
11.7085486237
 20
10.0138536676
 30
0.0
 10
11.7114859831
 20
10.0152820509
 30
0.0
 10
11.714733789
 20
10.0166649363
 30
0.0
 10
11.7182818173
 20
10.0179978535
 30
0.0
 10
11.7221187374
 20
10.0192764527
 30
0.0
 10
11.7262321884
 20
10.0204965455
 30
0.0
 10
11.7306088583
 20
10.0216540791
 30
0.0
 10
11.7352345247
 20
10.0227452224
 30
0.0
 10
11.7400941093
 20
10.0237663737
 30
0.0
 10
11.7451717682
 20
10.0247141661
 30
0.0
 10
11.7523187331
 20
10.0258935743
 30
0.0
 10
11.7616744512
 20
10.0271527257
 30
0.0
 10
11.7733257307
 20
10.0283079959
 30
0.0
 10
11.7854131161
 20
10.0291136467
 30
0.0
 10
11.7977785747
 20
10.0295589019
 30
0.0
 10
11.8102605471
 20
10.0296377165
 30
0.0
 10
11.8226957761
 20
10.0293490805
 30
0.0
 10
11.8309452848
 20
10.0289089926
 30
0.0
 10
11.8350326425
 20
10.0286255334
 30
0.0
  0
SPLINE
  5
39A
100
AcDbEntity
  8
0
100
AcDbSpline
 62
7
  6
CONTINUOUS
 70
0
 71
3
 72
34
 73
30
 74
0
 42
0.0000001
 43
0.0000001
 44
0.0000000001
 40
0.0
 40
0.0
 40
0.0
 40
0.0
 40
0.005557894
 40
0.0111786647
 40
0.0169229746
 40
0.0228472065
 40
0.0354214771
 40
0.0492487627
 40
0.064566391
 40
0.0815324114
 40
0.1002444952
 40
0.1207557632
 40
0.1430856509
 40
0.1672279695
 40
0.1931568119
 40
0.2208299712
 40
0.2501917763
 40
0.2811755432
 40
0.3137047413
 40
0.3476942214
 40
0.3830516063
 40
0.419677827
 40
0.4963082546
 40
0.5766914083
 40
0.6598655715
 40
0.7448235145
 40
0.8305296316
 40
0.9159351011
 40
1.0
 40
1.0
 40
1.0
 40
1.0
 10
11.3145784564
 20
9.6006741141
 30
0.0
 10
11.3145784543
 20
9.6009449961
 30
0.0
 10
11.3146087681
 20
9.6014902974
 30
0.0
 10
11.3147448557
 20
9.6023053375
 30
0.0
 10
11.3149714035
 20
9.6031185761
 30
0.0
 10
11.3154017339
 20
9.6042208144
 30
0.0
 10
11.3161830594
 20
9.6055990662
 30
0.0
 10
11.3174541286
 20
9.6071943005
 30
0.0
 10
11.3190705952
 20
9.6087628208
 30
0.0
 10
11.3210268702
 20
9.6103017087
 30
0.0
 10
11.3233172652
 20
9.6118079056
 30
0.0
 10
11.3259350856
 20
9.6132773445
 30
0.0
 10
11.328872445
 20
9.6147057279
 30
0.0
 10
11.3321202509
 20
9.6160886132
 30
0.0
 10
11.3356682792
 20
9.6174215304
 30
0.0
 10
11.3395051993
 20
9.6187001297
 30
0.0
 10
11.3436186503
 20
9.6199202225
 30
0.0
 10
11.3479953202
 20
9.621077756
 30
0.0
 10
11.3526209866
 20
9.6221688993
 30
0.0
 10
11.3574805712
 20
9.6231900507
 30
0.0
 10
11.3625582301
 20
9.624137843
 30
0.0
 10
11.369705195
 20
9.6253172513
 30
0.0
 10
11.3790609131
 20
9.6265764026
 30
0.0
 10
11.3907121926
 20
9.6277316729
 30
0.0
 10
11.402799578
 20
9.6285373237
 30
0.0
 10
11.4151650366
 20
9.6289825788
 30
0.0
 10
11.427647009
 20
9.6290613934
 30
0.0
 10
11.440082238
 20
9.6287727575
 30
0.0
 10
11.4483317467
 20
9.6283326696
 30
0.0
 10
11.4524191045
 20
9.6280492104
 30
0.0
  0
SPLINE
  5
39B
100
AcDbEntity
  8
0
100
AcDbSpline
 62
7
  6
CONTINUOUS
 70
0
 71
3
 72
34
 73
30
 74
0
 42
0.0000001
 43
0.0000001
 44
0.0000000001
 40
0.0
 40
0.0
 40
0.0
 40
0.0
 40
0.005557894
 40
0.0111786647
 40
0.0169229746
 40
0.0228472065
 40
0.0354214771
 40
0.0492487627
 40
0.064566391
 40
0.0815324114
 40
0.1002444952
 40
0.1207557632
 40
0.1430856509
 40
0.1672279695
 40
0.1931568119
 40
0.2208299712
 40
0.2501917763
 40
0.2811755432
 40
0.3137047413
 40
0.3476942214
 40
0.3830516063
 40
0.419677827
 40
0.4963082546
 40
0.5766914083
 40
0.6598655715
 40
0.7448235145
 40
0.8305296316
 40
0.9159351011
 40
1.0
 40
1.0
 40
1.0
 40
1.0
 10
10.5197283312
 20
10.0829078196
 30
0.0
 10
10.5197283291
 20
10.0831787015
 30
0.0
 10
10.5197586428
 20
10.0837240029
 30
0.0
 10
10.5198947305
 20
10.0845390429
 30
0.0
 10
10.5201212783
 20
10.0853522816
 30
0.0
 10
10.5205516087
 20
10.0864545199
 30
0.0
 10
10.5213329342
 20
10.0878327716
 30
0.0
 10
10.5226040034
 20
10.089428006
 30
0.0
 10
10.52422047
 20
10.0909965263
 30
0.0
 10
10.526176745
 20
10.0925354141
 30
0.0
 10
10.52846714
 20
10.094041611
 30
0.0
 10
10.5310849604
 20
10.09551105
 30
0.0
 10
10.5340223198
 20
10.0969394333
 30
0.0
 10
10.5372701257
 20
10.0983223187
 30
0.0
 10
10.540818154
 20
10.0996552359
 30
0.0
 10
10.5446550741
 20
10.1009338351
 30
0.0
 10
10.5487685251
 20
10.1021539279
 30
0.0
 10
10.553145195
 20
10.1033114615
 30
0.0
 10
10.5577708614
 20
10.1044026048
 30
0.0
 10
10.562630446
 20
10.1054237561
 30
0.0
 10
10.5677081049
 20
10.1063715485
 30
0.0
 10
10.5748550698
 20
10.1075509567
 30
0.0
 10
10.5842107879
 20
10.1088101081
 30
0.0
 10
10.5958620674
 20
10.1099653783
 30
0.0
 10
10.6079494528
 20
10.1107710291
 30
0.0
 10
10.6203149114
 20
10.1112162843
 30
0.0
 10
10.6327968838
 20
10.1112950989
 30
0.0
 10
10.6452321128
 20
10.1110064629
 30
0.0
 10
10.6534816215
 20
10.110566375
 30
0.0
 10
10.6575689792
 20
10.1102829158
 30
0.0
  0
SPLINE
  5
39C
100
AcDbEntity
  8
0
100
AcDbSpline
 62
7
  6
CONTINUOUS
 70
0
 71
3
 72
34
 73
30
 74
0
 42
0.0000001
 43
0.0000001
 44
0.0000000001
 40
0.0
 40
0.0
 40
0.0
 40
0.0
 40
0.005557894
 40
0.0111786647
 40
0.0169229746
 40
0.0228472065
 40
0.0354214771
 40
0.0492487627
 40
0.064566391
 40
0.0815324114
 40
0.1002444952
 40
0.1207557632
 40
0.1430856509
 40
0.1672279695
 40
0.1931568119
 40
0.2208299712
 40
0.2501917763
 40
0.2811755432
 40
0.3137047413
 40
0.3476942214
 40
0.3830516063
 40
0.419677827
 40
0.4963082546
 40
0.5766914083
 40
0.6598655715
 40
0.7448235145
 40
0.8305296316
 40
0.9159351011
 40
1.0
 40
1.0
 40
1.0
 40
1.0
 10
10.0772273677
 20
9.6864847036
 30
0.0
 10
10.0772273656
 20
9.6867555855
 30
0.0
 10
10.0772576794
 20
9.6873008869
 30
0.0
 10
10.077393767
 20
9.6881159269
 30
0.0
 10
10.0776203148
 20
9.6889291656
 30
0.0
 10
10.0780506452
 20
9.6900314039
 30
0.0
 10
10.0788319707
 20
9.6914096556
 30
0.0
 10
10.08010304
 20
9.69300489
 30
0.0
 10
10.0817195065
 20
9.6945734103
 30
0.0
 10
10.0836757816
 20
9.6961122981
 30
0.0
 10
10.0859661765
 20
9.6976184951
 30
0.0
 10
10.0885839969
 20
9.699087934
 30
0.0
 10
10.0915213563
 20
9.7005163173
 30
0.0
 10
10.0947691622
 20
9.7018992027
 30
0.0
 10
10.0983171905
 20
9.7032321199
 30
0.0
 10
10.1021541106
 20
9.7045107191
 30
0.0
 10
10.1062675616
 20
9.7057308119
 30
0.0
 10
10.1106442316
 20
9.7068883455
 30
0.0
 10
10.1152698979
 20
9.7079794888
 30
0.0
 10
10.1201294826
 20
9.7090006401
 30
0.0
 10
10.1252071414
 20
9.7099484325
 30
0.0
 10
10.1323541063
 20
9.7111278407
 30
0.0
 10
10.1417098244
 20
9.7123869921
 30
0.0
 10
10.1533611039
 20
9.7135422624
 30
0.0
 10
10.1654484893
 20
9.7143479131
 30
0.0
 10
10.1778139479
 20
9.7147931683
 30
0.0
 10
10.1902959203
 20
9.7148719829
 30
0.0
 10
10.2027311493
 20
9.7145833469
 30
0.0
 10
10.210980658
 20
9.714143259
 30
0.0
 10
10.2150680158
 20
9.7138597998
 30
0.0
  0
SPLINE
  5
39D
100
AcDbEntity
  8
0
100
AcDbSpline
 62
7
  6
CONTINUOUS
 70
0
 71
3
 72
71
 73
67
 74
0
 42
0.0000001
 43
0.0000001
 44
0.0000000001
 40
0.0
 40
0.0
 40
0.0
 40
0.0
 40
0.0156746351
 40
0.0314022609
 40
0.0471806272
 40
0.0630088927
 40
0.0788847467
 40
0.0948057509
 40
0.1107690096
 40
0.1267712316
 40
0.1428087899
 40
0.1588777356
 40
0.1749738414
 40
0.1910926416
 40
0.2072294721
 40
0.2233795107
 40
0.2395378182
 40
0.2556993841
 40
0.2718591706
 40
0.2880121556
 40
0.3041533748
 40
0.320277966
 40
0.3363812139
 40
0.3524585912
 40
0.368505797
 40
0.3845187966
 40
0.4004938613
 40
0.4164276033
 40
0.4323170077
 40
0.4481594614
 40
0.4639527825
 40
0.4796952457
 40
0.4953856016
 40
0.5110230911
 40
0.526607458
 40
0.5421389594
 40
0.5576183675
 40
0.5730469662
 40
0.5884265423
 40
0.6037593738
 40
0.6190482136
 40
0.634296264
 40
0.6495071467
 40
0.6646848678
 40
0.679833781
 40
0.6949585437
 40
0.710064069
 40
0.7251554736
 40
0.7402380236
 40
0.7553170808
 40
0.7703980447
 40
0.7854862949
 40
0.800587132
 40
0.8157057217
 40
0.8308470417
 40
0.8460158298
 40
0.8612165344
 40
0.8764532687
 40
0.891729769
 40
0.9070493679
 40
0.9224149441
 40
0.9378289236
 40
0.9532932898
 40
0.9688092124
 40
0.9843783603
 40
1.0
 40
1.0
 40
1.0
 40
1.0
 10
10.4350812565
 20
7.9528296171
 30
0.0
 10
10.4291952861
 20
7.9532378105
 30
0.0
 10
10.4174214787
 20
7.9543443456
 30
0.0
 10
10.3998349725
 20
7.9568626309
 30
0.0
 10
10.3823331041
 20
7.9602364815
 30
0.0
 10
10.3649587756
 20
7.9644574435
 30
0.0
 10
10.3477534983
 20
7.9695155126
 30
0.0
 10
10.3307588002
 20
7.9753984148
 30
0.0
 10
10.314015556
 20
7.9820919482
 30
0.0
 10
10.2975640693
 20
7.989579974
 30
0.0
 10
10.2814439379
 20
7.9978444449
 30
0.0
 10
10.2656939718
 20
8.0068654695
 30
0.0
 10
10.25035207
 20
8.0166212981
 30
0.0
 10
10.2354551487
 20
8.0270884219
 30
0.0
 10
10.2210390599
 20
8.0382416356
 30
0.0
 10
10.2071385094
 20
8.0500540973
 30
0.0
 10
10.1937869627
 20
8.062497375
 30
0.0
 10
10.1810165403
 20
8.0755414951
 30
0.0
 10
10.1688579778
 20
8.0891550564
 30
0.0
 10
10.1573405467
 20
8.103305295
 30
0.0
 10
10.1464919948
 20
8.1179581674
 30
0.0
 10
10.1363384357
 20
8.1330783987
 30
0.0
 10
10.1269043065
 20
8.1486295889
 30
0.0
 10
10.1182123288
 20
8.1645743113
 30
0.0
 10
10.1102834534
 20
8.1808741971
 30
0.0
 10
10.1031368036
 20
8.1974900213
 30
0.0
 10
10.0967895843
 20
8.2143817803
 30
0.0
 10
10.0912570946
 20
8.2315088146
 30
0.0
 10
10.0865526844
 20
8.2488298987
 30
0.0
 10
10.0826877345
 20
8.2663033405
 30
0.0
 10
10.0796715815
 20
8.2838870688
 30
0.0
 10
10.0775115042
 20
8.3015387429
 30
0.0
 10
10.0762127412
 20
8.3192158586
 30
0.0
 10
10.0757784703
 20
8.3368758448
 30
0.0
 10
10.0762098026
 20
8.3544761631
 30
0.0
 10
10.0775057189
 20
8.3719744131
 30
0.0
 10
10.0796631309
 20
8.3893284372
 30
0.0
 10
10.0826768856
 20
8.4064964177
 30
0.0
 10
10.0865397847
 20
8.4234369728
 30
0.0
 10
10.0912425641
 20
8.4401092628
 30
0.0
 10
10.0967739059
 20
8.456473098
 30
0.0
 10
10.1031205124
 20
8.4724890226
 30
0.0
 10
10.1102671247
 20
8.4881184099
 30
0.0
 10
10.1181965664
 20
8.5033235496
 30
0.0
 10
10.1268897269
 20
8.5180677702
 30
0.0
 10
10.1363256544
 20
8.5323155101
 30
0.0
 10
10.1464816121
 20
8.5460323971
 30
0.0
 10
10.1573331339
 20
8.5591853276
 30
0.0
 10
10.1688540636
 20
8.57174256
 30
0.0
 10
10.1810165971
 20
8.5836738185
 30
0.0
 10
10.1937913962
 20
8.5949503283
 30
0.0
 10
10.2071476488
 20
8.6055448911
 30
0.0
 10
10.221053149
 20
8.6154319402
 30
0.0
 10
10.2354743401
 20
8.6245876505
 30
0.0
 10
10.2503764215
 20
8.6329899735
 30
0.0
 10
10.2657234446
 20
8.6406186701
 30
0.0
 10
10.2814783961
 20
8.6474553594
 30
0.0
 10
10.2976032806
 20
8.6534835693
 30
0.0
 10
10.3140591997
 20
8.658688827
 30
0.0
 10
10.3308064714
 20
8.6630586242
 30
0.0
 10
10.3478047164
 20
8.6665824704
 30
0.0
 10
10.365012992
 20
8.6692519001
 30
0.0
 10
10.3823897071
 20
8.671060475
 30
0.0
 10
10.3998933237
 20
8.6720040319
 30
0.0
 10
10.4174808833
 20
8.6720801518
 30
0.0
 10
10.4292151864
 20
8.67155347
 30
0.0
 10
10.4350812565
 20
8.6711466567
 30
0.0
  0
SPLINE
  5
39E
100
AcDbEntity
  8
0
100
AcDbSpline
 62
7
  6
CONTINUOUS
 70
0
 71
3
 72
35
 73
31
 74
0
 42
0.0000001
 43
0.0000001
 44
0.0000000001
 40
0.0
 40
0.0
 40
0.0
 40
0.0
 40
0.0908340852
 40
0.1814355187
 40
0.2707655347
 40
0.357821797
 40
0.4416686393
 40
0.5214541759
 40
0.5595859647
 40
0.5964284021
 40
0.6319041854
 40
0.6659436537
 40
0.6984848866
 40
0.729473487
 40
0.7588640005
 40
0.7866196806
 40
0.8127135347
 40
0.8371300097
 40
0.8598657948
 40
0.8809330791
 40
0.9003625511
 40
0.9182080613
 40
0.9345538385
 40
0.9495224638
 40
0.9632858923
 40
0.9760755122
 40
0.982200994
 40
0.988199326
 40
0.9941163448
 40
1.0
 40
1.0
 40
1.0
 40
1.0
 10
11.0815236681
 20
9.9544976645
 30
0.0
 10
11.0859733563
 20
9.9545984222
 30
0.0
 10
11.0948647909
 20
9.9546701676
 30
0.0
 10
11.1081310881
 20
9.9543953991
 30
0.0
 10
11.1211990437
 20
9.9537437219
 30
0.0
 10
11.1339117024
 20
9.9527258735
 30
0.0
 10
11.1461210213
 20
9.9513576947
 30
0.0
 10
11.1559049485
 20
9.9499218625
 30
0.0
 10
11.1633734394
 20
9.9486056774
 30
0.0
 10
11.1686837668
 20
9.9475595087
 30
0.0
 10
11.1737746429
 20
9.9464428594
 30
0.0
 10
11.1786337664
 20
9.9452592642
 30
0.0
 10
11.1832497211
 20
9.9440124157
 30
0.0
 10
11.1876119733
 20
9.942706031
 30
0.0
 10
11.1917108636
 20
9.9413439698
 30
0.0
 10
11.1955375781
 20
9.9399301055
 30
0.0
 10
11.1990841214
 20
9.938468327
 30
0.0
 10
11.2023433238
 20
9.9369625956
 30
0.0
 10
11.2053087824
 20
9.9354167651
 30
0.0
 10
11.2079748755
 20
9.9338346723
 30
0.0
 10
11.2103367254
 20
9.9322200089
 30
0.0
 10
11.2123900894
 20
9.930576138
 30
0.0
 10
11.2141313067
 20
9.9289061846
 30
0.0
 10
11.2155568973
 20
9.9272124632
 30
0.0
 10
11.2166629881
 20
9.9254975347
 30
0.0
 10
11.2173239022
 20
9.9240306638
 30
0.0
 10
11.2176776725
 20
9.9228608495
 30
0.0
 10
11.2178573568
 20
9.921994017
 30
0.0
 10
11.2179548168
 20
9.9211261219
 30
0.0
 10
11.2179648506
 20
9.9205469573
 30
0.0
 10
11.2179561959
 20
9.9202587908
 30
0.0
  0
SPLINE
  5
39F
100
AcDbEntity
  8
0
100
AcDbSpline
 62
7
  6
CONTINUOUS
 70
0
 71
3
 72
15
 73
11
 74
0
 42
0.0000001
 43
0.0000001
 44
0.0000000001
 40
0.0
 40
0.0
 40
0.0
 40
0.0
 40
0.1112823695
 40
0.2228555481
 40
0.3367608799
 40
0.454908217
 40
0.5789969762
 40
0.7104736498
 40
0.8505099592
 40
1.0
 40
1.0
 40
1.0
 40
1.0
 10
11.2818063093
 20
9.8018854263
 30
0.0
 10
11.2817588029
 20
9.802275669
 30
0.0
 10
11.281718145
 20
9.8030650068
 30
0.0
 10
11.281826914
 20
9.804253498
 30
0.0
 10
11.2821049568
 20
9.8054390105
 30
0.0
 10
11.2825511063
 20
9.8066189095
 30
0.0
 10
11.2831638023
 20
9.8077915351
 30
0.0
 10
11.2839414852
 20
9.8089555764
 30
0.0
 10
11.284882517
 20
9.8101097197
 30
0.0
 10
11.28559344
 20
9.8108467285
 30
0.0
 10
11.2859732774
 20
9.8112136233
 30
0.0
  0
SPLINE
  5
3A0
100
AcDbEntity
  8
0
100
AcDbSpline
 62
7
  6
CONTINUOUS
 70
0
 71
3
 72
32
 73
28
 74
0
 42
0.0000001
 43
0.0000001
 44
0.0000000001
 40
0.0
 40
0.0
 40
0.0
 40
0.0
 40
0.0958350133
 40
0.1891086299
 40
0.2792520242
 40
0.3657239766
 40
0.4480156633
 40
0.5256576281
 40
0.5982269975
 40
0.6324943547
 40
0.6653613378
 40
0.6967924401
 40
0.7267581378
 40
0.7552341308
 40
0.7822036768
 40
0.8076572578
 40
0.8315954232
 40
0.8540292433
 40
0.8749840421
 40
0.8945012056
 40
0.9126433592
 40
0.9294981369
 40
0.9451849406
 40
0.9598599088
 40
0.973721248
 40
0.9870091801
 40
1.0
 40
1.0
 40
1.0
 40
1.0
 10
10.6247315823
 20
9.8905644603
 30
0.0
 10
10.6279873416
 20
9.8903386727
 30
0.0
 10
10.6344071482
 20
9.8898215224
 30
0.0
 10
10.6438663598
 20
9.8888343625
 30
0.0
 10
10.652981798
 20
9.8876513595
 30
0.0
 10
10.661692614
 20
9.886280567
 30
0.0
 10
10.6699408925
 20
9.8847313355
 30
0.0
 10
10.6776716927
 20
9.883014187
 30
0.0
 10
10.6837513953
 20
9.8814242363
 30
0.0
 10
10.6883122586
 20
9.8800693581
 30
0.0
 10
10.6915068451
 20
9.8790381356
 30
0.0
 10
10.6945358373
 20
9.8779740811
 30
0.0
 10
10.6973942353
 20
9.8768790133
 30
0.0
 10
10.7000773112
 20
9.8757547005
 30
0.0
 10
10.7025806754
 20
9.8746030736
 30
0.0
 10
10.704900224
 20
9.8734259589
 30
0.0
 10
10.7070322249
 20
9.8722253347
 30
0.0
 10
10.7089732324
 20
9.8710030361
 30
0.0
 10
10.7107202001
 20
9.8697610084
 30
0.0
 10
10.7122703365
 20
9.868500991
 30
0.0
 10
10.7136212285
 20
9.8672247544
 30
0.0
 10
10.714770579
 20
9.8659337935
 30
0.0
 10
10.7157162897
 20
9.8646295758
 30
0.0
 10
10.7164560305
 20
9.8633134645
 30
0.0
 10
10.7169873748
 20
9.8619870225
 30
0.0
 10
10.7173076158
 20
9.8606530371
 30
0.0
 10
10.7173792311
 20
9.8597565933
 30
0.0
 10
10.7173792236
 20
9.8593142021
 30
0.0
  0
SPLINE
  5
3A1
100
AcDbEntity
  8
0
100
AcDbSpline
 62
7
  6
CONTINUOUS
 70
0
 71
3
 72
44
 73
40
 74
0
 42
0.0000001
 43
0.0000001
 44
0.0000000001
 40
0.0
 40
0.0
 40
0.0
 40
0.0
 40
0.005449841
 40
0.0110784602
 40
0.0169508186
 40
0.0231224682
 40
0.0296394998
 40
0.0365393323
 40
0.0438514597
 40
0.0515988978
 40
0.0597990076
 40
0.0684644797
 40
0.0776043195
 40
0.0872241314
 40
0.0973270321
 40
0.1079138461
 40
0.1305310937
 40
0.1550515726
 40
0.1814284055
 40
0.2095989404
 40
0.2394873913
 40
0.2710066463
 40
0.3040593861
 40
0.3385387677
 40
0.3743287533
 40
0.4113044111
 40
0.4493321416
 40
0.4882698247
 40
0.5279669833
 40
0.6089942113
 40
0.6910596265
 40
0.7320311338
 40
0.7727101042
 40
0.8129051365
 40
0.8524241513
 40
0.8910768653
 40
0.9286756651
 40
0.9650415976
 40
1.0
 40
1.0
 40
1.0
 40
1.0
 10
10.7803034944
 20
9.7413873157
 30
0.0
 10
10.7803677387
 20
9.741765029
 30
0.0
 10
10.780546917
 20
9.7425253179
 30
0.0
 10
10.7809554873
 20
9.7436473331
 30
0.0
 10
10.7815055873
 20
9.7447638633
 30
0.0
 10
10.7821955213
 20
9.745873648
 30
0.0
 10
10.7830237161
 20
9.746975892
 30
0.0
 10
10.7839887043
 20
9.7480696867
 30
0.0
 10
10.7850889243
 20
9.7491542387
 30
0.0
 10
10.7863228847
 20
9.7502286185
 30
0.0
 10
10.78768898
 20
9.7512919174
 30
0.0
 10
10.7891855318
 20
9.7523432088
 30
0.0
 10
10.7908108112
 20
9.7533814825
 30
0.0
 10
10.7925629456
 20
9.7544058047
 30
0.0
 10
10.7944400129
 20
9.7554151925
 30
0.0
 10
10.7971671678
 20
9.7567697627
 30
0.0
 10
10.8008812999
 20
9.7584105576
 30
0.0
 10
10.8057076309
 20
9.7602638858
 30
0.0
 10
10.8109780727
 20
9.7620352385
 30
0.0
 10
10.8166720369
 20
9.7637173639
 30
0.0
 10
10.822767714
 20
9.7653032191
 30
0.0
 10
10.8292417592
 20
9.7667859881
 30
0.0
 10
10.8360693776
 20
9.7681591059
 30
0.0
 10
10.8432242567
 20
9.7694162741
 30
0.0
 10
10.8506785245
 20
9.7705514954
 30
0.0
 10
10.8584027078
 20
9.771559098
 30
0.0
 10
10.8663656895
 20
9.7724337561
 30
0.0
 10
10.8745347248
 20
9.7731705813
 30
0.0
 10
10.8857315362
 20
9.7739685476
 30
0.0
 10
10.8999779632
 20
9.7745893776
 30
0.0
 10
10.9143269858
 20
9.774704281
 30
0.0
 10
10.9258350948
 20
9.7744855168
 30
0.0
 10
10.9343956769
 20
9.7741652996
 30
0.0
 10
10.9428467445
 20
9.7736894371
 30
0.0
 10
10.9511449013
 20
9.7730593379
 30
0.0
 10
10.9592468159
 20
9.7722774083
 30
0.0
 10
10.9671099351
 20
9.7713470835
 30
0.0
 10
10.9746924592
 20
9.7702727522
 30
0.0
 10
10.9796388966
 20
9.7694466007
 30
0.0
 10
10.9820571718
 20
9.7690083444
 30
0.0
  0
SPLINE
  5
3A2
100
AcDbEntity
  8
0
100
AcDbSpline
 62
7
  6
CONTINUOUS
 70
0
 71
3
 72
36
 73
32
 74
0
 42
0.0000001
 43
0.0000001
 44
0.0000000001
 40
0.0
 40
0.0
 40
0.0
 40
0.0
 40
0.0055578162
 40
0.0111785519
 40
0.0169227929
 40
0.0228470355
 40
0.0354212926
 40
0.0421661849
 40
0.0492574986
 40
0.0645751423
 40
0.0815411183
 40
0.1002533171
 40
0.1207645483
 40
0.1430942648
 40
0.1672365547
 40
0.1931652558
 40
0.2208381065
 40
0.2501997028
 40
0.2811832043
 40
0.3137119696
 40
0.3477010678
 40
0.3830580585
 40
0.4196837418
 40
0.4574732145
 40
0.4963164277
 40
0.5766983366
 40
0.6598712021
 40
0.7448277752
 40
0.8305324215
 40
0.9159365645
 40
1.0
 40
1.0
 40
1.0
 40
1.0
 10
10.467379233
 20
9.8593147665
 30
0.0
 10
10.4673792382
 20
9.8596239911
 30
0.0
 10
10.4674138868
 20
9.8602464812
 30
0.0
 10
10.4675693138
 20
9.8611768718
 30
0.0
 10
10.4678279251
 20
9.8621052475
 30
0.0
 10
10.4683192372
 20
9.8633634101
 30
0.0
 10
10.4690159551
 20
9.8645925365
 30
0.0
 10
10.4698831529
 20
9.8657796807
 30
0.0
 10
10.4709315095
 20
9.8670191718
 30
0.0
 10
10.4725077883
 20
9.8685484528
 30
0.0
 10
10.4747408317
 20
9.8703050585
 30
0.0
 10
10.4773555632
 20
9.8720244542
 30
0.0
 10
10.4803439638
 20
9.8737018693
 30
0.0
 10
10.4836971458
 20
9.8753324453
 30
0.0
 10
10.4874047222
 20
9.8769110446
 30
0.0
 10
10.491455007
 20
9.8784326177
 30
0.0
 10
10.4958350621
 20
9.8798922021
 30
0.0
 10
10.5005307947
 20
9.8812849738
 30
0.0
 10
10.505526999
 20
9.8826063339
 30
0.0
 10
10.5108074327
 20
9.8838519244
 30
0.0
 10
10.5163548971
 20
9.885017607
 30
0.0
 10
10.5221512916
 20
9.8860995145
 30
0.0
 10
10.5281776685
 20
9.8870940768
 30
0.0
 10
10.5344143377
 20
9.887998024
 30
0.0
 10
10.54308208
 20
9.8890908134
 30
0.0
 10
10.5542904728
 20
9.890201979
 30
0.0
 10
10.5680886511
 20
9.8911216966
 30
0.0
 10
10.5822044115
 20
9.8916299495
 30
0.0
 10
10.5964531342
 20
9.8917199219
 30
0.0
 10
10.6106485029
 20
9.891390421
 30
0.0
 10
10.6200656851
 20
9.8908880414
 30
0.0
 10
10.6247315823
 20
9.8905644603
 30
0.0
  0
SPLINE
  5
3A3
100
AcDbEntity
  8
0
100
AcDbSpline
 62
7
  6
CONTINUOUS
 70
0
 71
3
 72
33
 73
29
 74
0
 42
0.0000001
 43
0.0000001
 44
0.0000000001
 40
0.0
 40
0.0
 40
0.0
 40
0.0
 40
0.0123710222
 40
0.0251085263
 40
0.0384956078
 40
0.0527743658
 40
0.0681410899
 40
0.0847488759
 40
0.1027131281
 40
0.1221188151
 40
0.1430255117
 40
0.1654734027
 40
0.1894856401
 40
0.2150726423
 40
0.2422326588
 40
0.2709546672
 40
0.3012183955
 40
0.3329958368
 40
0.3662516876
 40
0.4009434329
 40
0.4370226482
 40
0.4744339248
 40
0.553001057
 40
0.6360944961
 40
0.7230778237
 40
0.813243226
 40
0.9058206413
 40
1.0
 40
1.0
 40
1.0
 40
1.0
 10
10.9678757083
 20
9.921332831
 30
0.0
 10
10.9678910032
 20
9.9218420911
 30
0.0
 10
10.9680093122
 20
9.9228749774
 30
0.0
 10
10.9684434043
 20
9.9244061629
 30
0.0
 10
10.9691325612
 20
9.9259268827
 30
0.0
 10
10.9700738094
 20
9.9274338429
 30
0.0
 10
10.9712646148
 20
9.9289253138
 30
0.0
 10
10.9727029016
 20
9.930399467
 30
0.0
 10
10.9743866758
 20
9.9318544336
 30
0.0
 10
10.9763138813
 20
9.9332879654
 30
0.0
 10
10.9784820727
 20
9.9346977169
 30
0.0
 10
10.9808884572
 20
9.9360810284
 30
0.0
 10
10.9835297034
 20
9.9374352817
 30
0.0
 10
10.9864020242
 20
9.9387576412
 30
0.0
 10
10.9895010668
 20
9.9400453714
 30
0.0
 10
10.9928219609
 20
9.9412956156
 30
0.0
 10
10.9963592646
 20
9.9425055994
 30
0.0
 10
11.0001069736
 20
9.943672536
 30
0.0
 10
11.0040585021
 20
9.9447936665
 30
0.0
 10
11.008206672
 20
9.9458663242
 30
0.0
 10
11.0125437189
 20
9.946887848
 30
0.0
 10
11.0186674881
 20
9.9481997453
 30
0.0
 10
11.0267324079
 20
9.9496851225
 30
0.0
 10
11.0368618699
 20
9.9511984094
 30
0.0
 10
11.0475075498
 20
9.9524537892
 30
0.0
 10
11.0585738115
 20
9.9534373371
 30
0.0
 10
11.0699583506
 20
9.9541380341
 30
0.0
 10
11.0776459679
 20
9.9544098587
 30
0.0
 10
11.0815236681
 20
9.9544976645
 30
0.0
  0
SPLINE
  5
3A4
100
AcDbEntity
  8
0
100
AcDbSpline
 62
7
  6
CONTINUOUS
 70
0
 71
3
 72
34
 73
30
 74
0
 42
0.0000001
 43
0.0000001
 44
0.0000000001
 40
0.0
 40
0.0
 40
0.0
 40
0.0
 40
0.0055579078
 40
0.0111786656
 40
0.0169229159
 40
0.0228471628
 40
0.0354212483
 40
0.0492485142
 40
0.0645659506
 40
0.081531743
 40
0.1002438224
 40
0.1207548527
 40
0.1430846157
 40
0.1672269032
 40
0.1931555627
 40
0.2208286902
 40
0.2501904355
 40
0.2811741528
 40
0.3137033397
 40
0.3476927744
 40
0.3830502311
 40
0.4196764354
 40
0.496307007
 40
0.5766902685
 40
0.6598646038
 40
0.7448227365
 40
0.8305292808
 40
0.9159347399
 40
1.0
 40
1.0
 40
1.0
 40
1.0
 10
10.1855965335
 20
9.7607345009
 30
0.0
 10
10.1855965289
 20
9.7609274587
 30
0.0
 10
10.1856181266
 20
9.761315893
 30
0.0
 10
10.1857150432
 20
9.7618964704
 30
0.0
 10
10.185876378
 20
9.7624757756
 30
0.0
 10
10.186182933
 20
9.7632609173
 30
0.0
 10
10.1867394217
 20
9.7642427182
 30
0.0
 10
10.1876448532
 20
9.7653790306
 30
0.0
 10
10.1887962691
 20
9.7664963502
 30
0.0
 10
10.1901897528
 20
9.7675925632
 30
0.0
 10
10.1918212608
 20
9.7686654552
 30
0.0
 10
10.1936859843
 20
9.7697122035
 30
0.0
 10
10.195778337
 20
9.7707296872
 30
0.0
 10
10.1980918345
 20
9.7717147543
 30
0.0
 10
10.2006191849
 20
9.7726642495
 30
0.0
 10
10.2033523283
 20
9.7735750324
 30
0.0
 10
10.2062824547
 20
9.7744441489
 30
0.0
 10
10.2094000812
 20
9.7752687019
 30
0.0
 10
10.2126950771
 20
9.7760459584
 30
0.0
 10
10.2161567023
 20
9.7767733673
 30
0.0
 10
10.2197736713
 20
9.777448505
 30
0.0
 10
10.2248646721
 20
9.7782886486
 30
0.0
 10
10.2315290383
 20
9.7791855773
 30
0.0
 10
10.2398286055
 20
9.7800085269
 30
0.0
 10
10.248438827
 20
9.7805824255
 30
0.0
 10
10.25724714
 20
9.780899592
 30
0.0
 10
10.2661384426
 20
9.780955736
 30
0.0
 10
10.2749964547
 20
9.7807501391
 30
0.0
 10
10.2808728383
 20
9.7804366491
 30
0.0
 10
10.2837843978
 20
9.7802347318
 30
0.0
  0
SPLINE
  5
3A5
100
AcDbEntity
  8
0
100
AcDbSpline
 62
7
  6
CONTINUOUS
 70
0
 71
3
 72
39
 73
35
 74
0
 42
0.0000001
 43
0.0000001
 44
0.0000000001
 40
0.0
 40
0.0
 40
0.0
 40
0.0
 40
0.0318647468
 40
0.0636217163
 40
0.0952725591
 40
0.1268199626
 40
0.1582676313
 40
0.1896202685
 40
0.2208835394
 40
0.2520640159
 40
0.2831691141
 40
0.3142070313
 40
0.3451866678
 40
0.3761175329
 40
0.4070096453
 40
0.4378734344
 40
0.4687196335
 40
0.499559163
 40
0.5304030108
 40
0.5612621182
 40
0.5921472673
 40
0.6230689654
 40
0.6540373301
 40
0.6850619842
 40
0.716151965
 40
0.7473156298
 40
0.7785605711
 40
0.8098935528
 40
0.8413204015
 40
0.8728460917
 40
0.9044745838
 40
0.9362082267
 40
0.9680507559
 40
1.0
 40
1.0
 40
1.0
 40
1.0
 10
10.7780915607
 20
8.3035671909
 30
0.0
 10
10.7780712541
 20
8.29824124
 30
0.0
 10
10.7777705864
 20
8.2876064617
 30
0.0
 10
10.7765356696
 20
8.2717240051
 30
0.0
 10
10.7745205654
 20
8.255974585
 30
0.0
 10
10.7717300555
 20
8.2403964691
 30
0.0
 10
10.7681707554
 20
8.225026897
 30
0.0
 10
10.7638511885
 20
8.2099027714
 30
0.0
 10
10.7587816991
 20
8.1950603623
 30
0.0
 10
10.7529744072
 20
8.180535289
 30
0.0
 10
10.7464431777
 20
8.1663624275
 30
0.0
 10
10.7392036793
 20
8.1525757881
 30
0.0
 10
10.7312732762
 20
8.1392084555
 30
0.0
 10
10.7226709716
 20
8.126292523
 30
0.0
 10
10.7134173621
 20
8.1138590237
 30
0.0
 10
10.7035346708
 20
8.1019377936
 30
0.0
 10
10.6930466236
 20
8.0905574404
 30
0.0
 10
10.681978383
 20
8.0797452883
 30
0.0
 10
10.6703564899
 20
8.0695273206
 30
0.0
 10
10.6582088665
 20
8.0599280387
 30
0.0
 10
10.6455646856
 20
8.0509704615
 30
0.0
 10
10.632454296
 20
8.0426760833
 30
0.0
 10
10.618909154
 20
8.0350648293
 30
0.0
 10
10.6049617958
 20
8.0281549178
 30
0.0
 10
10.5906457079
 20
8.0219628916
 30
0.0
 10
10.5759952466
 20
8.0165035888
 30
0.0
 10
10.5610455602
 20
8.0117901112
 30
0.0
 10
10.5458325374
 20
8.007833707
 30
0.0
 10
10.5303926806
 20
8.0046438035
 30
0.0
 10
10.5147630015
 20
8.0022280315
 30
0.0
 10
10.4989810957
 20
8.000592216
 30
0.0
 10
10.4830844654
 20
7.9997400814
 30
0.0
 10
10.4671119947
 20
7.9996738302
 30
0.0
 10
10.4564553411
 20
8.0001527625
 30
0.0
 10
10.4511280238
 20
8.0005222132
 30
0.0
  0
SPLINE
  5
3A6
100
AcDbEntity
  8
0
100
AcDbSpline
 62
7
  6
CONTINUOUS
 70
0
 71
3
 72
42
 73
38
 74
0
 42
0.0000001
 43
0.0000001
 44
0.0000000001
 40
0.0
 40
0.0
 40
0.0
 40
0.0
 40
0.0311444614
 40
0.0467771749
 40
0.0624471243
 40
0.0938918364
 40
0.1254739609
 40
0.1571813407
 40
0.1889991953
 40
0.220910588
 40
0.2528967324
 40
0.2849373871
 40
0.3170112522
 40
0.3490963865
 40
0.3811706317
 40
0.4132120391
 40
0.4451992945
 40
0.4771121343
 40
0.508931746
 40
0.54064115
 40
0.572225553
 40
0.6036726688
 40
0.634972998
 40
0.6661200609
 40
0.6971105755
 40
0.7279445747
 40
0.758625456
 40
0.7891599579
 40
0.8195580604
 40
0.8498328062
 40
0.864931572
 40
0.8800056552
 40
0.9100837089
 40
0.9400929741
 40
0.955081501
 40
0.9700611858
 40
1.0
 40
1.0
 40
1.0
 40
1.0
 10
9.8323435503
 20
8.4358918483
 30
0.0
 10
9.8267770258
 20
8.4362778881
 30
0.0
 10
9.8184335433
 20
8.4371630797
 30
0.0
 10
9.807386026
 20
8.4389419563
 30
0.0
 10
9.7963560499
 20
8.4411258721
 30
0.0
 10
9.7826790573
 20
8.4446039507
 30
0.0
 10
9.7665533501
 20
8.4499425338
 30
0.0
 10
9.750778977
 20
8.4564226574
 30
0.0
 10
9.735440516
 20
8.4640095749
 30
0.0
 10
9.7206195609
 20
8.4726627613
 30
0.0
 10
9.7063951181
 20
8.4823360102
 30
0.0
 10
9.6928429665
 20
8.4929777063
 30
0.0
 10
9.6800353199
 20
8.5045310929
 30
0.0
 10
9.6680404298
 20
8.5169345732
 30
0.0
 10
9.6569222298
 20
8.5301220357
 30
0.0
 10
9.6467399972
 20
8.5440232031
 30
0.0
 10
9.6375480399
 20
8.5585640028
 30
0.0
 10
9.6293954094
 20
8.573666957
 30
0.0
 10
9.6223256405
 20
8.5892515915
 30
0.0
 10
9.6163765204
 20
8.6052348584
 30
0.0
 10
9.6115798867
 20
8.6215315734
 30
0.0
 10
9.6079614565
 20
8.6380548635
 30
0.0
 10
9.6055406866
 20
8.6547166237
 30
0.0
 10
9.6043306658
 20
8.6714279818
 30
0.0
 10
9.6043380375
 20
8.6880997617
 30
0.0
 10
9.6055629643
 20
8.7046429718
 30
0.0
 10
9.6079990867
 20
8.720969212
 30
0.0
 10
9.6116336663
 20
8.736991383
 30
0.0
 10
9.6164471996
 20
8.7526232658
 30
0.0
 10
9.6214251939
 20
8.7652685448
 30
0.0
 10
9.6259678792
 20
8.7751022012
 30
0.0
 10
9.6308702983
 20
8.7847220477
 30
0.0
 10
9.6376770387
 20
8.7963577505
 30
0.0
 10
9.6453592447
 20
8.8074164331
 30
0.0
 10
9.6519977708
 20
8.8158694367
 30
0.0
 10
9.6589530196
 20
8.8240465009
 30
0.0
 10
9.6645253664
 20
8.8298678906
 30
0.0
 10
9.6683833679
 20
8.8335944339
 30
0.0
  0
SPLINE
  5
3A7
100
AcDbEntity
  8
0
100
AcDbSpline
 62
7
  6
CONTINUOUS
 70
0
 71
3
 72
25
 73
21
 74
0
 42
0.0000001
 43
0.0000001
 44
0.0000000001
 40
0.0
 40
0.0
 40
0.0
 40
0.0
 40
0.1228162241
 40
0.2379334077
 40
0.3440835439
 40
0.4406482812
 40
0.527564494
 40
0.6051411755
 40
0.6738993852
 40
0.7344560197
 40
0.7874520589
 40
0.8335152
 40
0.8732588277
 40
0.9072795645
 40
0.9361978432
 40
0.9606952703
 40
0.9715480801
 40
0.9816207121
 40
0.9910524754
 40
1.0
 40
1.0
 40
1.0
 40
1.0
 10
10.6565838289
 20
8.1864586384
 30
0.0
 10
10.6580532077
 20
8.1867233027
 30
0.0
 10
10.6609024751
 20
8.1872216524
 30
0.0
 10
10.6650308199
 20
8.1878954704
 30
0.0
 10
10.668851859
 20
8.1884691762
 30
0.0
 10
10.6723411728
 20
8.1889409759
 30
0.0
 10
10.6754930956
 20
8.1893125211
 30
0.0
 10
10.6783154838
 20
8.1895876016
 30
0.0
 10
10.6808241743
 20
8.1897709957
 30
0.0
 10
10.6830387261
 20
8.1898676711
 30
0.0
 10
10.6849795665
 20
8.1898823201
 30
0.0
 10
10.6866664613
 20
8.189819003
 30
0.0
 10
10.6881176135
 20
8.1896813612
 30
0.0
 10
10.6893497414
 20
8.1894719407
 30
0.0
 10
10.6903773695
 20
8.1891928399
 30
0.0
 10
10.6911017506
 20
8.1888909253
 30
0.0
 10
10.691578523
 20
8.1886107978
 30
0.0
 10
10.6918766803
 20
8.1883920763
 30
0.0
 10
10.692130828
 20
8.1881562975
 30
0.0
 10
10.6922744406
 20
8.1879841162
 30
0.0
 10
10.6923380846
 20
8.1878959083
 30
0.0
  0
SPLINE
  5
3A8
100
AcDbEntity
  8
0
100
AcDbSpline
 62
7
  6
CONTINUOUS
 70
0
 71
3
 72
15
 73
11
 74
0
 42
0.0000001
 43
0.0000001
 44
0.0000000001
 40
0.0
 40
0.0
 40
0.0
 40
0.0
 40
0.1232483221
 40
0.246779835
 40
0.3707245571
 40
0.49519814
 40
0.620298041
 40
0.7461008473
 40
0.87265767
 40
1.0
 40
1.0
 40
1.0
 40
1.0
 10
10.7643259581
 20
8.2766474147
 30
0.0
 10
10.7587810466
 20
8.2722224496
 30
0.0
 10
10.7472467178
 20
8.2638885278
 30
0.0
 10
10.7288128026
 20
8.2530793687
 30
0.0
 10
10.70937335
 20
8.2440325436
 30
0.0
 10
10.6890859114
 20
8.2368216034
 30
0.0
 10
10.6681123525
 20
8.2315032577
 30
0.0
 10
10.6466199148
 20
8.2281196112
 30
0.0
 10
10.6247822889
 20
8.2266967335
 30
0.0
 10
10.6101495293
 20
8.2270618815
 30
0.0
 10
10.6028373358
 20
8.2275689838
 30
0.0
  0
SPLINE
  5
3A9
100
AcDbEntity
  8
0
100
AcDbSpline
 62
7
  6
CONTINUOUS
 70
0
 71
3
 72
11
 73
7
 74
0
 42
0.0000001
 43
0.0000001
 44
0.0000000001
 40
0.0
 40
0.0
 40
0.0
 40
0.0
 40
0.2477035146
 40
0.4968631937
 40
0.7476035007
 40
1.0
 40
1.0
 40
1.0
 40
1.0
 10
10.7700958704
 20
8.3519374654
 30
0.0
 10
10.7637203395
 20
8.3498290163
 30
0.0
 10
10.7507118198
 20
8.3462356039
 30
0.0
 10
10.7307098037
 20
8.3427801416
 30
0.0
 10
10.7103404573
 20
8.3412720627
 30
0.0
 10
10.696679679
 20
8.3415736458
 30
0.0
 10
10.6898537207
 20
8.3420470276
 30
0.0
  0
SPLINE
  5
3AA
100
AcDbEntity
  8
0
100
AcDbSpline
 62
7
  6
CONTINUOUS
 70
0
 71
3
 72
23
 73
19
 74
0
 42
0.0000001
 43
0.0000001
 44
0.0000000001
 40
0.0
 40
0.0
 40
0.0
 40
0.0
 40
0.0610321686
 40
0.1225024397
 40
0.1843983181
 40
0.2466895857
 40
0.309329841
 40
0.372258669
 40
0.4354042343
 40
0.4986862088
 40
0.5620189753
 40
0.6253149546
 40
0.6884879828
 40
0.7514566666
 40
0.814147616
 40
0.876498422
 40
0.9384596761
 40
1.0
 40
1.0
 40
1.0
 40
1.0
 10
10.5342057468
 20
8.6337428419
 30
0.0
 10
10.5336078701
 20
8.6268054317
 30
0.0
 10
10.5331398782
 20
8.6128071421
 30
0.0
 10
10.5346108083
 20
8.5917856351
 30
0.0
 10
10.5382345136
 20
8.5708792052
 30
0.0
 10
10.5439717947
 20
8.5503141929
 30
0.0
 10
10.5517604837
 20
8.5303091971
 30
0.0
 10
10.561516954
 20
8.5110778011
 30
0.0
 10
10.5731366886
 20
8.4928249934
 30
0.0
 10
10.5864953749
 20
8.4757453126
 30
0.0
 10
10.6014504706
 20
8.4600209333
 30
0.0
 10
10.6178423728
 20
8.4458195327
 30
0.0
 10
10.6354963015
 20
8.4332927079
 30
0.0
 10
10.6542241706
 20
8.4225744089
 30
0.0
 10
10.6738260718
 20
8.4137792952
 30
0.0
 10
10.6940937844
 20
8.4070018616
 30
0.0
 10
10.7148081845
 20
8.402315208
 30
0.0
 10
10.7288244609
 20
8.4006121898
 30
0.0
 10
10.7358287384
 20
8.4001264415
 30
0.0
  0
SPLINE
  5
3AB
100
AcDbEntity
  8
0
100
AcDbSpline
 62
7
  6
CONTINUOUS
 70
0
 71
3
 72
31
 73
27
 74
0
 42
0.0000001
 43
0.0000001
 44
0.0000000001
 40
0.0
 40
0.0
 40
0.0
 40
0.0
 40
0.0958332694
 40
0.1891085569
 40
0.2792505589
 40
0.3657227067
 40
0.4480141784
 40
0.5256562668
 40
0.5982258803
 40
0.665355985
 40
0.6967872687
 40
0.7267533121
 40
0.755229545
 40
0.7821994697
 40
0.8076534321
 40
0.8315919435
 40
0.854026311
 40
0.8749814005
 40
0.8944992237
 40
0.9126416298
 40
0.9294970449
 40
0.9451840948
 40
0.9598595209
 40
0.9737210632
 40
0.9870091699
 40
1.0
 40
1.0
 40
1.0
 40
1.0
 10
10.2837843978
 20
9.7802347318
 30
0.0
 10
10.2858159316
 20
9.7800938444
 30
0.0
 10
10.2898218436
 20
9.7797711422
 30
0.0
 10
10.2957242959
 20
9.7791551778
 30
0.0
 10
10.3014122722
 20
9.7784169846
 30
0.0
 10
10.3068477395
 20
9.7775616408
 30
0.0
 10
10.3119945864
 20
9.7765949316
 30
0.0
 10
10.3168186414
 20
9.7755234847
 30
0.0
 10
10.3212878667
 20
9.774354565
 30
0.0
 10
10.3247646648
 20
9.7732837443
 30
0.0
 10
10.3273417521
 20
9.7723785242
 30
0.0
 10
10.329125396
 20
9.7716952119
 30
0.0
 10
10.3307996395
 20
9.770993654
 30
0.0
 10
10.3323617495
 20
9.7702750574
 30
0.0
 10
10.3338091637
 20
9.7695405573
 30
0.0
 10
10.335139547
 20
9.7687913751
 30
0.0
 10
10.3363507683
 20
9.7680286946
 30
0.0
 10
10.3374408902
 20
9.7672536619
 30
0.0
 10
10.3384082292
 20
9.7664674577
 30
0.0
 10
10.3392511962
 20
9.76567107
 30
0.0
 10
10.3399684643
 20
9.7648655589
 30
0.0
 10
10.3405586008
 20
9.7640517161
 30
0.0
 10
10.3410202803
 20
9.7632304992
 30
0.0
 10
10.341351873
 20
9.7624028034
 30
0.0
 10
10.3415517717
 20
9.7615704175
 30
0.0
 10
10.3415965178
 20
9.7610110418
 30
0.0
 10
10.3415965243
 20
9.7607349926
 30
0.0
  0
SPLINE
  5
3AC
100
AcDbEntity
  8
0
100
AcDbSpline
 62
7
  6
CONTINUOUS
 70
0
 71
3
 72
23
 73
19
 74
0
 42
0.0000001
 43
0.0000001
 44
0.0000000001
 40
0.0
 40
0.0
 40
0.0
 40
0.0
 40
0.0616482066
 40
0.1233194398
 40
0.1850364729
 40
0.2468215638
 40
0.3086962099
 40
0.3706809215
 40
0.4327950013
 40
0.4950563319
 40
0.5574811817
 40
0.6200840805
 40
0.6828775834
 40
0.7458723398
 40
0.8090769807
 40
0.8724966303
 40
0.9361388571
 40
1.0
 40
1.0
 40
1.0
 40
1.0
 10
9.5479613804
 20
9.0111461879
 30
0.0
 10
9.5521696435
 20
9.0152110768
 30
0.0
 10
9.5608082703
 20
9.0231175769
 30
0.0
 10
9.5743874585
 20
9.0342660913
 30
0.0
 10
9.5885563175
 20
9.044677702
 30
0.0
 10
9.6032786667
 20
9.0543257065
 30
0.0
 10
9.6185175158
 20
9.0631859565
 30
0.0
 10
9.6342344161
 20
9.0712361378
 30
0.0
 10
9.6503897735
 20
9.0784560079
 30
0.0
 10
9.6669428911
 20
9.0848273808
 30
0.0
 10
9.68385206
 20
9.0903342553
 30
0.0
 10
9.7010746741
 20
9.0949628258
 30
0.0
 10
9.7185673545
 20
9.0987014934
 30
0.0
 10
9.7362860858
 20
9.101540872
 30
0.0
 10
9.7541861288
 20
9.1034737927
 30
0.0
 10
9.7722228041
 20
9.1044956242
 30
0.0
 10
9.7903498408
 20
9.1046036151
 30
0.0
 10
9.80244497
 20
9.104067254
 30
0.0
 10
9.8084913523
 20
9.103647936
 30
0.0
  0
SPLINE
  5
3AD
100
AcDbEntity
  8
0
100
AcDbSpline
 62
7
  6
CONTINUOUS
 70
0
 71
3
 72
23
 73
19
 74
0
 42
0.0000001
 43
0.0000001
 44
0.0000000001
 40
0.0
 40
0.0
 40
0.0
 40
0.0
 40
0.0616482031
 40
0.1233194344
 40
0.1850364671
 40
0.2468215587
 40
0.3086962064
 40
0.3706809202
 40
0.4327950026
 40
0.4950563356
 40
0.5574811877
 40
0.6200840884
 40
0.6828775924
 40
0.7458723491
 40
0.8090769894
 40
0.8724966372
 40
0.9361388612
 40
1.0
 40
1.0
 40
1.0
 40
1.0
 10
10.0252243829
 20
9.4721468752
 30
0.0
 10
10.0294326423
 20
9.4762117233
 30
0.0
 10
10.0380712583
 20
9.484118143
 30
0.0
 10
10.051650421
 20
9.4952665419
 30
0.0
 10
10.0658192455
 20
9.5056780431
 30
0.0
 10
10.0805415518
 20
9.5153259443
 30
0.0
 10
10.0957803501
 20
9.524186098
 30
0.0
 10
10.1114971921
 20
9.5322361904
 30
0.0
 10
10.1276524845
 20
9.5394559794
 30
0.0
 10
10.1442055308
 20
9.5458272795
 30
0.0
 10
10.1611146228
 20
9.5513340897
 30
0.0
 10
10.1783371552
 20
9.555962605
 30
0.0
 10
10.1958297495
 20
9.5597012263
 30
0.0
 10
10.2135483911
 20
9.5625405681
 30
0.0
 10
10.2314483415
 20
9.5644734616
 30
0.0
 10
10.2494849221
 20
9.5654952754
 30
0.0
 10
10.2676118627
 20
9.5656032585
 30
0.0
 10
10.2797069275
 20
9.5650668986
 30
0.0
 10
10.2857532776
 20
9.5646475828
 30
0.0
  0
SPLINE
  5
3AE
100
AcDbEntity
  8
0
100
AcDbSpline
 62
7
  6
CONTINUOUS
 70
0
 71
3
 72
64
 73
60
 74
0
 42
0.0000001
 43
0.0000001
 44
0.0000000001
 40
0.0
 40
0.0
 40
0.0
 40
0.0
 40
0.0155801763
 40
0.031107367
 40
0.046583421
 40
0.0620094461
 40
0.0773871668
 40
0.0927188858
 40
0.1080072836
 40
0.123255496
 40
0.1384670628
 40
0.153645891
 40
0.1687962206
 40
0.1839225842
 40
0.1990297634
 40
0.2141227373
 40
0.2292066312
 40
0.244286665
 40
0.2593681009
 40
0.2744561862
 40
0.2895560968
 40
0.304672886
 40
0.3198114341
 40
0.3349763965
 40
0.3501721552
 40
0.3654027773
 40
0.3806719784
 40
0.3959830858
 40
0.4113390048
 40
0.4267421973
 40
0.4421946634
 40
0.4576979241
 40
0.4732530075
 40
0.4888604491
 40
0.5045202923
 40
0.5202320902
 40
0.5359949118
 40
0.5518073605
 40
0.5676675914
 40
0.5835733281
 40
0.5995218857
 40
0.6155102036
 40
0.6315348731
 40
0.6475921664
 40
0.6797799763
 40
0.7120472459
 40
0.7443564228
 40
0.7766685374
 40
0.8089445167
 40
0.841146516
 40
0.8732392113
 40
0.8892387829
 40
0.9051995822
 40
0.9211184236
 40
0.9369925436
 40
0.9528195443
 40
0.9685971854
 40
0.9843248677
 40
1.0
 40
1.0
 40
1.0
 40
1.0
 10
10.4379506815
 20
8.6551022103
 30
0.0
 10
10.4326828157
 20
8.6552550707
 30
0.0
 10
10.4221557847
 20
8.6553056568
 30
0.0
 10
10.4064079506
 20
8.6546118841
 30
0.0
 10
10.390764687
 20
8.653150133
 30
0.0
 10
10.3752629409
 20
8.6509237151
 30
0.0
 10
10.3599390515
 20
8.6479378498
 30
0.0
 10
10.3448290483
 20
8.6441995349
 30
0.0
 10
10.3299684246
 20
8.639717457
 30
0.0
 10
10.3153921004
 20
8.6345021436
 30
0.0
 10
10.3011343195
 20
8.6285658376
 30
0.0
 10
10.2872285945
 20
8.6219224486
 30
0.0
 10
10.2737076319
 20
8.6145875266
 30
0.0
 10
10.2606032018
 20
8.606578321
 30
0.0
 10
10.2479461006
 20
8.5979136508
 30
0.0
 10
10.2357660918
 20
8.5886138536
 30
0.0
 10
10.2240918339
 20
8.5787007519
 30
0.0
 10
10.2129507447
 20
8.5681976749
 30
0.0
 10
10.2023690028
 20
8.5571293146
 30
0.0
 10
10.1923714933
 20
8.5455216724
 30
0.0
 10
10.1829817301
 20
8.5334020216
 30
0.0
 10
10.1742217386
 20
8.5207988832
 30
0.0
 10
10.1661120864
 20
8.5077418876
 30
0.0
 10
10.1586718388
 20
8.4942617136
 30
0.0
 10
10.1519184702
 20
8.4803900464
 30
0.0
 10
10.1458677874
 20
8.4661595106
 30
0.0
 10
10.1405339752
 20
8.4516035493
 30
0.0
 10
10.1359295667
 20
8.4367563556
 30
0.0
 10
10.1320653431
 20
8.4216528183
 30
0.0
 10
10.1289503112
 20
8.4063284286
 30
0.0
 10
10.1265917516
 20
8.3908191782
 30
0.0
 10
10.124995206
 20
8.375161485
 30
0.0
 10
10.1241643698
 20
8.3593921204
 30
0.0
 10
10.1241011287
 20
8.3435481086
 30
0.0
 10
10.1248056015
 20
8.3276666396
 30
0.0
 10
10.126276141
 20
8.3117849924
 30
0.0
 10
10.128509234
 20
8.2959404386
 30
0.0
 10
10.1314995877
 20
8.2801701553
 30
0.0
 10
10.1352401674
 20
8.2645111424
 30
0.0
 10
10.1397222012
 20
8.2490001555
 30
0.0
 10
10.1449351283
 20
8.2336735486
 30
0.0
 10
10.1508666194
 20
8.2185673666
 30
0.0
 10
10.1575029911
 20
8.2037166806
 30
0.0
 10
10.167276389
 20
8.1842908366
 30
0.0
 10
10.181176406
 20
8.1608235452
 30
0.0
 10
10.2003692468
 20
8.1342562276
 30
0.0
 10
10.2219129037
 20
8.1094994311
 30
0.0
 10
10.2456049131
 20
8.0867864692
 30
0.0
 10
10.2712242682
 20
8.066329169
 30
0.0
 10
10.2985297294
 20
8.0483200494
 30
0.0
 10
10.3225083886
 20
8.0354767403
 30
0.0
 10
10.3422741284
 20
8.0265874752
 30
0.0
 10
10.3573414351
 20
8.0206322701
 30
0.0
 10
10.3726287371
 20
8.0153974089
 30
0.0
 10
10.3881005766
 20
8.0108949905
 30
0.0
 10
10.4037204594
 20
8.0071357479
 30
0.0
 10
10.4194520907
 20
8.0041283235
 30
0.0
 10
10.4352578162
 20
8.0018801018
 30
0.0
 10
10.4458385257
 20
8.0008890411
 30
0.0
 10
10.4511280238
 20
8.0005222132
 30
0.0
  0
SPLINE
  5
3AF
100
AcDbEntity
  8
0
100
AcDbSpline
 62
7
  6
CONTINUOUS
 70
0
 71
3
 72
15
 73
11
 74
0
 42
0.0000001
 43
0.0000001
 44
0.0000000001
 40
0.0
 40
0.0
 40
0.0
 40
0.0
 40
0.1242275535
 40
0.2486002923
 40
0.373158805
 40
0.4979416941
 40
0.6229852184
 40
0.7483229762
 40
0.8739855071
 40
1.0
 40
1.0
 40
1.0
 40
1.0
 10
10.4111862005
 20
7.886132202
 30
0.0
 10
10.4089316361
 20
7.8833381491
 30
0.0
 10
10.4045652469
 20
7.8776276664
 30
0.0
 10
10.3984675292
 20
7.8687269566
 30
0.0
 10
10.3928323065
 20
7.8595073175
 30
0.0
 10
10.3876732867
 20
7.8499910636
 30
0.0
 10
10.3830026578
 20
7.8402009041
 30
0.0
 10
10.3788315588
 20
7.8301601411
 30
0.0
 10
10.3751700827
 20
7.8198930812
 30
0.0
 10
10.3730774061
 20
7.8129231858
 30
0.0
 10
10.3721185693
 20
7.8094097949
 30
0.0
  0
SPLINE
  5
3B0
100
AcDbEntity
  8
0
100
AcDbSpline
 62
7
  6
CONTINUOUS
 70
0
 71
3
 72
15
 73
11
 74
0
 42
0.0000001
 43
0.0000001
 44
0.0000000001
 40
0.0
 40
0.0
 40
0.0
 40
0.0
 40
0.1241935413
 40
0.2485373928
 40
0.3730747193
 40
0.4978465554
 40
0.6228913362
 40
0.7482444383
 40
0.8739379101
 40
1.0
 40
1.0
 40
1.0
 40
1.0
 10
10.7371147461
 20
7.5490560021
 30
0.0
 10
10.7341534066
 20
7.5468258926
 30
0.0
 10
10.7281054165
 20
7.5425220382
 30
0.0
 10
10.7186933185
 20
7.5365604323
 30
0.0
 10
10.7089594712
 20
7.5311040307
 30
0.0
 10
10.6989290094
 20
7.5261669475
 30
0.0
 10
10.6886274019
 20
7.5217617046
 30
0.0
 10
10.6780808021
 20
7.517899506
 30
0.0
 10
10.6673164714
 20
7.514590196
 30
0.0
 10
10.6600235385
 20
7.5127607579
 30
0.0
 10
10.6563510994
 20
7.5119405387
 30
0.0
  0
SPLINE
  5
3B1
100
AcDbEntity
  8
0
100
AcDbSpline
 62
7
  6
CONTINUOUS
 70
0
 71
3
 72
21
 73
17
 74
0
 42
0.0000001
 43
0.0000001
 44
0.0000000001
 40
0.0
 40
0.0
 40
0.0
 40
0.0
 40
0.0616532251
 40
0.1233294846
 40
0.1850515438
 40
0.2468416586
 40
0.3087213407
 40
0.3707111063
 40
0.4328302458
 40
0.4950966346
 40
0.5575265706
 40
0.6201345761
 40
0.6829331563
 40
0.7459331329
 40
0.8725263342
 40
1.0
 40
1.0
 40
1.0
 40
1.0
 10
10.7197821743
 20
7.5301669842
 30
0.0
 10
10.7171337683
 20
7.5276088204
 30
0.0
 10
10.7116972114
 20
7.5226329769
 30
0.0
 10
10.7031513743
 20
7.5156168456
 30
0.0
 10
10.694234423
 20
7.5090644954
 30
0.0
 10
10.6849691621
 20
7.5029926816
 30
0.0
 10
10.6753788602
 20
7.4974166083
 30
0.0
 10
10.6654876867
 20
7.4923503688
 30
0.0
 10
10.6553205712
 20
7.4878066879
 30
0.0
 10
10.6449031519
 20
7.483796961
 30
0.0
 10
10.6342616422
 20
7.4803312783
 30
0.0
 10
10.6234229248
 20
7.4774183851
 30
0.0
 10
10.612414002
 20
7.475065518
 30
0.0
 10
10.5975245176
 20
7.472679392
 30
0.0
 10
10.578617247
 20
7.4711291977
 30
0.0
 10
10.5634169387
 20
7.4714258414
 30
0.0
 10
10.5558219919
 20
7.4719525527
 30
0.0
  0
SPLINE
  5
3B2
100
AcDbEntity
  8
0
100
AcDbSpline
 62
7
  6
CONTINUOUS
 70
0
 71
3
 72
15
 73
11
 74
0
 42
0.0000001
 43
0.0000001
 44
0.0000000001
 40
0.0
 40
0.0
 40
0.0
 40
0.0
 40
0.1242275535
 40
0.2486002923
 40
0.373158805
 40
0.4979416941
 40
0.6229852184
 40
0.7483229762
 40
0.8739855071
 40
1.0
 40
1.0
 40
1.0
 40
1.0
 10
9.6877077589
 20
8.8500714976
 30
0.0
 10
9.6854531944
 20
8.8472774447
 30
0.0
 10
9.6810868052
 20
8.8415669619
 30
0.0
 10
9.6749890876
 20
8.8326662522
 30
0.0
 10
9.6693538649
 20
8.8234466131
 30
0.0
 10
9.664194845
 20
8.8139303592
 30
0.0
 10
9.6595242162
 20
8.8041401997
 30
0.0
 10
9.6553531171
 20
8.7940994367
 30
0.0
 10
9.651691641
 20
8.7838323768
 30
0.0
 10
9.6495989644
 20
8.7768624814
 30
0.0
 10
9.6486401277
 20
8.7733490905
 30
0.0
  0
SPLINE
  5
3B3
100
AcDbEntity
  8
0
100
AcDbSpline
 62
7
  6
CONTINUOUS
 70
0
 71
3
 72
55
 73
51
 74
0
 42
0.0000001
 43
0.0000001
 44
0.0000000001
 40
0.0
 40
0.0
 40
0.0
 40
0.0
 40
0.0080497759
 40
0.016767007
 40
0.0261760762
 40
0.0362929605
 40
0.0471255195
 40
0.0586741569
 40
0.070933931
 40
0.0838954445
 40
0.0975453143
 40
0.1118669705
 40
0.1268407563
 40
0.1424447455
 40
0.1754422581
 40
0.2106443141
 40
0.2478080854
 40
0.2866701946
 40
0.3269509613
 40
0.3683581002
 40
0.4105900355
 40
0.4533389332
 40
0.4962935235
 40
0.5391417659
 40
0.5815734062
 40
0.6232824792
 40
0.6639698106
 40
0.7033455874
 40
0.7411320764
 40
0.7593471657
 40
0.7770678074
 40
0.8109061835
 40
0.8269698737
 40
0.8424285655
 40
0.8572589062
 40
0.8714398405
 40
0.8849525702
 40
0.8977813398
 40
0.9099133489
 40
0.9213399061
 40
0.9320565299
 40
0.9420645134
 40
0.9513716272
 40
0.9599942613
 40
0.9679592984
 40
0.9753071617
 40
0.9820952331
 40
0.9884015135
 40
0.9943278229
 40
1.0
 40
1.0
 40
1.0
 40
1.0
 10
11.2859732774
 20
9.8112136233
 30
0.0
 10
11.2864753886
 20
9.8116986255
 30
0.0
 10
11.2875686927
 20
9.8126603387
 30
0.0
 10
11.2893836292
 20
9.8140266932
 30
0.0
 10
11.2914334814
 20
9.8153701285
 30
0.0
 10
11.2937139813
 20
9.8166880938
 30
0.0
 10
11.2962208002
 20
9.8179781796
 30
0.0
 10
11.2989489723
 20
9.8192378968
 30
0.0
 10
11.3018930372
 20
9.8204647466
 30
0.0
 10
11.3050470536
 20
9.8216562844
 30
0.0
 10
11.3084046269
 20
9.8228101669
 30
0.0
 10
11.3119589364
 20
9.8239240361
 30
0.0
 10
11.3157027414
 20
9.8249957536
 30
0.0
 10
11.3210369603
 20
9.8263916075
 30
0.0
 10
11.3281253402
 20
9.8280054358
 30
0.0
 10
11.3371042316
 20
9.8297090922
 30
0.0
 10
11.346635785
 20
9.8312005541
 30
0.0
 10
11.3566435734
 20
9.8324681847
 30
0.0
 10
11.3670479427
 20
9.8335021689
 30
0.0
 10
11.3777664505
 20
9.8342946409
 30
0.0
 10
11.388714635
 20
9.8348396794
 30
0.0
 10
11.3998066523
 20
9.8351333233
 30
0.0
 10
11.4109559152
 20
9.8351735659
 30
0.0
 10
11.4220756982
 20
9.834960345
 30
0.0
 10
11.4330797262
 20
9.8344955245
 30
0.0
 10
11.4438827327
 20
9.8337828691
 30
0.0
 10
11.4544010519
 20
9.832828026
 30
0.0
 10
11.4645530459
 20
9.8316384565
 30
0.0
 10
11.4727392482
 20
9.8304452103
 30
0.0
 10
11.4790427254
 20
9.8293750924
 30
0.0
 10
11.484991205
 20
9.8282649567
 30
0.0
 10
11.490728478
 20
9.8270426344
 30
0.0
 10
11.496234764
 20
9.8256958158
 30
0.0
 10
11.5001186353
 20
9.824657851
 30
0.0
 10
11.5038208823
 20
9.8235765238
 30
0.0
 10
11.5073341191
 20
9.8224539431
 30
0.0
 10
11.5106512952
 20
9.8212922491
 30
0.0
 10
11.5137657624
 20
9.8200937634
 30
0.0
 10
11.5166712461
 20
9.8188607424
 30
0.0
 10
11.5193619311
 20
9.8175956501
 30
0.0
 10
11.5218324017
 20
9.8163008306
 30
0.0
 10
11.5240777582
 20
9.8149787967
 30
0.0
 10
11.5260935243
 20
9.8136318943
 30
0.0
 10
11.527875751
 20
9.8122625031
 30
0.0
 10
11.5294208884
 20
9.8108727731
 30
0.0
 10
11.5307257366
 20
9.8094646396
 30
0.0
 10
11.5317872276
 20
9.8080398519
 30
0.0
 10
11.5326020177
 20
9.8065997701
 30
0.0
 10
11.5331663245
 20
9.8051470226
 30
0.0
 10
11.533375675
 20
9.8041574665
 30
0.0
 10
11.5334351189
 20
9.8036691642
 30
0.0
  0
SPLINE
  5
3B4
100
AcDbEntity
  8
0
100
AcDbSpline
 62
7
  6
CONTINUOUS
 70
0
 71
3
 72
15
 73
11
 74
0
 42
0.0000001
 43
0.0000001
 44
0.0000000001
 40
0.0
 40
0.0
 40
0.0
 40
0.0
 40
0.1241935413
 40
0.2485373928
 40
0.3730747193
 40
0.4978465554
 40
0.6228913362
 40
0.7482444383
 40
0.8739379101
 40
1.0
 40
1.0
 40
1.0
 40
1.0
 10
10.0136363045
 20
8.5129952977
 30
0.0
 10
10.010674965
 20
8.5107651882
 30
0.0
 10
10.0046269749
 20
8.5064613338
 30
0.0
 10
9.9952148769
 20
8.5004997279
 30
0.0
 10
9.9854810296
 20
8.4950433263
 30
0.0
 10
9.9754505678
 20
8.4901062431
 30
0.0
 10
9.9651489603
 20
8.4857010002
 30
0.0
 10
9.9546023605
 20
8.4818388016
 30
0.0
 10
9.9438380298
 20
8.4785294915
 30
0.0
 10
9.9365450969
 20
8.4767000535
 30
0.0
 10
9.9328726578
 20
8.4758798343
 30
0.0
  0
SPLINE
  5
3B5
100
AcDbEntity
  8
0
100
AcDbSpline
 62
7
  6
CONTINUOUS
 70
0
 71
3
 72
21
 73
17
 74
0
 42
0.0000001
 43
0.0000001
 44
0.0000000001
 40
0.0
 40
0.0
 40
0.0
 40
0.0
 40
0.0616532251
 40
0.1233294846
 40
0.1850515438
 40
0.2468416586
 40
0.3087213407
 40
0.3707111063
 40
0.4328302458
 40
0.4950966346
 40
0.5575265706
 40
0.6201345761
 40
0.6829331563
 40
0.7459331329
 40
0.8725263342
 40
1.0
 40
1.0
 40
1.0
 40
1.0
 10
9.9963037327
 20
8.4941062798
 30
0.0
 10
9.9936553267
 20
8.491548116
 30
0.0
 10
9.9882187698
 20
8.4865722725
 30
0.0
 10
9.9796729327
 20
8.4795561412
 30
0.0
 10
9.9707559814
 20
8.473003791
 30
0.0
 10
9.9614907205
 20
8.4669319772
 30
0.0
 10
9.9519004186
 20
8.4613559039
 30
0.0
 10
9.9420092451
 20
8.4562896644
 30
0.0
 10
9.9318421296
 20
8.4517459835
 30
0.0
 10
9.9214247103
 20
8.4477362566
 30
0.0
 10
9.9107832005
 20
8.4442705739
 30
0.0
 10
9.8999444831
 20
8.4413576807
 30
0.0
 10
9.8889355604
 20
8.4390048135
 30
0.0
 10
9.874046076
 20
8.4366186876
 30
0.0
 10
9.8551388054
 20
8.4350684933
 30
0.0
 10
9.8399384971
 20
8.435365137
 30
0.0
 10
9.8323435503
 20
8.4358918483
 30
0.0
  0
SPLINE
  5
3B6
100
AcDbEntity
  8
0
100
AcDbSpline
 62
7
  6
CONTINUOUS
 70
0
 71
3
 72
39
 73
35
 74
0
 42
0.0000001
 43
0.0000001
 44
0.0000000001
 40
0.0
 40
0.0
 40
0.0
 40
0.0
 40
0.007250675
 40
0.0142075489
 40
0.0209398842
 40
0.0275184555
 40
0.0340127465
 40
0.0404905204
 40
0.0470154447
 40
0.0536445191
 40
0.0673986191
 40
0.0820934035
 40
0.097953026
 40
0.1151242268
 40
0.1337008928
 40
0.1537395418
 40
0.1752769458
 40
0.1983344162
 40
0.2229296155
 40
0.2490754057
 40
0.2767883049
 40
0.3060854012
 40
0.3369909415
 40
0.3695324796
 40
0.403746089
 40
0.4396721917
 40
0.5168525538
 40
0.601473294
 40
0.6937738176
 40
0.7932567881
 40
0.8450280445
 40
0.8973797735
 40
0.9494032706
 40
1.0
 40
1.0
 40
1.0
 40
1.0
 10
10.5684483484
 20
8.14607512
 30
0.0
 10
10.5683013641
 20
8.1462791468
 30
0.0
 10
10.5680317032
 20
8.146692639
 30
0.0
 10
10.5676976299
 20
8.147338837
 30
0.0
 10
10.5674417586
 20
8.1479949661
 30
0.0
 10
10.5672624318
 20
8.1486594027
 30
0.0
 10
10.5671578023
 20
8.1493306625
 30
0.0
 10
10.5671260698
 20
8.1500073572
 30
0.0
 10
10.5671653952
 20
8.1506882748
 30
0.0
 10
10.5673116177
 20
8.1516112727
 30
0.0
 10
10.5676722827
 20
8.1527802765
 30
0.0
 10
10.5683554044
 20
8.1541624625
 30
0.0
 10
10.5692802391
 20
8.155539973
 30
0.0
 10
10.5704356395
 20
8.1569106387
 30
0.0
 10
10.5718124632
 20
8.1582729534
 30
0.0
 10
10.5734028124
 20
8.159625589
 30
0.0
 10
10.5752000338
 20
8.1609672961
 30
0.0
 10
10.5771984304
 20
8.1622973653
 30
0.0
 10
10.5793934043
 20
8.1636151668
 30
0.0
 10
10.5817813281
 20
8.1649206432
 30
0.0
 10
10.5843596425
 20
8.166213789
 30
0.0
 10
10.5871267975
 20
8.167495099
 30
0.0
 10
10.5900822946
 20
8.1687650776
 30
0.0
 10
10.5932266554
 20
8.170024627
 30
0.0
 10
10.5965614012
 20
8.1712746403
 30
0.0
 10
10.6013810796
 20
8.1729708727
 30
0.0
 10
10.6079122657
 20
8.1750652278
 30
0.0
 10
10.6163829948
 20
8.1774992774
 30
0.0
 10
10.6256628155
 20
8.1799059839
 30
0.0
 10
10.6338857303
 20
8.1818402575
 30
0.0
 10
10.6407835308
 20
8.1833509414
 30
0.0
 10
10.6460851895
 20
8.1844548756
 30
0.0
 10
10.6513580343
 20
8.1854958891
 30
0.0
 10
10.6548568895
 20
8.1861475823
 30
0.0
 10
10.6565838289
 20
8.1864586384
 30
0.0
  0
SPLINE
  5
3B7
100
AcDbEntity
  8
0
100
AcDbSpline
 62
7
  6
CONTINUOUS
 70
0
 71
3
 72
27
 73
23
 74
0
 42
0.0000001
 43
0.0000001
 44
0.0000000001
 40
0.0
 40
0.0
 40
0.0
 40
0.0
 40
0.0304347667
 40
0.0609801268
 40
0.0916367588
 40
0.1224041228
 40
0.153280463
 40
0.1842628489
 40
0.2153472312
 40
0.2465284817
 40
0.3091363985
 40
0.3720466014
 40
0.4351867668
 40
0.498475332
 40
0.5618248032
 40
0.6251452716
 40
0.6883479837
 40
0.7513488626
 40
0.8140719491
 40
0.8764525258
 40
0.9384394873
 40
1.0
 40
1.0
 40
1.0
 40
1.0
 10
10.5224453048
 20
8.6373696351
 30
0.0
 10
10.5220466722
 20
8.6337057438
 30
0.0
 10
10.5214436176
 20
8.6263418758
 30
0.0
 10
10.5211233197
 20
8.6152448258
 30
0.0
 10
10.5213863299
 20
8.6041057123
 30
0.0
 10
10.5222319722
 20
8.5929555815
 30
0.0
 10
10.5236579015
 20
8.5818249582
 30
0.0
 10
10.5256600841
 20
8.5707445521
 30
0.0
 10
10.5282331326
 20
8.5597444732
 30
0.0
 10
10.5324201663
 20
8.5452085516
 30
0.0
 10
10.5390477611
 20
8.5273909288
 30
0.0
 10
10.5491198369
 20
8.5068446592
 30
0.0
 10
10.5612130507
 20
8.4873212077
 30
0.0
 10
10.5751943179
 20
8.4690358432
 30
0.0
 10
10.5909103224
 20
8.4521882325
 30
0.0
 10
10.6081889987
 20
8.4369630972
 30
0.0
 10
10.6268410812
 20
8.4235271779
 30
0.0
 10
10.6466625503
 20
8.4120279828
 30
0.0
 10
10.667436204
 20
8.4025919022
 30
0.0
 10
10.6889354365
 20
8.3953228926
 30
0.0
 10
10.7109216231
 20
8.3903016008
 30
0.0
 10
10.7258037114
 20
8.3884829311
 30
0.0
 10
10.7332405501
 20
8.3879671846
 30
0.0
  0
SPLINE
  5
3B8
100
AcDbEntity
  8
0
100
AcDbSpline
 62
7
  6
CONTINUOUS
 70
0
 71
3
 72
37
 73
33
 74
0
 42
0.0000001
 43
0.0000001
 44
0.0000000001
 40
0.0
 40
0.0
 40
0.0
 40
0.0
 40
0.0301271993
 40
0.0603625915
 40
0.0907132549
 40
0.1211845771
 40
0.1517801944
 40
0.182501959
 40
0.2133499319
 40
0.2443224086
 40
0.2754159665
 40
0.3066255296
 40
0.3379444535
 40
0.3693646275
 40
0.4008766002
 40
0.4324697191
 40
0.4641322773
 40
0.4958516694
 40
0.5593825833
 40
0.622974684
 40
0.6547697466
 40
0.6865368908
 40
0.7182621655
 40
0.7499321591
 40
0.7815341684
 40
0.8130563769
 40
0.84448799
 40
0.8758193802
 40
0.90704245
 40
0.9381497188
 40
0.9691376151
 40
1.0
 40
1.0
 40
1.0
 40
1.0
 10
10.4931833431
 20
8.6442786535
 30
0.0
 10
10.4918278522
 20
8.6403961135
 30
0.0
 10
10.4893527532
 20
8.6325306751
 30
0.0
 10
10.4863675401
 20
8.6205059751
 30
0.0
 10
10.4841131424
 20
8.6082749184
 30
0.0
 10
10.4825976432
 20
8.5958811996
 30
0.0
 10
10.4818262636
 20
8.5833683234
 30
0.0
 10
10.4818016869
 20
8.5707804058
 30
0.0
 10
10.4825239248
 20
8.5581617637
 30
0.0
 10
10.4839903591
 20
8.5455568233
 30
0.0
 10
10.486195766
 20
8.533009947
 30
0.0
 10
10.4891323315
 20
8.5205652865
 30
0.0
 10
10.4927896862
 20
8.5082666278
 30
0.0
 10
10.4971549159
 20
8.496157247
 30
0.0
 10
10.5022126261
 20
8.4842797078
 30
0.0
 10
10.5079449052
 20
8.4726758805
 30
0.0
 10
10.5143318566
 20
8.4613862086
 30
0.0
 10
10.5236931459
 20
8.4468008564
 30
0.0
 10
10.5369129015
 20
8.4295554001
 30
0.0
 10
10.5519653302
 20
8.4138700148
 30
0.0
 10
10.5649859327
 20
8.4023821564
 30
0.0
 10
10.5752066042
 20
8.3943264654
 30
0.0
 10
10.5858448192
 20
8.3868610985
 30
0.0
 10
10.5968634783
 20
8.3800119719
 30
0.0
 10
10.6082237449
 20
8.3738032906
 30
0.0
 10
10.6198856935
 20
8.3682569018
 30
0.0
 10
10.631808302
 20
8.3633923756
 30
0.0
 10
10.6439496619
 20
8.3592268446
 30
0.0
 10
10.6562669641
 20
8.3557750768
 30
0.0
 10
10.668717161
 20
8.3530490795
 30
0.0
 10
10.68125571
 20
8.3510587964
 30
0.0
 10
10.6896627978
 20
8.3502251724
 30
0.0
 10
10.6938654126
 20
8.3499337201
 30
0.0
  0
LINE
  5
3B9
100
AcDbEntity
  8
0
100
AcDbLine
 62
7
  6
CONTINUOUS
 10
10.4515344058
 20
8.6495370256
 11
10.451494415
 21
8.6494365556
  0
SPLINE
  5
3BA
100
AcDbEntity
  8
0
100
AcDbSpline
 62
7
  6
CONTINUOUS
 70
0
 71
3
 72
39
 73
35
 74
0
 42
0.0000001
 43
0.0000001
 44
0.0000000001
 40
0.0
 40
0.0
 40
0.0
 40
0.0
 40
0.0300818179
 40
0.060268498
 40
0.0905685439
 40
0.1209887098
 40
0.1515339168
 40
0.1822072004
 40
0.2130096873
 40
0.2439406043
 40
0.2749973152
 40
0.3061753802
 40
0.3374686398
 40
0.3688693187
 40
0.40036815
 40
0.4319545166
 40
0.4636166102
 40
0.4953415998
 40
0.5271158102
 40
0.5589249078
 40
0.5907540931
 40
0.6225882984
 40
0.6544123896
 40
0.686211369
 40
0.717970573
 40
0.7496758688
 40
0.7813138432
 40
0.8128719887
 40
0.8443388867
 40
0.8757043164
 40
0.9069596712
 40
0.9380971758
 40
0.9691125103
 40
1.0
 40
1.0
 40
1.0
 40
1.0
 10
10.451494415
 20
8.6494365556
 30
0.0
 10
10.4497230963
 20
8.6449833139
 30
0.0
 10
10.4464574795
 20
8.6359457163
 30
0.0
 10
10.4424175519
 20
8.6220841376
 30
0.0
 10
10.4392419259
 20
8.6079436413
 30
0.0
 10
10.4369424662
 20
8.5935769546
 30
0.0
 10
10.4355274726
 20
8.5790367075
 30
0.0
 10
10.4350020902
 20
8.564376399
 30
0.0
 10
10.4353681604
 20
8.5496498893
 30
0.0
 10
10.4366242489
 20
8.5349112839
 30
0.0
 10
10.4387656607
 20
8.5202147128
 30
0.0
 10
10.4417844581
 20
8.5056141405
 30
0.0
 10
10.4456694922
 20
8.4911631685
 30
0.0
 10
10.4504064437
 20
8.4769148421
 30
0.0
 10
10.4559778778
 20
8.4629214592
 30
0.0
 10
10.4623632886
 20
8.449234371
 30
0.0
 10
10.4695391924
 20
8.4359037999
 30
0.0
 10
10.4774792166
 20
8.4229786582
 30
0.0
 10
10.4861541953
 20
8.4105063711
 30
0.0
 10
10.495532275
 20
8.3985327049
 30
0.0
 10
10.5055790318
 20
8.3871016021
 30
0.0
 10
10.5162575907
 20
8.376255017
 30
0.0
 10
10.5275287528
 20
8.3660327527
 30
0.0
 10
10.5393511543
 20
8.3564723293
 30
0.0
 10
10.5516814136
 20
8.3476088456
 30
0.0
 10
10.5644742902
 20
8.3394748529
 30
0.0
 10
10.5776828464
 20
8.3321002355
 30
0.0
 10
10.5912586218
 20
8.3255121025
 30
0.0
 10
10.6051517919
 20
8.3197346873
 30
0.0
 10
10.619311394
 20
8.3147892038
 30
0.0
 10
10.6336853656
 20
8.310693948
 30
0.0
 10
10.6482212456
 20
8.30746384
 30
0.0
 10
10.662864831
 20
8.3051110913
 30
0.0
 10
10.6726853426
 20
8.3041310117
 30
0.0
 10
10.6775945013
 20
8.3037905604
 30
0.0
  0
SPLINE
  5
3BB
100
AcDbEntity
  8
0
100
AcDbSpline
 62
7
  6
CONTINUOUS
 70
0
 71
3
 72
42
 73
38
 74
0
 42
0.0000001
 43
0.0000001
 44
0.0000000001
 40
0.0
 40
0.0
 40
0.0
 40
0.0
 40
0.0299207271
 40
0.0449001632
 40
0.0598940077
 40
0.0899295933
 40
0.1200516376
 40
0.1351530609
 40
0.1502822909
 40
0.180626016
 40
0.2111002447
 40
0.2417145222
 40
0.272475504
 40
0.3033868608
 40
0.3344492478
 40
0.3656603355
 40
0.3970148975
 40
0.4285049503
 40
0.4601199412
 40
0.4918469764
 40
0.5236710859
 40
0.5555755177
 40
0.5875420575
 40
0.6195513671
 40
0.6515833386
 40
0.683617457
 40
0.715633169
 40
0.7476102514
 40
0.7795291764
 40
0.8113714661
 40
0.8431200383
 40
0.8747595217
 40
0.9062765796
 40
0.937660117
 40
0.953301112
 40
0.9689063461
 40
1.0
 40
1.0
 40
1.0
 40
1.0
 10
10.419086489
 20
8.6443062013
 30
0.0
 10
10.4154812776
 20
8.6401428855
 30
0.0
 10
10.4103044609
 20
8.6336873964
 30
0.0
 10
10.4039027961
 20
8.6247099049
 30
0.0
 10
10.3978309473
 20
8.6154801638
 30
0.0
 10
10.3908838741
 20
8.6035026504
 30
0.0
 10
10.384840961
 20
8.5910226217
 30
0.0
 10
10.3805615741
 20
8.5807688007
 30
0.0
 10
10.3766494583
 20
8.5703257535
 30
0.0
 10
10.3724719199
 20
8.5569711034
 30
0.0
 10
10.3686294313
 20
8.5405713656
 30
0.0
 10
10.3659704777
 20
8.5238606623
 30
0.0
 10
10.3645083169
 20
8.5069226018
 30
0.0
 10
10.3642499728
 20
8.4898412006
 30
0.0
 10
10.3651965686
 20
8.4727013328
 30
0.0
 10
10.3673432319
 20
8.4555880775
 30
0.0
 10
10.3706791517
 20
8.4385863639
 30
0.0
 10
10.3751876299
 20
8.421780537
 30
0.0
 10
10.3808461702
 20
8.4052539494
 30
0.0
 10
10.3876265916
 20
8.3890885511
 30
0.0
 10
10.39549517
 20
8.3733644892
 30
0.0
 10
10.4044128057
 20
8.3581597153
 30
0.0
 10
10.4143352172
 20
8.3435496029
 30
0.0
 10
10.4252131599
 20
8.3296065787
 30
0.0
 10
10.4369926684
 20
8.3163997671
 30
0.0
 10
10.4496153226
 20
8.3039946506
 30
0.0
 10
10.4630185344
 20
8.2924527487
 30
0.0
 10
10.477135856
 20
8.2818313148
 30
0.0
 10
10.4918973023
 20
8.2721830561
 30
0.0
 10
10.5072297094
 20
8.2635558697
 30
0.0
 10
10.5230570359
 20
8.2559926202
 30
0.0
 10
10.5393009499
 20
8.2495308808
 30
0.0
 10
10.5558804135
 20
8.2442029091
 30
0.0
 10
10.5699253302
 20
8.2407256032
 30
0.0
 10
10.5812455922
 20
8.2385365192
 30
0.0
 10
10.5925815764
 20
8.2367483448
 30
0.0
 10
10.6011395113
 20
8.2358516326
 30
0.0
 10
10.6068490277
 20
8.2354556763
 30
0.0
  0
SPLINE
  5
3BC
100
AcDbEntity
  8
0
100
AcDbSpline
 62
7
  6
CONTINUOUS
 70
0
 71
3
 72
41
 73
37
 74
0
 42
0.0000001
 43
0.0000001
 44
0.0000000001
 40
0.0
 40
0.0
 40
0.0
 40
0.0
 40
0.0299560246
 40
0.044966148
 40
0.0599986945
 40
0.0901335806
 40
0.1203779802
 40
0.1355468887
 40
0.1507470307
 40
0.1812405887
 40
0.2118692877
 40
0.2426369998
 40
0.273545165
 40
0.3045927984
 40
0.3357765398
 40
0.3670907412
 40
0.3985275893
 40
0.4300772588
 40
0.4617280945
 40
0.4934668158
 40
0.5252787427
 40
0.557148038
 40
0.5890579628
 40
0.620991143
 40
0.6529298412
 40
0.6848562344
 40
0.7167526912
 40
0.7486020476
 40
0.7803878781
 40
0.8120947556
 40
0.8437085103
 40
0.8752164421
 40
0.9066076094
 40
0.9378728305
 40
0.9690053338
 40
1.0
 40
1.0
 40
1.0
 40
1.0
 10
10.3495956816
 20
8.6173342934
 30
0.0
 10
10.3465151863
 20
8.6123094236
 30
0.0
 10
10.342152996
 20
8.6046014914
 30
0.0
 10
10.3368809618
 20
8.5940372943
 30
0.0
 10
10.3319630876
 20
8.5832643911
 30
0.0
 10
10.3265048138
 20
8.5694538891
 30
0.0
 10
10.3219984852
 20
8.5552761388
 30
0.0
 10
10.3189698638
 20
8.5437391196
 30
0.0
 10
10.3163231305
 20
8.5320582977
 30
0.0
 10
10.3137492056
 20
8.5172512968
 30
0.0
 10
10.311850259
 20
8.4992584606
 30
0.0
 10
10.3111453231
 20
8.4810975673
 30
0.0
 10
10.311637413
 20
8.4628474939
 30
0.0
 10
10.3133242362
 20
8.4445868233
 30
0.0
 10
10.3161983953
 20
8.4263943347
 30
0.0
 10
10.3202473738
 20
8.4083484441
 30
0.0
 10
10.3254536062
 20
8.3905269295
 30
0.0
 10
10.3317945529
 20
8.3730065835
 30
0.0
 10
10.3392427997
 20
8.3558628902
 30
0.0
 10
10.3477661763
 20
8.3391697022
 30
0.0
 10
10.3573278959
 20
8.3229989266
 30
0.0
 10
10.3678867128
 20
8.3074202175
 30
0.0
 10
10.3793970996
 20
8.2925006798
 30
0.0
 10
10.3918094426
 20
8.278304582
 30
0.0
 10
10.4050702536
 20
8.2648930825
 30
0.0
 10
10.4191223993
 20
8.2523239675
 30
0.0
 10
10.4339053449
 20
8.2406514048
 30
0.0
 10
10.4493554129
 20
8.229925711
 30
0.0
 10
10.4654060549
 20
8.2201931382
 30
0.0
 10
10.4819881369
 20
8.211495671
 30
0.0
 10
10.4990302262
 20
8.2038708572
 30
0.0
 10
10.5164589302
 20
8.1973516204
 30
0.0
 10
10.5341990756
 20
8.1919661774
 30
0.0
 10
10.5521745196
 20
8.1877377841
 30
0.0
 10
10.5703067269
 20
8.1846849123
 30
0.0
 10
10.5824771185
 20
8.1834392009
 30
0.0
 10
10.5885608233
 20
8.1830172945
 30
0.0
  0
SPLINE
  5
3BD
100
AcDbEntity
  8
0
100
AcDbSpline
 62
7
  6
CONTINUOUS
 70
0
 71
3
 72
41
 73
37
 74
0
 42
0.0000001
 43
0.0000001
 44
0.0000000001
 40
0.0
 40
0.0
 40
0.0
 40
0.0
 40
0.0299390141
 40
0.0599016989
 40
0.0899111649
 40
0.1199894198
 40
0.1501568599
 40
0.180431808
 40
0.2108301131
 40
0.2413648182
 40
0.2720459031
 40
0.3028801065
 40
0.3338708259
 40
0.3650180945
 40
0.3963186305
 40
0.4277659543
 40
0.4593505667
 40
0.4910601815
 40
0.5228800053
 40
0.5547930582
 40
0.5867805277
 40
0.6188221494
 40
0.6508966088
 40
0.6829819573
 40
0.7150560361
 40
0.7310843129
 40
0.7471015874
 40
0.7790879444
 40
0.810999549
 40
0.8428176147
 40
0.8745252056
 40
0.9061075368
 40
0.9375524699
 40
0.9532225433
 40
0.9688553077
 40
1.0
 40
1.0
 40
1.0
 40
1.0
 10
10.2990348938
 20
8.5796016467
 30
0.0
 10
10.2943431596
 20
8.5750698034
 30
0.0
 10
10.2853074146
 20
8.5656303998
 30
0.0
 10
10.2728979035
 20
8.5504481063
 30
0.0
 10
10.2616929104
 20
8.5343179615
 30
0.0
 10
10.2517534447
 20
8.5173274788
 30
0.0
 10
10.2431322644
 20
8.4995673638
 30
0.0
 10
10.2358754052
 20
8.4811327942
 30
0.0
 10
10.2300214575
 20
8.4621224169
 30
0.0
 10
10.2256015015
 20
8.4426379388
 30
0.0
 10
10.2226389188
 20
8.4227835401
 30
0.0
 10
10.2211492907
 20
8.4026653232
 30
0.0
 10
10.221140326
 20
8.3823907425
 30
0.0
 10
10.2226118332
 20
8.3620680334
 30
0.0
 10
10.2255557321
 20
8.3418056392
 30
0.0
 10
10.2299561065
 20
8.3217116383
 30
0.0
 10
10.2357892957
 20
8.3018931749
 30
0.0
 10
10.2430240257
 20
8.2824558956
 30
0.0
 10
10.2516215802
 20
8.2635033932
 30
0.0
 10
10.2615360047
 20
8.2451366649
 30
0.0
 10
10.272714366
 20
8.2274535693
 30
0.0
 10
10.2850969767
 20
8.2105483538
 30
0.0
 10
10.2986179218
 20
8.1945109974
 30
0.0
 10
10.3132046291
 20
8.1794273407
 30
0.0
 10
10.3261884352
 20
8.1677151671
 30
0.0
 10
10.3370291161
 20
8.1588997088
 30
0.0
 10
10.3481495295
 20
8.1504714797
 30
0.0
 10
10.3625596698
 20
8.1406718458
 30
0.0
 10
10.3805831623
 20
8.130148928
 30
0.0
 10
10.3992363695
 20
8.1209224025
 30
0.0
 10
10.4184195893
 20
8.1130419311
 30
0.0
 10
10.4380300954
 20
8.1065496632
 30
0.0
 10
10.4546627143
 20
8.1023199687
 30
0.0
 10
10.4680762814
 20
8.0996641014
 30
0.0
 10
10.4815111836
 20
8.0975008071
 30
0.0
 10
10.4916577003
 20
8.0964243252
 30
0.0
 10
10.4984271652
 20
8.0959548612
 30
0.0
  0
SPLINE
  5
3BE
100
AcDbEntity
  8
0
100
AcDbSpline
 62
7
  6
CONTINUOUS
 70
0
 71
3
 72
45
 73
41
 74
0
 42
0.0000001
 43
0.0000001
 44
0.0000000001
 40
0.0
 40
0.0
 40
0.0
 40
0.0
 40
0.0149590112
 40
0.0299264585
 40
0.0449050354
 40
0.0598973654
 40
0.0899281002
 40
0.1200432738
 40
0.1351406654
 40
0.1502655211
 40
0.1654196701
 40
0.1806047868
 40
0.2110686897
 40
0.2416723516
 40
0.2724228263
 40
0.3033241482
 40
0.3343772941
 40
0.3655802084
 40
0.3969278865
 40
0.428412513
 40
0.4600236486
 40
0.4917484594
 40
0.5235719836
 40
0.5554774294
 40
0.5874464993
 40
0.6194597333
 40
0.6514968693
 40
0.6835372116
 40
0.7155600068
 40
0.7315606116
 40
0.7475492153
 40
0.7794762987
 40
0.8113269602
 40
0.8430839057
 40
0.8747315847
 40
0.9062564481
 40
0.9376473807
 40
0.9532918748
 40
0.9689002174
 40
1.0
 40
1.0
 40
1.0
 40
1.0
 10
10.2437999678
 20
8.583087308
 30
0.0
 10
10.241398406
 20
8.5803755923
 30
0.0
 10
10.2366963342
 20
8.5748589282
 30
0.0
 10
10.2299598071
 20
8.5663203212
 30
0.0
 10
10.2235462307
 20
8.557526192
 30
0.0
 10
10.2154327251
 20
8.5454699656
 30
0.0
 10
10.2061349662
 20
8.5298092265
 30
0.0
 10
10.198026595
 20
8.5134727944
 30
0.0
 10
10.192270752
 20
8.5000407539
 30
0.0
 10
10.1883200724
 20
8.4897850204
 30
0.0
 10
10.184744651
 20
8.4793700602
 30
0.0
 10
10.1804797045
 20
8.4652751445
 30
0.0
 10
10.176109555
 20
8.4473169054
 30
0.0
 10
10.172434192
 20
8.4253701131
 30
0.0
 10
10.1703390475
 20
8.4031098189
 30
0.0
 10
10.1698346482
 20
8.380648412
 30
0.0
 10
10.1709232148
 20
8.3580982788
 30
0.0
 10
10.1735990855
 20
8.3355724612
 30
0.0
 10
10.1778486383
 20
8.3131837663
 30
0.0
 10
10.1836503981
 20
8.2910442971
 30
0.0
 10
10.1909751406
 20
8.2692648732
 30
0.0
 10
10.1997860446
 20
8.2479544909
 30
0.0
 10
10.2100388777
 20
8.2272197803
 30
0.0
 10
10.2216822155
 20
8.2071644833
 30
0.0
 10
10.2346577148
 20
8.187888928
 30
0.0
 10
10.248900345
 20
8.169489577
 30
0.0
 10
10.2643389328
 20
8.1520583854
 30
0.0
 10
10.2808956894
 20
8.1356829592
 30
0.0
 10
10.295561704
 20
8.1229799122
 30
0.0
 10
10.3077693729
 20
8.1134243657
 30
0.0
 10
10.3202683233
 20
8.1042923637
 30
0.0
 10
10.3364249106
 20
8.0936792133
 30
0.0
 10
10.3565779494
 20
8.0822866377
 30
0.0
 10
10.3773884315
 20
8.0722986542
 30
0.0
 10
10.3987519103
 20
8.0637657414
 30
0.0
 10
10.4205609707
 20
8.0567307507
 30
0.0
 10
10.4390387714
 20
8.0521404334
 30
0.0
 10
10.4539329618
 20
8.0492516142
 30
0.0
 10
10.4688482127
 20
8.0468927129
 30
0.0
 10
10.4801088068
 20
8.0457109691
 30
0.0
 10
10.487621479
 20
8.0451899636
 30
0.0
  0
SPLINE
  5
3BF
100
AcDbEntity
  8
0
100
AcDbSpline
 62
7
  6
CONTINUOUS
 70
0
 71
3
 72
41
 73
37
 74
0
 42
0.0000001
 43
0.0000001
 44
0.0000000001
 40
0.0
 40
0.0
 40
0.0
 40
0.0
 40
0.0299390219
 40
0.059901714
 40
0.089911187
 40
0.1199894485
 40
0.1501568949
 40
0.1804318493
 40
0.2108301609
 40
0.2413648728
 40
0.272045965
 40
0.3028801764
 40
0.3338709045
 40
0.3650181821
 40
0.396318727
 40
0.4277660593
 40
0.4593506796
 40
0.4910603016
 40
0.5228801323
 40
0.5547931918
 40
0.5867806682
 40
0.6188222973
 40
0.6508967648
 40
0.6829821217
 40
0.715056209
 40
0.7310844894
 40
0.7471017679
 40
0.7790881331
 40
0.8109997454
 40
0.8269239678
 40
0.8428226015
 40
0.8745301998
 40
0.9061125375
 40
0.937557485
 40
0.9688552819
 40
1.0
 40
1.0
 40
1.0
 40
1.0
 10
10.2271008769
 20
8.5681649372
 30
0.0
 10
10.2217266494
 20
8.5629738292
 30
0.0
 10
10.2113764535
 20
8.5521612901
 30
0.0
 10
10.197161741
 20
8.5347704084
 30
0.0
 10
10.1843267573
 20
8.5162938036
 30
0.0
 10
10.172941398
 20
8.4968317069
 30
0.0
 10
10.1630660908
 20
8.4764880223
 30
0.0
 10
10.1547535699
 20
8.455371771
 30
0.0
 10
10.1480480398
 20
8.4335959495
 30
0.0
 10
10.1429851033
 20
8.4112770591
 30
0.0
 10
10.139591545
 20
8.3885344345
 30
0.0
 10
10.1378852146
 20
8.3654896128
 30
0.0
 10
10.1378749452
 20
8.3422656802
 30
0.0
 10
10.1395605178
 20
8.3189866181
 30
0.0
 10
10.1429326742
 20
8.2957766458
 30
0.0
 10
10.1479731806
 20
8.272759564
 30
0.0
 10
10.1546549328
 20
8.2500581029
 30
0.0
 10
10.162942106
 20
8.2277932772
 30
0.0
 10
10.1727903512
 20
8.2060837482
 30
0.0
 10
10.1841470282
 20
8.1850452044
 30
0.0
 10
10.1969515041
 20
8.1647897391
 30
0.0
 10
10.2111354117
 20
8.1454253115
 30
0.0
 10
10.226623248
 20
8.1270549883
 30
0.0
 10
10.2433318905
 20
8.1097771107
 30
0.0
 10
10.2582044477
 20
8.0963611423
 30
0.0
 10
10.270622146
 20
8.0862633396
 30
0.0
 10
10.2833602693
 20
8.0766089942
 30
0.0
 10
10.2998663168
 20
8.0653839969
 30
0.0
 10
10.3170847129
 20
8.055331252
 30
0.0
 10
10.3312210831
 20
8.0480330281
 30
0.0
 10
10.3455558111
 20
8.0412509798
 30
0.0
 10
10.3638527551
 20
8.033734452
 30
0.0
 10
10.3863159825
 20
8.0262978763
 30
0.0
 10
10.4091502576
 20
8.0204910049
 30
0.0
 10
10.4322316197
 20
8.016345355
 30
0.0
 10
10.4477445995
 20
8.0146996186
 30
0.0
 10
10.4554988256
 20
8.0141618612
 30
0.0
  0
SPLINE
  5
3C0
100
AcDbEntity
  8
0
100
AcDbSpline
 62
7
  6
CONTINUOUS
 70
0
 71
3
 72
41
 73
37
 74
0
 42
0.0000001
 43
0.0000001
 44
0.0000000001
 40
0.0
 40
0.0
 40
0.0
 40
0.0
 40
0.02992398
 40
0.0598877113
 40
0.0899124902
 40
0.1200182469
 40
0.1502231128
 40
0.1805430373
 40
0.2109914643
 40
0.2415790728
 40
0.2723135873
 40
0.303199657
 40
0.3342388044
 40
0.3654294398
 40
0.3967669389
 40
0.4282437764
 40
0.4598497118
 40
0.4915720199
 40
0.5233957609
 40
0.5553040843
 40
0.5872785591
 40
0.6192995271
 40
0.6513464718
 40
0.6833983983
 40
0.7154342203
 40
0.7314418027
 40
0.7474376103
 40
0.779379533
 40
0.8112453964
 40
0.8271465034
 40
0.8430221188
 40
0.8746847083
 40
0.906223887
 40
0.9376283156
 40
0.9688888691
 40
1.0
 40
1.0
 40
1.0
 40
1.0
 10
10.1934842048
 20
8.5679593199
 30
0.0
 10
10.1881886616
 20
8.5621974237
 30
0.0
 10
10.1780273988
 20
8.5502555552
 30
0.0
 10
10.1641866305
 20
8.5312198199
 30
0.0
 10
10.1518065732
 20
8.511145955
 30
0.0
 10
10.14095147
 20
8.490137748
 30
0.0
 10
10.1316761713
 20
8.468302057
 30
0.0
 10
10.1240278435
 20
8.4457503741
 30
0.0
 10
10.1180452058
 20
8.4225976736
 30
0.0
 10
10.1137584895
 20
8.3989619705
 30
0.0
 10
10.111189259
 20
8.3749636723
 30
0.0
 10
10.1103503271
 20
8.3507249751
 30
0.0
 10
10.1112456996
 20
8.3263692394
 30
0.0
 10
10.1138705642
 20
8.3020203667
 30
0.0
 10
10.1182113303
 20
8.2778021738
 30
0.0
 10
10.1242457058
 20
8.2538377702
 30
0.0
 10
10.131942817
 20
8.2302489407
 30
0.0
 10
10.1412633699
 20
8.2071555338
 30
0.0
 10
10.1521598534
 20
8.1846748608
 30
0.0
 10
10.1645767771
 20
8.1629211104
 30
0.0
 10
10.1784509705
 20
8.1420047629
 30
0.0
 10
10.1937118383
 20
8.1220320851
 30
0.0
 10
10.2102819562
 20
8.1031044108
 30
0.0
 10
10.2280765664
 20
8.085318326
 30
0.0
 10
10.2438567628
 20
8.0715178961
 30
0.0
 10
10.2570012298
 20
8.0611354995
 30
0.0
 10
10.2704652514
 20
8.0512122477
 30
0.0
 10
10.2878789328
 20
8.0396785854
 30
0.0
 10
10.3060062766
 20
8.0293521676
 30
0.0
 10
10.320869494
 20
8.0218557614
 30
0.0
 10
10.3359297361
 20
8.0148893916
 30
0.0
 10
10.3551331668
 20
8.0071674977
 30
0.0
 10
10.3786841729
 20
7.9995234776
 30
0.0
 10
10.4026054988
 20
7.9935475274
 30
0.0
 10
10.4267733583
 20
7.9892705621
 30
0.0
 10
10.4430113131
 20
7.9875621466
 30
0.0
 10
10.4511280238
 20
7.9869992508
 30
0.0
  0
SPLINE
  5
3C1
100
AcDbEntity
  8
0
100
AcDbSpline
 62
7
  6
CONTINUOUS
 70
0
 71
3
 72
39
 73
35
 74
0
 42
0.0000001
 43
0.0000001
 44
0.0000000001
 40
0.0
 40
0.0
 40
0.0
 40
0.0
 40
0.0299393046
 40
0.0599022798
 40
0.0899120362
 40
0.1199905823
 40
0.1501583143
 40
0.1804335559
 40
0.2108321562
 40
0.2413671583
 40
0.2720485416
 40
0.3028830449
 40
0.3338740655
 40
0.3650216366
 40
0.3963224767
 40
0.4277701061
 40
0.4593550258
 40
0.491064949
 40
0.5228850818
 40
0.554798444
 40
0.5867862231
 40
0.618828155
 40
0.6509029254
 40
0.6829885856
 40
0.7150629765
 40
0.7471041564
 40
0.7790908249
 40
0.8110027394
 40
0.8428211144
 40
0.8745290121
 40
0.9061116491
 40
0.937556897
 40
0.9688549736
 40
1.0
 40
1.0
 40
1.0
 40
1.0
 10
10.1930712846
 20
8.5683151564
 30
0.0
 10
10.1873088164
 20
8.5627490136
 30
0.0
 10
10.1762108742
 20
8.5511553553
 30
0.0
 10
10.1609692472
 20
8.5325080943
 30
0.0
 10
10.1472070141
 20
8.5126966839
 30
0.0
 10
10.134999131
 20
8.4918285844
 30
0.0
 10
10.124410391
 20
8.4700152075
 30
0.0
 10
10.1154973416
 20
8.4473734484
 30
0.0
 10
10.1083073857
 20
8.4240244665
 30
0.0
 10
10.102878696
 20
8.4000931815
 30
0.0
 10
10.0992399867
 20
8.3757075515
 30
0.0
 10
10.0974103933
 20
8.3509978943
 30
0.0
 10
10.0973993828
 20
8.3260961878
 30
0.0
 10
10.0992067198
 20
8.3011353689
 30
0.0
 10
10.1028224813
 20
8.2762486297
 30
0.0
 10
10.1082271202
 20
8.2515687148
 30
0.0
 10
10.115391579
 20
8.2272272222
 30
0.0
 10
10.1242774486
 20
8.2033539111
 30
0.0
 10
10.1348371704
 20
8.1800760158
 30
0.0
 10
10.1470143014
 20
8.1575175794
 30
0.0
 10
10.1607438145
 20
8.135798801
 30
0.0
 10
10.1759524441
 20
8.1150354037
 30
0.0
 10
10.1925590741
 20
8.0953380256
 30
0.0
 10
10.2104751668
 20
8.0768116369
 30
0.0
 10
10.22960523
 20
8.0595549863
 30
0.0
 10
10.249847322
 20
8.0436600817
 30
0.0
 10
10.2710935833
 20
8.0292116968
 30
0.0
 10
10.293230811
 20
8.0162869254
 30
0.0
 10
10.3161410439
 20
8.0049547717
 30
0.0
 10
10.3397022346
 20
7.9952758014
 30
0.0
 10
10.3637887052
 20
7.98730177
 30
0.0
 10
10.3882724885
 20
7.9810754496
 30
0.0
 10
10.4130213552
 20
7.9766302846
 30
0.0
 10
10.4296550372
 20
7.9748656588
 30
0.0
 10
10.4379694582
 20
7.9742890517
 30
0.0
  0
SPLINE
  5
3C2
100
AcDbEntity
  8
0
100
AcDbSpline
 62
7
  6
CONTINUOUS
 70
0
 71
3
 72
11
 73
7
 74
0
 42
0.0000001
 43
0.0000001
 44
0.0000000001
 40
0.0
 40
0.0
 40
0.0
 40
0.0
 40
0.2477894369
 40
0.4969882652
 40
0.747703159
 40
1.0
 40
1.0
 40
1.0
 40
1.0
 10
10.7691959653
 20
8.3585432314
 30
0.0
 10
10.7631833065
 20
8.3566748159
 30
0.0
 10
10.7509380458
 20
8.3534986949
 30
0.0
 10
10.7321555135
 20
8.3504681013
 30
0.0
 10
10.7130592477
 20
8.3491802611
 30
0.0
 10
10.7002608558
 20
8.3494901946
 30
0.0
 10
10.6938654126
 20
8.3499337201
 30
0.0
  0
SPLINE
  5
3C3
100
AcDbEntity
  8
0
100
AcDbSpline
 62
7
  6
CONTINUOUS
 70
0
 71
3
 72
13
 73
9
 74
0
 42
0.0000001
 43
0.0000001
 44
0.0000000001
 40
0.0
 40
0.0
 40
0.0
 40
0.0
 40
0.1236406496
 40
0.247635115
 40
0.3720086769
 40
0.4967832965
 40
0.7475137566
 40
1.0
 40
1.0
 40
1.0
 40
1.0
 10
10.7729241667
 20
8.3167075797
 30
0.0
 10
10.7691660506
 20
8.3153610866
 30
0.0
 10
10.7615660431
 20
8.3128633002
 30
0.0
 10
10.7499686225
 20
8.3097177293
 30
0.0
 10
10.7381861507
 20
8.307175539
 30
0.0
 10
10.7222475969
 20
8.3045954258
 30
0.0
 10
10.7020036854
 20
8.3029144154
 30
0.0
 10
10.6857271272
 20
8.3032265609
 30
0.0
 10
10.6775945013
 20
8.3037905604
 30
0.0
  0
SPLINE
  5
3C4
100
AcDbEntity
  8
0
100
AcDbSpline
 62
7
  6
CONTINUOUS
 70
0
 71
3
 72
15
 73
11
 74
0
 42
0.0000001
 43
0.0000001
 44
0.0000000001
 40
0.0
 40
0.0
 40
0.0
 40
0.0
 40
0.1232497908
 40
0.2467785977
 40
0.370718565
 40
0.4951873582
 40
0.6202842248
 40
0.7460871855
 40
0.8726484182
 40
1.0
 40
1.0
 40
1.0
 40
1.0
 10
10.7665215458
 20
8.2843868056
 30
0.0
 10
10.7610543298
 20
8.2799810808
 30
0.0
 10
10.7496749222
 20
8.2716816667
 30
0.0
 10
10.7314712149
 20
8.2609132587
 30
0.0
 10
10.7122603436
 20
8.2518972177
 30
0.0
 10
10.6921999622
 20
8.2447077508
 30
0.0
 10
10.6714521298
 20
8.2394021148
 30
0.0
 10
10.6501843584
 20
8.2360228385
 30
0.0
 10
10.6285706753
 20
8.2345962821
 30
0.0
 10
10.6140867772
 20
8.2349537366
 30
0.0
 10
10.6068490277
 20
8.2354556763
 30
0.0
  0
SPLINE
  5
3C5
100
AcDbEntity
  8
0
100
AcDbSpline
 62
7
  6
CONTINUOUS
 70
0
 71
3
 72
15
 73
11
 74
0
 42
0.0000001
 43
0.0000001
 44
0.0000000001
 40
0.0
 40
0.0
 40
0.0
 40
0.0
 40
0.1233150485
 40
0.2469994616
 40
0.3711221008
 40
0.4957424102
 40
0.6209090974
 40
0.74665973
 40
0.8730187878
 40
1.0
 40
1.0
 40
1.0
 40
1.0
 10
10.7373702334
 20
8.2160225965
 30
0.0
 10
10.7318422315
 20
8.2128889114
 30
0.0
 10
10.7205283595
 20
8.20702746
 30
0.0
 10
10.7029215149
 20
8.1995194054
 30
0.0
 10
10.6847406634
 20
8.1933191419
 30
0.0
 10
10.6660783894
 20
8.1884583325
 30
0.0
 10
10.6470281747
 20
8.1849609768
 30
0.0
 10
10.6276854336
 20
8.1828445245
 30
0.0
 10
10.6081484379
 20
8.1821192386
 30
0.0
 10
10.595088493
 20
8.1825645991
 30
0.0
 10
10.5885608233
 20
8.1830172945
 30
0.0
  0
SPLINE
  5
3C6
100
AcDbEntity
  8
0
100
AcDbSpline
 62
7
  6
CONTINUOUS
 70
0
 71
3
 72
31
 73
27
 74
0
 42
0.0000001
 43
0.0000001
 44
0.0000000001
 40
0.0
 40
0.0
 40
0.0
 40
0.0
 40
0.0958346862
 40
0.1891086058
 40
0.2792517913
 40
0.3657238518
 40
0.4480156048
 40
0.5256577435
 40
0.5982273517
 40
0.6653573694
 40
0.6967887942
 40
0.7267545785
 40
0.7552309605
 40
0.782200609
 40
0.8076546359
 40
0.8315929205
 40
0.854027226
 40
0.8749821598
 40
0.8944998192
 40
0.9126421181
 40
0.9294973557
 40
0.9451842997
 40
0.9598596237
 40
0.9737210651
 40
0.9870091668
 40
1.0
 40
1.0
 40
1.0
 40
1.0
 10
10.6575689792
 20
10.1102829158
 30
0.0
 10
10.6604209898
 20
10.1100851282
 30
0.0
 10
10.6660446904
 20
10.1096321079
 30
0.0
 10
10.674330882
 20
10.1087673698
 30
0.0
 10
10.6823159396
 20
10.1077310689
 30
0.0
 10
10.6899465581
 20
10.1065302767
 30
0.0
 10
10.6971719647
 20
10.1051731584
 30
0.0
 10
10.7039442198
 20
10.1036689926
 30
0.0
 10
10.7102183384
 20
10.1020279986
 30
0.0
 10
10.7150992321
 20
10.100524697
 30
0.0
 10
10.7187170769
 20
10.0992539254
 30
0.0
 10
10.7212210315
 20
10.0982946199
 30
0.0
 10
10.723571417
 20
10.0973097654
 30
0.0
 10
10.7257643652
 20
10.0963009259
 30
0.0
 10
10.7277963129
 20
10.0952698184
 30
0.0
 10
10.7296639492
 20
10.0942180531
 30
0.0
 10
10.7313643092
 20
10.0931473693
 30
0.0
 10
10.7328946564
 20
10.0920593303
 30
0.0
 10
10.7342526303
 20
10.090955608
 30
0.0
 10
10.7354360123
 20
10.0898376003
 30
0.0
 10
10.7364429173
 20
10.0887067707
 30
0.0
 10
10.7372713561
 20
10.0875642552
 30
0.0
 10
10.7379194627
 20
10.086411386
 30
0.0
 10
10.738384916
 20
10.0852494134
 30
0.0
 10
10.738665551
 20
10.0840808708
 30
0.0
 10
10.7387283001
 20
10.0832955857
 30
0.0
 10
10.7387283032
 20
10.082908054
 30
0.0
  0
SPLINE
  5
3C7
100
AcDbEntity
  8
0
100
AcDbSpline
 62
7
  6
CONTINUOUS
 70
0
 71
3
 72
23
 73
19
 74
0
 42
0.0000001
 43
0.0000001
 44
0.0000000001
 40
0.0
 40
0.0
 40
0.0
 40
0.0
 40
0.0616482107
 40
0.1233194484
 40
0.1850364778
 40
0.246821563
 40
0.3086962115
 40
0.3706809284
 40
0.432795007
 40
0.4950563296
 40
0.557481183
 40
0.6200840897
 40
0.6828775671
 40
0.7458723773
 40
0.8090769738
 40
0.8724964981
 40
0.9361392129
 40
1.0
 40
1.0
 40
1.0
 40
1.0
 10
10.6978194366
 20
8.1667495329
 30
0.0
 10
10.6945986969
 20
8.1636385537
 30
0.0
 10
10.6879873072
 20
8.1575874029
 30
0.0
 10
10.6775946734
 20
8.1490551042
 30
0.0
 10
10.6667507657
 20
8.1410867647
 30
0.0
 10
10.655483274
 20
8.1337028071
 30
0.0
 10
10.6438204833
 20
8.1269217465
 30
0.0
 10
10.6317918048
 20
8.1207606936
 30
0.0
 10
10.6194275659
 20
8.1152351007
 30
0.0
 10
10.6067589213
 20
8.1103588579
 30
0.0
 10
10.5938177734
 20
8.1061442527
 30
0.0
 10
10.580636729
 20
8.1026018706
 30
0.0
 10
10.5672489946
 20
8.099740547
 30
0.0
 10
10.5536882614
 20
8.0975674687
 30
0.0
 10
10.5399887708
 20
8.0960881356
 30
0.0
 10
10.5261846786
 20
8.0953060933
 30
0.0
 10
10.5123114528
 20
8.0952234603
 30
0.0
 10
10.5030546373
 20
8.0956339449
 30
0.0
 10
10.4984271652
 20
8.0959548612
 30
0.0
  0
SPLINE
  5
3C8
100
AcDbEntity
  8
0
100
AcDbSpline
 62
7
  6
CONTINUOUS
 70
0
 71
3
 72
21
 73
17
 74
0
 42
0.0000001
 43
0.0000001
 44
0.0000000001
 40
0.0
 40
0.0
 40
0.0
 40
0.0
 40
0.0616077196
 40
0.123264455
 40
0.1849884048
 40
0.2467971517
 40
0.3087074867
 40
0.3707352873
 40
0.4328953754
 40
0.495201361
 40
0.5576655762
 40
0.6202989243
 40
0.6831107755
 40
0.7461092798
 40
0.8726538816
 40
1.0
 40
1.0
 40
1.0
 40
1.0
 10
10.6993088163
 20
8.1113609156
 30
0.0
 10
10.6957099181
 20
8.1083918704
 30
0.0
 10
10.688362872
 20
8.1026263424
 30
0.0
 10
10.6769290411
 20
8.0945225477
 30
0.0
 10
10.6651012633
 20
8.0869764393
 30
0.0
 10
10.6529044585
 20
8.0800040585
 30
0.0
 10
10.6403639419
 20
8.073619815
 30
0.0
 10
10.627505868
 20
8.0678369502
 30
0.0
 10
10.6143569691
 20
8.0626675272
 30
0.0
 10
10.6009446219
 20
8.058122293
 30
0.0
 10
10.5872967377
 20
8.0542106211
 30
0.0
 10
10.5734417925
 20
8.0509406688
 30
0.0
 10
10.5594082774
 20
8.0483192263
 30
0.0
 10
10.5404728853
 20
8.0456921893
 30
0.0
 10
10.5164945849
 20
8.0440602405
 30
0.0
 10
10.4972422744
 20
8.0445227591
 30
0.0
 10
10.487621479
 20
8.0451899636
 30
0.0
  0
SPLINE
  5
3C9
100
AcDbEntity
  8
0
100
AcDbSpline
 62
7
  6
CONTINUOUS
 70
0
 71
3
 72
23
 73
19
 74
0
 42
0.0000001
 43
0.0000001
 44
0.0000000001
 40
0.0
 40
0.0
 40
0.0
 40
0.0
 40
0.0616482106
 40
0.123319444
 40
0.1850364734
 40
0.2468215626
 40
0.3086962119
 40
0.3706809251
 40
0.4327950031
 40
0.4950563302
 40
0.5574811826
 40
0.6200840855
 40
0.6828775753
 40
0.7458723551
 40
0.8090769809
 40
0.8724965648
 40
0.9361390258
 40
1.0
 40
1.0
 40
1.0
 40
1.0
 10
10.6838967742
 20
8.0952550535
 30
0.0
 10
10.6802075227
 20
8.0916915082
 30
0.0
 10
10.6726343361
 20
8.0847601325
 30
0.0
 10
10.6607298985
 20
8.07498662
 30
0.0
 10
10.6483085317
 20
8.0658591106
 30
0.0
 10
10.6354019525
 20
8.0574010061
 30
0.0
 10
10.6220425584
 20
8.0496335242
 30
0.0
 10
10.6082640701
 20
8.0425762092
 30
0.0
 10
10.5941012052
 20
8.036246795
 30
0.0
 10
10.5795896454
 20
8.0306612084
 30
0.0
 10
10.5647659396
 20
8.0258335165
 30
0.0
 10
10.5496674462
 20
8.0217758118
 30
0.0
 10
10.5343321952
 20
8.0184982473
 30
0.0
 10
10.5187987755
 20
8.0160090527
 30
0.0
 10
10.5031064092
 20
8.014314526
 30
0.0
 10
10.4872942444
 20
8.0134187189
 30
0.0
 10
10.4714028756
 20
8.0133240557
 30
0.0
 10
10.4607994734
 20
8.01379426
 30
0.0
 10
10.4554988256
 20
8.0141618612
 30
0.0
  0
SPLINE
  5
3CA
100
AcDbEntity
  8
0
100
AcDbSpline
 62
7
  6
CONTINUOUS
 70
0
 71
3
 72
23
 73
19
 74
0
 42
0.0000001
 43
0.0000001
 44
0.0000000001
 40
0.0
 40
0.0
 40
0.0
 40
0.0
 40
0.0616113531
 40
0.1232660991
 40
0.1849835014
 40
0.2467822143
 40
0.3086801223
 40
0.3706941642
 40
0.4328401629
 40
0.4951326909
 40
0.5575849717
 40
0.6202087315
 40
0.6830140155
 40
0.7460095168
 40
0.8092018135
 40
0.8725949913
 40
0.9361962434
 40
1.0
 40
1.0
 40
1.0
 40
1.0
 10
10.6825109157
 20
8.0616525154
 30
0.0
 10
10.6786221717
 20
8.0583200003
 30
0.0
 10
10.6706736502
 20
8.0518461737
 30
0.0
 10
10.6582761676
 20
8.0427399583
 30
0.0
 10
10.6454266433
 20
8.0342545898
 30
0.0
 10
10.6321535481
 20
8.0264088585
 30
0.0
 10
10.6184857593
 20
8.019219768
 30
0.0
 10
10.6044531182
 20
8.0127030519
 30
0.0
 10
10.5900862491
 20
8.0068729079
 30
0.0
 10
10.5754165289
 20
8.0017419875
 30
0.0
 10
10.5604759614
 20
7.9973214701
 30
0.0
 10
10.5452971384
 20
7.9936210272
 30
0.0
 10
10.5299131846
 20
7.9906486336
 30
0.0
 10
10.5143576475
 20
7.9884107509
 30
0.0
 10
10.4986645533
 20
7.9869122755
 30
0.0
 10
10.4828677658
 20
7.986156348
 30
0.0
 10
10.4670024902
 20
7.986144746
 30
0.0
 10
10.456418882
 20
7.9866323286
 30
0.0
 10
10.4511280238
 20
7.9869992508
 30
0.0
  0
SPLINE
  5
3CB
100
AcDbEntity
  8
0
100
AcDbSpline
 62
7
  6
CONTINUOUS
 70
0
 71
3
 72
23
 73
19
 74
0
 42
0.0000001
 43
0.0000001
 44
0.0000000001
 40
0.0
 40
0.0
 40
0.0
 40
0.0
 40
0.0616482066
 40
0.1233194398
 40
0.1850364729
 40
0.2468215638
 40
0.3086962099
 40
0.3706809215
 40
0.4327950013
 40
0.4950563319
 40
0.5574811817
 40
0.6200840805
 40
0.6828775834
 40
0.7458723398
 40
0.8090769807
 40
0.8724966303
 40
0.9361388571
 40
1.0
 40
1.0
 40
1.0
 40
1.0
 10
10.6828676318
 20
8.061240695
 30
0.0
 10
10.6789118644
 20
8.0574196993
 30
0.0
 10
10.6707915553
 20
8.0499875893
 30
0.0
 10
10.6580271184
 20
8.0395079857
 30
0.0
 10
10.6447083909
 20
8.0297210716
 30
0.0
 10
10.6308693826
 20
8.0206519474
 30
0.0
 10
10.6165448645
 20
8.0123233125
 30
0.0
 10
10.6017709782
 20
8.004756142
 30
0.0
 10
10.5865849422
 20
7.9979694641
 30
0.0
 10
10.5710250117
 20
7.9919803736
 30
0.0
 10
10.555130393
 20
7.9868039116
 30
0.0
 10
10.5389411357
 20
7.9824530553
 30
0.0
 10
10.5224980161
 20
7.9789387077
 30
0.0
 10
10.5058424087
 20
7.9762696919
 30
0.0
 10
10.4890163683
 20
7.9744527464
 30
0.0
 10
10.4720618935
 20
7.9734922248
 30
0.0
 10
10.455022479
 20
7.9733907133
 30
0.0
 10
10.4436530575
 20
7.9738948928
 30
0.0
 10
10.4379694582
 20
7.9742890517
 30
0.0
  0
SPLINE
  5
3CC
100
AcDbEntity
  8
0
100
AcDbSpline
 62
7
  6
CONTINUOUS
 70
0
 71
3
 72
42
 73
38
 74
0
 42
0.0000001
 43
0.0000001
 44
0.0000000001
 40
0.0
 40
0.0
 40
0.0
 40
0.0
 40
0.0299205059
 40
0.0449002754
 40
0.0598947329
 40
0.089932319
 40
0.120057219
 40
0.1351603205
 40
0.1502913738
 40
0.1806391042
 40
0.2111176295
 40
0.2417363133
 40
0.2725016404
 40
0.3034171261
 40
0.3344832886
 40
0.3656976818
 40
0.3970549854
 40
0.4285471449
 40
0.4601635604
 40
0.4918913136
 40
0.5237154321
 40
0.5556191821
 40
0.587584386
 40
0.6195917592
 40
0.6516212607
 40
0.6836524539
 40
0.7156648722
 40
0.7476383842
 40
0.7795535563
 40
0.8113920041
 40
0.8431367348
 40
0.8747724596
 40
0.9062859172
 40
0.9376660689
 40
0.9533054613
 40
0.9689091682
 40
1.0
 40
1.0
 40
1.0
 40
1.0
 10
10.4112686819
 20
8.6423731596
 30
0.0
 10
10.4076312096
 20
8.6381314979
 30
0.0
 10
10.4024098723
 20
8.6315569174
 30
0.0
 10
10.3959566855
 20
8.622418329
 30
0.0
 10
10.3898383182
 20
8.6130255042
 30
0.0
 10
10.3828428293
 20
8.6008412938
 30
0.0
 10
10.3767647235
 20
8.58815211
 30
0.0
 10
10.372464996
 20
8.5777297286
 30
0.0
 10
10.3685377343
 20
8.5671170062
 30
0.0
 10
10.3643511289
 20
8.5535492179
 30
0.0
 10
10.3605134868
 20
8.5368933804
 30
0.0
 10
10.3578749667
 20
8.5199268485
 30
0.0
 10
10.3564486738
 20
8.5027341696
 30
0.0
 10
10.3562414236
 20
8.4854002818
 30
0.0
 10
10.3572540807
 20
8.4680109689
 30
0.0
 10
10.3594814642
 20
8.4506522035
 30
0.0
 10
10.3629124059
 20
8.4334097891
 30
0.0
 10
10.3675298038
 20
8.416368924
 30
0.0
 10
10.3733107123
 20
8.3996137893
 30
0.0
 10
10.3802264574
 20
8.3832271379
 30
0.0
 10
10.3882427802
 20
8.3672898906
 30
0.0
 10
10.3973200066
 20
8.3518807414
 30
0.0
 10
10.4074132428
 20
8.3370757738
 30
0.0
 10
10.4184725963
 20
8.3229480886
 30
0.0
 10
10.4304434204
 20
8.3095674475
 30
0.0
 10
10.4432665827
 20
8.2969999315
 30
0.0
 10
10.4568787536
 20
8.2853076179
 30
0.0
 10
10.4712127178
 20
8.2745482761
 30
0.0
 10
10.4861976988
 20
8.2647750855
 30
0.0
 10
10.5017597198
 20
8.2560363708
 30
0.0
 10
10.5178219072
 20
8.2483753782
 30
0.0
 10
10.5343050827
 20
8.2418300147
 30
0.0
 10
10.5511273413
 20
8.2364328269
 30
0.0
 10
10.5653770257
 20
8.2329099963
 30
0.0
 10
10.5768619849
 20
8.2306919331
 30
0.0
 10
10.5883627738
 20
8.2288798008
 30
0.0
 10
10.597044941
 20
8.2279706878
 30
0.0
 10
10.6028373358
 20
8.2275689838
 30
0.0
  0
ENDSEC
  0
SECTION
  2
OBJECTS
  0
DICTIONARY
  5
C
100
AcDbDictionary
280
0
281
1
  3
ACAD_GROUP
350
D
  3
ACAD_MLINESTYLE
350
17
  3
ACAD_LAYOUT
350
1A
  3
ACAD_PLOTSETTINGS
350
19
  3
ACAD_PLOTSTYLENAME
350
E
  3
ACAD_IMAGE_DICT
350
       3CE
  3
ACAD_IMAGE_VARS
350
       3CF
  3
ACAD_TABLESTYLE
350
       3D0
  0
IMAGEDEF_REACTOR
  5
3CD
100
AcDbRasterImageDefReactor
 90
2
330
279
  0
DICTIONARY
  5
D
102
{ACAD_REACTORS
330
C
102
}
100
AcDbDictionary
280
0
281
1
  0
ACDBDICTIONARYWDFLT
  5
E
102
{ACAD_REACTORS
330
C
102
}
100
AcDbDictionary
281
1
  3
Normal
350
F
100
AcDbDictionaryWithDefault
340
F
  0
DICTIONARY
  5
3CE
330
C
100
AcDbDictionary
281
1
  3
U3X_assy_2_img_1
350
       3D3
  0
RASTERVARIABLES
  5
3CF
330
C
100
AcDbRasterVariables
 90
0
 70
0
 71
1
 72
5
  0
DICTIONARY
  5
17
102
{ACAD_REACTORS
330
C
102
}
100
AcDbDictionary
280
0
281
1
  3
Standard
350
18
  0
DICTIONARY
  5
3D0
330
C
100
AcDbDictionary
281
1
  3
Standard
350
       3D4
  3
Standard1
350
       3D5
  0
DICTIONARY
  5
19
102
{ACAD_REACTORS
330
C
102
}
100
AcDbDictionary
281
1
  0
DICTIONARY
  5
1A
102
{ACAD_REACTORS
330
C
102
}
100
AcDbDictionary
281
1
  3
Model
350
3D1
  3
Layout1
350
3D2
  0
ACDBPLACEHOLDER
  5
F
102
{ACAD_REACTORS
330
E
102
}
  0
MLINESTYLE
  5
18
102
{ACAD_REACTORS
330
17
102
}
100
AcDbMlineStyle
  2
STANDARD
 70
0
  3

 62
256
 51
90.0
 52
90.0
 71
2
 49
0.5
 62
256
  6
BYLAYER
 49
-0.5
 62
256
  6
BYLAYER
  0
LAYOUT
  5
3D1
102
{ACAD_REACTORS
330
1A
102
}
100
AcDbPlotSettings
  1

  2
none_device
  4
ANSI_C_(22.00_x_17.00_Inches)
  6

 40
0.0
 41
0.0
 42
0.0
 43
0.0
 44
558.8
 45
431.8
 46
0.0
 47
0.0
 48
0.0
 49
0.0
140
0.0
141
0.0
142
1.0
143
1.0
 70
1024
 72
0
 73
0
 74
0
  7

 75
0
147
1.0
148
0.0
149
0.0
100
AcDbLayout
  1
Model
 70
0
 71
0
 10
0.0
 20
0.0
 11
22.0
 21
17.0
 12
0.0
 22
0.0
 32
0.0
 14
0.0
 24
0.0
 34
0.0
 15
0.0
 25
0.0
 35
0.0
146
0.0
 13
0.0
 23
0.0
 33
0.0
 16
1.0
 26
0.0
 36
0.0
 17
0.0
 27
1.0
 37
0.0
 76
0
330
210
345
0
346
0
  0
LAYOUT
  5
3D2
102
{ACAD_REACTORS
330
1A
102
}
100
AcDbPlotSettings
  1

  2
none_device
  4
ANSI_C_(22.00_x_17.00_Inches)
  6

 40
0.0
 41
0.0
 42
0.0
 43
0.0
 44
558.8
 45
431.8
 46
0.0
 47
0.0
 48
0.0
 49
0.0
140
0.0
141
0.0
142
1.0
143
1.0
 70
0
 72
0
 73
0
 74
0
  7

 75
0
147
1.0
148
0.0
149
0.0
100
AcDbLayout
  1
Layout1
 70
0
 71
1
 10
0.0
 20
0.0
 11
22.0
 21
17.0
 12
0.0
 22
0.0
 32
0.0
 14
0.0
 24
0.0
 34
0.0
 15
0.0
 25
0.0
 35
0.0
146
0.0
 13
0.0
 23
0.0
 33
0.0
 16
1.0
 26
0.0
 36
0.0
 17
0.0
 27
1.0
 37
0.0
 76
0
330
211
345
0
346
0
  0
IMAGEDEF
  5
3D3
102
{ACAD_REACTORS
330
3CE
330
3CD
102
}
100
AcDbRasterImageDef
 90
0
  1
U3X_assy_2_img_1.png
 10
369.0
 20
92.0
 11
0.0066666667
 21
0.0066666667
280
1
281
0
  0
TABLESTYLE
  5
3D4
102
{ACAD_REACTORS
330
3D0
330
27C
102
}
330
3D0
100
AcDbTableStyle
  3
Standard
 70
0
 71
0
 40
0.06
 41
0.06
280
1
281
1
  7
Standard
140
0.18
170
1
 62
0
 63
7
283
0
  7
Standard
140
0.18
170
1
 62
0
 63
7
283
0
  7
Standard
140
0.18
170
1
 62
0
 63
7
283
0
  0
TABLESTYLE
  5
3D5
102
{ACAD_REACTORS
330
3D0
330
27B
102
}
330
3D0
100
AcDbTableStyle
  3
Standard1
 70
1
 71
0
 40
0.06
 41
0.06
280
1
281
1
  7
Standard
140
0.18
170
1
 62
0
 63
7
283
0
  7
Standard
140
0.18
170
1
 62
0
 63
7
283
0
  7
Standard
140
0.18
170
1
 62
0
 63
7
283
0
  0
ENDSEC
  0
EOF
