999
DXF file: U2P_assy_2.dxf
999
Pro/ENGINEER 2014200 by Parametric Technology Corporation
  0
SECTION
  2
HEADER
  9
$ACADVER
  1
AC1021
  9
$DWGCODEPAGE
  3
ANSI_1252
  9
$EXTMAX
 10
22.0
 20
17.0
 30
0.0
  9
$EXTMIN
 10
0.0
 20
0.0
 30
0.0
  9
$LIMMIN
 10
0.0
 20
0.0
  9
$LIMMAX
 10
22.0
 20
17.0
  9
$VIEWCTR
 10
11.0
 20
8.5
  9
$VIEWSIZE
 40
17.0
  9
$CLAYER
  8
0
  9
$LTSCALE
 40
1.21
  9
$CELTYPE
  6
BYLAYER
  9
$DIMSCALE
 40
1.0
  9
$DIMASZ
 40
0.1875
  9
$DIMEXO
 40
0.0625
  9
$DIMDLI
 40
0.836
  9
$DIMEXE
 40
0.125
  9
$DIMCEN
 40
0.198
  9
$DIMLFAC
 40
1.0
  9
$DIMBLK
  1
_FILLED
  9
$DIMTXT
 40
0.1
  9
$DIMTOL
 70
0
  9
$DIMLIM
 70
0
  9
$DIMTFAC
 40
1.0
  9
$DIMGAP
 40
0.09
  9
$DIMDSEP
 70
46
  9
$AUNITS
 70
0
  9
$PDMODE
 70
3
  9
$PDSIZE
 40
0.3125
  9
$HANDSEED
  5
3D8
  9
$TILEMODE
 70
1
  9
$MEASUREMENT
 70
0
  9
$INSUNITS
 70
1
  0
ENDSEC
  0
SECTION
  2
CLASSES
  0
CLASS
  1
ACDBDICTIONARYWDFLT
  2
AcDbDictionaryWithDefault
  3
AutoCAD 2000
 90
0
 91
1
280
0
281
0
  0
CLASS
  1
ACDBPLACEHOLDER
  2
AcDbPlaceHolder
  3
AutoCAD 2000
 90
0
 91
1
280
0
281
0
  0
CLASS
  1
LAYOUT
  2
AcDbLayout
  3
AutoCAD 2000
 90
0
 91
0
280
0
281
0
  0
CLASS
  1
RASTERVARIABLES
  2
AcDbRasterVariables
  3
ISM
 90
0
 91
1
280
0
281
0
  0
CLASS
  1
IMAGEDEF
  2
AcDbRasterImageDef
  3
ISM
 90
0
 91
1
280
0
281
0
  0
CLASS
  1
IMAGEDEF_REACTOR
  2
AcDbRasterImageDefReactor
  3
ISM
 90
0
 91
1
280
0
281
0
  0
CLASS
  1
IMAGE
  2
AcDbRasterImage
  3
ISM
 90
127
 91
1
280
0
281
1
  0
CLASS
  1
TABLESTYLE
  2
AcDbTableStyle
  3
ObjectDBX Classes
 90
2047
 91
1
280
0
281
0
  0
CLASS
  1
ACAD_TABLE
  2
AcDbTable
  3
ObjectDBX Classes
 90
1025
 91
3
280
0
281
1
  0
ENDSEC
  0
SECTION
  2
TABLES
  0
TABLE
  2
VPORT
  5
8
100
AcDbSymbolTable
 70
2
  0
VPORT
  5
1F4
100
AcDbSymbolTableRecord
100
AcDbViewportTableRecord
  2
*ACTIVE
 70
0
 10
0.0
 20
0.0
 11
1.0
 21
1.0
 12
11.0
 22
8.5
 13
0.0
 23
0.0
 14
1.0
 24
1.0
 15
0.0
 25
0.0
 16
0.0
 26
0.0
 36
1.0
 17
0.0
 27
0.0
 37
0.0
 40
17.0
 41
1.2941176471
 42
50.0
 43
0.0
 44
0.0
 50
0.0
 51
0.0
 71
0
 72
100
 73
1
 74
1
 75
0
 76
0
 77
0
 78
0
  0
ENDTAB
  0
TABLE
  2
LTYPE
  5
5
100
AcDbSymbolTable
 70
6
  0
LTYPE
  5
14
100
AcDbSymbolTableRecord
100
AcDbLinetypeTableRecord
  2
BYBLOCK
 70
0
  3

 72
65
 73
0
 40
0.0
  0
LTYPE
  5
15
100
AcDbSymbolTableRecord
100
AcDbLinetypeTableRecord
  2
BYLAYER
 70
0
  3

 72
65
 73
0
 40
0.0
  0
LTYPE
  5
16
100
AcDbSymbolTableRecord
100
AcDbLinetypeTableRecord
  2
CONTINUOUS
 70
64
  3
Solid line
 72
65
 73
0
 40
0.0
  0
LTYPE
  5
1F5
100
AcDbSymbolTableRecord
100
AcDbLinetypeTableRecord
  2
CENTER
 70
64
  3
____ _ ____ _ ____ _ ____ _ ____ _ ____ _ ____
 72
65
 73
4
 40
0.6
 49
0.375
 74
0
 49
-0.075
 74
0
 49
0.075
 74
0
 49
-0.075
 74
0
  0
LTYPE
  5
1F6
100
AcDbSymbolTableRecord
100
AcDbLinetypeTableRecord
  2
HIDDEN
 70
64
  3
- - - - - - - - - - - - - - - - - - - -
 72
65
 73
2
 40
0.2
 49
0.1
 74
0
 49
-0.1
 74
0
  0
LTYPE
  5
1F7
100
AcDbSymbolTableRecord
100
AcDbLinetypeTableRecord
  2
PHANTOM
 70
64
  3
_____ _ _ _____ _ _ _____ _ _ _____
 72
65
 73
6
 40
0.8
 49
0.45
 74
0
 49
-0.05
 74
0
 49
0.1
 74
0
 49
-0.05
 74
0
 49
0.1
 74
0
 49
-0.05
 74
0
  0
LTYPE
  5
1F8
100
AcDbSymbolTableRecord
100
AcDbLinetypeTableRecord
  2
DOT
 70
64
  3
. . . . . . . . . . . . . . . . . . . .
 72
65
 73
2
 40
0.2
 49
0.1
 74
0
 49
-0.1
 74
0
  0
LTYPE
  5
1F9
100
AcDbSymbolTableRecord
100
AcDbLinetypeTableRecord
  2
DASHED
 70
64
  3
- - - - - - - - - - - - - - - - - - - -
 72
65
 73
2
 40
0.2
 49
0.1
 74
0
 49
-0.1
 74
0
  0
ENDTAB
  0
TABLE
  2
LAYER
  5
2
100
AcDbSymbolTable
 70
36
  0
LAYER
  5
10
100
AcDbSymbolTableRecord
100
AcDbLayerTableRecord
  2
0
 70
0
 62
7
  6
CONTINUOUS
370
-3
390
F
  0
LAYER
  5
1FA
100
AcDbSymbolTableRecord
100
AcDbLayerTableRecord
  2
DEFAULT_1
 70
0
 62
7
  6
CENTER
370
-3
390
F
  0
LAYER
  5
1FB
100
AcDbSymbolTableRecord
100
AcDbLayerTableRecord
  2
DEFAULT_2
 70
0
 62
8
  6
HIDDEN
370
-3
390
F
  0
LAYER
  5
1FC
100
AcDbSymbolTableRecord
100
AcDbLayerTableRecord
  2
DEFAULT_3
 70
0
 62
7
  6
PHANTOM
370
-3
390
F
  0
LAYER
  5
1FD
100
AcDbSymbolTableRecord
100
AcDbLayerTableRecord
  2
DATUM_PLANES
 70
0
 62
7
  6
CONTINUOUS
370
-3
390
F
  0
LAYER
  5
1FE
100
AcDbSymbolTableRecord
100
AcDbLayerTableRecord
  2
DIMENSIONS
 70
0
 62
7
  6
CONTINUOUS
370
-3
390
F
  0
LAYER
  5
1FF
100
AcDbSymbolTableRecord
100
AcDbLayerTableRecord
  2
DTM_500001
 70
0
 62
7
  6
CONTINUOUS
370
-3
390
F
  0
LAYER
  5
200
100
AcDbSymbolTableRecord
100
AcDbLayerTableRecord
  2
PARAMETERDIMENSIONS
 70
0
 62
7
  6
CONTINUOUS
370
-3
390
F
  0
LAYER
  5
201
100
AcDbSymbolTableRecord
100
AcDbLayerTableRecord
  2
PORT_AREAS
 70
0
 62
7
  6
CONTINUOUS
370
-3
390
F
  0
LAYER
  5
202
100
AcDbSymbolTableRecord
100
AcDbLayerTableRecord
  2
SUNNBOMCOSMETIC
 70
0
 62
7
  6
CONTINUOUS
370
-3
390
F
  0
LAYER
  5
203
100
AcDbSymbolTableRecord
100
AcDbLayerTableRecord
  2
SUNNBOMSTAMPING
 70
0
 62
7
  6
CONTINUOUS
370
-3
390
F
  0
LAYER
  5
204
100
AcDbSymbolTableRecord
100
AcDbLayerTableRecord
  2
THREADS
 70
0
 62
7
  6
CONTINUOUS
370
-3
390
F
  0
ENDTAB
  0
TABLE
  2
STYLE
  5
3
100
AcDbSymbolTable
 70
1
  0
STYLE
  5
11
100
AcDbSymbolTableRecord
100
AcDbTextStyleTableRecord
  2
STANDARD
 70
0
 40
0.0
 41
0.8
 50
0.0
 71
0
 42
0.2
  3
txt
  4

  0
STYLE
  5
205
100
AcDbSymbolTableRecord
100
AcDbTextStyleTableRecord
  2
TEXTSTYLE_1
 70
0
 40
0.0
 41
0.8
 50
0.0
 71
0
 42
0.2
  3
gdt
  4

  0
ENDTAB
  0
TABLE
  2
VIEW
  5
6
100
AcDbSymbolTable
 70
0
  0
ENDTAB
  0
TABLE
  2
UCS
  5
7
100
AcDbSymbolTable
 70
0
  0
ENDTAB
  0
TABLE
  2
APPID
  5
9
100
AcDbSymbolTable
 70
1
  0
APPID
  5
206
100
AcDbSymbolTableRecord
100
AcDbRegAppTableRecord
  2
ACAD
 70
0
  0
ENDTAB
  0
TABLE
  2
BLOCK_RECORD
  5
1
100
AcDbSymbolTable
 70
0
  0
BLOCK_RECORD
  5
207
100
AcDbSymbolTableRecord
100
AcDbBlockTableRecord
  2
*Model_Space
  0
BLOCK_RECORD
  5
208
100
AcDbSymbolTableRecord
100
AcDbBlockTableRecord
  2
*Paper_Space
  0
BLOCK_RECORD
  5
209
100
AcDbSymbolTableRecord
100
AcDbBlockTableRecord
  2
SUN_FIRST_THIRD_ANGLE_BL0
  0
BLOCK_RECORD
  5
20A
100
AcDbSymbolTableRecord
100
AcDbBlockTableRecord
  2
*T1
  0
BLOCK_RECORD
  5
20B
100
AcDbSymbolTableRecord
100
AcDbBlockTableRecord
  2
*T2
  0
BLOCK_RECORD
  5
20C
100
AcDbSymbolTableRecord
100
AcDbBlockTableRecord
  2
*T3
  0
ENDTAB
  0
TABLE
  2
DIMSTYLE
  5
A
100
AcDbSymbolTable
 70
1
100
AcDbDimStyleTable
 71
0
  0
DIMSTYLE
105
20D
100
AcDbSymbolTableRecord
100
AcDbDimStyleTableRecord
  2
STANDARD
 70
0
  3

  4

 40
1.0
 41
0.1875
 42
0.0625
 43
0.38
 44
0.125
 45
0.0
 46
0.0
 47
0.001
 48
0.001
140
0.1
141
0.09
142
0.0
143
25.4
144
1.0
145
0.0
146
1.0
147
0.09
 71
0.0
 72
0.0
 73
1
 74
1
 75
0
 76
0
 77
0
 78
4
170
0
171
2
172
0
173
0
174
0
175
0
176
0
177
0
178
0
270
2
271
3
272
3
273
2
274
2
275
0
280
0
281
0
282
0
283
1
284
4
285
0
286
0
287
3
288
0
340
11
278
46
  0
ENDTAB
  0
ENDSEC
  0
SECTION
  2
BLOCKS
  0
BLOCK
  5
20
100
AcDbEntity
  8
0
100
AcDbBlockBegin
  2
*Model_Space
 70
0
 10
0.0
 20
0.0
 30
0.0
  3
*Model_Space
  1

  0
ENDBLK
  5
21
100
AcDbEntity
  8
0
100
AcDbBlockEnd
  0
BLOCK
  5
1C
100
AcDbEntity
  8
0
100
AcDbBlockBegin
  2
*Paper_Space
 70
0
 10
0.0
 20
0.0
 30
0.0
  3
*Paper_Space
  1

  0
ENDBLK
  5
1D
100
AcDbEntity
  8
0
100
AcDbBlockEnd
  0
BLOCK
  5
20E
100
AcDbEntity
  8
0
100
AcDbBlockBegin
 62
2
  6
CONTINUOUS
  2
SUN_FIRST_THIRD_ANGLE_BL0
 70
64
 10
20.4816717061
 20
1.2289683772
  3
SUN_FIRST_THIRD_ANGLE_BL0
  1

  0
TEXT
  5
20F
100
AcDbEntity
  8
0
100
AcDbText
 62
2
  6
CONTINUOUS
 10
19.4750896608
 20
1.4136269581
  7
STANDARD
 40
0.08
  1
FIRST ANGLE
 41
0.8
 72
0
100
AcDbText
  0
TEXT
  5
210
100
AcDbEntity
  8
0
100
AcDbText
 62
2
  6
CONTINUOUS
 10
20.7842537513
 20
1.4047600029
  7
STANDARD
 40
0.08
  1
THIRD ANGLE
 41
0.8
 72
0
100
AcDbText
  0
LINE
  5
211
100
AcDbEntity
  8
0
100
AcDbLine
 62
7
  6
CONTINUOUS
 10
19.4767170086
 20
1.1727031207
 11
19.6334271527
 21
1.1717972817
  0
LINE
  5
212
100
AcDbEntity
  8
0
100
AcDbLine
 62
7
  6
CONTINUOUS
 10
19.6596964832
 20
1.1717972817
 11
19.6950230232
 21
1.171593082
  0
LINE
  5
213
100
AcDbEntity
  8
0
100
AcDbLine
 62
7
  6
CONTINUOUS
 10
19.7194818561
 20
1.1708914427
 11
19.8852396156
 21
1.1699333054
  0
LINE
  5
214
100
AcDbEntity
  8
0
100
AcDbLine
 62
7
  6
CONTINUOUS
 10
19.4758111696
 20
1.2723454088
 11
19.88525039
 21
1.3511534004
  0
LINE
  5
215
100
AcDbEntity
  8
0
100
AcDbLine
 62
7
  6
CONTINUOUS
 10
19.88525039
 20
1.3511534004
 11
19.8831348489
 21
0.9851647912
  0
LINE
  5
216
100
AcDbEntity
  8
0
100
AcDbLine
 62
7
  6
CONTINUOUS
 10
19.8831348489
 20
0.9851647912
 11
19.4767170086
 21
1.0658141206
  0
LINE
  5
217
100
AcDbEntity
  8
0
100
AcDbLine
 62
7
  6
CONTINUOUS
 10
19.4767170086
 20
1.0658141206
 11
19.4779056764
 21
1.2714536432
  0
CIRCLE
  5
218
100
AcDbEntity
  8
0
100
AcDbCircle
 62
7
  6
CONTINUOUS
 10
20.2068232291
 20
1.1717972817
 40
0.175742101
  0
CIRCLE
  5
219
100
AcDbEntity
  8
0
100
AcDbCircle
 62
7
  6
CONTINUOUS
 10
20.2068232291
 20
1.1717972817
 40
0.1005522074
  0
LINE
  5
21A
100
AcDbEntity
  8
0
100
AcDbLine
 62
7
  6
CONTINUOUS
 10
20.2077290681
 20
1.3756110529
 11
20.2071171714
 21
1.2379342989
  0
LINE
  5
21B
100
AcDbEntity
  8
0
100
AcDbLine
 62
7
  6
CONTINUOUS
 10
20.2077290681
 20
1.2016899681
 11
20.2074674401
 21
1.1428236749
  0
LINE
  5
21C
100
AcDbEntity
  8
0
100
AcDbLine
 62
7
  6
CONTINUOUS
 10
20.208634907
 20
1.101141841
 11
20.2080230104
 21
0.963465087
  0
LINE
  5
21D
100
AcDbEntity
  8
0
100
AcDbLine
 62
7
  6
CONTINUOUS
 10
20.0066328138
 20
1.1745147986
 11
20.1443095678
 21
1.1739029019
  0
LINE
  5
21E
100
AcDbEntity
  8
0
100
AcDbLine
 62
7
  6
CONTINUOUS
 10
20.1832714155
 20
1.1727031207
 11
20.238153505
 21
1.172335442
  0
LINE
  5
21F
100
AcDbEntity
  8
0
100
AcDbLine
 62
7
  6
CONTINUOUS
 10
20.2756669918
 20
1.1717972817
 11
20.407916871
 21
1.1712095044
  0
CIRCLE
  5
220
100
AcDbEntity
  8
0
100
AcDbCircle
 62
7
  6
CONTINUOUS
 10
20.7509457401
 20
1.1693297793
 40
0.1722024983
  0
CIRCLE
  5
221
100
AcDbEntity
  8
0
100
AcDbCircle
 62
7
  6
CONTINUOUS
 10
20.7509457401
 20
1.1693297793
 40
0.0985164967
  0
LINE
  5
222
100
AcDbEntity
  8
0
100
AcDbLine
 62
7
  6
CONTINUOUS
 10
20.7169767782
 20
1.170462078
 11
20.7825395137
 21
1.1682766535
  0
LINE
  5
223
100
AcDbEntity
  8
0
100
AcDbLine
 62
7
  6
CONTINUOUS
 10
20.8177513651
 20
1.1693297793
 11
20.947965719
 21
1.1693297793
  0
LINE
  5
224
100
AcDbEntity
  8
0
100
AcDbLine
 62
7
  6
CONTINUOUS
 10
20.6875370113
 20
1.170462078
 11
20.5573226574
 21
1.170462078
  0
LINE
  5
225
100
AcDbEntity
  8
0
100
AcDbLine
 62
7
  6
CONTINUOUS
 10
20.7486811426
 20
1.1987695462
 11
20.7486811426
 21
1.1432869085
  0
LINE
  5
226
100
AcDbEntity
  8
0
100
AcDbLine
 62
7
  6
CONTINUOUS
 10
20.7498134414
 20
1.1059210505
 11
20.7498134414
 21
0.9757066966
  0
LINE
  5
227
100
AcDbEntity
  8
0
100
AcDbLine
 62
7
  6
CONTINUOUS
 10
20.7486811426
 20
1.2338708068
 11
20.7486811426
 21
1.3640851607
  0
LINE
  5
228
100
AcDbEntity
  8
0
100
AcDbLine
 62
7
  6
CONTINUOUS
 10
21.0702539817
 20
1.2701043662
 11
21.4790138229
 21
1.3448360823
  0
LINE
  5
229
100
AcDbEntity
  8
0
100
AcDbLine
 62
7
  6
CONTINUOUS
 10
21.4790138229
 20
1.3448360823
 11
21.4790138229
 21
0.9779712941
  0
LINE
  5
22A
100
AcDbEntity
  8
0
100
AcDbLine
 62
7
  6
CONTINUOUS
 10
21.4790138229
 20
0.9779712941
 11
21.069121683
 21
1.0617614
  0
LINE
  5
22B
100
AcDbEntity
  8
0
100
AcDbLine
 62
7
  6
CONTINUOUS
 10
21.0702539817
 20
1.2701043662
 11
21.069121683
 21
1.0617614
  0
LINE
  5
22C
100
AcDbEntity
  8
0
100
AcDbLine
 62
7
  6
CONTINUOUS
 10
21.4790138229
 20
1.1693297793
 11
21.3159628059
 21
1.1693297793
  0
LINE
  5
22D
100
AcDbEntity
  8
0
100
AcDbLine
 62
7
  6
CONTINUOUS
 10
21.2876553377
 20
1.1693297793
 11
21.2502894796
 21
1.1693297793
  0
LINE
  5
22E
100
AcDbEntity
  8
0
100
AcDbLine
 62
7
  6
CONTINUOUS
 10
21.2208497126
 20
1.1659328831
 11
21.0713862804
 21
1.1659328831
  0
LINE
  5
22F
100
AcDbEntity
  8
0
100
AcDbLine
 62
7
  6
CONTINUOUS
 10
20.4796138713
 20
1.5284908897
 11
20.4766766948
 21
0.9294458646
  0
ENDBLK
  5
230
100
AcDbEntity
  8
0
  6
BYBLOCK
 62
0
100
AcDbBlockEnd
  0
BLOCK
  5
231
100
AcDbEntity
  8
0
100
AcDbBlockBegin
  2
*T1
 70
1
 10
0.0
 20
0.0
  3
*T1
  1

  0
LINE
  5
232
100
AcDbEntity
  8
0
100
AcDbLine
 62
2
  6
CONTINUOUS
 10
9.275
 20
0.0
 11
-0.0
 21
0.0
  0
LINE
  5
233
100
AcDbEntity
  8
0
100
AcDbLine
 62
2
  6
CONTINUOUS
 10
9.275
 20
0.0
 11
9.275
 21
1.25
  0
LINE
  5
234
100
AcDbEntity
  8
0
100
AcDbLine
 62
2
  6
CONTINUOUS
 10
9.275
 20
0.625
 11
-0.0
 21
0.625
  0
LINE
  5
235
100
AcDbEntity
  8
0
100
AcDbLine
 62
2
  6
CONTINUOUS
 10
9.275
 20
1.25
 11
-0.0
 21
1.25
  0
LINE
  5
236
100
AcDbEntity
  8
0
100
AcDbLine
 62
2
  6
CONTINUOUS
 10
6.8
 20
0.0
 11
6.8
 21
1.25
  0
LINE
  5
237
100
AcDbEntity
  8
0
100
AcDbLine
 62
2
  6
CONTINUOUS
 10
6.4
 20
0.0
 11
6.4
 21
0.625
  0
LINE
  5
238
100
AcDbEntity
  8
0
100
AcDbLine
 62
2
  6
CONTINUOUS
 10
5.9
 20
0.0
 11
5.9
 21
0.625
  0
LINE
  5
239
100
AcDbEntity
  8
0
100
AcDbLine
 62
2
  6
CONTINUOUS
 10
5.2
 20
0.0
 11
5.2
 21
0.625
  0
LINE
  5
23A
100
AcDbEntity
  8
0
100
AcDbLine
 62
2
  6
CONTINUOUS
 10
4.1
 20
0.0
 11
4.1
 21
1.25
  0
LINE
  5
23B
100
AcDbEntity
  8
0
100
AcDbLine
 62
2
  6
CONTINUOUS
 10
-0.0
 20
0.0
 11
-0.0
 21
1.25
  0
MTEXT
  5
23C
100
AcDbEntity
  8
0
100
AcDbMText
 62
2
  6
CONTINUOUS
  7
STANDARD
 71
2
 72
1
 10
6.6
 20
0.325
 30
0.0
 11
1.0
 21
0.0
 31
0.0
 44
0.9
  1
2
 40
0.125
 41
0.2
  0
MTEXT
  5
23D
100
AcDbEntity
  8
0
100
AcDbMText
 62
2
  6
CONTINUOUS
  7
STANDARD
 71
2
 72
1
 10
6.15
 20
0.325
 30
0.0
 11
1.0
 21
0.0
 31
0.0
 44
0.9
  1
C
 40
0.125
 41
0.2
  0
MTEXT
  5
23E
100
AcDbEntity
  8
0
100
AcDbMText
 62
2
  6
CONTINUOUS
  7
STANDARD
 71
2
 72
1
 10
5.55
 20
0.325
 30
0.0
 11
1.0
 21
0.0
 31
0.0
 44
0.9
  1
1.000
 40
0.125
 41
1.0
  0
MTEXT
  5
23F
100
AcDbEntity
  8
0
100
AcDbMText
 62
2
  6
CONTINUOUS
  7
STANDARD
 71
2
 72
1
 10
4.65
 20
0.325
 30
0.0
 11
1.0
 21
0.0
 31
0.0
 44
0.9
  1
May-10-22
 40
0.125
 41
1.8
  0
MTEXT
  5
240
100
AcDbEntity
  8
0
100
AcDbMText
 62
2
  6
CONTINUOUS
  7
STANDARD
 71
2
 72
1
 10
2.05
 20
0.4625
 30
0.0
 11
1.0
 21
0.0
 31
0.0
 44
0.9
  1
Gasket mount Sun\PDirect mount, cross pilot
 40
0.125
 41
5.0
  0
MTEXT
  5
241
100
AcDbEntity
  8
0
100
AcDbMText
 62
2
  6
CONTINUOUS
  7
STANDARD
 71
1
 72
1
 10
6.45
 20
0.5625
 30
0.0
 11
1.0
 21
0.0
 31
0.0
 44
0.9
  1
SHEET
 40
0.06
 41
0.48
  0
MTEXT
  5
242
100
AcDbEntity
  8
0
100
AcDbMText
 62
2
  6
CONTINUOUS
  7
STANDARD
 71
1
 72
1
 10
5.95
 20
0.5625
 30
0.0
 11
1.0
 21
0.0
 31
0.0
 44
0.9
  1
DWG SIZE
 40
0.06
 41
0.768
  0
MTEXT
  5
243
100
AcDbEntity
  8
0
100
AcDbMText
 62
2
  6
CONTINUOUS
  7
STANDARD
 71
1
 72
1
 10
5.25
 20
0.5625
 30
0.0
 11
1.0
 21
0.0
 31
0.0
 44
0.9
  1
SCALE
 40
0.06
 41
0.48
  0
MTEXT
  5
244
100
AcDbEntity
  8
0
100
AcDbMText
 62
2
  6
CONTINUOUS
  7
STANDARD
 71
1
 72
1
 10
4.15
 20
0.5625
 30
0.0
 11
1.0
 21
0.0
 31
0.0
 44
0.9
  1
DATE
 40
0.06
 41
0.384
  0
MTEXT
  5
245
100
AcDbEntity
  8
0
100
AcDbMText
 62
2
  6
CONTINUOUS
  7
STANDARD
 71
1
 72
1
 10
0.05
 20
0.5625
 30
0.0
 11
1.0
 21
0.0
 31
0.0
 44
0.9
  1
DESCRIPTION
 40
0.06
 41
1.056
  0
MTEXT
  5
246
100
AcDbEntity
  8
0
100
AcDbMText
 62
2
  6
CONTINUOUS
  7
STANDARD
 71
2
 72
1
 10
5.45
 20
1.0375
 30
0.0
 11
1.0
 21
0.0
 31
0.0
 44
0.9
  1
ALL DIMENSIONS IN INCH\PVIEWS ARE THIRD ANGLE
 40
0.12
 41
4.224
  0
MTEXT
  5
247
100
AcDbEntity
  8
0
100
AcDbMText
 62
2
  6
CONTINUOUS
  7
STANDARD
 71
2
 72
1
 10
2.05
 20
0.95
 30
0.0
 11
1.0
 21
0.0
 31
0.0
 44
0.9
  1
U2P
 40
0.125
 41
0.6
  0
MTEXT
  5
248
100
AcDbEntity
  8
0
100
AcDbMText
 62
2
  6
CONTINUOUS
  7
STANDARD
 71
1
 72
1
 10
0.05
 20
1.1875
 30
0.0
 11
1.0
 21
0.0
 31
0.0
 44
0.9
  1
MODEL
 40
0.06
 41
0.48
  0
ENDBLK
  5
249
100
AcDbEntity
  8
0
  6
BYBLOCK
 62
0
100
AcDbBlockEnd
  0
BLOCK
  5
24A
100
AcDbEntity
  8
0
100
AcDbBlockBegin
  2
*T2
 70
1
 10
0.0
 20
0.0
  3
*T2
  1

  0
LINE
  5
24B
100
AcDbEntity
  8
0
100
AcDbLine
 62
2
  6
CONTINUOUS
 10
0.0
 20
0.0
 11
9.055
 21
0.0
  0
LINE
  5
24C
100
AcDbEntity
  8
0
100
AcDbLine
 62
2
  6
CONTINUOUS
 10
0.0
 20
0.0
 11
0.0
 21
-2.344
  0
LINE
  5
24D
100
AcDbEntity
  8
0
100
AcDbLine
 62
2
  6
CONTINUOUS
 10
0.0
 20
-0.344
 11
9.055
 21
-0.344
  0
LINE
  5
24E
100
AcDbEntity
  8
0
100
AcDbLine
 62
2
  6
CONTINUOUS
 10
0.0
 20
-0.594
 11
9.055
 21
-0.594
  0
LINE
  5
24F
100
AcDbEntity
  8
0
100
AcDbLine
 62
2
  6
CONTINUOUS
 10
0.0
 20
-0.844
 11
9.055
 21
-0.844
  0
LINE
  5
250
100
AcDbEntity
  8
0
100
AcDbLine
 62
2
  6
CONTINUOUS
 10
0.0
 20
-1.094
 11
9.055
 21
-1.094
  0
LINE
  5
251
100
AcDbEntity
  8
0
100
AcDbLine
 62
2
  6
CONTINUOUS
 10
0.0
 20
-1.344
 11
9.055
 21
-1.344
  0
LINE
  5
252
100
AcDbEntity
  8
0
100
AcDbLine
 62
2
  6
CONTINUOUS
 10
0.0
 20
-1.594
 11
9.055
 21
-1.594
  0
LINE
  5
253
100
AcDbEntity
  8
0
100
AcDbLine
 62
2
  6
CONTINUOUS
 10
0.0
 20
-1.844
 11
9.055
 21
-1.844
  0
LINE
  5
254
100
AcDbEntity
  8
0
100
AcDbLine
 62
2
  6
CONTINUOUS
 10
0.0
 20
-2.094
 11
9.055
 21
-2.094
  0
LINE
  5
255
100
AcDbEntity
  8
0
100
AcDbLine
 62
2
  6
CONTINUOUS
 10
0.0
 20
-2.344
 11
9.055
 21
-2.344
  0
LINE
  5
256
100
AcDbEntity
  8
0
100
AcDbLine
 62
2
  6
CONTINUOUS
 10
3.055
 20
0.0
 11
3.055
 21
-2.344
  0
LINE
  5
257
100
AcDbEntity
  8
0
100
AcDbLine
 62
2
  6
CONTINUOUS
 10
9.055
 20
0.0
 11
9.055
 21
-2.344
  0
MTEXT
  5
258
100
AcDbEntity
  8
0
100
AcDbMText
 62
2
  6
CONTINUOUS
  7
STANDARD
 71
2
 72
1
 10
1.5275
 20
-0.0995
 30
0.0
 11
1.0
 21
0.0
 31
0.0
 44
0.9
  1
Technical Data
 40
0.145
 41
3.248
  0
MTEXT
  5
259
100
AcDbEntity
  8
0
100
AcDbMText
 62
2
  6
CONTINUOUS
  7
STANDARD
 71
2
 72
1
 10
4.555
 20
-0.0995
 30
0.0
 11
1.0
 21
0.0
 31
0.0
 44
0.9
  1
U.S. Units
 40
0.145
 41
2.32
  0
MTEXT
  5
25A
100
AcDbEntity
  8
0
100
AcDbMText
 62
2
  6
CONTINUOUS
  7
STANDARD
 71
2
 72
1
 10
7.555
 20
-0.0995
 30
0.0
 11
1.0
 21
0.0
 31
0.0
 44
0.9
  1
Metric Units
 40
0.145
 41
2.784
  0
MTEXT
  5
25B
100
AcDbEntity
  8
0
100
AcDbMText
 62
2
  6
CONTINUOUS
  7
STANDARD
 71
2
 72
1
 10
1.5275
 20
-0.4065
 30
0.0
 11
1.0
 21
0.0
 31
0.0
 44
0.9
  1
Body Features
 40
0.125
 41
2.6
  0
MTEXT
  5
25C
100
AcDbEntity
  8
0
100
AcDbMText
 62
2
  6
CONTINUOUS
  7
STANDARD
 71
2
 72
1
 10
6.055
 20
-0.4065
 30
0.0
 11
1.0
 21
0.0
 31
0.0
 44
0.9
  1
Direct mount, cross pilot
 40
0.125
 41
5.0
  0
MTEXT
  5
25D
100
AcDbEntity
  8
0
100
AcDbMText
 62
2
  6
CONTINUOUS
  7
STANDARD
 71
2
 72
1
 10
1.5275
 20
-0.6565
 30
0.0
 11
1.0
 21
0.0
 31
0.0
 44
0.9
  1
Body Type
 40
0.125
 41
1.8
  0
MTEXT
  5
25E
100
AcDbEntity
  8
0
100
AcDbMText
 62
2
  6
CONTINUOUS
  7
STANDARD
 71
2
 72
1
 10
6.055
 20
-0.6565
 30
0.0
 11
1.0
 21
0.0
 31
0.0
 44
0.9
  1
Gasket mount
 40
0.125
 41
2.4
  0
MTEXT
  5
25F
100
AcDbEntity
  8
0
100
AcDbMText
 62
2
  6
CONTINUOUS
  7
STANDARD
 71
2
 72
1
 10
1.5275
 20
-0.9065
 30
0.0
 11
1.0
 21
0.0
 31
0.0
 44
0.9
  1
Interface
 40
0.125
 41
1.8
  0
MTEXT
  5
260
100
AcDbEntity
  8
0
100
AcDbMText
 62
2
  6
CONTINUOUS
  7
STANDARD
 71
2
 72
1
 10
6.055
 20
-0.9065
 30
0.0
 11
1.0
 21
0.0
 31
0.0
 44
0.9
  1
Sun
 40
0.125
 41
0.6
  0
MTEXT
  5
261
100
AcDbEntity
  8
0
100
AcDbMText
 62
2
  6
CONTINUOUS
  7
STANDARD
 71
2
 72
1
 10
1.5275
 20
-1.1565
 30
0.0
 11
1.0
 21
0.0
 31
0.0
 44
0.9
  1
Weight
 40
0.125
 41
1.2
  0
MTEXT
  5
262
100
AcDbEntity
  8
0
100
AcDbMText
 62
2
  6
CONTINUOUS
  7
STANDARD
 71
2
 72
1
 10
4.555
 20
-1.1565
 30
0.0
 11
1.0
 21
0.0
 31
0.0
 44
0.9
  1
2.865 lb.
 40
0.125
 41
1.8
  0
MTEXT
  5
263
100
AcDbEntity
  8
0
100
AcDbMText
 62
2
  6
CONTINUOUS
  7
STANDARD
 71
2
 72
1
 10
7.555
 20
-1.1565
 30
0.0
 11
1.0
 21
0.0
 31
0.0
 44
0.9
  1
1,299 kg.
 40
0.125
 41
1.8
  0
MTEXT
  5
264
100
AcDbEntity
  8
0
100
AcDbMText
 62
2
  6
CONTINUOUS
  7
STANDARD
 71
2
 72
1
 10
1.5275
 20
-1.4065
 30
0.0
 11
1.0
 21
0.0
 31
0.0
 44
0.9
  1
Mounting Hole Diameter
 40
0.125
 41
4.4
  0
MTEXT
  5
265
100
AcDbEntity
  8
0
100
AcDbMText
 62
2
  6
CONTINUOUS
  7
STANDARD
 71
2
 72
1
 10
4.555
 20
-1.4065
 30
0.0
 11
1.0
 21
0.0
 31
0.0
 44
0.9
  1
.34 in.
 40
0.125
 41
1.4
  0
MTEXT
  5
266
100
AcDbEntity
  8
0
100
AcDbMText
 62
2
  6
CONTINUOUS
  7
STANDARD
 71
2
 72
1
 10
7.555
 20
-1.4065
 30
0.0
 11
1.0
 21
0.0
 31
0.0
 44
0.9
  1
8.6 mm
 40
0.125
 41
1.2
  0
MTEXT
  5
267
100
AcDbEntity
  8
0
100
AcDbMText
 62
2
  6
CONTINUOUS
  7
STANDARD
 71
2
 72
1
 10
1.5275
 20
-1.6565
 30
0.0
 11
1.0
 21
0.0
 31
0.0
 44
0.9
  1
Mounting Hole Quantity
 40
0.125
 41
4.4
  0
MTEXT
  5
268
100
AcDbEntity
  8
0
100
AcDbMText
 62
2
  6
CONTINUOUS
  7
STANDARD
 71
2
 72
1
 10
6.055
 20
-1.6565
 30
0.0
 11
1.0
 21
0.0
 31
0.0
 44
0.9
  1
2
 40
0.125
 41
0.2
  0
MTEXT
  5
269
100
AcDbEntity
  8
0
100
AcDbMText
 62
2
  6
CONTINUOUS
  7
STANDARD
 71
2
 72
1
 10
1.5275
 20
-1.9065
 30
0.0
 11
1.0
 21
0.0
 31
0.0
 44
0.9
  1
Mounting Hole C'bore Diameter
 40
0.125
 41
5.8
  0
MTEXT
  5
26A
100
AcDbEntity
  8
0
100
AcDbMText
 62
2
  6
CONTINUOUS
  7
STANDARD
 71
2
 72
1
 10
4.555
 20
-1.9065
 30
0.0
 11
1.0
 21
0.0
 31
0.0
 44
0.9
  1
.53 in.
 40
0.125
 41
1.4
  0
MTEXT
  5
26B
100
AcDbEntity
  8
0
100
AcDbMText
 62
2
  6
CONTINUOUS
  7
STANDARD
 71
2
 72
1
 10
7.555
 20
-1.9065
 30
0.0
 11
1.0
 21
0.0
 31
0.0
 44
0.9
  1
13,5 mm
 40
0.125
 41
1.4
  0
MTEXT
  5
26C
100
AcDbEntity
  8
0
100
AcDbMText
 62
2
  6
CONTINUOUS
  7
STANDARD
 71
2
 72
1
 10
1.5275
 20
-2.1565
 30
0.0
 11
1.0
 21
0.0
 31
0.0
 44
0.9
  1
Mounting Hole C'bore Depth
 40
0.125
 41
5.2
  0
MTEXT
  5
26D
100
AcDbEntity
  8
0
100
AcDbMText
 62
2
  6
CONTINUOUS
  7
STANDARD
 71
2
 72
1
 10
4.555
 20
-2.1565
 30
0.0
 11
1.0
 21
0.0
 31
0.0
 44
0.9
  1
.25 in.
 40
0.125
 41
1.4
  0
MTEXT
  5
26E
100
AcDbEntity
  8
0
100
AcDbMText
 62
2
  6
CONTINUOUS
  7
STANDARD
 71
2
 72
1
 10
7.555
 20
-2.1565
 30
0.0
 11
1.0
 21
0.0
 31
0.0
 44
0.9
  1
6,4 mm
 40
0.125
 41
1.2
  0
ENDBLK
  5
26F
100
AcDbEntity
  8
0
  6
BYBLOCK
 62
0
100
AcDbBlockEnd
  0
BLOCK
  5
270
100
AcDbEntity
  8
0
100
AcDbBlockBegin
  2
*T3
 70
1
 10
0.0
 20
0.0
  3
*T3
  1

  0
LINE
  5
271
100
AcDbEntity
  8
0
100
AcDbLine
 62
2
  6
CONTINUOUS
 10
0.0
 20
0.0
 11
4.6
 21
0.0
  0
LINE
  5
272
100
AcDbEntity
  8
0
100
AcDbLine
 62
2
  6
CONTINUOUS
 10
0.0
 20
0.0
 11
0.0
 21
-1.18775
  0
LINE
  5
273
100
AcDbEntity
  8
0
100
AcDbLine
 62
2
  6
CONTINUOUS
 10
0.0
 20
-0.34375
 11
4.6
 21
-0.34375
  0
LINE
  5
274
100
AcDbEntity
  8
0
100
AcDbLine
 62
2
  6
CONTINUOUS
 10
0.0
 20
-0.68775
 11
4.6
 21
-0.68775
  0
LINE
  5
275
100
AcDbEntity
  8
0
100
AcDbLine
 62
2
  6
CONTINUOUS
 10
0.0
 20
-0.93775
 11
4.6
 21
-0.93775
  0
LINE
  5
276
100
AcDbEntity
  8
0
100
AcDbLine
 62
2
  6
CONTINUOUS
 10
0.0
 20
-1.18775
 11
4.6
 21
-1.18775
  0
LINE
  5
277
100
AcDbEntity
  8
0
100
AcDbLine
 62
2
  6
CONTINUOUS
 10
1.3
 20
-0.34375
 11
1.3
 21
-1.18775
  0
LINE
  5
278
100
AcDbEntity
  8
0
100
AcDbLine
 62
2
  6
CONTINUOUS
 10
3.3
 20
-0.34375
 11
3.3
 21
-1.18775
  0
LINE
  5
279
100
AcDbEntity
  8
0
100
AcDbLine
 62
2
  6
CONTINUOUS
 10
4.6
 20
0.0
 11
4.6
 21
-1.18775
  0
MTEXT
  5
27A
100
AcDbEntity
  8
0
100
AcDbMText
 62
2
  6
CONTINUOUS
  7
STANDARD
 71
2
 72
1
 10
2.3
 20
-0.099375
 30
0.0
 11
1.0
 21
0.0
 31
0.0
 44
0.9
  1
Port Headings
 40
0.145
 41
3.016
  0
MTEXT
  5
27B
100
AcDbEntity
  8
0
100
AcDbMText
 62
2
  6
CONTINUOUS
  7
STANDARD
 71
2
 72
1
 10
0.65
 20
-0.44325
 30
0.0
 11
1.0
 21
0.0
 31
0.0
 44
0.9
  1
Product
 40
0.145
 41
1.624
  0
MTEXT
  5
27C
100
AcDbEntity
  8
0
100
AcDbMText
 62
2
  6
CONTINUOUS
  7
STANDARD
 71
2
 72
1
 10
2.3
 20
-0.44325
 30
0.0
 11
1.0
 21
0.0
 31
0.0
 44
0.9
  1
Port
 40
0.145
 41
0.928
  0
MTEXT
  5
27D
100
AcDbEntity
  8
0
100
AcDbMText
 62
2
  6
CONTINUOUS
  7
STANDARD
 71
2
 72
1
 10
3.95
 20
-0.44325
 30
0.0
 11
1.0
 21
0.0
 31
0.0
 44
0.9
  1
Size
 40
0.145
 41
0.928
  0
MTEXT
  5
27E
100
AcDbEntity
  8
0
100
AcDbMText
 62
2
  6
CONTINUOUS
  7
STANDARD
 71
2
 72
1
 10
0.65
 20
-0.75025
 30
0.0
 11
1.0
 21
0.0
 31
0.0
 44
0.9
  1
U2P
 40
0.125
 41
0.6
  0
MTEXT
  5
27F
100
AcDbEntity
  8
0
100
AcDbMText
 62
2
  6
CONTINUOUS
  7
STANDARD
 71
2
 72
1
 10
2.3
 20
-0.75025
 30
0.0
 11
1.0
 21
0.0
 31
0.0
 44
0.9
  1
Ports C2, V1, V2
 40
0.125
 41
3.2
  0
MTEXT
  5
280
100
AcDbEntity
  8
0
100
AcDbMText
 62
2
  6
CONTINUOUS
  7
STANDARD
 71
2
 72
1
 10
3.95
 20
-0.75025
 30
0.0
 11
1.0
 21
0.0
 31
0.0
 44
0.9
  1
1/2" NPTF
 40
0.125
 41
1.8
  0
MTEXT
  5
281
100
AcDbEntity
  8
0
100
AcDbMText
 62
2
  6
CONTINUOUS
  7
STANDARD
 71
2
 72
1
 10
0.65
 20
-1.00025
 30
0.0
 11
1.0
 21
0.0
 31
0.0
 44
0.9
  1
U2P
 40
0.125
 41
0.6
  0
MTEXT
  5
282
100
AcDbEntity
  8
0
100
AcDbMText
 62
2
  6
CONTINUOUS
  7
STANDARD
 71
2
 72
1
 10
2.3
 20
-1.00025
 30
0.0
 11
1.0
 21
0.0
 31
0.0
 44
0.9
  1
Vent Port
 40
0.125
 41
1.8
  0
MTEXT
  5
283
100
AcDbEntity
  8
0
100
AcDbMText
 62
2
  6
CONTINUOUS
  7
STANDARD
 71
2
 72
1
 10
3.95
 20
-1.00025
 30
0.0
 11
1.0
 21
0.0
 31
0.0
 44
0.9
  1
1/4" NPTF
 40
0.125
 41
1.8
  0
ENDBLK
  5
284
100
AcDbEntity
  8
0
  6
BYBLOCK
 62
0
100
AcDbBlockEnd
  0
ENDSEC
  0
SECTION
  2
ENTITIES
  0
IMAGE
  5
285
100
AcDbEntity
  8
0
100
AcDbRasterImage
 62
7
  6
CONTINUOUS
 10
19.2297077316
 20
0.3094318264
 30
0.0
 11
0.0066666667
 21
0.0
 31
0.0
 12
0.0
 22
0.0066666667
 32
0.0
 13
369.0
 23
92.0
340
       3D5
 70
9
280
0
281
50
282
50
283
0
360
       3CF
 71
1
 91
2
 14
-0.5
 24
-0.5
 14
368.5
 24
91.5
  0
INSERT
  5
286
100
AcDbEntity
  8
0
100
AcDbBlockReference
 62
2
  6
CONTINUOUS
  2
SUN_FIRST_THIRD_ANGLE_BL0
 10
20.4816717061
 20
1.2289683772
  0
ACAD_TABLE
  5
287
100
AcDbEntity
  8
0
 62
2
  6
CONTINUOUS
100
AcDbBlockReference
  2
*T1
 10
12.42375
 20
0.30125
 30
0.0
100
AcDbTable
342
       3D7
343
20A
 11
1.0
 21
0.0
 31
0.0
 90
6
 91
4
 92
6
 93
20
 94
0
 95
0
 96
0
 70
1
 41
0.0
141
0.525
141
0.1
141
0.525
141
0.1
142
4.1
142
1.1
142
0.7
142
0.5
142
0.4
142
2.475
171
1
172
0
173
0
174
0
175
1
176
1
 91
33
178
0
145
0.0
301
CELL_VALUE
 90
4
  1
Gasket mount Sun\PDirect mount, cross pilot
304
ACVALUE_END
170
2
140
0.125
171
1
172
0
173
0
174
0
175
1
176
1
 91
33
178
0
145
0.0
301
CELL_VALUE
 90
4
  1
May-10-22
304
ACVALUE_END
170
5
140
0.125
171
1
172
0
173
0
174
0
175
1
176
1
 91
33
178
0
145
0.0
301
CELL_VALUE
 90
4
  1
1.000
304
ACVALUE_END
170
5
140
0.125
171
1
172
0
173
0
174
0
175
1
176
1
 91
33
178
0
145
0.0
301
CELL_VALUE
 90
4
  1
C
304
ACVALUE_END
170
5
140
0.125
171
1
172
0
173
0
174
0
175
1
176
1
 91
33
178
0
145
0.0
301
CELL_VALUE
 90
4
  1
2
304
ACVALUE_END
170
5
140
0.125
171
1
172
0
173
0
174
0
175
1
176
1
 91
33
178
0
145
0.0
301
CELL_VALUE
 90
4
  1
 
304
ACVALUE_END
170
1
140
0.125
171
1
172
0
173
0
174
0
175
1
176
1
 91
33
178
0
145
0.0
301
CELL_VALUE
 90
4
  1
DESCRIPTION
304
ACVALUE_END
170
1
140
0.06
171
1
172
0
173
0
174
0
175
1
176
1
 91
33
178
0
145
0.0
301
CELL_VALUE
 90
4
  1
DATE
304
ACVALUE_END
170
1
140
0.06
171
1
172
0
173
0
174
0
175
1
176
1
 91
33
178
0
145
0.0
301
CELL_VALUE
 90
4
  1
SCALE
304
ACVALUE_END
170
1
140
0.06
171
1
172
0
173
0
174
0
175
1
176
1
 91
33
178
0
145
0.0
301
CELL_VALUE
 90
4
  1
DWG SIZE
304
ACVALUE_END
170
1
140
0.06
171
1
172
0
173
0
174
0
175
1
176
1
 91
33
178
0
145
0.0
301
CELL_VALUE
 90
4
  1
SHEET
304
ACVALUE_END
170
1
140
0.06
171
1
172
0
173
0
174
0
175
1
176
1
 91
33
178
0
145
0.0
301
CELL_VALUE
 90
4
  1
 
304
ACVALUE_END
170
1
140
0.125
171
1
172
0
173
0
174
0
175
1
176
1
 91
33
178
0
145
0.0
301
CELL_VALUE
 90
4
  1
U2P
304
ACVALUE_END
170
5
140
0.125
171
1
172
0
173
0
174
0
175
4
176
1
 91
33
178
0
145
0.0
301
CELL_VALUE
 90
4
  1
ALL DIMENSIONS IN INCH\PVIEWS ARE THIRD ANGLE
304
ACVALUE_END
170
5
140
0.12
171
1
172
0
173
1
174
0
175
1
176
1
 91
1
178
0
145
0.0
170
1
171
1
172
0
173
1
174
0
175
1
176
1
 91
1
178
0
145
0.0
170
1
171
1
172
0
173
1
174
0
175
1
176
1
 91
1
178
0
145
0.0
170
5
171
1
172
0
173
0
174
0
175
1
176
1
 91
33
178
0
145
0.0
301
CELL_VALUE
 90
4
  1
 
304
ACVALUE_END
170
1
140
0.125
171
1
172
0
173
0
174
0
175
1
176
1
 91
33
178
0
145
0.0
301
CELL_VALUE
 90
4
  1
MODEL
304
ACVALUE_END
170
1
140
0.06
171
1
172
0
173
0
174
0
175
1
176
1
 91
33
178
0
145
0.0
301
CELL_VALUE
 90
4
  1
 
304
ACVALUE_END
170
1
140
0.125
171
1
172
0
173
0
174
0
175
1
176
1
 91
33
178
0
145
0.0
301
CELL_VALUE
 90
4
  1
 
304
ACVALUE_END
170
1
140
0.125
171
1
172
0
173
0
174
0
175
1
176
1
 91
33
178
0
145
0.0
301
CELL_VALUE
 90
4
  1
 
304
ACVALUE_END
170
1
140
0.125
171
1
172
0
173
0
174
0
175
1
176
1
 91
33
178
0
145
0.0
301
CELL_VALUE
 90
4
  1
 
304
ACVALUE_END
170
1
140
0.125
171
1
172
0
173
0
174
0
175
1
176
1
 91
33
178
0
145
0.0
301
CELL_VALUE
 90
4
  1
 
304
ACVALUE_END
170
1
140
0.125
  0
ACAD_TABLE
  5
288
100
AcDbEntity
  8
0
 62
2
  6
CONTINUOUS
100
AcDbBlockReference
  2
*T2
 10
12.4237499994
 20
16.47875
 30
0.0
100
AcDbTable
342
       3D6
343
20B
 11
1.0
 21
0.0
 31
0.0
 90
22
 91
9
 92
3
 93
16
 94
0
 95
0
 96
0
 41
0.028
141
0.344
141
0.25
141
0.25
141
0.25
141
0.25
141
0.25
141
0.25
141
0.25
141
0.25
142
3.055
142
3.0
142
3.0
171
1
172
0
173
0
174
0
175
1
176
1
 91
33
178
0
145
0.0
301
CELL_VALUE
 90
4
  1
Technical Data
304
ACVALUE_END
170
5
140
0.145
171
1
172
0
173
0
174
0
175
1
176
1
 91
33
178
0
145
0.0
301
CELL_VALUE
 90
4
  1
U.S. Units
304
ACVALUE_END
170
5
140
0.145
171
1
172
0
173
0
174
0
175
1
176
1
 91
33
178
0
145
0.0
301
CELL_VALUE
 90
4
  1
Metric Units
304
ACVALUE_END
170
5
140
0.145
171
1
172
0
173
0
174
0
175
1
176
1
 91
33
178
0
145
0.0
301
CELL_VALUE
 90
4
  1
Body Features
304
ACVALUE_END
170
5
140
0.125
171
1
172
0
173
0
174
0
175
2
176
1
 91
33
178
0
145
0.0
301
CELL_VALUE
 90
4
  1
Direct mount, cross pilot
304
ACVALUE_END
170
5
140
0.125
171
1
172
0
173
1
174
0
175
1
176
1
 91
1
178
0
145
0.0
170
1
171
1
172
0
173
0
174
0
175
1
176
1
 91
33
178
0
145
0.0
301
CELL_VALUE
 90
4
  1
Body Type
304
ACVALUE_END
170
5
140
0.125
171
1
172
0
173
0
174
0
175
2
176
1
 91
33
178
0
145
0.0
301
CELL_VALUE
 90
4
  1
Gasket mount
304
ACVALUE_END
170
5
140
0.125
171
1
172
0
173
1
174
0
175
1
176
1
 91
1
178
0
145
0.0
170
1
171
1
172
0
173
0
174
0
175
1
176
1
 91
33
178
0
145
0.0
301
CELL_VALUE
 90
4
  1
Interface
304
ACVALUE_END
170
5
140
0.125
171
1
172
0
173
0
174
0
175
2
176
1
 91
33
178
0
145
0.0
301
CELL_VALUE
 90
4
  1
Sun
304
ACVALUE_END
170
5
140
0.125
171
1
172
0
173
1
174
0
175
1
176
1
 91
1
178
0
145
0.0
170
1
171
1
172
0
173
0
174
0
175
1
176
1
 91
33
178
0
145
0.0
301
CELL_VALUE
 90
4
  1
Weight
304
ACVALUE_END
170
5
140
0.125
171
1
172
0
173
0
174
0
175
1
176
1
 91
33
178
0
145
0.0
301
CELL_VALUE
 90
4
  1
2.865 lb.
304
ACVALUE_END
170
5
140
0.125
171
1
172
0
173
0
174
0
175
1
176
1
 91
33
178
0
145
0.0
301
CELL_VALUE
 90
4
  1
1,299 kg.
304
ACVALUE_END
170
5
140
0.125
171
1
172
0
173
0
174
0
175
1
176
1
 91
33
178
0
145
0.0
301
CELL_VALUE
 90
4
  1
Mounting Hole Diameter
304
ACVALUE_END
170
5
140
0.125
171
1
172
0
173
0
174
0
175
1
176
1
 91
33
178
0
145
0.0
301
CELL_VALUE
 90
4
  1
.34 in.
304
ACVALUE_END
170
5
140
0.125
171
1
172
0
173
0
174
0
175
1
176
1
 91
33
178
0
145
0.0
301
CELL_VALUE
 90
4
  1
8.6 mm
304
ACVALUE_END
170
5
140
0.125
171
1
172
0
173
0
174
0
175
1
176
1
 91
33
178
0
145
0.0
301
CELL_VALUE
 90
4
  1
Mounting Hole Quantity
304
ACVALUE_END
170
5
140
0.125
171
1
172
0
173
0
174
0
175
2
176
1
 91
33
178
0
145
0.0
301
CELL_VALUE
 90
4
  1
2
304
ACVALUE_END
170
5
140
0.125
171
1
172
0
173
1
174
0
175
1
176
1
 91
1
178
0
145
0.0
170
1
171
1
172
0
173
0
174
0
175
1
176
1
 91
33
178
0
145
0.0
301
CELL_VALUE
 90
4
  1
Mounting Hole C'bore Diameter
304
ACVALUE_END
170
5
140
0.125
171
1
172
0
173
0
174
0
175
1
176
1
 91
33
178
0
145
0.0
301
CELL_VALUE
 90
4
  1
.53 in.
304
ACVALUE_END
170
5
140
0.125
171
1
172
0
173
0
174
0
175
1
176
1
 91
33
178
0
145
0.0
301
CELL_VALUE
 90
4
  1
13,5 mm
304
ACVALUE_END
170
5
140
0.125
171
1
172
0
173
0
174
0
175
1
176
1
 91
33
178
0
145
0.0
301
CELL_VALUE
 90
4
  1
Mounting Hole C'bore Depth
304
ACVALUE_END
170
5
140
0.125
171
1
172
0
173
0
174
0
175
1
176
1
 91
33
178
0
145
0.0
301
CELL_VALUE
 90
4
  1
.25 in.
304
ACVALUE_END
170
5
140
0.125
171
1
172
0
173
0
174
0
175
1
176
1
 91
33
178
0
145
0.0
301
CELL_VALUE
 90
4
  1
6,4 mm
304
ACVALUE_END
170
5
140
0.125
  0
ACAD_TABLE
  5
289
100
AcDbEntity
  8
0
 62
2
  6
CONTINUOUS
100
AcDbBlockReference
  2
*T3
 10
0.52125
 20
1.709
 30
0.0
100
AcDbTable
342
       3D6
343
20C
 11
1.0
 21
0.0
 31
0.0
 90
22
 91
4
 92
3
 93
16
 94
0
 95
0
 96
0
 41
0.05
141
0.34375
141
0.344
141
0.25
141
0.25
142
1.3
142
2.0
142
1.3
171
1
172
0
173
0
174
0
175
3
176
1
 91
33
178
0
145
0.0
301
CELL_VALUE
 90
4
  1
Port Headings
304
ACVALUE_END
170
5
140
0.145
171
1
172
0
173
1
174
0
175
1
176
1
 91
1
178
0
145
0.0
170
1
171
1
172
0
173
1
174
0
175
1
176
1
 91
1
178
0
145
0.0
170
1
171
1
172
0
173
0
174
0
175
1
176
1
 91
33
178
0
145
0.0
301
CELL_VALUE
 90
4
  1
Product
304
ACVALUE_END
170
5
140
0.145
171
1
172
0
173
0
174
0
175
1
176
1
 91
33
178
0
145
0.0
301
CELL_VALUE
 90
4
  1
Port
304
ACVALUE_END
170
5
140
0.145
171
1
172
0
173
0
174
0
175
1
176
1
 91
33
178
0
145
0.0
301
CELL_VALUE
 90
4
  1
Size
304
ACVALUE_END
170
5
140
0.145
171
1
172
0
173
0
174
0
175
1
176
1
 91
33
178
0
145
0.0
301
CELL_VALUE
 90
4
  1
U2P
304
ACVALUE_END
170
5
140
0.125
171
1
172
0
173
0
174
0
175
1
176
1
 91
33
178
0
145
0.0
301
CELL_VALUE
 90
4
  1
Ports C2, V1, V2
304
ACVALUE_END
170
5
140
0.125
171
1
172
0
173
0
174
0
175
1
176
1
 91
33
178
0
145
0.0
301
CELL_VALUE
 90
4
  1
1/2" NPTF
304
ACVALUE_END
170
5
140
0.125
171
1
172
0
173
0
174
0
175
1
176
1
 91
33
178
0
145
0.0
301
CELL_VALUE
 90
4
  1
U2P
304
ACVALUE_END
170
5
140
0.125
171
1
172
0
173
0
174
0
175
1
176
1
 91
33
178
0
145
0.0
301
CELL_VALUE
 90
4
  1
Vent Port
304
ACVALUE_END
170
5
140
0.125
171
1
172
0
173
0
174
0
175
1
176
1
 91
33
178
0
145
0.0
301
CELL_VALUE
 90
4
  1
1/4" NPTF
304
ACVALUE_END
170
5
140
0.125
  0
MTEXT
  5
28A
100
AcDbEntity
  8
0
100
AcDbMText
 62
2
  6
CONTINUOUS
  7
STANDARD
 71
1
 72
1
 10
0.52125
 20
5.75995
 30
0.0
 11
1.0
 21
0.0
 31
0.0
 44
0.6
  3
Notes\P \P1. Important: Carefully consider\P   the maximum system pressure. The\P   pressure rating of the manifold is\P   dependent on the manifold material,\P   with the port type/size a secondary\P   consideration. Manifolds\P   constructed of alu
  1
minum are not\P   rated for pressures higher than\P   3000 psi (210 bar), regardless of\P   the port type/size specified.
 40
0.1
 41
3.04
  0
LINE
  5
28B
100
AcDbEntity
  8
0
100
AcDbLine
 62
7
  6
CONTINUOUS
 10
0.30125
 20
0.30125
 11
0.30125
 21
16.69875
  0
LINE
  5
28C
100
AcDbEntity
  8
0
100
AcDbLine
 62
7
  6
CONTINUOUS
 10
0.30125
 20
0.30125
 11
21.69875
 21
0.30125
  0
LINE
  5
28D
100
AcDbEntity
  8
0
100
AcDbLine
 62
7
  6
CONTINUOUS
 10
0.30125
 20
16.69875
 11
21.69875
 21
16.69875
  0
LINE
  5
28E
100
AcDbEntity
  8
0
100
AcDbLine
 62
7
  6
CONTINUOUS
 10
21.69875
 20
0.30125
 11
21.69875
 21
16.69875
  0
LINE
  5
28F
100
AcDbEntity
  8
0
100
AcDbLine
 62
7
  6
CONTINUOUS
 10
11.5465927327
 20
6.3600792611
 11
9.1916654637
 21
6.5233940219
  0
LINE
  5
290
100
AcDbEntity
  8
0
100
AcDbLine
 62
7
  6
CONTINUOUS
 10
9.1916654637
 20
9.4211716725
 11
10.4534072673
 21
10.6399207389
  0
LINE
  5
291
100
AcDbEntity
  8
0
100
AcDbLine
 62
7
  6
CONTINUOUS
 10
9.1916654637
 20
6.5233940219
 11
9.1916654637
 21
9.4211716725
  0
LINE
  5
292
100
AcDbEntity
  8
0
100
AcDbLine
 62
4
  6
CONTINUOUS
 10
10.4473691539
 20
6.8130216822
 11
10.4280506412
 21
6.8143614256
  0
LINE
  5
293
100
AcDbEntity
  8
0
100
AcDbLine
 62
4
  6
CONTINUOUS
 10
10.3797543458
 20
6.8684218928
 11
10.35077657
 21
6.8776759524
  0
LINE
  5
294
100
AcDbEntity
  8
0
100
AcDbLine
 62
4
  6
CONTINUOUS
 10
10.35077657
 20
6.9646092799
 11
10.4666876734
 21
6.9203485978
  0
LINE
  5
295
100
AcDbEntity
  8
0
100
AcDbLine
 62
4
  6
CONTINUOUS
 10
10.4280506412
 20
6.8143614256
 11
10.418391378
 21
6.8222757418
  0
LINE
  5
296
100
AcDbEntity
  8
0
100
AcDbLine
 62
4
  6
CONTINUOUS
 10
10.3990728619
 20
6.8525932613
 11
10.3797543458
 21
6.8684218928
  0
LINE
  5
297
100
AcDbEntity
  8
0
100
AcDbLine
 62
4
  6
CONTINUOUS
 10
10.4473691539
 20
6.8709772339
 11
10.4570284171
 21
6.8630629178
  0
LINE
  5
298
100
AcDbEntity
  8
0
100
AcDbLine
 62
4
  6
CONTINUOUS
 10
10.4666876734
 20
6.9927930374
 11
10.35077657
 21
6.9646092799
  0
LINE
  5
299
100
AcDbEntity
  8
0
100
AcDbLine
 62
4
  6
CONTINUOUS
 10
10.418391378
 20
6.8222757418
 11
10.3990728619
 21
6.8525932613
  0
LINE
  5
29A
100
AcDbEntity
  8
0
100
AcDbLine
 62
4
  6
CONTINUOUS
 10
10.4570284171
 20
6.8630629178
 11
10.4666876734
 21
6.8479041582
  0
LINE
  5
29B
100
AcDbEntity
  8
0
100
AcDbLine
 62
4
  6
CONTINUOUS
 10
10.35077657
 20
6.8776759524
 11
10.35077657
 21
6.8197204007
  0
LINE
  5
29C
100
AcDbEntity
  8
0
100
AcDbLine
 62
4
  6
CONTINUOUS
 10
10.4666876734
 20
6.8479041582
 11
10.4666876734
 21
6.8334152702
  0
LINE
  5
29D
100
AcDbEntity
  8
0
100
AcDbLine
 62
4
  6
CONTINUOUS
 10
11.4132950577
 20
8.2166567561
 11
11.2973839543
 21
8.1884729986
  0
LINE
  5
29E
100
AcDbEntity
  8
0
100
AcDbLine
 62
4
  6
CONTINUOUS
 10
11.3939765381
 20
7.9571965173
 11
11.3746580255
 21
7.9585362607
  0
LINE
  5
29F
100
AcDbEntity
  8
0
100
AcDbLine
 62
4
  6
CONTINUOUS
 10
11.3263617301
 20
8.0125967279
 11
11.2973839543
 21
8.0218507875
  0
LINE
  5
2A0
100
AcDbEntity
  8
0
100
AcDbLine
 62
7
  6
CONTINUOUS
 10
11.5465927327
 20
9.2578569117
 11
12.8083345363
 21
10.4766059781
  0
LINE
  5
2A1
100
AcDbEntity
  8
0
100
AcDbLine
 62
7
  6
CONTINUOUS
 10
11.7269033038
 20
8.2565386731
 11
11.6871219368
 21
8.2592975202
  0
LINE
  5
2A2
100
AcDbEntity
  8
0
100
AcDbLine
 62
4
  6
CONTINUOUS
 10
12.5973971883
 20
7.7228118219
 11
12.5951787404
 21
7.7234287433
  0
LINE
  5
2A3
100
AcDbEntity
  8
0
100
AcDbLine
 62
4
  6
CONTINUOUS
 10
11.3746580255
 20
7.9585362607
 11
11.3649987623
 21
7.9664505768
  0
LINE
  5
2A4
100
AcDbEntity
  8
0
100
AcDbLine
 62
4
  6
CONTINUOUS
 10
11.3456802462
 20
7.9967680963
 11
11.3263617301
 21
8.0125967279
  0
LINE
  5
2A5
100
AcDbEntity
  8
0
100
AcDbLine
 62
4
  6
CONTINUOUS
 10
11.4132950577
 20
8.3325678596
 11
11.2973839543
 21
8.3406063219
  0
LINE
  5
2A6
100
AcDbEntity
  8
0
100
AcDbLine
 62
4
  6
CONTINUOUS
 10
11.3939765381
 20
8.420840931
 11
11.3746580255
 21
8.4221806744
  0
LINE
  5
2A7
100
AcDbEntity
  8
0
100
AcDbLine
 62
7
  6
CONTINUOUS
 10
11.7749542688
 20
8.4591272509
 11
11.7369971122
 21
8.4617595886
  0
LINE
  5
2A8
100
AcDbEntity
  8
0
100
AcDbLine
 62
4
  6
CONTINUOUS
 10
12.4079418079
 20
8.2269991926
 11
12.4390000669
 21
8.2238817128
  0
LINE
  5
2A9
100
AcDbEntity
  8
0
100
AcDbLine
 62
4
  6
CONTINUOUS
 10
12.5589441056
 20
8.1410340195
 11
12.5885234005
 21
8.1364879837
  0
LINE
  5
2AA
100
AcDbEntity
  8
0
100
AcDbLine
 62
4
  6
CONTINUOUS
 10
11.2973839543
 20
8.2609174383
 11
11.4132950577
 21
8.2166567561
  0
LINE
  5
2AB
100
AcDbEntity
  8
0
100
AcDbLine
 62
4
  6
CONTINUOUS
 10
11.3939765381
 20
8.015152069
 11
11.4036358014
 21
8.0072377529
  0
LINE
  5
2AC
100
AcDbEntity
  8
0
100
AcDbLine
 62
4
  6
CONTINUOUS
 10
11.3649987623
 20
7.9664505768
 11
11.3456802462
 21
7.9967680963
  0
LINE
  5
2AD
100
AcDbEntity
  8
0
100
AcDbLine
 62
7
  6
CONTINUOUS
 10
12.2949449003
 20
9.4467750089
 11
12.2944825643
 21
9.4463386144
  0
LINE
  5
2AE
100
AcDbEntity
  8
0
100
AcDbLine
 62
7
  6
CONTINUOUS
 10
11.7890006063
 20
8.5634920049
 11
11.7375424445
 21
8.5670606405
  0
LINE
  5
2AF
100
AcDbEntity
  8
0
100
AcDbLine
 62
4
  6
CONTINUOUS
 10
11.4132950577
 20
8.6803011699
 11
11.2973839543
 21
8.6883396322
  0
LINE
  5
2B0
100
AcDbEntity
  8
0
100
AcDbLine
 62
4
  6
CONTINUOUS
 10
11.3263617301
 20
8.4762411416
 11
11.2973839543
 21
8.4854952012
  0
LINE
  5
2B1
100
AcDbEntity
  8
0
100
AcDbLine
 62
4
  6
CONTINUOUS
 10
11.3746580255
 20
8.4221806744
 11
11.3649987623
 21
8.4300949906
  0
LINE
  5
2B2
100
AcDbEntity
  8
0
100
AcDbLine
 62
4
  6
CONTINUOUS
 10
11.3456802462
 20
8.4604125101
 11
11.3263617301
 21
8.4762411416
  0
LINE
  5
2B3
100
AcDbEntity
  8
0
100
AcDbLine
 62
4
  6
CONTINUOUS
 10
11.4036358014
 20
8.0072377529
 11
11.4132950577
 21
7.9920789932
  0
LINE
  5
2B4
100
AcDbEntity
  8
0
100
AcDbLine
 62
4
  6
CONTINUOUS
 10
11.2973839543
 20
8.4854952012
 11
11.2973839543
 21
8.4275396495
  0
LINE
  5
2B5
100
AcDbEntity
  8
0
100
AcDbLine
 62
4
  6
CONTINUOUS
 10
11.2973839543
 20
8.0218507875
 11
11.2973839543
 21
7.9638952357
  0
LINE
  5
2B6
100
AcDbEntity
  8
0
100
AcDbLine
 62
4
  6
CONTINUOUS
 10
11.3360209899
 20
8.2437490628
 11
11.3360209899
 21
8.2002823991
  0
LINE
  5
2B7
100
AcDbEntity
  8
0
100
AcDbLine
 62
4
  6
CONTINUOUS
 10
11.355339506
 20
8.5901426295
 11
11.355339506
 21
8.5466759657
  0
LINE
  5
2B8
100
AcDbEntity
  8
0
100
AcDbLine
 62
4
  6
CONTINUOUS
 10
11.355339506
 20
8.1264982158
 11
11.355339506
 21
8.083031552
  0
LINE
  5
2B9
100
AcDbEntity
  8
0
100
AcDbLine
 62
4
  6
CONTINUOUS
 10
11.4132950577
 20
8.441234519
 11
11.4036358014
 21
8.4274155028
  0
LINE
  5
2BA
100
AcDbEntity
  8
0
100
AcDbLine
 62
4
  6
CONTINUOUS
 10
11.4036358014
 20
8.4274155028
 11
11.3939765381
 21
8.420840931
  0
LINE
  5
2BB
100
AcDbEntity
  8
0
100
AcDbLine
 62
7
  6
CONTINUOUS
 10
11.7658539331
 20
8.8181896755
 11
11.7260809693
 21
8.8209479399
  0
LINE
  5
2BC
100
AcDbEntity
  8
0
100
AcDbLine
 62
4
  6
CONTINUOUS
 10
11.3939765381
 20
8.4787964827
 11
11.4036358014
 21
8.4708821666
  0
LINE
  5
2BD
100
AcDbEntity
  8
0
100
AcDbLine
 62
4
  6
CONTINUOUS
 10
11.3649987623
 20
8.4300949906
 11
11.3456802462
 21
8.4604125101
  0
LINE
  5
2BE
100
AcDbEntity
  8
0
100
AcDbLine
 62
4
  6
CONTINUOUS
 10
11.4036358014
 20
8.4708821666
 11
11.4132950577
 21
8.455723407
  0
LINE
  5
2BF
100
AcDbEntity
  8
0
100
AcDbLine
 62
4
  6
CONTINUOUS
 10
11.4132950577
 20
8.7165233897
 11
11.4132950577
 21
8.64407895
  0
LINE
  5
2C0
100
AcDbEntity
  8
0
100
AcDbLine
 62
4
  6
CONTINUOUS
 10
11.4132950577
 20
8.455723407
 11
11.4132950577
 21
8.441234519
  0
LINE
  5
2C1
100
AcDbEntity
  8
0
100
AcDbLine
 62
4
  6
CONTINUOUS
 10
11.4132950577
 20
7.9920789932
 11
11.4132950577
 21
7.9775901053
  0
LINE
  5
2C2
100
AcDbEntity
  8
0
100
AcDbLine
 62
7
  6
CONTINUOUS
 10
11.5465927327
 20
9.2578569117
 11
11.5465927327
 21
6.3600792611
  0
LINE
  5
2C3
100
AcDbEntity
  8
0
100
AcDbLine
 62
4
  6
CONTINUOUS
 10
10.4666876734
 20
6.8334152702
 11
10.4570284171
 21
6.819596254
  0
LINE
  5
2C4
100
AcDbEntity
  8
0
100
AcDbLine
 62
7
  6
CONTINUOUS
 10
11.7621034368
 20
8.6423161179
 11
11.7618334326
 21
8.6420612635
  0
LINE
  5
2C5
100
AcDbEntity
  8
0
100
AcDbLine
 62
7
  6
CONTINUOUS
 10
12.2487597212
 20
8.8298475948
 11
12.1858376192
 21
8.8342112574
  0
LINE
  5
2C6
100
AcDbEntity
  8
0
100
AcDbLine
 62
4
  6
CONTINUOUS
 10
10.5149839215
 20
9.0347918351
 11
10.3990728181
 21
9.0428302975
  0
LINE
  5
2C7
100
AcDbEntity
  8
0
100
AcDbLine
 62
4
  6
CONTINUOUS
 10
10.3990728181
 20
9.1587414009
 11
10.5149839215
 21
9.1144807187
  0
LINE
  5
2C8
100
AcDbEntity
  8
0
100
AcDbLine
 62
4
  6
CONTINUOUS
 10
11.4132950577
 20
7.9775901053
 11
11.4036358014
 21
7.9637710891
  0
LINE
  5
2C9
100
AcDbEntity
  8
0
100
AcDbLine
 62
7
  6
CONTINUOUS
 10
12.2944825643
 20
8.8580897514
 11
12.2934458374
 21
8.8571094596
  0
LINE
  5
2CA
100
AcDbEntity
  8
0
100
AcDbLine
 62
7
  6
CONTINUOUS
 10
11.7618334326
 20
8.2798390572
 11
11.7611804053
 21
8.279221578
  0
LINE
  5
2CB
100
AcDbEntity
  8
0
100
AcDbLine
 62
7
  6
CONTINUOUS
 10
12.293452752
 20
8.8571131696
 11
12.2779588466
 21
8.8426930798
  0
LINE
  5
2CC
100
AcDbEntity
  8
0
100
AcDbLine
 62
7
  6
CONTINUOUS
 10
11.7611847609
 20
8.2792239149
 11
11.7456908554
 21
8.2648038251
  0
LINE
  5
2CD
100
AcDbEntity
  8
0
100
AcDbLine
 62
4
  6
CONTINUOUS
 10
11.4036358014
 20
7.9637710891
 11
11.3939765381
 21
7.9571965173
  0
LINE
  5
2CE
100
AcDbEntity
  8
0
100
AcDbLine
 62
7
  6
CONTINUOUS
 10
11.1918871984
 20
7.8203213104
 11
11.1893411738
 21
7.8187654014
  0
LINE
  5
2CF
100
AcDbEntity
  8
0
100
AcDbLine
 62
7
  6
CONTINUOUS
 10
12.3113101978
 20
9.137103723
 11
12.2514355162
 21
9.1412560463
  0
LINE
  5
2D0
100
AcDbEntity
  8
0
100
AcDbLine
 62
4
  6
CONTINUOUS
 10
10.5149839215
 20
9.1869251584
 11
10.3990728181
 21
9.1587414009
  0
LINE
  5
2D1
100
AcDbEntity
  8
0
100
AcDbLine
 62
7
  6
CONTINUOUS
 10
9.1916654637
 20
9.4211716725
 11
11.5465927327
 21
9.2578569117
  0
LINE
  5
2D2
100
AcDbEntity
  8
0
100
AcDbLine
 62
7
  6
CONTINUOUS
 10
12.3346958554
 20
9.3108599358
 11
12.2526716675
 21
9.3165483325
  0
LINE
  5
2D3
100
AcDbEntity
  8
0
100
AcDbLine
 62
7
  6
CONTINUOUS
 10
11.7966758248
 20
8.790989501
 11
11.7833207405
 21
8.8074102751
  0
LINE
  5
2D4
100
AcDbEntity
  8
0
100
AcDbLine
 62
4
  6
CONTINUOUS
 10
12.5885234005
 20
8.6332498398
 11
12.5929602944
 21
8.6375355505
  0
LINE
  5
2D5
100
AcDbEntity
  8
0
100
AcDbLine
 62
4
  6
CONTINUOUS
 10
12.5707758235
 20
8.5581514441
 11
12.5752127179
 21
8.5624371552
  0
LINE
  5
2D6
100
AcDbEntity
  8
0
100
AcDbLine
 62
4
  6
CONTINUOUS
 10
12.5973971883
 20
8.5507482532
 11
12.5707758235
 21
8.525033988
  0
LINE
  5
2D7
100
AcDbEntity
  8
0
100
AcDbLine
 62
4
  6
CONTINUOUS
 10
12.4079418079
 20
8.331871137
 11
12.4390000669
 21
8.3618711134
  0
LINE
  5
2D8
100
AcDbEntity
  8
0
100
AcDbLine
 62
4
  6
CONTINUOUS
 10
12.5707758235
 20
8.4670784363
 11
12.5973971883
 21
8.4927927015
  0
LINE
  5
2D9
100
AcDbEntity
  8
0
100
AcDbLine
 62
4
  6
CONTINUOUS
 10
12.5663389292
 20
8.429675269
 11
12.5973971883
 21
8.4596752454
  0
LINE
  5
2DA
100
AcDbEntity
  8
0
100
AcDbLine
 62
4
  6
CONTINUOUS
 10
12.434563173
 20
8.2996298579
 11
12.4123787022
 21
8.2782013033
  0
LINE
  5
2DB
100
AcDbEntity
  8
0
100
AcDbLine
 62
4
  6
CONTINUOUS
 10
10.4570284171
 20
6.819596254
 11
10.4473691539
 21
6.8130216822
  0
LINE
  5
2DC
100
AcDbEntity
  8
0
100
AcDbLine
 62
4
  6
CONTINUOUS
 10
12.5073282369
 20
8.0249420011
 11
12.5006728952
 21
8.0350721623
  0
LINE
  5
2DD
100
AcDbEntity
  8
0
100
AcDbLine
 62
4
  6
CONTINUOUS
 10
12.4762699778
 20
8.0115007529
 11
12.4984544491
 21
7.9749737562
  0
LINE
  5
2DE
100
AcDbEntity
  8
0
100
AcDbLine
 62
4
  6
CONTINUOUS
 10
12.4123787022
 20
7.613092375
 11
12.4079418079
 21
7.6253653851
  0
LINE
  5
2DF
100
AcDbEntity
  8
0
100
AcDbLine
 62
4
  6
CONTINUOUS
 10
12.4123787022
 20
7.7041653691
 11
12.4079418079
 21
7.7164383792
  0
LINE
  5
2E0
100
AcDbEntity
  8
0
100
AcDbLine
 62
4
  6
CONTINUOUS
 10
12.434563173
 20
7.7835494754
 11
12.4390000669
 21
7.7712764649
  0
LINE
  5
2E1
100
AcDbEntity
  8
0
100
AcDbLine
 62
4
  6
CONTINUOUS
 10
12.434563173
 20
7.8801420248
 11
12.4390000669
 21
7.8678690142
  0
LINE
  5
2E2
100
AcDbEntity
  8
0
100
AcDbLine
 62
4
  6
CONTINUOUS
 10
12.5663389292
 20
7.5355039115
 11
12.5685573764
 21
7.5293674341
  0
LINE
  5
2E3
100
AcDbEntity
  8
0
100
AcDbLine
 62
4
  6
CONTINUOUS
 10
12.5663389292
 20
8.3717197173
 11
12.5973971883
 21
8.4017196937
  0
LINE
  5
2E4
100
AcDbEntity
  8
0
100
AcDbLine
 62
4
  6
CONTINUOUS
 10
12.4079418079
 20
8.0945293541
 11
12.4390000669
 21
8.1245293305
  0
LINE
  5
2E5
100
AcDbEntity
  8
0
100
AcDbLine
 62
4
  6
CONTINUOUS
 10
12.5663389292
 20
8.2475292533
 11
12.5973971883
 21
8.2775292296
  0
LINE
  5
2E6
100
AcDbEntity
  8
0
100
AcDbLine
 62
4
  6
CONTINUOUS
 10
12.5863049526
 20
8.217138761
 11
12.5663389292
 21
8.1978530622
  0
LINE
  5
2E7
100
AcDbEntity
  8
0
100
AcDbLine
 62
4
  6
CONTINUOUS
 10
12.5073282369
 20
8.1325737371
 11
12.4807068722
 21
8.1068594718
  0
LINE
  5
2E8
100
AcDbEntity
  8
0
100
AcDbLine
 62
4
  6
CONTINUOUS
 10
12.4079418079
 20
8.0282944418
 11
12.4390000669
 21
8.0582944182
  0
LINE
  5
2E9
100
AcDbEntity
  8
0
100
AcDbLine
 62
7
  6
CONTINUOUS
 10
12.3092957791
 20
9.7027510177
 11
12.246331858
 21
9.7071175805
  0
LINE
  5
2EA
100
AcDbEntity
  8
0
100
AcDbLine
 62
4
  6
CONTINUOUS
 10
12.5863049526
 20
7.5961863856
 11
12.5885234005
 21
7.5900499089
  0
LINE
  5
2EB
100
AcDbEntity
  8
0
100
AcDbLine
 62
4
  6
CONTINUOUS
 10
12.4940175553
 20
7.8796150377
 11
12.4895806604
 21
7.8918880473
  0
LINE
  5
2EC
100
AcDbEntity
  8
0
100
AcDbLine
 62
4
  6
CONTINUOUS
 10
12.5863049526
 20
7.6707007138
 11
12.5885234005
 21
7.6645642371
  0
LINE
  5
2ED
100
AcDbEntity
  8
0
100
AcDbLine
 62
4
  6
CONTINUOUS
 10
12.4762699778
 20
8.0611769371
 11
12.4807068722
 21
8.0489039201
  0
LINE
  5
2EE
100
AcDbEntity
  8
0
100
AcDbLine
 62
4
  6
CONTINUOUS
 10
12.4123787022
 20
8.2782013033
 11
12.4079418079
 21
8.2904743203
  0
LINE
  5
2EF
100
AcDbEntity
  8
0
100
AcDbLine
 62
4
  6
CONTINUOUS
 10
12.4212524905
 20
7.4477971416
 11
12.4153366315
 21
7.4862394685
  0
LINE
  5
2F0
100
AcDbEntity
  8
0
100
AcDbLine
 62
4
  6
CONTINUOUS
 10
12.4079418079
 20
8.0282944418
 11
12.4079418079
 21
7.9786182507
  0
LINE
  5
2F1
100
AcDbEntity
  8
0
100
AcDbLine
 62
4
  6
CONTINUOUS
 10
12.4079418079
 20
7.5618902228
 11
12.4079418079
 21
7.5122140593
  0
LINE
  5
2F2
100
AcDbEntity
  8
0
100
AcDbLine
 62
4
  6
CONTINUOUS
 10
12.4079418079
 20
7.6253653851
 11
12.4079418079
 21
7.6667622157
  0
LINE
  5
2F3
100
AcDbEntity
  8
0
100
AcDbLine
 62
4
  6
CONTINUOUS
 10
12.4079418079
 20
7.7164383792
 11
12.4079418079
 21
7.7412764885
  0
LINE
  5
2F4
100
AcDbEntity
  8
0
100
AcDbLine
 62
4
  6
CONTINUOUS
 10
12.4079418079
 20
7.8047515956
 11
12.4079418079
 21
7.8378690379
  0
LINE
  5
2F5
100
AcDbEntity
  8
0
100
AcDbLine
 62
4
  6
CONTINUOUS
 10
12.4079418079
 20
8.2904743203
 11
12.4079418079
 21
8.331871137
  0
LINE
  5
2F6
100
AcDbEntity
  8
0
100
AcDbLine
 62
4
  6
CONTINUOUS
 10
12.4168155966
 20
8.2245314627
 11
12.4168155966
 21
8.1803748545
  0
LINE
  5
2F7
100
AcDbEntity
  8
0
100
AcDbLine
 62
4
  6
CONTINUOUS
 10
12.4256893853
 20
7.5459156249
 11
12.4256893853
 21
7.5790330672
  0
LINE
  5
2F8
100
AcDbEntity
  8
0
100
AcDbLine
 62
4
  6
CONTINUOUS
 10
12.4256893853
 20
8.0123198163
 11
12.4256893853
 21
8.0454372862
  0
LINE
  5
2F9
100
AcDbEntity
  8
0
100
AcDbLine
 62
4
  6
CONTINUOUS
 10
12.4390000669
 20
8.3618711134
 11
12.4390000669
 21
8.3204742966
  0
LINE
  5
2FA
100
AcDbEntity
  8
0
100
AcDbLine
 62
4
  6
CONTINUOUS
 10
12.4390000669
 20
8.1576468005
 11
12.4390000669
 21
8.0914118882
  0
LINE
  5
2FB
100
AcDbEntity
  8
0
100
AcDbLine
 62
4
  6
CONTINUOUS
 10
12.4390000669
 20
8.0582944182
 11
12.4390000669
 21
8.0086182271
  0
LINE
  5
2FC
100
AcDbEntity
  8
0
100
AcDbLine
 62
4
  6
CONTINUOUS
 10
12.4390000669
 20
7.8678690142
 11
12.4390000669
 21
7.8347515719
  0
LINE
  5
2FD
100
AcDbEntity
  8
0
100
AcDbLine
 62
4
  6
CONTINUOUS
 10
12.4390000669
 20
7.7712764649
 11
12.4390000669
 21
7.7464383555
  0
LINE
  5
2FE
100
AcDbEntity
  8
0
100
AcDbLine
 62
4
  6
CONTINUOUS
 10
12.4390000669
 20
7.696762192
 11
12.4390000669
 21
7.6553653615
  0
LINE
  5
2FF
100
AcDbEntity
  8
0
100
AcDbLine
 62
4
  6
CONTINUOUS
 10
12.4390000669
 20
7.5918901992
 11
12.4390000669
 21
7.5422140357
  0
LINE
  5
300
100
AcDbEntity
  8
0
100
AcDbLine
 62
4
  6
CONTINUOUS
 10
12.4762699778
 20
8.0860150309
 11
12.4762699778
 21
8.0611769371
  0
LINE
  5
301
100
AcDbEntity
  8
0
100
AcDbLine
 62
4
  6
CONTINUOUS
 10
12.4762699778
 20
7.9535452012
 11
12.4762699778
 21
8.0115007529
  0
LINE
  5
302
100
AcDbEntity
  8
0
100
AcDbLine
 62
4
  6
CONTINUOUS
 10
12.4895806604
 20
7.8918880473
 11
12.4895806604
 21
7.9332848779
  0
LINE
  5
303
100
AcDbEntity
  8
0
100
AcDbLine
 62
4
  6
CONTINUOUS
 10
12.5073282369
 20
7.9504277214
 11
12.5073282369
 21
7.9090308908
  0
LINE
  5
304
100
AcDbEntity
  8
0
100
AcDbLine
 62
4
  6
CONTINUOUS
 10
12.5073282369
 20
8.0001038987
 11
12.5073282369
 21
8.0249420011
  0
LINE
  5
305
100
AcDbEntity
  8
0
100
AcDbLine
 62
4
  6
CONTINUOUS
 10
12.4212524905
 20
8.4109631891
 11
12.4153366315
 21
8.3610922961
  0
LINE
  5
306
100
AcDbEntity
  8
0
100
AcDbLine
 62
4
  6
CONTINUOUS
 10
12.4390000669
 20
8.3204742966
 11
12.434563173
 21
8.2996298579
  0
LINE
  5
307
100
AcDbEntity
  8
0
100
AcDbLine
 62
4
  6
CONTINUOUS
 10
12.5685573764
 20
8.6139641403
 11
12.5663389292
 21
8.6035419199
  0
LINE
  5
308
100
AcDbEntity
  8
0
100
AcDbLine
 62
4
  6
CONTINUOUS
 10
12.4079418079
 20
7.8378690379
 11
12.4123787022
 21
7.8587134702
  0
LINE
  5
309
100
AcDbEntity
  8
0
100
AcDbLine
 62
4
  6
CONTINUOUS
 10
12.4390000669
 20
8.2238817128
 11
12.4079418079
 21
8.1607642664
  0
LINE
  5
30A
100
AcDbEntity
  8
0
100
AcDbLine
 62
4
  6
CONTINUOUS
 10
12.4807068722
 20
8.0489039201
 11
12.5073282369
 21
8.0746181854
  0
LINE
  5
30B
100
AcDbEntity
  8
0
100
AcDbLine
 62
4
  6
CONTINUOUS
 10
12.5685573764
 20
8.0951239525
 11
12.5863049526
 21
8.1122667958
  0
LINE
  5
30C
100
AcDbEntity
  8
0
100
AcDbLine
 62
4
  6
CONTINUOUS
 10
12.5973971883
 20
8.0733049098
 11
12.5663389292
 21
8.0433049335
  0
LINE
  5
30D
100
AcDbEntity
  8
0
100
AcDbLine
 62
4
  6
CONTINUOUS
 10
12.4984544491
 20
7.9749737562
 11
12.502891343
 21
7.9792594668
  0
LINE
  5
30E
100
AcDbEntity
  8
0
100
AcDbLine
 62
4
  6
CONTINUOUS
 10
12.5663389292
 20
8.0101874359
 11
12.5885234005
 21
8.0316159909
  0
LINE
  5
30F
100
AcDbEntity
  8
0
100
AcDbLine
 62
4
  6
CONTINUOUS
 10
12.4762699778
 20
7.920427745
 11
12.5073282369
 21
7.9504277214
  0
LINE
  5
310
100
AcDbEntity
  8
0
100
AcDbLine
 62
4
  6
CONTINUOUS
 10
12.4123787022
 20
7.8587134702
 11
12.434563173
 21
7.8801420248
  0
LINE
  5
311
100
AcDbEntity
  8
0
100
AcDbLine
 62
4
  6
CONTINUOUS
 10
12.5863049526
 20
7.9908361371
 11
12.5818680587
 21
7.9865504264
  0
LINE
  5
312
100
AcDbEntity
  8
0
100
AcDbLine
 62
4
  6
CONTINUOUS
 10
12.502891343
 20
7.888186459
 11
12.4940175553
 21
7.8796150377
  0
LINE
  5
313
100
AcDbEntity
  8
0
100
AcDbLine
 62
4
  6
CONTINUOUS
 10
12.5685573764
 20
7.9378160185
 11
12.5752127179
 21
7.9442445852
  0
LINE
  5
314
100
AcDbEntity
  8
0
100
AcDbLine
 62
4
  6
CONTINUOUS
 10
12.4123787022
 20
7.7621209208
 11
12.434563173
 21
7.7835494754
  0
LINE
  5
315
100
AcDbEntity
  8
0
100
AcDbLine
 62
4
  6
CONTINUOUS
 10
12.5663389292
 20
8.4793514463
 11
12.5707758235
 21
8.4670784363
  0
LINE
  5
316
100
AcDbEntity
  8
0
100
AcDbLine
 62
4
  6
CONTINUOUS
 10
12.5663389292
 20
8.5704244611
 11
12.5707758235
 21
8.5581514441
  0
LINE
  5
317
100
AcDbEntity
  8
0
100
AcDbLine
 62
4
  6
CONTINUOUS
 10
12.4271683499
 20
8.3725208592
 11
12.4212524905
 21
8.4109631891
  0
LINE
  5
318
100
AcDbEntity
  8
0
100
AcDbLine
 62
4
  6
CONTINUOUS
 10
12.5752127179
 20
7.9442445852
 11
12.5774311648
 21
7.9298287193
  0
LINE
  5
319
100
AcDbEntity
  8
0
100
AcDbLine
 62
4
  6
CONTINUOUS
 10
12.5863049526
 20
8.1122667958
 11
12.5885234005
 21
8.0978509308
  0
LINE
  5
31A
100
AcDbEntity
  8
0
100
AcDbLine
 62
4
  6
CONTINUOUS
 10
12.5589441056
 20
8.1575927407
 11
12.5589441056
 21
8.1410340195
  0
LINE
  5
31B
100
AcDbEntity
  8
0
100
AcDbLine
 62
4
  6
CONTINUOUS
 10
12.5663389292
 20
8.6035419199
 11
12.5663389292
 21
8.5704244611
  0
LINE
  5
31C
100
AcDbEntity
  8
0
100
AcDbLine
 62
4
  6
CONTINUOUS
 10
12.5663389292
 20
8.5041895488
 11
12.5663389292
 21
8.4793514463
  0
LINE
  5
31D
100
AcDbEntity
  8
0
100
AcDbLine
 62
4
  6
CONTINUOUS
 10
12.5663389292
 20
7.8446001689
 11
12.5663389292
 21
7.8032033384
  0
LINE
  5
31E
100
AcDbEntity
  8
0
100
AcDbLine
 62
4
  6
CONTINUOUS
 10
12.5663389292
 20
7.5686213539
 11
12.5663389292
 21
7.5355039115
  0
LINE
  5
31F
100
AcDbEntity
  8
0
100
AcDbLine
 62
4
  6
CONTINUOUS
 10
12.5663389292
 20
7.6100181292
 11
12.5663389292
 21
7.643135682
  0
LINE
  5
320
100
AcDbEntity
  8
0
100
AcDbLine
 62
4
  6
CONTINUOUS
 10
12.5663389292
 20
7.7452477867
 11
12.5663389292
 21
7.7618065078
  0
LINE
  5
321
100
AcDbEntity
  8
0
100
AcDbLine
 62
4
  6
CONTINUOUS
 10
12.5663389292
 20
7.8859969995
 11
12.5663389292
 21
7.9191144418
  0
LINE
  5
322
100
AcDbEntity
  8
0
100
AcDbLine
 62
4
  6
CONTINUOUS
 10
12.5663389292
 20
8.0433049335
 11
12.5663389292
 21
8.0764223758
  0
LINE
  5
323
100
AcDbEntity
  8
0
100
AcDbLine
 62
4
  6
CONTINUOUS
 10
12.5774311648
 20
7.9298287193
 11
12.5774311648
 21
7.896711277
  0
LINE
  5
324
100
AcDbEntity
  8
0
100
AcDbLine
 62
4
  6
CONTINUOUS
 10
12.5885234005
 20
8.2689578083
 11
12.5885234005
 21
8.2275609778
  0
LINE
  5
325
100
AcDbEntity
  8
0
100
AcDbLine
 62
4
  6
CONTINUOUS
 10
12.5885234005
 20
8.0978509308
 11
12.5885234005
 21
8.0647334885
  0
LINE
  5
326
100
AcDbEntity
  8
0
100
AcDbLine
 62
4
  6
CONTINUOUS
 10
12.5885234005
 20
8.0316159909
 11
12.5885234005
 21
7.9984985486
  0
LINE
  5
327
100
AcDbEntity
  8
0
100
AcDbLine
 62
4
  6
CONTINUOUS
 10
12.5885234005
 20
7.6645642371
 11
12.5885234005
 21
7.6314466842
  0
LINE
  5
328
100
AcDbEntity
  8
0
100
AcDbLine
 62
4
  6
CONTINUOUS
 10
12.5885234005
 20
7.5900499089
 11
12.5885234005
 21
7.5569324666
  0
LINE
  5
329
100
AcDbEntity
  8
0
100
AcDbLine
 62
4
  6
CONTINUOUS
 10
12.5885234005
 20
7.9157048875
 11
12.5885234005
 21
7.957101718
  0
LINE
  5
32A
100
AcDbEntity
  8
0
100
AcDbLine
 62
4
  6
CONTINUOUS
 10
12.5973971883
 20
8.6252625313
 11
12.5973971883
 21
8.5921450734
  0
LINE
  5
32B
100
AcDbEntity
  8
0
100
AcDbLine
 62
4
  6
CONTINUOUS
 10
12.5973971883
 20
7.7255715995
 11
12.5973971883
 21
7.7228118219
  0
LINE
  5
32C
100
AcDbEntity
  8
0
100
AcDbLine
 62
4
  6
CONTINUOUS
 10
12.5766916825
 20
7.545503904
 11
12.5781706472
 21
7.5800499165
  0
LINE
  5
32D
100
AcDbEntity
  8
0
100
AcDbLine
 62
4
  6
CONTINUOUS
 10
12.4271683499
 20
7.4976680316
 11
12.4212524905
 21
7.4477971416
  0
LINE
  5
32E
100
AcDbEntity
  8
0
100
AcDbLine
 62
4
  6
CONTINUOUS
 10
12.5663389292
 20
8.0764223758
 11
12.5685573764
 21
8.0951239525
  0
LINE
  5
32F
100
AcDbEntity
  8
0
100
AcDbLine
 62
4
  6
CONTINUOUS
 10
12.5663389292
 20
7.9191144418
 11
12.5685573764
 21
7.9378160185
  0
LINE
  5
330
100
AcDbEntity
  8
0
100
AcDbLine
 62
4
  6
CONTINUOUS
 10
12.5781706472
 20
7.5800499165
 11
12.5796496118
 21
7.5897578197
  0
LINE
  5
331
100
AcDbEntity
  8
0
100
AcDbLine
 62
4
  6
CONTINUOUS
 10
12.5752127179
 20
7.5357960008
 11
12.5766916825
 21
7.545503904
  0
LINE
  5
332
100
AcDbEntity
  8
0
100
AcDbLine
 62
4
  6
CONTINUOUS
 10
12.5752127179
 20
8.5624371552
 11
12.5885234005
 21
8.6332498398
  0
LINE
  5
333
100
AcDbEntity
  8
0
100
AcDbLine
 62
4
  6
CONTINUOUS
 10
12.4807068722
 20
8.1068594718
 11
12.4762699778
 21
8.0860150309
  0
LINE
  5
334
100
AcDbEntity
  8
0
100
AcDbLine
 62
4
  6
CONTINUOUS
 10
12.5707758235
 20
8.525033988
 11
12.5663389292
 21
8.5041895488
  0
LINE
  5
335
100
AcDbEntity
  8
0
100
AcDbLine
 62
4
  6
CONTINUOUS
 10
12.4079418079
 20
7.7412764885
 11
12.4123787022
 21
7.7621209208
  0
LINE
  5
336
100
AcDbEntity
  8
0
100
AcDbLine
 62
4
  6
CONTINUOUS
 10
12.5973971883
 20
8.5921450734
 11
12.5951787404
 21
8.5817228532
  0
LINE
  5
337
100
AcDbEntity
  8
0
100
AcDbLine
 62
4
  6
CONTINUOUS
 10
12.4390000669
 20
7.7464383555
 11
12.434563173
 21
7.7255939237
  0
LINE
  5
338
100
AcDbEntity
  8
0
100
AcDbLine
 62
4
  6
CONTINUOUS
 10
12.502891343
 20
7.9792594668
 11
12.5073282369
 21
8.0001038987
  0
LINE
  5
339
100
AcDbEntity
  8
0
100
AcDbLine
 62
4
  6
CONTINUOUS
 10
12.4390000669
 20
7.6553653615
 11
12.434563173
 21
7.6345209296
  0
LINE
  5
33A
100
AcDbEntity
  8
0
100
AcDbLine
 62
4
  6
CONTINUOUS
 10
12.5073282369
 20
7.9090308908
 11
12.502891343
 21
7.888186459
  0
LINE
  5
33B
100
AcDbEntity
  8
0
100
AcDbLine
 62
4
  6
CONTINUOUS
 10
12.5885234005
 20
8.2275609778
 11
12.5863049526
 21
8.217138761
  0
LINE
  5
33C
100
AcDbEntity
  8
0
100
AcDbLine
 62
4
  6
CONTINUOUS
 10
12.5685573764
 20
7.8550224127
 11
12.5663389292
 21
7.8446001689
  0
LINE
  5
33D
100
AcDbEntity
  8
0
100
AcDbLine
 62
4
  6
CONTINUOUS
 10
12.5663389292
 20
7.7618065078
 11
12.5685573764
 21
7.7722287516
  0
LINE
  5
33E
100
AcDbEntity
  8
0
100
AcDbLine
 62
4
  6
CONTINUOUS
 10
12.5885234005
 20
7.9984985486
 11
12.5863049526
 21
7.9908361371
  0
LINE
  5
33F
100
AcDbEntity
  8
0
100
AcDbLine
 62
4
  6
CONTINUOUS
 10
12.5973971883
 20
8.4596752454
 11
12.5663389292
 21
8.3717197173
  0
LINE
  5
340
100
AcDbEntity
  8
0
100
AcDbLine
 62
4
  6
CONTINUOUS
 10
12.5840865066
 20
7.9031398439
 11
12.5885234005
 21
7.9157048875
  0
LINE
  5
341
100
AcDbEntity
  8
0
100
AcDbLine
 62
4
  6
CONTINUOUS
 10
12.5885234005
 20
8.1861641472
 11
12.5663389292
 21
8.1398974828
  0
LINE
  5
342
100
AcDbEntity
  8
0
100
AcDbLine
 62
4
  6
CONTINUOUS
 10
12.5663389292
 20
7.8859969995
 11
12.5840865066
 21
7.9031398439
  0
LINE
  5
343
100
AcDbEntity
  8
0
100
AcDbLine
 62
4
  6
CONTINUOUS
 10
12.5885234005
 20
7.8743081122
 11
12.5685573764
 21
7.8550224127
  0
LINE
  5
344
100
AcDbEntity
  8
0
100
AcDbLine
 62
4
  6
CONTINUOUS
 10
12.434563173
 20
7.7255939237
 11
12.4123787022
 21
7.7041653691
  0
LINE
  5
345
100
AcDbEntity
  8
0
100
AcDbLine
 62
4
  6
CONTINUOUS
 10
12.4079418079
 20
7.6667622157
 11
12.4390000669
 21
7.696762192
  0
LINE
  5
346
100
AcDbEntity
  8
0
100
AcDbLine
 62
4
  6
CONTINUOUS
 10
12.5663389292
 20
7.8032033384
 11
12.5885234005
 21
7.8246318934
  0
LINE
  5
347
100
AcDbEntity
  8
0
100
AcDbLine
 62
4
  6
CONTINUOUS
 10
12.5685573764
 20
7.7722287516
 11
12.5973971883
 21
7.8000858724
  0
LINE
  5
348
100
AcDbEntity
  8
0
100
AcDbLine
 62
4
  6
CONTINUOUS
 10
12.434563173
 20
7.6345209296
 11
12.4123787022
 21
7.613092375
  0
LINE
  5
349
100
AcDbEntity
  8
0
100
AcDbLine
 62
4
  6
CONTINUOUS
 10
12.4079418079
 20
7.5618902228
 11
12.4390000669
 21
7.5918901992
  0
LINE
  5
34A
100
AcDbEntity
  8
0
100
AcDbLine
 62
4
  6
CONTINUOUS
 10
12.5663389292
 20
7.6955716232
 11
12.5885234005
 21
7.7170001782
  0
LINE
  5
34B
100
AcDbEntity
  8
0
100
AcDbLine
 62
4
  6
CONTINUOUS
 10
12.5951787404
 20
7.7234287433
 11
12.5973971883
 21
7.7255715995
  0
LINE
  5
34C
100
AcDbEntity
  8
0
100
AcDbLine
 62
4
  6
CONTINUOUS
 10
12.5685573764
 20
7.6535578705
 11
12.5863049526
 21
7.6707007138
  0
LINE
  5
34D
100
AcDbEntity
  8
0
100
AcDbLine
 62
4
  6
CONTINUOUS
 10
12.5929602944
 20
8.6375355505
 11
12.5973971883
 21
8.6252625313
  0
LINE
  5
34E
100
AcDbEntity
  8
0
100
AcDbLine
 62
7
  6
CONTINUOUS
 10
12.8083345363
 20
10.4766059781
 11
12.8083345363
 21
7.5788283275
  0
LINE
  5
34F
100
AcDbEntity
  8
0
100
AcDbLine
 62
4
  6
CONTINUOUS
 10
12.5663389292
 20
7.643135682
 11
12.5685573764
 21
7.6535578705
  0
LINE
  5
350
100
AcDbEntity
  8
0
100
AcDbLine
 62
4
  6
CONTINUOUS
 10
12.5685573764
 20
7.5790435424
 11
12.5663389292
 21
7.5686213539
  0
LINE
  5
351
100
AcDbEntity
  8
0
100
AcDbLine
 62
4
  6
CONTINUOUS
 10
12.5885234005
 20
7.5569324666
 11
12.5863049526
 21
7.5465102774
  0
LINE
  5
352
100
AcDbEntity
  8
0
100
AcDbLine
 62
4
  6
CONTINUOUS
 10
12.5796496118
 20
7.5897578197
 11
12.5863049526
 21
7.5961863856
  0
LINE
  5
353
100
AcDbEntity
  8
0
100
AcDbLine
 62
4
  6
CONTINUOUS
 10
12.5685573764
 20
7.5293674341
 11
12.5752127179
 21
7.5357960008
  0
LINE
  5
354
100
AcDbEntity
  8
0
100
AcDbLine
 62
7
  6
CONTINUOUS
 10
12.3497973225
 20
9.6695771792
 11
12.3364422382
 21
9.6859979532
  0
LINE
  5
355
100
AcDbEntity
  8
0
100
AcDbLine
 62
7
  6
CONTINUOUS
 10
11.5465927327
 20
6.3600792611
 11
12.8083345363
 21
7.5788283275
  0
LINE
  5
356
100
AcDbEntity
  8
0
100
AcDbLine
 62
7
  6
CONTINUOUS
 10
10.4534072673
 20
10.6399207389
 11
12.8083345363
 21
10.4766059781
  0
ARC
  5
357
100
AcDbEntity
  8
0
100
AcDbCircle
 62
7
  6
CONTINUOUS
 10
11.581730292
 20
9.5675505979
 40
0.6981146098
100
AcDbArc
 50
11.4216296909
 51
14.2181547976
  0
ARC
  5
358
100
AcDbEntity
  8
0
100
AcDbCircle
 62
7
  6
CONTINUOUS
 10
11.5471665942
 20
9.0640523937
 40
0.6977453722
100
AcDbArc
 50
337.8434850288
 51
340.6368931125
  0
ARC
  5
359
100
AcDbEntity
  8
0
100
AcDbCircle
 62
7
  6
CONTINUOUS
 10
11.065563928
 20
8.7141081103
 40
0.6732330608
100
AcDbArc
 50
9.1142644149
 51
9.8753013519
  0
ARC
  5
35A
100
AcDbEntity
  8
0
100
AcDbCircle
 62
7
  6
CONTINUOUS
 10
11.0476890892
 20
8.4562871805
 40
0.673227643
100
AcDbArc
 50
342.1909106855
 51
342.9483374764
  0
ARC
  5
35B
100
AcDbEntity
  8
0
100
AcDbCircle
 62
7
  6
CONTINUOUS
 10
11.2929845928
 20
7.8933226839
 40
0.347349262
100
AcDbArc
 50
168.6061436747
 51
180.0414738516
  0
ARC
  5
35C
100
AcDbEntity
  8
0
100
AcDbCircle
 62
7
  6
CONTINUOUS
 10
10.3446737639
 20
8.9931022983
 40
0.3342546095
100
AcDbArc
 50
171.298693523
 51
180.0226723649
  0
ARC
  5
35D
100
AcDbEntity
  8
0
100
AcDbCircle
 62
7
  6
CONTINUOUS
 10
10.12420749
 20
7.4311531616
 40
0.3326407026
100
AcDbArc
 50
168.5398919733
 51
180.0419503464
  0
ARC
  5
35E
100
AcDbEntity
  8
0
100
AcDbCircle
 62
7
  6
CONTINUOUS
 10
10.3702686694
 20
8.9501986439
 40
0.3222833169
100
AcDbArc
 50
271.6766473141
 51
279.0802409318
  0
ARC
  5
35F
100
AcDbEntity
  8
0
100
AcDbCircle
 62
7
  6
CONTINUOUS
 10
11.7656118012
 20
8.4458457105
 40
0.0232929656
100
AcDbArc
 50
214.6639418079
 51
216.7740184535
  0
ARC
  5
360
100
AcDbEntity
  8
0
100
AcDbCircle
 62
7
  6
CONTINUOUS
 10
11.7635361952
 20
8.4443034148
 40
0.020707089
100
AcDbArc
 50
216.793940302
 51
219.0901123122
  0
SPLINE
  5
361
100
AcDbEntity
  8
0
100
AcDbSpline
 62
7
  6
CONTINUOUS
 70
0
 71
3
 72
43
 73
39
 74
0
 42
0.0000001
 43
0.0000001
 44
0.0000000001
 40
0.0
 40
0.0
 40
0.0
 40
0.0
 40
0.0075793067
 40
0.015737416
 40
0.0244899853
 40
0.0338466779
 40
0.0438125727
 40
0.0543882963
 40
0.0655709146
 40
0.0773551839
 40
0.1026953073
 40
0.1303160383
 40
0.1600910892
 40
0.191870642
 40
0.2254834594
 40
0.2607439394
 40
0.2974482099
 40
0.3353840644
 40
0.4140379596
 40
0.4948335329
 40
0.575826967
 40
0.615789383
 40
0.655072753
 40
0.6934425035
 40
0.7306713506
 40
0.7665400635
 40
0.800843067
 40
0.8333846229
 40
0.8639898274
 40
0.8924971034
 40
0.9187735154
 40
0.9427079776
 40
0.9537746404
 40
0.9642328073
 40
0.9740798652
 40
0.9833172141
 40
0.9919528344
 40
1.0
 40
1.0
 40
1.0
 40
1.0
 10
11.7618334326
 20
8.6420612635
 30
0.0
 10
11.7614403164
 20
8.6416815423
 30
0.0
 10
11.760655534
 20
8.6408601411
 30
0.0
 10
11.7595222772
 20
8.6395043427
 30
0.0
 10
11.7583923554
 20
8.6379828989
 30
0.0
 10
11.7572678699
 20
8.6362984505
 30
0.0
 10
11.756150961
 20
8.6344535436
 30
0.0
 10
11.7550433939
 20
8.6324512349
 30
0.0
 10
11.7539467144
 20
8.6302948053
 30
0.0
 10
11.7524652193
 20
8.6271414875
 30
0.0
 10
11.7506633002
 20
8.6228317785
 30
0.0
 10
11.748619537
 20
8.6172246703
 30
0.0
 10
11.7466589514
 20
8.6110986232
 30
0.0
 10
11.7447943813
 20
8.6044928005
 30
0.0
 10
11.7430376874
 20
8.5974492291
 30
0.0
 10
11.741400772
 20
8.5900129473
 30
0.0
 10
11.7398936342
 20
8.5822315671
 30
0.0
 10
11.7380491579
 20
8.5713313089
 30
0.0
 10
11.7361469502
 20
8.5572202473
 30
0.0
 10
11.7345339674
 20
8.5399522189
 30
0.0
 10
11.7337569388
 20
8.5254199043
 30
0.0
 10
11.7334934999
 20
8.5138670202
 30
0.0
 10
11.7334781467
 20
8.5053848412
 30
0.0
 10
11.7336442127
 20
8.4971014276
 30
0.0
 10
11.7339902164
 20
8.4890699612
 30
0.0
 10
11.7345143704
 20
8.4813419796
 30
0.0
 10
11.7352124423
 20
8.4739670969
 30
0.0
 10
11.7360806364
 20
8.4669924778
 30
0.0
 10
11.7371121951
 20
8.4604627457
 30
0.0
 10
11.7383012189
 20
8.4544193134
 30
0.0
 10
11.7396389029
 20
8.4489006234
 30
0.0
 10
11.7409015574
 20
8.4446631032
 30
0.0
 10
11.7419898746
 20
8.4415702547
 30
0.0
 10
11.7428163944
 20
8.4394637639
 30
0.0
 10
11.7436733354
 20
8.4375126454
 30
0.0
 10
11.7445596256
 20
8.4357200246
 30
0.0
 10
11.7454736507
 20
8.4340885997
 30
0.0
 10
11.7461231503
 20
8.4330747952
 30
0.0
 10
11.746453287
 20
8.4325975566
 30
0.0
  0
SPLINE
  5
362
100
AcDbEntity
  8
0
100
AcDbSpline
 62
7
  6
CONTINUOUS
 70
0
 71
3
 72
11
 73
7
 74
0
 42
0.0000001
 43
0.0000001
 44
0.0000000001
 40
0.0
 40
0.0
 40
0.0
 40
0.0
 40
0.2725415833
 40
0.5318756758
 40
0.7753491514
 40
1.0
 40
1.0
 40
1.0
 40
1.0
 10
11.7749542688
 20
8.640721317
 30
0.0
 10
11.7731839893
 20
8.6402046199
 30
0.0
 10
11.7697396592
 20
8.6391597915
 30
0.0
 10
11.7647627081
 20
8.6374973067
 30
0.0
 10
11.7601520896
 20
8.6357701561
 30
0.0
 10
11.7572405641
 20
8.6345173198
 30
0.0
 10
11.7558656331
 20
8.633869056
 30
0.0
  0
SPLINE
  5
363
100
AcDbEntity
  8
0
100
AcDbSpline
 62
7
  6
CONTINUOUS
 70
0
 71
3
 72
52
 73
48
 74
0
 42
0.0000001
 43
0.0000001
 44
0.0000000001
 40
0.0
 40
0.0
 40
0.0
 40
0.0
 40
0.0075207344
 40
0.0156241858
 40
0.0243316716
 40
0.0336557033
 40
0.0436034124
 40
0.054177763
 40
0.0653763812
 40
0.0771930412
 40
0.0896195436
 40
0.1026455035
 40
0.1162568404
 40
0.1304378619
 40
0.1604394309
 40
0.1924952583
 40
0.2264289105
 40
0.2620436705
 40
0.2991298945
 40
0.3374629427
 40
0.3768096521
 40
0.4169269968
 40
0.4575668907
 40
0.4984762595
 40
0.5394005102
 40
0.5800843657
 40
0.6202751276
 40
0.6597231079
 40
0.6981858351
 40
0.7354273254
 40
0.7712236588
 40
0.8053614694
 40
0.8376440574
 40
0.8530328843
 40
0.8678925196
 40
0.8822035392
 40
0.8959477652
 40
0.9091100049
 40
0.9216765498
 40
0.933634922
 40
0.9449758256
 40
0.9556943482
 40
0.9657881061
 40
0.9752577793
 40
0.9841084693
 40
0.9923503893
 40
1.0
 40
1.0
 40
1.0
 40
1.0
 10
11.7966766792
 20
8.7909881286
 30
0.0
 10
11.7975128533
 20
8.7899599695
 30
0.0
 10
11.799160514
 20
8.7877503036
 30
0.0
 10
11.8014790939
 20
8.7841404665
 30
0.0
 10
11.8037312556
 20
8.7801205599
 30
0.0
 10
11.8059138744
 20
8.7756975279
 30
0.0
 10
11.8080235776
 20
8.7708781656
 30
0.0
 10
11.8100565448
 20
8.7656699196
 30
0.0
 10
11.8120097144
 20
8.7600813227
 30
0.0
 10
11.8138800876
 20
8.7541216485
 30
0.0
 10
11.8156644159
 20
8.7478005092
 30
0.0
 10
11.817359387
 20
8.7411281445
 30
0.0
 10
11.8189625893
 20
8.7341156943
 30
0.0
 10
11.8210128315
 20
8.7241394368
 30
0.0
 10
11.8233074735
 20
8.7108989559
 30
0.0
 10
11.825609077
 20
8.6941384372
 30
0.0
 10
11.8274906183
 20
8.676330892
 30
0.0
 10
11.8289403576
 20
8.6575942096
 30
0.0
 10
11.8299470928
 20
8.6380524394
 30
0.0
 10
11.8305049162
 20
8.6178350228
 30
0.0
 10
11.830608938
 20
8.5970761787
 30
0.0
 10
11.8302590411
 20
8.575913566
 30
0.0
 10
11.8294569185
 20
8.5544877652
 30
0.0
 10
11.8282080717
 20
8.532940961
 30
0.0
 10
11.8265207966
 20
8.5114162775
 30
0.0
 10
11.8244060178
 20
8.4900566037
 30
0.0
 10
11.8218783914
 20
8.469003767
 30
0.0
 10
11.818954038
 20
8.4483975168
 30
0.0
 10
11.8156534776
 20
8.4283745683
 30
0.0
 10
11.8119977876
 20
8.409067767
 30
0.0
 10
11.8080125991
 20
8.390604937
 30
0.0
 10
11.8037236105
 20
8.3731085761
 30
0.0
 10
11.7998622424
 20
8.3592164698
 30
0.0
 10
11.79663085
 20
8.3486815768
 30
0.0
 10
11.7941886282
 20
8.3412185391
 30
0.0
 10
11.7916930057
 20
8.3340794488
 30
0.0
 10
11.7891477862
 20
8.3272762833
 30
0.0
 10
11.7865575676
 20
8.3208201335
 30
0.0
 10
11.783926824
 20
8.3147215692
 30
0.0
 10
11.7812597752
 20
8.3089908159
 30
0.0
 10
11.778560602
 20
8.3036372841
 30
0.0
 10
11.7758338819
 20
8.2986692745
 30
0.0
 10
11.773083894
 20
8.294094564
 30
0.0
 10
11.7703146107
 20
8.2899209311
 30
0.0
 10
11.7675308775
 20
8.2861551404
 30
0.0
 10
11.7647382215
 20
8.2828036589
 30
0.0
 10
11.7628029618
 20
8.2807755505
 30
0.0
 10
11.7618334326
 20
8.2798390572
 30
0.0
  0
SPLINE
  5
364
100
AcDbEntity
  8
0
100
AcDbSpline
 62
7
  6
CONTINUOUS
 70
0
 71
3
 72
15
 73
11
 74
0
 42
0.0000001
 43
0.0000001
 44
0.0000000001
 40
0.0
 40
0.0
 40
0.0
 40
0.0
 40
0.1491826272
 40
0.2896083733
 40
0.4219651613
 40
0.5471094051
 40
0.6660950005
 40
0.7802162955
 40
0.890970686
 40
1.0
 40
1.0
 40
1.0
 40
1.0
 10
11.7456908555
 20
8.2648038653
 30
0.0
 10
11.7449223911
 20
8.2640887439
 30
0.0
 10
11.7433860226
 20
8.2627470602
 30
0.0
 10
11.7410098348
 20
8.2609618368
 30
0.0
 10
11.7386364978
 20
8.2594692665
 30
0.0
 10
11.7362684507
 20
8.2582720831
 30
0.0
 10
11.7339078341
 20
8.2573734511
 30
0.0
 10
11.7315572523
 20
8.2567756386
 30
0.0
 10
11.7292203574
 20
8.2564801133
 30
0.0
 10
11.7276686546
 20
8.2564855747
 30
0.0
 10
11.7269033014
 20
8.2565386375
 30
0.0
  0
SPLINE
  5
365
100
AcDbEntity
  8
0
100
AcDbSpline
 62
7
  6
CONTINUOUS
 70
0
 71
3
 72
15
 73
11
 74
0
 42
0.0000001
 43
0.0000001
 44
0.0000000001
 40
0.0
 40
0.0
 40
0.0
 40
0.0
 40
0.1090340757
 40
0.219795838
 40
0.3339183198
 40
0.4528793009
 40
0.5779704975
 40
0.7102896908
 40
0.8507310287
 40
1.0
 40
1.0
 40
1.0
 40
1.0
 10
11.7658539356
 20
8.818189711
 30
0.0
 10
11.7666193273
 20
8.8181366456
 30
0.0
 10
11.7681570426
 20
8.8179278795
 30
0.0
 10
11.7704307613
 20
8.8173120934
 30
0.0
 10
11.7726760777
 20
8.8163952536
 30
0.0
 10
11.7748897484
 20
8.8151799704
 30
0.0
 10
11.7770697962
 20
8.8136686517
 30
0.0
 10
11.7792141865
 20
8.8118632736
 30
0.0
 10
11.7813212359
 20
8.8097664916
 30
0.0
 10
11.7826579563
 20
8.8082248429
 30
0.0
 10
11.7833207005
 20
8.807409983
 30
0.0
  0
SPLINE
  5
366
100
AcDbEntity
  8
0
100
AcDbSpline
 62
7
  6
CONTINUOUS
 70
0
 71
3
 72
54
 73
50
 74
0
 42
0.0000001
 43
0.0000001
 44
0.0000000001
 40
0.0
 40
0.0
 40
0.0
 40
0.0
 40
0.0086007063
 40
0.0180013121
 40
0.0282245273
 40
0.0392821733
 40
0.0511770453
 40
0.0639043917
 40
0.0774547827
 40
0.091814537
 40
0.1069621383
 40
0.1228720285
 40
0.1568645699
 40
0.1935351672
 40
0.2325880819
 40
0.2736916608
 40
0.3164919208
 40
0.3606110468
 40
0.4056583164
 40
0.4512303841
 40
0.4969192133
 40
0.5423143242
 40
0.5870098801
 40
0.6306063328
 40
0.6727191713
 40
0.712979107
 40
0.7510419255
 40
0.7865904611
 40
0.819342584
 40
0.8345952089
 40
0.849064206
 40
0.8627269912
 40
0.8755674627
 40
0.8875754386
 40
0.898745099
 40
0.9090779845
 40
0.918588093
 40
0.9273007512
 40
0.9352559376
 40
0.9425164512
 40
0.9491731625
 40
0.9553482378
 40
0.9611992437
 40
0.9669155621
 40
0.9727007343
 40
0.9787514506
 40
0.985237
 40
0.9922877177
 40
1.0
 40
1.0
 40
1.0
 40
1.0
 10
11.7618334326
 20
8.430523495
 30
0.0
 10
11.7623168422
 20
8.4309904328
 30
0.0
 10
11.7632807778
 20
8.4320178443
 30
0.0
 10
11.7646607624
 20
8.4337405575
 30
0.0
 10
11.7660344298
 20
8.4357074665
 30
0.0
 10
11.76739781
 20
8.4379138707
 30
0.0
 10
11.7687475866
 20
8.440354632
 30
0.0
 10
11.77008097
 20
8.4430238605
 30
0.0
 10
11.7713948887
 20
8.4459155841
 30
0.0
 10
11.7726860649
 20
8.4490232877
 30
0.0
 10
11.7739516993
 20
8.4523395525
 30
0.0
 10
11.7756385018
 20
8.4571353473
 30
0.0
 10
11.7776482372
 20
8.4635977404
 30
0.0
 10
11.7798624918
 20
8.4718825469
 30
0.0
 10
11.7819070935
 20
8.4807818056
 30
0.0
 10
11.7837630298
 20
8.490210713
 30
0.0
 10
11.7854114204
 20
8.5000795752
 30
0.0
 10
11.7868369951
 20
8.510294218
 30
0.0
 10
11.7880254867
 20
8.5207571108
 30
0.0
 10
11.7889656787
 20
8.5313683406
 30
0.0
 10
11.7896485762
 20
8.5420264631
 30
0.0
 10
11.7900673704
 20
8.5526296962
 30
0.0
 10
11.7902186458
 20
8.5630766468
 30
0.0
 10
11.7901004063
 20
8.573267598
 30
0.0
 10
11.789714723
 20
8.5831051935
 30
0.0
 10
11.7890648582
 20
8.5924956371
 30
0.0
 10
11.7881579837
 20
8.6013495821
 30
0.0
 10
11.7870028143
 20
8.6095827258
 30
0.0
 10
11.7858168594
 20
8.6160061724
 30
0.0
 10
11.7847401634
 20
8.6207685148
 30
0.0
 10
11.7838975159
 20
8.6240529257
 30
0.0
 10
11.783002281
 20
8.6271276213
 30
0.0
 10
11.7820566448
 20
8.6299854138
 30
0.0
 10
11.7810631054
 20
8.6326198073
 30
0.0
 10
11.7800239178
 20
8.6350246748
 30
0.0
 10
11.7789410802
 20
8.6371943636
 30
0.0
 10
11.7778172516
 20
8.6391242669
 30
0.0
 10
11.7766547282
 20
8.6408103655
 30
0.0
 10
11.7754550406
 20
8.6422487117
 30
0.0
 10
11.7742196447
 20
8.6434358364
 30
0.0
 10
11.77295001
 20
8.6443686509
 30
0.0
 10
11.7716472306
 20
8.6450427401
 30
0.0
 10
11.7703138281
 20
8.6454517359
 30
0.0
 10
11.7689560692
 20
8.6455910401
 30
0.0
 10
11.7675821873
 20
8.6454594378
 30
0.0
 10
11.7661998394
 20
8.6450592193
 30
0.0
 10
11.7648139667
 20
8.6443957216
 30
0.0
 10
11.7634269342
 20
8.6434750142
 30
0.0
 10
11.7625447126
 20
8.6427277263
 30
0.0
 10
11.7621034397
 20
8.6423172481
 30
0.0
  0
SPLINE
  5
367
100
AcDbEntity
  8
0
100
AcDbSpline
 62
7
  6
CONTINUOUS
 70
0
 71
3
 72
21
 73
17
 74
0
 42
0.0000001
 43
0.0000001
 44
0.0000000001
 40
0.0
 40
0.0
 40
0.0
 40
0.0
 40
0.1439903856
 40
0.2097046377
 40
0.2717890401
 40
0.3308081086
 40
0.3874323522
 40
0.4424387743
 40
0.4966836257
 40
0.5510596797
 40
0.6064537761
 40
0.6637059519
 40
0.7235674236
 40
0.7866664477
 40
0.8535213386
 40
1.0
 40
1.0
 40
1.0
 40
1.0
 10
11.7474642797
 20
8.4312467281
 30
0.0
 10
11.7479726795
 20
8.4306216965
 30
0.0
 10
11.7487718476
 20
8.4297542131
 30
0.0
 10
11.74994047
 20
8.4287783018
 30
0.0
 10
11.7508046511
 20
8.4281869199
 30
0.0
 10
11.7516823142
 20
8.4277149142
 30
0.0
 10
11.7525727481
 20
8.4273635621
 30
0.0
 10
11.7534747338
 20
8.4271339555
 30
0.0
 10
11.7543867263
 20
8.4270266442
 30
0.0
 10
11.7553070342
 20
8.4270419217
 30
0.0
 10
11.7562339707
 20
8.4271796597
 30
0.0
 10
11.7571660033
 20
8.4274394828
 30
0.0
 10
11.7581017433
 20
8.4278205525
 30
0.0
 10
11.7590402844
 20
8.4283214547
 30
0.0
 10
11.7603331903
 20
8.4291734992
 30
0.0
 10
11.7612439229
 20
8.4299540723
 30
0.0
 10
11.7618334326
 20
8.430523495
 30
0.0
  0
SPLINE
  5
368
100
AcDbEntity
  8
0
100
AcDbSpline
 62
7
  6
CONTINUOUS
 70
0
 71
3
 72
15
 73
11
 74
0
 42
0.0000001
 43
0.0000001
 44
0.0000000001
 40
0.0
 40
0.0
 40
0.0
 40
0.0
 40
0.1184199586
 40
0.2335456869
 40
0.3474463534
 40
0.4628114041
 40
0.5827314659
 40
0.7104618824
 40
0.8488173292
 40
1.0
 40
1.0
 40
1.0
 40
1.0
 10
11.7441215716
 20
8.4366564342
 30
0.0
 10
11.7439745728
 20
8.4370618094
 30
0.0
 10
11.7437298382
 20
8.4378789554
 30
0.0
 10
11.7435337403
 20
8.4391332019
 30
0.0
 10
11.7435327727
 20
8.440392711
 30
0.0
 10
11.7437425698
 20
8.441652795
 30
0.0
 10
11.7441752211
 20
8.4429081565
 30
0.0
 10
11.744841358
 20
8.4441519852
 30
0.0
 10
11.7457424355
 20
8.4453805387
 30
0.0
 10
11.7464656286
 20
8.4461511865
 30
0.0
 10
11.7468615814
 20
8.4465336476
 30
0.0
  0
SPLINE
  5
369
100
AcDbEntity
  8
0
100
AcDbSpline
 62
7
  6
CONTINUOUS
 70
0
 71
3
 72
18
 73
14
 74
0
 42
0.0000001
 43
0.0000001
 44
0.0000000001
 40
0.0
 40
0.0
 40
0.0
 40
0.0
 40
0.0425224165
 40
0.0879895544
 40
0.1364479599
 40
0.1879079741
 40
0.242332731
 40
0.2996292779
 40
0.4223401297
 40
0.5549588681
 40
0.696246145
 40
0.8449609596
 40
1.0
 40
1.0
 40
1.0
 40
1.0
 10
11.7468615814
 20
8.4465336476
 30
0.0
 10
11.7471778505
 20
8.4468391401
 30
0.0
 10
11.7478572683
 20
8.4474457204
 30
0.0
 10
11.748969278
 20
8.4483155044
 30
0.0
 10
11.7502041537
 20
8.4491742516
 30
0.0
 10
11.7515580263
 20
8.4500204909
 30
0.0
 10
11.7530261349
 20
8.4508533099
 30
0.0
 10
11.7551774841
 20
8.4519716554
 30
0.0
 10
11.7581164083
 20
8.4533230286
 30
0.0
 10
11.7619217286
 20
8.4548558557
 30
0.0
 10
11.7660340647
 20
8.4563373865
 30
0.0
 10
11.7704079421
 20
8.4577702465
 30
0.0
 10
11.7734152486
 20
8.4586780521
 30
0.0
 10
11.7749542688
 20
8.4591272509
 30
0.0
  0
SPLINE
  5
36A
100
AcDbEntity
  8
0
100
AcDbSpline
 62
7
  6
CONTINUOUS
 70
0
 71
3
 72
20
 73
16
 74
0
 42
0.0000001
 43
0.0000001
 44
0.0000000001
 40
0.0
 40
0.0
 40
0.0
 40
0.0
 40
0.1279576444
 40
0.1917806282
 40
0.2554383146
 40
0.3820829438
 40
0.4450588685
 40
0.5077435858
 40
0.5701251026
 40
0.6322109476
 40
0.6940157485
 40
0.75557502
 40
0.8169179634
 40
0.8780932185
 40
1.0
 40
1.0
 40
1.0
 40
1.0
 10
11.7890006063
 20
8.5634920049
 30
0.0
 10
11.786417304
 20
8.5595771269
 30
0.0
 10
11.7827356042
 20
8.553577767
 30
0.0
 10
11.778372955
 20
8.5452891069
 30
0.0
 10
11.774451955
 20
8.5368365704
 30
0.0
 10
11.7712673544
 20
8.5280839497
 30
0.0
 10
11.769025887
 20
8.5191042462
 30
0.0
 10
11.7678463378
 20
8.5123063526
 30
0.0
 10
11.7671885371
 20
8.5054712633
 30
0.0
 10
11.7670403571
 20
8.4986387515
 30
0.0
 10
11.7673842004
 20
8.4918441156
 30
0.0
 10
11.7681762642
 20
8.4851154284
 30
0.0
 10
11.7693740147
 20
8.4784711239
 30
0.0
 10
11.7714410895
 20
8.4697499276
 30
0.0
 10
11.7734581047
 20
8.4633379232
 30
0.0
 10
11.7749542688
 20
8.4591272509
 30
0.0
  0
SPLINE
  5
36B
100
AcDbEntity
  8
0
100
AcDbSpline
 62
7
  6
CONTINUOUS
 70
0
 71
3
 72
23
 73
19
 74
0
 42
0.0000001
 43
0.0000001
 44
0.0000000001
 40
0.0
 40
0.0
 40
0.0
 40
0.0
 40
0.114410013
 40
0.1714388058
 40
0.2285138174
 40
0.2858716518
 40
0.3437940818
 40
0.4026189877
 40
0.4626690718
 40
0.5242296999
 40
0.5874722307
 40
0.6197545295
 40
0.6524722484
 40
0.7191568816
 40
0.7874155163
 40
0.8570974724
 40
0.9280163351
 40
1.0
 40
1.0
 40
1.0
 40
1.0
 10
11.7749542688
 20
8.640721317
 30
0.0
 10
11.7734670737
 20
8.6378692673
 30
0.0
 10
11.7714496853
 20
8.63347532
 30
0.0
 10
11.7693753077
 20
8.6273900351
 30
0.0
 10
11.7681753965
 20
8.622715505
 30
0.0
 10
11.7673822907
 20
8.6179285815
 30
0.0
 10
11.7670395199
 20
8.6130379588
 30
0.0
 10
11.7671914675
 20
8.6080613542
 30
0.0
 10
11.7678554527
 20
8.6030236279
 30
0.0
 10
11.769041861
 20
8.5979559279
 30
0.0
 10
11.7704361984
 20
8.5937592993
 30
0.0
 10
11.771782434
 20
8.5904138626
 30
0.0
 10
11.773295929
 20
8.587034305
 30
0.0
 10
11.7754546605
 20
8.582839664
 30
0.0
 10
11.7784011959
 20
8.57789526
 30
0.0
 10
11.7816692931
 20
8.5730141307
 30
0.0
 10
11.7852129673
 20
8.5681994604
 30
0.0
 10
11.7877155575
 20
8.5650553907
 30
0.0
 10
11.7890006063
 20
8.5634920049
 30
0.0
  0
SPLINE
  5
36C
100
AcDbEntity
  8
0
100
AcDbSpline
 62
7
  6
CONTINUOUS
 70
0
 71
3
 72
63
 73
59
 74
0
 42
0.0000001
 43
0.0000001
 44
0.0000000001
 40
0.0
 40
0.0
 40
0.0
 40
0.0
 40
0.0077143971
 40
0.0147656839
 40
0.0212500173
 40
0.0243218876
 40
0.02730499
 40
0.0302217381
 40
0.033096157
 40
0.0359534015
 40
0.0388191433
 40
0.0417188291
 40
0.0446768158
 40
0.0508513814
 40
0.0575072571
 40
0.064767983
 40
0.0727226578
 40
0.0814337901
 40
0.0909437372
 40
0.1012765947
 40
0.1124446844
 40
0.1244518788
 40
0.1372922543
 40
0.150954149
 40
0.165422035
 40
0.1806740601
 40
0.196684874
 40
0.2134271296
 40
0.2308689023
 40
0.2489757121
 40
0.2677119583
 40
0.2870386269
 40
0.3272971199
 40
0.3694080957
 40
0.4130034884
 40
0.4576971933
 40
0.5030911024
 40
0.5487783874
 40
0.5943492408
 40
0.6393950882
 40
0.6835131236
 40
0.726311968
 40
0.7674148446
 40
0.8064661085
 40
0.8251192264
 40
0.8431382039
 40
0.8604864335
 40
0.877131197
 40
0.8930411843
 40
0.9081878033
 40
0.9225474266
 40
0.9360989435
 40
0.9488255676
 40
0.9607186214
 40
0.9717747423
 40
0.9819970252
 40
0.9913976939
 40
1.0
 40
1.0
 40
1.0
 40
1.0
 10
11.7611804011
 20
8.2792198961
 30
0.0
 10
11.760110201
 20
8.2782242381
 30
0.0
 10
11.7579707221
 20
8.2764116459
 30
0.0
 10
11.7546081874
 20
8.2741786008
 30
0.0
 10
11.7517572733
 20
8.2728142811
 30
0.0
 10
11.7495000718
 20
8.272064201
 30
0.0
 10
11.7478438761
 20
8.2716706511
 30
0.0
 10
11.7461954093
 20
8.2714365721
 30
0.0
 10
11.7445558115
 20
8.2713622437
 30
0.0
 10
11.7429263927
 20
8.2714478928
 30
0.0
 10
11.74130852
 20
8.2716935834
 30
0.0
 10
11.7397034978
 20
8.2720992159
 30
0.0
 10
11.7375522099
 20
8.2728626849
 30
0.0
 10
11.7348804682
 20
8.2742431344
 30
0.0
 10
11.731802102
 20
8.2765041186
 30
0.0
 10
11.7288072059
 20
8.2793831959
 30
0.0
 10
11.72589842
 20
8.2828703807
 30
0.0
 10
11.7230790127
 20
8.2869578879
 30
0.0
 10
11.720354454
 20
8.2916373352
 30
0.0
 10
11.717729169
 20
8.2968980629
 30
0.0
 10
11.7152088319
 20
8.3027285357
 30
0.0
 10
11.7127998791
 20
8.3091158604
 30
0.0
 10
11.7105072672
 20
8.3160450494
 30
0.0
 10
11.7083363988
 20
8.3234999736
 30
0.0
 10
11.7062931308
 20
8.3314633164
 30
0.0
 10
11.7043818773
 20
8.3399161201
 30
0.0
 10
11.70260715
 20
8.348838321
 30
0.0
 10
11.7009738298
 20
8.3582088348
 30
0.0
 10
11.6994854807
 20
8.3680052703
 30
0.0
 10
11.6981455507
 20
8.3782042229
 30
0.0
 10
11.6969577825
 20
8.3887814485
 30
0.0
 10
11.6955614977
 20
8.403556685
 30
0.0
 10
11.6942312524
 20
8.422783769
 30
0.0
 10
11.6932954365
 20
8.4466365126
 30
0.0
 10
11.6930092921
 20
8.4713461995
 30
0.0
 10
11.6933754438
 20
8.4966766911
 30
0.0
 10
11.6943911168
 20
8.5223860441
 30
0.0
 10
11.6960467931
 20
8.5482286154
 30
0.0
 10
11.6983262775
 20
8.5739574585
 30
0.0
 10
11.7012080986
 20
8.5993266797
 30
0.0
 10
11.7046644335
 20
8.624093954
 30
0.0
 10
11.7086614723
 20
8.6480229115
 30
0.0
 10
11.7131610748
 20
8.6708849421
 30
0.0
 10
11.7173543611
 20
8.6891354187
 30
0.0
 10
11.7209428933
 20
8.7030283043
 30
0.0
 10
11.7236903933
 20
8.7128892048
 30
0.0
 10
11.7265288958
 20
8.7223276384
 30
0.0
 10
11.7294511121
 20
8.7313213106
 30
0.0
 10
11.7324501611
 20
8.7398487736
 30
0.0
 10
11.7355192592
 20
8.7478895812
 30
0.0
 10
11.7386503659
 20
8.7554248621
 30
0.0
 10
11.7418359727
 20
8.7624367777
 30
0.0
 10
11.7450690675
 20
8.7689087236
 30
0.0
 10
11.7483417362
 20
8.77482619
 30
0.0
 10
11.7516466544
 20
8.7801757994
 30
0.0
 10
11.7549770388
 20
8.7849448217
 30
0.0
 10
11.7583234227
 20
8.7891219532
 30
0.0
 10
11.7606610657
 20
8.7916132818
 30
0.0
 10
11.7618334326
 20
8.7927457013
 30
0.0
  0
SPLINE
  5
36D
100
AcDbEntity
  8
0
100
AcDbSpline
 62
7
  6
CONTINUOUS
 70
0
 71
3
 72
32
 73
28
 74
0
 42
0.0000001
 43
0.0000001
 44
0.0000000001
 40
0.0
 40
0.0
 40
0.0
 40
0.0
 40
0.0140768433
 40
0.0283930948
 40
0.0431741986
 40
0.0586228648
 40
0.074914816
 40
0.0921978057
 40
0.1105901467
 40
0.1301844697
 40
0.1510533481
 40
0.1732530893
 40
0.1968244704
 40
0.2217933535
 40
0.2481763975
 40
0.2759832721
 40
0.3052172304
 40
0.3358721708
 40
0.3679364487
 40
0.401395258
 40
0.4724172515
 40
0.5487429648
 40
0.630127663
 40
0.7162838708
 40
0.8068871215
 40
0.9015868947
 40
1.0
 40
1.0
 40
1.0
 40
1.0
 10
11.7269033014
 20
8.2565386375
 30
0.0
 10
11.726109806
 20
8.2565936514
 30
0.0
 10
11.7245148452
 20
8.2568141519
 30
0.0
 10
11.7221583247
 20
8.2574702855
 30
0.0
 10
11.7198328141
 20
8.2584499089
 30
0.0
 10
11.7175418804
 20
8.2597500031
 30
0.0
 10
11.7152876399
 20
8.2613678448
 30
0.0
 10
11.7130723452
 20
8.2633011373
 30
0.0
 10
11.7108975386
 20
8.2655468433
 30
0.0
 10
11.7087647987
 20
8.2681019436
 30
0.0
 10
11.7066759958
 20
8.270963607
 30
0.0
 10
11.7046332906
 20
8.2741289883
 30
0.0
 10
11.7026388369
 20
8.2775947036
 30
0.0
 10
11.7006944131
 20
8.2813566685
 30
0.0
 10
11.698802134
 20
8.2854106718
 30
0.0
 10
11.6969641456
 20
8.2897523815
 30
0.0
 10
11.6951827774
 20
8.2943771467
 30
0.0
 10
11.693459805
 20
8.2992796169
 30
0.0
 10
11.6917970666
 20
8.3044541082
 30
0.0
 10
11.6896195757
 20
8.3118565134
 30
0.0
 10
11.6870791091
 20
8.3217554662
 30
0.0
 10
11.6843557851
 20
8.3343923634
 30
0.0
 10
11.6819137313
 20
8.3479561628
 30
0.0
 10
11.6797641575
 20
8.362385109
 30
0.0
 10
11.6779169438
 20
8.3776137947
 30
0.0
 10
11.6763813771
 20
8.3935726704
 30
0.0
 10
11.6755838542
 20
8.4044562015
 30
0.0
 10
11.6752355354
 20
8.4100060311
 30
0.0
  0
SPLINE
  5
36E
100
AcDbEntity
  8
0
100
AcDbSpline
 62
7
  6
CONTINUOUS
 70
0
 71
3
 72
22
 73
18
 74
0
 42
0.0000001
 43
0.0000001
 44
0.0000000001
 40
0.0
 40
0.0
 40
0.0
 40
0.0
 40
0.1682325539
 40
0.2486797246
 40
0.3264302259
 40
0.4013045849
 40
0.4731396401
 40
0.5417859928
 40
0.6071016578
 40
0.668966521
 40
0.7272777631
 40
0.7819474888
 40
0.8329246413
 40
0.8801879282
 40
0.923745346
 40
0.9636479721
 40
1.0
 40
1.0
 40
1.0
 40
1.0
 10
11.6928867029
 20
8.6703021564
 30
0.0
 10
11.6945416802
 20
8.6785799686
 30
0.0
 10
11.6971779853
 20
8.6907799047
 30
0.0
 10
11.7010710726
 20
8.7066909868
 30
0.0
 10
11.7040666112
 20
8.7179968429
 30
0.0
 10
11.7071739075
 20
8.7288236333
 30
0.0
 10
11.7103846224
 20
8.7391428344
 30
0.0
 10
11.7136897346
 20
8.7489273453
 30
0.0
 10
11.7170811235
 20
8.7581511802
 30
0.0
 10
11.7205493921
 20
8.7667901374
 30
0.0
 10
11.7240847771
 20
8.7748217117
 30
0.0
 10
11.7276786663
 20
8.7822247816
 30
0.0
 10
11.7313215201
 20
8.7889806713
 30
0.0
 10
11.7350039304
 20
8.7950726736
 30
0.0
 10
11.7387177721
 20
8.8004848936
 30
0.0
 10
11.7424516365
 20
8.805203115
 30
0.0
 10
11.7450666374
 20
8.808005034
 30
0.0
 10
11.7463786185
 20
8.8092723105
 30
0.0
  0
SPLINE
  5
36F
100
AcDbEntity
  8
0
100
AcDbSpline
 62
7
  6
CONTINUOUS
 70
0
 71
3
 72
23
 73
19
 74
0
 42
0.0000001
 43
0.0000001
 44
0.0000000001
 40
0.0
 40
0.0
 40
0.0
 40
0.0
 40
0.0755493506
 40
0.1465781137
 40
0.2134209155
 40
0.2764972924
 40
0.3363264137
 40
0.393550056
 40
0.4489238843
 40
0.5032842931
 40
0.5575175409
 40
0.6125176493
 40
0.6691350224
 40
0.7281410513
 40
0.790210366
 40
0.8559157723
 40
0.9257235102
 40
1.0
 40
1.0
 40
1.0
 40
1.0
 10
11.7618334326
 20
8.7927457013
 30
0.0
 10
11.7625708944
 20
8.7934580348
 30
0.0
 10
11.7640452596
 20
8.7947961717
 30
0.0
 10
11.7663274654
 20
8.7965841374
 30
0.0
 10
11.7686075388
 20
8.7980866324
 30
0.0
 10
11.7708830528
 20
8.7993009887
 30
0.0
 10
11.7731519243
 20
8.8002241346
 30
0.0
 10
11.775411596
 20
8.8008534276
 30
0.0
 10
11.777658963
 20
8.8011873098
 30
0.0
 10
11.7798904776
 20
8.8012243755
 30
0.0
 10
11.7821020166
 20
8.8009639584
 30
0.0
 10
11.7842892291
 20
8.8004064099
 30
0.0
 10
11.7864484857
 20
8.7995541807
 30
0.0
 10
11.7885770015
 20
8.7984099094
 30
0.0
 10
11.7906726306
 20
8.7969760694
 30
0.0
 10
11.7927334107
 20
8.7952546758
 30
0.0
 10
11.7947576429
 20
8.7932483491
 30
0.0
 10
11.7960406529
 20
8.7917701862
 30
0.0
 10
11.7966766792
 20
8.7909881286
 30
0.0
  0
SPLINE
  5
370
100
AcDbEntity
  8
0
100
AcDbSpline
 62
7
  6
CONTINUOUS
 70
0
 71
3
 72
15
 73
11
 74
0
 42
0.0000001
 43
0.0000001
 44
0.0000000001
 40
0.0
 40
0.0
 40
0.0
 40
0.0
 40
0.1503976655
 40
0.2916425529
 40
0.4244293543
 40
0.5496321216
 40
0.668336215
 40
0.7818867034
 40
0.8918610193
 40
1.0
 40
1.0
 40
1.0
 40
1.0
 10
11.7463786185
 20
8.8092723105
 30
0.0
 10
11.747173938
 20
8.8100405302
 30
0.0
 10
11.7487639533
 20
8.8114821003
 30
0.0
 10
11.7512265851
 20
8.8134036251
 30
0.0
 10
11.7536868664
 20
8.8150116011
 30
0.0
 10
11.7561421307
 20
8.8163030201
 30
0.0
 10
11.7585900408
 20
8.8172743708
 30
0.0
 10
11.7610278286
 20
8.8179227766
 30
0.0
 10
11.7634513849
 20
8.8182464906
 30
0.0
 10
11.7650607791
 20
8.8182447015
 30
0.0
 10
11.7658539356
 20
8.818189711
 30
0.0
  0
SPLINE
  5
371
100
AcDbEntity
  8
0
100
AcDbSpline
 62
7
  6
CONTINUOUS
 70
0
 71
3
 72
45
 73
41
 74
0
 42
0.0000001
 43
0.0000001
 44
0.0000000001
 40
0.0
 40
0.0
 40
0.0
 40
0.0
 40
0.0076480343
 40
0.0158896017
 40
0.0247408421
 40
0.0342116065
 40
0.0443069289
 40
0.0550271324
 40
0.0663689155
 40
0.0783265982
 40
0.1040535229
 40
0.1321079566
 40
0.1623566504
 40
0.1946403323
 40
0.2287792692
 40
0.2645769189
 40
0.3018196094
 40
0.3402837682
 40
0.3797328722
 40
0.4199250105
 40
0.5015310977
 40
0.5830779812
 40
0.6231965603
 40
0.6625435325
 40
0.7008776836
 40
0.7379638239
 40
0.7735793224
 40
0.8075127589
 40
0.8395686733
 40
0.8695701222
 40
0.8973600091
 40
0.9228103294
 40
0.9346261977
 40
0.9458239439
 40
0.9563982537
 40
0.9663462811
 40
0.9756693269
 40
0.9843756122
 40
0.9924789899
 40
1.0
 40
1.0
 40
1.0
 40
1.0
 10
12.2944825643
 20
9.4463386144
 30
0.0
 10
12.2937980155
 20
9.445677391
 30
0.0
 10
12.2924315454
 20
9.4442452353
 30
0.0
 10
12.2904595682
 20
9.4418784312
 30
0.0
 10
12.2884936133
 20
9.4392188463
 30
0.0
 10
12.2865374593
 20
9.4362712217
 30
0.0
 10
12.2845949521
 20
9.4330401507
 30
0.0
 10
12.2826691805
 20
9.4295311909
 30
0.0
 10
12.2807629502
 20
9.4257502329
 30
0.0
 10
12.2781883517
 20
9.4202181484
 30
0.0
 10
12.2750596634
 20
9.4126548326
 30
0.0
 10
12.2715155798
 20
9.4028135695
 30
0.0
 10
12.2681210624
 20
9.3920610895
 30
0.0
 10
12.2648985209
 20
9.3804684512
 30
0.0
 10
12.2618697216
 20
9.3681117902
 30
0.0
 10
12.2590552515
 20
9.3550727661
 30
0.0
 10
12.2564735368
 20
9.3414376295
 30
0.0
 10
12.2541427125
 20
9.3272967801
 30
0.0
 10
12.2520773708
 20
9.3127439491
 30
0.0
 10
12.2496857048
 20
9.2928195289
 30
0.0
 10
12.2474553039
 20
9.2676055278
 30
0.0
 10
12.2462438165
 20
9.2423312127
 30
0.0
 10
12.2459120859
 20
9.2222957301
 30
0.0
 10
12.2459860525
 20
9.2076352922
 30
0.0
 10
12.2463797922
 20
9.1933574219
 30
0.0
 10
12.2470912043
 20
9.1795566568
 30
0.0
 10
12.2481149504
 20
9.1663245823
 30
0.0
 10
12.2494440413
 20
9.153748723
 30
0.0
 10
12.2510695473
 20
9.1419122519
 30
0.0
 10
12.2529796087
 20
9.130892964
 30
0.0
 10
12.2551621815
 20
9.1207634914
 30
0.0
 10
12.25724246
 20
9.1129351369
 30
0.0
 10
12.2590488085
 20
9.1071800758
 30
0.0
 10
12.2604284299
 20
9.1032336677
 30
0.0
 10
12.2618641858
 20
9.0995556703
 30
0.0
 10
12.2633538885
 20
9.0961522049
 30
0.0
 10
12.2648954944
 20
9.0930289805
 30
0.0
 10
12.2664863149
 20
9.0901905946
 30
0.0
 10
12.2681237332
 20
9.0876414692
 30
0.0
 10
12.2692872605
 20
9.0860808979
 30
0.0
 10
12.2698778504
 20
9.0853548209
 30
0.0
  0
SPLINE
  5
372
100
AcDbEntity
  8
0
100
AcDbSpline
 62
7
  6
CONTINUOUS
 70
0
 71
3
 72
52
 73
48
 74
0
 42
0.0000001
 43
0.0000001
 44
0.0000000001
 40
0.0
 40
0.0
 40
0.0
 40
0.0
 40
0.0075207344
 40
0.0156241858
 40
0.0243316716
 40
0.0336557033
 40
0.0436034124
 40
0.054177763
 40
0.0653763812
 40
0.0771930412
 40
0.0896195436
 40
0.1026455035
 40
0.1162568404
 40
0.1304378619
 40
0.1604394309
 40
0.1924952583
 40
0.2264289105
 40
0.2620436705
 40
0.2991298945
 40
0.3374629427
 40
0.3768096521
 40
0.4169269968
 40
0.4575668907
 40
0.4984762595
 40
0.5394005102
 40
0.5800843657
 40
0.6202751276
 40
0.6597231079
 40
0.6981858351
 40
0.7354273254
 40
0.7712236588
 40
0.8053614694
 40
0.8376440574
 40
0.8530328843
 40
0.8678925196
 40
0.8822035392
 40
0.8959477652
 40
0.9091100049
 40
0.9216765498
 40
0.933634922
 40
0.9449758256
 40
0.9556943482
 40
0.9657881061
 40
0.9752577793
 40
0.9841084693
 40
0.9923503893
 40
1.0
 40
1.0
 40
1.0
 40
1.0
 10
12.3497986789
 20
9.6695750004
 30
0.0
 10
12.3511261644
 20
9.6679427251
 30
0.0
 10
12.353741942
 20
9.6644347244
 30
0.0
 10
12.3574228514
 20
9.6587038532
 30
0.0
 10
12.3609983172
 20
9.6523219676
 30
0.0
 10
12.3644633786
 20
9.6453000919
 30
0.0
 10
12.3678126815
 20
9.6376490138
 30
0.0
 10
12.3710401605
 20
9.6293805556
 30
0.0
 10
12.3741409552
 20
9.6205082633
 30
0.0
 10
12.3771103046
 20
9.6110468596
 30
0.0
 10
12.3799430519
 20
9.6010116046
 30
0.0
 10
12.3826339382
 20
9.5904187545
 30
0.0
 10
12.3851791351
 20
9.5792859945
 30
0.0
 10
12.3884340393
 20
9.5634479812
 30
0.0
 10
12.3920769456
 20
9.5424277826
 30
0.0
 10
12.3957309037
 20
9.5158192756
 30
0.0
 10
12.3987179834
 20
9.4875485399
 30
0.0
 10
12.4010195469
 20
9.4578027335
 30
0.0
 10
12.4026178101
 20
9.4267787932
 30
0.0
 10
12.4035033941
 20
9.3946822166
 30
0.0
 10
12.4036685361
 20
9.3617260855
 30
0.0
 10
12.40311305
 20
9.3281289434
 30
0.0
 10
12.4018396237
 20
9.2941139715
 30
0.0
 10
12.3998569913
 20
9.259906898
 30
0.0
 10
12.3971783229
 20
9.2257349429
 30
0.0
 10
12.3938209622
 20
9.1918249523
 30
0.0
 10
12.3898081768
 20
9.1584020873
 30
0.0
 10
12.3851655592
 20
9.1256882098
 30
0.0
 10
12.3799256865
 20
9.0939003651
 30
0.0
 10
12.3741220206
 20
9.0632494545
 30
0.0
 10
12.3677952523
 20
9.033938408
 30
0.0
 10
12.36098618
 20
9.0061616995
 30
0.0
 10
12.3548559854
 20
8.9841069996
 30
0.0
 10
12.3497259218
 20
8.967382113
 30
0.0
 10
12.3458487222
 20
8.9555340137
 30
0.0
 10
12.3418867453
 20
8.9442002035
 30
0.0
 10
12.3378460296
 20
8.9333996979
 30
0.0
 10
12.3337338745
 20
8.9231501041
 30
0.0
 10
12.3295573833
 20
8.9134682026
 30
0.0
 10
12.325323255
 20
8.9043702271
 30
0.0
 10
12.3210381269
 20
8.8958711172
 30
0.0
 10
12.3167092663
 20
8.8879840512
 30
0.0
 10
12.3123434662
 20
8.8807213751
 30
0.0
 10
12.3079470335
 20
8.8740954382
 30
0.0
 10
12.3035276605
 20
8.8681169795
 30
0.0
 10
12.2990941218
 20
8.8627962659
 30
0.0
 10
12.2960217603
 20
8.8595765006
 30
0.0
 10
12.2944825643
 20
8.8580897514
 30
0.0
  0
SPLINE
  5
373
100
AcDbEntity
  8
0
100
AcDbSpline
 62
7
  6
CONTINUOUS
 70
0
 71
3
 72
11
 73
7
 74
0
 42
0.0000001
 43
0.0000001
 44
0.0000000001
 40
0.0
 40
0.0
 40
0.0
 40
0.0
 40
0.2686945819
 40
0.5262742306
 40
0.7707647968
 40
1.0
 40
1.0
 40
1.0
 40
1.0
 10
12.3113101978
 20
9.4394385245
 30
0.0
 10
12.3087195245
 20
9.4386823765
 30
0.0
 10
12.3036589395
 20
9.4371540187
 30
0.0
 10
12.2963022036
 20
9.4347406437
 30
0.0
 10
12.289392754
 20
9.4322447643
 30
0.0
 10
12.284980518
 20
9.4304589191
 30
0.0
 10
12.2828690209
 20
9.4295408774
 30
0.0
  0
SPLINE
  5
374
100
AcDbEntity
  8
0
100
AcDbSpline
 62
7
  6
CONTINUOUS
 70
0
 71
3
 72
15
 73
11
 74
0
 42
0.0000001
 43
0.0000001
 44
0.0000000001
 40
0.0
 40
0.0
 40
0.0
 40
0.0
 40
0.1491826272
 40
0.2896083733
 40
0.4219651613
 40
0.5471094051
 40
0.6660950005
 40
0.7802162955
 40
0.890970686
 40
1.0
 40
1.0
 40
1.0
 40
1.0
 10
12.2779588467
 20
8.8426931422
 30
0.0
 10
12.2767645194
 20
8.8415817191
 30
0.0
 10
12.2743767352
 20
8.8394965092
 30
0.0
 10
12.2706837257
 20
8.8367219613
 30
0.0
 10
12.2669951469
 20
8.8344022471
 30
0.0
 10
12.2633147896
 20
8.8325416157
 30
0.0
 10
12.2596459804
 20
8.8311449851
 30
0.0
 10
12.2559927672
 20
8.8302158805
 30
0.0
 10
12.2523608257
 20
8.8297565827
 30
0.0
 10
12.2499492095
 20
8.8297650707
 30
0.0
 10
12.2487597173
 20
8.8298475395
 30
0.0
  0
SPLINE
  5
375
100
AcDbEntity
  8
0
100
AcDbSpline
 62
7
  6
CONTINUOUS
 70
0
 71
3
 72
15
 73
11
 74
0
 42
0.0000001
 43
0.0000001
 44
0.0000000001
 40
0.0
 40
0.0
 40
0.0
 40
0.0
 40
0.1090340757
 40
0.219795838
 40
0.3339183198
 40
0.4528793009
 40
0.5779704975
 40
0.7102896908
 40
0.8507310287
 40
1.0
 40
1.0
 40
1.0
 40
1.0
 10
12.309295783
 20
9.702751073
 30
0.0
 10
12.310485335
 20
9.7026686
 30
0.0
 10
12.3128752121
 20
9.7023441413
 30
0.0
 10
12.3164089667
 20
9.7013871025
 30
0.0
 10
12.3198985794
 20
9.6999621739
 30
0.0
 10
12.323339009
 20
9.6980734121
 30
0.0
 10
12.3267271827
 20
9.6957245598
 30
0.0
 10
12.3300599385
 20
9.6929186881
 30
0.0
 10
12.3333346601
 20
9.6896599239
 30
0.0
 10
12.3354121561
 20
9.6872639333
 30
0.0
 10
12.3364421761
 20
9.6859974993
 30
0.0
  0
SPLINE
  5
376
100
AcDbEntity
  8
0
100
AcDbSpline
 62
7
  6
CONTINUOUS
 70
0
 71
3
 72
54
 73
50
 74
0
 42
0.0000001
 43
0.0000001
 44
0.0000000001
 40
0.0
 40
0.0
 40
0.0
 40
0.0
 40
0.0086007063
 40
0.0180013121
 40
0.0282245273
 40
0.0392821733
 40
0.0511770453
 40
0.0639043917
 40
0.0774547827
 40
0.091814537
 40
0.1069621383
 40
0.1228720285
 40
0.1568645699
 40
0.1935351672
 40
0.2325880819
 40
0.2736916608
 40
0.3164919208
 40
0.3606110468
 40
0.4056583164
 40
0.4512303841
 40
0.4969192133
 40
0.5423143242
 40
0.5870098801
 40
0.6306063328
 40
0.6727191713
 40
0.712979107
 40
0.7510419255
 40
0.7865904611
 40
0.819342584
 40
0.8345952089
 40
0.849064206
 40
0.8627269912
 40
0.8755674627
 40
0.8875754386
 40
0.898745099
 40
0.9090779845
 40
0.918588093
 40
0.9273007512
 40
0.9352559376
 40
0.9425164512
 40
0.9491731625
 40
0.9553482378
 40
0.9611992437
 40
0.9669155621
 40
0.9727007343
 40
0.9787514506
 40
0.985237
 40
0.9922877177
 40
1.0
 40
1.0
 40
1.0
 40
1.0
 10
12.2944825643
 20
9.0841164081
 30
0.0
 10
12.2953103204
 20
9.0849159591
 30
0.0
 10
12.2969608951
 20
9.0866752254
 30
0.0
 10
12.2993238824
 20
9.0896250768
 30
0.0
 10
12.3016760526
 20
9.0929930716
 30
0.0
 10
12.3040106078
 20
9.096771161
 30
0.0
 10
12.3063218691
 20
9.1009505468
 30
0.0
 10
12.3086050598
 20
9.1055211436
 30
0.0
 10
12.3108549206
 20
9.110472725
 30
0.0
 10
12.3130658388
 20
9.1157941353
 30
0.0
 10
12.315233021
 20
9.1214726709
 30
0.0
 10
12.3181213813
 20
9.1296846484
 30
0.0
 10
12.3215627091
 20
9.14075039
 30
0.0
 10
12.325354241
 20
9.1549367024
 30
0.0
 10
12.3288552712
 20
9.1701751592
 30
0.0
 10
12.3320332443
 20
9.1863205486
 30
0.0
 10
12.3348558311
 20
9.2032192852
 30
0.0
 10
12.3372968837
 20
9.2207101118
 30
0.0
 10
12.339331972
 20
9.2386260242
 30
0.0
 10
12.3409418898
 20
9.2567959382
 30
0.0
 10
12.3421112348
 20
9.2750461479
 30
0.0
 10
12.3428283482
 20
9.293202369
 30
0.0
 10
12.3430873814
 20
9.311090983
 30
0.0
 10
12.3428849164
 20
9.328541242
 30
0.0
 10
12.3422244999
 20
9.3453864397
 30
0.0
 10
12.3411117177
 20
9.3614659664
 30
0.0
 10
12.3395588504
 20
9.3766268312
 30
0.0
 10
12.3375808206
 20
9.39072468
 30
0.0
 10
12.3355500759
 20
9.4017237324
 30
0.0
 10
12.3337064184
 20
9.4098784282
 30
0.0
 10
12.3322635288
 20
9.4155024196
 30
0.0
 10
12.3307305924
 20
9.4207673093
 30
0.0
 10
12.3291113523
 20
9.4256607896
 30
0.0
 10
12.3274100861
 20
9.4301717373
 30
0.0
 10
12.3256306553
 20
9.4342896612
 30
0.0
 10
12.3237764813
 20
9.4380048817
 30
0.0
 10
12.3218521174
 20
9.4413095107
 30
0.0
 10
12.319861495
 20
9.4441966659
 30
0.0
 10
12.3178072355
 20
9.4466595874
 30
0.0
 10
12.3156918316
 20
9.4486923351
 30
0.0
 10
12.3135177995
 20
9.4502896202
 30
0.0
 10
12.3112870128
 20
9.4514438825
 30
0.0
 10
12.3090037894
 20
9.4521442179
 30
0.0
 10
12.3066788598
 20
9.4523827525
 30
0.0
 10
12.3043263222
 20
9.452157406
 30
0.0
 10
12.3019592882
 20
9.4514721003
 30
0.0
 10
12.2995862185
 20
9.4503359743
 30
0.0
 10
12.297211163
 20
9.4487594204
 30
0.0
 10
12.2957005095
 20
9.4474798178
 30
0.0
 10
12.2949449052
 20
9.4467769441
 30
0.0
  0
SPLINE
  5
377
100
AcDbEntity
  8
0
100
AcDbSpline
 62
7
  6
CONTINUOUS
 70
0
 71
3
 72
21
 73
17
 74
0
 42
0.0000001
 43
0.0000001
 44
0.0000000001
 40
0.0
 40
0.0
 40
0.0
 40
0.0
 40
0.1439903856
 40
0.2097046377
 40
0.2717890401
 40
0.3308081086
 40
0.3874323522
 40
0.4424387743
 40
0.4966836257
 40
0.5510596797
 40
0.6064537761
 40
0.6637059519
 40
0.7235674236
 40
0.7866664477
 40
0.8535213386
 40
1.0
 40
1.0
 40
1.0
 40
1.0
 10
12.2698778504
 20
9.0853548209
 30
0.0
 10
12.2707483979
 20
9.0842845614
 30
0.0
 10
12.2721168366
 20
9.0827991446
 30
0.0
 10
12.2741179023
 20
9.0811280635
 30
0.0
 10
12.2755976644
 20
9.0801154233
 30
0.0
 10
12.2771005122
 20
9.0793071944
 30
0.0
 10
12.2786252278
 20
9.078705564
 30
0.0
 10
12.2801697238
 20
9.0783124021
 30
0.0
 10
12.2817313548
 20
9.0781286499
 30
0.0
 10
12.2833072244
 20
9.07815481
 30
0.0
 10
12.2848944445
 20
9.0783906627
 30
0.0
 10
12.2864903908
 20
9.0788355653
 30
0.0
 10
12.2880926854
 20
9.0794880819
 30
0.0
 10
12.2896997763
 20
9.0803457912
 30
0.0
 10
12.2919136562
 20
9.0818047714
 30
0.0
 10
12.2934731299
 20
9.0831413693
 30
0.0
 10
12.2944825643
 20
9.0841164081
 30
0.0
  0
SPLINE
  5
378
100
AcDbEntity
  8
0
100
AcDbSpline
 62
7
  6
CONTINUOUS
 70
0
 71
3
 72
11
 73
7
 74
0
 42
0.0000001
 43
0.0000001
 44
0.0000000001
 40
0.0
 40
0.0
 40
0.0
 40
0.0
 40
0.2225841525
 40
0.4594171904
 40
0.7169273451
 40
1.0
 40
1.0
 40
1.0
 40
1.0
 10
12.2592670485
 20
9.1074004978
 30
0.0
 10
12.2594207417
 20
9.1081529941
 30
0.0
 10
12.2598814659
 20
9.1096799533
 30
0.0
 10
12.260996135
 20
9.1119002649
 30
0.0
 10
12.2625603741
 20
9.1140905653
 30
0.0
 10
12.2638363312
 20
9.1154581207
 30
0.0
 10
12.2645388619
 20
9.1161367133
 30
0.0
  0
SPLINE
  5
379
100
AcDbEntity
  8
0
100
AcDbSpline
 62
7
  6
CONTINUOUS
 70
0
 71
3
 72
18
 73
14
 74
0
 42
0.0000001
 43
0.0000001
 44
0.0000000001
 40
0.0
 40
0.0
 40
0.0
 40
0.0
 40
0.0425237114
 40
0.0879839732
 40
0.1364376024
 40
0.1878971117
 40
0.2423122673
 40
0.2995995956
 40
0.4223202353
 40
0.554940803
 40
0.6962231974
 40
0.8449468071
 40
1.0
 40
1.0
 40
1.0
 40
1.0
 10
12.2645388619
 20
9.1161367133
 30
0.0
 10
12.2650654329
 20
9.1166453419
 30
0.0
 10
12.266196348
 20
9.1176553528
 30
0.0
 10
12.2680473422
 20
9.1191036685
 30
0.0
 10
12.2701032298
 20
9.120533126
 30
0.0
 10
12.2723574608
 20
9.1219412503
 30
0.0
 10
12.2748011881
 20
9.1233280258
 30
0.0
 10
12.2783826483
 20
9.1251902445
 30
0.0
 10
12.283275993
 20
9.127439496
 30
0.0
 10
12.2896113019
 20
9.129992148
 30
0.0
 10
12.296458134
 20
9.1324584558
 30
0.0
 10
12.3037404749
 20
9.1348441019
 30
0.0
 10
12.3087476559
 20
9.1363557857
 30
0.0
 10
12.3113101978
 20
9.137103723
 30
0.0
  0
SPLINE
  5
37A
100
AcDbEntity
  8
0
100
AcDbSpline
 62
7
  6
CONTINUOUS
 70
0
 71
3
 72
20
 73
16
 74
0
 42
0.0000001
 43
0.0000001
 44
0.0000000001
 40
0.0
 40
0.0
 40
0.0
 40
0.0
 40
0.127957851
 40
0.1917808583
 40
0.2554385577
 40
0.3820830746
 40
0.4450589297
 40
0.5077435854
 40
0.5701250439
 40
0.6322108177
 40
0.6940155929
 40
0.7555747845
 40
0.8169177403
 40
0.8780930227
 40
1.0
 40
1.0
 40
1.0
 40
1.0
 10
12.3346958554
 20
9.3108599358
 30
0.0
 10
12.330394925
 20
9.3043420699
 30
0.0
 10
12.3242652699
 20
9.2943537668
 30
0.0
 10
12.3170019341
 20
9.2805540071
 30
0.0
 10
12.3104738812
 20
9.2664814403
 30
0.0
 10
12.3051718762
 20
9.2519092633
 30
0.0
 10
12.3014400633
 20
9.2369590294
 30
0.0
 10
12.2994762529
 20
9.2256412693
 30
0.0
 10
12.2983810738
 20
9.2142615855
 30
0.0
 10
12.2981343811
 20
9.2028861893
 30
0.0
 10
12.2987068324
 20
9.1915738539
 30
0.0
 10
12.3000255358
 20
9.1803713108
 30
0.0
 10
12.3020196666
 20
9.1693092543
 30
0.0
 10
12.3054611095
 20
9.1547893713
 30
0.0
 10
12.3088192397
 20
9.1441140557
 30
0.0
 10
12.3113101978
 20
9.137103723
 30
0.0
  0
SPLINE
  5
37B
100
AcDbEntity
  8
0
100
AcDbSpline
 62
7
  6
CONTINUOUS
 70
0
 71
3
 72
23
 73
19
 74
0
 42
0.0000001
 43
0.0000001
 44
0.0000000001
 40
0.0
 40
0.0
 40
0.0
 40
0.0
 40
0.114410198
 40
0.1714390129
 40
0.2285140359
 40
0.2858717957
 40
0.3437942044
 40
0.4026190396
 40
0.4626690727
 40
0.5242296335
 40
0.5874721003
 40
0.6197543812
 40
0.6524720777
 40
0.7191566249
 40
0.7874152741
 40
0.8570972364
 40
0.928016222
 40
1.0
 40
1.0
 40
1.0
 40
1.0
 10
12.3113101978
 20
9.4394385245
 30
0.0
 10
12.3088341722
 20
9.4346901574
 30
0.0
 10
12.3054754207
 20
9.4273746976
 30
0.0
 10
12.3020218192
 20
9.417243329
 30
0.0
 10
12.3000240912
 20
9.4094607371
 30
0.0
 10
12.298703653
 20
9.4014910223
 30
0.0
 10
12.2981329871
 20
9.3933486632
 30
0.0
 10
12.2983859527
 20
9.3850631522
 30
0.0
 10
12.2994914279
 20
9.376675884
 30
0.0
 10
12.3014666586
 20
9.3682387086
 30
0.0
 10
12.3037880868
 20
9.3612517769
 30
0.0
 10
12.3060294237
 20
9.3556819852
 30
0.0
 10
12.3085492227
 20
9.3500553836
 30
0.0
 10
12.3121432821
 20
9.3430717577
 30
0.0
 10
12.3170489507
 20
9.3348398554
 30
0.0
 10
12.3224899781
 20
9.3267132814
 30
0.0
 10
12.3283898272
 20
9.3186973597
 30
0.0
 10
12.3325563824
 20
9.313462811
 30
0.0
 10
12.3346958554
 20
9.3108599358
 30
0.0
  0
SPLINE
  5
37C
100
AcDbEntity
  8
0
100
AcDbSpline
 62
7
  6
CONTINUOUS
 70
0
 71
3
 72
63
 73
59
 74
0
 42
0.0000001
 43
0.0000001
 44
0.0000000001
 40
0.0
 40
0.0
 40
0.0
 40
0.0
 40
0.0077143971
 40
0.0147656839
 40
0.0212500173
 40
0.0243218876
 40
0.02730499
 40
0.0302217381
 40
0.033096157
 40
0.0359534015
 40
0.0388191433
 40
0.0417188291
 40
0.0446768158
 40
0.0508513814
 40
0.0575072571
 40
0.064767983
 40
0.0727226578
 40
0.0814337901
 40
0.0909437372
 40
0.1012765947
 40
0.1124446844
 40
0.1244518788
 40
0.1372922543
 40
0.150954149
 40
0.165422035
 40
0.1806740601
 40
0.196684874
 40
0.2134271296
 40
0.2308689023
 40
0.2489757121
 40
0.2677119583
 40
0.2870386269
 40
0.3272971199
 40
0.3694080957
 40
0.4130034884
 40
0.4576971933
 40
0.5030911024
 40
0.5487783874
 40
0.5943492408
 40
0.6393950882
 40
0.6835131236
 40
0.726311968
 40
0.7674148446
 40
0.8064661085
 40
0.8251192264
 40
0.8431382039
 40
0.8604864335
 40
0.877131197
 40
0.8930411843
 40
0.9081878033
 40
0.9225474266
 40
0.9360989435
 40
0.9488255676
 40
0.9607186214
 40
0.9717747423
 40
0.9819970252
 40
0.9913976939
 40
1.0
 40
1.0
 40
1.0
 40
1.0
 10
12.2934458306
 20
8.8571067894
 30
0.0
 10
12.2917468125
 20
8.855526112
 30
0.0
 10
12.2883502385
 20
8.852648494
 30
0.0
 10
12.2830119772
 20
8.8491033771
 30
0.0
 10
12.2784859498
 20
8.8469374233
 30
0.0
 10
12.274902483
 20
8.8457466181
 30
0.0
 10
12.2722731553
 20
8.8451218299
 30
0.0
 10
12.2696560978
 20
8.8447502129
 30
0.0
 10
12.2670531206
 20
8.8446322114
 30
0.0
 10
12.2644663031
 20
8.8447681853
 30
0.0
 10
12.2618978161
 20
8.8451582366
 30
0.0
 10
12.25934973
 20
8.8458022068
 30
0.0
 10
12.2559344084
 20
8.8470142677
 30
0.0
 10
12.2516928298
 20
8.8492058288
 30
0.0
 10
12.246805706
 20
8.8527953008
 30
0.0
 10
12.242051097
 20
8.8573660393
 30
0.0
 10
12.2374331939
 20
8.8629021915
 30
0.0
 10
12.2329571858
 20
8.8693913979
 30
0.0
 10
12.2286317565
 20
8.8768203509
 30
0.0
 10
12.2244639311
 20
8.8851721277
 30
0.0
 10
12.2204627179
 20
8.8944284151
 30
0.0
 10
12.2166383353
 20
8.904568744
 30
0.0
 10
12.2129986519
 20
8.9155693209
 30
0.0
 10
12.2095522451
 20
8.9274045396
 30
0.0
 10
12.2063084128
 20
8.9400469086
 30
0.0
 10
12.2032741628
 20
8.9534663315
 30
0.0
 10
12.2004566579
 20
8.9676309555
 30
0.0
 10
12.1978636469
 20
8.982507308
 30
0.0
 10
12.1955007875
 20
8.9980598411
 30
0.0
 10
12.193373554
 20
9.0142513987
 30
0.0
 10
12.191487888
 20
9.0310434913
 30
0.0
 10
12.1892711874
 20
9.0545002227
 30
0.0
 10
12.187159329
 20
9.0850245763
 30
0.0
 10
12.1856736552
 20
9.1228924913
 30
0.0
 10
12.1852193808
 20
9.1621208643
 30
0.0
 10
12.1858006724
 20
9.2023348086
 30
0.0
 10
12.187413125
 20
9.2431502221
 30
0.0
 10
12.1900416281
 20
9.2841771291
 30
0.0
 10
12.1936604705
 20
9.3250234846
 30
0.0
 10
12.1982355651
 20
9.3652989148
 30
0.0
 10
12.2037227408
 20
9.4046187119
 30
0.0
 10
12.2100683222
 20
9.4426076218
 30
0.0
 10
12.217211759
 20
9.4789027099
 30
0.0
 10
12.2238688971
 20
9.5078766303
 30
0.0
 10
12.2295659454
 20
9.5299325673
 30
0.0
 10
12.2339277956
 20
9.5455874434
 30
0.0
 10
12.2384341188
 20
9.5605716233
 30
0.0
 10
12.2430733436
 20
9.574849713
 30
0.0
 10
12.2478345457
 20
9.5883876627
 30
0.0
 10
12.2527069556
 20
9.6011530126
 30
0.0
 10
12.2576778086
 20
9.6131158033
 30
0.0
 10
12.2627351844
 20
9.6242477144
 30
0.0
 10
12.2678679507
 20
9.6345223857
 30
0.0
 10
12.2730635435
 20
9.6439167815
 30
0.0
 10
12.2783103345
 20
9.6524096642
 30
0.0
 10
12.2835975549
 20
9.6599808238
 30
0.0
 10
12.2889101756
 20
9.666612315
 30
0.0
 10
12.292621349
 20
9.6705674752
 30
0.0
 10
12.2944825643
 20
9.6723652712
 30
0.0
  0
SPLINE
  5
37D
100
AcDbEntity
  8
0
100
AcDbSpline
 62
7
  6
CONTINUOUS
 70
0
 71
3
 72
61
 73
57
 74
0
 42
0.0000001
 43
0.0000001
 44
0.0000000001
 40
0.0
 40
0.0
 40
0.0
 40
0.0
 40
0.0027162843
 40
0.0054530413
 40
0.0082301846
 40
0.0110666074
 40
0.0169820422
 40
0.0233270685
 40
0.0301991144
 40
0.0376701675
 40
0.0457922941
 40
0.0546024913
 40
0.0641237802
 40
0.074368847
 40
0.0853438886
 40
0.0970484149
 40
0.1094753939
 40
0.1226146618
 40
0.13645301
 40
0.1509723227
 40
0.166152299
 40
0.1819712794
 40
0.1984042134
 40
0.2154237512
 40
0.2330018641
 40
0.2511086309
 40
0.2697116382
 40
0.2887779328
 40
0.3281622631
 40
0.3689742555
 40
0.4109125702
 40
0.4536638533
 40
0.4969071233
 40
0.5403167395
 40
0.5835652747
 40
0.6263270911
 40
0.6682808
 40
0.7091136969
 40
0.7485228469
 40
0.7862212728
 40
0.8043440891
 40
0.8219400262
 40
0.8389782397
 40
0.8554298995
 40
0.8712690335
 40
0.8864706068
 40
0.9010112487
 40
0.9148715228
 40
0.9280340552
 40
0.9404835421
 40
0.952210245
 40
0.9632093577
 40
0.973479845
 40
0.983026108
 40
0.9918595568
 40
1.0
 40
1.0
 40
1.0
 40
1.0
 10
12.2487597173
 20
8.8298475395
 30
0.0
 10
12.2479432443
 20
8.8299041465
 30
0.0
 10
12.2463083165
 20
8.8300916948
 30
0.0
 10
12.2438767651
 20
8.8305938831
 30
0.0
 10
12.2414634942
 20
8.8313167601
 30
0.0
 10
12.2382280457
 20
8.8325907885
 30
0.0
 10
12.2342128824
 20
8.8347693952
 30
0.0
 10
12.2295718622
 20
8.8382154777
 30
0.0
 10
12.2250438989
 20
8.8425185364
 30
0.0
 10
12.2206331819
 20
8.8476660587
 30
0.0
 10
12.2163442264
 20
8.8536479952
 30
0.0
 10
12.2121842602
 20
8.8604540349
 30
0.0
 10
12.2081594608
 20
8.8680711461
 30
0.0
 10
12.2042765017
 20
8.8764847686
 30
0.0
 10
12.2005434457
 20
8.88567938
 30
0.0
 10
12.1969677748
 20
8.8956372681
 30
0.0
 10
12.1935557183
 20
8.9063385422
 30
0.0
 10
12.1903144328
 20
8.9177622966
 30
0.0
 10
12.1872511572
 20
8.9298861436
 30
0.0
 10
12.184371294
 20
8.9426856753
 30
0.0
 10
12.1816806428
 20
8.9561353035
 30
0.0
 10
12.1791853863
 20
8.9702083773
 30
0.0
 10
12.1768902426
 20
8.984876631
 30
0.0
 10
12.1747994879
 20
9.0001105012
 30
0.0
 10
12.172917854
 20
9.0158795714
 30
0.0
 10
12.1712493647
 20
9.0321522277
 30
0.0
 10
12.1697967497
 20
9.0488956716
 30
0.0
 10
12.1681342582
 20
9.0720535123
 30
0.0
 10
12.1666340514
 20
9.1019283968
 30
0.0
 10
12.1657477797
 20
9.1387213937
 30
0.0
 10
12.1657655566
 20
9.1765394402
 30
0.0
 10
12.1666875244
 20
9.215078763
 30
0.0
 10
12.1685058602
 20
9.2540299111
 30
0.0
 10
12.1712072624
 20
9.2930799355
 30
0.0
 10
12.174768875
 20
9.3319152764
 30
0.0
 10
12.1791626278
 20
9.3702239006
 30
0.0
 10
12.1843530562
 20
9.4076982472
 30
0.0
 10
12.1902972041
 20
9.4440375913
 30
0.0
 10
12.1969482404
 20
9.4789500423
 30
0.0
 10
12.2031114124
 20
9.5069786294
 30
0.0
 10
12.2083732481
 20
9.5284656176
 30
0.0
 10
12.2124089596
 20
9.5438415974
 30
0.0
 10
12.2165780701
 20
9.5586595744
 30
0.0
 10
12.2208724866
 20
9.5728897742
 30
0.0
 10
12.2252829301
 20
9.5865039803
 30
0.0
 10
12.2298005986
 20
9.5994748877
 30
0.0
 10
12.2344170698
 20
9.6117762275
 30
0.0
 10
12.2391222805
 20
9.6233837078
 30
0.0
 10
12.2439064049
 20
9.6342742879
 30
0.0
 10
12.2487605087
 20
9.6444260078
 30
0.0
 10
12.2536749472
 20
9.6538191758
 30
0.0
 10
12.2586399001
 20
9.6624362825
 30
0.0
 10
12.2636464726
 20
9.67026035
 30
0.0
 10
12.2686852334
 20
9.677275721
 30
0.0
 10
12.2737439441
 20
9.6834682473
 30
0.0
 10
12.2772635877
 20
9.6871878302
 30
0.0
 10
12.2790277502
 20
9.6888918803
 30
0.0
  0
SPLINE
  5
37E
100
AcDbEntity
  8
0
100
AcDbSpline
 62
7
  6
CONTINUOUS
 70
0
 71
3
 72
23
 73
19
 74
0
 42
0.0000001
 43
0.0000001
 44
0.0000000001
 40
0.0
 40
0.0
 40
0.0
 40
0.0
 40
0.0755493506
 40
0.1465781137
 40
0.2134209155
 40
0.2764972924
 40
0.3363264137
 40
0.393550056
 40
0.4489238843
 40
0.5032842931
 40
0.5575175409
 40
0.6125176493
 40
0.6691350224
 40
0.7281410513
 40
0.790210366
 40
0.8559157723
 40
0.9257235102
 40
1.0
 40
1.0
 40
1.0
 40
1.0
 10
12.2944825643
 20
9.6723652712
 30
0.0
 10
12.295653337
 20
9.6734961509
 30
0.0
 10
12.2979939958
 20
9.6756205377
 30
0.0
 10
12.3016171586
 20
9.6784590596
 30
0.0
 10
12.3052369363
 20
9.6808443764
 30
0.0
 10
12.3088494755
 20
9.6827722527
 30
0.0
 10
12.3124514691
 20
9.6842378122
 30
0.0
 10
12.3160388576
 20
9.6852368591
 30
0.0
 10
12.3196067114
 20
9.6857669207
 30
0.0
 10
12.3231493984
 20
9.6858257652
 30
0.0
 10
12.3266603727
 20
9.6854123347
 30
0.0
 10
12.330132727
 20
9.6845271871
 30
0.0
 10
12.3335606993
 20
9.683174213
 30
0.0
 10
12.3369398685
 20
9.6813576015
 30
0.0
 10
12.3402668278
 20
9.6790812792
 30
0.0
 10
12.3435384617
 20
9.6763484453
 30
0.0
 10
12.3467520732
 20
9.67316326
 30
0.0
 10
12.3487889422
 20
9.6708165721
 30
0.0
 10
12.3497986789
 20
9.6695750004
 30
0.0
  0
SPLINE
  5
37F
100
AcDbEntity
  8
0
100
AcDbSpline
 62
7
  6
CONTINUOUS
 70
0
 71
3
 72
16
 73
12
 74
0
 42
0.0000001
 43
0.0000001
 44
0.0000000001
 40
0.0
 40
0.0
 40
0.0
 40
0.0
 40
0.1503917153
 40
0.2916310147
 40
0.4244125626
 40
0.4879158758
 40
0.5496499394
 40
0.6683493365
 40
0.7818953326
 40
0.8918652976
 40
1.0
 40
1.0
 40
1.0
 40
1.0
 10
12.2790277502
 20
9.6888918803
 30
0.0
 10
12.2802638151
 20
9.6900858275
 30
0.0
 10
12.2827350186
 20
9.6923263066
 30
0.0
 10
12.2865621971
 20
9.6953125722
 30
0.0
 10
12.2897955031
 20
9.6974257794
 30
0.0
 10
12.2923742728
 20
9.6988574385
 30
0.0
 10
12.2948771039
 20
9.7000867377
 30
0.0
 10
12.2980065305
 20
9.7013285154
 30
0.0
 10
12.301795146
 20
9.7023362001
 30
0.0
 10
12.3055618083
 20
9.7028393212
 30
0.0
 10
12.3080630797
 20
9.7028365378
 30
0.0
 10
12.309295783
 20
9.702751073
 30
0.0
  0
SPLINE
  5
380
100
AcDbEntity
  8
0
100
AcDbSpline
 62
7
  6
CONTINUOUS
 70
0
 71
3
 72
25
 73
21
 74
0
 42
0.0000001
 43
0.0000001
 44
0.0000000001
 40
0.0
 40
0.0
 40
0.0
 40
0.0
 40
0.0647084993
 40
0.0970189919
 40
0.129283788
 40
0.1936347216
 40
0.2577187364
 40
0.2896531187
 40
0.3215035529
 40
0.3849197124
 40
0.4479557972
 40
0.5105971772
 40
0.572842298
 40
0.6347029732
 40
0.6962042336
 40
0.7573836913
 40
0.8182904117
 40
0.8789833105
 40
0.9395291204
 40
1.0
 40
1.0
 40
1.0
 40
1.0
 10
10.3902653245
 20
7.9156117964
 30
0.0
 10
10.3923397833
 20
7.9129956884
 30
0.0
 10
10.3952842866
 20
7.9089373687
 30
0.0
 10
10.3988464877
 20
7.9032957199
 30
0.0
 10
10.4021536297
 20
7.8975216547
 30
0.0
 10
10.4058055262
 20
7.8900653065
 30
0.0
 10
10.4087893134
 20
7.8823353597
 30
0.0
 10
10.4107550562
 20
7.8760353625
 30
0.0
 10
10.4124320901
 20
7.8696881502
 30
0.0
 10
10.4139917405
 20
7.8616584838
 30
0.0
 10
10.4149868985
 20
7.8519396216
 30
0.0
 10
10.4150949944
 20
7.8422303463
 30
0.0
 10
10.4143147044
 20
7.8326125486
 30
0.0
 10
10.4126523186
 20
7.8231668588
 30
0.0
 10
10.4101215099
 20
7.8139727027
 30
0.0
 10
10.40674327
 20
7.8051074125
 30
0.0
 10
10.4025458413
 20
7.796645712
 30
0.0
 10
10.3975641313
 20
7.7886587017
 30
0.0
 10
10.3918408181
 20
7.7812145502
 30
0.0
 10
10.3875599462
 20
7.7766525809
 30
0.0
 10
10.3853157732
 20
7.7744848962
 30
0.0
  0
SPLINE
  5
381
100
AcDbEntity
  8
0
100
AcDbSpline
 62
7
  6
CONTINUOUS
 70
0
 71
3
 72
46
 73
42
 74
0
 42
0.0000001
 43
0.0000001
 44
0.0000000001
 40
0.0
 40
0.0
 40
0.0
 40
0.0
 40
0.0840358155
 40
0.1695038657
 40
0.2553461646
 40
0.2980758532
 40
0.3405003594
 40
0.382488464
 40
0.4239106884
 40
0.4646398251
 40
0.5045514761
 40
0.5435246025
 40
0.5814420909
 40
0.6181913426
 40
0.6536649091
 40
0.6877611648
 40
0.7203850417
 40
0.751448871
 40
0.7808733741
 40
0.8085888695
 40
0.8345368019
 40
0.8468338779
 40
0.8586733281
 40
0.8700519371
 40
0.8809677801
 40
0.8914203277
 40
0.9014105083
 40
0.910941208
 40
0.920017169
 40
0.928645721
 40
0.9368368282
 40
0.9446037978
 40
0.951963758
 40
0.9589382177
 40
0.9655539713
 40
0.971843516
 40
0.9778459691
 40
0.9836071969
 40
0.9891799317
 40
0.9946230211
 40
1.0
 40
1.0
 40
1.0
 40
1.0
 10
11.8984569341
 20
8.5149286862
 30
0.0
 10
11.8984569341
 20
8.5248926863
 30
0.0
 10
11.898769605
 20
8.5449916812
 30
0.0
 10
11.9001265353
 20
8.5752411273
 30
0.0
 10
11.9019901687
 20
8.6005548965
 30
0.0
 10
11.903916261
 20
8.6207385775
 30
0.0
 10
11.9055674955
 20
8.6357235173
 30
0.0
 10
11.9074219419
 20
8.6505284277
 30
0.0
 10
11.909473475
 20
8.6651043775
 30
0.0
 10
11.9117152709
 20
8.6794031491
 30
0.0
 10
11.9141398813
 20
8.6933774629
 30
0.0
 10
11.9167392435
 20
8.7069811183
 30
0.0
 10
11.9195047097
 20
8.7201691538
 30
0.0
 10
11.9224270757
 20
8.7328979995
 30
0.0
 10
11.9254966073
 20
8.7451256294
 30
0.0
 10
11.9287030742
 20
8.756811706
 30
0.0
 10
11.9320357858
 20
8.7679177296
 30
0.0
 10
11.9354836296
 20
8.7784071533
 30
0.0
 10
11.9390351103
 20
8.7882456101
 30
0.0
 10
11.9426784108
 20
8.7974007547
 30
0.0
 10
11.9458349205
 20
8.8045587842
 30
0.0
 10
11.9484045047
 20
8.8099129757
 30
0.0
 10
11.9503125233
 20
8.8136673267
 30
0.0
 10
11.9522344154
 20
8.8172295939
 30
0.0
 10
11.9541686286
 20
8.8205968684
 30
0.0
 10
11.9561135519
 20
8.8237664184
 30
0.0
 10
11.9580676565
 20
8.8267356485
 30
0.0
 10
11.9600293043
 20
8.82950219
 30
0.0
 10
11.9619970041
 20
8.8320637773
 30
0.0
 10
11.963969154
 20
8.834418389
 30
0.0
 10
11.9659442808
 20
8.8365641135
 30
0.0
 10
11.9679208977
 20
8.8384992256
 30
0.0
 10
11.9698975549
 20
8.8402221648
 30
0.0
 10
11.971872919
 20
8.8417314178
 30
0.0
 10
11.9738455897
 20
8.8430256902
 30
0.0
 10
11.9758143128
 20
8.8441035707
 30
0.0
 10
11.9777776822
 20
8.8449638453
 30
0.0
 10
11.9797342283
 20
8.8456051603
 30
0.0
 10
11.9816823151
 20
8.8460263016
 30
0.0
 10
11.9836195849
 20
8.846226278
 30
0.0
 10
11.9849057688
 20
8.8462115641
 30
0.0
 10
11.9855417814
 20
8.8461674549
 30
0.0
  0
SPLINE
  5
382
100
AcDbEntity
  8
0
100
AcDbSpline
 62
7
  6
CONTINUOUS
 70
0
 71
3
 72
46
 73
42
 74
0
 42
0.0000001
 43
0.0000001
 44
0.0000000001
 40
0.0
 40
0.0
 40
0.0
 40
0.0
 40
0.0840358155
 40
0.1695038657
 40
0.2553461646
 40
0.2980758532
 40
0.3405003594
 40
0.382488464
 40
0.4239106884
 40
0.4646398251
 40
0.5045514761
 40
0.5435246025
 40
0.5814420909
 40
0.6181913426
 40
0.6536649091
 40
0.6877611648
 40
0.7203850417
 40
0.751448871
 40
0.7808733741
 40
0.8085888695
 40
0.8345368019
 40
0.8468338779
 40
0.8586733281
 40
0.8700519371
 40
0.8809677801
 40
0.8914203277
 40
0.9014105083
 40
0.910941208
 40
0.920017169
 40
0.928645721
 40
0.9368368282
 40
0.9446037978
 40
0.951963758
 40
0.9589382177
 40
0.9655539713
 40
0.971843516
 40
0.9778459691
 40
0.9836071969
 40
0.9891799317
 40
0.9946230211
 40
1.0
 40
1.0
 40
1.0
 40
1.0
 10
11.8984569341
 20
7.1259273007
 30
0.0
 10
11.8984569341
 20
7.1358913008
 30
0.0
 10
11.898769605
 20
7.1559902957
 30
0.0
 10
11.9001265353
 20
7.1862397418
 30
0.0
 10
11.9019901687
 20
7.211553511
 30
0.0
 10
11.903916261
 20
7.231737192
 30
0.0
 10
11.9055674955
 20
7.2467221318
 30
0.0
 10
11.9074219419
 20
7.2615270422
 30
0.0
 10
11.909473475
 20
7.276102992
 30
0.0
 10
11.9117152709
 20
7.2904017636
 30
0.0
 10
11.9141398813
 20
7.3043760774
 30
0.0
 10
11.9167392435
 20
7.3179797328
 30
0.0
 10
11.9195047097
 20
7.3311677683
 30
0.0
 10
11.9224270757
 20
7.343896614
 30
0.0
 10
11.9254966073
 20
7.3561242439
 30
0.0
 10
11.9287030742
 20
7.3678103205
 30
0.0
 10
11.9320357858
 20
7.3789163441
 30
0.0
 10
11.9354836296
 20
7.3894057678
 30
0.0
 10
11.9390351103
 20
7.3992442246
 30
0.0
 10
11.9426784108
 20
7.4083993692
 30
0.0
 10
11.9458349205
 20
7.4155573987
 30
0.0
 10
11.9484045047
 20
7.4209115902
 30
0.0
 10
11.9503125233
 20
7.4246659412
 30
0.0
 10
11.9522344154
 20
7.4282282084
 30
0.0
 10
11.9541686286
 20
7.4315954829
 30
0.0
 10
11.9561135519
 20
7.4347650329
 30
0.0
 10
11.9580676565
 20
7.437734263
 30
0.0
 10
11.9600293043
 20
7.4405008045
 30
0.0
 10
11.9619970041
 20
7.4430623918
 30
0.0
 10
11.963969154
 20
7.4454170035
 30
0.0
 10
11.9659442808
 20
7.447562728
 30
0.0
 10
11.9679208977
 20
7.4494978401
 30
0.0
 10
11.9698975549
 20
7.4512207793
 30
0.0
 10
11.971872919
 20
7.4527300323
 30
0.0
 10
11.9738455897
 20
7.4540243047
 30
0.0
 10
11.9758143128
 20
7.4551021852
 30
0.0
 10
11.9777776822
 20
7.4559624598
 30
0.0
 10
11.9797342283
 20
7.4566037748
 30
0.0
 10
11.9816823151
 20
7.4570249161
 30
0.0
 10
11.9836195849
 20
7.4572248925
 30
0.0
 10
11.9849057688
 20
7.4572101786
 30
0.0
 10
11.9855417814
 20
7.4571660694
 30
0.0
  0
SPLINE
  5
383
100
AcDbEntity
  8
0
100
AcDbSpline
 62
7
  6
CONTINUOUS
 70
0
 71
3
 72
53
 73
49
 74
0
 42
0.0000001
 43
0.0000001
 44
0.0000000001
 40
0.0
 40
0.0
 40
0.0
 40
0.0
 40
0.0417740113
 40
0.0840369498
 40
0.1266584959
 40
0.1695064843
 40
0.2124480935
 40
0.2553500426
 40
0.298079237
 40
0.3405032536
 40
0.382490879
 40
0.4239126346
 40
0.4646413116
 40
0.5045525112
 40
0.543525196
 40
0.5814422576
 40
0.6181911067
 40
0.6536642972
 40
0.6877601986
 40
0.720383738
 40
0.7361160079
 40
0.7514479787
 40
0.7663699923
 40
0.7808730391
 40
0.7949486907
 40
0.8085892839
 40
0.8217878242
 40
0.8345382246
 40
0.8468351953
 40
0.858674535
 40
0.8700530305
 40
0.8809687964
 40
0.8914212207
 40
0.9014113515
 40
0.9109419335
 40
0.9200178526
 40
0.9286463131
 40
0.9368373658
 40
0.9446042772
 40
0.9519641672
 40
0.9589385932
 40
0.9655542738
 40
0.9718437889
 40
0.9778461802
 40
0.9836073652
 40
0.9891800467
 40
0.99462308
 40
1.0
 40
1.0
 40
1.0
 40
1.0
 10
12.1620638973
 20
9.1163208933
 30
0.0
 10
12.1620638973
 20
9.1273278547
 30
0.0
 10
12.1622356175
 20
9.14947095
 30
0.0
 10
12.1629947616
 20
9.1828364995
 30
0.0
 10
12.1642547545
 20
9.2164701245
 30
0.0
 10
12.1660114656
 20
9.2502604892
 30
0.0
 10
12.1682590897
 20
9.284095798
 30
0.0
 10
12.1709901977
 20
9.3178641154
 30
0.0
 10
12.1741957421
 20
9.3514537207
 30
0.0
 10
12.1778650966
 20
9.3847534921
 30
0.0
 10
12.1819860872
 20
9.4176532716
 30
0.0
 10
12.1865450327
 20
9.4500442348
 30
0.0
 10
12.1915267897
 20
9.4818192531
 30
0.0
 10
12.1969148012
 20
9.5128732533
 30
0.0
 10
12.2026911506
 20
9.5431035688
 30
0.0
 10
12.2088366193
 20
9.5724102919
 30
0.0
 10
12.2153307514
 20
9.6006965921
 30
0.0
 10
12.2221519106
 20
9.6278691251
 30
0.0
 10
12.2292773873
 20
9.6538380868
 30
0.0
 10
12.2355221816
 20
9.6746488835
 30
0.0
 10
12.240662554
 20
9.6906236349
 30
0.0
 10
12.2445323274
 20
9.7021063446
 30
0.0
 10
12.2484600549
 20
9.7132264551
 30
0.0
 10
12.2524424727
 20
9.7239748031
 30
0.0
 10
12.2564763153
 20
9.7343425127
 30
0.0
 10
12.2605581925
 20
9.7443210463
 30
0.0
 10
12.26468478
 20
9.7539021736
 30
0.0
 10
12.268852601
 20
9.763078025
 30
0.0
 10
12.2730582785
 20
9.7718410435
 30
0.0
 10
12.2772982707
 20
9.7801840595
 30
0.0
 10
12.2815691614
 20
9.788100219
 30
0.0
 10
12.285867371
 20
9.7955830812
 30
0.0
 10
12.2901894627
 20
9.8026265236
 30
0.0
 10
12.2945318556
 20
9.8092248592
 30
0.0
 10
12.2988911227
 20
9.8153727212
 30
0.0
 10
12.303263733
 20
9.82106519
 30
0.0
 10
12.3076463169
 20
9.8262976642
 30
0.0
 10
12.3120354657
 20
9.8310659769
 30
0.0
 10
12.3164279367
 20
9.8353662608
 30
0.0
 10
12.3208205269
 20
9.839195017
 30
0.0
 10
12.3252101827
 20
9.842548987
 30
0.0
 10
12.3295939317
 20
9.8454251233
 30
0.0
 10
12.3339688296
 20
9.8478205076
 30
0.0
 10
12.3383318949
 20
9.849732214
 30
0.0
 10
12.342679756
 20
9.8511574279
 30
0.0
 10
12.3470088391
 20
9.8520933287
 30
0.0
 10
12.3513138788
 20
9.852537739
 30
0.0
 10
12.3541720656
 20
9.852505101
 30
0.0
 10
12.3555854265
 20
9.8524070876
 30
0.0
  0
SPLINE
  5
384
100
AcDbEntity
  8
0
100
AcDbSpline
 62
7
  6
CONTINUOUS
 70
0
 71
3
 72
50
 73
46
 74
0
 42
0.0000001
 43
0.0000001
 44
0.0000000001
 40
0.0
 40
0.0
 40
0.0
 40
0.0
 40
0.0417744418
 40
0.0840381875
 40
0.1266602114
 40
0.1695088334
 40
0.2124510193
 40
0.2553535638
 40
0.2980833443
 40
0.3405079442
 40
0.3824961454
 40
0.4239184685
 40
0.4646477027
 40
0.5045594474
 40
0.5435326636
 40
0.5814502412
 40
0.6181995892
 40
0.6536732601
 40
0.6877696215
 40
0.7203935994
 40
0.7514575214
 40
0.7808821092
 40
0.7949579392
 40
0.8085987194
 40
0.821797426
 40
0.8345479988
 40
0.8468451249
 40
0.8586846215
 40
0.8700632619
 40
0.8809791687
 40
0.8914317275
 40
0.9014219834
 40
0.9109526898
 40
0.9200287185
 40
0.9286572935
 40
0.9368484417
 40
0.9446154576
 40
0.9519754311
 40
0.9589499519
 40
0.9655657069
 40
0.9778458861
 40
0.9836071497
 40
0.9891799
 40
0.9946230074
 40
1.0
 40
1.0
 40
1.0
 40
1.0
 10
11.6750962893
 20
8.4315107275
 30
0.0
 10
11.6750962893
 20
8.4392249051
 30
0.0
 10
11.6752166419
 20
8.4547438588
 30
0.0
 10
11.67574868
 20
8.4781280246
 30
0.0
 10
11.6766317507
 20
8.5017001048
 30
0.0
 10
11.677862934
 20
8.5253819917
 30
0.0
 10
11.6794381796
 20
8.5490953984
 30
0.0
 10
11.6813522705
 20
8.572761846
 30
0.0
 10
11.6835988707
 20
8.596303046
 30
0.0
 10
11.6861705306
 20
8.6196411152
 30
0.0
 10
11.6890587189
 20
8.642698851
 30
0.0
 10
11.692253847
 20
8.6653999834
 30
0.0
 10
11.6957453016
 20
8.6876694318
 30
0.0
 10
11.6995214787
 20
8.7094335556
 30
0.0
 10
11.7035698217
 20
8.7306204019
 30
0.0
 10
11.7078768612
 20
8.7511599482
 30
0.0
 10
11.7124282599
 20
8.7709843391
 30
0.0
 10
11.7172088579
 20
8.7900281257
 30
0.0
 10
11.7222027256
 20
8.8082284699
 30
0.0
 10
11.7273932086
 20
8.8255254511
 30
0.0
 10
11.7327630191
 20
8.8418619973
 30
0.0
 10
11.737438856
 20
8.8548155621
 30
0.0
 10
11.7412650341
 20
8.8646497352
 30
0.0
 10
11.7441258211
 20
8.8716431682
 30
0.0
 10
11.7470179328
 20
8.8783580721
 30
0.0
 10
11.7499389373
 20
8.8847889429
 30
0.0
 10
11.7528864815
 20
8.8909304777
 30
0.0
 10
11.7558580681
 20
8.8967776565
 30
0.0
 10
11.7588513144
 20
8.9023256724
 30
0.0
 10
11.7618637052
 20
8.9075700129
 30
0.0
 10
11.7648928324
 20
8.9125063878
 30
0.0
 10
11.7679361922
 20
8.9171308078
 30
0.0
 10
11.7709913705
 20
8.9214395188
 30
0.0
 10
11.7740559104
 20
8.925429061
 30
0.0
 10
11.7771274299
 20
8.9290962284
 30
0.0
 10
11.7802035534
 20
8.932438069
 30
0.0
 10
11.783282035
 20
8.9354519338
 30
0.0
 10
11.7863604499
 20
8.9381352236
 30
0.0
 10
11.789437379
 20
8.9404860777
 30
0.0
 10
11.7934334812
 20
8.9431081822
 30
0.0
 10
11.7975305392
 20
8.9451588081
 30
0.0
 10
11.8016804304
 20
8.9465190237
 30
0.0
 10
11.8047145956
 20
8.9471749827
 30
0.0
 10
11.8077317352
 20
8.9474864414
 30
0.0
 10
11.8097348964
 20
8.9474635485
 30
0.0
 10
11.8107254468
 20
8.9473948544
 30
0.0
  0
SPLINE
  5
385
100
AcDbEntity
  8
0
100
AcDbSpline
 62
7
  6
CONTINUOUS
 70
0
 71
3
 72
21
 73
17
 74
0
 42
0.0000001
 43
0.0000001
 44
0.0000000001
 40
0.0
 40
0.0
 40
0.0
 40
0.0
 40
0.1203842894
 40
0.2430569435
 40
0.3678167821
 40
0.494330578
 40
0.5580896867
 40
0.6220588185
 40
0.6861124534
 40
0.7500890476
 40
0.813776975
 40
0.8769020221
 40
0.9081493814
 40
0.9391200457
 40
0.9697563032
 40
1.0
 40
1.0
 40
1.0
 40
1.0
 10
10.2867597965
 20
8.5382815954
 30
0.0
 10
10.2853102897
 20
8.5395748615
 30
0.0
 10
10.2824278718
 20
8.5422359082
 30
0.0
 10
10.2782031654
 20
8.546406275
 30
0.0
 10
10.2740548086
 20
8.5507899489
 30
0.0
 10
10.2706943994
 20
8.554606139
 30
0.0
 10
10.2680759543
 20
8.5577647622
 30
0.0
 10
10.2661527871
 20
8.5601896706
 30
0.0
 10
10.2642860177
 20
8.5626627208
 30
0.0
 10
10.2624894817
 20
8.5651818333
 30
0.0
 10
10.2607818849
 20
8.5677442153
 30
0.0
 10
10.2594491452
 20
8.5699199002
 30
0.0
 10
10.2584559857
 20
8.5716820982
 30
0.0
 10
10.2577564908
 20
8.573007397
 30
0.0
 10
10.2571067691
 20
8.5743398375
 30
0.0
 10
10.2567090767
 20
8.5752384821
 30
0.0
 10
10.2565215065
 20
8.5756890232
 30
0.0
  0
SPLINE
  5
386
100
AcDbEntity
  8
0
100
AcDbSpline
 62
7
  6
CONTINUOUS
 70
0
 71
3
 72
14
 73
10
 74
0
 42
0.0000001
 43
0.0000001
 44
0.0000000001
 40
0.0
 40
0.0
 40
0.0
 40
0.0
 40
0.1236489096
 40
0.2473108927
 40
0.3712087812
 40
0.4955420297
 40
0.6204795416
 40
0.7461531301
 40
1.0
 40
1.0
 40
1.0
 40
1.0
 10
10.3989006957
 20
8.5597223951
 30
0.0
 10
10.3944986297
 20
8.5579899776
 30
0.0
 10
10.3856088145
 20
8.5547372408
 30
0.0
 10
10.3720487726
 20
8.5504983318
 30
0.0
 10
10.3582790279
 20
8.5468945345
 30
0.0
 10
10.3443105066
 20
8.5439190052
 30
0.0
 10
10.330154728
 20
8.5415652178
 30
0.0
 10
10.3109907825
 20
8.5392406908
 30
0.0
 10
10.2964706422
 20
8.5384278125
 30
0.0
 10
10.2867597965
 20
8.5382815954
 30
0.0
  0
SPLINE
  5
387
100
AcDbEntity
  8
0
100
AcDbSpline
 62
7
  6
CONTINUOUS
 70
0
 71
3
 72
38
 73
34
 74
0
 42
0.0000001
 43
0.0000001
 44
0.0000000001
 40
0.0
 40
0.0
 40
0.0
 40
0.0
 40
0.0934923354
 40
0.1897329517
 40
0.2865467274
 40
0.3818325098
 40
0.4736807669
 40
0.5604638753
 40
0.6408874852
 40
0.7139983046
 40
0.7476004915
 40
0.7791552649
 40
0.8086214407
 40
0.8359704645
 40
0.8611831678
 40
0.8842480735
 40
0.9051604482
 40
0.923919889
 40
0.9405304335
 40
0.9549998201
 40
0.9614358483
 40
0.9673421943
 40
0.9727220687
 40
0.9775800252
 40
0.9819223313
 40
0.9857581855
 40
0.9891018914
 40
0.9919760626
 40
0.9944176175
 40
0.9964891792
 40
0.9982952937
 40
0.9991493066
 40
1.0
 40
1.0
 40
1.0
 40
1.0
 10
10.6211903736
 20
7.7935077053
 30
0.0
 10
10.6226570671
 20
7.7967454078
 30
0.0
 10
10.6257944778
 20
7.8032440003
 30
0.0
 10
10.6309480718
 20
7.8128451096
 30
0.0
 10
10.6365034251
 20
7.822298336
 30
0.0
 10
10.6422948644
 20
7.8314108628
 30
0.0
 10
10.6481540825
 20
7.8400219126
 30
0.0
 10
10.6539224258
 20
7.8480062126
 30
0.0
 10
10.6594605491
 20
7.8552739746
 30
0.0
 10
10.6639047704
 20
7.8608306262
 30
0.0
 10
10.6672588375
 20
7.8648783651
 30
0.0
 10
10.6695852969
 20
7.8676223653
 30
0.0
 10
10.6717872167
 20
7.8701599793
 30
0.0
 10
10.6738590578
 20
7.872490944
 30
0.0
 10
10.6757964536
 20
7.8746155002
 30
0.0
 10
10.6775959854
 20
7.8765342642
 30
0.0
 10
10.6792551878
 20
7.8782478871
 30
0.0
 10
10.6807722198
 20
7.8797571456
 30
0.0
 10
10.6821458309
 20
7.8810625863
 30
0.0
 10
10.6832079856
 20
7.8820149784
 30
0.0
 10
10.6839873373
 20
7.8826721031
 30
0.0
 10
10.6845125477
 20
7.8830942635
 30
0.0
 10
10.6850016185
 20
7.8834652719
 30
0.0
 10
10.6854545418
 20
7.8837850669
 30
0.0
 10
10.6858713511
 20
7.8840535538
 30
0.0
 10
10.6862521488
 20
7.8842706092
 30
0.0
 10
10.686597128
 20
7.884436145
 30
0.0
 10
10.6869066819
 20
7.8845501253
 30
0.0
 10
10.6871817489
 20
7.8846121044
 30
0.0
 10
10.6874236498
 20
7.8846211246
 30
0.0
 10
10.6876019011
 20
7.8845801793
 30
0.0
 10
10.6877208839
 20
7.8845184189
 30
0.0
 10
10.6877727965
 20
7.8844790052
 30
0.0
 10
10.6877968424
 20
7.8844573766
 30
0.0
  0
SPLINE
  5
388
100
AcDbEntity
  8
0
100
AcDbSpline
 62
7
  6
CONTINUOUS
 70
0
 71
3
 72
11
 73
7
 74
0
 42
0.0000001
 43
0.0000001
 44
0.0000000001
 40
0.0
 40
0.0
 40
0.0
 40
0.0
 40
0.2670605829
 40
0.5220478514
 40
0.7658631846
 40
1.0
 40
1.0
 40
1.0
 40
1.0
 10
11.0267198487
 20
7.8983423429
 30
0.0
 10
11.0265321857
 20
7.9028699926
 30
0.0
 10
11.0265323585
 20
7.911738753
 30
0.0
 10
11.0274313721
 20
7.9247106868
 30
0.0
 10
11.029000445
 20
7.9370536718
 30
0.0
 10
11.0304100651
 20
7.9450432988
 30
0.0
 10
11.0311823532
 20
7.9489403935
 30
0.0
  0
SPLINE
  5
389
100
AcDbEntity
  8
0
100
AcDbSpline
 62
7
  6
CONTINUOUS
 70
0
 71
3
 72
40
 73
36
 74
0
 42
0.0000001
 43
0.0000001
 44
0.0000000001
 40
0.0
 40
0.0
 40
0.0
 40
0.0
 40
0.0439718272
 40
0.0661138837
 40
0.0883739507
 40
0.1107640705
 40
0.1332970034
 40
0.1788410916
 40
0.201889528
 40
0.225143756
 40
0.2723484999
 40
0.2963617882
 40
0.3206912698
 40
0.3453798802
 40
0.3704807141
 40
0.4221822305
 40
0.4765773865
 40
0.5051731203
 40
0.5349891235
 40
0.5663424407
 40
0.5996614407
 40
0.6355258408
 40
0.6546519891
 40
0.6747202611
 40
0.6958570143
 40
0.7181919194
 40
0.7418448949
 40
0.7669029535
 40
0.793386493
 40
0.8212127659
 40
0.8501726424
 40
0.8799431431
 40
0.910142057
 40
0.940401919
 40
1.0
 40
1.0
 40
1.0
 40
1.0
 10
11.1893411738
 20
7.8187654014
 30
0.0
 10
11.1864585579
 20
7.8172373519
 30
0.0
 10
11.1820465078
 20
7.8150825234
 30
0.0
 10
11.1760192642
 20
7.8124983518
 30
0.0
 10
11.1714019634
 20
7.8106956381
 30
0.0
 10
11.1667003585
 20
7.8090365462
 30
0.0
 10
11.160298549
 20
7.8070153078
 30
0.0
 10
11.1537501878
 20
7.8053068731
 30
0.0
 10
11.1470739583
 20
7.8039338353
 30
0.0
 10
11.1402314316
 20
7.8027800372
 30
0.0
 10
11.1332570562
 20
7.8020009041
 30
0.0
 10
11.1261757234
 20
7.8016327926
 30
0.0
 10
11.1207556018
 20
7.8015773462
 30
0.0
 10
11.1152573441
 20
7.801761537
 30
0.0
 10
11.1077487287
 20
7.8023621314
 30
0.0
 10
11.0981116923
 20
7.8038598201
 30
0.0
 10
11.0884464567
 20
7.8065057188
 30
0.0
 10
11.0806212753
 20
7.8094922218
 30
0.0
 10
11.0745795805
 20
7.812310516
 30
0.0
 10
11.0684717045
 20
7.8157681753
 30
0.0
 10
11.0623127704
 20
7.8199941213
 30
0.0
 10
11.0572761202
 20
7.8242035265
 30
0.0
 10
11.0532852348
 20
7.8280909631
 30
0.0
 10
11.0502502846
 20
7.8313846395
 30
0.0
 10
11.0472541083
 20
7.8350278942
 30
0.0
 10
11.044318955
 20
7.8390551743
 30
0.0
 10
11.0414748265
 20
7.8434973729
 30
0.0
 10
11.0387605517
 20
7.8483759627
 30
0.0
 10
11.0362233644
 20
7.8536945069
 30
0.0
 10
11.0339155553
 20
7.8594299669
 30
0.0
 10
11.0318875801
 20
7.8655277751
 30
0.0
 10
11.030178959
 20
7.8719047752
 30
0.0
 10
11.0288109863
 20
7.8784617954
 30
0.0
 10
11.0274491437
 20
7.8872678987
 30
0.0
 10
11.0269029755
 20
7.8939241383
 30
0.0
 10
11.0267198487
 20
7.8983423429
 30
0.0
  0
SPLINE
  5
38A
100
AcDbEntity
  8
0
100
AcDbSpline
 62
7
  6
CONTINUOUS
 70
0
 71
3
 72
39
 73
35
 74
0
 42
0.0000001
 43
0.0000001
 44
0.0000000001
 40
0.0
 40
0.0
 40
0.0
 40
0.0
 40
0.0299424713
 40
0.0599093189
 40
0.0899243252
 40
0.1200101041
 40
0.1501875624
 40
0.1804754141
 40
0.2108897589
 40
0.2414437364
 40
0.2721472611
 40
0.3030068436
 40
0.3340254952
 40
0.3652027139
 40
0.3965345487
 40
0.4280137345
 40
0.459629892
 40
0.4913697861
 40
0.5232176333
 40
0.5551554497
 40
0.5871634339
 40
0.6192203769
 40
0.6513040927
 40
0.6833918636
 40
0.7154608914
 40
0.7474887506
 40
0.7794538354
 40
0.8113357959
 40
0.8431159558
 40
0.8747777127
 40
0.9063068657
 40
0.9376920949
 40
0.9689246535
 40
1.0
 40
1.0
 40
1.0
 40
1.0
 10
9.8429081759
 20
8.9683672173
 30
0.0
 10
9.8487394414
 20
8.9739997926
 30
0.0
 10
9.860860509
 20
8.9848103599
 30
0.0
 10
9.8802803415
 20
8.9995378478
 30
0.0
 10
9.9008391478
 20
9.0127032635
 30
0.0
 10
9.9224220516
 20
9.0242327575
 30
0.0
 10
9.9449103935
 20
9.0340633405
 30
0.0
 10
9.9681800651
 20
9.0421409707
 30
0.0
 10
9.9921028395
 20
9.0484214424
 30
0.0
 10
10.0165469173
 20
9.0528704663
 30
0.0
 10
10.0413777114
 20
9.0554638853
 30
0.0
 10
10.0664585827
 20
9.0561877604
 30
0.0
 10
10.0916515935
 20
9.0550384356
 30
0.0
 10
10.1168182606
 20
9.0520225397
 30
0.0
 10
10.1418203076
 20
9.0471569353
 30
0.0
 10
10.1665204155
 20
9.0404686181
 30
0.0
 10
10.1907829731
 20
9.0319945778
 30
0.0
 10
10.2144748069
 20
9.0217815659
 30
0.0
 10
10.2374659017
 20
9.009885838
 30
0.0
 10
10.2596301024
 20
8.996372843
 30
0.0
 10
10.2808457969
 20
8.981316866
 30
0.0
 10
10.300996572
 20
8.9648006201
 30
0.0
 10
10.3199718576
 20
8.9469148129
 30
0.0
 10
10.3376675218
 20
8.9277576399
 30
0.0
 10
10.3539864299
 20
8.9074342461
 30
0.0
 10
10.3688389733
 20
8.8860561566
 30
0.0
 10
10.3821435565
 20
8.8637406731
 30
0.0
 10
10.3938270383
 20
8.8406102334
 30
0.0
 10
10.4038251446
 20
8.8167917688
 30
0.0
 10
10.4120828131
 20
8.7924159623
 30
0.0
 10
10.4185545315
 20
8.7676167259
 30
0.0
 10
10.4232044504
 20
8.7425297738
 30
0.0
 10
10.4260068854
 20
8.7172946403
 30
0.0
 10
10.426634558
 20
8.7004173576
 30
0.0
 10
10.426634558
 20
8.6920032375
 30
0.0
  0
SPLINE
  5
38B
100
AcDbEntity
  8
0
100
AcDbSpline
 62
7
  6
CONTINUOUS
 70
0
 71
3
 72
23
 73
19
 74
0
 42
0.0000001
 43
0.0000001
 44
0.0000000001
 40
0.0
 40
0.0
 40
0.0
 40
0.0
 40
0.0617101471
 40
0.1234413975
 40
0.1852146443
 40
0.247050354
 40
0.3089683512
 40
0.3709876208
 40
0.4331261329
 40
0.4954006604
 40
0.5578266143
 40
0.6204179171
 40
0.6831867871
 40
0.7461438917
 40
0.8092980342
 40
0.8726549895
 40
0.936223237
 40
1.0
 40
1.0
 40
1.0
 40
1.0
 10
10.331315044
 20
8.4627312505
 30
0.0
 10
10.3350892923
 20
8.4663768979
 30
0.0
 10
10.3424528286
 20
8.4738651446
 30
0.0
 10
10.3529078234
 20
8.4856527573
 30
0.0
 10
10.3627505151
 20
8.4979704611
 30
0.0
 10
10.3719578082
 20
8.510789467
 30
0.0
 10
10.3805085542
 20
8.5240803207
 30
0.0
 10
10.3883830471
 20
8.5378123118
 30
0.0
 10
10.395563168
 20
8.5519537625
 30
0.0
 10
10.4020323735
 20
8.566472056
 30
0.0
 10
10.4077757432
 20
8.5813337192
 30
0.0
 10
10.4127800894
 20
8.5965044611
 30
0.0
 10
10.4170339328
 20
8.6119492949
 30
0.0
 10
10.4205274873
 20
8.6276326382
 30
0.0
 10
10.4232526621
 20
8.6435182357
 30
0.0
 10
10.4252033886
 20
8.6595697982
 30
0.0
 10
10.4263749673
 20
8.675749595
 30
0.0
 10
10.426634558
 20
8.6865800588
 30
0.0
 10
10.426634558
 20
8.6920032375
 30
0.0
  0
SPLINE
  5
38C
100
AcDbEntity
  8
0
100
AcDbSpline
 62
7
  6
CONTINUOUS
 70
0
 71
3
 72
23
 73
19
 74
0
 42
0.0000001
 43
0.0000001
 44
0.0000000001
 40
0.0
 40
0.0
 40
0.0
 40
0.0
 40
0.0601998839
 40
0.1204969479
 40
0.1809836633
 40
0.2417433973
 40
0.3028465701
 40
0.3643475579
 40
0.426282473
 40
0.4886679245
 40
0.5515006989
 40
0.614758301
 40
0.6784002918
 40
0.7423703066
 40
0.8065986013
 40
0.8710052448
 40
0.9355018871
 40
1.0
 40
1.0
 40
1.0
 40
1.0
 10
10.2331675437
 20
7.9320028607
 30
0.0
 10
10.2357317303
 20
7.9344796521
 30
0.0
 10
10.2411477412
 20
7.9391530298
 30
0.0
 10
10.2500125868
 20
7.9452147506
 30
0.0
 10
10.2595274454
 20
7.9502680149
 30
0.0
 10
10.2695861695
 20
7.9542563264
 30
0.0
 10
10.2800783627
 20
7.9571365759
 30
0.0
 10
10.2908885662
 20
7.9588775338
 30
0.0
 10
10.3018981196
 20
7.9594607192
 30
0.0
 10
10.3129863443
 20
7.9588803047
 30
0.0
 10
10.3240318784
 20
7.9571431589
 30
0.0
 10
10.3349139736
 20
7.9542687759
 30
0.0
 10
10.3455137936
 20
7.9502890342
 30
0.0
 10
10.3557156826
 20
7.9452477287
 30
0.0
 10
10.3654082953
 20
7.9392002241
 30
0.0
 10
10.3744861035
 20
7.9322124398
 30
0.0
 10
10.3828493437
 20
7.9243619107
 30
0.0
 10
10.3878921239
 20
7.9186046487
 30
0.0
 10
10.3902653245
 20
7.9156117964
 30
0.0
  0
SPLINE
  5
38D
100
AcDbEntity
  8
0
100
AcDbSpline
 62
7
  6
CONTINUOUS
 70
0
 71
3
 72
23
 73
19
 74
0
 42
0.0000001
 43
0.0000001
 44
0.0000000001
 40
0.0
 40
0.0
 40
0.0
 40
0.0
 40
0.0639118358
 40
0.127592457
 40
0.1910414514
 40
0.2542663138
 40
0.3172734614
 40
0.3800725661
 40
0.4426750635
 40
0.5050943716
 40
0.5673457595
 40
0.6294462013
 40
0.6914142009
 40
0.7532696053
 40
0.8150337193
 40
0.8767276389
 40
0.9383764952
 40
1.0
 40
1.0
 40
1.0
 40
1.0
 10
11.3818586076
 20
7.5012507436
 30
0.0
 10
11.3818586076
 20
7.4943954752
 30
0.0
 10
11.3815309014
 20
7.4807074179
 30
0.0
 10
11.3800517111
 20
7.4602618605
 30
0.0
 10
11.3775894522
 20
7.439984937
 30
0.0
 10
11.3741504714
 20
7.4199239836
 30
0.0
 10
11.3697429758
 20
7.4001246348
 30
0.0
 10
11.3643775742
 20
7.380632287
 30
0.0
 10
11.3580669661
 20
7.3614914193
 30
0.0
 10
11.3508260045
 20
7.342745671
 30
0.0
 10
11.3426716087
 20
7.3244377094
 30
0.0
 10
11.3336227165
 20
7.3066091529
 30
0.0
 10
11.323700242
 20
7.2893004949
 30
0.0
 10
11.3129270196
 20
7.2725509642
 30
0.0
 10
11.3013278087
 20
7.2563986542
 30
0.0
 10
11.2889289994
 20
7.2408798092
 30
0.0
 10
11.2757593437
 20
7.2260303834
 30
0.0
 10
11.2664838671
 20
7.2165975152
 30
0.0
 10
11.2617297245
 20
7.2120053658
 30
0.0
  0
SPLINE
  5
38E
100
AcDbEntity
  8
0
100
AcDbSpline
 62
7
  6
CONTINUOUS
 70
0
 71
3
 72
39
 73
35
 74
0
 42
0.0000001
 43
0.0000001
 44
0.0000000001
 40
0.0
 40
0.0
 40
0.0
 40
0.0
 40
0.0063160487
 40
0.0126710049
 40
0.0191030143
 40
0.025648725
 40
0.0323427741
 40
0.0392173099
 40
0.0536154899
 40
0.0690526699
 40
0.0856860689
 40
0.1036343988
 40
0.1229845382
 40
0.1437975072
 40
0.1661135699
 40
0.1899565186
 40
0.215336667
 40
0.2422531964
 40
0.2706962121
 40
0.3006480089
 40
0.3320840834
 40
0.3649742158
 40
0.3992830292
 40
0.4349704483
 40
0.4719923721
 40
0.510300957
 40
0.5498448414
 40
0.5905696299
 40
0.6324180703
 40
0.6753301946
 40
0.7192436555
 40
0.8098126736
 40
0.9035864807
 40
1.0
 40
1.0
 40
1.0
 40
1.0
 10
11.7535103056
 20
8.1223764423
 30
0.0
 10
11.7528114131
 20
8.1224249101
 30
0.0
 10
11.7514126247
 20
8.1225793404
 30
0.0
 10
11.749330116
 20
8.122981889
 30
0.0
 10
11.7472615357
 20
8.1235553373
 30
0.0
 10
11.7452080715
 20
8.124299184
 30
0.0
 10
11.7431705656
 20
8.1252130229
 30
0.0
 10
11.7404346425
 20
8.1266796477
 30
0.0
 10
11.7370491507
 20
8.1289632856
 30
0.0
 10
11.7331333052
 20
8.1323295445
 30
0.0
 10
11.7293047068
 20
8.136356064
 30
0.0
 10
11.7255677638
 20
8.1410353745
 30
0.0
 10
11.721926544
 20
8.1463601786
 30
0.0
 10
11.7183858408
 20
8.1523222679
 30
0.0
 10
11.7149506375
 20
8.1589124626
 30
0.0
 10
11.7116261481
 20
8.1661205131
 30
0.0
 10
11.7084175861
 20
8.1739350472
 30
0.0
 10
11.7053300722
 20
8.1823435828
 30
0.0
 10
11.7023686562
 20
8.1913325944
 30
0.0
 10
11.6995382161
 20
8.2008875215
 30
0.0
 10
11.6968434054
 20
8.2109928024
 30
0.0
 10
11.6942887113
 20
8.2216319361
 30
0.0
 10
11.6918783929
 20
8.2327875024
 30
0.0
 10
11.6896164379
 20
8.2444411933
 30
0.0
 10
11.6875066258
 20
8.2565738654
 30
0.0
 10
11.6855524851
 20
8.2691655677
 30
0.0
 10
11.6837572499
 20
8.2821955713
 30
0.0
 10
11.6821239186
 20
8.29564242
 30
0.0
 10
11.6806552345
 20
8.3094839561
 30
0.0
 10
11.6793535963
 20
8.3236973851
 30
0.0
 10
11.677828146
 20
8.3433151429
 30
0.0
 10
11.6763666413
 20
8.3685939391
 30
0.0
 10
11.6753228161
 20
8.399720337
 30
0.0
 10
11.6750962893
 20
8.4208166166
 30
0.0
 10
11.6750962893
 20
8.4315107275
 30
0.0
  0
SPLINE
  5
38F
100
AcDbEntity
  8
0
100
AcDbSpline
 62
7
  6
CONTINUOUS
 70
0
 71
3
 72
39
 73
35
 74
0
 42
0.0000001
 43
0.0000001
 44
0.0000000001
 40
0.0
 40
0.0
 40
0.0
 40
0.0
 40
0.0298114181
 40
0.059649612
 40
0.0895415653
 40
0.1195120891
 40
0.1495843455
 40
0.1797789409
 40
0.2101135057
 40
0.2406023294
 40
0.2712560708
 40
0.3020815936
 40
0.3330818832
 40
0.3642560663
 40
0.3955994955
 40
0.4271039373
 40
0.4587578024
 40
0.490546446
 40
0.5224525047
 40
0.5544562884
 40
0.5865361868
 40
0.6186691112
 40
0.6508309483
 40
0.6829970303
 40
0.715142608
 40
0.7472433253
 40
0.779275691
 40
0.8112175366
 40
0.8430484681
 40
0.8747502794
 40
0.9063073529
 40
0.9377070583
 40
0.9689397234
 40
1.0
 40
1.0
 40
1.0
 40
1.0
 10
10.6427104933
 20
7.8528611931
 30
0.0
 10
10.6500649253
 20
7.8599650293
 30
0.0
 10
10.6653537577
 20
7.8735989472
 30
0.0
 10
10.6898531803
 20
7.8921704324
 30
0.0
 10
10.7157957861
 20
7.9087708731
 30
0.0
 10
10.743038899
 20
7.923307423
 30
0.0
 10
10.7714347314
 20
7.9357004468
 30
0.0
 10
10.8008284816
 20
7.9458811441
 30
0.0
 10
10.8310597997
 20
7.9537926662
 30
0.0
 10
10.8619633915
 20
7.9593902817
 30
0.0
 10
10.8933699197
 20
7.9626418649
 30
0.0
 10
10.9251069221
 20
7.9635280817
 30
0.0
 10
10.9569997696
 20
7.9620425447
 30
0.0
 10
10.9888726354
 20
7.9581919612
 30
0.0
 10
11.0205495209
 20
7.9519962375
 30
0.0
 10
11.0518552651
 20
7.9434883156
 30
0.0
 10
11.0826165516
 20
7.9327140299
 30
0.0
 10
11.1126629439
 20
7.9197319738
 30
0.0
 10
11.14182788
 20
7.9046131475
 30
0.0
 10
11.1699496119
 20
7.8874405205
 30
0.0
 10
11.1968721489
 20
7.8683086016
 30
0.0
 10
11.2224462126
 20
7.8473229777
 30
0.0
 10
11.2465300393
 20
7.8245996235
 30
0.0
 10
11.2689901766
 20
7.8002642462
 30
0.0
 10
11.2897023101
 20
7.774451635
 30
0.0
 10
11.3085519602
 20
7.7473048633
 30
0.0
 10
11.3254350786
 20
7.7189744338
 30
0.0
 10
11.3402586525
 20
7.6896174311
 30
0.0
 10
11.3529413136
 20
7.6593966773
 30
0.0
 10
11.363413697
 20
7.6284796585
 30
0.0
 10
11.3716188211
 20
7.5970378241
 30
0.0
 10
11.3775123905
 20
7.565244691
 30
0.0
 10
11.3810632401
 20
7.5332783347
 30
0.0
 10
11.3818586076
 20
7.511904167
 30
0.0
 10
11.3818586076
 20
7.5012507436
 30
0.0
  0
SPLINE
  5
390
100
AcDbEntity
  8
0
100
AcDbSpline
 62
7
  6
CONTINUOUS
 70
0
 71
3
 72
29
 73
25
 74
0
 42
0.0000001
 43
0.0000001
 44
0.0000000001
 40
0.0
 40
0.0
 40
0.0
 40
0.0
 40
0.0107014679
 40
0.022188972
 40
0.0346305593
 40
0.0481653619
 40
0.0629040407
 40
0.0789361428
 40
0.0963334632
 40
0.1151510679
 40
0.1354339581
 40
0.1572153264
 40
0.1805194314
 40
0.2053642771
 40
0.2596993659
 40
0.3202296803
 40
0.3868635736
 40
0.4594235579
 40
0.537652345
 40
0.6212185832
 40
0.7097237723
 40
0.8027048571
 40
0.8996528404
 40
1.0
 40
1.0
 40
1.0
 40
1.0
 10
10.611659448
 20
7.7431825581
 30
0.0
 10
10.6115193888
 20
7.7433083079
 30
0.0
 10
10.6112485441
 20
7.7435914225
 30
0.0
 10
10.6108882367
 20
7.7440843231
 30
0.0
 10
10.6105624247
 20
7.7446585692
 30
0.0
 10
10.6102723195
 20
7.7453144112
 30
0.0
 10
10.6100189993
 20
7.7460522465
 30
0.0
 10
10.6098037781
 20
7.7468723705
 30
0.0
 10
10.6096280202
 20
7.7477749369
 30
0.0
 10
10.6094931031
 20
7.7487599349
 30
0.0
 10
10.6094004958
 20
7.7498271597
 30
0.0
 10
10.6093515988
 20
7.7509762096
 30
0.0
 10
10.6093477918
 20
7.752206496
 30
0.0
 10
10.6094065648
 20
7.754008443
 30
0.0
 10
10.6096089328
 20
7.7564590952
 30
0.0
 10
10.6100441872
 20
7.7596229427
 30
0.0
 10
10.61068695
 20
7.7630777705
 30
0.0
 10
10.6115432638
 20
7.7668059164
 30
0.0
 10
10.6126169953
 20
7.7707865932
 30
0.0
 10
10.6139093981
 20
7.7749959739
 30
0.0
 10
10.615418942
 20
7.7794075775
 30
0.0
 10
10.6171411496
 20
7.7839928576
 30
0.0
 10
10.6190685283
 20
7.7887213799
 30
0.0
 10
10.6204620653
 20
7.7918999763
 30
0.0
 10
10.6211903736
 20
7.7935077053
 30
0.0
  0
SPLINE
  5
391
100
AcDbEntity
  8
0
100
AcDbSpline
 62
7
  6
CONTINUOUS
 70
0
 71
3
 72
39
 73
35
 74
0
 42
0.0000001
 43
0.0000001
 44
0.0000000001
 40
0.0
 40
0.0
 40
0.0
 40
0.0
 40
0.0299424713
 40
0.0599093189
 40
0.0899243252
 40
0.1200101041
 40
0.1501875624
 40
0.1804754141
 40
0.2108897589
 40
0.2414437364
 40
0.2721472611
 40
0.3030068436
 40
0.3340254952
 40
0.3652027139
 40
0.3965345487
 40
0.4280137345
 40
0.459629892
 40
0.4913697861
 40
0.5232176333
 40
0.5551554497
 40
0.5871634339
 40
0.6192203769
 40
0.6513040927
 40
0.6833918636
 40
0.7154608914
 40
0.7474887506
 40
0.7794538354
 40
0.8113357959
 40
0.8431159558
 40
0.8747777127
 40
0.9063068657
 40
0.9376920949
 40
0.9689246535
 40
1.0
 40
1.0
 40
1.0
 40
1.0
 10
9.6323363384
 20
7.4143067766
 30
0.0
 10
9.6381676039
 20
7.4199393519
 30
0.0
 10
9.6502886715
 20
7.4307499191
 30
0.0
 10
9.6697085039
 20
7.445477407
 30
0.0
 10
9.6902673103
 20
7.4586428227
 30
0.0
 10
9.7118502141
 20
7.4701723167
 30
0.0
 10
9.734338556
 20
7.4800028997
 30
0.0
 10
9.7576082276
 20
7.48808053
 30
0.0
 10
9.7815310019
 20
7.4943610017
 30
0.0
 10
9.8059750798
 20
7.4988100256
 30
0.0
 10
9.8308058739
 20
7.5014034446
 30
0.0
 10
9.8558867451
 20
7.5021273197
 30
0.0
 10
9.881079756
 20
7.5009779949
 30
0.0
 10
9.906246423
 20
7.497962099
 30
0.0
 10
9.93124847
 20
7.4930964945
 30
0.0
 10
9.955948578
 20
7.4864081774
 30
0.0
 10
9.9802111355
 20
7.4779341371
 30
0.0
 10
10.0039029694
 20
7.4677211252
 30
0.0
 10
10.0268940641
 20
7.4558253973
 30
0.0
 10
10.0490582648
 20
7.4423124023
 30
0.0
 10
10.0702739594
 20
7.4272564252
 30
0.0
 10
10.0904247344
 20
7.4107401794
 30
0.0
 10
10.1094000201
 20
7.3928543722
 30
0.0
 10
10.1270956842
 20
7.3736971991
 30
0.0
 10
10.1434145923
 20
7.3533738053
 30
0.0
 10
10.1582671357
 20
7.3319957158
 30
0.0
 10
10.171571719
 20
7.3096802324
 30
0.0
 10
10.1832552007
 20
7.2865497927
 30
0.0
 10
10.193253307
 20
7.2627313281
 30
0.0
 10
10.2015109755
 20
7.2383555216
 30
0.0
 10
10.207982694
 20
7.2135562851
 30
0.0
 10
10.2126326128
 20
7.1884693331
 30
0.0
 10
10.2154350479
 20
7.1632341995
 30
0.0
 10
10.2160627205
 20
7.1463569168
 30
0.0
 10
10.2160627205
 20
7.1379427967
 30
0.0
  0
SPLINE
  5
392
100
AcDbEntity
  8
0
100
AcDbSpline
 62
7
  6
CONTINUOUS
 70
0
 71
3
 72
23
 73
19
 74
0
 42
0.0000001
 43
0.0000001
 44
0.0000000001
 40
0.0
 40
0.0
 40
0.0
 40
0.0
 40
0.0617101471
 40
0.1234413975
 40
0.1852146443
 40
0.247050354
 40
0.3089683512
 40
0.3709876208
 40
0.4331261329
 40
0.4954006604
 40
0.5578266143
 40
0.6204179171
 40
0.6831867871
 40
0.7461438917
 40
0.8092980342
 40
0.8726549895
 40
0.936223237
 40
1.0
 40
1.0
 40
1.0
 40
1.0
 10
10.1207432064
 20
6.9086708097
 30
0.0
 10
10.1245174547
 20
6.9123164571
 30
0.0
 10
10.131880991
 20
6.9198047039
 30
0.0
 10
10.1423359859
 20
6.9315923166
 30
0.0
 10
10.1521786776
 20
6.9439100204
 30
0.0
 10
10.1613859706
 20
6.9567290262
 30
0.0
 10
10.1699367166
 20
6.97001988
 30
0.0
 10
10.1778112096
 20
6.983751871
 30
0.0
 10
10.1849913305
 20
6.9978933217
 30
0.0
 10
10.191460536
 20
7.0124116153
 30
0.0
 10
10.1972039057
 20
7.0272732785
 30
0.0
 10
10.2022082518
 20
7.0424440204
 30
0.0
 10
10.2064620953
 20
7.0578888542
 30
0.0
 10
10.2099556497
 20
7.0735721975
 30
0.0
 10
10.2126808246
 20
7.0894577949
 30
0.0
 10
10.2146315511
 20
7.1055093575
 30
0.0
 10
10.2158031298
 20
7.1216891543
 30
0.0
 10
10.2160627205
 20
7.132519618
 30
0.0
 10
10.2160627205
 20
7.1379427967
 30
0.0
  0
SPLINE
  5
393
100
AcDbEntity
  8
0
100
AcDbSpline
 62
7
  6
CONTINUOUS
 70
0
 71
3
 72
47
 73
43
 74
0
 42
0.0000001
 43
0.0000001
 44
0.0000000001
 40
0.0
 40
0.0
 40
0.0
 40
0.0
 40
0.0063158967
 40
0.0126706977
 40
0.0191025471
 40
0.0256480963
 40
0.0323419829
 40
0.0392163382
 40
0.053614168
 40
0.0611948929
 40
0.0690566412
 40
0.077217773
 40
0.0856941569
 40
0.0944995551
 40
0.1036456891
 40
0.1131424521
 40
0.122998232
 40
0.1332198706
 40
0.1438129644
 40
0.1547820179
 40
0.1661303832
 40
0.1899727563
 40
0.2153522396
 40
0.2422681077
 40
0.2707104459
 40
0.3006614883
 40
0.3320967939
 40
0.3649861265
 40
0.3992940928
 40
0.4349806571
 40
0.4720016811
 40
0.5103093127
 40
0.5498522596
 40
0.5905760756
 40
0.6324234754
 40
0.6753345639
 40
0.7192469999
 40
0.7640961586
 40
0.8098155359
 40
0.8563366993
 40
0.9035889296
 40
1.0
 40
1.0
 40
1.0
 40
1.0
 10
12.2739485892
 20
8.6752344731
 30
0.0
 10
12.2729513779
 20
8.6753036275
 30
0.0
 10
12.2709555243
 20
8.6755239761
 30
0.0
 10
12.2679841069
 20
8.6760983374
 30
0.0
 10
12.2650325596
 20
8.6769165447
 30
0.0
 10
12.2621025893
 20
8.6779778866
 30
0.0
 10
12.2591953651
 20
8.6792818104
 30
0.0
 10
12.2552917431
 20
8.6813743464
 30
0.0
 10
12.2514941224
 20
8.6839359221
 30
0.0
 10
12.2478189998
 20
8.6869043985
 30
0.0
 10
12.2450430337
 20
8.6894071703
 30
0.0
 10
12.2422967296
 20
8.6921464772
 30
0.0
 10
12.2395807356
 20
8.695121308
 30
0.0
 10
12.236896195
 20
8.6983304077
 30
0.0
 10
12.2342440895
 20
8.7017724649
 30
0.0
 10
12.2316254086
 20
8.7054460533
 30
0.0
 10
12.2290412225
 20
8.7093497177
 30
0.0
 10
12.2264925043
 20
8.71348185
 30
0.0
 10
12.223980273
 20
8.7178407751
 30
0.0
 10
12.2215055406
 20
8.7224247517
 30
0.0
 10
12.2182027359
 20
8.7289419428
 30
0.0
 10
12.214186363
 20
8.7376504352
 30
0.0
 10
12.2096082441
 20
8.7488003853
 30
0.0
 10
12.2052028365
 20
8.7607980982
 30
0.0
 10
12.2009773655
 20
8.7736240059
 30
0.0
 10
12.1969387525
 20
8.787257398
 30
0.0
 10
12.1930936769
 20
8.8016760567
 30
0.0
 10
12.1894485252
 20
8.8168564436
 30
0.0
 10
12.1860093664
 20
8.8327737002
 30
0.0
 10
12.1827819117
 20
8.849401706
 30
0.0
 10
12.1797715372
 20
8.8667131412
 30
0.0
 10
12.176983268
 20
8.8846795408
 30
0.0
 10
12.1744217526
 20
8.9032713345
 30
0.0
 10
12.1720912491
 20
8.922457899
 30
0.0
 10
12.1699956421
 20
8.9422076227
 30
0.0
 10
12.1681384341
 20
8.9624879604
 30
0.0
 10
12.1665227199
 20
8.9832654706
 30
0.0
 10
12.1651511799
 20
9.0045058998
 30
0.0
 10
12.1640261137
 20
9.02617421
 30
0.0
 10
12.1631493919
 20
9.0482346439
 30
0.0
 10
12.1623079733
 20
9.078323535
 30
0.0
 10
12.1620638973
 20
9.1010620763
 30
0.0
 10
12.1620638973
 20
9.1163208933
 30
0.0
  0
SPLINE
  5
394
100
AcDbEntity
  8
0
100
AcDbSpline
 62
7
  6
CONTINUOUS
 70
0
 71
3
 72
37
 73
33
 74
0
 42
0.0000001
 43
0.0000001
 44
0.0000000001
 40
0.0
 40
0.0
 40
0.0
 40
0.0
 40
0.0063161109
 40
0.0126711338
 40
0.0191032156
 40
0.0256489994
 40
0.0392093374
 40
0.0536076786
 40
0.0690450798
 40
0.0856786401
 40
0.1036272065
 40
0.1229776037
 40
0.1437907506
 40
0.1661071328
 40
0.1899503416
 40
0.2153307398
 40
0.2422476171
 40
0.2706909087
 40
0.3006430392
 40
0.3320794542
 40
0.3649699263
 40
0.3992791091
 40
0.4349668709
 40
0.4719892129
 40
0.5102981662
 40
0.5498424352
 40
0.5905676756
 40
0.6324164962
 40
0.7192408911
 40
0.8098109239
 40
0.9035854682
 40
1.0
 40
1.0
 40
1.0
 40
1.0
 10
11.9488048864
 20
6.9274384302
 30
0.0
 10
11.9483561422
 20
6.9274695518
 30
0.0
 10
11.9474580075
 20
6.9275687113
 30
0.0
 10
11.9461208812
 20
6.9278271829
 30
0.0
 10
11.9447926606
 20
6.9281954211
 30
0.0
 10
11.9430141333
 20
6.9288396018
 30
0.0
 10
11.9408042075
 20
6.9299348056
 30
0.0
 10
11.9382358071
 20
6.9316676491
 30
0.0
 10
11.9357211747
 20
6.9338292276
 30
0.0
 10
11.9332630057
 20
6.9364145247
 30
0.0
 10
11.9308635693
 20
6.9394190456
 30
0.0
 10
11.9285256409
 20
6.9428380033
 30
0.0
 10
11.9262522049
 20
6.9466661364
 30
0.0
 10
11.924046557
 20
6.9508975829
 30
0.0
 10
11.9219119675
 20
6.9555257288
 30
0.0
 10
11.91985181
 20
6.9605432836
 30
0.0
 10
11.917869399
 20
6.9659422408
 30
0.0
 10
11.915967926
 20
6.9717139027
 30
0.0
 10
11.9141505665
 20
6.9778489287
 30
0.0
 10
11.9124202871
 20
6.9843373252
 30
0.0
 10
11.9107799707
 20
6.9911684961
 30
0.0
 10
11.9092323623
 20
6.9983312563
 30
0.0
 10
11.9077800016
 20
7.0058138519
 30
0.0
 10
11.9064253471
 20
7.0136039916
 30
0.0
 10
11.9051706299
 20
7.0216888633
 30
0.0
 10
11.9040179472
 20
7.0300551565
 30
0.0
 10
11.9029692187
 20
7.0386891076
 30
0.0
 10
11.9016962777
 20
7.0506864038
 30
0.0
 10
11.9003875169
 20
7.0662477495
 30
0.0
 10
11.8992725738
 20
7.0855296771
 30
0.0
 10
11.8986023886
 20
7.1055153815
 30
0.0
 10
11.8984569341
 20
7.119060831
 30
0.0
 10
11.8984569341
 20
7.1259273007
 30
0.0
  0
SPLINE
  5
395
100
AcDbEntity
  8
0
100
AcDbSpline
 62
7
  6
CONTINUOUS
 70
0
 71
3
 72
37
 73
33
 74
0
 42
0.0000001
 43
0.0000001
 44
0.0000000001
 40
0.0
 40
0.0
 40
0.0
 40
0.0
 40
0.0063161109
 40
0.0126711338
 40
0.0191032156
 40
0.0256489994
 40
0.0392093374
 40
0.0536076786
 40
0.0690450798
 40
0.0856786401
 40
0.1036272065
 40
0.1229776037
 40
0.1437907506
 40
0.1661071328
 40
0.1899503416
 40
0.2153307398
 40
0.2422476171
 40
0.2706909087
 40
0.3006430392
 40
0.3320794542
 40
0.3649699263
 40
0.3992791091
 40
0.4349668709
 40
0.4719892129
 40
0.5102981662
 40
0.5498424352
 40
0.5905676756
 40
0.6324164962
 40
0.7192408911
 40
0.8098109239
 40
0.9035854682
 40
1.0
 40
1.0
 40
1.0
 40
1.0
 10
11.9488048864
 20
8.3164398157
 30
0.0
 10
11.9483561422
 20
8.3164709373
 30
0.0
 10
11.9474580075
 20
8.3165700968
 30
0.0
 10
11.9461208812
 20
8.3168285684
 30
0.0
 10
11.9447926606
 20
8.3171968066
 30
0.0
 10
11.9430141333
 20
8.3178409873
 30
0.0
 10
11.9408042075
 20
8.3189361911
 30
0.0
 10
11.9382358071
 20
8.3206690346
 30
0.0
 10
11.9357211747
 20
8.3228306131
 30
0.0
 10
11.9332630057
 20
8.3254159102
 30
0.0
 10
11.9308635693
 20
8.3284204311
 30
0.0
 10
11.9285256409
 20
8.3318393888
 30
0.0
 10
11.9262522049
 20
8.3356675219
 30
0.0
 10
11.924046557
 20
8.3398989684
 30
0.0
 10
11.9219119675
 20
8.3445271143
 30
0.0
 10
11.91985181
 20
8.3495446691
 30
0.0
 10
11.917869399
 20
8.3549436263
 30
0.0
 10
11.915967926
 20
8.3607152882
 30
0.0
 10
11.9141505665
 20
8.3668503142
 30
0.0
 10
11.9124202871
 20
8.3733387107
 30
0.0
 10
11.9107799707
 20
8.3801698816
 30
0.0
 10
11.9092323623
 20
8.3873326418
 30
0.0
 10
11.9077800016
 20
8.3948152374
 30
0.0
 10
11.9064253471
 20
8.4026053771
 30
0.0
 10
11.9051706299
 20
8.4106902488
 30
0.0
 10
11.9040179472
 20
8.419056542
 30
0.0
 10
11.9029692187
 20
8.4276904931
 30
0.0
 10
11.9016962777
 20
8.4396877893
 30
0.0
 10
11.9003875169
 20
8.455249135
 30
0.0
 10
11.8992725738
 20
8.4745310626
 30
0.0
 10
11.8986023886
 20
8.494516767
 30
0.0
 10
11.8984569341
 20
8.5080622165
 30
0.0
 10
11.8984569341
 20
8.5149286862
 30
0.0
  0
SPLINE
  5
396
100
AcDbEntity
  8
0
100
AcDbSpline
 62
7
  6
CONTINUOUS
 70
0
 71
3
 72
71
 73
67
 74
0
 42
0.0000001
 43
0.0000001
 44
0.0000000001
 40
0.0
 40
0.0
 40
0.0
 40
0.0
 40
0.0155842125
 40
0.0311159548
 40
0.0465952452
 40
0.0620238832
 40
0.077403449
 40
0.0927362827
 40
0.1080251236
 40
0.1232731733
 40
0.1384840551
 40
0.1536617757
 40
0.1688106896
 40
0.1839354533
 40
0.1990409787
 40
0.2141323824
 40
0.2292149319
 40
0.2442939892
 40
0.2593749538
 40
0.2744632042
 40
0.289564041
 40
0.3046826304
 40
0.3198239505
 40
0.3349927388
 40
0.3501934431
 40
0.365430177
 40
0.3807066786
 40
0.3960262757
 40
0.4113918552
 40
0.4268058381
 40
0.4422701582
 40
0.4577862482
 40
0.4733550295
 40
0.4889769098
 40
0.5046517844
 40
0.5203790421
 40
0.5361575756
 40
0.5519857966
 40
0.5678616546
 40
0.5837826615
 40
0.5997459176
 40
0.6157481409
 40
0.6317856994
 40
0.6478546448
 40
0.6639507505
 40
0.6800695509
 40
0.6962063814
 40
0.7123564195
 40
0.7285147271
 40
0.7446762936
 40
0.7608360803
 40
0.7769890646
 40
0.7931302831
 40
0.8092548749
 40
0.8253581239
 40
0.841435501
 40
0.8574827056
 40
0.873495705
 40
0.8894707701
 40
0.9054045133
 40
0.9212939187
 40
0.9371363615
 40
0.9529297228
 40
0.9686720688
 40
0.9843626653
 40
1.0
 40
1.0
 40
1.0
 40
1.0
 10
9.4408743642
 20
7.1706682988
 30
0.0
 10
9.4408743642
 20
7.1774521051
 30
0.0
 10
9.4412063596
 20
7.1909992826
 30
0.0
 10
9.4427049608
 20
7.2112346904
 30
0.0
 10
9.4451999572
 20
7.2313038863
 30
0.0
 10
9.4486851841
 20
7.2511576979
 30
0.0
 10
9.4531524347
 20
7.2707485876
 30
0.0
 10
9.4585909308
 20
7.2900292244
 30
0.0
 10
9.4649876433
 20
7.3089531491
 30
0.0
 10
9.4723271782
 20
7.327474726
 30
0.0
 10
9.4805918773
 20
7.3455492911
 30
0.0
 10
9.4897618504
 20
7.3631332498
 30
0.0
 10
9.4998150202
 20
7.3801841847
 30
0.0
 10
9.510727179
 20
7.3966609557
 30
0.0
 10
9.5224720335
 20
7.4125238084
 30
0.0
 10
9.5350212627
 20
7.4277344789
 30
0.0
 10
9.5483446065
 20
7.4422562742
 30
0.0
 10
9.5624099344
 20
7.456054163
 30
0.0
 10
9.5771833241
 20
7.4690948614
 30
0.0
 10
9.5926291452
 20
7.4813469093
 30
0.0
 10
9.6087101334
 20
7.4927807646
 30
0.0
 10
9.6253874855
 20
7.5033688739
 30
0.0
 10
9.6426209661
 20
7.5130857249
 30
0.0
 10
9.6603690019
 20
7.5219079103
 30
0.0
 10
9.6785887835
 20
7.5298141838
 30
0.0
 10
9.6972363692
 20
7.5367855059
 30
0.0
 10
9.7162667833
 20
7.5428051145
 30
0.0
 10
9.7356341337
 20
7.5478585506
 30
0.0
 10
9.7552917262
 20
7.5519336827
 30
0.0
 10
9.7751921756
 20
7.5550207367
 30
0.0
 10
9.7952875195
 20
7.5571123178
 30
0.0
 10
9.8155293326
 20
7.558203425
 30
0.0
 10
9.835868842
 20
7.5582914897
 30
0.0
 10
9.856257049
 20
7.5573763571
 30
0.0
 10
9.8766448457
 20
7.5554602822
 30
0.0
 10
9.896983132
 20
7.5525479248
 30
0.0
 10
9.9172229318
 20
7.5486463365
 30
0.0
 10
9.9373155092
 20
7.5437649459
 30
0.0
 10
9.9572124923
 20
7.5379155584
 30
0.0
 10
9.9768659841
 20
7.5311122994
 30
0.0
 10
9.9962286771
 20
7.5233715829
 30
0.0
 10
10.0152539653
 20
7.5147120718
 30
0.0
 10
10.0338960534
 20
7.5051546312
 30
0.0
 10
10.05211007
 20
7.4947222875
 30
0.0
 10
10.0698521837
 20
7.4834401841
 30
0.0
 10
10.0870796967
 20
7.4713354986
 30
0.0
 10
10.1037511481
 20
7.4584373815
 30
0.0
 10
10.1198264122
 20
7.4447768865
 30
0.0
 10
10.1352667914
 20
7.4303868944
 30
0.0
 10
10.1500351194
 20
7.415302047
 30
0.0
 10
10.1640958551
 20
7.3995586639
 30
0.0
 10
10.1774151533
 20
7.3831946412
 30
0.0
 10
10.1899609478
 20
7.3662493645
 30
0.0
 10
10.201703028
 20
7.3487636153
 30
0.0
 10
10.2126131072
 20
7.3307794721
 30
0.0
 10
10.2226649096
 20
7.3123402211
 30
0.0
 10
10.2318342282
 20
7.2934902466
 30
0.0
 10
10.2400989701
 20
7.2742749174
 30
0.0
 10
10.2474392135
 20
7.2547404823
 30
0.0
 10
10.2538372535
 20
7.2349339576
 30
0.0
 10
10.259277636
 20
7.2149030254
 30
0.0
 10
10.2637472579
 20
7.1946958801
 30
0.0
 10
10.2672352587
 20
7.1743612785
 30
0.0
 10
10.2697333364
 20
7.1539478627
 30
0.0
 10
10.271235231
 20
7.1335056113
 30
0.0
 10
10.271570624
 20
7.1198662479
 30
0.0
 10
10.271570624
 20
7.1130593175
 30
0.0
  0
SPLINE
  5
397
100
AcDbEntity
  8
0
100
AcDbSpline
 62
7
  6
CONTINUOUS
 70
0
 71
3
 72
12
 73
8
 74
0
 42
0.0000001
 43
0.0000001
 44
0.0000000001
 40
0.0
 40
0.0
 40
0.0
 40
0.0
 40
0.248451817
 40
0.4956460066
 40
0.6197726155
 40
0.7448375569
 40
1.0
 40
1.0
 40
1.0
 40
1.0
 10
10.0142662788
 20
9.0436694588
 30
0.0
 10
10.0132385075
 20
9.0439656264
 30
0.0
 10
10.0112168136
 20
9.0446634135
 30
0.0
 10
10.0088088503
 20
9.0458296465
 30
0.0
 10
10.006984929
 20
9.0469461859
 30
0.0
 10
10.0052146585
 20
9.0482054231
 30
0.0
 10
10.0039856974
 20
9.0492985525
 30
0.0
 10
10.0032218717
 20
9.050088004
 30
0.0
  0
SPLINE
  5
398
100
AcDbEntity
  8
0
100
AcDbSpline
 62
7
  6
CONTINUOUS
 70
0
 71
3
 72
23
 73
19
 74
0
 42
0.0000001
 43
0.0000001
 44
0.0000000001
 40
0.0
 40
0.0
 40
0.0
 40
0.0
 40
0.063776763
 40
0.1273450105
 40
0.1907019658
 40
0.2538561083
 40
0.3168132129
 40
0.3795820829
 40
0.4421733857
 40
0.5045993396
 40
0.5668738671
 40
0.6290123792
 40
0.6910316488
 40
0.752949646
 40
0.8147853557
 40
0.8765586025
 40
0.9382898529
 40
1.0
 40
1.0
 40
1.0
 40
1.0
 10
9.7475886619
 20
8.7390952303
 30
0.0
 10
9.7475886619
 20
8.744518409
 30
0.0
 10
9.7478482525
 20
8.7553488727
 30
0.0
 10
9.7490198313
 20
8.7715286695
 30
0.0
 10
9.7509705578
 20
8.7875802321
 30
0.0
 10
9.7536957326
 20
8.8034658296
 30
0.0
 10
9.757189287
 20
8.8191491728
 30
0.0
 10
9.7614431305
 20
8.8345940067
 30
0.0
 10
9.7664474767
 20
8.8497647485
 30
0.0
 10
9.7721908464
 20
8.8646264118
 30
0.0
 10
9.7786600519
 20
8.8791447053
 30
0.0
 10
9.7858401727
 20
8.893286156
 30
0.0
 10
9.7937146657
 20
8.9070181471
 30
0.0
 10
9.8022654117
 20
8.9203090008
 30
0.0
 10
9.8114727048
 20
8.9331280066
 30
0.0
 10
9.8213153965
 20
8.9454457104
 30
0.0
 10
9.8317703913
 20
8.9572333232
 30
0.0
 10
9.8391339276
 20
8.9647215699
 30
0.0
 10
9.8429081759
 20
8.9683672173
 30
0.0
  0
SPLINE
  5
399
100
AcDbEntity
  8
0
100
AcDbSpline
 62
7
  6
CONTINUOUS
 70
0
 71
3
 72
39
 73
35
 74
0
 42
0.0000001
 43
0.0000001
 44
0.0000000001
 40
0.0
 40
0.0
 40
0.0
 40
0.0
 40
0.0310753465
 40
0.0623079051
 40
0.0936931343
 40
0.1252222873
 40
0.1568840442
 40
0.1886642041
 40
0.2205461646
 40
0.2525112494
 40
0.2845391086
 40
0.3166081364
 40
0.3486959073
 40
0.3807796231
 40
0.4128365661
 40
0.4448445503
 40
0.4767823667
 40
0.5086302139
 40
0.540370108
 40
0.5719862655
 40
0.6034654513
 40
0.6347972861
 40
0.6659745048
 40
0.6969931564
 40
0.7278527389
 40
0.7585562636
 40
0.7891102411
 40
0.8195245859
 40
0.8498124376
 40
0.8799898959
 40
0.9100756748
 40
0.9400906811
 40
0.9700575287
 40
1.0
 40
1.0
 40
1.0
 40
1.0
 10
9.7475886619
 20
8.7390952303
 30
0.0
 10
9.7475886619
 20
8.7306811102
 30
0.0
 10
9.7482163345
 20
8.7138038275
 30
0.0
 10
9.7510187695
 20
8.688568694
 30
0.0
 10
9.7556686884
 20
8.6634817419
 30
0.0
 10
9.7621404068
 20
8.6386825054
 30
0.0
 10
9.7703980753
 20
8.614306699
 30
0.0
 10
9.7803961816
 20
8.5904882344
 30
0.0
 10
9.7920796633
 20
8.5673577946
 30
0.0
 10
9.8053842466
 20
8.5450423112
 30
0.0
 10
9.82023679
 20
8.5236642217
 30
0.0
 10
9.8365556981
 20
8.5033408279
 30
0.0
 10
9.8542513622
 20
8.4841836549
 30
0.0
 10
9.8732266479
 20
8.4662978476
 30
0.0
 10
9.8933774229
 20
8.4497816018
 30
0.0
 10
9.9145931175
 20
8.4347256248
 30
0.0
 10
9.9367573182
 20
8.4212126298
 30
0.0
 10
9.959748413
 20
8.4093169018
 30
0.0
 10
9.9834402468
 20
8.3991038899
 30
0.0
 10
10.0077028044
 20
8.3906298497
 30
0.0
 10
10.0324029123
 20
8.3839415325
 30
0.0
 10
10.0574049593
 20
8.3790759281
 30
0.0
 10
10.0825716263
 20
8.3760600322
 30
0.0
 10
10.1077646372
 20
8.3749107074
 30
0.0
 10
10.1328455085
 20
8.3756345825
 30
0.0
 10
10.1576763025
 20
8.3782280014
 30
0.0
 10
10.1821203804
 20
8.3826770253
 30
0.0
 10
10.2060431548
 20
8.388957497
 30
0.0
 10
10.2293128263
 20
8.3970351273
 30
0.0
 10
10.2518011683
 20
8.4068657103
 30
0.0
 10
10.2733840721
 20
8.4183952043
 30
0.0
 10
10.2939428784
 20
8.43156062
 30
0.0
 10
10.3133627108
 20
8.4462881079
 30
0.0
 10
10.3254837785
 20
8.4570986751
 30
0.0
 10
10.331315044
 20
8.4627312505
 30
0.0
  0
SPLINE
  5
39A
100
AcDbEntity
  8
0
100
AcDbSpline
 62
7
  6
CONTINUOUS
 70
0
 71
3
 72
39
 73
35
 74
0
 42
0.0000001
 43
0.0000001
 44
0.0000000001
 40
0.0
 40
0.0
 40
0.0
 40
0.0
 40
0.0307062723
 40
0.0615305164
 40
0.0924698086
 40
0.1235211139
 40
0.1546792859
 40
0.1859382338
 40
0.2172905683
 40
0.2487278495
 40
0.2802406463
 40
0.3118186651
 40
0.3434508687
 40
0.3751256067
 40
0.406830749
 40
0.4385538242
 40
0.47028216
 40
0.5020030254
 40
0.5337037733
 40
0.5653719817
 40
0.5969955948
 40
0.6285630594
 40
0.6600634582
 40
0.6914866385
 40
0.7228233329
 40
0.7540652744
 40
0.7852053006
 40
0.8162374484
 40
0.8471570371
 40
0.8779607351
 40
0.9086466259
 40
0.9392142166
 40
0.9696645374
 40
1.0
 40
1.0
 40
1.0
 40
1.0
 10
10.0104191806
 20
8.9929700313
 30
0.0
 10
10.0104191806
 20
8.9866555664
 30
0.0
 10
10.0107723556
 20
8.973999616
 30
0.0
 10
10.0123527455
 20
8.9550406704
 30
0.0
 10
10.0149799136
 20
8.9361260953
 30
0.0
 10
10.0186455376
 20
8.9173153668
 30
0.0
 10
10.0233382768
 20
8.8986664972
 30
0.0
 10
10.0290434852
 20
8.8802373495
 30
0.0
 10
10.0357434555
 20
8.8620849914
 30
0.0
 10
10.0434173744
 20
8.8442656585
 30
0.0
 10
10.0520414316
 20
8.8268345435
 30
0.0
 10
10.0615888757
 20
8.8098456362
 30
0.0
 10
10.0720301039
 20
8.7933515559
 30
0.0
 10
10.0833327497
 20
8.7774033885
 30
0.0
 10
10.0954617826
 20
8.7620505285
 30
0.0
 10
10.1083796187
 20
8.7473405286
 30
0.0
 10
10.1220462362
 20
8.7333189527
 30
0.0
 10
10.1364192991
 20
8.7200292368
 30
0.0
 10
10.1514542871
 20
8.7075125541
 30
0.0
 10
10.1671046328
 20
8.695807689
 30
0.0
 10
10.183321865
 20
8.6849509173
 30
0.0
 10
10.2000557574
 20
8.6749758946
 30
0.0
 10
10.2172544834
 20
8.6659135518
 30
0.0
 10
10.2348647753
 20
8.6577920007
 30
0.0
 10
10.2528320869
 20
8.6506364435
 30
0.0
 10
10.271100762
 20
8.6444690953
 30
0.0
 10
10.2896142061
 20
8.6393091175
 30
0.0
 10
10.3083150618
 20
8.6351725569
 30
0.0
 10
10.3271453779
 20
8.632072296
 30
0.0
 10
10.3460468135
 20
8.6300180118
 30
0.0
 10
10.364960721
 20
8.6290161402
 30
0.0
 10
10.383828682
 20
8.6290698863
 30
0.0
 10
10.4025913852
 20
8.6301790526
 30
0.0
 10
10.4150157945
 20
8.6316228306
 30
0.0
 10
10.4211892045
 20
8.6325196521
 30
0.0
  0
SPLINE
  5
39B
100
AcDbEntity
  8
0
100
AcDbSpline
 62
7
  6
CONTINUOUS
 70
0
 71
3
 72
39
 73
35
 74
0
 42
0.0000001
 43
0.0000001
 44
0.0000000001
 40
0.0
 40
0.0
 40
0.0
 40
0.0
 40
0.0299839205
 40
0.0600400641
 40
0.0901755904
 40
0.1203992401
 40
0.1507165709
 40
0.1811324008
 40
0.211649943
 40
0.2422711305
 40
0.272996636
 40
0.3038259742
 40
0.3347576091
 40
0.3657890656
 40
0.3969170498
 40
0.4281375711
 40
0.4594460745
 40
0.490837564
 40
0.5223067172
 40
0.5538479902
 40
0.5854557136
 40
0.6171241825
 40
0.6488477517
 40
0.6806208925
 40
0.7124382354
 40
0.7442946004
 40
0.7761850232
 40
0.8081048034
 40
0.8400494847
 40
0.8720149014
 40
0.9039968968
 40
0.9359909599
 40
0.9679930994
 40
1.0
 40
1.0
 40
1.0
 40
1.0
 10
10.0142662788
 20
9.0436694588
 30
0.0
 10
10.0151839402
 20
9.0399348915
 30
0.0
 10
10.017269894
 20
9.0325153343
 30
0.0
 10
10.0211291379
 20
9.0216041184
 30
0.0
 10
10.0257074333
 20
9.0109405865
 30
0.0
 10
10.0309861441
 20
9.0005684731
 30
0.0
 10
10.03694441
 20
8.9905294515
 30
0.0
 10
10.0435583818
 20
8.9808641617
 30
0.0
 10
10.0508017263
 20
8.9716116416
 30
0.0
 10
10.0586455666
 20
8.9628092244
 30
0.0
 10
10.0670586645
 20
8.954492316
 30
0.0
 10
10.0760075681
 20
8.9466942282
 30
0.0
 10
10.0854567769
 20
8.9394460012
 30
0.0
 10
10.095368922
 20
8.9327762422
 30
0.0
 10
10.1057049622
 20
8.9267109757
 30
0.0
 10
10.1164243949
 20
8.9212735098
 30
0.0
 10
10.1274854697
 20
8.9164842927
 30
0.0
 10
10.1388454399
 20
8.9123608366
 30
0.0
 10
10.1504608079
 20
8.9089176461
 30
0.0
 10
10.162287576
 20
8.9061661686
 30
0.0
 10
10.1742815014
 20
8.9041147725
 30
0.0
 10
10.1863983517
 20
8.9027687418
 30
0.0
 10
10.1985941592
 20
8.9021302676
 30
0.0
 10
10.2108254762
 20
8.9021985436
 30
0.0
 10
10.2230496081
 20
8.9029698435
 30
0.0
 10
10.2352248339
 20
8.9044376266
 30
0.0
 10
10.2473106155
 20
8.9065926663
 30
0.0
 10
10.2592678007
 20
8.9094231374
 30
0.0
 10
10.271058796
 20
8.9129148288
 30
0.0
 10
10.2826476854
 20
8.9170513399
 30
0.0
 10
10.2940002475
 20
8.921814195
 30
0.0
 10
10.3050842688
 20
8.9271831004
 30
0.0
 10
10.3158691367
 20
8.933135783
 30
0.0
 10
10.3228414913
 20
8.9374782689
 30
0.0
 10
10.3262683504
 20
8.9397385032
 30
0.0
  0
SPLINE
  5
39C
100
AcDbEntity
  8
0
100
AcDbSpline
 62
7
  6
CONTINUOUS
 70
0
 71
3
 72
71
 73
67
 74
0
 42
0.0000001
 43
0.0000001
 44
0.0000000001
 40
0.0
 40
0.0
 40
0.0
 40
0.0
 40
0.0155842125
 40
0.0311159548
 40
0.0465952452
 40
0.0620238832
 40
0.077403449
 40
0.0927362827
 40
0.1080251236
 40
0.1232731733
 40
0.1384840551
 40
0.1536617757
 40
0.1688106896
 40
0.1839354533
 40
0.1990409787
 40
0.2141323824
 40
0.2292149319
 40
0.2442939892
 40
0.2593749538
 40
0.2744632042
 40
0.289564041
 40
0.3046826304
 40
0.3198239505
 40
0.3349927388
 40
0.3501934431
 40
0.365430177
 40
0.3807066786
 40
0.3960262757
 40
0.4113918552
 40
0.4268058381
 40
0.4422701582
 40
0.4577862482
 40
0.4733550295
 40
0.4889769098
 40
0.5046517844
 40
0.5203790421
 40
0.5361575756
 40
0.5519857966
 40
0.5678616546
 40
0.5837826615
 40
0.5997459176
 40
0.6157481409
 40
0.6317856994
 40
0.6478546448
 40
0.6639507505
 40
0.6800695509
 40
0.6962063814
 40
0.7123564195
 40
0.7285147271
 40
0.7446762936
 40
0.7608360803
 40
0.7769890646
 40
0.7931302831
 40
0.8092548749
 40
0.8253581239
 40
0.841435501
 40
0.8574827056
 40
0.873495705
 40
0.8894707701
 40
0.9054045133
 40
0.9212939187
 40
0.9371363615
 40
0.9529297228
 40
0.9686720688
 40
0.9843626653
 40
1.0
 40
1.0
 40
1.0
 40
1.0
 10
10.271570624
 20
7.1130593175
 30
0.0
 10
10.271570624
 20
7.1062755112
 30
0.0
 10
10.2712386287
 20
7.0927283337
 30
0.0
 10
10.2697400275
 20
7.072492926
 30
0.0
 10
10.2672450311
 20
7.05242373
 30
0.0
 10
10.2637598041
 20
7.0325699184
 30
0.0
 10
10.2592925536
 20
7.0129790288
 30
0.0
 10
10.2538540575
 20
6.993698392
 30
0.0
 10
10.247457345
 20
6.9747744673
 30
0.0
 10
10.2401178101
 20
6.9562528904
 30
0.0
 10
10.231853111
 20
6.9381783253
 30
0.0
 10
10.2226831378
 20
6.9205943666
 30
0.0
 10
10.2126299681
 20
6.9035434317
 30
0.0
 10
10.2017178093
 20
6.8870666606
 30
0.0
 10
10.1899729548
 20
6.8712038079
 30
0.0
 10
10.1774237255
 20
6.8559931374
 30
0.0
 10
10.1641003818
 20
6.8414713422
 30
0.0
 10
10.1500350538
 20
6.8276734533
 30
0.0
 10
10.1352616642
 20
6.814632755
 30
0.0
 10
10.119815843
 20
6.802380707
 30
0.0
 10
10.1037348549
 20
6.7909468517
 30
0.0
 10
10.0870575027
 20
6.7803587425
 30
0.0
 10
10.0698240222
 20
6.7706418915
 30
0.0
 10
10.0520759863
 20
6.761819706
 30
0.0
 10
10.0338562048
 20
6.7539134326
 30
0.0
 10
10.0152086191
 20
6.7469421104
 30
0.0
 10
9.996178205
 20
6.7409225018
 30
0.0
 10
9.9768108546
 20
6.7358690658
 30
0.0
 10
9.9571532621
 20
6.7317939336
 30
0.0
 10
9.9372528127
 20
6.7287068796
 30
0.0
 10
9.9171574687
 20
6.7266152986
 30
0.0
 10
9.8969156557
 20
6.7255241914
 30
0.0
 10
9.8765761463
 20
6.7254361266
 30
0.0
 10
9.8561879393
 20
6.7263512592
 30
0.0
 10
9.8358001425
 20
6.7282673341
 30
0.0
 10
9.8154618562
 20
6.7311796915
 30
0.0
 10
9.7952220564
 20
6.7350812799
 30
0.0
 10
9.775129479
 20
6.7399626704
 30
0.0
 10
9.755232496
 20
6.745812058
 30
0.0
 10
9.7355790042
 20
6.752615317
 30
0.0
 10
9.7162163111
 20
6.7603560335
 30
0.0
 10
9.6971910229
 20
6.7690155446
 30
0.0
 10
9.6785489348
 20
6.7785729852
 30
0.0
 10
9.6603349182
 20
6.7890053289
 30
0.0
 10
9.6425928046
 20
6.8002874323
 30
0.0
 10
9.6253652916
 20
6.8123921178
 30
0.0
 10
9.6086938402
 20
6.8252902349
 30
0.0
 10
9.592618576
 20
6.8389507299
 30
0.0
 10
9.5771781969
 20
6.8533407219
 30
0.0
 10
9.5624098688
 20
6.8684255694
 30
0.0
 10
9.5483491331
 20
6.8841689525
 30
0.0
 10
9.535029835
 20
6.9005329752
 30
0.0
 10
9.5224840405
 20
6.9174782518
 30
0.0
 10
9.5107419602
 20
6.934964001
 30
0.0
 10
9.4998318811
 20
6.9529481443
 30
0.0
 10
9.4897800787
 20
6.9713873952
 30
0.0
 10
9.4806107601
 20
6.9902373698
 30
0.0
 10
9.4723460181
 20
7.0094526989
 30
0.0
 10
9.4650057748
 20
7.028987134
 30
0.0
 10
9.4586077347
 20
7.0487936587
 30
0.0
 10
9.4531673523
 20
7.0688245909
 30
0.0
 10
9.4486977303
 20
7.0890317363
 30
0.0
 10
9.4452097296
 20
7.1093663379
 30
0.0
 10
9.4427116518
 20
7.1297797536
 30
0.0
 10
9.4412097572
 20
7.150222005
 30
0.0
 10
9.4408743642
 20
7.1638613684
 30
0.0
 10
9.4408743642
 20
7.1706682988
 30
0.0
  0
SPLINE
  5
39D
100
AcDbEntity
  8
0
100
AcDbSpline
 62
7
  6
CONTINUOUS
 70
0
 71
3
 72
69
 73
65
 74
0
 42
0.0000001
 43
0.0000001
 44
0.0000000001
 40
0.0
 40
0.0
 40
0.0
 40
0.0
 40
0.0155845003
 40
0.0311164713
 40
0.0465960399
 40
0.0620249362
 40
0.0774047626
 40
0.0927378573
 40
0.1080269576
 40
0.1232752668
 40
0.1384864068
 40
0.153664385
 40
0.1688135557
 40
0.1839385759
 40
0.199044358
 40
0.2141360184
 40
0.2292188243
 40
0.2442981376
 40
0.2593793577
 40
0.2744678638
 40
0.2895689569
 40
0.3046878036
 40
0.3198293815
 40
0.3349984275
 40
0.3501993895
 40
0.3654363813
 40
0.3807131418
 40
0.3960329994
 40
0.4113988408
 40
0.4268130859
 40
0.4422776683
 40
0.4577940207
 40
0.4733630657
 40
0.4889852116
 40
0.5046603534
 40
0.5203878787
 40
0.5361666798
 40
0.5519951686
 40
0.5678712956
 40
0.5837925731
 40
0.5997561011
 40
0.6157585967
 40
0.6317964271
 40
0.6478656445
 40
0.6639620232
 40
0.6800810976
 40
0.7123600127
 40
0.7446719581
 40
0.7608320191
 40
0.776985278
 40
0.793126771
 40
0.8092516366
 40
0.8253551586
 40
0.8414328083
 40
0.8574802855
 40
0.8734935571
 40
0.8894688939
 40
0.905402907
 40
0.9212925827
 40
0.9371352943
 40
0.9529289201
 40
0.9686715489
 40
0.9843623768
 40
1.0
 40
1.0
 40
1.0
 40
1.0
 10
11.4026698111
 20
7.4905343423
 30
0.0
 10
11.4026698111
 20
7.4830090395
 30
0.0
 10
11.4023015325
 20
7.4679811306
 30
0.0
 10
11.4006391234
 20
7.4455339464
 30
0.0
 10
11.3978714256
 20
7.4232711528
 30
0.0
 10
11.394005249
 20
7.4012472705
 30
0.0
 10
11.3890497162
 20
7.3795150549
 30
0.0
 10
11.3830167831
 20
7.3581270005
 30
0.0
 10
11.3759209018
 20
7.3371346458
 30
0.0
 10
11.3677791397
 20
7.3165886186
 30
0.0
 10
11.3586110867
 20
7.2965384645
 30
0.0
 10
11.3484388096
 20
7.2770325427
 30
0.0
 10
11.337286802
 20
7.2581179052
 30
0.0
 10
11.3251819247
 20
7.2398401834
 30
0.0
 10
11.3121533414
 20
7.2222434775
 30
0.0
 10
11.2982324531
 20
7.2053702457
 30
0.0
 10
11.2834528328
 20
7.1892611899
 30
0.0
 10
11.2678501264
 20
7.1739551678
 30
0.0
 10
11.2514619682
 20
7.1594890973
 30
0.0
 10
11.2343278896
 20
7.1458978674
 30
0.0
 10
11.2164892228
 20
7.1332142527
 30
0.0
 10
11.1979889994
 20
7.1214688367
 30
0.0
 10
11.1788718557
 20
7.1106899194
 30
0.0
 10
11.159183914
 20
7.1009034604
 30
0.0
 10
11.1389726668
 20
7.0921330214
 30
0.0
 10
11.1182868625
 20
7.0843997098
 30
0.0
 10
11.0971763869
 20
7.0777221284
 30
0.0
 10
11.0756921425
 20
7.0721163343
 30
0.0
 10
11.053885928
 20
7.0675957905
 30
0.0
 10
11.0318103121
 20
7.0641713289
 30
0.0
 10
11.0095185016
 20
7.0618511427
 30
0.0
 10
10.9870642148
 20
7.0606407653
 30
0.0
 10
10.964501552
 20
7.0605430589
 30
0.0
 10
10.9418848673
 20
7.0615582087
 30
0.0
 10
10.9192686383
 20
7.0636837239
 30
0.0
 10
10.8967073333
 20
7.0669144243
 30
0.0
 10
10.8742552803
 20
7.0712424743
 30
0.0
 10
10.8519665381
 20
7.0766574024
 30
0.0
 10
10.8298947667
 20
7.0831461276
 30
0.0
 10
10.808093101
 20
7.0906929889
 30
0.0
 10
10.786614022
 20
7.0992797902
 30
0.0
 10
10.7655092387
 20
7.1088858159
 30
0.0
 10
10.7448295133
 20
7.1194879305
 30
0.0
 10
10.7246247343
 20
7.1310604828
 30
0.0
 10
10.7049430863
 20
7.1435759695
 30
0.0
 10
10.6794541619
 20
7.1614852112
 30
0.0
 10
10.6491409404
 20
7.1860721375
 30
0.0
 10
10.6211916246
 20
7.2133442213
 30
0.0
 10
10.6003987978
 20
7.2366255484
 30
0.0
 10
10.5856233993
 20
7.2547784412
 30
0.0
 10
10.5717063924
 20
7.2735758086
 30
0.0
 10
10.5586808674
 20
7.2929728139
 30
0.0
 10
10.546578302
 20
7.3129226619
 30
0.0
 10
10.53542781
 20
7.3333773631
 30
0.0
 10
10.5252562594
 20
7.3542876794
 30
0.0
 10
10.5160881588
 20
7.375603286
 30
0.0
 10
10.5079456109
 20
7.397272879
 30
0.0
 10
10.5008482568
 20
7.4192443034
 30
0.0
 10
10.4948132312
 20
7.4414646619
 30
0.0
 10
10.4898550678
 20
7.4638804914
 30
0.0
 10
10.4859858143
 20
7.4864377154
 30
0.0
 10
10.4832146982
 20
7.5090823528
 30
0.0
 10
10.4815486358
 20
7.5317589893
 30
0.0
 10
10.4811765882
 20
7.5468891601
 30
0.0
 10
10.4811765882
 20
7.5544401143
 30
0.0
  0
SPLINE
  5
39E
100
AcDbEntity
  8
0
100
AcDbSpline
 62
7
  6
CONTINUOUS
 70
0
 71
3
 72
69
 73
65
 74
0
 42
0.0000001
 43
0.0000001
 44
0.0000000001
 40
0.0
 40
0.0
 40
0.0
 40
0.0
 40
0.0155845003
 40
0.0311164713
 40
0.0465960399
 40
0.0620249362
 40
0.0774047626
 40
0.0927378573
 40
0.1080269576
 40
0.1232752668
 40
0.1384864068
 40
0.153664385
 40
0.1688135557
 40
0.1839385759
 40
0.199044358
 40
0.2141360184
 40
0.2292188243
 40
0.2442981376
 40
0.2593793577
 40
0.2744678638
 40
0.2895689569
 40
0.3046878036
 40
0.3198293815
 40
0.3349984275
 40
0.3501993895
 40
0.3654363813
 40
0.3807131418
 40
0.3960329994
 40
0.4113988408
 40
0.4268130859
 40
0.4422776683
 40
0.4577940207
 40
0.4733630657
 40
0.4889852116
 40
0.5046603534
 40
0.5203878787
 40
0.5361666798
 40
0.5519951686
 40
0.5678712956
 40
0.5837925731
 40
0.5997561011
 40
0.6157585967
 40
0.6317964271
 40
0.6478656445
 40
0.6639620232
 40
0.6800810976
 40
0.7123600127
 40
0.7446719581
 40
0.7608320191
 40
0.776985278
 40
0.793126771
 40
0.8092516366
 40
0.8253551586
 40
0.8414328083
 40
0.8574802855
 40
0.8734935571
 40
0.8894688939
 40
0.905402907
 40
0.9212925827
 40
0.9371352943
 40
0.9529289201
 40
0.9686715489
 40
0.9843623768
 40
1.0
 40
1.0
 40
1.0
 40
1.0
 10
10.4811765882
 20
7.5544401143
 30
0.0
 10
10.4811765882
 20
7.5619654171
 30
0.0
 10
10.4815448668
 20
7.576993326
 30
0.0
 10
10.4832072759
 20
7.5994405103
 30
0.0
 10
10.4859749737
 20
7.6217033038
 30
0.0
 10
10.4898411503
 20
7.6437271861
 30
0.0
 10
10.4947966831
 20
7.6654594017
 30
0.0
 10
10.5008296162
 20
7.6868474561
 30
0.0
 10
10.5079254975
 20
7.7078398108
 30
0.0
 10
10.5160672596
 20
7.728385838
 30
0.0
 10
10.5252353126
 20
7.7484359921
 30
0.0
 10
10.5354075897
 20
7.7679419139
 30
0.0
 10
10.5465595973
 20
7.7868565514
 30
0.0
 10
10.5586644746
 20
7.8051342732
 30
0.0
 10
10.5716930579
 20
7.8227309792
 30
0.0
 10
10.5856139462
 20
7.8396042109
 30
0.0
 10
10.6003935664
 20
7.8557132667
 30
0.0
 10
10.6159962729
 20
7.8710192888
 30
0.0
 10
10.6323844311
 20
7.8854853593
 30
0.0
 10
10.6495185097
 20
7.8990765892
 30
0.0
 10
10.6673571764
 20
7.9117602039
 30
0.0
 10
10.6858573999
 20
7.9235056199
 30
0.0
 10
10.7049745435
 20
7.9342845372
 30
0.0
 10
10.7246624853
 20
7.9440709962
 30
0.0
 10
10.7448737325
 20
7.9528414352
 30
0.0
 10
10.7655595368
 20
7.9605747468
 30
0.0
 10
10.7866700123
 20
7.9672523282
 30
0.0
 10
10.8081542568
 20
7.9728581223
 30
0.0
 10
10.8299604713
 20
7.9773786661
 30
0.0
 10
10.8520360872
 20
7.9808031277
 30
0.0
 10
10.8743278976
 20
7.9831233139
 30
0.0
 10
10.8967821845
 20
7.9843336913
 30
0.0
 10
10.9193448472
 20
7.9844313977
 30
0.0
 10
10.941961532
 20
7.9834162479
 30
0.0
 10
10.964577761
 20
7.9812907327
 30
0.0
 10
10.987139066
 20
7.9780600323
 30
0.0
 10
11.0095911189
 20
7.9737319823
 30
0.0
 10
11.0318798612
 20
7.9683170542
 30
0.0
 10
11.0539516326
 20
7.961828329
 30
0.0
 10
11.0757532983
 20
7.9542814677
 30
0.0
 10
11.0972323773
 20
7.9456946664
 30
0.0
 10
11.1183371606
 20
7.9360886407
 30
0.0
 10
11.139016886
 20
7.9254865262
 30
0.0
 10
11.159221665
 20
7.9139139738
 30
0.0
 10
11.178903313
 20
7.9013984871
 30
0.0
 10
11.2043922374
 20
7.8834892454
 30
0.0
 10
11.2347054588
 20
7.8589023191
 30
0.0
 10
11.2626547747
 20
7.8316302353
 30
0.0
 10
11.2834476015
 20
7.8083489083
 30
0.0
 10
11.298223
 20
7.7901960154
 30
0.0
 10
11.3121400068
 20
7.7713986481
 30
0.0
 10
11.3251655319
 20
7.7520016427
 30
0.0
 10
11.3372680973
 20
7.7320517947
 30
0.0
 10
11.3484185892
 20
7.7115970935
 30
0.0
 10
11.3585901398
 20
7.6906867772
 30
0.0
 10
11.3677582404
 20
7.6693711706
 30
0.0
 10
11.3759007884
 20
7.6477015776
 30
0.0
 10
11.3829981425
 20
7.6257301532
 30
0.0
 10
11.3890331681
 20
7.6035097947
 30
0.0
 10
11.3939913314
 20
7.5810939652
 30
0.0
 10
11.397860585
 20
7.5585367412
 30
0.0
 10
11.400631701
 20
7.5358921038
 30
0.0
 10
11.4022977635
 20
7.5132154673
 30
0.0
 10
11.4026698111
 20
7.4980852966
 30
0.0
 10
11.4026698111
 20
7.4905343423
 30
0.0
  0
SPLINE
  5
39F
100
AcDbEntity
  8
0
100
AcDbSpline
 62
7
  6
CONTINUOUS
 70
0
 71
3
 72
23
 73
19
 74
0
 42
0.0000001
 43
0.0000001
 44
0.0000000001
 40
0.0
 40
0.0
 40
0.0
 40
0.0
 40
0.0640357802
 40
0.1279824729
 40
0.1917975746
 40
0.2554542961
 40
0.3189211195
 40
0.3821719961
 40
0.4451841019
 40
0.5079385863
 40
0.5704210764
 40
0.6326218445
 40
0.6945361079
 40
0.7561641876
 40
0.8175115586
 40
0.8785888087
 40
0.9394115065
 40
1.0
 40
1.0
 40
1.0
 40
1.0
 10
10.2848993165
 20
7.8456259185
 30
0.0
 10
10.2833850109
 20
7.8475356151
 30
0.0
 10
10.2804768832
 20
7.8514479788
 30
0.0
 10
10.2764946326
 20
7.8575714175
 30
0.0
 10
10.27291172
 20
7.8639205669
 30
0.0
 10
10.2697443049
 20
7.8704665472
 30
0.0
 10
10.2670065406
 20
7.8771804224
 30
0.0
 10
10.2647106911
 20
7.884032138
 30
0.0
 10
10.2628670215
 20
7.8909911293
 30
0.0
 10
10.2614838068
 20
7.8980263309
 30
0.0
 10
10.2605672716
 20
7.9051063316
 30
0.0
 10
10.2601215863
 20
7.9121995145
 30
0.0
 10
10.2601487927
 20
7.919274185
 30
0.0
 10
10.2606488124
 20
7.9262987342
 30
0.0
 10
10.2616194561
 20
7.933241729
 30
0.0
 10
10.263056498
 20
7.9400722281
 30
0.0
 10
10.2649534173
 20
7.946759247
 30
0.0
 10
10.2665222264
 20
7.9511104781
 30
0.0
 10
10.2673800382
 20
7.9532510118
 30
0.0
  0
SPLINE
  5
3A0
100
AcDbEntity
  8
0
100
AcDbSpline
 62
7
  6
CONTINUOUS
 70
0
 71
3
 72
23
 73
19
 74
0
 42
0.0000001
 43
0.0000001
 44
0.0000000001
 40
0.0
 40
0.0
 40
0.0
 40
0.0
 40
0.0642149205
 40
0.1283284878
 40
0.1922922567
 40
0.2560739002
 40
0.3196372633
 40
0.3829530766
 40
0.4459963783
 40
0.5087477694
 40
0.5711938573
 40
0.6333275377
 40
0.6951482673
 40
0.7566621706
 40
0.8178820324
 40
0.8788271053
 40
0.9395227629
 40
1.0
 40
1.0
 40
1.0
 40
1.0
 10
10.3003801118
 20
7.858329251
 30
0.0
 10
10.298963858
 20
7.860115294
 30
0.0
 10
10.2962541222
 20
7.8637820961
 30
0.0
 10
10.2925784234
 20
7.8695396054
 30
0.0
 10
10.289312713
 20
7.8755220681
 30
0.0
 10
10.2864744735
 20
7.8816972378
 30
0.0
 10
10.2840787679
 20
7.8880326868
 30
0.0
 10
10.2821383393
 20
7.8944947673
 30
0.0
 10
10.2806635238
 20
7.9010492742
 30
0.0
 10
10.2796621857
 20
7.9076614703
 30
0.0
 10
10.2791396961
 20
7.9142963118
 30
0.0
 10
10.279098903
 20
7.920918622
 30
0.0
 10
10.2795401124
 20
7.9274932693
 30
0.0
 10
10.280461072
 20
7.9339853662
 30
0.0
 10
10.2818569373
 20
7.940360409
 30
0.0
 10
10.2837204324
 20
7.9465846516
 30
0.0
 10
10.2860414952
 20
7.9526245628
 30
0.0
 10
10.2878892921
 20
7.9565142129
 30
0.0
 10
10.2888846002
 20
7.9584162764
 30
0.0
  0
SPLINE
  5
3A1
100
AcDbEntity
  8
0
100
AcDbSpline
 62
7
  6
CONTINUOUS
 70
0
 71
3
 72
24
 73
20
 74
0
 42
0.0000001
 43
0.0000001
 44
0.0000000001
 40
0.0
 40
0.0
 40
0.0
 40
0.0
 40
0.0638303041
 40
0.1276777577
 40
0.1914879155
 40
0.2552100833
 40
0.3187938733
 40
0.3821928497
 40
0.4453646417
 40
0.5082723422
 40
0.5708853358
 40
0.6331801593
 40
0.6951411708
 40
0.7567610655
 40
0.8180411954
 40
0.8789916783
 40
0.9093552949
 40
0.9396442404
 40
1.0
 40
1.0
 40
1.0
 40
1.0
 10
10.2848993165
 20
7.8456259185
 30
0.0
 10
10.2867117807
 20
7.843340213
 30
0.0
 10
10.2905096002
 20
7.8389019166
 30
0.0
 10
10.2966843801
 20
7.8326898175
 30
0.0
 10
10.3033016807
 20
7.8269581597
 30
0.0
 10
10.3103188357
 20
7.8217439923
 30
0.0
 10
10.3176912826
 20
7.8170804762
 30
0.0
 10
10.3253719679
 20
7.8129974241
 30
0.0
 10
10.3333119512
 20
7.80952094
 30
0.0
 10
10.3414606041
 20
7.8066732796
 30
0.0
 10
10.3497659624
 20
7.8044727093
 30
0.0
 10
10.3581750503
 20
7.8029333857
 30
0.0
 10
10.3666341767
 20
7.8020652562
 30
0.0
 10
10.3750894198
 20
7.8018740206
 30
0.0
 10
10.3834864183
 20
7.8023609739
 30
0.0
 10
10.3904008627
 20
7.8033309604
 30
0.0
 10
10.3958475404
 20
7.8044417969
 30
0.0
 10
10.4012169746
 20
7.8057701148
 30
0.0
 10
10.4051746194
 20
7.807015198
 30
0.0
 10
10.4077686913
 20
7.8079527855
 30
0.0
  0
SPLINE
  5
3A2
100
AcDbEntity
  8
0
100
AcDbSpline
 62
7
  6
CONTINUOUS
 70
0
 71
3
 72
23
 73
19
 74
0
 42
0.0000001
 43
0.0000001
 44
0.0000000001
 40
0.0
 40
0.0
 40
0.0
 40
0.0
 40
0.064004257
 40
0.1280224932
 40
0.1919923581
 40
0.2558550569
 40
0.3195533109
 40
0.3830348365
 40
0.4462530269
 40
0.5091685724
 40
0.5717505575
 40
0.6339774867
 40
0.6958380464
 40
0.7573316126
 40
0.8184684591
 40
0.8792696404
 40
0.9397665288
 40
1.0
 40
1.0
 40
1.0
 40
1.0
 10
10.3003801118
 20
7.858329251
 30
0.0
 10
10.3020520577
 20
7.8562207536
 30
0.0
 10
10.3055673336
 20
7.8521357351
 30
0.0
 10
10.3113112773
 20
7.8464527267
 30
0.0
 10
10.3174878271
 20
7.8412515248
 30
0.0
 10
10.3240510496
 20
7.836570955
 30
0.0
 10
10.3309528165
 20
7.8324453837
 30
0.0
 10
10.3381422966
 20
7.8289052752
 30
0.0
 10
10.3455666069
 20
7.8259767779
 30
0.0
 10
10.3531711
 20
7.8236815661
 30
0.0
 10
10.3608997895
 20
7.8220366775
 30
0.0
 10
10.3686957461
 20
7.8210543819
 30
0.0
 10
10.3765015058
 20
7.8207420832
 30
0.0
 10
10.3842595097
 20
7.8211022673
 30
0.0
 10
10.3919124354
 20
7.8221324315
 30
0.0
 10
10.3994039452
 20
7.8238252426
 30
0.0
 10
10.4066778892
 20
7.8261680142
 30
0.0
 10
10.4113570514
 20
7.8281563827
 30
0.0
 10
10.4136402356
 20
7.8292518951
 30
0.0
  0
SPLINE
  5
3A3
100
AcDbEntity
  8
0
100
AcDbSpline
 62
7
  6
CONTINUOUS
 70
0
 71
3
 72
39
 73
35
 74
0
 42
0.0000001
 43
0.0000001
 44
0.0000000001
 40
0.0
 40
0.0
 40
0.0
 40
0.0
 40
0.0936040619
 40
0.1899076439
 40
0.2856086142
 40
0.378250957
 40
0.4662505789
 40
0.5486640817
 40
0.6249356326
 40
0.6606528616
 40
0.6947085594
 40
0.7270699252
 40
0.7577044814
 40
0.7865800355
 40
0.8136634669
 40
0.8389213611
 40
0.8623207857
 40
0.88383023
 40
0.9034240505
 40
0.9210859937
 40
0.929194121
 40
0.9368228515
 40
0.9439783268
 40
0.9506700035
 40
0.9569121221
 40
0.9627257159
 40
0.9681400381
 40
0.973194941
 40
0.9779439627
 40
0.982455916
 40
0.9868153727
 40
0.9911211595
 40
0.99548024
 40
1.0
 40
1.0
 40
1.0
 40
1.0
 10
10.6704800482
 20
7.8411178778
 30
0.0
 10
10.6689623195
 20
7.8377675158
 30
0.0
 10
10.6658810168
 20
7.8309711075
 30
0.0
 10
10.6612346747
 20
7.8207553206
 30
0.0
 10
10.6565740466
 20
7.8105875724
 30
0.0
 10
10.6519952737
 20
7.80074137
 30
0.0
 10
10.6475554577
 20
7.7914066669
 30
0.0
 10
10.6432826471
 20
7.7827055823
 30
0.0
 10
10.6397985738
 20
7.7759068429
 30
0.0
 10
10.6370919752
 20
7.7708463416
 30
0.0
 10
10.6351522498
 20
7.7673327882
 30
0.0
 10
10.6332582545
 20
7.764022593
 30
0.0
 10
10.6314104279
 20
7.7609210882
 30
0.0
 10
10.6296095146
 20
7.7580337989
 30
0.0
 10
10.6278566715
 20
7.7553664961
 30
0.0
 10
10.6261534966
 20
7.7529252867
 30
0.0
 10
10.6245020866
 20
7.7507166871
 30
0.0
 10
10.6229051043
 20
7.7487474502
 30
0.0
 10
10.621365789
 20
7.7470249102
 30
0.0
 10
10.6201004204
 20
7.7457672225
 30
0.0
 10
10.6191171487
 20
7.7448975093
 30
0.0
 10
10.6184179934
 20
7.7443310046
 30
0.0
 10
10.6177366021
 20
7.7438325098
 30
0.0
 10
10.6170736498
 20
7.7434030842
 30
0.0
 10
10.6164298428
 20
7.74304379
 30
0.0
 10
10.6158058587
 20
7.7427557683
 30
0.0
 10
10.6152024009
 20
7.7425401912
 30
0.0
 10
10.6146201954
 20
7.7423983356
 30
0.0
 10
10.6140600545
 20
7.7423317166
 30
0.0
 10
10.6135230653
 20
7.7423419837
 30
0.0
 10
10.6130107574
 20
7.742430792
 30
0.0
 10
10.6125251277
 20
7.7425995978
 30
0.0
 10
10.6120685193
 20
7.7428490456
 30
0.0
 10
10.6117915997
 20
7.7430639079
 30
0.0
 10
10.611659448
 20
7.7431825581
 30
0.0
  0
SPLINE
  5
3A4
100
AcDbEntity
  8
0
100
AcDbSpline
 62
7
  6
CONTINUOUS
 70
0
 71
3
 72
46
 73
42
 74
0
 42
0.0000001
 43
0.0000001
 44
0.0000000001
 40
0.0
 40
0.0
 40
0.0
 40
0.0
 40
0.0840358155
 40
0.1695038657
 40
0.2553461646
 40
0.2980758532
 40
0.3405003594
 40
0.382488464
 40
0.4239106884
 40
0.4646398251
 40
0.5045514761
 40
0.5435246025
 40
0.5814420909
 40
0.6181913426
 40
0.6536649091
 40
0.6877611648
 40
0.7203850417
 40
0.751448871
 40
0.7808733741
 40
0.8085888695
 40
0.8345368019
 40
0.8468338779
 40
0.8586733281
 40
0.8700519371
 40
0.8809677801
 40
0.8914203277
 40
0.9014105083
 40
0.910941208
 40
0.920017169
 40
0.928645721
 40
0.9368368282
 40
0.9446037978
 40
0.951963758
 40
0.9589382177
 40
0.9655539713
 40
0.971843516
 40
0.9778459691
 40
0.9836071969
 40
0.9891799317
 40
0.9946230211
 40
1.0
 40
1.0
 40
1.0
 40
1.0
 10
12.0358897337
 20
7.258677199
 30
0.0
 10
12.0358897337
 20
7.2487131989
 30
0.0
 10
12.0355770628
 20
7.2286142039
 30
0.0
 10
12.0342201325
 20
7.1983647579
 30
0.0
 10
12.0323564991
 20
7.1730509886
 30
0.0
 10
12.0304304068
 20
7.1528673076
 30
0.0
 10
12.0287791724
 20
7.1378823679
 30
0.0
 10
12.0269247259
 20
7.1230774574
 30
0.0
 10
12.0248731929
 20
7.1085015077
 30
0.0
 10
12.0226313969
 20
7.094202736
 30
0.0
 10
12.0202067865
 20
7.0802284222
 30
0.0
 10
12.0176074244
 20
7.0666247668
 30
0.0
 10
12.0148419581
 20
7.0534367313
 30
0.0
 10
12.0119195922
 20
7.0407078856
 30
0.0
 10
12.0088500605
 20
7.0284802557
 30
0.0
 10
12.0056435936
 20
7.0167941791
 30
0.0
 10
12.002310882
 20
7.0056881555
 30
0.0
 10
11.9988630382
 20
6.9951987319
 30
0.0
 10
11.9953115575
 20
6.985360275
 30
0.0
 10
11.991668257
 20
6.9762051304
 30
0.0
 10
11.9885117473
 20
6.969047101
 30
0.0
 10
11.9859421632
 20
6.9636929095
 30
0.0
 10
11.9840341445
 20
6.9599385584
 30
0.0
 10
11.9821122524
 20
6.9563762912
 30
0.0
 10
11.9801780393
 20
6.9530090168
 30
0.0
 10
11.9782331159
 20
6.9498394667
 30
0.0
 10
11.9762790113
 20
6.9468702366
 30
0.0
 10
11.9743173635
 20
6.9441036951
 30
0.0
 10
11.9723496637
 20
6.9415421078
 30
0.0
 10
11.9703775138
 20
6.9391874962
 30
0.0
 10
11.9684023871
 20
6.9370417716
 30
0.0
 10
11.9664257702
 20
6.9351066596
 30
0.0
 10
11.9644491129
 20
6.9333837203
 30
0.0
 10
11.9624737488
 20
6.9318744673
 30
0.0
 10
11.9605010781
 20
6.930580195
 30
0.0
 10
11.958532355
 20
6.9295023144
 30
0.0
 10
11.9565689857
 20
6.9286420398
 30
0.0
 10
11.9546124395
 20
6.9280007249
 30
0.0
 10
11.9526643528
 20
6.9275795836
 30
0.0
 10
11.9507270829
 20
6.9273796071
 30
0.0
 10
11.949440899
 20
6.9273943211
 30
0.0
 10
11.9488048864
 20
6.9274384302
 30
0.0
  0
SPLINE
  5
3A5
100
AcDbEntity
  8
0
100
AcDbSpline
 62
7
  6
CONTINUOUS
 70
0
 71
3
 72
15
 73
11
 74
0
 42
0.0000001
 43
0.0000001
 44
0.0000000001
 40
0.0
 40
0.0
 40
0.0
 40
0.0
 40
0.126909738
 40
0.2532078328
 40
0.3789146501
 40
0.5040589667
 40
0.6286826746
 40
0.7528379463
 40
0.8765868444
 40
1.0
 40
1.0
 40
1.0
 40
1.0
 10
10.645412545
 20
7.6815799123
 30
0.0
 10
10.645412545
 20
7.6915842537
 30
0.0
 10
10.6461091641
 20
7.7115519832
 30
0.0
 10
10.6492569854
 20
7.741279658
 30
0.0
 10
10.6544899365
 20
7.7705724628
 30
0.0
 10
10.6617828703
 20
7.7992852921
 30
0.0
 10
10.6711002409
 20
7.8272779114
 30
0.0
 10
10.6823970626
 20
7.8544136001
 30
0.0
 10
10.6956171102
 20
7.8805576497
 30
0.0
 10
10.7056840305
 20
7.8972641285
 30
0.0
 10
10.7110122881
 20
7.9054039911
 30
0.0
  0
SPLINE
  5
3A6
100
AcDbEntity
  8
0
100
AcDbSpline
 62
7
  6
CONTINUOUS
 70
0
 71
3
 72
41
 73
37
 74
0
 42
0.0000001
 43
0.0000001
 44
0.0000000001
 40
0.0
 40
0.0
 40
0.0
 40
0.0
 40
0.0307587192
 40
0.0616411296
 40
0.0926445039
 40
0.1237648617
 40
0.1549964637
 40
0.1863322101
 40
0.2177636216
 40
0.249281006
 40
0.280873576
 40
0.3125295985
 40
0.3442365454
 40
0.3759812546
 40
0.4077500955
 40
0.4395291393
 40
0.4713043309
 40
0.503061663
 40
0.5347873488
 40
0.5664679936
 40
0.5980907625
 40
0.6296435433
 40
0.6611151029
 40
0.6924952356
 40
0.7237749013
 40
0.7549463525
 40
0.7860032474
 40
0.8169407483
 40
0.8477556022
 40
0.8631181051
 40
0.8784494862
 40
0.9090159179
 40
0.9394599711
 40
0.9546388273
 40
0.9697885435
 40
1.0
 40
1.0
 40
1.0
 40
1.0
 10
10.8335688692
 20
7.848324976
 30
0.0
 10
10.8335688692
 20
7.8402035213
 30
0.0
 10
10.8340459418
 20
7.823924042
 30
0.0
 10
10.8361801159
 20
7.7995427164
 30
0.0
 10
10.8397269293
 20
7.7752293137
 30
0.0
 10
10.8446741164
 20
7.7510680387
 30
0.0
 10
10.8510047089
 20
7.7271411104
 30
0.0
 10
10.8586969734
 20
7.7035303453
 30
0.0
 10
10.8677245633
 20
7.6803163558
 30
0.0
 10
10.8780565696
 20
7.6575784226
 30
0.0
 10
10.8896576454
 20
7.6353941871
 30
0.0
 10
10.902488119
 20
7.6138393987
 30
0.0
 10
10.916504132
 20
7.5929876557
 30
0.0
 10
10.9316577878
 20
7.5729101562
 30
0.0
 10
10.9478973145
 20
7.553675457
 30
0.0
 10
10.965167241
 20
7.5353492411
 30
0.0
 10
10.9834085854
 20
7.5179940948
 30
0.0
 10
11.0025590547
 20
7.501669295
 30
0.0
 10
11.0225532571
 20
7.4864306089
 30
0.0
 10
11.0433229225
 20
7.4723301033
 30
0.0
 10
11.0647971353
 20
7.4594159689
 30
0.0
 10
11.0869025733
 20
7.4477323553
 30
0.0
 10
11.109563758
 20
7.4373192214
 30
0.0
 10
11.1327033054
 20
7.4282121986
 30
0.0
 10
11.1562422048
 20
7.4204424687
 30
0.0
 10
11.1801000242
 20
7.4140366595
 30
0.0
 10
11.2041954125
 20
7.4090167421
 30
0.0
 10
11.2284455214
 20
7.4053999937
 30
0.0
 10
11.2487362683
 20
7.4035637771
 30
0.0
 10
11.2649613192
 20
7.4028087152
 30
0.0
 10
11.2811359473
 20
7.4025295214
 30
0.0
 10
11.3012982429
 20
7.4030690494
 30
0.0
 10
11.3213533078
 20
7.4047976437
 30
0.0
 10
11.337264687
 20
7.4068907298
 30
0.0
 10
11.3530451113
 20
7.4094494256
 30
0.0
 10
11.3647787349
 20
7.4118992074
 30
0.0
 10
11.3725342471
 20
7.4137657204
 30
0.0
  0
SPLINE
  5
3A7
100
AcDbEntity
  8
0
100
AcDbSpline
 62
7
  6
CONTINUOUS
 70
0
 71
3
 72
11
 73
7
 74
0
 42
0.0000001
 43
0.0000001
 44
0.0000000001
 40
0.0
 40
0.0
 40
0.0
 40
0.0
 40
0.2516946054
 40
0.502233987
 40
0.7516526859
 40
1.0
 40
1.0
 40
1.0
 40
1.0
 10
10.8335688692
 20
7.848324976
 30
0.0
 10
10.8335688692
 20
7.8575281538
 30
0.0
 10
10.8341789326
 20
7.8758982512
 30
0.0
 10
10.8369354131
 20
7.9032640188
 30
0.0
 10
10.8415186256
 20
7.9302597668
 30
0.0
 10
10.8457885045
 20
7.9479699486
 30
0.0
 10
10.8482205598
 20
7.9567189917
 30
0.0
  0
SPLINE
  5
3A8
100
AcDbEntity
  8
0
100
AcDbSpline
 62
7
  6
CONTINUOUS
 70
0
 71
3
 72
11
 73
7
 74
0
 42
0.0000001
 43
0.0000001
 44
0.0000000001
 40
0.0
 40
0.0
 40
0.0
 40
0.0
 40
0.2517953845
 40
0.5023630603
 40
0.7517448683
 40
1.0
 40
1.0
 40
1.0
 40
1.0
 10
10.8461259057
 20
7.8474541425
 30
0.0
 10
10.8461259057
 20
7.8569405714
 30
0.0
 10
10.8467942446
 20
7.8758741561
 30
0.0
 10
10.8498145699
 20
7.9040584163
 30
0.0
 10
10.8548347039
 20
7.9318206752
 30
0.0
 10
10.8595096801
 20
7.9499973974
 30
0.0
 10
10.8621711484
 20
7.9589637857
 30
0.0
  0
SPLINE
  5
3A9
100
AcDbEntity
  8
0
100
AcDbSpline
 62
7
  6
CONTINUOUS
 70
0
 71
3
 72
11
 73
7
 74
0
 42
0.0000001
 43
0.0000001
 44
0.0000000001
 40
0.0
 40
0.0
 40
0.0
 40
0.0
 40
0.2518082962
 40
0.5023795998
 40
0.7517566521
 40
1.0
 40
1.0
 40
1.0
 40
1.0
 10
10.8609751448
 20
7.851297407
 30
0.0
 10
10.8609751448
 20
7.8606160299
 30
0.0
 10
10.8616366813
 20
7.8792144631
 30
0.0
 10
10.864626331
 20
7.9068970899
 30
0.0
 10
10.8695952496
 20
7.9341598809
 30
0.0
 10
10.8742222604
 20
7.9520048146
 30
0.0
 10
10.8768562536
 20
7.9608058063
 30
0.0
  0
SPLINE
  5
3AA
100
AcDbEntity
  8
0
100
AcDbSpline
 62
7
  6
CONTINUOUS
 70
0
 71
3
 72
11
 73
7
 74
0
 42
0.0000001
 43
0.0000001
 44
0.0000000001
 40
0.0
 40
0.0
 40
0.0
 40
0.0
 40
0.2512756653
 40
0.5016967556
 40
0.751260979
 40
1.0
 40
1.0
 40
1.0
 40
1.0
 10
10.8966438652
 20
7.8857507472
 30
0.0
 10
10.8966438652
 20
7.8922490905
 30
0.0
 10
10.8969657243
 20
7.9052260122
 30
0.0
 10
10.8984186103
 20
7.9246081865
 30
0.0
 10
10.9008373401
 20
7.9438275935
 30
0.0
 10
10.9030935672
 20
7.9565220341
 30
0.0
 10
10.9043807748
 20
7.9628246739
 30
0.0
  0
SPLINE
  5
3AB
100
AcDbEntity
  8
0
100
AcDbSpline
 62
7
  6
CONTINUOUS
 70
0
 71
3
 72
71
 73
67
 74
0
 42
0.0000001
 43
0.0000001
 44
0.0000000001
 40
0.0
 40
0.0
 40
0.0
 40
0.0
 40
0.0155842125
 40
0.0311159548
 40
0.0465952452
 40
0.0620238832
 40
0.077403449
 40
0.0927362827
 40
0.1080251236
 40
0.1232731733
 40
0.1384840551
 40
0.1536617757
 40
0.1688106896
 40
0.1839354533
 40
0.1990409787
 40
0.2141323824
 40
0.2292149319
 40
0.2442939892
 40
0.2593749538
 40
0.2744632042
 40
0.289564041
 40
0.3046826304
 40
0.3198239505
 40
0.3349927388
 40
0.3501934431
 40
0.365430177
 40
0.3807066786
 40
0.3960262757
 40
0.4113918552
 40
0.4268058381
 40
0.4422701582
 40
0.4577862482
 40
0.4733550295
 40
0.4889769098
 40
0.5046517844
 40
0.5203790421
 40
0.5361575756
 40
0.5519857966
 40
0.5678616546
 40
0.5837826615
 40
0.5997459176
 40
0.6157481409
 40
0.6317856994
 40
0.6478546448
 40
0.6639507505
 40
0.6800695509
 40
0.6962063814
 40
0.7123564195
 40
0.7285147271
 40
0.7446762936
 40
0.7608360803
 40
0.7769890646
 40
0.7931302831
 40
0.8092548749
 40
0.8253581239
 40
0.841435501
 40
0.8574827056
 40
0.873495705
 40
0.8894707701
 40
0.9054045133
 40
0.9212939187
 40
0.9371363615
 40
0.9529297228
 40
0.9686720688
 40
0.9843626653
 40
1.0
 40
1.0
 40
1.0
 40
1.0
 10
9.6514462018
 20
8.7247287396
 30
0.0
 10
9.6514462018
 20
8.7315125459
 30
0.0
 10
9.6517781971
 20
8.7450597234
 30
0.0
 10
9.6532767983
 20
8.7652951311
 30
0.0
 10
9.6557717947
 20
8.7853643271
 30
0.0
 10
9.6592570217
 20
8.8052181387
 30
0.0
 10
9.6637242722
 20
8.8248090283
 30
0.0
 10
9.6691627683
 20
8.8440896651
 30
0.0
 10
9.6755594808
 20
8.8630135898
 30
0.0
 10
9.6828990157
 20
8.8815351667
 30
0.0
 10
9.6911637148
 20
8.8996097318
 30
0.0
 10
9.7003336879
 20
8.9171936905
 30
0.0
 10
9.7103868577
 20
8.9342446254
 30
0.0
 10
9.7212990165
 20
8.9507213965
 30
0.0
 10
9.733043871
 20
8.9665842492
 30
0.0
 10
9.7455931003
 20
8.9817949197
 30
0.0
 10
9.758916444
 20
8.9963167149
 30
0.0
 10
9.7729817719
 20
9.0101146038
 30
0.0
 10
9.7877551616
 20
9.0231553021
 30
0.0
 10
9.8032009828
 20
9.0354073501
 30
0.0
 10
9.8192819709
 20
9.0468412054
 30
0.0
 10
9.8359593231
 20
9.0574293146
 30
0.0
 10
9.8531928036
 20
9.0671461656
 30
0.0
 10
9.8709408395
 20
9.0759683511
 30
0.0
 10
9.889160621
 20
9.0838746245
 30
0.0
 10
9.9078082067
 20
9.0908459467
 30
0.0
 10
9.9268386208
 20
9.0968655553
 30
0.0
 10
9.9462059712
 20
9.1019189913
 30
0.0
 10
9.9658635637
 20
9.1059941235
 30
0.0
 10
9.9857640131
 20
9.1090811775
 30
0.0
 10
10.0058593571
 20
9.1111727585
 30
0.0
 10
10.0261011701
 20
9.1122638657
 30
0.0
 10
10.0464406795
 20
9.1123519305
 30
0.0
 10
10.0668288865
 20
9.1114367979
 30
0.0
 10
10.0872166833
 20
9.109520723
 30
0.0
 10
10.1075549696
 20
9.1066083656
 30
0.0
 10
10.1277947694
 20
9.1027067772
 30
0.0
 10
10.1478873468
 20
9.0978253867
 30
0.0
 10
10.1677843298
 20
9.0919759991
 30
0.0
 10
10.1874378216
 20
9.0851727401
 30
0.0
 10
10.2068005147
 20
9.0774320236
 30
0.0
 10
10.2258258028
 20
9.0687725125
 30
0.0
 10
10.244467891
 20
9.0592150719
 30
0.0
 10
10.2626819076
 20
9.0487827282
 30
0.0
 10
10.2804240212
 20
9.0375006248
 30
0.0
 10
10.2976515342
 20
9.0253959393
 30
0.0
 10
10.3143229856
 20
9.0124978222
 30
0.0
 10
10.3303982498
 20
8.9988373272
 30
0.0
 10
10.3458386289
 20
8.9844473352
 30
0.0
 10
10.360606957
 20
8.9693624877
 30
0.0
 10
10.3746676927
 20
8.9536191046
 30
0.0
 10
10.3879869908
 20
8.9372550819
 30
0.0
 10
10.4005327853
 20
8.9203098053
 30
0.0
 10
10.4122748656
 20
8.9028240561
 30
0.0
 10
10.4231849447
 20
8.8848399128
 30
0.0
 10
10.4332367471
 20
8.8664006619
 30
0.0
 10
10.4424060657
 20
8.8475506873
 30
0.0
 10
10.4506708077
 20
8.8283353582
 30
0.0
 10
10.458011051
 20
8.8088009231
 30
0.0
 10
10.4644090911
 20
8.7889943984
 30
0.0
 10
10.4698494735
 20
8.7689634662
 30
0.0
 10
10.4743190955
 20
8.7487563208
 30
0.0
 10
10.4778070962
 20
8.7284217192
 30
0.0
 10
10.480305174
 20
8.7080083035
 30
0.0
 10
10.4818070686
 20
8.6875660521
 30
0.0
 10
10.4821424616
 20
8.6739266887
 30
0.0
 10
10.4821424616
 20
8.6671197583
 30
0.0
  0
SPLINE
  5
3AC
100
AcDbEntity
  8
0
100
AcDbSpline
 62
7
  6
CONTINUOUS
 70
0
 71
3
 72
43
 73
39
 74
0
 42
0.0000001
 43
0.0000001
 44
0.0000000001
 40
0.0
 40
0.0
 40
0.0
 40
0.0
 40
0.0309454996
 40
0.0620341439
 40
0.0932625038
 40
0.1246239137
 40
0.1561097517
 40
0.1877091169
 40
0.2194091925
 40
0.2511954439
 40
0.2830518863
 40
0.3149613608
 40
0.3469058267
 40
0.3788666642
 40
0.4108249828
 40
0.4427619339
 40
0.4746590219
 40
0.5064984119
 40
0.5382632297
 40
0.5699378498
 40
0.6015081696
 40
0.6329618626
 40
0.6642886088
 40
0.6954802968
 40
0.7265311943
 40
0.7574380814
 40
0.7882003432
 40
0.8188200177
 40
0.8340800341
 40
0.8493063829
 40
0.8645000573
 40
0.879662203
 40
0.9098925593
 40
0.9400142244
 40
0.95504107
 40
0.9700462513
 40
0.9850318377
 40
1.0
 40
1.0
 40
1.0
 40
1.0
 10
10.645412545
 20
7.6815799123
 30
0.0
 10
10.645412545
 20
7.6718560844
 30
0.0
 10
10.6460737147
 20
7.6523572077
 30
0.0
 10
10.6490282011
 20
7.6231804217
 30
0.0
 10
10.6539338606
 20
7.5941339952
 30
0.0
 10
10.6607681644
 20
7.5653523452
 30
0.0
 10
10.6694996202
 20
7.5369665307
 30
0.0
 10
10.6800881948
 20
7.5091063075
 30
0.0
 10
10.6924853593
 20
7.4818988697
 30
0.0
 10
10.7066343692
 20
7.4554684569
 30
0.0
 10
10.7224705043
 20
7.4299357434
 30
0.0
 10
10.7399213631
 20
7.4054173032
 30
0.0
 10
10.7589071931
 20
7.3820250794
 30
0.0
 10
10.7793412578
 20
7.3598658818
 30
0.0
 10
10.8011302284
 20
7.3390409032
 30
0.0
 10
10.8241746067
 20
7.3196452616
 30
0.0
 10
10.8483691752
 20
7.3017675692
 30
0.0
 10
10.8736034726
 20
7.2854895315
 30
0.0
 10
10.8997622935
 20
7.2708855762
 30
0.0
 10
10.926726207
 20
7.2580225127
 30
0.0
 10
10.9543720942
 20
7.2469592219
 30
0.0
 10
10.982573711
 20
7.2377463956
 30
0.0
 10
11.0112022486
 20
7.2304263011
 30
0.0
 10
11.0401269437
 20
7.2250325907
 30
0.0
 10
11.0692155615
 20
7.2215901264
 30
0.0
 10
11.0983353899
 20
7.220114923
 30
0.0
 10
11.1273523683
 20
7.2206138351
 30
0.0
 10
11.1513675282
 20
7.2226758448
 30
0.0
 10
11.1703903835
 20
7.225308578
 30
0.0
 10
11.1845347844
 20
7.2277688164
 30
0.0
 10
11.1985547895
 20
7.2307141076
 30
0.0
 10
11.2170405791
 20
7.2352782433
 30
0.0
 10
11.239765959
 20
7.2421765622
 30
0.0
 10
11.2619066878
 20
7.2506511469
 30
0.0
 10
11.2791759033
 20
7.2583438163
 30
0.0
 10
11.2918863394
 20
7.2645594376
 30
0.0
 10
11.3043492325
 20
7.271217837
 30
0.0
 10
11.3124882494
 20
7.2759497739
 30
0.0
 10
11.316511099
 20
7.2783866324
 30
0.0
  0
SPLINE
  5
3AD
100
AcDbEntity
  8
0
100
AcDbSpline
 62
7
  6
CONTINUOUS
 70
0
 71
3
 72
41
 73
37
 74
0
 42
0.0000001
 43
0.0000001
 44
0.0000000001
 40
0.0
 40
0.0
 40
0.0
 40
0.0
 40
0.0307692842
 40
0.0616633912
 40
0.0926795864
 40
0.1238137292
 40
0.1550599446
 40
0.1864109311
 40
0.2178579861
 40
0.249391163
 40
0.2809993996
 40
0.312670672
 40
0.3443921525
 40
0.3761503771
 40
0.4079314175
 40
0.4397210582
 40
0.4715049755
 40
0.5032689176
 40
0.5349988842
 40
0.5666813039
 40
0.5983032076
 40
0.6298523965
 40
0.6613176032
 40
0.6926886438
 40
0.7239565595
 40
0.755113745
 40
0.7861540636
 40
0.8170729451
 40
0.8478674654
 40
0.8632193157
 40
0.8785397624
 40
0.9090836501
 40
0.9395047676
 40
0.9546722148
 40
0.9698106235
 40
1.0
 40
1.0
 40
1.0
 40
1.0
 10
10.8461259057
 20
7.8474541425
 30
0.0
 10
10.8461259057
 20
7.8395050785
 30
0.0
 10
10.8465971825
 20
7.8235708051
 30
0.0
 10
10.8487053002
 20
7.7997076248
 30
0.0
 10
10.8522086313
 20
7.7759130671
 30
0.0
 10
10.8570948488
 20
7.7522710583
 30
0.0
 10
10.8633468722
 20
7.7288635478
 30
0.0
 10
10.8709428457
 20
7.7057720557
 30
0.0
 10
10.8798562673
 20
7.6830768823
 30
0.0
 10
10.8900560548
 20
7.6608569719
 30
0.0
 10
10.9015066671
 20
7.6391896019
 30
0.0
 10
10.914168222
 20
7.6181501272
 30
0.0
 10
10.9279966374
 20
7.5978117168
 30
0.0
 10
10.9429437829
 20
7.5782451027
 30
0.0
 10
10.9589576471
 20
7.559518335
 30
0.0
 10
10.9759825173
 20
7.5416965474
 30
0.0
 10
10.993959172
 20
7.5248417317
 30
0.0
 10
11.0128250861
 20
7.509012524
 30
0.0
 10
11.0325146465
 20
7.4942640015
 30
0.0
 10
11.0529593786
 20
7.4806474925
 30
0.0
 10
11.0740881834
 20
7.4682103981
 30
0.0
 10
11.0958275816
 20
7.4569960286
 30
0.0
 10
11.1181019691
 20
7.4470434525
 30
0.0
 10
11.1408338729
 20
7.4383873614
 30
0.0
 10
11.1639442346
 20
7.4310579484
 30
0.0
 10
11.1873526214
 20
7.4250808033
 30
0.0
 10
11.2109777336
 20
7.4204768205
 30
0.0
 10
11.2347368294
 20
7.4172621304
 30
0.0
 10
11.2546010702
 20
7.4157488035
 30
0.0
 10
11.270474631
 20
7.4152438377
 30
0.0
 10
11.2862914524
 20
7.4152087227
 30
0.0
 10
11.3059941223
 20
7.4160423836
 30
0.0
 10
11.3255723991
 20
7.4180501387
 30
0.0
 10
11.3410926525
 20
7.4203563694
 30
0.0
 10
11.3564764776
 20
7.4231210086
 30
0.0
 10
11.3679049854
 20
7.4257174984
 30
0.0
 10
11.3754537947
 20
7.4276780471
 30
0.0
  0
SPLINE
  5
3AE
100
AcDbEntity
  8
0
100
AcDbSpline
 62
7
  6
CONTINUOUS
 70
0
 71
3
 72
41
 73
37
 74
0
 42
0.0000001
 43
0.0000001
 44
0.0000000001
 40
0.0
 40
0.0
 40
0.0
 40
0.0
 40
0.0307703342
 40
0.0616656829
 40
0.092683163
 40
0.1238187226
 40
0.1550664251
 40
0.1864189665
 40
0.2178676151
 40
0.2494024002
 40
0.2810122308
 40
0.3126850534
 40
0.3444080099
 40
0.3761676052
 40
0.4079498808
 40
0.439740592
 40
0.4715253878
 40
0.5032899917
 40
0.535020382
 40
0.5667029693
 40
0.5983247714
 40
0.6298735811
 40
0.661338128
 40
0.6927082311
 40
0.7239749402
 40
0.7551306655
 40
0.7861692918
 40
0.8170862769
 40
0.8478787313
 40
0.8632294979
 40
0.8785488396
 40
0.9090904486
 40
0.939509255
 40
0.9546755537
 40
0.9698128302
 40
1.0
 40
1.0
 40
1.0
 40
1.0
 10
10.8609751448
 20
7.851297407
 30
0.0
 10
10.8609751448
 20
7.8435410466
 30
0.0
 10
10.8614354301
 20
7.8279930027
 30
0.0
 10
10.8634943462
 20
7.8047083612
 30
0.0
 10
10.8669159152
 20
7.7814908847
 30
0.0
 10
10.8716880477
 20
7.7584226342
 30
0.0
 10
10.8777940511
 20
7.7355837044
 30
0.0
 10
10.8852125288
 20
7.7130537886
 30
0.0
 10
10.8939175553
 20
7.6909113784
 30
0.0
 10
10.9038787164
 20
7.6692336384
 30
0.0
 10
10.9150612387
 20
7.6480961005
 30
0.0
 10
10.9274261013
 20
7.6275724134
 30
0.0
 10
10.9409301751
 20
7.6077340849
 30
0.0
 10
10.9555263713
 20
7.588650236
 30
0.0
 10
10.9711638055
 20
7.5703873612
 30
0.0
 10
10.9877879736
 20
7.5530090985
 30
0.0
 10
11.0053409408
 20
7.5365760096
 30
0.0
 10
11.0237615422
 20
7.5211453697
 30
0.0
 10
11.0429855945
 20
7.5067709693
 30
0.0
 10
11.0629461181
 20
7.4935029278
 30
0.0
 10
11.0835735689
 20
7.4813875195
 30
0.0
 10
11.1047960779
 20
7.4704670133
 30
0.0
 10
11.1265397014
 20
7.4607795253
 30
0.0
 10
11.1487286718
 20
7.4523588864
 30
0.0
 10
11.1712856755
 20
7.4452345238
 30
0.0
 10
11.1941320594
 20
7.4394313592
 30
0.0
 10
11.2171883277
 20
7.4349697146
 30
0.0
 10
11.2403735805
 20
7.4318652637
 30
0.0
 10
11.259756478
 20
7.4304167777
 30
0.0
 10
11.275244352
 20
7.4299473339
 30
0.0
 10
11.2906761229
 20
7.4299366416
 30
0.0
 10
11.3098977807
 20
7.4307804275
 30
0.0
 10
11.3289961138
 20
7.4327708029
 30
0.0
 10
11.3441346094
 20
7.4350466638
 30
0.0
 10
11.359139169
 20
7.4377700394
 30
0.0
 10
11.3702848827
 20
7.4403232981
 30
0.0
 10
11.3776464069
 20
7.4422495196
 30
0.0
  0
SPLINE
  5
3AF
100
AcDbEntity
  8
0
100
AcDbSpline
 62
7
  6
CONTINUOUS
 70
0
 71
3
 72
39
 73
35
 74
0
 42
0.0000001
 43
0.0000001
 44
0.0000000001
 40
0.0
 40
0.0
 40
0.0
 40
0.0
 40
0.0307187419
 40
0.0615568724
 40
0.0925114676
 40
0.1235793041
 40
0.1547550808
 40
0.1860324762
 40
0.2174038419
 40
0.2488604437
 40
0.2803925301
 40
0.3119894663
 40
0.3436398614
 40
0.3753317045
 40
0.4070525061
 40
0.4387894436
 40
0.4705295092
 40
0.5022596596
 40
0.5339669652
 40
0.5656387589
 40
0.5972627832
 40
0.6288273326
 40
0.6603213932
 40
0.6917347752
 40
0.7230582385
 40
0.7542836102
 40
0.7854038917
 40
0.8164133551
 40
0.847307626
 40
0.878083752
 40
0.9087402557
 40
0.93927717
 40
0.9696960559
 40
1.0
 40
1.0
 40
1.0
 40
1.0
 10
10.8966438652
 20
7.8857507472
 30
0.0
 10
10.8966438652
 20
7.8783500302
 30
0.0
 10
10.8970628596
 20
7.8635165193
 30
0.0
 10
10.8989376375
 20
7.8412967774
 30
0.0
 10
10.9020539916
 20
7.8191313803
 30
0.0
 10
10.9064018245
 20
7.7970917205
 30
0.0
 10
10.9119673428
 20
7.775247443
 30
0.0
 10
10.9187327573
 20
7.7536679802
 30
0.0
 10
10.9266765525
 20
7.7324217921
 30
0.0
 10
10.935773448
 20
7.7115763092
 30
0.0
 10
10.9459945262
 20
7.6911976774
 30
0.0
 10
10.9573073058
 20
7.6713505604
 30
0.0
 10
10.9696758512
 20
7.6520979338
 30
0.0
 10
10.9830608844
 20
7.6335008871
 30
0.0
 10
10.9974199086
 20
7.6156184308
 30
0.0
 10
11.0127073411
 20
7.5985073089
 30
0.0
 10
11.0288746601
 20
7.5822218214
 30
0.0
 10
11.0458705572
 20
7.566813653
 30
0.0
 10
11.0636410996
 20
7.5523317103
 30
0.0
 10
11.0821299001
 20
7.5388219675
 30
0.0
 10
11.1012782946
 20
7.5263273209
 30
0.0
 10
11.121025527
 20
7.5148874536
 30
0.0
 10
11.1413089405
 20
7.5045387104
 30
0.0
 10
11.162064175
 20
7.495313982
 30
0.0
 10
11.1832253694
 20
7.4872426011
 30
0.0
 10
11.2047253694
 20
7.4803502496
 30
0.0
 10
11.2264959373
 20
7.4746588741
 30
0.0
 10
11.2484679695
 20
7.4701866155
 30
0.0
 10
11.270571707
 20
7.4669477513
 30
0.0
 10
11.2927369846
 20
7.4649526537
 30
0.0
 10
11.3148933404
 20
7.4642077369
 30
0.0
 10
11.3369706544
 20
7.4647154999
 30
0.0
 10
11.3588978228
 20
7.4664742758
 30
0.0
 10
11.3733984754
 20
7.4684812056
 30
0.0
 10
11.3805982467
 20
7.4696914731
 30
0.0
  0
SPLINE
  5
3B0
100
AcDbEntity
  8
0
100
AcDbSpline
 62
7
  6
CONTINUOUS
 70
0
 71
3
 72
39
 73
35
 74
0
 42
0.0000001
 43
0.0000001
 44
0.0000000001
 40
0.0
 40
0.0
 40
0.0
 40
0.0
 40
0.0307176677
 40
0.0615547176
 40
0.0925080143
 40
0.1235744985
 40
0.1547488186
 40
0.1860246936
 40
0.2173944909
 40
0.2488495022
 40
0.280380002
 40
0.3119753837
 40
0.343624285
 40
0.3753147244
 40
0.4070342422
 40
0.4387700453
 40
0.4705091538
 40
0.5022385503
 40
0.5339453284
 40
0.5656168409
 40
0.5972408461
 40
0.6288056501
 40
0.6603002458
 40
0.6917144457
 40
0.7230390073
 40
0.7542657496
 40
0.7853876607
 40
0.8163989927
 40
0.8472953452
 40
0.8780737335
 40
0.9087326421
 40
0.9392720604
 40
0.9696935015
 40
1.0
 40
1.0
 40
1.0
 40
1.0
 10
10.9456336538
 20
7.893071252
 30
0.0
 10
10.9456336538
 20
7.8864044872
 30
0.0
 10
10.9460107257
 20
7.8730420686
 30
0.0
 10
10.947697907
 20
7.853025854
 30
0.0
 10
10.9505024648
 20
7.8330584104
 30
0.0
 10
10.9544152954
 20
7.8132039483
 30
0.0
 10
10.959424034
 20
7.7935250633
 30
0.0
 10
10.96551269
 20
7.7740841901
 30
0.0
 10
10.9726619445
 20
7.7549428799
 30
0.0
 10
10.9808490893
 20
7.7361617641
 30
0.0
 10
10.9900481518
 20
7.717800321
 30
0.0
 10
11.0002299575
 20
7.6999167002
 30
0.0
 10
11.0113622269
 20
7.6825675357
 30
0.0
 10
11.0234096734
 20
7.6658077668
 30
0.0
 10
11.0363341207
 20
7.6496904674
 30
0.0
 10
11.0500946215
 20
7.6342666792
 30
0.0
 10
11.0646475869
 20
7.6195852511
 30
0.0
 10
11.079946924
 20
7.6056926855
 30
0.0
 10
11.0959441802
 20
7.592632992
 30
0.0
 10
11.1125886959
 20
7.5804475492
 30
0.0
 10
11.1298277636
 20
7.5691749738
 30
0.0
 10
11.1476067941
 20
7.5588509997
 30
0.0
 10
11.1658694851
 20
7.5495083604
 30
0.0
 10
11.1845580007
 20
7.5411766872
 30
0.0
 10
11.2036131542
 20
7.5338824181
 30
0.0
 10
11.2229745935
 20
7.5276487135
 30
0.0
 10
11.2425809906
 20
7.522495382
 30
0.0
 10
11.2623702354
 20
7.5184388182
 30
0.0
 10
11.2822796238
 20
7.515491948
 30
0.0
 10
11.3022460815
 20
7.5136641914
 30
0.0
 10
11.3222062617
 20
7.512961413
 30
0.0
 10
11.342097118
 20
7.5133859684
 30
0.0
 10
11.3618547187
 20
7.5149364383
 30
0.0
 10
11.3749220476
 20
7.5167211462
 30
0.0
 10
11.3814105563
 20
7.5177996267
 30
0.0
  0
SPLINE
  5
3B1
100
AcDbEntity
  8
0
100
AcDbSpline
 62
7
  6
CONTINUOUS
 70
0
 71
3
 72
53
 73
49
 74
0
 42
0.0000001
 43
0.0000001
 44
0.0000000001
 40
0.0
 40
0.0
 40
0.0
 40
0.0
 40
0.0417740113
 40
0.0840369498
 40
0.1266584959
 40
0.1695064843
 40
0.2124480935
 40
0.2553500426
 40
0.298079237
 40
0.3405032536
 40
0.382490879
 40
0.4239126346
 40
0.4646413116
 40
0.5045525112
 40
0.543525196
 40
0.5814422576
 40
0.6181911067
 40
0.6536642972
 40
0.6877601986
 40
0.720383738
 40
0.7361160079
 40
0.7514479787
 40
0.7663699923
 40
0.7808730391
 40
0.7949486907
 40
0.8085892839
 40
0.8217878242
 40
0.8345382246
 40
0.8468351953
 40
0.858674535
 40
0.8700530305
 40
0.8809687964
 40
0.8914212207
 40
0.9014113515
 40
0.9109419335
 40
0.9200178526
 40
0.9286463131
 40
0.9368373658
 40
0.9446042772
 40
0.9519641672
 40
0.9589385932
 40
0.9655542738
 40
0.9718437889
 40
0.9778461802
 40
0.9836073652
 40
0.9891800467
 40
0.99462308
 40
1.0
 40
1.0
 40
1.0
 40
1.0
 10
12.4674701184
 20
9.4113206674
 30
0.0
 10
12.4674701184
 20
9.400313706
 30
0.0
 10
12.4672983981
 20
9.3781706107
 30
0.0
 10
12.466539254
 20
9.3448050612
 30
0.0
 10
12.4652792612
 20
9.3111714362
 30
0.0
 10
12.4635225501
 20
9.2773810715
 30
0.0
 10
12.4612749259
 20
9.2435457627
 30
0.0
 10
12.458543818
 20
9.2097774453
 30
0.0
 10
12.4553382736
 20
9.1761878399
 30
0.0
 10
12.451668919
 20
9.1428880686
 30
0.0
 10
12.4475479285
 20
9.1099882891
 30
0.0
 10
12.442988983
 20
9.0775973259
 30
0.0
 10
12.438007226
 20
9.0458223076
 30
0.0
 10
12.4326192145
 20
9.0147683073
 30
0.0
 10
12.4268428651
 20
8.9845379919
 30
0.0
 10
12.4206973964
 20
8.9552312688
 30
0.0
 10
12.4142032643
 20
8.9269449686
 30
0.0
 10
12.4073821051
 20
8.8997724355
 30
0.0
 10
12.4002566284
 20
8.8738034738
 30
0.0
 10
12.3940118341
 20
8.8529926772
 30
0.0
 10
12.3888714616
 20
8.8370179258
 30
0.0
 10
12.3850016882
 20
8.8255352161
 30
0.0
 10
12.3810739608
 20
8.8144151056
 30
0.0
 10
12.377091543
 20
8.8036667575
 30
0.0
 10
12.3730577004
 20
8.793299048
 30
0.0
 10
12.3689758232
 20
8.7833205144
 30
0.0
 10
12.3648492357
 20
8.7737393871
 30
0.0
 10
12.3606814146
 20
8.7645635357
 30
0.0
 10
12.3564757372
 20
8.7558005172
 30
0.0
 10
12.3522357449
 20
8.7474575011
 30
0.0
 10
12.3479648543
 20
8.7395413417
 30
0.0
 10
12.3436666447
 20
8.7320584795
 30
0.0
 10
12.339344553
 20
8.7250150371
 30
0.0
 10
12.33500216
 20
8.7184167015
 30
0.0
 10
12.330642893
 20
8.7122688395
 30
0.0
 10
12.3262702827
 20
8.7065763707
 30
0.0
 10
12.3218876988
 20
8.7013438965
 30
0.0
 10
12.3174985499
 20
8.6965755838
 30
0.0
 10
12.3131060789
 20
8.6922752999
 30
0.0
 10
12.3087134888
 20
8.6884465436
 30
0.0
 10
12.304323833
 20
8.6850925736
 30
0.0
 10
12.299940084
 20
8.6822164374
 30
0.0
 10
12.2955651861
 20
8.6798210531
 30
0.0
 10
12.2912021208
 20
8.6779093467
 30
0.0
 10
12.2868542597
 20
8.6764841327
 30
0.0
 10
12.2825251766
 20
8.675548232
 30
0.0
 10
12.2782201369
 20
8.6751038217
 30
0.0
 10
12.27536195
 20
8.6751364597
 30
0.0
 10
12.2739485892
 20
8.6752344731
 30
0.0
  0
SPLINE
  5
3B2
100
AcDbEntity
  8
0
100
AcDbSpline
 62
7
  6
CONTINUOUS
 70
0
 71
3
 72
43
 73
39
 74
0
 42
0.0000001
 43
0.0000001
 44
0.0000000001
 40
0.0
 40
0.0
 40
0.0
 40
0.0
 40
0.0309858177
 40
0.0621190297
 40
0.0933959222
 40
0.1248092254
 40
0.1563495418
 40
0.1880050306
 40
0.2197617935
 40
0.2516040967
 40
0.2835146938
 40
0.3154751262
 40
0.3474660567
 40
0.3794676206
 40
0.4114597568
 40
0.4434225793
 40
0.4753367083
 40
0.507183626
 40
0.5389459977
 40
0.5706079988
 40
0.6021556008
 40
0.633576856
 40
0.6648621297
 40
0.696004309
 40
0.7269989794
 40
0.7578445263
 40
0.7885422344
 40
0.8190962773
 40
0.8343239655
 40
0.8495186093
 40
0.8646815201
 40
0.8798141719
 40
0.9099903121
 40
0.9400667643
 40
0.9550753559
 40
0.9700654937
 40
0.9850395554
 40
1.0
 40
1.0
 40
1.0
 40
1.0
 10
10.6659278412
 20
7.6863961678
 30
0.0
 10
10.6659278412
 20
7.6767247162
 30
0.0
 10
10.6666047696
 20
7.6573292375
 30
0.0
 10
10.6696289132
 20
7.6283134554
 30
0.0
 10
10.674649191
 20
7.5994391139
 30
0.0
 10
10.6816411781
 20
7.5708477355
 30
0.0
 10
10.6905707558
 20
7.5426772206
 30
0.0
 10
10.7013945593
 20
7.5150639584
 30
0.0
 10
10.7140600535
 20
7.4881414725
 30
0.0
 10
10.7285058231
 20
7.4620399641
 30
0.0
 10
10.7446618763
 20
7.4368856468
 30
0.0
 10
10.7624499878
 20
7.4128001584
 30
0.0
 10
10.7817840671
 20
7.3898999726
 30
0.0
 10
10.8025705787
 20
7.3682958513
 30
0.0
 10
10.824708974
 20
7.3480922943
 30
0.0
 10
10.8480921765
 20
7.3293870424
 30
0.0
 10
10.8726071106
 20
7.3122706186
 30
0.0
 10
10.8981352342
 20
7.2968258929
 30
0.0
 10
10.9245531097
 20
7.2831276838
 30
0.0
 10
10.9517329907
 20
7.2712424023
 30
0.0
 10
10.9795434241
 20
7.2612277048
 30
0.0
 10
11.0078498887
 20
7.2531322296
 30
0.0
 10
11.0365154326
 20
7.2469953669
 30
0.0
 10
11.0654013548
 20
7.2428470641
 30
0.0
 10
11.0943677537
 20
7.240707657
 30
0.0
 10
11.1232746162
 20
7.2405878496
 30
0.0
 10
11.1519809394
 20
7.2424882782
 30
0.0
 10
11.1756501585
 20
7.2457525105
 30
0.0
 10
11.1943403776
 20
7.2493623635
 30
0.0
 10
11.2082076012
 20
7.2525616152
 30
0.0
 10
11.2219216691
 20
7.2562516723
 30
0.0
 10
11.2399617551
 20
7.2618141773
 30
0.0
 10
11.2620562875
 20
7.2699703205
 30
0.0
 10
11.2834588713
 20
7.2797076581
 30
0.0
 10
11.300073859
 20
7.2884067689
 30
0.0
 10
11.312263392
 20
7.295374666
 30
0.0
 10
11.3241733351
 20
7.302781254
 30
0.0
 10
11.3319209733
 20
7.3080080395
 30
0.0
 10
11.3357427317
 20
7.3106910745
 30
0.0
  0
SPLINE
  5
3B3
100
AcDbEntity
  8
0
100
AcDbSpline
 62
7
  6
CONTINUOUS
 70
0
 71
3
 72
41
 73
37
 74
0
 42
0.0000001
 43
0.0000001
 44
0.0000000001
 40
0.0
 40
0.0
 40
0.0
 40
0.0
 40
0.0309723589
 40
0.0620906497
 40
0.0933512706
 40
0.1247471543
 40
0.1562691749
 40
0.1879058195
 40
0.219643569
 40
0.2514671047
 40
0.2833596217
 40
0.3153031104
 40
0.3472786841
 40
0.3792669076
 40
0.4112481208
 40
0.4432027932
 40
0.4751118417
 40
0.5069569769
 40
0.5387210105
 40
0.5703881742
 40
0.6019443945
 40
0.6333775764
 40
0.6646778233
 40
0.6958376593
 40
0.7268521883
 40
0.7423064621
 40
0.7577238223
 40
0.78844396
 40
0.8190206156
 40
0.8494600035
 40
0.8797710351
 40
0.8948843638
 40
0.9099701112
 40
0.9400612375
 40
0.970065284
 40
1.0
 40
1.0
 40
1.0
 40
1.0
 10
10.6566093273
 20
7.6832530385
 30
0.0
 10
10.6566093273
 20
7.6735457807
 30
0.0
 10
10.6572820958
 20
7.6540790592
 30
0.0
 10
10.6602879288
 20
7.6249545008
 30
0.0
 10
10.66527816
 20
7.5959677894
 30
0.0
 10
10.6722289918
 20
7.5672582467
 30
0.0
 10
10.6811071578
 20
7.538961661
 30
0.0
 10
10.6918703781
 20
7.5112123769
 30
0.0
 10
10.704467427
 20
7.4841419793
 30
0.0
 10
10.7188384081
 20
7.4578788519
 30
0.0
 10
10.7349150369
 20
7.4325475307
 30
0.0
 10
10.7526209775
 20
7.408268136
 30
0.0
 10
10.7718721928
 20
7.3851558036
 30
0.0
 10
10.7925773459
 20
7.3633201493
 30
0.0
 10
10.8146382281
 20
7.3428647523
 30
0.0
 10
10.8379502055
 20
7.3238866565
 30
0.0
 10
10.8624027253
 20
7.3064759181
 30
0.0
 10
10.8878798339
 20
7.2907151902
 30
0.0
 10
10.914260726
 20
7.2766793305
 30
0.0
 10
10.9414202983
 20
7.2644350502
 30
0.0
 10
10.9692297686
 20
7.2540405986
 30
0.0
 10
10.9975571644
 20
7.2455454729
 30
0.0
 10
11.0262683342
 20
7.2389901754
 30
0.0
 10
11.055226154
 20
7.234406064
 30
0.0
 10
11.079480806
 20
7.2322442762
 30
0.0
 10
11.0988668436
 20
7.2315214468
 30
0.0
 10
11.118173966
 20
7.2314685674
 30
0.0
 10
11.1422093982
 20
7.2326534973
 30
0.0
 10
11.1707797694
 20
7.2360794943
 30
0.0
 10
11.1989109892
 20
7.2414915446
 30
0.0
 10
11.2219014416
 20
7.2476426075
 30
0.0
 10
11.2399340952
 20
7.2535270135
 30
0.0
 10
11.2576778914
 20
7.2600344649
 30
0.0
 10
11.279348081
 20
7.2693453738
 30
0.0
 10
11.3044133553
 20
7.2823546779
 30
0.0
 10
11.3204255795
 20
7.2922173482
 30
0.0
 10
11.3282272649
 20
7.297428532
 30
0.0
  0
SPLINE
  5
3B4
100
AcDbEntity
  8
0
100
AcDbSpline
 62
7
  6
CONTINUOUS
 70
0
 71
3
 72
15
 73
11
 74
0
 42
0.0000001
 43
0.0000001
 44
0.0000000001
 40
0.0
 40
0.0
 40
0.0
 40
0.0
 40
0.123382991
 40
0.2470845928
 40
0.3711904081
 40
0.4957761473
 40
0.6209059055
 40
0.7466310406
 40
0.8729874778
 40
1.0
 40
1.0
 40
1.0
 40
1.0
 10
10.7303409444
 20
7.9162947875
 30
0.0
 10
10.7243777408
 20
7.9080008011
 30
0.0
 10
10.7130972168
 20
7.8909044534
 30
0.0
 10
10.6982558371
 20
7.8639587249
 30
0.0
 10
10.6855542017
 20
7.8358295848
 30
0.0
 10
10.6750651707
 20
7.8066779374
 30
0.0
 10
10.6668471545
 20
7.77666789
 30
0.0
 10
10.6609462333
 20
7.7459683534
 30
0.0
 10
10.6573950639
 20
7.7147545813
 30
0.0
 10
10.6566093273
 20
7.6937687215
 30
0.0
 10
10.6566093273
 20
7.6832530385
 30
0.0
  0
SPLINE
  5
3B5
100
AcDbEntity
  8
0
100
AcDbSpline
 62
7
  6
CONTINUOUS
 70
0
 71
3
 72
41
 73
37
 74
0
 42
0.0000001
 43
0.0000001
 44
0.0000000001
 40
0.0
 40
0.0
 40
0.0
 40
0.0
 40
0.0310749701
 40
0.0623071734
 40
0.0936920074
 40
0.1252208036
 40
0.1568821871
 40
0.188661975
 40
0.2205435592
 40
0.252508269
 40
0.2845357507
 40
0.3166044009
 40
0.3486917941
 40
0.3807751308
 40
0.4128316954
 40
0.4448393017
 40
0.4767767412
 40
0.5086242118
 40
0.5403637307
 40
0.5719795145
 40
0.6034583267
 40
0.6347897906
 40
0.6659666414
 40
0.6969849269
 40
0.7278441438
 40
0.7585473048
 40
0.7891009211
 40
0.8195149057
 40
0.8498023994
 40
0.8799795017
 40
0.910064926
 40
0.9400795778
 40
0.9550703257
 40
0.9700519693
 40
0.9850275136
 40
1.0
 40
1.0
 40
1.0
 40
1.0
 10
10.5219001278
 20
7.5622760715
 30
0.0
 10
10.5219001278
 20
7.5516118058
 30
0.0
 10
10.5226956618
 20
7.5302211091
 30
0.0
 10
10.5262475269
 20
7.4982374676
 30
0.0
 10
10.5321409455
 20
7.4664416265
 30
0.0
 10
10.5403433533
 20
7.4350104453
 30
0.0
 10
10.5508093603
 20
7.4041159331
 30
0.0
 10
10.5634812203
 20
7.37392781
 30
0.0
 10
10.5782891462
 20
7.3446116952
 30
0.0
 10
10.5951517104
 20
7.3163284834
 30
0.0
 10
10.6139762043
 20
7.2892333525
 30
0.0
 10
10.6346591959
 20
7.2634749627
 30
0.0
 10
10.657087126
 20
7.2391946719
 30
0.0
 10
10.6811369015
 20
7.2165257646
 30
0.0
 10
10.706676509
 20
7.1955926634
 30
0.0
 10
10.7335658047
 20
7.1765103187
 30
0.0
 10
10.7616572692
 20
7.1593835974
 30
0.0
 10
10.7907967705
 20
7.144306661
 30
0.0
 10
10.8208244009
 20
7.1313624333
 30
0.0
 10
10.8515753784
 20
7.1206222145
 30
0.0
 10
10.8828809249
 20
7.1121452899
 30
0.0
 10
10.9145691519
 20
7.1059785041
 30
0.0
 10
10.9464660203
 20
7.1021560619
 30
0.0
 10
10.9783962801
 20
7.1006993621
 30
0.0
 10
11.0101844107
 20
7.1016168371
 30
0.0
 10
11.0416555862
 20
7.1049038135
 30
0.0
 10
11.0726366267
 20
7.1105426119
 30
0.0
 10
11.1029569669
 20
7.1185026502
 30
0.0
 10
11.1324494967
 20
7.1287404165
 30
0.0
 10
11.1609519428
 20
7.141200047
 30
0.0
 10
11.1883061248
 20
7.1558123863
 30
0.0
 10
11.2100319971
 20
7.1697253969
 30
0.0
 10
11.2266813178
 20
7.1818405202
 30
0.0
 10
11.2387874564
 20
7.1914066039
 30
0.0
 10
11.2504990687
 20
7.2014414507
 30
0.0
 10
11.2580340138
 20
7.208435603
 30
0.0
 10
11.2617297206
 20
7.2120053698
 30
0.0
  0
SPLINE
  5
3B6
100
AcDbEntity
  8
0
100
AcDbSpline
 62
7
  6
CONTINUOUS
 70
0
 71
3
 72
71
 73
67
 74
0
 42
0.0000001
 43
0.0000001
 44
0.0000000001
 40
0.0
 40
0.0
 40
0.0
 40
0.0
 40
0.0156373532
 40
0.031327908
 40
0.0470702701
 40
0.06286363
 40
0.0787060742
 40
0.0945954808
 40
0.1105292257
 40
0.1265042915
 40
0.1425172928
 40
0.1585644985
 40
0.1746418756
 40
0.1907451257
 40
0.2068697172
 40
0.2230109374
 40
0.2391639221
 40
0.2553237091
 40
0.2714852756
 40
0.2876435826
 40
0.3037936213
 40
0.3199304524
 40
0.336049253
 40
0.3521453584
 40
0.3682143028
 40
0.3842518606
 40
0.4002540844
 40
0.4162173408
 40
0.4321383479
 40
0.4480142049
 40
0.4638424245
 40
0.4796209574
 40
0.4953482153
 40
0.5110230905
 40
0.5266449708
 40
0.542213751
 40
0.5577298398
 40
0.5731941592
 40
0.5886081421
 40
0.6039737225
 40
0.6192933195
 40
0.6345698207
 40
0.6498065535
 40
0.6650072572
 40
0.6801760457
 40
0.6953173664
 40
0.7104359564
 40
0.7255367935
 40
0.7406250432
 40
0.7557060079
 40
0.7707850655
 40
0.7858676153
 40
0.8009590207
 40
0.8160645461
 40
0.8311893111
 40
0.8463382249
 40
0.8615159463
 40
0.8767268297
 40
0.8919748803
 40
0.9072637233
 40
0.9225965585
 40
0.9379761255
 40
0.9534047622
 40
0.9688840686
 40
0.9844157689
 40
1.0
 40
1.0
 40
1.0
 40
1.0
 10
10.5125816139
 20
7.5591329421
 30
0.0
 10
10.5125816139
 20
7.5519879068
 30
0.0
 10
10.5129336593
 20
7.537671094
 30
0.0
 10
10.5145101606
 20
7.5162134911
 30
0.0
 10
10.5171323087
 20
7.4947861637
 30
0.0
 10
10.5207935617
 20
7.4734415468
 30
0.0
 10
10.5254851895
 20
7.4522307236
 30
0.0
 10
10.5311957899
 20
7.4312048632
 30
0.0
 10
10.5379116116
 20
7.4104145557
 30
0.0
 10
10.5456164407
 20
7.3899098536
 30
0.0
 10
10.5542916921
 20
7.3697401095
 30
0.0
 10
10.5639164509
 20
7.349953868
 30
0.0
 10
10.5744675251
 20
7.3305987509
 30
0.0
 10
10.5859194976
 20
7.3117213421
 30
0.0
 10
10.5982447919
 20
7.2933670781
 30
0.0
 10
10.6114137296
 20
7.2755801379
 30
0.0
 10
10.6253945953
 20
7.2584033259
 30
0.0
 10
10.6401537268
 20
7.2418779832
 30
0.0
 10
10.6556555936
 20
7.2260438839
 30
0.0
 10
10.6718628833
 20
7.2109391442
 30
0.0
 10
10.688736588
 20
7.1966001287
 30
0.0
 10
10.7062361007
 20
7.183061367
 30
0.0
 10
10.7243192997
 20
7.1703554547
 30
0.0
 10
10.7429426601
 20
7.1585129852
 30
0.0
 10
10.7620613598
 20
7.1475624798
 30
0.0
 10
10.7816293858
 20
7.1375303196
 30
0.0
 10
10.8015996434
 20
7.1284406813
 30
0.0
 10
10.8219240694
 20
7.1203154823
 30
0.0
 10
10.8425537424
 20
7.1131743177
 30
0.0
 10
10.8634390005
 20
7.1070344074
 30
0.0
 10
10.8845295658
 20
7.1019105699
 30
0.0
 10
10.9057746626
 20
7.0978151831
 30
0.0
 10
10.9271231385
 20
7.0947581557
 30
0.0
 10
10.9485235857
 20
7.0927469019
 30
0.0
 10
10.9699244642
 20
7.0917863235
 30
0.0
 10
10.9912742248
 20
7.0918787774
 30
0.0
 10
11.0125214355
 20
7.0930240885
 30
0.0
 10
11.033614904
 20
7.0952195481
 30
0.0
 10
11.0545038001
 20
7.0984599208
 30
0.0
 10
11.075137777
 20
7.1027374533
 30
0.0
 10
11.0954670921
 20
7.1080418963
 30
0.0
 10
11.115442731
 20
7.1143605106
 30
0.0
 10
11.1350165279
 20
7.121678102
 30
0.0
 10
11.1541412785
 20
7.1299770681
 30
0.0
 10
11.172770855
 20
7.1392374359
 30
0.0
 10
11.190860318
 20
7.1494369105
 30
0.0
 10
11.2083660247
 20
7.1605509277
 30
0.0
 10
11.225245738
 20
7.1725527089
 30
0.0
 10
11.2414587399
 20
7.1854133147
 30
0.0
 10
11.2569659197
 20
7.1991017325
 30
0.0
 10
11.2717298717
 20
7.2135849484
 30
0.0
 10
11.285714984
 20
7.2288280299
 30
0.0
 10
11.2988875272
 20
7.2447942071
 30
0.0
 10
11.3112157334
 20
7.2614449673
 30
0.0
 10
11.3226698887
 20
7.2787401339
 30
0.0
 10
11.3332223985
 20
7.2966379777
 30
0.0
 10
11.3428478443
 20
7.3150953206
 30
0.0
 10
11.3515230509
 20
7.3340676391
 30
0.0
 10
11.3592271363
 20
7.353509175
 30
0.0
 10
11.3659415644
 20
7.3733730448
 30
0.0
 10
11.3716501849
 20
7.3936113432
 30
0.0
 10
11.3763393233
 20
7.4141753018
 30
0.0
 10
11.3799976651
 20
7.435015248
 30
0.0
 10
11.3826165786
 20
7.4560812583
 30
0.0
 10
11.3841896222
 20
7.4773217436
 30
0.0
 10
11.3845381018
 20
7.4915417916
 30
0.0
 10
11.3845381018
 20
7.4986625543
 30
0.0
  0
SPLINE
  5
3B7
100
AcDbEntity
  8
0
100
AcDbSpline
 62
7
  6
CONTINUOUS
 70
0
 71
3
 72
50
 73
46
 74
0
 42
0.0000001
 43
0.0000001
 44
0.0000000001
 40
0.0
 40
0.0
 40
0.0
 40
0.0
 40
0.0417744418
 40
0.0840381875
 40
0.1266602114
 40
0.1695088334
 40
0.2124510193
 40
0.2553535638
 40
0.2980833443
 40
0.3405079442
 40
0.3824961454
 40
0.4239184685
 40
0.4646477027
 40
0.5045594474
 40
0.5435326636
 40
0.5814502412
 40
0.6181995892
 40
0.6536732601
 40
0.6877696215
 40
0.7203935994
 40
0.7514575214
 40
0.7808821092
 40
0.7949579392
 40
0.8085987194
 40
0.821797426
 40
0.8345479988
 40
0.8468451249
 40
0.8586846215
 40
0.8700632619
 40
0.8809791687
 40
0.8914317275
 40
0.9014219834
 40
0.9109526898
 40
0.9200287185
 40
0.9286572935
 40
0.9368484417
 40
0.9446154576
 40
0.9519754311
 40
0.9589499519
 40
0.9655657069
 40
0.9778458861
 40
0.9836071497
 40
0.9891799
 40
0.9946230074
 40
1.0
 40
1.0
 40
1.0
 40
1.0
 10
11.889139463
 20
8.6382605691
 30
0.0
 10
11.889139463
 20
8.6305463916
 30
0.0
 10
11.8890191104
 20
8.6150274378
 30
0.0
 10
11.8884870723
 20
8.5916432721
 30
0.0
 10
11.8876040017
 20
8.5680711919
 30
0.0
 10
11.8863728183
 20
8.5443893049
 30
0.0
 10
11.8847975727
 20
8.5206758982
 30
0.0
 10
11.8828834819
 20
8.4970094507
 30
0.0
 10
11.8806368817
 20
8.4734682506
 30
0.0
 10
11.8780652217
 20
8.4501301814
 30
0.0
 10
11.8751770334
 20
8.4270724457
 30
0.0
 10
11.8719819053
 20
8.4043713133
 30
0.0
 10
11.8684904508
 20
8.3821018649
 30
0.0
 10
11.8647142736
 20
8.360337741
 30
0.0
 10
11.8606659307
 20
8.3391508948
 30
0.0
 10
11.8563588911
 20
8.3186113485
 30
0.0
 10
11.8518074924
 20
8.2987869576
 30
0.0
 10
11.8470268945
 20
8.279743171
 30
0.0
 10
11.8420330267
 20
8.2615428267
 30
0.0
 10
11.8368425437
 20
8.2442458455
 30
0.0
 10
11.8314727332
 20
8.2279092994
 30
0.0
 10
11.8267968964
 20
8.2149557345
 30
0.0
 10
11.8229707183
 20
8.2051215614
 30
0.0
 10
11.8201099312
 20
8.1981281284
 30
0.0
 10
11.8172178195
 20
8.1914132246
 30
0.0
 10
11.8142968151
 20
8.1849823538
 30
0.0
 10
11.8113492709
 20
8.1788408189
 30
0.0
 10
11.8083776842
 20
8.1729936401
 30
0.0
 10
11.805384438
 20
8.1674456243
 30
0.0
 10
11.8023720471
 20
8.1622012838
 30
0.0
 10
11.7993429199
 20
8.1572649089
 30
0.0
 10
11.7962995601
 20
8.1526404888
 30
0.0
 10
11.7932443819
 20
8.1483317778
 30
0.0
 10
11.7901798419
 20
8.1443422357
 30
0.0
 10
11.7871083225
 20
8.1406750682
 30
0.0
 10
11.7840321989
 20
8.1373332277
 30
0.0
 10
11.7809537173
 20
8.1343193628
 30
0.0
 10
11.7778753024
 20
8.131636073
 30
0.0
 10
11.7747983733
 20
8.129285219
 30
0.0
 10
11.7708022712
 20
8.1266631145
 30
0.0
 10
11.7667052131
 20
8.1246124885
 30
0.0
 10
11.762555322
 20
8.123252273
 30
0.0
 10
11.7595211568
 20
8.122596314
 30
0.0
 10
11.7565040172
 20
8.1222848553
 30
0.0
 10
11.754500856
 20
8.1223077481
 30
0.0
 10
11.7535103056
 20
8.1223764423
 30
0.0
  0
SPLINE
  5
3B8
100
AcDbEntity
  8
0
100
AcDbSpline
 62
7
  6
CONTINUOUS
 70
0
 71
3
 72
71
 73
67
 74
0
 42
0.0000001
 43
0.0000001
 44
0.0000000001
 40
0.0
 40
0.0
 40
0.0
 40
0.0
 40
0.015637353
 40
0.031327908
 40
0.0470702701
 40
0.0628636299
 40
0.0787060742
 40
0.0945954808
 40
0.1105292257
 40
0.1265042916
 40
0.1425172928
 40
0.1585644985
 40
0.1746418756
 40
0.1907451257
 40
0.2068697172
 40
0.2230109374
 40
0.2391639221
 40
0.2553237091
 40
0.2714852756
 40
0.2876435826
 40
0.3037936213
 40
0.3199304524
 40
0.336049253
 40
0.3521453584
 40
0.3682143028
 40
0.3842518606
 40
0.4002540844
 40
0.4162173408
 40
0.4321383479
 40
0.4480142049
 40
0.4638424245
 40
0.4796209575
 40
0.4953482153
 40
0.5110230905
 40
0.5266449708
 40
0.542213751
 40
0.5577298398
 40
0.5731941592
 40
0.5886081421
 40
0.6039737225
 40
0.6192933195
 40
0.6345698207
 40
0.6498065535
 40
0.6650072572
 40
0.6801760457
 40
0.6953173664
 40
0.7104359564
 40
0.7255367935
 40
0.7406250432
 40
0.7557060079
 40
0.7707850654
 40
0.7858676153
 40
0.8009590207
 40
0.8160645461
 40
0.8311893111
 40
0.8463382249
 40
0.8615159463
 40
0.8767268297
 40
0.8919748803
 40
0.9072637233
 40
0.9225965584
 40
0.9379761255
 40
0.9534047621
 40
0.9688840686
 40
0.9844157692
 40
1.0
 40
1.0
 40
1.0
 40
1.0
 10
11.3845381018
 20
7.4986625543
 30
0.0
 10
11.3845381018
 20
7.5058075896
 30
0.0
 10
11.3841860557
 20
7.5201244023
 30
0.0
 10
11.3826095553
 20
7.5415820054
 30
0.0
 10
11.3799874072
 20
7.5630093329
 30
0.0
 10
11.3763261538
 20
7.5843539497
 30
0.0
 10
11.3716345263
 20
7.605564773
 30
0.0
 10
11.3659239258
 20
7.6265906333
 30
0.0
 10
11.3592081041
 20
7.6473809408
 30
0.0
 10
11.351503275
 20
7.6678856429
 30
0.0
 10
11.3428280236
 20
7.688055387
 30
0.0
 10
11.3332032648
 20
7.7078416285
 30
0.0
 10
11.3226521906
 20
7.7271967456
 30
0.0
 10
11.3112002181
 20
7.7460741544
 30
0.0
 10
11.2988749238
 20
7.7644284184
 30
0.0
 10
11.2857059861
 20
7.7822153586
 30
0.0
 10
11.2717251204
 20
7.7993921706
 30
0.0
 10
11.2569659889
 20
7.8159175133
 30
0.0
 10
11.2414641221
 20
7.8317516126
 30
0.0
 10
11.2252568324
 20
7.8468563523
 30
0.0
 10
11.2083831277
 20
7.8611953678
 30
0.0
 10
11.190883615
 20
7.8747341295
 30
0.0
 10
11.172800416
 20
7.8874400418
 30
0.0
 10
11.1541770556
 20
7.8992825113
 30
0.0
 10
11.1350583559
 20
7.9102330167
 30
0.0
 10
11.1154903299
 20
7.9202651769
 30
0.0
 10
11.0955200723
 20
7.9293548152
 30
0.0
 10
11.0751956462
 20
7.9374800142
 30
0.0
 10
11.0545659733
 20
7.9446211787
 30
0.0
 10
11.0336807152
 20
7.9507610891
 30
0.0
 10
11.0125901499
 20
7.9558849266
 30
0.0
 10
10.9913450531
 20
7.9599803134
 30
0.0
 10
10.9699965772
 20
7.9630373408
 30
0.0
 10
10.9485961299
 20
7.9650485946
 30
0.0
 10
10.9271952515
 20
7.966009173
 30
0.0
 10
10.9058454909
 20
7.965916719
 30
0.0
 10
10.8845982802
 20
7.964771408
 30
0.0
 10
10.8635048116
 20
7.9625759484
 30
0.0
 10
10.8426159156
 20
7.9593355757
 30
0.0
 10
10.8219819387
 20
7.9550580432
 30
0.0
 10
10.8016526236
 20
7.9497536002
 30
0.0
 10
10.7816769847
 20
7.9434349859
 30
0.0
 10
10.7621031878
 20
7.9361173945
 30
0.0
 10
10.7429784372
 20
7.9278184284
 30
0.0
 10
10.7243488607
 20
7.9185580605
 30
0.0
 10
10.7062593977
 20
7.908358586
 30
0.0
 10
10.688753691
 20
7.8972445688
 30
0.0
 10
10.6718739777
 20
7.8852427876
 30
0.0
 10
10.6556609758
 20
7.8723821818
 30
0.0
 10
10.640153796
 20
7.858693764
 30
0.0
 10
10.625389844
 20
7.8442105481
 30
0.0
 10
10.6114047317
 20
7.8289674666
 30
0.0
 10
10.5982321885
 20
7.8130012894
 30
0.0
 10
10.5859039823
 20
7.7963505292
 30
0.0
 10
10.574449827
 20
7.7790553626
 30
0.0
 10
10.5638973172
 20
7.7611575188
 30
0.0
 10
10.5542718714
 20
7.7427001759
 30
0.0
 10
10.5455966648
 20
7.7237278574
 30
0.0
 10
10.5378925794
 20
7.7042863215
 30
0.0
 10
10.5311781513
 20
7.6844224517
 30
0.0
 10
10.5254695309
 20
7.6641841532
 30
0.0
 10
10.5207803923
 20
7.6436201948
 30
0.0
 10
10.5171220508
 20
7.6227802485
 30
0.0
 10
10.5145031373
 20
7.6017142382
 30
0.0
 10
10.5129300928
 20
7.5804737528
 30
0.0
 10
10.5125816139
 20
7.5662537048
 30
0.0
 10
10.5125816139
 20
7.5591329421
 30
0.0
  0
SPLINE
  5
3B9
100
AcDbEntity
  8
0
100
AcDbSpline
 62
7
  6
CONTINUOUS
 70
0
 71
3
 72
23
 73
19
 74
0
 42
0.0000001
 43
0.0000001
 44
0.0000000001
 40
0.0
 40
0.0
 40
0.0
 40
0.0
 40
0.0601998839
 40
0.1204969479
 40
0.1809836633
 40
0.2417433973
 40
0.3028465701
 40
0.3643475579
 40
0.426282473
 40
0.4886679245
 40
0.5515006989
 40
0.614758301
 40
0.6784002918
 40
0.7423703066
 40
0.8065986013
 40
0.8710052448
 40
0.9355018871
 40
1.0
 40
1.0
 40
1.0
 40
1.0
 10
10.3853157732
 20
7.7744848962
 30
0.0
 10
10.3827515865
 20
7.7720081048
 30
0.0
 10
10.3773355757
 20
7.7673347271
 30
0.0
 10
10.3684707301
 20
7.7612730063
 30
0.0
 10
10.3589558714
 20
7.756219742
 30
0.0
 10
10.3488971473
 20
7.7522314305
 30
0.0
 10
10.3384049542
 20
7.749351181
 30
0.0
 10
10.3275947506
 20
7.7476102231
 30
0.0
 10
10.3165851973
 20
7.7470270377
 30
0.0
 10
10.3054969725
 20
7.7476074522
 30
0.0
 10
10.2944514385
 20
7.749344598
 30
0.0
 10
10.2835693433
 20
7.752218981
 30
0.0
 10
10.2729695233
 20
7.7561987227
 30
0.0
 10
10.2627676343
 20
7.7612400281
 30
0.0
 10
10.2530750215
 20
7.7672875328
 30
0.0
 10
10.2439972134
 20
7.7742753171
 30
0.0
 10
10.2356339732
 20
7.7821258462
 30
0.0
 10
10.2305911929
 20
7.7878831082
 30
0.0
 10
10.2282179924
 20
7.7908759605
 30
0.0
  0
SPLINE
  5
3BA
100
AcDbEntity
  8
0
100
AcDbSpline
 62
7
  6
CONTINUOUS
 70
0
 71
3
 72
23
 73
19
 74
0
 42
0.0000001
 43
0.0000001
 44
0.0000000001
 40
0.0
 40
0.0
 40
0.0
 40
0.0
 40
0.063776763
 40
0.1273450105
 40
0.1907019658
 40
0.2538561083
 40
0.3168132129
 40
0.3795820829
 40
0.4421733857
 40
0.5045993396
 40
0.5668738671
 40
0.6290123792
 40
0.6910316488
 40
0.752949646
 40
0.8147853557
 40
0.8765586025
 40
0.9382898529
 40
1.0
 40
1.0
 40
1.0
 40
1.0
 10
9.5370168243
 20
7.1850347896
 30
0.0
 10
9.5370168243
 20
7.1904579683
 30
0.0
 10
9.537276415
 20
7.201288432
 30
0.0
 10
9.5384479937
 20
7.2174682288
 30
0.0
 10
9.5403987202
 20
7.2335197914
 30
0.0
 10
9.5431238951
 20
7.2494053888
 30
0.0
 10
9.5466174495
 20
7.2650887321
 30
0.0
 10
9.550871293
 20
7.2805335659
 30
0.0
 10
9.5558756391
 20
7.2957043078
 30
0.0
 10
9.5616190088
 20
7.310565971
 30
0.0
 10
9.5680882143
 20
7.3250842646
 30
0.0
 10
9.5752683352
 20
7.3392257153
 30
0.0
 10
9.5831428282
 20
7.3529577063
 30
0.0
 10
9.5916935742
 20
7.3662485601
 30
0.0
 10
9.6009008672
 20
7.3790675659
 30
0.0
 10
9.6107435589
 20
7.3913852697
 30
0.0
 10
9.6211985538
 20
7.4031728824
 30
0.0
 10
9.6285620901
 20
7.4106611292
 30
0.0
 10
9.6323363384
 20
7.4143067766
 30
0.0
  0
SPLINE
  5
3BB
100
AcDbEntity
  8
0
100
AcDbSpline
 62
7
  6
CONTINUOUS
 70
0
 71
3
 72
23
 73
19
 74
0
 42
0.0000001
 43
0.0000001
 44
0.0000000001
 40
0.0
 40
0.0
 40
0.0
 40
0.0
 40
0.0617101432
 40
0.1234413955
 40
0.1852146461
 40
0.2470503546
 40
0.3089683569
 40
0.3709876287
 40
0.4331261486
 40
0.4954006802
 40
0.5578266327
 40
0.6204179323
 40
0.68318685
 40
0.7461438994
 40
0.8092980499
 40
0.8726553078
 40
0.9362226383
 40
1.0
 40
1.0
 40
1.0
 40
1.0
 10
10.642710318
 20
7.8528610161
 30
0.0
 10
10.6379267372
 20
7.8482404413
 30
0.0
 10
10.6285940311
 20
7.8387496359
 30
0.0
 10
10.6153431091
 20
7.8238097351
 30
0.0
 10
10.6028682551
 20
7.8081979653
 30
0.0
 10
10.5911987242
 20
7.7919508328
 30
0.0
 10
10.5803612931
 20
7.7751056853
 30
0.0
 10
10.5703809719
 20
7.7577014213
 30
0.0
 10
10.5612807322
 20
7.73977819
 30
0.0
 10
10.5530815263
 20
7.7213773403
 30
0.0
 10
10.5458022249
 20
7.7025413127
 30
0.0
 10
10.5394595754
 20
7.6833135459
 30
0.0
 10
10.5340681765
 20
7.6637383809
 30
0.0
 10
10.529640383
 20
7.6438609253
 30
0.0
 10
10.5261864113
 20
7.6237271073
 30
0.0
 10
10.5237140384
 20
7.6033830291
 30
0.0
 10
10.5222291109
 20
7.5828763651
 30
0.0
 10
10.5219001278
 20
7.5691496048
 30
0.0
 10
10.5219001278
 20
7.5622760715
 30
0.0
  0
SPLINE
  5
3BC
100
AcDbEntity
  8
0
100
AcDbSpline
 62
7
  6
CONTINUOUS
 70
0
 71
3
 72
19
 73
15
 74
0
 42
0.0000001
 43
0.0000001
 44
0.0000000001
 40
0.0
 40
0.0
 40
0.0
 40
0.0
 40
0.0616616389
 40
0.1233873983
 40
0.1851898304
 40
0.2470810102
 40
0.3090724352
 40
0.3711749014
 40
0.4333985045
 40
0.4957525683
 40
0.6208595357
 40
0.7465784667
 40
0.8729495471
 40
1.0
 40
1.0
 40
1.0
 40
1.0
 10
10.7438474617
 20
7.9233378871
 30
0.0
 10
10.7407050343
 20
7.9191742096
 30
0.0
 10
10.7345893234
 20
7.9107107817
 30
0.0
 10
10.7259455506
 20
7.897639395
 30
0.0
 10
10.7178397171
 20
7.884204788
 30
0.0
 10
10.7102842444
 20
7.8704276066
 30
0.0
 10
10.7032905524
 20
7.8563285642
 30
0.0
 10
10.6968692247
 20
7.8419291133
 30
0.0
 10
10.6910298446
 20
7.8272507326
 30
0.0
 10
10.684024935
 20
7.8073182876
 30
0.0
 10
10.6767677746
 20
7.7818047737
 30
0.0
 10
10.6705205737
 20
7.7504781869
 30
0.0
 10
10.6667598379
 20
7.718592788
 30
0.0
 10
10.6659278412
 20
7.697144322
 30
0.0
 10
10.6659278412
 20
7.6863961678
 30
0.0
  0
SPLINE
  5
3BD
100
AcDbEntity
  8
0
100
AcDbSpline
 62
7
  6
CONTINUOUS
 70
0
 71
3
 72
39
 73
35
 74
0
 42
0.0000001
 43
0.0000001
 44
0.0000000001
 40
0.0
 40
0.0
 40
0.0
 40
0.0
 40
0.0310753465
 40
0.0623079051
 40
0.0936931343
 40
0.1252222873
 40
0.1568840442
 40
0.1886642041
 40
0.2205461646
 40
0.2525112494
 40
0.2845391086
 40
0.3166081364
 40
0.3486959073
 40
0.3807796231
 40
0.4128365661
 40
0.4448445503
 40
0.4767823667
 40
0.5086302139
 40
0.540370108
 40
0.5719862655
 40
0.6034654513
 40
0.6347972861
 40
0.6659745048
 40
0.6969931564
 40
0.7278527389
 40
0.7585562636
 40
0.7891102411
 40
0.8195245859
 40
0.8498124376
 40
0.8799898959
 40
0.9100756748
 40
0.9400906811
 40
0.9700575287
 40
1.0
 40
1.0
 40
1.0
 40
1.0
 10
9.5370168243
 20
7.1850347896
 30
0.0
 10
9.5370168243
 20
7.1766206695
 30
0.0
 10
9.5376444969
 20
7.1597433867
 30
0.0
 10
9.540446932
 20
7.1345082532
 30
0.0
 10
9.5450968508
 20
7.1094213012
 30
0.0
 10
9.5515685693
 20
7.0846220647
 30
0.0
 10
9.5598262378
 20
7.0602462582
 30
0.0
 10
9.5698243441
 20
7.0364277936
 30
0.0
 10
9.5815078258
 20
7.0132973539
 30
0.0
 10
9.5948124091
 20
6.9909818705
 30
0.0
 10
9.6096649525
 20
6.969603781
 30
0.0
 10
9.6259838606
 20
6.9492803872
 30
0.0
 10
9.6436795247
 20
6.9301232141
 30
0.0
 10
9.6626548104
 20
6.9122374069
 30
0.0
 10
9.6828055854
 20
6.8957211611
 30
0.0
 10
9.70402128
 20
6.880665184
 30
0.0
 10
9.7261854807
 20
6.867152189
 30
0.0
 10
9.7491765754
 20
6.8552564611
 30
0.0
 10
9.7728684093
 20
6.8450434492
 30
0.0
 10
9.7971309668
 20
6.8365694089
 30
0.0
 10
9.8218310748
 20
6.8298810918
 30
0.0
 10
9.8468331218
 20
6.8250154873
 30
0.0
 10
9.8719997888
 20
6.8219995914
 30
0.0
 10
9.8971927997
 20
6.8208502666
 30
0.0
 10
9.9222736709
 20
6.8215741417
 30
0.0
 10
9.947104465
 20
6.8241675607
 30
0.0
 10
9.9715485429
 20
6.8286165846
 30
0.0
 10
9.9954713172
 20
6.8348970563
 30
0.0
 10
10.0187409888
 20
6.8429746866
 30
0.0
 10
10.0412293307
 20
6.8528052696
 30
0.0
 10
10.0628122345
 20
6.8643347636
 30
0.0
 10
10.0833710409
 20
6.8775001792
 30
0.0
 10
10.1027908733
 20
6.8922276672
 30
0.0
 10
10.1149119409
 20
6.9030382344
 30
0.0
 10
10.1207432064
 20
6.9086708097
 30
0.0
  0
SPLINE
  5
3BE
100
AcDbEntity
  8
0
100
AcDbSpline
 62
7
  6
CONTINUOUS
 70
0
 71
3
 72
39
 73
35
 74
0
 42
0.0000001
 43
0.0000001
 44
0.0000000001
 40
0.0
 40
0.0
 40
0.0
 40
0.0
 40
0.0307184223
 40
0.0615564391
 40
0.0925106812
 40
0.1235782389
 40
0.1547536844
 40
0.1860307424
 40
0.2174017595
 40
0.2488580084
 40
0.280389743
 40
0.3119863339
 40
0.3436363961
 40
0.3753279254
 40
0.4070484398
 40
0.438785124
 40
0.4705249769
 40
0.5022549609
 40
0.5339621508
 40
0.5656338833
 40
0.5972579035
 40
0.6288225089
 40
0.6603166877
 40
0.6917302509
 40
0.7230539585
 40
0.7542796359
 40
0.7854002811
 40
0.8164101609
 40
0.8473048948
 40
0.8780815235
 40
0.9087385615
 40
0.9392760324
 40
0.969695487
 40
1.0
 40
1.0
 40
1.0
 40
1.0
 10
9.7915651545
 20
7.4309096103
 30
0.0
 10
9.7915651545
 20
7.4245195071
 30
0.0
 10
9.7919268624
 20
7.4117115628
 30
0.0
 10
9.7935452626
 20
7.3925260009
 30
0.0
 10
9.7962355001
 20
7.3733873057
 30
0.0
 10
9.7999887949
 20
7.3543571407
 30
0.0
 10
9.8047932914
 20
7.3354955747
 30
0.0
 10
9.8106336165
 20
7.3168625493
 30
0.0
 10
9.8174912166
 20
7.2985171464
 30
0.0
 10
9.8253442765
 20
7.2805175669
 30
0.0
 10
9.8341678483
 20
7.2629209034
 30
0.0
 10
9.8439339007
 20
7.2457829673
 30
0.0
 10
9.8546114205
 20
7.229158112
 30
0.0
 10
9.8661665119
 20
7.2130990636
 30
0.0
 10
9.8785625031
 20
7.1976567551
 30
0.0
 10
9.8917600623
 20
7.1828801661
 30
0.0
 10
9.9057173213
 20
7.1688161687
 30
0.0
 10
9.9203900075
 20
7.15550938
 30
0.0
 10
9.9357315835
 20
7.1430020223
 30
0.0
 10
9.9516933903
 20
7.1313337852
 30
0.0
 10
9.9682248004
 20
7.1205416982
 30
0.0
 10
9.9852733828
 20
7.1106600199
 30
0.0
 10
10.0027850666
 20
7.1017201288
 30
0.0
 10
10.0207043107
 20
7.0937504245
 30
0.0
 10
10.0389742791
 20
7.0867762376
 30
0.0
 10
10.0575370187
 20
7.0808197493
 30
0.0
 10
10.0763336412
 20
7.0758999215
 30
0.0
 10
10.0953045097
 20
7.0720324332
 30
0.0
 10
10.1143894184
 20
7.069229622
 30
0.0
 10
10.1335278115
 20
7.0675004573
 30
0.0
 10
10.1526588763
 20
7.0668504945
 30
0.0
 10
10.1717220942
 20
7.0672819109
 30
0.0
 10
10.1906560961
 20
7.0687932925
 30
0.0
 10
10.2031776465
 20
7.0705212104
 30
0.0
 10
10.2093948505
 20
7.0715637088
 30
0.0
  0
SPLINE
  5
3BF
100
AcDbEntity
  8
0
100
AcDbSpline
 62
7
  6
CONTINUOUS
 70
0
 71
3
 72
71
 73
67
 74
0
 42
0.0000001
 43
0.0000001
 44
0.0000000001
 40
0.0
 40
0.0
 40
0.0
 40
0.0
 40
0.0155842125
 40
0.0311159548
 40
0.0465952452
 40
0.0620238832
 40
0.077403449
 40
0.0927362827
 40
0.1080251236
 40
0.1232731733
 40
0.1384840551
 40
0.1536617757
 40
0.1688106896
 40
0.1839354533
 40
0.1990409787
 40
0.2141323824
 40
0.2292149319
 40
0.2442939892
 40
0.2593749538
 40
0.2744632042
 40
0.289564041
 40
0.3046826304
 40
0.3198239505
 40
0.3349927388
 40
0.3501934431
 40
0.365430177
 40
0.3807066786
 40
0.3960262757
 40
0.4113918552
 40
0.4268058381
 40
0.4422701582
 40
0.4577862482
 40
0.4733550295
 40
0.4889769098
 40
0.5046517844
 40
0.5203790421
 40
0.5361575756
 40
0.5519857966
 40
0.5678616546
 40
0.5837826615
 40
0.5997459176
 40
0.6157481409
 40
0.6317856994
 40
0.6478546448
 40
0.6639507505
 40
0.6800695509
 40
0.6962063814
 40
0.7123564195
 40
0.7285147271
 40
0.7446762936
 40
0.7608360803
 40
0.7769890646
 40
0.7931302831
 40
0.8092548749
 40
0.8253581239
 40
0.841435501
 40
0.8574827056
 40
0.873495705
 40
0.8894707701
 40
0.9054045133
 40
0.9212939187
 40
0.9371363615
 40
0.9529297228
 40
0.9686720688
 40
0.9843626653
 40
1.0
 40
1.0
 40
1.0
 40
1.0
 10
10.4821424616
 20
8.6671197583
 30
0.0
 10
10.4821424616
 20
8.660335952
 30
0.0
 10
10.4818104662
 20
8.6467887744
 30
0.0
 10
10.480311865
 20
8.6265533667
 30
0.0
 10
10.4778168686
 20
8.6064841708
 30
0.0
 10
10.4743316417
 20
8.5866303592
 30
0.0
 10
10.4698643911
 20
8.5670394695
 30
0.0
 10
10.464425895
 20
8.5477588327
 30
0.0
 10
10.4580291825
 20
8.528834908
 30
0.0
 10
10.4506896476
 20
8.5103133311
 30
0.0
 10
10.4424249485
 20
8.492238766
 30
0.0
 10
10.4332549754
 20
8.4746548073
 30
0.0
 10
10.4232018056
 20
8.4576038724
 30
0.0
 10
10.4122896468
 20
8.4411271014
 30
0.0
 10
10.4005447923
 20
8.4252642487
 30
0.0
 10
10.3879955631
 20
8.4100535782
 30
0.0
 10
10.3746722193
 20
8.3955317829
 30
0.0
 10
10.3606068914
 20
8.3817338941
 30
0.0
 10
10.3458335017
 20
8.3686931957
 30
0.0
 10
10.3303876806
 20
8.3564411478
 30
0.0
 10
10.3143066924
 20
8.3450072925
 30
0.0
 10
10.2976293403
 20
8.3344191832
 30
0.0
 10
10.2803958597
 20
8.3247023322
 30
0.0
 10
10.2626478239
 20
8.3158801468
 30
0.0
 10
10.2444280423
 20
8.3079738733
 30
0.0
 10
10.2257804566
 20
8.3010025512
 30
0.0
 10
10.2067500425
 20
8.2949829426
 30
0.0
 10
10.1873826921
 20
8.2899295065
 30
0.0
 10
10.1677250996
 20
8.2858543744
 30
0.0
 10
10.1478246502
 20
8.2827673204
 30
0.0
 10
10.1277293063
 20
8.2806757393
 30
0.0
 10
10.1074874932
 20
8.2795846321
 30
0.0
 10
10.0871479838
 20
8.2794965674
 30
0.0
 10
10.0667597768
 20
8.2804117
 30
0.0
 10
10.0463719801
 20
8.2823277749
 30
0.0
 10
10.0260336938
 20
8.2852401323
 30
0.0
 10
10.005793894
 20
8.2891417206
 30
0.0
 10
9.9857013165
 20
8.2940231112
 30
0.0
 10
9.9658043335
 20
8.2998724987
 30
0.0
 10
9.9461508417
 20
8.3066757577
 30
0.0
 10
9.9267881487
 20
8.3144164742
 30
0.0
 10
9.9077628605
 20
8.3230759853
 30
0.0
 10
9.8891207724
 20
8.3326334259
 30
0.0
 10
9.8709067558
 20
8.3430657696
 30
0.0
 10
9.8531646421
 20
8.354347873
 30
0.0
 10
9.8359371291
 20
8.3664525585
 30
0.0
 10
9.8192656777
 20
8.3793506756
 30
0.0
 10
9.8031904136
 20
8.3930111706
 30
0.0
 10
9.7877500344
 20
8.4074011627
 30
0.0
 10
9.7729817064
 20
8.4224860101
 30
0.0
 10
9.7589209707
 20
8.4382293932
 30
0.0
 10
9.7456016725
 20
8.4545934159
 30
0.0
 10
9.733055878
 20
8.4715386926
 30
0.0
 10
9.7213137978
 20
8.4890244418
 30
0.0
 10
9.7104037186
 20
8.507008585
 30
0.0
 10
9.7003519162
 20
8.525447836
 30
0.0
 10
9.6911825976
 20
8.5442978105
 30
0.0
 10
9.6829178557
 20
8.5635131397
 30
0.0
 10
9.6755776123
 20
8.5830475748
 30
0.0
 10
9.6691795723
 20
8.6028540995
 30
0.0
 10
9.6637391898
 20
8.6228850317
 30
0.0
 10
9.6592695679
 20
8.643092177
 30
0.0
 10
9.6557815671
 20
8.6634267786
 30
0.0
 10
9.6532834894
 20
8.6838401944
 30
0.0
 10
9.6517815948
 20
8.7042824458
 30
0.0
 10
9.6514462018
 20
8.7179218092
 30
0.0
 10
9.6514462018
 20
8.7247287396
 30
0.0
  0
SPLINE
  5
3C0
100
AcDbEntity
  8
0
100
AcDbSpline
 62
7
  6
CONTINUOUS
 70
0
 71
3
 72
43
 73
39
 74
0
 42
0.0000001
 43
0.0000001
 44
0.0000000001
 40
0.0
 40
0.0
 40
0.0
 40
0.0
 40
0.0168489186
 40
0.0250875642
 40
0.0331938033
 40
0.0411713549
 40
0.0490360416
 40
0.056821458
 40
0.0645851624
 40
0.0724132282
 40
0.0804205174
 40
0.0887436784
 40
0.0975263241
 40
0.1068999216
 40
0.1169665201
 40
0.1277885109
 40
0.1393871247
 40
0.1517479927
 40
0.1648305321
 40
0.178578116
 40
0.1929266991
 40
0.2078110772
 40
0.2231687677
 40
0.2389425953
 40
0.2550816983
 40
0.2882810563
 40
0.3224760218
 40
0.357450638
 40
0.3930455728
 40
0.429142813
 40
0.4656545913
 40
0.5396702328
 40
0.6147237744
 40
0.6905907839
 40
0.7671295932
 40
0.844248034
 40
0.9218852913
 40
1.0
 40
1.0
 40
1.0
 40
1.0
 10
10.2565215065
 20
8.5756890232
 30
0.0
 10
10.2562121709
 20
8.5764320432
 30
0.0
 10
10.2557909144
 20
8.5775560864
 30
0.0
 10
10.2553469983
 20
8.5790789578
 30
0.0
 10
10.2550874632
 20
8.5802122496
 30
0.0
 10
10.2549089633
 20
8.5813432639
 30
0.0
 10
10.2548231307
 20
8.5824700653
 30
0.0
 10
10.2548430294
 20
8.5835902026
 30
0.0
 10
10.2549828745
 20
8.5847005313
 30
0.0
 10
10.255257434
 20
8.5857969012
 30
0.0
 10
10.2556807664
 20
8.5868740326
 30
0.0
 10
10.256264529
 20
8.5879259494
 30
0.0
 10
10.2570165055
 20
8.5889470253
 30
0.0
 10
10.2579399672
 20
8.5899330294
 30
0.0
 10
10.2590337066
 20
8.5908816019
 30
0.0
 10
10.2602923987
 20
8.5917921574
 30
0.0
 10
10.2617071734
 20
8.5926655521
 30
0.0
 10
10.2632664399
 20
8.5935037394
 30
0.0
 10
10.2649569025
 20
8.5943094691
 30
0.0
 10
10.2667646033
 20
8.5950859849
 30
0.0
 10
10.2686757901
 20
8.5958367674
 30
0.0
 10
10.2706775162
 20
8.5965653247
 30
0.0
 10
10.2727579938
 20
8.5972750687
 30
0.0
 10
10.2749067626
 20
8.5979692109
 30
0.0
 10
10.2778788312
 20
8.5988863372
 30
0.0
 10
10.2817099326
 20
8.6000027374
 30
0.0
 10
10.2864222187
 20
8.6013091664
 30
0.0
 10
10.2912553232
 20
8.6026074027
 30
0.0
 10
10.2961819931
 20
8.6039072871
 30
0.0
 10
10.301182163
 20
8.6052163649
 30
0.0
 10
10.3079579471
 20
8.6069896022
 30
0.0
 10
10.3165294678
 20
8.6092512299
 30
0.0
 10
10.3269013047
 20
8.6120578446
 30
0.0
 10
10.3373653385
 20
8.6149839022
 30
0.0
 10
10.347895151
 20
8.6180392078
 30
0.0
 10
10.3584729512
 20
8.62123047
 30
0.0
 10
10.3690861864
 20
8.6245625085
 30
0.0
 10
10.3761583974
 20
8.6268733481
 30
0.0
 10
10.3796983053
 20
8.6280533067
 30
0.0
  0
SPLINE
  5
3C1
100
AcDbEntity
  8
0
100
AcDbSpline
 62
7
  6
CONTINUOUS
 70
0
 71
3
 72
11
 73
7
 74
0
 42
0.0000001
 43
0.0000001
 44
0.0000000001
 40
0.0
 40
0.0
 40
0.0
 40
0.0
 40
0.2393205991
 40
0.4875854017
 40
0.7420782222
 40
1.0
 40
1.0
 40
1.0
 40
1.0
 10
10.3694811089
 20
8.5499814394
 30
0.0
 10
10.3706768634
 20
8.5561510779
 30
0.0
 10
10.3729006203
 20
8.568762847
 30
0.0
 10
10.375701621
 20
8.5880497821
 30
0.0
 10
10.3780075481
 20
8.6078938662
 30
0.0
 10
10.3791929647
 20
8.6212992805
 30
0.0
 10
10.3796983053
 20
8.6280533067
 30
0.0
  0
SPLINE
  5
3C2
100
AcDbEntity
  8
0
100
AcDbSpline
 62
7
  6
CONTINUOUS
 70
0
 71
3
 72
25
 73
21
 74
0
 42
0.0000001
 43
0.0000001
 44
0.0000000001
 40
0.0
 40
0.0
 40
0.0
 40
0.0
 40
0.0647084993
 40
0.0970189919
 40
0.129283788
 40
0.1936347216
 40
0.2577187364
 40
0.2896531187
 40
0.3215035529
 40
0.3849197124
 40
0.4479557972
 40
0.5105971772
 40
0.572842298
 40
0.6347029732
 40
0.6962042336
 40
0.7573836913
 40
0.8182904117
 40
0.8789833105
 40
0.9395291204
 40
1.0
 40
1.0
 40
1.0
 40
1.0
 10
10.2282179924
 20
7.7908759605
 30
0.0
 10
10.2261435336
 20
7.7934920685
 30
0.0
 10
10.2231990303
 20
7.7975503882
 30
0.0
 10
10.2196368291
 20
7.803192037
 30
0.0
 10
10.2163296871
 20
7.8089661021
 30
0.0
 10
10.2126777906
 20
7.8164224504
 30
0.0
 10
10.2096940035
 20
7.8241523972
 30
0.0
 10
10.2077282607
 20
7.8304523944
 30
0.0
 10
10.2060512267
 20
7.8367996067
 30
0.0
 10
10.2044915764
 20
7.844829273
 30
0.0
 10
10.2034964184
 20
7.8545481353
 30
0.0
 10
10.2033883224
 20
7.8642574105
 30
0.0
 10
10.2041686125
 20
7.8738752083
 30
0.0
 10
10.2058309983
 20
7.8833208981
 30
0.0
 10
10.208361807
 20
7.8925150541
 30
0.0
 10
10.2117400469
 20
7.9013803443
 30
0.0
 10
10.2159374755
 20
7.9098420449
 30
0.0
 10
10.2209191855
 20
7.9178290552
 30
0.0
 10
10.2266424987
 20
7.9252732067
 30
0.0
 10
10.2309233707
 20
7.929835176
 30
0.0
 10
10.2331675437
 20
7.9320028607
 30
0.0
  0
SPLINE
  5
3C3
100
AcDbEntity
  8
0
100
AcDbSpline
 62
7
  6
CONTINUOUS
 70
0
 71
3
 72
22
 73
18
 74
0
 42
0.0000001
 43
0.0000001
 44
0.0000000001
 40
0.0
 40
0.0
 40
0.0
 40
0.0
 40
0.0825619341
 40
0.1618619437
 40
0.2379445574
 40
0.3108748933
 40
0.3807401783
 40
0.4476520079
 40
0.5117490326
 40
0.5731988279
 40
0.6889150851
 40
0.7437487386
 40
0.7969294559
 40
0.8487832349
 40
0.8996638158
 40
0.9499421219
 40
1.0
 40
1.0
 40
1.0
 40
1.0
 10
11.2046005643
 20
7.8616045025
 30
0.0
 10
11.2046752133
 20
7.860365568
 30
0.0
 10
11.2047881659
 20
7.8579344506
 30
0.0
 10
11.2048423118
 20
7.8543571321
 30
0.0
 10
11.2047742607
 20
7.8509247185
 30
0.0
 10
11.2045812413
 20
7.8476390001
 30
0.0
 10
11.2042604175
 20
7.8445016545
 30
0.0
 10
11.2038096513
 20
7.8415144549
 30
0.0
 10
11.2032267432
 20
7.8386787373
 30
0.0
 10
11.202290467
 20
7.8351734233
 30
0.0
 10
11.2010734295
 20
7.8318904128
 30
0.0
 10
11.1995485422
 20
7.8288891669
 30
0.0
 10
11.1982888201
 20
7.8268390488
 30
0.0
 10
11.1968934771
 20
7.8249519877
 30
0.0
 10
11.1953632764
 20
7.8232301311
 30
0.0
 10
11.1937001324
 20
7.8216757208
 30
0.0
 10
11.1925039359
 20
7.8207524983
 30
0.0
 10
11.1918872209
 20
7.8203212507
 30
0.0
  0
SPLINE
  5
3C4
100
AcDbEntity
  8
0
100
AcDbSpline
 62
7
  6
CONTINUOUS
 70
0
 71
3
 72
9
 73
5
 74
0
 42
0.0000001
 43
0.0000001
 44
0.0000000001
 40
0.0
 40
0.0
 40
0.0
 40
0.0
 40
0.5075742533
 40
1.0
 40
1.0
 40
1.0
 40
1.0
 10
11.0761851367
 20
7.8115497943
 30
0.0
 10
11.0803780223
 20
7.8098007206
 30
0.0
 10
11.0887802616
 20
7.8066829892
 30
0.0
 10
11.0974212942
 20
7.80429837
 30
0.0
 10
11.1017197891
 20
7.8033242532
 30
0.0
  0
SPLINE
  5
3C5
100
AcDbEntity
  8
0
100
AcDbSpline
 62
7
  6
CONTINUOUS
 70
0
 71
3
 72
30
 73
26
 74
0
 42
0.0000001
 43
0.0000001
 44
0.0000000001
 40
0.0
 40
0.0
 40
0.0
 40
0.0
 40
0.0023057086
 40
0.0047435595
 40
0.0073752022
 40
0.0102507013
 40
0.0168769242
 40
0.0248545406
 40
0.0343213716
 40
0.0453708476
 40
0.0580730679
 40
0.0724831944
 40
0.0886488529
 40
0.1066135796
 40
0.1264171002
 40
0.1480973327
 40
0.1972315627
 40
0.2542871637
 40
0.3194957849
 40
0.3930262485
 40
0.474947109
 40
0.5651807708
 40
0.6634518486
 40
0.7692438822
 40
1.0
 40
1.0
 40
1.0
 40
1.0
 10
10.6877968424
 20
7.8844573766
 30
0.0
 10
10.6878237043
 20
7.8844332149
 30
0.0
 10
10.6878744398
 20
7.8843782706
 30
0.0
 10
10.6879377395
 20
7.8842810446
 30
0.0
 10
10.6879898762
 20
7.8841675671
 30
0.0
 10
10.688047349
 20
7.8839859225
 30
0.0
 10
10.6880876539
 20
7.8837134284
 30
0.0
 10
10.6880910125
 20
7.8833355948
 30
0.0
 10
10.6880516302
 20
7.8828903026
 30
0.0
 10
10.6879692711
 20
7.8823760345
 30
0.0
 10
10.6878436179
 20
7.8817911839
 30
0.0
 10
10.6876743598
 20
7.8811343485
 30
0.0
 10
10.6874611997
 20
7.8804041094
 30
0.0
 10
10.6872038582
 20
7.8795990414
 30
0.0
 10
10.6869020737
 20
7.8787176862
 30
0.0
 10
10.686419531
 20
7.877382183
 30
0.0
 10
10.6856986031
 20
7.8755124707
 30
0.0
 10
10.6846858588
 20
7.8730248813
 30
0.0
 10
10.6834917535
 20
7.8701986898
 30
0.0
 10
10.6821169149
 20
7.8670260758
 30
0.0
 10
10.6805639059
 20
7.8635033991
 30
0.0
 10
10.6788381669
 20
7.8596332449
 30
0.0
 10
10.6769487468
 20
7.8554265448
 30
0.0
 10
10.6741469972
 20
7.8492157828
 30
0.0
 10
10.6719720977
 20
7.8444115532
 30
0.0
 10
10.6704800482
 20
7.8411178778
 30
0.0
  0
SPLINE
  5
3C6
100
AcDbEntity
  8
0
100
AcDbSpline
 62
7
  6
CONTINUOUS
 70
0
 71
3
 72
39
 73
35
 74
0
 42
0.0000001
 43
0.0000001
 44
0.0000000001
 40
0.0
 40
0.0
 40
0.0
 40
0.0
 40
0.0063160487
 40
0.0126710049
 40
0.0191030143
 40
0.025648725
 40
0.0323427741
 40
0.0392173099
 40
0.0536154899
 40
0.0690526699
 40
0.0856860689
 40
0.1036343988
 40
0.1229845382
 40
0.1437975072
 40
0.1661135699
 40
0.1899565186
 40
0.215336667
 40
0.2422531964
 40
0.2706962121
 40
0.3006480089
 40
0.3320840834
 40
0.3649742158
 40
0.3992830292
 40
0.4349704483
 40
0.4719923721
 40
0.510300957
 40
0.5498448414
 40
0.5905696299
 40
0.6324180703
 40
0.6753301946
 40
0.7192436555
 40
0.8098126736
 40
0.9035864807
 40
1.0
 40
1.0
 40
1.0
 40
1.0
 10
11.8107254468
 20
8.9473948544
 30
0.0
 10
11.8114243393
 20
8.9473463866
 30
0.0
 10
11.8128231276
 20
8.9471919562
 30
0.0
 10
11.8149056363
 20
8.9467894077
 30
0.0
 10
11.8169742166
 20
8.9462159594
 30
0.0
 10
11.8190276809
 20
8.9454721127
 30
0.0
 10
11.8210651868
 20
8.9445582738
 30
0.0
 10
11.8238011098
 20
8.943091649
 30
0.0
 10
11.8271866016
 20
8.9408080111
 30
0.0
 10
11.8311024472
 20
8.9374417521
 30
0.0
 10
11.8349310456
 20
8.9334152327
 30
0.0
 10
11.8386679885
 20
8.9287359222
 30
0.0
 10
11.8423092084
 20
8.923411118
 30
0.0
 10
11.8458499115
 20
8.9174490287
 30
0.0
 10
11.8492851148
 20
8.9108588341
 30
0.0
 10
11.8526096043
 20
8.9036507835
 30
0.0
 10
11.8558181663
 20
8.8958362495
 30
0.0
 10
11.8589056801
 20
8.8874277139
 30
0.0
 10
11.8618670961
 20
8.8784387022
 30
0.0
 10
11.8646975362
 20
8.8688837752
 30
0.0
 10
11.867392347
 20
8.8587784942
 30
0.0
 10
11.869947041
 20
8.8481393606
 30
0.0
 10
11.8723573594
 20
8.8369837943
 30
0.0
 10
11.8746193145
 20
8.8253301034
 30
0.0
 10
11.8767291265
 20
8.8131974312
 30
0.0
 10
11.8786832672
 20
8.8006057289
 30
0.0
 10
11.8804785025
 20
8.7875757253
 30
0.0
 10
11.8821118338
 20
8.7741288766
 30
0.0
 10
11.8835805179
 20
8.7602873405
 30
0.0
 10
11.8848821561
 20
8.7460739116
 30
0.0
 10
11.8864076063
 20
8.7264561538
 30
0.0
 10
11.887869111
 20
8.7011773575
 30
0.0
 10
11.8889129363
 20
8.6700509597
 30
0.0
 10
11.889139463
 20
8.6489546801
 30
0.0
 10
11.889139463
 20
8.6382605691
 30
0.0
  0
SPLINE
  5
3C7
100
AcDbEntity
  8
0
100
AcDbSpline
 62
7
  6
CONTINUOUS
 70
0
 71
3
 72
46
 73
42
 74
0
 42
0.0000001
 43
0.0000001
 44
0.0000000001
 40
0.0
 40
0.0
 40
0.0
 40
0.0
 40
0.0840358155
 40
0.1695038657
 40
0.2553461646
 40
0.2980758532
 40
0.3405003594
 40
0.382488464
 40
0.4239106884
 40
0.4646398251
 40
0.5045514761
 40
0.5435246025
 40
0.5814420909
 40
0.6181913426
 40
0.6536649091
 40
0.6877611648
 40
0.7203850417
 40
0.751448871
 40
0.7808733741
 40
0.8085888695
 40
0.8345368019
 40
0.8468338779
 40
0.8586733281
 40
0.8700519371
 40
0.8809677801
 40
0.8914203277
 40
0.9014105083
 40
0.910941208
 40
0.920017169
 40
0.928645721
 40
0.9368368282
 40
0.9446037978
 40
0.951963758
 40
0.9589382177
 40
0.9655539713
 40
0.971843516
 40
0.9778459691
 40
0.9836071969
 40
0.9891799317
 40
0.9946230211
 40
1.0
 40
1.0
 40
1.0
 40
1.0
 10
12.0358897337
 20
8.6476785845
 30
0.0
 10
12.0358897337
 20
8.6377145844
 30
0.0
 10
12.0355770628
 20
8.6176155894
 30
0.0
 10
12.0342201325
 20
8.5873661434
 30
0.0
 10
12.0323564991
 20
8.5620523741
 30
0.0
 10
12.0304304068
 20
8.5418686931
 30
0.0
 10
12.0287791724
 20
8.5268837534
 30
0.0
 10
12.0269247259
 20
8.5120788429
 30
0.0
 10
12.0248731929
 20
8.4975028932
 30
0.0
 10
12.0226313969
 20
8.4832041215
 30
0.0
 10
12.0202067865
 20
8.4692298077
 30
0.0
 10
12.0176074244
 20
8.4556261523
 30
0.0
 10
12.0148419581
 20
8.4424381168
 30
0.0
 10
12.0119195922
 20
8.4297092711
 30
0.0
 10
12.0088500605
 20
8.4174816412
 30
0.0
 10
12.0056435936
 20
8.4057955646
 30
0.0
 10
12.002310882
 20
8.394689541
 30
0.0
 10
11.9988630382
 20
8.3842001174
 30
0.0
 10
11.9953115575
 20
8.3743616605
 30
0.0
 10
11.991668257
 20
8.3652065159
 30
0.0
 10
11.9885117473
 20
8.3580484865
 30
0.0
 10
11.9859421632
 20
8.352694295
 30
0.0
 10
11.9840341445
 20
8.3489399439
 30
0.0
 10
11.9821122524
 20
8.3453776767
 30
0.0
 10
11.9801780393
 20
8.3420104023
 30
0.0
 10
11.9782331159
 20
8.3388408522
 30
0.0
 10
11.9762790113
 20
8.3358716221
 30
0.0
 10
11.9743173635
 20
8.3331050806
 30
0.0
 10
11.9723496637
 20
8.3305434933
 30
0.0
 10
11.9703775138
 20
8.3281888817
 30
0.0
 10
11.9684023871
 20
8.3260431571
 30
0.0
 10
11.9664257702
 20
8.3241080451
 30
0.0
 10
11.9644491129
 20
8.3223851058
 30
0.0
 10
11.9624737488
 20
8.3208758528
 30
0.0
 10
11.9605010781
 20
8.3195815805
 30
0.0
 10
11.958532355
 20
8.3185036999
 30
0.0
 10
11.9565689857
 20
8.3176434253
 30
0.0
 10
11.9546124395
 20
8.3170021104
 30
0.0
 10
11.9526643528
 20
8.3165809691
 30
0.0
 10
11.9507270829
 20
8.3163809926
 30
0.0
 10
11.949440899
 20
8.3163957066
 30
0.0
 10
11.9488048864
 20
8.3164398157
 30
0.0
  0
SPLINE
  5
3C8
100
AcDbEntity
  8
0
100
AcDbSpline
 62
7
  6
CONTINUOUS
 70
0
 71
3
 72
47
 73
43
 74
0
 42
0.0000001
 43
0.0000001
 44
0.0000000001
 40
0.0
 40
0.0
 40
0.0
 40
0.0
 40
0.0063158967
 40
0.0126706977
 40
0.0191025471
 40
0.0256480963
 40
0.0323419829
 40
0.0392163382
 40
0.053614168
 40
0.0611948929
 40
0.0690566412
 40
0.077217773
 40
0.0856941569
 40
0.0944995551
 40
0.1036456891
 40
0.1131424521
 40
0.122998232
 40
0.1332198706
 40
0.1438129644
 40
0.1547820179
 40
0.1661303832
 40
0.1899727563
 40
0.2153522396
 40
0.2422681077
 40
0.2707104459
 40
0.3006614883
 40
0.3320967939
 40
0.3649861265
 40
0.3992940928
 40
0.4349806571
 40
0.4720016811
 40
0.5103093127
 40
0.5498522596
 40
0.5905760756
 40
0.6324234754
 40
0.6753345639
 40
0.7192469999
 40
0.7640961586
 40
0.8098155359
 40
0.8563366993
 40
0.9035889296
 40
1.0
 40
1.0
 40
1.0
 40
1.0
 10
12.3555854265
 20
9.8524070876
 30
0.0
 10
12.3565826378
 20
9.8523379332
 30
0.0
 10
12.3585784914
 20
9.8521175846
 30
0.0
 10
12.3615499088
 20
9.8515432233
 30
0.0
 10
12.3645014561
 20
9.8507250159
 30
0.0
 10
12.3674314263
 20
9.849663674
 30
0.0
 10
12.3703386506
 20
9.8483597503
 30
0.0
 10
12.3742422726
 20
9.8462672143
 30
0.0
 10
12.3780398933
 20
9.8437056386
 30
0.0
 10
12.3817150159
 20
9.8407371622
 30
0.0
 10
12.384490982
 20
9.8382343904
 30
0.0
 10
12.3872372861
 20
9.8354950834
 30
0.0
 10
12.3899532801
 20
9.8325202527
 30
0.0
 10
12.3926378207
 20
9.829311153
 30
0.0
 10
12.3952899262
 20
9.8258690958
 30
0.0
 10
12.3979086071
 20
9.8221955074
 30
0.0
 10
12.4004927932
 20
9.818291843
 30
0.0
 10
12.4030415114
 20
9.8141597107
 30
0.0
 10
12.4055537427
 20
9.8098007856
 30
0.0
 10
12.4080284751
 20
9.805216809
 30
0.0
 10
12.4113312798
 20
9.7986996179
 30
0.0
 10
12.4153476527
 20
9.7899911255
 30
0.0
 10
12.4199257716
 20
9.7788411754
 30
0.0
 10
12.4243311792
 20
9.7668434625
 30
0.0
 10
12.4285566502
 20
9.7540175548
 30
0.0
 10
12.4325952631
 20
9.7403841627
 30
0.0
 10
12.4364403388
 20
9.7259655039
 30
0.0
 10
12.4400854905
 20
9.7107851171
 30
0.0
 10
12.4435246493
 20
9.6948678605
 30
0.0
 10
12.446752104
 20
9.6782398547
 30
0.0
 10
12.4497624785
 20
9.6609284195
 30
0.0
 10
12.4525507476
 20
9.6429620199
 30
0.0
 10
12.4551122631
 20
9.6243702262
 30
0.0
 10
12.4574427666
 20
9.6051836617
 30
0.0
 10
12.4595383736
 20
9.585433938
 30
0.0
 10
12.4613955815
 20
9.5651536003
 30
0.0
 10
12.4630112958
 20
9.5443760901
 30
0.0
 10
12.4643828358
 20
9.5231356609
 30
0.0
 10
12.465507902
 20
9.5014673507
 30
0.0
 10
12.4663846238
 20
9.4794069168
 30
0.0
 10
12.4672260424
 20
9.4493180257
 30
0.0
 10
12.4674701184
 20
9.4265794844
 30
0.0
 10
12.4674701184
 20
9.4113206674
 30
0.0
  0
SPLINE
  5
3C9
100
AcDbEntity
  8
0
100
AcDbSpline
 62
7
  6
CONTINUOUS
 70
0
 71
3
 72
37
 73
33
 74
0
 42
0.0000001
 43
0.0000001
 44
0.0000000001
 40
0.0
 40
0.0
 40
0.0
 40
0.0
 40
0.0063161109
 40
0.0126711338
 40
0.0191032156
 40
0.0256489994
 40
0.0392093374
 40
0.0536076786
 40
0.0690450798
 40
0.0856786401
 40
0.1036272065
 40
0.1229776037
 40
0.1437907506
 40
0.1661071328
 40
0.1899503416
 40
0.2153307398
 40
0.2422476171
 40
0.2706909087
 40
0.3006430392
 40
0.3320794542
 40
0.3649699263
 40
0.3992791091
 40
0.4349668709
 40
0.4719892129
 40
0.5102981662
 40
0.5498424352
 40
0.5905676756
 40
0.6324164962
 40
0.7192408911
 40
0.8098109239
 40
0.9035854682
 40
1.0
 40
1.0
 40
1.0
 40
1.0
 10
11.9855417814
 20
7.4571660694
 30
0.0
 10
11.9859905256
 20
7.4571349478
 30
0.0
 10
11.9868886604
 20
7.4570357883
 30
0.0
 10
11.9882257866
 20
7.4567773167
 30
0.0
 10
11.9895540072
 20
7.4564090785
 30
0.0
 10
11.9913325345
 20
7.4557648978
 30
0.0
 10
11.9935424603
 20
7.454669694
 30
0.0
 10
11.9961108607
 20
7.4529368505
 30
0.0
 10
11.9986254932
 20
7.450775272
 30
0.0
 10
12.0010836621
 20
7.4481899749
 30
0.0
 10
12.0034830985
 20
7.4451854541
 30
0.0
 10
12.0058210269
 20
7.4417664963
 30
0.0
 10
12.0080944629
 20
7.4379383632
 30
0.0
 10
12.0103001108
 20
7.4337069167
 30
0.0
 10
12.0124347003
 20
7.4290787708
 30
0.0
 10
12.0144948578
 20
7.424061216
 30
0.0
 10
12.0164772688
 20
7.4186622589
 30
0.0
 10
12.0183787418
 20
7.4128905969
 30
0.0
 10
12.0201961013
 20
7.4067555709
 30
0.0
 10
12.0219263807
 20
7.4002671744
 30
0.0
 10
12.0235666971
 20
7.3934360035
 30
0.0
 10
12.0251143055
 20
7.3862732433
 30
0.0
 10
12.0265666662
 20
7.3787906477
 30
0.0
 10
12.0279213208
 20
7.371000508
 30
0.0
 10
12.0291760379
 20
7.3629156364
 30
0.0
 10
12.0303287206
 20
7.3545493431
 30
0.0
 10
12.0313774492
 20
7.345915392
 30
0.0
 10
12.0326503901
 20
7.3339180958
 30
0.0
 10
12.0339591509
 20
7.3183567501
 30
0.0
 10
12.035074094
 20
7.2990748225
 30
0.0
 10
12.0357442792
 20
7.2790891181
 30
0.0
 10
12.0358897337
 20
7.2655436686
 30
0.0
 10
12.0358897337
 20
7.258677199
 30
0.0
  0
SPLINE
  5
3CA
100
AcDbEntity
  8
0
100
AcDbSpline
 62
7
  6
CONTINUOUS
 70
0
 71
3
 72
37
 73
33
 74
0
 42
0.0000001
 43
0.0000001
 44
0.0000000001
 40
0.0
 40
0.0
 40
0.0
 40
0.0
 40
0.0063161109
 40
0.0126711338
 40
0.0191032156
 40
0.0256489994
 40
0.0392093374
 40
0.0536076786
 40
0.0690450798
 40
0.0856786401
 40
0.1036272065
 40
0.1229776037
 40
0.1437907506
 40
0.1661071328
 40
0.1899503416
 40
0.2153307398
 40
0.2422476171
 40
0.2706909087
 40
0.3006430392
 40
0.3320794542
 40
0.3649699263
 40
0.3992791091
 40
0.4349668709
 40
0.4719892129
 40
0.5102981662
 40
0.5498424352
 40
0.5905676756
 40
0.6324164962
 40
0.7192408911
 40
0.8098109239
 40
0.9035854682
 40
1.0
 40
1.0
 40
1.0
 40
1.0
 10
11.9855417814
 20
8.8461674549
 30
0.0
 10
11.9859905256
 20
8.8461363333
 30
0.0
 10
11.9868886604
 20
8.8460371738
 30
0.0
 10
11.9882257866
 20
8.8457787022
 30
0.0
 10
11.9895540072
 20
8.845410464
 30
0.0
 10
11.9913325345
 20
8.8447662833
 30
0.0
 10
11.9935424603
 20
8.8436710795
 30
0.0
 10
11.9961108607
 20
8.841938236
 30
0.0
 10
11.9986254932
 20
8.8397766575
 30
0.0
 10
12.0010836621
 20
8.8371913604
 30
0.0
 10
12.0034830985
 20
8.8341868396
 30
0.0
 10
12.0058210269
 20
8.8307678818
 30
0.0
 10
12.0080944629
 20
8.8269397487
 30
0.0
 10
12.0103001108
 20
8.8227083022
 30
0.0
 10
12.0124347003
 20
8.8180801563
 30
0.0
 10
12.0144948578
 20
8.8130626015
 30
0.0
 10
12.0164772688
 20
8.8076636444
 30
0.0
 10
12.0183787418
 20
8.8018919824
 30
0.0
 10
12.0201961013
 20
8.7957569564
 30
0.0
 10
12.0219263807
 20
8.7892685599
 30
0.0
 10
12.0235666971
 20
8.782437389
 30
0.0
 10
12.0251143055
 20
8.7752746288
 30
0.0
 10
12.0265666662
 20
8.7677920332
 30
0.0
 10
12.0279213208
 20
8.7600018935
 30
0.0
 10
12.0291760379
 20
8.7519170219
 30
0.0
 10
12.0303287206
 20
8.7435507286
 30
0.0
 10
12.0313774492
 20
8.7349167775
 30
0.0
 10
12.0326503901
 20
8.7229194813
 30
0.0
 10
12.0339591509
 20
8.7073581356
 30
0.0
 10
12.035074094
 20
8.688076208
 30
0.0
 10
12.0357442792
 20
8.6680905036
 30
0.0
 10
12.0358897337
 20
8.6545450541
 30
0.0
 10
12.0358897337
 20
8.6476785845
 30
0.0
  0
SPLINE
  5
3CB
100
AcDbEntity
  8
0
100
AcDbSpline
 62
4
  6
CONTINUOUS
 70
0
 71
3
 72
343
 73
339
 74
0
 42
0.0000001
 43
0.0000001
 44
0.0000000001
 40
0.0
 40
0.0
 40
0.0
 40
0.0
 40
0.015625
 40
0.0234375
 40
0.03125
 40
0.0390625
 40
0.04296875
 40
0.046875
 40
0.05078125
 40
0.0546875
 40
0.056640625
 40
0.05859375
 40
0.0595703125
 40
0.060546875
 40
0.0615234375
 40
0.0620117188
 40
0.0622558594
 40
0.0625
 40
0.0627441406
 40
0.0629882812
 40
0.0634765625
 40
0.064453125
 40
0.0654296875
 40
0.06640625
 40
0.068359375
 40
0.0703125
 40
0.07421875
 40
0.078125
 40
0.08203125
 40
0.0859375
 40
0.09375
 40
0.1015625
 40
0.10546875
 40
0.109375
 40
0.11328125
 40
0.1171875
 40
0.119140625
 40
0.12109375
 40
0.1220703125
 40
0.123046875
 40
0.1240234375
 40
0.1245117188
 40
0.125
 40
0.1254882812
 40
0.1259765625
 40
0.126953125
 40
0.1279296875
 40
0.12890625
 40
0.130859375
 40
0.1328125
 40
0.13671875
 40
0.140625
 40
0.14453125
 40
0.1484375
 40
0.15625
 40
0.1640625
 40
0.16796875
 40
0.171875
 40
0.17578125
 40
0.1796875
 40
0.181640625
 40
0.18359375
 40
0.1845703125
 40
0.185546875
 40
0.1865234375
 40
0.1870117188
 40
0.1875
 40
0.1879882812
 40
0.1884765625
 40
0.189453125
 40
0.1904296875
 40
0.19140625
 40
0.193359375
 40
0.1953125
 40
0.19921875
 40
0.203125
 40
0.20703125
 40
0.2109375
 40
0.21875
 40
0.2265625
 40
0.234375
 40
0.23828125
 40
0.2421875
 40
0.244140625
 40
0.24609375
 40
0.248046875
 40
0.2490234375
 40
0.2495117188
 40
0.25
 40
0.2504882812
 40
0.2509765625
 40
0.251953125
 40
0.25390625
 40
0.255859375
 40
0.2578125
 40
0.26171875
 40
0.265625
 40
0.2734375
 40
0.28125
 40
0.2890625
 40
0.296875
 40
0.30078125
 40
0.3046875
 40
0.306640625
 40
0.30859375
 40
0.310546875
 40
0.3115234375
 40
0.3125
 40
0.3134765625
 40
0.314453125
 40
0.31640625
 40
0.318359375
 40
0.3203125
 40
0.32421875
 40
0.328125
 40
0.3359375
 40
0.34375
 40
0.3515625
 40
0.359375
 40
0.36328125
 40
0.3671875
 40
0.37109375
 40
0.373046875
 40
0.3740234375
 40
0.375
 40
0.3759765625
 40
0.376953125
 40
0.37890625
 40
0.3828125
 40
0.38671875
 40
0.390625
 40
0.3984375
 40
0.40625
 40
0.4140625
 40
0.421875
 40
0.42578125
 40
0.4296875
 40
0.43359375
 40
0.435546875
 40
0.4365234375
 40
0.4375
 40
0.4384765625
 40
0.439453125
 40
0.44140625
 40
0.4453125
 40
0.44921875
 40
0.453125
 40
0.4609375
 40
0.46875
 40
0.4765625
 40
0.484375
 40
0.48828125
 40
0.4921875
 40
0.494140625
 40
0.49609375
 40
0.498046875
 40
0.4990234375
 40
0.4995117188
 40
0.5
 40
0.5004882812
 40
0.5009765625
 40
0.501953125
 40
0.50390625
 40
0.505859375
 40
0.5078125
 40
0.51171875
 40
0.515625
 40
0.5234375
 40
0.53125
 40
0.5390625
 40
0.546875
 40
0.55078125
 40
0.5546875
 40
0.556640625
 40
0.55859375
 40
0.560546875
 40
0.5615234375
 40
0.5620117188
 40
0.5625
 40
0.5629882812
 40
0.5634765625
 40
0.564453125
 40
0.56640625
 40
0.568359375
 40
0.5703125
 40
0.57421875
 40
0.578125
 40
0.5859375
 40
0.59375
 40
0.6015625
 40
0.609375
 40
0.61328125
 40
0.6171875
 40
0.619140625
 40
0.62109375
 40
0.623046875
 40
0.6240234375
 40
0.6245117188
 40
0.625
 40
0.6254882812
 40
0.6259765625
 40
0.626953125
 40
0.62890625
 40
0.630859375
 40
0.6328125
 40
0.63671875
 40
0.640625
 40
0.6484375
 40
0.65625
 40
0.6640625
 40
0.66796875
 40
0.671875
 40
0.67578125
 40
0.6796875
 40
0.681640625
 40
0.68359375
 40
0.685546875
 40
0.6865234375
 40
0.6870117188
 40
0.6875
 40
0.6879882812
 40
0.6884765625
 40
0.689453125
 40
0.69140625
 40
0.693359375
 40
0.6953125
 40
0.69921875
 40
0.703125
 40
0.70703125
 40
0.7109375
 40
0.71875
 40
0.7265625
 40
0.73046875
 40
0.734375
 40
0.73828125
 40
0.7421875
 40
0.744140625
 40
0.74609375
 40
0.7470703125
 40
0.748046875
 40
0.7490234375
 40
0.7495117188
 40
0.7497558594
 40
0.75
 40
0.7502441406
 40
0.7504882812
 40
0.7509765625
 40
0.751953125
 40
0.7529296875
 40
0.75390625
 40
0.755859375
 40
0.7578125
 40
0.76171875
 40
0.765625
 40
0.76953125
 40
0.7734375
 40
0.78125
 40
0.7890625
 40
0.79296875
 40
0.796875
 40
0.80078125
 40
0.8046875
 40
0.806640625
 40
0.80859375
 40
0.8095703125
 40
0.810546875
 40
0.8115234375
 40
0.8120117188
 40
0.8122558594
 40
0.8125
 40
0.8127441406
 40
0.8129882812
 40
0.8134765625
 40
0.814453125
 40
0.8154296875
 40
0.81640625
 40
0.818359375
 40
0.8203125
 40
0.82421875
 40
0.828125
 40
0.83203125
 40
0.8359375
 40
0.84375
 40
0.8515625
 40
0.85546875
 40
0.859375
 40
0.86328125
 40
0.8671875
 40
0.869140625
 40
0.87109375
 40
0.8720703125
 40
0.873046875
 40
0.8740234375
 40
0.8745117188
 40
0.8747558594
 40
0.875
 40
0.8752441406
 40
0.8754882812
 40
0.8759765625
 40
0.876953125
 40
0.8779296875
 40
0.87890625
 40
0.880859375
 40
0.8828125
 40
0.88671875
 40
0.890625
 40
0.89453125
 40
0.8984375
 40
0.90625
 40
0.9140625
 40
0.91796875
 40
0.921875
 40
0.92578125
 40
0.9296875
 40
0.931640625
 40
0.93359375
 40
0.9345703125
 40
0.935546875
 40
0.9365234375
 40
0.9370117188
 40
0.9372558594
 40
0.9375
 40
0.9377441406
 40
0.9379882812
 40
0.9384765625
 40
0.939453125
 40
0.9404296875
 40
0.94140625
 40
0.943359375
 40
0.9453125
 40
0.94921875
 40
0.953125
 40
0.95703125
 40
0.9609375
 40
0.96875
 40
0.9765625
 40
0.984375
 40
1.0
 40
1.0
 40
1.0
 40
1.0
 10
12.5818680587
 20
8.7034882001
 30
0.0
 10
12.5810285246
 20
8.7023700606
 30
0.0
 10
12.5797692233
 20
8.7006928514
 30
0.0
 10
12.578090155
 20
8.6984565726
 30
0.0
 10
12.5768308538
 20
8.6967793634
 30
0.0
 10
12.5757814361
 20
8.6953816892
 30
0.0
 10
12.5749419019
 20
8.6942635495
 30
0.0
 10
12.5743122512
 20
8.6934249458
 30
0.0
 10
12.5736826008
 20
8.6925863378
 30
0.0
 10
12.5731578914
 20
8.6918875115
 30
0.0
 10
12.5727381255
 20
8.6913284196
 30
0.0
 10
12.5724757679
 20
8.6909790574
 30
0.0
 10
12.5722658909
 20
8.6906994068
 30
0.0
 10
12.5721084584
 20
8.6904901094
 30
0.0
 10
12.5719773431
 20
8.6903142931
 30
0.0
 10
12.5718854086
 20
8.6901939729
 30
0.0
 10
12.5718331147
 20
8.6901209227
 30
0.0
 10
12.5717932177
 20
8.6900782364
 30
0.0
 10
12.5717559074
 20
8.6899892924
 30
0.0
 10
12.571705258
 20
8.6898868356
 30
0.0
 10
12.571617042
 20
8.6897000185
 30
0.0
 10
12.5714907994
 20
8.6894370672
 30
0.0
 10
12.5713394023
 20
8.6891198434
 30
0.0
 10
12.5711375067
 20
8.6886974659
 30
0.0
 10
12.5708851484
 20
8.6881692929
 30
0.0
 10
12.5704813689
 20
8.6873243285
 30
0.0
 10
12.5699766467
 20
8.6862680844
 30
0.0
 10
12.5693709791
 20
8.685000608
 30
0.0
 10
12.5687653117
 20
8.6837331271
 30
0.0
 10
12.5679577551
 20
8.6820431543
 30
0.0
 10
12.5669483094
 20
8.6799306877
 30
0.0
 10
12.5659388637
 20
8.6778182209
 30
0.0
 10
12.5651313071
 20
8.6761282485
 30
0.0
 10
12.5645256399
 20
8.6748607663
 30
0.0
 10
12.5639199714
 20
8.6735932951
 30
0.0
 10
12.5634152519
 20
8.6725370347
 30
0.0
 10
12.5630114668
 20
8.6716921036
 30
0.0
 10
12.5627591228
 20
8.6711638457
 30
0.0
 10
12.5625571978
 20
8.6707416424
 30
0.0
 10
12.5624058905
 20
8.6704238864
 30
0.0
 10
12.5622793671
 20
8.6701626002
 30
0.0
 10
12.5621791217
 20
8.6699456979
 30
0.0
 10
12.562101278
 20
8.6698045351
 30
0.0
 10
12.5620335865
 20
8.6695812533
 30
0.0
 10
12.5619397848
 20
8.6693122294
 30
0.0
 10
12.5618237495
 20
8.6689661078
 30
0.0
 10
12.5616839864
 20
8.6685549745
 30
0.0
 10
12.5614978174
 20
8.6680053254
 30
0.0
 10
12.5612650438
 20
8.6673187679
 30
0.0
 10
12.560892641
 20
8.6662199941
 30
0.0
 10
12.5604271255
 20
8.6648466236
 30
0.0
 10
12.559868512
 20
8.6631985376
 30
0.0
 10
12.5593098972
 20
8.6615504627
 30
0.0
 10
12.5585650779
 20
8.6593530255
 30
0.0
 10
12.5576340536
 20
8.6566062305
 30
0.0
 10
12.5567030294
 20
8.6538594346
 30
0.0
 10
12.5559582099
 20
8.651661999
 30
0.0
 10
12.5553995958
 20
8.6500139195
 30
0.0
 10
12.5548409798
 20
8.6483658504
 30
0.0
 10
12.554375472
 20
8.6469924272
 30
0.0
 10
12.5540030535
 20
8.6458937609
 30
0.0
 10
12.5537703199
 20
8.6452069301
 30
0.0
 10
12.5535840691
 20
8.6446578418
 30
0.0
 10
12.5534445558
 20
8.6442449952
 30
0.0
 10
12.5533277385
 20
8.6439042342
 30
0.0
 10
12.5532355323
 20
8.6436242737
 30
0.0
 10
12.5531629683
 20
8.6434343916
 30
0.0
 10
12.5531034181
 20
8.6431678326
 30
0.0
 10
12.5530194719
 20
8.6428392049
 30
0.0
 10
12.5529160988
 20
8.6424192307
 30
0.0
 10
12.5527913835
 20
8.6419191951
 30
0.0
 10
12.5526253296
 20
8.6412511071
 30
0.0
 10
12.5524176824
 20
8.6404164675
 30
0.0
 10
12.5520854915
 20
8.6390807813
 30
0.0
 10
12.5516702375
 20
8.6374112637
 30
0.0
 10
12.5511719394
 20
8.6354078039
 30
0.0
 10
12.5506736394
 20
8.6334043544
 30
0.0
 10
12.5500092402
 20
8.6307330848
 30
0.0
 10
12.5491787405
 20
8.6273939999
 30
0.0
 10
12.548182143
 20
8.6233870931
 30
0.0
 10
12.5473516388
 20
8.6200480177
 30
0.0
 10
12.5466872494
 20
8.6173767272
 30
0.0
 10
12.5462719743
 20
8.6157072392
 30
0.0
 10
12.5459398268
 20
8.6143714919
 30
0.0
 10
12.5456905175
 20
8.6133701109
 30
0.0
 10
12.545483392
 20
8.6125342605
 30
0.0
 10
12.5453371632
 20
8.6119518465
 30
0.0
 10
12.5452555416
 20
8.6116148518
 30
0.0
 10
12.5451888669
 20
8.6113738997
 30
0.0
 10
12.5451430572
 20
8.6110878656
 30
0.0
 10
12.5450746998
 20
8.6107222118
 30
0.0
 10
12.5449584652
 20
8.6100749912
 30
0.0
 10
12.5447906429
 20
8.6091542207
 30
0.0
 10
12.544590015
 20
8.6080476566
 30
0.0
 10
12.544322246
 20
8.6065728104
 30
0.0
 10
12.5439876256
 20
8.6047290566
 30
0.0
 10
12.5434521823
 20
8.60177916
 30
0.0
 10
12.5427828952
 20
8.5980917523
 30
0.0
 10
12.5419797449
 20
8.5936668766
 30
0.0
 10
12.5411765905
 20
8.5892420057
 30
0.0
 10
12.5405073134
 20
8.5855545858
 30
0.0
 10
12.5399718501
 20
8.5826047136
 30
0.0
 10
12.5396372805
 20
8.580760898
 30
0.0
 10
12.5393694074
 20
8.5792861786
 30
0.0
 10
12.5391690976
 20
8.5781792272
 30
0.0
 10
12.53900028
 20
8.5772596684
 30
0.0
 10
12.5388694711
 20
8.5765175156
 30
0.0
 10
12.5387597645
 20
8.5759786777
 30
0.0
 10
12.5386943352
 20
8.5753719862
 30
0.0
 10
12.5385916295
 20
8.5745867663
 30
0.0
 10
12.5384685539
 20
8.5735971093
 30
0.0
 10
12.5383185918
 20
8.5724130018
 30
0.0
 10
12.5381194357
 20
8.570832976
 30
0.0
 10
12.5378702189
 20
8.56885836
 30
0.0
 10
12.5374716237
 20
8.5656987419
 30
0.0
 10
12.536973329
 20
8.5617492982
 30
0.0
 10
12.536375391
 20
8.5570099354
 30
0.0
 10
12.5357774717
 20
8.5522705674
 30
0.0
 10
12.5352791304
 20
8.548321137
 30
0.0
 10
12.5348806285
 20
8.5451614923
 30
0.0
 10
12.5345812836
 20
8.5427920341
 30
0.0
 10
12.53433332
 20
8.5408166098
 30
0.0
 10
12.5341568204
 20
8.5394355315
 30
0.0
 10
12.5340605307
 20
8.5386436602
 30
0.0
 10
12.5339754474
 20
8.5380573166
 30
0.0
 10
12.5339395448
 20
8.5374420755
 30
0.0
 10
12.53387452
 20
8.5366318338
 30
0.0
 10
12.5337687191
 20
8.5352092144
 30
0.0
 10
12.5336133964
 20
8.5331793563
 30
0.0
 10
12.5334287978
 20
8.5307424756
 30
0.0
 10
12.5331820413
 20
8.5274936686
 30
0.0
 10
12.5328738117
 20
8.5234325335
 30
0.0
 10
12.532503837
 20
8.5185592265
 30
0.0
 10
12.5321339132
 20
8.5136859013
 30
0.0
 10
12.5318255564
 20
8.5096248114
 30
0.0
 10
12.5315790543
 20
8.5063759141
 30
0.0
 10
12.53139368
 20
8.5039393087
 30
0.0
 10
12.5312407839
 20
8.5019085895
 30
0.0
 10
12.5311306512
 20
8.5004875073
 30
0.0
 10
12.531072567
 20
8.4996748026
 30
0.0
 10
12.5310153448
 20
8.4990671271
 30
0.0
 10
12.5310103346
 20
8.4984523681
 30
0.0
 10
12.5309854421
 20
8.4976351603
 30
0.0
 10
12.5309503657
 20
8.4962038955
 30
0.0
 10
12.5308958202
 20
8.4941598332
 30
0.0
 10
12.5308322646
 20
8.4917067009
 30
0.0
 10
12.5307468604
 20
8.4884359479
 30
0.0
 10
12.5306403329
 20
8.4843474758
 30
0.0
 10
12.5305124016
 20
8.4794413217
 30
0.0
 10
12.5303844992
 20
8.4745351674
 30
0.0
 10
12.5302778997
 20
8.4704466958
 30
0.0
 10
12.5301926395
 20
8.4671759418
 30
0.0
 10
12.5301393105
 20
8.4651316672
 30
0.0
 10
12.5300967417
 20
8.4634963698
 30
0.0
 10
12.5300645568
 20
8.462269562
 30
0.0
 10
12.5300385577
 20
8.4612482867
 30
0.0
 10
12.5300187458
 20
8.460531305
 30
0.0
 10
12.5300099427
 20
8.460124863
 30
0.0
 10
12.5299962471
 20
8.4598108429
 30
0.0
 10
12.5300096655
 20
8.4595319462
 30
0.0
 10
12.5300180991
 20
8.4591478326
 30
0.0
 10
12.5300372643
 20
8.4584813418
 30
0.0
 10
12.5300623395
 20
8.4575262279
 30
0.0
 10
12.5300934158
 20
8.4563813685
 30
0.0
 10
12.5301345064
 20
8.4548544432
 30
0.0
 10
12.5301859877
 20
8.4529459393
 30
0.0
 10
12.5302682917
 20
8.4498922477
 30
0.0
 10
12.5303711945
 20
8.4460751627
 30
0.0
 10
12.5304946675
 20
8.441494647
 30
0.0
 10
12.5306181456
 20
8.436914139
 30
0.0
 10
12.5307210356
 20
8.4330970349
 30
0.0
 10
12.5308033652
 20
8.4300433815
 30
0.0
 10
12.5308547815
 20
8.4281347804
 30
0.0
 10
12.5308960054
 20
8.4266080546
 30
0.0
 10
12.5309266744
 20
8.4254625858
 30
0.0
 10
12.5309530238
 20
8.4245093786
 30
0.0
 10
12.5309699144
 20
8.423839484
 30
0.0
 10
12.5309819926
 20
8.4234608241
 30
0.0
 10
12.5309842159
 20
8.4231651754
 30
0.0
 10
12.5310125676
 20
8.422914073
 30
0.0
 10
12.5310412559
 20
8.4225637315
 30
0.0
 10
12.5310957069
 20
8.4219578735
 30
0.0
 10
12.531171274
 20
8.4210885771
 30
0.0
 10
12.5312629047
 20
8.4200470415
 30
0.0
 10
12.5313847472
 20
8.4186577615
 30
0.0
 10
12.5315371639
 20
8.4169213553
 30
0.0
 10
12.531780967
 20
8.414142997
 30
0.0
 10
12.5320857429
 20
8.4106700866
 30
0.0
 10
12.532451464
 20
8.4065025766
 30
0.0
 10
12.5328171899
 20
8.4023350769
 30
0.0
 10
12.5331219537
 20
8.398862141
 30
0.0
 10
12.5333657812
 20
8.3960838337
 30
0.0
 10
12.533518136
 20
8.3943472979
 30
0.0
 10
12.5336401055
 20
8.3929582839
 30
0.0
 10
12.533731348
 20
8.3919159358
 30
0.0
 10
12.5338081297
 20
8.3910491814
 30
0.0
 10
12.5338604123
 20
8.3904387855
 30
0.0
 10
12.533892575
 20
8.3900957148
 30
0.0
 10
12.5339102547
 20
8.389822279
 30
0.0
 10
12.5339525603
 20
8.3896105107
 30
0.0
 10
12.534000378
 20
8.3893066427
 30
0.0
 10
12.5340880611
 20
8.3887848958
 30
0.0
 10
12.5342112304
 20
8.3880343033
 30
0.0
 10
12.5343599291
 20
8.3871358351
 30
0.0
 10
12.5345578811
 20
8.3859370942
 30
0.0
 10
12.5348054284
 20
8.3844389363
 30
0.0
 10
12.5352014441
 20
8.3820417336
 30
0.0
 10
12.5356964842
 20
8.3790452817
 30
0.0
 10
12.5362905237
 20
8.3754495178
 30
0.0
 10
12.5367855581
 20
8.3724530514
 30
0.0
 10
12.5371815864
 20
8.3700558807
 30
0.0
 10
12.5374786045
 20
8.3682579934
 30
0.0
 10
12.5377756346
 20
8.3664601419
 30
0.0
 10
12.5380231224
 20
8.3649618207
 30
0.0
 10
12.538221196
 20
8.3637634136
 30
0.0
 10
12.5383695234
 20
8.3628639256
 30
0.0
 10
12.5384938542
 20
8.3621165238
 30
0.0
 10
12.5385794638
 20
8.361589081
 30
0.0
 10
12.5386306038
 20
8.3612943392
 30
0.0
 10
12.5386627042
 20
8.3610545382
 30
0.0
 10
12.5387187131
 20
8.3608863887
 30
0.0
 10
12.538785052
 20
8.3606371964
 30
0.0
 10
12.5389050308
 20
8.3602127546
 30
0.0
 10
12.5390743975
 20
8.3596003211
 30
0.0
 10
12.5392785071
 20
8.3588680069
 30
0.0
 10
12.5395503496
 20
8.3578906776
 30
0.0
 10
12.5398902568
 20
8.3566693284
 30
0.0
 10
12.5402981008
 20
8.3552035754
 30
0.0
 10
12.5407059568
 20
8.3537378582
 30
0.0
 10
12.5412497606
 20
8.3517835562
 30
0.0
 10
12.5419295168
 20
8.3493406829
 30
0.0
 10
12.5426092724
 20
8.3468978079
 30
0.0
 10
12.5431530771
 20
8.3449435087
 30
0.0
 10
12.5435609304
 20
8.343477783
 30
0.0
 10
12.5439687845
 20
8.3420120619
 30
0.0
 10
12.5443086603
 20
8.3407906135
 30
0.0
 10
12.5445805668
 20
8.3398134864
 30
0.0
 10
12.5447504951
 20
8.33920271
 30
0.0
 10
12.5448864681
 20
8.3387142538
 30
0.0
 10
12.5449883647
 20
8.3383474602
 30
0.0
 10
12.5450735433
 20
8.3380432347
 30
0.0
 10
12.5451326485
 20
8.3378274591
 30
0.0
 10
12.5451672346
 20
8.3377085585
 30
0.0
 10
12.5451908877
 20
8.3376069888
 30
0.0
 10
12.5452232808
 20
8.3375527962
 30
0.0
 10
12.5452634229
 20
8.3374640137
 30
0.0
 10
12.5453350921
 20
8.3373163438
 30
0.0
 10
12.5454367341
 20
8.3371013615
 30
0.0
 10
12.5455590223
 20
8.3368451058
 30
0.0
 10
12.5457219622
 20
8.3365028296
 30
0.0
 10
12.5459256752
 20
8.3360751905
 30
0.0
 10
12.5462515946
 20
8.3353908527
 30
0.0
 10
12.5466590012
 20
8.33453547
 30
0.0
 10
12.5471478859
 20
8.3335089938
 30
0.0
 10
12.5476367715
 20
8.3324825222
 30
0.0
 10
12.5482886187
 20
8.3311138917
 30
0.0
 10
12.5491034278
 20
8.3294031042
 30
0.0
 10
12.5499182368
 20
8.3276923163
 30
0.0
 10
12.5505700841
 20
8.3263236865
 30
0.0
 10
12.5510589694
 20
8.3252972129
 30
0.0
 10
12.5515478554
 20
8.324270744
 30
0.0
 10
12.5519552582
 20
8.3234153387
 30
0.0
 10
12.5522811853
 20
8.3227310469
 30
0.0
 10
12.5524848786
 20
8.3223032909
 30
0.0
 10
12.5526478589
 20
8.3219612547
 30
0.0
 10
12.5527700236
 20
8.3217042658
 30
0.0
 10
12.5528720521
 20
8.3214915771
 30
0.0
 10
12.5529430313
 20
8.3213398129
 30
0.0
 10
12.5529842789
 20
8.3212575907
 30
0.0
 10
12.5530132765
 20
8.3211832468
 30
0.0
 10
12.5530496827
 20
8.3211573616
 30
0.0
 10
12.55309564
 20
8.3211059451
 30
0.0
 10
12.5531772695
 20
8.3210238416
 30
0.0
 10
12.5532932535
 20
8.3209024335
 30
0.0
 10
12.5534327038
 20
8.3207585062
 30
0.0
 10
12.5536185433
 20
8.3205659875
 30
0.0
 10
12.553850875
 20
8.3203255499
 30
0.0
 10
12.5542225877
 20
8.319940732
 30
0.0
 10
12.5546872347
 20
8.3194597501
 30
0.0
 10
12.5552448085
 20
8.3188825544
 30
0.0
 10
12.555802383
 20
8.3183053633
 30
0.0
 10
12.5565458154
 20
8.3175357736
 30
0.0
 10
12.557475106
 20
8.3165737871
 30
0.0
 10
12.5584043966
 20
8.3156118002
 30
0.0
 10
12.5591478291
 20
8.3148422112
 30
0.0
 10
12.5597054033
 20
8.3142650181
 30
0.0
 10
12.560262978
 20
8.31368783
 30
0.0
 10
12.5607276221
 20
8.3132068247
 30
0.0
 10
12.5610993408
 20
8.3128220543
 30
0.0
 10
12.5613316572
 20
8.3125814957
 30
0.0
 10
12.5615175281
 20
8.3123892256
 30
0.0
 10
12.5616568826
 20
8.3122445388
 30
0.0
 10
12.5617731664
 20
8.3121255069
 30
0.0
 10
12.5618542606
 20
8.3120391614
 30
0.0
 10
12.5619010755
 20
8.3119945416
 30
0.0
 10
12.5619348478
 20
8.3119477792
 30
0.0
 10
12.561973738
 20
8.3119518467
 30
0.0
 10
12.5620238064
 20
8.31193954
 30
0.0
 10
12.562112258
 20
8.311926264
 30
0.0
 10
12.5622381825
 20
8.3119029796
 30
0.0
 10
12.562389478
 20
8.3118768868
 30
0.0
 10
12.5625911403
 20
8.3118414507
 30
0.0
 10
12.5628432405
 20
8.3117973767
 30
0.0
 10
12.5632465883
 20
8.3117267348
 30
0.0
 10
12.5637507774
 20
8.3116384747
 30
0.0
 10
12.5643558024
 20
8.3115325445
 30
0.0
 10
12.5649608279
 20
8.3114266192
 30
0.0
 10
12.5657675285
 20
8.3112853837
 30
0.0
 10
12.5667759042
 20
8.3111088399
 30
0.0
 10
12.5677842799
 20
8.3109322957
 30
0.0
 10
12.5685909805
 20
8.3107910609
 30
0.0
 10
12.5691960058
 20
8.3106851335
 30
0.0
 10
12.5698010316
 20
8.3105792111
 30
0.0
 10
12.5703052185
 20
8.3104909268
 30
0.0
 10
12.5707085706
 20
8.3104203343
 30
0.0
 10
12.5709606599
 20
8.3103761344
 30
0.0
 10
12.5711623447
 20
8.3103409569
 30
0.0
 10
12.5713135715
 20
8.3103140742
 30
0.0
 10
12.5714397107
 20
8.3102932611
 30
0.0
 10
12.571527779
 20
8.3102755732
 30
0.0
 10
12.5715784615
 20
8.3102703355
 30
0.0
 10
12.5716154655
 20
8.3102526895
 30
0.0
 10
12.5716563223
 20
8.3102874795
 30
0.0
 10
12.5717094542
 20
8.310315576
 30
0.0
 10
12.5718030611
 20
8.3103732665
 30
0.0
 10
12.5719364579
 20
8.3104512263
 30
0.0
 10
12.5720966742
 20
8.310546685
 30
0.0
 10
12.5723102469
 20
8.3106732973
 30
0.0
 10
12.5725772296
 20
8.3108317907
 30
0.0
 10
12.5730043926
 20
8.3110852527
 30
0.0
 10
12.5735383495
 20
8.3114021238
 30
0.0
 10
12.5741790965
 20
8.3117823505
 30
0.0
 10
12.5748198438
 20
8.3121625822
 30
0.0
 10
12.5756741734
 20
8.312669556
 30
0.0
 10
12.5767420854
 20
8.3133032739
 30
0.0
 10
12.5780235799
 20
8.3140637352
 30
0.0
 10
12.5797322392
 20
8.3150776835
 30
0.0
 10
12.5810137336
 20
8.3158381448
 30
0.0
 10
12.5818680633
 20
8.316345119
 30
0.0
  0
SPLINE
  5
3CC
100
AcDbEntity
  8
0
100
AcDbSpline
 62
4
  6
CONTINUOUS
 70
0
 71
3
 72
343
 73
339
 74
0
 42
0.0000001
 43
0.0000001
 44
0.0000000001
 40
0.0
 40
0.0
 40
0.0
 40
0.0
 40
0.015625
 40
0.0234375
 40
0.03125
 40
0.0390625
 40
0.04296875
 40
0.046875
 40
0.05078125
 40
0.0546875
 40
0.056640625
 40
0.05859375
 40
0.0595703125
 40
0.060546875
 40
0.0615234375
 40
0.0620117188
 40
0.0622558594
 40
0.0625
 40
0.0627441406
 40
0.0629882812
 40
0.0634765625
 40
0.064453125
 40
0.0654296875
 40
0.06640625
 40
0.068359375
 40
0.0703125
 40
0.07421875
 40
0.078125
 40
0.08203125
 40
0.0859375
 40
0.09375
 40
0.1015625
 40
0.10546875
 40
0.109375
 40
0.11328125
 40
0.1171875
 40
0.119140625
 40
0.12109375
 40
0.1220703125
 40
0.123046875
 40
0.1240234375
 40
0.1245117188
 40
0.125
 40
0.1254882812
 40
0.1259765625
 40
0.126953125
 40
0.1279296875
 40
0.12890625
 40
0.130859375
 40
0.1328125
 40
0.13671875
 40
0.140625
 40
0.14453125
 40
0.1484375
 40
0.15625
 40
0.1640625
 40
0.16796875
 40
0.171875
 40
0.17578125
 40
0.1796875
 40
0.181640625
 40
0.18359375
 40
0.1845703125
 40
0.185546875
 40
0.1865234375
 40
0.1870117188
 40
0.1875
 40
0.1879882812
 40
0.1884765625
 40
0.189453125
 40
0.1904296875
 40
0.19140625
 40
0.193359375
 40
0.1953125
 40
0.19921875
 40
0.203125
 40
0.20703125
 40
0.2109375
 40
0.21875
 40
0.2265625
 40
0.234375
 40
0.23828125
 40
0.2421875
 40
0.244140625
 40
0.24609375
 40
0.248046875
 40
0.2490234375
 40
0.2495117188
 40
0.25
 40
0.2504882812
 40
0.2509765625
 40
0.251953125
 40
0.25390625
 40
0.255859375
 40
0.2578125
 40
0.26171875
 40
0.265625
 40
0.2734375
 40
0.28125
 40
0.2890625
 40
0.296875
 40
0.30078125
 40
0.3046875
 40
0.306640625
 40
0.30859375
 40
0.310546875
 40
0.3115234375
 40
0.3125
 40
0.3134765625
 40
0.314453125
 40
0.31640625
 40
0.318359375
 40
0.3203125
 40
0.32421875
 40
0.328125
 40
0.3359375
 40
0.34375
 40
0.3515625
 40
0.359375
 40
0.36328125
 40
0.3671875
 40
0.37109375
 40
0.373046875
 40
0.3740234375
 40
0.375
 40
0.3759765625
 40
0.376953125
 40
0.37890625
 40
0.3828125
 40
0.38671875
 40
0.390625
 40
0.3984375
 40
0.40625
 40
0.4140625
 40
0.421875
 40
0.42578125
 40
0.4296875
 40
0.43359375
 40
0.435546875
 40
0.4365234375
 40
0.4375
 40
0.4384765625
 40
0.439453125
 40
0.44140625
 40
0.4453125
 40
0.44921875
 40
0.453125
 40
0.4609375
 40
0.46875
 40
0.4765625
 40
0.484375
 40
0.48828125
 40
0.4921875
 40
0.494140625
 40
0.49609375
 40
0.498046875
 40
0.4990234375
 40
0.4995117188
 40
0.5
 40
0.5004882812
 40
0.5009765625
 40
0.501953125
 40
0.50390625
 40
0.505859375
 40
0.5078125
 40
0.51171875
 40
0.515625
 40
0.5234375
 40
0.53125
 40
0.5390625
 40
0.546875
 40
0.55078125
 40
0.5546875
 40
0.556640625
 40
0.55859375
 40
0.560546875
 40
0.5615234375
 40
0.5620117188
 40
0.5625
 40
0.5629882812
 40
0.5634765625
 40
0.564453125
 40
0.56640625
 40
0.568359375
 40
0.5703125
 40
0.57421875
 40
0.578125
 40
0.5859375
 40
0.59375
 40
0.6015625
 40
0.609375
 40
0.61328125
 40
0.6171875
 40
0.619140625
 40
0.62109375
 40
0.623046875
 40
0.6240234375
 40
0.6245117188
 40
0.625
 40
0.6254882812
 40
0.6259765625
 40
0.626953125
 40
0.62890625
 40
0.630859375
 40
0.6328125
 40
0.63671875
 40
0.640625
 40
0.6484375
 40
0.65625
 40
0.6640625
 40
0.66796875
 40
0.671875
 40
0.67578125
 40
0.6796875
 40
0.681640625
 40
0.68359375
 40
0.685546875
 40
0.6865234375
 40
0.6870117188
 40
0.6875
 40
0.6879882812
 40
0.6884765625
 40
0.689453125
 40
0.69140625
 40
0.693359375
 40
0.6953125
 40
0.69921875
 40
0.703125
 40
0.70703125
 40
0.7109375
 40
0.71875
 40
0.7265625
 40
0.73046875
 40
0.734375
 40
0.73828125
 40
0.7421875
 40
0.744140625
 40
0.74609375
 40
0.7470703125
 40
0.748046875
 40
0.7490234375
 40
0.7495117188
 40
0.7497558594
 40
0.75
 40
0.7502441406
 40
0.7504882812
 40
0.7509765625
 40
0.751953125
 40
0.7529296875
 40
0.75390625
 40
0.755859375
 40
0.7578125
 40
0.76171875
 40
0.765625
 40
0.76953125
 40
0.7734375
 40
0.78125
 40
0.7890625
 40
0.79296875
 40
0.796875
 40
0.80078125
 40
0.8046875
 40
0.806640625
 40
0.80859375
 40
0.8095703125
 40
0.810546875
 40
0.8115234375
 40
0.8120117188
 40
0.8122558594
 40
0.8125
 40
0.8127441406
 40
0.8129882812
 40
0.8134765625
 40
0.814453125
 40
0.8154296875
 40
0.81640625
 40
0.818359375
 40
0.8203125
 40
0.82421875
 40
0.828125
 40
0.83203125
 40
0.8359375
 40
0.84375
 40
0.8515625
 40
0.85546875
 40
0.859375
 40
0.86328125
 40
0.8671875
 40
0.869140625
 40
0.87109375
 40
0.8720703125
 40
0.873046875
 40
0.8740234375
 40
0.8745117188
 40
0.8747558594
 40
0.875
 40
0.8752441406
 40
0.8754882812
 40
0.8759765625
 40
0.876953125
 40
0.8779296875
 40
0.87890625
 40
0.880859375
 40
0.8828125
 40
0.88671875
 40
0.890625
 40
0.89453125
 40
0.8984375
 40
0.90625
 40
0.9140625
 40
0.91796875
 40
0.921875
 40
0.92578125
 40
0.9296875
 40
0.931640625
 40
0.93359375
 40
0.9345703125
 40
0.935546875
 40
0.9365234375
 40
0.9370117188
 40
0.9372558594
 40
0.9375
 40
0.9377441406
 40
0.9379882812
 40
0.9384765625
 40
0.939453125
 40
0.9404296875
 40
0.94140625
 40
0.943359375
 40
0.9453125
 40
0.94921875
 40
0.953125
 40
0.95703125
 40
0.9609375
 40
0.96875
 40
0.9765625
 40
0.984375
 40
1.0
 40
1.0
 40
1.0
 40
1.0
 10
12.5818680587
 20
8.3163451146
 30
0.0
 10
12.5827075929
 20
8.317463254
 30
0.0
 10
12.5839668941
 20
8.3191404632
 30
0.0
 10
12.5856459625
 20
8.3213767421
 30
0.0
 10
12.5869052637
 20
8.3230539513
 30
0.0
 10
12.5879546814
 20
8.3244516254
 30
0.0
 10
12.5887942156
 20
8.3255697652
 30
0.0
 10
12.5894238662
 20
8.3264083688
 30
0.0
 10
12.5900535167
 20
8.3272469769
 30
0.0
 10
12.5905782261
 20
8.3279458032
 30
0.0
 10
12.590997992
 20
8.3285048951
 30
0.0
 10
12.5912603495
 20
8.3288542572
 30
0.0
 10
12.5914702266
 20
8.3291339079
 30
0.0
 10
12.591627659
 20
8.3293432052
 30
0.0
 10
12.5917587744
 20
8.3295190216
 30
0.0
 10
12.5918507089
 20
8.3296393418
 30
0.0
 10
12.5919030027
 20
8.329712392
 30
0.0
 10
12.5919428998
 20
8.3297550782
 30
0.0
 10
12.5919802101
 20
8.3298440223
 30
0.0
 10
12.5920308595
 20
8.3299464791
 30
0.0
 10
12.5921190755
 20
8.3301332962
 30
0.0
 10
12.5922453181
 20
8.3303962474
 30
0.0
 10
12.5923967151
 20
8.3307134712
 30
0.0
 10
12.5925986108
 20
8.3311358487
 30
0.0
 10
12.592850969
 20
8.3316640218
 30
0.0
 10
12.5932547486
 20
8.3325089862
 30
0.0
 10
12.5937594708
 20
8.3335652303
 30
0.0
 10
12.5943651384
 20
8.3348327067
 30
0.0
 10
12.5949708058
 20
8.3361001875
 30
0.0
 10
12.5957783624
 20
8.3377901604
 30
0.0
 10
12.5967878081
 20
8.3399026269
 30
0.0
 10
12.5977972538
 20
8.3420150937
 30
0.0
 10
12.5986048104
 20
8.3437050662
 30
0.0
 10
12.5992104775
 20
8.3449725484
 30
0.0
 10
12.5998161461
 20
8.3462400195
 30
0.0
 10
12.6003208655
 20
8.34729628
 30
0.0
 10
12.6007246507
 20
8.348141211
 30
0.0
 10
12.6009769947
 20
8.348669469
 30
0.0
 10
12.6011789196
 20
8.3490916722
 30
0.0
 10
12.601330227
 20
8.3494094282
 30
0.0
 10
12.6014567504
 20
8.3496707144
 30
0.0
 10
12.6015569958
 20
8.3498876167
 30
0.0
 10
12.6016348395
 20
8.3500287796
 30
0.0
 10
12.601702531
 20
8.3502520614
 30
0.0
 10
12.6017963326
 20
8.3505210852
 30
0.0
 10
12.601912368
 20
8.3508672068
 30
0.0
 10
12.6020521311
 20
8.3512783401
 30
0.0
 10
12.6022383001
 20
8.3518279892
 30
0.0
 10
12.6024710736
 20
8.3525145468
 30
0.0
 10
12.6028434765
 20
8.3536133205
 30
0.0
 10
12.603308992
 20
8.354986691
 30
0.0
 10
12.6038676054
 20
8.356634777
 30
0.0
 10
12.6044262203
 20
8.358282852
 30
0.0
 10
12.6051710396
 20
8.3604802891
 30
0.0
 10
12.6061020639
 20
8.3632270841
 30
0.0
 10
12.607033088
 20
8.3659738801
 30
0.0
 10
12.6077779075
 20
8.3681713157
 30
0.0
 10
12.6083365217
 20
8.3698193952
 30
0.0
 10
12.6088951376
 20
8.3714674643
 30
0.0
 10
12.6093606455
 20
8.3728408874
 30
0.0
 10
12.6097330639
 20
8.3739395538
 30
0.0
 10
12.6099657976
 20
8.3746263846
 30
0.0
 10
12.6101520484
 20
8.3751754729
 30
0.0
 10
12.6102915616
 20
8.3755883195
 30
0.0
 10
12.610408379
 20
8.3759290805
 30
0.0
 10
12.6105005851
 20
8.3762090409
 30
0.0
 10
12.6105731491
 20
8.3763989231
 30
0.0
 10
12.6106326994
 20
8.376665482
 30
0.0
 10
12.6107166456
 20
8.3769941098
 30
0.0
 10
12.6108200187
 20
8.3774140839
 30
0.0
 10
12.610944734
 20
8.3779141195
 30
0.0
 10
12.6111107879
 20
8.3785822075
 30
0.0
 10
12.6113184351
 20
8.3794168471
 30
0.0
 10
12.611650626
 20
8.3807525334
 30
0.0
 10
12.61206588
 20
8.382422051
 30
0.0
 10
12.6125641781
 20
8.3844255108
 30
0.0
 10
12.6130624781
 20
8.3864289602
 30
0.0
 10
12.6137268773
 20
8.3891002299
 30
0.0
 10
12.614557377
 20
8.3924393148
 30
0.0
 10
12.6155539745
 20
8.3964462216
 30
0.0
 10
12.6163844787
 20
8.399785297
 30
0.0
 10
12.6170488681
 20
8.4024565874
 30
0.0
 10
12.6174641432
 20
8.4041260755
 30
0.0
 10
12.6177962906
 20
8.4054618228
 30
0.0
 10
12.6180456
 20
8.4064632037
 30
0.0
 10
12.6182527255
 20
8.4072990542
 30
0.0
 10
12.6183989543
 20
8.4078814682
 30
0.0
 10
12.6184805759
 20
8.4082184628
 30
0.0
 10
12.6185472506
 20
8.408459415
 30
0.0
 10
12.6185930602
 20
8.4087454491
 30
0.0
 10
12.6186614177
 20
8.4091111028
 30
0.0
 10
12.6187776523
 20
8.4097583235
 30
0.0
 10
12.6189454746
 20
8.4106790939
 30
0.0
 10
12.6191461025
 20
8.4117856581
 30
0.0
 10
12.6194138714
 20
8.4132605043
 30
0.0
 10
12.6197484918
 20
8.4151042581
 30
0.0
 10
12.6202839352
 20
8.4180541546
 30
0.0
 10
12.6209532223
 20
8.4217415624
 30
0.0
 10
12.6217563726
 20
8.4261664381
 30
0.0
 10
12.6225595269
 20
8.4305913089
 30
0.0
 10
12.6232288041
 20
8.4342787288
 30
0.0
 10
12.6237642673
 20
8.4372286011
 30
0.0
 10
12.624098837
 20
8.4390724166
 30
0.0
 10
12.6243667101
 20
8.4405471361
 30
0.0
 10
12.6245670198
 20
8.4416540875
 30
0.0
 10
12.6247358375
 20
8.4425736463
 30
0.0
 10
12.6248666463
 20
8.443315799
 30
0.0
 10
12.624976353
 20
8.443854637
 30
0.0
 10
12.6250417823
 20
8.4444613285
 30
0.0
 10
12.625144488
 20
8.4452465484
 30
0.0
 10
12.6252675636
 20
8.4462362053
 30
0.0
 10
12.6254175257
 20
8.4474203128
 30
0.0
 10
12.6256166818
 20
8.4490003387
 30
0.0
 10
12.6258658986
 20
8.4509749547
 30
0.0
 10
12.6262644938
 20
8.4541345728
 30
0.0
 10
12.6267627885
 20
8.4580840165
 30
0.0
 10
12.6273607265
 20
8.4628233792
 30
0.0
 10
12.6279586458
 20
8.4675627472
 30
0.0
 10
12.6284569871
 20
8.4715121776
 30
0.0
 10
12.628855489
 20
8.4746718223
 30
0.0
 10
12.6291548339
 20
8.4770412806
 30
0.0
 10
12.6294027975
 20
8.4790167049
 30
0.0
 10
12.6295792971
 20
8.4803977832
 30
0.0
 10
12.6296755867
 20
8.4811896544
 30
0.0
 10
12.6297606701
 20
8.481775998
 30
0.0
 10
12.6297965726
 20
8.4823912391
 30
0.0
 10
12.6298615975
 20
8.4832014809
 30
0.0
 10
12.6299673983
 20
8.4846241003
 30
0.0
 10
12.6301227211
 20
8.4866539583
 30
0.0
 10
12.6303073197
 20
8.489090839
 30
0.0
 10
12.6305540761
 20
8.4923396461
 30
0.0
 10
12.6308623058
 20
8.4964007811
 30
0.0
 10
12.6312322804
 20
8.5012740882
 30
0.0
 10
12.6316022042
 20
8.5061474133
 30
0.0
 10
12.631910561
 20
8.5102085032
 30
0.0
 10
12.6321570632
 20
8.5134574006
 30
0.0
 10
12.6323424375
 20
8.515894006
 30
0.0
 10
12.6324953336
 20
8.5179247252
 30
0.0
 10
12.6326054663
 20
8.5193458073
 30
0.0
 10
12.6326635504
 20
8.5201585121
 30
0.0
 10
12.6327207726
 20
8.5207661876
 30
0.0
 10
12.6327257829
 20
8.5213809465
 30
0.0
 10
12.6327506754
 20
8.5221981543
 30
0.0
 10
12.6327857518
 20
8.5236294192
 30
0.0
 10
12.6328402972
 20
8.5256734814
 30
0.0
 10
12.6329038529
 20
8.5281266137
 30
0.0
 10
12.6329892571
 20
8.5313973668
 30
0.0
 10
12.6330957846
 20
8.5354858388
 30
0.0
 10
12.6332237158
 20
8.540391993
 30
0.0
 10
12.6333516183
 20
8.5452981473
 30
0.0
 10
12.6334582178
 20
8.5493866188
 30
0.0
 10
12.633543478
 20
8.5526573728
 30
0.0
 10
12.633596807
 20
8.5547016474
 30
0.0
 10
12.6336393758
 20
8.5563369449
 30
0.0
 10
12.6336715607
 20
8.5575637526
 30
0.0
 10
12.6336975597
 20
8.5585850279
 30
0.0
 10
12.6337173717
 20
8.5593020096
 30
0.0
 10
12.6337261748
 20
8.5597084516
 30
0.0
 10
12.6337398704
 20
8.5600224717
 30
0.0
 10
12.633726452
 20
8.5603013684
 30
0.0
 10
12.6337180184
 20
8.5606854821
 30
0.0
 10
12.6336988531
 20
8.5613519728
 30
0.0
 10
12.633673778
 20
8.5623070868
 30
0.0
 10
12.6336427017
 20
8.5634519462
 30
0.0
 10
12.633601611
 20
8.5649788715
 30
0.0
 10
12.6335501298
 20
8.5668873753
 30
0.0
 10
12.6334678258
 20
8.569941067
 30
0.0
 10
12.633364923
 20
8.5737581519
 30
0.0
 10
12.63324145
 20
8.5783386676
 30
0.0
 10
12.6331179719
 20
8.5829191757
 30
0.0
 10
12.6330150819
 20
8.5867362798
 30
0.0
 10
12.6329327523
 20
8.5897899331
 30
0.0
 10
12.632881336
 20
8.5916985342
 30
0.0
 10
12.6328401121
 20
8.59322526
 30
0.0
 10
12.632809443
 20
8.5943707288
 30
0.0
 10
12.6327830936
 20
8.5953239361
 30
0.0
 10
12.6327662031
 20
8.5959938306
 30
0.0
 10
12.6327541249
 20
8.5963724906
 30
0.0
 10
12.6327519016
 20
8.5966681392
 30
0.0
 10
12.6327235499
 20
8.5969192417
 30
0.0
 10
12.6326948616
 20
8.5972695832
 30
0.0
 10
12.6326404106
 20
8.5978754412
 30
0.0
 10
12.6325648435
 20
8.5987447376
 30
0.0
 10
12.6324732127
 20
8.5997862732
 30
0.0
 10
12.6323513703
 20
8.6011755531
 30
0.0
 10
12.6321989536
 20
8.6029119594
 30
0.0
 10
12.6319551504
 20
8.6056903177
 30
0.0
 10
12.6316503746
 20
8.609163228
 30
0.0
 10
12.6312846535
 20
8.613330738
 30
0.0
 10
12.6309189275
 20
8.6174982378
 30
0.0
 10
12.6306141638
 20
8.6209711736
 30
0.0
 10
12.6303703363
 20
8.623749481
 30
0.0
 10
12.6302179815
 20
8.6254860167
 30
0.0
 10
12.630096012
 20
8.6268750308
 30
0.0
 10
12.6300047695
 20
8.6279173788
 30
0.0
 10
12.6299279877
 20
8.6287841333
 30
0.0
 10
12.6298757052
 20
8.6293945291
 30
0.0
 10
12.6298435424
 20
8.6297375999
 30
0.0
 10
12.6298258628
 20
8.6300110357
 30
0.0
 10
12.6297835571
 20
8.6302228039
 30
0.0
 10
12.6297357395
 20
8.6305266719
 30
0.0
 10
12.6296480563
 20
8.6310484189
 30
0.0
 10
12.6295248871
 20
8.6317990113
 30
0.0
 10
12.6293761884
 20
8.6326974795
 30
0.0
 10
12.6291782363
 20
8.6338962204
 30
0.0
 10
12.6289306891
 20
8.6353943784
 30
0.0
 10
12.6285346734
 20
8.637791581
 30
0.0
 10
12.6280396333
 20
8.6407880329
 30
0.0
 10
12.6274455938
 20
8.6443837968
 30
0.0
 10
12.6269505594
 20
8.6473802632
 30
0.0
 10
12.6265545311
 20
8.649777434
 30
0.0
 10
12.626257513
 20
8.6515753213
 30
0.0
 10
12.6259604829
 20
8.6533731728
 30
0.0
 10
12.6257129951
 20
8.654871494
 30
0.0
 10
12.6255149215
 20
8.656069901
 30
0.0
 10
12.625366594
 20
8.656969389
 30
0.0
 10
12.6252422633
 20
8.6577167908
 30
0.0
 10
12.6251566537
 20
8.6582442336
 30
0.0
 10
12.6251055136
 20
8.6585389754
 30
0.0
 10
12.6250734133
 20
8.6587787764
 30
0.0
 10
12.6250174044
 20
8.658946926
 30
0.0
 10
12.6249510654
 20
8.6591961183
 30
0.0
 10
12.6248310867
 20
8.6596205601
 30
0.0
 10
12.62466172
 20
8.6602329935
 30
0.0
 10
12.6244576103
 20
8.6609653078
 30
0.0
 10
12.6241857679
 20
8.661942637
 30
0.0
 10
12.6238458607
 20
8.6631639863
 30
0.0
 10
12.6234380166
 20
8.6646297393
 30
0.0
 10
12.6230301607
 20
8.6660954564
 30
0.0
 10
12.6224863569
 20
8.6680497585
 30
0.0
 10
12.6218066007
 20
8.6704926317
 30
0.0
 10
12.6211268451
 20
8.6729355067
 30
0.0
 10
12.6205830404
 20
8.674889806
 30
0.0
 10
12.6201751871
 20
8.6763555316
 30
0.0
 10
12.619767333
 20
8.6778212527
 30
0.0
 10
12.6194274571
 20
8.6790427011
 30
0.0
 10
12.6191555506
 20
8.6800198282
 30
0.0
 10
12.6189856224
 20
8.6806306046
 30
0.0
 10
12.6188496493
 20
8.6811190609
 30
0.0
 10
12.6187477528
 20
8.6814858545
 30
0.0
 10
12.6186625742
 20
8.6817900799
 30
0.0
 10
12.6186034689
 20
8.6820058556
 30
0.0
 10
12.6185688829
 20
8.6821247561
 30
0.0
 10
12.6185452298
 20
8.6822263258
 30
0.0
 10
12.6185128367
 20
8.6822805185
 30
0.0
 10
12.6184726945
 20
8.682369301
 30
0.0
 10
12.6184010253
 20
8.6825169708
 30
0.0
 10
12.6182993834
 20
8.6827319531
 30
0.0
 10
12.6181770952
 20
8.6829882089
 30
0.0
 10
12.6180141552
 20
8.683330485
 30
0.0
 10
12.6178104423
 20
8.6837581242
 30
0.0
 10
12.6174845229
 20
8.6844424619
 30
0.0
 10
12.6170771163
 20
8.6852978446
 30
0.0
 10
12.6165882315
 20
8.6863243208
 30
0.0
 10
12.6160993459
 20
8.6873507925
 30
0.0
 10
12.6154474987
 20
8.688719423
 30
0.0
 10
12.6146326897
 20
8.6904302104
 30
0.0
 10
12.6138178806
 20
8.6921409983
 30
0.0
 10
12.6131660334
 20
8.6935096281
 30
0.0
 10
12.6126771481
 20
8.6945361017
 30
0.0
 10
12.6121882621
 20
8.6955625707
 30
0.0
 10
12.6117808593
 20
8.6964179759
 30
0.0
 10
12.6114549321
 20
8.6971022678
 30
0.0
 10
12.6112512389
 20
8.6975300238
 30
0.0
 10
12.6110882585
 20
8.69787206
 30
0.0
 10
12.6109660939
 20
8.6981290488
 30
0.0
 10
12.6108640654
 20
8.6983417375
 30
0.0
 10
12.6107930862
 20
8.6984935018
 30
0.0
 10
12.6107518386
 20
8.698575724
 30
0.0
 10
12.610722841
 20
8.6986500678
 30
0.0
 10
12.6106864348
 20
8.698675953
 30
0.0
 10
12.6106404774
 20
8.6987273695
 30
0.0
 10
12.610558848
 20
8.6988094731
 30
0.0
 10
12.610442864
 20
8.6989308811
 30
0.0
 10
12.6103034137
 20
8.6990748085
 30
0.0
 10
12.6101175742
 20
8.6992673271
 30
0.0
 10
12.6098852425
 20
8.6995077647
 30
0.0
 10
12.6095135298
 20
8.6998925826
 30
0.0
 10
12.6090488828
 20
8.7003735646
 30
0.0
 10
12.608491309
 20
8.7009507603
 30
0.0
 10
12.6079337345
 20
8.7015279513
 30
0.0
 10
12.6071903021
 20
8.702297541
 30
0.0
 10
12.6062610115
 20
8.7032595275
 30
0.0
 10
12.6053317209
 20
8.7042215144
 30
0.0
 10
12.6045882884
 20
8.7049911035
 30
0.0
 10
12.6040307142
 20
8.7055682965
 30
0.0
 10
12.6034731394
 20
8.7061454847
 30
0.0
 10
12.6030084954
 20
8.70662649
 30
0.0
 10
12.6026367767
 20
8.7070112603
 30
0.0
 10
12.6024044603
 20
8.707251819
 30
0.0
 10
12.6022185893
 20
8.7074440891
 30
0.0
 10
12.6020792349
 20
8.7075887759
 30
0.0
 10
12.6019629511
 20
8.7077078077
 30
0.0
 10
12.6018818568
 20
8.7077941532
 30
0.0
 10
12.601835042
 20
8.707838773
 30
0.0
 10
12.6018012697
 20
8.7078855355
 30
0.0
 10
12.6017623795
 20
8.7078814679
 30
0.0
 10
12.601712311
 20
8.7078937746
 30
0.0
 10
12.6016238595
 20
8.7079070506
 30
0.0
 10
12.601497935
 20
8.7079303351
 30
0.0
 10
12.6013466395
 20
8.7079564279
 30
0.0
 10
12.6011449772
 20
8.7079918639
 30
0.0
 10
12.600892877
 20
8.7080359379
 30
0.0
 10
12.6004895292
 20
8.7081065799
 30
0.0
 10
12.5999853401
 20
8.7081948399
 30
0.0
 10
12.5993803151
 20
8.7083007701
 30
0.0
 10
12.5987752895
 20
8.7084066955
 30
0.0
 10
12.597968589
 20
8.708547931
 30
0.0
 10
12.5969602133
 20
8.7087244747
 30
0.0
 10
12.5959518376
 20
8.7089010189
 30
0.0
 10
12.595145137
 20
8.7090422537
 30
0.0
 10
12.5945401116
 20
8.7091481812
 30
0.0
 10
12.5939350859
 20
8.7092541036
 30
0.0
 10
12.593430899
 20
8.7093423879
 30
0.0
 10
12.5930275468
 20
8.7094129803
 30
0.0
 10
12.5927754576
 20
8.7094571803
 30
0.0
 10
12.5925737728
 20
8.7094923578
 30
0.0
 10
12.5924225459
 20
8.7095192405
 30
0.0
 10
12.5922964068
 20
8.7095400536
 30
0.0
 10
12.5922083385
 20
8.7095577414
 30
0.0
 10
12.592157656
 20
8.7095629792
 30
0.0
 10
12.592120652
 20
8.7095806252
 30
0.0
 10
12.5920797952
 20
8.7095458351
 30
0.0
 10
12.5920266633
 20
8.7095177387
 30
0.0
 10
12.5919330564
 20
8.7094600481
 30
0.0
 10
12.5917996596
 20
8.7093820884
 30
0.0
 10
12.5916394433
 20
8.7092866296
 30
0.0
 10
12.5914258706
 20
8.7091600173
 30
0.0
 10
12.5911588878
 20
8.709001524
 30
0.0
 10
12.5907317249
 20
8.708748062
 30
0.0
 10
12.5901977679
 20
8.7084311908
 30
0.0
 10
12.589557021
 20
8.7080509641
 30
0.0
 10
12.5889162737
 20
8.7076707324
 30
0.0
 10
12.5880619441
 20
8.7071637586
 30
0.0
 10
12.586994032
 20
8.7065300407
 30
0.0
 10
12.5857125376
 20
8.7057695795
 30
0.0
 10
12.5840038783
 20
8.7047556311
 30
0.0
 10
12.5827223838
 20
8.7039951699
 30
0.0
 10
12.5818680542
 20
8.7034881957
 30
0.0
  0
SPLINE
  5
3CD
100
AcDbEntity
  8
0
100
AcDbSpline
 62
7
  6
CONTINUOUS
 70
0
 71
3
 72
191
 73
187
 74
0
 42
0.0000001
 43
0.0000001
 44
0.0000000001
 40
0.0
 40
0.0
 40
0.0
 40
0.0
 40
0.015625
 40
0.03125
 40
0.0390625
 40
0.046875
 40
0.0546875
 40
0.05859375
 40
0.060546875
 40
0.0625
 40
0.064453125
 40
0.06640625
 40
0.0703125
 40
0.078125
 40
0.0859375
 40
0.09375
 40
0.1015625
 40
0.109375
 40
0.1171875
 40
0.12109375
 40
0.123046875
 40
0.125
 40
0.126953125
 40
0.12890625
 40
0.1328125
 40
0.140625
 40
0.1484375
 40
0.15625
 40
0.1640625
 40
0.171875
 40
0.1796875
 40
0.18359375
 40
0.185546875
 40
0.1875
 40
0.189453125
 40
0.19140625
 40
0.1953125
 40
0.203125
 40
0.2109375
 40
0.21875
 40
0.2265625
 40
0.234375
 40
0.2421875
 40
0.24609375
 40
0.248046875
 40
0.25
 40
0.251953125
 40
0.25390625
 40
0.2578125
 40
0.265625
 40
0.2734375
 40
0.28125
 40
0.2890625
 40
0.296875
 40
0.3046875
 40
0.30859375
 40
0.310546875
 40
0.3125
 40
0.314453125
 40
0.31640625
 40
0.3203125
 40
0.328125
 40
0.3359375
 40
0.34375
 40
0.3515625
 40
0.359375
 40
0.3671875
 40
0.37109375
 40
0.373046875
 40
0.375
 40
0.376953125
 40
0.37890625
 40
0.3828125
 40
0.390625
 40
0.3984375
 40
0.40625
 40
0.4140625
 40
0.421875
 40
0.4296875
 40
0.43359375
 40
0.435546875
 40
0.4375
 40
0.439453125
 40
0.44140625
 40
0.4453125
 40
0.453125
 40
0.4609375
 40
0.46875
 40
0.4765625
 40
0.484375
 40
0.4921875
 40
0.49609375
 40
0.498046875
 40
0.5
 40
0.501953125
 40
0.50390625
 40
0.5078125
 40
0.515625
 40
0.5234375
 40
0.53125
 40
0.5390625
 40
0.546875
 40
0.5546875
 40
0.55859375
 40
0.560546875
 40
0.5625
 40
0.564453125
 40
0.56640625
 40
0.5703125
 40
0.578125
 40
0.5859375
 40
0.59375
 40
0.6015625
 40
0.609375
 40
0.6171875
 40
0.62109375
 40
0.623046875
 40
0.625
 40
0.626953125
 40
0.62890625
 40
0.6328125
 40
0.640625
 40
0.6484375
 40
0.65625
 40
0.6640625
 40
0.671875
 40
0.6796875
 40
0.68359375
 40
0.685546875
 40
0.6875
 40
0.689453125
 40
0.69140625
 40
0.6953125
 40
0.703125
 40
0.7109375
 40
0.71875
 40
0.7265625
 40
0.734375
 40
0.7421875
 40
0.74609375
 40
0.748046875
 40
0.75
 40
0.751953125
 40
0.75390625
 40
0.7578125
 40
0.765625
 40
0.7734375
 40
0.78125
 40
0.7890625
 40
0.796875
 40
0.8046875
 40
0.80859375
 40
0.810546875
 40
0.8125
 40
0.814453125
 40
0.81640625
 40
0.8203125
 40
0.828125
 40
0.8359375
 40
0.84375
 40
0.8515625
 40
0.859375
 40
0.8671875
 40
0.87109375
 40
0.873046875
 40
0.875
 40
0.876953125
 40
0.87890625
 40
0.8828125
 40
0.890625
 40
0.8984375
 40
0.90625
 40
0.9140625
 40
0.921875
 40
0.9296875
 40
0.93359375
 40
0.935546875
 40
0.9375
 40
0.939453125
 40
0.94140625
 40
0.9453125
 40
0.953125
 40
0.9609375
 40
0.96875
 40
0.984375
 40
1.0
 40
1.0
 40
1.0
 40
1.0
 10
10.9419231996
 20
7.5524309307
 30
0.0
 10
10.941438525
 20
7.5524170202
 30
0.0
 10
10.9404691797
 20
7.5523891788
 30
0.0
 10
10.9392574782
 20
7.5523544794
 30
0.0
 10
10.9382881589
 20
7.5523265051
 30
0.0
 10
10.9375610555
 20
7.5523061073
 30
0.0
 10
10.9369554982
 20
7.5522872553
 30
0.0
 10
10.9365308974
 20
7.5522776969
 30
0.0
 10
10.9362893779
 20
7.5522665546
 30
0.0
 10
10.9361051129
 20
7.5522741994
 30
0.0
 10
10.9359327949
 20
7.5522206784
 30
0.0
 10
10.9356988703
 20
7.5521706524
 30
0.0
 10
10.935291444
 20
7.552073166
 30
0.0
 10
10.9347083902
 20
7.5519391
 30
0.0
 10
10.9340091653
 20
7.5517759811
 30
0.0
 10
10.9333098074
 20
7.5516135004
 30
0.0
 10
10.9326105421
 20
7.5514507067
 30
0.0
 10
10.9319110396
 20
7.551288527
 30
0.0
 10
10.9313288343
 20
7.5511515915
 30
0.0
 10
10.930919896
 20
7.551059218
 30
0.0
 10
10.9306883938
 20
7.5510010008
 30
0.0
 10
10.9305086352
 20
7.5509726403
 30
0.0
 10
10.9303523158
 20
7.5508857865
 30
0.0
 10
10.930135714
 20
7.5507903847
 30
0.0
 10
10.9297604704
 20
7.5506139249
 30
0.0
 10
10.9292224149
 20
7.5503668127
 30
0.0
 10
10.9285776081
 20
7.5500681359
 30
0.0
 10
10.9279325514
 20
7.5497700704
 30
0.0
 10
10.9272876346
 20
7.549471702
 30
0.0
 10
10.9266424081
 20
7.549173934
 30
0.0
 10
10.9261056352
 20
7.5489240451
 30
0.0
 10
10.9257281063
 20
7.5487525328
 30
0.0
 10
10.9255151658
 20
7.5486492048
 30
0.0
 10
10.9253476002
 20
7.5485866976
 30
0.0
 10
10.9252100802
 20
7.5484668958
 30
0.0
 10
10.92501624
 20
7.5483271452
 30
0.0
 10
10.9246819028
 20
7.5480732698
 30
0.0
 10
10.924201723
 20
7.5477154615
 30
0.0
 10
10.9236266111
 20
7.5472839957
 30
0.0
 10
10.9230511721
 20
7.5468531199
 30
0.0
 10
10.9224759377
 20
7.5464219799
 30
0.0
 10
10.9219002119
 20
7.5459913068
 30
0.0
 10
10.921421908
 20
7.5456310764
 30
0.0
 10
10.9210842282
 20
7.5453815168
 30
0.0
 10
10.9208957431
 20
7.5452348521
 30
0.0
 10
10.9207417742
 20
7.5451362878
 30
0.0
 10
10.9206359881
 20
7.5449940163
 30
0.0
 10
10.9204781332
 20
7.5448195666
 30
0.0
 10
10.9202097181
 20
7.5445071761
 30
0.0
 10
10.9198221713
 20
7.5440646199
 30
0.0
 10
10.9193588803
 20
7.5435319528
 30
0.0
 10
10.918895083
 20
7.5429997388
 30
0.0
 10
10.9184315455
 20
7.5424673118
 30
0.0
 10
10.9179674753
 20
7.541935284
 30
0.0
 10
10.9175823096
 20
7.5414907741
 30
0.0
 10
10.9173096516
 20
7.5411818647
 30
0.0
 10
10.917158594
 20
7.5410018381
 30
0.0
 10
10.9170319292
 20
7.540876697
 30
0.0
 10
10.9169563772
 20
7.5407137941
 30
0.0
 10
10.9168378125
 20
7.540509762
 30
0.0
 10
10.9166386313
 20
7.5401465686
 30
0.0
 10
10.9163497407
 20
7.5396309312
 30
0.0
 10
10.9160049452
 20
7.5390107852
 30
0.0
 10
10.9156596108
 20
7.5383910272
 30
0.0
 10
10.9153145587
 20
7.5377710982
 30
0.0
 10
10.9149689163
 20
7.537151465
 30
0.0
 10
10.9146826132
 20
7.5366342607
 30
0.0
 10
10.9144788216
 20
7.5362738592
 30
0.0
 10
10.914367643
 20
7.5360653545
 30
0.0
 10
10.9142694034
 20
7.5359161899
 30
0.0
 10
10.9142279493
 20
7.5357394498
 30
0.0
 10
10.9141528698
 20
7.535513415
 30
0.0
 10
10.9140307096
 20
7.5351133724
 30
0.0
 10
10.9138513668
 20
7.5345442273
 30
0.0
 10
10.913638236
 20
7.5338602444
 30
0.0
 10
10.9134245084
 20
7.533176546
 30
0.0
 10
10.9132110872
 20
7.532492718
 30
0.0
 10
10.9129970375
 20
7.5318091239
 30
0.0
 10
10.9128205022
 20
7.5312387905
 30
0.0
 10
10.9126933397
 20
7.5308408652
 30
0.0
 10
10.9126262741
 20
7.5306114385
 30
0.0
 10
10.9125602038
 20
7.5304451173
 30
0.0
 10
10.9125544188
 20
7.5302568209
 30
0.0
 10
10.9125256772
 20
7.5300134242
 30
0.0
 10
10.9124851774
 20
7.5295839086
 30
0.0
 10
10.9124221947
 20
7.5289721822
 30
0.0
 10
10.912348824
 20
7.5282373103
 30
0.0
 10
10.9122748207
 20
7.527502652
 30
0.0
 10
10.912201139
 20
7.5267679393
 30
0.0
 10
10.9121268036
 20
7.5260332305
 30
0.0
 10
10.9120667682
 20
7.5254210057
 30
0.0
 10
10.912021017
 20
7.5249923784
 30
0.0
 10
10.9120006883
 20
7.5247475585
 30
0.0
 10
10.9119690617
 20
7.5245636336
 30
0.0
 10
10.9120000483
 20
7.5243808939
 30
0.0
 10
10.9120195236
 20
7.5241368276
 30
0.0
 10
10.9120637814
 20
7.5237099042
 30
0.0
 10
10.9121216834
 20
7.5230999126
 30
0.0
 10
10.9121934586
 20
7.5223679674
 30
0.0
 10
10.9122645802
 20
7.5216360051
 30
0.0
 10
10.9123360235
 20
7.5209040663
 30
0.0
 10
10.9124068337
 20
7.5201720508
 30
0.0
 10
10.9124676842
 20
7.5195622738
 30
0.0
 10
10.9125066884
 20
7.5191349681
 30
0.0
 10
10.9125345802
 20
7.5188915143
 30
0.0
 10
10.9125397142
 20
7.5187068931
 30
0.0
 10
10.9126051855
 20
7.5185300347
 30
0.0
 10
10.9126714343
 20
7.5182915158
 30
0.0
 10
10.9127971758
 20
7.5178753693
 30
0.0
 10
10.9129716767
 20
7.5172802138
 30
0.0
 10
10.913183287
 20
7.5165663137
 30
0.0
 10
10.9133942683
 20
7.5158523242
 30
0.0
 10
10.9136055562
 20
7.515138406
 30
0.0
 10
10.9138162466
 20
7.5144242921
 30
0.0
 10
10.9139935582
 20
7.5138297902
 30
0.0
 10
10.9141142917
 20
7.513412479
 30
0.0
 10
10.9141885636
 20
7.513175826
 30
0.0
 10
10.9142293904
 20
7.512993236
 30
0.0
 10
10.9143270849
 20
7.5128301415
 30
0.0
 10
10.9144375082
 20
7.5126058818
 30
0.0
 10
10.9146399912
 20
7.512216596
 30
0.0
 10
10.9149244177
 20
7.5116588155
 30
0.0
 10
10.9152678119
 20
7.5109901942
 30
0.0
 10
10.9156106123
 20
7.5103213642
 30
0.0
 10
10.9159537058
 20
7.5096526538
 30
0.0
 10
10.9162962204
 20
7.5089836738
 30
0.0
 10
10.9165833347
 20
7.5084269895
 30
0.0
 10
10.9167810286
 20
7.5080357504
 30
0.0
 10
10.9168991241
 20
7.5078146199
 30
0.0
 10
10.9169732521
 20
7.5076419136
 30
0.0
 10
10.9171025909
 20
7.5074954239
 30
0.0
 10
10.9172557844
 20
7.5072909597
 30
0.0
 10
10.9175328461
 20
7.5069374083
 30
0.0
 10
10.917923955
 20
7.5064301049
 30
0.0
 10
10.918395305
 20
7.5058223048
 30
0.0
 10
10.9188660876
 20
7.5052142169
 30
0.0
 10
10.9193371202
 20
7.5046063163
 30
0.0
 10
10.9198077201
 20
7.5039979543
 30
0.0
 10
10.920201121
 20
7.503492368
 30
0.0
 10
10.9204740988
 20
7.5031357571
 30
0.0
 10
10.9206338349
 20
7.5029361942
 30
0.0
 10
10.920743077
 20
7.5027746493
 30
0.0
 10
10.9208926848
 20
7.5026584879
 30
0.0
 10
10.9210780818
 20
7.5024877757
 30
0.0
 10
10.9214090869
 20
7.5021964054
 30
0.0
 10
10.9218785196
 20
7.5017763032
 30
0.0
 10
10.9224433161
 20
7.5012738434
 30
0.0
 10
10.9230076944
 20
7.5007709064
 30
0.0
 10
10.9235722679
 20
7.5002682156
 30
0.0
 10
10.9241364791
 20
7.4997650172
 30
0.0
 10
10.9246077003
 20
7.4993471722
 30
0.0
 10
10.9249355186
 20
7.49905178
 30
0.0
 10
10.9251260211
 20
7.4988875109
 30
0.0
 10
10.9252599465
 20
7.4987515584
 30
0.0
 10
10.9254280889
 20
7.4986643457
 30
0.0
 10
10.9256403435
 20
7.498531061
 30
0.0
 10
10.9260173501
 20
7.4983057344
 30
0.0
 10
10.9265530222
 20
7.4979796948
 30
0.0
 10
10.9271970798
 20
7.4975902337
 30
0.0
 10
10.9278407869
 20
7.4972002581
 30
0.0
 10
10.9284846452
 20
7.4968105542
 30
0.0
 10
10.9291282488
 20
7.4964202778
 30
0.0
 10
10.9296653083
 20
7.4960967295
 30
0.0
 10
10.9300398428
 20
7.4958669639
 30
0.0
 10
10.9302560578
 20
7.4957407907
 30
0.0
 10
10.9304120353
 20
7.495631734
 30
0.0
 10
10.9305916503
 20
7.4955778236
 30
0.0
 10
10.9308228918
 20
7.4954867074
 30
0.0
 10
10.9312314063
 20
7.4953362166
 30
0.0
 10
10.9318129888
 20
7.495116541
 30
0.0
 10
10.9325117525
 20
7.4948549507
 30
0.0
 10
10.9332102729
 20
7.4945927806
 30
0.0
 10
10.9339089017
 20
7.4943309093
 30
0.0
 10
10.9346073402
 20
7.4940684228
 30
0.0
 10
10.9351899163
 20
7.4938514857
 30
0.0
 10
10.9355966604
 20
7.4936961153
 30
0.0
 10
10.9358307382
 20
7.4936128164
 30
0.0
 10
10.9360016413
 20
7.4935348939
 30
0.0
 10
10.936190339
 20
7.4935160227
 30
0.0
 10
10.9364357291
 20
7.4934702633
 30
0.0
 10
10.9368680535
 20
7.4933997813
 30
0.0
 10
10.937484148
 20
7.4932940753
 30
0.0
 10
10.9382241085
 20
7.4931693758
 30
0.0
 10
10.9392104964
 20
7.4930023594
 30
0.0
 10
10.9404435594
 20
7.492793848
 30
0.0
 10
10.941429986
 20
7.4926269599
 30
0.0
 10
10.9419232023
 20
7.4925435257
 30
0.0
  0
SPLINE
  5
3CE
100
AcDbEntity
  8
0
100
AcDbSpline
 62
7
  6
CONTINUOUS
 70
0
 71
3
 72
191
 73
187
 74
0
 42
0.0000001
 43
0.0000001
 44
0.0000000001
 40
0.0
 40
0.0
 40
0.0
 40
0.0
 40
0.015625
 40
0.03125
 40
0.0390625
 40
0.046875
 40
0.0546875
 40
0.05859375
 40
0.060546875
 40
0.0625
 40
0.064453125
 40
0.06640625
 40
0.0703125
 40
0.078125
 40
0.0859375
 40
0.09375
 40
0.1015625
 40
0.109375
 40
0.1171875
 40
0.12109375
 40
0.123046875
 40
0.125
 40
0.126953125
 40
0.12890625
 40
0.1328125
 40
0.140625
 40
0.1484375
 40
0.15625
 40
0.1640625
 40
0.171875
 40
0.1796875
 40
0.18359375
 40
0.185546875
 40
0.1875
 40
0.189453125
 40
0.19140625
 40
0.1953125
 40
0.203125
 40
0.2109375
 40
0.21875
 40
0.2265625
 40
0.234375
 40
0.2421875
 40
0.24609375
 40
0.248046875
 40
0.25
 40
0.251953125
 40
0.25390625
 40
0.2578125
 40
0.265625
 40
0.2734375
 40
0.28125
 40
0.2890625
 40
0.296875
 40
0.3046875
 40
0.30859375
 40
0.310546875
 40
0.3125
 40
0.314453125
 40
0.31640625
 40
0.3203125
 40
0.328125
 40
0.3359375
 40
0.34375
 40
0.3515625
 40
0.359375
 40
0.3671875
 40
0.37109375
 40
0.373046875
 40
0.375
 40
0.376953125
 40
0.37890625
 40
0.3828125
 40
0.390625
 40
0.3984375
 40
0.40625
 40
0.4140625
 40
0.421875
 40
0.4296875
 40
0.43359375
 40
0.435546875
 40
0.4375
 40
0.439453125
 40
0.44140625
 40
0.4453125
 40
0.453125
 40
0.4609375
 40
0.46875
 40
0.4765625
 40
0.484375
 40
0.4921875
 40
0.49609375
 40
0.498046875
 40
0.5
 40
0.501953125
 40
0.50390625
 40
0.5078125
 40
0.515625
 40
0.5234375
 40
0.53125
 40
0.5390625
 40
0.546875
 40
0.5546875
 40
0.55859375
 40
0.560546875
 40
0.5625
 40
0.564453125
 40
0.56640625
 40
0.5703125
 40
0.578125
 40
0.5859375
 40
0.59375
 40
0.6015625
 40
0.609375
 40
0.6171875
 40
0.62109375
 40
0.623046875
 40
0.625
 40
0.626953125
 40
0.62890625
 40
0.6328125
 40
0.640625
 40
0.6484375
 40
0.65625
 40
0.6640625
 40
0.671875
 40
0.6796875
 40
0.68359375
 40
0.685546875
 40
0.6875
 40
0.689453125
 40
0.69140625
 40
0.6953125
 40
0.703125
 40
0.7109375
 40
0.71875
 40
0.7265625
 40
0.734375
 40
0.7421875
 40
0.74609375
 40
0.748046875
 40
0.75
 40
0.751953125
 40
0.75390625
 40
0.7578125
 40
0.765625
 40
0.7734375
 40
0.78125
 40
0.7890625
 40
0.796875
 40
0.8046875
 40
0.80859375
 40
0.810546875
 40
0.8125
 40
0.814453125
 40
0.81640625
 40
0.8203125
 40
0.828125
 40
0.8359375
 40
0.84375
 40
0.8515625
 40
0.859375
 40
0.8671875
 40
0.87109375
 40
0.873046875
 40
0.875
 40
0.876953125
 40
0.87890625
 40
0.8828125
 40
0.890625
 40
0.8984375
 40
0.90625
 40
0.9140625
 40
0.921875
 40
0.9296875
 40
0.93359375
 40
0.935546875
 40
0.9375
 40
0.939453125
 40
0.94140625
 40
0.9453125
 40
0.953125
 40
0.9609375
 40
0.96875
 40
0.984375
 40
1.0
 40
1.0
 40
1.0
 40
1.0
 10
10.9419231996
 20
7.4925435259
 30
0.0
 10
10.9424078743
 20
7.4925574364
 30
0.0
 10
10.9433772195
 20
7.4925852778
 30
0.0
 10
10.9445889211
 20
7.4926199772
 30
0.0
 10
10.9455582404
 20
7.4926479516
 30
0.0
 10
10.9462853438
 20
7.4926683493
 30
0.0
 10
10.9468909011
 20
7.4926872013
 30
0.0
 10
10.9473155019
 20
7.4926967597
 30
0.0
 10
10.9475570214
 20
7.492707902
 30
0.0
 10
10.9477412864
 20
7.4927002572
 30
0.0
 10
10.9479136044
 20
7.4927537782
 30
0.0
 10
10.948147529
 20
7.4928038042
 30
0.0
 10
10.9485549553
 20
7.4929012907
 30
0.0
 10
10.9491380091
 20
7.4930353566
 30
0.0
 10
10.9498372339
 20
7.4931984755
 30
0.0
 10
10.9505365918
 20
7.4933609562
 30
0.0
 10
10.9512358572
 20
7.4935237499
 30
0.0
 10
10.9519353597
 20
7.4936859296
 30
0.0
 10
10.9525175649
 20
7.4938228651
 30
0.0
 10
10.9529265033
 20
7.4939152386
 30
0.0
 10
10.9531580055
 20
7.4939734558
 30
0.0
 10
10.9533377641
 20
7.4940018164
 30
0.0
 10
10.9534940835
 20
7.4940886701
 30
0.0
 10
10.9537106853
 20
7.4941840719
 30
0.0
 10
10.9540859289
 20
7.4943605317
 30
0.0
 10
10.9546239844
 20
7.4946076439
 30
0.0
 10
10.9552687911
 20
7.4949063207
 30
0.0
 10
10.9559138479
 20
7.4952043862
 30
0.0
 10
10.9565587647
 20
7.4955027546
 30
0.0
 10
10.9572039912
 20
7.4958005226
 30
0.0
 10
10.957740764
 20
7.4960504115
 30
0.0
 10
10.958118293
 20
7.4962219238
 30
0.0
 10
10.9583312335
 20
7.4963252518
 30
0.0
 10
10.9584987991
 20
7.496387759
 30
0.0
 10
10.9586363191
 20
7.4965075608
 30
0.0
 10
10.9588301593
 20
7.4966473114
 30
0.0
 10
10.9591644964
 20
7.4969011868
 30
0.0
 10
10.9596446763
 20
7.4972589951
 30
0.0
 10
10.9602197882
 20
7.4976904609
 30
0.0
 10
10.9607952272
 20
7.4981213367
 30
0.0
 10
10.9613704616
 20
7.4985524767
 30
0.0
 10
10.9619461874
 20
7.4989831498
 30
0.0
 10
10.9624244913
 20
7.4993433802
 30
0.0
 10
10.9627621711
 20
7.4995929399
 30
0.0
 10
10.9629506562
 20
7.4997396045
 30
0.0
 10
10.9631046251
 20
7.4998381688
 30
0.0
 10
10.9632104112
 20
7.4999804403
 30
0.0
 10
10.9633682661
 20
7.50015489
 30
0.0
 10
10.9636366811
 20
7.5004672805
 30
0.0
 10
10.964024228
 20
7.5009098367
 30
0.0
 10
10.964487519
 20
7.5014425039
 30
0.0
 10
10.9649513163
 20
7.5019747178
 30
0.0
 10
10.9654148537
 20
7.5025071449
 30
0.0
 10
10.965878924
 20
7.5030391726
 30
0.0
 10
10.9662640897
 20
7.5034836825
 30
0.0
 10
10.9665367477
 20
7.5037925919
 30
0.0
 10
10.9666878053
 20
7.5039726185
 30
0.0
 10
10.9668144701
 20
7.5040977596
 30
0.0
 10
10.9668900221
 20
7.5042606625
 30
0.0
 10
10.9670085868
 20
7.5044646946
 30
0.0
 10
10.967207768
 20
7.504827888
 30
0.0
 10
10.9674966586
 20
7.5053435254
 30
0.0
 10
10.9678414541
 20
7.5059636714
 30
0.0
 10
10.9681867885
 20
7.5065834294
 30
0.0
 10
10.9685318406
 20
7.5072033584
 30
0.0
 10
10.968877483
 20
7.5078229916
 30
0.0
 10
10.9691637861
 20
7.5083401959
 30
0.0
 10
10.9693675777
 20
7.5087005974
 30
0.0
 10
10.9694787563
 20
7.5089091021
 30
0.0
 10
10.9695769959
 20
7.5090582667
 30
0.0
 10
10.96961845
 20
7.5092350068
 30
0.0
 10
10.9696935295
 20
7.5094610416
 30
0.0
 10
10.9698156897
 20
7.5098610842
 30
0.0
 10
10.9699950325
 20
7.5104302293
 30
0.0
 10
10.9702081633
 20
7.5111142123
 30
0.0
 10
10.9704218908
 20
7.5117979106
 30
0.0
 10
10.9706353121
 20
7.5124817386
 30
0.0
 10
10.9708493618
 20
7.5131653327
 30
0.0
 10
10.9710258971
 20
7.5137356661
 30
0.0
 10
10.9711530596
 20
7.5141335914
 30
0.0
 10
10.9712201252
 20
7.5143630182
 30
0.0
 10
10.9712861955
 20
7.5145293393
 30
0.0
 10
10.9712919805
 20
7.5147176357
 30
0.0
 10
10.971320722
 20
7.5149610324
 30
0.0
 10
10.9713612219
 20
7.515390548
 30
0.0
 10
10.9714242045
 20
7.5160022744
 30
0.0
 10
10.9714975753
 20
7.5167371463
 30
0.0
 10
10.9715715786
 20
7.5174718046
 30
0.0
 10
10.9716452603
 20
7.5182065173
 30
0.0
 10
10.9717195956
 20
7.5189412261
 30
0.0
 10
10.9717796311
 20
7.5195534509
 30
0.0
 10
10.9718253823
 20
7.5199820782
 30
0.0
 10
10.9718457109
 20
7.5202268981
 30
0.0
 10
10.9718773376
 20
7.520410823
 30
0.0
 10
10.971846351
 20
7.5205935627
 30
0.0
 10
10.9718268757
 20
7.520837629
 30
0.0
 10
10.9717826179
 20
7.5212645524
 30
0.0
 10
10.9717247159
 20
7.521874544
 30
0.0
 10
10.9716529407
 20
7.5226064892
 30
0.0
 10
10.9715818191
 20
7.5233384515
 30
0.0
 10
10.9715103758
 20
7.5240703903
 30
0.0
 10
10.9714395655
 20
7.5248024058
 30
0.0
 10
10.9713787151
 20
7.5254121828
 30
0.0
 10
10.9713397108
 20
7.5258394885
 30
0.0
 10
10.9713118191
 20
7.5260829423
 30
0.0
 10
10.9713066851
 20
7.5262675635
 30
0.0
 10
10.9712412138
 20
7.5264444219
 30
0.0
 10
10.971174965
 20
7.5266829409
 30
0.0
 10
10.9710492235
 20
7.5270990874
 30
0.0
 10
10.9708747226
 20
7.5276942429
 30
0.0
 10
10.9706631123
 20
7.5284081429
 30
0.0
 10
10.970452131
 20
7.5291221324
 30
0.0
 10
10.9702408431
 20
7.5298360506
 30
0.0
 10
10.9700301526
 20
7.5305501646
 30
0.0
 10
10.9698528411
 20
7.5311446664
 30
0.0
 10
10.9697321076
 20
7.5315619776
 30
0.0
 10
10.9696578357
 20
7.5317986306
 30
0.0
 10
10.9696170089
 20
7.5319812206
 30
0.0
 10
10.9695193144
 20
7.5321443151
 30
0.0
 10
10.9694088911
 20
7.5323685748
 30
0.0
 10
10.9692064081
 20
7.5327578606
 30
0.0
 10
10.9689219816
 20
7.5333156411
 30
0.0
 10
10.9685785874
 20
7.5339842624
 30
0.0
 10
10.968235787
 20
7.5346530924
 30
0.0
 10
10.9678926935
 20
7.5353218028
 30
0.0
 10
10.9675501788
 20
7.5359907828
 30
0.0
 10
10.9672630646
 20
7.5365474671
 30
0.0
 10
10.9670653706
 20
7.5369387062
 30
0.0
 10
10.9669472752
 20
7.5371598367
 30
0.0
 10
10.9668731472
 20
7.537332543
 30
0.0
 10
10.9667438084
 20
7.5374790327
 30
0.0
 10
10.9665906149
 20
7.5376834969
 30
0.0
 10
10.9663135532
 20
7.5380370483
 30
0.0
 10
10.9659224442
 20
7.5385443517
 30
0.0
 10
10.9654510943
 20
7.5391521518
 30
0.0
 10
10.9649803117
 20
7.5397602397
 30
0.0
 10
10.964509279
 20
7.5403681403
 30
0.0
 10
10.9640386792
 20
7.5409765023
 30
0.0
 10
10.9636452783
 20
7.5414820886
 30
0.0
 10
10.9633723005
 20
7.5418386995
 30
0.0
 10
10.9632125644
 20
7.5420382624
 30
0.0
 10
10.9631033223
 20
7.5421998073
 30
0.0
 10
10.9629537145
 20
7.5423159687
 30
0.0
 10
10.9627683175
 20
7.5424866809
 30
0.0
 10
10.9624373124
 20
7.5427780512
 30
0.0
 10
10.9619678797
 20
7.5431981534
 30
0.0
 10
10.9614030832
 20
7.5437006132
 30
0.0
 10
10.9608387048
 20
7.5442035502
 30
0.0
 10
10.9602741313
 20
7.544706241
 30
0.0
 10
10.9597099202
 20
7.5452094394
 30
0.0
 10
10.959238699
 20
7.5456272844
 30
0.0
 10
10.9589108807
 20
7.5459226766
 30
0.0
 10
10.9587203782
 20
7.5460869457
 30
0.0
 10
10.9585864528
 20
7.5462228982
 30
0.0
 10
10.9584183104
 20
7.5463101109
 30
0.0
 10
10.9582060558
 20
7.5464433956
 30
0.0
 10
10.9578290492
 20
7.5466687222
 30
0.0
 10
10.9572933771
 20
7.5469947618
 30
0.0
 10
10.9566493195
 20
7.5473842229
 30
0.0
 10
10.9560056124
 20
7.5477741985
 30
0.0
 10
10.955361754
 20
7.5481639024
 30
0.0
 10
10.9547181504
 20
7.5485541788
 30
0.0
 10
10.954181091
 20
7.5488777271
 30
0.0
 10
10.9538065565
 20
7.5491074927
 30
0.0
 10
10.9535903415
 20
7.5492336659
 30
0.0
 10
10.953434364
 20
7.5493427226
 30
0.0
 10
10.953254749
 20
7.549396633
 30
0.0
 10
10.9530235074
 20
7.5494877492
 30
0.0
 10
10.952614993
 20
7.54963824
 30
0.0
 10
10.9520334105
 20
7.5498579156
 30
0.0
 10
10.9513346468
 20
7.5501195059
 30
0.0
 10
10.9506361264
 20
7.550381676
 30
0.0
 10
10.9499374976
 20
7.5506435473
 30
0.0
 10
10.9492390591
 20
7.5509060338
 30
0.0
 10
10.9486564829
 20
7.5511229709
 30
0.0
 10
10.9482497389
 20
7.5512783413
 30
0.0
 10
10.9480156611
 20
7.5513616402
 30
0.0
 10
10.947844758
 20
7.5514395627
 30
0.0
 10
10.9476560602
 20
7.5514584339
 30
0.0
 10
10.9474106702
 20
7.5515041933
 30
0.0
 10
10.9469783457
 20
7.5515746753
 30
0.0
 10
10.9463622513
 20
7.5516803813
 30
0.0
 10
10.9456222908
 20
7.5518050808
 30
0.0
 10
10.9446359029
 20
7.5519720972
 30
0.0
 10
10.9434028399
 20
7.5521806086
 30
0.0
 10
10.9424164133
 20
7.5523474967
 30
0.0
 10
10.941923197
 20
7.5524309309
 30
0.0
  0
ENDSEC
  0
SECTION
  2
OBJECTS
  0
DICTIONARY
  5
C
100
AcDbDictionary
280
0
281
1
  3
ACAD_GROUP
350
D
  3
ACAD_MLINESTYLE
350
17
  3
ACAD_LAYOUT
350
1A
  3
ACAD_PLOTSETTINGS
350
19
  3
ACAD_PLOTSTYLENAME
350
E
  3
ACAD_IMAGE_DICT
350
       3D0
  3
ACAD_IMAGE_VARS
350
       3D1
  3
ACAD_TABLESTYLE
350
       3D2
  0
IMAGEDEF_REACTOR
  5
3CF
100
AcDbRasterImageDefReactor
 90
2
330
285
  0
DICTIONARY
  5
D
102
{ACAD_REACTORS
330
C
102
}
100
AcDbDictionary
280
0
281
1
  0
ACDBDICTIONARYWDFLT
  5
E
102
{ACAD_REACTORS
330
C
102
}
100
AcDbDictionary
281
1
  3
Normal
350
F
100
AcDbDictionaryWithDefault
340
F
  0
DICTIONARY
  5
3D0
330
C
100
AcDbDictionary
281
1
  3
U2P_assy_2_img_1
350
       3D5
  0
RASTERVARIABLES
  5
3D1
330
C
100
AcDbRasterVariables
 90
0
 70
0
 71
1
 72
5
  0
DICTIONARY
  5
17
102
{ACAD_REACTORS
330
C
102
}
100
AcDbDictionary
280
0
281
1
  3
Standard
350
18
  0
DICTIONARY
  5
3D2
330
C
100
AcDbDictionary
281
1
  3
Standard
350
       3D6
  3
Standard1
350
       3D7
  0
DICTIONARY
  5
19
102
{ACAD_REACTORS
330
C
102
}
100
AcDbDictionary
281
1
  0
DICTIONARY
  5
1A
102
{ACAD_REACTORS
330
C
102
}
100
AcDbDictionary
281
1
  3
Model
350
3D3
  3
Layout1
350
3D4
  0
ACDBPLACEHOLDER
  5
F
102
{ACAD_REACTORS
330
E
102
}
  0
MLINESTYLE
  5
18
102
{ACAD_REACTORS
330
17
102
}
100
AcDbMlineStyle
  2
STANDARD
 70
0
  3

 62
256
 51
90.0
 52
90.0
 71
2
 49
0.5
 62
256
  6
BYLAYER
 49
-0.5
 62
256
  6
BYLAYER
  0
LAYOUT
  5
3D3
102
{ACAD_REACTORS
330
1A
102
}
100
AcDbPlotSettings
  1

  2
none_device
  4
ANSI_C_(22.00_x_17.00_Inches)
  6

 40
0.0
 41
0.0
 42
0.0
 43
0.0
 44
558.8
 45
431.8
 46
0.0
 47
0.0
 48
0.0
 49
0.0
140
0.0
141
0.0
142
1.0
143
1.0
 70
1024
 72
0
 73
0
 74
0
  7

 75
0
147
1.0
148
0.0
149
0.0
100
AcDbLayout
  1
Model
 70
0
 71
0
 10
0.0
 20
0.0
 11
22.0
 21
17.0
 12
0.0
 22
0.0
 32
0.0
 14
0.0
 24
0.0
 34
0.0
 15
0.0
 25
0.0
 35
0.0
146
0.0
 13
0.0
 23
0.0
 33
0.0
 16
1.0
 26
0.0
 36
0.0
 17
0.0
 27
1.0
 37
0.0
 76
0
330
207
345
0
346
0
  0
LAYOUT
  5
3D4
102
{ACAD_REACTORS
330
1A
102
}
100
AcDbPlotSettings
  1

  2
none_device
  4
ANSI_C_(22.00_x_17.00_Inches)
  6

 40
0.0
 41
0.0
 42
0.0
 43
0.0
 44
558.8
 45
431.8
 46
0.0
 47
0.0
 48
0.0
 49
0.0
140
0.0
141
0.0
142
1.0
143
1.0
 70
0
 72
0
 73
0
 74
0
  7

 75
0
147
1.0
148
0.0
149
0.0
100
AcDbLayout
  1
Layout1
 70
0
 71
1
 10
0.0
 20
0.0
 11
22.0
 21
17.0
 12
0.0
 22
0.0
 32
0.0
 14
0.0
 24
0.0
 34
0.0
 15
0.0
 25
0.0
 35
0.0
146
0.0
 13
0.0
 23
0.0
 33
0.0
 16
1.0
 26
0.0
 36
0.0
 17
0.0
 27
1.0
 37
0.0
 76
0
330
208
345
0
346
0
  0
IMAGEDEF
  5
3D5
102
{ACAD_REACTORS
330
3D0
330
3CF
102
}
100
AcDbRasterImageDef
 90
0
  1
U2P_assy_2_img_1.png
 10
369.0
 20
92.0
 11
0.0066666667
 21
0.0066666667
280
1
281
0
  0
TABLESTYLE
  5
3D6
102
{ACAD_REACTORS
330
3D2
330
288
330
289
102
}
330
3D2
100
AcDbTableStyle
  3
Standard
 70
0
 71
0
 40
0.06
 41
0.06
280
1
281
1
  7
Standard
140
0.18
170
1
 62
0
 63
7
283
0
  7
Standard
140
0.18
170
1
 62
0
 63
7
283
0
  7
Standard
140
0.18
170
1
 62
0
 63
7
283
0
  0
TABLESTYLE
  5
3D7
102
{ACAD_REACTORS
330
3D2
330
287
102
}
330
3D2
100
AcDbTableStyle
  3
Standard1
 70
1
 71
0
 40
0.06
 41
0.06
280
1
281
1
  7
Standard
140
0.18
170
1
 62
0
 63
7
283
0
  7
Standard
140
0.18
170
1
 62
0
 63
7
283
0
  7
Standard
140
0.18
170
1
 62
0
 63
7
283
0
  0
ENDSEC
  0
EOF
