999
DXF file: Q4N_assy_2.dxf
999
Pro/ENGINEER 2014200 by Parametric Technology Corporation
  0
SECTION
  2
HEADER
  9
$ACADVER
  1
AC1021
  9
$DWGCODEPAGE
  3
ANSI_1252
  9
$EXTMAX
 10
22.0
 20
17.0
 30
0.0
  9
$EXTMIN
 10
0.0
 20
0.0
 30
0.0
  9
$LIMMIN
 10
0.0
 20
0.0
  9
$LIMMAX
 10
22.0
 20
17.0
  9
$VIEWCTR
 10
11.0
 20
8.5
  9
$VIEWSIZE
 40
17.0
  9
$CLAYER
  8
0
  9
$LTSCALE
 40
1.21
  9
$CELTYPE
  6
BYLAYER
  9
$DIMSCALE
 40
1.0
  9
$DIMASZ
 40
0.1875
  9
$DIMEXO
 40
0.0625
  9
$DIMDLI
 40
0.836
  9
$DIMEXE
 40
0.125
  9
$DIMCEN
 40
0.198
  9
$DIMLFAC
 40
1.0
  9
$DIMBLK
  1
_FILLED
  9
$DIMTXT
 40
0.1
  9
$DIMTOL
 70
0
  9
$DIMLIM
 70
0
  9
$DIMTFAC
 40
1.0
  9
$DIMGAP
 40
0.09
  9
$DIMDSEP
 70
46
  9
$AUNITS
 70
0
  9
$PDMODE
 70
3
  9
$PDSIZE
 40
0.3125
  9
$HANDSEED
  5
3A9
  9
$TILEMODE
 70
1
  9
$MEASUREMENT
 70
0
  9
$INSUNITS
 70
1
  0
ENDSEC
  0
SECTION
  2
CLASSES
  0
CLASS
  1
ACDBDICTIONARYWDFLT
  2
AcDbDictionaryWithDefault
  3
AutoCAD 2000
 90
0
 91
1
280
0
281
0
  0
CLASS
  1
ACDBPLACEHOLDER
  2
AcDbPlaceHolder
  3
AutoCAD 2000
 90
0
 91
1
280
0
281
0
  0
CLASS
  1
LAYOUT
  2
AcDbLayout
  3
AutoCAD 2000
 90
0
 91
0
280
0
281
0
  0
CLASS
  1
RASTERVARIABLES
  2
AcDbRasterVariables
  3
ISM
 90
0
 91
1
280
0
281
0
  0
CLASS
  1
IMAGEDEF
  2
AcDbRasterImageDef
  3
ISM
 90
0
 91
1
280
0
281
0
  0
CLASS
  1
IMAGEDEF_REACTOR
  2
AcDbRasterImageDefReactor
  3
ISM
 90
0
 91
1
280
0
281
0
  0
CLASS
  1
IMAGE
  2
AcDbRasterImage
  3
ISM
 90
127
 91
1
280
0
281
1
  0
CLASS
  1
TABLESTYLE
  2
AcDbTableStyle
  3
ObjectDBX Classes
 90
2047
 91
1
280
0
281
0
  0
CLASS
  1
ACAD_TABLE
  2
AcDbTable
  3
ObjectDBX Classes
 90
1025
 91
3
280
0
281
1
  0
ENDSEC
  0
SECTION
  2
TABLES
  0
TABLE
  2
VPORT
  5
8
100
AcDbSymbolTable
 70
2
  0
VPORT
  5
1F4
100
AcDbSymbolTableRecord
100
AcDbViewportTableRecord
  2
*ACTIVE
 70
0
 10
0.0
 20
0.0
 11
1.0
 21
1.0
 12
11.0
 22
8.5
 13
0.0
 23
0.0
 14
1.0
 24
1.0
 15
0.0
 25
0.0
 16
0.0
 26
0.0
 36
1.0
 17
0.0
 27
0.0
 37
0.0
 40
17.0
 41
1.2941176471
 42
50.0
 43
0.0
 44
0.0
 50
0.0
 51
0.0
 71
0
 72
100
 73
1
 74
1
 75
0
 76
0
 77
0
 78
0
  0
ENDTAB
  0
TABLE
  2
LTYPE
  5
5
100
AcDbSymbolTable
 70
6
  0
LTYPE
  5
14
100
AcDbSymbolTableRecord
100
AcDbLinetypeTableRecord
  2
BYBLOCK
 70
0
  3

 72
65
 73
0
 40
0.0
  0
LTYPE
  5
15
100
AcDbSymbolTableRecord
100
AcDbLinetypeTableRecord
  2
BYLAYER
 70
0
  3

 72
65
 73
0
 40
0.0
  0
LTYPE
  5
16
100
AcDbSymbolTableRecord
100
AcDbLinetypeTableRecord
  2
CONTINUOUS
 70
64
  3
Solid line
 72
65
 73
0
 40
0.0
  0
LTYPE
  5
1F5
100
AcDbSymbolTableRecord
100
AcDbLinetypeTableRecord
  2
CENTER
 70
64
  3
____ _ ____ _ ____ _ ____ _ ____ _ ____ _ ____
 72
65
 73
4
 40
0.6
 49
0.375
 74
0
 49
-0.075
 74
0
 49
0.075
 74
0
 49
-0.075
 74
0
  0
LTYPE
  5
1F6
100
AcDbSymbolTableRecord
100
AcDbLinetypeTableRecord
  2
HIDDEN
 70
64
  3
- - - - - - - - - - - - - - - - - - - -
 72
65
 73
2
 40
0.2
 49
0.1
 74
0
 49
-0.1
 74
0
  0
LTYPE
  5
1F7
100
AcDbSymbolTableRecord
100
AcDbLinetypeTableRecord
  2
PHANTOM
 70
64
  3
_____ _ _ _____ _ _ _____ _ _ _____
 72
65
 73
6
 40
0.8
 49
0.45
 74
0
 49
-0.05
 74
0
 49
0.1
 74
0
 49
-0.05
 74
0
 49
0.1
 74
0
 49
-0.05
 74
0
  0
LTYPE
  5
1F8
100
AcDbSymbolTableRecord
100
AcDbLinetypeTableRecord
  2
DOT
 70
64
  3
. . . . . . . . . . . . . . . . . . . .
 72
65
 73
2
 40
0.2
 49
0.1
 74
0
 49
-0.1
 74
0
  0
LTYPE
  5
1F9
100
AcDbSymbolTableRecord
100
AcDbLinetypeTableRecord
  2
DASHED
 70
64
  3
- - - - - - - - - - - - - - - - - - - -
 72
65
 73
2
 40
0.2
 49
0.1
 74
0
 49
-0.1
 74
0
  0
ENDTAB
  0
TABLE
  2
LAYER
  5
2
100
AcDbSymbolTable
 70
36
  0
LAYER
  5
10
100
AcDbSymbolTableRecord
100
AcDbLayerTableRecord
  2
0
 70
0
 62
7
  6
CONTINUOUS
370
-3
390
F
  0
LAYER
  5
1FA
100
AcDbSymbolTableRecord
100
AcDbLayerTableRecord
  2
DEFAULT_1
 70
0
 62
7
  6
CENTER
370
-3
390
F
  0
LAYER
  5
1FB
100
AcDbSymbolTableRecord
100
AcDbLayerTableRecord
  2
DEFAULT_2
 70
0
 62
8
  6
HIDDEN
370
-3
390
F
  0
LAYER
  5
1FC
100
AcDbSymbolTableRecord
100
AcDbLayerTableRecord
  2
DEFAULT_3
 70
0
 62
7
  6
PHANTOM
370
-3
390
F
  0
LAYER
  5
1FD
100
AcDbSymbolTableRecord
100
AcDbLayerTableRecord
  2
01___PRT_ALL_DTM_PLN
 70
0
 62
7
  6
CONTINUOUS
370
-3
390
F
  0
LAYER
  5
1FE
100
AcDbSymbolTableRecord
100
AcDbLayerTableRecord
  2
01___PRT_DEF_DTM_PLN
 70
0
 62
7
  6
CONTINUOUS
370
-3
390
F
  0
LAYER
  5
1FF
100
AcDbSymbolTableRecord
100
AcDbLayerTableRecord
  2
02___PRT_ALL_AXES
 70
0
 62
7
  6
CONTINUOUS
370
-3
390
F
  0
LAYER
  5
200
100
AcDbSymbolTableRecord
100
AcDbLayerTableRecord
  2
03___PRT_ALL_CURVES
 70
0
 62
7
  6
CONTINUOUS
370
-3
390
F
  0
LAYER
  5
201
100
AcDbSymbolTableRecord
100
AcDbLayerTableRecord
  2
04___PRT_ALL_DTM_PNT
 70
0
 62
7
  6
CONTINUOUS
370
-3
390
F
  0
LAYER
  5
202
100
AcDbSymbolTableRecord
100
AcDbLayerTableRecord
  2
05___PRT_ALL_DTM_CSYS
 70
0
 62
7
  6
CONTINUOUS
370
-3
390
F
  0
LAYER
  5
203
100
AcDbSymbolTableRecord
100
AcDbLayerTableRecord
  2
05___PRT_DEF_DTM_CSYS
 70
0
 62
7
  6
CONTINUOUS
370
-3
390
F
  0
LAYER
  5
204
100
AcDbSymbolTableRecord
100
AcDbLayerTableRecord
  2
06___PRT_ALL_SURFS
 70
0
 62
7
  6
CONTINUOUS
370
-3
390
F
  0
LAYER
  5
205
100
AcDbSymbolTableRecord
100
AcDbLayerTableRecord
  2
DATUM_PLANES
 70
0
 62
7
  6
CONTINUOUS
370
-3
390
F
  0
LAYER
  5
206
100
AcDbSymbolTableRecord
100
AcDbLayerTableRecord
  2
PORT_AREAS
 70
0
 62
7
  6
CONTINUOUS
370
-3
390
F
  0
LAYER
  5
207
100
AcDbSymbolTableRecord
100
AcDbLayerTableRecord
  2
SUNNBOMCOSMETIC
 70
0
 62
7
  6
CONTINUOUS
370
-3
390
F
  0
LAYER
  5
208
100
AcDbSymbolTableRecord
100
AcDbLayerTableRecord
  2
SUNNBOMSTAMPING
 70
0
 62
7
  6
CONTINUOUS
370
-3
390
F
  0
LAYER
  5
209
100
AcDbSymbolTableRecord
100
AcDbLayerTableRecord
  2
THREADS
 70
0
 62
7
  6
CONTINUOUS
370
-3
390
F
  0
ENDTAB
  0
TABLE
  2
STYLE
  5
3
100
AcDbSymbolTable
 70
1
  0
STYLE
  5
11
100
AcDbSymbolTableRecord
100
AcDbTextStyleTableRecord
  2
STANDARD
 70
0
 40
0.0
 41
0.8
 50
0.0
 71
0
 42
0.2
  3
txt
  4

  0
STYLE
  5
20A
100
AcDbSymbolTableRecord
100
AcDbTextStyleTableRecord
  2
TEXTSTYLE_1
 70
0
 40
0.0
 41
0.8
 50
0.0
 71
0
 42
0.2
  3
gdt
  4

  0
ENDTAB
  0
TABLE
  2
VIEW
  5
6
100
AcDbSymbolTable
 70
0
  0
ENDTAB
  0
TABLE
  2
UCS
  5
7
100
AcDbSymbolTable
 70
0
  0
ENDTAB
  0
TABLE
  2
APPID
  5
9
100
AcDbSymbolTable
 70
1
  0
APPID
  5
20B
100
AcDbSymbolTableRecord
100
AcDbRegAppTableRecord
  2
ACAD
 70
0
  0
ENDTAB
  0
TABLE
  2
BLOCK_RECORD
  5
1
100
AcDbSymbolTable
 70
0
  0
BLOCK_RECORD
  5
20C
100
AcDbSymbolTableRecord
100
AcDbBlockTableRecord
  2
*Model_Space
  0
BLOCK_RECORD
  5
20D
100
AcDbSymbolTableRecord
100
AcDbBlockTableRecord
  2
*Paper_Space
  0
BLOCK_RECORD
  5
20E
100
AcDbSymbolTableRecord
100
AcDbBlockTableRecord
  2
SUN_FIRST_THIRD_ANGLE_BL0
  0
BLOCK_RECORD
  5
20F
100
AcDbSymbolTableRecord
100
AcDbBlockTableRecord
  2
*T1
  0
BLOCK_RECORD
  5
210
100
AcDbSymbolTableRecord
100
AcDbBlockTableRecord
  2
*T2
  0
BLOCK_RECORD
  5
211
100
AcDbSymbolTableRecord
100
AcDbBlockTableRecord
  2
*T3
  0
ENDTAB
  0
TABLE
  2
DIMSTYLE
  5
A
100
AcDbSymbolTable
 70
1
100
AcDbDimStyleTable
 71
0
  0
DIMSTYLE
105
212
100
AcDbSymbolTableRecord
100
AcDbDimStyleTableRecord
  2
STANDARD
 70
0
  3

  4

 40
1.0
 41
0.1875
 42
0.0625
 43
0.38
 44
0.125
 45
0.0
 46
0.0
 47
0.001
 48
0.001
140
0.1
141
0.09
142
0.0
143
25.4
144
1.0
145
0.0
146
1.0
147
0.09
 71
0.0
 72
0.0
 73
1
 74
1
 75
0
 76
0
 77
0
 78
4
170
0
171
2
172
0
173
0
174
0
175
0
176
0
177
0
178
0
270
2
271
3
272
3
273
2
274
2
275
0
280
0
281
0
282
0
283
1
284
4
285
0
286
0
287
3
288
0
340
11
278
46
  0
ENDTAB
  0
ENDSEC
  0
SECTION
  2
BLOCKS
  0
BLOCK
  5
20
100
AcDbEntity
  8
0
100
AcDbBlockBegin
  2
*Model_Space
 70
0
 10
0.0
 20
0.0
 30
0.0
  3
*Model_Space
  1

  0
ENDBLK
  5
21
100
AcDbEntity
  8
0
100
AcDbBlockEnd
  0
BLOCK
  5
1C
100
AcDbEntity
  8
0
100
AcDbBlockBegin
  2
*Paper_Space
 70
0
 10
0.0
 20
0.0
 30
0.0
  3
*Paper_Space
  1

  0
ENDBLK
  5
1D
100
AcDbEntity
  8
0
100
AcDbBlockEnd
  0
BLOCK
  5
213
100
AcDbEntity
  8
0
100
AcDbBlockBegin
 62
2
  6
CONTINUOUS
  2
SUN_FIRST_THIRD_ANGLE_BL0
 70
64
 10
20.4816717061
 20
1.2289683772
  3
SUN_FIRST_THIRD_ANGLE_BL0
  1

  0
TEXT
  5
214
100
AcDbEntity
  8
0
100
AcDbText
 62
2
  6
CONTINUOUS
 10
19.4750896608
 20
1.4136269581
  7
STANDARD
 40
0.08
  1
FIRST ANGLE
 41
0.8
 72
0
100
AcDbText
  0
TEXT
  5
215
100
AcDbEntity
  8
0
100
AcDbText
 62
2
  6
CONTINUOUS
 10
20.7842537513
 20
1.4047600029
  7
STANDARD
 40
0.08
  1
THIRD ANGLE
 41
0.8
 72
0
100
AcDbText
  0
LINE
  5
216
100
AcDbEntity
  8
0
100
AcDbLine
 62
7
  6
CONTINUOUS
 10
19.4767170086
 20
1.1727031207
 11
19.6334271527
 21
1.1717972817
  0
LINE
  5
217
100
AcDbEntity
  8
0
100
AcDbLine
 62
7
  6
CONTINUOUS
 10
19.6596964832
 20
1.1717972817
 11
19.6950230232
 21
1.171593082
  0
LINE
  5
218
100
AcDbEntity
  8
0
100
AcDbLine
 62
7
  6
CONTINUOUS
 10
19.7194818561
 20
1.1708914427
 11
19.8852396156
 21
1.1699333054
  0
LINE
  5
219
100
AcDbEntity
  8
0
100
AcDbLine
 62
7
  6
CONTINUOUS
 10
19.4758111696
 20
1.2723454088
 11
19.88525039
 21
1.3511534004
  0
LINE
  5
21A
100
AcDbEntity
  8
0
100
AcDbLine
 62
7
  6
CONTINUOUS
 10
19.88525039
 20
1.3511534004
 11
19.8831348489
 21
0.9851647912
  0
LINE
  5
21B
100
AcDbEntity
  8
0
100
AcDbLine
 62
7
  6
CONTINUOUS
 10
19.8831348489
 20
0.9851647912
 11
19.4767170086
 21
1.0658141206
  0
LINE
  5
21C
100
AcDbEntity
  8
0
100
AcDbLine
 62
7
  6
CONTINUOUS
 10
19.4767170086
 20
1.0658141206
 11
19.4779056764
 21
1.2714536432
  0
CIRCLE
  5
21D
100
AcDbEntity
  8
0
100
AcDbCircle
 62
7
  6
CONTINUOUS
 10
20.2068232291
 20
1.1717972817
 40
0.175742101
  0
CIRCLE
  5
21E
100
AcDbEntity
  8
0
100
AcDbCircle
 62
7
  6
CONTINUOUS
 10
20.2068232291
 20
1.1717972817
 40
0.1005522074
  0
LINE
  5
21F
100
AcDbEntity
  8
0
100
AcDbLine
 62
7
  6
CONTINUOUS
 10
20.2077290681
 20
1.3756110529
 11
20.2071171714
 21
1.2379342989
  0
LINE
  5
220
100
AcDbEntity
  8
0
100
AcDbLine
 62
7
  6
CONTINUOUS
 10
20.2077290681
 20
1.2016899681
 11
20.2074674401
 21
1.1428236749
  0
LINE
  5
221
100
AcDbEntity
  8
0
100
AcDbLine
 62
7
  6
CONTINUOUS
 10
20.208634907
 20
1.101141841
 11
20.2080230104
 21
0.963465087
  0
LINE
  5
222
100
AcDbEntity
  8
0
100
AcDbLine
 62
7
  6
CONTINUOUS
 10
20.0066328138
 20
1.1745147986
 11
20.1443095678
 21
1.1739029019
  0
LINE
  5
223
100
AcDbEntity
  8
0
100
AcDbLine
 62
7
  6
CONTINUOUS
 10
20.1832714155
 20
1.1727031207
 11
20.238153505
 21
1.172335442
  0
LINE
  5
224
100
AcDbEntity
  8
0
100
AcDbLine
 62
7
  6
CONTINUOUS
 10
20.2756669918
 20
1.1717972817
 11
20.407916871
 21
1.1712095044
  0
CIRCLE
  5
225
100
AcDbEntity
  8
0
100
AcDbCircle
 62
7
  6
CONTINUOUS
 10
20.7509457401
 20
1.1693297793
 40
0.1722024983
  0
CIRCLE
  5
226
100
AcDbEntity
  8
0
100
AcDbCircle
 62
7
  6
CONTINUOUS
 10
20.7509457401
 20
1.1693297793
 40
0.0985164967
  0
LINE
  5
227
100
AcDbEntity
  8
0
100
AcDbLine
 62
7
  6
CONTINUOUS
 10
20.7169767782
 20
1.170462078
 11
20.7825395137
 21
1.1682766535
  0
LINE
  5
228
100
AcDbEntity
  8
0
100
AcDbLine
 62
7
  6
CONTINUOUS
 10
20.8177513651
 20
1.1693297793
 11
20.947965719
 21
1.1693297793
  0
LINE
  5
229
100
AcDbEntity
  8
0
100
AcDbLine
 62
7
  6
CONTINUOUS
 10
20.6875370113
 20
1.170462078
 11
20.5573226574
 21
1.170462078
  0
LINE
  5
22A
100
AcDbEntity
  8
0
100
AcDbLine
 62
7
  6
CONTINUOUS
 10
20.7486811426
 20
1.1987695462
 11
20.7486811426
 21
1.1432869085
  0
LINE
  5
22B
100
AcDbEntity
  8
0
100
AcDbLine
 62
7
  6
CONTINUOUS
 10
20.7498134414
 20
1.1059210505
 11
20.7498134414
 21
0.9757066966
  0
LINE
  5
22C
100
AcDbEntity
  8
0
100
AcDbLine
 62
7
  6
CONTINUOUS
 10
20.7486811426
 20
1.2338708068
 11
20.7486811426
 21
1.3640851607
  0
LINE
  5
22D
100
AcDbEntity
  8
0
100
AcDbLine
 62
7
  6
CONTINUOUS
 10
21.0702539817
 20
1.2701043662
 11
21.4790138229
 21
1.3448360823
  0
LINE
  5
22E
100
AcDbEntity
  8
0
100
AcDbLine
 62
7
  6
CONTINUOUS
 10
21.4790138229
 20
1.3448360823
 11
21.4790138229
 21
0.9779712941
  0
LINE
  5
22F
100
AcDbEntity
  8
0
100
AcDbLine
 62
7
  6
CONTINUOUS
 10
21.4790138229
 20
0.9779712941
 11
21.069121683
 21
1.0617614
  0
LINE
  5
230
100
AcDbEntity
  8
0
100
AcDbLine
 62
7
  6
CONTINUOUS
 10
21.0702539817
 20
1.2701043662
 11
21.069121683
 21
1.0617614
  0
LINE
  5
231
100
AcDbEntity
  8
0
100
AcDbLine
 62
7
  6
CONTINUOUS
 10
21.4790138229
 20
1.1693297793
 11
21.3159628059
 21
1.1693297793
  0
LINE
  5
232
100
AcDbEntity
  8
0
100
AcDbLine
 62
7
  6
CONTINUOUS
 10
21.2876553377
 20
1.1693297793
 11
21.2502894796
 21
1.1693297793
  0
LINE
  5
233
100
AcDbEntity
  8
0
100
AcDbLine
 62
7
  6
CONTINUOUS
 10
21.2208497126
 20
1.1659328831
 11
21.0713862804
 21
1.1659328831
  0
LINE
  5
234
100
AcDbEntity
  8
0
100
AcDbLine
 62
7
  6
CONTINUOUS
 10
20.4796138713
 20
1.5284908897
 11
20.4766766948
 21
0.9294458646
  0
ENDBLK
  5
235
100
AcDbEntity
  8
0
  6
BYBLOCK
 62
0
100
AcDbBlockEnd
  0
BLOCK
  5
236
100
AcDbEntity
  8
0
100
AcDbBlockBegin
  2
*T1
 70
1
 10
0.0
 20
0.0
  3
*T1
  1

  0
LINE
  5
237
100
AcDbEntity
  8
0
100
AcDbLine
 62
2
  6
CONTINUOUS
 10
9.275
 20
0.0
 11
-0.0
 21
0.0
  0
LINE
  5
238
100
AcDbEntity
  8
0
100
AcDbLine
 62
2
  6
CONTINUOUS
 10
9.275
 20
0.0
 11
9.275
 21
1.25
  0
LINE
  5
239
100
AcDbEntity
  8
0
100
AcDbLine
 62
2
  6
CONTINUOUS
 10
9.275
 20
0.625
 11
-0.0
 21
0.625
  0
LINE
  5
23A
100
AcDbEntity
  8
0
100
AcDbLine
 62
2
  6
CONTINUOUS
 10
9.275
 20
1.25
 11
-0.0
 21
1.25
  0
LINE
  5
23B
100
AcDbEntity
  8
0
100
AcDbLine
 62
2
  6
CONTINUOUS
 10
6.8
 20
0.0
 11
6.8
 21
1.25
  0
LINE
  5
23C
100
AcDbEntity
  8
0
100
AcDbLine
 62
2
  6
CONTINUOUS
 10
6.4
 20
0.0
 11
6.4
 21
0.625
  0
LINE
  5
23D
100
AcDbEntity
  8
0
100
AcDbLine
 62
2
  6
CONTINUOUS
 10
5.9
 20
0.0
 11
5.9
 21
0.625
  0
LINE
  5
23E
100
AcDbEntity
  8
0
100
AcDbLine
 62
2
  6
CONTINUOUS
 10
5.2
 20
0.0
 11
5.2
 21
0.625
  0
LINE
  5
23F
100
AcDbEntity
  8
0
100
AcDbLine
 62
2
  6
CONTINUOUS
 10
4.1
 20
0.0
 11
4.1
 21
1.25
  0
LINE
  5
240
100
AcDbEntity
  8
0
100
AcDbLine
 62
2
  6
CONTINUOUS
 10
-0.0
 20
0.0
 11
-0.0
 21
1.25
  0
MTEXT
  5
241
100
AcDbEntity
  8
0
100
AcDbMText
 62
2
  6
CONTINUOUS
  7
STANDARD
 71
2
 72
1
 10
6.6
 20
0.325
 30
0.0
 11
1.0
 21
0.0
 31
0.0
 44
0.9
  1
2
 40
0.125
 41
0.2
  0
MTEXT
  5
242
100
AcDbEntity
  8
0
100
AcDbMText
 62
2
  6
CONTINUOUS
  7
STANDARD
 71
2
 72
1
 10
6.15
 20
0.325
 30
0.0
 11
1.0
 21
0.0
 31
0.0
 44
0.9
  1
C
 40
0.125
 41
0.2
  0
MTEXT
  5
243
100
AcDbEntity
  8
0
100
AcDbMText
 62
2
  6
CONTINUOUS
  7
STANDARD
 71
2
 72
1
 10
5.55
 20
0.325
 30
0.0
 11
1.0
 21
0.0
 31
0.0
 44
0.9
  1
0.800
 40
0.125
 41
1.0
  0
MTEXT
  5
244
100
AcDbEntity
  8
0
100
AcDbMText
 62
2
  6
CONTINUOUS
  7
STANDARD
 71
2
 72
1
 10
4.65
 20
0.325
 30
0.0
 11
1.0
 21
0.0
 31
0.0
 44
0.9
  1
Jan-27-20
 40
0.125
 41
1.8
  0
MTEXT
  5
245
100
AcDbEntity
  8
0
100
AcDbMText
 62
2
  6
CONTINUOUS
  7
STANDARD
 71
2
 72
1
 10
2.05
 20
0.4625
 30
0.0
 11
1.0
 21
0.0
 31
0.0
 44
0.9
  1
T-24A Line mount\P(See Technical Data for Body Features)
 40
0.125
 41
7.6
  0
MTEXT
  5
246
100
AcDbEntity
  8
0
100
AcDbMText
 62
2
  6
CONTINUOUS
  7
STANDARD
 71
1
 72
1
 10
6.45
 20
0.5625
 30
0.0
 11
1.0
 21
0.0
 31
0.0
 44
0.9
  1
SHEET
 40
0.06
 41
0.48
  0
MTEXT
  5
247
100
AcDbEntity
  8
0
100
AcDbMText
 62
2
  6
CONTINUOUS
  7
STANDARD
 71
1
 72
1
 10
5.95
 20
0.5625
 30
0.0
 11
1.0
 21
0.0
 31
0.0
 44
0.9
  1
DWG SIZE
 40
0.06
 41
0.768
  0
MTEXT
  5
248
100
AcDbEntity
  8
0
100
AcDbMText
 62
2
  6
CONTINUOUS
  7
STANDARD
 71
1
 72
1
 10
5.25
 20
0.5625
 30
0.0
 11
1.0
 21
0.0
 31
0.0
 44
0.9
  1
SCALE
 40
0.06
 41
0.48
  0
MTEXT
  5
249
100
AcDbEntity
  8
0
100
AcDbMText
 62
2
  6
CONTINUOUS
  7
STANDARD
 71
1
 72
1
 10
4.15
 20
0.5625
 30
0.0
 11
1.0
 21
0.0
 31
0.0
 44
0.9
  1
DATE
 40
0.06
 41
0.384
  0
MTEXT
  5
24A
100
AcDbEntity
  8
0
100
AcDbMText
 62
2
  6
CONTINUOUS
  7
STANDARD
 71
1
 72
1
 10
0.05
 20
0.5625
 30
0.0
 11
1.0
 21
0.0
 31
0.0
 44
0.9
  1
DESCRIPTION
 40
0.06
 41
1.056
  0
MTEXT
  5
24B
100
AcDbEntity
  8
0
100
AcDbMText
 62
2
  6
CONTINUOUS
  7
STANDARD
 71
2
 72
1
 10
5.45
 20
1.0375
 30
0.0
 11
1.0
 21
0.0
 31
0.0
 44
0.9
  1
ALL DIMENSIONS IN INCH\PVIEWS ARE THIRD ANGLE
 40
0.12
 41
4.224
  0
MTEXT
  5
24C
100
AcDbEntity
  8
0
100
AcDbMText
 62
2
  6
CONTINUOUS
  7
STANDARD
 71
2
 72
1
 10
2.05
 20
0.95
 30
0.0
 11
1.0
 21
0.0
 31
0.0
 44
0.9
  1
Q4N
 40
0.125
 41
0.6
  0
MTEXT
  5
24D
100
AcDbEntity
  8
0
100
AcDbMText
 62
2
  6
CONTINUOUS
  7
STANDARD
 71
1
 72
1
 10
0.05
 20
1.1875
 30
0.0
 11
1.0
 21
0.0
 31
0.0
 44
0.9
  1
MODEL
 40
0.06
 41
0.48
  0
ENDBLK
  5
24E
100
AcDbEntity
  8
0
  6
BYBLOCK
 62
0
100
AcDbBlockEnd
  0
BLOCK
  5
24F
100
AcDbEntity
  8
0
100
AcDbBlockBegin
  2
*T2
 70
1
 10
0.0
 20
0.0
  3
*T2
  1

  0
LINE
  5
250
100
AcDbEntity
  8
0
100
AcDbLine
 62
2
  6
CONTINUOUS
 10
0.0
 20
0.0
 11
9.055
 21
0.0
  0
LINE
  5
251
100
AcDbEntity
  8
0
100
AcDbLine
 62
2
  6
CONTINUOUS
 10
0.0
 20
0.0
 11
0.0
 21
-2.594
  0
LINE
  5
252
100
AcDbEntity
  8
0
100
AcDbLine
 62
2
  6
CONTINUOUS
 10
0.0
 20
-0.344
 11
9.055
 21
-0.344
  0
LINE
  5
253
100
AcDbEntity
  8
0
100
AcDbLine
 62
2
  6
CONTINUOUS
 10
0.0
 20
-0.594
 11
9.055
 21
-0.594
  0
LINE
  5
254
100
AcDbEntity
  8
0
100
AcDbLine
 62
2
  6
CONTINUOUS
 10
0.0
 20
-0.844
 11
9.055
 21
-0.844
  0
LINE
  5
255
100
AcDbEntity
  8
0
100
AcDbLine
 62
2
  6
CONTINUOUS
 10
0.0
 20
-1.094
 11
9.055
 21
-1.094
  0
LINE
  5
256
100
AcDbEntity
  8
0
100
AcDbLine
 62
2
  6
CONTINUOUS
 10
0.0
 20
-1.344
 11
9.055
 21
-1.344
  0
LINE
  5
257
100
AcDbEntity
  8
0
100
AcDbLine
 62
2
  6
CONTINUOUS
 10
0.0
 20
-1.594
 11
9.055
 21
-1.594
  0
LINE
  5
258
100
AcDbEntity
  8
0
100
AcDbLine
 62
2
  6
CONTINUOUS
 10
0.0
 20
-1.844
 11
9.055
 21
-1.844
  0
LINE
  5
259
100
AcDbEntity
  8
0
100
AcDbLine
 62
2
  6
CONTINUOUS
 10
0.0
 20
-2.094
 11
9.055
 21
-2.094
  0
LINE
  5
25A
100
AcDbEntity
  8
0
100
AcDbLine
 62
2
  6
CONTINUOUS
 10
0.0
 20
-2.344
 11
9.055
 21
-2.344
  0
LINE
  5
25B
100
AcDbEntity
  8
0
100
AcDbLine
 62
2
  6
CONTINUOUS
 10
0.0
 20
-2.594
 11
9.055
 21
-2.594
  0
LINE
  5
25C
100
AcDbEntity
  8
0
100
AcDbLine
 62
2
  6
CONTINUOUS
 10
3.055
 20
0.0
 11
3.055
 21
-2.594
  0
LINE
  5
25D
100
AcDbEntity
  8
0
100
AcDbLine
 62
2
  6
CONTINUOUS
 10
9.055
 20
0.0
 11
9.055
 21
-2.594
  0
MTEXT
  5
25E
100
AcDbEntity
  8
0
100
AcDbMText
 62
2
  6
CONTINUOUS
  7
STANDARD
 71
2
 72
1
 10
1.5275
 20
-0.0995
 30
0.0
 11
1.0
 21
0.0
 31
0.0
 44
0.9
  1
Technical Data
 40
0.145
 41
3.248
  0
MTEXT
  5
25F
100
AcDbEntity
  8
0
100
AcDbMText
 62
2
  6
CONTINUOUS
  7
STANDARD
 71
2
 72
1
 10
4.555
 20
-0.0995
 30
0.0
 11
1.0
 21
0.0
 31
0.0
 44
0.9
  1
U.S. Units
 40
0.145
 41
2.32
  0
MTEXT
  5
260
100
AcDbEntity
  8
0
100
AcDbMText
 62
2
  6
CONTINUOUS
  7
STANDARD
 71
2
 72
1
 10
7.555
 20
-0.0995
 30
0.0
 11
1.0
 21
0.0
 31
0.0
 44
0.9
  1
Metric Units
 40
0.145
 41
2.784
  0
MTEXT
  5
261
100
AcDbEntity
  8
0
100
AcDbMText
 62
2
  6
CONTINUOUS
  7
STANDARD
 71
2
 72
1
 10
1.5275
 20
-0.4065
 30
0.0
 11
1.0
 21
0.0
 31
0.0
 44
0.9
  1
Cavity
 40
0.125
 41
1.2
  0
MTEXT
  5
262
100
AcDbEntity
  8
0
100
AcDbMText
 62
2
  6
CONTINUOUS
  7
STANDARD
 71
2
 72
1
 10
6.055
 20
-0.4065
 30
0.0
 11
1.0
 21
0.0
 31
0.0
 44
0.9
  1
T-24A
 40
0.125
 41
1.0
  0
MTEXT
  5
263
100
AcDbEntity
  8
0
100
AcDbMText
 62
2
  6
CONTINUOUS
  7
STANDARD
 71
2
 72
1
 10
1.5275
 20
-0.6565
 30
0.0
 11
1.0
 21
0.0
 31
0.0
 44
0.9
  1
Body Features
 40
0.125
 41
2.6
  0
MTEXT
  5
264
100
AcDbEntity
  8
0
100
AcDbMText
 62
2
  6
CONTINUOUS
  7
STANDARD
 71
2
 72
1
 10
6.055
 20
-0.6565
 30
0.0
 11
1.0
 21
0.0
 31
0.0
 44
0.9
  1
Ninety degree with reverse flow check - reducing
 40
0.125
 41
9.6
  0
MTEXT
  5
265
100
AcDbEntity
  8
0
100
AcDbMText
 62
2
  6
CONTINUOUS
  7
STANDARD
 71
2
 72
1
 10
1.5275
 20
-0.9065
 30
0.0
 11
1.0
 21
0.0
 31
0.0
 44
0.9
  1
Body Type
 40
0.125
 41
1.8
  0
MTEXT
  5
266
100
AcDbEntity
  8
0
100
AcDbMText
 62
2
  6
CONTINUOUS
  7
STANDARD
 71
2
 72
1
 10
6.055
 20
-0.9065
 30
0.0
 11
1.0
 21
0.0
 31
0.0
 44
0.9
  1
Line mount
 40
0.125
 41
2.0
  0
MTEXT
  5
267
100
AcDbEntity
  8
0
100
AcDbMText
 62
2
  6
CONTINUOUS
  7
STANDARD
 71
2
 72
1
 10
1.5275
 20
-1.1565
 30
0.0
 11
1.0
 21
0.0
 31
0.0
 44
0.9
  1
Interface
 40
0.125
 41
1.8
  0
MTEXT
  5
268
100
AcDbEntity
  8
0
100
AcDbMText
 62
2
  6
CONTINUOUS
  7
STANDARD
 71
2
 72
1
 10
6.055
 20
-1.1565
 30
0.0
 11
1.0
 21
0.0
 31
0.0
 44
0.9
  1
None
 40
0.125
 41
0.8
  0
MTEXT
  5
269
100
AcDbEntity
  8
0
100
AcDbMText
 62
2
  6
CONTINUOUS
  7
STANDARD
 71
2
 72
1
 10
1.5275
 20
-1.4065
 30
0.0
 11
1.0
 21
0.0
 31
0.0
 44
0.9
  1
Open Cavity Quantity
 40
0.125
 41
4.0
  0
MTEXT
  5
26A
100
AcDbEntity
  8
0
100
AcDbMText
 62
2
  6
CONTINUOUS
  7
STANDARD
 71
2
 72
1
 10
6.055
 20
-1.4065
 30
0.0
 11
1.0
 21
0.0
 31
0.0
 44
0.9
  1
1
 40
0.125
 41
0.2
  0
MTEXT
  5
26B
100
AcDbEntity
  8
0
100
AcDbMText
 62
2
  6
CONTINUOUS
  7
STANDARD
 71
2
 72
1
 10
1.5275
 20
-1.6565
 30
0.0
 11
1.0
 21
0.0
 31
0.0
 44
0.9
  1
Weight
 40
0.125
 41
1.2
  0
MTEXT
  5
26C
100
AcDbEntity
  8
0
100
AcDbMText
 62
2
  6
CONTINUOUS
  7
STANDARD
 71
2
 72
1
 10
4.555
 20
-1.6565
 30
0.0
 11
1.0
 21
0.0
 31
0.0
 44
0.9
  1
18.698 lb.
 40
0.125
 41
2.0
  0
MTEXT
  5
26D
100
AcDbEntity
  8
0
100
AcDbMText
 62
2
  6
CONTINUOUS
  7
STANDARD
 71
2
 72
1
 10
7.555
 20
-1.6565
 30
0.0
 11
1.0
 21
0.0
 31
0.0
 44
0.9
  1
8,481 kg.
 40
0.125
 41
1.8
  0
MTEXT
  5
26E
100
AcDbEntity
  8
0
100
AcDbMText
 62
2
  6
CONTINUOUS
  7
STANDARD
 71
2
 72
1
 10
1.5275
 20
-1.9065
 30
0.0
 11
1.0
 21
0.0
 31
0.0
 44
0.9
  1
Mounting Hole Diameter
 40
0.125
 41
4.4
  0
MTEXT
  5
26F
100
AcDbEntity
  8
0
100
AcDbMText
 62
2
  6
CONTINUOUS
  7
STANDARD
 71
2
 72
1
 10
4.555
 20
-1.9065
 30
0.0
 11
1.0
 21
0.0
 31
0.0
 44
0.9
  1
.41 in.
 40
0.125
 41
1.4
  0
MTEXT
  5
270
100
AcDbEntity
  8
0
100
AcDbMText
 62
2
  6
CONTINUOUS
  7
STANDARD
 71
2
 72
1
 10
7.555
 20
-1.9065
 30
0.0
 11
1.0
 21
0.0
 31
0.0
 44
0.9
  1
10,4 mm
 40
0.125
 41
1.4
  0
MTEXT
  5
271
100
AcDbEntity
  8
0
100
AcDbMText
 62
2
  6
CONTINUOUS
  7
STANDARD
 71
2
 72
1
 10
1.5275
 20
-2.1565
 30
0.0
 11
1.0
 21
0.0
 31
0.0
 44
0.9
  1
Mounting Hole Depth
 40
0.125
 41
3.8
  0
MTEXT
  5
272
100
AcDbEntity
  8
0
100
AcDbMText
 62
2
  6
CONTINUOUS
  7
STANDARD
 71
2
 72
1
 10
6.055
 20
-2.1565
 30
0.0
 11
1.0
 21
0.0
 31
0.0
 44
0.9
  1
Through
 40
0.125
 41
1.4
  0
MTEXT
  5
273
100
AcDbEntity
  8
0
100
AcDbMText
 62
2
  6
CONTINUOUS
  7
STANDARD
 71
2
 72
1
 10
1.5275
 20
-2.4065
 30
0.0
 11
1.0
 21
0.0
 31
0.0
 44
0.9
  1
Mounting Hole Quantity
 40
0.125
 41
4.4
  0
MTEXT
  5
274
100
AcDbEntity
  8
0
100
AcDbMText
 62
2
  6
CONTINUOUS
  7
STANDARD
 71
2
 72
1
 10
6.055
 20
-2.4065
 30
0.0
 11
1.0
 21
0.0
 31
0.0
 44
0.9
  1
2
 40
0.125
 41
0.2
  0
ENDBLK
  5
275
100
AcDbEntity
  8
0
  6
BYBLOCK
 62
0
100
AcDbBlockEnd
  0
BLOCK
  5
276
100
AcDbEntity
  8
0
100
AcDbBlockBegin
  2
*T3
 70
1
 10
0.0
 20
0.0
  3
*T3
  1

  0
LINE
  5
277
100
AcDbEntity
  8
0
100
AcDbLine
 62
2
  6
CONTINUOUS
 10
0.0
 20
0.0
 11
4.6
 21
0.0
  0
LINE
  5
278
100
AcDbEntity
  8
0
100
AcDbLine
 62
2
  6
CONTINUOUS
 10
0.0
 20
0.0
 11
0.0
 21
-1.68775
  0
LINE
  5
279
100
AcDbEntity
  8
0
100
AcDbLine
 62
2
  6
CONTINUOUS
 10
0.0
 20
-0.34375
 11
4.6
 21
-0.34375
  0
LINE
  5
27A
100
AcDbEntity
  8
0
100
AcDbLine
 62
2
  6
CONTINUOUS
 10
0.0
 20
-0.68775
 11
4.6
 21
-0.68775
  0
LINE
  5
27B
100
AcDbEntity
  8
0
100
AcDbLine
 62
2
  6
CONTINUOUS
 10
0.0
 20
-0.93775
 11
4.6
 21
-0.93775
  0
LINE
  5
27C
100
AcDbEntity
  8
0
100
AcDbLine
 62
2
  6
CONTINUOUS
 10
0.0
 20
-1.18775
 11
4.6
 21
-1.18775
  0
LINE
  5
27D
100
AcDbEntity
  8
0
100
AcDbLine
 62
2
  6
CONTINUOUS
 10
0.0
 20
-1.43775
 11
4.6
 21
-1.43775
  0
LINE
  5
27E
100
AcDbEntity
  8
0
100
AcDbLine
 62
2
  6
CONTINUOUS
 10
0.0
 20
-1.68775
 11
4.6
 21
-1.68775
  0
LINE
  5
27F
100
AcDbEntity
  8
0
100
AcDbLine
 62
2
  6
CONTINUOUS
 10
1.3
 20
-0.34375
 11
1.3
 21
-1.68775
  0
LINE
  5
280
100
AcDbEntity
  8
0
100
AcDbLine
 62
2
  6
CONTINUOUS
 10
3.3
 20
-0.34375
 11
3.3
 21
-1.68775
  0
LINE
  5
281
100
AcDbEntity
  8
0
100
AcDbLine
 62
2
  6
CONTINUOUS
 10
4.6
 20
0.0
 11
4.6
 21
-1.68775
  0
MTEXT
  5
282
100
AcDbEntity
  8
0
100
AcDbMText
 62
2
  6
CONTINUOUS
  7
STANDARD
 71
2
 72
1
 10
2.3
 20
-0.099375
 30
0.0
 11
1.0
 21
0.0
 31
0.0
 44
0.9
  1
Port Headings
 40
0.145
 41
3.016
  0
MTEXT
  5
283
100
AcDbEntity
  8
0
100
AcDbMText
 62
2
  6
CONTINUOUS
  7
STANDARD
 71
2
 72
1
 10
0.65
 20
-0.44325
 30
0.0
 11
1.0
 21
0.0
 31
0.0
 44
0.9
  1
Product
 40
0.145
 41
1.624
  0
MTEXT
  5
284
100
AcDbEntity
  8
0
100
AcDbMText
 62
2
  6
CONTINUOUS
  7
STANDARD
 71
2
 72
1
 10
2.3
 20
-0.44325
 30
0.0
 11
1.0
 21
0.0
 31
0.0
 44
0.9
  1
Port
 40
0.145
 41
0.928
  0
MTEXT
  5
285
100
AcDbEntity
  8
0
100
AcDbMText
 62
2
  6
CONTINUOUS
  7
STANDARD
 71
2
 72
1
 10
3.95
 20
-0.44325
 30
0.0
 11
1.0
 21
0.0
 31
0.0
 44
0.9
  1
Size
 40
0.145
 41
0.928
  0
MTEXT
  5
286
100
AcDbEntity
  8
0
100
AcDbMText
 62
2
  6
CONTINUOUS
  7
STANDARD
 71
2
 72
1
 10
0.65
 20
-0.75025
 30
0.0
 11
1.0
 21
0.0
 31
0.0
 44
0.9
  1
Q4N
 40
0.125
 41
0.6
  0
MTEXT
  5
287
100
AcDbEntity
  8
0
100
AcDbMText
 62
2
  6
CONTINUOUS
  7
STANDARD
 71
2
 72
1
 10
2.3
 20
-0.75025
 30
0.0
 11
1.0
 21
0.0
 31
0.0
 44
0.9
  1
Ports 1 &  2
 40
0.125
 41
2.4
  0
MTEXT
  5
288
100
AcDbEntity
  8
0
100
AcDbMText
 62
2
  6
CONTINUOUS
  7
STANDARD
 71
2
 72
1
 10
3.95
 20
-0.75025
 30
0.0
 11
1.0
 21
0.0
 31
0.0
 44
0.9
  1
SAE 20
 40
0.125
 41
1.2
  0
MTEXT
  5
289
100
AcDbEntity
  8
0
100
AcDbMText
 62
2
  6
CONTINUOUS
  7
STANDARD
 71
2
 72
1
 10
0.65
 20
-1.00025
 30
0.0
 11
1.0
 21
0.0
 31
0.0
 44
0.9
  1
Q4N
 40
0.125
 41
0.6
  0
MTEXT
  5
28A
100
AcDbEntity
  8
0
100
AcDbMText
 62
2
  6
CONTINUOUS
  7
STANDARD
 71
2
 72
1
 10
2.3
 20
-1.00025
 30
0.0
 11
1.0
 21
0.0
 31
0.0
 44
0.9
  1
Port 3
 40
0.125
 41
1.2
  0
MTEXT
  5
28B
100
AcDbEntity
  8
0
100
AcDbMText
 62
2
  6
CONTINUOUS
  7
STANDARD
 71
2
 72
1
 10
3.95
 20
-1.00025
 30
0.0
 11
1.0
 21
0.0
 31
0.0
 44
0.9
  1
SAE 12
 40
0.125
 41
1.2
  0
MTEXT
  5
28C
100
AcDbEntity
  8
0
100
AcDbMText
 62
2
  6
CONTINUOUS
  7
STANDARD
 71
2
 72
1
 10
0.65
 20
-1.25025
 30
0.0
 11
1.0
 21
0.0
 31
0.0
 44
0.9
  1
Q4N
 40
0.125
 41
0.6
  0
MTEXT
  5
28D
100
AcDbEntity
  8
0
100
AcDbMText
 62
2
  6
CONTINUOUS
  7
STANDARD
 71
2
 72
1
 10
2.3
 20
-1.25025
 30
0.0
 11
1.0
 21
0.0
 31
0.0
 44
0.9
  1
Port 4
 40
0.125
 41
1.2
  0
MTEXT
  5
28E
100
AcDbEntity
  8
0
100
AcDbMText
 62
2
  6
CONTINUOUS
  7
STANDARD
 71
2
 72
1
 10
3.95
 20
-1.25025
 30
0.0
 11
1.0
 21
0.0
 31
0.0
 44
0.9
  1
SAE 6
 40
0.125
 41
1.0
  0
MTEXT
  5
28F
100
AcDbEntity
  8
0
100
AcDbMText
 62
2
  6
CONTINUOUS
  7
STANDARD
 71
2
 72
1
 10
0.65
 20
-1.50025
 30
0.0
 11
1.0
 21
0.0
 31
0.0
 44
0.9
  1
Q4N
 40
0.125
 41
0.6
  0
MTEXT
  5
290
100
AcDbEntity
  8
0
100
AcDbMText
 62
2
  6
CONTINUOUS
  7
STANDARD
 71
2
 72
1
 10
2.3
 20
-1.50025
 30
0.0
 11
1.0
 21
0.0
 31
0.0
 44
0.9
  1
Gage Port
 40
0.125
 41
1.8
  0
MTEXT
  5
291
100
AcDbEntity
  8
0
100
AcDbMText
 62
2
  6
CONTINUOUS
  7
STANDARD
 71
2
 72
1
 10
3.95
 20
-1.50025
 30
0.0
 11
1.0
 21
0.0
 31
0.0
 44
0.9
  1
1/4" NPTF
 40
0.125
 41
1.8
  0
ENDBLK
  5
292
100
AcDbEntity
  8
0
  6
BYBLOCK
 62
0
100
AcDbBlockEnd
  0
ENDSEC
  0
SECTION
  2
ENTITIES
  0
IMAGE
  5
293
100
AcDbEntity
  8
0
100
AcDbRasterImage
 62
7
  6
CONTINUOUS
 10
19.2297077316
 20
0.3094318264
 30
0.0
 11
0.0066666667
 21
0.0
 31
0.0
 12
0.0
 22
0.0066666667
 32
0.0
 13
369.0
 23
92.0
340
       3A6
 70
9
280
0
281
50
282
50
283
0
360
       3A0
 71
1
 91
2
 14
-0.5
 24
-0.5
 14
368.5
 24
91.5
  0
INSERT
  5
294
100
AcDbEntity
  8
0
100
AcDbBlockReference
 62
2
  6
CONTINUOUS
  2
SUN_FIRST_THIRD_ANGLE_BL0
 10
20.4816717061
 20
1.2289683772
  0
ACAD_TABLE
  5
295
100
AcDbEntity
  8
0
 62
2
  6
CONTINUOUS
100
AcDbBlockReference
  2
*T1
 10
12.42375
 20
0.30125
 30
0.0
100
AcDbTable
342
       3A8
343
20F
 11
1.0
 21
0.0
 31
0.0
 90
6
 91
4
 92
6
 93
20
 94
0
 95
0
 96
0
 70
1
 41
0.0
141
0.525
141
0.1
141
0.525
141
0.1
142
4.1
142
1.1
142
0.7
142
0.5
142
0.4
142
2.475
171
1
172
0
173
0
174
0
175
1
176
1
 91
33
178
0
145
0.0
301
CELL_VALUE
 90
4
  1
T-24A Line mount\P(See Technical Data for Body Features)
304
ACVALUE_END
170
2
140
0.125
171
1
172
0
173
0
174
0
175
1
176
1
 91
33
178
0
145
0.0
301
CELL_VALUE
 90
4
  1
Jan-27-20
304
ACVALUE_END
170
5
140
0.125
171
1
172
0
173
0
174
0
175
1
176
1
 91
33
178
0
145
0.0
301
CELL_VALUE
 90
4
  1
0.800
304
ACVALUE_END
170
5
140
0.125
171
1
172
0
173
0
174
0
175
1
176
1
 91
33
178
0
145
0.0
301
CELL_VALUE
 90
4
  1
C
304
ACVALUE_END
170
5
140
0.125
171
1
172
0
173
0
174
0
175
1
176
1
 91
33
178
0
145
0.0
301
CELL_VALUE
 90
4
  1
2
304
ACVALUE_END
170
5
140
0.125
171
1
172
0
173
0
174
0
175
1
176
1
 91
33
178
0
145
0.0
301
CELL_VALUE
 90
4
  1
 
304
ACVALUE_END
170
1
140
0.125
171
1
172
0
173
0
174
0
175
1
176
1
 91
33
178
0
145
0.0
301
CELL_VALUE
 90
4
  1
DESCRIPTION
304
ACVALUE_END
170
1
140
0.06
171
1
172
0
173
0
174
0
175
1
176
1
 91
33
178
0
145
0.0
301
CELL_VALUE
 90
4
  1
DATE
304
ACVALUE_END
170
1
140
0.06
171
1
172
0
173
0
174
0
175
1
176
1
 91
33
178
0
145
0.0
301
CELL_VALUE
 90
4
  1
SCALE
304
ACVALUE_END
170
1
140
0.06
171
1
172
0
173
0
174
0
175
1
176
1
 91
33
178
0
145
0.0
301
CELL_VALUE
 90
4
  1
DWG SIZE
304
ACVALUE_END
170
1
140
0.06
171
1
172
0
173
0
174
0
175
1
176
1
 91
33
178
0
145
0.0
301
CELL_VALUE
 90
4
  1
SHEET
304
ACVALUE_END
170
1
140
0.06
171
1
172
0
173
0
174
0
175
1
176
1
 91
33
178
0
145
0.0
301
CELL_VALUE
 90
4
  1
 
304
ACVALUE_END
170
1
140
0.125
171
1
172
0
173
0
174
0
175
1
176
1
 91
33
178
0
145
0.0
301
CELL_VALUE
 90
4
  1
Q4N
304
ACVALUE_END
170
5
140
0.125
171
1
172
0
173
0
174
0
175
4
176
1
 91
33
178
0
145
0.0
301
CELL_VALUE
 90
4
  1
ALL DIMENSIONS IN INCH\PVIEWS ARE THIRD ANGLE
304
ACVALUE_END
170
5
140
0.12
171
1
172
0
173
1
174
0
175
1
176
1
 91
1
178
0
145
0.0
170
1
171
1
172
0
173
1
174
0
175
1
176
1
 91
1
178
0
145
0.0
170
1
171
1
172
0
173
1
174
0
175
1
176
1
 91
1
178
0
145
0.0
170
5
171
1
172
0
173
0
174
0
175
1
176
1
 91
33
178
0
145
0.0
301
CELL_VALUE
 90
4
  1
 
304
ACVALUE_END
170
1
140
0.125
171
1
172
0
173
0
174
0
175
1
176
1
 91
33
178
0
145
0.0
301
CELL_VALUE
 90
4
  1
MODEL
304
ACVALUE_END
170
1
140
0.06
171
1
172
0
173
0
174
0
175
1
176
1
 91
33
178
0
145
0.0
301
CELL_VALUE
 90
4
  1
 
304
ACVALUE_END
170
1
140
0.125
171
1
172
0
173
0
174
0
175
1
176
1
 91
33
178
0
145
0.0
301
CELL_VALUE
 90
4
  1
 
304
ACVALUE_END
170
1
140
0.125
171
1
172
0
173
0
174
0
175
1
176
1
 91
33
178
0
145
0.0
301
CELL_VALUE
 90
4
  1
 
304
ACVALUE_END
170
1
140
0.125
171
1
172
0
173
0
174
0
175
1
176
1
 91
33
178
0
145
0.0
301
CELL_VALUE
 90
4
  1
 
304
ACVALUE_END
170
1
140
0.125
171
1
172
0
173
0
174
0
175
1
176
1
 91
33
178
0
145
0.0
301
CELL_VALUE
 90
4
  1
 
304
ACVALUE_END
170
1
140
0.125
  0
ACAD_TABLE
  5
296
100
AcDbEntity
  8
0
 62
2
  6
CONTINUOUS
100
AcDbBlockReference
  2
*T2
 10
12.4237499994
 20
16.47875
 30
0.0
100
AcDbTable
342
       3A7
343
210
 11
1.0
 21
0.0
 31
0.0
 90
22
 91
10
 92
3
 93
16
 94
0
 95
0
 96
0
 41
0.028
141
0.344
141
0.25
141
0.25
141
0.25
141
0.25
141
0.25
141
0.25
141
0.25
141
0.25
141
0.25
142
3.055
142
3.0
142
3.0
171
1
172
0
173
0
174
0
175
1
176
1
 91
33
178
0
145
0.0
301
CELL_VALUE
 90
4
  1
Technical Data
304
ACVALUE_END
170
5
140
0.145
171
1
172
0
173
0
174
0
175
1
176
1
 91
33
178
0
145
0.0
301
CELL_VALUE
 90
4
  1
U.S. Units
304
ACVALUE_END
170
5
140
0.145
171
1
172
0
173
0
174
0
175
1
176
1
 91
33
178
0
145
0.0
301
CELL_VALUE
 90
4
  1
Metric Units
304
ACVALUE_END
170
5
140
0.145
171
1
172
0
173
0
174
0
175
1
176
1
 91
33
178
0
145
0.0
301
CELL_VALUE
 90
4
  1
Cavity
304
ACVALUE_END
170
5
140
0.125
171
1
172
0
173
0
174
0
175
2
176
1
 91
33
178
0
145
0.0
301
CELL_VALUE
 90
4
  1
T-24A
304
ACVALUE_END
170
5
140
0.125
171
1
172
0
173
1
174
0
175
1
176
1
 91
1
178
0
145
0.0
170
1
171
1
172
0
173
0
174
0
175
1
176
1
 91
33
178
0
145
0.0
301
CELL_VALUE
 90
4
  1
Body Features
304
ACVALUE_END
170
5
140
0.125
171
1
172
0
173
0
174
0
175
2
176
1
 91
33
178
0
145
0.0
301
CELL_VALUE
 90
4
  1
Ninety degree with reverse flow check - reducing
304
ACVALUE_END
170
5
140
0.125
171
1
172
0
173
1
174
0
175
1
176
1
 91
1
178
0
145
0.0
170
1
171
1
172
0
173
0
174
0
175
1
176
1
 91
33
178
0
145
0.0
301
CELL_VALUE
 90
4
  1
Body Type
304
ACVALUE_END
170
5
140
0.125
171
1
172
0
173
0
174
0
175
2
176
1
 91
33
178
0
145
0.0
301
CELL_VALUE
 90
4
  1
Line mount
304
ACVALUE_END
170
5
140
0.125
171
1
172
0
173
1
174
0
175
1
176
1
 91
1
178
0
145
0.0
170
1
171
1
172
0
173
0
174
0
175
1
176
1
 91
33
178
0
145
0.0
301
CELL_VALUE
 90
4
  1
Interface
304
ACVALUE_END
170
5
140
0.125
171
1
172
0
173
0
174
0
175
2
176
1
 91
33
178
0
145
0.0
301
CELL_VALUE
 90
4
  1
None
304
ACVALUE_END
170
5
140
0.125
171
1
172
0
173
1
174
0
175
1
176
1
 91
1
178
0
145
0.0
170
1
171
1
172
0
173
0
174
0
175
1
176
1
 91
33
178
0
145
0.0
301
CELL_VALUE
 90
4
  1
Open Cavity Quantity
304
ACVALUE_END
170
5
140
0.125
171
1
172
0
173
0
174
0
175
2
176
1
 91
33
178
0
145
0.0
301
CELL_VALUE
 90
4
  1
1
304
ACVALUE_END
170
5
140
0.125
171
1
172
0
173
1
174
0
175
1
176
1
 91
1
178
0
145
0.0
170
1
171
1
172
0
173
0
174
0
175
1
176
1
 91
33
178
0
145
0.0
301
CELL_VALUE
 90
4
  1
Weight
304
ACVALUE_END
170
5
140
0.125
171
1
172
0
173
0
174
0
175
1
176
1
 91
33
178
0
145
0.0
301
CELL_VALUE
 90
4
  1
18.698 lb.
304
ACVALUE_END
170
5
140
0.125
171
1
172
0
173
0
174
0
175
1
176
1
 91
33
178
0
145
0.0
301
CELL_VALUE
 90
4
  1
8,481 kg.
304
ACVALUE_END
170
5
140
0.125
171
1
172
0
173
0
174
0
175
1
176
1
 91
33
178
0
145
0.0
301
CELL_VALUE
 90
4
  1
Mounting Hole Diameter
304
ACVALUE_END
170
5
140
0.125
171
1
172
0
173
0
174
0
175
1
176
1
 91
33
178
0
145
0.0
301
CELL_VALUE
 90
4
  1
.41 in.
304
ACVALUE_END
170
5
140
0.125
171
1
172
0
173
0
174
0
175
1
176
1
 91
33
178
0
145
0.0
301
CELL_VALUE
 90
4
  1
10,4 mm
304
ACVALUE_END
170
5
140
0.125
171
1
172
0
173
0
174
0
175
1
176
1
 91
33
178
0
145
0.0
301
CELL_VALUE
 90
4
  1
Mounting Hole Depth
304
ACVALUE_END
170
5
140
0.125
171
1
172
0
173
0
174
0
175
2
176
1
 91
33
178
0
145
0.0
301
CELL_VALUE
 90
4
  1
Through
304
ACVALUE_END
170
5
140
0.125
171
1
172
0
173
1
174
0
175
1
176
1
 91
1
178
0
145
0.0
170
1
171
1
172
0
173
0
174
0
175
1
176
1
 91
33
178
0
145
0.0
301
CELL_VALUE
 90
4
  1
Mounting Hole Quantity
304
ACVALUE_END
170
5
140
0.125
171
1
172
0
173
0
174
0
175
2
176
1
 91
33
178
0
145
0.0
301
CELL_VALUE
 90
4
  1
2
304
ACVALUE_END
170
5
140
0.125
171
1
172
0
173
1
174
0
175
1
176
1
 91
1
178
0
145
0.0
170
1
  0
ACAD_TABLE
  5
297
100
AcDbEntity
  8
0
 62
2
  6
CONTINUOUS
100
AcDbBlockReference
  2
*T3
 10
0.52125
 20
2.209
 30
0.0
100
AcDbTable
342
       3A7
343
211
 11
1.0
 21
0.0
 31
0.0
 90
22
 91
6
 92
3
 93
16
 94
0
 95
0
 96
0
 41
0.05
141
0.34375
141
0.344
141
0.25
141
0.25
141
0.25
141
0.25
142
1.3
142
2.0
142
1.3
171
1
172
0
173
0
174
0
175
3
176
1
 91
33
178
0
145
0.0
301
CELL_VALUE
 90
4
  1
Port Headings
304
ACVALUE_END
170
5
140
0.145
171
1
172
0
173
1
174
0
175
1
176
1
 91
1
178
0
145
0.0
170
1
171
1
172
0
173
1
174
0
175
1
176
1
 91
1
178
0
145
0.0
170
1
171
1
172
0
173
0
174
0
175
1
176
1
 91
33
178
0
145
0.0
301
CELL_VALUE
 90
4
  1
Product
304
ACVALUE_END
170
5
140
0.145
171
1
172
0
173
0
174
0
175
1
176
1
 91
33
178
0
145
0.0
301
CELL_VALUE
 90
4
  1
Port
304
ACVALUE_END
170
5
140
0.145
171
1
172
0
173
0
174
0
175
1
176
1
 91
33
178
0
145
0.0
301
CELL_VALUE
 90
4
  1
Size
304
ACVALUE_END
170
5
140
0.145
171
1
172
0
173
0
174
0
175
1
176
1
 91
33
178
0
145
0.0
301
CELL_VALUE
 90
4
  1
Q4N
304
ACVALUE_END
170
5
140
0.125
171
1
172
0
173
0
174
0
175
1
176
1
 91
33
178
0
145
0.0
301
CELL_VALUE
 90
4
  1
Ports 1 &  2
304
ACVALUE_END
170
5
140
0.125
171
1
172
0
173
0
174
0
175
1
176
1
 91
33
178
0
145
0.0
301
CELL_VALUE
 90
4
  1
SAE 20
304
ACVALUE_END
170
5
140
0.125
171
1
172
0
173
0
174
0
175
1
176
1
 91
33
178
0
145
0.0
301
CELL_VALUE
 90
4
  1
Q4N
304
ACVALUE_END
170
5
140
0.125
171
1
172
0
173
0
174
0
175
1
176
1
 91
33
178
0
145
0.0
301
CELL_VALUE
 90
4
  1
Port 3
304
ACVALUE_END
170
5
140
0.125
171
1
172
0
173
0
174
0
175
1
176
1
 91
33
178
0
145
0.0
301
CELL_VALUE
 90
4
  1
SAE 12
304
ACVALUE_END
170
5
140
0.125
171
1
172
0
173
0
174
0
175
1
176
1
 91
33
178
0
145
0.0
301
CELL_VALUE
 90
4
  1
Q4N
304
ACVALUE_END
170
5
140
0.125
171
1
172
0
173
0
174
0
175
1
176
1
 91
33
178
0
145
0.0
301
CELL_VALUE
 90
4
  1
Port 4
304
ACVALUE_END
170
5
140
0.125
171
1
172
0
173
0
174
0
175
1
176
1
 91
33
178
0
145
0.0
301
CELL_VALUE
 90
4
  1
SAE 6
304
ACVALUE_END
170
5
140
0.125
171
1
172
0
173
0
174
0
175
1
176
1
 91
33
178
0
145
0.0
301
CELL_VALUE
 90
4
  1
Q4N
304
ACVALUE_END
170
5
140
0.125
171
1
172
0
173
0
174
0
175
1
176
1
 91
33
178
0
145
0.0
301
CELL_VALUE
 90
4
  1
Gage Port
304
ACVALUE_END
170
5
140
0.125
171
1
172
0
173
0
174
0
175
1
176
1
 91
33
178
0
145
0.0
301
CELL_VALUE
 90
4
  1
1/4" NPTF
304
ACVALUE_END
170
5
140
0.125
  0
MTEXT
  5
298
100
AcDbEntity
  8
0
100
AcDbMText
 62
2
  6
CONTINUOUS
  7
STANDARD
 71
1
 72
1
 10
0.52125
 20
5.75995
 30
0.0
 11
1.0
 21
0.0
 31
0.0
 44
0.6
  3
Notes\P \P1. Important: Carefully consider\P   the maximum system pressure. The\P   pressure rating of the manifold is\P   dependent on the manifold material,\P   with the port type/size a secondary\P   consideration. Manifolds\P   constructed of alu
  1
minum are not\P   rated for pressures higher than\P   3000 psi (210 bar), regardless of\P   the port type/size specified.
 40
0.1
 41
3.04
  0
LINE
  5
299
100
AcDbEntity
  8
0
100
AcDbLine
 62
7
  6
CONTINUOUS
 10
0.30125
 20
0.30125
 11
0.30125
 21
16.69875
  0
LINE
  5
29A
100
AcDbEntity
  8
0
100
AcDbLine
 62
7
  6
CONTINUOUS
 10
0.30125
 20
0.30125
 11
21.69875
 21
0.30125
  0
LINE
  5
29B
100
AcDbEntity
  8
0
100
AcDbLine
 62
7
  6
CONTINUOUS
 10
0.30125
 20
16.69875
 11
21.69875
 21
16.69875
  0
LINE
  5
29C
100
AcDbEntity
  8
0
100
AcDbLine
 62
7
  6
CONTINUOUS
 10
21.69875
 20
0.30125
 11
21.69875
 21
16.69875
  0
LINE
  5
29D
100
AcDbEntity
  8
0
100
AcDbLine
 62
7
  6
CONTINUOUS
 10
9.1476517763
 20
12.3098056532
 11
8.2159039828
 21
11.4098063427
  0
LINE
  5
29E
100
AcDbEntity
  8
0
100
AcDbLine
 62
7
  6
CONTINUOUS
 10
8.2159039828
 20
5.5176584532
 11
12.8523482237
 21
5.196119953
  0
LINE
  5
29F
100
AcDbEntity
  8
0
100
AcDbLine
 62
4
  6
CONTINUOUS
 10
8.432271232
 20
10.2550088405
 11
8.4245438251
 21
10.2452415312
  0
LINE
  5
2A0
100
AcDbEntity
  8
0
100
AcDbLine
 62
4
  6
CONTINUOUS
 10
8.4399986389
 20
10.1926536878
 11
8.4245438251
 21
10.1731190647
  0
LINE
  5
2A1
100
AcDbEntity
  8
0
100
AcDbLine
 62
4
  6
CONTINUOUS
 10
8.3781793837
 20
10.2793665437
 11
8.3936341975
 21
10.2885979555
  0
LINE
  5
2A2
100
AcDbEntity
  8
0
100
AcDbLine
 62
4
  6
CONTINUOUS
 10
8.4245438251
 20
10.2452415312
 11
8.4090890113
 21
10.2360101121
  0
LINE
  5
2A3
100
AcDbEntity
  8
0
100
AcDbLine
 62
7
  6
CONTINUOUS
 10
11.568625972
 20
4.7888226273
 11
11.5872500843
 21
4.7796226724
  0
LINE
  5
2A4
100
AcDbEntity
  8
0
100
AcDbLine
 62
7
  6
CONTINUOUS
 10
8.2159039828
 20
5.5176584532
 11
8.2159039828
 21
11.4098063427
  0
LINE
  5
2A5
100
AcDbEntity
  8
0
100
AcDbLine
 62
4
  6
CONTINUOUS
 10
8.432271232
 20
10.2653120472
 11
8.432271232
 21
10.2550088405
  0
LINE
  5
2A6
100
AcDbEntity
  8
0
100
AcDbLine
 62
4
  6
CONTINUOUS
 10
8.432271232
 20
7.1717732574
 11
8.432271232
 21
7.0481347471
  0
LINE
  5
2A7
100
AcDbEntity
  8
0
100
AcDbLine
 62
4
  6
CONTINUOUS
 10
8.4399986389
 20
10.2029568982
 11
8.4399986389
 21
10.1926536878
  0
LINE
  5
2A8
100
AcDbEntity
  8
0
100
AcDbLine
 62
4
  6
CONTINUOUS
 10
8.4245438251
 20
10.1731190647
 11
8.4090890113
 21
10.1638876502
  0
LINE
  5
2A9
100
AcDbEntity
  8
0
100
AcDbLine
 62
7
  6
CONTINUOUS
 10
11.108183727
 20
11.6915341809
 11
11.1060321552
 21
11.6894948043
  0
LINE
  5
2AA
100
AcDbEntity
  8
0
100
AcDbLine
 62
4
  6
CONTINUOUS
 10
10.2404845966
 20
7.2611951259
 11
10.2250297829
 21
7.2622669209
  0
LINE
  5
2AB
100
AcDbEntity
  8
0
100
AcDbLine
 62
4
  6
CONTINUOUS
 10
10.2327571897
 20
7.3235502786
 11
10.2636668173
 21
7.3214066886
  0
LINE
  5
2AC
100
AcDbEntity
  8
0
100
AcDbLine
 62
4
  6
CONTINUOUS
 10
10.2250297829
 20
7.2622669209
 11
10.2095749691
 21
7.2736419254
  0
LINE
  5
2AD
100
AcDbEntity
  8
0
100
AcDbLine
 62
4
  6
CONTINUOUS
 10
10.2404845966
 20
7.3848336363
 11
10.2559394104
 21
7.3734586345
  0
LINE
  5
2AE
100
AcDbEntity
  8
0
100
AcDbLine
 62
4
  6
CONTINUOUS
 10
10.2095749691
 20
7.2736419254
 11
10.1941201553
 21
7.2953201384
  0
LINE
  5
2AF
100
AcDbEntity
  8
0
100
AcDbLine
 62
4
  6
CONTINUOUS
 10
10.2559394104
 20
7.3734586345
 11
10.2636668173
 21
7.362619523
  0
LINE
  5
2B0
100
AcDbEntity
  8
0
100
AcDbLine
 62
4
  6
CONTINUOUS
 10
9.9556745137
 20
9.0167432861
 11
9.9556745137
 21
9.0344059293
  0
LINE
  5
2B1
100
AcDbEntity
  8
0
100
AcDbLine
 62
4
  6
CONTINUOUS
 10
10.0174937689
 20
8.9418055275
 11
10.0174937689
 21
8.9594681726
  0
LINE
  5
2B2
100
AcDbEntity
  8
0
100
AcDbLine
 62
4
  6
CONTINUOUS
 10
10.0528190555
 20
9.0453315758
 11
10.0528190555
 21
8.9393557106
  0
LINE
  5
2B3
100
AcDbEntity
  8
0
100
AcDbLine
 62
4
  6
CONTINUOUS
 10
10.0910881947
 20
8.2884826889
 11
10.0910881947
 21
8.4121211993
  0
LINE
  5
2B4
100
AcDbEntity
  8
0
100
AcDbLine
 62
4
  6
CONTINUOUS
 10
9.9556745137
 20
9.0344059293
 11
9.9733371589
 21
9.050843664
  0
LINE
  5
2B5
100
AcDbEntity
  8
0
100
AcDbLine
 62
4
  6
CONTINUOUS
 10
9.9998311256
 20
8.9253677909
 11
10.0174937689
 21
8.9418055275
  0
LINE
  5
2B6
100
AcDbEntity
  8
0
100
AcDbLine
 62
4
  6
CONTINUOUS
 10
10.0969756747
 20
8.9186307935
 11
10.1146383106
 21
8.9350685306
  0
LINE
  5
2B7
100
AcDbEntity
  8
0
100
AcDbLine
 62
4
  6
CONTINUOUS
 10
10.2250297829
 20
7.3859054312
 11
10.2404845966
 21
7.3848336363
  0
LINE
  5
2B8
100
AcDbEntity
  8
0
100
AcDbLine
 62
4
  6
CONTINUOUS
 10
8.3781793837
 20
10.1763344496
 11
8.3704519768
 21
10.1871735566
  0
LINE
  5
2B9
100
AcDbEntity
  8
0
100
AcDbLine
 62
4
  6
CONTINUOUS
 10
8.4245438251
 20
10.2246351104
 11
8.4399986389
 21
10.2029568982
  0
LINE
  5
2BA
100
AcDbEntity
  8
0
100
AcDbLine
 62
4
  6
CONTINUOUS
 10
8.4245438251
 20
10.2761511588
 11
8.432271232
 21
10.2653120472
  0
LINE
  5
2BB
100
AcDbEntity
  8
0
100
AcDbLine
 62
4
  6
CONTINUOUS
 10
10.1941201553
 20
7.2953201384
 11
10.1863927484
 21
7.3267656635
  0
LINE
  5
2BC
100
AcDbEntity
  8
0
100
AcDbLine
 62
4
  6
CONTINUOUS
 10
10.1146383106
 20
8.9350685306
 11
10.1146383106
 21
9.0410443959
  0
LINE
  5
2BD
100
AcDbEntity
  8
0
100
AcDbLine
 62
4
  6
CONTINUOUS
 10
10.1499635972
 20
8.9149560686
 11
10.1499635972
 21
9.0385945789
  0
LINE
  5
2BE
100
AcDbEntity
  8
0
100
AcDbLine
 62
4
  6
CONTINUOUS
 10
10.1529074425
 20
8.3901713766
 11
10.1529074425
 21
8.3018581547
  0
LINE
  5
2BF
100
AcDbEntity
  8
0
100
AcDbLine
 62
4
  6
CONTINUOUS
 10
10.2117828523
 20
8.9106688887
 11
10.2117828523
 21
9.034307399
  0
LINE
  5
2C0
100
AcDbEntity
  8
0
100
AcDbLine
 62
4
  6
CONTINUOUS
 10
10.2636668173
 20
7.3214066886
 11
10.2636668173
 21
7.2801938525
  0
LINE
  5
2C1
100
AcDbEntity
  8
0
100
AcDbLine
 62
4
  6
CONTINUOUS
 10
10.3442526806
 20
8.9014820749
 11
10.3442526806
 21
9.0251205852
  0
LINE
  5
2C2
100
AcDbEntity
  8
0
100
AcDbLine
 62
4
  6
CONTINUOUS
 10
10.3442527631
 20
8.2709256665
 11
10.3442527631
 21
8.3945641768
  0
LINE
  5
2C3
100
AcDbEntity
  8
0
100
AcDbLine
 62
4
  6
CONTINUOUS
 10
10.3972406178
 20
8.9772892474
 11
10.3972406178
 21
8.897807349
  0
LINE
  5
2C4
100
AcDbEntity
  8
0
100
AcDbLine
 62
4
  6
CONTINUOUS
 10
10.4016561836
 20
8.5566120936
 11
10.4016561836
 21
8.6449253155
  0
LINE
  5
2C5
100
AcDbEntity
  8
0
100
AcDbLine
 62
4
  6
CONTINUOUS
 10
10.2029516022
 20
8.2807249353
 11
10.2382768887
 21
8.4019136287
  0
LINE
  5
2C6
100
AcDbEntity
  8
0
100
AcDbLine
 62
4
  6
CONTINUOUS
 10
10.450228555
 20
8.8646948824
 11
10.4855538269
 21
8.9799960309
  0
LINE
  5
2C7
100
AcDbEntity
  8
0
100
AcDbLine
 62
4
  6
CONTINUOUS
 10
10.5091040474
 20
8.9695314922
 11
10.5267666833
 21
8.9771379096
  0
LINE
  5
2C8
100
AcDbEntity
  8
0
100
AcDbLine
 62
4
  6
CONTINUOUS
 10
10.0204376142
 20
8.3463702569
 11
10.067538
 21
8.3195536411
  0
LINE
  5
2C9
100
AcDbEntity
  8
0
100
AcDbLine
 62
4
  6
CONTINUOUS
 10
10.1352447992
 20
8.4090589283
 11
10.1529074425
 21
8.3901713766
  0
LINE
  5
2CA
100
AcDbEntity
  8
0
100
AcDbLine
 62
4
  6
CONTINUOUS
 10
10.2382768887
 20
8.4019136287
 11
10.27360219
 21
8.2758253004
  0
LINE
  5
2CB
100
AcDbEntity
  8
0
100
AcDbLine
 62
4
  6
CONTINUOUS
 10
10.4149033363
 20
8.2660260326
 11
10.4149033363
 21
8.3896645429
  0
LINE
  5
2CC
100
AcDbEntity
  8
0
100
AcDbLine
 62
4
  6
CONTINUOUS
 10
10.4634754388
 20
8.6406381356
 11
10.4634754388
 21
8.5523249137
  0
LINE
  5
2CD
100
AcDbEntity
  8
0
100
AcDbLine
 62
4
  6
CONTINUOUS
 10
10.5091040474
 20
8.8988809163
 11
10.5091040474
 21
8.9695314922
  0
LINE
  5
2CE
100
AcDbEntity
  8
0
100
AcDbLine
 62
4
  6
CONTINUOUS
 10
10.548844885
 20
8.5287418774
 11
10.548844885
 21
8.5905611325
  0
LINE
  5
2CF
100
AcDbEntity
  8
0
100
AcDbLine
 62
4
  6
CONTINUOUS
 10
10.5620919551
 20
9.0100133802
 11
10.5620919551
 21
8.8863748699
  0
LINE
  5
2D0
100
AcDbEntity
  8
0
100
AcDbLine
 62
4
  6
CONTINUOUS
 10
10.5974172859
 20
8.8839250499
 11
10.5974172859
 21
8.9722382736
  0
LINE
  5
2D1
100
AcDbEntity
  8
0
100
AcDbLine
 62
4
  6
CONTINUOUS
 10
10.6003611312
 20
8.270827136
 11
10.6003611312
 21
8.3591403579
  0
LINE
  5
2D2
100
AcDbEntity
  8
0
100
AcDbLine
 62
4
  6
CONTINUOUS
 10
10.6047765998
 20
8.5248629998
 11
10.6047765998
 21
8.6485015101
  0
LINE
  5
2D3
100
AcDbEntity
  8
0
100
AcDbLine
 62
4
  6
CONTINUOUS
 10
10.6386300834
 20
8.9605488311
 11
10.6386300834
 21
8.9428861878
  0
LINE
  5
2D4
100
AcDbEntity
  8
0
100
AcDbLine
 62
4
  6
CONTINUOUS
 10
10.6665958402
 20
8.5205758209
 11
10.6665958402
 21
8.6442143312
  0
LINE
  5
2D5
100
AcDbEntity
  8
0
100
AcDbLine
 62
4
  6
CONTINUOUS
 10
10.676899177
 20
8.8872442846
 11
10.676899177
 21
8.9137382523
  0
LINE
  5
2D6
100
AcDbEntity
  8
0
100
AcDbLine
 62
4
  6
CONTINUOUS
 10
10.7033931839
 20
8.2636818388
 11
10.7033931839
 21
8.3519950608
  0
LINE
  5
2D7
100
AcDbEntity
  8
0
100
AcDbLine
 62
4
  6
CONTINUOUS
 10
10.1863927484
 20
7.3267656635
 11
10.1941201553
 21
7.3571393936
  0
LINE
  5
2D8
100
AcDbEntity
  8
0
100
AcDbLine
 62
4
  6
CONTINUOUS
 10
10.5076320507
 20
8.5580939639
 11
10.5341260119
 21
8.653401145
  0
LINE
  5
2D9
100
AcDbEntity
  8
0
100
AcDbLine
 62
7
  6
CONTINUOUS
 10
12.8523482237
 20
11.0882678425
 11
13.7840960172
 21
11.988267153
  0
LINE
  5
2DA
100
AcDbEntity
  8
0
100
AcDbLine
 62
4
  6
CONTINUOUS
 10
10.4016561836
 20
8.6449253155
 11
10.4193188287
 21
8.6613630502
  0
LINE
  5
2DB
100
AcDbEntity
  8
0
100
AcDbLine
 62
4
  6
CONTINUOUS
 10
10.1529074425
 20
8.3018581547
 11
10.1352447992
 21
8.285420418
  0
LINE
  5
2DC
100
AcDbEntity
  8
0
100
AcDbLine
 62
4
  6
CONTINUOUS
 10
10.4634754388
 20
8.5523249137
 11
10.4458127955
 21
8.535887177
  0
LINE
  5
2DD
100
AcDbEntity
  8
0
100
AcDbLine
 62
4
  6
CONTINUOUS
 10
10.9801078682
 20
8.9368672663
 11
10.9889391567
 21
8.9450861397
  0
LINE
  5
2DE
100
AcDbEntity
  8
0
100
AcDbLine
 62
4
  6
CONTINUOUS
 10
11.0595898182
 20
8.9313551743
 11
11.0684211067
 21
8.9395740477
  0
LINE
  5
2DF
100
AcDbEntity
  8
0
100
AcDbLine
 62
4
  6
CONTINUOUS
 10
10.676899177
 20
8.9137382523
 11
10.6945618129
 21
8.9213446659
  0
LINE
  5
2E0
100
AcDbEntity
  8
0
100
AcDbLine
 62
4
  6
CONTINUOUS
 10
10.8446943301
 20
8.2362199259
 11
10.8005377109
 21
8.2392821979
  0
LINE
  5
2E1
100
AcDbEntity
  8
0
100
AcDbLine
 62
4
  6
CONTINUOUS
 10
10.7475498031
 20
8.2429569218
 11
10.7210558198
 21
8.2447942858
  0
LINE
  5
2E2
100
AcDbEntity
  8
0
100
AcDbLine
 62
4
  6
CONTINUOUS
 10
10.653349039
 20
8.249489767
 11
10.6180237671
 21
8.2519395829
  0
LINE
  5
2E3
100
AcDbEntity
  8
0
100
AcDbLine
 62
4
  6
CONTINUOUS
 10
10.1352447992
 20
8.285420418
 11
10.0910881947
 21
8.2884826889
  0
LINE
  5
2E4
100
AcDbEntity
  8
0
100
AcDbLine
 62
4
  6
CONTINUOUS
 10
10.4149033363
 20
8.2660260326
 11
10.4678912735
 21
8.2623513067
  0
LINE
  5
2E5
100
AcDbEntity
  8
0
100
AcDbLine
 62
4
  6
CONTINUOUS
 10
10.9124011699
 20
8.2315244407
 11
10.9653890776
 21
8.2278497168
  0
LINE
  5
2E6
100
AcDbEntity
  8
0
100
AcDbLine
 62
4
  6
CONTINUOUS
 10
10.4281501504
 20
8.5724373759
 11
10.4723067641
 21
8.5340498141
  0
LINE
  5
2E7
100
AcDbEntity
  8
0
100
AcDbLine
 62
4
  6
CONTINUOUS
 10
10.0174937689
 20
8.9594681726
 11
9.9556745137
 21
9.0167432861
  0
LINE
  5
2E8
100
AcDbEntity
  8
0
100
AcDbLine
 62
4
  6
CONTINUOUS
 10
9.9556745137
 20
8.9372613848
 11
9.9645058363
 21
8.927817608
  0
LINE
  5
2E9
100
AcDbEntity
  8
0
100
AcDbLine
 62
4
  6
CONTINUOUS
 10
10.6180237671
 20
8.2519395829
 11
10.6003611312
 21
8.270827136
  0
LINE
  5
2EA
100
AcDbEntity
  8
0
100
AcDbLine
 62
4
  6
CONTINUOUS
 10
10.4193188287
 20
8.5377245399
 11
10.4016561836
 21
8.5566120936
  0
LINE
  5
2EB
100
AcDbEntity
  8
0
100
AcDbLine
 62
4
  6
CONTINUOUS
 10
10.0528190555
 20
8.9393557106
 11
10.0704816987
 21
8.920468157
  0
LINE
  5
2EC
100
AcDbEntity
  8
0
100
AcDbLine
 62
4
  6
CONTINUOUS
 10
10.7210558198
 20
8.2447942858
 11
10.7033931839
 21
8.2636818388
  0
LINE
  5
2ED
100
AcDbEntity
  8
0
100
AcDbLine
 62
4
  6
CONTINUOUS
 10
10.0086624473
 20
9.0483938469
 11
10.0174937689
 21
9.0389500674
  0
LINE
  5
2EE
100
AcDbEntity
  8
0
100
AcDbLine
 62
4
  6
CONTINUOUS
 10
10.4458127955
 20
8.6595256874
 11
10.4634754388
 21
8.6406381356
  0
LINE
  5
2EF
100
AcDbEntity
  8
0
100
AcDbLine
 62
4
  6
CONTINUOUS
 10
10.7475498031
 20
8.3665954321
 11
10.765212439
 21
8.3477078809
  0
LINE
  5
2F0
100
AcDbEntity
  8
0
100
AcDbLine
 62
4
  6
CONTINUOUS
 10
10.1499635972
 20
9.0385945789
 11
10.2117828523
 21
8.9106688887
  0
LINE
  5
2F1
100
AcDbEntity
  8
0
100
AcDbLine
 62
4
  6
CONTINUOUS
 10
10.6047765998
 20
8.6485015101
 11
10.6665958402
 21
8.5205758209
  0
LINE
  5
2F2
100
AcDbEntity
  8
0
100
AcDbLine
 62
4
  6
CONTINUOUS
 10
10.4325659191
 20
8.9836707548
 11
10.4590599025
 21
8.893520167
  0
LINE
  5
2F3
100
AcDbEntity
  8
0
100
AcDbLine
 62
4
  6
CONTINUOUS
 10
10.7298870847
 20
8.8747382381
 11
10.7298870847
 21
8.9453888186
  0
LINE
  5
2F4
100
AcDbEntity
  8
0
100
AcDbLine
 62
4
  6
CONTINUOUS
 10
10.7652123565
 20
8.960601646
 11
10.7652123565
 21
8.8811197448
  0
LINE
  5
2F5
100
AcDbEntity
  8
0
100
AcDbLine
 62
4
  6
CONTINUOUS
 10
10.765212439
 20
8.3477078809
 11
10.765212439
 21
8.2593946589
  0
LINE
  5
2F6
100
AcDbEntity
  8
0
100
AcDbLine
 62
4
  6
CONTINUOUS
 10
10.8005377109
 20
8.2392821979
 11
10.8005377109
 21
8.3629207082
  0
LINE
  5
2F7
100
AcDbEntity
  8
0
100
AcDbLine
 62
4
  6
CONTINUOUS
 10
10.8182003232
 20
8.8686136942
 11
10.8182003232
 21
8.956926918
  0
LINE
  5
2F8
100
AcDbEntity
  8
0
100
AcDbLine
 62
4
  6
CONTINUOUS
 10
10.853525595
 20
8.8749952009
 11
10.853525595
 21
8.9898023886
  0
LINE
  5
2F9
100
AcDbEntity
  8
0
100
AcDbLine
 62
4
  6
CONTINUOUS
 10
10.862356966
 20
8.340970885
 11
10.862356966
 21
8.2526576631
  0
LINE
  5
2FA
100
AcDbEntity
  8
0
100
AcDbLine
 62
4
  6
CONTINUOUS
 10
10.9124011699
 20
8.2315244407
 11
10.9124011699
 21
8.355162951
  0
LINE
  5
2FB
100
AcDbEntity
  8
0
100
AcDbLine
 62
4
  6
CONTINUOUS
 10
10.9330074861
 20
8.8606517904
 11
10.9330074861
 21
8.9489650142
  0
LINE
  5
2FC
100
AcDbEntity
  8
0
100
AcDbLine
 62
4
  6
CONTINUOUS
 10
10.9330074861
 20
8.9754589754
 11
10.9330074861
 21
8.9842903008
  0
LINE
  5
2FD
100
AcDbEntity
  8
0
100
AcDbLine
 62
4
  6
CONTINUOUS
 10
10.9801078682
 20
8.8662166904
 11
10.9801078682
 21
8.9368672663
  0
LINE
  5
2FE
100
AcDbEntity
  8
0
100
AcDbLine
 62
4
  6
CONTINUOUS
 10
10.9359512489
 20
8.9840861501
 11
10.9330074861
 21
8.9754589754
  0
LINE
  5
2FF
100
AcDbEntity
  8
0
100
AcDbLine
 62
4
  6
CONTINUOUS
 10
11.1037463785
 20
8.848811008
 11
11.112577667
 21
8.8570298787
  0
LINE
  5
300
100
AcDbEntity
  8
0
100
AcDbLine
 62
4
  6
CONTINUOUS
 10
10.6003611312
 20
8.3591403579
 11
10.6180237671
 21
8.3755780932
  0
LINE
  5
301
100
AcDbEntity
  8
0
100
AcDbLine
 62
4
  6
CONTINUOUS
 10
10.7033931839
 20
8.3519950608
 11
10.7210558198
 21
8.3684327961
  0
LINE
  5
302
100
AcDbEntity
  8
0
100
AcDbLine
 62
4
  6
CONTINUOUS
 10
10.765212439
 20
8.2593946589
 11
10.7475498031
 21
8.2429569218
  0
LINE
  5
303
100
AcDbEntity
  8
0
100
AcDbLine
 62
4
  6
CONTINUOUS
 10
10.067538
 20
8.3666540287
 11
10.0204376142
 21
8.3463702569
  0
LINE
  5
304
100
AcDbEntity
  8
0
100
AcDbLine
 62
4
  6
CONTINUOUS
 10
10.2147266977
 20
8.3152336199
 11
10.2618270798
 21
8.3119671973
  0
LINE
  5
305
100
AcDbEntity
  8
0
100
AcDbLine
 62
4
  6
CONTINUOUS
 10
10.9477264417
 20
8.2997252052
 11
10.9124011699
 21
8.3021750211
  0
LINE
  5
306
100
AcDbEntity
  8
0
100
AcDbLine
 62
4
  6
CONTINUOUS
 10
10.4502286376
 20
8.3342267951
 11
10.4149033363
 21
8.3366766131
  0
LINE
  5
307
100
AcDbEntity
  8
0
100
AcDbLine
 62
4
  6
CONTINUOUS
 10
10.0910881947
 20
8.4121211993
 11
10.1352447992
 21
8.4090589283
  0
LINE
  5
308
100
AcDbEntity
  8
0
100
AcDbLine
 62
4
  6
CONTINUOUS
 10
10.3089274618
 20
8.3970139948
 11
10.379578035
 21
8.3921143609
  0
LINE
  5
309
100
AcDbEntity
  8
0
100
AcDbLine
 62
4
  6
CONTINUOUS
 10
10.4149033363
 20
8.3896645429
 11
10.4678912735
 21
8.385989817
  0
LINE
  5
30A
100
AcDbEntity
  8
0
100
AcDbLine
 62
4
  6
CONTINUOUS
 10
10.6180237671
 20
8.3755780932
 11
10.653349039
 21
8.3731282773
  0
LINE
  5
30B
100
AcDbEntity
  8
0
100
AcDbLine
 62
4
  6
CONTINUOUS
 10
10.7210558198
 20
8.3684327961
 11
10.7475498031
 21
8.3665954321
  0
LINE
  5
30C
100
AcDbEntity
  8
0
100
AcDbLine
 62
4
  6
CONTINUOUS
 10
10.8005377109
 20
8.3629207082
 11
10.8446943301
 21
8.3598584363
  0
LINE
  5
30D
100
AcDbEntity
  8
0
100
AcDbLine
 62
4
  6
CONTINUOUS
 10
10.9124011699
 20
8.355162951
 11
10.9653890776
 21
8.3514882271
  0
LINE
  5
30E
100
AcDbEntity
  8
0
100
AcDbLine
 62
4
  6
CONTINUOUS
 10
10.4458127955
 20
8.535887177
 11
10.4193188287
 21
8.5377245399
  0
LINE
  5
30F
100
AcDbEntity
  8
0
100
AcDbLine
 62
4
  6
CONTINUOUS
 10
10.5694512985
 20
8.5538067845
 11
10.5076320507
 21
8.5580939639
  0
LINE
  5
310
100
AcDbEntity
  8
0
100
AcDbLine
 62
4
  6
CONTINUOUS
 10
11.0007143494
 20
8.3019380291
 11
11.0478147315
 21
8.2751214118
  0
LINE
  5
311
100
AcDbEntity
  8
0
100
AcDbLine
 62
4
  6
CONTINUOUS
 10
8.3936341975
 20
10.1649594452
 11
8.3781793837
 21
10.1763344496
  0
LINE
  5
312
100
AcDbEntity
  8
0
100
AcDbLine
 62
4
  6
CONTINUOUS
 10
8.4090890113
 20
10.2360101121
 11
8.4245438251
 21
10.2246351104
  0
LINE
  5
313
100
AcDbEntity
  8
0
100
AcDbLine
 62
4
  6
CONTINUOUS
 10
8.4090890113
 20
10.2875261605
 11
8.4245438251
 21
10.2761511588
  0
LINE
  5
314
100
AcDbEntity
  8
0
100
AcDbLine
 62
4
  6
CONTINUOUS
 10
10.8446943301
 20
8.3598584363
 11
10.862356966
 21
8.340970885
  0
LINE
  5
315
100
AcDbEntity
  8
0
100
AcDbLine
 62
4
  6
CONTINUOUS
 10
10.3884092999
 20
8.9867330267
 11
10.3972406178
 21
8.9772892474
  0
LINE
  5
316
100
AcDbEntity
  8
0
100
AcDbLine
 62
4
  6
CONTINUOUS
 10
10.6327425577
 20
8.9697884577
 11
10.6386300834
 21
8.9605488311
  0
LINE
  5
317
100
AcDbEntity
  8
0
100
AcDbLine
 62
4
  6
CONTINUOUS
 10
10.7298870847
 20
8.9453888186
 11
10.7210557962
 21
8.9636639138
  0
LINE
  5
318
100
AcDbEntity
  8
0
100
AcDbLine
 62
4
  6
CONTINUOUS
 10
11.0595898182
 20
8.9048612094
 11
11.0595898182
 21
8.9313551743
  0
LINE
  5
319
100
AcDbEntity
  8
0
100
AcDbLine
 62
4
  6
CONTINUOUS
 10
11.112577667
 20
8.8570298787
 11
11.112577667
 21
8.8835238463
  0
LINE
  5
31A
100
AcDbEntity
  8
0
100
AcDbLine
 62
4
  6
CONTINUOUS
 10
12.6746178508
 20
10.7876334524
 11
12.6205260025
 21
10.6986558521
  0
LINE
  5
31B
100
AcDbEntity
  8
0
100
AcDbLine
 62
4
  6
CONTINUOUS
 10
10.1941201553
 20
7.3571393936
 11
10.2095749691
 21
7.3766740195
  0
LINE
  5
31C
100
AcDbEntity
  8
0
100
AcDbLine
 62
4
  6
CONTINUOUS
 10
10.2636668173
 20
7.2801938525
 11
10.2559394104
 21
7.2704265405
  0
LINE
  5
31D
100
AcDbEntity
  8
0
100
AcDbLine
 62
4
  6
CONTINUOUS
 10
10.862356966
 20
8.2526576631
 11
10.8446943301
 21
8.2362199259
  0
LINE
  5
31E
100
AcDbEntity
  8
0
100
AcDbLine
 62
4
  6
CONTINUOUS
 10
11.0478147315
 20
8.2751214118
 11
11.0007143494
 21
8.2548376415
  0
LINE
  5
31F
100
AcDbEntity
  8
0
100
AcDbLine
 62
4
  6
CONTINUOUS
 10
12.6205260025
 20
8.4963448826
 11
12.6823452577
 21
8.4920577027
  0
LINE
  5
320
100
AcDbEntity
  8
0
100
AcDbLine
 62
4
  6
CONTINUOUS
 10
10.4193188287
 20
8.6613630502
 11
10.4458127955
 21
8.6595256874
  0
LINE
  5
321
100
AcDbEntity
  8
0
100
AcDbLine
 62
4
  6
CONTINUOUS
 10
12.6437082232
 20
8.6183757005
 11
12.659163037
 21
8.6173039055
  0
LINE
  5
322
100
AcDbEntity
  8
0
100
AcDbLine
 62
4
  6
CONTINUOUS
 10
10.4325659191
 20
8.8659197903
 11
10.450228555
 21
8.8646948824
  0
LINE
  5
323
100
AcDbEntity
  8
0
100
AcDbLine
 62
4
  6
CONTINUOUS
 10
11.0242645464
 20
8.8543230918
 11
10.9889391567
 21
8.8567729159
  0
LINE
  5
324
100
AcDbEntity
  8
0
100
AcDbLine
 62
4
  6
CONTINUOUS
 10
10.8800195784
 20
8.8643265143
 11
10.8623569425
 21
8.8655514223
  0
LINE
  5
325
100
AcDbEntity
  8
0
100
AcDbLine
 62
4
  6
CONTINUOUS
 10
10.7298870847
 20
8.8747382381
 11
10.6945618129
 21
8.877188054
  0
LINE
  5
326
100
AcDbEntity
  8
0
100
AcDbLine
 62
4
  6
CONTINUOUS
 10
10.5620919551
 20
8.8863748699
 11
10.5267666833
 21
8.8888246858
  0
LINE
  5
327
100
AcDbEntity
  8
0
100
AcDbLine
 62
4
  6
CONTINUOUS
 10
9.9645058363
 20
8.927817608
 11
9.9998311256
 21
8.9253677909
  0
LINE
  5
328
100
AcDbEntity
  8
0
100
AcDbLine
 62
4
  6
CONTINUOUS
 10
10.0704816987
 20
8.920468157
 11
10.0969756747
 21
8.9186307935
  0
LINE
  5
329
100
AcDbEntity
  8
0
100
AcDbLine
 62
4
  6
CONTINUOUS
 10
10.774043704
 20
8.8716759662
 11
10.8182003232
 21
8.8686136942
  0
LINE
  5
32A
100
AcDbEntity
  8
0
100
AcDbLine
 62
4
  6
CONTINUOUS
 10
11.0684211067
 20
8.851260824
 11
11.1037463785
 21
8.848811008
  0
LINE
  5
32B
100
AcDbEntity
  8
0
100
AcDbLine
 62
4
  6
CONTINUOUS
 10
10.5267666833
 20
8.8888246858
 11
10.5091040474
 21
8.8988809163
  0
LINE
  5
32C
100
AcDbEntity
  8
0
100
AcDbLine
 62
4
  6
CONTINUOUS
 10
10.6945618129
 20
8.877188054
 11
10.676899177
 21
8.8872442846
  0
LINE
  5
32D
100
AcDbEntity
  8
0
100
AcDbLine
 62
4
  6
CONTINUOUS
 10
10.7652123565
 20
8.8811197448
 11
10.774043704
 21
8.8716759662
  0
LINE
  5
32E
100
AcDbEntity
  8
0
100
AcDbLine
 62
4
  6
CONTINUOUS
 10
10.8623569425
 20
8.8655514223
 11
10.853525595
 21
8.8749952009
  0
LINE
  5
32F
100
AcDbEntity
  8
0
100
AcDbLine
 62
4
  6
CONTINUOUS
 10
10.9889391567
 20
8.8567729159
 11
10.9801078682
 21
8.8662166904
  0
LINE
  5
330
100
AcDbEntity
  8
0
100
AcDbLine
 62
4
  6
CONTINUOUS
 10
11.0595898182
 20
8.8607045985
 11
11.0684211067
 21
8.851260824
  0
LINE
  5
331
100
AcDbEntity
  8
0
100
AcDbLine
 62
7
  6
CONTINUOUS
 10
11.4405839286
 20
5.2940261394
 11
11.4405839286
 21
4.9529631889
  0
LINE
  5
332
100
AcDbEntity
  8
0
100
AcDbLine
 62
7
  6
CONTINUOUS
 10
11.6219269124
 20
5.2814499607
 11
11.6219269124
 21
4.777799617
  0
LINE
  5
333
100
AcDbEntity
  8
0
100
AcDbLine
 62
7
  6
CONTINUOUS
 10
11.6524874223
 20
5.2793305822
 11
11.6524874223
 21
4.7698899851
  0
LINE
  5
334
100
AcDbEntity
  8
0
100
AcDbLine
 62
4
  6
CONTINUOUS
 10
10.2095749691
 20
7.3766740195
 11
10.2250297829
 21
7.3859054312
  0
LINE
  5
335
100
AcDbEntity
  8
0
100
AcDbLine
 62
4
  6
CONTINUOUS
 10
10.6945618129
 20
8.9213446659
 11
10.7298870847
 21
8.91889485
  0
LINE
  5
336
100
AcDbEntity
  8
0
100
AcDbLine
 62
4
  6
CONTINUOUS
 10
10.7210557962
 20
8.9636639138
 11
10.676899177
 21
8.9667261858
  0
LINE
  5
337
100
AcDbEntity
  8
0
100
AcDbLine
 62
4
  6
CONTINUOUS
 10
10.3442526806
 20
8.9897952987
 11
10.3884092999
 21
8.9867330267
  0
LINE
  5
338
100
AcDbEntity
  8
0
100
AcDbLine
 62
4
  6
CONTINUOUS
 10
10.5267666833
 20
8.9771379096
 11
10.5620919551
 21
8.9746880937
  0
LINE
  5
339
100
AcDbEntity
  8
0
100
AcDbLine
 62
4
  6
CONTINUOUS
 10
10.5974172859
 20
8.9722382736
 11
10.6327425577
 21
8.9697884577
  0
LINE
  5
33A
100
AcDbEntity
  8
0
100
AcDbLine
 62
4
  6
CONTINUOUS
 10
10.9889391567
 20
8.9450861397
 11
11.0242645464
 21
8.9426363156
  0
LINE
  5
33B
100
AcDbEntity
  8
0
100
AcDbLine
 62
4
  6
CONTINUOUS
 10
11.0684211067
 20
8.9395740477
 11
11.1037463785
 21
8.9371242318
  0
LINE
  5
33C
100
AcDbEntity
  8
0
100
AcDbLine
 62
4
  6
CONTINUOUS
 10
9.9733371589
 20
9.050843664
 11
10.0086624473
 21
9.0483938469
  0
LINE
  5
33D
100
AcDbEntity
  8
0
100
AcDbLine
 62
4
  6
CONTINUOUS
 10
10.9330074861
 20
8.9842903008
 11
10.9359512489
 21
8.9840861501
  0
LINE
  5
33E
100
AcDbEntity
  8
0
100
AcDbLine
 62
4
  6
CONTINUOUS
 10
11.1037463785
 20
8.890023846
 11
11.0684211067
 21
8.8983612097
  0
LINE
  5
33F
100
AcDbEntity
  8
0
100
AcDbLine
 62
4
  6
CONTINUOUS
 10
11.0684211067
 20
8.8983612097
 11
11.0595898182
 21
8.9048612094
  0
LINE
  5
340
100
AcDbEntity
  8
0
100
AcDbLine
 62
4
  6
CONTINUOUS
 10
11.112577667
 20
8.8835238463
 11
11.1037463785
 21
8.890023846
  0
LINE
  5
341
100
AcDbEntity
  8
0
100
AcDbLine
 62
4
  6
CONTINUOUS
 10
11.1037463785
 20
8.9371242318
 11
11.112577667
 21
8.9276804545
  0
LINE
  5
342
100
AcDbEntity
  8
0
100
AcDbLine
 62
4
  6
CONTINUOUS
 10
10.2559394104
 20
7.2704265405
 11
10.2404845966
 21
7.2611951259
  0
LINE
  5
343
100
AcDbEntity
  8
0
100
AcDbLine
 62
4
  6
CONTINUOUS
 10
12.6282534094
 20
8.6091442887
 11
12.6437082232
 21
8.6183757005
  0
LINE
  5
344
100
AcDbEntity
  8
0
100
AcDbLine
 62
4
  6
CONTINUOUS
 10
12.6746178508
 20
8.5647160621
 11
12.6437082232
 21
8.5462532349
  0
LINE
  5
345
100
AcDbEntity
  8
0
100
AcDbLine
 62
4
  6
CONTINUOUS
 10
12.6205260025
 20
8.5993769721
 11
12.6282534094
 21
8.6091442887
  0
LINE
  5
346
100
AcDbEntity
  8
0
100
AcDbLine
 62
4
  6
CONTINUOUS
 10
12.6437082232
 20
8.5462532349
 11
12.6282534094
 21
8.5267186127
  0
LINE
  5
347
100
AcDbEntity
  8
0
100
AcDbLine
 62
4
  6
CONTINUOUS
 10
12.6823452577
 20
8.5744833787
 11
12.6746178508
 21
8.5647160621
  0
LINE
  5
348
100
AcDbEntity
  8
0
100
AcDbLine
 62
4
  6
CONTINUOUS
 10
12.659163037
 20
8.6173039055
 11
12.6746178508
 21
8.6059289038
  0
LINE
  5
349
100
AcDbEntity
  8
0
100
AcDbLine
 62
7
  6
CONTINUOUS
 10
12.3292681327
 20
5.2323956805
 11
12.3292681327
 21
4.7229550834
  0
LINE
  5
34A
100
AcDbEntity
  8
0
100
AcDbLine
 62
7
  6
CONTINUOUS
 10
12.3710145538
 20
5.2295005563
 11
12.3710145538
 21
4.7258502127
  0
LINE
  5
34B
100
AcDbEntity
  8
0
100
AcDbLine
 62
4
  6
CONTINUOUS
 10
12.6282534094
 20
8.5267186127
 11
12.6205260025
 21
8.4963448826
  0
LINE
  5
34C
100
AcDbEntity
  8
0
100
AcDbLine
 62
4
  6
CONTINUOUS
 10
8.4090890113
 20
10.1638876502
 11
8.3936341975
 21
10.1649594452
  0
LINE
  5
34D
100
AcDbEntity
  8
0
100
AcDbLine
 62
4
  6
CONTINUOUS
 10
8.3936341975
 20
10.2370819071
 11
8.4090890113
 21
10.2360101121
  0
LINE
  5
34E
100
AcDbEntity
  8
0
100
AcDbLine
 62
4
  6
CONTINUOUS
 10
8.3936341975
 20
10.2885979555
 11
8.4090890113
 21
10.2875261605
  0
LINE
  5
34F
100
AcDbEntity
  8
0
100
AcDbLine
 62
4
  6
CONTINUOUS
 10
12.6746178508
 20
8.6059289038
 11
12.6823452577
 21
8.5950897922
  0
LINE
  5
350
100
AcDbEntity
  8
0
100
AcDbLine
 62
4
  6
CONTINUOUS
 10
12.6746178508
 20
10.6639949421
 11
12.6746178508
 21
10.7876334524
  0
LINE
  5
351
100
AcDbEntity
  8
0
100
AcDbLine
 62
4
  6
CONTINUOUS
 10
12.6823452577
 20
8.5950897922
 11
12.6823452577
 21
8.5744833787
  0
LINE
  5
352
100
AcDbEntity
  8
0
100
AcDbLine
 62
7
  6
CONTINUOUS
 10
12.8523482237
 20
5.196119953
 11
12.8523482237
 21
11.0882678425
  0
LINE
  5
353
100
AcDbEntity
  8
0
100
AcDbLine
 62
7
  6
CONTINUOUS
 10
12.8664522806
 20
5.2097434265
 11
12.8664522806
 21
4.8540788829
  0
LINE
  5
354
100
AcDbEntity
  8
0
100
AcDbLine
 62
7
  6
CONTINUOUS
 10
12.8776381918
 20
5.2205481877
 11
12.8776381918
 21
4.8648836441
  0
LINE
  5
355
100
AcDbEntity
  8
0
100
AcDbLine
 62
4
  6
CONTINUOUS
 10
12.6205260025
 20
10.6986558521
 11
12.6900726645
 21
10.6938327747
  0
LINE
  5
356
100
AcDbEntity
  8
0
100
AcDbLine
 62
7
  6
CONTINUOUS
 10
13.7840960172
 20
6.0961192635
 11
13.7840960172
 21
11.988267153
  0
LINE
  5
357
100
AcDbEntity
  8
0
100
AcDbLine
 62
7
  6
CONTINUOUS
 10
8.2159039828
 20
11.4098063427
 11
12.8523482237
 21
11.0882678425
  0
LINE
  5
358
100
AcDbEntity
  8
0
100
AcDbLine
 62
7
  6
CONTINUOUS
 10
12.8523482237
 20
5.196119953
 11
13.7840960172
 21
6.0961192635
  0
LINE
  5
359
100
AcDbEntity
  8
0
100
AcDbLine
 62
7
  6
CONTINUOUS
 10
13.7840960172
 20
11.988267153
 11
9.1476517763
 21
12.3098056532
  0
LINE
  5
35A
100
AcDbEntity
  8
0
100
AcDbLine
 62
7
  6
CONTINUOUS
 10
12.762864814
 20
4.7953770941
 11
12.7309720362
 21
4.7796226724
  0
ARC
  5
35B
100
AcDbEntity
  8
0
100
AcDbCircle
 62
7
  6
CONTINUOUS
 10
12.1716776285
 20
7.297766641
 40
2.5796296874
100
AcDbArc
 50
273.5024005705
 51
274.4318614998
  0
ARC
  5
35C
100
AcDbEntity
  8
0
100
AcDbCircle
 62
7
  6
CONTINUOUS
 10
11.9192048387
 20
5.8634015173
 40
1.1255690345
100
AcDbArc
 50
254.6857191954
 51
256.2926786396
  0
ARC
  5
35D
100
AcDbEntity
  8
0
100
AcDbCircle
 62
7
  6
CONTINUOUS
 10
12.3688809307
 20
5.591218326
 40
0.8880235852
100
AcDbArc
 50
294.0424242342
 51
296.3106753905
  0
ARC
  5
35E
100
AcDbEntity
  8
0
100
AcDbCircle
 62
7
  6
CONTINUOUS
 10
12.773752521
 20
4.9616125536
 40
0.1419744194
100
AcDbArc
 50
310.7630914437
 51
313.9856916518
  0
ARC
  5
35F
100
AcDbEntity
  8
0
100
AcDbCircle
 62
7
  6
CONTINUOUS
 10
12.7882428
 20
4.946746438
 40
0.1212149046
100
AcDbArc
 50
313.9375979844
 51
317.5184669645
  0
ARC
  5
360
100
AcDbEntity
  8
0
100
AcDbCircle
 62
7
  6
CONTINUOUS
 10
13.1043310173
 20
8.3907504989
 40
0.1187758098
100
AcDbArc
 50
312.5993994839
 51
314.0111140865
  0
SPLINE
  5
361
100
AcDbEntity
  8
0
100
AcDbSpline
 62
7
  6
CONTINUOUS
 70
0
 71
3
 72
9
 73
5
 74
0
 42
0.0000001
 43
0.0000001
 44
0.0000000001
 40
0.0
 40
0.0
 40
0.0
 40
0.0
 40
0.5047194233
 40
1.0
 40
1.0
 40
1.0
 40
1.0
 10
12.8664522806
 20
4.8540788829
 30
0.0
 10
12.8494612073
 20
4.8433235487
 30
0.0
 10
12.8153392214
 20
4.8227247104
 30
0.0
 10
12.7801772524
 20
4.8039337161
 30
0.0
 10
12.7624869214
 20
4.7951905552
 30
0.0
  0
SPLINE
  5
362
100
AcDbEntity
  8
0
100
AcDbSpline
 62
7
  6
CONTINUOUS
 70
0
 71
3
 72
22
 73
18
 74
0
 42
0.0000001
 43
0.0000001
 44
0.0000000001
 40
0.0
 40
0.0
 40
0.0
 40
0.0
 40
0.043290989
 40
0.0886107636
 40
0.1362169549
 40
0.1863255266
 40
0.2391104607
 40
0.2946904167
 40
0.3531382065
 40
0.4144717324
 40
0.4786700373
 40
0.5456687108
 40
0.6153767118
 40
0.6876754969
 40
0.7624330017
 40
0.8395067268
 40
1.0
 40
1.0
 40
1.0
 40
1.0
 10
11.5690591771
 20
4.788608744
 30
0.0
 10
11.5663184403
 20
4.7899614878
 30
0.0
 10
11.560815536
 20
4.7929521107
 30
0.0
 10
11.5527182431
 20
4.7981548632
 30
0.0
 10
11.5446101032
 20
4.8041869265
 30
0.0
 10
11.5364966699
 20
4.8110577675
 30
0.0
 10
11.5283843033
 20
4.8187710533
 30
0.0
 10
11.5202774017
 20
4.827320385
 30
0.0
 10
11.5121825391
 20
4.836693397
 30
0.0
 10
11.5041034402
 20
4.8468684652
 30
0.0
 10
11.4960459717
 20
4.8578191236
 30
0.0
 10
11.488013013
 20
4.8695119972
 30
0.0
 10
11.4800090366
 20
4.8819107725
 30
0.0
 10
11.4720359639
 20
4.8949752514
 30
0.0
 10
11.4640963886
 20
4.9086644966
 30
0.0
 10
11.4534121702
 20
4.9279548437
 30
0.0
 10
11.445675326
 20
4.9428404609
 30
0.0
 10
11.4405839286
 20
4.9529631889
 30
0.0
  0
SPLINE
  5
363
100
AcDbEntity
  8
0
100
AcDbSpline
 62
7
  6
CONTINUOUS
 70
0
 71
3
 72
40
 73
36
 74
0
 42
0.0000001
 43
0.0000001
 44
0.0000000001
 40
0.0
 40
0.0
 40
0.0
 40
0.0
 40
0.0099876785
 40
0.0204482795
 40
0.0427701648
 40
0.0669211905
 40
0.0928342639
 40
0.1204254124
 40
0.1495972838
 40
0.180239754
 40
0.2122331688
 40
0.2454486637
 40
0.2797495343
 40
0.3149929525
 40
0.35102996
 40
0.3877074255
 40
0.4248683977
 40
0.4623531778
 40
0.5000003787
 40
0.5376475565
 40
0.5751324122
 40
0.6122933727
 40
0.6489709257
 40
0.6850080032
 40
0.7202514034
 40
0.7545525168
 40
0.787767974
 40
0.8197615939
 40
0.8504042239
 40
0.8795760634
 40
0.9071675908
 40
0.9330806358
 40
0.9572319185
 40
0.9795539128
 40
1.0
 40
1.0
 40
1.0
 40
1.0
 10
12.7309700086
 20
4.779621662
 30
0.0
 10
12.7274912753
 20
4.7779032859
 30
0.0
 10
12.7203096281
 20
4.7745044967
 30
0.0
 10
12.7050844282
 20
4.7678468161
 30
0.0
 10
12.6844595289
 20
4.7598306312
 30
0.0
 10
12.6578028159
 20
4.750851708
 30
0.0
 10
12.6288486176
 20
4.7423576724
 30
0.0
 10
12.5977294631
 20
4.7343877641
 30
0.0
 10
12.5645872179
 20
4.7269801185
 30
0.0
 10
12.5295740907
 20
4.7201687277
 30
0.0
 10
12.4928510422
 20
4.7139859496
 30
0.0
 10
12.4545871896
 20
4.7084607627
 30
0.0
 10
12.4149589558
 20
4.7036186237
 30
0.0
 10
12.3741491566
 20
4.6994828018
 30
0.0
 10
12.3323461548
 20
4.6960720804
 30
0.0
 10
12.2897429915
 20
4.6934026391
 30
0.0
 10
12.2465363872
 20
4.6914870897
 30
0.0
 10
12.2029259223
 20
4.6903339223
 30
0.0
 10
12.1591130515
 20
4.6899490882
 30
0.0
 10
12.1153001539
 20
4.6903339482
 30
0.0
 10
12.0716896637
 20
4.6914868103
 30
0.0
 10
12.0284830093
 20
4.6934025617
 30
0.0
 10
11.9858797743
 20
4.6960717366
 30
0.0
 10
11.9440767128
 20
4.6994824266
 30
0.0
 10
11.9032668112
 20
4.7036183466
 30
0.0
 10
11.8636384595
 20
4.7084601295
 30
0.0
 10
11.8253744778
 20
4.7139855473
 30
0.0
 10
11.7886512673
 20
4.7201680974
 30
0.0
 10
11.7536379794
 20
4.7269793994
 30
0.0
 10
11.7204956062
 20
4.7343872516
 30
0.0
 10
11.6893761315
 20
4.7423567164
 30
0.0
 10
11.660422032
 20
4.7508510457
 30
0.0
 10
11.6337642687
 20
4.7598298532
 30
0.0
 10
11.6095246073
 20
4.7692515623
 30
0.0
 10
11.5943755303
 20
4.7761030134
 30
0.0
 10
11.5872541307
 20
4.7796208023
 30
0.0
  0
SPLINE
  5
364
100
AcDbEntity
  8
0
100
AcDbSpline
 62
7
  6
CONTINUOUS
 70
0
 71
3
 72
21
 73
17
 74
0
 42
0.0000001
 43
0.0000001
 44
0.0000000001
 40
0.0
 40
0.0
 40
0.0
 40
0.0
 40
0.1229683586
 40
0.1846291852
 40
0.2464222231
 40
0.3083594657
 40
0.3704517377
 40
0.4327079591
 40
0.49513282
 40
0.557727432
 40
0.6204888849
 40
0.6834099387
 40
0.7464809678
 40
0.8096898189
 40
0.8730228
 40
1.0
 40
1.0
 40
1.0
 40
1.0
 10
12.3292681327
 20
4.7229550834
 30
0.0
 10
12.3016584634
 20
4.7173070127
 30
0.0
 10
12.2599779245
 20
4.7098576551
 30
0.0
 10
12.2039873424
 20
4.7024275562
 30
0.0
 10
12.1617015356
 20
4.6982089792
 30
0.0
 10
12.1191952304
 20
4.6954587606
 30
0.0
 10
12.0765093497
 20
4.6942705605
 30
0.0
 10
12.033696874
 20
4.694718836
 30
0.0
 10
11.9908194683
 20
4.6968484122
 30
0.0
 10
11.9479435272
 20
4.700670416
 30
0.0
 10
11.9051354108
 20
4.7061641043
 30
0.0
 10
11.8624562969
 20
4.7132757851
 30
0.0
 10
11.8199582798
 20
4.7219235777
 30
0.0
 10
11.7776817404
 20
4.7320080683
 30
0.0
 10
11.7216039736
 20
4.7472314119
 30
0.0
 10
11.6800111486
 20
4.7604419418
 30
0.0
 10
11.6524874223
 20
4.7698899851
 30
0.0
  0
SPLINE
  5
365
100
AcDbEntity
  8
0
100
AcDbSpline
 62
7
  6
CONTINUOUS
 70
0
 71
3
 72
11
 73
7
 74
0
 42
0.0000001
 43
0.0000001
 44
0.0000000001
 40
0.0
 40
0.0
 40
0.0
 40
0.0
 40
0.2458672335
 40
0.4933492082
 40
0.7440905688
 40
1.0
 40
1.0
 40
1.0
 40
1.0
 10
11.6219269124
 20
4.777799617
 30
0.0
 10
11.6191431463
 20
4.7776427408
 30
0.0
 10
11.613543403
 20
4.7775312626
 30
0.0
 10
11.6051107039
 20
4.7780221108
 30
0.0
 10
11.5966333087
 20
4.7792202345
 30
0.0
 10
11.5910252162
 20
4.7805072114
 30
0.0
 10
11.5882268988
 20
4.7812762309
 30
0.0
  0
LINE
  5
366
100
AcDbEntity
  8
0
100
AcDbLine
 62
7
  6
CONTINUOUS
 10
11.5882268988
 20
4.7812762309
 11
11.5879064626
 21
4.7813648512
  0
SPLINE
  5
367
100
AcDbEntity
  8
0
100
AcDbSpline
 62
7
  6
CONTINUOUS
 70
0
 71
3
 72
9
 73
5
 74
0
 42
0.0000001
 43
0.0000001
 44
0.0000000001
 40
0.0
 40
0.0
 40
0.0
 40
0.0
 40
0.4899125641
 40
1.0
 40
1.0
 40
1.0
 40
1.0
 10
11.5879064626
 20
4.7813648512
 30
0.0
 10
11.584726353
 20
4.782249903
 30
0.0
 10
11.5783193191
 20
4.7843720077
 30
0.0
 10
11.5721411272
 20
4.7870875878
 30
0.0
 10
11.5690591771
 20
4.788608744
 30
0.0
  0
LINE
  5
368
100
AcDbEntity
  8
0
100
AcDbLine
 62
7
  6
CONTINUOUS
 10
12.7306732476
 20
4.7802360776
 11
12.7297061376
 21
4.7798060247
  0
SPLINE
  5
369
100
AcDbEntity
  8
0
100
AcDbSpline
 62
7
  6
CONTINUOUS
 70
0
 71
3
 72
15
 73
11
 74
0
 42
0.0000001
 43
0.0000001
 44
0.0000000001
 40
0.0
 40
0.0
 40
0.0
 40
0.0
 40
0.1323763415
 40
0.2621392813
 40
0.3894055944
 40
0.5144404382
 40
0.637615975
 40
0.7593469011
 40
0.8800294664
 40
1.0
 40
1.0
 40
1.0
 40
1.0
 10
12.7297061376
 20
4.7798060247
 30
0.0
 10
12.7148905364
 20
4.7732291552
 30
0.0
 10
12.685160556
 20
4.7610600962
 30
0.0
 10
12.6398980051
 20
4.745942902
 30
0.0
 10
12.5945363241
 20
4.7343205157
 30
0.0
 10
12.5492318105
 20
4.7262347256
 30
0.0
 10
12.5041319998
 20
4.7215770527
 30
0.0
 10
12.4593543155
 20
4.7201135772
 30
0.0
 10
12.4149753899
 20
4.7215292589
 30
0.0
 10
12.3856084344
 20
4.7241666449
 30
0.0
 10
12.3710145538
 20
4.7258502127
 30
0.0
  0
SPLINE
  5
36A
100
AcDbEntity
  8
0
100
AcDbSpline
 62
7
  6
CONTINUOUS
 70
0
 71
3
 72
16
 73
12
 74
0
 42
0.0000001
 43
0.0000001
 44
0.0000000001
 40
0.0
 40
0.0
 40
0.0
 40
0.0
 40
0.1504820041
 40
0.2917480643
 40
0.4244939849
 40
0.4879688087
 40
0.5496752018
 40
0.6683418057
 40
0.7818820064
 40
0.8918564741
 40
1.0
 40
1.0
 40
1.0
 40
1.0
 10
13.3182221205
 20
11.4834027513
 30
0.0
 10
13.319334815
 20
11.4844775318
 30
0.0
 10
13.3215587587
 20
11.4864941621
 30
0.0
 10
13.325002269
 20
11.4891816448
 30
0.0
 10
13.3279109532
 20
11.4910823753
 30
0.0
 10
13.3302303525
 20
11.4923694954
 30
0.0
 10
13.3324814529
 20
11.4934745326
 30
0.0
 10
13.3352963265
 20
11.4945910771
 30
0.0
 10
13.3387043238
 20
11.4954978617
 30
0.0
 10
13.3420930746
 20
11.4959506452
 30
0.0
 10
13.3443434861
 20
11.4959481532
 30
0.0
 10
13.3454525784
 20
11.4958712456
 30
0.0
  0
SPLINE
  5
36B
100
AcDbEntity
  8
0
100
AcDbSpline
 62
7
  6
CONTINUOUS
 70
0
 71
3
 72
18
 73
14
 74
0
 42
0.0000001
 43
0.0000001
 44
0.0000000001
 40
0.0
 40
0.0
 40
0.0
 40
0.0
 40
0.150469112
 40
0.2917140284
 40
0.424441815
 40
0.4879094416
 40
0.5496093301
 40
0.6682625491
 40
0.781788358
 40
0.8371380776
 40
0.8918079112
 40
0.9460193711
 40
1.0
 40
1.0
 40
1.0
 40
1.0
 10
13.3182221205
 20
9.8127374994
 30
0.0
 10
13.320804946
 20
9.8152323175
 30
0.0
 10
13.3259670347
 20
9.8199133024
 30
0.0
 10
13.3339600158
 20
9.8261512401
 30
0.0
 10
13.3407113938
 20
9.8305630798
 30
0.0
 10
13.3460950707
 20
9.8335506298
 30
0.0
 10
13.3513203442
 20
9.8361155976
 30
0.0
 10
13.3578536178
 20
9.8387073538
 30
0.0
 10
13.3645030758
 20
9.8404760766
 30
0.0
 10
13.369769662
 20
9.8413473569
 30
0.0
 10
13.3736729291
 20
9.8417340532
 30
0.0
 10
13.3775604041
 20
9.8418590205
 30
0.0
 10
13.3801431508
 20
9.8417676923
 30
0.0
 10
13.3814283228
 20
9.8416785695
 30
0.0
  0
SPLINE
  5
36C
100
AcDbEntity
  8
0
100
AcDbSpline
 62
7
  6
CONTINUOUS
 70
0
 71
3
 72
15
 73
11
 74
0
 42
0.0000001
 43
0.0000001
 44
0.0000000001
 40
0.0
 40
0.0
 40
0.0
 40
0.0
 40
0.1273482808
 40
0.2538605196
 40
0.3795878971
 40
0.5046050835
 40
0.6290174393
 40
0.7529533827
 40
0.8765605876
 40
1.0
 40
1.0
 40
1.0
 40
1.0
 10
11.850103527
 20
10.0952552764
 30
0.0
 10
11.850103527
 20
10.0902537335
 30
0.0
 10
11.8496259874
 20
10.0802765681
 30
0.0
 10
11.8474663485
 20
10.0655027066
 30
0.0
 10
11.8438853071
 20
10.0511000515
 30
0.0
 10
11.8389152016
 20
10.0372032937
 30
0.0
 10
11.8326016553
 20
10.023940583
 30
0.0
 10
11.8250021988
 20
10.0114343855
 30
0.0
 10
11.8161882686
 20
9.9998018986
 30
0.0
 10
11.8095518398
 20
9.9926960824
 30
0.0
 10
11.8060648911
 20
9.989327919
 30
0.0
  0
SPLINE
  5
36D
100
AcDbEntity
  8
0
100
AcDbSpline
 62
7
  6
CONTINUOUS
 70
0
 71
3
 72
15
 73
11
 74
0
 42
0.0000001
 43
0.0000001
 44
0.0000000001
 40
0.0
 40
0.0
 40
0.0
 40
0.0
 40
0.1273482808
 40
0.2538605196
 40
0.3795878971
 40
0.5046050835
 40
0.6290174393
 40
0.7529533827
 40
0.8765605876
 40
1.0
 40
1.0
 40
1.0
 40
1.0
 10
9.91825176
 20
5.7859705872
 30
0.0
 10
9.91825176
 20
5.7809690444
 30
0.0
 10
9.9177742203
 20
5.770991879
 30
0.0
 10
9.9156145815
 20
5.7562180174
 30
0.0
 10
9.91203354
 20
5.7418153624
 30
0.0
 10
9.9070634346
 20
5.7279186046
 30
0.0
 10
9.9007498882
 20
5.7146558939
 30
0.0
 10
9.8931504318
 20
5.7021496963
 30
0.0
 10
9.8843365015
 20
5.6905172095
 30
0.0
 10
9.8777000728
 20
5.6834113933
 30
0.0
 10
9.874213124
 20
5.6800432299
 30
0.0
  0
SPLINE
  5
36E
100
AcDbEntity
  8
0
100
AcDbSpline
 62
7
  6
CONTINUOUS
 70
0
 71
3
 72
15
 73
11
 74
0
 42
0.0000001
 43
0.0000001
 44
0.0000000001
 40
0.0
 40
0.0
 40
0.0
 40
0.0
 40
0.1273482936
 40
0.2538605366
 40
0.3795879111
 40
0.5046050899
 40
0.6290174366
 40
0.7529533732
 40
0.8765605776
 40
1.0
 40
1.0
 40
1.0
 40
1.0
 10
9.9866304369
 20
6.9551303525
 30
0.0
 10
9.9866304369
 20
6.9499316496
 30
0.0
 10
9.9861340675
 20
6.9395611861
 30
0.0
 10
9.9838892723
 20
6.9242049453
 30
0.0
 10
9.9801670279
 20
6.9092345509
 30
0.0
 10
9.9750009486
 20
6.894790006
 30
0.0
 10
9.9684384576
 20
6.8810045148
 30
0.0
 10
9.9605393553
 20
6.8680053734
 30
0.0
 10
9.9513778964
 20
6.8559144012
 30
0.0
 10
9.9444798004
 20
6.8485285315
 30
0.0
 10
9.9408553662
 20
6.8450276273
 30
0.0
  0
SPLINE
  5
36F
100
AcDbEntity
  8
0
100
AcDbSpline
 62
7
  6
CONTINUOUS
 70
0
 71
3
 72
39
 73
35
 74
0
 42
0.0000001
 43
0.0000001
 44
0.0000000001
 40
0.0
 40
0.0
 40
0.0
 40
0.0
 40
0.031074894
 40
0.06230814
 40
0.0936930516
 40
0.1252223178
 40
0.156884037
 40
0.1886642045
 40
0.22054616
 40
0.2525112446
 40
0.2845391051
 40
0.3166081359
 40
0.3486959092
 40
0.3807796257
 40
0.4128365673
 40
0.444844549
 40
0.476782363
 40
0.5086302086
 40
0.5403701023
 40
0.5719862608
 40
0.6034654488
 40
0.6347972862
 40
0.6659745065
 40
0.6969931579
 40
0.7278527385
 40
0.75855626
 40
0.7891102344
 40
0.8195245776
 40
0.8498124297
 40
0.8799898901
 40
0.9100756718
 40
0.9400906805
 40
0.9700575291
 40
1.0
 40
1.0
 40
1.0
 40
1.0
 10
9.9866304369
 20
6.9551303525
 30
0.0
 10
9.9866304369
 20
6.9591709861
 30
0.0
 10
9.9863289822
 20
6.9672759508
 30
0.0
 10
9.9849832426
 20
6.9793945555
 30
0.0
 10
9.9827501501
 20
6.9914420526
 30
0.0
 10
9.9796422898
 20
7.003351306
 30
0.0
 10
9.9756767052
 20
7.0150572445
 30
0.0
 10
9.9708753463
 20
7.0264955255
 30
0.0
 10
9.9652646186
 20
7.0376034022
 30
0.0
 10
9.9588754007
 20
7.0483199179
 30
0.0
 10
9.9517428061
 20
7.0585862713
 30
0.0
 10
9.9439060171
 20
7.0683461274
 30
0.0
 10
9.9354080655
 20
7.0775459262
 30
0.0
 10
9.9262956029
 20
7.0861351769
 30
0.0
 10
9.9166186409
 20
7.0940667276
 30
0.0
 10
9.90643028
 20
7.1012970224
 30
0.0
 10
9.8957864219
 20
7.1077863375
 30
0.0
 10
9.8847454667
 20
7.1134989976
 30
0.0
 10
9.8733679964
 20
7.1184035711
 30
0.0
 10
9.8617164477
 20
7.1224730418
 30
0.0
 10
9.8498547745
 20
7.1256849583
 30
0.0
 10
9.8378481015
 20
7.1280215578
 30
0.0
 10
9.8257623732
 20
7.1294698727
 30
0.0
 10
9.8136639944
 20
7.1300218059
 30
0.0
 10
9.8016194692
 20
7.129674175
 30
0.0
 10
9.7896950388
 20
7.128428738
 30
0.0
 10
9.7779563202
 20
7.126292191
 30
0.0
 10
9.766467944
 20
7.1232761393
 30
0.0
 10
9.7552932026
 20
7.1193970483
 30
0.0
 10
9.7444936761
 20
7.1146761398
 30
0.0
 10
9.7341289665
 20
7.1091393633
 30
0.0
 10
9.7242560646
 20
7.1028169607
 30
0.0
 10
9.714930123
 20
7.0957444151
 30
0.0
 10
9.7091092769
 20
7.0905528566
 30
0.0
 10
9.7063089294
 20
7.0878479521
 30
0.0
  0
SPLINE
  5
370
100
AcDbEntity
  8
0
100
AcDbSpline
 62
7
  6
CONTINUOUS
 70
0
 71
3
 72
61
 73
57
 74
0
 42
0.0000001
 43
0.0000001
 44
0.0000000001
 40
0.0
 40
0.0
 40
0.0
 40
0.0
 40
0.0077405028
 40
0.0160540239
 40
0.0249601778
 40
0.0344716022
 40
0.0445948214
 40
0.0553316438
 40
0.0666798352
 40
0.0786337855
 40
0.091185006
 40
0.1043224864
 40
0.1180329935
 40
0.132301343
 40
0.1471106025
 40
0.1624422451
 40
0.1782762861
 40
0.1945914321
 40
0.211365191
 40
0.2285739567
 40
0.2461930951
 40
0.2641970474
 40
0.2825594074
 40
0.3012529845
 40
0.3395208529
 40
0.3787709411
 40
0.4187646913
 40
0.4592575423
 40
0.5000009324
 40
0.5407443149
 40
0.5812371404
 40
0.6212308499
 40
0.6604808802
 40
0.6987486762
 40
0.7174422071
 40
0.7358045251
 40
0.7538084328
 40
0.7714275141
 40
0.7886362185
 40
0.805409923
 40
0.8217250124
 40
0.8375589827
 40
0.8528905511
 40
0.8676997461
 40
0.8819680292
 40
0.8956784549
 40
0.9088158515
 40
0.9213670002
 40
0.9333208781
 40
0.9446689808
 40
0.9554057158
 40
0.9655288631
 40
0.9750401968
 40
0.9839463134
 40
0.9922596881
 40
1.0
 40
1.0
 40
1.0
 40
1.0
 10
11.1060323365
 20
11.6894947912
 30
0.0
 10
11.1027884908
 20
11.6864761642
 30
0.0
 10
11.095805545
 20
11.6804862731
 30
0.0
 10
11.084350181
 20
11.6719314175
 30
0.0
 10
11.0715670686
 20
11.6635055367
 30
0.0
 10
11.0574771174
 20
11.6552219378
 30
0.0
 10
11.042102123
 20
11.6470932257
 30
0.0
 10
11.0254666681
 20
11.6391323736
 30
0.0
 10
11.0075974147
 20
11.6313521872
 30
0.0
 10
10.9885232277
 20
11.6237653609
 30
0.0
 10
10.9682750546
 20
11.6163843533
 30
0.0
 10
10.9468858821
 20
11.6092213367
 30
0.0
 10
10.9243906693
 20
11.6022881301
 30
0.0
 10
10.9008262503
 20
11.5955962074
 30
0.0
 10
10.87623126
 20
11.5891566619
 30
0.0
 10
10.8506460782
 20
11.58298017
 30
0.0
 10
10.824112759
 20
11.5770769542
 30
0.0
 10
10.7966749376
 20
11.5714567987
 30
0.0
 10
10.7683777512
 20
11.5661290266
 30
0.0
 10
10.7392677768
 20
11.5611024728
 30
0.0
 10
10.7093929487
 20
11.556385449
 30
0.0
 10
10.6788024823
 20
11.5519857816
 30
0.0
 10
10.6475467189
 20
11.5479107182
 30
0.0
 10
10.6047206132
 20
11.5428801731
 30
0.0
 10
10.5499042896
 20
11.5374699407
 30
0.0
 10
10.4828187193
 20
11.5324134975
 30
0.0
 10
10.4143657177
 20
11.5287774633
 30
0.0
 10
10.344996233
 20
11.5265860959
 30
0.0
 10
10.2751669272
 20
11.5258540349
 30
0.0
 10
10.205337637
 20
11.526586193
 30
0.0
 10
10.1359681976
 20
11.5287776568
 30
0.0
 10
10.0675152721
 20
11.5324137857
 30
0.0
 10
10.0004298071
 20
11.5374703238
 30
0.0
 10
9.9456135918
 20
11.542880627
 30
0.0
 10
9.9027875872
 20
11.5479112439
 30
0.0
 10
9.8715319053
 20
11.5519863437
 30
0.0
 10
9.8409415271
 20
11.5563860469
 30
0.0
 10
9.811066801
 20
11.5611031189
 30
0.0
 10
9.7819569353
 20
11.5661297204
 30
0.0
 10
9.7536598554
 20
11.5714575248
 30
0.0
 10
9.7262221464
 20
11.5770777113
 30
0.0
 10
9.699688955
 20
11.5829809711
 30
0.0
 10
9.6741039071
 20
11.5891575063
 30
0.0
 10
9.6495090452
 20
11.5955970784
 30
0.0
 10
9.6259447595
 20
11.602289026
 30
0.0
 10
9.6034496973
 20
11.6092222714
 30
0.0
 10
9.5820606807
 20
11.6163853264
 30
0.0
 10
9.5618126538
 20
11.6237663536
 30
0.0
 10
9.5427386173
 20
11.6313531981
 30
0.0
 10
9.5248695331
 20
11.639133417
 30
0.0
 10
9.5082342511
 20
11.6470943021
 30
0.0
 10
9.4928594268
 20
11.6552230286
 30
0.0
 10
9.4787696096
 20
11.6635066308
 30
0.0
 10
9.4659867114
 20
11.6719325541
 30
0.0
 10
9.4545316003
 20
11.6804873843
 30
0.0
 10
9.447548811
 20
11.6864771646
 30
0.0
 10
9.4443050941
 20
11.6894957697
 30
0.0
  0
SPLINE
  5
371
100
AcDbEntity
  8
0
100
AcDbSpline
 62
7
  6
CONTINUOUS
 70
0
 71
3
 72
17
 73
13
 74
0
 42
0.0000001
 43
0.0000001
 44
0.0000000001
 40
0.0
 40
0.0
 40
0.0
 40
0.0
 40
0.1673149541
 40
0.3200274672
 40
0.4588417651
 40
0.5233282539
 40
0.5847303399
 40
0.6994256585
 40
0.7533575268
 40
0.8053929977
 40
0.9048475659
 40
1.0
 40
1.0
 40
1.0
 40
1.0
 10
9.4532397012
 20
11.6818818175
 30
0.0
 10
9.4518383083
 20
11.6834593939
 30
0.0
 10
9.4492485729
 20
11.686559796
 30
0.0
 10
9.4458594649
 20
11.6912564012
 30
0.0
 10
9.4435204708
 20
11.6950954435
 30
0.0
 10
9.4419719403
 20
11.6980540849
 30
0.0
 10
9.4406854515
 20
11.7008028018
 30
0.0
 10
9.4396366403
 20
11.7035134512
 30
0.0
 10
9.4388336955
 20
11.7061791166
 30
0.0
 10
9.4382127746
 20
11.708695322
 30
0.0
 10
9.4377033034
 20
11.7117701734
 30
0.0
 10
9.437569245
 20
11.7142264631
 30
0.0
 10
9.437569245
 20
11.7154264994
 30
0.0
  0
SPLINE
  5
372
100
AcDbEntity
  8
0
100
AcDbSpline
 62
7
  6
CONTINUOUS
 70
0
 71
3
 72
14
 73
10
 74
0
 42
0.0000001
 43
0.0000001
 44
0.0000000001
 40
0.0
 40
0.0
 40
0.0
 40
0.0
 40
0.1041420595
 40
0.2113741025
 40
0.3230577576
 40
0.4406222487
 40
0.6997174931
 40
0.8442962648
 40
1.0
 40
1.0
 40
1.0
 40
1.0
 10
11.112769245
 20
11.7154264994
 30
0.0
 10
11.112769245
 20
11.7145130305
 30
0.0
 10
11.1126922343
 20
11.7126580755
 30
0.0
 10
11.1123386005
 20
11.7098434564
 30
0.0
 10
11.1117314617
 20
11.7069518257
 30
0.0
 10
11.1105241026
 20
11.7028381414
 30
0.0
 10
11.1087190034
 20
11.6986168641
 30
0.0
 10
11.1063617118
 20
11.694311801
 30
0.0
 10
11.1049521667
 20
11.6920841595
 30
0.0
 10
11.1041892247
 20
11.690951396
 30
0.0
  0
SPLINE
  5
373
100
AcDbEntity
  8
0
100
AcDbSpline
 62
7
  6
CONTINUOUS
 70
0
 71
3
 72
9
 73
5
 74
0
 42
0.0000001
 43
0.0000001
 44
0.0000000001
 40
0.0
 40
0.0
 40
0.0
 40
0.0
 40
0.4771290067
 40
1.0
 40
1.0
 40
1.0
 40
1.0
 10
11.1041892247
 20
11.690951396
 30
0.0
 10
11.1030815929
 20
11.6893068609
 30
0.0
 10
11.1006176133
 20
11.6859549685
 30
0.0
 10
11.097923326
 20
11.6827866465
 30
0.0
 10
11.0964655645
 20
11.6811753746
 30
0.0
  0
SPLINE
  5
374
100
AcDbEntity
  8
0
100
AcDbSpline
 62
7
  6
CONTINUOUS
 70
0
 71
3
 72
39
 73
35
 74
0
 42
0.0000001
 43
0.0000001
 44
0.0000000001
 40
0.0
 40
0.0
 40
0.0
 40
0.0
 40
0.0299424738
 40
0.059909323
 40
0.08992433
 40
0.1200101081
 40
0.1501875632
 40
0.1804754089
 40
0.2108897447
 40
0.2414437113
 40
0.2721472249
 40
0.3030067977
 40
0.3340254418
 40
0.3652026556
 40
0.3965344874
 40
0.4280136709
 40
0.459629826
 40
0.4913697177
 40
0.5232175626
 40
0.5551553772
 40
0.5871633608
 40
0.6192203054
 40
0.6513040259
 40
0.6833918041
 40
0.7154608404
 40
0.747488707
 40
0.7794537981
 40
0.8113357603
 40
0.8431159345
 40
0.8747776602
 40
0.9063069325
 40
0.93769185
 40
0.9689251012
 40
1.0
 40
1.0
 40
1.0
 40
1.0
 10
11.580409436
 20
10.2229400722
 30
0.0
 10
11.5831035955
 20
10.2255424534
 30
0.0
 10
11.5887037219
 20
10.2305372404
 30
0.0
 10
11.5976760466
 20
10.2373417297
 30
0.0
 10
11.6071746025
 20
10.243424516
 30
0.0
 10
11.617146328
 20
10.248751461
 30
0.0
 10
11.6275363926
 20
10.2532934686
 30
0.0
 10
11.638287454
 20
10.2570255725
 30
0.0
 10
11.6493402662
 20
10.2599273548
 30
0.0
 10
11.660633936
 20
10.261982974
 30
0.0
 10
11.6721062829
 20
10.2631812642
 30
0.0
 10
11.683694177
 20
10.2635157826
 30
0.0
 10
11.6953338879
 20
10.2629848377
 30
0.0
 10
11.7069614326
 20
10.2615914908
 30
0.0
 10
11.7185129232
 20
10.2593435319
 30
0.0
 10
11.7299249147
 20
10.2562534365
 30
0.0
 10
11.741134751
 20
10.252338294
 30
0.0
 10
11.7520809022
 20
10.2476197045
 30
0.0
 10
11.7627032983
 20
10.2421236598
 30
0.0
 10
11.7729436533
 20
10.2358804
 30
0.0
 10
11.7827457808
 20
10.2289242479
 30
0.0
 10
11.7920558979
 20
10.2212934213
 30
0.0
 10
11.8008229168
 20
10.2130298251
 30
0.0
 10
11.8089987214
 20
10.2041788238
 30
0.0
 10
11.8165384282
 20
10.1947889941
 30
0.0
 10
11.8234006366
 20
10.1849118659
 30
0.0
 10
11.8295476492
 20
10.1746016387
 30
0.0
 10
11.8349456835
 20
10.1639148847
 30
0.0
 10
11.8395650311
 20
10.1529102503
 30
0.0
 10
11.8433802875
 20
10.1416481037
 30
0.0
 10
11.8463703345
 20
10.1301903485
 30
0.0
 10
11.8485187747
 20
10.1185995897
 30
0.0
 10
11.8498134999
 20
10.1069404183
 30
0.0
 10
11.850103527
 20
10.099142724
 30
0.0
 10
11.850103527
 20
10.0952552764
 30
0.0
  0
SPLINE
  5
375
100
AcDbEntity
  8
0
100
AcDbSpline
 62
7
  6
CONTINUOUS
 70
0
 71
3
 72
39
 73
35
 74
0
 42
0.0000001
 43
0.0000001
 44
0.0000000001
 40
0.0
 40
0.0
 40
0.0
 40
0.0
 40
0.0299424738
 40
0.059909323
 40
0.08992433
 40
0.1200101081
 40
0.1501875632
 40
0.1804754089
 40
0.2108897447
 40
0.2414437113
 40
0.2721472249
 40
0.3030067977
 40
0.3340254418
 40
0.3652026556
 40
0.3965344874
 40
0.4280136709
 40
0.459629826
 40
0.4913697177
 40
0.5232175626
 40
0.5551553772
 40
0.5871633608
 40
0.6192203054
 40
0.6513040259
 40
0.6833918041
 40
0.7154608404
 40
0.747488707
 40
0.7794537981
 40
0.8113357603
 40
0.8431159345
 40
0.8747776602
 40
0.9063069325
 40
0.93769185
 40
0.9689251012
 40
1.0
 40
1.0
 40
1.0
 40
1.0
 10
9.6485576689
 20
5.9136553831
 30
0.0
 10
9.6512518285
 20
5.9162577643
 30
0.0
 10
9.6568519549
 20
5.9212525513
 30
0.0
 10
9.6658242795
 20
5.9280570406
 30
0.0
 10
9.6753228354
 20
5.9341398269
 30
0.0
 10
9.6852945609
 20
5.9394667718
 30
0.0
 10
9.6956846256
 20
5.9440087794
 30
0.0
 10
9.7064356869
 20
5.9477408834
 30
0.0
 10
9.7174884992
 20
5.9506426657
 30
0.0
 10
9.728782169
 20
5.9526982849
 30
0.0
 10
9.7402545158
 20
5.9538965751
 30
0.0
 10
9.7518424099
 20
5.9542310935
 30
0.0
 10
9.7634821209
 20
5.9537001486
 30
0.0
 10
9.7751096656
 20
5.9523068017
 30
0.0
 10
9.7866611561
 20
5.9500588428
 30
0.0
 10
9.7980731477
 20
5.9469687474
 30
0.0
 10
9.8092829839
 20
5.9430536049
 30
0.0
 10
9.8202291351
 20
5.9383350153
 30
0.0
 10
9.8308515312
 20
5.9328389706
 30
0.0
 10
9.8410918862
 20
5.9265957109
 30
0.0
 10
9.8508940137
 20
5.9196395588
 30
0.0
 10
9.8602041309
 20
5.9120087322
 30
0.0
 10
9.8689711497
 20
5.903745136
 30
0.0
 10
9.8771469543
 20
5.8948941347
 30
0.0
 10
9.8846866611
 20
5.885504305
 30
0.0
 10
9.8915488695
 20
5.8756271768
 30
0.0
 10
9.8976958821
 20
5.8653169495
 30
0.0
 10
9.9030939164
 20
5.8546301956
 30
0.0
 10
9.9077132641
 20
5.8436255611
 30
0.0
 10
9.9115285205
 20
5.8323634145
 30
0.0
 10
9.9145185675
 20
5.8209056594
 30
0.0
 10
9.9166670077
 20
5.8093149006
 30
0.0
 10
9.9179617328
 20
5.7976557292
 30
0.0
 10
9.91825176
 20
5.7898580349
 30
0.0
 10
9.91825176
 20
5.7859705872
 30
0.0
  0
SPLINE
  5
376
100
AcDbEntity
  8
0
100
AcDbSpline
 62
7
  6
CONTINUOUS
 70
0
 71
3
 72
62
 73
58
 74
0
 42
0.0000001
 43
0.0000001
 44
0.0000000001
 40
0.0
 40
0.0
 40
0.0
 40
0.0
 40
0.0027165067
 40
0.0054533844
 40
0.0082305234
 40
0.0110668895
 40
0.0169823147
 40
0.0233275088
 40
0.0301992758
 40
0.0376702075
 40
0.0457926395
 40
0.0546026836
 40
0.0641236618
 40
0.0743689694
 40
0.0853441321
 40
0.0970482555
 40
0.1094752829
 40
0.1226148585
 40
0.1364528688
 40
0.1509720318
 40
0.1661523212
 40
0.1819711805
 40
0.1984038334
 40
0.215423553
 40
0.2330017672
 40
0.2511082346
 40
0.2697112572
 40
0.2887777561
 40
0.3281617739
 40
0.3689738785
 40
0.4109120927
 40
0.453663327
 40
0.4969065924
 40
0.5403161516
 40
0.5835646821
 40
0.6263264015
 40
0.6682802209
 40
0.7091128782
 40
0.7485222244
 40
0.7676030777
 40
0.7862215637
 40
0.8043445274
 40
0.8219402237
 40
0.8389783973
 40
0.8554303925
 40
0.8712694046
 40
0.8864706319
 40
0.901011429
 40
0.9148716485
 40
0.928033959
 40
0.9404841395
 40
0.9522116464
 40
0.9632103445
 40
0.9734791288
 40
0.9830231679
 40
0.9918561048
 40
1.0
 40
1.0
 40
1.0
 40
1.0
 10
13.2909916626
 20
10.7105574015
 30
0.0
 10
13.2902570557
 20
10.7106083412
 30
0.0
 10
13.2887860925
 20
10.7107771
 30
0.0
 10
13.2865983834
 20
10.7112286287
 30
0.0
 10
13.2844271422
 20
10.711878635
 30
0.0
 10
13.2815162545
 20
10.7130245722
 30
0.0
 10
13.2779040339
 20
10.7149848193
 30
0.0
 10
13.2737291451
 20
10.7180856165
 30
0.0
 10
13.2696552135
 20
10.721956448
 30
0.0
 10
13.2656870007
 20
10.7265874085
 30
0.0
 10
13.2618287288
 20
10.731969347
 30
0.0
 10
13.2580859878
 20
10.7380922799
 30
0.0
 10
13.2544648272
 20
10.7449449123
 30
0.0
 10
13.2509717451
 20
10.7525144421
 30
0.0
 10
13.2476133593
 20
10.7607864733
 30
0.0
 10
13.2443961748
 20
10.769745002
 30
0.0
 10
13.2413265791
 20
10.7793725215
 30
0.0
 10
13.2384107653
 20
10.7896500735
 30
0.0
 10
13.2356545976
 20
10.8005572818
 30
0.0
 10
13.2330636574
 20
10.8120724409
 30
0.0
 10
13.2306432372
 20
10.8241725804
 30
0.0
 10
13.2283982468
 20
10.8368335009
 30
0.0
 10
13.2263332397
 20
10.8500298432
 30
0.0
 10
13.2244524422
 20
10.8637351562
 30
0.0
 10
13.2227596788
 20
10.8779219431
 30
0.0
 10
13.2212583848
 20
10.8925617118
 30
0.0
 10
13.2199515952
 20
10.9076250874
 30
0.0
 10
13.2184561258
 20
10.9284592348
 30
0.0
 10
13.2171061122
 20
10.9553364257
 30
0.0
 10
13.2163089747
 20
10.9884375032
 30
0.0
 10
13.2163249542
 20
11.022460834
 30
0.0
 10
13.217154219
 20
11.0571330476
 30
0.0
 10
13.2187904001
 20
11.0921757531
 30
0.0
 10
13.2212204338
 20
11.127307459
 30
0.0
 10
13.2244248241
 20
11.1622459719
 30
0.0
 10
13.2283777234
 20
11.1967106515
 30
0.0
 10
13.2330471045
 20
11.2304248096
 30
0.0
 10
13.2383951999
 20
11.2631175965
 30
0.0
 10
13.2434338406
 20
11.2895693775
 30
0.0
 10
13.2477844496
 20
11.3100143028
 30
0.0
 10
13.2511535774
 20
11.3247669879
 30
0.0
 10
13.2546571107
 20
11.3390742088
 30
0.0
 10
13.2582879941
 20
11.352907261
 30
0.0
 10
13.2620388726
 20
11.3662383769
 30
0.0
 10
13.2659021929
 20
11.3790408089
 30
0.0
 10
13.2698701363
 20
11.3912889017
 30
0.0
 10
13.2739346681
 20
11.4029581431
 30
0.0
 10
13.2780876008
 20
11.4140251991
 30
0.0
 10
13.2823205531
 20
11.4244679964
 30
0.0
 10
13.286624975
 20
11.4342657795
 30
0.0
 10
13.2909922423
 20
11.4433991347
 30
0.0
 10
13.2954136416
 20
11.4518500745
 30
0.0
 10
13.2998804269
 20
11.459602111
 30
0.0
 10
13.304383847
 20
11.4666401916
 30
0.0
 10
13.3089155989
 20
11.472951167
 30
0.0
 10
13.3134669142
 20
11.4785224536
 30
0.0
 10
13.3166343028
 20
11.4818690372
 30
0.0
 10
13.3182221205
 20
11.4834027513
 30
0.0
  0
SPLINE
  5
377
100
AcDbEntity
  8
0
100
AcDbSpline
 62
7
  6
CONTINUOUS
 70
0
 71
3
 72
58
 73
54
 74
0
 42
0.0000001
 43
0.0000001
 44
0.0000000001
 40
0.0
 40
0.0
 40
0.0
 40
0.0
 40
0.0055918926
 40
0.0115074975
 40
0.0178586985
 40
0.024733252
 40
0.0321968051
 40
0.0402967053
 40
0.0490656817
 40
0.0585247827
 40
0.068686153
 40
0.0795545106
 40
0.0911288512
 40
0.1034033297
 40
0.116367989
 40
0.1300095929
 40
0.1443117311
 40
0.1592555431
 40
0.1748197518
 40
0.1909809944
 40
0.2077141162
 40
0.2249921069
 40
0.242786554
 40
0.2610675066
 40
0.2798037723
 40
0.2989629982
 40
0.3384146332
 40
0.3791447013
 40
0.420862214
 40
0.4632668469
 40
0.5060518666
 40
0.548907031
 40
0.591521456
 40
0.6335864753
 40
0.6747985111
 40
0.7148619883
 40
0.753492314
 40
0.7904189467
 40
0.8253886702
 40
0.8420668528
 40
0.8581706748
 40
0.8736750187
 40
0.8885568316
 40
0.9027949968
 40
0.9163708772
 40
0.9292684358
 40
0.9414745895
 40
0.9529799365
 40
0.9637789464
 40
0.9738710272
 40
0.983261784
 40
0.9919645369
 40
1.0
 40
1.0
 40
1.0
 40
1.0
 10
13.273034612
 20
10.8589277667
 30
0.0
 10
13.2721273005
 20
10.8591942235
 30
0.0
 10
13.2703048746
 20
10.8599051457
 30
0.0
 10
13.2676852695
 20
10.8614276228
 30
0.0
 10
13.2651239839
 20
10.8634209194
 30
0.0
 10
13.2626245898
 20
10.8658784929
 30
0.0
 10
13.2601890351
 20
10.8687947695
 30
0.0
 10
13.2578202687
 20
10.8721642301
 30
0.0
 10
13.2555216534
 20
10.8759808927
 30
0.0
 10
13.2532967993
 20
10.8802379267
 30
0.0
 10
13.2511496687
 20
10.8849276814
 30
0.0
 10
13.2490840984
 20
10.8900415108
 30
0.0
 10
13.2471040075
 20
10.8955699005
 30
0.0
 10
13.2452131888
 20
10.9015024397
 30
0.0
 10
13.2434152454
 20
10.9078278669
 30
0.0
 10
13.2417137438
 20
10.9145341246
 30
0.0
 10
13.2401119297
 20
10.9216083627
 30
0.0
 10
13.2386129841
 20
10.9290370002
 30
0.0
 10
13.2372198219
 20
10.9368057421
 30
0.0
 10
13.2359351508
 20
10.9448996194
 30
0.0
 10
13.2347615328
 20
10.9533030194
 30
0.0
 10
13.2337012063
 20
10.9619997211
 30
0.0
 10
13.232756299
 20
10.9709729247
 30
0.0
 10
13.2319286333
 20
10.9802052882
 30
0.0
 10
13.2312198145
 20
10.9896789797
 30
0.0
 10
13.2304274312
 20
11.0027352586
 30
0.0
 10
13.2297513953
 20
11.0195229922
 30
0.0
 10
13.2294369626
 20
11.0401365621
 30
0.0
 10
13.2296145069
 20
11.0612511124
 30
0.0
 10
13.2302828052
 20
11.0827033938
 30
0.0
 10
13.2314368167
 20
11.1043276568
 30
0.0
 10
13.2330676638
 20
11.1259567613
 30
0.0
 10
13.2351627243
 20
11.147423543
 30
0.0
 10
13.2377057245
 20
11.1685621061
 30
0.0
 10
13.2406768627
 20
11.1892091381
 30
0.0
 10
13.2440529615
 20
11.2092051708
 30
0.0
 10
13.2478076018
 20
11.2283959594
 30
0.0
 10
13.2519114443
 20
11.2466333469
 30
0.0
 10
13.2556520215
 20
11.2611404846
 30
0.0
 10
13.2588075062
 20
11.2721552634
 30
0.0
 10
13.2612034742
 20
11.2799619501
 30
0.0
 10
13.2636615691
 20
11.2874301766
 30
0.0
 10
13.2661769888
 20
11.2945455792
 30
0.0
 10
13.2687448932
 20
11.3012944646
 30
0.0
 10
13.2713602693
 20
11.3076638892
 30
0.0
 10
13.2740180432
 20
11.3136416691
 30
0.0
 10
13.2767131262
 20
11.3192164065
 30
0.0
 10
13.2794402783
 20
11.3243775612
 30
0.0
 10
13.2821943997
 20
11.3291153894
 30
0.0
 10
13.2849702147
 20
11.3334210983
 30
0.0
 10
13.2877628727
 20
11.3372869391
 30
0.0
 10
13.2905671665
 20
11.3407054043
 30
0.0
 10
13.2925170556
 20
11.3427620152
 30
0.0
 10
13.2934944172
 20
11.343706074
 30
0.0
  0
SPLINE
  5
378
100
AcDbEntity
  8
0
100
AcDbSpline
 62
7
  6
CONTINUOUS
 70
0
 71
3
 72
13
 73
9
 74
0
 42
0.0000001
 43
0.0000001
 44
0.0000000001
 40
0.0
 40
0.0
 40
0.0
 40
0.0
 40
0.1080576167
 40
0.2193921575
 40
0.4552604294
 40
0.5815281754
 40
0.7141193877
 40
1.0
 40
1.0
 40
1.0
 40
1.0
 10
13.3071877193
 20
11.351399906
 30
0.0
 10
13.3066194117
 20
11.3513156588
 30
0.0
 10
13.3054737157
 20
11.3510840187
 30
0.0
 10
13.3031567775
 20
11.3503731261
 30
0.0
 10
13.3008639729
 20
11.3492992022
 30
0.0
 10
13.2986224925
 20
11.3479202505
 30
0.0
 10
13.2962665448
 20
11.3462320648
 30
0.0
 10
13.2945876578
 20
11.3447620634
 30
0.0
 10
13.2934944172
 20
11.343706074
 30
0.0
  0
SPLINE
  5
379
100
AcDbEntity
  8
0
100
AcDbSpline
 62
7
  6
CONTINUOUS
 70
0
 71
3
 72
36
 73
32
 74
0
 42
0.0000001
 43
0.0000001
 44
0.0000000001
 40
0.0
 40
0.0
 40
0.0
 40
0.0
 40
0.0165417272
 40
0.0332484329
 40
0.0502799213
 40
0.067786189
 40
0.0859043425
 40
0.104756452
 40
0.124449269
 40
0.1450741954
 40
0.1667087096
 40
0.1894172133
 40
0.2132529644
 40
0.2382589672
 40
0.2644697841
 40
0.2919121777
 40
0.3206066045
 40
0.3505675985
 40
0.3818049377
 40
0.4143238476
 40
0.4481258813
 40
0.4832090301
 40
0.5195683619
 40
0.557196105
 40
0.5960820825
 40
0.636213815
 40
0.6775767801
 40
0.7201545621
 40
0.8088779087
 40
0.902222127
 40
1.0
 40
1.0
 40
1.0
 40
1.0
 10
13.2550159181
 20
8.0188566549
 30
0.0
 10
13.2530470476
 20
8.01899319
 30
0.0
 10
13.2491009543
 20
8.0194739063
 30
0.0
 10
13.2432425849
 20
8.0208097142
 30
0.0
 10
13.2374375141
 20
8.0227597995
 30
0.0
 10
13.2316912159
 20
8.0253211306
 30
0.0
 10
13.2260075961
 20
8.0284906948
 30
0.0
 10
13.220390141
 20
8.0322649073
 30
0.0
 10
13.2148421404
 20
8.036640444
 30
0.0
 10
13.2093664987
 20
8.0416136059
 30
0.0
 10
13.2039663233
 20
8.0471808455
 30
0.0
 10
13.1986444841
 20
8.0533381885
 30
0.0
 10
13.1934041574
 20
8.0600816093
 30
0.0
 10
13.1882483168
 20
8.0674065994
 30
0.0
 10
13.1831802137
 20
8.0753084508
 30
0.0
 10
13.1782028938
 20
8.0837819658
 30
0.0
 10
13.1733196146
 20
8.0928216643
 30
0.0
 10
13.1685334291
 20
8.1024215989
 30
0.0
 10
13.1638475344
 20
8.1125754982
 30
0.0
 10
13.1592649369
 20
8.1232766557
 30
0.0
 10
13.1547887263
 20
8.134518022
 30
0.0
 10
13.1504218248
 20
8.1462921433
 30
0.0
 10
13.1461671841
 20
8.1585912175
 30
0.0
 10
13.1420276168
 20
8.1714070649
 30
0.0
 10
13.1380059147
 20
8.1847311608
 30
0.0
 10
13.1341047721
 20
8.1985546193
 30
0.0
 10
13.1303267707
 20
8.2128682413
 30
0.0
 10
13.1253892542
 20
8.2328691476
 30
0.0
 10
13.1195642744
 20
8.259035269
 30
0.0
 10
13.1131958748
 20
8.2918142231
 30
0.0
 10
13.109399897
 20
8.314301434
 30
0.0
 10
13.1075852729
 20
8.3258253487
 30
0.0
  0
SPLINE
  5
37A
100
AcDbEntity
  8
0
100
AcDbSpline
 62
7
  6
CONTINUOUS
 70
0
 71
3
 72
35
 73
31
 74
0
 42
0.0000001
 43
0.0000001
 44
0.0000000001
 40
0.0
 40
0.0
 40
0.0
 40
0.0
 40
0.026252935
 40
0.0534360505
 40
0.0814999023
 40
0.1103923245
 40
0.1400586798
 40
0.1704420889
 40
0.2014836443
 40
0.2331226189
 40
0.2652966628
 40
0.2979419937
 40
0.3309935823
 40
0.3643853346
 40
0.4319195313
 40
0.5000025456
 40
0.5680854748
 40
0.6356194204
 40
0.6690109864
 40
0.7020623471
 40
0.7347074087
 40
0.766881143
 40
0.7985197691
 40
0.829560939
 40
0.8599439278
 40
0.88960983
 40
0.9185017642
 40
0.9465650927
 40
0.9737476518
 40
1.0
 40
1.0
 40
1.0
 40
1.0
 10
13.1075852729
 20
8.3258253487
 30
0.0
 10
13.1058927494
 20
8.3365738546
 30
0.0
 10
13.1026732974
 20
8.358487732
 30
0.0
 10
13.0983931337
 20
8.3919961563
 30
0.0
 10
13.094584384
 20
8.4266621882
 30
0.0
 10
13.0912553668
 20
8.4624111936
 30
0.0
 10
13.0884133335
 20
8.4991664243
 30
0.0
 10
13.0860644835
 20
8.5368488752
 30
0.0
 10
13.0842139392
 20
8.5753775467
 30
0.0
 10
13.0828657433
 20
8.6146695973
 30
0.0
 10
13.0820228459
 20
8.6546405408
 30
0.0
 10
13.0816871172
 20
8.6952043993
 30
0.0
 10
13.0818592727
 20
8.7362740011
 30
0.0
 10
13.0827691641
 20
8.7917968016
 30
0.0
 10
13.0851773309
 20
8.8618109759
 30
0.0
 10
13.0900450099
 20
8.946104716
 30
0.0
 10
13.0968601403
 20
9.0302632886
 30
0.0
 10
13.1041400206
 20
9.0999393741
 30
0.0
 10
13.1109033881
 20
9.155055937
 30
0.0
 10
13.1164022574
 20
9.1957558265
 30
0.0
 10
13.1223343313
 20
9.2358846528
 30
0.0
 10
13.1286868673
 20
9.2753561788
 30
0.0
 10
13.1354461435
 20
9.3140855093
 30
0.0
 10
13.1425975753
 20
9.3519893766
 30
0.0
 10
13.1501257222
 20
9.3889862929
 30
0.0
 10
13.1580143287
 20
9.4249967418
 30
0.0
 10
13.1662463519
 20
9.4599433291
 30
0.0
 10
13.1748040168
 20
9.4937510412
 30
0.0
 10
13.1836687758
 20
9.5263471099
 30
0.0
 10
13.1898824549
 20
9.5476062749
 30
0.0
 10
13.1930425175
 20
9.558017986
 30
0.0
  0
SPLINE
  5
37B
100
AcDbEntity
  8
0
100
AcDbSpline
 62
7
  6
CONTINUOUS
 70
0
 71
3
 72
23
 73
19
 74
0
 42
0.0000001
 43
0.0000001
 44
0.0000000001
 40
0.0
 40
0.0
 40
0.0
 40
0.0
 40
0.0829061758
 40
0.1633359069
 40
0.2412138082
 40
0.3164699859
 40
0.3890402003
 40
0.4588667595
 40
0.5258991185
 40
0.5900943875
 40
0.6514186849
 40
0.7098481041
 40
0.7653699875
 40
0.8179852414
 40
0.8677098303
 40
0.9145781164
 40
0.9586483547
 40
1.0
 40
1.0
 40
1.0
 40
1.0
 10
13.1930425175
 20
9.558017986
 30
0.0
 10
13.1953404663
 20
9.5655892217
 30
0.0
 10
13.1999797677
 20
9.5804718551
 30
0.0
 10
13.2071850752
 20
9.6023368787
 30
0.0
 10
13.2145248092
 20
9.6233855976
 30
0.0
 10
13.2219899755
 20
9.643592469
 30
0.0
 10
13.2295715184
 20
9.6629330562
 30
0.0
 10
13.2372602027
 20
9.68138399
 30
0.0
 10
13.2450466507
 20
9.6989230267
 30
0.0
 10
13.2529214509
 20
9.7155290394
 30
0.0
 10
13.2608750555
 20
9.7311820962
 30
0.0
 10
13.2688978473
 20
9.7458634848
 30
0.0
 10
13.2769802543
 20
9.7595557012
 30
0.0
 10
13.2851126726
 20
9.7722425304
 30
0.0
 10
13.2932854657
 20
9.7839090051
 30
0.0
 10
13.3014895247
 20
9.7945417465
 30
0.0
 10
13.3097150451
 20
9.8041276312
 30
0.0
 10
13.3153836119
 20
9.8099957105
 30
0.0
 10
13.3182221205
 20
9.8127374994
 30
0.0
  0
SPLINE
  5
37C
100
AcDbEntity
  8
0
100
AcDbSpline
 62
7
  6
CONTINUOUS
 70
0
 71
3
 72
69
 73
65
 74
0
 42
0.0000001
 43
0.0000001
 44
0.0000000001
 40
0.0
 40
0.0
 40
0.0
 40
0.0
 40
0.0027966717
 40
0.0056682476
 40
0.011691417
 40
0.014872271
 40
0.0181794147
 40
0.021622076
 40
0.0252081529
 40
0.028944422
 40
0.0328365777
 40
0.0368893666
 40
0.041106748
 40
0.045491882
 40
0.0500473093
 40
0.0547749977
 40
0.0596763478
 40
0.0700028651
 40
0.0810307076
 40
0.0927574364
 40
0.1051761338
 40
0.1182760794
 40
0.1320432948
 40
0.1464609932
 40
0.1615099106
 40
0.17716855
 40
0.1934134087
 40
0.2102191925
 40
0.2275589777
 40
0.2454043329
 40
0.263725451
 40
0.2824912903
 40
0.3016696825
 40
0.3212274211
 40
0.3411303617
 40
0.3818305056
 40
0.423482861
 40
0.465790448
 40
0.5084502647
 40
0.5511560829
 40
0.5936012542
 40
0.6354815183
 40
0.6764977865
 40
0.7163590272
 40
0.7357688852
 40
0.7547859866
 40
0.7733775294
 40
0.7915117719
 40
0.8091581489
 40
0.826287406
 40
0.8428717003
 40
0.858884728
 40
0.8743018857
 40
0.8891004695
 40
0.9032598493
 40
0.916761701
 40
0.9295903105
 40
0.9417329723
 40
0.9531804122
 40
0.9639274021
 40
0.9739735433
 40
0.9833242324
 40
0.9919925968
 40
1.0
 40
1.0
 40
1.0
 40
1.0
 10
13.2343107278
 20
8.250087038
 30
0.0
 10
13.2330755485
 20
8.2505237475
 30
0.0
 10
13.2306076256
 20
8.2515129311
 30
0.0
 10
13.2256942882
 20
8.2539422599
 30
0.0
 10
13.2209176719
 20
8.2570129528
 30
0.0
 10
13.2163068736
 20
8.2606344745
 30
0.0
 10
13.2128230412
 20
8.2637217177
 30
0.0
 10
13.2093792794
 20
8.2671283163
 30
0.0
 10
13.2059764515
 20
8.2708527954
 30
0.0
 10
13.2026162165
 20
8.2748933344
 30
0.0
 10
13.1992999642
 20
8.2792480102
 30
0.0
 10
13.1960291269
 20
8.283914743
 30
0.0
 10
13.1928052475
 20
8.2888913916
 30
0.0
 10
13.189629712
 20
8.2941755764
 30
0.0
 10
13.1865040168
 20
8.2997648309
 30
0.0
 10
13.1834295986
 20
8.3056565508
 30
0.0
 10
13.1793291368
 20
8.314058533
 30
0.0
 10
13.1743581808
 20
8.3253143135
 30
0.0
 10
13.1687195185
 20
8.3397533805
 30
0.0
 10
13.1633185051
 20
8.3553238962
 30
0.0
 10
13.1581654442
 20
8.3719964051
 30
0.0
 10
13.1532701946
 20
8.3897396457
 30
0.0
 10
13.1486421718
 20
8.4085200288
 30
0.0
 10
13.1442903153
 20
8.4283019335
 30
0.0
 10
13.1402230577
 20
8.4490477411
 30
0.0
 10
13.1364482742
 20
8.4707179216
 30
0.0
 10
13.1329732642
 20
8.4932711209
 30
0.0
 10
13.129804761
 20
8.5166642672
 30
0.0
 10
13.1269489151
 20
8.5408526592
 30
0.0
 10
13.1244112609
 20
8.5657900441
 30
0.0
 10
13.1221967039
 20
8.59142871
 30
0.0
 10
13.1203095336
 20
8.617719598
 30
0.0
 10
13.1187534297
 20
8.64461238
 30
0.0
 10
13.1175313735
 20
8.6720556163
 30
0.0
 10
13.1163418812
 20
8.709589166
 30
0.0
 10
13.1157204728
 20
8.7574920774
 30
0.0
 10
13.1163314976
 20
8.8158911784
 30
0.0
 10
13.1182899531
 20
8.8751791379
 30
0.0
 10
13.121581103
 20
8.9349021393
 30
0.0
 10
13.1261798552
 20
8.9946033547
 30
0.0
 10
13.1320510189
 20
9.0538259947
 30
0.0
 10
13.1391493657
 20
9.1121171316
 30
0.0
 10
13.1474203096
 20
9.1690306588
 30
0.0
 10
13.1553046191
 20
9.2153497696
 30
0.0
 10
13.16216763
 20
9.2513771454
 30
0.0
 10
13.167520346
 20
9.2775466728
 30
0.0
 10
13.1731136362
 20
9.3030544276
 30
0.0
 10
13.1789368055
 20
9.3278516284
 30
0.0
 10
13.1849786513
 20
9.3518908234
 30
0.0
 10
13.1912275418
 20
9.3751260512
 30
0.0
 10
13.1976714511
 20
9.3975129049
 30
0.0
 10
13.2042979841
 20
9.4190086161
 30
0.0
 10
13.2110944014
 20
9.4395721541
 30
0.0
 10
13.2180476127
 20
9.4591643279
 30
0.0
 10
13.225144244
 20
9.477747855
 30
0.0
 10
13.232370666
 20
9.4952874339
 30
0.0
 10
13.2397130366
 20
9.5117498425
 30
0.0
 10
13.2471573138
 20
9.527104044
 30
0.0
 10
13.2546893405
 20
9.5413212514
 30
0.0
 10
13.2622949752
 20
9.5543750321
 30
0.0
 10
13.2699600738
 20
9.5662411987
 30
0.0
 10
13.2776710643
 20
9.5768986227
 30
0.0
 10
13.2854137729
 20
9.5863270805
 30
0.0
 10
13.2907964295
 20
9.5920015842
 30
0.0
 10
13.2934944172
 20
9.5946076404
 30
0.0
  0
SPLINE
  5
37D
100
AcDbEntity
  8
0
100
AcDbSpline
 62
7
  6
CONTINUOUS
 70
0
 71
3
 72
15
 73
11
 74
0
 42
0.0000001
 43
0.0000001
 44
0.0000000001
 40
0.0
 40
0.0
 40
0.0
 40
0.0
 40
0.108441033
 40
0.2203202389
 40
0.3363917414
 40
0.457322038
 40
0.5836915292
 40
0.7159988585
 40
0.8546582553
 40
1.0
 40
1.0
 40
1.0
 40
1.0
 10
13.3290042172
 20
9.6155198215
 30
0.0
 10
13.3275255161
 20
9.6152179812
 30
0.0
 10
13.3245488892
 20
9.6144611121
 30
0.0
 10
13.3201270825
 20
9.6129066916
 30
0.0
 10
13.3156909206
 20
9.6109200426
 30
0.0
 10
13.3112435825
 20
9.6085031625
 30
0.0
 10
13.3067873032
 20
9.6056580966
 30
0.0
 10
13.3023244833
 20
9.6023869253
 30
0.0
 10
13.2978578425
 20
9.598692163
 30
0.0
 10
13.2949492873
 20
9.596012937
 30
0.0
 10
13.2934944172
 20
9.5946076404
 30
0.0
  0
SPLINE
  5
37E
100
AcDbEntity
  8
0
100
AcDbSpline
 62
7
  6
CONTINUOUS
 70
0
 71
3
 72
58
 73
54
 74
0
 42
0.0000001
 43
0.0000001
 44
0.0000000001
 40
0.0
 40
0.0
 40
0.0
 40
0.0
 40
0.0078946451
 40
0.0164277588
 40
0.0256193273
 40
0.0354823523
 40
0.0460224364
 40
0.0572396181
 40
0.0691294661
 40
0.0816836424
 40
0.0948906263
 40
0.1087360111
 40
0.123202905
 40
0.1382722871
 40
0.1539230741
 40
0.1701324379
 40
0.1868759688
 40
0.2041276995
 40
0.2400445212
 40
0.2776516248
 40
0.3167001132
 40
0.3569275501
 40
0.3980607273
 40
0.4398183503
 40
0.4819136107
 40
0.5240567324
 40
0.5659575274
 40
0.6073279233
 40
0.647884514
 40
0.6873511566
 40
0.7254615706
 40
0.7619620476
 40
0.7795339657
 40
0.7966154845
 40
0.8131798148
 40
0.8292014853
 40
0.844656591
 40
0.8595229231
 40
0.8737800373
 40
0.8874096179
 40
0.9003956195
 40
0.9127245231
 40
0.9243858749
 40
0.935372597
 40
0.9456816473
 40
0.955314943
 40
0.9642802555
 40
0.9725927586
 40
0.9802769434
 40
0.9838950851
 40
0.9873709145
 40
0.993921605
 40
1.0
 40
1.0
 40
1.0
 40
1.0
 10
13.2934944172
 20
10.7247407679
 30
0.0
 10
13.2950090049
 20
10.7262037473
 30
0.0
 10
13.2980310831
 20
10.729383785
 30
0.0
 10
13.3023821537
 20
10.7346587819
 30
0.0
 10
13.3067161103
 20
10.7406105846
 30
0.0
 10
13.311025247
 20
10.7472282733
 30
0.0
 10
13.3153023754
 20
10.7545005112
 30
0.0
 10
13.3195397863
 20
10.7624144333
 30
0.0
 10
13.3237298563
 20
10.7709559046
 30
0.0
 10
13.3278649977
 20
10.7801095534
 30
0.0
 10
13.3319375874
 20
10.7898588474
 30
0.0
 10
13.335940161
 20
10.8001860754
 30
0.0
 10
13.33986537
 20
10.8110724269
 30
0.0
 10
13.3437059318
 20
10.8224980478
 30
0.0
 10
13.3474548002
 20
10.8344420459
 30
0.0
 10
13.3511050481
 20
10.8468825603
 30
0.0
 10
13.3546499537
 20
10.8597968299
 30
0.0
 10
13.3592896076
 20
10.8778591177
 30
0.0
 10
13.3647603425
 20
10.9014500004
 30
0.0
 10
13.3707232631
 20
10.9308824241
 30
0.0
 10
13.3761247489
 20
10.9615909882
 30
0.0
 10
13.3809247919
 20
10.993350496
 30
0.0
 10
13.3850878265
 20
11.0259282209
 30
0.0
 10
13.3885830722
 20
11.0590852332
 30
0.0
 10
13.3913847194
 20
11.0925783157
 30
0.0
 10
13.3934721671
 20
11.1261617387
 30
0.0
 10
13.3948301358
 20
11.1595890986
 30
0.0
 10
13.3954487746
 20
11.1926151587
 30
0.0
 10
13.3953237481
 20
11.2249976478
 30
0.0
 10
13.3944563463
 20
11.2564991811
 30
0.0
 10
13.39285329
 20
11.286888654
 30
0.0
 10
13.3908908845
 20
11.3114022845
 30
0.0
 10
13.3889466629
 20
11.3302823045
 30
0.0
 10
13.3873319794
 20
11.3438487189
 30
0.0
 10
13.3855454584
 20
11.3569764126
 30
0.0
 10
13.3835903405
 20
11.3696413457
 30
0.0
 10
13.3814702745
 20
11.3818203159
 30
0.0
 10
13.3791892226
 20
11.3934910404
 30
0.0
 10
13.3767513736
 20
11.4046321828
 30
0.0
 10
13.3741612772
 20
11.4152234187
 30
0.0
 10
13.3714237434
 20
11.4252454702
 30
0.0
 10
13.3685437785
 20
11.4346801398
 30
0.0
 10
13.3655267255
 20
11.4435103941
 30
0.0
 10
13.3623780787
 20
11.451720375
 30
0.0
 10
13.3591034609
 20
11.4592954614
 30
0.0
 10
13.3557087235
 20
11.4662223081
 30
0.0
 10
13.3521995352
 20
11.4724890067
 30
0.0
 10
13.3485817381
 20
11.478084445
 30
0.0
 10
13.3454199207
 20
11.482260864
 30
0.0
 10
13.3428358828
 20
11.4852393546
 30
0.0
 10
13.3403226178
 20
11.4878733123
 30
0.0
 10
13.3371258415
 20
11.4907555423
 30
0.0
 10
13.3343634116
 20
11.492702717
 30
0.0
 10
13.3329750252
 20
11.4935400067
 30
0.0
  0
SPLINE
  5
37F
100
AcDbEntity
  8
0
100
AcDbSpline
 62
7
  6
CONTINUOUS
 70
0
 71
3
 72
10
 73
6
 74
0
 42
0.0000001
 43
0.0000001
 44
0.0000000001
 40
0.0
 40
0.0
 40
0.0
 40
0.0
 40
0.275568338
 40
0.5331064429
 40
1.0
 40
1.0
 40
1.0
 40
1.0
 10
13.2934944172
 20
10.7247407679
 30
0.0
 10
13.2923051659
 20
10.7235920392
 30
0.0
 10
13.2899275945
 20
10.7214456026
 30
0.0
 10
13.285166677
 20
10.7177909293
 30
0.0
 10
13.281363353
 20
10.7156027518
 30
0.0
 10
13.2787815901
 20
10.7145153217
 30
0.0
  0
SPLINE
  5
380
100
AcDbEntity
  8
0
100
AcDbSpline
 62
7
  6
CONTINUOUS
 70
0
 71
3
 72
15
 73
11
 74
0
 42
0.0000001
 43
0.0000001
 44
0.0000000001
 40
0.0
 40
0.0
 40
0.0
 40
0.0
 40
0.1529261295
 40
0.2946806717
 40
0.4263802943
 40
0.5495396701
 40
0.6660643819
 40
0.7782371246
 40
0.8886420851
 40
1.0
 40
1.0
 40
1.0
 40
1.0
 10
13.2934944172
 20
10.8661523172
 30
0.0
 10
13.2926592025
 20
10.8653455617
 30
0.0
 10
13.2909901987
 20
10.8638505238
 30
0.0
 10
13.288388176
 20
10.8619154644
 30
0.0
 10
13.2857892661
 20
10.8603808523
 30
0.0
 10
13.283196606
 20
10.8592512026
 30
0.0
 10
13.2806137163
 20
10.8585313719
 30
0.0
 10
13.2780458828
 20
10.8582263591
 30
0.0
 10
13.2755017581
 20
10.8583393572
 30
0.0
 10
13.2738459292
 20
10.8586895012
 30
0.0
 10
13.273034612
 20
10.8589277667
 30
0.0
  0
SPLINE
  5
381
100
AcDbEntity
  8
0
100
AcDbSpline
 62
7
  6
CONTINUOUS
 70
0
 71
3
 72
57
 73
53
 74
0
 42
0.0000001
 43
0.0000001
 44
0.0000000001
 40
0.0
 40
0.0
 40
0.0
 40
0.0
 40
0.0082509857
 40
0.0172137543
 40
0.0269107241
 40
0.0373558312
 40
0.0485541793
 40
0.060504117
 40
0.0731985502
 40
0.086625946
 40
0.1007709077
 40
0.1156145931
 40
0.1311354112
 40
0.1473090487
 40
0.1641089177
 40
0.181506408
 40
0.217968877
 40
0.2564337596
 40
0.2966140832
 40
0.3382042722
 40
0.3808840065
 40
0.4243218389
 40
0.4681786893
 40
0.5121112878
 40
0.5557756162
 40
0.5988303314
 40
0.6409401902
 40
0.681779526
 40
0.7210358418
 40
0.758413504
 40
0.7763116918
 40
0.7936391094
 40
0.8103653696
 40
0.8264621196
 40
0.8419029713
 40
0.8566639921
 40
0.8707238589
 40
0.884064112
 40
0.8966698469
 40
0.9085299269
 40
0.9196379231
 40
0.9299930148
 40
0.9396010591
 40
0.9484766204
 40
0.9566449592
 40
0.9641452409
 40
0.9710344806
 40
0.9773917982
 40
0.9833227632
 40
0.9889607729
 40
0.994463155
 40
1.0
 40
1.0
 40
1.0
 40
1.0
 10
13.2934944172
 20
10.8661523172
 30
0.0
 10
13.2945114934
 20
10.8671347374
 30
0.0
 10
13.2965401613
 20
10.8692819958
 30
0.0
 10
13.2994528005
 20
10.8728620927
 30
0.0
 10
13.3023524246
 20
10.8769243308
 30
0.0
 10
13.3052331997
 20
10.8814602564
 30
0.0
 10
13.3080896968
 20
10.886461067
 30
0.0
 10
13.3109160025
 20
10.8919167456
 30
0.0
 10
13.3137063797
 20
10.8978161885
 30
0.0
 10
13.3164550249
 20
10.9041473393
 30
0.0
 10
13.3191561737
 20
10.9108971854
 30
0.0
 10
13.3218042263
 20
10.9180517686
 30
0.0
 10
13.3243935785
 20
10.9255962796
 30
0.0
 10
13.326918817
 20
10.9335150453
 30
0.0
 10
13.3293746889
 20
10.9417916095
 30
0.0
 10
13.3326002501
 20
10.9534645625
 30
0.0
 10
13.336405965
 20
10.9688262133
 30
0.0
 10
13.3405513311
 20
10.9881159482
 30
0.0
 10
13.3443085221
 20
11.0083793174
 30
0.0
 10
13.3476458454
 20
11.0294474338
 30
0.0
 10
13.35053512
 20
11.0511448373
 30
0.0
 10
13.3529520208
 20
11.0732906251
 30
0.0
 10
13.3548762362
 20
11.0957001101
 30
0.0
 10
13.3562916566
 20
11.1181863596
 30
0.0
 10
13.3571865044
 20
11.1405617893
 30
0.0
 10
13.3575534241
 20
11.1626397598
 30
0.0
 10
13.3573895421
 20
11.1842361319
 30
0.0
 10
13.3566965446
 20
11.2051709353
 30
0.0
 10
13.3554805455
 20
11.2252695851
 30
0.0
 10
13.354020239
 20
11.2414077527
 30
0.0
 10
13.3525854629
 20
11.2537681885
 30
0.0
 10
13.3514018323
 20
11.2625932904
 30
0.0
 10
13.3500976558
 20
11.2710892008
 30
0.0
 10
13.3486757069
 20
11.2792382468
 30
0.0
 10
13.3471389523
 20
11.2870234736
 30
0.0
 10
13.3454906615
 20
11.2944287154
 30
0.0
 10
13.3437343322
 20
11.3014386278
 30
0.0
 10
13.3418736115
 20
11.3080387194
 30
0.0
 10
13.3399124711
 20
11.3142154199
 30
0.0
 10
13.3378549534
 20
11.31995609
 30
0.0
 10
13.3357053022
 20
11.3252490859
 30
0.0
 10
13.3334679067
 20
11.3300838178
 30
0.0
 10
13.3311470549
 20
11.3344507214
 30
0.0
 10
13.3287470999
 20
11.3383413783
 30
0.0
 10
13.3262720203
 20
11.3417483716
 30
0.0
 10
13.3237253152
 20
11.3446651192
 30
0.0
 10
13.3211099254
 20
11.3470855492
 30
0.0
 10
13.3184280403
 20
11.3490030258
 30
0.0
 10
13.3156825402
 20
11.3504096926
 30
0.0
 10
13.3128784257
 20
11.3512961136
 30
0.0
 10
13.3100270164
 20
11.3516538107
 30
0.0
 10
13.3081263766
 20
11.3515390545
 30
0.0
 10
13.3071877193
 20
11.351399906
 30
0.0
  0
SPLINE
  5
382
100
AcDbEntity
  8
0
100
AcDbSpline
 62
7
  6
CONTINUOUS
 70
0
 71
3
 72
29
 73
25
 74
0
 42
0.0000001
 43
0.0000001
 44
0.0000000001
 40
0.0
 40
0.0
 40
0.0
 40
0.0
 40
0.0246623771
 40
0.0505336219
 40
0.0775561267
 40
0.1056671525
 40
0.1347992495
 40
0.1648809552
 40
0.2275873066
 40
0.2931502743
 40
0.3608905396
 40
0.4300984854
 40
0.5000444833
 40
0.5699889822
 40
0.6391924497
 40
0.7069253275
 40
0.7724780827
 40
0.8351715537
 40
0.8652458743
 40
0.8943700022
 40
0.9224724858
 40
0.9494859175
 40
0.9753476173
 40
1.0
 40
1.0
 40
1.0
 40
1.0
 10
13.2373943981
 20
10.9362312034
 30
0.0
 10
13.2383648067
 20
10.9389188579
 30
0.0
 10
13.2402738324
 20
10.9444548037
 30
0.0
 10
13.2429866385
 20
10.9530223424
 30
0.0
 10
13.2456115408
 20
10.9620341588
 30
0.0
 10
13.2481410311
 20
10.9714648388
 30
0.0
 10
13.250568006
 20
10.9812878917
 30
0.0
 10
13.2537013605
 20
10.9950628256
 30
0.0
 10
13.2572967794
 20
11.0130580503
 30
0.0
 10
13.2610461251
 20
11.0354601725
 30
0.0
 10
13.2642447115
 20
11.0587080515
 30
0.0
 10
13.2668561384
 20
11.0825398807
 30
0.0
 10
13.2688507154
 20
11.1066874394
 30
0.0
 10
13.2702058589
 20
11.1308787888
 30
0.0
 10
13.2709064241
 20
11.154841481
 30
0.0
 10
13.2709448369
 20
11.1783057806
 30
0.0
 10
13.2703210256
 20
11.2010073924
 30
0.0
 10
13.2692417992
 20
11.2193229845
 30
0.0
 10
13.2680381164
 20
11.2333951364
 30
0.0
 10
13.2669890459
 20
11.2434562504
 30
0.0
 10
13.2657843018
 20
11.2531426724
 30
0.0
 10
13.2644272686
 20
11.2624271949
 30
0.0
 10
13.2629218866
 20
11.2712836221
 30
0.0
 10
13.2617944919
 20
11.2770276242
 30
0.0
 10
13.2612039702
 20
11.2798222345
 30
0.0
  0
SPLINE
  5
383
100
AcDbEntity
  8
0
100
AcDbSpline
 62
7
  6
CONTINUOUS
 70
0
 71
3
 72
18
 73
14
 74
0
 42
0.0000001
 43
0.0000001
 44
0.0000000001
 40
0.0
 40
0.0
 40
0.0
 40
0.0
 40
0.150469112
 40
0.2917140284
 40
0.424441815
 40
0.4879094416
 40
0.5496093301
 40
0.6682625491
 40
0.781788358
 40
0.8371380776
 40
0.8918079112
 40
0.9460193711
 40
1.0
 40
1.0
 40
1.0
 40
1.0
 10
13.3182221205
 20
8.047797725
 30
0.0
 10
13.3156392949
 20
8.045302907
 30
0.0
 10
13.3104772062
 20
8.040621922
 30
0.0
 10
13.3024842251
 20
8.0343839843
 30
0.0
 10
13.2957328471
 20
8.0299721446
 30
0.0
 10
13.2903491702
 20
8.0269845947
 30
0.0
 10
13.2851238967
 20
8.0244196269
 30
0.0
 10
13.2785906231
 20
8.0218278707
 30
0.0
 10
13.2719411651
 20
8.0200591479
 30
0.0
 10
13.2666745789
 20
8.0191878675
 30
0.0
 10
13.2627713118
 20
8.0188011713
 30
0.0
 10
13.2588838368
 20
8.018676204
 30
0.0
 10
13.2563010901
 20
8.0187675322
 30
0.0
 10
13.2550159181
 20
8.0188566549
 30
0.0
  0
SPLINE
  5
384
100
AcDbEntity
  8
0
100
AcDbSpline
 62
7
  6
CONTINUOUS
 70
0
 71
3
 72
82
 73
78
 74
0
 42
0.0000001
 43
0.0000001
 44
0.0000000001
 40
0.0
 40
0.0
 40
0.0
 40
0.0
 40
0.002807998
 40
0.0056356815
 40
0.0085022862
 40
0.0114262157
 40
0.0144246886
 40
0.0175135475
 40
0.0207071116
 40
0.0240181287
 40
0.0274578457
 40
0.0310360113
 40
0.0347610587
 40
0.0386401644
 40
0.0426793853
 40
0.0468838117
 40
0.0512575948
 40
0.0558041467
 40
0.060526141
 40
0.0654256359
 40
0.0705041557
 40
0.0757626799
 40
0.0812017983
 40
0.0868216503
 40
0.0986018597
 40
0.1110985402
 40
0.1243017937
 40
0.1381979483
 40
0.152770068
 40
0.1679983501
 40
0.183860462
 40
0.2003318111
 40
0.2173857692
 40
0.2349938647
 40
0.253125944
 40
0.2717503265
 40
0.2908339494
 40
0.3103424953
 40
0.3302405119
 40
0.3504915239
 40
0.371058141
 40
0.3919021724
 40
0.4129847318
 40
0.4557062561
 40
0.4989023598
 40
0.5422472295
 40
0.585413605
 40
0.6280759621
 40
0.6491180743
 40
0.6699145404
 40
0.6904265895
 40
0.7106161706
 40
0.7304460569
 40
0.7498799507
 40
0.7688825941
 40
0.7874198838
 40
0.8054589982
 40
0.8229685314
 40
0.8399186272
 40
0.856281132
 40
0.8720297671
 40
0.8871403283
 40
0.9015909288
 40
0.9153622693
 40
0.9284379715
 40
0.9408050021
 40
0.9524542082
 40
0.958008332
 40
0.963381739
 40
0.9685747302
 40
0.9735880076
 40
0.9784227531
 40
0.9830806264
 40
0.987564002
 40
0.991875889
 40
0.9960198355
 40
1.0
 40
1.0
 40
1.0
 40
1.0
 10
11.112769233
 20
11.7154264994
 30
0.0
 10
11.1127692416
 20
11.7170536806
 30
0.0
 10
11.1126267502
 20
11.7203212109
 30
0.0
 10
11.1119864724
 20
11.7252121365
 30
0.0
 10
11.1109202152
 20
11.7300970914
 30
0.0
 10
11.1094288846
 20
11.7349725997
 30
0.0
 10
11.1075139917
 20
11.7398361111
 30
0.0
 10
11.1051770078
 20
11.7446850394
 30
0.0
 10
11.1024196396
 20
11.7495170293
 30
0.0
 10
11.0992437604
 20
11.7543298868
 30
0.0
 10
11.0956511664
 20
11.7591213495
 30
0.0
 10
11.0916439881
 20
11.7638893597
 30
0.0
 10
11.0872242867
 20
11.7686316978
 30
0.0
 10
11.0823943808
 20
11.7733462253
 30
0.0
 10
11.0771567394
 20
11.7780307946
 30
0.0
 10
11.0715139322
 20
11.7826831282
 30
0.0
 10
11.0654688399
 20
11.7873011119
 30
0.0
 10
11.0590244117
 20
11.7918824342
 30
0.0
 10
11.0521838838
 20
11.7964249144
 30
0.0
 10
11.0449506589
 20
11.8009263277
 30
0.0
 10
11.0373283172
 20
11.8053843972
 30
0.0
 10
11.0293207039
 20
11.8097969811
 30
0.0
 10
11.0209317746
 20
11.8141618369
 30
0.0
 10
11.0090566167
 20
11.8200070699
 30
0.0
 10
10.9932726095
 20
11.8271611129
 30
0.0
 10
10.9731690491
 20
11.8353918459
 30
0.0
 10
10.9516557792
 20
11.8433814813
 30
0.0
 10
10.9287760199
 20
11.8511138361
 30
0.0
 10
10.904575446
 20
11.8585732264
 30
0.0
 10
10.8791026593
 20
11.8657444899
 30
0.0
 10
10.8524088851
 20
11.8726130319
 30
0.0
 10
10.8245478931
 20
11.879164863
 30
0.0
 10
10.7955758596
 20
11.8853866353
 30
0.0
 10
10.7655512517
 20
11.8912656686
 30
0.0
 10
10.734534705
 20
11.8967899895
 30
0.0
 10
10.7025888919
 20
11.9019483533
 30
0.0
 10
10.6697783839
 20
11.9067302584
 30
0.0
 10
10.6361695135
 20
11.9111259709
 30
0.0
 10
10.6018302423
 20
11.9151265412
 30
0.0
 10
10.5668300184
 20
11.9187238283
 30
0.0
 10
10.5312396595
 20
11.9219105087
 30
0.0
 10
10.4951311087
 20
11.9246801477
 30
0.0
 10
10.4461788894
 20
11.9278229652
 30
0.0
 10
10.3842328018
 20
11.9306613152
 30
0.0
 10
10.3093395025
 20
11.93232427
 30
0.0
 10
10.2341697471
 20
11.9322449915
 30
0.0
 10
10.1593316373
 20
11.9304241002
 30
0.0
 10
10.0974667016
 20
11.9274546883
 30
0.0
 10
10.0486067394
 20
11.9242078587
 30
0.0
 10
10.0125869932
 20
11.9213619434
 30
0.0
 10
9.9770986175
 20
11.9181000955
 30
0.0
 10
9.9422133451
 20
11.9144289072
 30
0.0
 10
9.908001754
 20
11.9103558627
 30
0.0
 10
9.8745330306
 20
11.905889247
 30
0.0
 10
9.841874856
 20
11.9010381501
 30
0.0
 10
9.8100932584
 20
11.8958124424
 30
0.0
 10
9.7792524727
 20
11.8902227613
 30
0.0
 10
9.7494148028
 20
11.8842804962
 30
0.0
 10
9.7206404946
 20
11.8779977523
 30
0.0
 10
9.692987613
 20
11.8713873281
 30
0.0
 10
9.6665119142
 20
11.864462688
 30
0.0
 10
9.6412667203
 20
11.8572379278
 30
0.0
 10
9.617302773
 20
11.8497277561
 30
0.0
 10
9.594668166
 20
11.8419474438
 30
0.0
 10
9.5734080509
 20
11.8339127567
 30
0.0
 10
9.5535651298
 20
11.8256399562
 30
0.0
 10
9.5380046424
 20
11.8184515624
 30
0.0
 10
9.5263122557
 20
11.8125802401
 30
0.0
 10
9.5180615102
 20
11.808197759
 30
0.0
 10
9.5101935336
 20
11.8037683919
 30
0.0
 10
9.502712276
 20
11.7992942652
 30
0.0
 10
9.4956214507
 20
11.7947777124
 30
0.0
 10
9.4889246124
 20
11.7902208535
 30
0.0
 10
9.4826250076
 20
11.7856259391
 30
0.0
 10
9.4767257426
 20
11.7809950821
 30
0.0
 10
9.4712300561
 20
11.7763307969
 30
0.0
 10
9.4677686348
 20
11.7731373516
 30
0.0
 10
9.466109725
 20
11.7715349677
 30
0.0
  0
SPLINE
  5
385
100
AcDbEntity
  8
0
100
AcDbSpline
 62
7
  6
CONTINUOUS
 70
0
 71
3
 72
15
 73
11
 74
0
 42
0.0000001
 43
0.0000001
 44
0.0000000001
 40
0.0
 40
0.0
 40
0.0
 40
0.0
 40
0.1217214181
 40
0.246238945
 40
0.3726362764
 40
0.4999792747
 40
0.6273248969
 40
0.7537300732
 40
0.8782605862
 40
1.0
 40
1.0
 40
1.0
 40
1.0
 10
13.229566736
 20
11.0382428183
 30
0.0
 10
13.2304955126
 20
11.043928719
 30
0.0
 10
13.2322285519
 20
11.0554553976
 30
0.0
 10
13.2344370868
 20
11.0729555156
 30
0.0
 10
13.2362728696
 20
11.0907662114
 30
0.0
 10
13.2377213111
 20
11.1087468152
 30
0.0
 10
13.2387709576
 20
11.1267554724
 30
0.0
 10
13.2394135545
 20
11.1446501029
 30
0.0
 10
13.2396441104
 20
11.1622893606
 30
0.0
 10
13.2395203247
 20
11.1739464013
 30
0.0
 10
13.2393860784
 20
11.179706947
 30
0.0
  0
SPLINE
  5
386
100
AcDbEntity
  8
0
100
AcDbSpline
 62
7
  6
CONTINUOUS
 70
0
 71
3
 72
39
 73
35
 74
0
 42
0.0000001
 43
0.0000001
 44
0.0000000001
 40
0.0
 40
0.0
 40
0.0
 40
0.0
 40
0.0311159848
 40
0.0620233135
 40
0.092735143
 40
0.1232711778
 40
0.1536587319
 40
0.1839312112
 40
0.2141268392
 40
0.2442870988
 40
0.2744549756
 40
0.3046731305
 40
0.33498209
 40
0.3654185441
 40
0.3960138631
 40
0.4267928826
 40
0.4577729973
 40
0.4889636195
 40
0.5203659692
 40
0.5519731791
 40
0.5837707176
 40
0.6157370638
 40
0.647844591
 40
0.6800606401
 40
0.7123487307
 40
0.7446698624
 40
0.7769838846
 40
0.8092508934
 40
0.8414326242
 40
0.8734938002
 40
0.9054034094
 40
0.9371359163
 40
0.9686717816
 40
1.0
 40
1.0
 40
1.0
 40
1.0
 10
10.0256627462
 20
6.9376326703
 30
0.0
 10
10.0256627462
 20
6.9305789073
 30
0.0
 10
10.0249741117
 20
6.916508477
 30
0.0
 10
10.0218597454
 20
6.8956841401
 30
0.0
 10
10.0166968496
 20
6.8754037886
 30
0.0
 10
10.0095342214
 20
6.85586584
 30
0.0
 10
10.0004404325
 20
6.8372585652
 30
0.0
 10
9.9895028152
 20
6.8197622149
 30
0.0
 10
9.9768266832
 20
6.8035462289
 30
0.0
 10
9.9625344808
 20
6.7887676868
 30
0.0
 10
9.9467645093
 20
6.7755696122
 30
0.0
 10
9.9296694307
 20
6.7640796536
 30
0.0
 10
9.9114148173
 20
6.7544086922
 30
0.0
 10
9.8921774459
 20
6.746649698
 30
0.0
 10
9.872143406
 20
6.740877036
 30
0.0
 10
9.851506294
 20
6.7371457328
 30
0.0
 10
9.8304653028
 20
6.7354908802
 30
0.0
 10
9.8092232312
 20
6.7359275934
 30
0.0
 10
9.787984581
 20
6.7384509156
 30
0.0
 10
9.7669535886
 20
6.7430357391
 30
0.0
 10
9.7463323026
 20
6.7496372995
 30
0.0
 10
9.7263187323
 20
6.7581916573
 30
0.0
 10
9.7071049214
 20
6.7686161386
 30
0.0
 10
9.6888751783
 20
6.780810273
 30
0.0
 10
9.6718044153
 20
6.794656815
 30
0.0
 10
9.6560564075
 20
6.8100227025
 30
0.0
 10
9.6417822592
 20
6.8267603706
 30
0.0
 10
9.6291190916
 20
6.8447092393
 30
0.0
 10
9.6181886514
 20
6.863697097
 30
0.0
 10
9.6090961018
 20
6.8835418029
 30
0.0
 10
9.6019291657
 20
6.9040527744
 30
0.0
 10
9.5967573108
 20
6.9250338125
 30
0.0
 10
9.5936306327
 20
6.9462807621
 30
0.0
 10
9.5929279504
 20
6.9605410556
 30
0.0
 10
9.5929279504
 20
6.9676429303
 30
0.0
  0
SPLINE
  5
387
100
AcDbEntity
  8
0
100
AcDbSpline
 62
7
  6
CONTINUOUS
 70
0
 71
3
 72
80
 73
76
 74
0
 42
0.0000001
 43
0.0000001
 44
0.0000000001
 40
0.0
 40
0.0
 40
0.0
 40
0.0
 40
0.003936728
 40
0.0080366192
 40
0.0123031776
 40
0.0167393732
 40
0.0213477102
 40
0.0261301354
 40
0.0310879522
 40
0.0362220398
 40
0.041532854
 40
0.0470204909
 40
0.0585245071
 40
0.0707292951
 40
0.0836253261
 40
0.0971995869
 40
0.1114360478
 40
0.1263160344
 40
0.141818518
 40
0.1579203578
 40
0.174596516
 40
0.191820234
 40
0.2095631854
 40
0.2277956107
 40
0.2464864363
 40
0.2656033997
 40
0.2851131603
 40
0.304981402
 40
0.3251729319
 40
0.3456517726
 40
0.3663812614
 40
0.4084419889
 40
0.4510523603
 40
0.4939037838
 40
0.5366854524
 40
0.5790871955
 40
0.6208023585
 40
0.6413086819
 40
0.6615314339
 40
0.6814345645
 40
0.7009827962
 40
0.7201417176
 40
0.7388778816
 40
0.7571589085
 40
0.7749535994
 40
0.7922320558
 40
0.8089657971
 40
0.825127895
 40
0.8406931253
 40
0.8556381438
 40
0.8699416981
 40
0.8835848582
 40
0.8965513052
 40
0.9088276932
 40
0.9204041093
 40
0.9259281091
 40
0.9312753005
 40
0.9364457143
 40
0.9414397213
 40
0.9462581414
 40
0.9509021908
 40
0.9553736302
 40
0.959674767
 40
0.9638085305
 40
0.9677786045
 40
0.9715894322
 40
0.9752464127
 40
0.9787559453
 40
0.9821255715
 40
0.9853641241
 40
0.9884817797
 40
0.991490228
 40
0.9944026712
 40
0.9972338557
 40
1.0
 40
1.0
 40
1.0
 40
1.0
 10
13.2934944172
 20
8.0495125971
 30
0.0
 10
13.2952640741
 20
8.0512219545
 30
0.0
 10
13.2988015297
 20
8.054790071
 30
0.0
 10
13.3039989063
 20
8.0604591935
 30
0.0
 10
13.3091909956
 20
8.0665495257
 30
0.0
 10
13.3143750932
 20
8.0730578843
 30
0.0
 10
13.3195488951
 20
8.079981194
 30
0.0
 10
13.324709952
 20
8.0873162507
 30
0.0
 10
13.3298559259
 20
8.095059535
 30
0.0
 10
13.3349842613
 20
8.1032073724
 30
0.0
 10
13.3400925782
 20
8.1117558486
 30
0.0
 10
13.346982276
 20
8.1238738638
 30
0.0
 10
13.3555097208
 20
8.1400117392
 30
0.0
 10
13.3654693559
 20
8.1606121559
 30
0.0
 10
13.3752912848
 20
8.1827021616
 30
0.0
 10
13.3849564985
 20
8.2062393223
 30
0.0
 10
13.3944462896
 20
8.2311787237
 30
0.0
 10
13.4037422334
 20
8.2574724993
 30
0.0
 10
13.4128262707
 20
8.2850701076
 30
0.0
 10
13.4216807527
 20
8.3139183986
 30
0.0
 10
13.4302884683
 20
8.3439617555
 30
0.0
 10
13.4386326864
 20
8.3751422129
 30
0.0
 10
13.4466971878
 20
8.4073995764
 30
0.0
 10
13.4544662972
 20
8.4406715389
 30
0.0
 10
13.4619249281
 20
8.4748938026
 30
0.0
 10
13.4690585973
 20
8.5100002136
 30
0.0
 10
13.4758534531
 20
8.5459228973
 30
0.0
 10
13.4822963076
 20
8.5825923965
 30
0.0
 10
13.4883746383
 20
8.6199377817
 30
0.0
 10
13.4940767039
 20
8.6578868708
 30
0.0
 10
13.501197049
 20
8.7094405706
 30
0.0
 10
13.5090671447
 20
8.774849087
 30
0.0
 10
13.516811323
 20
8.8541782665
 30
0.0
 10
13.5228401367
 20
8.9341082026
 30
0.0
 10
13.52710704
 20
9.0140209932
 30
0.0
 10
13.5295790663
 20
9.0932988673
 30
0.0
 10
13.530131274
 20
9.1586911574
 30
0.0
 10
13.5296458299
 20
9.2102164999
 30
0.0
 10
13.5288275184
 20
9.2481030077
 30
0.0
 10
13.5275547063
 20
9.2853778314
 30
0.0
 10
13.5258298566
 20
9.321968937
 30
0.0
 10
13.5236563667
 20
9.3578055465
 30
0.0
 10
13.5210384923
 20
9.3928183673
 30
0.0
 10
13.5179813563
 20
9.4269397052
 30
0.0
 10
13.5144909417
 20
9.4601036111
 30
0.0
 10
13.5105740874
 20
9.4922460123
 30
0.0
 10
13.5062384614
 20
9.5233048382
 30
0.0
 10
13.5014925497
 20
9.5532201403
 30
0.0
 10
13.4963456379
 20
9.5819342183
 30
0.0
 10
13.4908077908
 20
9.6093917456
 30
0.0
 10
13.484889846
 20
9.6355399108
 30
0.0
 10
13.4786033688
 20
9.6603284872
 30
0.0
 10
13.4719606169
 20
9.683710113
 30
0.0
 10
13.4649744981
 20
9.7056398412
 30
0.0
 10
13.4587849801
 20
9.7229303715
 30
0.0
 10
13.453656324
 20
9.7359897659
 30
0.0
 10
13.4497925941
 20
9.7452420564
 30
0.0
 10
13.4458533773
 20
9.754101195
 30
0.0
 10
13.4418404414
 20
9.7625629372
 30
0.0
 10
13.4377558002
 20
9.7706232717
 30
0.0
 10
13.4336012966
 20
9.7782783291
 30
0.0
 10
13.4293789361
 20
9.7855244892
 30
0.0
 10
13.4250906872
 20
9.7923583193
 30
0.0
 10
13.4207384671
 20
9.7987765475
 30
0.0
 10
13.4163243503
 20
9.8047761872
 30
0.0
 10
13.41185021
 20
9.8103543263
 30
0.0
 10
13.4073180883
 20
9.8155083431
 30
0.0
 10
13.4027299214
 20
9.8202357323
 30
0.0
 10
13.398087614
 20
9.8245341046
 30
0.0
 10
13.393393198
 20
9.8284013327
 30
0.0
 10
13.3886485206
 20
9.8318352019
 30
0.0
 10
13.3838557124
 20
9.8348337818
 30
0.0
 10
13.3790167029
 20
9.8373951356
 30
0.0
 10
13.3741342288
 20
9.8395172527
 30
0.0
 10
13.3708191752
 20
9.8406492389
 30
0.0
 10
13.3691608451
 20
9.8411378139
 30
0.0
  0
SPLINE
  5
388
100
AcDbEntity
  8
0
100
AcDbSpline
 62
7
  6
CONTINUOUS
 70
0
 71
3
 72
15
 73
11
 74
0
 42
0.0000001
 43
0.0000001
 44
0.0000000001
 40
0.0
 40
0.0
 40
0.0
 40
0.0
 40
0.146549129
 40
0.285894721
 40
0.4184301137
 40
0.5446548445
 40
0.6651679132
 40
0.780671362
 40
0.891975414
 40
1.0
 40
1.0
 40
1.0
 40
1.0
 10
13.2934944172
 20
8.0495125971
 30
0.0
 10
13.2914237921
 20
8.0475125267
 30
0.0
 10
13.2872845009
 20
8.0437119432
 30
0.0
 10
13.2809171559
 20
8.0385061583
 30
0.0
 10
13.2745558054
 20
8.0339471327
 30
0.0
 10
13.2682047611
 20
8.0300387978
 30
0.0
 10
13.261867746
 20
8.0267847496
 30
0.0
 10
13.255548553
 20
8.0241882637
 30
0.0
 10
13.2492523733
 20
8.0222531112
 30
0.0
 10
13.2450211944
 20
8.0213954105
 30
0.0
 10
13.2429222497
 20
8.0210830304
 30
0.0
  0
SPLINE
  5
389
100
AcDbEntity
  8
0
100
AcDbSpline
 62
7
  6
CONTINUOUS
 70
0
 71
3
 72
19
 73
15
 74
0
 42
0.0000001
 43
0.0000001
 44
0.0000000001
 40
0.0
 40
0.0
 40
0.0
 40
0.0
 40
0.1532271521
 40
0.2947791834
 40
0.4259266104
 40
0.5483710263
 40
0.6070238903
 40
0.6643433425
 40
0.7206640098
 40
0.7763401959
 40
0.8317398871
 40
0.8872369073
 40
0.9432030769
 40
1.0
 40
1.0
 40
1.0
 40
1.0
 10
13.2934944172
 20
8.2693573282
 30
0.0
 10
13.2910784886
 20
8.2670237201
 30
0.0
 10
13.2862513906
 20
8.2627131478
 30
0.0
 10
13.2787115188
 20
8.2571784473
 30
0.0
 10
13.2711817692
 20
8.2528557483
 30
0.0
 10
13.2648302404
 20
8.2502388793
 30
0.0
 10
13.2598006423
 20
8.2488017223
 30
0.0
 10
13.2560955115
 20
8.2480483293
 30
0.0
 10
13.2524062428
 20
8.2476050808
 30
0.0
 10
13.2487347326
 20
8.2474725241
 30
0.0
 10
13.2450831928
 20
8.2476507784
 30
0.0
 10
13.2414537071
 20
8.2481398439
 30
0.0
 10
13.2378487198
 20
8.2489392945
 30
0.0
 10
13.2354845801
 20
8.2496720112
 30
0.0
 10
13.2343107278
 20
8.250087038
 30
0.0
  0
SPLINE
  5
38A
100
AcDbEntity
  8
0
100
AcDbSpline
 62
7
  6
CONTINUOUS
 70
0
 71
3
 72
39
 73
35
 74
0
 42
0.0000001
 43
0.0000001
 44
0.0000000001
 40
0.0
 40
0.0
 40
0.0
 40
0.0
 40
0.0311159848
 40
0.0620233135
 40
0.092735143
 40
0.1232711778
 40
0.1536587319
 40
0.1839312112
 40
0.2141268392
 40
0.2442870988
 40
0.2744549756
 40
0.3046731305
 40
0.33498209
 40
0.3654185441
 40
0.3960138631
 40
0.4267928826
 40
0.4577729973
 40
0.4889636195
 40
0.5203659692
 40
0.5519731791
 40
0.5837707176
 40
0.6157370638
 40
0.647844591
 40
0.6800606401
 40
0.7123487307
 40
0.7446698624
 40
0.7769838846
 40
0.8092508934
 40
0.8414326242
 40
0.8734938002
 40
0.9054034094
 40
0.9371359163
 40
0.9686717816
 40
1.0
 40
1.0
 40
1.0
 40
1.0
 10
9.5929279504
 20
6.9676429303
 30
0.0
 10
9.5929279504
 20
6.9746966932
 30
0.0
 10
9.5936165849
 20
6.9887671235
 30
0.0
 10
9.5967309512
 20
7.0095914605
 30
0.0
 10
9.601893847
 20
7.029871812
 30
0.0
 10
9.6090564752
 20
7.0494097606
 30
0.0
 10
9.6181502641
 20
7.0680170354
 30
0.0
 10
9.6290878814
 20
7.0855133857
 30
0.0
 10
9.6417640134
 20
7.1017293717
 30
0.0
 10
9.6560562158
 20
7.1165079138
 30
0.0
 10
9.6718261873
 20
7.1297059884
 30
0.0
 10
9.6889212659
 20
7.141195947
 30
0.0
 10
9.7071758793
 20
7.1508669083
 30
0.0
 10
9.7264132507
 20
7.1586259026
 30
0.0
 10
9.7464472906
 20
7.1643985645
 30
0.0
 10
9.7670844026
 20
7.1681298678
 30
0.0
 10
9.7881253938
 20
7.1697847204
 30
0.0
 10
9.8093674654
 20
7.1693480072
 30
0.0
 10
9.8306061156
 20
7.166824685
 30
0.0
 10
9.851637108
 20
7.1622398615
 30
0.0
 10
9.872258394
 20
7.1556383011
 30
0.0
 10
9.8922719643
 20
7.1470839433
 30
0.0
 10
9.9114857752
 20
7.136659462
 30
0.0
 10
9.9297155183
 20
7.1244653276
 30
0.0
 10
9.9467862813
 20
7.1106187856
 30
0.0
 10
9.9625342891
 20
7.0952528981
 30
0.0
 10
9.9768084374
 20
7.0785152299
 30
0.0
 10
9.989471605
 20
7.0605663613
 30
0.0
 10
10.0004020452
 20
7.0415785036
 30
0.0
 10
10.0094945948
 20
7.0217337976
 30
0.0
 10
10.0166615309
 20
7.0012228262
 30
0.0
 10
10.0218333858
 20
6.9802417881
 30
0.0
 10
10.0249600639
 20
6.9589948385
 30
0.0
 10
10.0256627462
 20
6.944734545
 30
0.0
 10
10.0256627462
 20
6.9376326703
 30
0.0
  0
SPLINE
  5
38B
100
AcDbEntity
  8
0
100
AcDbSpline
 62
7
  6
CONTINUOUS
 70
0
 71
3
 72
16
 73
12
 74
0
 42
0.0000001
 43
0.0000001
 44
0.0000000001
 40
0.0
 40
0.0
 40
0.0
 40
0.0
 40
0.1504820041
 40
0.2917480643
 40
0.4244939849
 40
0.4879688087
 40
0.5496752018
 40
0.6683418057
 40
0.7818820064
 40
0.8918564741
 40
1.0
 40
1.0
 40
1.0
 40
1.0
 10
13.3182221205
 20
10.7230258958
 30
0.0
 10
13.3171094259
 20
10.7219511153
 30
0.0
 10
13.3148854822
 20
10.719934485
 30
0.0
 10
13.3114419719
 20
10.7172470023
 30
0.0
 10
13.3085332878
 20
10.7153462719
 30
0.0
 10
13.3062138884
 20
10.7140591517
 30
0.0
 10
13.3039627881
 20
10.7129541146
 30
0.0
 10
13.3011479144
 20
10.71183757
 30
0.0
 10
13.2977399171
 20
10.7109307855
 30
0.0
 10
13.2943511663
 20
10.7104780019
 30
0.0
 10
13.2921007548
 20
10.7104804939
 30
0.0
 10
13.2909916626
 20
10.7105574015
 30
0.0
  0
SPLINE
  5
38C
100
AcDbEntity
  8
0
100
AcDbSpline
 62
7
  6
CONTINUOUS
 70
0
 71
3
 72
15
 73
11
 74
0
 42
0.0000001
 43
0.0000001
 44
0.0000000001
 40
0.0
 40
0.0
 40
0.0
 40
0.0
 40
0.1273482808
 40
0.2538605196
 40
0.3795878971
 40
0.5046050835
 40
0.6290174393
 40
0.7529533827
 40
0.8765605876
 40
1.0
 40
1.0
 40
1.0
 40
1.0
 10
11.5363708
 20
10.1170127149
 30
0.0
 10
11.5363708
 20
10.1220142578
 30
0.0
 10
11.5368483397
 20
10.1319914232
 30
0.0
 10
11.5390079785
 20
10.1467652847
 30
0.0
 10
11.54258902
 20
10.1611679397
 30
0.0
 10
11.5475591254
 20
10.1750646976
 30
0.0
 10
11.5538726717
 20
10.1883274082
 30
0.0
 10
11.5614721282
 20
10.2008336058
 30
0.0
 10
11.5702860585
 20
10.2124660927
 30
0.0
 10
11.5769224872
 20
10.2195719088
 30
0.0
 10
11.580409436
 20
10.2229400722
 30
0.0
  0
SPLINE
  5
38D
100
AcDbEntity
  8
0
100
AcDbSpline
 62
7
  6
CONTINUOUS
 70
0
 71
3
 72
79
 73
75
 74
0
 42
0.0000001
 43
0.0000001
 44
0.0000000001
 40
0.0
 40
0.0
 40
0.0
 40
0.0
 40
0.0040523187
 40
0.0082800841
 40
0.0126871631
 40
0.0172767823
 40
0.022051632
 40
0.0270137918
 40
0.032164602
 40
0.0375049002
 40
0.0487543641
 40
0.0607613044
 40
0.073518447
 40
0.087013926
 40
0.1012319857
 40
0.1161535031
 40
0.1317563918
 40
0.1480159378
 40
0.1649050909
 40
0.1823946949
 40
0.2004536836
 40
0.2190492414
 40
0.238146973
 40
0.2577110567
 40
0.2777043776
 40
0.2980886514
 40
0.3188245388
 40
0.3398717771
 40
0.3827345468
 40
0.426341557
 40
0.4703489743
 40
0.5144089446
 40
0.55817308
 40
0.6012959719
 40
0.6434386955
 40
0.6640396837
 40
0.6842733167
 40
0.7041006557
 40
0.7234838654
 40
0.7423863308
 40
0.7607727829
 40
0.7786094355
 40
0.7958641425
 40
0.8125065753
 40
0.8285083916
 40
0.8438434429
 40
0.8584880197
 40
0.8724211636
 40
0.8856250361
 40
0.898085359
 40
0.9097920013
 40
0.9153611868
 40
0.9207404953
 40
0.9259301918
 40
0.9309310389
 40
0.9357443085
 40
0.9403718048
 40
0.9448160433
 40
0.9490802107
 40
0.953168354
 40
0.9570854698
 40
0.9608375769
 40
0.9644319583
 40
0.9678772002
 40
0.9711834072
 40
0.9774234416
 40
0.980390059
 40
0.9832752478
 40
0.9860977431
 40
0.9888776905
 40
0.9916362471
 40
0.9943951153
 40
0.9971759847
 40
1.0
 40
1.0
 40
1.0
 40
1.0
 10
13.2934944172
 20
8.2693573282
 30
0.0
 10
13.2948831367
 20
8.2706987283
 30
0.0
 10
13.29765898
 20
8.2735040919
 30
0.0
 10
13.3017335943
 20
8.27797133
 30
0.0
 10
13.3058037002
 20
8.2827831527
 30
0.0
 10
13.3098669611
 20
8.2879368239
 30
0.0
 10
13.3139214288
 20
8.293429673
 30
0.0
 10
13.3179649919
 20
8.2992589436
 30
0.0
 10
13.3219957085
 20
8.3054215968
 30
0.0
 10
13.3274446949
 20
8.3142322409
 30
0.0
 10
13.3341933622
 20
8.3260744317
 30
0.0
 10
13.3420723491
 20
8.3413221771
 30
0.0
 10
13.3498501827
 20
8.3578128127
 30
0.0
 10
13.3575104944
 20
8.375511916
 30
0.0
 10
13.3650371637
 20
8.3943828287
 30
0.0
 10
13.3724142657
 20
8.4143861662
 30
0.0
 10
13.3796261823
 20
8.4354800857
 30
0.0
 10
13.3866576364
 20
8.4576203502
 30
0.0
 10
13.3934937215
 20
8.4807604666
 30
0.0
 10
13.4001199432
 20
8.504851795
 30
0.0
 10
13.4065222464
 20
8.5298436541
 30
0.0
 10
13.4126870671
 20
8.555683426
 30
0.0
 10
13.418601348
 20
8.5823166797
 30
0.0
 10
13.4242525604
 20
8.6096872974
 30
0.0
 10
13.4296287375
 20
8.637737601
 30
0.0
 10
13.4347184777
 20
8.6664084508
 30
0.0
 10
13.4395110635
 20
8.695639438
 30
0.0
 10
13.4455275853
 20
8.7355196078
 30
0.0
 10
13.4522209616
 20
8.7863138133
 30
0.0
 10
13.4588780175
 20
8.8481293131
 30
0.0
 10
13.4641512572
 20
8.9106507515
 30
0.0
 10
13.4679961223
 20
8.9733511652
 30
0.0
 10
13.4703803501
 20
9.0357025387
 30
0.0
 10
13.4712840539
 20
9.0971793397
 30
0.0
 10
13.4707942442
 20
9.1476242281
 30
0.0
 10
13.4696395498
 20
9.1871438888
 30
0.0
 10
13.4684090903
 20
9.2160217326
 30
0.0
 10
13.4668104664
 20
9.2443004186
 30
0.0
 10
13.4648470581
 20
9.2719203828
 30
0.0
 10
13.4625230794
 20
9.2988234029
 30
0.0
 10
13.4598434931
 20
9.3249527952
 30
0.0
 10
13.4568140195
 20
9.350253516
 30
0.0
 10
13.4534411236
 20
9.3746722966
 30
0.0
 10
13.4497320199
 20
9.3981577651
 30
0.0
 10
13.445694633
 20
9.420660559
 30
0.0
 10
13.4413375847
 20
9.4421334267
 30
0.0
 10
13.4366701658
 20
9.4625313583
 30
0.0
 10
13.4317023227
 20
9.4818116675
 30
0.0
 10
13.4264446301
 20
9.4999342676
 30
0.0
 10
13.4209082148
 20
9.5168612405
 30
0.0
 10
13.4159936505
 20
9.5301543806
 30
0.0
 10
13.4119177829
 20
9.5401504822
 30
0.0
 10
13.4088494549
 20
9.5472018217
 30
0.0
 10
13.4057203396
 20
9.5539289411
 30
0.0
 10
13.4025320378
 20
9.5603283579
 30
0.0
 10
13.3992862392
 20
9.5663967643
 30
0.0
 10
13.3959845231
 20
9.5721309841
 30
0.0
 10
13.392628655
 20
9.577528097
 30
0.0
 10
13.3892202515
 20
9.5825852904
 30
0.0
 10
13.3857610009
 20
9.587299959
 30
0.0
 10
13.3822526436
 20
9.591669694
 30
0.0
 10
13.3786967074
 20
9.5956921794
 30
0.0
 10
13.3750951018
 20
9.5993652592
 30
0.0
 10
13.3714488466
 20
9.6026872409
 30
0.0
 10
13.3666249242
 20
9.6065698343
 30
0.0
 10
13.3616172491
 20
9.609850249
 30
0.0
 10
13.3564568708
 20
9.6124238631
 30
0.0
 10
13.3526154276
 20
9.6139621203
 30
0.0
 10
13.3487409551
 20
9.6151387298
 30
0.0
 10
13.3448357323
 20
9.6159527501
 30
0.0
 10
13.340902489
 20
9.6164031221
 30
0.0
 10
13.3369439741
 20
9.6164895514
 30
0.0
 10
13.3329634132
 20
9.6162121001
 30
0.0
 10
13.3303225676
 20
9.6157889302
 30
0.0
 10
13.3290042172
 20
9.6155198215
 30
0.0
  0
SPLINE
  5
38E
100
AcDbEntity
  8
0
100
AcDbSpline
 62
7
  6
CONTINUOUS
 70
0
 71
3
 72
59
 73
55
 74
0
 42
0.0000001
 43
0.0000001
 44
0.0000000001
 40
0.0
 40
0.0
 40
0.0
 40
0.0
 40
0.0076589375
 40
0.0159076716
 40
0.0247646312
 40
0.0342420341
 40
0.0443456843
 40
0.0550765753
 40
0.0664317927
 40
0.0784049863
 40
0.090986911
 40
0.1041658627
 40
0.1179279242
 40
0.1322571941
 40
0.1471360535
 40
0.1625453024
 40
0.1784642593
 40
0.1948709514
 40
0.2117422129
 40
0.2290537314
 40
0.2467801902
 40
0.2648953578
 40
0.3021818715
 40
0.3406882668
 40
0.38017849
 40
0.4204084462
 40
0.461128052
 40
0.5020833193
 40
0.5430183897
 40
0.5836775664
 40
0.6238073389
 40
0.6631584326
 40
0.7014878818
 40
0.7385610965
 40
0.7565565493
 40
0.774154916
 40
0.791330249
 40
0.8080575522
 40
0.8243128504
 40
0.8400733397
 40
0.85531746
 40
0.8700249731
 40
0.8841771491
 40
0.8977569114
 40
0.9107489588
 40
0.9231400229
 40
0.9349191577
 40
0.9460779941
 40
0.9566111781
 40
0.966516959
 40
0.9757978034
 40
0.984461301
 40
0.9925214222
 40
1.0
 40
1.0
 40
1.0
 40
1.0
 10
13.1868561997
 20
8.305326338
 30
0.0
 10
13.1892576575
 20
8.3076459682
 30
0.0
 10
13.1940504369
 20
8.3126682066
 30
0.0
 10
13.2009646667
 20
8.3209677469
 30
0.0
 10
13.2078542061
 20
8.3302932262
 30
0.0
 10
13.2147079365
 20
8.3406291015
 30
0.0
 10
13.2215153651
 20
8.351959285
 30
0.0
 10
13.2282654668
 20
8.3642654958
 30
0.0
 10
13.2349472121
 20
8.3775278201
 30
0.0
 10
13.2415495792
 20
8.391724617
 30
0.0
 10
13.248061636
 20
8.4068325837
 30
0.0
 10
13.2544725141
 20
8.4228268516
 30
0.0
 10
13.2607715044
 20
8.4396810071
 30
0.0
 10
13.2669481077
 20
8.457367139
 30
0.0
 10
13.2729919808
 20
8.4758559325
 30
0.0
 10
13.2788929923
 20
8.4951167057
 30
0.0
 10
13.2846412972
 20
8.5151174485
 30
0.0
 10
13.290227273
 20
8.5358249102
 30
0.0
 10
13.2956415529
 20
8.557204656
 30
0.0
 10
13.3008750908
 20
8.5792210941
 30
0.0
 10
13.3059191863
 20
8.6018376013
 30
0.0
 10
13.3124433099
 20
8.633042943
 30
0.0
 10
13.3200458235
 20
8.673273505
 30
0.0
 10
13.3282036895
 20
8.7228675014
 30
0.0
 10
13.3354268709
 20
8.7739023885
 30
0.0
 10
13.3416669087
 20
8.8260383471
 30
0.0
 10
13.346881997
 20
8.8789284635
 30
0.0
 10
13.3510372694
 20
8.9322206346
 30
0.0
 10
13.3541049826
 20
8.9855600748
 30
0.0
 10
13.356064818
 20
9.0385916728
 30
0.0
 10
13.3569038751
 20
9.0909623704
 30
0.0
 10
13.3566168945
 20
9.1423236664
 30
0.0
 10
13.3552061578
 20
9.1923335293
 30
0.0
 10
13.3530821673
 20
9.2329984681
 30
0.0
 10
13.3508106661
 20
9.2645959789
 30
0.0
 10
13.3488510765
 20
9.2875171523
 30
0.0
 10
13.3466221124
 20
9.3098582132
 30
0.0
 10
13.3441274873
 20
9.3315820053
 30
0.0
 10
13.3413713846
 20
9.352652362
 30
0.0
 10
13.3383584562
 20
9.3730342376
 30
0.0
 10
13.335093789
 20
9.392693748
 30
0.0
 10
13.331582852
 20
9.4115982232
 30
0.0
 10
13.3278315559
 20
9.4297162839
 30
0.0
 10
13.3238462345
 20
9.4470179011
 30
0.0
 10
13.3196335646
 20
9.463474433
 30
0.0
 10
13.3152005994
 20
9.4790587007
 30
0.0
 10
13.3105547868
 20
9.4937450621
 30
0.0
 10
13.3057038491
 20
9.5075094429
 30
0.0
 10
13.3006557726
 20
9.5203293937
 30
0.0
 10
13.2954188096
 20
9.5321842262
 30
0.0
 10
13.290001389
 20
9.5430549047
 30
0.0
 10
13.2844116479
 20
9.5529244786
 30
0.0
 10
13.2786584945
 20
9.5617767588
 30
0.0
 10
13.2745704036
 20
9.5671879752
 30
0.0
 10
13.2724958595
 20
9.5697029505
 30
0.0
  0
SPLINE
  5
38F
100
AcDbEntity
  8
0
100
AcDbSpline
 62
7
  6
CONTINUOUS
 70
0
 71
3
 72
55
 73
51
 74
0
 42
0.0000001
 43
0.0000001
 44
0.0000000001
 40
0.0
 40
0.0
 40
0.0
 40
0.0
 40
0.0085106534
 40
0.0175805544
 40
0.0272152664
 40
0.0374164162
 40
0.0481824235
 40
0.0595088298
 40
0.0713888234
 40
0.0838134861
 40
0.0967720188
 40
0.1102520358
 40
0.1242396316
 40
0.1387195556
 40
0.1536753824
 40
0.1690895143
 40
0.1849433425
 40
0.2012173365
 40
0.2349424848
 40
0.2700929841
 40
0.3064849554
 40
0.3439252479
 40
0.3822131018
 40
0.4211417075
 40
0.4604997407
 40
0.5000728934
 40
0.5396453656
 40
0.5790013607
 40
0.6179265861
 40
0.6562097441
 40
0.6936440514
 40
0.7300287931
 40
0.7651708792
 40
0.7988864882
 40
0.8151553085
 40
0.8310037151
 40
0.8464121905
 40
0.8613621203
 40
0.8758359424
 40
0.8898172383
 40
0.9032907591
 40
0.9162426429
 40
0.9286605074
 40
0.9405335689
 40
0.9518529561
 40
0.9626118677
 40
0.9728058822
 40
0.9824334472
 40
0.9914962675
 40
1.0
 40
1.0
 40
1.0
 40
1.0
 10
13.1620860796
 20
8.3596078276
 30
0.0
 10
13.1641800158
 20
8.3622545376
 30
0.0
 10
13.1683509302
 20
8.3678453143
 30
0.0
 10
13.1743818782
 20
8.3767990609
 30
0.0
 10
13.1803766662
 20
8.3865725919
 30
0.0
 10
13.1863265222
 20
8.3971518084
 30
0.0
 10
13.1922230332
 20
8.4085218251
 30
0.0
 10
13.1980577462
 20
8.4206663899
 30
0.0
 10
13.2038221892
 20
8.4335681325
 30
0.0
 10
13.2095079861
 20
8.4472085018
 30
0.0
 10
13.2151069004
 20
8.4615678238
 30
0.0
 10
13.2206107296
 20
8.4766253688
 30
0.0
 10
13.22601146
 20
8.492359346
 30
0.0
 10
13.2313012308
 20
8.5087469584
 30
0.0
 10
13.2364722825
 20
8.5257644573
 30
0.0
 10
13.2415170822
 20
8.5433871394
 30
0.0
 10
13.2464283199
 20
8.5615894418
 30
0.0
 10
13.252865359
 20
8.5868980695
 30
0.0
 10
13.2605056203
 20
8.6197923914
 30
0.0
 10
13.2689282587
 20
8.6606811144
 30
0.0
 10
13.2766611498
 20
8.7032039395
 30
0.0
 10
13.2836589937
 20
8.7471137969
 30
0.0
 10
13.2898807575
 20
8.7921557825
 30
0.0
 10
13.2952900254
 20
8.8380682124
 30
0.0
 10
13.2998551981
 20
8.8845843
 30
0.0
 10
13.3035496379
 20
8.9314337013
 30
0.0
 10
13.3063518203
 20
8.9783441172
 30
0.0
 10
13.3082455036
 20
9.0250428874
 30
0.0
 10
13.3092197951
 20
9.0712585927
 30
0.0
 10
13.3092692063
 20
9.1167226601
 30
0.0
 10
13.3083937002
 20
9.1611709163
 30
0.0
 10
13.3065987719
 20
9.2043452767
 30
0.0
 10
13.3038952253
 20
9.2459948373
 30
0.0
 10
13.3008640074
 20
9.2796192731
 30
0.0
 10
13.2979783694
 20
9.3055657238
 30
0.0
 10
13.2956240312
 20
9.3242648742
 30
0.0
 10
13.2930574548
 20
9.3424080523
 30
0.0
 10
13.2902823298
 20
9.3599689397
 30
0.0
 10
13.2873027409
 20
9.376922044
 30
0.0
 10
13.2841230885
 20
9.393242783
 30
0.0
 10
13.2807479954
 20
9.4089075017
 30
0.0
 10
13.2771824293
 20
9.4238935304
 30
0.0
 10
13.2734316338
 20
9.438179215
 30
0.0
 10
13.2695010444
 20
9.4517439427
 30
0.0
 10
13.2653964355
 20
9.4645682078
 30
0.0
 10
13.2611237662
 20
9.4766336441
 30
0.0
 10
13.2566891747
 20
9.4879229935
 30
0.0
 10
13.2520989812
 20
9.4984203976
 30
0.0
 10
13.2473598472
 20
9.5081106865
 30
0.0
 10
13.2439992972
 20
9.5142166441
 30
0.0
 10
13.2422901125
 20
9.5171235004
 30
0.0
  0
SPLINE
  5
390
100
AcDbEntity
  8
0
100
AcDbSpline
 62
7
  6
CONTINUOUS
 70
0
 71
3
 72
15
 73
11
 74
0
 42
0.0000001
 43
0.0000001
 44
0.0000000001
 40
0.0
 40
0.0
 40
0.0
 40
0.0
 40
0.1273482808
 40
0.2538605196
 40
0.3795878971
 40
0.5046050835
 40
0.6290174393
 40
0.7529533827
 40
0.8765605876
 40
1.0
 40
1.0
 40
1.0
 40
1.0
 10
9.604519033
 20
5.8077280258
 30
0.0
 10
9.604519033
 20
5.8127295687
 30
0.0
 10
9.6049965726
 20
5.822706734
 30
0.0
 10
9.6071562115
 20
5.8374805956
 30
0.0
 10
9.6107372529
 20
5.8518832506
 30
0.0
 10
9.6157073583
 20
5.8657800084
 30
0.0
 10
9.6220209047
 20
5.8790427191
 30
0.0
 10
9.6296203612
 20
5.8915489167
 30
0.0
 10
9.6384342914
 20
5.9031814035
 30
0.0
 10
9.6450707202
 20
5.9102872197
 30
0.0
 10
9.6485576689
 20
5.9136553831
 30
0.0
  0
SPLINE
  5
391
100
AcDbEntity
  8
0
100
AcDbSpline
 62
7
  6
CONTINUOUS
 70
0
 71
3
 72
9
 73
5
 74
0
 42
0.0000001
 43
0.0000001
 44
0.0000000001
 40
0.0
 40
0.0
 40
0.0
 40
0.0
 40
0.257820555
 40
1.0
 40
1.0
 40
1.0
 40
1.0
 10
11.0962159709
 20
11.6808108947
 30
0.0
 10
11.096975962
 20
11.6816216797
 30
0.0
 10
11.0998843138
 20
11.6848029359
 30
0.0
 10
11.1026300099
 20
11.6881345154
 30
0.0
 10
11.1045495152
 20
11.6906936677
 30
0.0
  0
SPLINE
  5
392
100
AcDbEntity
  8
0
100
AcDbSpline
 62
7
  6
CONTINUOUS
 70
0
 71
3
 72
89
 73
85
 74
0
 42
0.0000001
 43
0.0000001
 44
0.0000000001
 40
0.0
 40
0.0
 40
0.0
 40
0.0
 40
0.0035067457
 40
0.0068773351
 40
0.0101261372
 40
0.0132694209
 40
0.0163253712
 40
0.01931403
 40
0.0222569562
 40
0.0251768352
 40
0.0280969349
 40
0.0310405215
 40
0.0340302555
 40
0.03708768
 40
0.0402327779
 40
0.0434837487
 40
0.0468568209
 40
0.0503662858
 40
0.054024531
 40
0.0578421694
 40
0.0618282193
 40
0.0659902029
 40
0.0703343973
 40
0.0748658775
 40
0.0795887538
 40
0.0845062125
 40
0.0896206635
 40
0.094933833
 40
0.1004467947
 40
0.1061601229
 40
0.112073838
 40
0.1181875755
 40
0.1310109369
 40
0.1446203524
 40
0.1590003357
 40
0.1741312037
 40
0.1899896357
 40
0.206549118
 40
0.2237803033
 40
0.2416513082
 40
0.260127967
 40
0.2791740536
 40
0.2987514795
 40
0.3188204719
 40
0.3393397441
 40
0.3602666555
 40
0.3815573625
 40
0.4031669649
 40
0.425049648
 40
0.4471588216
 40
0.4694472577
 40
0.5143697541
 40
0.5594326044
 40
0.6042488146
 40
0.6264445783
 40
0.6484350446
 40
0.6701733192
 40
0.6916132211
 40
0.7127094209
 40
0.7334175818
 40
0.7536945032
 40
0.7734982702
 40
0.7927884077
 40
0.8115260465
 40
0.8296740986
 40
0.847197445
 40
0.8640631458
 40
0.880240678
 40
0.8957022124
 40
0.9104229417
 40
0.9243814826
 40
0.9375603801
 40
0.9438535504
 40
0.9499474052
 40
0.9558411995
 40
0.9615345609
 40
0.9670276242
 40
0.9723209591
 40
0.977415726
 40
0.9823136602
 40
0.9870173052
 40
0.9915300562
 40
0.9958560088
 40
1.0
 40
1.0
 40
1.0
 40
1.0
 10
11.1045495152
 20
11.6906936677
 30
0.0
 10
11.1058111294
 20
11.6923756964
 30
0.0
 10
11.1081868176
 20
11.6957501597
 30
0.0
 10
11.1113453931
 20
11.7009408414
 30
0.0
 10
11.1140225157
 20
11.706152506
 30
0.0
 10
11.1162159189
 20
11.711382065
 30
0.0
 10
11.1179233806
 20
11.716626614
 30
0.0
 10
11.1191432451
 20
11.7218827439
 30
0.0
 10
11.1198738938
 20
11.7271468683
 30
0.0
 10
11.1201144858
 20
11.7324150378
 30
0.0
 10
11.1198646425
 20
11.7376831748
 30
0.0
 10
11.1191246709
 20
11.7429471735
 30
0.0
 10
11.1178956483
 20
11.7482031401
 30
0.0
 10
11.1161788906
 20
11.753447393
 30
0.0
 10
11.1139764149
 20
11.7586766876
 30
0.0
 10
11.111290114
 20
11.7638879272
 30
0.0
 10
11.1081223394
 20
11.7690783815
 30
0.0
 10
11.1044753346
 20
11.7742453383
 30
0.0
 10
11.1003515693
 20
11.7793862102
 30
0.0
 10
11.0957536463
 20
11.7844984455
 30
0.0
 10
11.0906842494
 20
11.7895793741
 30
0.0
 10
11.0851464044
 20
11.7946264742
 30
0.0
 10
11.079143184
 20
11.7996369729
 30
0.0
 10
11.0726780657
 20
11.8046082999
 30
0.0
 10
11.0657546417
 20
11.809537667
 30
0.0
 10
11.0583768497
 20
11.8144224105
 30
0.0
 10
11.0505488503
 20
11.8192598091
 30
0.0
 10
11.042275059
 20
11.8240471116
 30
0.0
 10
11.033560195
 20
11.8287816932
 30
0.0
 10
11.0244091777
 20
11.8334607575
 30
0.0
 10
11.0148272384
 20
11.8380817957
 30
0.0
 10
11.0012674807
 20
11.8442605849
 30
0.0
 10
10.9832624082
 20
11.851799669
 30
0.0
 10
10.9603614227
 20
11.8604355707
 30
0.0
 10
10.9358861097
 20
11.8687788503
 30
0.0
 10
10.9098924507
 20
11.8768102291
 30
0.0
 10
10.8824396038
 20
11.8845111308
 30
0.0
 10
10.8535903568
 20
11.891863708
 30
0.0
 10
10.8234107685
 20
11.8988509119
 30
0.0
 10
10.7919700457
 20
11.9054565362
 30
0.0
 10
10.7593403527
 20
11.9116652605
 30
0.0
 10
10.7255966365
 20
11.9174626869
 30
0.0
 10
10.6908164452
 20
11.9228353732
 30
0.0
 10
10.6550797434
 20
11.9277708687
 30
0.0
 10
10.6184687209
 20
11.9322577396
 30
0.0
 10
10.5810675965
 20
11.9362855937
 30
0.0
 10
10.5429624222
 20
11.9398451027
 30
0.0
 10
10.5042408742
 20
11.9429280286
 30
0.0
 10
10.4649920819
 20
11.9455272206
 30
0.0
 10
10.4253062975
 20
11.9476367124
 30
0.0
 10
10.3717936482
 20
11.9497952239
 30
0.0
 10
10.3044836597
 20
11.9512344659
 30
0.0
 10
10.2236513551
 20
11.9509596335
 30
0.0
 10
10.1564719986
 20
11.949062194
 30
0.0
 10
10.1031660135
 20
11.9465379515
 30
0.0
 10
10.0637091905
 20
11.944158543
 30
0.0
 10
10.0247391574
 20
11.9412926038
 30
0.0
 10
9.986345522
 20
11.9379467162
 30
0.0
 10
9.9486166539
 20
11.9341286408
 30
0.0
 10
9.9116393574
 20
11.9298472151
 30
0.0
 10
9.8754987018
 20
11.9251123558
 30
0.0
 10
9.8402778143
 20
11.919935031
 30
0.0
 10
9.8060576858
 20
11.9143272364
 30
0.0
 10
9.7729169764
 20
11.9083019704
 30
0.0
 10
9.7409318276
 20
11.9018732052
 30
0.0
 10
9.7101756781
 20
11.8950558505
 30
0.0
 10
9.6807190891
 20
11.8878657187
 30
0.0
 10
9.6526295533
 20
11.8803194848
 30
0.0
 10
9.6259713677
 20
11.8724346433
 30
0.0
 10
9.6008052922
 20
11.8642294508
 30
0.0
 10
9.5771889503
 20
11.8557228784
 30
0.0
 10
9.5585684976
 20
11.8482893421
 30
0.0
 10
9.5445038574
 20
11.8421909901
 30
0.0
 10
9.5345385396
 20
11.8376245609
 30
0.0
 10
9.5249992421
 20
11.8329977081
 30
0.0
 10
9.5158914135
 20
11.8283129448
 30
0.0
 10
9.5072202022
 20
11.8235730428
 30
0.0
 10
9.4989905805
 20
11.818780582
 30
0.0
 10
9.4912071943
 20
11.8139383836
 30
0.0
 10
9.4838744588
 20
11.8090491026
 30
0.0
 10
9.4769964656
 20
11.8041154288
 30
0.0
 10
9.4705770111
 20
11.799139983
 30
0.0
 10
9.4646200894
 20
11.7941257392
 30
0.0
 10
9.4608805924
 20
11.790686481
 30
0.0
 10
9.4590934791
 20
11.788960262
 30
0.0
  0
SPLINE
  5
393
100
AcDbEntity
  8
0
100
AcDbSpline
 62
7
  6
CONTINUOUS
 70
0
 71
3
 72
39
 73
35
 74
0
 42
0.0000001
 43
0.0000001
 44
0.0000000001
 40
0.0
 40
0.0
 40
0.0
 40
0.0
 40
0.0299424709
 40
0.0599093195
 40
0.0899243282
 40
0.1200101099
 40
0.1501875703
 40
0.1804754224
 40
0.2108897656
 40
0.24144374
 40
0.2721472615
 40
0.3030068421
 40
0.3340254935
 40
0.3652027138
 40
0.3965345512
 40
0.4280137392
 40
0.4596298977
 40
0.4913697914
 40
0.523217637
 40
0.555155451
 40
0.5871634327
 40
0.6192203743
 40
0.6513040908
 40
0.6833918641
 40
0.7154608949
 40
0.7474887554
 40
0.77945384
 40
0.8113357955
 40
0.843115963
 40
0.8747776822
 40
0.9063069484
 40
0.93769186
 40
0.968925106
 40
1.0
 40
1.0
 40
1.0
 40
1.0
 10
9.9408553662
 20
6.8450276273
 30
0.0
 10
9.9380550187
 20
6.8423227228
 30
0.0
 10
9.9322341726
 20
6.8371311643
 30
0.0
 10
9.922908231
 20
6.8300586187
 30
0.0
 10
9.9130353291
 20
6.8237362162
 30
0.0
 10
9.9026706195
 20
6.8181994397
 30
0.0
 10
9.891871093
 20
6.8134785312
 30
0.0
 10
9.8806963516
 20
6.8095994401
 30
0.0
 10
9.8692079754
 20
6.8065833884
 30
0.0
 10
9.8574692568
 20
6.8044468414
 30
0.0
 10
9.8455448264
 20
6.8032014044
 30
0.0
 10
9.8335003012
 20
6.8028537736
 30
0.0
 10
9.8214019224
 20
6.8034057068
 30
0.0
 10
9.8093161941
 20
6.8048540217
 30
0.0
 10
9.7973095211
 20
6.8071906211
 30
0.0
 10
9.7854478479
 20
6.8104025376
 30
0.0
 10
9.7737962992
 20
6.8144720083
 30
0.0
 10
9.7624188289
 20
6.8193765818
 30
0.0
 10
9.7513778737
 20
6.825089242
 30
0.0
 10
9.7407340156
 20
6.831578557
 30
0.0
 10
9.7305456547
 20
6.8388088518
 30
0.0
 10
9.7208686927
 20
6.8467404026
 30
0.0
 10
9.7117562301
 20
6.8553296533
 30
0.0
 10
9.7032582785
 20
6.864529452
 30
0.0
 10
9.6954214895
 20
6.8742893082
 30
0.0
 10
9.6882888949
 20
6.8845556615
 30
0.0
 10
9.681899677
 20
6.8952721772
 30
0.0
 10
9.6762889493
 20
6.9063800539
 30
0.0
 10
9.6714875904
 20
6.917818335
 30
0.0
 10
9.6675220058
 20
6.9295242735
 30
0.0
 10
9.6644141455
 20
6.9414335269
 30
0.0
 10
9.662181053
 20
6.9534810239
 30
0.0
 10
9.6608353134
 20
6.9655996286
 30
0.0
 10
9.6605338587
 20
6.9737045933
 30
0.0
 10
9.6605338587
 20
6.977745227
 30
0.0
  0
SPLINE
  5
394
100
AcDbEntity
  8
0
100
AcDbSpline
 62
7
  6
CONTINUOUS
 70
0
 71
3
 72
15
 73
11
 74
0
 42
0.0000001
 43
0.0000001
 44
0.0000000001
 40
0.0
 40
0.0
 40
0.0
 40
0.0
 40
0.1234394224
 40
0.2470466268
 40
0.3709825634
 40
0.4953949101
 40
0.6204120889
 40
0.7461394634
 40
0.8726517064
 40
1.0
 40
1.0
 40
1.0
 40
1.0
 10
9.7063089294
 20
7.0878479521
 30
0.0
 10
9.7026844952
 20
7.0843470479
 30
0.0
 10
9.6957863992
 20
7.0769611782
 30
0.0
 10
9.6866249403
 20
7.0648702061
 30
0.0
 10
9.678725838
 20
7.0518710646
 30
0.0
 10
9.672163347
 20
7.0380855734
 30
0.0
 10
9.6669972677
 20
7.0236410285
 30
0.0
 10
9.6632750233
 20
7.0086706341
 30
0.0
 10
9.6610302281
 20
6.9933143933
 30
0.0
 10
9.6605338587
 20
6.9829439299
 30
0.0
 10
9.6605338587
 20
6.977745227
 30
0.0
  0
SPLINE
  5
395
100
AcDbEntity
  8
0
100
AcDbSpline
 62
7
  6
CONTINUOUS
 70
0
 71
3
 72
39
 73
35
 74
0
 42
0.0000001
 43
0.0000001
 44
0.0000000001
 40
0.0
 40
0.0
 40
0.0
 40
0.0
 40
0.0299424738
 40
0.059909323
 40
0.08992433
 40
0.1200101081
 40
0.1501875632
 40
0.1804754089
 40
0.2108897447
 40
0.2414437113
 40
0.2721472249
 40
0.3030067977
 40
0.3340254418
 40
0.3652026556
 40
0.3965344874
 40
0.4280136709
 40
0.459629826
 40
0.4913697177
 40
0.5232175626
 40
0.5551553772
 40
0.5871633608
 40
0.6192203054
 40
0.6513040259
 40
0.6833918041
 40
0.7154608404
 40
0.747488707
 40
0.7794537981
 40
0.8113357603
 40
0.8431159345
 40
0.8747776602
 40
0.9063069325
 40
0.93769185
 40
0.9689251012
 40
1.0
 40
1.0
 40
1.0
 40
1.0
 10
11.8060648911
 20
9.989327919
 30
0.0
 10
11.8033707315
 20
9.9867255379
 30
0.0
 10
11.7977706051
 20
9.9817307508
 30
0.0
 10
11.7887982805
 20
9.9749262616
 30
0.0
 10
11.7792997246
 20
9.9688434753
 30
0.0
 10
11.7693279991
 20
9.9635165303
 30
0.0
 10
11.7589379344
 20
9.9589745227
 30
0.0
 10
11.748186873
 20
9.9552424188
 30
0.0
 10
11.7371340608
 20
9.9523406364
 30
0.0
 10
11.725840391
 20
9.9502850173
 30
0.0
 10
11.7143680442
 20
9.9490867271
 30
0.0
 10
11.7027801501
 20
9.9487522086
 30
0.0
 10
11.6911404391
 20
9.9492831536
 30
0.0
 10
11.6795128944
 20
9.9506765004
 30
0.0
 10
11.6679614039
 20
9.9529244594
 30
0.0
 10
11.6565494123
 20
9.9560145547
 30
0.0
 10
11.6453395761
 20
9.9599296972
 30
0.0
 10
11.6343934248
 20
9.9646482868
 30
0.0
 10
11.6237710288
 20
9.9701443315
 30
0.0
 10
11.6135306738
 20
9.9763875912
 30
0.0
 10
11.6037285462
 20
9.9833437434
 30
0.0
 10
11.5944184291
 20
9.99097457
 30
0.0
 10
11.5856514103
 20
9.9992381662
 30
0.0
 10
11.5774756056
 20
10.0080891675
 30
0.0
 10
11.5699358988
 20
10.0174789972
 30
0.0
 10
11.5630736905
 20
10.0273561253
 30
0.0
 10
11.5569266779
 20
10.0376663526
 30
0.0
 10
11.5515286436
 20
10.0483531065
 30
0.0
 10
11.5469092959
 20
10.059357741
 30
0.0
 10
11.5430940395
 20
10.0706198876
 30
0.0
 10
11.5401039925
 20
10.0820776427
 30
0.0
 10
11.5379555523
 20
10.0936684015
 30
0.0
 10
11.5366608272
 20
10.1053275729
 30
0.0
 10
11.5363708
 20
10.1131252672
 30
0.0
 10
11.5363708
 20
10.1170127149
 30
0.0
  0
SPLINE
  5
396
100
AcDbEntity
  8
0
100
AcDbSpline
 62
7
  6
CONTINUOUS
 70
0
 71
3
 72
39
 73
35
 74
0
 42
0.0000001
 43
0.0000001
 44
0.0000000001
 40
0.0
 40
0.0
 40
0.0
 40
0.0
 40
0.0299424738
 40
0.059909323
 40
0.08992433
 40
0.1200101081
 40
0.1501875632
 40
0.1804754089
 40
0.2108897447
 40
0.2414437113
 40
0.2721472249
 40
0.3030067977
 40
0.3340254418
 40
0.3652026556
 40
0.3965344874
 40
0.4280136709
 40
0.459629826
 40
0.4913697177
 40
0.5232175626
 40
0.5551553772
 40
0.5871633608
 40
0.6192203054
 40
0.6513040259
 40
0.6833918041
 40
0.7154608404
 40
0.747488707
 40
0.7794537981
 40
0.8113357603
 40
0.8431159345
 40
0.8747776602
 40
0.9063069325
 40
0.93769185
 40
0.9689251012
 40
1.0
 40
1.0
 40
1.0
 40
1.0
 10
9.874213124
 20
5.6800432299
 30
0.0
 10
9.8715189644
 20
5.6774408488
 30
0.0
 10
9.8659188381
 20
5.6724460617
 30
0.0
 10
9.8569465134
 20
5.6656415725
 30
0.0
 10
9.8474479575
 20
5.6595587862
 30
0.0
 10
9.837476232
 20
5.6542318412
 30
0.0
 10
9.8270861674
 20
5.6496898336
 30
0.0
 10
9.816335106
 20
5.6459577296
 30
0.0
 10
9.8052822938
 20
5.6430559473
 30
0.0
 10
9.7939886239
 20
5.6410003282
 30
0.0
 10
9.7825162771
 20
5.6398020379
 30
0.0
 10
9.770928383
 20
5.6394675195
 30
0.0
 10
9.7592886721
 20
5.6399984644
 30
0.0
 10
9.7476611274
 20
5.6413918113
 30
0.0
 10
9.7361096368
 20
5.6436397702
 30
0.0
 10
9.7246976453
 20
5.6467298656
 30
0.0
 10
9.713487809
 20
5.6506450081
 30
0.0
 10
9.7025416578
 20
5.6553635977
 30
0.0
 10
9.6919192617
 20
5.6608596424
 30
0.0
 10
9.6816789067
 20
5.6671029021
 30
0.0
 10
9.6718767792
 20
5.6740590542
 30
0.0
 10
9.662566662
 20
5.6816898809
 30
0.0
 10
9.6537996432
 20
5.689953477
 30
0.0
 10
9.6456238386
 20
5.6988044784
 30
0.0
 10
9.6380841318
 20
5.708194308
 30
0.0
 10
9.6312219234
 20
5.7180714362
 30
0.0
 10
9.6250749108
 20
5.7283816635
 30
0.0
 10
9.6196768765
 20
5.7390684174
 30
0.0
 10
9.6150575289
 20
5.7500730519
 30
0.0
 10
9.6112422725
 20
5.7613351985
 30
0.0
 10
9.6082522255
 20
5.7727929536
 30
0.0
 10
9.6061037853
 20
5.7843837124
 30
0.0
 10
9.6048090601
 20
5.7960428838
 30
0.0
 10
9.604519033
 20
5.8038405781
 30
0.0
 10
9.604519033
 20
5.8077280258
 30
0.0
  0
SPLINE
  5
397
100
AcDbEntity
  8
0
100
AcDbSpline
 62
7
  6
CONTINUOUS
 70
0
 71
3
 72
23
 73
19
 74
0
 42
0.0000001
 43
0.0000001
 44
0.0000000001
 40
0.0
 40
0.0
 40
0.0
 40
0.0
 40
0.0749625981
 40
0.1455689168
 40
0.2121606548
 40
0.2751639025
 40
0.3350990615
 40
0.3925841749
 40
0.4483303758
 40
0.5031246269
 40
0.557799179
 40
0.6131921896
 40
0.670107119
 40
0.7292792177
 40
0.7913531537
 40
0.8568775329
 40
0.926307478
 40
1.0
 40
1.0
 40
1.0
 40
1.0
 10
9.4443050941
 20
11.6894957697
 30
0.0
 10
9.441814776
 20
11.6918132612
 30
0.0
 10
9.4371169257
 20
11.6964659818
 30
0.0
 10
9.4307780292
 20
11.7037248424
 30
0.0
 10
9.4253726387
 20
11.7110412248
 30
0.0
 10
9.4209087823
 20
11.7184087412
 30
0.0
 10
9.4173939325
 20
11.7258208949
 30
0.0
 10
9.4148359119
 20
11.7332700744
 30
0.0
 10
9.4132420507
 20
11.7407467345
 30
0.0
 10
9.4126178309
 20
11.748238995
 30
0.0
 10
9.412965883
 20
11.7557332548
 30
0.0
 10
9.4142846888
 20
11.763215644
 30
0.0
 10
9.4165694184
 20
11.770673721
 30
0.0
 10
9.4198132154
 20
11.7780972169
 30
0.0
 10
9.4240081531
 20
11.7854780975
 30
0.0
 10
9.4291468304
 20
11.7928097482
 30
0.0
 10
9.4352212288
 20
11.8000854227
 30
0.0
 10
9.4397494362
 20
11.8047503145
 30
0.0
 10
9.4421547631
 20
11.807073682
 30
0.0
  0
SPLINE
  5
398
100
AcDbEntity
  8
0
100
AcDbSpline
 62
7
  6
CONTINUOUS
 70
0
 71
3
 72
9
 73
5
 74
0
 42
0.0000001
 43
0.0000001
 44
0.0000000001
 40
0.0
 40
0.0
 40
0.0
 40
0.0
 40
0.2565885402
 40
1.0
 40
1.0
 40
1.0
 40
1.0
 10
9.4526363923
 20
11.6824229292
 30
0.0
 10
9.452011987
 20
11.6831118108
 30
0.0
 10
9.4496077897
 20
11.6858228797
 30
0.0
 10
9.4473240451
 20
11.6886416007
 30
0.0
 10
9.445710407
 20
11.6907985734
 30
0.0
  0
SPLINE
  5
399
100
AcDbEntity
  8
0
100
AcDbSpline
 62
7
  6
CONTINUOUS
 70
0
 71
3
 72
24
 73
20
 74
0
 42
0.0000001
 43
0.0000001
 44
0.0000000001
 40
0.0
 40
0.0
 40
0.0
 40
0.0
 40
0.0671515689
 40
0.0995752945
 40
0.1312895807
 40
0.1927845073
 40
0.2521111748
 40
0.309789394
 40
0.3663900889
 40
0.422520445
 40
0.4788044248
 40
0.5358604788
 40
0.5942801541
 40
0.6546109772
 40
0.7173436826
 40
0.7829084326
 40
0.8516756622
 40
0.9239569414
 40
1.0
 40
1.0
 40
1.0
 40
1.0
 10
9.445710407
 20
11.6907985734
 30
0.0
 10
9.4442308248
 20
11.6927763518
 30
0.0
 10
9.4421395044
 20
11.6957889233
 30
0.0
 10
9.4396309015
 20
11.6999166175
 30
0.0
 10
9.43739776
 20
11.7039635477
 30
0.0
 10
9.4350081356
 20
11.7090489674
 30
0.0
 10
9.4327870275
 20
11.7152384592
 30
0.0
 10
9.4312455218
 20
11.7214470482
 30
0.0
 10
9.4303866537
 20
11.7276682161
 30
0.0
 10
9.4302124455
 20
11.7338950048
 30
0.0
 10
9.4307231542
 20
11.7401199548
 30
0.0
 10
9.4319177635
 20
11.7463357546
 30
0.0
 10
9.4337935888
 20
11.7525357635
 30
0.0
 10
9.436347392
 20
11.758714074
 30
0.0
 10
9.4395750622
 20
11.7648657311
 30
0.0
 10
9.4434726853
 20
11.7709862326
 30
0.0
 10
9.4480361226
 20
11.7770716611
 30
0.0
 10
9.4532608535
 20
11.7831175028
 30
0.0
 10
9.4570817087
 20
11.787017041
 30
0.0
 10
9.4590934791
 20
11.788960262
 30
0.0
  0
SPLINE
  5
39A
100
AcDbEntity
  8
0
100
AcDbSpline
 62
7
  6
CONTINUOUS
 70
0
 71
3
 72
18
 73
14
 74
0
 42
0.0000001
 43
0.0000001
 44
0.0000000001
 40
0.0
 40
0.0
 40
0.0
 40
0.0
 40
0.0548626615
 40
0.1099292506
 40
0.1654012913
 40
0.2214755397
 40
0.3361332936
 40
0.4553634696
 40
0.5171051103
 40
0.5804368557
 40
0.7123311626
 40
0.851957036
 40
1.0
 40
1.0
 40
1.0
 40
1.0
 10
9.437569257
 20
11.7154264994
 30
0.0
 10
9.4375692632
 20
11.7166094243
 30
0.0
 10
9.4376443522
 20
11.7189803536
 30
0.0
 10
9.4379819062
 20
11.7225328719
 30
0.0
 10
9.4385444301
 20
11.7260834183
 30
0.0
 10
9.439601503
 20
11.7308474494
 30
0.0
 10
9.4415057916
 20
11.7368184387
 30
0.0
 10
9.4441139455
 20
11.7426484562
 30
0.0
 10
9.4466235869
 20
11.7472817375
 30
0.0
 10
9.4494972157
 20
11.7520212039
 30
0.0
 10
9.4536697965
 20
11.7579258945
 30
0.0
 10
9.4594871206
 20
11.7648648608
 30
0.0
 10
9.4638138369
 20
11.76931731
 30
0.0
 10
9.466109725
 20
11.7715349677
 30
0.0
  0
SPLINE
  5
39B
100
AcDbEntity
  8
0
100
AcDbSpline
 62
7
  6
CONTINUOUS
 70
0
 71
3
 72
62
 73
58
 74
0
 42
0.0000001
 43
0.0000001
 44
0.0000000001
 40
0.0
 40
0.0
 40
0.0
 40
0.0
 40
0.0027165067
 40
0.0054533844
 40
0.0082305234
 40
0.0110668895
 40
0.0169823147
 40
0.0233275088
 40
0.0301992758
 40
0.0376702075
 40
0.0457926395
 40
0.0546026836
 40
0.0641236618
 40
0.0743689694
 40
0.0853441321
 40
0.0970482555
 40
0.1094752829
 40
0.1226148585
 40
0.1364528688
 40
0.1509720318
 40
0.1661523212
 40
0.1819711805
 40
0.1984038334
 40
0.215423553
 40
0.2330017672
 40
0.2511082346
 40
0.2697112572
 40
0.2887777561
 40
0.3281617739
 40
0.3689738785
 40
0.4109120927
 40
0.453663327
 40
0.4969065924
 40
0.5403161516
 40
0.5835646821
 40
0.6263264015
 40
0.6682802209
 40
0.7091128782
 40
0.7485222244
 40
0.7676030777
 40
0.7862215637
 40
0.8043445274
 40
0.8219402237
 40
0.8389783973
 40
0.8554303925
 40
0.8712694046
 40
0.8864706319
 40
0.901011429
 40
0.9148716485
 40
0.928033959
 40
0.9404841395
 40
0.9522116464
 40
0.9632103445
 40
0.9734791288
 40
0.9830231679
 40
0.9918561048
 40
1.0
 40
1.0
 40
1.0
 40
1.0
 10
13.3454525784
 20
11.4958712456
 30
0.0
 10
13.3461871852
 20
11.4958203059
 30
0.0
 10
13.3476581484
 20
11.4956515471
 30
0.0
 10
13.3498458575
 20
11.4952000185
 30
0.0
 10
13.3520170987
 20
11.4945500121
 30
0.0
 10
13.3549279864
 20
11.493404075
 30
0.0
 10
13.358540207
 20
11.4914438279
 30
0.0
 10
13.3627150958
 20
11.4883430307
 30
0.0
 10
13.3667890274
 20
11.4844721991
 30
0.0
 10
13.3707572402
 20
11.4798412386
 30
0.0
 10
13.3746155121
 20
11.4744593002
 30
0.0
 10
13.3783582531
 20
11.4683363673
 30
0.0
 10
13.3819794137
 20
11.4614837349
 30
0.0
 10
13.3854724959
 20
11.453914205
 30
0.0
 10
13.3888308816
 20
11.4456421738
 30
0.0
 10
13.3920480662
 20
11.4366836452
 30
0.0
 10
13.3951176618
 20
11.4270561257
 30
0.0
 10
13.3980334756
 20
11.4167785736
 30
0.0
 10
13.4007896433
 20
11.4058713654
 30
0.0
 10
13.4033805835
 20
11.3943562062
 30
0.0
 10
13.4058010037
 20
11.3822560667
 30
0.0
 10
13.4080459941
 20
11.3695951463
 30
0.0
 10
13.4101110012
 20
11.356398804
 30
0.0
 10
13.4119917987
 20
11.3426934909
 30
0.0
 10
13.4136845621
 20
11.328506704
 30
0.0
 10
13.4151858562
 20
11.3138669353
 30
0.0
 10
13.4164926457
 20
11.2988035597
 30
0.0
 10
13.4179881151
 20
11.2779694124
 30
0.0
 10
13.4193381287
 20
11.2510922215
 30
0.0
 10
13.4201352662
 20
11.217991144
 30
0.0
 10
13.4201192868
 20
11.1839678131
 30
0.0
 10
13.4192900219
 20
11.1492955995
 30
0.0
 10
13.4176538408
 20
11.114252894
 30
0.0
 10
13.4152238071
 20
11.0791211881
 30
0.0
 10
13.4120194168
 20
11.0441826752
 30
0.0
 10
13.4080665176
 20
11.0097179956
 30
0.0
 10
13.4033971364
 20
10.9760038375
 30
0.0
 10
13.3980490411
 20
10.9433110506
 30
0.0
 10
13.3930104003
 20
10.9168592696
 30
0.0
 10
13.3886597914
 20
10.8964143444
 30
0.0
 10
13.3852906635
 20
10.8816616592
 30
0.0
 10
13.3817871303
 20
10.8673544383
 30
0.0
 10
13.3781562468
 20
10.8535213862
 30
0.0
 10
13.3744053683
 20
10.8401902702
 30
0.0
 10
13.370542048
 20
10.8273878383
 30
0.0
 10
13.3665741046
 20
10.8151397455
 30
0.0
 10
13.3625095728
 20
10.803470504
 30
0.0
 10
13.3583566401
 20
10.7924034481
 30
0.0
 10
13.3541236878
 20
10.7819606508
 30
0.0
 10
13.3498192659
 20
10.7721628677
 30
0.0
 10
13.3454519986
 20
10.7630295124
 30
0.0
 10
13.3410305993
 20
10.7545785726
 30
0.0
 10
13.336563814
 20
10.7468265362
 30
0.0
 10
13.3320603939
 20
10.7397884555
 30
0.0
 10
13.327528642
 20
10.7334774801
 30
0.0
 10
13.3229773267
 20
10.7279061935
 30
0.0
 10
13.3198099381
 20
10.7245596099
 30
0.0
 10
13.3182221205
 20
10.7230258958
 30
0.0
  0
SPLINE
  5
39C
100
AcDbEntity
  8
0
100
AcDbSpline
 62
7
  6
CONTINUOUS
 70
0
 71
3
 72
93
 73
89
 74
0
 42
0.0000001
 43
0.0000001
 44
0.0000000001
 40
0.0
 40
0.0
 40
0.0
 40
0.0
 40
0.0041939556
 40
0.0085762837
 40
0.0131520785
 40
0.0179256477
 40
0.0229005213
 40
0.028079275
 40
0.0334636733
 40
0.0390548414
 40
0.044853306
 40
0.0508591051
 40
0.0570717426
 40
0.0634903505
 40
0.076939359
 40
0.0911924078
 40
0.1062302738
 40
0.1220295936
 40
0.1385633939
 40
0.1558015147
 40
0.1737109586
 40
0.1922561851
 40
0.2113993655
 40
0.2311006075
 40
0.2513181596
 40
0.2720085994
 40
0.293127011
 40
0.3146271531
 40
0.3364616218
 40
0.358582009
 40
0.3809390561
 40
0.4034828078
 40
0.4261627628
 40
0.4489280235
 40
0.4717274451
 40
0.4945097838
 40
0.5172238454
 40
0.5398186334
 40
0.5622434978
 40
0.5844482845
 40
0.6063834859
 40
0.6280003932
 40
0.6492512504
 40
0.6700894109
 40
0.6904694986
 40
0.710347574
 40
0.7296813083
 40
0.7484301677
 40
0.7665556118
 40
0.7840213107
 40
0.8007933887
 40
0.8168407043
 40
0.8321351791
 40
0.8466521933
 40
0.860371077
 40
0.8669263
 40
0.8732763689
 40
0.8794201531
 40
0.8853568655
 40
0.8910862192
 40
0.8966083707
 40
0.901924063
 40
0.9070346318
 40
0.911942113
 40
0.9166493365
 40
0.921159997
 40
0.9254788394
 40
0.929611713
 40
0.9335658262
 40
0.9373498155
 40
0.9409740197
 40
0.9444505756
 40
0.9477936323
 40
0.9510194227
 40
0.954146306
 40
0.9571946831
 40
0.9601867461
 40
0.9631461042
 40
0.9660972229
 40
0.9690647922
 40
0.9720730619
 40
0.9751452202
 40
0.9783029129
 40
0.9849470352
 40
0.9884713061
 40
0.9921475891
 40
0.9959873805
 40
1.0
 40
1.0
 40
1.0
 40
1.0
 10
9.4421547631
 20
11.807073682
 30
0.0
 10
9.4440214988
 20
11.8088768104
 30
0.0
 10
9.4479316385
 20
11.8124689151
 30
0.0
 10
9.4541678588
 20
11.8177025288
 30
0.0
 10
9.4608977697
 20
11.8228945351
 30
0.0
 10
9.4681170025
 20
11.8280417392
 30
0.0
 10
9.4758214176
 20
11.833141252
 30
0.0
 10
9.4840064861
 20
11.8381901804
 30
0.0
 10
9.4926673761
 20
11.8431855551
 30
0.0
 10
9.5017989466
 20
11.8481243732
 30
0.0
 10
9.5113957486
 20
11.8530037733
 30
0.0
 10
9.5214520954
 20
11.8578207598
 30
0.0
 10
9.5319619789
 20
11.8625725999
 30
0.0
 10
9.5468033957
 20
11.8689164616
 30
0.0
 10
9.5664601494
 20
11.8766418842
 30
0.0
 10
9.5913972161
 20
11.8854695372
 30
0.0
 10
9.6179780705
 20
11.8939717012
 30
0.0
 10
9.6461390495
 20
11.9021277946
 30
0.0
 10
9.6758129971
 20
11.9099180492
 30
0.0
 10
9.7069288484
 20
11.9173235625
 30
0.0
 10
9.7394120092
 20
11.9243263619
 30
0.0
 10
9.7731845071
 20
11.9309094511
 30
0.0
 10
9.8081652123
 20
11.9370568553
 30
0.0
 10
9.8442700408
 20
11.9427536607
 30
0.0
 10
9.8814121679
 20
11.9479860508
 30
0.0
 10
9.9195022441
 20
11.9527413388
 30
0.0
 10
9.9584486159
 20
11.957007998
 30
0.0
 10
9.9981575511
 20
11.9607756884
 30
0.0
 10
10.0385334673
 20
11.9640352814
 30
0.0
 10
10.079479165
 20
11.9667788803
 30
0.0
 10
10.1208960639
 20
11.9689998408
 30
0.0
 10
10.1626844423
 20
11.9706927854
 30
0.0
 10
10.2047436796
 20
11.9718536154
 30
0.0
 10
10.2469725002
 20
11.9724795205
 30
0.0
 10
10.2892692182
 20
11.9725689858
 30
0.0
 10
10.3315319837
 20
11.9721217945
 30
0.0
 10
10.3736590286
 20
11.9711390292
 30
0.0
 10
10.4155489134
 20
11.969623069
 30
0.0
 10
10.4571007718
 20
11.967577584
 30
0.0
 10
10.4982145557
 20
11.9650075266
 30
0.0
 10
10.5387912773
 20
11.9619191203
 30
0.0
 10
10.5787332506
 20
11.9583198464
 30
0.0
 10
10.6179443281
 20
11.9542184251
 30
0.0
 10
10.6563301351
 20
11.9496247951
 30
0.0
 10
10.6937982999
 20
11.9445500904
 30
0.0
 10
10.7302586805
 20
11.9390066142
 30
0.0
 10
10.7656235861
 20
11.93300781
 30
0.0
 10
10.7998079954
 20
11.9265682297
 30
0.0
 10
10.8327297708
 20
11.9197034986
 30
0.0
 10
10.8643098635
 20
11.9124302771
 30
0.0
 10
10.8944725338
 20
11.9047662177
 30
0.0
 10
10.9231455067
 20
11.8967299185
 30
0.0
 10
10.9502603396
 20
11.8883408668
 30
0.0
 10
10.9757520487
 20
11.8796193813
 30
0.0
 10
10.995886687
 20
11.8719805875
 30
0.0
 10
11.0111208476
 20
11.8657028845
 30
0.0
 10
11.0219296277
 20
11.8609961255
 30
0.0
 10
11.032289026
 20
11.8562223148
 30
0.0
 10
11.0421928455
 20
11.8513841625
 30
0.0
 10
11.0516352069
 20
11.8464846615
 30
0.0
 10
11.0606104692
 20
11.8415266485
 30
0.0
 10
11.0691133212
 20
11.8365131131
 30
0.0
 10
11.0771387184
 20
11.8314469834
 30
0.0
 10
11.0846819102
 20
11.8263312119
 30
0.0
 10
11.0917384696
 20
11.8211688002
 30
0.0
 10
11.0983041925
 20
11.8159626297
 30
0.0
 10
11.1043752663
 20
11.810715731
 30
0.0
 10
11.1099480055
 20
11.8054308976
 30
0.0
 10
11.1150191588
 20
11.8001111222
 30
0.0
 10
11.1195855084
 20
11.7947591259
 30
0.0
 10
11.1236442356
 20
11.789377817
 30
0.0
 10
11.1271925062
 20
11.7839699255
 30
0.0
 10
11.1302277518
 20
11.7785383477
 30
0.0
 10
11.1327474506
 20
11.7730860334
 30
0.0
 10
11.134749197
 20
11.7676161543
 30
0.0
 10
11.1362309105
 20
11.7621322225
 30
0.0
 10
11.137190633
 20
11.7566380643
 30
0.0
 10
11.1376272272
 20
11.751137924
 30
0.0
 10
11.1375398563
 20
11.7456362678
 30
0.0
 10
11.1369288504
 20
11.7401376171
 30
0.0
 10
11.1357949421
 20
11.7346464776
 30
0.0
 10
11.1341395946
 20
11.7291666059
 30
0.0
 10
11.1311909678
 20
11.7217569342
 30
0.0
 10
11.1272102231
 20
11.7144924099
 30
0.0
 10
11.122348219
 20
11.7074337238
 30
0.0
 10
11.1181196046
 20
11.7020612036
 30
0.0
 10
11.1133847685
 20
11.6967199209
 30
0.0
 10
11.1099697498
 20
11.6932593466
 30
0.0
 10
11.108183727
 20
11.6915341809
 30
0.0
  0
SPLINE
  5
39D
100
AcDbEntity
  8
0
100
AcDbSpline
 62
7
  6
CONTINUOUS
 70
0
 71
3
 72
82
 73
78
 74
0
 42
0.0000001
 43
0.0000001
 44
0.0000000001
 40
0.0
 40
0.0
 40
0.0
 40
0.0
 40
0.0027164299
 40
0.0054532321
 40
0.0082302982
 40
0.0110665845
 40
0.013979784
 40
0.0169860846
 40
0.0201000326
 40
0.023334542
 40
0.0267008778
 40
0.0302088194
 40
0.0338667179
 40
0.0376816654
 40
0.0416596288
 40
0.0458055324
 40
0.0501234521
 40
0.0546166227
 40
0.0592876201
 40
0.0641383799
 40
0.0691702841
 40
0.0743842522
 40
0.0797807192
 40
0.0853597782
 40
0.0970635934
 40
0.1094903064
 40
0.1226295256
 40
0.1364671661
 40
0.1509859548
 40
0.1661658281
 40
0.1819842477
 40
0.1984164597
 40
0.2154357115
 40
0.2330134348
 40
0.2511194102
 40
0.2697219186
 40
0.2887878755
 40
0.3082829555
 40
0.3281717092
 40
0.3484176742
 40
0.3689834816
 40
0.389830965
 40
0.4109212636
 40
0.4536712821
 40
0.4969133103
 40
0.5403216234
 40
0.5835689107
 40
0.6263293987
 40
0.6474268545
 40
0.6682827547
 40
0.6888582187
 40
0.7091150569
 40
0.7290158739
 40
0.7485241737
 40
0.7676044722
 40
0.7862224065
 40
0.8043448514
 40
0.821940043
 40
0.8389777127
 40
0.855429234
 40
0.8712677909
 40
0.8864685627
 40
0.9010089375
 40
0.9148687691
 40
0.9280306905
 40
0.9404805056
 40
0.9522076917
 40
0.9577984809
 40
0.963206696
 40
0.9684323987
 40
0.9734759999
 40
0.9783383752
 40
0.9830208397
 40
0.9875253696
 40
0.9918545696
 40
0.9960115552
 40
1.0
 40
1.0
 40
1.0
 40
1.0
 10
13.3814283228
 20
9.8416785695
 30
0.0
 10
13.3831334456
 20
9.8415603245
 30
0.0
 10
13.3865477454
 20
9.8411686007
 30
0.0
 10
13.3916257458
 20
9.8401204465
 30
0.0
 10
13.3966653459
 20
9.8386117261
 30
0.0
 10
13.4016629984
 20
9.8366440507
 30
0.0
 10
13.4066160917
 20
9.8342190804
 30
0.0
 10
13.4115220825
 20
9.8313387259
 30
0.0
 10
13.4163787567
 20
9.8280050949
 30
0.0
 10
13.4211838717
 20
9.8242201972
 30
0.0
 10
13.4259354523
 20
9.8199863581
 30
0.0
 10
13.4306313587
 20
9.8153057958
 30
0.0
 10
13.4352695975
 20
9.8101810093
 30
0.0
 10
13.4398481042
 20
9.804614585
 30
0.0
 10
13.4443647595
 20
9.7986092719
 30
0.0
 10
13.448817564
 20
9.7921680869
 30
0.0
 10
13.4532043211
 20
9.7852941434
 30
0.0
 10
13.457523039
 20
9.7779908757
 30
0.0
 10
13.4617715662
 20
9.7702618484
 30
0.0
 10
13.465947856
 20
9.7621108901
 30
0.0
 10
13.4700498857
 20
9.7535420374
 30
0.0
 10
13.4740755511
 20
9.7445595229
 30
0.0
 10
13.478022992
 20
9.7351678183
 30
0.0
 10
13.4832629304
 20
9.7218934728
 30
0.0
 10
13.4895826755
 20
9.7042949109
 30
0.0
 10
13.4967075823
 20
9.6819482752
 30
0.0
 10
13.503475589
 20
9.6580925542
 30
0.0
 10
13.5098730184
 20
9.6327753941
 30
0.0
 10
13.515886903
 20
9.6060470684
 30
0.0
 10
13.5215050233
 20
9.5779609473
 30
0.0
 10
13.5267159517
 20
9.5485731834
 30
0.0
 10
13.5315090825
 20
9.5179426279
 30
0.0
 10
13.535874656
 20
9.4861306847
 30
0.0
 10
13.5398037854
 20
9.4532011818
 30
0.0
 10
13.5432884761
 20
9.4192202317
 30
0.0
 10
13.5463216351
 20
9.3842560875
 30
0.0
 10
13.5488970864
 20
9.348378998
 30
0.0
 10
13.5510095829
 20
9.3116610629
 30
0.0
 10
13.5526548146
 20
9.2741760871
 30
0.0
 10
13.5538294221
 20
9.2359994261
 30
0.0
 10
13.5545309918
 20
9.1972078578
 30
0.0
 10
13.5547581202
 20
9.1578793243
 30
0.0
 10
13.5544260157
 20
9.1045924931
 30
0.0
 10
13.5528145894
 20
9.037227382
 30
0.0
 10
13.5490168531
 20
8.9558886992
 30
0.0
 10
13.5433763662
 20
8.87434311
 30
0.0
 10
13.535938487
 20
8.7932462942
 30
0.0
 10
13.5282587879
 20
8.7262864758
 30
0.0
 10
13.5212501833
 20
8.6734449892
 30
0.0
 10
13.5156093751
 20
8.6345063795
 30
0.0
 10
13.5095724095
 20
8.5961625855
 30
0.0
 10
13.5031514107
 20
8.5584906489
 30
0.0
 10
13.4963593445
 20
8.5215663261
 30
0.0
 10
13.4892099104
 20
8.4854638413
 30
0.0
 10
13.4817175436
 20
8.4502557558
 30
0.0
 10
13.4738973722
 20
8.4160128145
 30
0.0
 10
13.4657651901
 20
8.3828038046
 30
0.0
 10
13.4573374241
 20
8.3506954143
 30
0.0
 10
13.4486311019
 20
8.3197520934
 30
0.0
 10
13.4396638143
 20
8.2900359143
 30
0.0
 10
13.4304536859
 20
8.2616064324
 30
0.0
 10
13.4210193312
 20
8.2345205585
 30
0.0
 10
13.4113798066
 20
8.2088324185
 30
0.0
 10
13.4015545694
 20
8.1845932777
 30
0.0
 10
13.3915633962
 20
8.161851236
 30
0.0
 10
13.3814263983
 20
8.1406517009
 30
0.0
 10
13.3727413396
 20
8.1240508549
 30
0.0
 10
13.365721645
 20
8.1115916753
 30
0.0
 10
13.3605170498
 20
8.1028081449
 30
0.0
 10
13.3552912759
 20
8.0944404106
 30
0.0
 10
13.3500467936
 20
8.0864926669
 30
0.0
 10
13.3447863248
 20
8.0789688283
 30
0.0
 10
13.3395123695
 20
8.0718726424
 30
0.0
 10
13.3342275022
 20
8.0652075475
 30
0.0
 10
13.3289341837
 20
8.0589767871
 30
0.0
 10
13.3236352338
 20
8.0531837437
 30
0.0
 10
13.3200271534
 20
8.0495412531
 30
0.0
 10
13.3182221205
 20
8.047797725
 30
0.0
  0
SPLINE
  5
39E
100
AcDbEntity
  8
0
100
AcDbSpline
 62
4
  6
CONTINUOUS
 70
0
 71
3
 72
313
 73
309
 74
0
 42
0.0000001
 43
0.0000001
 44
0.0000000001
 40
0.0
 40
0.0
 40
0.0
 40
0.0
 40
0.015625
 40
0.0234375
 40
0.03125
 40
0.0390625
 40
0.046875
 40
0.05078125
 40
0.0546875
 40
0.056640625
 40
0.05859375
 40
0.060546875
 40
0.0615234375
 40
0.0620117188
 40
0.0625
 40
0.0629882812
 40
0.0634765625
 40
0.064453125
 40
0.06640625
 40
0.068359375
 40
0.0703125
 40
0.07421875
 40
0.078125
 40
0.0859375
 40
0.09375
 40
0.1015625
 40
0.109375
 40
0.11328125
 40
0.1171875
 40
0.119140625
 40
0.12109375
 40
0.123046875
 40
0.1240234375
 40
0.1245117188
 40
0.125
 40
0.1254882812
 40
0.1259765625
 40
0.126953125
 40
0.12890625
 40
0.130859375
 40
0.1328125
 40
0.13671875
 40
0.140625
 40
0.1484375
 40
0.15625
 40
0.1640625
 40
0.171875
 40
0.17578125
 40
0.1796875
 40
0.181640625
 40
0.18359375
 40
0.185546875
 40
0.1865234375
 40
0.1870117188
 40
0.1875
 40
0.1879882812
 40
0.1884765625
 40
0.189453125
 40
0.19140625
 40
0.193359375
 40
0.1953125
 40
0.19921875
 40
0.203125
 40
0.2109375
 40
0.21875
 40
0.2265625
 40
0.234375
 40
0.23828125
 40
0.2421875
 40
0.244140625
 40
0.24609375
 40
0.248046875
 40
0.2490234375
 40
0.2495117188
 40
0.25
 40
0.2504882812
 40
0.2509765625
 40
0.251953125
 40
0.25390625
 40
0.255859375
 40
0.2578125
 40
0.26171875
 40
0.265625
 40
0.2734375
 40
0.28125
 40
0.2890625
 40
0.296875
 40
0.30078125
 40
0.3046875
 40
0.306640625
 40
0.30859375
 40
0.310546875
 40
0.3115234375
 40
0.3120117188
 40
0.3125
 40
0.3129882812
 40
0.3134765625
 40
0.314453125
 40
0.31640625
 40
0.318359375
 40
0.3203125
 40
0.32421875
 40
0.328125
 40
0.3359375
 40
0.34375
 40
0.3515625
 40
0.359375
 40
0.36328125
 40
0.3671875
 40
0.369140625
 40
0.37109375
 40
0.373046875
 40
0.3740234375
 40
0.3745117188
 40
0.375
 40
0.3754882812
 40
0.3759765625
 40
0.376953125
 40
0.37890625
 40
0.380859375
 40
0.3828125
 40
0.38671875
 40
0.390625
 40
0.3984375
 40
0.40625
 40
0.4140625
 40
0.421875
 40
0.42578125
 40
0.4296875
 40
0.431640625
 40
0.43359375
 40
0.435546875
 40
0.4365234375
 40
0.4370117188
 40
0.4375
 40
0.4379882812
 40
0.4384765625
 40
0.439453125
 40
0.44140625
 40
0.443359375
 40
0.4453125
 40
0.44921875
 40
0.453125
 40
0.4609375
 40
0.46875
 40
0.4765625
 40
0.484375
 40
0.48828125
 40
0.4921875
 40
0.494140625
 40
0.49609375
 40
0.498046875
 40
0.4990234375
 40
0.4995117188
 40
0.5
 40
0.5004882812
 40
0.5009765625
 40
0.501953125
 40
0.50390625
 40
0.505859375
 40
0.5078125
 40
0.51171875
 40
0.515625
 40
0.5234375
 40
0.53125
 40
0.5390625
 40
0.546875
 40
0.55078125
 40
0.5546875
 40
0.556640625
 40
0.55859375
 40
0.560546875
 40
0.5615234375
 40
0.5620117188
 40
0.5625
 40
0.5629882812
 40
0.5634765625
 40
0.564453125
 40
0.56640625
 40
0.568359375
 40
0.5703125
 40
0.57421875
 40
0.578125
 40
0.5859375
 40
0.59375
 40
0.6015625
 40
0.609375
 40
0.61328125
 40
0.6171875
 40
0.619140625
 40
0.62109375
 40
0.623046875
 40
0.6240234375
 40
0.6245117188
 40
0.625
 40
0.6254882812
 40
0.6259765625
 40
0.626953125
 40
0.62890625
 40
0.630859375
 40
0.6328125
 40
0.63671875
 40
0.640625
 40
0.6484375
 40
0.65625
 40
0.6640625
 40
0.671875
 40
0.67578125
 40
0.6796875
 40
0.681640625
 40
0.68359375
 40
0.685546875
 40
0.6865234375
 40
0.6870117188
 40
0.6875
 40
0.6879882812
 40
0.6884765625
 40
0.689453125
 40
0.69140625
 40
0.693359375
 40
0.6953125
 40
0.69921875
 40
0.703125
 40
0.7109375
 40
0.71875
 40
0.7265625
 40
0.734375
 40
0.73828125
 40
0.7421875
 40
0.744140625
 40
0.74609375
 40
0.748046875
 40
0.7490234375
 40
0.7495117188
 40
0.75
 40
0.7504882812
 40
0.7509765625
 40
0.751953125
 40
0.75390625
 40
0.755859375
 40
0.7578125
 40
0.76171875
 40
0.765625
 40
0.7734375
 40
0.78125
 40
0.7890625
 40
0.796875
 40
0.80078125
 40
0.8046875
 40
0.806640625
 40
0.80859375
 40
0.810546875
 40
0.8115234375
 40
0.8120117188
 40
0.8125
 40
0.8129882812
 40
0.8134765625
 40
0.814453125
 40
0.81640625
 40
0.818359375
 40
0.8203125
 40
0.82421875
 40
0.828125
 40
0.8359375
 40
0.84375
 40
0.8515625
 40
0.859375
 40
0.86328125
 40
0.8671875
 40
0.869140625
 40
0.87109375
 40
0.873046875
 40
0.8740234375
 40
0.8745117188
 40
0.875
 40
0.8754882812
 40
0.8759765625
 40
0.876953125
 40
0.87890625
 40
0.880859375
 40
0.8828125
 40
0.88671875
 40
0.890625
 40
0.8984375
 40
0.90625
 40
0.9140625
 40
0.921875
 40
0.92578125
 40
0.9296875
 40
0.931640625
 40
0.93359375
 40
0.935546875
 40
0.9365234375
 40
0.9370117188
 40
0.9375
 40
0.9379882812
 40
0.9384765625
 40
0.939453125
 40
0.94140625
 40
0.943359375
 40
0.9453125
 40
0.94921875
 40
0.953125
 40
0.9609375
 40
0.96875
 40
0.9765625
 40
0.984375
 40
1.0
 40
1.0
 40
1.0
 40
1.0
 10
10.0803727704
 20
8.7751251517
 30
0.0
 10
10.0837148364
 20
8.7752210711
 30
0.0
 10
10.0887279356
 20
8.7753649499
 30
0.0
 10
10.0954120675
 20
8.7755567894
 30
0.0
 10
10.100425167
 20
8.7757006663
 30
0.0
 10
10.1054382645
 20
8.7758445533
 30
0.0
 10
10.1096158519
 20
8.7759644278
 30
0.0
 10
10.1129579081
 20
8.7760603977
 30
0.0
 10
10.1150467245
 20
8.7761202187
 30
0.0
 10
10.1167177059
 20
8.7761684423
 30
0.0
 10
10.1179711382
 20
8.7762036056
 30
0.0
 10
10.119015041
 20
8.7762361039
 30
0.0
 10
10.1197469978
 20
8.7762525814
 30
0.0
 10
10.1201633463
 20
8.7762717892
 30
0.0
 10
10.1204809955
 20
8.7762586105
 30
0.0
 10
10.1207780494
 20
8.7763508739
 30
0.0
 10
10.1211813052
 20
8.7764371123
 30
0.0
 10
10.1218836558
 20
8.7766051658
 30
0.0
 10
10.1228887636
 20
8.7768362831
 30
0.0
 10
10.124094144
 20
8.7771174587
 30
0.0
 10
10.1257015795
 20
8.7774910201
 30
0.0
 10
10.1277107842
 20
8.7779584304
 30
0.0
 10
10.1309255619
 20
8.7787060305
 30
0.0
 10
10.1349440166
 20
8.7796406192
 30
0.0
 10
10.1397661706
 20
8.7807620852
 30
0.0
 10
10.1445883189
 20
8.7818835711
 30
0.0
 10
10.1486067882
 20
8.7828181102
 30
0.0
 10
10.1518215366
 20
8.7835658093
 30
0.0
 10
10.1538308158
 20
8.784032968
 30
0.0
 10
10.1554380985
 20
8.7844070459
 30
0.0
 10
10.1566439455
 20
8.7846866436
 30
0.0
 10
10.1576475934
 20
8.7849226976
 30
0.0
 10
10.1583525501
 20
8.7850819382
 30
0.0
 10
10.1587516302
 20
8.7851822971
 30
0.0
 10
10.1590615107
 20
8.785231187
 30
0.0
 10
10.1593309853
 20
8.7853809116
 30
0.0
 10
10.1597043787
 20
8.7855453721
 30
0.0
 10
10.1603512506
 20
8.7858495655
 30
0.0
 10
10.1612787863
 20
8.7862755598
 30
0.0
 10
10.1623903598
 20
8.7867904202
 30
0.0
 10
10.163872971
 20
8.7874756199
 30
0.0
 10
10.1657260592
 20
8.7883325581
 30
0.0
 10
10.1686910986
 20
8.789703414
 30
0.0
 10
10.1723973639
 20
8.7914170685
 30
0.0
 10
10.176844898
 20
8.7934734153
 30
0.0
 10
10.1812924233
 20
8.7955297812
 30
0.0
 10
10.1849987107
 20
8.7972433878
 30
0.0
 10
10.1879637059
 20
8.7986143395
 30
0.0
 10
10.1898169066
 20
8.7994710342
 30
0.0
 10
10.1912992869
 20
8.8001567336
 30
0.0
 10
10.1924115656
 20
8.8006700672
 30
0.0
 10
10.1933368948
 20
8.8011008386
 30
0.0
 10
10.1939877058
 20
8.8013965042
 30
0.0
 10
10.1943547878
 20
8.8015746283
 30
0.0
 10
10.1946436492
 20
8.8016823827
 30
0.0
 10
10.1948807158
 20
8.8018889055
 30
0.0
 10
10.1952148713
 20
8.8021298176
 30
0.0
 10
10.1957912259
 20
8.8025674655
 30
0.0
 10
10.1966189903
 20
8.8031842848
 30
0.0
 10
10.1976104239
 20
8.8039280599
 30
0.0
 10
10.1989329934
 20
8.8049185055
 30
0.0
 10
10.2005859799
 20
8.8061569921
 30
0.0
 10
10.2032308843
 20
8.8081383305
 30
0.0
 10
10.2065369711
 20
8.8106150864
 30
0.0
 10
10.210504296
 20
8.813587156
 30
0.0
 10
10.2144716079
 20
8.8165592424
 30
0.0
 10
10.2177777271
 20
8.8190359565
 30
0.0
 10
10.2204225668
 20
8.8210173784
 30
0.0
 10
10.2220757178
 20
8.8222556526
 30
0.0
 10
10.2233979496
 20
8.8232465342
 30
0.0
 10
10.2243904148
 20
8.8239889775
 30
0.0
 10
10.2252149518
 20
8.8246099638
 30
0.0
 10
10.2257970678
 20
8.8250401729
 30
0.0
 10
10.2261219919
 20
8.8252930038
 30
0.0
 10
10.2263874144
 20
8.8254629159
 30
0.0
 10
10.226569776
 20
8.8257081736
 30
0.0
 10
10.2268418973
 20
8.8260089024
 30
0.0
 10
10.2273046108
 20
8.8265474229
 30
0.0
 10
10.2279726874
 20
8.827310336
 30
0.0
 10
10.2287713586
 20
8.8282285719
 30
0.0
 10
10.2298373085
 20
8.8294519293
 30
0.0
 10
10.2311693847
 20
8.8309814539
 30
0.0
 10
10.2333009086
 20
8.8334285099
 30
0.0
 10
10.2359652437
 20
8.8364873932
 30
0.0
 10
10.2391624778
 20
8.8401580244
 30
0.0
 10
10.2423596954
 20
8.8438286692
 30
0.0
 10
10.2450240716
 20
8.8468875188
 30
0.0
 10
10.2471555133
 20
8.8493346422
 30
0.0
 10
10.2484877983
 20
8.8508639954
 30
0.0
 10
10.2495533197
 20
8.8520877045
 30
0.0
 10
10.2503533002
 20
8.8530048661
 30
0.0
 10
10.2510172802
 20
8.8537711403
 30
0.0
 10
10.2514873068
 20
8.8543036606
 30
0.0
 10
10.2517477107
 20
8.8546140032
 30
0.0
 10
10.2519660644
 20
8.8548297305
 30
0.0
 10
10.2520963063
 20
8.855110554
 30
0.0
 10
10.2523006966
 20
8.855462279
 30
0.0
 10
10.2526440598
 20
8.8560883772
 30
0.0
 10
10.2531420652
 20
8.8569772721
 30
0.0
 10
10.2537364673
 20
8.8580463134
 30
0.0
 10
10.2545301226
 20
8.859470875
 30
0.0
 10
10.2555218084
 20
8.8612518601
 30
0.0
 10
10.2571087201
 20
8.8641012779
 30
0.0
 10
10.2590922856
 20
8.8676631048
 30
0.0
 10
10.2614725983
 20
8.8719372725
 30
0.0
 10
10.2638528931
 20
8.8762114511
 30
0.0
 10
10.2658365033
 20
8.8797732509
 30
0.0
 10
10.2674233256
 20
8.8826227229
 30
0.0
 10
10.2684152384
 20
8.8844035705
 30
0.0
 10
10.269208428
 20
8.8858284141
 30
0.0
 10
10.2698042528
 20
8.8868965939
 30
0.0
 10
10.2702978067
 20
8.8877881844
 30
0.0
 10
10.2706491166
 20
8.8884094705
 30
0.0
 10
10.2708407743
 20
8.8887689057
 30
0.0
 10
10.2710101266
 20
8.8890260461
 30
0.0
 10
10.2710815881
 20
8.8893307232
 30
0.0
 10
10.2712110155
 20
8.889720378
 30
0.0
 10
10.2714216045
 20
8.8904099996
 30
0.0
 10
10.2717307633
 20
8.8913911342
 30
0.0
 10
10.2720981938
 20
8.8925702246
 30
0.0
 10
10.2725893445
 20
8.8941417412
 30
0.0
 10
10.2732028572
 20
8.8961063438
 30
0.0
 10
10.2741847155
 20
8.8992495924
 30
0.0
 10
10.2754119562
 20
8.9031786929
 30
0.0
 10
10.2768846827
 20
8.9078935955
 30
0.0
 10
10.2783573899
 20
8.9126085064
 30
0.0
 10
10.279584679
 20
8.9165375864
 30
0.0
 10
10.2805664404
 20
8.919680876
 30
0.0
 10
10.2811801993
 20
8.9216453743
 30
0.0
 10
10.2816708448
 20
8.9232171049
 30
0.0
 10
10.2820398189
 20
8.9243955419
 30
0.0
 10
10.2823441478
 20
8.9253787208
 30
0.0
 10
10.2825633591
 20
8.9260646929
 30
0.0
 10
10.2826789715
 20
8.926460195
 30
0.0
 10
10.2827928682
 20
8.9267469112
 30
0.0
 10
10.2828028408
 20
8.92707151
 30
0.0
 10
10.2828523874
 20
8.9274910945
 30
0.0
 10
10.2829222046
 20
8.9282315239
 30
0.0
 10
10.2830307734
 20
8.9292860615
 30
0.0
 10
10.2831572764
 20
8.9305528843
 30
0.0
 10
10.2833272673
 20
8.9322415002
 30
0.0
 10
10.2835393038
 20
8.9343524349
 30
0.0
 10
10.2838788149
 20
8.9377298382
 30
0.0
 10
10.2843031165
 20
8.941951624
 30
0.0
 10
10.2848123185
 20
8.9470177535
 30
0.0
 10
10.2853215001
 20
8.9520838863
 30
0.0
 10
10.2857458525
 20
8.9563056635
 30
0.0
 10
10.286085262
 20
8.9596830841
 30
0.0
 10
10.286297557
 20
8.961793975
 30
0.0
 10
10.2864670173
 20
8.9634826806
 30
0.0
 10
10.2865951409
 20
8.9647492293
 30
0.0
 10
10.2866986394
 20
8.9658046247
 30
0.0
 10
10.286777508
 20
8.9665435229
 30
0.0
 10
10.2868125519
 20
8.9669655607
 30
0.0
 10
10.2868670722
 20
8.9672826236
 30
0.0
 10
10.2868136553
 20
8.9675976432
 30
0.0
 10
10.2867800824
 20
8.968018382
 30
0.0
 10
10.2867037882
 20
8.9687543429
 30
0.0
 10
10.2866039676
 20
8.9698058892
 30
0.0
 10
10.2864802573
 20
8.9710676704
 30
0.0
 10
10.2863166813
 20
8.9727500713
 30
0.0
 10
10.2861117418
 20
8.9748530636
 30
0.0
 10
10.2857841012
 20
8.9782178561
 30
0.0
 10
10.2853744598
 20
8.9824238451
 30
0.0
 10
10.2848829314
 20
8.9874710329
 30
0.0
 10
10.2843913827
 20
8.9925182192
 30
0.0
 10
10.2839817921
 20
8.9967242119
 30
0.0
 10
10.2836540497
 20
9.0000889971
 30
0.0
 10
10.2834493688
 20
9.0021920081
 30
0.0
 10
10.2832852622
 20
9.0038743704
 30
0.0
 10
10.2831631731
 20
9.0051362696
 30
0.0
 10
10.2830582799
 20
9.0061874467
 30
0.0
 10
10.2829910411
 20
9.0069240666
 30
0.0
 10
10.2829429594
 20
9.0073437495
 30
0.0
 10
10.282934109
 20
9.0076620125
 30
0.0
 10
10.2828212449
 20
9.0079668936
 30
0.0
 10
10.2827070405
 20
9.0083780695
 30
0.0
 10
10.2824902789
 20
9.0090954526
 30
0.0
 10
10.2821894571
 20
9.0101214224
 30
0.0
 10
10.2818246881
 20
9.0113520996
 30
0.0
 10
10.2813396507
 20
9.0129931726
 30
0.0
 10
10.2807329016
 20
9.0150444555
 30
0.0
 10
10.2797623559
 20
9.0183265408
 30
0.0
 10
10.2785490864
 20
9.022429136
 30
0.0
 10
10.2770932029
 20
9.0273522559
 30
0.0
 10
10.2756372999
 20
9.0322753713
 30
0.0
 10
10.2744240789
 20
9.0363779778
 30
0.0
 10
10.2734534363
 20
9.0396600405
 30
0.0
 10
10.2728469336
 20
9.0417113808
 30
0.0
 10
10.2723613903
 20
9.0433523361
 30
0.0
 10
10.2719981668
 20
9.0445833727
 30
0.0
 10
10.2716925095
 20
9.045608218
 30
0.0
 10
10.27148438
 20
9.0463276086
 30
0.0
 10
10.2713563449
 20
9.0467355679
 30
0.0
 10
10.2712859647
 20
9.0470503293
 30
0.0
 10
10.271117552
 20
9.0473314833
 30
0.0
 10
10.2709271965
 20
9.047718078
 30
0.0
 10
10.2705781425
 20
9.0483891568
 30
0.0
 10
10.2700878233
 20
9.0493506963
 30
0.0
 10
10.269495875
 20
9.0505033215
 30
0.0
 10
10.2687078559
 20
9.052040582
 30
0.0
 10
10.2677224056
 20
9.0539620114
 30
0.0
 10
10.2661459235
 20
9.0570363803
 30
0.0
 10
10.2641752386
 20
9.060879313
 30
0.0
 10
10.2618104543
 20
9.0654908455
 30
0.0
 10
10.2594456515
 20
9.0701023704
 30
0.0
 10
10.2574750129
 20
9.0739453221
 30
0.0
 10
10.2558984381
 20
9.0770196531
 30
0.0
 10
10.2549132235
 20
9.0789411787
 30
0.0
 10
10.2541247207
 20
9.0804782418
 30
0.0
 10
10.2535342503
 20
9.0816314698
 30
0.0
 10
10.2530393071
 20
9.0825911234
 30
0.0
 10
10.2526985077
 20
9.0832655689
 30
0.0
 10
10.2524949263
 20
9.0836467693
 30
0.0
 10
10.2523671393
 20
9.0839444928
 30
0.0
 10
10.2521441759
 20
9.084197022
 30
0.0
 10
10.25188009
 20
9.0845494919
 30
0.0
 10
10.2514024718
 20
9.0851589694
 30
0.0
 10
10.2507282469
 20
9.0860334915
 30
0.0
 10
10.2499157155
 20
9.0870812743
 30
0.0
 10
10.2488335494
 20
9.0884788922
 30
0.0
 10
10.2474804278
 20
9.0902257181
 30
0.0
 10
10.2453156647
 20
9.0930207493
 30
0.0
 10
10.242609631
 20
9.0965145002
 30
0.0
 10
10.2393624264
 20
9.1007070195
 30
0.0
 10
10.236115206
 20
9.1048995269
 30
0.0
 10
10.2334092118
 20
9.1083933074
 30
0.0
 10
10.2312443696
 20
9.1111882794
 30
0.0
 10
10.229891449
 20
9.1129352558
 30
0.0
 10
10.2288088703
 20
9.1143325647
 30
0.0
 10
10.2279975993
 20
9.1153812917
 30
0.0
 10
10.2273194312
 20
9.1162528598
 30
0.0
 10
10.2268488522
 20
9.1168676106
 30
0.0
 10
10.2265734877
 20
9.1172116313
 30
0.0
 10
10.2263851685
 20
9.1174901138
 30
0.0
 10
10.226127264
 20
9.1176903611
 30
0.0
 10
10.2258076635
 20
9.1179846468
 30
0.0
 10
10.2252370538
 20
9.1184869322
 30
0.0
 10
10.2244278094
 20
9.1192111301
 30
0.0
 10
10.2234541854
 20
9.1200773223
 30
0.0
 10
10.2221569041
 20
9.1212332391
 30
0.0
 10
10.2205349998
 20
9.1226777947
 30
0.0
 10
10.2179401221
 20
9.124989274
 30
0.0
 10
10.2146964665
 20
9.1278785573
 30
0.0
 10
10.2108041063
 20
9.1313457275
 30
0.0
 10
10.2069117338
 20
9.1348128821
 30
0.0
 10
10.2036681091
 20
9.1377022044
 30
0.0
 10
10.2010731697
 20
9.1400136058
 30
0.0
 10
10.1994514222
 20
9.1414583594
 30
0.0
 10
10.1981538189
 20
9.1426138698
 30
0.0
 10
10.1971811785
 20
9.1434813032
 30
0.0
 10
10.1963688571
 20
9.1442016179
 30
0.0
 10
10.1958037403
 20
9.1447108354
 30
0.0
 10
10.1954753387
 20
9.1449940141
 30
0.0
 10
10.1952444686
 20
9.1452283787
 30
0.0
 10
10.1949546127
 20
9.1453787222
 30
0.0
 10
10.1945887132
 20
9.1456084877
 30
0.0
 10
10.1939388027
 20
9.1459969223
 30
0.0
 10
10.193015371
 20
9.1465589679
 30
0.0
 10
10.1919051077
 20
9.147230367
 30
0.0
 10
10.190425506
 20
9.148126633
 30
0.0
 10
10.1885757473
 20
9.1492466001
 30
0.0
 10
10.1856162767
 20
9.1510387517
 30
0.0
 10
10.1819168891
 20
9.1532788706
 30
0.0
 10
10.1774776461
 20
9.1559670459
 30
0.0
 10
10.1730383936
 20
9.1586552039
 30
0.0
 10
10.1693390299
 20
9.1608953658
 30
0.0
 10
10.1663795114
 20
9.1626874315
 30
0.0
 10
10.1645298744
 20
9.163807617
 30
0.0
 10
10.1630500229
 20
9.1647034346
 30
0.0
 10
10.1619405226
 20
9.1653762035
 30
0.0
 10
10.161014704
 20
9.1659339632
 30
0.0
 10
10.1603690545
 20
9.166330049
 30
0.0
 10
10.1599963278
 20
9.1665475554
 30
0.0
 10
10.1597274428
 20
9.166735555
 30
0.0
 10
10.1594178097
 20
9.1668284896
 30
0.0
 10
10.1590191791
 20
9.1669855621
 30
0.0
 10
10.1583149531
 20
9.1672449893
 30
0.0
 10
10.1573123783
 20
9.167623677
 30
0.0
 10
10.1561078065
 20
9.1680746448
 30
0.0
 10
10.1545022284
 20
9.1686771427
 30
0.0
 10
10.1524950786
 20
9.1694298517
 30
0.0
 10
10.149283738
 20
9.1706344173
 30
0.0
 10
10.145269528
 20
9.1721400443
 30
0.0
 10
10.1404524914
 20
9.1739468335
 30
0.0
 10
10.135635448
 20
9.1757536038
 30
0.0
 10
10.1316212551
 20
9.1772592781
 30
0.0
 10
10.1284098802
 20
9.1784637491
 30
0.0
 10
10.1264028175
 20
9.1792166983
 30
0.0
 10
10.1247970606
 20
9.1798187034
 30
0.0
 10
10.1235930352
 20
9.180271177
 30
0.0
 10
10.122588751
 20
9.1806451532
 30
0.0
 10
10.1218875765
 20
9.1809129911
 30
0.0
 10
10.1214840566
 20
9.1810565877
 30
0.0
 10
10.1211894417
 20
9.181190916
 30
0.0
 10
10.1208641512
 20
9.1812234476
 30
0.0
 10
10.1204411304
 20
9.1813023308
 30
0.0
 10
10.1196958588
 20
9.1814238327
 30
0.0
 10
10.1186337915
 20
9.1816060562
 30
0.0
 10
10.1173581951
 20
9.1818210221
 30
0.0
 10
10.1156577895
 20
9.1821089365
 30
0.0
 10
10.1135321492
 20
9.1824683866
 30
0.0
 10
10.1101311991
 20
9.1830437544
 30
0.0
 10
10.105879986
 20
9.1837628792
 30
0.0
 10
10.1007785412
 20
9.1846258653
 30
0.0
 10
10.0956770935
 20
9.1854888417
 30
0.0
 10
10.0888751642
 20
9.1866394803
 30
0.0
 10
10.0837737171
 20
9.1875024585
 30
0.0
 10
10.0803727523
 20
9.1880777775
 30
0.0
  0
SPLINE
  5
39F
100
AcDbEntity
  8
0
100
AcDbSpline
 62
4
  6
CONTINUOUS
 70
0
 71
3
 72
313
 73
309
 74
0
 42
0.0000001
 43
0.0000001
 44
0.0000000001
 40
0.0
 40
0.0
 40
0.0
 40
0.0
 40
0.015625
 40
0.0234375
 40
0.03125
 40
0.0390625
 40
0.046875
 40
0.05078125
 40
0.0546875
 40
0.056640625
 40
0.05859375
 40
0.060546875
 40
0.0615234375
 40
0.0620117188
 40
0.0625
 40
0.0629882812
 40
0.0634765625
 40
0.064453125
 40
0.06640625
 40
0.068359375
 40
0.0703125
 40
0.07421875
 40
0.078125
 40
0.0859375
 40
0.09375
 40
0.1015625
 40
0.109375
 40
0.11328125
 40
0.1171875
 40
0.119140625
 40
0.12109375
 40
0.123046875
 40
0.1240234375
 40
0.1245117188
 40
0.125
 40
0.1254882812
 40
0.1259765625
 40
0.126953125
 40
0.12890625
 40
0.130859375
 40
0.1328125
 40
0.13671875
 40
0.140625
 40
0.1484375
 40
0.15625
 40
0.1640625
 40
0.171875
 40
0.17578125
 40
0.1796875
 40
0.181640625
 40
0.18359375
 40
0.185546875
 40
0.1865234375
 40
0.1870117188
 40
0.1875
 40
0.1879882812
 40
0.1884765625
 40
0.189453125
 40
0.19140625
 40
0.193359375
 40
0.1953125
 40
0.19921875
 40
0.203125
 40
0.2109375
 40
0.21875
 40
0.2265625
 40
0.234375
 40
0.23828125
 40
0.2421875
 40
0.244140625
 40
0.24609375
 40
0.248046875
 40
0.2490234375
 40
0.2495117188
 40
0.25
 40
0.2504882812
 40
0.2509765625
 40
0.251953125
 40
0.25390625
 40
0.255859375
 40
0.2578125
 40
0.26171875
 40
0.265625
 40
0.2734375
 40
0.28125
 40
0.2890625
 40
0.296875
 40
0.30078125
 40
0.3046875
 40
0.306640625
 40
0.30859375
 40
0.310546875
 40
0.3115234375
 40
0.3120117188
 40
0.3125
 40
0.3129882812
 40
0.3134765625
 40
0.314453125
 40
0.31640625
 40
0.318359375
 40
0.3203125
 40
0.32421875
 40
0.328125
 40
0.3359375
 40
0.34375
 40
0.3515625
 40
0.359375
 40
0.36328125
 40
0.3671875
 40
0.369140625
 40
0.37109375
 40
0.373046875
 40
0.3740234375
 40
0.3745117188
 40
0.375
 40
0.3754882812
 40
0.3759765625
 40
0.376953125
 40
0.37890625
 40
0.380859375
 40
0.3828125
 40
0.38671875
 40
0.390625
 40
0.3984375
 40
0.40625
 40
0.4140625
 40
0.421875
 40
0.42578125
 40
0.4296875
 40
0.431640625
 40
0.43359375
 40
0.435546875
 40
0.4365234375
 40
0.4370117188
 40
0.4375
 40
0.4379882812
 40
0.4384765625
 40
0.439453125
 40
0.44140625
 40
0.443359375
 40
0.4453125
 40
0.44921875
 40
0.453125
 40
0.4609375
 40
0.46875
 40
0.4765625
 40
0.484375
 40
0.48828125
 40
0.4921875
 40
0.494140625
 40
0.49609375
 40
0.498046875
 40
0.4990234375
 40
0.4995117188
 40
0.5
 40
0.5004882812
 40
0.5009765625
 40
0.501953125
 40
0.50390625
 40
0.505859375
 40
0.5078125
 40
0.51171875
 40
0.515625
 40
0.5234375
 40
0.53125
 40
0.5390625
 40
0.546875
 40
0.55078125
 40
0.5546875
 40
0.556640625
 40
0.55859375
 40
0.560546875
 40
0.5615234375
 40
0.5620117188
 40
0.5625
 40
0.5629882812
 40
0.5634765625
 40
0.564453125
 40
0.56640625
 40
0.568359375
 40
0.5703125
 40
0.57421875
 40
0.578125
 40
0.5859375
 40
0.59375
 40
0.6015625
 40
0.609375
 40
0.61328125
 40
0.6171875
 40
0.619140625
 40
0.62109375
 40
0.623046875
 40
0.6240234375
 40
0.6245117188
 40
0.625
 40
0.6254882812
 40
0.6259765625
 40
0.626953125
 40
0.62890625
 40
0.630859375
 40
0.6328125
 40
0.63671875
 40
0.640625
 40
0.6484375
 40
0.65625
 40
0.6640625
 40
0.671875
 40
0.67578125
 40
0.6796875
 40
0.681640625
 40
0.68359375
 40
0.685546875
 40
0.6865234375
 40
0.6870117188
 40
0.6875
 40
0.6879882812
 40
0.6884765625
 40
0.689453125
 40
0.69140625
 40
0.693359375
 40
0.6953125
 40
0.69921875
 40
0.703125
 40
0.7109375
 40
0.71875
 40
0.7265625
 40
0.734375
 40
0.73828125
 40
0.7421875
 40
0.744140625
 40
0.74609375
 40
0.748046875
 40
0.7490234375
 40
0.7495117188
 40
0.75
 40
0.7504882812
 40
0.7509765625
 40
0.751953125
 40
0.75390625
 40
0.755859375
 40
0.7578125
 40
0.76171875
 40
0.765625
 40
0.7734375
 40
0.78125
 40
0.7890625
 40
0.796875
 40
0.80078125
 40
0.8046875
 40
0.806640625
 40
0.80859375
 40
0.810546875
 40
0.8115234375
 40
0.8120117188
 40
0.8125
 40
0.8129882812
 40
0.8134765625
 40
0.814453125
 40
0.81640625
 40
0.818359375
 40
0.8203125
 40
0.82421875
 40
0.828125
 40
0.8359375
 40
0.84375
 40
0.8515625
 40
0.859375
 40
0.86328125
 40
0.8671875
 40
0.869140625
 40
0.87109375
 40
0.873046875
 40
0.8740234375
 40
0.8745117188
 40
0.875
 40
0.8754882812
 40
0.8759765625
 40
0.876953125
 40
0.87890625
 40
0.880859375
 40
0.8828125
 40
0.88671875
 40
0.890625
 40
0.8984375
 40
0.90625
 40
0.9140625
 40
0.921875
 40
0.92578125
 40
0.9296875
 40
0.931640625
 40
0.93359375
 40
0.935546875
 40
0.9365234375
 40
0.9370117188
 40
0.9375
 40
0.9379882812
 40
0.9384765625
 40
0.939453125
 40
0.94140625
 40
0.943359375
 40
0.9453125
 40
0.94921875
 40
0.953125
 40
0.9609375
 40
0.96875
 40
0.9765625
 40
0.984375
 40
1.0
 40
1.0
 40
1.0
 40
1.0
 10
10.0803727704
 20
9.1880777762
 30
0.0
 10
10.0770307043
 20
9.1879818569
 30
0.0
 10
10.0720176052
 20
9.1878379781
 30
0.0
 10
10.0653334733
 20
9.1876461386
 30
0.0
 10
10.0603203738
 20
9.1875022617
 30
0.0
 10
10.0553072763
 20
9.1873583746
 30
0.0
 10
10.0511296889
 20
9.1872385002
 30
0.0
 10
10.0477876327
 20
9.1871425303
 30
0.0
 10
10.0456988163
 20
9.1870827093
 30
0.0
 10
10.0440278348
 20
9.1870344856
 30
0.0
 10
10.0427744025
 20
9.1869993224
 30
0.0
 10
10.0417304998
 20
9.1869668241
 30
0.0
 10
10.0409985429
 20
9.1869503466
 30
0.0
 10
10.0405821945
 20
9.1869311388
 30
0.0
 10
10.0402645453
 20
9.1869443174
 30
0.0
 10
10.0399674913
 20
9.1868520541
 30
0.0
 10
10.0395642355
 20
9.1867658156
 30
0.0
 10
10.038861885
 20
9.1865977622
 30
0.0
 10
10.0378567772
 20
9.1863666448
 30
0.0
 10
10.0366513968
 20
9.1860854693
 30
0.0
 10
10.0350439613
 20
9.1857119079
 30
0.0
 10
10.0330347566
 20
9.1852444976
 30
0.0
 10
10.0298199789
 20
9.1844968975
 30
0.0
 10
10.0258015242
 20
9.1835623088
 30
0.0
 10
10.0209793701
 20
9.1824408427
 30
0.0
 10
10.0161572219
 20
9.1813193569
 30
0.0
 10
10.0121387526
 20
9.1803848177
 30
0.0
 10
10.0089240042
 20
9.1796371186
 30
0.0
 10
10.006914725
 20
9.1791699599
 30
0.0
 10
10.0053074423
 20
9.1787958821
 30
0.0
 10
10.0041015953
 20
9.1785162844
 30
0.0
 10
10.0030979474
 20
9.1782802303
 30
0.0
 10
10.0023929906
 20
9.1781209897
 30
0.0
 10
10.0019939106
 20
9.1780206309
 30
0.0
 10
10.00168403
 20
9.1779717409
 30
0.0
 10
10.0014145555
 20
9.1778220163
 30
0.0
 10
10.0010411621
 20
9.1776575558
 30
0.0
 10
10.0003942902
 20
9.1773533625
 30
0.0
 10
9.9994667544
 20
9.1769273681
 30
0.0
 10
9.998355181
 20
9.1764125077
 30
0.0
 10
9.9968725698
 20
9.1757273081
 30
0.0
 10
9.9950194816
 20
9.1748703699
 30
0.0
 10
9.9920544422
 20
9.173499514
 30
0.0
 10
9.9883481769
 20
9.1717858595
 30
0.0
 10
9.9839006427
 20
9.1697295127
 30
0.0
 10
9.9794531175
 20
9.1676731468
 30
0.0
 10
9.97574683
 20
9.1659595401
 30
0.0
 10
9.9727818349
 20
9.1645885884
 30
0.0
 10
9.9709286342
 20
9.1637318938
 30
0.0
 10
9.9694462538
 20
9.1630461943
 30
0.0
 10
9.9683339751
 20
9.1625328607
 30
0.0
 10
9.967408646
 20
9.1621020894
 30
0.0
 10
9.966757835
 20
9.1618064238
 30
0.0
 10
9.966390753
 20
9.1616282997
 30
0.0
 10
9.9661018916
 20
9.1615205452
 30
0.0
 10
9.9658648249
 20
9.1613140225
 30
0.0
 10
9.9655306695
 20
9.1610731103
 30
0.0
 10
9.9649543149
 20
9.1606354625
 30
0.0
 10
9.9641265505
 20
9.1600186432
 30
0.0
 10
9.9631351169
 20
9.159274868
 30
0.0
 10
9.9618125474
 20
9.1582844224
 30
0.0
 10
9.9601595609
 20
9.1570459358
 30
0.0
 10
9.9575146565
 20
9.1550645974
 30
0.0
 10
9.9542085697
 20
9.1525878416
 30
0.0
 10
9.9502412448
 20
9.1496157719
 30
0.0
 10
9.9462739329
 20
9.1466436855
 30
0.0
 10
9.9429678137
 20
9.1441669715
 30
0.0
 10
9.940322974
 20
9.1421855495
 30
0.0
 10
9.938669823
 20
9.1409472753
 30
0.0
 10
9.9373475912
 20
9.1399563938
 30
0.0
 10
9.936355126
 20
9.1392139505
 30
0.0
 10
9.935530589
 20
9.1385929642
 30
0.0
 10
9.934948473
 20
9.1381627551
 30
0.0
 10
9.9346235489
 20
9.1379099242
 30
0.0
 10
9.9343581264
 20
9.137740012
 30
0.0
 10
9.9341757648
 20
9.1374947544
 30
0.0
 10
9.9339036435
 20
9.1371940255
 30
0.0
 10
9.93344093
 20
9.1366555051
 30
0.0
 10
9.9327728534
 20
9.135892592
 30
0.0
 10
9.9319741822
 20
9.1349743561
 30
0.0
 10
9.9309082322
 20
9.1337509986
 30
0.0
 10
9.9295761561
 20
9.1322214741
 30
0.0
 10
9.9274446322
 20
9.1297744181
 30
0.0
 10
9.9247802971
 20
9.1267155348
 30
0.0
 10
9.921583063
 20
9.1230449035
 30
0.0
 10
9.9183858453
 20
9.1193742588
 30
0.0
 10
9.9157214692
 20
9.1163154092
 30
0.0
 10
9.9135900275
 20
9.1138682858
 30
0.0
 10
9.9122577425
 20
9.1123389326
 30
0.0
 10
9.9111922211
 20
9.1111152235
 30
0.0
 10
9.9103922406
 20
9.1101980618
 30
0.0
 10
9.9097282606
 20
9.1094317876
 30
0.0
 10
9.909258234
 20
9.1088992673
 30
0.0
 10
9.9089978301
 20
9.1085889247
 30
0.0
 10
9.9087794763
 20
9.1083731975
 30
0.0
 10
9.9086492344
 20
9.108092374
 30
0.0
 10
9.9084448442
 20
9.1077406489
 30
0.0
 10
9.908101481
 20
9.1071145508
 30
0.0
 10
9.9076034755
 20
9.1062256559
 30
0.0
 10
9.9070090735
 20
9.1051566145
 30
0.0
 10
9.9062154182
 20
9.103732053
 30
0.0
 10
9.9052237324
 20
9.1019510679
 30
0.0
 10
9.9036368207
 20
9.09910165
 30
0.0
 10
9.9016532552
 20
9.0955398232
 30
0.0
 10
9.8992729425
 20
9.0912656554
 30
0.0
 10
9.8968926477
 20
9.0869914769
 30
0.0
 10
9.8949090375
 20
9.083429677
 30
0.0
 10
9.8933222151
 20
9.0805802051
 30
0.0
 10
9.8923303024
 20
9.0787993574
 30
0.0
 10
9.8915371128
 20
9.0773745139
 30
0.0
 10
9.890941288
 20
9.0763063341
 30
0.0
 10
9.8904477341
 20
9.0754147436
 30
0.0
 10
9.8900964242
 20
9.0747934575
 30
0.0
 10
9.8899047665
 20
9.0744340223
 30
0.0
 10
9.8897354142
 20
9.0741768819
 30
0.0
 10
9.8896639527
 20
9.0738722048
 30
0.0
 10
9.8895345253
 20
9.0734825499
 30
0.0
 10
9.8893239363
 20
9.0727929284
 30
0.0
 10
9.8890147775
 20
9.0718117937
 30
0.0
 10
9.888647347
 20
9.0706327034
 30
0.0
 10
9.8881561962
 20
9.0690611867
 30
0.0
 10
9.8875426836
 20
9.0670965841
 30
0.0
 10
9.8865608252
 20
9.0639533356
 30
0.0
 10
9.8853335846
 20
9.0600242351
 30
0.0
 10
9.8838608581
 20
9.0553093324
 30
0.0
 10
9.8823881509
 20
9.0505944216
 30
0.0
 10
9.8811608618
 20
9.0466653415
 30
0.0
 10
9.8801791004
 20
9.043522052
 30
0.0
 10
9.8795653415
 20
9.0415575536
 30
0.0
 10
9.879074696
 20
9.0399858231
 30
0.0
 10
9.8787057218
 20
9.0388073861
 30
0.0
 10
9.878401393
 20
9.0378242072
 30
0.0
 10
9.8781821817
 20
9.0371382351
 30
0.0
 10
9.8780665693
 20
9.0367427329
 30
0.0
 10
9.8779526726
 20
9.0364560167
 30
0.0
 10
9.8779427
 20
9.036131418
 30
0.0
 10
9.8778931533
 20
9.0357118335
 30
0.0
 10
9.8778233362
 20
9.0349714041
 30
0.0
 10
9.8777147674
 20
9.0339168665
 30
0.0
 10
9.8775882644
 20
9.0326500436
 30
0.0
 10
9.8774182735
 20
9.0309614277
 30
0.0
 10
9.877206237
 20
9.0288504931
 30
0.0
 10
9.8768667259
 20
9.0254730897
 30
0.0
 10
9.8764424243
 20
9.0212513039
 30
0.0
 10
9.8759332223
 20
9.0161851745
 30
0.0
 10
9.8754240407
 20
9.0111190416
 30
0.0
 10
9.8749996882
 20
9.0068972644
 30
0.0
 10
9.8746602788
 20
9.0035198439
 30
0.0
 10
9.8744479838
 20
9.0014089529
 30
0.0
 10
9.8742785234
 20
8.9997202473
 30
0.0
 10
9.8741503998
 20
8.9984536986
 30
0.0
 10
9.8740469014
 20
8.9973983033
 30
0.0
 10
9.8739680328
 20
8.996659405
 30
0.0
 10
9.8739329888
 20
8.9962373672
 30
0.0
 10
9.8738784686
 20
8.9959203043
 30
0.0
 10
9.8739318855
 20
8.9956052847
 30
0.0
 10
9.8739654584
 20
8.9951845459
 30
0.0
 10
9.8740417525
 20
8.9944485851
 30
0.0
 10
9.8741415732
 20
8.9933970388
 30
0.0
 10
9.8742652835
 20
8.9921352576
 30
0.0
 10
9.8744288595
 20
8.9904528567
 30
0.0
 10
9.8746337989
 20
8.9883498644
 30
0.0
 10
9.8749614396
 20
8.9849850718
 30
0.0
 10
9.875371081
 20
8.9807790829
 30
0.0
 10
9.8758626094
 20
8.9757318951
 30
0.0
 10
9.8763541581
 20
8.9706847087
 30
0.0
 10
9.8767637487
 20
8.9664787161
 30
0.0
 10
9.8770914911
 20
8.9631139309
 30
0.0
 10
9.877296172
 20
8.9610109198
 30
0.0
 10
9.8774602786
 20
8.9593285575
 30
0.0
 10
9.8775823676
 20
8.9580666583
 30
0.0
 10
9.8776872608
 20
8.9570154812
 30
0.0
 10
9.8777544997
 20
8.9562788613
 30
0.0
 10
9.8778025814
 20
8.9558591784
 30
0.0
 10
9.8778114318
 20
8.9555409154
 30
0.0
 10
9.8779242959
 20
8.9552360343
 30
0.0
 10
9.8780385002
 20
8.9548248584
 30
0.0
 10
9.8782552619
 20
8.9541074754
 30
0.0
 10
9.8785560837
 20
8.9530815055
 30
0.0
 10
9.8789208527
 20
8.9518508283
 30
0.0
 10
9.87940589
 20
8.9502097554
 30
0.0
 10
9.8800126392
 20
8.9481584725
 30
0.0
 10
9.8809831849
 20
8.9448763872
 30
0.0
 10
9.8821964544
 20
8.940773792
 30
0.0
 10
9.8836523379
 20
8.935850672
 30
0.0
 10
9.8851082409
 20
8.9309275566
 30
0.0
 10
9.8863214618
 20
8.9268249501
 30
0.0
 10
9.8872921045
 20
8.9235428874
 30
0.0
 10
9.8878986072
 20
8.9214915472
 30
0.0
 10
9.8883841505
 20
8.9198505919
 30
0.0
 10
9.8887473739
 20
8.9186195553
 30
0.0
 10
9.8890530312
 20
8.9175947099
 30
0.0
 10
9.8892611607
 20
8.9168753194
 30
0.0
 10
9.8893891959
 20
8.9164673601
 30
0.0
 10
9.8894595761
 20
8.9161525986
 30
0.0
 10
9.8896279888
 20
8.9158714446
 30
0.0
 10
9.8898183443
 20
8.91548485
 30
0.0
 10
9.8901673983
 20
8.9148137712
 30
0.0
 10
9.8906577175
 20
8.9138522316
 30
0.0
 10
9.8912496658
 20
8.9126996064
 30
0.0
 10
9.8920376849
 20
8.911162346
 30
0.0
 10
9.8930231352
 20
8.9092409165
 30
0.0
 10
9.8945996172
 20
8.9061665477
 30
0.0
 10
9.8965703021
 20
8.902323615
 30
0.0
 10
9.8989350865
 20
8.8977120825
 30
0.0
 10
9.9012998893
 20
8.8931005575
 30
0.0
 10
9.9032705279
 20
8.8892576059
 30
0.0
 10
9.9048471026
 20
8.8861832749
 30
0.0
 10
9.9058323172
 20
8.8842617493
 30
0.0
 10
9.9066208201
 20
8.8827246861
 30
0.0
 10
9.9072112905
 20
8.8815714582
 30
0.0
 10
9.9077062336
 20
8.8806118045
 30
0.0
 10
9.9080470331
 20
8.879937359
 30
0.0
 10
9.9082506144
 20
8.8795561587
 30
0.0
 10
9.9083784015
 20
8.8792584352
 30
0.0
 10
9.9086013649
 20
8.879005906
 30
0.0
 10
9.9088654508
 20
8.8786534361
 30
0.0
 10
9.909343069
 20
8.8780439586
 30
0.0
 10
9.9100172939
 20
8.8771694365
 30
0.0
 10
9.9108298252
 20
8.8761216536
 30
0.0
 10
9.9119119913
 20
8.8747240357
 30
0.0
 10
9.9132651129
 20
8.8729772099
 30
0.0
 10
9.9154298761
 20
8.8701821787
 30
0.0
 10
9.9181359098
 20
8.8666884278
 30
0.0
 10
9.9213831144
 20
8.8624959085
 30
0.0
 10
9.9246303348
 20
8.858303401
 30
0.0
 10
9.927336329
 20
8.8548096205
 30
0.0
 10
9.9295011712
 20
8.8520146485
 30
0.0
 10
9.9308540918
 20
8.8502676722
 30
0.0
 10
9.9319366704
 20
8.8488703633
 30
0.0
 10
9.9327479415
 20
8.8478216363
 30
0.0
 10
9.9334261096
 20
8.8469500682
 30
0.0
 10
9.9338966886
 20
8.8463353173
 30
0.0
 10
9.934172053
 20
8.8459912966
 30
0.0
 10
9.9343603723
 20
8.8457128141
 30
0.0
 10
9.9346182768
 20
8.8455125668
 30
0.0
 10
9.9349378773
 20
8.8452182811
 30
0.0
 10
9.935508487
 20
8.8447159957
 30
0.0
 10
9.9363177314
 20
8.8439917978
 30
0.0
 10
9.9372913553
 20
8.8431256056
 30
0.0
 10
9.9385886367
 20
8.8419696889
 30
0.0
 10
9.940210541
 20
8.8405251333
 30
0.0
 10
9.9428054187
 20
8.838213654
 30
0.0
 10
9.9460490743
 20
8.8353243707
 30
0.0
 10
9.9499414345
 20
8.8318572005
 30
0.0
 10
9.953833807
 20
8.8283900458
 30
0.0
 10
9.9570774317
 20
8.8255007236
 30
0.0
 10
9.9596723711
 20
8.8231893222
 30
0.0
 10
9.9612941186
 20
8.8217445686
 30
0.0
 10
9.9625917218
 20
8.8205890581
 30
0.0
 10
9.9635643623
 20
8.8197216248
 30
0.0
 10
9.9643766837
 20
8.8190013101
 30
0.0
 10
9.9649418004
 20
8.8184920925
 30
0.0
 10
9.9652702021
 20
8.8182089139
 30
0.0
 10
9.9655010722
 20
8.8179745492
 30
0.0
 10
9.9657909281
 20
8.8178242058
 30
0.0
 10
9.9661568276
 20
8.8175944403
 30
0.0
 10
9.9668067381
 20
8.8172060056
 30
0.0
 10
9.9677301698
 20
8.81664396
 30
0.0
 10
9.968840433
 20
8.815972561
 30
0.0
 10
9.9703200348
 20
8.815076295
 30
0.0
 10
9.9721697935
 20
8.8139563279
 30
0.0
 10
9.9751292641
 20
8.8121641763
 30
0.0
 10
9.9788286517
 20
8.8099240573
 30
0.0
 10
9.9832678947
 20
8.8072358821
 30
0.0
 10
9.9877071472
 20
8.8045477241
 30
0.0
 10
9.9914065109
 20
8.8023075622
 30
0.0
 10
9.9943660293
 20
8.8005154965
 30
0.0
 10
9.9962156664
 20
8.799395311
 30
0.0
 10
9.9976955179
 20
8.7984994933
 30
0.0
 10
9.9988050182
 20
8.7978267244
 30
0.0
 10
9.9997308368
 20
8.7972689648
 30
0.0
 10
10.0003764863
 20
8.7968728789
 30
0.0
 10
10.000749213
 20
8.7966553726
 30
0.0
 10
10.001018098
 20
8.796467373
 30
0.0
 10
10.001327731
 20
8.7963744384
 30
0.0
 10
10.0017263617
 20
8.7962173658
 30
0.0
 10
10.0024305876
 20
8.7959579386
 30
0.0
 10
10.0034331625
 20
8.795579251
 30
0.0
 10
10.0046377343
 20
8.7951282832
 30
0.0
 10
10.0062433123
 20
8.7945257852
 30
0.0
 10
10.0082504622
 20
8.7937730762
 30
0.0
 10
10.0114618028
 20
8.7925685107
 30
0.0
 10
10.0154760128
 20
8.7910628836
 30
0.0
 10
10.0202930494
 20
8.7892560945
 30
0.0
 10
10.0251100928
 20
8.7874493242
 30
0.0
 10
10.0291242856
 20
8.7859436499
 30
0.0
 10
10.0323356606
 20
8.7847391788
 30
0.0
 10
10.0343427233
 20
8.7839862297
 30
0.0
 10
10.0359484802
 20
8.7833842246
 30
0.0
 10
10.0371525056
 20
8.782931751
 30
0.0
 10
10.0381567898
 20
8.7825577747
 30
0.0
 10
10.0388579643
 20
8.7822899369
 30
0.0
 10
10.0392614841
 20
8.7821463403
 30
0.0
 10
10.0395560991
 20
8.7820120119
 30
0.0
 10
10.0398813896
 20
8.7819794804
 30
0.0
 10
10.0403044103
 20
8.7819005971
 30
0.0
 10
10.0410496819
 20
8.7817790952
 30
0.0
 10
10.0421117493
 20
8.7815968718
 30
0.0
 10
10.0433873457
 20
8.7813819059
 30
0.0
 10
10.0450877513
 20
8.7810939915
 30
0.0
 10
10.0472133916
 20
8.7807345413
 30
0.0
 10
10.0506143417
 20
8.7801591736
 30
0.0
 10
10.0548655548
 20
8.7794400488
 30
0.0
 10
10.0599669996
 20
8.7785770626
 30
0.0
 10
10.0650684473
 20
8.7777140862
 30
0.0
 10
10.0718703765
 20
8.7765634476
 30
0.0
 10
10.0769718237
 20
8.7757004694
 30
0.0
 10
10.0803727884
 20
8.7751251505
 30
0.0
  0
ENDSEC
  0
SECTION
  2
OBJECTS
  0
DICTIONARY
  5
C
100
AcDbDictionary
280
0
281
1
  3
ACAD_GROUP
350
D
  3
ACAD_MLINESTYLE
350
17
  3
ACAD_LAYOUT
350
1A
  3
ACAD_PLOTSETTINGS
350
19
  3
ACAD_PLOTSTYLENAME
350
E
  3
ACAD_IMAGE_DICT
350
       3A1
  3
ACAD_IMAGE_VARS
350
       3A2
  3
ACAD_TABLESTYLE
350
       3A3
  0
IMAGEDEF_REACTOR
  5
3A0
100
AcDbRasterImageDefReactor
 90
2
330
293
  0
DICTIONARY
  5
D
102
{ACAD_REACTORS
330
C
102
}
100
AcDbDictionary
280
0
281
1
  0
ACDBDICTIONARYWDFLT
  5
E
102
{ACAD_REACTORS
330
C
102
}
100
AcDbDictionary
281
1
  3
Normal
350
F
100
AcDbDictionaryWithDefault
340
F
  0
DICTIONARY
  5
3A1
330
C
100
AcDbDictionary
281
1
  3
Q4N_assy_2_img_1
350
       3A6
  0
RASTERVARIABLES
  5
3A2
330
C
100
AcDbRasterVariables
 90
0
 70
0
 71
1
 72
5
  0
DICTIONARY
  5
17
102
{ACAD_REACTORS
330
C
102
}
100
AcDbDictionary
280
0
281
1
  3
Standard
350
18
  0
DICTIONARY
  5
3A3
330
C
100
AcDbDictionary
281
1
  3
Standard
350
       3A7
  3
Standard1
350
       3A8
  0
DICTIONARY
  5
19
102
{ACAD_REACTORS
330
C
102
}
100
AcDbDictionary
281
1
  0
DICTIONARY
  5
1A
102
{ACAD_REACTORS
330
C
102
}
100
AcDbDictionary
281
1
  3
Model
350
3A4
  3
Layout1
350
3A5
  0
ACDBPLACEHOLDER
  5
F
102
{ACAD_REACTORS
330
E
102
}
  0
MLINESTYLE
  5
18
102
{ACAD_REACTORS
330
17
102
}
100
AcDbMlineStyle
  2
STANDARD
 70
0
  3

 62
256
 51
90.0
 52
90.0
 71
2
 49
0.5
 62
256
  6
BYLAYER
 49
-0.5
 62
256
  6
BYLAYER
  0
LAYOUT
  5
3A4
102
{ACAD_REACTORS
330
1A
102
}
100
AcDbPlotSettings
  1

  2
none_device
  4
ANSI_C_(22.00_x_17.00_Inches)
  6

 40
0.0
 41
0.0
 42
0.0
 43
0.0
 44
558.8
 45
431.8
 46
0.0
 47
0.0
 48
0.0
 49
0.0
140
0.0
141
0.0
142
1.0
143
1.0
 70
1024
 72
0
 73
0
 74
0
  7

 75
0
147
1.0
148
0.0
149
0.0
100
AcDbLayout
  1
Model
 70
0
 71
0
 10
0.0
 20
0.0
 11
22.0
 21
17.0
 12
0.0
 22
0.0
 32
0.0
 14
0.0
 24
0.0
 34
0.0
 15
0.0
 25
0.0
 35
0.0
146
0.0
 13
0.0
 23
0.0
 33
0.0
 16
1.0
 26
0.0
 36
0.0
 17
0.0
 27
1.0
 37
0.0
 76
0
330
20C
345
0
346
0
  0
LAYOUT
  5
3A5
102
{ACAD_REACTORS
330
1A
102
}
100
AcDbPlotSettings
  1

  2
none_device
  4
ANSI_C_(22.00_x_17.00_Inches)
  6

 40
0.0
 41
0.0
 42
0.0
 43
0.0
 44
558.8
 45
431.8
 46
0.0
 47
0.0
 48
0.0
 49
0.0
140
0.0
141
0.0
142
1.0
143
1.0
 70
0
 72
0
 73
0
 74
0
  7

 75
0
147
1.0
148
0.0
149
0.0
100
AcDbLayout
  1
Layout1
 70
0
 71
1
 10
0.0
 20
0.0
 11
22.0
 21
17.0
 12
0.0
 22
0.0
 32
0.0
 14
0.0
 24
0.0
 34
0.0
 15
0.0
 25
0.0
 35
0.0
146
0.0
 13
0.0
 23
0.0
 33
0.0
 16
1.0
 26
0.0
 36
0.0
 17
0.0
 27
1.0
 37
0.0
 76
0
330
20D
345
0
346
0
  0
IMAGEDEF
  5
3A6
102
{ACAD_REACTORS
330
3A1
330
3A0
102
}
100
AcDbRasterImageDef
 90
0
  1
Q4N_assy_2_img_1.png
 10
369.0
 20
92.0
 11
0.0066666667
 21
0.0066666667
280
1
281
0
  0
TABLESTYLE
  5
3A7
102
{ACAD_REACTORS
330
3A3
330
296
330
297
102
}
330
3A3
100
AcDbTableStyle
  3
Standard
 70
0
 71
0
 40
0.06
 41
0.06
280
1
281
1
  7
Standard
140
0.18
170
1
 62
0
 63
7
283
0
  7
Standard
140
0.18
170
1
 62
0
 63
7
283
0
  7
Standard
140
0.18
170
1
 62
0
 63
7
283
0
  0
TABLESTYLE
  5
3A8
102
{ACAD_REACTORS
330
3A3
330
295
102
}
330
3A3
100
AcDbTableStyle
  3
Standard1
 70
1
 71
0
 40
0.06
 41
0.06
280
1
281
1
  7
Standard
140
0.18
170
1
 62
0
 63
7
283
0
  7
Standard
140
0.18
170
1
 62
0
 63
7
283
0
  7
Standard
140
0.18
170
1
 62
0
 63
7
283
0
  0
ENDSEC
  0
EOF
