999
DXF file: PK3_assy_2.dxf
999
Pro/ENGINEER 2014200 by Parametric Technology Corporation
  0
SECTION
  2
HEADER
  9
$ACADVER
  1
AC1021
  9
$DWGCODEPAGE
  3
ANSI_1252
  9
$EXTMAX
 10
22.0
 20
17.0
 30
0.0
  9
$EXTMIN
 10
0.0
 20
0.0
 30
0.0
  9
$LIMMIN
 10
0.0
 20
0.0
  9
$LIMMAX
 10
22.0
 20
17.0
  9
$VIEWCTR
 10
11.0
 20
8.5
  9
$VIEWSIZE
 40
17.0
  9
$CLAYER
  8
0
  9
$LTSCALE
 40
1.21
  9
$CELTYPE
  6
BYLAYER
  9
$DIMSCALE
 40
1.0
  9
$DIMASZ
 40
0.1875
  9
$DIMEXO
 40
0.0625
  9
$DIMDLI
 40
0.836
  9
$DIMEXE
 40
0.125
  9
$DIMCEN
 40
0.198
  9
$DIMLFAC
 40
1.0
  9
$DIMBLK
  1
_FILLED
  9
$DIMTXT
 40
0.1
  9
$DIMTOL
 70
0
  9
$DIMLIM
 70
0
  9
$DIMTFAC
 40
1.0
  9
$DIMGAP
 40
0.09
  9
$DIMDSEP
 70
46
  9
$AUNITS
 70
0
  9
$PDMODE
 70
3
  9
$PDSIZE
 40
0.3125
  9
$HANDSEED
  5
36E
  9
$TILEMODE
 70
1
  9
$MEASUREMENT
 70
0
  9
$INSUNITS
 70
1
  0
ENDSEC
  0
SECTION
  2
CLASSES
  0
CLASS
  1
ACDBDICTIONARYWDFLT
  2
AcDbDictionaryWithDefault
  3
AutoCAD 2000
 90
0
 91
1
280
0
281
0
  0
CLASS
  1
ACDBPLACEHOLDER
  2
AcDbPlaceHolder
  3
AutoCAD 2000
 90
0
 91
1
280
0
281
0
  0
CLASS
  1
LAYOUT
  2
AcDbLayout
  3
AutoCAD 2000
 90
0
 91
0
280
0
281
0
  0
CLASS
  1
RASTERVARIABLES
  2
AcDbRasterVariables
  3
ISM
 90
0
 91
1
280
0
281
0
  0
CLASS
  1
IMAGEDEF
  2
AcDbRasterImageDef
  3
ISM
 90
0
 91
1
280
0
281
0
  0
CLASS
  1
IMAGEDEF_REACTOR
  2
AcDbRasterImageDefReactor
  3
ISM
 90
0
 91
1
280
0
281
0
  0
CLASS
  1
IMAGE
  2
AcDbRasterImage
  3
ISM
 90
127
 91
1
280
0
281
1
  0
CLASS
  1
TABLESTYLE
  2
AcDbTableStyle
  3
ObjectDBX Classes
 90
2047
 91
1
280
0
281
0
  0
CLASS
  1
ACAD_TABLE
  2
AcDbTable
  3
ObjectDBX Classes
 90
1025
 91
3
280
0
281
1
  0
ENDSEC
  0
SECTION
  2
TABLES
  0
TABLE
  2
VPORT
  5
8
100
AcDbSymbolTable
 70
2
  0
VPORT
  5
1F4
100
AcDbSymbolTableRecord
100
AcDbViewportTableRecord
  2
*ACTIVE
 70
0
 10
0.0
 20
0.0
 11
1.0
 21
1.0
 12
11.0
 22
8.5
 13
0.0
 23
0.0
 14
1.0
 24
1.0
 15
0.0
 25
0.0
 16
0.0
 26
0.0
 36
1.0
 17
0.0
 27
0.0
 37
0.0
 40
17.0
 41
1.2941176471
 42
50.0
 43
0.0
 44
0.0
 50
0.0
 51
0.0
 71
0
 72
100
 73
1
 74
1
 75
0
 76
0
 77
0
 78
0
  0
ENDTAB
  0
TABLE
  2
LTYPE
  5
5
100
AcDbSymbolTable
 70
6
  0
LTYPE
  5
14
100
AcDbSymbolTableRecord
100
AcDbLinetypeTableRecord
  2
BYBLOCK
 70
0
  3

 72
65
 73
0
 40
0.0
  0
LTYPE
  5
15
100
AcDbSymbolTableRecord
100
AcDbLinetypeTableRecord
  2
BYLAYER
 70
0
  3

 72
65
 73
0
 40
0.0
  0
LTYPE
  5
16
100
AcDbSymbolTableRecord
100
AcDbLinetypeTableRecord
  2
CONTINUOUS
 70
64
  3
Solid line
 72
65
 73
0
 40
0.0
  0
LTYPE
  5
1F5
100
AcDbSymbolTableRecord
100
AcDbLinetypeTableRecord
  2
CENTER
 70
64
  3
____ _ ____ _ ____ _ ____ _ ____ _ ____ _ ____
 72
65
 73
4
 40
0.6
 49
0.375
 74
0
 49
-0.075
 74
0
 49
0.075
 74
0
 49
-0.075
 74
0
  0
LTYPE
  5
1F6
100
AcDbSymbolTableRecord
100
AcDbLinetypeTableRecord
  2
HIDDEN
 70
64
  3
- - - - - - - - - - - - - - - - - - - -
 72
65
 73
2
 40
0.2
 49
0.1
 74
0
 49
-0.1
 74
0
  0
LTYPE
  5
1F7
100
AcDbSymbolTableRecord
100
AcDbLinetypeTableRecord
  2
PHANTOM
 70
64
  3
_____ _ _ _____ _ _ _____ _ _ _____
 72
65
 73
6
 40
0.8
 49
0.45
 74
0
 49
-0.05
 74
0
 49
0.1
 74
0
 49
-0.05
 74
0
 49
0.1
 74
0
 49
-0.05
 74
0
  0
LTYPE
  5
1F8
100
AcDbSymbolTableRecord
100
AcDbLinetypeTableRecord
  2
DOT
 70
64
  3
. . . . . . . . . . . . . . . . . . . .
 72
65
 73
2
 40
0.2
 49
0.1
 74
0
 49
-0.1
 74
0
  0
LTYPE
  5
1F9
100
AcDbSymbolTableRecord
100
AcDbLinetypeTableRecord
  2
DASHED
 70
64
  3
- - - - - - - - - - - - - - - - - - - -
 72
65
 73
2
 40
0.2
 49
0.1
 74
0
 49
-0.1
 74
0
  0
ENDTAB
  0
TABLE
  2
LAYER
  5
2
100
AcDbSymbolTable
 70
36
  0
LAYER
  5
10
100
AcDbSymbolTableRecord
100
AcDbLayerTableRecord
  2
0
 70
0
 62
7
  6
CONTINUOUS
370
-3
390
F
  0
LAYER
  5
1FA
100
AcDbSymbolTableRecord
100
AcDbLayerTableRecord
  2
DEFAULT_1
 70
0
 62
7
  6
CENTER
370
-3
390
F
  0
LAYER
  5
1FB
100
AcDbSymbolTableRecord
100
AcDbLayerTableRecord
  2
DEFAULT_2
 70
0
 62
8
  6
HIDDEN
370
-3
390
F
  0
LAYER
  5
1FC
100
AcDbSymbolTableRecord
100
AcDbLayerTableRecord
  2
DEFAULT_3
 70
0
 62
7
  6
PHANTOM
370
-3
390
F
  0
LAYER
  5
1FD
100
AcDbSymbolTableRecord
100
AcDbLayerTableRecord
  2
DATUM_PLANES
 70
0
 62
7
  6
CONTINUOUS
370
-3
390
F
  0
LAYER
  5
1FE
100
AcDbSymbolTableRecord
100
AcDbLayerTableRecord
  2
DIMENSIONS
 70
0
 62
7
  6
CONTINUOUS
370
-3
390
F
  0
LAYER
  5
1FF
100
AcDbSymbolTableRecord
100
AcDbLayerTableRecord
  2
PARAMETERDIMENSIONS
 70
0
 62
7
  6
CONTINUOUS
370
-3
390
F
  0
LAYER
  5
200
100
AcDbSymbolTableRecord
100
AcDbLayerTableRecord
  2
PLANE
 70
0
 62
7
  6
CONTINUOUS
370
-3
390
F
  0
LAYER
  5
201
100
AcDbSymbolTableRecord
100
AcDbLayerTableRecord
  2
PORT_AREAS
 70
0
 62
7
  6
CONTINUOUS
370
-3
390
F
  0
LAYER
  5
202
100
AcDbSymbolTableRecord
100
AcDbLayerTableRecord
  2
SUNNBOMCOSMETIC
 70
0
 62
7
  6
CONTINUOUS
370
-3
390
F
  0
LAYER
  5
203
100
AcDbSymbolTableRecord
100
AcDbLayerTableRecord
  2
SUNNBOMSTAMPING
 70
0
 62
7
  6
CONTINUOUS
370
-3
390
F
  0
LAYER
  5
204
100
AcDbSymbolTableRecord
100
AcDbLayerTableRecord
  2
THREADS
 70
0
 62
7
  6
CONTINUOUS
370
-3
390
F
  0
ENDTAB
  0
TABLE
  2
STYLE
  5
3
100
AcDbSymbolTable
 70
1
  0
STYLE
  5
11
100
AcDbSymbolTableRecord
100
AcDbTextStyleTableRecord
  2
STANDARD
 70
0
 40
0.0
 41
0.8
 50
0.0
 71
0
 42
0.2
  3
txt
  4

  0
STYLE
  5
205
100
AcDbSymbolTableRecord
100
AcDbTextStyleTableRecord
  2
TEXTSTYLE_1
 70
0
 40
0.0
 41
0.8
 50
0.0
 71
0
 42
0.2
  3
gdt
  4

  0
ENDTAB
  0
TABLE
  2
VIEW
  5
6
100
AcDbSymbolTable
 70
0
  0
ENDTAB
  0
TABLE
  2
UCS
  5
7
100
AcDbSymbolTable
 70
0
  0
ENDTAB
  0
TABLE
  2
APPID
  5
9
100
AcDbSymbolTable
 70
1
  0
APPID
  5
206
100
AcDbSymbolTableRecord
100
AcDbRegAppTableRecord
  2
ACAD
 70
0
  0
ENDTAB
  0
TABLE
  2
BLOCK_RECORD
  5
1
100
AcDbSymbolTable
 70
0
  0
BLOCK_RECORD
  5
207
100
AcDbSymbolTableRecord
100
AcDbBlockTableRecord
  2
*Model_Space
  0
BLOCK_RECORD
  5
208
100
AcDbSymbolTableRecord
100
AcDbBlockTableRecord
  2
*Paper_Space
  0
BLOCK_RECORD
  5
209
100
AcDbSymbolTableRecord
100
AcDbBlockTableRecord
  2
SUN_FIRST_THIRD_ANGLE_BL0
  0
BLOCK_RECORD
  5
20A
100
AcDbSymbolTableRecord
100
AcDbBlockTableRecord
  2
*T1
  0
BLOCK_RECORD
  5
20B
100
AcDbSymbolTableRecord
100
AcDbBlockTableRecord
  2
*T2
  0
BLOCK_RECORD
  5
20C
100
AcDbSymbolTableRecord
100
AcDbBlockTableRecord
  2
*T3
  0
ENDTAB
  0
TABLE
  2
DIMSTYLE
  5
A
100
AcDbSymbolTable
 70
1
100
AcDbDimStyleTable
 71
0
  0
DIMSTYLE
105
20D
100
AcDbSymbolTableRecord
100
AcDbDimStyleTableRecord
  2
STANDARD
 70
0
  3

  4

 40
1.0
 41
0.1875
 42
0.0625
 43
0.38
 44
0.125
 45
0.0
 46
0.0
 47
0.001
 48
0.001
140
0.1
141
0.09
142
0.0
143
25.4
144
1.0
145
0.0
146
1.0
147
0.09
 71
0.0
 72
0.0
 73
1
 74
1
 75
0
 76
0
 77
0
 78
4
170
0
171
2
172
0
173
0
174
0
175
0
176
0
177
0
178
0
270
2
271
3
272
3
273
2
274
2
275
0
280
0
281
0
282
0
283
1
284
4
285
0
286
0
287
3
288
0
340
11
278
46
  0
ENDTAB
  0
ENDSEC
  0
SECTION
  2
BLOCKS
  0
BLOCK
  5
20
100
AcDbEntity
  8
0
100
AcDbBlockBegin
  2
*Model_Space
 70
0
 10
0.0
 20
0.0
 30
0.0
  3
*Model_Space
  1

  0
ENDBLK
  5
21
100
AcDbEntity
  8
0
100
AcDbBlockEnd
  0
BLOCK
  5
1C
100
AcDbEntity
  8
0
100
AcDbBlockBegin
  2
*Paper_Space
 70
0
 10
0.0
 20
0.0
 30
0.0
  3
*Paper_Space
  1

  0
ENDBLK
  5
1D
100
AcDbEntity
  8
0
100
AcDbBlockEnd
  0
BLOCK
  5
20E
100
AcDbEntity
  8
0
100
AcDbBlockBegin
 62
2
  6
CONTINUOUS
  2
SUN_FIRST_THIRD_ANGLE_BL0
 70
64
 10
20.4816717061
 20
1.2289683772
  3
SUN_FIRST_THIRD_ANGLE_BL0
  1

  0
TEXT
  5
20F
100
AcDbEntity
  8
0
100
AcDbText
 62
2
  6
CONTINUOUS
 10
19.4750896608
 20
1.4136269581
  7
STANDARD
 40
0.08
  1
FIRST ANGLE
 41
0.8
 72
0
100
AcDbText
  0
TEXT
  5
210
100
AcDbEntity
  8
0
100
AcDbText
 62
2
  6
CONTINUOUS
 10
20.7842537513
 20
1.4047600029
  7
STANDARD
 40
0.08
  1
THIRD ANGLE
 41
0.8
 72
0
100
AcDbText
  0
LINE
  5
211
100
AcDbEntity
  8
0
100
AcDbLine
 62
7
  6
CONTINUOUS
 10
19.4767170086
 20
1.1727031207
 11
19.6334271527
 21
1.1717972817
  0
LINE
  5
212
100
AcDbEntity
  8
0
100
AcDbLine
 62
7
  6
CONTINUOUS
 10
19.6596964832
 20
1.1717972817
 11
19.6950230232
 21
1.171593082
  0
LINE
  5
213
100
AcDbEntity
  8
0
100
AcDbLine
 62
7
  6
CONTINUOUS
 10
19.7194818561
 20
1.1708914427
 11
19.8852396156
 21
1.1699333054
  0
LINE
  5
214
100
AcDbEntity
  8
0
100
AcDbLine
 62
7
  6
CONTINUOUS
 10
19.4758111696
 20
1.2723454088
 11
19.88525039
 21
1.3511534004
  0
LINE
  5
215
100
AcDbEntity
  8
0
100
AcDbLine
 62
7
  6
CONTINUOUS
 10
19.88525039
 20
1.3511534004
 11
19.8831348489
 21
0.9851647912
  0
LINE
  5
216
100
AcDbEntity
  8
0
100
AcDbLine
 62
7
  6
CONTINUOUS
 10
19.8831348489
 20
0.9851647912
 11
19.4767170086
 21
1.0658141206
  0
LINE
  5
217
100
AcDbEntity
  8
0
100
AcDbLine
 62
7
  6
CONTINUOUS
 10
19.4767170086
 20
1.0658141206
 11
19.4779056764
 21
1.2714536432
  0
CIRCLE
  5
218
100
AcDbEntity
  8
0
100
AcDbCircle
 62
7
  6
CONTINUOUS
 10
20.2068232291
 20
1.1717972817
 40
0.175742101
  0
CIRCLE
  5
219
100
AcDbEntity
  8
0
100
AcDbCircle
 62
7
  6
CONTINUOUS
 10
20.2068232291
 20
1.1717972817
 40
0.1005522074
  0
LINE
  5
21A
100
AcDbEntity
  8
0
100
AcDbLine
 62
7
  6
CONTINUOUS
 10
20.2077290681
 20
1.3756110529
 11
20.2071171714
 21
1.2379342989
  0
LINE
  5
21B
100
AcDbEntity
  8
0
100
AcDbLine
 62
7
  6
CONTINUOUS
 10
20.2077290681
 20
1.2016899681
 11
20.2074674401
 21
1.1428236749
  0
LINE
  5
21C
100
AcDbEntity
  8
0
100
AcDbLine
 62
7
  6
CONTINUOUS
 10
20.208634907
 20
1.101141841
 11
20.2080230104
 21
0.963465087
  0
LINE
  5
21D
100
AcDbEntity
  8
0
100
AcDbLine
 62
7
  6
CONTINUOUS
 10
20.0066328138
 20
1.1745147986
 11
20.1443095678
 21
1.1739029019
  0
LINE
  5
21E
100
AcDbEntity
  8
0
100
AcDbLine
 62
7
  6
CONTINUOUS
 10
20.1832714155
 20
1.1727031207
 11
20.238153505
 21
1.172335442
  0
LINE
  5
21F
100
AcDbEntity
  8
0
100
AcDbLine
 62
7
  6
CONTINUOUS
 10
20.2756669918
 20
1.1717972817
 11
20.407916871
 21
1.1712095044
  0
CIRCLE
  5
220
100
AcDbEntity
  8
0
100
AcDbCircle
 62
7
  6
CONTINUOUS
 10
20.7509457401
 20
1.1693297793
 40
0.1722024983
  0
CIRCLE
  5
221
100
AcDbEntity
  8
0
100
AcDbCircle
 62
7
  6
CONTINUOUS
 10
20.7509457401
 20
1.1693297793
 40
0.0985164967
  0
LINE
  5
222
100
AcDbEntity
  8
0
100
AcDbLine
 62
7
  6
CONTINUOUS
 10
20.7169767782
 20
1.170462078
 11
20.7825395137
 21
1.1682766535
  0
LINE
  5
223
100
AcDbEntity
  8
0
100
AcDbLine
 62
7
  6
CONTINUOUS
 10
20.8177513651
 20
1.1693297793
 11
20.947965719
 21
1.1693297793
  0
LINE
  5
224
100
AcDbEntity
  8
0
100
AcDbLine
 62
7
  6
CONTINUOUS
 10
20.6875370113
 20
1.170462078
 11
20.5573226574
 21
1.170462078
  0
LINE
  5
225
100
AcDbEntity
  8
0
100
AcDbLine
 62
7
  6
CONTINUOUS
 10
20.7486811426
 20
1.1987695462
 11
20.7486811426
 21
1.1432869085
  0
LINE
  5
226
100
AcDbEntity
  8
0
100
AcDbLine
 62
7
  6
CONTINUOUS
 10
20.7498134414
 20
1.1059210505
 11
20.7498134414
 21
0.9757066966
  0
LINE
  5
227
100
AcDbEntity
  8
0
100
AcDbLine
 62
7
  6
CONTINUOUS
 10
20.7486811426
 20
1.2338708068
 11
20.7486811426
 21
1.3640851607
  0
LINE
  5
228
100
AcDbEntity
  8
0
100
AcDbLine
 62
7
  6
CONTINUOUS
 10
21.0702539817
 20
1.2701043662
 11
21.4790138229
 21
1.3448360823
  0
LINE
  5
229
100
AcDbEntity
  8
0
100
AcDbLine
 62
7
  6
CONTINUOUS
 10
21.4790138229
 20
1.3448360823
 11
21.4790138229
 21
0.9779712941
  0
LINE
  5
22A
100
AcDbEntity
  8
0
100
AcDbLine
 62
7
  6
CONTINUOUS
 10
21.4790138229
 20
0.9779712941
 11
21.069121683
 21
1.0617614
  0
LINE
  5
22B
100
AcDbEntity
  8
0
100
AcDbLine
 62
7
  6
CONTINUOUS
 10
21.0702539817
 20
1.2701043662
 11
21.069121683
 21
1.0617614
  0
LINE
  5
22C
100
AcDbEntity
  8
0
100
AcDbLine
 62
7
  6
CONTINUOUS
 10
21.4790138229
 20
1.1693297793
 11
21.3159628059
 21
1.1693297793
  0
LINE
  5
22D
100
AcDbEntity
  8
0
100
AcDbLine
 62
7
  6
CONTINUOUS
 10
21.2876553377
 20
1.1693297793
 11
21.2502894796
 21
1.1693297793
  0
LINE
  5
22E
100
AcDbEntity
  8
0
100
AcDbLine
 62
7
  6
CONTINUOUS
 10
21.2208497126
 20
1.1659328831
 11
21.0713862804
 21
1.1659328831
  0
LINE
  5
22F
100
AcDbEntity
  8
0
100
AcDbLine
 62
7
  6
CONTINUOUS
 10
20.4796138713
 20
1.5284908897
 11
20.4766766948
 21
0.9294458646
  0
ENDBLK
  5
230
100
AcDbEntity
  8
0
  6
BYBLOCK
 62
0
100
AcDbBlockEnd
  0
BLOCK
  5
231
100
AcDbEntity
  8
0
100
AcDbBlockBegin
  2
*T1
 70
1
 10
0.0
 20
0.0
  3
*T1
  1

  0
LINE
  5
232
100
AcDbEntity
  8
0
100
AcDbLine
 62
2
  6
CONTINUOUS
 10
9.275
 20
0.0
 11
-0.0
 21
0.0
  0
LINE
  5
233
100
AcDbEntity
  8
0
100
AcDbLine
 62
2
  6
CONTINUOUS
 10
9.275
 20
0.0
 11
9.275
 21
1.25
  0
LINE
  5
234
100
AcDbEntity
  8
0
100
AcDbLine
 62
2
  6
CONTINUOUS
 10
9.275
 20
0.625
 11
-0.0
 21
0.625
  0
LINE
  5
235
100
AcDbEntity
  8
0
100
AcDbLine
 62
2
  6
CONTINUOUS
 10
9.275
 20
1.25
 11
-0.0
 21
1.25
  0
LINE
  5
236
100
AcDbEntity
  8
0
100
AcDbLine
 62
2
  6
CONTINUOUS
 10
6.8
 20
0.0
 11
6.8
 21
1.25
  0
LINE
  5
237
100
AcDbEntity
  8
0
100
AcDbLine
 62
2
  6
CONTINUOUS
 10
6.4
 20
0.0
 11
6.4
 21
0.625
  0
LINE
  5
238
100
AcDbEntity
  8
0
100
AcDbLine
 62
2
  6
CONTINUOUS
 10
5.9
 20
0.0
 11
5.9
 21
0.625
  0
LINE
  5
239
100
AcDbEntity
  8
0
100
AcDbLine
 62
2
  6
CONTINUOUS
 10
5.2
 20
0.0
 11
5.2
 21
0.625
  0
LINE
  5
23A
100
AcDbEntity
  8
0
100
AcDbLine
 62
2
  6
CONTINUOUS
 10
4.1
 20
0.0
 11
4.1
 21
1.25
  0
LINE
  5
23B
100
AcDbEntity
  8
0
100
AcDbLine
 62
2
  6
CONTINUOUS
 10
-0.0
 20
0.0
 11
-0.0
 21
1.25
  0
MTEXT
  5
23C
100
AcDbEntity
  8
0
100
AcDbMText
 62
2
  6
CONTINUOUS
  7
STANDARD
 71
2
 72
1
 10
6.6
 20
0.325
 30
0.0
 11
1.0
 21
0.0
 31
0.0
 44
0.9
  1
2
 40
0.125
 41
0.2
  0
MTEXT
  5
23D
100
AcDbEntity
  8
0
100
AcDbMText
 62
2
  6
CONTINUOUS
  7
STANDARD
 71
2
 72
1
 10
6.15
 20
0.325
 30
0.0
 11
1.0
 21
0.0
 31
0.0
 44
0.9
  1
C
 40
0.125
 41
0.2
  0
MTEXT
  5
23E
100
AcDbEntity
  8
0
100
AcDbMText
 62
2
  6
CONTINUOUS
  7
STANDARD
 71
2
 72
1
 10
5.55
 20
0.325
 30
0.0
 11
1.0
 21
0.0
 31
0.0
 44
0.9
  1
1.000
 40
0.125
 41
1.0
  0
MTEXT
  5
23F
100
AcDbEntity
  8
0
100
AcDbMText
 62
2
  6
CONTINUOUS
  7
STANDARD
 71
2
 72
1
 10
4.65
 20
0.325
 30
0.0
 11
1.0
 21
0.0
 31
0.0
 44
0.9
  1
Dec-09-19
 40
0.125
 41
1.8
  0
MTEXT
  5
240
100
AcDbEntity
  8
0
100
AcDbMText
 62
2
  6
CONTINUOUS
  7
STANDARD
 71
2
 72
1
 10
2.05
 20
0.4625
 30
0.0
 11
1.0
 21
0.0
 31
0.0
 44
0.9
  1
T-23A Sandwich ISO 07\P(See Notes for Body Features)
 40
0.125
 41
5.8
  0
MTEXT
  5
241
100
AcDbEntity
  8
0
100
AcDbMText
 62
2
  6
CONTINUOUS
  7
STANDARD
 71
1
 72
1
 10
6.45
 20
0.5625
 30
0.0
 11
1.0
 21
0.0
 31
0.0
 44
0.9
  1
SHEET
 40
0.06
 41
0.48
  0
MTEXT
  5
242
100
AcDbEntity
  8
0
100
AcDbMText
 62
2
  6
CONTINUOUS
  7
STANDARD
 71
1
 72
1
 10
5.95
 20
0.5625
 30
0.0
 11
1.0
 21
0.0
 31
0.0
 44
0.9
  1
DWG SIZE
 40
0.06
 41
0.768
  0
MTEXT
  5
243
100
AcDbEntity
  8
0
100
AcDbMText
 62
2
  6
CONTINUOUS
  7
STANDARD
 71
1
 72
1
 10
5.25
 20
0.5625
 30
0.0
 11
1.0
 21
0.0
 31
0.0
 44
0.9
  1
SCALE
 40
0.06
 41
0.48
  0
MTEXT
  5
244
100
AcDbEntity
  8
0
100
AcDbMText
 62
2
  6
CONTINUOUS
  7
STANDARD
 71
1
 72
1
 10
4.15
 20
0.5625
 30
0.0
 11
1.0
 21
0.0
 31
0.0
 44
0.9
  1
DATE
 40
0.06
 41
0.384
  0
MTEXT
  5
245
100
AcDbEntity
  8
0
100
AcDbMText
 62
2
  6
CONTINUOUS
  7
STANDARD
 71
1
 72
1
 10
0.05
 20
0.5625
 30
0.0
 11
1.0
 21
0.0
 31
0.0
 44
0.9
  1
DESCRIPTION
 40
0.06
 41
1.056
  0
MTEXT
  5
246
100
AcDbEntity
  8
0
100
AcDbMText
 62
2
  6
CONTINUOUS
  7
STANDARD
 71
2
 72
1
 10
5.45
 20
1.0375
 30
0.0
 11
1.0
 21
0.0
 31
0.0
 44
0.9
  1
ALL DIMENSIONS IN INCH\PVIEWS ARE THIRD ANGLE
 40
0.12
 41
4.224
  0
MTEXT
  5
247
100
AcDbEntity
  8
0
100
AcDbMText
 62
2
  6
CONTINUOUS
  7
STANDARD
 71
2
 72
1
 10
2.05
 20
0.95
 30
0.0
 11
1.0
 21
0.0
 31
0.0
 44
0.9
  1
PK3
 40
0.125
 41
0.6
  0
MTEXT
  5
248
100
AcDbEntity
  8
0
100
AcDbMText
 62
2
  6
CONTINUOUS
  7
STANDARD
 71
1
 72
1
 10
0.05
 20
1.1875
 30
0.0
 11
1.0
 21
0.0
 31
0.0
 44
0.9
  1
MODEL
 40
0.06
 41
0.48
  0
ENDBLK
  5
249
100
AcDbEntity
  8
0
  6
BYBLOCK
 62
0
100
AcDbBlockEnd
  0
BLOCK
  5
24A
100
AcDbEntity
  8
0
100
AcDbBlockBegin
  2
*T2
 70
1
 10
0.0
 20
0.0
  3
*T2
  1

  0
LINE
  5
24B
100
AcDbEntity
  8
0
100
AcDbLine
 62
2
  6
CONTINUOUS
 10
0.0
 20
0.0
 11
9.055
 21
0.0
  0
LINE
  5
24C
100
AcDbEntity
  8
0
100
AcDbLine
 62
2
  6
CONTINUOUS
 10
0.0
 20
0.0
 11
0.0
 21
-2.094
  0
LINE
  5
24D
100
AcDbEntity
  8
0
100
AcDbLine
 62
2
  6
CONTINUOUS
 10
0.0
 20
-0.344
 11
9.055
 21
-0.344
  0
LINE
  5
24E
100
AcDbEntity
  8
0
100
AcDbLine
 62
2
  6
CONTINUOUS
 10
0.0
 20
-0.594
 11
9.055
 21
-0.594
  0
LINE
  5
24F
100
AcDbEntity
  8
0
100
AcDbLine
 62
2
  6
CONTINUOUS
 10
0.0
 20
-0.844
 11
9.055
 21
-0.844
  0
LINE
  5
250
100
AcDbEntity
  8
0
100
AcDbLine
 62
2
  6
CONTINUOUS
 10
0.0
 20
-1.094
 11
9.055
 21
-1.094
  0
LINE
  5
251
100
AcDbEntity
  8
0
100
AcDbLine
 62
2
  6
CONTINUOUS
 10
0.0
 20
-1.344
 11
9.055
 21
-1.344
  0
LINE
  5
252
100
AcDbEntity
  8
0
100
AcDbLine
 62
2
  6
CONTINUOUS
 10
0.0
 20
-1.594
 11
9.055
 21
-1.594
  0
LINE
  5
253
100
AcDbEntity
  8
0
100
AcDbLine
 62
2
  6
CONTINUOUS
 10
0.0
 20
-1.844
 11
9.055
 21
-1.844
  0
LINE
  5
254
100
AcDbEntity
  8
0
100
AcDbLine
 62
2
  6
CONTINUOUS
 10
0.0
 20
-2.094
 11
9.055
 21
-2.094
  0
LINE
  5
255
100
AcDbEntity
  8
0
100
AcDbLine
 62
2
  6
CONTINUOUS
 10
3.055
 20
0.0
 11
3.055
 21
-2.094
  0
LINE
  5
256
100
AcDbEntity
  8
0
100
AcDbLine
 62
2
  6
CONTINUOUS
 10
9.055
 20
0.0
 11
9.055
 21
-2.094
  0
MTEXT
  5
257
100
AcDbEntity
  8
0
100
AcDbMText
 62
2
  6
CONTINUOUS
  7
STANDARD
 71
2
 72
1
 10
1.5275
 20
-0.0995
 30
0.0
 11
1.0
 21
0.0
 31
0.0
 44
0.9
  1
Technical Data
 40
0.145
 41
3.248
  0
MTEXT
  5
258
100
AcDbEntity
  8
0
100
AcDbMText
 62
2
  6
CONTINUOUS
  7
STANDARD
 71
2
 72
1
 10
4.555
 20
-0.0995
 30
0.0
 11
1.0
 21
0.0
 31
0.0
 44
0.9
  1
U.S. Units
 40
0.145
 41
2.32
  0
MTEXT
  5
259
100
AcDbEntity
  8
0
100
AcDbMText
 62
2
  6
CONTINUOUS
  7
STANDARD
 71
2
 72
1
 10
7.555
 20
-0.0995
 30
0.0
 11
1.0
 21
0.0
 31
0.0
 44
0.9
  1
Metric Units
 40
0.145
 41
2.784
  0
MTEXT
  5
25A
100
AcDbEntity
  8
0
100
AcDbMText
 62
2
  6
CONTINUOUS
  7
STANDARD
 71
2
 72
1
 10
1.5275
 20
-0.4065
 30
0.0
 11
1.0
 21
0.0
 31
0.0
 44
0.9
  1
Cavity
 40
0.125
 41
1.2
  0
MTEXT
  5
25B
100
AcDbEntity
  8
0
100
AcDbMText
 62
2
  6
CONTINUOUS
  7
STANDARD
 71
2
 72
1
 10
6.055
 20
-0.4065
 30
0.0
 11
1.0
 21
0.0
 31
0.0
 44
0.9
  1
T-23A
 40
0.125
 41
1.0
  0
MTEXT
  5
25C
100
AcDbEntity
  8
0
100
AcDbMText
 62
2
  6
CONTINUOUS
  7
STANDARD
 71
2
 72
1
 10
1.5275
 20
-0.6565
 30
0.0
 11
1.0
 21
0.0
 31
0.0
 44
0.9
  1
Body Features
 40
0.125
 41
2.6
  0
MTEXT
  5
25D
100
AcDbEntity
  8
0
100
AcDbMText
 62
2
  6
CONTINUOUS
  7
STANDARD
 71
2
 72
1
 10
6.055
 20
-0.6565
 30
0.0
 11
1.0
 21
0.0
 31
0.0
 44
0.9
  1
(See Notes)
 40
0.125
 41
2.2
  0
MTEXT
  5
25E
100
AcDbEntity
  8
0
100
AcDbMText
 62
2
  6
CONTINUOUS
  7
STANDARD
 71
2
 72
1
 10
1.5275
 20
-0.9065
 30
0.0
 11
1.0
 21
0.0
 31
0.0
 44
0.9
  1
Body Type
 40
0.125
 41
1.8
  0
MTEXT
  5
25F
100
AcDbEntity
  8
0
100
AcDbMText
 62
2
  6
CONTINUOUS
  7
STANDARD
 71
2
 72
1
 10
6.055
 20
-0.9065
 30
0.0
 11
1.0
 21
0.0
 31
0.0
 44
0.9
  1
Sandwich
 40
0.125
 41
1.6
  0
MTEXT
  5
260
100
AcDbEntity
  8
0
100
AcDbMText
 62
2
  6
CONTINUOUS
  7
STANDARD
 71
2
 72
1
 10
1.5275
 20
-1.1565
 30
0.0
 11
1.0
 21
0.0
 31
0.0
 44
0.9
  1
Interface
 40
0.125
 41
1.8
  0
MTEXT
  5
261
100
AcDbEntity
  8
0
100
AcDbMText
 62
2
  6
CONTINUOUS
  7
STANDARD
 71
2
 72
1
 10
6.055
 20
-1.1565
 30
0.0
 11
1.0
 21
0.0
 31
0.0
 44
0.9
  1
ISO 07
 40
0.125
 41
1.2
  0
MTEXT
  5
262
100
AcDbEntity
  8
0
100
AcDbMText
 62
2
  6
CONTINUOUS
  7
STANDARD
 71
2
 72
1
 10
1.5275
 20
-1.4065
 30
0.0
 11
1.0
 21
0.0
 31
0.0
 44
0.9
  1
Open Cavity Quantity
 40
0.125
 41
4.0
  0
MTEXT
  5
263
100
AcDbEntity
  8
0
100
AcDbMText
 62
2
  6
CONTINUOUS
  7
STANDARD
 71
2
 72
1
 10
6.055
 20
-1.4065
 30
0.0
 11
1.0
 21
0.0
 31
0.0
 44
0.9
  1
1
 40
0.125
 41
0.2
  0
MTEXT
  5
264
100
AcDbEntity
  8
0
100
AcDbMText
 62
2
  6
CONTINUOUS
  7
STANDARD
 71
2
 72
1
 10
1.5275
 20
-1.6565
 30
0.0
 11
1.0
 21
0.0
 31
0.0
 44
0.9
  1
Stack Height
 40
0.125
 41
2.4
  0
MTEXT
  5
265
100
AcDbEntity
  8
0
100
AcDbMText
 62
2
  6
CONTINUOUS
  7
STANDARD
 71
2
 72
1
 10
4.555
 20
-1.6565
 30
0.0
 11
1.0
 21
0.0
 31
0.0
 44
0.9
  1
3.52 in.
 40
0.125
 41
1.6
  0
MTEXT
  5
266
100
AcDbEntity
  8
0
100
AcDbMText
 62
2
  6
CONTINUOUS
  7
STANDARD
 71
2
 72
1
 10
7.555
 20
-1.6565
 30
0.0
 11
1.0
 21
0.0
 31
0.0
 44
0.9
  1
90 mm
 40
0.125
 41
1.0
  0
MTEXT
  5
267
100
AcDbEntity
  8
0
100
AcDbMText
 62
2
  6
CONTINUOUS
  7
STANDARD
 71
2
 72
1
 10
1.5275
 20
-1.9065
 30
0.0
 11
1.0
 21
0.0
 31
0.0
 44
0.9
  1
Weight
 40
0.125
 41
1.2
  0
MTEXT
  5
268
100
AcDbEntity
  8
0
100
AcDbMText
 62
2
  6
CONTINUOUS
  7
STANDARD
 71
2
 72
1
 10
4.555
 20
-1.9065
 30
0.0
 11
1.0
 21
0.0
 31
0.0
 44
0.9
  1
7.191 lb.
 40
0.125
 41
1.8
  0
MTEXT
  5
269
100
AcDbEntity
  8
0
100
AcDbMText
 62
2
  6
CONTINUOUS
  7
STANDARD
 71
2
 72
1
 10
7.555
 20
-1.9065
 30
0.0
 11
1.0
 21
0.0
 31
0.0
 44
0.9
  1
3,262 kg.
 40
0.125
 41
1.8
  0
ENDBLK
  5
26A
100
AcDbEntity
  8
0
  6
BYBLOCK
 62
0
100
AcDbBlockEnd
  0
BLOCK
  5
26B
100
AcDbEntity
  8
0
100
AcDbBlockBegin
  2
*T3
 70
1
 10
0.0
 20
0.0
  3
*T3
  1

  0
LINE
  5
26C
100
AcDbEntity
  8
0
100
AcDbLine
 62
2
  6
CONTINUOUS
 10
0.0
 20
0.0
 11
4.6
 21
0.0
  0
LINE
  5
26D
100
AcDbEntity
  8
0
100
AcDbLine
 62
2
  6
CONTINUOUS
 10
0.0
 20
0.0
 11
0.0
 21
-0.93775
  0
LINE
  5
26E
100
AcDbEntity
  8
0
100
AcDbLine
 62
2
  6
CONTINUOUS
 10
0.0
 20
-0.34375
 11
4.6
 21
-0.34375
  0
LINE
  5
26F
100
AcDbEntity
  8
0
100
AcDbLine
 62
2
  6
CONTINUOUS
 10
0.0
 20
-0.68775
 11
4.6
 21
-0.68775
  0
LINE
  5
270
100
AcDbEntity
  8
0
100
AcDbLine
 62
2
  6
CONTINUOUS
 10
0.0
 20
-0.93775
 11
4.6
 21
-0.93775
  0
LINE
  5
271
100
AcDbEntity
  8
0
100
AcDbLine
 62
2
  6
CONTINUOUS
 10
1.3
 20
-0.34375
 11
1.3
 21
-0.93775
  0
LINE
  5
272
100
AcDbEntity
  8
0
100
AcDbLine
 62
2
  6
CONTINUOUS
 10
3.3
 20
-0.34375
 11
3.3
 21
-0.93775
  0
LINE
  5
273
100
AcDbEntity
  8
0
100
AcDbLine
 62
2
  6
CONTINUOUS
 10
4.6
 20
0.0
 11
4.6
 21
-0.93775
  0
MTEXT
  5
274
100
AcDbEntity
  8
0
100
AcDbMText
 62
2
  6
CONTINUOUS
  7
STANDARD
 71
2
 72
1
 10
2.3
 20
-0.099375
 30
0.0
 11
1.0
 21
0.0
 31
0.0
 44
0.9
  1
Port Headings
 40
0.145
 41
3.016
  0
MTEXT
  5
275
100
AcDbEntity
  8
0
100
AcDbMText
 62
2
  6
CONTINUOUS
  7
STANDARD
 71
2
 72
1
 10
0.65
 20
-0.44325
 30
0.0
 11
1.0
 21
0.0
 31
0.0
 44
0.9
  1
Product
 40
0.145
 41
1.624
  0
MTEXT
  5
276
100
AcDbEntity
  8
0
100
AcDbMText
 62
2
  6
CONTINUOUS
  7
STANDARD
 71
2
 72
1
 10
2.3
 20
-0.44325
 30
0.0
 11
1.0
 21
0.0
 31
0.0
 44
0.9
  1
Port
 40
0.145
 41
0.928
  0
MTEXT
  5
277
100
AcDbEntity
  8
0
100
AcDbMText
 62
2
  6
CONTINUOUS
  7
STANDARD
 71
2
 72
1
 10
3.95
 20
-0.44325
 30
0.0
 11
1.0
 21
0.0
 31
0.0
 44
0.9
  1
Size
 40
0.145
 41
0.928
  0
MTEXT
  5
278
100
AcDbEntity
  8
0
100
AcDbMText
 62
2
  6
CONTINUOUS
  7
STANDARD
 71
2
 72
1
 10
0.65
 20
-0.75025
 30
0.0
 11
1.0
 21
0.0
 31
0.0
 44
0.9
  1
PK3
 40
0.125
 41
0.6
  0
MTEXT
  5
279
100
AcDbEntity
  8
0
100
AcDbMText
 62
2
  6
CONTINUOUS
  7
STANDARD
 71
2
 72
1
 10
2.3
 20
-0.75025
 30
0.0
 11
1.0
 21
0.0
 31
0.0
 44
0.9
  1
Port 4
 40
0.125
 41
1.2
  0
MTEXT
  5
27A
100
AcDbEntity
  8
0
100
AcDbMText
 62
2
  6
CONTINUOUS
  7
STANDARD
 71
2
 72
1
 10
3.95
 20
-0.75025
 30
0.0
 11
1.0
 21
0.0
 31
0.0
 44
0.9
  1
SAE 6
 40
0.125
 41
1.0
  0
ENDBLK
  5
27B
100
AcDbEntity
  8
0
  6
BYBLOCK
 62
0
100
AcDbBlockEnd
  0
ENDSEC
  0
SECTION
  2
ENTITIES
  0
IMAGE
  5
27C
100
AcDbEntity
  8
0
100
AcDbRasterImage
 62
7
  6
CONTINUOUS
 10
19.2297077316
 20
0.3094318264
 30
0.0
 11
0.0066666667
 21
0.0
 31
0.0
 12
0.0
 22
0.0066666667
 32
0.0
 13
369.0
 23
92.0
340
       36B
 70
9
280
0
281
50
282
50
283
0
360
       365
 71
1
 91
2
 14
-0.5
 24
-0.5
 14
368.5
 24
91.5
  0
INSERT
  5
27D
100
AcDbEntity
  8
0
100
AcDbBlockReference
 62
2
  6
CONTINUOUS
  2
SUN_FIRST_THIRD_ANGLE_BL0
 10
20.4816717061
 20
1.2289683772
  0
ACAD_TABLE
  5
27E
100
AcDbEntity
  8
0
 62
2
  6
CONTINUOUS
100
AcDbBlockReference
  2
*T1
 10
12.42375
 20
0.30125
 30
0.0
100
AcDbTable
342
       36D
343
20A
 11
1.0
 21
0.0
 31
0.0
 90
6
 91
4
 92
6
 93
20
 94
0
 95
0
 96
0
 70
1
 41
0.0
141
0.525
141
0.1
141
0.525
141
0.1
142
4.1
142
1.1
142
0.7
142
0.5
142
0.4
142
2.475
171
1
172
0
173
0
174
0
175
1
176
1
 91
33
178
0
145
0.0
301
CELL_VALUE
 90
4
  1
T-23A Sandwich ISO 07\P(See Notes for Body Features)
304
ACVALUE_END
170
2
140
0.125
171
1
172
0
173
0
174
0
175
1
176
1
 91
33
178
0
145
0.0
301
CELL_VALUE
 90
4
  1
Dec-09-19
304
ACVALUE_END
170
5
140
0.125
171
1
172
0
173
0
174
0
175
1
176
1
 91
33
178
0
145
0.0
301
CELL_VALUE
 90
4
  1
1.000
304
ACVALUE_END
170
5
140
0.125
171
1
172
0
173
0
174
0
175
1
176
1
 91
33
178
0
145
0.0
301
CELL_VALUE
 90
4
  1
C
304
ACVALUE_END
170
5
140
0.125
171
1
172
0
173
0
174
0
175
1
176
1
 91
33
178
0
145
0.0
301
CELL_VALUE
 90
4
  1
2
304
ACVALUE_END
170
5
140
0.125
171
1
172
0
173
0
174
0
175
1
176
1
 91
33
178
0
145
0.0
301
CELL_VALUE
 90
4
  1
 
304
ACVALUE_END
170
1
140
0.125
171
1
172
0
173
0
174
0
175
1
176
1
 91
33
178
0
145
0.0
301
CELL_VALUE
 90
4
  1
DESCRIPTION
304
ACVALUE_END
170
1
140
0.06
171
1
172
0
173
0
174
0
175
1
176
1
 91
33
178
0
145
0.0
301
CELL_VALUE
 90
4
  1
DATE
304
ACVALUE_END
170
1
140
0.06
171
1
172
0
173
0
174
0
175
1
176
1
 91
33
178
0
145
0.0
301
CELL_VALUE
 90
4
  1
SCALE
304
ACVALUE_END
170
1
140
0.06
171
1
172
0
173
0
174
0
175
1
176
1
 91
33
178
0
145
0.0
301
CELL_VALUE
 90
4
  1
DWG SIZE
304
ACVALUE_END
170
1
140
0.06
171
1
172
0
173
0
174
0
175
1
176
1
 91
33
178
0
145
0.0
301
CELL_VALUE
 90
4
  1
SHEET
304
ACVALUE_END
170
1
140
0.06
171
1
172
0
173
0
174
0
175
1
176
1
 91
33
178
0
145
0.0
301
CELL_VALUE
 90
4
  1
 
304
ACVALUE_END
170
1
140
0.125
171
1
172
0
173
0
174
0
175
1
176
1
 91
33
178
0
145
0.0
301
CELL_VALUE
 90
4
  1
PK3
304
ACVALUE_END
170
5
140
0.125
171
1
172
0
173
0
174
0
175
4
176
1
 91
33
178
0
145
0.0
301
CELL_VALUE
 90
4
  1
ALL DIMENSIONS IN INCH\PVIEWS ARE THIRD ANGLE
304
ACVALUE_END
170
5
140
0.12
171
1
172
0
173
1
174
0
175
1
176
1
 91
1
178
0
145
0.0
170
1
171
1
172
0
173
1
174
0
175
1
176
1
 91
1
178
0
145
0.0
170
1
171
1
172
0
173
1
174
0
175
1
176
1
 91
1
178
0
145
0.0
170
5
171
1
172
0
173
0
174
0
175
1
176
1
 91
33
178
0
145
0.0
301
CELL_VALUE
 90
4
  1
 
304
ACVALUE_END
170
1
140
0.125
171
1
172
0
173
0
174
0
175
1
176
1
 91
33
178
0
145
0.0
301
CELL_VALUE
 90
4
  1
MODEL
304
ACVALUE_END
170
1
140
0.06
171
1
172
0
173
0
174
0
175
1
176
1
 91
33
178
0
145
0.0
301
CELL_VALUE
 90
4
  1
 
304
ACVALUE_END
170
1
140
0.125
171
1
172
0
173
0
174
0
175
1
176
1
 91
33
178
0
145
0.0
301
CELL_VALUE
 90
4
  1
 
304
ACVALUE_END
170
1
140
0.125
171
1
172
0
173
0
174
0
175
1
176
1
 91
33
178
0
145
0.0
301
CELL_VALUE
 90
4
  1
 
304
ACVALUE_END
170
1
140
0.125
171
1
172
0
173
0
174
0
175
1
176
1
 91
33
178
0
145
0.0
301
CELL_VALUE
 90
4
  1
 
304
ACVALUE_END
170
1
140
0.125
171
1
172
0
173
0
174
0
175
1
176
1
 91
33
178
0
145
0.0
301
CELL_VALUE
 90
4
  1
 
304
ACVALUE_END
170
1
140
0.125
  0
ACAD_TABLE
  5
27F
100
AcDbEntity
  8
0
 62
2
  6
CONTINUOUS
100
AcDbBlockReference
  2
*T2
 10
12.4237499994
 20
16.47875
 30
0.0
100
AcDbTable
342
       36C
343
20B
 11
1.0
 21
0.0
 31
0.0
 90
22
 91
8
 92
3
 93
16
 94
0
 95
0
 96
0
 41
0.028
141
0.344
141
0.25
141
0.25
141
0.25
141
0.25
141
0.25
141
0.25
141
0.25
142
3.055
142
3.0
142
3.0
171
1
172
0
173
0
174
0
175
1
176
1
 91
33
178
0
145
0.0
301
CELL_VALUE
 90
4
  1
Technical Data
304
ACVALUE_END
170
5
140
0.145
171
1
172
0
173
0
174
0
175
1
176
1
 91
33
178
0
145
0.0
301
CELL_VALUE
 90
4
  1
U.S. Units
304
ACVALUE_END
170
5
140
0.145
171
1
172
0
173
0
174
0
175
1
176
1
 91
33
178
0
145
0.0
301
CELL_VALUE
 90
4
  1
Metric Units
304
ACVALUE_END
170
5
140
0.145
171
1
172
0
173
0
174
0
175
1
176
1
 91
33
178
0
145
0.0
301
CELL_VALUE
 90
4
  1
Cavity
304
ACVALUE_END
170
5
140
0.125
171
1
172
0
173
0
174
0
175
2
176
1
 91
33
178
0
145
0.0
301
CELL_VALUE
 90
4
  1
T-23A
304
ACVALUE_END
170
5
140
0.125
171
1
172
0
173
1
174
0
175
1
176
1
 91
1
178
0
145
0.0
170
1
171
1
172
0
173
0
174
0
175
1
176
1
 91
33
178
0
145
0.0
301
CELL_VALUE
 90
4
  1
Body Features
304
ACVALUE_END
170
5
140
0.125
171
1
172
0
173
0
174
0
175
2
176
1
 91
33
178
0
145
0.0
301
CELL_VALUE
 90
4
  1
(See Notes)
304
ACVALUE_END
170
5
140
0.125
171
1
172
0
173
1
174
0
175
1
176
1
 91
1
178
0
145
0.0
170
1
171
1
172
0
173
0
174
0
175
1
176
1
 91
33
178
0
145
0.0
301
CELL_VALUE
 90
4
  1
Body Type
304
ACVALUE_END
170
5
140
0.125
171
1
172
0
173
0
174
0
175
2
176
1
 91
33
178
0
145
0.0
301
CELL_VALUE
 90
4
  1
Sandwich
304
ACVALUE_END
170
5
140
0.125
171
1
172
0
173
1
174
0
175
1
176
1
 91
1
178
0
145
0.0
170
1
171
1
172
0
173
0
174
0
175
1
176
1
 91
33
178
0
145
0.0
301
CELL_VALUE
 90
4
  1
Interface
304
ACVALUE_END
170
5
140
0.125
171
1
172
0
173
0
174
0
175
2
176
1
 91
33
178
0
145
0.0
301
CELL_VALUE
 90
4
  1
ISO 07
304
ACVALUE_END
170
5
140
0.125
171
1
172
0
173
1
174
0
175
1
176
1
 91
1
178
0
145
0.0
170
1
171
1
172
0
173
0
174
0
175
1
176
1
 91
33
178
0
145
0.0
301
CELL_VALUE
 90
4
  1
Open Cavity Quantity
304
ACVALUE_END
170
5
140
0.125
171
1
172
0
173
0
174
0
175
2
176
1
 91
33
178
0
145
0.0
301
CELL_VALUE
 90
4
  1
1
304
ACVALUE_END
170
5
140
0.125
171
1
172
0
173
1
174
0
175
1
176
1
 91
1
178
0
145
0.0
170
1
171
1
172
0
173
0
174
0
175
1
176
1
 91
33
178
0
145
0.0
301
CELL_VALUE
 90
4
  1
Stack Height
304
ACVALUE_END
170
5
140
0.125
171
1
172
0
173
0
174
0
175
1
176
1
 91
33
178
0
145
0.0
301
CELL_VALUE
 90
4
  1
3.52 in.
304
ACVALUE_END
170
5
140
0.125
171
1
172
0
173
0
174
0
175
1
176
1
 91
33
178
0
145
0.0
301
CELL_VALUE
 90
4
  1
90 mm
304
ACVALUE_END
170
5
140
0.125
171
1
172
0
173
0
174
0
175
1
176
1
 91
33
178
0
145
0.0
301
CELL_VALUE
 90
4
  1
Weight
304
ACVALUE_END
170
5
140
0.125
171
1
172
0
173
0
174
0
175
1
176
1
 91
33
178
0
145
0.0
301
CELL_VALUE
 90
4
  1
7.191 lb.
304
ACVALUE_END
170
5
140
0.125
171
1
172
0
173
0
174
0
175
1
176
1
 91
33
178
0
145
0.0
301
CELL_VALUE
 90
4
  1
3,262 kg.
304
ACVALUE_END
170
5
140
0.125
  0
ACAD_TABLE
  5
280
100
AcDbEntity
  8
0
 62
2
  6
CONTINUOUS
100
AcDbBlockReference
  2
*T3
 10
0.52125
 20
1.459
 30
0.0
100
AcDbTable
342
       36C
343
20C
 11
1.0
 21
0.0
 31
0.0
 90
22
 91
3
 92
3
 93
16
 94
0
 95
0
 96
0
 41
0.05
141
0.34375
141
0.344
141
0.25
142
1.3
142
2.0
142
1.3
171
1
172
0
173
0
174
0
175
3
176
1
 91
33
178
0
145
0.0
301
CELL_VALUE
 90
4
  1
Port Headings
304
ACVALUE_END
170
5
140
0.145
171
1
172
0
173
1
174
0
175
1
176
1
 91
1
178
0
145
0.0
170
1
171
1
172
0
173
1
174
0
175
1
176
1
 91
1
178
0
145
0.0
170
1
171
1
172
0
173
0
174
0
175
1
176
1
 91
33
178
0
145
0.0
301
CELL_VALUE
 90
4
  1
Product
304
ACVALUE_END
170
5
140
0.145
171
1
172
0
173
0
174
0
175
1
176
1
 91
33
178
0
145
0.0
301
CELL_VALUE
 90
4
  1
Port
304
ACVALUE_END
170
5
140
0.145
171
1
172
0
173
0
174
0
175
1
176
1
 91
33
178
0
145
0.0
301
CELL_VALUE
 90
4
  1
Size
304
ACVALUE_END
170
5
140
0.145
171
1
172
0
173
0
174
0
175
1
176
1
 91
33
178
0
145
0.0
301
CELL_VALUE
 90
4
  1
PK3
304
ACVALUE_END
170
5
140
0.125
171
1
172
0
173
0
174
0
175
1
176
1
 91
33
178
0
145
0.0
301
CELL_VALUE
 90
4
  1
Port 4
304
ACVALUE_END
170
5
140
0.125
171
1
172
0
173
0
174
0
175
1
176
1
 91
33
178
0
145
0.0
301
CELL_VALUE
 90
4
  1
SAE 6
304
ACVALUE_END
170
5
140
0.125
  0
MTEXT
  5
281
100
AcDbEntity
  8
0
100
AcDbMText
 62
2
  6
CONTINUOUS
  7
STANDARD
 71
1
 72
1
 10
0.52125
 20
5.75995
 30
0.0
 11
1.0
 21
0.0
 31
0.0
 44
0.6
  3
Notes\P \P1. Important: Carefully consider\P   the maximum system pressure. The\P   pressure rating of the manifold is\P   dependent on the manifold material,\P   with the port type/size a secondary\P   consideration. Manifolds\P   constructed of alu
  3
minum are not\P   rated for pressures higher than\P   3000 psi (210 bar), regardless of\P   the port type/size specified.\P2. Items without balloons are\P   shipped loose.\P3. Body Features: Reducer/reliever\P   on B with reverse flow check and\P   p
  1
ort 4 external.
 40
0.1
 41
3.04
  0
LINE
  5
282
100
AcDbEntity
  8
0
100
AcDbLine
 62
7
  6
CONTINUOUS
 10
0.30125
 20
0.30125
 11
0.30125
 21
16.69875
  0
LINE
  5
283
100
AcDbEntity
  8
0
100
AcDbLine
 62
7
  6
CONTINUOUS
 10
0.30125
 20
0.30125
 11
21.69875
 21
0.30125
  0
LINE
  5
284
100
AcDbEntity
  8
0
100
AcDbLine
 62
7
  6
CONTINUOUS
 10
0.30125
 20
16.69875
 11
21.69875
 21
16.69875
  0
LINE
  5
285
100
AcDbEntity
  8
0
100
AcDbLine
 62
7
  6
CONTINUOUS
 10
21.69875
 20
0.30125
 11
21.69875
 21
16.69875
  0
LINE
  5
286
100
AcDbEntity
  8
0
100
AcDbLine
 62
7
  6
CONTINUOUS
 10
7.1666565464
 20
9.3462466061
 11
7.1578830947
 21
9.3313713523
  0
LINE
  5
287
100
AcDbEntity
  8
0
100
AcDbLine
 62
7
  6
CONTINUOUS
 10
7.0955543694
 20
8.1903352789
 11
7.0811517426
 21
8.2249388861
  0
LINE
  5
288
100
AcDbEntity
  8
0
100
AcDbLine
 62
7
  6
CONTINUOUS
 10
7.542647262
 20
9.9188402128
 11
7.542647262
 21
6.5380996204
  0
LINE
  5
289
100
AcDbEntity
  8
0
100
AcDbLine
 62
7
  6
CONTINUOUS
 10
8.4342781193
 20
10.7800895363
 11
7.542647262
 21
9.9188402128
  0
LINE
  5
28A
100
AcDbEntity
  8
0
100
AcDbLine
 62
7
  6
CONTINUOUS
 10
14.104496447
 20
6.7290068342
 11
14.0665293608
 21
6.723333443
  0
LINE
  5
28B
100
AcDbEntity
  8
0
100
AcDbLine
 62
7
  6
CONTINUOUS
 10
7.542647262
 20
6.5380996204
 11
12.130795439
 21
6.2199104637
  0
LINE
  5
28C
100
AcDbEntity
  8
0
100
AcDbLine
 62
7
  6
CONTINUOUS
 10
12.2412524295
 20
6.4371543052
 11
14.1731040989
 21
6.3031799369
  0
LINE
  5
28D
100
AcDbEntity
  8
0
100
AcDbLine
 62
7
  6
CONTINUOUS
 10
14.0665293608
 20
6.723333443
 11
12.1346776914
 21
6.8573078113
  0
LINE
  5
28E
100
AcDbEntity
  8
0
100
AcDbLine
 62
4
  6
CONTINUOUS
 10
14.4368198592
 20
7.1866851326
 11
14.4458785183
 21
7.1869832744
  0
LINE
  5
28F
100
AcDbEntity
  8
0
100
AcDbLine
 62
7
  6
CONTINUOUS
 10
7.542647262
 20
8.0554070954
 11
7.1516687186
 21
8.0825215494
  0
LINE
  5
290
100
AcDbEntity
  8
0
100
AcDbLine
 62
7
  6
CONTINUOUS
 10
7.542647262
 20
8.0667595326
 11
7.1415274194
 21
8.0945772881
  0
LINE
  5
291
100
AcDbEntity
  8
0
100
AcDbLine
 62
4
  6
CONTINUOUS
 10
14.4458785183
 20
7.4489906714
 11
14.4096438817
 21
7.4562499557
  0
LINE
  5
292
100
AcDbEntity
  8
0
100
AcDbLine
 62
7
  6
CONTINUOUS
 10
13.0224262963
 20
10.4619003796
 11
12.130795439
 21
9.600651056
  0
LINE
  5
293
100
AcDbEntity
  8
0
100
AcDbLine
 62
7
  6
CONTINUOUS
 10
14.104496447
 20
8.8424526674
 11
14.0665293608
 21
8.8367792761
  0
LINE
  5
294
100
AcDbEntity
  8
0
100
AcDbLine
 62
7
  6
CONTINUOUS
 10
7.542647262
 20
8.5370804033
 11
7.0548935102
 21
8.5709062409
  0
LINE
  5
295
100
AcDbEntity
  8
0
100
AcDbLine
 62
7
  6
CONTINUOUS
 10
7.542647262
 20
8.5807833674
 11
7.0548935102
 21
8.614609205
  0
LINE
  5
296
100
AcDbEntity
  8
0
100
AcDbLine
 62
7
  6
CONTINUOUS
 10
14.3084138697
 20
8.2774382026
 11
14.2864506827
 21
8.2789613548
  0
LINE
  5
297
100
AcDbEntity
  8
0
100
AcDbLine
 62
7
  6
CONTINUOUS
 10
12.2801338747
 20
9.6541038833
 11
12.87257018
 21
10.226353445
  0
LINE
  5
298
100
AcDbEntity
  8
0
100
AcDbLine
 62
7
  6
CONTINUOUS
 10
14.3177531898
 20
8.3468296613
 11
14.2872676197
 21
8.3489438428
  0
LINE
  5
299
100
AcDbEntity
  8
0
100
AcDbLine
 62
7
  6
CONTINUOUS
 10
7.542647262
 20
9.2304842729
 11
7.1415274194
 21
9.2583020284
  0
LINE
  5
29A
100
AcDbEntity
  8
0
100
AcDbLine
 62
7
  6
CONTINUOUS
 10
7.542647262
 20
9.2628347997
 11
7.1516687186
 21
9.2899492538
  0
LINE
  5
29B
100
AcDbEntity
  8
0
100
AcDbLine
 62
7
  6
CONTINUOUS
 10
14.0665293608
 20
8.8367792761
 11
12.1346776914
 21
8.9707536444
  0
LINE
  5
29C
100
AcDbEntity
  8
0
100
AcDbLine
 62
7
  6
CONTINUOUS
 10
7.542647262
 20
9.4422148344
 11
7.3249365371
 21
9.4573131245
  0
LINE
  5
29D
100
AcDbEntity
  8
0
100
AcDbLine
 62
7
  6
CONTINUOUS
 10
12.130795439
 20
6.2199104637
 11
12.130795439
 21
9.600651056
  0
LINE
  5
29E
100
AcDbEntity
  8
0
100
AcDbLine
 62
7
  6
CONTINUOUS
 10
12.1346776914
 20
6.8573078113
 11
12.1346776914
 21
8.9707536444
  0
LINE
  5
29F
100
AcDbEntity
  8
0
100
AcDbLine
 62
7
  6
CONTINUOUS
 10
12.130795439
 20
9.600651056
 11
7.542647262
 21
9.9188402128
  0
LINE
  5
2A0
100
AcDbEntity
  8
0
100
AcDbLine
 62
7
  6
CONTINUOUS
 10
14.2119855441
 20
9.520129515
 11
12.2801338747
 21
9.6541038833
  0
LINE
  5
2A1
100
AcDbEntity
  8
0
100
AcDbLine
 62
7
  6
CONTINUOUS
 10
14.2119855441
 20
9.520129515
 11
14.8044218494
 21
10.0923790767
  0
LINE
  5
2A2
100
AcDbEntity
  8
0
100
AcDbLine
 62
7
  6
CONTINUOUS
 10
14.2419292465
 20
9.4881092098
 11
14.8343655518
 21
10.0603587715
  0
LINE
  5
2A3
100
AcDbEntity
  8
0
100
AcDbLine
 62
4
  6
CONTINUOUS
 10
14.3048222354
 20
9.3279036417
 11
14.2685875988
 21
9.2929036684
  0
LINE
  5
2A4
100
AcDbEntity
  8
0
100
AcDbLine
 62
7
  6
CONTINUOUS
 10
14.8044218494
 20
10.0923790767
 11
12.87257018
 21
10.226353445
  0
LINE
  5
2A5
100
AcDbEntity
  8
0
100
AcDbLine
 62
7
  6
CONTINUOUS
 10
12.9114516253
 20
10.2441564969
 11
14.8433032947
 21
10.1101821286
  0
LINE
  5
2A6
100
AcDbEntity
  8
0
100
AcDbLine
 62
7
  6
CONTINUOUS
 10
13.0224262963
 20
10.2364603773
 11
13.0224262963
 21
10.4619003796
  0
LINE
  5
2A7
100
AcDbEntity
  8
0
100
AcDbLine
 62
7
  6
CONTINUOUS
 10
13.0224262963
 20
10.4619003796
 11
8.4342781193
 21
10.7800895363
  0
LINE
  5
2A8
100
AcDbEntity
  8
0
100
AcDbLine
 62
7
  6
CONTINUOUS
 10
12.3480360917
 20
6.4297488331
 11
12.130795439
 21
6.2199104637
  0
LINE
  5
2A9
100
AcDbEntity
  8
0
100
AcDbLine
 62
7
  6
CONTINUOUS
 10
14.3048996242
 20
8.4039206659
 11
14.3047070724
 21
8.4037390814
  0
LINE
  5
2AA
100
AcDbEntity
  8
0
100
AcDbLine
 62
4
  6
CONTINUOUS
 10
14.4156829885
 20
7.1578166307
 11
14.4126634341
 21
7.1633518164
  0
LINE
  5
2AB
100
AcDbEntity
  8
0
100
AcDbLine
 62
4
  6
CONTINUOUS
 10
14.4307807534
 20
7.1977555071
 11
14.4368198592
 21
7.1866851326
  0
LINE
  5
2AC
100
AcDbEntity
  8
0
100
AcDbLine
 62
4
  6
CONTINUOUS
 10
14.4217220932
 20
7.2312647703
 11
14.4247416477
 21
7.2257295846
  0
LINE
  5
2AD
100
AcDbEntity
  8
0
100
AcDbLine
 62
4
  6
CONTINUOUS
 10
14.4187025409
 20
7.3635777308
 11
14.4217220932
 21
7.3580425431
  0
LINE
  5
2AE
100
AcDbEntity
  8
0
100
AcDbLine
 62
7
  6
CONTINUOUS
 10
14.3047070724
 20
8.1323139081
 11
14.3042074151
 21
8.1318416739
  0
LINE
  5
2AF
100
AcDbEntity
  8
0
100
AcDbLine
 62
7
  6
CONTINUOUS
 10
14.3042111011
 20
8.1318435734
 11
14.2887171956
 21
8.1174234835
  0
LINE
  5
2B0
100
AcDbEntity
  8
0
100
AcDbLine
 62
7
  6
CONTINUOUS
 10
14.3313473948
 20
8.5231370347
 11
14.3179923105
 21
8.5395578087
  0
LINE
  5
2B1
100
AcDbEntity
  8
0
100
AcDbLine
 62
4
  6
CONTINUOUS
 10
14.4368198592
 20
7.389529569
 11
14.4428589652
 21
7.3784591948
  0
LINE
  5
2B2
100
AcDbEntity
  8
0
100
AcDbLine
 62
7
  6
CONTINUOUS
 10
14.0665293608
 20
6.723333443
 11
14.0665293608
 21
8.8367792761
  0
LINE
  5
2B3
100
AcDbEntity
  8
0
100
AcDbLine
 62
7
  6
CONTINUOUS
 10
14.2419292465
 20
9.4881092098
 11
14.2119855441
 21
9.520129515
  0
LINE
  5
2B4
100
AcDbEntity
  8
0
100
AcDbLine
 62
4
  6
CONTINUOUS
 10
14.2685875988
 20
9.2929036684
 11
14.2957635762
 21
9.2599906878
  0
LINE
  5
2B5
100
AcDbEntity
  8
0
100
AcDbLine
 62
4
  6
CONTINUOUS
 10
14.4126634341
 20
7.1633518164
 11
14.4096438817
 21
7.1773388556
  0
LINE
  5
2B6
100
AcDbEntity
  8
0
100
AcDbLine
 62
4
  6
CONTINUOUS
 10
14.4247416477
 20
7.2257295846
 11
14.4307807534
 21
7.1977555071
  0
LINE
  5
2B7
100
AcDbEntity
  8
0
100
AcDbLine
 62
4
  6
CONTINUOUS
 10
14.4126634341
 20
7.2985814406
 11
14.4096438817
 21
7.3125684799
  0
LINE
  5
2B8
100
AcDbEntity
  8
0
100
AcDbLine
 62
7
  6
CONTINUOUS
 10
14.104496447
 20
6.7290068342
 11
14.104496447
 21
8.8424526674
  0
LINE
  5
2B9
100
AcDbEntity
  8
0
100
AcDbLine
 62
4
  6
CONTINUOUS
 10
14.2957635762
 20
9.2599906878
 11
14.2957635762
 21
9.3360573514
  0
LINE
  5
2BA
100
AcDbEntity
  8
0
100
AcDbLine
 62
4
  6
CONTINUOUS
 10
14.4338003057
 20
7.3866129042
 11
14.4368198592
 21
7.389529569
  0
LINE
  5
2BB
100
AcDbEntity
  8
0
100
AcDbLine
 62
4
  6
CONTINUOUS
 10
14.4156829885
 20
7.3606610671
 11
14.4187025409
 21
7.3635777308
  0
LINE
  5
2BC
100
AcDbEntity
  8
0
100
AcDbLine
 62
4
  6
CONTINUOUS
 10
14.4156829885
 20
7.2254314428
 11
14.4217220932
 21
7.2312647703
  0
LINE
  5
2BD
100
AcDbEntity
  8
0
100
AcDbLine
 62
4
  6
CONTINUOUS
 10
14.4217220932
 20
7.3580425431
 11
14.4247416477
 21
7.3440555059
  0
LINE
  5
2BE
100
AcDbEntity
  8
0
100
AcDbLine
 62
4
  6
CONTINUOUS
 10
14.4428589652
 20
7.3784591948
 11
14.4458785183
 21
7.3644721563
  0
LINE
  5
2BF
100
AcDbEntity
  8
0
100
AcDbLine
 62
4
  6
CONTINUOUS
 10
14.4096438817
 20
6.873072201
 11
14.4096438817
 21
6.9575907162
  0
LINE
  5
2C0
100
AcDbEntity
  8
0
100
AcDbLine
 62
4
  6
CONTINUOUS
 10
14.4096438817
 20
7.1773388556
 11
14.4096438817
 21
7.1942425587
  0
LINE
  5
2C1
100
AcDbEntity
  8
0
100
AcDbLine
 62
4
  6
CONTINUOUS
 10
14.4096438817
 20
7.3125684799
 11
14.4096438817
 21
7.3294721829
  0
LINE
  5
2C2
100
AcDbEntity
  8
0
100
AcDbLine
 62
4
  6
CONTINUOUS
 10
14.4247416477
 20
7.3271518028
 11
14.4247416477
 21
7.3440555059
  0
LINE
  5
2C3
100
AcDbEntity
  8
0
100
AcDbLine
 62
4
  6
CONTINUOUS
 10
14.4277612
 20
7.042705515
 11
14.4277612
 21
7.0934166241
  0
LINE
  5
2C4
100
AcDbEntity
  8
0
100
AcDbLine
 62
4
  6
CONTINUOUS
 10
14.4338003057
 20
7.4542277163
 11
14.4338003057
 21
7.5049388255
  0
LINE
  5
2C5
100
AcDbEntity
  8
0
100
AcDbLine
 62
4
  6
CONTINUOUS
 10
14.4458785183
 20
7.3644721563
 11
14.4458785183
 21
7.3475684532
  0
LINE
  5
2C6
100
AcDbEntity
  8
0
100
AcDbLine
 62
4
  6
CONTINUOUS
 10
14.4458785183
 20
7.1869832744
 11
14.4458785183
 21
7.2545980866
  0
LINE
  5
2C7
100
AcDbEntity
  8
0
100
AcDbLine
 62
4
  6
CONTINUOUS
 10
14.4096438817
 20
7.3294721829
 11
14.4126634341
 21
7.3492925497
  0
LINE
  5
2C8
100
AcDbEntity
  8
0
100
AcDbLine
 62
4
  6
CONTINUOUS
 10
14.4247416477
 20
7.3440555059
 11
14.4277612
 21
7.3638758726
  0
LINE
  5
2C9
100
AcDbEntity
  8
0
100
AcDbLine
 62
4
  6
CONTINUOUS
 10
14.4096438817
 20
7.1942425587
 11
14.4126634341
 21
7.2140629255
  0
LINE
  5
2CA
100
AcDbEntity
  8
0
100
AcDbLine
 62
4
  6
CONTINUOUS
 10
14.4458785183
 20
7.3475684532
 11
14.4428589652
 21
7.3277480857
  0
LINE
  5
2CB
100
AcDbEntity
  8
0
100
AcDbLine
 62
4
  6
CONTINUOUS
 10
14.4126634341
 20
7.3492925497
 11
14.4156829885
 21
7.3606610671
  0
LINE
  5
2CC
100
AcDbEntity
  8
0
100
AcDbLine
 62
4
  6
CONTINUOUS
 10
14.4277612
 20
7.3638758726
 11
14.4338003057
 21
7.3866129042
  0
LINE
  5
2CD
100
AcDbEntity
  8
0
100
AcDbLine
 62
4
  6
CONTINUOUS
 10
14.4428589652
 20
7.3277480857
 11
14.439839412
 21
7.3163795696
  0
LINE
  5
2CE
100
AcDbEntity
  8
0
100
AcDbLine
 62
4
  6
CONTINUOUS
 10
14.4126634341
 20
7.2140629255
 11
14.4156829885
 21
7.2254314428
  0
LINE
  5
2CF
100
AcDbEntity
  8
0
100
AcDbLine
 62
4
  6
CONTINUOUS
 10
14.4096438817
 20
7.4562499557
 11
14.4458785183
 21
7.5335091866
  0
LINE
  5
2D0
100
AcDbEntity
  8
0
100
AcDbLine
 62
4
  6
CONTINUOUS
 10
14.4096438817
 20
6.9153314586
 11
14.4458785183
 21
6.950331432
  0
LINE
  5
2D1
100
AcDbEntity
  8
0
100
AcDbLine
 62
7
  6
CONTINUOUS
 10
14.9717983513
 20
9.6802020256
 11
14.9717983513
 21
7.5667561925
  0
LINE
  5
2D2
100
AcDbEntity
  8
0
100
AcDbLine
 62
7
  6
CONTINUOUS
 10
14.8343655518
 20
6.92109965
 11
14.2419292465
 21
6.3488500884
  0
LINE
  5
2D3
100
AcDbEntity
  8
0
100
AcDbLine
 62
7
  6
CONTINUOUS
 10
14.2419292465
 20
6.3488500884
 11
14.2406305631
 21
6.3476187574
  0
LINE
  5
2D4
100
AcDbEntity
  8
0
100
AcDbLine
 62
7
  6
CONTINUOUS
 10
14.2106124611
 20
6.3196808798
 11
14.2406319029
 21
6.3476198039
  0
LINE
  5
2D5
100
AcDbEntity
  8
0
100
AcDbLine
 62
7
  6
CONTINUOUS
 10
14.8343655518
 20
10.0603587715
 11
14.8044218494
 21
10.0923790767
  0
LINE
  5
2D6
100
AcDbEntity
  8
0
100
AcDbLine
 62
7
  6
CONTINUOUS
 10
14.8781748603
 20
10.0886616206
 11
14.9040503361
 21
10.0568463708
  0
ARC
  5
2D7
100
AcDbEntity
  8
0
100
AcDbCircle
 62
7
  6
CONTINUOUS
 10
9.6363355428
 20
8.5926456551
 40
2.5815354666
100
AcDbArc
 50
179.5125250425
 51
179.99951577
  0
ARC
  5
2D8
100
AcDbEntity
  8
0
100
AcDbCircle
 62
7
  6
CONTINUOUS
 10
9.5725085532
 20
8.5925966732
 40
2.5177084779
100
AcDbArc
 50
179.9983888061
 51
180.4936177515
  0
ARC
  5
2D9
100
AcDbEntity
  8
0
100
AcDbCircle
 62
7
  6
CONTINUOUS
 10
8.2310954473
 20
8.9266003147
 40
1.1389400836
100
AcDbArc
 50
161.3961041614
 51
163.067960475
  0
ARC
  5
2DA
100
AcDbEntity
  8
0
100
AcDbCircle
 62
7
  6
CONTINUOUS
 10
7.8760216352
 20
8.5159879012
 40
0.8456820998
100
AcDbArc
 50
200.1074676161
 51
202.6225491273
  0
ARC
  5
2DB
100
AcDbEntity
  8
0
100
AcDbCircle
 62
7
  6
CONTINUOUS
 10
10.5036673316
 20
7.3641898783
 40
0.3583511745
100
AcDbArc
 50
174.0466713454
 51
180.010657633
  0
ARC
  5
2DC
100
AcDbEntity
  8
0
100
AcDbCircle
 62
7
  6
CONTINUOUS
 10
10.3399207372
 20
7.3266517629
 40
0.2674313668
100
AcDbArc
 50
135.2503197369
 51
135.4284365581
  0
ARC
  5
2DD
100
AcDbEntity
  8
0
100
AcDbCircle
 62
7
  6
CONTINUOUS
 10
11.2475297707
 20
7.1349053466
 40
0.1174205127
100
AcDbArc
 50
80.0541112554
 51
86.0265049793
  0
ARC
  5
2DE
100
AcDbEntity
  8
0
100
AcDbCircle
 62
7
  6
CONTINUOUS
 10
11.2638030815
 20
7.1166660604
 40
0.1174198928
100
AcDbArc
 50
260.0540887147
 51
266.0264977178
  0
SPLINE
  5
2DF
100
AcDbEntity
  8
0
100
AcDbSpline
 62
7
  6
CONTINUOUS
 70
0
 71
3
 72
46
 73
42
 74
0
 42
0.0000001
 43
0.0000001
 44
0.0000000001
 40
0.0
 40
0.0
 40
0.0
 40
0.0
 40
0.0076469463
 40
0.0158878905
 40
0.0247388408
 40
0.0342094977
 40
0.0443048081
 40
0.0550251757
 40
0.0783212729
 40
0.1040457503
 40
0.132099304
 40
0.1623457016
 40
0.1946285822
 40
0.2287651689
 40
0.2645613017
 40
0.3018022301
 40
0.3402643593
 40
0.379712191
 40
0.4199022121
 40
0.460586093
 40
0.5015099585
 40
0.5424192891
 40
0.5830593564
 40
0.6231766699
 40
0.6625239025
 40
0.70085737
 40
0.7379440895
 40
0.7735601678
 40
0.8074940901
 40
0.8395521789
 40
0.8695539927
 40
0.8973472865
 40
0.9227983461
 40
0.9346159982
 40
0.9458158817
 40
0.9563915204
 40
0.9663399768
 40
0.9756645263
 40
0.9843729439
 40
0.9924781465
 40
1.0
 40
1.0
 40
1.0
 40
1.0
 10
14.3047070724
 20
8.4037390814
 30
0.0
 10
14.3044223452
 20
8.403464056
 30
0.0
 10
14.3038539742
 20
8.4028683428
 30
0.0
 10
14.3030337303
 20
8.4018838326
 30
0.0
 10
14.3022159389
 20
8.400777505
 30
0.0
 10
14.3014021761
 20
8.3995513525
 30
0.0
 10
14.3005940032
 20
8.3982072998
 30
0.0
 10
14.2994951873
 20
8.396204931
 30
0.0
 10
14.2981535341
 20
8.3934158929
 30
0.0
 10
14.2966274052
 20
8.3897276317
 30
0.0
 10
14.2951533502
 20
8.385633812
 30
0.0
 10
14.2937410427
 20
8.3811611782
 30
0.0
 10
14.2924006922
 20
8.3763389404
 30
0.0
 10
14.2911405652
 20
8.371198948
 30
0.0
 10
14.2899698914
 20
8.3657750694
 30
0.0
 10
14.2888958439
 20
8.3601032413
 30
0.0
 10
14.2879261828
 20
8.3542210116
 30
0.0
 10
14.2870670876
 20
8.3481674239
 30
0.0
 10
14.2863243863
 20
8.3419826238
 30
0.0
 10
14.2857031988
 20
8.3357076695
 30
0.0
 10
14.2852073007
 20
8.3293842272
 30
0.0
 10
14.2848405218
 20
8.3230542557
 30
0.0
 10
14.2846046702
 20
8.3167598286
 30
0.0
 10
14.2845019167
 20
8.3105426815
 30
0.0
 10
14.2845323617
 20
8.3044441425
 30
0.0
 10
14.2846961391
 20
8.2985046301
 30
0.0
 10
14.2849919185
 20
8.2927635755
 30
0.0
 10
14.2854175647
 20
8.2872590158
 30
0.0
 10
14.2859704778
 20
8.2820273805
 30
0.0
 10
14.2866462532
 20
8.2771032683
 30
0.0
 10
14.2874409949
 20
8.2725190401
 30
0.0
 10
14.2883484047
 20
8.2683048937
 30
0.0
 10
14.2892139382
 20
8.2650480726
 30
0.0
 10
14.289965171
 20
8.2626536947
 30
0.0
 10
14.2905389296
 20
8.2610116738
 30
0.0
 10
14.2911360826
 20
8.259481389
 30
0.0
 10
14.2917558383
 20
8.258065408
 30
0.0
 10
14.2923970393
 20
8.2567658888
 30
0.0
 10
14.2930586818
 20
8.2555847454
 30
0.0
 10
14.2937397058
 20
8.2545239443
 30
0.0
 10
14.2942237359
 20
8.2538745898
 30
0.0
 10
14.2944694125
 20
8.2535724865
 30
0.0
  0
SPLINE
  5
2E0
100
AcDbEntity
  8
0
100
AcDbSpline
 62
7
  6
CONTINUOUS
 70
0
 71
3
 72
10
 73
6
 74
0
 42
0.0000001
 43
0.0000001
 44
0.0000000001
 40
0.0
 40
0.0
 40
0.0
 40
0.0
 40
0.5192470648
 40
0.765083677
 40
1.0
 40
1.0
 40
1.0
 40
1.0
 10
14.3084138697
 20
8.398178938
 30
0.0
 10
14.3067781069
 20
8.3977015027
 30
0.0
 10
14.3043775852
 20
8.3969629707
 30
0.0
 10
14.3012741913
 20
8.3958952173
 30
0.0
 10
14.2997960979
 20
8.3953427509
 30
0.0
 10
14.2990785162
 20
8.3950609664
 30
0.0
  0
SPLINE
  5
2E1
100
AcDbEntity
  8
0
100
AcDbSpline
 62
7
  6
CONTINUOUS
 70
0
 71
3
 72
10
 73
6
 74
0
 42
0.0000001
 43
0.0000001
 44
0.0000000001
 40
0.0
 40
0.0
 40
0.0
 40
0.0
 40
0.2691257985
 40
0.5249858982
 40
1.0
 40
1.0
 40
1.0
 40
1.0
 10
14.2887171957
 20
8.1174235148
 30
0.0
 10
14.2882158762
 20
8.1169569944
 30
0.0
 10
14.2872133603
 20
8.1160725357
 30
0.0
 10
14.2852070082
 20
8.1145065312
 30
0.0
 10
14.2836294234
 20
8.1135051587
 30
0.0
 10
14.2825580377
 20
8.1129456054
 30
0.0
  0
SPLINE
  5
2E2
100
AcDbEntity
  8
0
100
AcDbSpline
 62
7
  6
CONTINUOUS
 70
0
 71
3
 72
52
 73
48
 74
0
 42
0.0000001
 43
0.0000001
 44
0.0000000001
 40
0.0
 40
0.0
 40
0.0
 40
0.0
 40
0.0075203838
 40
0.0156229017
 40
0.0243294855
 40
0.0336532888
 40
0.0436006528
 40
0.0541738528
 40
0.0653717822
 40
0.0771884111
 40
0.0896145227
 40
0.1026393262
 40
0.1162503075
 40
0.1304314546
 40
0.1604315816
 40
0.1924875546
 40
0.2264200337
 40
0.2620351487
 40
0.2991206069
 40
0.3374540777
 40
0.3768004856
 40
0.4169182829
 40
0.4575582648
 40
0.4984681593
 40
0.5393927267
 40
0.5800772566
 40
0.6202683879
 40
0.6597172448
 40
0.698180265
 40
0.7354228206
 40
0.7712193655
 40
0.8053582894
 40
0.8376409889
 40
0.8530303912
 40
0.8678905443
 40
0.882201566
 40
0.8959460001
 40
0.9091086692
 40
0.921675406
 40
0.9336335333
 40
0.9449746194
 40
0.9556936471
 40
0.9657879485
 40
0.9752580155
 40
0.9841089319
 40
0.9923508054
 40
1.0
 40
1.0
 40
1.0
 40
1.0
 10
14.3313457702
 20
8.5231387672
 30
0.0
 10
14.3319851235
 20
8.5223527063
 30
0.0
 10
14.3332448922
 20
8.5206633847
 30
0.0
 10
14.3350178922
 20
8.517903786
 30
0.0
 10
14.3367400578
 20
8.5148305582
 30
0.0
 10
14.3384088233
 20
8.5114488842
 30
0.0
 10
14.3400218948
 20
8.5077642445
 30
0.0
 10
14.3415766047
 20
8.5037824438
 30
0.0
 10
14.3430700832
 20
8.4995096831
 30
0.0
 10
14.3445001121
 20
8.4949530424
 30
0.0
 10
14.3458644582
 20
8.4901201242
 30
0.0
 10
14.3471607511
 20
8.4850187662
 30
0.0
 10
14.3483865756
 20
8.4796572251
 30
0.0
 10
14.3499540738
 20
8.4720295684
 30
0.0
 10
14.3517091595
 20
8.4619061348
 30
0.0
 10
14.3534686193
 20
8.4490912963
 30
0.0
 10
14.3549079131
 20
8.4354757779
 30
0.0
 10
14.3560160618
 20
8.4211498621
 30
0.0
 10
14.356786403
 20
8.4062082195
 30
0.0
 10
14.3572126708
 20
8.3907500231
 30
0.0
 10
14.3572926585
 20
8.3748776994
 30
0.0
 10
14.3570250006
 20
8.3586966944
 30
0.0
 10
14.3564119752
 20
8.342314335
 30
0.0
 10
14.3554571129
 20
8.3258394807
 30
0.0
 10
14.3541671141
 20
8.309381457
 30
0.0
 10
14.3525502897
 20
8.2930496112
 30
0.0
 10
14.3506175829
 20
8.2769523237
 30
0.0
 10
14.3483818663
 20
8.2611965002
 30
0.0
 10
14.3458580364
 20
8.2458866485
 30
0.0
 10
14.3430632043
 20
8.231124356
 30
0.0
 10
14.3400158195
 20
8.217007379
 30
0.0
 10
14.3367367782
 20
8.2036293492
 30
0.0
 10
14.3337841186
 20
8.1930072352
 30
0.0
 10
14.3313134724
 20
8.1849520433
 30
0.0
 10
14.3294461967
 20
8.1792456174
 30
0.0
 10
14.3275379066
 20
8.1737869976
 30
0.0
 10
14.3255917977
 20
8.1685852049
 30
0.0
 10
14.3236113666
 20
8.1636486791
 30
0.0
 10
14.3215999652
 20
8.1589856188
 30
0.0
 10
14.3195606751
 20
8.1546038824
 30
0.0
 10
14.3174968837
 20
8.1505104956
 30
0.0
 10
14.3154119928
 20
8.1467117765
 30
0.0
 10
14.3133092437
 20
8.1432137775
 30
0.0
 10
14.3111916721
 20
8.1400225367
 30
0.0
 10
14.3090631908
 20
8.137143137
 30
0.0
 10
14.3069279761
 20
8.1345805839
 30
0.0
 10
14.3054483358
 20
8.1330299137
 30
0.0
 10
14.3047070724
 20
8.1323139081
 30
0.0
  0
SPLINE
  5
2E3
100
AcDbEntity
  8
0
100
AcDbSpline
 62
7
  6
CONTINUOUS
 70
0
 71
3
 72
10
 73
6
 74
0
 42
0.0000001
 43
0.0000001
 44
0.0000000001
 40
0.0
 40
0.0
 40
0.0
 40
0.0
 40
0.4748392148
 40
0.7307319304
 40
1.0
 40
1.0
 40
1.0
 40
1.0
 10
14.312509272
 20
8.5448439321
 30
0.0
 10
14.3134932284
 20
8.5441422932
 30
0.0
 10
14.3149176414
 20
8.5429328463
 30
0.0
 10
14.3166886948
 20
8.5411042569
 30
0.0
 10
14.3175598673
 20
8.5400892425
 30
0.0
 10
14.3179922794
 20
8.5395575815
 30
0.0
  0
SPLINE
  5
2E4
100
AcDbEntity
  8
0
100
AcDbSpline
 62
7
  6
CONTINUOUS
 70
0
 71
3
 72
21
 73
17
 74
0
 42
0.0000001
 43
0.0000001
 44
0.0000000001
 40
0.0
 40
0.0
 40
0.0
 40
0.0
 40
0.127949356
 40
0.1917683072
 40
0.2554219795
 40
0.3188874259
 40
0.3821218816
 40
0.4450938811
 40
0.507774686
 40
0.5701523061
 40
0.6322342822
 40
0.694035198
 40
0.7555906536
 40
0.8169297289
 40
0.8781011141
 40
1.0
 40
1.0
 40
1.0
 40
1.0
 10
14.3177531898
 20
8.3468296613
 30
0.0
 10
14.3160355714
 20
8.3442266882
 30
0.0
 10
14.3135875889
 20
8.3402376337
 30
0.0
 10
14.3106870196
 20
8.3347268855
 30
0.0
 10
14.3087276852
 20
8.330503021
 30
0.0
 10
14.3070176967
 20
8.3261870379
 30
0.0
 10
14.3055880399
 20
8.3217870424
 30
0.0
 10
14.3044721006
 20
8.3173164184
 30
0.0
 10
14.3036878581
 20
8.3127966769
 30
0.0
 10
14.3032504843
 20
8.3082520292
 30
0.0
 10
14.3031519595
 20
8.3037091427
 30
0.0
 10
14.3033805817
 20
8.2991914266
 30
0.0
 10
14.3039072195
 20
8.2947175637
 30
0.0
 10
14.3047035949
 20
8.2902998058
 30
0.0
 10
14.3060779862
 20
8.2845011444
 30
0.0
 10
14.3074190813
 20
8.2802378472
 30
0.0
 10
14.3084138697
 20
8.2774382026
 30
0.0
  0
SPLINE
  5
2E5
100
AcDbEntity
  8
0
100
AcDbSpline
 62
7
  6
CONTINUOUS
 70
0
 71
3
 72
22
 73
18
 74
0
 42
0.0000001
 43
0.0000001
 44
0.0000000001
 40
0.0
 40
0.0
 40
0.0
 40
0.0
 40
0.1144112125
 40
0.1714406927
 40
0.2285164012
 40
0.2858749975
 40
0.343798144
 40
0.4026238152
 40
0.4626746644
 40
0.5242360877
 40
0.587479431
 40
0.6524681796
 40
0.7191536967
 40
0.7874131635
 40
0.857095979
 40
0.9280155798
 40
1.0
 40
1.0
 40
1.0
 40
1.0
 10
14.3084138697
 20
8.398178938
 30
0.0
 10
14.3074250448
 20
8.3962826314
 30
0.0
 10
14.3060837013
 20
8.3933611257
 30
0.0
 10
14.3047044547
 20
8.3893150642
 30
0.0
 10
14.3039066425
 20
8.3862069973
 30
0.0
 10
14.3033793121
 20
8.3830242004
 30
0.0
 10
14.3031514023
 20
8.3797724555
 30
0.0
 10
14.3032524345
 20
8.3764635356
 30
0.0
 10
14.3036939119
 20
8.3731140011
 30
0.0
 10
14.3044827468
 20
8.3697444376
 30
0.0
 10
14.3056028702
 20
8.3663734846
 30
0.0
 10
14.3070352061
 20
8.3630193778
 30
0.0
 10
14.3087465228
 20
8.3596938447
 30
0.0
 10
14.3107057308
 20
8.3564062664
 30
0.0
 10
14.3128786499
 20
8.3531608591
 30
0.0
 10
14.3152348189
 20
8.3499596127
 30
0.0
 10
14.3168987704
 20
8.3478691449
 30
0.0
 10
14.3177531898
 20
8.3468296613
 30
0.0
  0
SPLINE
  5
2E6
100
AcDbEntity
  8
0
100
AcDbSpline
 62
7
  6
CONTINUOUS
 70
0
 71
3
 72
23
 73
19
 74
0
 42
0.0000001
 43
0.0000001
 44
0.0000000001
 40
0.0
 40
0.0
 40
0.0
 40
0.0
 40
0.0685153472
 40
0.1320387047
 40
0.1911192258
 40
0.2464727492
 40
0.299019758
 40
0.3498715132
 40
0.4002565656
 40
0.4514401452
 40
0.5046231317
 40
0.5608596156
 40
0.6210278364
 40
0.6858303182
 40
0.7557947317
 40
0.8313053425
 40
0.912641959
 40
1.0
 40
1.0
 40
1.0
 40
1.0
 10
14.3042074112
 20
8.1318401722
 30
0.0
 10
14.3035168052
 20
8.1311976946
 30
0.0
 10
14.3021362025
 20
8.1300110281
 30
0.0
 10
14.2999833242
 20
8.1284907164
 30
0.0
 10
14.2978332784
 20
8.127304175
 30
0.0
 10
14.2956888283
 20
8.1264564455
 30
0.0
 10
14.2935535539
 20
8.1259525381
 30
0.0
 10
14.2914329262
 20
8.1257955997
 30
0.0
 10
14.2893337187
 20
8.1259875611
 30
0.0
 10
14.2872635202
 20
8.1265280559
 30
0.0
 10
14.2852285936
 20
8.127413075
 30
0.0
 10
14.2832327083
 20
8.1286372783
 30
0.0
 10
14.2812782653
 20
8.1301963765
 30
0.0
 10
14.2793675205
 20
8.1320870015
 30
0.0
 10
14.2775020182
 20
8.1343051198
 30
0.0
 10
14.2756835546
 20
8.1368468347
 30
0.0
 10
14.2739145721
 20
8.1397082483
 30
0.0
 10
14.2728099214
 20
8.1417526328
 30
0.0
 10
14.2722642401
 20
8.1428243632
 30
0.0
  0
SPLINE
  5
2E7
100
AcDbEntity
  8
0
100
AcDbSpline
 62
7
  6
CONTINUOUS
 70
0
 71
3
 72
11
 73
7
 74
0
 42
0.0000001
 43
0.0000001
 44
0.0000000001
 40
0.0
 40
0.0
 40
0.0
 40
0.0
 40
0.2710166425
 40
0.5278466563
 40
0.7707291188
 40
1.0
 40
1.0
 40
1.0
 40
1.0
 10
14.2981629941
 20
8.5166313953
 30
0.0
 10
14.2986917606
 20
8.5173897321
 30
0.0
 10
14.2997495209
 20
8.5188475623
 30
0.0
 10
14.30138369
 20
8.5209081976
 30
0.0
 10
14.3030206608
 20
8.5227813811
 30
0.0
 10
14.3041445569
 20
8.5239364686
 30
0.0
 10
14.3047070724
 20
8.5244798168
 30
0.0
  0
SPLINE
  5
2E8
100
AcDbEntity
  8
0
100
AcDbSpline
 62
7
  6
CONTINUOUS
 70
0
 71
3
 72
16
 73
12
 74
0
 42
0.0000001
 43
0.0000001
 44
0.0000000001
 40
0.0
 40
0.0
 40
0.0
 40
0.0
 40
0.0425259927
 40
0.0879891141
 40
0.1878777784
 40
0.2995669967
 40
0.4222936446
 40
0.5549207544
 40
0.6962096377
 40
0.844939986
 40
1.0
 40
1.0
 40
1.0
 40
1.0
 10
14.289735283
 20
8.2690648734
 30
0.0
 10
14.2899455748
 20
8.2692679997
 30
0.0
 10
14.2903972202
 20
8.2696713673
 30
0.0
 10
14.2914151241
 20
8.2704677028
 30
0.0
 10
14.2928988633
 20
8.2714337143
 30
0.0
 10
14.2949241473
 20
8.272524093
 30
0.0
 10
14.2972181312
 20
8.2735787496
 30
0.0
 10
14.299748267
 20
8.2745981366
 30
0.0
 10
14.3024825837
 20
8.2755830851
 30
0.0
 10
14.3053908481
 20
8.276535805
 30
0.0
 10
14.3073905006
 20
8.2771395086
 30
0.0
 10
14.3084138697
 20
8.2774382026
 30
0.0
  0
LINE
  5
2E9
100
AcDbEntity
  8
0
100
AcDbLine
 62
7
  6
CONTINUOUS
 10
14.2885082605
 20
8.2676189471
 11
14.289735283
 21
8.2690648734
  0
SPLINE
  5
2EA
100
AcDbEntity
  8
0
100
AcDbSpline
 62
7
  6
CONTINUOUS
 70
0
 71
3
 72
23
 73
19
 74
0
 42
0.0000001
 43
0.0000001
 44
0.0000000001
 40
0.0
 40
0.0
 40
0.0
 40
0.0
 40
0.0755448347
 40
0.1465719287
 40
0.2134163797
 40
0.2764979174
 40
0.3363349501
 40
0.3935642585
 40
0.4489415452
 40
0.5033038956
 40
0.5575373017
 40
0.6125357807
 40
0.6691522818
 40
0.7281578401
 40
0.7902250856
 40
0.8559240853
 40
0.9257260157
 40
1.0
 40
1.0
 40
1.0
 40
1.0
 10
14.3047070724
 20
8.5244798168
 30
0.0
 10
14.3052708326
 20
8.5250243674
 30
0.0
 10
14.3063979529
 20
8.5260473306
 30
0.0
 10
14.3081426869
 20
8.5274141962
 30
0.0
 10
14.3098858509
 20
8.5285629062
 30
0.0
 10
14.3116255871
 20
8.5294914282
 30
0.0
 10
14.3133602361
 20
8.5301974866
 30
0.0
 10
14.3150879033
 20
8.530678777
 30
0.0
 10
14.316806129
 20
8.5309341439
 30
0.0
 10
14.318512188
 20
8.5309625923
 30
0.0
 10
14.3202029477
 20
8.5307637333
 30
0.0
 10
14.3218751417
 20
8.5303377856
 30
0.0
 10
14.3235259078
 20
8.5296863219
 30
0.0
 10
14.3251531761
 20
8.5288116104
 30
0.0
 10
14.3267553127
 20
8.5277156325
 30
0.0
 10
14.3283309833
 20
8.5264000833
 30
0.0
 10
14.3298786393
 20
8.5248665598
 30
0.0
 10
14.3308595082
 20
8.5237366082
 30
0.0
 10
14.3313457702
 20
8.5231387672
 30
0.0
  0
SPLINE
  5
2EB
100
AcDbEntity
  8
0
100
AcDbSpline
 62
7
  6
CONTINUOUS
 70
0
 71
3
 72
54
 73
50
 74
0
 42
0.0000001
 43
0.0000001
 44
0.0000000001
 40
0.0
 40
0.0
 40
0.0
 40
0.0
 40
0.0085998103
 40
0.0180001676
 40
0.0282235617
 40
0.0392815939
 40
0.0511771357
 40
0.0639050202
 40
0.0774551895
 40
0.0918140484
 40
0.1069617048
 40
0.1228718945
 40
0.1568636749
 40
0.1935350427
 40
0.2325869968
 40
0.2736910268
 40
0.3164906914
 40
0.3606099653
 40
0.4056568974
 40
0.4512290347
 40
0.4969175226
 40
0.5423129589
 40
0.5870078998
 40
0.6306050881
 40
0.6727171202
 40
0.712977959
 40
0.7510401711
 40
0.7865893176
 40
0.8193414394
 40
0.8345948947
 40
0.8490630582
 40
0.8627255598
 40
0.8755670523
 40
0.887575493
 40
0.8987442344
 40
0.9090774085
 40
0.9185883639
 40
0.9273010182
 40
0.9352557134
 40
0.9425166289
 40
0.9491737145
 40
0.9553485576
 40
0.9611994571
 40
0.9669159142
 40
0.9727014112
 40
0.9787528529
 40
0.985238643
 40
0.9922888562
 40
1.0
 40
1.0
 40
1.0
 40
1.0
 10
14.3047070724
 20
8.2530546435
 30
0.0
 10
14.3050513823
 20
8.2533872214
 30
0.0
 10
14.3057379596
 20
8.2541190446
 30
0.0
 10
14.3067209012
 20
8.2553461578
 30
0.0
 10
14.3076994129
 20
8.2567472524
 30
0.0
 10
14.3086707083
 20
8.2583189393
 30
0.0
 10
14.3096322378
 20
8.2600576375
 30
0.0
 10
14.3105820437
 20
8.2619590625
 30
0.0
 10
14.3115179758
 20
8.2640188834
 30
0.0
 10
14.3124377426
 20
8.2662325107
 30
0.0
 10
14.3133392105
 20
8.268594775
 30
0.0
 10
14.3145406916
 20
8.2720109506
 30
0.0
 10
14.315972476
 20
8.2766142472
 30
0.0
 10
14.3175495485
 20
8.2825157412
 30
0.0
 10
14.3190061524
 20
8.2888548977
 30
0.0
 10
14.3203280366
 20
8.295571334
 30
0.0
 10
14.3215023334
 20
8.3026011744
 30
0.0
 10
14.3225177882
 20
8.3098773035
 30
0.0
 10
14.3233643409
 20
8.3173303034
 30
0.0
 10
14.3240341971
 20
8.3248889275
 30
0.0
 10
14.3245204584
 20
8.3324810117
 30
0.0
 10
14.3248190414
 20
8.3400339395
 30
0.0
 10
14.3249265099
 20
8.3474756147
 30
0.0
 10
14.3248426208
 20
8.3547348736
 30
0.0
 10
14.3245675813
 20
8.3617424945
 30
0.0
 10
14.3241049751
 20
8.3684315568
 30
0.0
 10
14.3234587468
 20
8.3747384889
 30
0.0
 10
14.3226361125
 20
8.3806032149
 30
0.0
 10
14.321791144
 20
8.3851788562
 30
0.0
 10
14.3210243969
 20
8.3885712506
 30
0.0
 10
14.320424038
 20
8.3909107813
 30
0.0
 10
14.3197862843
 20
8.3931009473
 30
0.0
 10
14.3191127916
 20
8.3951367352
 30
0.0
 10
14.3184051612
 20
8.3970133594
 30
0.0
 10
14.3176647557
 20
8.398726332
 30
0.0
 10
14.3168934556
 20
8.4002718856
 30
0.0
 10
14.316093026
 20
8.4016467413
 30
0.0
 10
14.3152649236
 20
8.4028478259
 30
0.0
 10
14.314410207
 20
8.4038722668
 30
0.0
 10
14.3135302861
 20
8.4047179804
 30
0.0
 10
14.3126259919
 20
8.4053826497
 30
0.0
 10
14.3116979673
 20
8.4058628084
 30
0.0
 10
14.3107481612
 20
8.4061541252
 30
0.0
 10
14.3097809893
 20
8.4062534727
 30
0.0
 10
14.3088022513
 20
8.4061597768
 30
0.0
 10
14.3078175378
 20
8.4058745279
 30
0.0
 10
14.3068303132
 20
8.4054019256
 30
0.0
 10
14.3058423118
 20
8.40474619
 30
0.0
 10
14.3052139206
 20
8.4042139709
 30
0.0
 10
14.3048996267
 20
8.4039216296
 30
0.0
  0
SPLINE
  5
2EC
100
AcDbEntity
  8
0
100
AcDbSpline
 62
7
  6
CONTINUOUS
 70
0
 71
3
 72
21
 73
17
 74
0
 42
0.0000001
 43
0.0000001
 44
0.0000000001
 40
0.0
 40
0.0
 40
0.0
 40
0.0
 40
0.1440116233
 40
0.2097382567
 40
0.2718308888
 40
0.3308518146
 40
0.3874745303
 40
0.4424803237
 40
0.496724235
 40
0.5510989573
 40
0.606492705
 40
0.663747331
 40
0.7236086458
 40
0.7867029793
 40
0.8535489412
 40
1.0
 40
1.0
 40
1.0
 40
1.0
 10
14.2944694125
 20
8.2535724865
 30
0.0
 10
14.2948316675
 20
8.2531270294
 30
0.0
 10
14.2954010296
 20
8.2525086962
 30
0.0
 10
14.2962335546
 20
8.2518128921
 30
0.0
 10
14.296849206
 20
8.2513912064
 30
0.0
 10
14.2974744978
 20
8.2510546797
 30
0.0
 10
14.2981089163
 20
8.2508042323
 30
0.0
 10
14.2987515424
 20
8.250640443
 30
0.0
 10
14.2994013285
 20
8.2505637789
 30
0.0
 10
14.300057068
 20
8.250574489
 30
0.0
 10
14.3007175607
 20
8.2506725263
 30
0.0
 10
14.3013816636
 20
8.250857681
 30
0.0
 10
14.3020484074
 20
8.2511291651
 30
0.0
 10
14.3027171248
 20
8.2514859924
 30
0.0
 10
14.3036382689
 20
8.2520929326
 30
0.0
 10
14.3042871092
 20
8.2526489902
 30
0.0
 10
14.3047070724
 20
8.2530546435
 30
0.0
  0
SPLINE
  5
2ED
100
AcDbEntity
  8
0
100
AcDbSpline
 62
7
  6
CONTINUOUS
 70
0
 71
3
 72
28
 73
24
 74
0
 42
0.0000001
 43
0.0000001
 44
0.0000000001
 40
0.0
 40
0.0
 40
0.0
 40
0.0
 40
0.0712707117
 40
0.1436257982
 40
0.2165555552
 40
0.2895594655
 40
0.3621279971
 40
0.4337587842
 40
0.5039567415
 40
0.5722398169
 40
0.6381435505
 40
0.7012258312
 40
0.7610719173
 40
0.7896617692
 40
0.8173024186
 40
0.8439524006
 40
0.8695734981
 40
0.8941300332
 40
0.9175910232
 40
0.9399284349
 40
0.9611198263
 40
0.9811475129
 40
1.0
 40
1.0
 40
1.0
 40
1.0
 10
7.0282016487
 20
8.618359537
 30
0.0
 10
7.0282016487
 20
8.6357200347
 30
0.0
 10
7.0286084813
 20
8.6707063372
 30
0.0
 10
7.0303902328
 20
8.7234299624
 30
0.0
 10
7.0333371321
 20
8.7765243487
 30
0.0
 10
7.0374268574
 20
8.8295950035
 30
0.0
 10
7.0426295121
 20
8.8822502903
 30
0.0
 10
7.0489061937
 20
8.9341001146
 30
0.0
 10
7.0562102159
 20
8.9847610529
 30
0.0
 10
7.0644870167
 20
9.033858382
 30
0.0
 10
7.0736746051
 20
9.0810294432
 30
0.0
 10
7.0837042573
 20
9.1259255234
 30
0.0
 10
7.0928346787
 20
9.1616932061
 30
0.0
 10
7.1005325412
 20
9.1889010342
 30
0.0
 10
7.1063804027
 20
9.2082252616
 30
0.0
 10
7.1123799542
 20
9.2267443091
 30
0.0
 10
7.1185197806
 20
9.2444240958
 30
0.0
 10
7.124788973
 20
9.2612319427
 30
0.0
 10
7.1311752616
 20
9.2771370686
 30
0.0
 10
7.1376673527
 20
9.2921101525
 30
0.0
 10
7.1442528911
 20
9.3061240065
 30
0.0
 10
7.1509196611
 20
9.3191527946
 30
0.0
 10
7.1555510575
 20
9.3274172777
 30
0.0
 10
7.1578839981
 20
9.3313727277
 30
0.0
  0
SPLINE
  5
2EE
100
AcDbEntity
  8
0
100
AcDbSpline
 62
7
  6
CONTINUOUS
 70
0
 71
3
 72
9
 73
5
 74
0
 42
0.0000001
 43
0.0000001
 44
0.0000000001
 40
0.0
 40
0.0
 40
0.0
 40
0.0
 40
0.4850642138
 40
1.0
 40
1.0
 40
1.0
 40
1.0
 10
7.1516687186
 20
8.0825215494
 30
0.0
 10
7.1498958892
 20
8.0843525227
 30
0.0
 10
7.1463840696
 20
8.0882673016
 30
0.0
 10
7.1431373677
 20
8.0924028701
 30
0.0
 10
7.1415274194
 20
8.0945772881
 30
0.0
  0
SPLINE
  5
2EF
100
AcDbEntity
  8
0
100
AcDbSpline
 62
7
  6
CONTINUOUS
 70
0
 71
3
 72
9
 73
5
 74
0
 42
0.0000001
 43
0.0000001
 44
0.0000000001
 40
0.0
 40
0.0
 40
0.0
 40
0.0
 40
0.5044673503
 40
1.0
 40
1.0
 40
1.0
 40
1.0
 10
7.1415274194
 20
8.0945772881
 30
0.0
 10
7.1330303878
 20
8.1103679319
 30
0.0
 10
7.1168174152
 20
8.1420147758
 30
0.0
 10
7.1021788877
 20
8.1744286083
 30
0.0
 10
7.0954072433
 20
8.1906889847
 30
0.0
  0
SPLINE
  5
2F0
100
AcDbEntity
  8
0
100
AcDbSpline
 62
7
  6
CONTINUOUS
 70
0
 71
3
 72
22
 73
18
 74
0
 42
0.0000001
 43
0.0000001
 44
0.0000000001
 40
0.0
 40
0.0
 40
0.0
 40
0.0
 40
0.0444944164
 40
0.0909393538
 40
0.1395587317
 40
0.1905379553
 40
0.2440243171
 40
0.3001166053
 40
0.3588736008
 40
0.4203072628
 40
0.4843959004
 40
0.5510815257
 40
0.6202826151
 40
0.6918950815
 40
0.7658017149
 40
0.8418771334
 40
1.0
 40
1.0
 40
1.0
 40
1.0
 10
7.1664151043
 20
9.3458371223
 30
0.0
 10
7.1678951316
 20
9.3483488788
 30
0.0
 10
7.1711118198
 20
9.3533716438
 30
0.0
 10
7.1765661352
 20
9.3607190386
 30
0.0
 10
7.1827582471
 20
9.3680228298
 30
0.0
 10
7.1896923733
 20
9.3752779422
 30
0.0
 10
7.1973685042
 20
9.3824785874
 30
0.0
 10
7.2057781257
 20
9.3896215559
 30
0.0
 10
7.2149082743
 20
9.3967019516
 30
0.0
 10
7.2247385473
 20
9.4037180142
 30
0.0
 10
7.2352449971
 20
9.4106663906
 30
0.0
 10
7.2463983414
 20
9.4175466304
 30
0.0
 10
7.258167157
 20
9.4243572261
 30
0.0
 10
7.2705171491
 20
9.4310988112
 30
0.0
 10
7.2834134885
 20
9.4377717588
 30
0.0
 10
7.3015234724
 20
9.4466942611
 30
0.0
 10
7.315466876
 20
9.4531099382
 30
0.0
 10
7.3249365371
 20
9.4573131245
 30
0.0
  0
SPLINE
  5
2F1
100
AcDbEntity
  8
0
100
AcDbSpline
 62
7
  6
CONTINUOUS
 70
0
 71
3
 72
23
 73
19
 74
0
 42
0.0000001
 43
0.0000001
 44
0.0000000001
 40
0.0
 40
0.0
 40
0.0
 40
0.0
 40
0.0422054472
 40
0.0875785823
 40
0.1360754938
 40
0.1876289237
 40
0.24215275
 40
0.2995436082
 40
0.3596845865
 40
0.4224449499
 40
0.487683794
 40
0.5552494873
 40
0.6249825983
 40
0.6967120159
 40
0.7702611798
 40
0.8454545562
 40
0.9221084144
 40
1.0
 40
1.0
 40
1.0
 40
1.0
 10
7.0811495857
 20
8.2249441973
 30
0.0
 10
7.0789924402
 20
8.2301270813
 30
0.0
 10
7.0748060919
 20
8.2410038075
 30
0.0
 10
7.0690634649
 20
8.2581734835
 30
0.0
 10
7.0636448654
 20
8.2767468173
 30
0.0
 10
7.0585651736
 20
8.2966734441
 30
0.0
 10
7.0538385925
 20
8.3178999761
 30
0.0
 10
7.0494779358
 20
8.3403689639
 30
0.0
 10
7.0454956481
 20
8.3640194945
 30
0.0
 10
7.041902391
 20
8.3887872719
 30
0.0
 10
7.0387085471
 20
8.4146049096
 30
0.0
 10
7.0359225465
 20
8.4414022046
 30
0.0
 10
7.0335526493
 20
8.4691059414
 30
0.0
 10
7.0316048729
 20
8.4976402201
 30
0.0
 10
7.0300850634
 20
8.5269276799
 30
0.0
 10
7.0289971138
 20
8.5568897538
 30
0.0
 10
7.0283446556
 20
8.5874420787
 30
0.0
 10
7.0282016487
 20
8.6079989448
 30
0.0
 10
7.0282016487
 20
8.618359537
 30
0.0
  0
SPLINE
  5
2F2
100
AcDbEntity
  8
0
100
AcDbSpline
 62
7
  6
CONTINUOUS
 70
0
 71
3
 72
11
 73
7
 74
0
 42
0.0000001
 43
0.0000001
 44
0.0000000001
 40
0.0
 40
0.0
 40
0.0
 40
0.0
 40
0.2449615194
 40
0.4915752079
 40
0.7422856151
 40
1.0
 40
1.0
 40
1.0
 40
1.0
 10
7.1516687186
 20
9.2899492538
 30
0.0
 10
7.1516118171
 20
9.29336569
 30
0.0
 10
7.1517963151
 20
9.3002311181
 30
0.0
 10
7.1530597493
 20
9.3105242371
 30
0.0
 10
7.1554002664
 20
9.3208114066
 30
0.0
 10
7.1576975905
 20
9.3275373797
 30
0.0
 10
7.1590340629
 20
9.330874505
 30
0.0
  0
SPLINE
  5
2F3
100
AcDbEntity
  8
0
100
AcDbSpline
 62
7
  6
CONTINUOUS
 70
0
 71
3
 72
9
 73
5
 74
0
 42
0.0000001
 43
0.0000001
 44
0.0000000001
 40
0.0
 40
0.0
 40
0.0
 40
0.0
 40
0.4914164864
 40
1.0
 40
1.0
 40
1.0
 40
1.0
 10
7.1590340629
 20
9.330874505
 30
0.0
 10
7.16005085
 20
9.3334133871
 30
0.0
 10
7.1623243484
 20
9.3385000449
 30
0.0
 10
7.1649781847
 20
9.3433985239
 30
0.0
 10
7.1664151043
 20
9.3458371223
 30
0.0
  0
SPLINE
  5
2F4
100
AcDbEntity
  8
0
100
AcDbSpline
 62
7
  6
CONTINUOUS
 70
0
 71
3
 72
21
 73
17
 74
0
 42
0.0000001
 43
0.0000001
 44
0.0000000001
 40
0.0
 40
0.0
 40
0.0
 40
0.0
 40
0.1231153359
 40
0.184837322
 40
0.2466817013
 40
0.3086598058
 40
0.3707815459
 40
0.4330548007
 40
0.4954844141
 40
0.558071395
 40
0.6208128987
 40
0.6837027994
 40
0.7467321283
 40
0.809889664
 40
0.8731630859
 40
1.0
 40
1.0
 40
1.0
 40
1.0
 10
7.0548935102
 20
8.614609205
 30
0.0
 10
7.0512368979
 20
8.6413699601
 30
0.0
 10
7.0467438577
 20
8.6816975641
 30
0.0
 10
7.0431622272
 20
8.7357035908
 30
0.0
 10
7.0417823755
 20
8.776393507
 30
0.0
 10
7.0418122361
 20
8.8171950618
 30
0.0
 10
7.0433378341
 20
8.85806326
 30
0.0
 10
7.0464243554
 20
8.8989432269
 30
0.0
 10
7.0511103954
 20
8.9397739086
 30
0.0
 10
7.0574039363
 20
8.9804917494
 30
0.0
 10
7.0652798612
 20
9.0210357203
 30
0.0
 10
7.0746837822
 20
9.0613516633
 30
0.0
 10
7.0855370267
 20
9.1013952886
 30
0.0
 10
7.097743134
 20
9.1411348169
 30
0.0
 10
7.1156905739
 20
9.1937258596
 30
0.0
 10
7.1308327658
 20
9.2326134404
 30
0.0
 10
7.1415274194
 20
9.2583020284
 30
0.0
  0
SPLINE
  5
2F5
100
AcDbEntity
  8
0
100
AcDbSpline
 62
7
  6
CONTINUOUS
 70
0
 71
3
 72
20
 73
16
 74
0
 42
0.0000001
 43
0.0000001
 44
0.0000000001
 40
0.0
 40
0.0
 40
0.0
 40
0.0
 40
0.1323645687
 40
0.1975638323
 40
0.2621124007
 40
0.3260314053
 40
0.3893506663
 40
0.4521100623
 40
0.5143552623
 40
0.5761378589
 40
0.6375115404
 40
0.698530557
 40
0.7592478208
 40
0.8799564522
 40
1.0
 40
1.0
 40
1.0
 40
1.0
 10
7.0818843216
 20
8.2252575431
 30
0.0
 10
7.0765657167
 20
8.2398168211
 30
0.0
 10
7.069265835
 20
8.2617920473
 30
0.0
 10
7.0610670107
 20
8.2913757002
 30
0.0
 10
7.0557761736
 20
8.3134341483
 30
0.0
 10
7.0513287467
 20
8.3354533222
 30
0.0
 10
7.0477351147
 20
8.3574158104
 30
0.0
 10
7.0449920601
 20
8.3793031489
 30
0.0
 10
7.0430919927
 20
8.4010990362
 30
0.0
 10
7.0420150458
 20
8.4227884211
 30
0.0
 10
7.0417367194
 20
8.4443588483
 30
0.0
 10
7.0422248355
 20
8.465800583
 30
0.0
 10
7.043845556
 20
8.4941501236
 30
0.0
 10
7.0475934146
 20
8.5292784016
 30
0.0
 10
7.0522280653
 20
8.557103757
 30
0.0
 10
7.0548935102
 20
8.5709062409
 30
0.0
  0
SPLINE
  5
2F6
100
AcDbEntity
  8
0
100
AcDbSpline
 62
7
  6
CONTINUOUS
 70
0
 71
3
 72
15
 73
11
 74
0
 42
0.0000001
 43
0.0000001
 44
0.0000000001
 40
0.0
 40
0.0
 40
0.0
 40
0.0
 40
0.127348315
 40
0.2538606239
 40
0.3795878599
 40
0.5046051181
 40
0.6290174391
 40
0.7529533757
 40
0.8765605793
 40
1.0
 40
1.0
 40
1.0
 40
1.0
 10
8.1086798297
 20
9.5173635146
 30
0.0
 10
8.1086798297
 20
9.5108651486
 30
0.0
 10
8.1080593643
 20
9.4979020928
 30
0.0
 10
8.1052533918
 20
9.4787068331
 30
0.0
 10
8.1006006115
 20
9.4599938764
 30
0.0
 10
8.0941430622
 20
9.4419382244
 30
0.0
 10
8.0859399484
 20
9.4247064007
 30
0.0
 10
8.0760660932
 20
9.4084575116
 30
0.0
 10
8.0646143391
 20
9.3933437937
 30
0.0
 10
8.0559917485
 20
9.3841114675
 30
0.0
 10
8.0514612384
 20
9.3797353228
 30
0.0
  0
SPLINE
  5
2F7
100
AcDbEntity
  8
0
100
AcDbSpline
 62
7
  6
CONTINUOUS
 70
0
 71
3
 72
15
 73
11
 74
0
 42
0.0000001
 43
0.0000001
 44
0.0000000001
 40
0.0
 40
0.0
 40
0.0
 40
0.0
 40
0.127348315
 40
0.2538606239
 40
0.3795878599
 40
0.5046051181
 40
0.6290174391
 40
0.7529533757
 40
0.8765605793
 40
1.0
 40
1.0
 40
1.0
 40
1.0
 10
11.9723833638
 20
9.2494147644
 30
0.0
 10
11.9723833638
 20
9.2429163984
 30
0.0
 10
11.9717628984
 20
9.2299533427
 30
0.0
 10
11.9689569259
 20
9.210758083
 30
0.0
 10
11.9643041456
 20
9.1920451262
 30
0.0
 10
11.9578465963
 20
9.1739894743
 30
0.0
 10
11.9496434825
 20
9.1567576506
 30
0.0
 10
11.9397696273
 20
9.1405087614
 30
0.0
 10
11.9283178732
 20
9.1253950436
 30
0.0
 10
11.9196952825
 20
9.1161627173
 30
0.0
 10
11.9151647725
 20
9.1117865726
 30
0.0
  0
SPLINE
  5
2F8
100
AcDbEntity
  8
0
100
AcDbSpline
 62
7
  6
CONTINUOUS
 70
0
 71
3
 72
15
 73
11
 74
0
 42
0.0000001
 43
0.0000001
 44
0.0000000001
 40
0.0
 40
0.0
 40
0.0
 40
0.0
 40
0.127348315
 40
0.2538606239
 40
0.3795878599
 40
0.5046051181
 40
0.6290174391
 40
0.7529533757
 40
0.8765605793
 40
1.0
 40
1.0
 40
1.0
 40
1.0
 10
8.1086798297
 20
6.8610673349
 30
0.0
 10
8.1086798297
 20
6.8545689689
 30
0.0
 10
8.1080593643
 20
6.8416059132
 30
0.0
 10
8.1052533918
 20
6.8224106534
 30
0.0
 10
8.1006006115
 20
6.8036976967
 30
0.0
 10
8.0941430622
 20
6.7856420447
 30
0.0
 10
8.0859399484
 20
6.7684102211
 30
0.0
 10
8.0760660932
 20
6.7521613319
 30
0.0
 10
8.0646143391
 20
6.737047614
 30
0.0
 10
8.0559917485
 20
6.7278152878
 30
0.0
 10
8.0514612384
 20
6.7234391431
 30
0.0
  0
SPLINE
  5
2F9
100
AcDbEntity
  8
0
100
AcDbSpline
 62
7
  6
CONTINUOUS
 70
0
 71
3
 72
15
 73
11
 74
0
 42
0.0000001
 43
0.0000001
 44
0.0000000001
 40
0.0
 40
0.0
 40
0.0
 40
0.0
 40
0.127348315
 40
0.2538606239
 40
0.3795878599
 40
0.5046051181
 40
0.6290174391
 40
0.7529533757
 40
0.8765605793
 40
1.0
 40
1.0
 40
1.0
 40
1.0
 10
11.9723833638
 20
6.5931185847
 30
0.0
 10
11.9723833638
 20
6.5866202188
 30
0.0
 10
11.9717628984
 20
6.573657163
 30
0.0
 10
11.9689569259
 20
6.5544619033
 30
0.0
 10
11.9643041456
 20
6.5357489465
 30
0.0
 10
11.9578465963
 20
6.5176932946
 30
0.0
 10
11.9496434825
 20
6.5004614709
 30
0.0
 10
11.9397696273
 20
6.4842125817
 30
0.0
 10
11.9283178732
 20
6.4690988639
 30
0.0
 10
11.9196952825
 20
6.4598665376
 30
0.0
 10
11.9151647725
 20
6.4554903929
 30
0.0
  0
SPLINE
  5
2FA
100
AcDbEntity
  8
0
100
AcDbSpline
 62
7
  6
CONTINUOUS
 70
0
 71
3
 72
15
 73
11
 74
0
 42
0.0000001
 43
0.0000001
 44
0.0000000001
 40
0.0
 40
0.0
 40
0.0
 40
0.0
 40
0.1273482228
 40
0.253860527
 40
0.3795879206
 40
0.5046050801
 40
0.6290174363
 40
0.7529533709
 40
0.8765605784
 40
1.0
 40
1.0
 40
1.0
 40
1.0
 10
9.3387864249
 20
9.4929086569
 30
0.0
 10
9.3387864249
 20
9.4885815625
 30
0.0
 10
9.3383732785
 20
9.4799497945
 30
0.0
 10
9.3365048542
 20
9.4671681542
 30
0.0
 10
9.33340669
 20
9.454707666
 30
0.0
 10
9.3291067634
 20
9.4426848641
 30
0.0
 10
9.3236445537
 20
9.4312106149
 30
0.0
 10
9.3170698318
 20
9.4203908708
 30
0.0
 10
9.3094444173
 20
9.4103270141
 30
0.0
 10
9.3037028676
 20
9.4041794266
 30
0.0
 10
9.3006861193
 20
9.4012654586
 30
0.0
  0
SPLINE
  5
2FB
100
AcDbEntity
  8
0
100
AcDbSpline
 62
7
  6
CONTINUOUS
 70
0
 71
3
 72
15
 73
11
 74
0
 42
0.0000001
 43
0.0000001
 44
0.0000000001
 40
0.0
 40
0.0
 40
0.0
 40
0.0
 40
0.1273482228
 40
0.253860527
 40
0.3795879206
 40
0.5046050801
 40
0.6290174363
 40
0.7529533709
 40
0.8765605784
 40
1.0
 40
1.0
 40
1.0
 40
1.0
 10
9.9424902173
 20
6.6730388569
 30
0.0
 10
9.9424902173
 20
6.6687117625
 30
0.0
 10
9.9420770708
 20
6.6600799945
 30
0.0
 10
9.9402086465
 20
6.6472983542
 30
0.0
 10
9.9371104823
 20
6.634837866
 30
0.0
 10
9.9328105558
 20
6.6228150641
 30
0.0
 10
9.927348346
 20
6.6113408149
 30
0.0
 10
9.9207736242
 20
6.6005210708
 30
0.0
 10
9.9131482097
 20
6.5904572141
 30
0.0
 10
9.90740666
 20
6.5843096266
 30
0.0
 10
9.9043899116
 20
6.5813956586
 30
0.0
  0
SPLINE
  5
2FC
100
AcDbEntity
  8
0
100
AcDbSpline
 62
7
  6
CONTINUOUS
 70
0
 71
3
 72
41
 73
37
 74
0
 42
0.0000001
 43
0.0000001
 44
0.0000000001
 40
0.0
 40
0.0
 40
0.0
 40
0.0
 40
0.0310021414
 40
0.0621458104
 40
0.0934257965
 40
0.124834382
 40
0.1563616383
 40
0.1879956001
 40
0.2197225447
 40
0.2515272672
 40
0.283393381
 40
0.3153036224
 40
0.3472401598
 40
0.3791848975
 40
0.4111197725
 40
0.4430270386
 40
0.4748895359
 40
0.5066909443
 40
0.5384160175
 40
0.5700507987
 40
0.6015828168
 40
0.6330012614
 40
0.6642971385
 40
0.6954634041
 40
0.7264950766
 40
0.7573893257
 40
0.788145537
 40
0.8187653503
 40
0.8492526692
 40
0.8644505913
 40
0.8796178842
 40
0.9098608392
 40
0.939996208
 40
0.9550295556
 40
0.9700408184
 40
1.0
 40
1.0
 40
1.0
 40
1.0
 10
8.5993701611
 20
9.276922165
 30
0.0
 10
8.6067607389
 20
9.2764096266
 30
0.0
 10
8.6215456607
 20
9.2748820217
 30
0.0
 10
8.643565815
 20
9.271110788
 30
0.0
 10
8.6653844729
 20
9.2658724051
 30
0.0
 10
8.6869012418
 20
9.2591924424
 30
0.0
 10
8.7080192751
 20
9.2511033457
 30
0.0
 10
8.7286436955
 20
9.2416442815
 30
0.0
 10
8.7486826821
 20
9.2308607818
 30
0.0
 10
8.7680477869
 20
9.2188043774
 30
0.0
 10
8.7866543957
 20
9.2055321925
 30
0.0
 10
8.8044220841
 20
9.1911065163
 30
0.0
 10
8.8212749345
 20
9.1755943595
 30
0.0
 10
8.8371417956
 20
9.1590670054
 30
0.0
 10
8.8519564936
 20
9.1415995622
 30
0.0
 10
8.8656579958
 20
9.1232705246
 30
0.0
 10
8.8781905333
 20
9.1041613494
 30
0.0
 10
8.8895036861
 20
9.0843560499
 30
0.0
 10
8.899552438
 20
9.0639408114
 30
0.0
 10
8.9082972067
 20
9.0430036302
 30
0.0
 10
8.9157038551
 20
9.0216339765
 30
0.0
 10
8.9217436896
 20
8.9999224795
 30
0.0
 10
8.9263934492
 20
8.9779606328
 30
0.0
 10
8.9296352942
 20
8.9558405247
 30
0.0
 10
8.9314567875
 20
8.9336545587
 30
0.0
 10
8.9318509042
 20
8.9114952763
 30
0.0
 10
8.9308159583
 20
8.8894548535
 30
0.0
 10
8.9283558621
 20
8.8676258316
 30
0.0
 10
8.9251218388
 20
8.8496661599
 30
0.0
 10
8.9218326264
 20
8.8354992112
 30
0.0
 10
8.918086753
 20
8.8215065244
 30
0.0
 10
8.912542355
 20
8.8043112189
 30
0.0
 10
8.9058568585
 20
8.7875608002
 30
0.0
 10
8.8998464835
 20
8.7744934656
 30
0.0
 10
8.8934101206
 20
8.7616783943
 30
0.0
 10
8.8880915335
 20
8.7523276172
 30
0.0
 10
8.8843377096
 20
8.7462315908
 30
0.0
  0
SPLINE
  5
2FD
100
AcDbEntity
  8
0
100
AcDbSpline
 62
7
  6
CONTINUOUS
 70
0
 71
3
 72
39
 73
35
 74
0
 42
0.0000001
 43
0.0000001
 44
0.0000000001
 40
0.0
 40
0.0
 40
0.0
 40
0.0
 40
0.0309283858
 40
0.0620001425
 40
0.0932094251
 40
0.1245480156
 40
0.1560051872
 40
0.1875682778
 40
0.2192229704
 40
0.2509537254
 40
0.2827441576
 40
0.3145774143
 40
0.3464365158
 40
0.3783046614
 40
0.4101654921
 40
0.4420033115
 40
0.4738032656
 40
0.5055514854
 40
0.5372351971
 40
0.5688428079
 40
0.6003639711
 40
0.6317896241
 40
0.663112018
 40
0.6943247403
 40
0.7254227333
 40
0.7564023116
 40
0.7872611794
 40
0.8179984475
 40
0.8486146468
 40
0.879111747
 40
0.9094931775
 40
0.9397638462
 40
0.9699301541
 40
1.0
 40
1.0
 40
1.0
 40
1.0
 10
9.8067776306
 20
9.1770077543
 30
0.0
 10
9.8132857506
 20
9.1765564147
 30
0.0
 10
9.826305402
 20
9.1752040949
 30
0.0
 10
9.845692719
 20
9.1718527838
 30
0.0
 10
9.8648974377
 20
9.1671927198
 30
0.0
 10
9.8838297432
 20
9.1612511452
 30
0.0
 10
9.9024043422
 20
9.1540625906
 30
0.0
 10
9.9205392585
 20
9.1456684437
 30
0.0
 10
9.938157023
 20
9.1361161068
 30
0.0
 10
9.9551850231
 20
9.1254582295
 30
0.0
 10
9.9715558858
 20
9.1137518602
 30
0.0
 10
9.9872076671
 20
9.101057635
 30
0.0
 10
10.002083919
 20
9.0874389944
 30
0.0
 10
10.0161336384
 20
9.0729614667
 30
0.0
 10
10.0293111206
 20
9.0576920269
 30
0.0
 10
10.0415757384
 20
9.0416985426
 30
0.0
 10
10.0528916679
 20
9.0250493113
 30
0.0
 10
10.0632275816
 20
9.0078126868
 30
0.0
 10
10.072556324
 20
8.9900567922
 30
0.0
 10
10.0808545877
 20
8.9718493111
 30
0.0
 10
10.0881026051
 20
8.9532573531
 30
0.0
 10
10.0942838456
 20
8.9343473764
 30
0.0
 10
10.0993847476
 20
8.9151851688
 30
0.0
 10
10.1033944848
 20
8.8958358716
 30
0.0
 10
10.1063047692
 20
8.8763640385
 30
0.0
 10
10.1081096954
 20
8.8568337208
 30
0.0
 10
10.1088056234
 20
8.8373085722
 30
0.0
 10
10.1083911185
 20
8.8178519651
 30
0.0
 10
10.1068669197
 20
8.7985271195
 30
0.0
 10
10.1042359407
 20
8.7793971968
 30
0.0
 10
10.1005033775
 20
8.760525513
 30
0.0
 10
10.0956766453
 20
8.7419752545
 30
0.0
 10
10.0897661498
 20
8.7238109623
 30
0.0
 10
10.0851038443
 20
8.711981496
 30
0.0
 10
10.0825970624
 20
8.7061552308
 30
0.0
  0
SPLINE
  5
2FE
100
AcDbEntity
  8
0
100
AcDbSpline
 62
7
  6
CONTINUOUS
 70
0
 71
3
 72
39
 73
35
 74
0
 42
0.0000001
 43
0.0000001
 44
0.0000000001
 40
0.0
 40
0.0
 40
0.0
 40
0.0
 40
0.0313506647
 40
0.0628875175
 40
0.0946000738
 40
0.1264712761
 40
0.1584798226
 40
0.1906004338
 40
0.2228048091
 40
0.2550625512
 40
0.2873421095
 40
0.3196117043
 40
0.3518401981
 40
0.3839979166
 40
0.4160574099
 40
0.4479941335
 40
0.4797870394
 40
0.5114190936
 40
0.5428777148
 40
0.5741551244
 40
0.6052485935
 40
0.6361605934
 40
0.6668988359
 40
0.6974761858
 40
0.7279104312
 40
0.7582239058
 40
0.7884429526
 40
0.8185972217
 40
0.8487188118
 40
0.8788412878
 40
0.9089985883
 40
0.9392238629
 40
0.9695482974
 40
1.0
 40
1.0
 40
1.0
 40
1.0
 10
9.2030738566
 20
7.6354954792
 30
0.0
 10
9.2119334255
 20
7.634881066
 30
0.0
 10
9.2296599682
 20
7.6328562341
 30
0.0
 10
9.2559477202
 20
7.6274895113
 30
0.0
 10
9.2818163003
 20
7.6198292456
 30
0.0
 10
9.3070598172
 20
7.6099403499
 30
0.0
 10
9.3314823497
 20
7.5979061349
 30
0.0
 10
9.3548955935
 20
7.5838271004
 30
0.0
 10
9.3771215226
 20
7.5678194629
 30
0.0
 10
9.3979934272
 20
7.5500136447
 30
0.0
 10
9.4173571528
 20
7.5305527326
 30
0.0
 10
9.4350719635
 20
7.5095908663
 30
0.0
 10
9.4510111197
 20
7.4872915869
 30
0.0
 10
9.4650623145
 20
7.4638263349
 30
0.0
 10
9.4771279802
 20
7.439373043
 30
0.0
 10
9.4871254597
 20
7.4141148151
 30
0.0
 10
9.4949869782
 20
7.3882386753
 30
0.0
 10
9.5006596431
 20
7.3619344778
 30
0.0
 10
9.5041054057
 20
7.3353938996
 30
0.0
 10
9.5053010955
 20
7.3088095111
 30
0.0
 10
9.5042383209
 20
7.2823738737
 30
0.0
 10
9.5009234874
 20
7.2562786881
 30
0.0
 10
9.4953778325
 20
7.2307139355
 30
0.0
 10
9.4876375802
 20
7.2058669631
 30
0.0
 10
9.477754011
 20
7.1819215102
 30
0.0
 10
9.4657935254
 20
7.1590566664
 30
0.0
 10
9.4518377109
 20
7.1374457221
 30
0.0
 10
9.435983378
 20
7.1172548737
 30
0.0
 10
9.4183424953
 20
7.0986418069
 30
0.0
 10
9.3990417659
 20
7.0817542343
 30
0.0
 10
9.3782224907
 20
7.0667284493
 30
0.0
 10
9.3560387353
 20
7.0536873553
 30
0.0
 10
9.3326608376
 20
7.0427401824
 30
0.0
 10
9.3164302253
 20
7.0369111821
 30
0.0
 10
9.3081858716
 20
7.0343730978
 30
0.0
  0
SPLINE
  5
2FF
100
AcDbEntity
  8
0
100
AcDbSpline
 62
7
  6
CONTINUOUS
 70
0
 71
3
 72
30
 73
26
 74
0
 42
0.0000001
 43
0.0000001
 44
0.0000000001
 40
0.0
 40
0.0
 40
0.0
 40
0.0
 40
0.030965816
 40
0.0620752709
 40
0.0933181572
 40
0.1246898524
 40
0.1561793419
 40
0.1877747695
 40
0.2194625793
 40
0.251227727
 40
0.3148953857
 40
0.3786736234
 40
0.4424256446
 40
0.5060215563
 40
0.5693448214
 40
0.6322978117
 40
0.694805423
 40
0.7568180316
 40
0.8183134551
 40
0.8488827557
 40
0.8793277415
 40
0.9096538308
 40
0.9398682769
 40
0.9699800976
 40
1.0
 40
1.0
 40
1.0
 40
1.0
 10
10.8181019643
 20
8.8507607815
 30
0.0
 10
10.8207293739
 20
8.8505785701
 30
0.0
 10
10.8259857397
 20
8.8500358595
 30
0.0
 10
10.8338145639
 20
8.8486972493
 30
0.0
 10
10.8415722571
 20
8.846838625
 30
0.0
 10
10.8492233403
 20
8.84446994
 30
0.0
 10
10.8567341165
 20
8.8416031716
 30
0.0
 10
10.8640715417
 20
8.8382532023
 30
0.0
 10
10.8712043692
 20
8.8344368075
 30
0.0
 10
10.8804063078
 20
8.8287494186
 30
0.0
 10
10.8912468514
 20
8.8205731373
 30
0.0
 10
10.902978684
 20
8.8092569649
 30
0.0
 10
10.9132758876
 20
8.7966288223
 30
0.0
 10
10.9219912116
 20
8.7829082946
 30
0.0
 10
10.9290077554
 20
8.768321835
 30
0.0
 10
10.9342355527
 20
8.7531009842
 30
0.0
 10
10.9376098486
 20
8.7374784801
 30
0.0
 10
10.9390899204
 20
8.7216895466
 30
0.0
 10
10.9387279427
 20
8.7085542231
 30
0.0
 10
10.9374789149
 20
8.6982040322
 30
0.0
 10
10.9360698383
 20
8.6905587854
 30
0.0
 10
10.934190803
 20
8.6830466067
 30
0.0
 10
10.9318472905
 20
8.6756955869
 30
0.0
 10
10.9290465359
 20
8.6685345764
 30
0.0
 10
10.9268768299
 20
8.6638985208
 30
0.0
 10
10.9257191732
 20
8.6616227775
 30
0.0
  0
SPLINE
  5
300
100
AcDbEntity
  8
0
100
AcDbSpline
 62
7
  6
CONTINUOUS
 70
0
 71
3
 72
15
 73
11
 74
0
 42
0.0000001
 43
0.0000001
 44
0.0000000001
 40
0.0
 40
0.0
 40
0.0
 40
0.0
 40
0.127347002
 40
0.2538611168
 40
0.379587791
 40
0.5046051628
 40
0.6290174373
 40
0.7529533687
 40
0.8765605638
 40
1.0
 40
1.0
 40
1.0
 40
1.0
 10
10.8934441833
 20
9.3242394507
 30
0.0
 10
10.8934441833
 20
9.321837185
 30
0.0
 10
10.8932147969
 20
9.3170450454
 30
0.0
 10
10.8921775091
 20
9.3099490152
 30
0.0
 10
10.8904574192
 20
9.3030312718
 30
0.0
 10
10.8880701731
 20
9.2963565555
 30
0.0
 10
10.8850376175
 20
9.2899863889
 30
0.0
 10
10.8813874184
 20
9.2839796079
 30
0.0
 10
10.8771539015
 20
9.2783924829
 30
0.0
 10
10.8739662548
 20
9.2749795903
 30
0.0
 10
10.872291419
 20
9.2733618488
 30
0.0
  0
SPLINE
  5
301
100
AcDbEntity
  8
0
100
AcDbSpline
 62
7
  6
CONTINUOUS
 70
0
 71
3
 72
15
 73
11
 74
0
 42
0.0000001
 43
0.0000001
 44
0.0000000001
 40
0.0
 40
0.0
 40
0.0
 40
0.0
 40
0.127347002
 40
0.2538611168
 40
0.379587791
 40
0.5046051628
 40
0.6290174373
 40
0.7529533687
 40
0.8765605638
 40
1.0
 40
1.0
 40
1.0
 40
1.0
 10
8.67471238
 20
6.8218128442
 30
0.0
 10
8.67471238
 20
6.8194105785
 30
0.0
 10
8.6744829937
 20
6.8146184388
 30
0.0
 10
8.6734457058
 20
6.8075224087
 30
0.0
 10
8.6717256159
 20
6.8006046653
 30
0.0
 10
8.6693383698
 20
6.793929949
 30
0.0
 10
8.6663058142
 20
6.7875597824
 30
0.0
 10
8.6626556151
 20
6.7815530014
 30
0.0
 10
8.6584220983
 20
6.7759658764
 30
0.0
 10
8.6552344515
 20
6.7725529838
 30
0.0
 10
8.6535596158
 20
6.7709352423
 30
0.0
  0
SPLINE
  5
302
100
AcDbEntity
  8
0
100
AcDbSpline
 62
7
  6
CONTINUOUS
 70
0
 71
3
 72
19
 73
15
 74
0
 42
0.0000001
 43
0.0000001
 44
0.0000000001
 40
0.0
 40
0.0
 40
0.0
 40
0.0
 40
0.150460937
 40
0.2916987357
 40
0.424419542
 40
0.4878837275
 40
0.5495802504
 40
0.6682271673
 40
0.7255606103
 40
0.7817998831
 40
0.8371466721
 40
0.8918135967
 40
0.94602219
 40
1.0
 40
1.0
 40
1.0
 40
1.0
 10
14.6930504826
 20
8.9579330049
 30
0.0
 10
14.6955241927
 20
8.9603224255
 30
0.0
 10
14.7004682104
 20
8.9648056582
 30
0.0
 10
14.7081235445
 20
8.97078008
 30
0.0
 10
14.714589679
 20
8.9750055235
 30
0.0
 10
14.7197460078
 20
8.9778668722
 30
0.0
 10
14.7247502164
 20
8.980323401
 30
0.0
 10
14.7298130159
 20
8.9823313927
 30
0.0
 10
14.7349042992
 20
8.9838424157
 30
0.0
 10
14.7386686549
 20
8.9847133782
 30
0.0
 10
14.7424204795
 20
8.9853341612
 30
0.0
 10
14.7461587818
 20
8.9857044571
 30
0.0
 10
14.7498820506
 20
8.9858241227
 30
0.0
 10
14.7523556846
 20
8.9857366399
 30
0.0
 10
14.7535865648
 20
8.985651278
 30
0.0
  0
SPLINE
  5
303
100
AcDbEntity
  8
0
100
AcDbSpline
 62
7
  6
CONTINUOUS
 70
0
 71
3
 72
17
 73
13
 74
0
 42
0.0000001
 43
0.0000001
 44
0.0000000001
 40
0.0
 40
0.0
 40
0.0
 40
0.0
 40
0.1504746818
 40
0.2917308329
 40
0.4244675419
 40
0.4879384983
 40
0.5496413146
 40
0.6683011746
 40
0.781834
 40
0.8918017087
 40
0.946016262
 40
1.0
 40
1.0
 40
1.0
 40
1.0
 10
14.4665840051
 20
9.667437929
 30
0.0
 10
14.4679748997
 20
9.6687814302
 30
0.0
 10
14.4707548448
 20
9.6713022495
 30
0.0
 10
14.475059272
 20
9.6746616026
 30
0.0
 10
14.4786951266
 20
9.677037508
 30
0.0
 10
14.4815943913
 20
9.6786464114
 30
0.0
 10
14.484408287
 20
9.6800276958
 30
0.0
 10
14.4879270263
 20
9.6814234128
 30
0.0
 10
14.4921865464
 20
9.6825568708
 30
0.0
 10
14.4957353257
 20
9.6830306894
 30
0.0
 10
14.4985392909
 20
9.6831206936
 30
0.0
 10
14.4999302191
 20
9.6830715127
 30
0.0
 10
14.5006223199
 20
9.6830235181
 30
0.0
  0
SPLINE
  5
304
100
AcDbEntity
  8
0
100
AcDbSpline
 62
7
  6
CONTINUOUS
 70
0
 71
3
 72
15
 73
11
 74
0
 42
0.0000001
 43
0.0000001
 44
0.0000000001
 40
0.0
 40
0.0
 40
0.0
 40
0.0
 40
0.1504832222
 40
0.2917573787
 40
0.4245126265
 40
0.5496590391
 40
0.6683283759
 40
0.7818724255
 40
0.8918518844
 40
1.0
 40
1.0
 40
1.0
 40
1.0
 10
14.3211278124
 20
8.5552165888
 30
0.0
 10
14.3217949723
 20
8.5558610159
 30
0.0
 10
14.3231284448
 20
8.5570701685
 30
0.0
 10
14.3251933084
 20
8.558681674
 30
0.0
 10
14.327255763
 20
8.5600294422
 30
0.0
 10
14.329313808
 20
8.5611112885
 30
0.0
 10
14.3313656349
 20
8.5619251138
 30
0.0
 10
14.3334091729
 20
8.562468783
 30
0.0
 10
14.3354410812
 20
8.5627402794
 30
0.0
 10
14.3367904571
 20
8.5627386987
 30
0.0
 10
14.3374554792
 20
8.5626925732
 30
0.0
  0
SPLINE
  5
305
100
AcDbEntity
  8
0
100
AcDbSpline
 62
7
  6
CONTINUOUS
 70
0
 71
3
 72
15
 73
11
 74
0
 42
0.0000001
 43
0.0000001
 44
0.0000000001
 40
0.0
 40
0.0
 40
0.0
 40
0.0
 40
0.1423669202
 40
0.2808923746
 40
0.4148479433
 40
0.5436193732
 40
0.6667391716
 40
0.7839008062
 40
0.8949720624
 40
1.0
 40
1.0
 40
1.0
 40
1.0
 10
8.6753067343
 20
8.7254333562
 30
0.0
 10
8.6716958349
 20
8.725683773
 30
0.0
 10
8.6645868855
 20
8.7264511321
 30
0.0
 10
8.6542146643
 20
8.7284262115
 30
0.0
 10
8.6443760775
 20
8.7311703419
 30
0.0
 10
8.6351799505
 20
8.7346225426
 30
0.0
 10
8.626717321
 20
8.7387055568
 30
0.0
 10
8.619058981
 20
8.7433308038
 30
0.0
 10
8.6122548077
 20
8.7484017956
 30
0.0
 10
8.6081930409
 20
8.752118356
 30
0.0
 10
8.606321989
 20
8.7540234636
 30
0.0
  0
SPLINE
  5
306
100
AcDbEntity
  8
0
100
AcDbSpline
 62
7
  6
CONTINUOUS
 70
0
 71
3
 72
34
 73
30
 74
0
 42
0.0000001
 43
0.0000001
 44
0.0000000001
 40
0.0
 40
0.0
 40
0.0
 40
0.0
 40
0.0345870681
 40
0.0689894205
 40
0.1031514159
 40
0.1370234824
 40
0.1705652137
 40
0.2037478479
 40
0.2365553374
 40
0.2689840035
 40
0.3010410727
 40
0.3327432035
 40
0.3641146132
 40
0.3951841218
 40
0.4259829723
 40
0.4565446849
 40
0.4869022985
 40
0.5170876639
 40
0.5770441816
 40
0.636664773
 40
0.6664215627
 40
0.696169587
 40
0.7557216274
 40
0.8155353617
 40
0.8758572616
 40
0.9063237236
 40
0.93708345
 40
0.9682493269
 40
1.0
 40
1.0
 40
1.0
 40
1.0
 10
8.6779239444
 20
8.725330551
 30
0.0
 10
8.677772886
 20
8.7276591123
 30
0.0
 10
8.6776232591
 20
8.7323151993
 30
0.0
 10
8.6778694834
 20
8.7392752634
 30
0.0
 10
8.6785916004
 20
8.7461541639
 30
0.0
 10
8.6797870502
 20
8.7529078712
 30
0.0
 10
8.6814458046
 20
8.7594949169
 30
0.0
 10
8.6835510162
 20
8.7658775161
 30
0.0
 10
8.686080165
 20
8.7720230493
 30
0.0
 10
8.6890064552
 20
8.7779047977
 30
0.0
 10
8.6923003759
 20
8.7835021856
 30
0.0
 10
8.6959310358
 20
8.7888006591
 30
0.0
 10
8.6998674855
 20
8.7937910965
 30
0.0
 10
8.704079744
 20
8.7984689094
 30
0.0
 10
8.7085393827
 20
8.8028333147
 30
0.0
 10
8.7132198409
 20
8.8068865035
 30
0.0
 10
8.7180970827
 20
8.8106328199
 30
0.0
 10
8.7248163091
 20
8.8152155329
 30
0.0
 10
8.7336154068
 20
8.8202223285
 30
0.0
 10
8.7428418368
 20
8.8243094499
 30
0.0
 10
8.7504006715
 20
8.8270468762
 30
0.0
 10
8.7580696392
 20
8.8294431515
 30
0.0
 10
8.7678576762
 20
8.8318214896
 30
0.0
 10
8.779840047
 20
8.8337354858
 30
0.0
 10
8.7899742262
 20
8.8345879392
 30
0.0
 10
8.7981714377
 20
8.8348545297
 30
0.0
 10
8.8044058985
 20
8.8348535529
 30
0.0
 10
8.8107237486
 20
8.8346594495
 30
0.0
 10
8.814961808
 20
8.8344123686
 30
0.0
 10
8.8170987603
 20
8.8342640211
 30
0.0
  0
SPLINE
  5
307
100
AcDbEntity
  8
0
100
AcDbSpline
 62
7
  6
CONTINUOUS
 70
0
 71
3
 72
25
 73
21
 74
0
 42
0.0000001
 43
0.0000001
 44
0.0000000001
 40
0.0
 40
0.0
 40
0.0
 40
0.0
 40
0.0642287876
 40
0.1282026555
 40
0.191913246
 40
0.2553587663
 40
0.3185395896
 40
0.3814606823
 40
0.444130617
 40
0.5065618275
 40
0.5687703576
 40
0.6307756859
 40
0.6926004506
 40
0.7234569177
 40
0.7542780153
 40
0.8158205308
 40
0.877265845
 40
0.9079658506
 40
0.9386534787
 40
1.0
 40
1.0
 40
1.0
 40
1.0
 10
10.7656716086
 20
7.29164716
 30
0.0
 10
10.7670972012
 20
7.284419181
 30
0.0
 10
10.7695202173
 20
7.2699047516
 30
0.0
 10
10.7718547373
 20
7.2480034707
 30
0.0
 10
10.772874192
 20
7.2260907211
 30
0.0
 10
10.7725746908
 20
7.2042473285
 30
0.0
 10
10.7709571629
 20
7.182552432
 30
0.0
 10
10.7680274154
 20
7.1610851258
 30
0.0
 10
10.7637959629
 20
7.1399235407
 30
0.0
 10
10.7582781232
 20
7.1191448055
 30
0.0
 10
10.7514938024
 20
7.0988245001
 30
0.0
 10
10.7434678717
 20
7.079037174
 30
0.0
 10
10.735763245
 20
7.0630398076
 30
0.0
 10
10.7290111106
 20
7.0505840793
 30
0.0
 10
10.721880469
 20
7.0383785486
 30
0.0
 10
10.7122521325
 20
7.023579831
 30
0.0
 10
10.7016998625
 20
7.0094423771
 30
0.0
 10
10.692734254
 20
6.998570893
 30
0.0
 10
10.6834301932
 20
6.9880033881
 30
0.0
 10
10.6760716891
 20
6.9804206124
 30
0.0
 10
10.6710105603
 20
6.975531952
 30
0.0
  0
SPLINE
  5
308
100
AcDbEntity
  8
0
100
AcDbSpline
 62
7
  6
CONTINUOUS
 70
0
 71
3
 72
14
 73
10
 74
0
 42
0.0000001
 43
0.0000001
 44
0.0000000001
 40
0.0
 40
0.0
 40
0.0
 40
0.0
 40
0.1465758502
 40
0.28595209
 40
0.5446039948
 40
0.6651303189
 40
0.7806441542
 40
0.8919606646
 40
1.0
 40
1.0
 40
1.0
 40
1.0
 10
14.4356743761
 20
9.4928170824
 30
0.0
 10
14.4363751302
 20
9.4934939589
 30
0.0
 10
14.4377761917
 20
9.4947803046
 30
0.0
 10
14.4405796194
 20
9.497071969
 30
0.0
 10
14.4434501926
 20
9.4990046789
 30
0.0
 10
14.4463784018
 20
9.5005075572
 30
0.0
 10
14.4485172023
 20
9.5013854745
 30
0.0
 10
14.4506481031
 20
9.5020394467
 30
0.0
 10
14.4520801164
 20
9.5023289881
 30
0.0
 10
14.4527904812
 20
9.5024343023
 30
0.0
  0
SPLINE
  5
309
100
AcDbEntity
  8
0
100
AcDbSpline
 62
7
  6
CONTINUOUS
 70
0
 71
3
 72
60
 73
56
 74
0
 42
0.0000001
 43
0.0000001
 44
0.0000000001
 40
0.0
 40
0.0
 40
0.0
 40
0.0
 40
0.0080354751
 40
0.0167380964
 40
0.0261287381
 40
0.0362207841
 40
0.0470197102
 40
0.0585249424
 40
0.0707310243
 40
0.083628448
 40
0.0972042381
 40
0.1114422825
 40
0.1263239562
 40
0.1418282042
 40
0.1579318537
 40
0.1746099245
 40
0.1918355878
 40
0.209580533
 40
0.2465068606
 40
0.285136888
 40
0.3252000516
 40
0.3664117556
 40
0.408476443
 40
0.4510905479
 40
0.4939453994
 40
0.5367301163
 40
0.5791344626
 40
0.6208517067
 40
0.6615815279
 40
0.7010329445
 40
0.7201920577
 40
0.7389282455
 40
0.7572090992
 40
0.7750034691
 40
0.7922814008
 40
0.8090144323
 40
0.8251756557
 40
0.8407397918
 40
0.8556835707
 40
0.8699856988
 40
0.88362724
 40
0.8965919352
 40
0.9088663739
 40
0.9204407242
 40
0.9313091154
 40
0.9414704566
 40
0.9509296267
 40
0.959698598
 40
0.9677985343
 40
0.9752621368
 40
0.9821366874
 40
0.9884879358
 40
0.9944035392
 40
0.9972342157
 40
1.0
 40
1.0
 40
1.0
 40
1.0
 10
14.4356743761
 20
9.4928170824
 30
0.0
 10
14.4344526662
 20
9.4916370012
 30
0.0
 10
14.4320153009
 20
9.4890662516
 30
0.0
 10
14.4285099625
 20
9.4847931749
 30
0.0
 10
14.4250191495
 20
9.4799609047
 30
0.0
 10
14.421549388
 20
9.4745787845
 30
0.0
 10
14.4181067434
 20
9.4686565131
 30
0.0
 10
14.414697801
 20
9.4622050943
 30
0.0
 10
14.4113289767
 20
9.4552366913
 30
0.0
 10
14.4080067385
 20
9.4477645001
 30
0.0
 10
14.4047375444
 20
9.4398027413
 30
0.0
 10
14.4015276669
 20
9.4313666649
 30
0.0
 10
14.3983833842
 20
9.4224724455
 30
0.0
 10
14.3953107918
 20
9.4131371889
 30
0.0
 10
14.3923158347
 20
9.4033788769
 30
0.0
 10
14.3894043962
 20
9.3932163189
 30
0.0
 10
14.386582047
 20
9.3826691201
 30
0.0
 10
14.3828962033
 20
9.3679243285
 30
0.0
 10
14.3785659949
 20
9.3486797902
 30
0.0
 10
14.3738726498
 20
9.3246915604
 30
0.0
 10
14.3696525436
 20
9.299696542
 30
0.0
 10
14.3659386064
 20
9.2738878461
 30
0.0
 10
14.3627598414
 20
9.2474647166
 30
0.0
 10
14.3601410064
 20
9.2206313119
 30
0.0
 10
14.3581024364
 20
9.1935949954
 30
0.0
 10
14.3566599052
 20
9.1665647241
 30
0.0
 10
14.3558245093
 20
9.1397494214
 30
0.0
 10
14.3556025538
 20
9.1133562723
 30
0.0
 10
14.3559955709
 20
9.087589337
 30
0.0
 10
14.3568405808
 20
9.0666046865
 30
0.0
 10
14.3578310531
 20
9.0502843427
 30
0.0
 10
14.3587170452
 20
9.0384422283
 30
0.0
 10
14.3597516222
 20
9.0269017696
 30
0.0
 10
14.3609327374
 20
9.015685257
 30
0.0
 10
14.3622581163
 20
9.0048143697
 30
0.0
 10
14.3637251452
 20
8.9943101035
 30
0.0
 10
14.3653309358
 20
8.9841927368
 30
0.0
 10
14.3670723922
 20
8.9744817869
 30
0.0
 10
14.3689460515
 20
8.9651959629
 30
0.0
 10
14.3709482817
 20
8.9563531332
 30
0.0
 10
14.3730751772
 20
8.94797028
 30
0.0
 10
14.3753225433
 20
8.9400634503
 30
0.0
 10
14.3776860794
 20
8.932647738
 30
0.0
 10
14.3801611687
 20
8.9257372038
 30
0.0
 10
14.3827430867
 20
8.9193448576
 30
0.0
 10
14.38542703
 20
8.9134826271
 30
0.0
 10
14.3882080268
 20
8.9081612543
 30
0.0
 10
14.3910813092
 20
8.903390381
 30
0.0
 10
14.3940422624
 20
8.899178484
 30
0.0
 10
14.3970865937
 20
8.8955330607
 30
0.0
 10
14.4002110866
 20
8.8924610098
 30
0.0
 10
14.403411893
 20
8.889969452
 30
0.0
 10
14.4061822242
 20
8.8883600248
 30
0.0
 10
14.408416761
 20
8.8873909569
 30
0.0
 10
14.4095381751
 20
8.887009088
 30
0.0
 10
14.4100991281
 20
8.8868443416
 30
0.0
  0
SPLINE
  5
30A
100
AcDbEntity
  8
0
100
AcDbSpline
 62
7
  6
CONTINUOUS
 70
0
 71
3
 72
39
 73
35
 74
0
 42
0.0000001
 43
0.0000001
 44
0.0000000001
 40
0.0
 40
0.0
 40
0.0
 40
0.0
 40
0.0760185458
 40
0.1532632554
 40
0.2310390604
 40
0.3086436563
 40
0.3853769375
 40
0.42320137
 40
0.4605504649
 40
0.4973408779
 40
0.533490906
 40
0.5689207649
 40
0.6035528818
 40
0.6373121533
 40
0.6701262286
 40
0.7019258193
 40
0.7326450735
 40
0.7622219321
 40
0.790598514
 40
0.817721583
 40
0.8435431249
 40
0.868021063
 40
0.8911200625
 40
0.9128125786
 40
0.9231258585
 40
0.9330815931
 40
0.9426792004
 40
0.9519190187
 40
0.9608022954
 40
0.9693313294
 40
0.9775099463
 40
0.9853432204
 40
0.9928373695
 40
1.0
 40
1.0
 40
1.0
 40
1.0
 10
14.9717983513
 20
7.5667561925
 30
0.0
 10
14.9717983513
 20
7.5497837327
 30
0.0
 10
14.9713444927
 20
7.5155635861
 30
0.0
 10
14.9693640145
 20
7.4640131547
 30
0.0
 10
14.9660950096
 20
7.4121732212
 30
0.0
 10
14.9615688048
 20
7.3605427869
 30
0.0
 10
14.9567632933
 20
7.3179041651
 30
0.0
 10
14.9523147927
 20
7.2842805322
 30
0.0
 10
14.9487107757
 20
7.2595430285
 30
0.0
 10
14.9448321197
 20
7.235225594
 30
0.0
 10
14.9406881495
 20
7.2113867264
 30
0.0
 10
14.936288887
 20
7.1880838145
 30
0.0
 10
14.9316449757
 20
7.1653729256
 30
0.0
 10
14.9267676496
 20
7.1433086929
 30
0.0
 10
14.9216687084
 20
7.121944183
 30
0.0
 10
14.9163604833
 20
7.1013307612
 30
0.0
 10
14.9108558301
 20
7.0815179504
 30
0.0
 10
14.9051680857
 20
7.0625533056
 30
0.0
 10
14.8993110257
 20
7.0444823054
 30
0.0
 10
14.8932988298
 20
7.0273482225
 30
0.0
 10
14.8871460406
 20
7.0111920288
 30
0.0
 10
14.8808675361
 20
6.9960521291
 30
0.0
 10
14.874478464
 20
6.981964705
 30
0.0
 10
14.8689862387
 20
6.9709515424
 30
0.0
 10
14.8645383155
 20
6.9627053392
 30
0.0
 10
14.8612406153
 20
6.9569088817
 30
0.0
 10
14.8579267652
 20
6.9513994699
 30
0.0
 10
14.8545987413
 20
6.9461803727
 30
0.0
 10
14.8512585667
 20
6.9412546799
 30
0.0
 10
14.8479081152
 20
6.9366253199
 30
0.0
 10
14.8445493687
 20
6.9322949351
 30
0.0
 10
14.8411841552
 20
6.9282660895
 30
0.0
 10
14.8378146832
 20
6.9245413889
 30
0.0
 10
14.8355157705
 20
6.922210676
 30
0.0
 10
14.8343655518
 20
6.92109965
 30
0.0
  0
SPLINE
  5
30B
100
AcDbEntity
  8
0
100
AcDbSpline
 62
7
  6
CONTINUOUS
 70
0
 71
3
 72
41
 73
37
 74
0
 42
0.0000001
 43
0.0000001
 44
0.0000000001
 40
0.0
 40
0.0
 40
0.0
 40
0.0
 40
0.0299421238
 40
0.0449237703
 40
0.059914519
 40
0.0899291762
 40
0.1200146048
 40
0.1350933663
 40
0.1501974853
 40
0.1804849834
 40
0.2108989722
 40
0.2414525913
 40
0.2721557558
 40
0.3030149766
 40
0.3340332647
 40
0.365210118
 40
0.396541585
 40
0.4280204007
 40
0.4596361866
 40
0.4913757084
 40
0.5232231826
 40
0.5551606251
 40
0.5871682346
 40
0.6192248024
 40
0.6513081434
 40
0.68339554
 40
0.7154641944
 40
0.7474916807
 40
0.7794563937
 40
0.8113379827
 40
0.8431177771
 40
0.8747791563
 40
0.9063079829
 40
0.9376927254
 40
0.9689252285
 40
1.0
 40
1.0
 40
1.0
 40
1.0
 10
7.7582776982
 20
9.6832602995
 30
0.0
 10
7.7617781175
 20
9.6866414511
 30
0.0
 10
7.7672350411
 20
9.6915083449
 30
0.0
 10
7.7748774054
 20
9.6975470399
 30
0.0
 10
7.7827630973
 20
9.7032853018
 30
0.0
 10
7.7930526746
 20
9.7098746445
 30
0.0
 10
7.8038425325
 20
9.7156384393
 30
0.0
 10
7.8127413777
 20
9.7197388095
 30
0.0
 10
7.821824048
 20
9.7235006958
 30
0.0
 10
7.8334767091
 20
9.7275457941
 30
0.0
 10
7.8478368551
 20
9.7313157434
 30
0.0
 10
7.8625103493
 20
9.7339864852
 30
0.0
 10
7.8774158728
 20
9.7355432857
 30
0.0
 10
7.892471546
 20
9.7359778364
 30
0.0
 10
7.9075945278
 20
9.7352879258
 30
0.0
 10
7.9227016984
 20
9.7334775392
 30
0.0
 10
7.9377100501
 20
9.7305568017
 30
0.0
 10
7.9525371549
 20
9.7265419231
 30
0.0
 10
7.9671016061
 20
9.7214551016
 30
0.0
 10
7.9813234607
 20
9.7153243985
 30
0.0
 10
7.9951246715
 20
9.7081835823
 30
0.0
 10
8.0084295094
 20
9.700071942
 30
0.0
 10
8.0211649735
 20
9.6910340723
 30
0.0
 10
8.0332611865
 20
9.6811196294
 30
0.0
 10
8.0446517735
 20
9.6703830604
 30
0.0
 10
8.0552742224
 20
9.6588833074
 30
0.0
 10
8.0650702231
 20
9.6466834863
 30
0.0
 10
8.0739859847
 20
9.6338505446
 30
0.0
 10
8.081972527
 20
9.620454898
 30
0.0
 10
8.0889859512
 20
9.6065700468
 30
0.0
 10
8.09498767
 20
9.5922721861
 30
0.0
 10
8.0999446414
 20
9.5776397568
 30
0.0
 10
8.1038295022
 20
9.5627531614
 30
0.0
 10
8.1066208141
 20
9.5476938115
 30
0.0
 10
8.1083030332
 20
9.5325455412
 30
0.0
 10
8.1086798297
 20
9.5224143491
 30
0.0
 10
8.1086798297
 20
9.5173635146
 30
0.0
  0
SPLINE
  5
30C
100
AcDbEntity
  8
0
100
AcDbSpline
 62
7
  6
CONTINUOUS
 70
0
 71
3
 72
41
 73
37
 74
0
 42
0.0000001
 43
0.0000001
 44
0.0000000001
 40
0.0
 40
0.0
 40
0.0
 40
0.0
 40
0.0299421238
 40
0.0449237703
 40
0.059914519
 40
0.0899291762
 40
0.1200146048
 40
0.1350933663
 40
0.1501974853
 40
0.1804849834
 40
0.2108989722
 40
0.2414525913
 40
0.2721557558
 40
0.3030149766
 40
0.3340332647
 40
0.365210118
 40
0.396541585
 40
0.4280204007
 40
0.4596361866
 40
0.4913757084
 40
0.5232231826
 40
0.5551606251
 40
0.5871682346
 40
0.6192248024
 40
0.6513081434
 40
0.68339554
 40
0.7154641944
 40
0.7474916807
 40
0.7794563937
 40
0.8113379827
 40
0.8431177771
 40
0.8747791563
 40
0.9063079829
 40
0.9376927254
 40
0.9689252285
 40
1.0
 40
1.0
 40
1.0
 40
1.0
 10
11.6219812323
 20
9.4153115493
 30
0.0
 10
11.6254816516
 20
9.4186927009
 30
0.0
 10
11.6309385752
 20
9.4235595947
 30
0.0
 10
11.6385809395
 20
9.4295982897
 30
0.0
 10
11.6464666314
 20
9.4353365516
 30
0.0
 10
11.6567562087
 20
9.4419258943
 30
0.0
 10
11.6675460666
 20
9.4476896891
 30
0.0
 10
11.6764449118
 20
9.4517900593
 30
0.0
 10
11.6855275821
 20
9.4555519457
 30
0.0
 10
11.6971802432
 20
9.459597044
 30
0.0
 10
11.7115403892
 20
9.4633669932
 30
0.0
 10
11.7262138834
 20
9.4660377351
 30
0.0
 10
11.7411194069
 20
9.4675945355
 30
0.0
 10
11.7561750801
 20
9.4680290863
 30
0.0
 10
11.7712980618
 20
9.4673391757
 30
0.0
 10
11.7864052325
 20
9.465528789
 30
0.0
 10
11.8014135842
 20
9.4626080515
 30
0.0
 10
11.816240689
 20
9.458593173
 30
0.0
 10
11.8308051402
 20
9.4535063514
 30
0.0
 10
11.8450269948
 20
9.4473756483
 30
0.0
 10
11.8588282056
 20
9.4402348321
 30
0.0
 10
11.8721330435
 20
9.4321231918
 30
0.0
 10
11.8848685076
 20
9.4230853221
 30
0.0
 10
11.8969647205
 20
9.4131708792
 30
0.0
 10
11.9083553076
 20
9.4024343103
 30
0.0
 10
11.9189777565
 20
9.3909345572
 30
0.0
 10
11.9287737572
 20
9.3787347361
 30
0.0
 10
11.9376895188
 20
9.3659017944
 30
0.0
 10
11.9456760611
 20
9.3525061479
 30
0.0
 10
11.9526894853
 20
9.3386212967
 30
0.0
 10
11.9586912041
 20
9.3243234359
 30
0.0
 10
11.9636481754
 20
9.3096910066
 30
0.0
 10
11.9675330363
 20
9.2948044113
 30
0.0
 10
11.9703243482
 20
9.2797450613
 30
0.0
 10
11.9720065673
 20
9.264596791
 30
0.0
 10
11.9723833638
 20
9.254465599
 30
0.0
 10
11.9723833638
 20
9.2494147644
 30
0.0
  0
SPLINE
  5
30D
100
AcDbEntity
  8
0
100
AcDbSpline
 62
7
  6
CONTINUOUS
 70
0
 71
3
 72
41
 73
37
 74
0
 42
0.0000001
 43
0.0000001
 44
0.0000000001
 40
0.0
 40
0.0
 40
0.0
 40
0.0
 40
0.0299421238
 40
0.0449237703
 40
0.059914519
 40
0.0899291762
 40
0.1200146048
 40
0.1350933663
 40
0.1501974853
 40
0.1804849834
 40
0.2108989722
 40
0.2414525913
 40
0.2721557558
 40
0.3030149766
 40
0.3340332647
 40
0.365210118
 40
0.396541585
 40
0.4280204007
 40
0.4596361866
 40
0.4913757084
 40
0.5232231826
 40
0.5551606251
 40
0.5871682346
 40
0.6192248024
 40
0.6513081434
 40
0.68339554
 40
0.7154641944
 40
0.7474916807
 40
0.7794563937
 40
0.8113379827
 40
0.8431177771
 40
0.8747791563
 40
0.9063079829
 40
0.9376927254
 40
0.9689252285
 40
1.0
 40
1.0
 40
1.0
 40
1.0
 10
7.7582776982
 20
7.0269641198
 30
0.0
 10
7.7617781175
 20
7.0303452714
 30
0.0
 10
7.7672350411
 20
7.0352121652
 30
0.0
 10
7.7748774054
 20
7.0412508602
 30
0.0
 10
7.7827630973
 20
7.0469891221
 30
0.0
 10
7.7930526746
 20
7.0535784648
 30
0.0
 10
7.8038425325
 20
7.0593422596
 30
0.0
 10
7.8127413777
 20
7.0634426298
 30
0.0
 10
7.821824048
 20
7.0672045161
 30
0.0
 10
7.8334767091
 20
7.0712496144
 30
0.0
 10
7.8478368551
 20
7.0750195637
 30
0.0
 10
7.8625103493
 20
7.0776903056
 30
0.0
 10
7.8774158728
 20
7.079247106
 30
0.0
 10
7.892471546
 20
7.0796816568
 30
0.0
 10
7.9075945278
 20
7.0789917462
 30
0.0
 10
7.9227016984
 20
7.0771813595
 30
0.0
 10
7.9377100501
 20
7.074260622
 30
0.0
 10
7.9525371549
 20
7.0702457434
 30
0.0
 10
7.9671016061
 20
7.0651589219
 30
0.0
 10
7.9813234607
 20
7.0590282188
 30
0.0
 10
7.9951246715
 20
7.0518874026
 30
0.0
 10
8.0084295094
 20
7.0437757623
 30
0.0
 10
8.0211649735
 20
7.0347378926
 30
0.0
 10
8.0332611865
 20
7.0248234497
 30
0.0
 10
8.0446517735
 20
7.0140868807
 30
0.0
 10
8.0552742224
 20
7.0025871277
 30
0.0
 10
8.0650702231
 20
6.9903873066
 30
0.0
 10
8.0739859847
 20
6.9775543649
 30
0.0
 10
8.081972527
 20
6.9641587184
 30
0.0
 10
8.0889859512
 20
6.9502738671
 30
0.0
 10
8.09498767
 20
6.9359760064
 30
0.0
 10
8.0999446414
 20
6.9213435771
 30
0.0
 10
8.1038295022
 20
6.9064569817
 30
0.0
 10
8.1066208141
 20
6.8913976318
 30
0.0
 10
8.1083030332
 20
6.8762493615
 30
0.0
 10
8.1086798297
 20
6.8661181695
 30
0.0
 10
8.1086798297
 20
6.8610673349
 30
0.0
  0
SPLINE
  5
30E
100
AcDbEntity
  8
0
100
AcDbSpline
 62
7
  6
CONTINUOUS
 70
0
 71
3
 72
41
 73
37
 74
0
 42
0.0000001
 43
0.0000001
 44
0.0000000001
 40
0.0
 40
0.0
 40
0.0
 40
0.0
 40
0.0299421238
 40
0.0449237703
 40
0.059914519
 40
0.0899291762
 40
0.1200146048
 40
0.1350933663
 40
0.1501974853
 40
0.1804849834
 40
0.2108989722
 40
0.2414525913
 40
0.2721557558
 40
0.3030149766
 40
0.3340332647
 40
0.365210118
 40
0.396541585
 40
0.4280204007
 40
0.4596361866
 40
0.4913757084
 40
0.5232231826
 40
0.5551606251
 40
0.5871682346
 40
0.6192248024
 40
0.6513081434
 40
0.68339554
 40
0.7154641944
 40
0.7474916807
 40
0.7794563937
 40
0.8113379827
 40
0.8431177771
 40
0.8747791563
 40
0.9063079829
 40
0.9376927254
 40
0.9689252285
 40
1.0
 40
1.0
 40
1.0
 40
1.0
 10
11.6219812323
 20
6.7590153696
 30
0.0
 10
11.6254816516
 20
6.7623965212
 30
0.0
 10
11.6309385752
 20
6.767263415
 30
0.0
 10
11.6385809395
 20
6.7733021101
 30
0.0
 10
11.6464666314
 20
6.7790403719
 30
0.0
 10
11.6567562087
 20
6.7856297146
 30
0.0
 10
11.6675460666
 20
6.7913935094
 30
0.0
 10
11.6764449118
 20
6.7954938797
 30
0.0
 10
11.6855275821
 20
6.799255766
 30
0.0
 10
11.6971802432
 20
6.8033008643
 30
0.0
 10
11.7115403892
 20
6.8070708136
 30
0.0
 10
11.7262138834
 20
6.8097415554
 30
0.0
 10
11.7411194069
 20
6.8112983558
 30
0.0
 10
11.7561750801
 20
6.8117329066
 30
0.0
 10
11.7712980618
 20
6.811042996
 30
0.0
 10
11.7864052325
 20
6.8092326093
 30
0.0
 10
11.8014135842
 20
6.8063118718
 30
0.0
 10
11.816240689
 20
6.8022969933
 30
0.0
 10
11.8308051402
 20
6.7972101718
 30
0.0
 10
11.8450269948
 20
6.7910794687
 30
0.0
 10
11.8588282056
 20
6.7839386524
 30
0.0
 10
11.8721330435
 20
6.7758270122
 30
0.0
 10
11.8848685076
 20
6.7667891425
 30
0.0
 10
11.8969647205
 20
6.7568746995
 30
0.0
 10
11.9083553076
 20
6.7461381306
 30
0.0
 10
11.9189777565
 20
6.7346383775
 30
0.0
 10
11.9287737572
 20
6.7224385564
 30
0.0
 10
11.9376895188
 20
6.7096056147
 30
0.0
 10
11.9456760611
 20
6.6962099682
 30
0.0
 10
11.9526894853
 20
6.682325117
 30
0.0
 10
11.9586912041
 20
6.6680272562
 30
0.0
 10
11.9636481754
 20
6.6533948269
 30
0.0
 10
11.9675330363
 20
6.6385082316
 30
0.0
 10
11.9703243482
 20
6.6234488816
 30
0.0
 10
11.9720065673
 20
6.6083006113
 30
0.0
 10
11.9723833638
 20
6.5981694193
 30
0.0
 10
11.9723833638
 20
6.5931185847
 30
0.0
  0
SPLINE
  5
30F
100
AcDbEntity
  8
0
100
AcDbSpline
 62
7
  6
CONTINUOUS
 70
0
 71
3
 72
39
 73
35
 74
0
 42
0.0000001
 43
0.0000001
 44
0.0000000001
 40
0.0
 40
0.0
 40
0.0
 40
0.0
 40
0.0299424756
 40
0.0599093253
 40
0.0899243308
 40
0.1200101061
 40
0.1501875593
 40
0.1804754054
 40
0.2108897454
 40
0.2414437198
 40
0.2721472437
 40
0.3030068255
 40
0.3340254745
 40
0.3652026886
 40
0.3965345175
 40
0.4280136976
 40
0.4596298523
 40
0.4913697474
 40
0.5232175981
 40
0.5551554173
 40
0.5871634018
 40
0.6192203434
 40
0.6513040581
 40
0.68339183
 40
0.7154608619
 40
0.7474887274
 40
0.7794538181
 40
0.8113357796
 40
0.8431159521
 40
0.8747776664
 40
0.9063069638
 40
0.937691791
 40
0.9689252156
 40
1.0
 40
1.0
 40
1.0
 40
1.0
 10
9.1054615573
 20
9.6033752548
 30
0.0
 10
9.1077924047
 20
9.6056266905
 30
0.0
 10
9.1126373636
 20
9.6099478799
 30
0.0
 10
9.1203997666
 20
9.6158347197
 30
0.0
 10
9.1286174341
 20
9.621097178
 30
0.0
 10
9.1372444528
 20
9.6257057312
 30
0.0
 10
9.1462333908
 20
9.6296352048
 30
0.0
 10
9.1555346403
 20
9.6328639982
 30
0.0
 10
9.1650969475
 20
9.6353744433
 30
0.0
 10
9.1748676317
 20
9.6371528305
 30
0.0
 10
9.1847928975
 20
9.6381894923
 30
0.0
 10
9.1948181256
 20
9.6384788586
 30
0.0
 10
9.2048881787
 20
9.6380194735
 30
0.0
 10
9.2149477026
 20
9.6368139906
 30
0.0
 10
9.224941427
 20
9.634869154
 30
0.0
 10
9.2348144654
 20
9.6321957566
 30
0.0
 10
9.2445126112
 20
9.6288085767
 30
0.0
 10
9.2539826309
 20
9.6247262961
 30
0.0
 10
9.2631725504
 20
9.6199713946
 30
0.0
 10
9.2720319439
 20
9.6145700386
 30
0.0
 10
9.2805122037
 20
9.6085519274
 30
0.0
 10
9.2885668021
 20
9.6019501282
 30
0.0
 10
9.296151543
 20
9.5948008964
 30
0.0
 10
9.3032248011
 20
9.587143479
 30
0.0
 10
9.3097477476
 20
9.5790199013
 30
0.0
 10
9.3156845612
 20
9.5704747399
 30
0.0
 10
9.32100262
 20
9.5615548805
 30
0.0
 10
9.3256726995
 20
9.5523092695
 30
0.0
 10
9.329669099
 20
9.5427886468
 30
0.0
 10
9.3329698489
 20
9.5330452385
 30
0.0
 10
9.335556662
 20
9.5231326085
 30
0.0
 10
9.3374153899
 20
9.5131048962
 30
0.0
 10
9.3385355021
 20
9.5030180083
 30
0.0
 10
9.3387864249
 20
9.4962718557
 30
0.0
 10
9.3387864249
 20
9.4929086569
 30
0.0
  0
SPLINE
  5
310
100
AcDbEntity
  8
0
100
AcDbSpline
 62
7
  6
CONTINUOUS
 70
0
 71
3
 72
39
 73
35
 74
0
 42
0.0000001
 43
0.0000001
 44
0.0000000001
 40
0.0
 40
0.0
 40
0.0
 40
0.0
 40
0.0299424756
 40
0.0599093253
 40
0.0899243308
 40
0.1200101061
 40
0.1501875593
 40
0.1804754054
 40
0.2108897454
 40
0.2414437198
 40
0.2721472437
 40
0.3030068255
 40
0.3340254745
 40
0.3652026886
 40
0.3965345175
 40
0.4280136976
 40
0.4596298523
 40
0.4913697474
 40
0.5232175981
 40
0.5551554173
 40
0.5871634018
 40
0.6192203434
 40
0.6513040581
 40
0.68339183
 40
0.7154608619
 40
0.7474887274
 40
0.7794538181
 40
0.8113357796
 40
0.8431159521
 40
0.8747776664
 40
0.9063069638
 40
0.937691791
 40
0.9689252156
 40
1.0
 40
1.0
 40
1.0
 40
1.0
 10
9.7091653496
 20
6.7835054549
 30
0.0
 10
9.711496197
 20
6.7857568905
 30
0.0
 10
9.7163411559
 20
6.7900780799
 30
0.0
 10
9.724103559
 20
6.7959649197
 30
0.0
 10
9.7323212264
 20
6.801227378
 30
0.0
 10
9.7409482452
 20
6.8058359312
 30
0.0
 10
9.7499371831
 20
6.8097654048
 30
0.0
 10
9.7592384327
 20
6.8129941982
 30
0.0
 10
9.7688007398
 20
6.8155046433
 30
0.0
 10
9.7785714241
 20
6.8172830305
 30
0.0
 10
9.7884966899
 20
6.8183196923
 30
0.0
 10
9.798521918
 20
6.8186090586
 30
0.0
 10
9.8085919711
 20
6.8181496735
 30
0.0
 10
9.8186514949
 20
6.8169441906
 30
0.0
 10
9.8286452193
 20
6.8149993541
 30
0.0
 10
9.8385182578
 20
6.8123259566
 30
0.0
 10
9.8482164036
 20
6.8089387767
 30
0.0
 10
9.8576864232
 20
6.8048564961
 30
0.0
 10
9.8668763428
 20
6.8001015946
 30
0.0
 10
9.8757357363
 20
6.7947002386
 30
0.0
 10
9.8842159961
 20
6.7886821275
 30
0.0
 10
9.8922705945
 20
6.7820803282
 30
0.0
 10
9.8998553353
 20
6.7749310965
 30
0.0
 10
9.9069285934
 20
6.767273679
 30
0.0
 10
9.91345154
 20
6.7591501013
 30
0.0
 10
9.9193883535
 20
6.75060494
 30
0.0
 10
9.9247064123
 20
6.7416850806
 30
0.0
 10
9.9293764918
 20
6.7324394695
 30
0.0
 10
9.9333728914
 20
6.7229188468
 30
0.0
 10
9.9366736413
 20
6.7131754385
 30
0.0
 10
9.9392604544
 20
6.7032628085
 30
0.0
 10
9.9411191823
 20
6.6932350962
 30
0.0
 10
9.9422392945
 20
6.6831482083
 30
0.0
 10
9.9424902173
 20
6.6764020557
 30
0.0
 10
9.9424902173
 20
6.6730388569
 30
0.0
  0
SPLINE
  5
311
100
AcDbEntity
  8
0
100
AcDbSpline
 62
7
  6
CONTINUOUS
 70
0
 71
3
 72
27
 73
23
 74
0
 42
0.0000001
 43
0.0000001
 44
0.0000000001
 40
0.0
 40
0.0
 40
0.0
 40
0.0
 40
0.0620093166
 40
0.0929795436
 40
0.1239296729
 40
0.1857786125
 40
0.2476020707
 40
0.2785206069
 40
0.309446961
 40
0.3713327701
 40
0.4333059221
 40
0.4954023549
 40
0.5576560001
 40
0.6200981123
 40
0.6827566608
 40
0.7141793349
 40
0.7456647764
 40
0.8088242662
 40
0.8722591674
 40
0.9040872338
 40
0.935988674
 40
1.0
 40
1.0
 40
1.0
 40
1.0
 10
8.3144026125
 20
9.1328038682
 30
0.0
 10
8.318042351
 20
9.1387146255
 30
0.0
 10
8.3238015707
 20
9.1473970992
 30
0.0
 10
8.3320505904
 20
9.1585536877
 30
0.0
 10
8.3406640187
 20
9.1694091708
 30
0.0
 10
8.3521123818
 20
9.1824103389
 30
0.0
 10
8.364423256
 20
9.1945931976
 30
0.0
 10
8.3747545474
 20
9.2038118102
 30
0.0
 10
8.3854025631
 20
9.2126735317
 30
0.0
 10
8.3992882271
 20
9.2230628329
 30
0.0
 10
8.4167899041
 20
9.23436278
 30
0.0
 10
8.4350652823
 20
9.2444495941
 30
0.0
 10
8.4540389369
 20
9.253277176
 30
0.0
 10
8.4736316192
 20
9.260805047
 30
0.0
 10
8.4903927406
 20
9.2659618464
 30
0.0
 10
8.5040228674
 20
9.2694064112
 30
0.0
 10
8.5178166939
 20
9.272399366
 30
0.0
 10
8.5352922995
 20
9.2752725047
 30
0.0
 10
8.5529590489
 20
9.2769715093
 30
0.0
 10
8.5671815343
 20
9.2776266693
 30
0.0
 10
8.5814819388
 20
9.2778113911
 30
0.0
 10
8.5922216957
 20
9.2774179127
 30
0.0
 10
8.5993701611
 20
9.276922165
 30
0.0
  0
SPLINE
  5
312
100
AcDbEntity
  8
0
100
AcDbSpline
 62
7
  6
CONTINUOUS
 70
0
 71
3
 72
40
 73
36
 74
0
 42
0.0000001
 43
0.0000001
 44
0.0000000001
 40
0.0
 40
0.0
 40
0.0
 40
0.0
 40
0.0095990696
 40
0.0188533195
 40
0.0278194616
 40
0.0365491586
 40
0.0534842121
 40
0.0700208129
 40
0.0864656866
 40
0.1030824105
 40
0.1200970726
 40
0.1377041731
 40
0.156072404
 40
0.175351092
 40
0.1956757298
 40
0.2171720265
 40
0.2399607443
 40
0.2641592678
 40
0.2898845808
 40
0.317252942
 40
0.3463800582
 40
0.3773790306
 40
0.4103559061
 40
0.4454041714
 40
0.4825959498
 40
0.5219705817
 40
0.5635211908
 40
0.6071802693
 40
0.6528070581
 40
0.7001793643
 40
0.7988147238
 40
0.8493259482
 40
0.9000060525
 40
0.9503827607
 40
1.0
 40
1.0
 40
1.0
 40
1.0
 10
8.8407141082
 20
8.8721371113
 30
0.0
 10
8.8412975783
 20
8.8715442609
 30
0.0
 10
8.8424092865
 20
8.8703454292
 30
0.0
 10
8.8439365637
 20
8.8684783433
 30
0.0
 10
8.8452998368
 20
8.8665801318
 30
0.0
 10
8.8468922176
 20
8.8640345687
 30
0.0
 10
8.8485332942
 20
8.8607543402
 30
0.0
 10
8.8499644027
 20
8.8566606774
 30
0.0
 10
8.8508781829
 20
8.8524504727
 30
0.0
 10
8.8513023412
 20
8.8481228317
 30
0.0
 10
8.8512600121
 20
8.8436751569
 30
0.0
 10
8.8507652757
 20
8.8391032745
 30
0.0
 10
8.849826751
 20
8.8344022552
 30
0.0
 10
8.8484473647
 20
8.8295666476
 30
0.0
 10
8.8466235821
 20
8.8245914701
 30
0.0
 10
8.8443483971
 20
8.8194716595
 30
0.0
 10
8.8416081395
 20
8.8142038556
 30
0.0
 10
8.8383857125
 20
8.8087855956
 30
0.0
 10
8.8346586973
 20
8.8032169576
 30
0.0
 10
8.8303999407
 20
8.797501359
 30
0.0
 10
8.8255785316
 20
8.7916462458
 30
0.0
 10
8.8201594122
 20
8.7856653276
 30
0.0
 10
8.8141047734
 20
8.7795802758
 30
0.0
 10
8.8073757799
 20
8.773422929
 30
0.0
 10
8.7999348742
 20
8.7672380208
 30
0.0
 10
8.7917494026
 20
8.7610858243
 30
0.0
 10
8.7827962495
 20
8.7550443972
 30
0.0
 10
8.7730679736
 20
8.7492109495
 30
0.0
 10
8.7625775596
 20
8.7437007645
 30
0.0
 10
8.7474333649
 20
8.7368705885
 30
0.0
 10
8.7312455159
 20
8.7313827134
 30
0.0
 10
8.7143325282
 20
8.727608673
 30
0.0
 10
8.7013178073
 20
8.725736471
 30
0.0
 10
8.6882719113
 20
8.724929705
 30
0.0
 10
8.6795960307
 20
8.7251358925
 30
0.0
 10
8.6753067343
 20
8.7254333562
 30
0.0
  0
SPLINE
  5
313
100
AcDbEntity
  8
0
100
AcDbSpline
 62
7
  6
CONTINUOUS
 70
0
 71
3
 72
25
 73
21
 74
0
 42
0.0000001
 43
0.0000001
 44
0.0000000001
 40
0.0
 40
0.0
 40
0.0
 40
0.0
 40
0.0623811219
 40
0.0935082934
 40
0.1245952889
 40
0.1866563039
 40
0.2486123276
 40
0.2795693725
 40
0.310516081
 40
0.3723902196
 40
0.4342927052
 40
0.4962716941
 40
0.5583753789
 40
0.6206506422
 40
0.683141591
 40
0.7458880829
 40
0.8089241611
 40
0.8722771736
 40
0.9359653049
 40
1.0
 40
1.0
 40
1.0
 40
1.0
 10
9.5309581989
 20
9.0054122434
 30
0.0
 10
9.5338084748
 20
9.0120368576
 30
0.0
 10
9.5384321627
 20
9.0218216965
 30
0.0
 10
9.5452770218
 20
9.0344982317
 30
0.0
 10
9.5525554971
 20
9.0468886441
 30
0.0
 10
9.5624753042
 20
9.0618464335
 30
0.0
 10
9.573462937
 20
9.0760202671
 30
0.0
 10
9.5828602058
 20
9.0868284456
 30
0.0
 10
9.5926520517
 20
9.0972673913
 30
0.0
 10
9.6056271338
 20
9.1096076174
 30
0.0
 10
9.6222979436
 20
9.1231781331
 30
0.0
 10
9.639997915
 20
9.1354245357
 30
0.0
 10
9.6586438618
 20
9.1462624705
 30
0.0
 10
9.6781438423
 20
9.1556142874
 30
0.0
 10
9.6983964546
 20
9.1634096581
 30
0.0
 10
9.7192915613
 20
9.1695873474
 30
0.0
 10
9.7407108455
 20
9.1740967374
 30
0.0
 10
9.7625296011
 20
9.1768990032
 30
0.0
 10
9.784615583
 20
9.1779687516
 30
0.0
 10
9.799392435
 20
9.1775199194
 30
0.0
 10
9.8067776306
 20
9.1770077543
 30
0.0
  0
SPLINE
  5
314
100
AcDbEntity
  8
0
100
AcDbSpline
 62
7
  6
CONTINUOUS
 70
0
 71
3
 72
11
 73
7
 74
0
 42
0.0000001
 43
0.0000001
 44
0.0000000001
 40
0.0
 40
0.0
 40
0.0
 40
0.0
 40
0.2478034951
 40
0.4970066137
 40
0.747716817
 40
1.0
 40
1.0
 40
1.0
 40
1.0
 10
9.097961805
 20
7.6236010822
 30
0.0
 10
9.1063571679
 20
7.6261856558
 30
0.0
 10
9.1234495112
 20
7.6305802525
 30
0.0
 10
9.1496578975
 20
7.6347732345
 30
0.0
 10
9.1762987617
 20
7.6365505439
 30
0.0
 10
9.1941522894
 20
7.6361141919
 30
0.0
 10
9.2030738566
 20
7.6354954792
 30
0.0
  0
SPLINE
  5
315
100
AcDbEntity
  8
0
100
AcDbSpline
 62
7
  6
CONTINUOUS
 70
0
 71
3
 72
39
 73
35
 74
0
 42
0.0000001
 43
0.0000001
 44
0.0000000001
 40
0.0
 40
0.0
 40
0.0
 40
0.0
 40
0.0300033687
 40
0.0600219743
 40
0.090070822
 40
0.1201644586
 40
0.1503167546
 40
0.1805406999
 40
0.2108482147
 40
0.2412499827
 40
0.2717553055
 40
0.3023719812
 40
0.3331062079
 40
0.3639625143
 40
0.3949437146
 40
0.4260508904
 40
0.4572833967
 40
0.4886388902
 40
0.5201133821
 40
0.5517013096
 40
0.583395626
 40
0.6151879063
 40
0.6470684686
 40
0.6790265078
 40
0.71105024
 40
0.7431270565
 40
0.7752436865
 40
0.8073863618
 40
0.8395410054
 40
0.8716933426
 40
0.9038292924
 40
0.9359344979
 40
0.9679961403
 40
1.0
 40
1.0
 40
1.0
 40
1.0
 10
10.1499520553
 20
7.5149742432
 30
0.0
 10
10.1548608803
 20
7.5197157899
 30
0.0
 10
10.1649815356
 20
7.528895749
 30
0.0
 10
10.1809999289
 20
7.5416906389
 30
0.0
 10
10.1978049277
 20
7.5534704903
 30
0.0
 10
10.2153381065
 20
7.5641942068
 30
0.0
 10
10.2335395182
 20
7.573825253
 30
0.0
 10
10.2523466681
 20
7.5823306082
 30
0.0
 10
10.2716950604
 20
7.5896811983
 30
0.0
 10
10.2915183364
 20
7.595851911
 30
0.0
 10
10.3117485312
 20
7.6008216938
 30
0.0
 10
10.3323163028
 20
7.6045736182
 30
0.0
 10
10.3531511722
 20
7.6070949349
 30
0.0
 10
10.3741817656
 20
7.6083771136
 30
0.0
 10
10.395336058
 20
7.6084158681
 30
0.0
 10
10.4165416195
 20
7.6072111677
 30
0.0
 10
10.4377258616
 20
7.6047672329
 30
0.0
 10
10.4588162849
 20
7.6010925274
 30
0.0
 10
10.4797407268
 20
7.596199722
 30
0.0
 10
10.5004276057
 20
7.5901056453
 30
0.0
 10
10.5208061635
 20
7.5828312251
 30
0.0
 10
10.5408067053
 20
7.5744014156
 30
0.0
 10
10.5603608352
 20
7.5648451121
 30
0.0
 10
10.5794016879
 20
7.5541950512
 30
0.0
 10
10.5978641549
 20
7.5424876996
 30
0.0
 10
10.6156851054
 20
7.5297631294
 30
0.0
 10
10.6328036037
 20
7.5160648881
 30
0.0
 10
10.649161122
 20
7.5014398459
 30
0.0
 10
10.6647017094
 20
7.4859380329
 30
0.0
 10
10.6793722647
 20
7.4696124572
 30
0.0
 10
10.6931224917
 20
7.4525190115
 30
0.0
 10
10.7059056333
 20
7.4347159037
 30
0.0
 10
10.7176773121
 20
7.4162648167
 30
0.0
 10
10.7248323911
 20
7.4035592531
 30
0.0
 10
10.7282278782
 20
7.3971196953
 30
0.0
  0
SPLINE
  5
316
100
AcDbEntity
  8
0
100
AcDbSpline
 62
7
  6
CONTINUOUS
 70
0
 71
3
 72
20
 73
16
 74
0
 42
0.0000001
 43
0.0000001
 44
0.0000000001
 40
0.0
 40
0.0
 40
0.0
 40
0.0
 40
0.0421066228
 40
0.0878055474
 40
0.1369250849
 40
0.1892630189
 40
0.2446043714
 40
0.30273369
 40
0.363445659
 40
0.4265492546
 40
0.4918697297
 40
0.5592515961
 40
0.6996264357
 40
0.8467831257
 40
1.0
 40
1.0
 40
1.0
 40
1.0
 10
10.0911922423
 20
7.3953752006
 30
0.0
 10
10.0911090658
 20
7.397277721
 30
0.0
 10
10.0911088822
 20
7.4012537968
 30
0.0
 10
10.0915658889
 20
7.4074342304
 30
0.0
 10
10.0924976205
 20
7.4140287081
 30
0.0
 10
10.0939170565
 20
7.4209808028
 30
0.0
 10
10.0958329868
 20
7.4282348049
 30
0.0
 10
10.0982505639
 20
7.435736101
 30
0.0
 10
10.1011714437
 20
7.4434326499
 30
0.0
 10
10.1045948223
 20
7.4512752653
 30
0.0
 10
10.1085179682
 20
7.4592181605
 30
0.0
 10
10.11448979
 20
7.47003281
 30
0.0
 10
10.1231935381
 20
7.4835466183
 30
0.0
 10
10.135383779
 20
7.4993451988
 30
0.0
 10
10.1445463689
 20
7.5093986011
 30
0.0
 10
10.1494094658
 20
7.5143349837
 30
0.0
  0
SPLINE
  5
317
100
AcDbEntity
  8
0
100
AcDbSpline
 62
7
  6
CONTINUOUS
 70
0
 71
3
 72
23
 73
19
 74
0
 42
0.0000001
 43
0.0000001
 44
0.0000000001
 40
0.0
 40
0.0
 40
0.0
 40
0.0
 40
0.062203392
 40
0.1242632836
 40
0.1862159055
 40
0.2481003038
 40
0.3099577541
 40
0.3718309963
 40
0.433763317
 40
0.4957975895
 40
0.5579753755
 40
0.6203359442
 40
0.682915168
 40
0.7457445105
 40
0.808850839
 40
0.8722526542
 40
0.9359691425
 40
1.0
 40
1.0
 40
1.0
 40
1.0
 10
10.7104847555
 20
8.7898987708
 30
0.0
 10
10.7117170624
 20
8.7923212627
 30
0.0
 10
10.7143490013
 20
8.7970763169
 30
0.0
 10
10.71878673
 20
8.8039039086
 30
0.0
 10
10.7236930653
 20
8.8103861312
 30
0.0
 10
10.7290486382
 20
8.8164906898
 30
0.0
 10
10.734831975
 20
8.8221868951
 30
0.0
 10
10.7410190792
 20
8.8274451239
 30
0.0
 10
10.7475834801
 20
8.8322372811
 30
0.0
 10
10.7544961879
 20
8.8365370628
 30
0.0
 10
10.7617257946
 20
8.8403202082
 30
0.0
 10
10.7692385597
 20
8.8435647921
 30
0.0
 10
10.7769985391
 20
8.8462515089
 30
0.0
 10
10.7849678009
 20
8.8483640099
 30
0.0
 10
10.7931065206
 20
8.849889052
 30
0.0
 10
10.8013737902
 20
8.850817033
 30
0.0
 10
10.8097265577
 20
8.851141499
 30
0.0
 10
10.8153109065
 20
8.8509543421
 30
0.0
 10
10.8181019643
 20
8.8507607815
 30
0.0
  0
SPLINE
  5
318
100
AcDbEntity
  8
0
100
AcDbSpline
 62
7
  6
CONTINUOUS
 70
0
 71
3
 72
40
 73
36
 74
0
 42
0.0000001
 43
0.0000001
 44
0.0000000001
 40
0.0
 40
0.0
 40
0.0
 40
0.0
 40
0.0316295058
 40
0.0634538024
 40
0.0954475512
 40
0.1275801709
 40
0.1598163958
 40
0.1759657403
 40
0.1921266442
 40
0.2244554868
 40
0.2567728795
 40
0.2890422799
 40
0.3212299548
 40
0.3533057781
 40
0.3852438367
 40
0.417022882
 40
0.4486266666
 40
0.4800442005
 40
0.5112699494
 40
0.5423039888
 40
0.5731521147
 40
0.6038258967
 40
0.6343426491
 40
0.6647252796
 40
0.6950019706
 40
0.7252056382
 40
0.7553731219
 40
0.7855440688
 40
0.8157595007
 40
0.846060102
 40
0.8764843224
 40
0.9070663158
 40
0.9378343553
 40
0.968808086
 40
1.0
 40
1.0
 40
1.0
 40
1.0
 10
11.2678104101
 20
7.2505611829
 30
0.0
 10
11.2717151401
 20
7.2498776109
 30
0.0
 10
11.2794853288
 20
7.2481131756
 30
0.0
 10
11.2908525088
 20
7.2443298946
 30
0.0
 10
11.301861955
 20
7.2394461153
 30
0.0
 10
11.3124052965
 20
7.2335207385
 30
0.0
 10
11.3207190428
 20
7.2277736851
 30
0.0
 10
11.3270451893
 20
7.2227279386
 30
0.0
 10
11.3331452823
 20
7.2173934242
 30
0.0
 10
11.3403126401
 20
7.2102175594
 30
0.0
 10
11.3481109538
 20
7.2008850882
 30
0.0
 10
11.3550513133
 20
7.1909194388
 30
0.0
 10
11.3610835436
 20
7.1804145998
 30
0.0
 10
11.3661667628
 20
7.1694650363
 30
0.0
 10
11.370267985
 20
7.1581656495
 30
0.0
 10
11.3733616914
 20
7.1466111447
 30
0.0
 10
11.375429217
 20
7.1348958271
 30
0.0
 10
11.3764583147
 20
7.1231134979
 30
0.0
 10
11.37644284
 20
7.1113574762
 30
0.0
 10
11.3753825967
 20
7.09972068
 30
0.0
 10
11.3732833488
 20
7.0882957217
 30
0.0
 10
11.370156999
 20
7.0771749691
 30
0.0
 10
11.3660219308
 20
7.0664505218
 30
0.0
 10
11.3609034954
 20
7.0562140541
 30
0.0
 10
11.3548346163
 20
7.0465564747
 30
0.0
 10
11.3478564685
 20
7.037567355
 30
0.0
 10
11.3400191712
 20
7.0293340908
 30
0.0
 10
11.3313824143
 20
7.0219407722
 30
0.0
 10
11.3220159237
 20
7.0154667603
 30
0.0
 10
11.3119996677
 20
7.0099850053
 30
0.0
 10
11.3014236335
 20
7.0055602195
 30
0.0
 10
11.2903873596
 20
7.0022468815
 30
0.0
 10
11.278998218
 20
7.0000876258
 30
0.0
 10
11.2673721126
 20
6.9991111393
 30
0.0
 10
11.2595663581
 20
6.999257962
 30
0.0
 10
11.2556664559
 20
6.9995284211
 30
0.0
  0
SPLINE
  5
319
100
AcDbEntity
  8
0
100
AcDbSpline
 62
7
  6
CONTINUOUS
 70
0
 71
3
 72
34
 73
30
 74
0
 42
0.0000001
 43
0.0000001
 44
0.0000000001
 40
0.0
 40
0.0
 40
0.0
 40
0.0
 40
0.029948265
 40
0.059920911
 40
0.0899417355
 40
0.1200333579
 40
0.1502166746
 40
0.1805103996
 40
0.2109306468
 40
0.241490565
 40
0.2722000568
 40
0.303065626
 40
0.3340902961
 40
0.3652735746
 40
0.3966114954
 40
0.4280967817
 40
0.4597190652
 40
0.4914651189
 40
0.5552240134
 40
0.6192627273
 40
0.6834082032
 40
0.7474789322
 40
0.8112993139
 40
0.8430855846
 40
0.8747534858
 40
0.9062889405
 40
0.9376793031
 40
0.9689201346
 40
1.0
 40
1.0
 40
1.0
 40
1.0
 10
10.7639125097
 20
9.3855670538
 30
0.0
 10
10.7652065054
 20
9.3868169379
 30
0.0
 10
10.7678962895
 20
9.3892157853
 30
0.0
 10
10.7722056806
 20
9.3924838308
 30
0.0
 10
10.7767678115
 20
9.3954052487
 30
0.0
 10
10.7815572008
 20
9.397963628
 30
0.0
 10
10.7865475096
 20
9.4001449973
 30
0.0
 10
10.7917111844
 20
9.4019373958
 30
0.0
 10
10.7970197762
 20
9.4033310163
 30
0.0
 10
10.8024440486
 20
9.4043182132
 30
0.0
 10
10.807954131
 20
9.4048936277
 30
0.0
 10
10.8135196987
 20
9.405054201
 30
0.0
 10
10.819110149
 20
9.4047991209
 30
0.0
 10
10.8246947457
 20
9.4041298287
 30
0.0
 10
10.8302428211
 20
9.4030500506
 30
0.0
 10
10.8357238309
 20
9.4015658676
 30
0.0
 10
10.8411079869
 20
9.3996852912
 30
0.0
 10
10.8481258664
 20
9.3966601954
 30
0.0
 10
10.8565071324
 20
9.3919411277
 30
0.0
 10
10.8657003626
 20
9.3849219016
 30
0.0
 10
10.8738516568
 20
9.3766875524
 30
0.0
 10
10.8807814632
 20
9.367419784
 30
0.0
 10
10.8854214993
 20
9.3589854595
 30
0.0
 10
10.8883825962
 20
9.3519307698
 30
0.0
 10
10.8902151452
 20
9.3465214667
 30
0.0
 10
10.8916511491
 20
9.3410184778
 30
0.0
 10
10.8926830725
 20
9.3354514739
 30
0.0
 10
10.8933048475
 20
9.3298516836
 30
0.0
 10
10.8934441833
 20
9.3261064938
 30
0.0
 10
10.8934441833
 20
9.3242394507
 30
0.0
  0
SPLINE
  5
31A
100
AcDbEntity
  8
0
100
AcDbSpline
 62
7
  6
CONTINUOUS
 70
0
 71
3
 72
34
 73
30
 74
0
 42
0.0000001
 43
0.0000001
 44
0.0000000001
 40
0.0
 40
0.0
 40
0.0
 40
0.0
 40
0.029948265
 40
0.059920911
 40
0.0899417355
 40
0.1200333579
 40
0.1502166746
 40
0.1805103996
 40
0.2109306468
 40
0.241490565
 40
0.2722000568
 40
0.303065626
 40
0.3340902961
 40
0.3652735746
 40
0.3966114954
 40
0.4280967817
 40
0.4597190652
 40
0.4914651189
 40
0.5552240134
 40
0.6192627273
 40
0.6834082032
 40
0.7474789322
 40
0.8112993139
 40
0.8430855846
 40
0.8747534858
 40
0.9062889405
 40
0.9376793031
 40
0.9689201346
 40
1.0
 40
1.0
 40
1.0
 40
1.0
 10
8.5451807064
 20
6.8831404473
 30
0.0
 10
8.5464747021
 20
6.8843903314
 30
0.0
 10
8.5491644863
 20
6.8867891787
 30
0.0
 10
8.5534738773
 20
6.8900572242
 30
0.0
 10
8.5580360082
 20
6.8929786422
 30
0.0
 10
8.5628253975
 20
6.8955370214
 30
0.0
 10
8.5678157063
 20
6.8977183908
 30
0.0
 10
8.5729793811
 20
6.8995107893
 30
0.0
 10
8.578287973
 20
6.9009044097
 30
0.0
 10
8.5837122453
 20
6.9018916067
 30
0.0
 10
8.5892223277
 20
6.9024670211
 30
0.0
 10
8.5947878954
 20
6.9026275945
 30
0.0
 10
8.6003783458
 20
6.9023725143
 30
0.0
 10
8.6059629425
 20
6.9017032222
 30
0.0
 10
8.6115110179
 20
6.9006234441
 30
0.0
 10
8.6169920276
 20
6.8991392611
 30
0.0
 10
8.6223761836
 20
6.8972586847
 30
0.0
 10
8.6293940631
 20
6.8942335888
 30
0.0
 10
8.6377753291
 20
6.8895145212
 30
0.0
 10
8.6469685594
 20
6.8824952951
 30
0.0
 10
8.6551198535
 20
6.8742609459
 30
0.0
 10
8.66204966
 20
6.8649931774
 30
0.0
 10
8.6666896961
 20
6.856558853
 30
0.0
 10
8.6696507929
 20
6.8495041633
 30
0.0
 10
8.6714833419
 20
6.8440948602
 30
0.0
 10
8.6729193458
 20
6.8385918712
 30
0.0
 10
8.6739512693
 20
6.8330248674
 30
0.0
 10
8.6745730442
 20
6.827425077
 30
0.0
 10
8.67471238
 20
6.8236798873
 30
0.0
 10
8.67471238
 20
6.8218128442
 30
0.0
  0
SPLINE
  5
31B
100
AcDbEntity
  8
0
100
AcDbSpline
 62
7
  6
CONTINUOUS
 70
0
 71
3
 72
60
 73
56
 74
0
 42
0.0000001
 43
0.0000001
 44
0.0000000001
 40
0.0
 40
0.0
 40
0.0
 40
0.0
 40
0.0027165059
 40
0.005453396
 40
0.0082305579
 40
0.0110669375
 40
0.0169824427
 40
0.0233277027
 40
0.030199575
 40
0.0376706051
 40
0.0457931517
 40
0.0546033099
 40
0.0641243776
 40
0.0743698368
 40
0.0853450835
 40
0.0970493141
 40
0.109476478
 40
0.1226161199
 40
0.1364542509
 40
0.1509735092
 40
0.1661538836
 40
0.1819728358
 40
0.1984055591
 40
0.2154253771
 40
0.2330036439
 40
0.2511101869
 40
0.2697132853
 40
0.2887798177
 40
0.3281639543
 40
0.3689761443
 40
0.4109144248
 40
0.453665709
 40
0.4969090069
 40
0.5403185876
 40
0.5835671264
 40
0.6263288469
 40
0.6682826567
 40
0.709115308
 40
0.7485246275
 40
0.7862228824
 40
0.8219403027
 40
0.8389784627
 40
0.8554304524
 40
0.8712694464
 40
0.8864706762
 40
0.9010114383
 40
0.9148716754
 40
0.9280339701
 40
0.9404841134
 40
0.9522116714
 40
0.96321035
 40
0.9734790534
 40
0.98302315
 40
0.9918562785
 40
1.0
 40
1.0
 40
1.0
 40
1.0
 10
14.3048001455
 20
8.0918235873
 30
0.0
 10
14.3043596821
 20
8.0918541376
 30
0.0
 10
14.3034777025
 20
8.0919553243
 30
0.0
 10
14.302165978
 20
8.0922261284
 30
0.0
 10
14.3008641309
 20
8.0926159235
 30
0.0
 10
14.2991187702
 20
8.0933030276
 30
0.0
 10
14.2969529446
 20
8.0944784911
 30
0.0
 10
14.2944497009
 20
8.0963377444
 30
0.0
 10
14.2920070314
 20
8.098658756
 30
0.0
 10
14.289627724
 20
8.101435506
 30
0.0
 10
14.2873143503
 20
8.1046625471
 30
0.0
 10
14.28507025
 20
8.108333875
 30
0.0
 10
14.2828990219
 20
8.1124427156
 30
0.0
 10
14.2808046389
 20
8.1169814184
 30
0.0
 10
14.2787909699
 20
8.1219413141
 30
0.0
 10
14.2768619844
 20
8.1273128335
 30
0.0
 10
14.2750215109
 20
8.1330854751
 30
0.0
 10
14.2732732019
 20
8.1392478598
 30
0.0
 10
14.2716206547
 20
8.1457877843
 30
0.0
 10
14.2700671578
 20
8.1526922285
 30
0.0
 10
14.2686159038
 20
8.1599474173
 30
0.0
 10
14.2672698452
 20
8.1675388425
 30
0.0
 10
14.2660316872
 20
8.1754513015
 30
0.0
 10
14.2649040038
 20
8.1836689316
 30
0.0
 10
14.2638890378
 20
8.1921752463
 30
0.0
 10
14.2629888907
 20
8.2009531632
 30
0.0
 10
14.2622053725
 20
8.209985068
 30
0.0
 10
14.2613086997
 20
8.2224770839
 30
0.0
 10
14.2604992815
 20
8.2385924615
 30
0.0
 10
14.2600213433
 20
8.2584396324
 30
0.0
 10
14.2600309489
 20
8.2788397673
 30
0.0
 10
14.2605281919
 20
8.2996289574
 30
0.0
 10
14.2615092445
 20
8.3206402841
 30
0.0
 10
14.2629662982
 20
8.3417049673
 30
0.0
 10
14.2648876449
 20
8.3626538062
 30
0.0
 10
14.2672577802
 20
8.3833185415
 30
0.0
 10
14.2700575251
 20
8.4035332406
 30
0.0
 10
14.2732641837
 20
8.4231356255
 30
0.0
 10
14.2768516867
 20
8.441968521
 30
0.0
 10
14.2807908875
 20
8.4598808059
 30
0.0
 10
14.2843941101
 20
8.4741372309
 30
0.0
 10
14.2874407652
 20
8.4849658607
 30
0.0
 10
14.2897572042
 20
8.4926420907
 30
0.0
 10
14.2921363528
 20
8.4999859354
 30
0.0
 10
14.2945734051
 20
8.5069827087
 30
0.0
 10
14.2970634861
 20
8.5136184126
 30
0.0
 10
14.2996015174
 20
8.5198798243
 30
0.0
 10
14.3021824173
 20
8.5257544843
 30
0.0
 10
14.3048010081
 20
8.5312307594
 30
0.0
 10
14.3074520209
 20
8.5362978818
 30
0.0
 10
14.3101302936
 20
8.5409459134
 30
0.0
 10
14.3128304854
 20
8.5451658912
 30
0.0
 10
14.3155476981
 20
8.5489499251
 30
0.0
 10
14.3182766658
 20
8.5522904058
 30
0.0
 10
14.3201757906
 20
8.5542970063
 30
0.0
 10
14.3211278124
 20
8.5552165888
 30
0.0
  0
SPLINE
  5
31C
100
AcDbEntity
  8
0
100
AcDbSpline
 62
7
  6
CONTINUOUS
 70
0
 71
3
 72
31
 73
27
 74
0
 42
0.0000001
 43
0.0000001
 44
0.0000000001
 40
0.0
 40
0.0
 40
0.0
 40
0.0
 40
0.0162143915
 40
0.0334275491
 40
0.0516719541
 40
0.0709711783
 40
0.0913407392
 40
0.1127899566
 40
0.1353222951
 40
0.158936774
 40
0.1836280092
 40
0.209387288
 40
0.2362024717
 40
0.2640588099
 40
0.29293881
 40
0.3228228363
 40
0.3536890128
 40
0.3855136356
 40
0.451932613
 40
0.5218584336
 40
0.5950447552
 40
0.6712252994
 40
0.7501162943
 40
0.8314190027
 40
0.9148210884
 40
1.0
 40
1.0
 40
1.0
 40
1.0
 10
14.9040502435
 20
10.0568464608
 30
0.0
 10
14.9053716992
 20
10.0552216645
 30
0.0
 10
14.9079847993
 20
10.0517804802
 30
0.0
 10
14.9117113166
 20
10.0462399051
 30
0.0
 10
14.9153559828
 20
10.0401754038
 30
0.0
 10
14.9189149101
 20
10.0335933342
 30
0.0
 10
14.9223847952
 20
10.026500332
 30
0.0
 10
14.9257619801
 20
10.0189036187
 30
0.0
 10
14.9290431288
 20
10.0108110233
 30
0.0
 10
14.932224724
 20
10.0022308776
 30
0.0
 10
14.9353035442
 20
9.9931720992
 30
0.0
 10
14.9382762647
 20
9.9836441008
 30
0.0
 10
14.9411398327
 20
9.9736568345
 30
0.0
 10
14.9438911541
 20
9.9632207378
 30
0.0
 10
14.9465273781
 20
9.9523467442
 30
0.0
 10
14.9490456561
 20
9.9410462603
 30
0.0
 10
14.9514433942
 20
9.9293311332
 30
0.0
 10
14.9545200057
 20
9.9129403312
 30
0.0
 10
14.958028178
 20
9.8915004736
 30
0.0
 10
14.9616631322
 20
9.864678682
 30
0.0
 10
14.9647650724
 20
9.8365214152
 30
0.0
 10
14.9673206684
 20
9.8071471279
 30
0.0
 10
14.9693188622
 20
9.7766792111
 30
0.0
 10
14.9707509988
 20
9.7452458424
 30
0.0
 10
14.9716108727
 20
9.7129793873
 30
0.0
 10
14.9717983513
 20
9.6912041371
 30
0.0
 10
14.9717983513
 20
9.6802020256
 30
0.0
  0
SPLINE
  5
31D
100
AcDbEntity
  8
0
100
AcDbSpline
 62
7
  6
CONTINUOUS
 70
0
 71
3
 72
17
 73
13
 74
0
 42
0.0000001
 43
0.0000001
 44
0.0000000001
 40
0.0
 40
0.0
 40
0.0
 40
0.0
 40
0.1492506635
 40
0.2896780469
 40
0.4219823974
 40
0.4853805152
 40
0.5471014468
 40
0.6660508601
 40
0.7801597401
 40
0.8909114747
 40
0.9455641552
 40
1.0
 40
1.0
 40
1.0
 40
1.0
 10
14.2106124611
 20
6.3196808916
 30
0.0
 10
14.2090774809
 20
6.3182523162
 30
0.0
 10
14.2060094253
 20
6.3155724118
 30
0.0
 10
14.2012653156
 20
6.3120075265
 30
0.0
 10
14.1972616235
 20
6.3094902082
 30
0.0
 10
14.1940696987
 20
6.3077867897
 30
0.0
 10
14.1909674324
 20
6.3063232504
 30
0.0
 10
14.1870884551
 20
6.3048469943
 30
0.0
 10
14.1823966647
 20
6.3036531982
 30
0.0
 10
14.1784891404
 20
6.3031592497
 30
0.0
 10
14.1754000238
 20
6.3030709989
 30
0.0
 10
14.1738670648
 20
6.3031270375
 30
0.0
 10
14.1731041001
 20
6.3031799547
 30
0.0
  0
SPLINE
  5
31E
100
AcDbEntity
  8
0
100
AcDbSpline
 62
7
  6
CONTINUOUS
 70
0
 71
3
 72
18
 73
14
 74
0
 42
0.0000001
 43
0.0000001
 44
0.0000000001
 40
0.0
 40
0.0
 40
0.0
 40
0.0
 40
0.0544331303
 40
0.1090830662
 40
0.1641638838
 40
0.2198842992
 40
0.3339869687
 40
0.4529303861
 40
0.5146489674
 40
0.5780447346
 40
0.7103433234
 40
0.8507561372
 40
1.0
 40
1.0
 40
1.0
 40
1.0
 10
14.8433032934
 20
10.1101821108
 30
0.0
 10
14.8440662622
 20
10.1101291934
 30
0.0
 10
14.8455922389
 20
10.1099730963
 30
0.0
 10
14.8478681769
 20
10.1095892882
 30
0.0
 10
14.8501324382
 20
10.1090556887
 30
0.0
 10
14.8531580349
 20
10.1081378627
 30
0.0
 10
14.8569240818
 20
10.1066006324
 30
0.0
 10
14.8605617656
 20
10.1046030841
 30
0.0
 10
14.8634323735
 20
10.1027252628
 30
0.0
 10
14.8663586581
 20
10.1005975487
 30
0.0
 10
14.8699764447
 20
10.0975516391
 30
0.0
 10
14.8741830998
 20
10.0933661479
 30
0.0
 10
14.8768517681
 20
10.0902884089
 30
0.0
 10
14.8781748574
 20
10.088661599
 30
0.0
  0
SPLINE
  5
31F
100
AcDbEntity
  8
0
100
AcDbSpline
 62
7
  6
CONTINUOUS
 70
0
 71
3
 72
70
 73
66
 74
0
 42
0.0000001
 43
0.0000001
 44
0.0000000001
 40
0.0
 40
0.0
 40
0.0
 40
0.0
 40
0.0027164662
 40
0.0054533056
 40
0.00823041
 40
0.0110667303
 40
0.0139799693
 40
0.0169863102
 40
0.0233314277
 40
0.0266978118
 40
0.030205787
 40
0.0338637427
 40
0.0376787376
 40
0.0416567423
 40
0.0458027163
 40
0.0501206753
 40
0.0546139105
 40
0.0592849734
 40
0.0641357816
 40
0.0743809828
 40
0.0853559939
 40
0.0970599552
 40
0.1094868339
 40
0.1226262332
 40
0.1364640492
 40
0.1509830183
 40
0.1661630986
 40
0.1819817357
 40
0.1984141622
 40
0.2154336353
 40
0.2330115974
 40
0.2511178132
 40
0.2697205631
 40
0.2887867765
 40
0.3082821246
 40
0.3281711434
 40
0.3689826373
 40
0.4109202254
 40
0.4536708213
 40
0.4969134299
 40
0.5403223294
 40
0.583570201
 40
0.6263312643
 40
0.6682844376
 40
0.7091164641
 40
0.7290175536
 40
0.7485261205
 40
0.7676066734
 40
0.7862248613
 40
0.8043475584
 40
0.8219429835
 40
0.8389808749
 40
0.8554326236
 40
0.8712714053
 40
0.886472378
 40
0.9010129456
 40
0.9148729704
 40
0.9280350698
 40
0.9404850443
 40
0.9522123859
 40
0.9632109071
 40
0.9734795381
 40
0.9830234454
 40
0.9918561712
 40
1.0
 40
1.0
 40
1.0
 40
1.0
 10
14.4325456902
 20
8.7013812706
 30
0.0
 10
14.4316274323
 20
8.7014449484
 30
0.0
 10
14.4297887296
 20
8.701655875
 30
0.0
 10
14.4270540799
 20
8.7022203405
 30
0.0
 10
14.4243401087
 20
8.7030328415
 30
0.0
 10
14.4216487397
 20
8.7040924555
 30
0.0
 10
14.4189812827
 20
8.7053984278
 30
0.0
 10
14.4153946768
 20
8.7075041383
 30
0.0
 10
14.4119228024
 20
8.7100820566
 30
0.0
 10
14.4085774676
 20
8.7130629959
 30
0.0
 10
14.4060483671
 20
8.7155837394
 30
0.0
 10
14.4035506176
 20
8.7183435576
 30
0.0
 10
14.4010849391
 20
8.7213412423
 30
0.0
 10
14.3986525743
 20
8.7245752593
 30
0.0
 10
14.3962546422
 20
8.7280440406
 30
0.0
 10
14.3938922128
 20
8.731745837
 30
0.0
 10
14.391566479
 20
8.7356788615
 30
0.0
 10
14.3892785048
 20
8.7398411699
 30
0.0
 10
14.3862239422
 20
8.745802992
 30
0.0
 10
14.3825208734
 20
8.7538280623
 30
0.0
 10
14.3783229064
 20
8.7641679315
 30
0.0
 10
14.3743014206
 20
8.7753661656
 30
0.0
 10
14.3704644525
 20
8.7874005757
 30
0.0
 10
14.3668196902
 20
8.8002475403
 30
0.0
 10
14.3633744839
 20
8.8138815633
 30
0.0
 10
14.360135823
 20
8.828275528
 30
0.0
 10
14.3571103067
 20
8.8434007162
 30
0.0
 10
14.3543040745
 20
8.8592268785
 30
0.0
 10
14.3517228305
 20
8.8757223154
 30
0.0
 10
14.3493718369
 20
8.8928539629
 30
0.0
 10
14.3472558907
 20
8.9105874511
 30
0.0
 10
14.3453792827
 20
8.9288871726
 30
0.0
 10
14.3437458297
 20
8.9477163731
 30
0.0
 10
14.3423588797
 20
8.967037218
 30
0.0
 10
14.3412212227
 20
8.9868109113
 30
0.0
 10
14.3400297676
 20
9.0139595047
 30
0.0
 10
14.3391926218
 20
9.0487320383
 30
0.0
 10
14.3392125338
 20
9.0912609959
 30
0.0
 10
14.3402491578
 20
9.1346012925
 30
0.0
 10
14.3422943699
 20
9.1784046336
 30
0.0
 10
14.3453319371
 20
9.2223192416
 30
0.0
 10
14.3493374238
 20
9.2659923344
 30
0.0
 10
14.3542785428
 20
9.309073202
 30
0.0
 10
14.3601153203
 20
9.3512156654
 30
0.0
 10
14.3657330506
 20
9.3855581567
 30
0.0
 10
14.3706519331
 20
9.4122997781
 30
0.0
 10
14.3745021327
 20
9.4317420318
 30
0.0
 10
14.3785369869
 20
9.4507026015
 30
0.0
 10
14.3827483763
 20
9.4691434213
 30
0.0
 10
14.3871277852
 20
9.4870274386
 30
0.0
 10
14.3916663847
 20
9.5043187347
 30
0.0
 10
14.3963549971
 20
9.5209826054
 30
0.0
 10
14.4011841381
 20
9.5369856326
 30
0.0
 10
14.4061440515
 20
9.5522957388
 30
0.0
 10
14.4112247301
 20
9.566882267
 30
0.0
 10
14.4164158957
 20
9.58071607
 30
0.0
 10
14.421707067
 20
9.5937695627
 30
0.0
 10
14.4270875959
 20
9.6060167769
 30
0.0
 10
14.4325466903
 20
9.6174334507
 30
0.0
 10
14.4380734238
 20
9.6279971187
 30
0.0
 10
14.443656893
 20
9.6376871655
 30
0.0
 10
14.4492861874
 20
9.6464847483
 30
0.0
 10
14.454950858
 20
9.6543734467
 30
0.0
 10
14.460639981
 20
9.6613375622
 30
0.0
 10
14.4645992204
 20
9.6655207742
 30
0.0
 10
14.4665840051
 20
9.667437929
 30
0.0
  0
SPLINE
  5
320
100
AcDbEntity
  8
0
100
AcDbSpline
 62
7
  6
CONTINUOUS
 70
0
 71
3
 72
85
 73
81
 74
0
 42
0.0000001
 43
0.0000001
 44
0.0000000001
 40
0.0
 40
0.0
 40
0.0
 40
0.0
 40
0.0027164321
 40
0.0054532385
 40
0.0082303085
 40
0.011066603
 40
0.0139798079
 40
0.0169861193
 40
0.0233311764
 40
0.0266975277
 40
0.0302054756
 40
0.033863392
 40
0.0376783486
 40
0.0416563264
 40
0.0458022472
 40
0.050120174
 40
0.0546133665
 40
0.0592843698
 40
0.0641351496
 40
0.0691670674
 40
0.0743810463
 40
0.0797775355
 40
0.0853565984
 40
0.0911179629
 40
0.0970609898
 40
0.1094877374
 40
0.1226269862
 40
0.1364646504
 40
0.1509834607
 40
0.1661633573
 40
0.1819818055
 40
0.1984140483
 40
0.2154333259
 40
0.233011069
 40
0.2511170619
 40
0.2697195894
 40
0.2887855696
 40
0.3082806737
 40
0.3281694478
 40
0.3484154285
 40
0.36898125
 40
0.3898287485
 40
0.4109190644
 40
0.4322127408
 40
0.4536698284
 40
0.4969118802
 40
0.5403202169
 40
0.5835675225
 40
0.6050291933
 40
0.6263287434
 40
0.6474262089
 40
0.6682821161
 40
0.6888575847
 40
0.7091144272
 40
0.7290152501
 40
0.748523559
 40
0.7676038654
 40
0.7862218038
 40
0.8043442504
 40
0.821939444
 40
0.838977118
 40
0.8554286471
 40
0.8712672105
 40
0.8864679851
 40
0.9010083612
 40
0.9148681946
 40
0.9280301198
 40
0.9404799413
 40
0.9464346146
 40
0.9522076736
 40
0.9577984609
 40
0.9632066809
 40
0.9684323855
 40
0.9734759888
 40
0.9783383641
 40
0.9830208263
 40
0.9875253632
 40
0.991854574
 40
0.996011563
 40
1.0
 40
1.0
 40
1.0
 40
1.0
 10
14.6325144004
 20
7.2398444356
 30
0.0
 10
14.6308813207
 20
7.2399576902
 30
0.0
 10
14.6276112784
 20
7.2403328932
 30
0.0
 10
14.6227478375
 20
7.2413368034
 30
0.0
 10
14.6179211511
 20
7.2427817944
 30
0.0
 10
14.6131347048
 20
7.2446663708
 30
0.0
 10
14.6083907373
 20
7.2469889756
 30
0.0
 10
14.6020121385
 20
7.2507339556
 30
0.0
 10
14.5958375774
 20
7.2553187131
 30
0.0
 10
14.5898880481
 20
7.2606202181
 30
0.0
 10
14.5853901833
 20
7.2651033002
 30
0.0
 10
14.5809480411
 20
7.2700115306
 30
0.0
 10
14.5765629399
 20
7.2753428062
 30
0.0
 10
14.572237134
 20
7.2810944156
 30
0.0
 10
14.5679724789
 20
7.28726349
 30
0.0
 10
14.5637710473
 20
7.2938470177
 30
0.0
 10
14.5596348337
 20
7.300841755
 30
0.0
 10
14.5555657866
 20
7.3082442371
 30
0.0
 10
14.551565973
 20
7.316050844
 30
0.0
 10
14.5476372602
 20
7.3242576775
 30
0.0
 10
14.5437816696
 20
7.332860697
 30
0.0
 10
14.54000107
 20
7.3418556141
 30
0.0
 10
14.5362973512
 20
7.3512379497
 30
0.0
 10
14.5326723705
 20
7.3610030517
 30
0.0
 10
14.5278749792
 20
7.3747318771
 30
0.0
 10
14.5221059223
 20
7.3928268859
 30
0.0
 10
14.5156238708
 20
7.4156744874
 30
0.0
 10
14.50949675
 20
7.4399220756
 30
0.0
 10
14.5037369638
 20
7.465521113
 30
0.0
 10
14.4983562226
 20
7.4924206051
 30
0.0
 10
14.4933654745
 20
7.5205667428
 30
0.0
 10
14.4887748754
 20
7.5499031662
 30
0.0
 10
14.4845937647
 20
7.5803710548
 30
0.0
 10
14.4808306526
 20
7.6119092758
 30
0.0
 10
14.4774931996
 20
7.6444545144
 30
0.0
 10
14.4745882018
 20
7.6779414079
 30
0.0
 10
14.4721215792
 20
7.7123026776
 30
0.0
 10
14.4700983541
 20
7.7474692665
 30
0.0
 10
14.4685226481
 20
7.7833704832
 30
0.0
 10
14.4673976776
 20
7.819934151
 30
0.0
 10
14.466725748
 20
7.8570867538
 30
0.0
 10
14.4665082461
 20
7.8947535906
 30
0.0
 10
14.4667456526
 20
7.9328588979
 30
0.0
 10
14.4674374753
 20
7.9713261055
 30
0.0
 10
14.4689680239
 20
8.023126244
 30
0.0
 10
14.472007017
 20
8.0882101923
 30
0.0
 10
14.4774091689
 20
8.1663099351
 30
0.0
 10
14.4833603103
 20
8.2311983924
 30
0.0
 10
14.488976775
 20
8.2827254101
 30
0.0
 10
14.4935884422
 20
8.3209321331
 30
0.0
 10
14.4986005333
 20
8.3587201493
 30
0.0
 10
14.5040029903
 20
8.3960135242
 30
0.0
 10
14.5097849039
 20
8.4327372516
 30
0.0
 10
14.5159346139
 20
8.4688174976
 30
0.0
 10
14.5224397129
 20
8.5041817233
 30
0.0
 10
14.5292870751
 20
8.5387588374
 30
0.0
 10
14.5364628829
 20
8.5724793405
 30
0.0
 10
14.543952649
 20
8.6052754727
 30
0.0
 10
14.5517412434
 20
8.6370813547
 30
0.0
 10
14.5598129318
 20
8.6678331202
 30
0.0
 10
14.5681514057
 20
8.6974690462
 30
0.0
 10
14.5767398146
 20
8.7259296834
 30
0.0
 10
14.5855608057
 20
8.7531579848
 30
0.0
 10
14.5945965527
 20
8.7790994498
 30
0.0
 10
14.6038287984
 20
8.8037022089
 30
0.0
 10
14.6132389173
 20
8.8269172793
 30
0.0
 10
14.6228079334
 20
8.8486982064
 30
0.0
 10
14.6310157489
 20
8.8658637909
 30
0.0
 10
14.6376595465
 20
8.8788318196
 30
0.0
 10
14.6425960685
 20
8.8880279617
 30
0.0
 10
14.6475578888
 20
8.8968344237
 30
0.0
 10
14.652542547
 20
8.9052468381
 30
0.0
 10
14.6575475404
 20
8.9132610253
 30
0.0
 10
14.662570435
 20
8.9208729665
 30
0.0
 10
14.6676086383
 20
8.9280789138
 30
0.0
 10
14.6726597664
 20
8.9348752747
 30
0.0
 10
14.6777213438
 20
8.9412587684
 30
0.0
 10
14.6827910241
 20
8.9472262761
 30
0.0
 10
14.6878660877
 20
8.9527745578
 30
0.0
 10
14.6913217184
 20
8.9562631468
 30
0.0
 10
14.6930504826
 20
8.9579330049
 30
0.0
  0
SPLINE
  5
321
100
AcDbEntity
  8
0
100
AcDbSpline
 62
7
  6
CONTINUOUS
 70
0
 71
3
 72
15
 73
11
 74
0
 42
0.0000001
 43
0.0000001
 44
0.0000000001
 40
0.0
 40
0.0
 40
0.0
 40
0.0
 40
0.127347002
 40
0.2538611168
 40
0.379587791
 40
0.5046051628
 40
0.6290174373
 40
0.7529533687
 40
0.8765605638
 40
1.0
 40
1.0
 40
1.0
 40
1.0
 10
10.7427597454
 20
9.334689452
 30
0.0
 10
10.7427597454
 20
9.3370917177
 30
0.0
 10
10.7429891318
 20
9.3418838573
 30
0.0
 10
10.7440264196
 20
9.3489798875
 30
0.0
 10
10.7457465095
 20
9.3558976308
 30
0.0
 10
10.7481337556
 20
9.3625723471
 30
0.0
 10
10.7511663112
 20
9.3689425138
 30
0.0
 10
10.7548165103
 20
9.3749492947
 30
0.0
 10
10.7590500272
 20
9.3805364197
 30
0.0
 10
10.7622376739
 20
9.3839493124
 30
0.0
 10
10.7639125097
 20
9.3855670538
 30
0.0
  0
SPLINE
  5
322
100
AcDbEntity
  8
0
100
AcDbSpline
 62
7
  6
CONTINUOUS
 70
0
 71
3
 72
15
 73
11
 74
0
 42
0.0000001
 43
0.0000001
 44
0.0000000001
 40
0.0
 40
0.0
 40
0.0
 40
0.0
 40
0.127348315
 40
0.2538606239
 40
0.3795878599
 40
0.5046051181
 40
0.6290174391
 40
0.7529533757
 40
0.8765605793
 40
1.0
 40
1.0
 40
1.0
 40
1.0
 10
7.7010591069
 20
6.889335928
 30
0.0
 10
7.7010591069
 20
6.895834294
 30
0.0
 10
7.7016795723
 20
6.9087973497
 30
0.0
 10
7.7044855448
 20
6.9279926094
 30
0.0
 10
7.7091383252
 20
6.9467055662
 30
0.0
 10
7.7155958744
 20
6.9647612181
 30
0.0
 10
7.7237989882
 20
6.9819930418
 30
0.0
 10
7.7336728434
 20
6.998241931
 30
0.0
 10
7.7451245975
 20
7.0133556488
 30
0.0
 10
7.7537471882
 20
7.0225879751
 30
0.0
 10
7.7582776982
 20
7.0269641198
 30
0.0
  0
SPLINE
  5
323
100
AcDbEntity
  8
0
100
AcDbSpline
 62
7
  6
CONTINUOUS
 70
0
 71
3
 72
19
 73
15
 74
0
 42
0.0000001
 43
0.0000001
 44
0.0000000001
 40
0.0
 40
0.0
 40
0.0
 40
0.0
 40
0.150460937
 40
0.2916987357
 40
0.424419542
 40
0.4878837275
 40
0.5495802504
 40
0.6682271673
 40
0.7255606103
 40
0.7817998831
 40
0.8371466721
 40
0.8918135967
 40
0.94602219
 40
1.0
 40
1.0
 40
1.0
 40
1.0
 10
14.6930504826
 20
7.2675627087
 30
0.0
 10
14.6905767726
 20
7.2651732882
 30
0.0
 10
14.6856327549
 20
7.2606900555
 30
0.0
 10
14.6779774207
 20
7.2547156336
 30
0.0
 10
14.6715112863
 20
7.2504901902
 30
0.0
 10
14.6663549575
 20
7.2476288414
 30
0.0
 10
14.6613507488
 20
7.2451723126
 30
0.0
 10
14.6562879493
 20
7.2431643209
 30
0.0
 10
14.6511966661
 20
7.241653298
 30
0.0
 10
14.6474323103
 20
7.2407823354
 30
0.0
 10
14.6436804858
 20
7.2401615525
 30
0.0
 10
14.6399421835
 20
7.2397912565
 30
0.0
 10
14.6362189146
 20
7.2396715909
 30
0.0
 10
14.6337452807
 20
7.2397590738
 30
0.0
 10
14.6325144004
 20
7.2398444356
 30
0.0
  0
SPLINE
  5
324
100
AcDbEntity
  8
0
100
AcDbSpline
 62
7
  6
CONTINUOUS
 70
0
 71
3
 72
15
 73
11
 74
0
 42
0.0000001
 43
0.0000001
 44
0.0000000001
 40
0.0
 40
0.0
 40
0.0
 40
0.0
 40
0.127348315
 40
0.2538606239
 40
0.3795878599
 40
0.5046051181
 40
0.6290174391
 40
0.7529533757
 40
0.8765605793
 40
1.0
 40
1.0
 40
1.0
 40
1.0
 10
11.564762641
 20
6.6213871778
 30
0.0
 10
11.564762641
 20
6.6278855438
 30
0.0
 10
11.5653831064
 20
6.6408485996
 30
0.0
 10
11.5681890789
 20
6.6600438593
 30
0.0
 10
11.5728418593
 20
6.678756816
 30
0.0
 10
11.5792994085
 20
6.696812468
 30
0.0
 10
11.5875025223
 20
6.7140442917
 30
0.0
 10
11.5973763775
 20
6.7302931808
 30
0.0
 10
11.6088281316
 20
6.7454068987
 30
0.0
 10
11.6174507223
 20
6.7546392249
 30
0.0
 10
11.6219812323
 20
6.7590153696
 30
0.0
  0
SPLINE
  5
325
100
AcDbEntity
  8
0
100
AcDbSpline
 62
7
  6
CONTINUOUS
 70
0
 71
3
 72
17
 73
13
 74
0
 42
0.0000001
 43
0.0000001
 44
0.0000000001
 40
0.0
 40
0.0
 40
0.0
 40
0.0
 40
0.1504746818
 40
0.2917308329
 40
0.4244675419
 40
0.4879384983
 40
0.5496413146
 40
0.6683011746
 40
0.781834
 40
0.8918017087
 40
0.946016262
 40
1.0
 40
1.0
 40
1.0
 40
1.0
 10
14.4665840051
 20
8.7169668597
 30
0.0
 10
14.4651931104
 20
8.7156233585
 30
0.0
 10
14.4624131653
 20
8.7131025392
 30
0.0
 10
14.4581087381
 20
8.7097431861
 30
0.0
 10
14.4544728835
 20
8.7073672806
 30
0.0
 10
14.4515736189
 20
8.7057583773
 30
0.0
 10
14.4487597231
 20
8.7043770929
 30
0.0
 10
14.4452409838
 20
8.7029813759
 30
0.0
 10
14.4409814638
 20
8.7018479179
 30
0.0
 10
14.4374326845
 20
8.7013740993
 30
0.0
 10
14.4346287192
 20
8.7012840951
 30
0.0
 10
14.4332377911
 20
8.701333276
 30
0.0
 10
14.4325456902
 20
8.7013812706
 30
0.0
  0
SPLINE
  5
326
100
AcDbEntity
  8
0
100
AcDbSpline
 62
7
  6
CONTINUOUS
 70
0
 71
3
 72
15
 73
11
 74
0
 42
0.0000001
 43
0.0000001
 44
0.0000000001
 40
0.0
 40
0.0
 40
0.0
 40
0.0
 40
0.127347002
 40
0.2538611168
 40
0.379587791
 40
0.5046051628
 40
0.6290174373
 40
0.7529533687
 40
0.8765605638
 40
1.0
 40
1.0
 40
1.0
 40
1.0
 10
8.5240279422
 20
6.8322628454
 30
0.0
 10
8.5240279422
 20
6.8346651111
 30
0.0
 10
8.5242573285
 20
6.8394572508
 30
0.0
 10
8.5252946164
 20
6.8465532809
 30
0.0
 10
8.5270147062
 20
6.8534710243
 30
0.0
 10
8.5294019523
 20
6.8601457406
 30
0.0
 10
8.5324345079
 20
6.8665159072
 30
0.0
 10
8.5360847071
 20
6.8725226882
 30
0.0
 10
8.5403182239
 20
6.8781098132
 30
0.0
 10
8.5435058707
 20
6.8815227059
 30
0.0
 10
8.5451807064
 20
6.8831404473
 30
0.0
  0
SPLINE
  5
327
100
AcDbEntity
  8
0
100
AcDbSpline
 62
7
  6
CONTINUOUS
 70
0
 71
3
 72
39
 73
35
 74
0
 42
0.0000001
 43
0.0000001
 44
0.0000000001
 40
0.0
 40
0.0
 40
0.0
 40
0.0
 40
0.0760185458
 40
0.1532632554
 40
0.2310390604
 40
0.3086436563
 40
0.3853769375
 40
0.42320137
 40
0.4605504649
 40
0.4973408779
 40
0.533490906
 40
0.5689207649
 40
0.6035528818
 40
0.6373121533
 40
0.6701262286
 40
0.7019258193
 40
0.7326450735
 40
0.7622219321
 40
0.790598514
 40
0.817721583
 40
0.8435431249
 40
0.868021063
 40
0.8911200625
 40
0.9128125786
 40
0.9231258585
 40
0.9330815931
 40
0.9426792004
 40
0.9519190187
 40
0.9608022954
 40
0.9693313294
 40
0.9775099463
 40
0.9853432204
 40
0.9928373695
 40
1.0
 40
1.0
 40
1.0
 40
1.0
 10
12.1346776914
 20
8.9707536444
 30
0.0
 10
12.1346776914
 20
8.9887169634
 30
0.0
 10
12.1351580465
 20
9.0249348964
 30
0.0
 10
12.1372541459
 20
9.0794948633
 30
0.0
 10
12.1407139966
 20
9.1343612337
 30
0.0
 10
12.1455044431
 20
9.1890058741
 30
0.0
 10
12.1505905023
 20
9.2341337563
 30
0.0
 10
12.1552987082
 20
9.2697203508
 30
0.0
 10
12.1591131292
 20
9.2959020403
 30
0.0
 10
12.1632182228
 20
9.3216391366
 30
0.0
 10
12.1676041197
 20
9.3468697271
 30
0.0
 10
12.1722602129
 20
9.3715330727
 30
0.0
 10
12.1771752377
 20
9.3955698327
 30
0.0
 10
12.1823373041
 20
9.4189221845
 30
0.0
 10
12.1877339236
 20
9.4415339633
 30
0.0
 10
12.1933520451
 20
9.4633508052
 30
0.0
 10
12.1991780622
 20
9.4843202961
 30
0.0
 10
12.2051978596
 20
9.5043921047
 30
0.0
 10
12.2113968571
 20
9.5235180974
 30
0.0
 10
12.2177600475
 20
9.5416524752
 30
0.0
 10
12.2242720391
 20
9.5587518742
 30
0.0
 10
12.2309170853
 20
9.5747756475
 30
0.0
 10
12.237679154
 20
9.5896855012
 30
0.0
 10
12.2434920178
 20
9.6013416168
 30
0.0
 10
12.2481996126
 20
9.6100692367
 30
0.0
 10
12.2516898338
 20
9.6162040939
 30
0.0
 10
12.2551971479
 20
9.6220351474
 30
0.0
 10
12.2587194633
 20
9.6275589377
 30
0.0
 10
12.2622546385
 20
9.6327721944
 30
0.0
 10
12.2658006908
 20
9.6376718184
 30
0.0
 10
12.2693555223
 20
9.6422550129
 30
0.0
 10
12.2729171985
 20
9.6465190641
 30
0.0
 10
12.2764833815
 20
9.6504612143
 30
0.0
 10
12.2789165058
 20
9.6529279952
 30
0.0
 10
12.2801338747
 20
9.6541038833
 30
0.0
  0
SPLINE
  5
328
100
AcDbEntity
  8
0
100
AcDbSpline
 62
7
  6
CONTINUOUS
 70
0
 71
3
 72
18
 73
14
 74
0
 42
0.0000001
 43
0.0000001
 44
0.0000000001
 40
0.0
 40
0.0
 40
0.0
 40
0.0
 40
0.150465277
 40
0.2917135888
 40
0.4244428697
 40
0.4879101177
 40
0.5496092744
 40
0.6682620957
 40
0.7817884661
 40
0.8371381947
 40
0.8918080597
 40
0.9460194495
 40
1.0
 40
1.0
 40
1.0
 40
1.0
 10
12.87257018
 20
10.226353445
 30
0.0
 10
12.8741589524
 20
10.2278880813
 30
0.0
 10
12.8773344047
 20
10.2307675352
 30
0.0
 10
12.882251219
 20
10.2346048372
 30
0.0
 10
12.886404366
 20
10.2373187752
 30
0.0
 10
12.8897160967
 20
10.2391565856
 30
0.0
 10
12.892930383
 20
10.2407343981
 30
0.0
 10
12.896949293
 20
10.2423286778
 30
0.0
 10
12.9010396613
 20
10.2434167672
 30
0.0
 10
12.9042793886
 20
10.2439527128
 30
0.0
 10
12.9066804588
 20
10.244190634
 30
0.0
 10
12.9090718195
 20
10.2442675293
 30
0.0
 10
12.910660581
 20
10.2442113329
 30
0.0
 10
12.9114511475
 20
10.2441565122
 30
0.0
  0
SPLINE
  5
329
100
AcDbEntity
  8
0
100
AcDbSpline
 62
7
  6
CONTINUOUS
 70
0
 71
3
 72
15
 73
11
 74
0
 42
0.0000001
 43
0.0000001
 44
0.0000000001
 40
0.0
 40
0.0
 40
0.0
 40
0.0
 40
0.1504832222
 40
0.2917573787
 40
0.4245126265
 40
0.5496590391
 40
0.6683283759
 40
0.7818724255
 40
0.8918518844
 40
1.0
 40
1.0
 40
1.0
 40
1.0
 10
14.3211278124
 20
8.0992995718
 30
0.0
 10
14.3204606524
 20
8.0986551447
 30
0.0
 10
14.3191271799
 20
8.0974459921
 30
0.0
 10
14.3170623164
 20
8.0958344865
 30
0.0
 10
14.3149998618
 20
8.0944867184
 30
0.0
 10
14.3129418167
 20
8.0934048721
 30
0.0
 10
14.3108899899
 20
8.0925910467
 30
0.0
 10
14.3088464518
 20
8.0920473776
 30
0.0
 10
14.3068145436
 20
8.0917758811
 30
0.0
 10
14.3054651677
 20
8.0917774619
 30
0.0
 10
14.3048001455
 20
8.0918235873
 30
0.0
  0
SPLINE
  5
32A
100
AcDbEntity
  8
0
100
AcDbSpline
 62
7
  6
CONTINUOUS
 70
0
 71
3
 72
30
 73
26
 74
0
 42
0.0000001
 43
0.0000001
 44
0.0000000001
 40
0.0
 40
0.0
 40
0.0
 40
0.0
 40
0.0309658161
 40
0.0620752713
 40
0.0933181576
 40
0.1246898529
 40
0.1561793424
 40
0.1877747701
 40
0.21946258
 40
0.2512277276
 40
0.3148953864
 40
0.3786736241
 40
0.4424256452
 40
0.5060215569
 40
0.5693448219
 40
0.632297812
 40
0.6948054233
 40
0.7568180318
 40
0.8183134553
 40
0.8488827558
 40
0.8793277416
 40
0.9096538309
 40
0.9398682769
 40
0.9699800976
 40
1.0
 40
1.0
 40
1.0
 40
1.0
 10
10.8181019578
 20
8.6007607669
 30
0.0
 10
10.8154745483
 20
8.6009429784
 30
0.0
 10
10.8102181827
 20
8.6014856896
 30
0.0
 10
10.8023893588
 20
8.6028243003
 30
0.0
 10
10.7946316658
 20
8.6046829248
 30
0.0
 10
10.7869805829
 20
8.6070516102
 30
0.0
 10
10.779469807
 20
8.6099183788
 30
0.0
 10
10.7721323821
 20
8.6132683484
 30
0.0
 10
10.7649995549
 20
8.6170847434
 30
0.0
 10
10.7557976168
 20
8.6227721325
 30
0.0
 10
10.7449570738
 20
8.630948414
 30
0.0
 10
10.7332252419
 20
8.6422645864
 30
0.0
 10
10.7229280389
 20
8.6548927291
 30
0.0
 10
10.7142127155
 20
8.6686132566
 30
0.0
 10
10.7071961722
 20
8.6831997159
 30
0.0
 10
10.7019683753
 20
8.6984205664
 30
0.0
 10
10.6985940798
 20
8.7140430702
 30
0.0
 10
10.6971140082
 20
8.7298320033
 30
0.0
 10
10.6974759861
 20
8.7429673264
 30
0.0
 10
10.6987250139
 20
8.753317517
 30
0.0
 10
10.7001340905
 20
8.7609627637
 30
0.0
 10
10.7020131259
 20
8.7684749421
 30
0.0
 10
10.7043566383
 20
8.7758259617
 30
0.0
 10
10.7071573928
 20
8.782986972
 30
0.0
 10
10.7093270988
 20
8.7876230275
 30
0.0
 10
10.7104847555
 20
8.7898987708
 30
0.0
  0
SPLINE
  5
32B
100
AcDbEntity
  8
0
100
AcDbSpline
 62
7
  6
CONTINUOUS
 70
0
 71
3
 72
39
 73
35
 74
0
 42
0.0000001
 43
0.0000001
 44
0.0000000001
 40
0.0
 40
0.0
 40
0.0
 40
0.0
 40
0.0760185458
 40
0.1532632554
 40
0.2310390604
 40
0.3086436563
 40
0.3853769375
 40
0.42320137
 40
0.4605504649
 40
0.4973408779
 40
0.533490906
 40
0.5689207649
 40
0.6035528818
 40
0.6373121533
 40
0.6701262286
 40
0.7019258193
 40
0.7326450735
 40
0.7622219321
 40
0.790598514
 40
0.817721583
 40
0.8435431249
 40
0.868021063
 40
0.8911200625
 40
0.9128125786
 40
0.9231258585
 40
0.9330815931
 40
0.9426792004
 40
0.9519190187
 40
0.9608022954
 40
0.9693313294
 40
0.9775099463
 40
0.9853432204
 40
0.9928373695
 40
1.0
 40
1.0
 40
1.0
 40
1.0
 10
14.104496447
 20
8.8424526674
 30
0.0
 10
14.104496447
 20
8.8594251271
 30
0.0
 10
14.1049503056
 20
8.8936452738
 30
0.0
 10
14.1069307838
 20
8.9451957051
 30
0.0
 10
14.1101997887
 20
8.9970356387
 30
0.0
 10
14.1147259935
 20
9.0486660729
 30
0.0
 10
14.1195315049
 20
9.0913046948
 30
0.0
 10
14.1239800056
 20
9.1249283276
 30
0.0
 10
14.1275840226
 20
9.1496658314
 30
0.0
 10
14.1314626786
 20
9.1739832658
 30
0.0
 10
14.1356066488
 20
9.1978221334
 30
0.0
 10
14.1400059113
 20
9.2211250454
 30
0.0
 10
14.1446498225
 20
9.2438359342
 30
0.0
 10
14.1495271486
 20
9.265900167
 30
0.0
 10
14.1546260898
 20
9.2872646769
 30
0.0
 10
14.159934315
 20
9.3078780986
 30
0.0
 10
14.1654389682
 20
9.3276909094
 30
0.0
 10
14.1711267126
 20
9.3466555542
 30
0.0
 10
14.1769837726
 20
9.3647265544
 30
0.0
 10
14.1829959685
 20
9.3818606374
 30
0.0
 10
14.1891487577
 20
9.3980168311
 30
0.0
 10
14.1954272622
 20
9.4131567308
 30
0.0
 10
14.2018163342
 20
9.4272441548
 30
0.0
 10
14.2073085596
 20
9.4382573174
 30
0.0
 10
14.2117564828
 20
9.4465035206
 30
0.0
 10
14.215054183
 20
9.4522999782
 30
0.0
 10
14.2183680331
 20
9.45780939
 30
0.0
 10
14.221696057
 20
9.4630284872
 30
0.0
 10
14.2250362315
 20
9.4679541799
 30
0.0
 10
14.2283866831
 20
9.4725835399
 30
0.0
 10
14.2317454296
 20
9.4769139248
 30
0.0
 10
14.2351106431
 20
9.4809427703
 30
0.0
 10
14.238480115
 20
9.4846674709
 30
0.0
 10
14.2407790278
 20
9.4869981838
 30
0.0
 10
14.2419292465
 20
9.4881092098
 30
0.0
  0
SPLINE
  5
32C
100
AcDbEntity
  8
0
100
AcDbSpline
 62
7
  6
CONTINUOUS
 70
0
 71
3
 72
39
 73
35
 74
0
 42
0.0000001
 43
0.0000001
 44
0.0000000001
 40
0.0
 40
0.0
 40
0.0
 40
0.0
 40
0.0760185458
 40
0.1532632554
 40
0.2310390604
 40
0.3086436563
 40
0.3853769375
 40
0.42320137
 40
0.4605504649
 40
0.4973408779
 40
0.533490906
 40
0.5689207649
 40
0.6035528818
 40
0.6373121533
 40
0.6701262286
 40
0.7019258193
 40
0.7326450735
 40
0.7622219321
 40
0.790598514
 40
0.817721583
 40
0.8435431249
 40
0.868021063
 40
0.8911200625
 40
0.9128125786
 40
0.9231258585
 40
0.9330815931
 40
0.9426792004
 40
0.9519190187
 40
0.9608022954
 40
0.9693313294
 40
0.9775099463
 40
0.9853432204
 40
0.9928373695
 40
1.0
 40
1.0
 40
1.0
 40
1.0
 10
14.0665293608
 20
8.8367792761
 30
0.0
 10
14.0665293608
 20
8.8547425951
 30
0.0
 10
14.0670097159
 20
8.8909605281
 30
0.0
 10
14.0691058153
 20
8.945520495
 30
0.0
 10
14.072565666
 20
9.0003868653
 30
0.0
 10
14.0773561125
 20
9.0550315057
 30
0.0
 10
14.0824421717
 20
9.100159388
 30
0.0
 10
14.0871503776
 20
9.1357459824
 30
0.0
 10
14.0909647986
 20
9.1619276719
 30
0.0
 10
14.0950698922
 20
9.1876647683
 30
0.0
 10
14.0994557891
 20
9.2128953588
 30
0.0
 10
14.1041118823
 20
9.2375587044
 30
0.0
 10
14.1090269071
 20
9.2615954644
 30
0.0
 10
14.1141889735
 20
9.2849478162
 30
0.0
 10
14.119585593
 20
9.307559595
 30
0.0
 10
14.1252037145
 20
9.3293764369
 30
0.0
 10
14.1310297316
 20
9.3503459278
 30
0.0
 10
14.137049529
 20
9.3704177364
 30
0.0
 10
14.1432485265
 20
9.3895437291
 30
0.0
 10
14.1496117169
 20
9.4076781069
 30
0.0
 10
14.1561237085
 20
9.4247775059
 30
0.0
 10
14.1627687547
 20
9.4408012792
 30
0.0
 10
14.1695308234
 20
9.4557111329
 30
0.0
 10
14.1753436872
 20
9.4673672485
 30
0.0
 10
14.180051282
 20
9.4760948684
 30
0.0
 10
14.1835415032
 20
9.4822297256
 30
0.0
 10
14.1870488173
 20
9.4880607791
 30
0.0
 10
14.1905711327
 20
9.4935845694
 30
0.0
 10
14.1941063079
 20
9.4987978261
 30
0.0
 10
14.1976523602
 20
9.5036974501
 30
0.0
 10
14.2012071917
 20
9.5082806446
 30
0.0
 10
14.2047688679
 20
9.5125446958
 30
0.0
 10
14.2083350509
 20
9.516486846
 30
0.0
 10
14.2107681752
 20
9.5189536269
 30
0.0
 10
14.2119855441
 20
9.520129515
 30
0.0
  0
SPLINE
  5
32D
100
AcDbEntity
  8
0
100
AcDbSpline
 62
7
  6
CONTINUOUS
 70
0
 71
3
 72
23
 73
19
 74
0
 42
0.0000001
 43
0.0000001
 44
0.0000000001
 40
0.0
 40
0.0
 40
0.0
 40
0.0
 40
0.075595957
 40
0.1466391305
 40
0.2134651345
 40
0.2765138419
 40
0.3363259052
 40
0.3935462661
 40
0.4489224105
 40
0.5032874244
 40
0.5575253055
 40
0.6125266122
 40
0.6691426489
 40
0.72814827
 40
0.7902188159
 40
0.8559231893
 40
0.9257261654
 40
1.0
 40
1.0
 40
1.0
 40
1.0
 10
14.8343655518
 20
10.0603587715
 30
0.0
 10
14.8358413347
 20
10.0617842684
 30
0.0
 10
14.8387909626
 20
10.0644617987
 30
0.0
 10
14.8433557959
 20
10.0680388369
 30
0.0
 10
14.8479152984
 20
10.0710430379
 30
0.0
 10
14.8524652367
 20
10.0734698875
 30
0.0
 10
14.8570018359
 20
10.0753149741
 30
0.0
 10
14.8615204109
 20
10.0765738096
 30
0.0
 10
14.8660150524
 20
10.0772419008
 30
0.0
 10
14.8704782523
 20
10.0773161287
 30
0.0
 10
14.8749014468
 20
10.0767953733
 30
0.0
 10
14.8792760502
 20
10.0756811821
 30
0.0
 10
14.8835946562
 20
10.0739773503
 30
0.0
 10
14.8878514955
 20
10.0716887782
 30
0.0
 10
14.8920423254
 20
10.0688207983
 30
0.0
 10
14.8961636778
 20
10.0653782821
 30
0.0
 10
14.9002123264
 20
10.0613664204
 30
0.0
 10
14.9027782494
 20
10.0584104416
 30
0.0
 10
14.9040502435
 20
10.0568464608
 30
0.0
  0
SPLINE
  5
32E
100
AcDbEntity
  8
0
100
AcDbSpline
 62
7
  6
CONTINUOUS
 70
0
 71
3
 72
18
 73
14
 74
0
 42
0.0000001
 43
0.0000001
 44
0.0000000001
 40
0.0
 40
0.0
 40
0.0
 40
0.0
 40
0.1504654776
 40
0.2917138659
 40
0.4244431221
 40
0.4879103299
 40
0.5496094336
 40
0.6682621302
 40
0.7817883943
 40
0.837138095
 40
0.8918079579
 40
0.9460193786
 40
1.0
 40
1.0
 40
1.0
 40
1.0
 10
14.8044218494
 20
10.0923790767
 30
0.0
 10
14.8060106411
 20
10.0939137317
 30
0.0
 10
14.809186132
 20
10.0967932183
 30
0.0
 10
14.8141030081
 20
10.1006305573
 30
0.0
 10
14.8182562079
 20
10.1033445136
 30
0.0
 10
14.8215679803
 20
10.1051823299
 30
0.0
 10
14.8247823062
 20
10.1067601425
 30
0.0
 10
14.8288012662
 20
10.1083544129
 30
0.0
 10
14.8328916846
 20
10.1094424787
 30
0.0
 10
14.8361314506
 20
10.1099783971
 30
0.0
 10
14.8385325495
 20
10.110216294
 30
0.0
 10
14.8409239386
 20
10.1102931609
 30
0.0
 10
14.8425127181
 20
10.1102369429
 30
0.0
 10
14.8433032934
 20
10.1101821108
 30
0.0
  0
SPLINE
  5
32F
100
AcDbEntity
  8
0
100
AcDbSpline
 62
7
  6
CONTINUOUS
 70
0
 71
3
 72
41
 73
37
 74
0
 42
0.0000001
 43
0.0000001
 44
0.0000000001
 40
0.0
 40
0.0
 40
0.0
 40
0.0
 40
0.0299421238
 40
0.0449237703
 40
0.059914519
 40
0.0899291762
 40
0.1200146048
 40
0.1350933663
 40
0.1501974853
 40
0.1804849834
 40
0.2108989722
 40
0.2414525913
 40
0.2721557558
 40
0.3030149766
 40
0.3340332647
 40
0.365210118
 40
0.396541585
 40
0.4280204007
 40
0.4596361866
 40
0.4913757084
 40
0.5232231826
 40
0.5551606251
 40
0.5871682346
 40
0.6192248024
 40
0.6513081434
 40
0.68339554
 40
0.7154641944
 40
0.7474916807
 40
0.7794563937
 40
0.8113379827
 40
0.8431177771
 40
0.8747791563
 40
0.9063079829
 40
0.9376927254
 40
0.9689252285
 40
1.0
 40
1.0
 40
1.0
 40
1.0
 10
8.0514612384
 20
9.3797353228
 30
0.0
 10
8.0479608192
 20
9.3763541712
 30
0.0
 10
8.0425038956
 20
9.3714872774
 30
0.0
 10
8.0348615313
 20
9.3654485823
 30
0.0
 10
8.0269758394
 20
9.3597103205
 30
0.0
 10
8.016686262
 20
9.3531209778
 30
0.0
 10
8.0058964041
 20
9.347357183
 30
0.0
 10
7.9969975589
 20
9.3432568127
 30
0.0
 10
7.9879148886
 20
9.3394949264
 30
0.0
 10
7.9762622276
 20
9.3354498281
 30
0.0
 10
7.9619020815
 20
9.3316798788
 30
0.0
 10
7.9472285873
 20
9.329009137
 30
0.0
 10
7.9323230638
 20
9.3274523366
 30
0.0
 10
7.9172673907
 20
9.3270177858
 30
0.0
 10
7.9021444089
 20
9.3277076964
 30
0.0
 10
7.8870372383
 20
9.3295180831
 30
0.0
 10
7.8720288865
 20
9.3324388206
 30
0.0
 10
7.8572017818
 20
9.3364536991
 30
0.0
 10
7.8426373306
 20
9.3415405206
 30
0.0
 10
7.8284154759
 20
9.3476712237
 30
0.0
 10
7.8146142651
 20
9.35481204
 30
0.0
 10
7.8013094272
 20
9.3629236802
 30
0.0
 10
7.7885739631
 20
9.3719615499
 30
0.0
 10
7.7764777502
 20
9.3818759929
 30
0.0
 10
7.7650871632
 20
9.3926125618
 30
0.0
 10
7.7544647142
 20
9.4041123149
 30
0.0
 10
7.7446687136
 20
9.416312136
 30
0.0
 10
7.735752952
 20
9.4291450777
 30
0.0
 10
7.7277664096
 20
9.4425407242
 30
0.0
 10
7.7207529854
 20
9.4564255754
 30
0.0
 10
7.7147512666
 20
9.4707234362
 30
0.0
 10
7.7097942953
 20
9.4853558655
 30
0.0
 10
7.7059094345
 20
9.5002424608
 30
0.0
 10
7.7031181226
 20
9.5153018108
 30
0.0
 10
7.7014359035
 20
9.5304500811
 30
0.0
 10
7.7010591069
 20
9.5405812731
 30
0.0
 10
7.7010591069
 20
9.5456321077
 30
0.0
  0
SPLINE
  5
330
100
AcDbEntity
  8
0
100
AcDbSpline
 62
7
  6
CONTINUOUS
 70
0
 71
3
 72
41
 73
37
 74
0
 42
0.0000001
 43
0.0000001
 44
0.0000000001
 40
0.0
 40
0.0
 40
0.0
 40
0.0
 40
0.0299421238
 40
0.0449237703
 40
0.059914519
 40
0.0899291762
 40
0.1200146048
 40
0.1350933663
 40
0.1501974853
 40
0.1804849834
 40
0.2108989722
 40
0.2414525913
 40
0.2721557558
 40
0.3030149766
 40
0.3340332647
 40
0.365210118
 40
0.396541585
 40
0.4280204007
 40
0.4596361866
 40
0.4913757084
 40
0.5232231826
 40
0.5551606251
 40
0.5871682346
 40
0.6192248024
 40
0.6513081434
 40
0.68339554
 40
0.7154641944
 40
0.7474916807
 40
0.7794563937
 40
0.8113379827
 40
0.8431177771
 40
0.8747791563
 40
0.9063079829
 40
0.9376927254
 40
0.9689252285
 40
1.0
 40
1.0
 40
1.0
 40
1.0
 10
11.9151647725
 20
9.1117865726
 30
0.0
 10
11.9116643532
 20
9.108405421
 30
0.0
 10
11.9062074296
 20
9.1035385272
 30
0.0
 10
11.8985650654
 20
9.0974998322
 30
0.0
 10
11.8906793735
 20
9.0917615703
 30
0.0
 10
11.8803897961
 20
9.0851722276
 30
0.0
 10
11.8695999382
 20
9.0794084328
 30
0.0
 10
11.860701093
 20
9.0753080626
 30
0.0
 10
11.8516184227
 20
9.0715461763
 30
0.0
 10
11.8399657617
 20
9.067501078
 30
0.0
 10
11.8256056156
 20
9.0637311287
 30
0.0
 10
11.8109321214
 20
9.0610603868
 30
0.0
 10
11.7960265979
 20
9.0595035864
 30
0.0
 10
11.7809709248
 20
9.0590690356
 30
0.0
 10
11.765847943
 20
9.0597589462
 30
0.0
 10
11.7507407724
 20
9.0615693329
 30
0.0
 10
11.7357324206
 20
9.0644900704
 30
0.0
 10
11.7209053159
 20
9.068504949
 30
0.0
 10
11.7063408647
 20
9.0735917705
 30
0.0
 10
11.69211901
 20
9.0797224736
 30
0.0
 10
11.6783177992
 20
9.0868632898
 30
0.0
 10
11.6650129613
 20
9.0949749301
 30
0.0
 10
11.6522774972
 20
9.1040127998
 30
0.0
 10
11.6401812843
 20
9.1139272427
 30
0.0
 10
11.6287906973
 20
9.1246638117
 30
0.0
 10
11.6181682483
 20
9.1361635647
 30
0.0
 10
11.6083722476
 20
9.1483633858
 30
0.0
 10
11.5994564861
 20
9.1611963275
 30
0.0
 10
11.5914699437
 20
9.174591974
 30
0.0
 10
11.5844565195
 20
9.1884768253
 30
0.0
 10
11.5784548007
 20
9.202774686
 30
0.0
 10
11.5734978294
 20
9.2174071153
 30
0.0
 10
11.5696129686
 20
9.2322937107
 30
0.0
 10
11.5668216567
 20
9.2473530606
 30
0.0
 10
11.5651394375
 20
9.2625013309
 30
0.0
 10
11.564762641
 20
9.2726325229
 30
0.0
 10
11.564762641
 20
9.2776833575
 30
0.0
  0
SPLINE
  5
331
100
AcDbEntity
  8
0
100
AcDbSpline
 62
7
  6
CONTINUOUS
 70
0
 71
3
 72
41
 73
37
 74
0
 42
0.0000001
 43
0.0000001
 44
0.0000000001
 40
0.0
 40
0.0
 40
0.0
 40
0.0
 40
0.0299421238
 40
0.0449237703
 40
0.059914519
 40
0.0899291762
 40
0.1200146048
 40
0.1350933663
 40
0.1501974853
 40
0.1804849834
 40
0.2108989722
 40
0.2414525913
 40
0.2721557558
 40
0.3030149766
 40
0.3340332647
 40
0.365210118
 40
0.396541585
 40
0.4280204007
 40
0.4596361866
 40
0.4913757084
 40
0.5232231826
 40
0.5551606251
 40
0.5871682346
 40
0.6192248024
 40
0.6513081434
 40
0.68339554
 40
0.7154641944
 40
0.7474916807
 40
0.7794563937
 40
0.8113379827
 40
0.8431177771
 40
0.8747791563
 40
0.9063079829
 40
0.9376927254
 40
0.9689252285
 40
1.0
 40
1.0
 40
1.0
 40
1.0
 10
8.0514612384
 20
6.7234391431
 30
0.0
 10
8.0479608192
 20
6.7200579915
 30
0.0
 10
8.0425038956
 20
6.7151910977
 30
0.0
 10
8.0348615313
 20
6.7091524027
 30
0.0
 10
8.0269758394
 20
6.7034141408
 30
0.0
 10
8.016686262
 20
6.6968247981
 30
0.0
 10
8.0058964041
 20
6.6910610033
 30
0.0
 10
7.9969975589
 20
6.6869606331
 30
0.0
 10
7.9879148886
 20
6.6831987467
 30
0.0
 10
7.9762622276
 20
6.6791536484
 30
0.0
 10
7.9619020815
 20
6.6753836992
 30
0.0
 10
7.9472285873
 20
6.6727129573
 30
0.0
 10
7.9323230638
 20
6.6711561569
 30
0.0
 10
7.9172673907
 20
6.6707216061
 30
0.0
 10
7.9021444089
 20
6.6714115167
 30
0.0
 10
7.8870372383
 20
6.6732219034
 30
0.0
 10
7.8720288865
 20
6.6761426409
 30
0.0
 10
7.8572017818
 20
6.6801575194
 30
0.0
 10
7.8426373306
 20
6.685244341
 30
0.0
 10
7.8284154759
 20
6.6913750441
 30
0.0
 10
7.8146142651
 20
6.6985158603
 30
0.0
 10
7.8013094272
 20
6.7066275006
 30
0.0
 10
7.7885739631
 20
6.7156653703
 30
0.0
 10
7.7764777502
 20
6.7255798132
 30
0.0
 10
7.7650871632
 20
6.7363163821
 30
0.0
 10
7.7544647142
 20
6.7478161352
 30
0.0
 10
7.7446687136
 20
6.7600159563
 30
0.0
 10
7.735752952
 20
6.772848898
 30
0.0
 10
7.7277664096
 20
6.7862445445
 30
0.0
 10
7.7207529854
 20
6.8001293957
 30
0.0
 10
7.7147512666
 20
6.8144272565
 30
0.0
 10
7.7097942953
 20
6.8290596858
 30
0.0
 10
7.7059094345
 20
6.8439462811
 30
0.0
 10
7.7031181226
 20
6.8590056311
 30
0.0
 10
7.7014359035
 20
6.8741539014
 30
0.0
 10
7.7010591069
 20
6.8842850934
 30
0.0
 10
7.7010591069
 20
6.889335928
 30
0.0
  0
SPLINE
  5
332
100
AcDbEntity
  8
0
100
AcDbSpline
 62
7
  6
CONTINUOUS
 70
0
 71
3
 72
41
 73
37
 74
0
 42
0.0000001
 43
0.0000001
 44
0.0000000001
 40
0.0
 40
0.0
 40
0.0
 40
0.0
 40
0.0299421238
 40
0.0449237703
 40
0.059914519
 40
0.0899291762
 40
0.1200146048
 40
0.1350933663
 40
0.1501974853
 40
0.1804849834
 40
0.2108989722
 40
0.2414525913
 40
0.2721557558
 40
0.3030149766
 40
0.3340332647
 40
0.365210118
 40
0.396541585
 40
0.4280204007
 40
0.4596361866
 40
0.4913757084
 40
0.5232231826
 40
0.5551606251
 40
0.5871682346
 40
0.6192248024
 40
0.6513081434
 40
0.68339554
 40
0.7154641944
 40
0.7474916807
 40
0.7794563937
 40
0.8113379827
 40
0.8431177771
 40
0.8747791563
 40
0.9063079829
 40
0.9376927254
 40
0.9689252285
 40
1.0
 40
1.0
 40
1.0
 40
1.0
 10
11.9151647725
 20
6.4554903929
 30
0.0
 10
11.9116643532
 20
6.4521092413
 30
0.0
 10
11.9062074296
 20
6.4472423475
 30
0.0
 10
11.8985650654
 20
6.4412036525
 30
0.0
 10
11.8906793735
 20
6.4354653906
 30
0.0
 10
11.8803897961
 20
6.4288760479
 30
0.0
 10
11.8695999382
 20
6.4231122531
 30
0.0
 10
11.860701093
 20
6.4190118829
 30
0.0
 10
11.8516184227
 20
6.4152499966
 30
0.0
 10
11.8399657617
 20
6.4112048983
 30
0.0
 10
11.8256056156
 20
6.407434949
 30
0.0
 10
11.8109321214
 20
6.4047642072
 30
0.0
 10
11.7960265979
 20
6.4032074067
 30
0.0
 10
11.7809709248
 20
6.402772856
 30
0.0
 10
11.765847943
 20
6.4034627666
 30
0.0
 10
11.7507407724
 20
6.4052731532
 30
0.0
 10
11.7357324206
 20
6.4081938907
 30
0.0
 10
11.7209053159
 20
6.4122087693
 30
0.0
 10
11.7063408647
 20
6.4172955908
 30
0.0
 10
11.69211901
 20
6.4234262939
 30
0.0
 10
11.6783177992
 20
6.4305671101
 30
0.0
 10
11.6650129613
 20
6.4386787504
 30
0.0
 10
11.6522774972
 20
6.4477166201
 30
0.0
 10
11.6401812843
 20
6.457631063
 30
0.0
 10
11.6287906973
 20
6.468367632
 30
0.0
 10
11.6181682483
 20
6.479867385
 30
0.0
 10
11.6083722476
 20
6.4920672061
 30
0.0
 10
11.5994564861
 20
6.5049001478
 30
0.0
 10
11.5914699437
 20
6.5182957944
 30
0.0
 10
11.5844565195
 20
6.5321806456
 30
0.0
 10
11.5784548007
 20
6.5464785063
 30
0.0
 10
11.5734978294
 20
6.5611109356
 30
0.0
 10
11.5696129686
 20
6.575997531
 30
0.0
 10
11.5668216567
 20
6.5910568809
 30
0.0
 10
11.5651394375
 20
6.6062051512
 30
0.0
 10
11.564762641
 20
6.6163363433
 30
0.0
 10
11.564762641
 20
6.6213871778
 30
0.0
  0
SPLINE
  5
333
100
AcDbEntity
  8
0
100
AcDbSpline
 62
7
  6
CONTINUOUS
 70
0
 71
3
 72
39
 73
35
 74
0
 42
0.0000001
 43
0.0000001
 44
0.0000000001
 40
0.0
 40
0.0
 40
0.0
 40
0.0
 40
0.0299424756
 40
0.0599093253
 40
0.0899243308
 40
0.1200101061
 40
0.1501875593
 40
0.1804754054
 40
0.2108897454
 40
0.2414437198
 40
0.2721472437
 40
0.3030068255
 40
0.3340254745
 40
0.3652026886
 40
0.3965345175
 40
0.4280136976
 40
0.4596298523
 40
0.4913697474
 40
0.5232175981
 40
0.5551554173
 40
0.5871634018
 40
0.6192203434
 40
0.6513040581
 40
0.68339183
 40
0.7154608619
 40
0.7474887274
 40
0.7794538181
 40
0.8113357796
 40
0.8431159521
 40
0.8747776664
 40
0.9063069638
 40
0.937691791
 40
0.9689252156
 40
1.0
 40
1.0
 40
1.0
 40
1.0
 10
9.3006861193
 20
9.4012654586
 30
0.0
 10
9.2983552719
 20
9.399014023
 30
0.0
 10
9.293510313
 20
9.3946928336
 30
0.0
 10
9.2857479099
 20
9.3888059938
 30
0.0
 10
9.2775302425
 20
9.3835435354
 30
0.0
 10
9.2689032237
 20
9.3789349823
 30
0.0
 10
9.2599142858
 20
9.3750055086
 30
0.0
 10
9.2506130362
 20
9.3717767153
 30
0.0
 10
9.2410507291
 20
9.3692662701
 30
0.0
 10
9.2312800448
 20
9.367487883
 30
0.0
 10
9.221354779
 20
9.3664512212
 30
0.0
 10
9.2113295509
 20
9.3661618549
 30
0.0
 10
9.2012594978
 20
9.36662124
 30
0.0
 10
9.191199974
 20
9.3678267229
 30
0.0
 10
9.1812062496
 20
9.3697715594
 30
0.0
 10
9.1713332111
 20
9.3724449569
 30
0.0
 10
9.1616350653
 20
9.3758321368
 30
0.0
 10
9.1521650457
 20
9.3799144173
 30
0.0
 10
9.1429751261
 20
9.3846693189
 30
0.0
 10
9.1341157327
 20
9.3900706749
 30
0.0
 10
9.1256354728
 20
9.396088786
 30
0.0
 10
9.1175808744
 20
9.4026905852
 30
0.0
 10
9.1099961336
 20
9.409839817
 30
0.0
 10
9.1029228755
 20
9.4174972345
 30
0.0
 10
9.0963999289
 20
9.4256208121
 30
0.0
 10
9.0904631154
 20
9.4341659735
 30
0.0
 10
9.0851450566
 20
9.4430858329
 30
0.0
 10
9.0804749771
 20
9.452331444
 30
0.0
 10
9.0764785775
 20
9.4618520666
 30
0.0
 10
9.0731778276
 20
9.4715954749
 30
0.0
 10
9.0705910145
 20
9.481508105
 30
0.0
 10
9.0687322866
 20
9.4915358173
 30
0.0
 10
9.0676121744
 20
9.5016227052
 30
0.0
 10
9.0673612516
 20
9.5083688578
 30
0.0
 10
9.0673612516
 20
9.5117320566
 30
0.0
  0
SPLINE
  5
334
100
AcDbEntity
  8
0
100
AcDbSpline
 62
7
  6
CONTINUOUS
 70
0
 71
3
 72
39
 73
35
 74
0
 42
0.0000001
 43
0.0000001
 44
0.0000000001
 40
0.0
 40
0.0
 40
0.0
 40
0.0
 40
0.0299424756
 40
0.0599093253
 40
0.0899243308
 40
0.1200101061
 40
0.1501875593
 40
0.1804754054
 40
0.2108897454
 40
0.2414437198
 40
0.2721472437
 40
0.3030068255
 40
0.3340254745
 40
0.3652026886
 40
0.3965345175
 40
0.4280136976
 40
0.4596298523
 40
0.4913697474
 40
0.5232175981
 40
0.5551554173
 40
0.5871634018
 40
0.6192203434
 40
0.6513040581
 40
0.68339183
 40
0.7154608619
 40
0.7474887274
 40
0.7794538181
 40
0.8113357796
 40
0.8431159521
 40
0.8747776664
 40
0.9063069638
 40
0.937691791
 40
0.9689252156
 40
1.0
 40
1.0
 40
1.0
 40
1.0
 10
9.9043899116
 20
6.5813956586
 30
0.0
 10
9.9020590643
 20
6.579144223
 30
0.0
 10
9.8972141053
 20
6.5748230336
 30
0.0
 10
9.8894517023
 20
6.5689361938
 30
0.0
 10
9.8812340349
 20
6.5636737355
 30
0.0
 10
9.8726070161
 20
6.5590651823
 30
0.0
 10
9.8636180781
 20
6.5551357087
 30
0.0
 10
9.8543168286
 20
6.5519069153
 30
0.0
 10
9.8447545214
 20
6.5493964702
 30
0.0
 10
9.8349838372
 20
6.547618083
 30
0.0
 10
9.8250585714
 20
6.5465814212
 30
0.0
 10
9.8150333433
 20
6.5462920549
 30
0.0
 10
9.8049632902
 20
6.54675144
 30
0.0
 10
9.7949037664
 20
6.5479569229
 30
0.0
 10
9.7849100419
 20
6.5499017594
 30
0.0
 10
9.7750370035
 20
6.5525751569
 30
0.0
 10
9.7653388577
 20
6.5559623368
 30
0.0
 10
9.755868838
 20
6.5600446174
 30
0.0
 10
9.7466789185
 20
6.5647995189
 30
0.0
 10
9.737819525
 20
6.5702008749
 30
0.0
 10
9.7293392652
 20
6.576218986
 30
0.0
 10
9.7212846668
 20
6.5828207853
 30
0.0
 10
9.7136999259
 20
6.589970017
 30
0.0
 10
9.7066266678
 20
6.5976274345
 30
0.0
 10
9.7001037213
 20
6.6057510121
 30
0.0
 10
9.6941669077
 20
6.6142961735
 30
0.0
 10
9.6888488489
 20
6.6232160329
 30
0.0
 10
9.6841787694
 20
6.632461644
 30
0.0
 10
9.6801823699
 20
6.6419822666
 30
0.0
 10
9.67688162
 20
6.6517256749
 30
0.0
 10
9.6742948069
 20
6.661638305
 30
0.0
 10
9.672436079
 20
6.6716660173
 30
0.0
 10
9.6713159668
 20
6.6817529052
 30
0.0
 10
9.671065044
 20
6.6884990578
 30
0.0
 10
9.671065044
 20
6.6918622566
 30
0.0
  0
SPLINE
  5
335
100
AcDbEntity
  8
0
100
AcDbSpline
 62
7
  6
CONTINUOUS
 70
0
 71
3
 72
23
 73
19
 74
0
 42
0.0000001
 43
0.0000001
 44
0.0000000001
 40
0.0
 40
0.0
 40
0.0
 40
0.0
 40
0.0615923148
 40
0.1235204212
 40
0.185755608
 40
0.2482601229
 40
0.3109897846
 40
0.3738937397
 40
0.4369166002
 40
0.4999997136
 40
0.563082816
 40
0.6261056513
 40
0.6890095892
 40
0.7517392027
 40
0.8142437825
 40
0.8764787604
 40
0.9384070086
 40
1.0
 40
1.0
 40
1.0
 40
1.0
 10
10.8239984163
 20
9.4041013072
 30
0.0
 10
10.8242445962
 20
9.4019299811
 30
0.0
 10
10.8249238311
 20
9.3975943242
 30
0.0
 10
10.8264872442
 20
9.3911845481
 30
0.0
 10
10.82858665
 20
9.3848952673
 30
0.0
 10
10.8312063862
 20
9.3787736305
 30
0.0
 10
10.8343269745
 20
9.372864713
 30
0.0
 10
10.8379253034
 20
9.3672122277
 30
0.0
 10
10.8419747214
 20
9.3618579342
 30
0.0
 10
10.846445279
 20
9.356841416
 30
0.0
 10
10.8513039127
 20
9.3521997566
 30
0.0
 10
10.8565146994
 20
9.3479672728
 30
0.0
 10
10.8620391246
 20
9.3441752758
 30
0.0
 10
10.867836378
 20
9.340851839
 30
0.0
 10
10.8738635773
 20
9.338021603
 30
0.0
 10
10.8800763468
 20
9.3357055623
 30
0.0
 10
10.886428138
 20
9.3339210297
 30
0.0
 10
10.8907376967
 20
9.3330920393
 30
0.0
 10
10.8928992118
 20
9.3327707624
 30
0.0
  0
SPLINE
  5
336
100
AcDbEntity
  8
0
100
AcDbSpline
 62
7
  6
CONTINUOUS
 70
0
 71
3
 72
27
 73
23
 74
0
 42
0.0000001
 43
0.0000001
 44
0.0000000001
 40
0.0
 40
0.0
 40
0.0
 40
0.0
 40
0.0620093166
 40
0.0929795435
 40
0.1239296727
 40
0.1857786123
 40
0.2476020704
 40
0.2785206066
 40
0.3094469606
 40
0.3713327697
 40
0.4333059216
 40
0.4954023544
 40
0.5576559995
 40
0.6200981118
 40
0.6827566603
 40
0.7141793345
 40
0.7456647761
 40
0.8088242659
 40
0.8722591672
 40
0.9040872337
 40
0.9359886739
 40
1.0
 40
1.0
 40
1.0
 40
1.0
 10
8.8843377096
 20
8.7462315908
 30
0.0
 10
8.880697971
 20
8.7403208332
 30
0.0
 10
8.874938751
 20
8.7316383591
 30
0.0
 10
8.8666897309
 20
8.7204817701
 30
0.0
 10
8.858076302
 20
8.7096262865
 30
0.0
 10
8.8466279383
 20
8.6966251178
 30
0.0
 10
8.8343170632
 20
8.6844422587
 30
0.0
 10
8.8239857712
 20
8.6752236457
 30
0.0
 10
8.8133377548
 20
8.666361924
 30
0.0
 10
8.7994520899
 20
8.6559726226
 30
0.0
 10
8.7819504118
 20
8.6446726752
 30
0.0
 10
8.7636750324
 20
8.6345858611
 30
0.0
 10
8.7447013766
 20
8.6257582793
 30
0.0
 10
8.725108693
 20
8.6182304085
 30
0.0
 10
8.7083475706
 20
8.6130736095
 30
0.0
 10
8.6947174429
 20
8.609629045
 30
0.0
 10
8.6809236155
 20
8.6066360906
 30
0.0
 10
8.663448009
 20
8.6037629525
 30
0.0
 10
8.6457812586
 20
8.6020639486
 30
0.0
 10
8.6315587724
 20
8.6014087893
 30
0.0
 10
8.6172583671
 20
8.6012240681
 30
0.0
 10
8.6065186096
 20
8.6016175469
 30
0.0
 10
8.5993701439
 20
8.6021132947
 30
0.0
  0
SPLINE
  5
337
100
AcDbEntity
  8
0
100
AcDbSpline
 62
7
  6
CONTINUOUS
 70
0
 71
3
 72
23
 73
19
 74
0
 42
0.0000001
 43
0.0000001
 44
0.0000000001
 40
0.0
 40
0.0
 40
0.0
 40
0.0
 40
0.0615923148
 40
0.1235204212
 40
0.185755608
 40
0.2482601229
 40
0.3109897846
 40
0.3738937397
 40
0.4369166002
 40
0.4999997136
 40
0.563082816
 40
0.6261056513
 40
0.6890095892
 40
0.7517392027
 40
0.8142437825
 40
0.8764787604
 40
0.9384070086
 40
1.0
 40
1.0
 40
1.0
 40
1.0
 10
8.605266613
 20
6.9016747006
 30
0.0
 10
8.605512793
 20
6.8995033746
 30
0.0
 10
8.6061920278
 20
6.8951677177
 30
0.0
 10
8.6077554409
 20
6.8887579416
 30
0.0
 10
8.6098548467
 20
6.8824686608
 30
0.0
 10
8.6124745829
 20
6.876347024
 30
0.0
 10
8.6155951712
 20
6.8704381065
 30
0.0
 10
8.6191935002
 20
6.8647856212
 30
0.0
 10
8.6232429182
 20
6.8594313277
 30
0.0
 10
8.6277134757
 20
6.8544148095
 30
0.0
 10
8.6325721094
 20
6.8497731501
 30
0.0
 10
8.6377828961
 20
6.8455406663
 30
0.0
 10
8.6433073213
 20
6.8417486693
 30
0.0
 10
8.6491045748
 20
6.8384252325
 30
0.0
 10
8.655131774
 20
6.8355949965
 30
0.0
 10
8.6613445435
 20
6.8332789558
 30
0.0
 10
8.6676963347
 20
6.8314944232
 30
0.0
 10
8.6720058934
 20
6.8306654328
 30
0.0
 10
8.6741674085
 20
6.8303441559
 30
0.0
  0
SPLINE
  5
338
100
AcDbEntity
  8
0
100
AcDbSpline
 62
7
  6
CONTINUOUS
 70
0
 71
3
 72
39
 73
35
 74
0
 42
0.0000001
 43
0.0000001
 44
0.0000000001
 40
0.0
 40
0.0
 40
0.0
 40
0.0
 40
0.0322250859
 40
0.0623484534
 40
0.0906180108
 40
0.1173246408
 40
0.1427782155
 40
0.1672863101
 40
0.1911381132
 40
0.2145941061
 40
0.2378809906
 40
0.2611914577
 40
0.2846882149
 40
0.3085068377
 40
0.332761008
 40
0.3575499635
 40
0.3829599449
 40
0.4090708471
 40
0.4359597574
 40
0.4637023666
 40
0.4923798701
 40
0.522077502
 40
0.5528921264
 40
0.584932875
 40
0.6183251133
 40
0.6532152608
 40
0.6897716865
 40
0.7281846777
 40
0.7686569443
 40
0.8113709679
 40
0.8564054114
 40
0.9035478481
 40
0.9519779557
 40
1.0
 40
1.0
 40
1.0
 40
1.0
 10
8.606321989
 20
8.7540234636
 30
0.0
 10
8.6042124183
 20
8.7561714314
 30
0.0
 10
8.6003759296
 20
8.7605789872
 30
0.0
 10
8.5956718171
 20
8.7676455914
 30
0.0
 10
8.5921662948
 20
8.7748080708
 30
0.0
 10
8.5897880007
 20
8.781959766
 30
0.0
 10
8.5884528181
 20
8.7890186343
 30
0.0
 10
8.5880729079
 20
8.7959237234
 30
0.0
 10
8.5885618938
 20
8.8026328164
 30
0.0
 10
8.5898389455
 20
8.8091189731
 30
0.0
 10
8.5918311543
 20
8.8153670777
 30
0.0
 10
8.5944744408
 20
8.8213708665
 30
0.0
 10
8.597714456
 20
8.8271299132
 30
0.0
 10
8.601505642
 20
8.8326475589
 30
0.0
 10
8.6058101763
 20
8.8379298592
 30
0.0
 10
8.6105985756
 20
8.8429832859
 30
0.0
 10
8.6158474747
 20
8.8478152856
 30
0.0
 10
8.6215399621
 20
8.8524329547
 30
0.0
 10
8.6276652892
 20
8.8568422155
 30
0.0
 10
8.6342175805
 20
8.8610492221
 30
0.0
 10
8.6411973746
 20
8.865057194
 30
0.0
 10
8.6486099506
 20
8.8688694033
 30
0.0
 10
8.6564670775
 20
8.8724858235
 30
0.0
 10
8.6647865962
 20
8.8759043415
 30
0.0
 10
8.6735931039
 20
8.8791197983
 30
0.0
 10
8.6829188417
 20
8.8821218998
 30
0.0
 10
8.6928034965
 20
8.8848945898
 30
0.0
 10
8.7032932433
 20
8.8874130366
 30
0.0
 10
8.714436304
 20
8.8896398321
 30
0.0
 10
8.7262703806
 20
8.8915196103
 30
0.0
 10
8.7387925883
 20
8.8929728121
 30
0.0
 10
8.7519017765
 20
8.8938928807
 30
0.0
 10
8.7653204779
 20
8.8941584582
 30
0.0
 10
8.7743321773
 20
8.8938284188
 30
0.0
 10
8.7788079286
 20
8.8935180244
 30
0.0
  0
SPLINE
  5
339
100
AcDbEntity
  8
0
100
AcDbSpline
 62
7
  6
CONTINUOUS
 70
0
 71
3
 72
15
 73
11
 74
0
 42
0.0000001
 43
0.0000001
 44
0.0000000001
 40
0.0
 40
0.0
 40
0.0
 40
0.0
 40
0.127348315
 40
0.2538606239
 40
0.3795878599
 40
0.5046051181
 40
0.6290174391
 40
0.7529533757
 40
0.8765605793
 40
1.0
 40
1.0
 40
1.0
 40
1.0
 10
7.7010591069
 20
9.5456321077
 30
0.0
 10
7.7010591069
 20
9.5521304736
 30
0.0
 10
7.7016795723
 20
9.5650935294
 30
0.0
 10
7.7044855448
 20
9.5842887891
 30
0.0
 10
7.7091383252
 20
9.6030017459
 30
0.0
 10
7.7155958744
 20
9.6210573978
 30
0.0
 10
7.7237989882
 20
9.6382892215
 30
0.0
 10
7.7336728434
 20
9.6545381107
 30
0.0
 10
7.7451245975
 20
9.6696518285
 30
0.0
 10
7.7537471882
 20
9.6788841548
 30
0.0
 10
7.7582776982
 20
9.6832602995
 30
0.0
  0
SPLINE
  5
33A
100
AcDbEntity
  8
0
100
AcDbSpline
 62
7
  6
CONTINUOUS
 70
0
 71
3
 72
25
 73
21
 74
0
 42
0.0000001
 43
0.0000001
 44
0.0000000001
 40
0.0
 40
0.0
 40
0.0
 40
0.0
 40
0.0623811216
 40
0.0935082931
 40
0.1245952884
 40
0.1866563031
 40
0.2486123265
 40
0.2795693713
 40
0.3105160796
 40
0.372390218
 40
0.4342927035
 40
0.4962716922
 40
0.558375377
 40
0.6206506403
 40
0.6831415892
 40
0.7458880814
 40
0.8089241599
 40
0.8722771729
 40
0.9359653046
 40
1.0
 40
1.0
 40
1.0
 40
1.0
 10
10.0825970624
 20
8.7061552308
 30
0.0
 10
10.079746786
 20
8.6995306157
 30
0.0
 10
10.0751230975
 20
8.6897457753
 30
0.0
 10
10.0682782372
 20
8.6770692384
 30
0.0
 10
10.0609997605
 20
8.6646788243
 30
0.0
 10
10.0510799515
 20
8.6497210328
 30
0.0
 10
10.0400923165
 20
8.6355471975
 30
0.0
 10
10.0306950458
 20
8.6247390179
 30
0.0
 10
10.020903198
 20
8.6143000712
 30
0.0
 10
10.0079281131
 20
8.6019598441
 30
0.0
 10
9.9912572998
 20
8.5883893276
 30
0.0
 10
9.9735573246
 20
8.5761429247
 30
0.0
 10
9.9549113739
 20
8.56530499
 30
0.0
 10
9.9354113893
 20
8.5559531739
 30
0.0
 10
9.915158773
 20
8.5481578045
 30
0.0
 10
9.8942636621
 20
8.5419801171
 30
0.0
 10
9.8728443739
 20
8.5374707296
 30
0.0
 10
9.8510256143
 20
8.5346684667
 30
0.0
 10
9.8289396287
 20
8.5335987224
 30
0.0
 10
9.8141627745
 20
8.5340475566
 30
0.0
 10
9.8067775777
 20
8.5345597217
 30
0.0
  0
SPLINE
  5
33B
100
AcDbEntity
  8
0
100
AcDbSpline
 62
7
  6
CONTINUOUS
 70
0
 71
3
 72
11
 73
7
 74
0
 42
0.0000001
 43
0.0000001
 44
0.0000000001
 40
0.0
 40
0.0
 40
0.0
 40
0.0
 40
0.2478034954
 40
0.4970066141
 40
0.7477168171
 40
1.0
 40
1.0
 40
1.0
 40
1.0
 10
9.3081858716
 20
7.0343730978
 30
0.0
 10
9.2997905101
 20
7.0317885247
 30
0.0
 10
9.2826981698
 20
7.0273939286
 30
0.0
 10
9.256489788
 20
7.0232009467
 30
0.0
 10
9.2298489286
 20
7.0214236364
 30
0.0
 10
9.2119954039
 20
7.0218599876
 30
0.0
 10
9.2030738383
 20
7.0224787003
 30
0.0
  0
SPLINE
  5
33C
100
AcDbEntity
  8
0
100
AcDbSpline
 62
7
  6
CONTINUOUS
 70
0
 71
3
 72
39
 73
35
 74
0
 42
0.0000001
 43
0.0000001
 44
0.0000000001
 40
0.0
 40
0.0
 40
0.0
 40
0.0
 40
0.0300033687
 40
0.0600219743
 40
0.090070822
 40
0.1201644586
 40
0.1503167546
 40
0.1805406999
 40
0.2108482147
 40
0.2412499827
 40
0.2717553055
 40
0.3023719812
 40
0.3331062079
 40
0.3639625143
 40
0.3949437146
 40
0.4260508904
 40
0.4572833967
 40
0.4886388902
 40
0.5201133821
 40
0.5517013096
 40
0.583395626
 40
0.6151879063
 40
0.6470684686
 40
0.6790265078
 40
0.71105024
 40
0.7431270565
 40
0.7752436865
 40
0.8073863618
 40
0.8395410054
 40
0.8716933426
 40
0.9038292924
 40
0.9359344979
 40
0.9679961403
 40
1.0
 40
1.0
 40
1.0
 40
1.0
 10
10.6710105603
 20
6.975531952
 30
0.0
 10
10.6661017354
 20
6.9707904053
 30
0.0
 10
10.65598108
 20
6.9616104462
 30
0.0
 10
10.6399626867
 20
6.9488155563
 30
0.0
 10
10.623157688
 20
6.9370357049
 30
0.0
 10
10.6056245092
 20
6.9263119885
 30
0.0
 10
10.5874230974
 20
6.9166809422
 30
0.0
 10
10.5686159476
 20
6.908175587
 30
0.0
 10
10.5492675552
 20
6.9008249969
 30
0.0
 10
10.5294442793
 20
6.8946542842
 30
0.0
 10
10.5092140845
 20
6.8896845014
 30
0.0
 10
10.4886463129
 20
6.885932577
 30
0.0
 10
10.4678114434
 20
6.8834112603
 30
0.0
 10
10.4467808501
 20
6.8821290816
 30
0.0
 10
10.4256265577
 20
6.8820903271
 30
0.0
 10
10.4044209961
 20
6.8832950275
 30
0.0
 10
10.383236754
 20
6.8857389623
 30
0.0
 10
10.3621463307
 20
6.8894136678
 30
0.0
 10
10.3412218888
 20
6.8943064732
 30
0.0
 10
10.32053501
 20
6.9004005499
 30
0.0
 10
10.3001564522
 20
6.9076749701
 30
0.0
 10
10.2801559104
 20
6.9161047796
 30
0.0
 10
10.2606017804
 20
6.9256610831
 30
0.0
 10
10.2415609278
 20
6.936311144
 30
0.0
 10
10.2230984607
 20
6.9480184956
 30
0.0
 10
10.2052775103
 20
6.9607430658
 30
0.0
 10
10.1881590119
 20
6.9744413071
 30
0.0
 10
10.1718014937
 20
6.9890663493
 30
0.0
 10
10.1562609062
 20
7.0045681624
 30
0.0
 10
10.141590351
 20
7.020893738
 30
0.0
 10
10.127840124
 20
7.0379871837
 30
0.0
 10
10.1150569823
 20
7.0557902915
 30
0.0
 10
10.1032853035
 20
7.0742413785
 30
0.0
 10
10.0961302245
 20
7.0869469421
 30
0.0
 10
10.0927347374
 20
7.0933864999
 30
0.0
  0
SPLINE
  5
33D
100
AcDbEntity
  8
0
100
AcDbSpline
 62
7
  6
CONTINUOUS
 70
0
 71
3
 72
11
 73
7
 74
0
 42
0.0000001
 43
0.0000001
 44
0.0000000001
 40
0.0
 40
0.0
 40
0.0
 40
0.0
 40
0.2416730391
 40
0.4898721795
 40
0.7431623152
 40
1.0
 40
1.0
 40
1.0
 40
1.0
 10
10.7612778736
 20
7.3156416941
 30
0.0
 10
10.7586264696
 20
7.3220403103
 30
0.0
 10
10.7532721215
 20
7.3350186653
 30
0.0
 10
10.7452432279
 20
7.3547460712
 30
0.0
 10
10.7371745577
 20
7.3749261183
 30
0.0
 10
10.7318456442
 20
7.3885404728
 30
0.0
 10
10.7291906066
 20
7.3954057676
 30
0.0
  0
SPLINE
  5
33E
100
AcDbEntity
  8
0
100
AcDbSpline
 62
7
  6
CONTINUOUS
 70
0
 71
3
 72
15
 73
11
 74
0
 42
0.0000001
 43
0.0000001
 44
0.0000000001
 40
0.0
 40
0.0
 40
0.0
 40
0.0
 40
0.127348315
 40
0.2538606239
 40
0.3795878599
 40
0.5046051181
 40
0.6290174391
 40
0.7529533757
 40
0.8765605793
 40
1.0
 40
1.0
 40
1.0
 40
1.0
 10
11.564762641
 20
9.2776833575
 30
0.0
 10
11.564762641
 20
9.2841817235
 30
0.0
 10
11.5653831064
 20
9.2971447792
 30
0.0
 10
11.5681890789
 20
9.316340039
 30
0.0
 10
11.5728418593
 20
9.3350529957
 30
0.0
 10
11.5792994085
 20
9.3531086477
 30
0.0
 10
11.5875025223
 20
9.3703404713
 30
0.0
 10
11.5973763775
 20
9.3865893605
 30
0.0
 10
11.6088281316
 20
9.4017030783
 30
0.0
 10
11.6174507223
 20
9.4109354046
 30
0.0
 10
11.6219812323
 20
9.4153115493
 30
0.0
  0
SPLINE
  5
33F
100
AcDbEntity
  8
0
100
AcDbSpline
 62
7
  6
CONTINUOUS
 70
0
 71
3
 72
23
 73
19
 74
0
 42
0.0000001
 43
0.0000001
 44
0.0000000001
 40
0.0
 40
0.0
 40
0.0
 40
0.0
 40
0.0622033919
 40
0.1242632835
 40
0.1862159053
 40
0.2481003034
 40
0.3099577537
 40
0.3718309958
 40
0.4337633165
 40
0.4957975889
 40
0.557975375
 40
0.6203359437
 40
0.6829151675
 40
0.7457445101
 40
0.8088508387
 40
0.872252654
 40
0.9359691425
 40
1.0
 40
1.0
 40
1.0
 40
1.0
 10
10.9257191732
 20
8.6616227775
 30
0.0
 10
10.9244868662
 20
8.6592002854
 30
0.0
 10
10.9218549272
 20
8.654445231
 30
0.0
 10
10.9174171982
 20
8.647617639
 30
0.0
 10
10.9125108627
 20
8.6411354162
 30
0.0
 10
10.9071552894
 20
8.6350308573
 30
0.0
 10
10.9013719522
 20
8.6293346518
 30
0.0
 10
10.8951848477
 20
8.6240764229
 30
0.0
 10
10.8886204463
 20
8.6192842656
 30
0.0
 10
10.881707738
 20
8.6149844839
 30
0.0
 10
10.8744781309
 20
8.6112013385
 30
0.0
 10
10.8669653653
 20
8.6079567547
 30
0.0
 10
10.8592053853
 20
8.6052700381
 30
0.0
 10
10.851236123
 20
8.6031575372
 30
0.0
 10
10.8430974029
 20
8.6016324955
 30
0.0
 10
10.8348301329
 20
8.6007045148
 30
0.0
 10
10.8264773649
 20
8.6003800492
 30
0.0
 10
10.8208930158
 20
8.6005672064
 30
0.0
 10
10.8181019578
 20
8.6007607669
 30
0.0
  0
SPLINE
  5
340
100
AcDbEntity
  8
0
100
AcDbSpline
 62
7
  6
CONTINUOUS
 70
0
 71
3
 72
15
 73
11
 74
0
 42
0.0000001
 43
0.0000001
 44
0.0000000001
 40
0.0
 40
0.0
 40
0.0
 40
0.0
 40
0.1273482228
 40
0.253860527
 40
0.3795879206
 40
0.5046050801
 40
0.6290174363
 40
0.7529533709
 40
0.8765605784
 40
1.0
 40
1.0
 40
1.0
 40
1.0
 10
9.0673612516
 20
9.5117320566
 30
0.0
 10
9.0673612516
 20
9.516059151
 30
0.0
 10
9.0677743981
 20
9.5246909189
 30
0.0
 10
9.0696428224
 20
9.5374725593
 30
0.0
 10
9.0727409866
 20
9.5499330475
 30
0.0
 10
9.0770409131
 20
9.5619558493
 30
0.0
 10
9.0825031229
 20
9.5734300986
 30
0.0
 10
9.0890778447
 20
9.5842498426
 30
0.0
 10
9.0967032592
 20
9.5943136994
 30
0.0
 10
9.1024448089
 20
9.6004612869
 30
0.0
 10
9.1054615573
 20
9.6033752548
 30
0.0
  0
SPLINE
  5
341
100
AcDbEntity
  8
0
100
AcDbSpline
 62
7
  6
CONTINUOUS
 70
0
 71
3
 72
40
 73
36
 74
0
 42
0.0000001
 43
0.0000001
 44
0.0000000001
 40
0.0
 40
0.0
 40
0.0
 40
0.0
 40
0.0316295056
 40
0.0634538022
 40
0.0954475509
 40
0.1275801706
 40
0.1598163954
 40
0.1759657399
 40
0.1921266438
 40
0.2244554865
 40
0.2567728791
 40
0.2890422796
 40
0.3212299546
 40
0.353305778
 40
0.3852438368
 40
0.4170228823
 40
0.4486266671
 40
0.4800442012
 40
0.5112699504
 40
0.54230399
 40
0.5731521162
 40
0.6038258986
 40
0.6343426512
 40
0.6647252819
 40
0.6950019731
 40
0.7252056407
 40
0.7553731245
 40
0.7855440714
 40
0.8157595031
 40
0.8460601041
 40
0.8764843242
 40
0.9070663172
 40
0.9378343562
 40
0.9688080864
 40
1.0
 40
1.0
 40
1.0
 40
1.0
 10
11.2435225036
 20
7.0010108427
 30
0.0
 10
11.2396177741
 20
7.0016944149
 30
0.0
 10
11.2318475858
 20
7.0034588489
 30
0.0
 10
11.2204804067
 20
7.0072421299
 30
0.0
 10
11.2094709612
 20
7.0121259082
 30
0.0
 10
11.1989276203
 20
7.0180512842
 30
0.0
 10
11.1906138744
 20
7.0237983366
 30
0.0
 10
11.1842877282
 20
7.0288440824
 30
0.0
 10
11.1781876353
 20
7.034178596
 30
0.0
 10
11.1710202777
 20
7.0413544599
 30
0.0
 10
11.1632219639
 20
7.0506869298
 30
0.0
 10
11.1562816043
 20
7.0606525779
 30
0.0
 10
11.1502493735
 20
7.0711574156
 30
0.0
 10
11.1451661537
 20
7.082106978
 30
0.0
 10
11.1410649308
 20
7.0934063635
 30
0.0
 10
11.1379712235
 20
7.1049608672
 30
0.0
 10
11.1359036968
 20
7.1166761836
 30
0.0
 10
11.1348745978
 20
7.1284585119
 30
0.0
 10
11.1348900711
 20
7.1402145328
 30
0.0
 10
11.1359503127
 20
7.1518513284
 30
0.0
 10
11.138049559
 20
7.1632762861
 30
0.0
 10
11.1411759068
 20
7.1743970384
 30
0.0
 10
11.1453109729
 20
7.1851214856
 30
0.0
 10
11.1504294062
 20
7.1953579534
 30
0.0
 10
11.1564982832
 20
7.2050155333
 30
0.0
 10
11.1634764287
 20
7.2140046537
 30
0.0
 10
11.1713137237
 20
7.2222379188
 30
0.0
 10
11.1799504783
 20
7.2296312387
 30
0.0
 10
11.1893169666
 20
7.2361052521
 30
0.0
 10
11.1993332205
 20
7.241587009
 30
0.0
 10
11.2099092527
 20
7.2460117969
 30
0.0
 10
11.2209455247
 20
7.2493251375
 30
0.0
 10
11.2323346646
 20
7.2514843958
 30
0.0
 10
11.2439607687
 20
7.2524608856
 30
0.0
 10
11.2517665226
 20
7.2523140645
 30
0.0
 10
11.2556664244
 20
7.2520436054
 30
0.0
  0
SPLINE
  5
342
100
AcDbEntity
  8
0
100
AcDbSpline
 62
7
  6
CONTINUOUS
 70
0
 71
3
 72
34
 73
30
 74
0
 42
0.0000001
 43
0.0000001
 44
0.0000000001
 40
0.0
 40
0.0
 40
0.0
 40
0.0
 40
0.029948265
 40
0.059920911
 40
0.0899417355
 40
0.1200333579
 40
0.1502166746
 40
0.1805103996
 40
0.2109306468
 40
0.241490565
 40
0.2722000568
 40
0.303065626
 40
0.3340902961
 40
0.3652735746
 40
0.3966114954
 40
0.4280967817
 40
0.4597190652
 40
0.4914651189
 40
0.5552240134
 40
0.6192627273
 40
0.6834082032
 40
0.7474789322
 40
0.8112993139
 40
0.8430855846
 40
0.8747534858
 40
0.9062889405
 40
0.9376793031
 40
0.9689201346
 40
1.0
 40
1.0
 40
1.0
 40
1.0
 10
10.872291419
 20
9.2733618488
 30
0.0
 10
10.8709974233
 20
9.2721119647
 30
0.0
 10
10.8683076392
 20
9.2697131174
 30
0.0
 10
10.8639982481
 20
9.2664450719
 30
0.0
 10
10.8594361172
 20
9.2635236539
 30
0.0
 10
10.8546467279
 20
9.2609652747
 30
0.0
 10
10.8496564191
 20
9.2587839053
 30
0.0
 10
10.8444927443
 20
9.2569915068
 30
0.0
 10
10.8391841525
 20
9.2555978864
 30
0.0
 10
10.8337598801
 20
9.2546106895
 30
0.0
 10
10.8282497977
 20
9.254035275
 30
0.0
 10
10.82268423
 20
9.2538747017
 30
0.0
 10
10.8170937797
 20
9.2541297818
 30
0.0
 10
10.8115091829
 20
9.254799074
 30
0.0
 10
10.8059611076
 20
9.2558788521
 30
0.0
 10
10.8004800978
 20
9.257363035
 30
0.0
 10
10.7950959418
 20
9.2592436114
 30
0.0
 10
10.7880780623
 20
9.2622687073
 30
0.0
 10
10.7796967963
 20
9.2669877749
 30
0.0
 10
10.7705035661
 20
9.2740070011
 30
0.0
 10
10.7623522719
 20
9.2822413503
 30
0.0
 10
10.7554224655
 20
9.2915091187
 30
0.0
 10
10.7507824294
 20
9.2999434431
 30
0.0
 10
10.7478213325
 20
9.3069981328
 30
0.0
 10
10.7459887835
 20
9.3124074359
 30
0.0
 10
10.7445527796
 20
9.3179104249
 30
0.0
 10
10.7435208562
 20
9.3234774288
 30
0.0
 10
10.7428990812
 20
9.3290772191
 30
0.0
 10
10.7427597454
 20
9.3328224088
 30
0.0
 10
10.7427597454
 20
9.334689452
 30
0.0
  0
SPLINE
  5
343
100
AcDbEntity
  8
0
100
AcDbSpline
 62
7
  6
CONTINUOUS
 70
0
 71
3
 72
34
 73
30
 74
0
 42
0.0000001
 43
0.0000001
 44
0.0000000001
 40
0.0
 40
0.0
 40
0.0
 40
0.0
 40
0.029948265
 40
0.059920911
 40
0.0899417355
 40
0.1200333579
 40
0.1502166746
 40
0.1805103996
 40
0.2109306468
 40
0.241490565
 40
0.2722000568
 40
0.303065626
 40
0.3340902961
 40
0.3652735746
 40
0.3966114954
 40
0.4280967817
 40
0.4597190652
 40
0.4914651189
 40
0.5552240134
 40
0.6192627273
 40
0.6834082032
 40
0.7474789322
 40
0.8112993139
 40
0.8430855846
 40
0.8747534858
 40
0.9062889405
 40
0.9376793031
 40
0.9689201346
 40
1.0
 40
1.0
 40
1.0
 40
1.0
 10
8.6535596158
 20
6.7709352423
 30
0.0
 10
8.65226562
 20
6.7696853582
 30
0.0
 10
8.6495758359
 20
6.7672865109
 30
0.0
 10
8.6452664449
 20
6.7640184654
 30
0.0
 10
8.6407043139
 20
6.7610970474
 30
0.0
 10
8.6359149246
 20
6.7585386682
 30
0.0
 10
8.6309246158
 20
6.7563572988
 30
0.0
 10
8.6257609411
 20
6.7545649003
 30
0.0
 10
8.6204523492
 20
6.7531712799
 30
0.0
 10
8.6150280768
 20
6.7521840829
 30
0.0
 10
8.6095179944
 20
6.7516086685
 30
0.0
 10
8.6039524268
 20
6.7514480952
 30
0.0
 10
8.5983619764
 20
6.7517031753
 30
0.0
 10
8.5927773797
 20
6.7523724675
 30
0.0
 10
8.5872293043
 20
6.7534522456
 30
0.0
 10
8.5817482945
 20
6.7549364285
 30
0.0
 10
8.5763641385
 20
6.7568170049
 30
0.0
 10
8.569346259
 20
6.7598421008
 30
0.0
 10
8.5609649931
 20
6.7645611684
 30
0.0
 10
8.5517717628
 20
6.7715803945
 30
0.0
 10
8.5436204686
 20
6.7798147438
 30
0.0
 10
8.5366906622
 20
6.7890825122
 30
0.0
 10
8.5320506261
 20
6.7975168366
 30
0.0
 10
8.5290895293
 20
6.8045715263
 30
0.0
 10
8.5272569802
 20
6.8099808294
 30
0.0
 10
8.5258209763
 20
6.8154838184
 30
0.0
 10
8.5247890529
 20
6.8210508222
 30
0.0
 10
8.524167278
 20
6.8266506126
 30
0.0
 10
8.5240279422
 20
6.8303958023
 30
0.0
 10
8.5240279422
 20
6.8322628454
 30
0.0
  0
SPLINE
  5
344
100
AcDbEntity
  8
0
100
AcDbSpline
 62
7
  6
CONTINUOUS
 70
0
 71
3
 72
19
 73
15
 74
0
 42
0.0000001
 43
0.0000001
 44
0.0000000001
 40
0.0
 40
0.0
 40
0.0
 40
0.0
 40
0.0934966604
 40
0.1833860034
 40
0.2689175089
 40
0.3496332617
 40
0.4253597978
 40
0.496151561
 40
0.5622205327
 40
0.6238722094
 40
0.7353186932
 40
0.8334139855
 40
0.9208527084
 40
1.0
 40
1.0
 40
1.0
 40
1.0
 10
8.7788079286
 20
8.8935180244
 30
0.0
 10
8.7808850134
 20
8.8933739781
 30
0.0
 10
8.78495508
 20
8.8930294411
 30
0.0
 10
8.790903707
 20
8.8923301958
 30
0.0
 10
8.796543643
 20
8.8914704967
 30
0.0
 10
8.801839185
 20
8.8904673652
 30
0.0
 10
8.8067733084
 20
8.8893388797
 30
0.0
 10
8.8113443569
 20
8.8881023731
 30
0.0
 10
8.8155619802
 20
8.8867732994
 30
0.0
 10
8.8205694528
 20
8.8849554848
 30
0.0
 10
8.8261092135
 20
8.8825274737
 30
0.0
 10
8.8318890012
 20
8.8792897903
 30
0.0
 10
8.83670734
 20
8.8758755418
 30
0.0
 10
8.8394777902
 20
8.8733933051
 30
0.0
 10
8.8407141082
 20
8.8721371113
 30
0.0
  0
LINE
  5
345
100
AcDbEntity
  8
0
100
AcDbLine
 62
7
  6
CONTINUOUS
 10
8.8387884137
 20
8.8324313501
 11
8.8490513637
 21
8.8319167918
  0
SPLINE
  5
346
100
AcDbEntity
  8
0
100
AcDbSpline
 62
7
  6
CONTINUOUS
 70
0
 71
3
 72
39
 73
35
 74
0
 42
0.0000001
 43
0.0000001
 44
0.0000000001
 40
0.0
 40
0.0
 40
0.0
 40
0.0
 40
0.0313506645
 40
0.0628875172
 40
0.0946000733
 40
0.1264712756
 40
0.158479822
 40
0.1906004331
 40
0.2228048084
 40
0.2550625505
 40
0.2873421088
 40
0.3196117037
 40
0.3518401975
 40
0.383997916
 40
0.4160574093
 40
0.447994133
 40
0.4797870389
 40
0.5114190932
 40
0.5428777145
 40
0.5741551242
 40
0.6052485933
 40
0.6361605933
 40
0.6668988358
 40
0.6974761858
 40
0.7279104312
 40
0.7582239058
 40
0.7884429526
 40
0.8185972217
 40
0.8487188118
 40
0.8788412878
 40
0.9089985883
 40
0.9392238629
 40
0.9695482974
 40
1.0
 40
1.0
 40
1.0
 40
1.0
 10
9.2030738383
 20
7.0224787003
 30
0.0
 10
9.1942142693
 20
7.0230931135
 30
0.0
 10
9.1764877259
 20
7.0251179423
 30
0.0
 10
9.1501999733
 20
7.0304846648
 30
0.0
 10
9.1243313923
 20
7.0381449288
 30
0.0
 10
9.0990878743
 20
7.0480338235
 30
0.0
 10
9.0746653408
 20
7.0600680375
 30
0.0
 10
9.0512520959
 20
7.0741470712
 30
0.0
 10
9.0290261656
 20
7.090154708
 30
0.0
 10
9.0081542598
 20
7.1079605257
 30
0.0
 10
8.988790533
 20
7.1274214374
 30
0.0
 10
8.971075721
 20
7.1483833035
 30
0.0
 10
8.9551365636
 20
7.1706825827
 30
0.0
 10
8.9410853677
 20
7.1941478348
 30
0.0
 10
8.9290197009
 20
7.2186011269
 30
0.0
 10
8.9190222203
 20
7.243859355
 30
0.0
 10
8.9111607008
 20
7.2697354951
 30
0.0
 10
8.905488035
 20
7.2960396931
 30
0.0
 10
8.9020422716
 20
7.3225802718
 30
0.0
 10
8.900846581
 20
7.3491646609
 30
0.0
 10
8.9019093551
 20
7.3756002989
 30
0.0
 10
8.905224188
 20
7.4016954852
 30
0.0
 10
8.9107698424
 20
7.4272602385
 30
0.0
 10
8.9185100944
 20
7.4521072117
 30
0.0
 10
8.9283936634
 20
7.4760526652
 30
0.0
 10
8.9403541489
 20
7.4989175098
 30
0.0
 10
8.9543099634
 20
7.5205284548
 30
0.0
 10
8.9701642964
 20
7.5407193039
 30
0.0
 10
8.9878051793
 20
7.5593323712
 30
0.0
 10
9.0071059089
 20
7.5762199443
 30
0.0
 10
9.0279251844
 20
7.5912457298
 30
0.0
 10
9.0501089403
 20
7.6042868242
 30
0.0
 10
9.0734868384
 20
7.6152339975
 30
0.0
 10
9.089717451
 20
7.6210629979
 30
0.0
 10
9.097961805
 20
7.6236010822
 30
0.0
  0
SPLINE
  5
347
100
AcDbEntity
  8
0
100
AcDbSpline
 62
7
  6
CONTINUOUS
 70
0
 71
3
 72
15
 73
11
 74
0
 42
0.0000001
 43
0.0000001
 44
0.0000000001
 40
0.0
 40
0.0
 40
0.0
 40
0.0
 40
0.1273482228
 40
0.253860527
 40
0.3795879206
 40
0.5046050801
 40
0.6290174363
 40
0.7529533709
 40
0.8765605784
 40
1.0
 40
1.0
 40
1.0
 40
1.0
 10
9.671065044
 20
6.6918622566
 30
0.0
 10
9.671065044
 20
6.696189351
 30
0.0
 10
9.6714781904
 20
6.7048211189
 30
0.0
 10
9.6733466147
 20
6.7176027593
 30
0.0
 10
9.6764447789
 20
6.7300632475
 30
0.0
 10
9.6807447055
 20
6.7420860493
 30
0.0
 10
9.6862069152
 20
6.7535602986
 30
0.0
 10
9.6927816371
 20
6.7643800427
 30
0.0
 10
9.7004070516
 20
6.7744438994
 30
0.0
 10
9.7061486013
 20
6.7805914869
 30
0.0
 10
9.7091653496
 20
6.7835054549
 30
0.0
  0
SPLINE
  5
348
100
AcDbEntity
  8
0
100
AcDbSpline
 62
7
  6
CONTINUOUS
 70
0
 71
3
 72
60
 73
56
 74
0
 42
0.0000001
 43
0.0000001
 44
0.0000000001
 40
0.0
 40
0.0
 40
0.0
 40
0.0
 40
0.0027165059
 40
0.005453396
 40
0.0082305579
 40
0.0110669375
 40
0.0169824427
 40
0.0233277027
 40
0.030199575
 40
0.0376706051
 40
0.0457931517
 40
0.0546033099
 40
0.0641243776
 40
0.0743698368
 40
0.0853450835
 40
0.0970493141
 40
0.109476478
 40
0.1226161199
 40
0.1364542509
 40
0.1509735092
 40
0.1661538836
 40
0.1819728358
 40
0.1984055591
 40
0.2154253771
 40
0.2330036439
 40
0.2511101869
 40
0.2697132853
 40
0.2887798177
 40
0.3281639543
 40
0.3689761443
 40
0.4109144248
 40
0.453665709
 40
0.4969090069
 40
0.5403185876
 40
0.5835671264
 40
0.6263288469
 40
0.6682826567
 40
0.709115308
 40
0.7485246275
 40
0.7862228824
 40
0.8219403027
 40
0.8389784627
 40
0.8554304524
 40
0.8712694464
 40
0.8864706762
 40
0.9010114383
 40
0.9148716754
 40
0.9280339701
 40
0.9404841134
 40
0.9522116714
 40
0.96321035
 40
0.9734790534
 40
0.98302315
 40
0.9918562785
 40
1.0
 40
1.0
 40
1.0
 40
1.0
 10
14.3374554792
 20
8.5626925732
 30
0.0
 10
14.3378959426
 20
8.562662023
 30
0.0
 10
14.3387779223
 20
8.5625608362
 30
0.0
 10
14.3400896467
 20
8.5622900322
 30
0.0
 10
14.3413914939
 20
8.561900237
 30
0.0
 10
14.3431368546
 20
8.5612131329
 30
0.0
 10
14.3453026802
 20
8.5600376694
 30
0.0
 10
14.3478059238
 20
8.5581784162
 30
0.0
 10
14.3502485933
 20
8.5558574046
 30
0.0
 10
14.3526279008
 20
8.5530806545
 30
0.0
 10
14.3549412745
 20
8.5498536135
 30
0.0
 10
14.3571853748
 20
8.5461822855
 30
0.0
 10
14.3593566028
 20
8.542073445
 30
0.0
 10
14.3614509858
 20
8.5375347422
 30
0.0
 10
14.3634646549
 20
8.5325748464
 30
0.0
 10
14.3653936404
 20
8.5272033271
 30
0.0
 10
14.3672341138
 20
8.5214306855
 30
0.0
 10
14.3689824229
 20
8.5152683008
 30
0.0
 10
14.3706349701
 20
8.5087283762
 30
0.0
 10
14.372188467
 20
8.5018239321
 30
0.0
 10
14.373639721
 20
8.4945687433
 30
0.0
 10
14.3749857796
 20
8.486977318
 30
0.0
 10
14.3762239375
 20
8.479064859
 30
0.0
 10
14.377351621
 20
8.470847229
 30
0.0
 10
14.378366587
 20
8.4623409142
 30
0.0
 10
14.3792667341
 20
8.4535629974
 30
0.0
 10
14.3800502523
 20
8.4445310925
 30
0.0
 10
14.3809469251
 20
8.4320390766
 30
0.0
 10
14.3817563433
 20
8.415923699
 30
0.0
 10
14.3822342814
 20
8.3960765281
 30
0.0
 10
14.3822246759
 20
8.3756763933
 30
0.0
 10
14.3817274329
 20
8.3548872031
 30
0.0
 10
14.3807463803
 20
8.3338758764
 30
0.0
 10
14.3792893266
 20
8.3128111933
 30
0.0
 10
14.3773679799
 20
8.2918623544
 30
0.0
 10
14.3749978446
 20
8.2711976191
 30
0.0
 10
14.3721980996
 20
8.2509829199
 30
0.0
 10
14.3689914411
 20
8.231380535
 30
0.0
 10
14.3654039381
 20
8.2125476395
 30
0.0
 10
14.3614647372
 20
8.1946353546
 30
0.0
 10
14.3578615146
 20
8.1803789296
 30
0.0
 10
14.3548148596
 20
8.1695502999
 30
0.0
 10
14.3524984206
 20
8.1618740699
 30
0.0
 10
14.350119272
 20
8.1545302252
 30
0.0
 10
14.3476822197
 20
8.1475334518
 30
0.0
 10
14.3451921387
 20
8.140897748
 30
0.0
 10
14.3426541073
 20
8.1346363363
 30
0.0
 10
14.3400732075
 20
8.1287616763
 30
0.0
 10
14.3374546166
 20
8.1232854012
 30
0.0
 10
14.3348036038
 20
8.1182182787
 30
0.0
 10
14.3321253312
 20
8.1135702472
 30
0.0
 10
14.3294251394
 20
8.1093502693
 30
0.0
 10
14.3267079267
 20
8.1055662355
 30
0.0
 10
14.323978959
 20
8.1022257548
 30
0.0
 10
14.3220798341
 20
8.1002191542
 30
0.0
 10
14.3211278124
 20
8.0992995718
 30
0.0
  0
SPLINE
  5
349
100
AcDbEntity
  8
0
100
AcDbSpline
 62
7
  6
CONTINUOUS
 70
0
 71
3
 72
77
 73
73
 74
0
 42
0.0000001
 43
0.0000001
 44
0.0000000001
 40
0.0
 40
0.0
 40
0.0
 40
0.0
 40
0.0038738271
 40
0.0079043355
 40
0.0120948299
 40
0.0164481104
 40
0.0209665598
 40
0.0256520744
 40
0.0305059514
 40
0.0355290642
 40
0.0407219213
 40
0.0460846613
 40
0.0573184718
 40
0.0692265729
 40
0.0818005893
 40
0.0950288819
 40
0.1088969778
 40
0.1233878936
 40
0.1384824428
 40
0.1541594626
 40
0.170396004
 40
0.1871674908
 40
0.2044478497
 40
0.2222096633
 40
0.2404242815
 40
0.2590619182
 40
0.2780917512
 40
0.2974820183
 40
0.317200117
 40
0.3372126912
 40
0.3574857047
 40
0.3986733854
 40
0.4404812762
 40
0.4826212976
 40
0.5248024509
 40
0.566733373
 40
0.6081249078
 40
0.6285296088
 40
0.6486933351
 40
0.6685817157
 40
0.6881610004
 40
0.70739814
 40
0.7262608895
 40
0.7447178909
 40
0.7627387658
 40
0.7802942065
 40
0.7973560735
 40
0.8138975293
 40
0.8298931474
 40
0.8453190377
 40
0.8601529982
 40
0.8743746972
 40
0.8879658916
 40
0.9009106616
 40
0.9131957104
 40
0.9248107484
 40
0.9357490086
 40
0.9409636683
 40
0.9460085308
 40
0.9508840855
 40
0.9555911552
 40
0.9601309984
 40
0.9645053641
 40
0.9687164812
 40
0.9727672231
 40
0.9766610971
 40
0.9804023574
 40
0.9839961321
 40
0.9874484467
 40
0.9907664169
 40
0.9939583033
 40
1.0
 40
1.0
 40
1.0
 40
1.0
 10
14.5753615225
 20
7.3510666848
 30
0.0
 10
14.5768673274
 20
7.3525211806
 30
0.0
 10
14.5798774454
 20
7.3555541681
 30
0.0
 10
14.5843022861
 20
7.3603671338
 30
0.0
 10
14.5887228673
 20
7.365530179
 30
0.0
 10
14.5931369554
 20
7.3710407319
 30
0.0
 10
14.597542691
 20
7.3768962863
 30
0.0
 10
14.6019380826
 20
7.3830942752
 30
0.0
 10
14.6063212325
 20
7.3896318735
 30
0.0
 10
14.610690106
 20
7.3965061103
 30
0.0
 10
14.6150427133
 20
7.4037138644
 30
0.0
 10
14.6209129436
 20
7.4139230831
 30
0.0
 10
14.6281819184
 20
7.427509939
 30
0.0
 10
14.6366785869
 20
7.4448453457
 30
0.0
 10
14.6450634892
 20
7.4634241154
 30
0.0
 10
14.6533211793
 20
7.4832122637
 30
0.0
 10
14.6614364341
 20
7.5041738411
 30
0.0
 10
14.6693942694
 20
7.5262705254
 30
0.0
 10
14.6771799711
 20
7.5494618653
 30
0.0
 10
14.6847791331
 20
7.5737053387
 30
0.0
 10
14.6921776839
 20
7.5989564513
 30
0.0
 10
14.6993619287
 20
7.6251688082
 30
0.0
 10
14.7063185818
 20
7.6522942111
 30
0.0
 10
14.713034771
 20
7.6802827615
 30
0.0
 10
14.7194980709
 20
7.7090829606
 30
0.0
 10
14.7256965194
 20
7.7386418006
 30
0.0
 10
14.7316186617
 20
7.7689048542
 30
0.0
 10
14.7372535572
 20
7.7998163913
 30
0.0
 10
14.7425907802
 20
7.8313194705
 30
0.0
 10
14.747620504
 20
7.8633561109
 30
0.0
 10
14.7539373381
 20
7.9069327312
 30
0.0
 10
14.7609877963
 20
7.9623010906
 30
0.0
 10
14.7680470706
 20
8.0295648979
 30
0.0
 10
14.77369643
 20
8.0975006129
 30
0.0
 10
14.7778942829
 20
8.165608044
 30
0.0
 10
14.7806096575
 20
8.2333857467
 30
0.0
 10
14.7816256861
 20
8.2894397338
 30
0.0
 10
14.7816715356
 20
8.3337348006
 30
0.0
 10
14.7813260862
 20
8.3664069093
 30
0.0
 10
14.7806017532
 20
8.3986266099
 30
0.0
 10
14.7794998664
 20
8.4303345964
 30
0.0
 10
14.7780224904
 20
8.4614724464
 30
0.0
 10
14.7761723773
 20
8.4919828104
 30
0.0
 10
14.7739529882
 20
8.5218095051
 30
0.0
 10
14.7713684614
 20
8.5508976169
 30
0.0
 10
14.7684236124
 20
8.5791935975
 30
0.0
 10
14.7651239176
 20
8.606645372
 30
0.0
 10
14.7614755296
 20
8.6332024441
 30
0.0
 10
14.7574852517
 20
8.6588159952
 30
0.0
 10
14.7531605179
 20
8.6834389678
 30
0.0
 10
14.7485093779
 20
8.7070261599
 30
0.0
 10
14.7435404845
 20
8.7295343255
 30
0.0
 10
14.7382630921
 20
8.750922288
 30
0.0
 10
14.7326870063
 20
8.771150979
 30
0.0
 10
14.7268225483
 20
8.7901836748
 30
0.0
 10
14.7206805362
 20
8.8079855767
 30
0.0
 10
14.7152572874
 20
8.8219830068
 30
0.0
 10
14.7107752216
 20
8.8325268119
 30
0.0
 10
14.7074049214
 20
8.8399806029
 30
0.0
 10
14.7039738793
 20
8.8471033795
 30
0.0
 10
14.7004835664
 20
8.8538919051
 30
0.0
 10
14.6969355555
 20
8.8603430885
 30
0.0
 10
14.6933314915
 20
8.8664540363
 30
0.0
 10
14.6896728899
 20
8.8722219442
 30
0.0
 10
14.6859614269
 20
8.8776442406
 30
0.0
 10
14.6821986875
 20
8.8827184722
 30
0.0
 10
14.6783862544
 20
8.887442301
 30
0.0
 10
14.6745257619
 20
8.8918136638
 30
0.0
 10
14.6706188884
 20
8.8958303616
 30
0.0
 10
14.6666666807
 20
8.89949094
 30
0.0
 10
14.6614368124
 20
8.9038138634
 30
0.0
 10
14.6573057468
 20
8.9066463141
 30
0.0
 10
14.6544864397
 20
8.9082933694
 30
0.0
  0
SPLINE
  5
34A
100
AcDbEntity
  8
0
100
AcDbSpline
 62
7
  6
CONTINUOUS
 70
0
 71
3
 72
54
 73
50
 74
0
 42
0.0000001
 43
0.0000001
 44
0.0000000001
 40
0.0
 40
0.0
 40
0.0
 40
0.0
 40
0.0095822273
 40
0.0187372185
 40
0.0274871819
 40
0.035859765
 40
0.0515977889
 40
0.0590555803
 40
0.0662982983
 40
0.0733794635
 40
0.0803567208
 40
0.0872905371
 40
0.0942426171
 40
0.1012741388
 40
0.1084440685
 40
0.1158077003
 40
0.1234157401
 40
0.1313135413
 40
0.1395410807
 40
0.1481330115
 40
0.1571188616
 40
0.1665237243
 40
0.1763684224
 40
0.1866701818
 40
0.1974430944
 40
0.208698266
 40
0.2204445386
 40
0.2326884814
 40
0.2454347664
 40
0.258686547
 40
0.2724452901
 40
0.2867113279
 40
0.301483763
 40
0.3325374411
 40
0.3655814066
 40
0.4005761908
 40
0.437471444
 40
0.4762074098
 40
0.5167161537
 40
0.5589224948
 40
0.6027447509
 40
0.6480953336
 40
0.6948814082
 40
0.7430053452
 40
0.7923652918
 40
0.8428556327
 40
0.8943662074
 40
0.9467873312
 40
1.0
 40
1.0
 40
1.0
 40
1.0
 10
14.2406305627
 20
6.3476185677
 30
0.0
 10
14.2395382952
 20
6.3466020559
 30
0.0
 10
14.2373546401
 20
6.3446647482
 30
0.0
 10
14.2340044088
 20
6.3419977064
 30
0.0
 10
14.2306571611
 20
6.3396391381
 30
0.0
 10
14.2262928584
 20
6.3369639588
 30
0.0
 10
14.2218404315
 20
6.3348279392
 30
0.0
 10
14.2173406939
 20
6.3333232945
 30
0.0
 10
14.2140381203
 20
6.3325304971
 30
0.0
 10
14.2107506428
 20
6.3320547069
 30
0.0
 10
14.2074805629
 20
6.3318965658
 30
0.0
 10
14.2042306134
 20
6.3320566424
 30
0.0
 10
14.2010035295
 20
6.3325346739
 30
0.0
 10
14.1978019966
 20
6.3333301953
 30
0.0
 10
14.1946285005
 20
6.3344421899
 30
0.0
 10
14.1914851979
 20
6.3358692611
 30
0.0
 10
14.188374097
 20
6.3376100582
 30
0.0
 10
14.1852968564
 20
6.3396628683
 30
0.0
 10
14.182255089
 20
6.3420261081
 30
0.0
 10
14.179250341
 20
6.3446981132
 30
0.0
 10
14.1762840167
 20
6.3476770526
 30
0.0
 10
14.1733577024
 20
6.3509611681
 30
0.0
 10
14.1704728373
 20
6.3545484345
 30
0.0
 10
14.167630947
 20
6.3584367572
 30
0.0
 10
14.1648336305
 20
6.3626239084
 30
0.0
 10
14.1620823396
 20
6.3671074085
 30
0.0
 10
14.1593787036
 20
6.3718847003
 30
0.0
 10
14.1567242303
 20
6.3769529864
 30
0.0
 10
14.1541204223
 20
6.3823093049
 30
0.0
 10
14.1515688677
 20
6.3879505523
 30
0.0
 10
14.1490709838
 20
6.3938733899
 30
0.0
 10
14.14662826
 20
6.4000743662
 30
0.0
 10
14.1433928254
 20
6.40885513
 30
0.0
 10
14.1395111836
 20
6.4205104542
 30
0.0
 10
14.1351694569
 20
6.435320145
 30
0.0
 10
14.1310800835
 20
6.4511425675
 30
0.0
 10
14.1272528692
 20
6.4679403298
 30
0.0
 10
14.1236970189
 20
6.485673916
 30
0.0
 10
14.1204211048
 20
6.5043014018
 30
0.0
 10
14.1174330336
 20
6.5237787049
 30
0.0
 10
14.1147400269
 20
6.5440596574
 30
0.0
 10
14.1123485715
 20
6.5650961349
 30
0.0
 10
14.110264437
 20
6.5868381781
 30
0.0
 10
14.1084926519
 20
6.6092341385
 30
0.0
 10
14.1070375007
 20
6.6322308202
 30
0.0
 10
14.1059025225
 20
6.6557734388
 30
0.0
 10
14.1050903949
 20
6.6798063146
 30
0.0
 10
14.104603186
 20
6.7042718805
 30
0.0
 10
14.104496447
 20
6.7207208379
 30
0.0
 10
14.104496447
 20
6.7290068342
 30
0.0
  0
SPLINE
  5
34B
100
AcDbEntity
  8
0
100
AcDbSpline
 62
7
  6
CONTINUOUS
 70
0
 71
3
 72
39
 73
35
 74
0
 42
0.0000001
 43
0.0000001
 44
0.0000000001
 40
0.0
 40
0.0
 40
0.0
 40
0.0
 40
0.00631605
 40
0.0126710036
 40
0.0191030137
 40
0.0256487366
 40
0.0323427745
 40
0.0392173093
 40
0.0536154999
 40
0.0690527098
 40
0.0856860775
 40
0.103634432
 40
0.1229846057
 40
0.1437975285
 40
0.1661136281
 40
0.1899566057
 40
0.2153367
 40
0.2422532743
 40
0.2706963086
 40
0.3006480514
 40
0.3320841722
 40
0.3649743116
 40
0.3992830784
 40
0.4349705379
 40
0.4719924585
 40
0.5103010083
 40
0.5498449224
 40
0.5905696991
 40
0.6324181177
 40
0.6753302619
 40
0.7192436941
 40
0.8098127521
 40
0.903586456
 40
1.0
 40
1.0
 40
1.0
 40
1.0
 10
14.1731041001
 20
6.3031799547
 30
0.0
 10
14.1721542152
 20
6.3032458361
 30
0.0
 10
14.1702530846
 20
6.3034557498
 30
0.0
 10
14.1674226814
 20
6.3040028357
 30
0.0
 10
14.1646112109
 20
6.3047822295
 30
0.0
 10
14.1618203023
 20
6.305793252
 30
0.0
 10
14.1590510557
 20
6.3070352472
 30
0.0
 10
14.1553325882
 20
6.3090285914
 30
0.0
 10
14.1507312622
 20
6.3121323536
 30
0.0
 10
14.1454091495
 20
6.3167075676
 30
0.0
 10
14.1402055582
 20
6.3221801012
 30
0.0
 10
14.1351265855
 20
6.3285399094
 30
0.0
 10
14.1301777185
 20
6.3357770212
 30
0.0
 10
14.1253654111
 20
6.3438802551
 30
0.0
 10
14.1206965485
 20
6.3528371973
 30
0.0
 10
14.1161781525
 20
6.3626338771
 30
0.0
 10
14.1118172701
 20
6.3732548289
 30
0.0
 10
14.1076209652
 20
6.3846831266
 30
0.0
 10
14.1035960268
 20
6.3969003587
 30
0.0
 10
14.0997490657
 20
6.409886733
 30
0.0
 10
14.0960864947
 20
6.4236211224
 30
0.0
 10
14.0926143389
 20
6.4380810813
 30
0.0
 10
14.0893383837
 20
6.4532429331
 30
0.0
 10
14.0862641167
 20
6.4690818079
 30
0.0
 10
14.0833966094
 20
6.4855716771
 30
0.0
 10
14.080740665
 20
6.5026854242
 30
0.0
 10
14.0783007263
 20
6.5203948826
 30
0.0
 10
14.0760808153
 20
6.5386708865
 30
0.0
 10
14.0740846751
 20
6.5574833197
 30
0.0
 10
14.0723155945
 20
6.5768012029
 30
0.0
 10
14.0702423016
 20
6.6034642746
 30
0.0
 10
14.0682559386
 20
6.6378214119
 30
0.0
 10
14.0668372372
 20
6.6801262024
 30
0.0
 10
14.0665293608
 20
6.7087987606
 30
0.0
 10
14.0665293608
 20
6.723333443
 30
0.0
  0
SPLINE
  5
34C
100
AcDbEntity
  8
0
100
AcDbSpline
 62
7
  6
CONTINUOUS
 70
0
 71
3
 72
39
 73
35
 74
0
 42
0.0000001
 43
0.0000001
 44
0.0000000001
 40
0.0
 40
0.0
 40
0.0
 40
0.0
 40
0.0063160566
 40
0.0126710106
 40
0.0191030154
 40
0.0256487277
 40
0.0323427504
 40
0.039217266
 40
0.0536154085
 40
0.0690525617
 40
0.0856858679
 40
0.1036341595
 40
0.1229842714
 40
0.1437971352
 40
0.1661131805
 40
0.1899561089
 40
0.2153361604
 40
0.2422526985
 40
0.2706957037
 40
0.3006474247
 40
0.3320835311
 40
0.3649736636
 40
0.3992824308
 40
0.434969898
 40
0.4719918335
 40
0.5103004051
 40
0.5498443477
 40
0.5905691592
 40
0.6324176188
 40
0.6753298096
 40
0.7192432939
 40
0.8098124703
 40
0.9035863088
 40
1.0
 40
1.0
 40
1.0
 40
1.0
 10
12.2412529072
 20
6.4371542899
 30
0.0
 10
12.2403030194
 20
6.4372201586
 30
0.0
 10
12.2384018829
 20
6.437430047
 30
0.0
 10
12.2355714692
 20
6.4379770963
 30
0.0
 10
12.2327599882
 20
6.4387564548
 30
0.0
 10
12.2299690689
 20
6.4397674434
 30
0.0
 10
12.2271998116
 20
6.441009406
 30
0.0
 10
12.2234813302
 20
6.4430027075
 30
0.0
 10
12.2188799857
 20
6.44610642
 30
0.0
 10
12.2135578506
 20
6.4506815813
 30
0.0
 10
12.2083542372
 20
6.4561540676
 30
0.0
 10
12.2032752428
 20
6.4625138338
 30
0.0
 10
12.1983263544
 20
6.4697509087
 30
0.0
 10
12.1935140259
 20
6.4778541111
 30
0.0
 10
12.1888451425
 20
6.486811027
 30
0.0
 10
12.184326726
 20
6.4966076857
 30
0.0
 10
12.1799658237
 20
6.5072286215
 30
0.0
 10
12.1757694993
 20
6.5186569085
 30
0.0
 10
12.171744542
 20
6.5308741347
 30
0.0
 10
12.1678975626
 20
6.5438605083
 30
0.0
 10
12.164234974
 20
6.5575949019
 30
0.0
 10
12.1607628013
 20
6.5720548696
 30
0.0
 10
12.1574868301
 20
6.5872167349
 30
0.0
 10
12.1544125478
 20
6.6030556276
 30
0.0
 10
12.1515450262
 20
6.619545519
 30
0.0
 10
12.1488890685
 20
6.6366592925
 30
0.0
 10
12.1464491175
 20
6.6543687812
 30
0.0
 10
12.1442291952
 20
6.6726448191
 30
0.0
 10
12.1422330448
 20
6.6914572899
 30
0.0
 10
12.140463955
 20
6.710775214
 30
0.0
 10
12.1383906514
 20
6.7374383459
 30
0.0
 10
12.1364042781
 20
6.7717955652
 30
0.0
 10
12.1349855693
 20
6.8141004605
 30
0.0
 10
12.1346776914
 20
6.8427730914
 30
0.0
 10
12.1346776914
 20
6.8573078113
 30
0.0
  0
SPLINE
  5
34D
100
AcDbEntity
  8
0
100
AcDbSpline
 62
7
  6
CONTINUOUS
 70
0
 71
3
 72
82
 73
78
 74
0
 42
0.0000001
 43
0.0000001
 44
0.0000000001
 40
0.0
 40
0.0
 40
0.0
 40
0.0
 40
0.003936838
 40
0.0080368621
 40
0.0123035739
 40
0.0167399344
 40
0.0213484422
 40
0.0261310523
 40
0.031089072
 40
0.0362233751
 40
0.0415344233
 40
0.0470223021
 40
0.0526868086
 40
0.0585273726
 40
0.0707327417
 40
0.0836294007
 40
0.0972043366
 40
0.1114415213
 40
0.1263222737
 40
0.1418255566
 40
0.1579282247
 40
0.1746052396
 40
0.1918298443
 40
0.2095737037
 40
0.2278070483
 40
0.2464987992
 40
0.2656166925
 40
0.2851273881
 40
0.3049965612
 40
0.3251890088
 40
0.3456687486
 40
0.3663991152
 40
0.4084615213
 40
0.4510734187
 40
0.4939261805
 40
0.5367089578
 40
0.5791115475
 40
0.6000745591
 40
0.6208279562
 40
0.6413344247
 40
0.6615572395
 40
0.6814603484
 40
0.7010084614
 40
0.7201671648
 40
0.7389030108
 40
0.7571836255
 40
0.7749778109
 40
0.7922556562
 40
0.8089886771
 40
0.8251499506
 40
0.8407142603
 40
0.8556582673
 40
0.8699607106
 40
0.8836026567
 40
0.8965677992
 40
0.9088428039
 40
0.9204177699
 40
0.9259410133
 40
0.9312874467
 40
0.9364570697
 40
0.9414502935
 40
0.9462679126
 40
0.9509111552
 40
0.9553817955
 40
0.9596821178
 40
0.9638150873
 40
0.9677843685
 40
0.9715944199
 40
0.9752506524
 40
0.9787594536
 40
0.9821283957
 40
0.985366303
 40
0.9884833699
 40
0.9914912982
 40
0.9944032916
 40
0.9972341184
 40
1.0
 40
1.0
 40
1.0
 40
1.0
 10
14.5965349175
 20
7.3408279975
 30
0.0
 10
14.5980963777
 20
7.3423362523
 30
0.0
 10
14.6012176619
 20
7.3454845979
 30
0.0
 10
14.605803583
 20
7.350486793
 30
0.0
 10
14.6103848475
 20
7.3558606651
 30
0.0
 10
14.6149590529
 20
7.3616034052
 30
0.0
 10
14.6195241732
 20
7.3677122886
 30
0.0
 10
14.6240780442
 20
7.3741844954
 30
0.0
 10
14.6286186024
 20
7.3810169213
 30
0.0
 10
14.6331436166
 20
7.3882063205
 30
0.0
 10
14.637650917
 20
7.3957492425
 30
0.0
 10
14.6421383816
 20
7.4036420541
 30
0.0
 10
14.6466038254
 20
7.4118810115
 30
0.0
 10
14.6526139527
 20
7.4234935155
 30
0.0
 10
14.6600421815
 20
7.4388588903
 30
0.0
 10
14.6687085294
 20
7.458350341
 30
0.0
 10
14.6772366124
 20
7.4791190081
 30
0.0
 10
14.6856098868
 20
7.5011249161
 30
0.0
 10
14.6938121014
 20
7.5243259227
 30
0.0
 10
14.7018273269
 20
7.5486773902
 30
0.0
 10
14.7096399867
 20
7.5741324246
 30
0.0
 10
14.717234892
 20
7.6006419494
 30
0.0
 10
14.7245972758
 20
7.6281548172
 30
0.0
 10
14.731712823
 20
7.6566179074
 30
0.0
 10
14.7385677132
 20
7.6859762281
 30
0.0
 10
14.7451486307
 20
7.7161730387
 30
0.0
 10
14.7514427932
 20
7.7471499669
 30
0.0
 10
14.757437974
 20
7.7788471201
 30
0.0
 10
14.7631225329
 20
7.8112032045
 30
0.0
 10
14.768485432
 20
7.8441556211
 30
0.0
 10
14.7735163105
 20
7.8776406719
 30
0.0
 10
14.779798452
 20
7.923129877
 30
0.0
 10
14.7867419257
 20
7.9808439305
 30
0.0
 10
14.793574061
 20
8.0508408063
 30
0.0
 10
14.7988925714
 20
8.1213674913
 30
0.0
 10
14.8026562312
 20
8.1918783943
 30
0.0
 10
14.8044799145
 20
8.2503901781
 30
0.0
 10
14.8051303878
 20
8.2967733143
 30
0.0
 10
14.8052132847
 20
8.3310864119
 30
0.0
 10
14.8048930587
 20
8.3649899073
 30
0.0
 10
14.8041703234
 20
8.3984182632
 30
0.0
 10
14.8030465174
 20
8.4313067963
 30
0.0
 10
14.8015238433
 20
8.46359189
 30
0.0
 10
14.7996052873
 20
8.4952110973
 30
0.0
 10
14.797294617
 20
8.5261032765
 30
0.0
 10
14.7945963596
 20
8.5562087027
 30
0.0
 10
14.7915157982
 20
8.5854691823
 30
0.0
 10
14.7880589573
 20
8.6138281709
 30
0.0
 10
14.7842326013
 20
8.6412308927
 30
0.0
 10
14.7800442279
 20
8.667624457
 30
0.0
 10
14.7755020366
 20
8.6929579609
 30
0.0
 10
14.7706149161
 20
8.7171825883
 30
0.0
 10
14.7653924188
 20
8.7402517314
 30
0.0
 10
14.7598447466
 20
8.7621210662
 30
0.0
 10
14.7539827275
 20
8.782748811
 30
0.0
 10
14.7478177486
 20
8.8020953171
 30
0.0
 10
14.7423557901
 20
8.8173488458
 30
0.0
 10
14.7378299794
 20
8.8288694915
 30
0.0
 10
14.7344204754
 20
8.8370314834
 30
0.0
 10
14.7309443159
 20
8.8448465223
 30
0.0
 10
14.727403167
 20
8.8523108971
 30
0.0
 10
14.7237987265
 20
8.859421045
 30
0.0
 10
14.720132645
 20
8.8661735572
 30
0.0
 10
14.7164067303
 20
8.872565259
 30
0.0
 10
14.7126226334
 20
8.87859308
 30
0.0
 10
14.7087821489
 20
8.8842541862
 30
0.0
 10
14.7048870263
 20
8.8895459024
 30
0.0
 10
14.7009389499
 20
8.8944656726
 30
0.0
 10
14.6969397479
 20
8.8990112082
 30
0.0
 10
14.6928910573
 20
8.9031802393
 30
0.0
 10
14.6887946474
 20
8.9069707348
 30
0.0
 10
14.6846522386
 20
8.9103807546
 30
0.0
 10
14.680465495
 20
8.9134083714
 30
0.0
 10
14.6762363066
 20
8.9160519062
 30
0.0
 10
14.6719663349
 20
8.9183095782
 30
0.0
 10
14.6676580485
 20
8.9201797065
 30
0.0
 10
14.6647329022
 20
8.9211768987
 30
0.0
 10
14.6632696273
 20
8.9216071801
 30
0.0
  0
SPLINE
  5
34E
100
AcDbEntity
  8
0
100
AcDbSpline
 62
7
  6
CONTINUOUS
 70
0
 71
3
 72
15
 73
11
 74
0
 42
0.0000001
 43
0.0000001
 44
0.0000000001
 40
0.0
 40
0.0
 40
0.0
 40
0.0
 40
0.1113585735
 40
0.2217636459
 40
0.3339359537
 40
0.4504608436
 40
0.573620331
 40
0.7053188942
 40
0.8470718902
 40
1.0
 40
1.0
 40
1.0
 40
1.0
 10
14.4100991281
 20
8.8868443416
 30
0.0
 10
14.4111132955
 20
8.8865464904
 30
0.0
 10
14.4131831083
 20
8.8861087145
 30
0.0
 10
14.4163633246
 20
8.8859674421
 30
0.0
 10
14.4195731857
 20
8.8863486065
 30
0.0
 10
14.422801856
 20
8.887248417
 30
0.0
 10
14.4260427534
 20
8.8886604499
 30
0.0
 10
14.4292914344
 20
8.8905787313
 30
0.0
 10
14.4325440368
 20
8.8929975678
 30
0.0
 10
14.4346303253
 20
8.8948664108
 30
0.0
 10
14.4356743761
 20
8.8958748864
 30
0.0
  0
SPLINE
  5
34F
100
AcDbEntity
  8
0
100
AcDbSpline
 62
7
  6
CONTINUOUS
 70
0
 71
3
 72
15
 73
11
 74
0
 42
0.0000001
 43
0.0000001
 44
0.0000000001
 40
0.0
 40
0.0
 40
0.0
 40
0.0
 40
0.1217149
 40
0.2462277046
 40
0.3726221552
 40
0.4999641566
 40
0.627310697
 40
0.7537187125
 40
0.8782539614
 40
1.0
 40
1.0
 40
1.0
 40
1.0
 10
14.3680351952
 20
9.2879787199
 30
0.0
 10
14.36820433
 20
9.2807795897
 30
0.0
 10
14.3683616999
 20
9.2662109559
 30
0.0
 10
14.3680774104
 20
9.2441651797
 30
0.0
 10
14.3672780492
 20
9.2217988675
 30
0.0
 10
14.3659698256
 20
9.1992886829
 30
0.0
 10
14.3641630252
 20
9.176812217
 30
0.0
 10
14.3618719341
 20
9.1545467917
 30
0.0
 10
14.3591147491
 20
9.1326682598
 30
0.0
 10
14.3569507638
 20
9.118257175
 30
0.0
 10
14.3557909219
 20
9.1111482099
 30
0.0
  0
SPLINE
  5
350
100
AcDbEntity
  8
0
100
AcDbSpline
 62
7
  6
CONTINUOUS
 70
0
 71
3
 72
33
 73
29
 74
0
 42
0.0000001
 43
0.0000001
 44
0.0000000001
 40
0.0
 40
0.0
 40
0.0
 40
0.0
 40
0.0246629888
 40
0.0505350389
 40
0.0775585326
 40
0.1056706184
 40
0.1348038844
 40
0.1648868706
 40
0.1958444246
 40
0.2275980613
 40
0.2600664337
 40
0.2931656646
 40
0.3609085441
 40
0.430118752
 40
0.5000664739
 40
0.5700119587
 40
0.6392154792
 40
0.7069472977
 40
0.7400394123
 40
0.7724996695
 40
0.8042441565
 40
0.835191575
 40
0.8652635444
 40
0.8943849156
 40
0.9224842083
 40
0.9494941291
 40
0.9753519438
 40
1.0
 40
1.0
 40
1.0
 40
1.0
 10
14.395328922
 20
9.4128788884
 30
0.0
 10
14.3960666593
 20
9.4093836005
 30
0.0
 10
14.3974750656
 20
9.4021995912
 30
0.0
 10
14.3993554972
 20
9.3911231337
 30
0.0
 10
14.4010503808
 20
9.3795116906
 30
0.0
 10
14.4025548538
 20
9.3673980356
 30
0.0
 10
14.4038646089
 20
9.3548162296
 30
0.0
 10
14.4049758739
 20
9.3418017156
 30
0.0
 10
14.4058854511
 20
9.3283911642
 30
0.0
 10
14.406590736
 20
9.3146223979
 30
0.0
 10
14.4070897311
 20
9.300534217
 30
0.0
 10
14.4074809134
 20
9.2812282976
 30
0.0
 10
14.4074371486
 20
9.2565935686
 30
0.0
 10
14.4065573777
 20
9.2266345174
 30
0.0
 10
14.4048591815
 20
9.1963911236
 30
0.0
 10
14.402361668
 20
9.1662041977
 30
0.0
 10
14.3990930254
 20
9.1364139096
 30
0.0
 10
14.3957321951
 20
9.1120131048
 30
0.0
 10
14.3926770111
 20
9.0929503046
 30
0.0
 10
14.390236143
 20
9.0790697982
 30
0.0
 10
14.3876351179
 20
9.0655345989
 30
0.0
 10
14.3848812895
 20
9.0523828427
 30
0.0
 10
14.3819824874
 20
9.0396516045
 30
0.0
 10
14.3789469281
 20
9.0273767565
 30
0.0
 10
14.3757832238
 20
9.0155928769
 30
0.0
 10
14.3725003668
 20
9.0043330752
 30
0.0
 10
14.3691077303
 20
8.9936291074
 30
0.0
 10
14.3667202829
 20
8.9867130478
 30
0.0
 10
14.3655067263
 20
8.9833555002
 30
0.0
  0
SPLINE
  5
351
100
AcDbEntity
  8
0
100
AcDbSpline
 62
7
  6
CONTINUOUS
 70
0
 71
3
 72
63
 73
59
 74
0
 42
0.0000001
 43
0.0000001
 44
0.0000000001
 40
0.0
 40
0.0
 40
0.0
 40
0.0
 40
0.0027861286
 40
0.0055423406
 40
0.008289905
 40
0.0110503141
 40
0.0138447274
 40
0.0166934722
 40
0.0196156609
 40
0.0226288296
 40
0.0289859458
 40
0.0358749302
 40
0.0433749942
 40
0.051543039
 40
0.0604183067
 40
0.070026082
 40
0.080380803
 40
0.0914884923
 40
0.1033482259
 40
0.1159535584
 40
0.1292934807
 40
0.1433529276
 40
0.1581135417
 40
0.1735540095
 40
0.1896503015
 40
0.2063761497
 40
0.2237031237
 40
0.2416008443
 40
0.2600372846
 40
0.2789787589
 40
0.3182341344
 40
0.359072503
 40
0.4011813834
 40
0.4442351151
 40
0.48789846
 40
0.5318300825
 40
0.5756859678
 40
0.6191228589
 40
0.6618016803
 40
0.7033909695
 40
0.7435704226
 40
0.7820345052
 40
0.8005333493
 40
0.8184974801
 40
0.8358945688
 40
0.8526940995
 40
0.8688674092
 40
0.8843878669
 40
0.8992312701
 40
0.9133759171
 40
0.9268030221
 40
0.9394972112
 40
0.9514468615
 40
0.9626449781
 40
0.9730898972
 40
0.9827866253
 40
0.9917491266
 40
1.0
 40
1.0
 40
1.0
 40
1.0
 10
14.4527904812
 20
9.5024343023
 30
0.0
 10
14.4533809076
 20
9.5025218353
 30
0.0
 10
14.4545637167
 20
9.5026449466
 30
0.0
 10
14.4563418738
 20
9.5026687573
 30
0.0
 10
14.4581094262
 20
9.5025302545
 30
0.0
 10
14.4598649208
 20
9.5022294342
 30
0.0
 10
14.4616071944
 20
9.5017666926
 30
0.0
 10
14.463335104
 20
9.5011425263
 30
0.0
 10
14.4650476501
 20
9.5003574087
 30
0.0
 10
14.4673500384
 20
9.4990743526
 30
0.0
 10
14.4701936482
 20
9.4970416157
 30
0.0
 10
14.4734624864
 20
9.4940164089
 30
0.0
 10
14.4766459787
 20
9.4903704431
 30
0.0
 10
14.4797398348
 20
9.4861118142
 30
0.0
 10
14.4827398156
 20
9.4812485506
 30
0.0
 10
14.4856408578
 20
9.4757899694
 30
0.0
 10
14.4884376716
 20
9.4697466299
 30
0.0
 10
14.4911247244
 20
9.4631304279
 30
0.0
 10
14.4936966388
 20
9.4559546396
 30
0.0
 10
14.4961481156
 20
9.4482338146
 30
0.0
 10
14.4984739964
 20
9.4399837333
 30
0.0
 10
14.500669453
 20
9.4312213824
 30
0.0
 10
14.5027298379
 20
9.4219648626
 30
0.0
 10
14.5046507783
 20
9.412233354
 30
0.0
 10
14.5064282599
 20
9.4020470715
 30
0.0
 10
14.5080584884
 20
9.3914271992
 30
0.0
 10
14.5095380193
 20
9.3803958483
 30
0.0
 10
14.5108637455
 20
9.368976014
 30
0.0
 10
14.5120328565
 20
9.3571914851
 30
0.0
 10
14.5133956641
 20
9.3408302281
 30
0.0
 10
14.5146769225
 20
9.3196491525
 30
0.0
 10
14.5155432771
 20
9.2934807934
 30
0.0
 10
14.5157481359
 20
9.2664852491
 30
0.0
 10
14.5152895162
 20
9.2388877547
 30
0.0
 10
14.514170979
 20
9.2109184091
 30
0.0
 10
14.5124017193
 20
9.1828105346
 30
0.0
 10
14.5099964567
 20
9.1547986084
 30
0.0
 10
14.5069753475
 20
9.1271162906
 30
0.0
 10
14.5033637648
 20
9.0999944696
 30
0.0
 10
14.4991921255
 20
9.0736591913
 30
0.0
 10
14.4944955666
 20
9.0483300959
 30
0.0
 10
14.4901226768
 20
9.0279801305
 30
0.0
 10
14.4863784946
 20
9.0123704657
 30
0.0
 10
14.4835013568
 20
9.0011957495
 30
0.0
 10
14.4805247689
 20
8.9904243133
 30
0.0
 10
14.4774549701
 20
8.9800785767
 30
0.0
 10
14.474298418
 20
8.9701800802
 30
0.0
 10
14.4710616992
 20
8.9607494147
 30
0.0
 10
14.4677516521
 20
8.9518061486
 30
0.0
 10
14.4643751974
 20
8.9433688137
 30
0.0
 10
14.4609393789
 20
8.9354548492
 30
0.0
 10
14.4574514171
 20
8.928080515
 30
0.0
 10
14.4539185085
 20
8.9212609031
 30
0.0
 10
14.4503478926
 20
8.9150098587
 30
0.0
 10
14.4467469065
 20
8.9093399354
 30
0.0
 10
14.4431223719
 20
8.9042621379
 30
0.0
 10
14.4394815848
 20
8.8997869964
 30
0.0
 10
14.436945735
 20
8.8971029249
 30
0.0
 10
14.4356743761
 20
8.8958748864
 30
0.0
  0
SPLINE
  5
352
100
AcDbEntity
  8
0
100
AcDbSpline
 62
7
  6
CONTINUOUS
 70
0
 71
3
 72
11
 73
7
 74
0
 42
0.0000001
 43
0.0000001
 44
0.0000000001
 40
0.0
 40
0.0
 40
0.0
 40
0.0
 40
0.4670546005
 40
0.5936705175
 40
0.7245982003
 40
1.0
 40
1.0
 40
1.0
 40
1.0
 10
14.4173981031
 20
8.7063771859
 30
0.0
 10
14.4206047983
 20
8.7077389792
 30
0.0
 10
14.4244771428
 20
8.7099761664
 30
0.0
 10
14.4288381189
 20
8.7131667974
 30
0.0
 10
14.4319450383
 20
8.715649208
 30
0.0
 10
14.4341968194
 20
8.7176832395
 30
0.0
 10
14.4356743761
 20
8.7191104497
 30
0.0
  0
SPLINE
  5
353
100
AcDbEntity
  8
0
100
AcDbSpline
 62
7
  6
CONTINUOUS
 70
0
 71
3
 72
61
 73
57
 74
0
 42
0.0000001
 43
0.0000001
 44
0.0000000001
 40
0.0
 40
0.0
 40
0.0
 40
0.0
 40
0.0060694189
 40
0.0092771872
 40
0.0126120939
 40
0.0196924384
 40
0.027364316
 40
0.0356642601
 40
0.0446169553
 40
0.0542377701
 40
0.0645346982
 40
0.0755097023
 40
0.087159846
 40
0.099478166
 40
0.1124542059
 40
0.1260745133
 40
0.140323088
 40
0.1551816103
 40
0.1706296732
 40
0.1866450654
 40
0.2032038933
 40
0.220280694
 40
0.237848647
 40
0.2558796626
 40
0.2743444423
 40
0.3124521754
 40
0.351918954
 40
0.3924783283
 40
0.4338539132
 40
0.4757620738
 40
0.5179144755
 40
0.5600206434
 40
0.6017905049
 40
0.6429369427
 40
0.6831783518
 40
0.7222412074
 40
0.7412485019
 40
0.7598636349
 40
0.7780559177
 40
0.7957956865
 40
0.8130543725
 40
0.8298046786
 40
0.8460206639
 40
0.8616778232
 40
0.8767533023
 40
0.8912260519
 40
0.90507695
 40
0.9182890964
 40
0.9308481125
 40
0.9427423936
 40
0.9539636017
 40
0.9645073181
 40
0.9743735719
 40
0.9835679168
 40
0.9921033224
 40
1.0
 40
1.0
 40
1.0
 40
1.0
 10
14.484902663
 20
9.6801830626
 30
0.0
 10
14.4866393342
 20
9.6791436662
 30
0.0
 10
14.4891827913
 20
9.6773628455
 30
0.0
 10
14.4924019799
 20
9.6746545573
 30
0.0
 10
14.4957117659
 20
9.6715395127
 30
0.0
 10
14.4997726791
 20
9.6670663856
 30
0.0
 10
14.5044288299
 20
9.6609399537
 30
0.0
 10
14.5089559857
 20
9.6539616862
 30
0.0
 10
14.5133471597
 20
9.6461439607
 30
0.0
 10
14.5175954401
 20
9.6374999727
 30
0.0
 10
14.5216935252
 20
9.628044748
 30
0.0
 10
14.5256342272
 20
9.6177949337
 30
0.0
 10
14.5294104648
 20
9.6067687987
 30
0.0
 10
14.5330153142
 20
9.5949861376
 30
0.0
 10
14.5364421519
 20
9.5824682548
 30
0.0
 10
14.5396846696
 20
9.5692378897
 30
0.0
 10
14.5427368332
 20
9.555319136
 30
0.0
 10
14.5455929732
 20
9.5407374079
 30
0.0
 10
14.5482478121
 20
9.5255193829
 30
0.0
 10
14.5506963998
 20
9.5096929252
 30
0.0
 10
14.5529341712
 20
9.4932870421
 30
0.0
 10
14.5549569979
 20
9.4763318289
 30
0.0
 10
14.5567611008
 20
9.4588584072
 30
0.0
 10
14.5583431458
 20
9.440898824
 30
0.0
 10
14.5601716088
 20
9.4160876058
 30
0.0
 10
14.5618650797
 20
9.3841024189
 30
0.0
 10
14.5629566808
 20
9.3447200622
 30
0.0
 10
14.5631195156
 20
9.3042333019
 30
0.0
 10
14.5623521121
 20
9.2629394829
 30
0.0
 10
14.56065978
 20
9.2211416688
 30
0.0
 10
14.5580547966
 20
9.1791467615
 30
0.0
 10
14.5545562771
 20
9.1372631009
 30
0.0
 10
14.5501899476
 20
9.0957982284
 30
0.0
 10
14.5449880792
 20
9.0550564795
 30
0.0
 10
14.5389891312
 20
9.0153370831
 30
0.0
 10
14.5333125287
 20
8.9830448195
 30
0.0
 10
14.5283938428
 20
8.9579496784
 30
0.0
 10
14.5245682829
 20
8.9397341005
 30
0.0
 10
14.5205798054
 20
8.921986455
 30
0.0
 10
14.5164357396
 20
8.9047393064
 30
0.0
 10
14.5121437175
 20
8.8880243305
 30
0.0
 10
14.5077116717
 20
8.8718721952
 30
0.0
 10
14.5031478002
 20
8.8563125212
 30
0.0
 10
14.4984605047
 20
8.8413738373
 30
0.0
 10
14.493658444
 20
8.8270834996
 30
0.0
 10
14.4887505041
 20
8.8134676386
 30
0.0
 10
14.4837457183
 20
8.8005511304
 30
0.0
 10
14.4786533037
 20
8.7883575161
 30
0.0
 10
14.4734826541
 20
8.7769089387
 30
0.0
 10
14.4682432294
 20
8.7662261252
 30
0.0
 10
14.4629445654
 20
8.7563283068
 30
0.0
 10
14.4575962301
 20
8.7472331405
 30
0.0
 10
14.4522077925
 20
8.7389567842
 30
0.0
 10
14.4467883325
 20
8.731513409
 30
0.0
 10
14.4413474671
 20
8.7249166412
 30
0.0
 10
14.4375683745
 20
8.7209399118
 30
0.0
 10
14.4356743761
 20
8.7191104497
 30
0.0
  0
SPLINE
  5
354
100
AcDbEntity
  8
0
100
AcDbSpline
 62
7
  6
CONTINUOUS
 70
0
 71
3
 72
70
 73
66
 74
0
 42
0.0000001
 43
0.0000001
 44
0.0000000001
 40
0.0
 40
0.0
 40
0.0
 40
0.0
 40
0.0027164662
 40
0.0054533056
 40
0.00823041
 40
0.0110667303
 40
0.0139799693
 40
0.0169863102
 40
0.0233314277
 40
0.0266978118
 40
0.030205787
 40
0.0338637427
 40
0.0376787376
 40
0.0416567423
 40
0.0458027163
 40
0.0501206753
 40
0.0546139105
 40
0.0592849734
 40
0.0641357816
 40
0.0743809828
 40
0.0853559939
 40
0.0970599552
 40
0.1094868339
 40
0.1226262332
 40
0.1364640492
 40
0.1509830183
 40
0.1661630986
 40
0.1819817357
 40
0.1984141622
 40
0.2154336353
 40
0.2330115974
 40
0.2511178132
 40
0.2697205631
 40
0.2887867765
 40
0.3082821246
 40
0.3281711434
 40
0.3689826373
 40
0.4109202254
 40
0.4536708213
 40
0.4969134299
 40
0.5403223294
 40
0.583570201
 40
0.6263312643
 40
0.6682844376
 40
0.7091164641
 40
0.7290175536
 40
0.7485261205
 40
0.7676066734
 40
0.7862248613
 40
0.8043475584
 40
0.8219429835
 40
0.8389808749
 40
0.8554326236
 40
0.8712714053
 40
0.886472378
 40
0.9010129456
 40
0.9148729704
 40
0.9280350698
 40
0.9404850443
 40
0.9522123859
 40
0.9632109071
 40
0.9734795381
 40
0.9830234454
 40
0.9918561712
 40
1.0
 40
1.0
 40
1.0
 40
1.0
 10
14.5006223199
 20
9.6830235181
 30
0.0
 10
14.5015405779
 20
9.6829598403
 30
0.0
 10
14.5033792805
 20
9.6827489137
 30
0.0
 10
14.5061139302
 20
9.6821844482
 30
0.0
 10
14.5088279015
 20
9.6813719472
 30
0.0
 10
14.5115192705
 20
9.6803123332
 30
0.0
 10
14.5141867275
 20
9.6790063608
 30
0.0
 10
14.5177733333
 20
9.6769006504
 30
0.0
 10
14.5212452078
 20
9.6743227321
 30
0.0
 10
14.5245905426
 20
9.6713417928
 30
0.0
 10
14.5271196431
 20
9.6688210493
 30
0.0
 10
14.5296173926
 20
9.6660612311
 30
0.0
 10
14.532083071
 20
9.6630635464
 30
0.0
 10
14.5345154358
 20
9.6598295294
 30
0.0
 10
14.5369133679
 20
9.6563607481
 30
0.0
 10
14.5392757974
 20
9.6526589517
 30
0.0
 10
14.5416015311
 20
9.6487259272
 30
0.0
 10
14.5438895054
 20
9.6445636188
 30
0.0
 10
14.546944068
 20
9.6386017967
 30
0.0
 10
14.5506471368
 20
9.6305767264
 30
0.0
 10
14.5548451037
 20
9.6202368572
 30
0.0
 10
14.5588665895
 20
9.6090386231
 30
0.0
 10
14.5627035576
 20
9.597004213
 30
0.0
 10
14.56634832
 20
9.5841572484
 30
0.0
 10
14.5697935263
 20
9.5705232254
 30
0.0
 10
14.5730321871
 20
9.5561292607
 30
0.0
 10
14.5760577034
 20
9.5410040725
 30
0.0
 10
14.5788639357
 20
9.5251779102
 30
0.0
 10
14.5814451797
 20
9.5086824732
 30
0.0
 10
14.5837961732
 20
9.4915508258
 30
0.0
 10
14.5859121195
 20
9.4738173376
 30
0.0
 10
14.5877887274
 20
9.4555176161
 30
0.0
 10
14.5894221804
 20
9.4366884156
 30
0.0
 10
14.5908091304
 20
9.4173675707
 30
0.0
 10
14.5919467875
 20
9.3975938774
 30
0.0
 10
14.5931382425
 20
9.370445284
 30
0.0
 10
14.5939753883
 20
9.3356727504
 30
0.0
 10
14.5939554763
 20
9.2931437928
 30
0.0
 10
14.5929188523
 20
9.2498034962
 30
0.0
 10
14.5908736402
 20
9.2060001551
 30
0.0
 10
14.587836073
 20
9.1620855471
 30
0.0
 10
14.5838305863
 20
9.1184124543
 30
0.0
 10
14.5788894673
 20
9.0753315867
 30
0.0
 10
14.5730526899
 20
9.0331891233
 30
0.0
 10
14.5674349595
 20
8.998846632
 30
0.0
 10
14.5625160771
 20
8.9721050106
 30
0.0
 10
14.5586658774
 20
8.9526627569
 30
0.0
 10
14.5546310232
 20
8.9337021872
 30
0.0
 10
14.5504196338
 20
8.9152613674
 30
0.0
 10
14.546040225
 20
8.8973773501
 30
0.0
 10
14.5415016254
 20
8.880086054
 30
0.0
 10
14.5368130131
 20
8.8634221833
 30
0.0
 10
14.5319838721
 20
8.8474191561
 30
0.0
 10
14.5270239587
 20
8.8321090499
 30
0.0
 10
14.52194328
 20
8.8175225217
 30
0.0
 10
14.5167521144
 20
8.8036887187
 30
0.0
 10
14.5114609431
 20
8.790635226
 30
0.0
 10
14.5060804143
 20
8.7783880118
 30
0.0
 10
14.5006213198
 20
8.766971338
 30
0.0
 10
14.4950945863
 20
8.75640767
 30
0.0
 10
14.4895111171
 20
8.7467176232
 30
0.0
 10
14.4838818227
 20
8.7379200404
 30
0.0
 10
14.4782171522
 20
8.730031342
 30
0.0
 10
14.4725280291
 20
8.7230672265
 30
0.0
 10
14.4685687897
 20
8.7188840145
 30
0.0
 10
14.4665840051
 20
8.7169668597
 30
0.0
  0
SPLINE
  5
355
100
AcDbEntity
  8
0
100
AcDbSpline
 62
7
  6
CONTINUOUS
 70
0
 71
3
 72
41
 73
37
 74
0
 42
0.0000001
 43
0.0000001
 44
0.0000000001
 40
0.0
 40
0.0
 40
0.0
 40
0.0
 40
0.0310021415
 40
0.0621458107
 40
0.0934257969
 40
0.1248343825
 40
0.1563616388
 40
0.1879956007
 40
0.2197225453
 40
0.2515272678
 40
0.2833933816
 40
0.315303623
 40
0.3472401604
 40
0.3791848982
 40
0.4111197732
 40
0.4430270391
 40
0.4748895365
 40
0.5066909448
 40
0.5384160179
 40
0.5700507992
 40
0.6015828172
 40
0.6330012617
 40
0.6642971388
 40
0.6954634044
 40
0.7264950768
 40
0.7573893259
 40
0.7881455371
 40
0.8187653504
 40
0.8492526693
 40
0.8644505914
 40
0.8796178843
 40
0.9098608392
 40
0.939996208
 40
0.9550295556
 40
0.9700408184
 40
1.0
 40
1.0
 40
1.0
 40
1.0
 10
8.5993701439
 20
8.6021132947
 30
0.0
 10
8.5919795662
 20
8.602625833
 30
0.0
 10
8.5771946449
 20
8.6041534401
 30
0.0
 10
8.5551744911
 20
8.6079246742
 30
0.0
 10
8.533355834
 20
8.6131630582
 30
0.0
 10
8.5118390659
 20
8.6198430216
 30
0.0
 10
8.4907210334
 20
8.627932119
 30
0.0
 10
8.4700966138
 20
8.6373911839
 30
0.0
 10
8.4500576281
 20
8.6481746841
 30
0.0
 10
8.4306925242
 20
8.660231089
 30
0.0
 10
8.4120859164
 20
8.6735032742
 30
0.0
 10
8.3943182288
 20
8.6879289507
 30
0.0
 10
8.3774653793
 20
8.7034411077
 30
0.0
 10
8.3615985191
 20
8.7199684619
 30
0.0
 10
8.346783822
 20
8.7374359051
 30
0.0
 10
8.3330823206
 20
8.7557649426
 30
0.0
 10
8.3205497839
 20
8.7748741176
 30
0.0
 10
8.3092366319
 20
8.7946794169
 30
0.0
 10
8.2991878808
 20
8.8150946552
 30
0.0
 10
8.2904431127
 20
8.836031836
 30
0.0
 10
8.2830364649
 20
8.8574014893
 30
0.0
 10
8.276996631
 20
8.8791129859
 30
0.0
 10
8.2723468719
 20
8.9010748321
 30
0.0
 10
8.2691050274
 20
8.9231949397
 30
0.0
 10
8.2672835344
 20
8.9453809051
 30
0.0
 10
8.266889418
 20
8.967540187
 30
0.0
 10
8.2679243642
 20
8.9895806092
 30
0.0
 10
8.2703844605
 20
9.0114096305
 30
0.0
 10
8.2736184839
 20
9.0293693018
 30
0.0
 10
8.2769076963
 20
9.0435362502
 30
0.0
 10
8.2806535697
 20
9.0575289365
 30
0.0
 10
8.2861979677
 20
9.0747242416
 30
0.0
 10
8.2928834641
 20
9.0914746598
 30
0.0
 10
8.298893839
 20
9.1045419941
 30
0.0
 10
8.3053302018
 20
9.1173570651
 30
0.0
 10
8.3106487888
 20
9.126707842
 30
0.0
 10
8.3144026125
 20
9.1328038682
 30
0.0
  0
SPLINE
  5
356
100
AcDbEntity
  8
0
100
AcDbSpline
 62
7
  6
CONTINUOUS
 70
0
 71
3
 72
37
 73
33
 74
0
 42
0.0000001
 43
0.0000001
 44
0.0000000001
 40
0.0
 40
0.0
 40
0.0
 40
0.0
 40
0.0843069098
 40
0.1649831537
 40
0.2038589475
 40
0.2416972812
 40
0.2784480026
 40
0.3140666565
 40
0.3485115311
 40
0.3817333209
 40
0.4136902288
 40
0.4443532705
 40
0.4736968261
 40
0.5017111842
 40
0.528415094
 40
0.5538514562
 40
0.5781070836
 40
0.6013244548
 40
0.6237059172
 40
0.6455326456
 40
0.6671534385
 40
0.6889809352
 40
0.7114591312
 40
0.7350337598
 40
0.760118673
 40
0.7870730304
 40
0.8161908236
 40
0.8476969849
 40
0.8817525986
 40
0.918460338
 40
0.9578726288
 40
1.0
 40
1.0
 40
1.0
 40
1.0
 10
10.1472488486
 20
7.4013574609
 30
0.0
 10
10.145749331
 20
7.3995196539
 30
0.0
 10
10.1427701683
 20
7.3959592803
 30
0.0
 10
10.1389535295
 20
7.3916763302
 30
0.0
 10
10.1359122296
 20
7.3884574568
 30
0.0
 10
10.1336701493
 20
7.3861846744
 30
0.0
 10
10.131439621
 20
7.3840304138
 30
0.0
 10
10.1292217484
 20
7.3820019687
 30
0.0
 10
10.1270180846
 20
7.3801069711
 30
0.0
 10
10.1248302374
 20
7.3783539842
 30
0.0
 10
10.1226602158
 20
7.3767520349
 30
0.0
 10
10.1205104955
 20
7.3753104048
 30
0.0
 10
10.118383855
 20
7.3740390154
 30
0.0
 10
10.1162834466
 20
7.3729484127
 30
0.0
 10
10.1142129715
 20
7.37204949
 30
0.0
 10
10.1121765915
 20
7.3713535142
 30
0.0
 10
10.1101790087
 20
7.3708725194
 30
0.0
 10
10.1082258032
 20
7.3706189113
 30
0.0
 10
10.1063235807
 20
7.3706052409
 30
0.0
 10
10.1044807484
 20
7.3708447806
 30
0.0
 10
10.1027074749
 20
7.3713489367
 30
0.0
 10
10.1010160228
 20
7.3721281143
 30
0.0
 10
10.0994190467
 20
7.3731888664
 30
0.0
 10
10.0979291599
 20
7.3745355365
 30
0.0
 10
10.0965577342
 20
7.3761698022
 30
0.0
 10
10.0953156397
 20
7.3780919692
 30
0.0
 10
10.0942132615
 20
7.3803005554
 30
0.0
 10
10.0932610775
 20
7.382792341
 30
0.0
 10
10.0924693005
 20
7.3855618609
 30
0.0
 10
10.0918480872
 20
7.3886015092
 30
0.0
 10
10.091406836
 20
7.391901235
 30
0.0
 10
10.0912440102
 20
7.3941910968
 30
0.0
 10
10.0911922423
 20
7.3953752006
 30
0.0
  0
SPLINE
  5
357
100
AcDbEntity
  8
0
100
AcDbSpline
 62
7
  6
CONTINUOUS
 70
0
 71
3
 72
39
 73
35
 74
0
 42
0.0000001
 43
0.0000001
 44
0.0000000001
 40
0.0
 40
0.0
 40
0.0
 40
0.0
 40
0.0309283864
 40
0.0620001434
 40
0.0932094263
 40
0.1245480171
 40
0.1560051889
 40
0.1875682796
 40
0.2192229724
 40
0.2509537275
 40
0.2827441598
 40
0.3145774165
 40
0.346436518
 40
0.3783046635
 40
0.4101654941
 40
0.4420033135
 40
0.4738032675
 40
0.5055514871
 40
0.5372351987
 40
0.5688428094
 40
0.6003639724
 40
0.6317896253
 40
0.6631120191
 40
0.6943247412
 40
0.725422734
 40
0.7564023122
 40
0.7872611799
 40
0.8179984479
 40
0.8486146472
 40
0.8791117473
 40
0.9094931776
 40
0.9397638463
 40
0.9699301542
 40
1.0
 40
1.0
 40
1.0
 40
1.0
 10
9.8067775777
 20
8.5345597217
 30
0.0
 10
9.8002694582
 20
8.5350110613
 30
0.0
 10
9.7872498083
 20
8.5363633877
 30
0.0
 10
9.7678624931
 20
8.5397147003
 30
0.0
 10
9.7486577766
 20
8.5443747675
 30
0.0
 10
9.7297254735
 20
8.5503163446
 30
0.0
 10
9.711150877
 20
8.5575049014
 30
0.0
 10
9.6930159633
 20
8.5658990504
 30
0.0
 10
9.6753982015
 20
8.5754513888
 30
0.0
 10
9.6583702042
 20
8.5861092676
 30
0.0
 10
9.6419993442
 20
8.5978156379
 30
0.0
 10
9.6263475657
 20
8.6105098638
 30
0.0
 10
9.6114713165
 20
8.6241285049
 30
0.0
 10
9.5974215997
 20
8.6386060328
 30
0.0
 10
9.5842441201
 20
8.6538754725
 30
0.0
 10
9.5719795049
 20
8.6698689565
 30
0.0
 10
9.5606635777
 20
8.6865181874
 30
0.0
 10
9.5503276663
 20
8.7037548112
 30
0.0
 10
9.5409989261
 20
8.7215107049
 30
0.0
 10
9.5327006644
 20
8.739718185
 30
0.0
 10
9.5254526487
 20
8.7583101418
 30
0.0
 10
9.5192714099
 20
8.7772201172
 30
0.0
 10
9.5141705094
 20
8.7963823235
 30
0.0
 10
9.5101607736
 20
8.8157316192
 30
0.0
 10
9.5072504903
 20
8.8352034506
 30
0.0
 10
9.5054455651
 20
8.8547337667
 30
0.0
 10
9.5047496378
 20
8.8742589137
 30
0.0
 10
9.5051641433
 20
8.8937155191
 30
0.0
 10
9.5066883424
 20
8.9130403629
 30
0.0
 10
9.5093193217
 20
8.9321702839
 30
0.0
 10
9.5130518849
 20
8.9510419661
 30
0.0
 10
9.5178786169
 20
8.9695922228
 30
0.0
 10
9.5237891121
 20
8.9877565135
 30
0.0
 10
9.5284514172
 20
8.9995859788
 30
0.0
 10
9.5309581989
 20
9.0054122434
 30
0.0
  0
SPLINE
  5
358
100
AcDbEntity
  8
0
100
AcDbSpline
 62
7
  6
CONTINUOUS
 70
0
 71
3
 72
25
 73
21
 74
0
 42
0.0000001
 43
0.0000001
 44
0.0000000001
 40
0.0
 40
0.0
 40
0.0
 40
0.0
 40
0.0642287876
 40
0.1282026555
 40
0.191913246
 40
0.2553587663
 40
0.3185395896
 40
0.3814606823
 40
0.444130617
 40
0.5065618275
 40
0.5687703576
 40
0.6307756859
 40
0.6926004506
 40
0.7234569177
 40
0.7542780153
 40
0.8158205308
 40
0.877265845
 40
0.9079658506
 40
0.9386534787
 40
1.0
 40
1.0
 40
1.0
 40
1.0
 10
10.055291007
 20
7.1988590352
 30
0.0
 10
10.0538654144
 20
7.2060870142
 30
0.0
 10
10.0514423984
 20
7.2206014436
 30
0.0
 10
10.0491078783
 20
7.2425027245
 30
0.0
 10
10.0480884236
 20
7.2644154741
 30
0.0
 10
10.0483879248
 20
7.2862588667
 30
0.0
 10
10.0500054527
 20
7.3079537632
 30
0.0
 10
10.0529352003
 20
7.3294210694
 30
0.0
 10
10.0571666527
 20
7.3505826545
 30
0.0
 10
10.0626844924
 20
7.3713613897
 30
0.0
 10
10.0694688133
 20
7.3916816951
 30
0.0
 10
10.077494744
 20
7.4114690212
 30
0.0
 10
10.0851993707
 20
7.4274663876
 30
0.0
 10
10.0919515051
 20
7.4399221159
 30
0.0
 10
10.0990821467
 20
7.4521276466
 30
0.0
 10
10.1087104832
 20
7.4669263642
 30
0.0
 10
10.1192627532
 20
7.4810638181
 30
0.0
 10
10.1282283617
 20
7.4919353022
 30
0.0
 10
10.1375324224
 20
7.5025028071
 30
0.0
 10
10.1448909265
 20
7.5100855828
 30
0.0
 10
10.1499520553
 20
7.5149742432
 30
0.0
  0
SPLINE
  5
359
100
AcDbEntity
  8
0
100
AcDbSpline
 62
7
  6
CONTINUOUS
 70
0
 71
3
 72
37
 73
33
 74
0
 42
0.0000001
 43
0.0000001
 44
0.0000000001
 40
0.0
 40
0.0
 40
0.0
 40
0.0
 40
0.0764754168
 40
0.1551060317
 40
0.2348022208
 40
0.3144777045
 40
0.3930889221
 40
0.4696671387
 40
0.5069178366
 40
0.5433413887
 40
0.578846106
 40
0.6133481305
 40
0.6467714429
 40
0.6790478139
 40
0.7101170392
 40
0.7399276234
 40
0.7684368963
 40
0.7956117068
 40
0.8214301682
 40
0.8458837323
 40
0.8689800152
 40
0.8800277613
 40
0.8907491905
 40
0.9011524974
 40
0.9112478797
 40
0.9305678229
 40
0.9488552744
 40
0.9663178917
 40
0.9748292767
 40
0.9832479575
 40
0.9916212126
 40
1.0
 40
1.0
 40
1.0
 40
1.0
 10
10.5532312552
 20
7.5216515579
 30
0.0
 10
10.5433561754
 20
7.517085724
 30
0.0
 10
10.5231045173
 20
7.5083019089
 30
0.0
 10
10.4919092104
 20
7.4963341224
 30
0.0
 10
10.4598355605
 20
7.4854601043
 30
0.0
 10
10.4273945833
 20
7.4757517171
 30
0.0
 10
10.3950842642
 20
7.4672208887
 30
0.0
 10
10.3684200126
 20
7.4609998205
 30
0.0
 10
10.3475166281
 20
7.4565319638
 30
0.0
 10
10.3322924598
 20
7.4534535286
 30
0.0
 10
10.3174233453
 20
7.4505962855
 30
0.0
 10
10.302951442
 20
7.4479366571
 30
0.0
 10
10.2889153797
 20
7.4454482802
 30
0.0
 10
10.2753502567
 20
7.4431020544
 30
0.0
 10
10.2622876676
 20
7.4408662134
 30
0.0
 10
10.2497558114
 20
7.4387061407
 30
0.0
 10
10.2377795996
 20
7.4365844206
 30
0.0
 10
10.2263808115
 20
7.4344607966
 30
0.0
 10
10.2155781415
 20
7.4322918498
 30
0.0
 10
10.2053876552
 20
7.4300305013
 30
0.0
 10
10.1973012736
 20
7.4279980683
 30
0.0
 10
10.1911575809
 20
7.4262664937
 30
0.0
 10
10.1867797303
 20
7.4249300356
 30
0.0
 10
10.182564483
 20
7.4235289402
 30
0.0
 10
10.1772404582
 20
7.4215927122
 30
0.0
 10
10.1709720504
 20
7.4189769171
 30
0.0
 10
10.1639943726
 20
7.4153940688
 30
0.0
 10
10.1586875547
 20
7.4119802333
 30
0.0
 10
10.1548162127
 20
7.4089840377
 30
0.0
 10
10.152108189
 20
7.4066086879
 30
0.0
 10
10.1495729158
 20
7.4040764238
 30
0.0
 10
10.148002408
 20
7.4022810225
 30
0.0
 10
10.1472488486
 20
7.4013574609
 30
0.0
  0
SPLINE
  5
35A
100
AcDbEntity
  8
0
100
AcDbSpline
 62
7
  6
CONTINUOUS
 70
0
 71
3
 72
9
 73
5
 74
0
 42
0.0000001
 43
0.0000001
 44
0.0000000001
 40
0.0
 40
0.0
 40
0.0
 40
0.0
 40
0.4892684753
 40
1.0
 40
1.0
 40
1.0
 40
1.0
 10
10.5960211207
 20
7.5434328024
 30
0.0
 10
10.5891915784
 20
7.5395987207
 30
0.0
 10
10.5750631464
 20
7.5320620147
 30
0.0
 10
10.5606521804
 20
7.525082691
 30
0.0
 10
10.5532312552
 20
7.5216515579
 30
0.0
  0
SPLINE
  5
35B
100
AcDbEntity
  8
0
100
AcDbSpline
 62
7
  6
CONTINUOUS
 70
0
 71
3
 72
15
 73
11
 74
0
 42
0.0000001
 43
0.0000001
 44
0.0000000001
 40
0.0
 40
0.0
 40
0.0
 40
0.0
 40
0.1080234009
 40
0.2193255872
 40
0.3348270198
 40
0.4553384069
 40
0.5815625069
 40
0.7140988676
 40
0.8534469775
 40
1.0
 40
1.0
 40
1.0
 40
1.0
 10
14.5519039526
 20
7.3157426969
 30
0.0
 10
14.5537562891
 20
7.3160180039
 30
0.0
 10
14.5574903646
 20
7.3167742216
 30
0.0
 10
14.5630468681
 20
7.3184811396
 30
0.0
 10
14.5686236888
 20
7.3207718385
 30
0.0
 10
14.5742162443
 20
7.3236429919
 30
0.0
 10
14.5798211871
 20
7.3270917153
 30
0.0
 10
14.5854352316
 20
7.3311148312
 30
0.0
 10
14.5910545608
 20
7.3357088641
 30
0.0
 10
14.5947075579
 20
7.3390629035
 30
0.0
 10
14.5965349175
 20
7.3408279975
 30
0.0
  0
SPLINE
  5
35C
100
AcDbEntity
  8
0
100
AcDbSpline
 62
7
  6
CONTINUOUS
 70
0
 71
3
 72
40
 73
36
 74
0
 42
0.0000001
 43
0.0000001
 44
0.0000000001
 40
0.0
 40
0.0
 40
0.0
 40
0.0
 40
0.0309547702
 40
0.0464889198
 40
0.0620582635
 40
0.0932977552
 40
0.1246711142
 40
0.1561694604
 40
0.1877817142
 40
0.2194948189
 40
0.2512939827
 40
0.2831629467
 40
0.3150842702
 40
0.3470396306
 40
0.3790101347
 40
0.4109766357
 40
0.4429200538
 40
0.4748216959
 40
0.5066635705
 40
0.5384286944
 40
0.5701013878
 40
0.6016675521
 40
0.6331149284
 40
0.6644333302
 40
0.6956148476
 40
0.7266540169
 40
0.7575479525
 40
0.7882964353
 40
0.8189019547
 40
0.8493696995
 40
0.8797074964
 40
0.9099256931
 40
0.940036987
 40
0.9700561992
 40
1.0
 40
1.0
 40
1.0
 40
1.0
 10
10.1453161633
 20
7.3641232211
 30
0.0
 10
10.1453161633
 20
7.3558855551
 30
0.0
 10
10.1457386084
 20
7.3435086967
 30
0.0
 10
10.1471350408
 20
7.3270507379
 30
0.0
 10
10.1490918227
 20
7.3105730191
 30
0.0
 10
10.1525812163
 20
7.2900450167
 30
0.0
 10
10.1584073822
 20
7.2656690481
 30
0.0
 10
10.1658503396
 20
7.2416329816
 30
0.0
 10
10.1748754244
 20
7.2180486836
 30
0.0
 10
10.1854407694
 20
7.1950250544
 30
0.0
 10
10.1974973826
 20
7.1726686204
 30
0.0
 10
10.2109894056
 20
7.1510827537
 30
0.0
 10
10.2258543624
 20
7.130367278
 30
0.0
 10
10.2420234492
 20
7.1106179902
 30
0.0
 10
10.2594218506
 20
7.0919262276
 30
0.0
 10
10.2779690826
 20
7.0743784479
 30
0.0
 10
10.2975793622
 20
7.0580558326
 30
0.0
 10
10.3181620003
 20
7.0430339153
 30
0.0
 10
10.3396218176
 20
7.0293822338
 30
0.0
 10
10.3618595798
 20
7.0171640112
 30
0.0
 10
10.3847724524
 20
7.0064358644
 30
0.0
 10
10.4082544704
 20
6.9972475428
 30
0.0
 10
10.4321970229
 20
6.9896416978
 30
0.0
 10
10.4564893495
 20
6.9836536841
 30
0.0
 10
10.4810190468
 20
6.9793113934
 30
0.0
 10
10.5056725817
 20
6.9766351215
 30
0.0
 10
10.5303358121
 20
6.9756374688
 30
0.0
 10
10.5548945087
 20
6.9763232743
 30
0.0
 10
10.5792348838
 20
6.9786895872
 30
0.0
 10
10.6032441037
 20
6.9827256627
 30
0.0
 10
10.6268108563
 20
6.9884130291
 30
0.0
 10
10.6498257035
 20
6.9957254601
 30
0.0
 10
10.6721822062
 20
7.0046294648
 30
0.0
 10
10.6937751528
 20
7.0150830255
 30
0.0
 10
10.7076126545
 20
7.0230634402
 30
0.0
 10
10.7143664434
 20
7.0272925487
 30
0.0
  0
SPLINE
  5
35D
100
AcDbEntity
  8
0
100
AcDbSpline
 62
7
  6
CONTINUOUS
 70
0
 71
3
 72
11
 73
7
 74
0
 42
0.0000001
 43
0.0000001
 44
0.0000000001
 40
0.0
 40
0.0
 40
0.0
 40
0.0
 40
0.2450050725
 40
0.4942042192
 40
0.746307756
 40
1.0
 40
1.0
 40
1.0
 40
1.0
 10
10.055291007
 20
7.1988590352
 30
0.0
 10
10.0573508505
 20
7.1899354026
 30
0.0
 10
10.062035628
 20
7.1720534364
 30
0.0
 10
10.0706388038
 20
7.1455011582
 30
0.0
 10
10.0808295286
 20
7.1191686511
 30
0.0
 10
10.0886083584
 20
7.1019246781
 30
0.0
 10
10.0927347374
 20
7.0933864999
 30
0.0
  0
LINE
  5
35E
100
AcDbEntity
  8
0
100
AcDbLine
 62
7
  6
CONTINUOUS
 10
8.8170987603
 20
8.8342640211
 11
8.8387884137
 21
8.8324313501
  0
SPLINE
  5
35F
100
AcDbEntity
  8
0
100
AcDbSpline
 62
7
  6
CONTINUOUS
 70
0
 71
3
 72
11
 73
7
 74
0
 42
0.0000001
 43
0.0000001
 44
0.0000000001
 40
0.0
 40
0.0
 40
0.0
 40
0.0
 40
0.2259962673
 40
0.4666690037
 40
0.7241330726
 40
1.0
 40
1.0
 40
1.0
 40
1.0
 10
14.5449946159
 20
7.3301221136
 30
0.0
 10
14.5475796799
 20
7.3311832118
 30
0.0
 10
14.5527851635
 20
7.3337072761
 30
0.0
 10
14.5603898648
 20
7.3384598184
 30
0.0
 10
14.5680054213
 20
7.344275719
 30
0.0
 10
14.5729081448
 20
7.3486969038
 30
0.0
 10
14.5753615225
 20
7.3510666848
 30
0.0
  0
SPLINE
  5
360
100
AcDbEntity
  8
0
100
AcDbSpline
 62
7
  6
CONTINUOUS
 70
0
 71
3
 72
85
 73
81
 74
0
 42
0.0000001
 43
0.0000001
 44
0.0000000001
 40
0.0
 40
0.0
 40
0.0
 40
0.0
 40
0.0027164321
 40
0.0054532385
 40
0.0082303085
 40
0.011066603
 40
0.0139798079
 40
0.0169861193
 40
0.0233311764
 40
0.0266975277
 40
0.0302054756
 40
0.033863392
 40
0.0376783486
 40
0.0416563264
 40
0.0458022472
 40
0.050120174
 40
0.0546133665
 40
0.0592843698
 40
0.0641351496
 40
0.0691670674
 40
0.0743810463
 40
0.0797775355
 40
0.0853565984
 40
0.0911179629
 40
0.0970609898
 40
0.1094877374
 40
0.1226269862
 40
0.1364646504
 40
0.1509834607
 40
0.1661633573
 40
0.1819818055
 40
0.1984140483
 40
0.2154333259
 40
0.233011069
 40
0.2511170619
 40
0.2697195894
 40
0.2887855696
 40
0.3082806737
 40
0.3281694478
 40
0.3484154285
 40
0.36898125
 40
0.3898287485
 40
0.4109190644
 40
0.4322127408
 40
0.4536698284
 40
0.4969118802
 40
0.5403202169
 40
0.5835675225
 40
0.6050291933
 40
0.6263287434
 40
0.6474262089
 40
0.6682821161
 40
0.6888575847
 40
0.7091144272
 40
0.7290152501
 40
0.748523559
 40
0.7676038654
 40
0.7862218038
 40
0.8043442504
 40
0.821939444
 40
0.838977118
 40
0.8554286471
 40
0.8712672105
 40
0.8864679851
 40
0.9010083612
 40
0.9148681946
 40
0.9280301198
 40
0.9404799413
 40
0.9464346146
 40
0.9522076736
 40
0.9577984609
 40
0.9632066809
 40
0.9684323855
 40
0.9734759888
 40
0.9783383641
 40
0.9830208263
 40
0.9875253632
 40
0.991854574
 40
0.996011563
 40
1.0
 40
1.0
 40
1.0
 40
1.0
 10
14.7535865648
 20
8.985651278
 30
0.0
 10
14.7552196446
 20
8.9855380235
 30
0.0
 10
14.7584896868
 20
8.9851628204
 30
0.0
 10
14.7633531278
 20
8.9841589102
 30
0.0
 10
14.7681798142
 20
8.9827139193
 30
0.0
 10
14.7729662605
 20
8.9808293428
 30
0.0
 10
14.7777102279
 20
8.9785067381
 30
0.0
 10
14.7840888268
 20
8.9747617581
 30
0.0
 10
14.7902633879
 20
8.9701770005
 30
0.0
 10
14.7962129172
 20
8.9648754956
 30
0.0
 10
14.8007107819
 20
8.9603924135
 30
0.0
 10
14.8051529242
 20
8.955484183
 30
0.0
 10
14.8095380253
 20
8.9501529074
 30
0.0
 10
14.8138638312
 20
8.9444012981
 30
0.0
 10
14.8181284864
 20
8.9382322236
 30
0.0
 10
14.822329918
 20
8.9316486959
 30
0.0
 10
14.8264661315
 20
8.9246539587
 30
0.0
 10
14.8305351787
 20
8.9172514766
 30
0.0
 10
14.8345349922
 20
8.9094448697
 30
0.0
 10
14.838463705
 20
8.9012380361
 30
0.0
 10
14.8423192956
 20
8.8926350166
 30
0.0
 10
14.8460998953
 20
8.8836400996
 30
0.0
 10
14.849803614
 20
8.874257764
 30
0.0
 10
14.8534285948
 20
8.864492662
 30
0.0
 10
14.858225986
 20
8.8507638366
 30
0.0
 10
14.863995043
 20
8.8326688278
 30
0.0
 10
14.8704770945
 20
8.8098212263
 30
0.0
 10
14.8766042153
 20
8.7855736381
 30
0.0
 10
14.8823640014
 20
8.7599746007
 30
0.0
 10
14.8877447427
 20
8.7330751086
 30
0.0
 10
14.8927354907
 20
8.7049289708
 30
0.0
 10
14.8973260899
 20
8.6755925475
 30
0.0
 10
14.9015072005
 20
8.6451246589
 30
0.0
 10
14.9052703126
 20
8.6135864379
 30
0.0
 10
14.9086077657
 20
8.5810411993
 30
0.0
 10
14.9115127635
 20
8.5475543058
 30
0.0
 10
14.913979386
 20
8.5131930361
 30
0.0
 10
14.9160026112
 20
8.4780264472
 30
0.0
 10
14.9175783172
 20
8.4421252305
 30
0.0
 10
14.9187032877
 20
8.4055615627
 30
0.0
 10
14.9193752172
 20
8.3684089599
 30
0.0
 10
14.9195927192
 20
8.330742123
 30
0.0
 10
14.9193553127
 20
8.2926368158
 30
0.0
 10
14.91866349
 20
8.2541696082
 30
0.0
 10
14.9171329414
 20
8.2023694697
 30
0.0
 10
14.9140939483
 20
8.1372855214
 30
0.0
 10
14.9086917963
 20
8.0591857786
 30
0.0
 10
14.902740655
 20
7.9942973212
 30
0.0
 10
14.8971241902
 20
7.9427703036
 30
0.0
 10
14.8925125231
 20
7.9045635805
 30
0.0
 10
14.887500432
 20
7.8667755644
 30
0.0
 10
14.8820979749
 20
7.8294821895
 30
0.0
 10
14.8763160614
 20
7.7927584621
 30
0.0
 10
14.8701663514
 20
7.7566782161
 30
0.0
 10
14.8636612524
 20
7.7213139903
 30
0.0
 10
14.8568138902
 20
7.6867368763
 30
0.0
 10
14.8496380823
 20
7.6530163732
 30
0.0
 10
14.8421483162
 20
7.620220241
 30
0.0
 10
14.8343597219
 20
7.588414359
 30
0.0
 10
14.8262880334
 20
7.5576625934
 30
0.0
 10
14.8179495596
 20
7.5280266675
 30
0.0
 10
14.8093611507
 20
7.4995660302
 30
0.0
 10
14.8005401596
 20
7.4723377288
 30
0.0
 10
14.7915044126
 20
7.4463962639
 30
0.0
 10
14.7822721668
 20
7.4217935048
 30
0.0
 10
14.772862048
 20
7.3985784343
 30
0.0
 10
14.7632930319
 20
7.3767975072
 30
0.0
 10
14.7550852163
 20
7.3596319228
 30
0.0
 10
14.7484414188
 20
7.346663894
 30
0.0
 10
14.7435048967
 20
7.337467752
 30
0.0
 10
14.7385430765
 20
7.3286612899
 30
0.0
 10
14.7335584183
 20
7.3202488755
 30
0.0
 10
14.7285534248
 20
7.3122346883
 30
0.0
 10
14.7235305302
 20
7.3046227472
 30
0.0
 10
14.7184923269
 20
7.2974167998
 30
0.0
 10
14.7134411989
 20
7.290620439
 30
0.0
 10
14.7083796215
 20
7.2842369453
 30
0.0
 10
14.7033099411
 20
7.2782694376
 30
0.0
 10
14.6982348776
 20
7.2727211559
 30
0.0
 10
14.6947792468
 20
7.2692325668
 30
0.0
 10
14.6930504826
 20
7.2675627087
 30
0.0
  0
SPLINE
  5
361
100
AcDbEntity
  8
0
100
AcDbSpline
 62
7
  6
CONTINUOUS
 70
0
 71
3
 72
82
 73
78
 74
0
 42
0.0000001
 43
0.0000001
 44
0.0000000001
 40
0.0
 40
0.0
 40
0.0
 40
0.0
 40
0.0027965803
 40
0.0056680383
 40
0.0086294852
 40
0.0116945118
 40
0.0181793352
 40
0.0216218076
 40
0.0252077145
 40
0.0289437912
 40
0.0328357458
 40
0.0368883524
 40
0.0411055166
 40
0.0454904555
 40
0.0500456819
 40
0.054773151
 40
0.0596743101
 40
0.064750103
 40
0.0700011138
 40
0.0754275053
 40
0.081029124
 40
0.0868055249
 40
0.0927559397
 40
0.1051742445
 40
0.1182737968
 40
0.1320406315
 40
0.1464579652
 40
0.1615065285
 40
0.1771648237
 40
0.1934093544
 40
0.2102148253
 40
0.2275543054
 40
0.2453993694
 40
0.2637202171
 40
0.2824858017
 40
0.3016639465
 40
0.321221448
 40
0.3411241734
 40
0.3613371502
 40
0.3818246692
 40
0.4025503782
 40
0.4234773706
 40
0.4657846707
 40
0.5084442432
 40
0.5511498609
 40
0.5935948714
 40
0.6354750073
 40
0.6561098553
 40
0.6764919013
 40
0.6965850419
 40
0.7163538542
 40
0.7357636871
 40
0.7547807627
 40
0.7733722782
 40
0.7915065002
 40
0.8091528696
 40
0.826282115
 40
0.8428663875
 40
0.8588793961
 40
0.8742965497
 40
0.8890951289
 40
0.9032544885
 40
0.9167563147
 40
0.929584912
 40
0.941727562
 40
0.9475388496
 40
0.9531755025
 40
0.958636975
 40
0.9639230832
 40
0.9690339239
 40
0.9739699695
 40
0.9787320938
 40
0.9833216028
 40
0.9877404403
 40
0.9919910796
 40
0.9960764464
 40
1.0
 40
1.0
 40
1.0
 40
1.0
 10
14.738590677
 20
8.9845910195
 30
0.0
 10
14.7401661802
 20
8.9840341389
 30
0.0
 10
14.7433139747
 20
8.9827728349
 30
0.0
 10
14.7479405044
 20
8.980485764
 30
0.0
 10
14.7525245785
 20
8.9777831736
 30
0.0
 10
14.7586917654
 20
8.9735494124
 30
0.0
 10
14.7646491968
 20
8.968537491
 30
0.0
 10
14.7703914982
 20
8.9628580571
 30
0.0
 10
14.7747321173
 20
8.9581075681
 30
0.0
 10
14.7790181844
 20
8.9529543017
 30
0.0
 10
14.783248243
 20
8.9474002495
 30
0.0
 10
14.7874202732
 20
8.9414481359
 30
0.0
 10
14.7915325259
 20
8.9351007662
 30
0.0
 10
14.7955830256
 20
8.9283610754
 30
0.0
 10
14.799569989
 20
8.9212322645
 30
0.0
 10
14.8034915464
 20
8.9137176744
 30
0.0
 10
14.8073458263
 20
8.9058208333
 30
0.0
 10
14.8111310963
 20
8.8975454971
 30
0.0
 10
14.8148454798
 20
8.8888955522
 30
0.0
 10
14.8184872784
 20
8.8798751178
 30
0.0
 10
14.8220547398
 20
8.8704884744
 30
0.0
 10
14.8255461588
 20
8.860740061
 30
0.0
 10
14.8301636044
 20
8.8470709216
 30
0.0
 10
14.8357172113
 20
8.8291028759
 30
0.0
 10
14.8419613884
 20
8.8064717876
 30
0.0
 10
14.8478646943
 20
8.7825175621
 30
0.0
 10
14.8534157449
 20
8.7572858948
 30
0.0
 10
14.8586037856
 20
8.7308246976
 30
0.0
 10
14.8634187749
 20
8.7031844146
 30
0.0
 10
14.8678513923
 20
8.6744177845
 30
0.0
 10
14.8718930497
 20
8.6445797505
 30
0.0
 10
14.8755359142
 20
8.6137273332
 30
0.0
 10
14.8787729184
 20
8.5819195257
 30
0.0
 10
14.8815977949
 20
8.5492171793
 30
0.0
 10
14.8840050742
 20
8.5156828791
 30
0.0
 10
14.8859900887
 20
8.4813808126
 30
0.0
 10
14.8875489838
 20
8.4463766443
 30
0.0
 10
14.8886787219
 20
8.4107373962
 30
0.0
 10
14.8893771104
 20
8.3745313129
 30
0.0
 10
14.8896427749
 20
8.3378277505
 30
0.0
 10
14.8894752142
 20
8.300696947
 30
0.0
 10
14.8886714946
 20
8.2505343124
 30
0.0
 10
14.8865823598
 20
8.1872888619
 30
0.0
 10
14.8823847433
 20
8.1111110628
 30
0.0
 10
14.8765191305
 20
8.0349607215
 30
0.0
 10
14.8690305161
 20
7.9594210099
 30
0.0
 10
14.8614489184
 20
7.8971587796
 30
0.0
 10
14.8546039739
 20
7.8481000308
 30
0.0
 10
14.8491291735
 20
7.8119971196
 30
0.0
 10
14.8432987959
 20
7.7764742318
 30
0.0
 10
14.8371239933
 20
7.741599341
 30
0.0
 10
14.8306166355
 20
7.7074392396
 30
0.0
 10
14.8237892237
 20
7.6740593217
 30
0.0
 10
14.8166548902
 20
7.6415234751
 30
0.0
 10
14.8092273526
 20
7.6098939577
 30
0.0
 10
14.8015208952
 20
7.5792312822
 30
0.0
 10
14.7935503349
 20
7.5495940929
 30
0.0
 10
14.7853310083
 20
7.5210390386
 30
0.0
 10
14.7768787383
 20
7.4936206564
 30
0.0
 10
14.7682097903
 20
7.4673912724
 30
0.0
 10
14.7593408427
 20
7.4424008863
 30
0.0
 10
14.7502889439
 20
7.4186970934
 30
0.0
 10
14.7410714805
 20
7.3963248321
 30
0.0
 10
14.7317061556
 20
7.3753267293
 30
0.0
 10
14.7236802828
 20
7.3587724523
 30
0.0
 10
14.7171873365
 20
7.3462601483
 30
0.0
 10
14.7123632218
 20
7.3373816376
 30
0.0
 10
14.7075155608
 20
7.3288752978
 30
0.0
 10
14.702646693
 20
7.3207451212
 30
0.0
 10
14.6977588801
 20
7.3129949883
 30
0.0
 10
14.6928544525
 20
7.305628577
 30
0.0
 10
14.6879357877
 20
7.298649355
 30
0.0
 10
14.683005092
 20
7.2920606349
 30
0.0
 10
14.678064681
 20
7.2858654244
 30
0.0
 10
14.6731167201
 20
7.2800666385
 30
0.0
 10
14.6681637866
 20
7.2746672781
 30
0.0
 10
14.6647930637
 20
7.2712680858
 30
0.0
 10
14.6631068291
 20
7.2696393082
 30
0.0
  0
SPLINE
  5
362
100
AcDbEntity
  8
0
100
AcDbSpline
 62
7
  6
CONTINUOUS
 70
0
 71
3
 72
15
 73
11
 74
0
 42
0.0000001
 43
0.0000001
 44
0.0000000001
 40
0.0
 40
0.0
 40
0.0
 40
0.0
 40
0.1084097687
 40
0.2202498839
 40
0.3362852037
 40
0.4571900681
 40
0.5835516445
 40
0.7158741101
 40
0.8545786362
 40
1.0
 40
1.0
 40
1.0
 40
1.0
 10
14.6176144828
 20
7.2429252792
 30
0.0
 10
14.6195085118
 20
7.2433052946
 30
0.0
 10
14.6233215145
 20
7.2442624322
 30
0.0
 10
14.6289863228
 20
7.2462379502
 30
0.0
 10
14.634669633
 20
7.2487698902
 30
0.0
 10
14.6403673999
 20
7.2518554846
 30
0.0
 10
14.6460766512
 20
7.2554921868
 30
0.0
 10
14.6517943522
 20
7.2596772324
 30
0.0
 10
14.6575169886
 20
7.2644074576
 30
0.0
 10
14.6612430297
 20
7.2678390162
 30
0.0
 10
14.6631068291
 20
7.2696393082
 30
0.0
  0
ELLIPSE
  5
363
100
AcDbEntity
  8
0
100
AcDbEllipse
 62
7
  6
CONTINUOUS
 10
10.4104813078
 20
7.2452530976
 30
0.0
 11
0.3550822852
 21
0.0472163029
 31
0.0
 40
0.8565316723
 41
6.2804823706
 42
6.6451885993
  0
ELLIPSE
  5
364
100
AcDbEntity
  8
0
100
AcDbEllipse
 62
7
  6
CONTINUOUS
 10
10.4104813078
 20
7.2452530976
 30
0.0
 11
0.3550822852
 21
0.0472163029
 31
0.0
 40
0.8565316723
 41
3.138889717
 42
3.5035959457
  0
ENDSEC
  0
SECTION
  2
OBJECTS
  0
DICTIONARY
  5
C
100
AcDbDictionary
280
0
281
1
  3
ACAD_GROUP
350
D
  3
ACAD_MLINESTYLE
350
17
  3
ACAD_LAYOUT
350
1A
  3
ACAD_PLOTSETTINGS
350
19
  3
ACAD_PLOTSTYLENAME
350
E
  3
ACAD_IMAGE_DICT
350
       366
  3
ACAD_IMAGE_VARS
350
       367
  3
ACAD_TABLESTYLE
350
       368
  0
IMAGEDEF_REACTOR
  5
365
100
AcDbRasterImageDefReactor
 90
2
330
27C
  0
DICTIONARY
  5
D
102
{ACAD_REACTORS
330
C
102
}
100
AcDbDictionary
280
0
281
1
  0
ACDBDICTIONARYWDFLT
  5
E
102
{ACAD_REACTORS
330
C
102
}
100
AcDbDictionary
281
1
  3
Normal
350
F
100
AcDbDictionaryWithDefault
340
F
  0
DICTIONARY
  5
366
330
C
100
AcDbDictionary
281
1
  3
PK3_assy_2_img_1
350
       36B
  0
RASTERVARIABLES
  5
367
330
C
100
AcDbRasterVariables
 90
0
 70
0
 71
1
 72
5
  0
DICTIONARY
  5
17
102
{ACAD_REACTORS
330
C
102
}
100
AcDbDictionary
280
0
281
1
  3
Standard
350
18
  0
DICTIONARY
  5
368
330
C
100
AcDbDictionary
281
1
  3
Standard
350
       36C
  3
Standard1
350
       36D
  0
DICTIONARY
  5
19
102
{ACAD_REACTORS
330
C
102
}
100
AcDbDictionary
281
1
  0
DICTIONARY
  5
1A
102
{ACAD_REACTORS
330
C
102
}
100
AcDbDictionary
281
1
  3
Model
350
369
  3
Layout1
350
36A
  0
ACDBPLACEHOLDER
  5
F
102
{ACAD_REACTORS
330
E
102
}
  0
MLINESTYLE
  5
18
102
{ACAD_REACTORS
330
17
102
}
100
AcDbMlineStyle
  2
STANDARD
 70
0
  3

 62
256
 51
90.0
 52
90.0
 71
2
 49
0.5
 62
256
  6
BYLAYER
 49
-0.5
 62
256
  6
BYLAYER
  0
LAYOUT
  5
369
102
{ACAD_REACTORS
330
1A
102
}
100
AcDbPlotSettings
  1

  2
none_device
  4
ANSI_C_(22.00_x_17.00_Inches)
  6

 40
0.0
 41
0.0
 42
0.0
 43
0.0
 44
558.8
 45
431.8
 46
0.0
 47
0.0
 48
0.0
 49
0.0
140
0.0
141
0.0
142
1.0
143
1.0
 70
1024
 72
0
 73
0
 74
0
  7

 75
0
147
1.0
148
0.0
149
0.0
100
AcDbLayout
  1
Model
 70
0
 71
0
 10
0.0
 20
0.0
 11
22.0
 21
17.0
 12
0.0
 22
0.0
 32
0.0
 14
0.0
 24
0.0
 34
0.0
 15
0.0
 25
0.0
 35
0.0
146
0.0
 13
0.0
 23
0.0
 33
0.0
 16
1.0
 26
0.0
 36
0.0
 17
0.0
 27
1.0
 37
0.0
 76
0
330
207
345
0
346
0
  0
LAYOUT
  5
36A
102
{ACAD_REACTORS
330
1A
102
}
100
AcDbPlotSettings
  1

  2
none_device
  4
ANSI_C_(22.00_x_17.00_Inches)
  6

 40
0.0
 41
0.0
 42
0.0
 43
0.0
 44
558.8
 45
431.8
 46
0.0
 47
0.0
 48
0.0
 49
0.0
140
0.0
141
0.0
142
1.0
143
1.0
 70
0
 72
0
 73
0
 74
0
  7

 75
0
147
1.0
148
0.0
149
0.0
100
AcDbLayout
  1
Layout1
 70
0
 71
1
 10
0.0
 20
0.0
 11
22.0
 21
17.0
 12
0.0
 22
0.0
 32
0.0
 14
0.0
 24
0.0
 34
0.0
 15
0.0
 25
0.0
 35
0.0
146
0.0
 13
0.0
 23
0.0
 33
0.0
 16
1.0
 26
0.0
 36
0.0
 17
0.0
 27
1.0
 37
0.0
 76
0
330
208
345
0
346
0
  0
IMAGEDEF
  5
36B
102
{ACAD_REACTORS
330
366
330
365
102
}
100
AcDbRasterImageDef
 90
0
  1
PK3_assy_2_img_1.png
 10
369.0
 20
92.0
 11
0.0066666667
 21
0.0066666667
280
1
281
0
  0
TABLESTYLE
  5
36C
102
{ACAD_REACTORS
330
368
330
27F
330
280
102
}
330
368
100
AcDbTableStyle
  3
Standard
 70
0
 71
0
 40
0.06
 41
0.06
280
1
281
1
  7
Standard
140
0.18
170
1
 62
0
 63
7
283
0
  7
Standard
140
0.18
170
1
 62
0
 63
7
283
0
  7
Standard
140
0.18
170
1
 62
0
 63
7
283
0
  0
TABLESTYLE
  5
36D
102
{ACAD_REACTORS
330
368
330
27E
102
}
330
368
100
AcDbTableStyle
  3
Standard1
 70
1
 71
0
 40
0.06
 41
0.06
280
1
281
1
  7
Standard
140
0.18
170
1
 62
0
 63
7
283
0
  7
Standard
140
0.18
170
1
 62
0
 63
7
283
0
  7
Standard
140
0.18
170
1
 62
0
 63
7
283
0
  0
ENDSEC
  0
EOF
