999
DXF file: PK2_assy_2.dxf
999
Pro/ENGINEER 2014200 by Parametric Technology Corporation
  0
SECTION
  2
HEADER
  9
$ACADVER
  1
AC1021
  9
$DWGCODEPAGE
  3
ANSI_1252
  9
$EXTMAX
 10
22.0
 20
17.0
 30
0.0
  9
$EXTMIN
 10
0.0
 20
0.0
 30
0.0
  9
$LIMMIN
 10
0.0
 20
0.0
  9
$LIMMAX
 10
22.0
 20
17.0
  9
$VIEWCTR
 10
11.0
 20
8.5
  9
$VIEWSIZE
 40
17.0
  9
$CLAYER
  8
0
  9
$LTSCALE
 40
1.21
  9
$CELTYPE
  6
BYLAYER
  9
$DIMSCALE
 40
1.0
  9
$DIMASZ
 40
0.1875
  9
$DIMEXO
 40
0.0625
  9
$DIMDLI
 40
0.836
  9
$DIMEXE
 40
0.125
  9
$DIMCEN
 40
0.198
  9
$DIMLFAC
 40
1.0
  9
$DIMBLK
  1
_FILLED
  9
$DIMTXT
 40
0.1
  9
$DIMTOL
 70
0
  9
$DIMLIM
 70
0
  9
$DIMTFAC
 40
1.0
  9
$DIMGAP
 40
0.09
  9
$DIMDSEP
 70
46
  9
$AUNITS
 70
0
  9
$PDMODE
 70
3
  9
$PDSIZE
 40
0.3125
  9
$HANDSEED
  5
337
  9
$TILEMODE
 70
1
  9
$MEASUREMENT
 70
0
  9
$INSUNITS
 70
1
  0
ENDSEC
  0
SECTION
  2
CLASSES
  0
CLASS
  1
ACDBDICTIONARYWDFLT
  2
AcDbDictionaryWithDefault
  3
AutoCAD 2000
 90
0
 91
1
280
0
281
0
  0
CLASS
  1
ACDBPLACEHOLDER
  2
AcDbPlaceHolder
  3
AutoCAD 2000
 90
0
 91
1
280
0
281
0
  0
CLASS
  1
LAYOUT
  2
AcDbLayout
  3
AutoCAD 2000
 90
0
 91
0
280
0
281
0
  0
CLASS
  1
RASTERVARIABLES
  2
AcDbRasterVariables
  3
ISM
 90
0
 91
1
280
0
281
0
  0
CLASS
  1
IMAGEDEF
  2
AcDbRasterImageDef
  3
ISM
 90
0
 91
1
280
0
281
0
  0
CLASS
  1
IMAGEDEF_REACTOR
  2
AcDbRasterImageDefReactor
  3
ISM
 90
0
 91
1
280
0
281
0
  0
CLASS
  1
IMAGE
  2
AcDbRasterImage
  3
ISM
 90
127
 91
1
280
0
281
1
  0
CLASS
  1
TABLESTYLE
  2
AcDbTableStyle
  3
ObjectDBX Classes
 90
2047
 91
1
280
0
281
0
  0
CLASS
  1
ACAD_TABLE
  2
AcDbTable
  3
ObjectDBX Classes
 90
1025
 91
3
280
0
281
1
  0
ENDSEC
  0
SECTION
  2
TABLES
  0
TABLE
  2
VPORT
  5
8
100
AcDbSymbolTable
 70
2
  0
VPORT
  5
1F4
100
AcDbSymbolTableRecord
100
AcDbViewportTableRecord
  2
*ACTIVE
 70
0
 10
0.0
 20
0.0
 11
1.0
 21
1.0
 12
11.0
 22
8.5
 13
0.0
 23
0.0
 14
1.0
 24
1.0
 15
0.0
 25
0.0
 16
0.0
 26
0.0
 36
1.0
 17
0.0
 27
0.0
 37
0.0
 40
17.0
 41
1.2941176471
 42
50.0
 43
0.0
 44
0.0
 50
0.0
 51
0.0
 71
0
 72
100
 73
1
 74
1
 75
0
 76
0
 77
0
 78
0
  0
ENDTAB
  0
TABLE
  2
LTYPE
  5
5
100
AcDbSymbolTable
 70
6
  0
LTYPE
  5
14
100
AcDbSymbolTableRecord
100
AcDbLinetypeTableRecord
  2
BYBLOCK
 70
0
  3

 72
65
 73
0
 40
0.0
  0
LTYPE
  5
15
100
AcDbSymbolTableRecord
100
AcDbLinetypeTableRecord
  2
BYLAYER
 70
0
  3

 72
65
 73
0
 40
0.0
  0
LTYPE
  5
16
100
AcDbSymbolTableRecord
100
AcDbLinetypeTableRecord
  2
CONTINUOUS
 70
64
  3
Solid line
 72
65
 73
0
 40
0.0
  0
LTYPE
  5
1F5
100
AcDbSymbolTableRecord
100
AcDbLinetypeTableRecord
  2
CENTER
 70
64
  3
____ _ ____ _ ____ _ ____ _ ____ _ ____ _ ____
 72
65
 73
4
 40
0.6
 49
0.375
 74
0
 49
-0.075
 74
0
 49
0.075
 74
0
 49
-0.075
 74
0
  0
LTYPE
  5
1F6
100
AcDbSymbolTableRecord
100
AcDbLinetypeTableRecord
  2
HIDDEN
 70
64
  3
- - - - - - - - - - - - - - - - - - - -
 72
65
 73
2
 40
0.2
 49
0.1
 74
0
 49
-0.1
 74
0
  0
LTYPE
  5
1F7
100
AcDbSymbolTableRecord
100
AcDbLinetypeTableRecord
  2
PHANTOM
 70
64
  3
_____ _ _ _____ _ _ _____ _ _ _____
 72
65
 73
6
 40
0.8
 49
0.45
 74
0
 49
-0.05
 74
0
 49
0.1
 74
0
 49
-0.05
 74
0
 49
0.1
 74
0
 49
-0.05
 74
0
  0
LTYPE
  5
1F8
100
AcDbSymbolTableRecord
100
AcDbLinetypeTableRecord
  2
DOT
 70
64
  3
. . . . . . . . . . . . . . . . . . . .
 72
65
 73
2
 40
0.2
 49
0.1
 74
0
 49
-0.1
 74
0
  0
LTYPE
  5
1F9
100
AcDbSymbolTableRecord
100
AcDbLinetypeTableRecord
  2
DASHED
 70
64
  3
- - - - - - - - - - - - - - - - - - - -
 72
65
 73
2
 40
0.2
 49
0.1
 74
0
 49
-0.1
 74
0
  0
ENDTAB
  0
TABLE
  2
LAYER
  5
2
100
AcDbSymbolTable
 70
36
  0
LAYER
  5
10
100
AcDbSymbolTableRecord
100
AcDbLayerTableRecord
  2
0
 70
0
 62
7
  6
CONTINUOUS
370
-3
390
F
  0
LAYER
  5
1FA
100
AcDbSymbolTableRecord
100
AcDbLayerTableRecord
  2
DEFAULT_1
 70
0
 62
7
  6
CENTER
370
-3
390
F
  0
LAYER
  5
1FB
100
AcDbSymbolTableRecord
100
AcDbLayerTableRecord
  2
DEFAULT_2
 70
0
 62
8
  6
HIDDEN
370
-3
390
F
  0
LAYER
  5
1FC
100
AcDbSymbolTableRecord
100
AcDbLayerTableRecord
  2
DEFAULT_3
 70
0
 62
7
  6
PHANTOM
370
-3
390
F
  0
LAYER
  5
1FD
100
AcDbSymbolTableRecord
100
AcDbLayerTableRecord
  2
DATUM_PLANES
 70
0
 62
7
  6
CONTINUOUS
370
-3
390
F
  0
LAYER
  5
1FE
100
AcDbSymbolTableRecord
100
AcDbLayerTableRecord
  2
DIMENSIONS
 70
0
 62
7
  6
CONTINUOUS
370
-3
390
F
  0
LAYER
  5
1FF
100
AcDbSymbolTableRecord
100
AcDbLayerTableRecord
  2
PARAMETERDIMENSIONS
 70
0
 62
7
  6
CONTINUOUS
370
-3
390
F
  0
LAYER
  5
200
100
AcDbSymbolTableRecord
100
AcDbLayerTableRecord
  2
PLANE
 70
0
 62
7
  6
CONTINUOUS
370
-3
390
F
  0
LAYER
  5
201
100
AcDbSymbolTableRecord
100
AcDbLayerTableRecord
  2
PORT_AREAS
 70
0
 62
7
  6
CONTINUOUS
370
-3
390
F
  0
LAYER
  5
202
100
AcDbSymbolTableRecord
100
AcDbLayerTableRecord
  2
SUNNBOMCOSMETIC
 70
0
 62
7
  6
CONTINUOUS
370
-3
390
F
  0
LAYER
  5
203
100
AcDbSymbolTableRecord
100
AcDbLayerTableRecord
  2
SUNNBOMSTAMPING
 70
0
 62
7
  6
CONTINUOUS
370
-3
390
F
  0
LAYER
  5
204
100
AcDbSymbolTableRecord
100
AcDbLayerTableRecord
  2
THREADS
 70
0
 62
7
  6
CONTINUOUS
370
-3
390
F
  0
ENDTAB
  0
TABLE
  2
STYLE
  5
3
100
AcDbSymbolTable
 70
1
  0
STYLE
  5
11
100
AcDbSymbolTableRecord
100
AcDbTextStyleTableRecord
  2
STANDARD
 70
0
 40
0.0
 41
0.8
 50
0.0
 71
0
 42
0.2
  3
txt
  4

  0
STYLE
  5
205
100
AcDbSymbolTableRecord
100
AcDbTextStyleTableRecord
  2
TEXTSTYLE_1
 70
0
 40
0.0
 41
0.8
 50
0.0
 71
0
 42
0.2
  3
gdt
  4

  0
ENDTAB
  0
TABLE
  2
VIEW
  5
6
100
AcDbSymbolTable
 70
0
  0
ENDTAB
  0
TABLE
  2
UCS
  5
7
100
AcDbSymbolTable
 70
0
  0
ENDTAB
  0
TABLE
  2
APPID
  5
9
100
AcDbSymbolTable
 70
1
  0
APPID
  5
206
100
AcDbSymbolTableRecord
100
AcDbRegAppTableRecord
  2
ACAD
 70
0
  0
ENDTAB
  0
TABLE
  2
BLOCK_RECORD
  5
1
100
AcDbSymbolTable
 70
0
  0
BLOCK_RECORD
  5
207
100
AcDbSymbolTableRecord
100
AcDbBlockTableRecord
  2
*Model_Space
  0
BLOCK_RECORD
  5
208
100
AcDbSymbolTableRecord
100
AcDbBlockTableRecord
  2
*Paper_Space
  0
BLOCK_RECORD
  5
209
100
AcDbSymbolTableRecord
100
AcDbBlockTableRecord
  2
SUN_FIRST_THIRD_ANGLE_BL0
  0
BLOCK_RECORD
  5
20A
100
AcDbSymbolTableRecord
100
AcDbBlockTableRecord
  2
*T1
  0
BLOCK_RECORD
  5
20B
100
AcDbSymbolTableRecord
100
AcDbBlockTableRecord
  2
*T2
  0
BLOCK_RECORD
  5
20C
100
AcDbSymbolTableRecord
100
AcDbBlockTableRecord
  2
*T3
  0
ENDTAB
  0
TABLE
  2
DIMSTYLE
  5
A
100
AcDbSymbolTable
 70
1
100
AcDbDimStyleTable
 71
0
  0
DIMSTYLE
105
20D
100
AcDbSymbolTableRecord
100
AcDbDimStyleTableRecord
  2
STANDARD
 70
0
  3

  4

 40
1.0
 41
0.1875
 42
0.0625
 43
0.38
 44
0.125
 45
0.0
 46
0.0
 47
0.001
 48
0.001
140
0.1
141
0.09
142
0.0
143
25.4
144
1.0
145
0.0
146
1.0
147
0.09
 71
0.0
 72
0.0
 73
1
 74
1
 75
0
 76
0
 77
0
 78
4
170
0
171
2
172
0
173
0
174
0
175
0
176
0
177
0
178
0
270
2
271
3
272
3
273
2
274
2
275
0
280
0
281
0
282
0
283
1
284
4
285
0
286
0
287
3
288
0
340
11
278
46
  0
ENDTAB
  0
ENDSEC
  0
SECTION
  2
BLOCKS
  0
BLOCK
  5
20
100
AcDbEntity
  8
0
100
AcDbBlockBegin
  2
*Model_Space
 70
0
 10
0.0
 20
0.0
 30
0.0
  3
*Model_Space
  1

  0
ENDBLK
  5
21
100
AcDbEntity
  8
0
100
AcDbBlockEnd
  0
BLOCK
  5
1C
100
AcDbEntity
  8
0
100
AcDbBlockBegin
  2
*Paper_Space
 70
0
 10
0.0
 20
0.0
 30
0.0
  3
*Paper_Space
  1

  0
ENDBLK
  5
1D
100
AcDbEntity
  8
0
100
AcDbBlockEnd
  0
BLOCK
  5
20E
100
AcDbEntity
  8
0
100
AcDbBlockBegin
 62
2
  6
CONTINUOUS
  2
SUN_FIRST_THIRD_ANGLE_BL0
 70
64
 10
20.4816717061
 20
1.2289683772
  3
SUN_FIRST_THIRD_ANGLE_BL0
  1

  0
TEXT
  5
20F
100
AcDbEntity
  8
0
100
AcDbText
 62
2
  6
CONTINUOUS
 10
19.4750896608
 20
1.4136269581
  7
STANDARD
 40
0.08
  1
FIRST ANGLE
 41
0.8
 72
0
100
AcDbText
  0
TEXT
  5
210
100
AcDbEntity
  8
0
100
AcDbText
 62
2
  6
CONTINUOUS
 10
20.7842537513
 20
1.4047600029
  7
STANDARD
 40
0.08
  1
THIRD ANGLE
 41
0.8
 72
0
100
AcDbText
  0
LINE
  5
211
100
AcDbEntity
  8
0
100
AcDbLine
 62
7
  6
CONTINUOUS
 10
19.4767170086
 20
1.1727031207
 11
19.6334271527
 21
1.1717972817
  0
LINE
  5
212
100
AcDbEntity
  8
0
100
AcDbLine
 62
7
  6
CONTINUOUS
 10
19.6596964832
 20
1.1717972817
 11
19.6950230232
 21
1.171593082
  0
LINE
  5
213
100
AcDbEntity
  8
0
100
AcDbLine
 62
7
  6
CONTINUOUS
 10
19.7194818561
 20
1.1708914427
 11
19.8852396156
 21
1.1699333054
  0
LINE
  5
214
100
AcDbEntity
  8
0
100
AcDbLine
 62
7
  6
CONTINUOUS
 10
19.4758111696
 20
1.2723454088
 11
19.88525039
 21
1.3511534004
  0
LINE
  5
215
100
AcDbEntity
  8
0
100
AcDbLine
 62
7
  6
CONTINUOUS
 10
19.88525039
 20
1.3511534004
 11
19.8831348489
 21
0.9851647912
  0
LINE
  5
216
100
AcDbEntity
  8
0
100
AcDbLine
 62
7
  6
CONTINUOUS
 10
19.8831348489
 20
0.9851647912
 11
19.4767170086
 21
1.0658141206
  0
LINE
  5
217
100
AcDbEntity
  8
0
100
AcDbLine
 62
7
  6
CONTINUOUS
 10
19.4767170086
 20
1.0658141206
 11
19.4779056764
 21
1.2714536432
  0
CIRCLE
  5
218
100
AcDbEntity
  8
0
100
AcDbCircle
 62
7
  6
CONTINUOUS
 10
20.2068232291
 20
1.1717972817
 40
0.175742101
  0
CIRCLE
  5
219
100
AcDbEntity
  8
0
100
AcDbCircle
 62
7
  6
CONTINUOUS
 10
20.2068232291
 20
1.1717972817
 40
0.1005522074
  0
LINE
  5
21A
100
AcDbEntity
  8
0
100
AcDbLine
 62
7
  6
CONTINUOUS
 10
20.2077290681
 20
1.3756110529
 11
20.2071171714
 21
1.2379342989
  0
LINE
  5
21B
100
AcDbEntity
  8
0
100
AcDbLine
 62
7
  6
CONTINUOUS
 10
20.2077290681
 20
1.2016899681
 11
20.2074674401
 21
1.1428236749
  0
LINE
  5
21C
100
AcDbEntity
  8
0
100
AcDbLine
 62
7
  6
CONTINUOUS
 10
20.208634907
 20
1.101141841
 11
20.2080230104
 21
0.963465087
  0
LINE
  5
21D
100
AcDbEntity
  8
0
100
AcDbLine
 62
7
  6
CONTINUOUS
 10
20.0066328138
 20
1.1745147986
 11
20.1443095678
 21
1.1739029019
  0
LINE
  5
21E
100
AcDbEntity
  8
0
100
AcDbLine
 62
7
  6
CONTINUOUS
 10
20.1832714155
 20
1.1727031207
 11
20.238153505
 21
1.172335442
  0
LINE
  5
21F
100
AcDbEntity
  8
0
100
AcDbLine
 62
7
  6
CONTINUOUS
 10
20.2756669918
 20
1.1717972817
 11
20.407916871
 21
1.1712095044
  0
CIRCLE
  5
220
100
AcDbEntity
  8
0
100
AcDbCircle
 62
7
  6
CONTINUOUS
 10
20.7509457401
 20
1.1693297793
 40
0.1722024983
  0
CIRCLE
  5
221
100
AcDbEntity
  8
0
100
AcDbCircle
 62
7
  6
CONTINUOUS
 10
20.7509457401
 20
1.1693297793
 40
0.0985164967
  0
LINE
  5
222
100
AcDbEntity
  8
0
100
AcDbLine
 62
7
  6
CONTINUOUS
 10
20.7169767782
 20
1.170462078
 11
20.7825395137
 21
1.1682766535
  0
LINE
  5
223
100
AcDbEntity
  8
0
100
AcDbLine
 62
7
  6
CONTINUOUS
 10
20.8177513651
 20
1.1693297793
 11
20.947965719
 21
1.1693297793
  0
LINE
  5
224
100
AcDbEntity
  8
0
100
AcDbLine
 62
7
  6
CONTINUOUS
 10
20.6875370113
 20
1.170462078
 11
20.5573226574
 21
1.170462078
  0
LINE
  5
225
100
AcDbEntity
  8
0
100
AcDbLine
 62
7
  6
CONTINUOUS
 10
20.7486811426
 20
1.1987695462
 11
20.7486811426
 21
1.1432869085
  0
LINE
  5
226
100
AcDbEntity
  8
0
100
AcDbLine
 62
7
  6
CONTINUOUS
 10
20.7498134414
 20
1.1059210505
 11
20.7498134414
 21
0.9757066966
  0
LINE
  5
227
100
AcDbEntity
  8
0
100
AcDbLine
 62
7
  6
CONTINUOUS
 10
20.7486811426
 20
1.2338708068
 11
20.7486811426
 21
1.3640851607
  0
LINE
  5
228
100
AcDbEntity
  8
0
100
AcDbLine
 62
7
  6
CONTINUOUS
 10
21.0702539817
 20
1.2701043662
 11
21.4790138229
 21
1.3448360823
  0
LINE
  5
229
100
AcDbEntity
  8
0
100
AcDbLine
 62
7
  6
CONTINUOUS
 10
21.4790138229
 20
1.3448360823
 11
21.4790138229
 21
0.9779712941
  0
LINE
  5
22A
100
AcDbEntity
  8
0
100
AcDbLine
 62
7
  6
CONTINUOUS
 10
21.4790138229
 20
0.9779712941
 11
21.069121683
 21
1.0617614
  0
LINE
  5
22B
100
AcDbEntity
  8
0
100
AcDbLine
 62
7
  6
CONTINUOUS
 10
21.0702539817
 20
1.2701043662
 11
21.069121683
 21
1.0617614
  0
LINE
  5
22C
100
AcDbEntity
  8
0
100
AcDbLine
 62
7
  6
CONTINUOUS
 10
21.4790138229
 20
1.1693297793
 11
21.3159628059
 21
1.1693297793
  0
LINE
  5
22D
100
AcDbEntity
  8
0
100
AcDbLine
 62
7
  6
CONTINUOUS
 10
21.2876553377
 20
1.1693297793
 11
21.2502894796
 21
1.1693297793
  0
LINE
  5
22E
100
AcDbEntity
  8
0
100
AcDbLine
 62
7
  6
CONTINUOUS
 10
21.2208497126
 20
1.1659328831
 11
21.0713862804
 21
1.1659328831
  0
LINE
  5
22F
100
AcDbEntity
  8
0
100
AcDbLine
 62
7
  6
CONTINUOUS
 10
20.4796138713
 20
1.5284908897
 11
20.4766766948
 21
0.9294458646
  0
ENDBLK
  5
230
100
AcDbEntity
  8
0
  6
BYBLOCK
 62
0
100
AcDbBlockEnd
  0
BLOCK
  5
231
100
AcDbEntity
  8
0
100
AcDbBlockBegin
  2
*T1
 70
1
 10
0.0
 20
0.0
  3
*T1
  1

  0
LINE
  5
232
100
AcDbEntity
  8
0
100
AcDbLine
 62
2
  6
CONTINUOUS
 10
9.275
 20
0.0
 11
-0.0
 21
0.0
  0
LINE
  5
233
100
AcDbEntity
  8
0
100
AcDbLine
 62
2
  6
CONTINUOUS
 10
9.275
 20
0.0
 11
9.275
 21
1.25
  0
LINE
  5
234
100
AcDbEntity
  8
0
100
AcDbLine
 62
2
  6
CONTINUOUS
 10
9.275
 20
0.625
 11
-0.0
 21
0.625
  0
LINE
  5
235
100
AcDbEntity
  8
0
100
AcDbLine
 62
2
  6
CONTINUOUS
 10
9.275
 20
1.25
 11
-0.0
 21
1.25
  0
LINE
  5
236
100
AcDbEntity
  8
0
100
AcDbLine
 62
2
  6
CONTINUOUS
 10
6.8
 20
0.0
 11
6.8
 21
1.25
  0
LINE
  5
237
100
AcDbEntity
  8
0
100
AcDbLine
 62
2
  6
CONTINUOUS
 10
6.4
 20
0.0
 11
6.4
 21
0.625
  0
LINE
  5
238
100
AcDbEntity
  8
0
100
AcDbLine
 62
2
  6
CONTINUOUS
 10
5.9
 20
0.0
 11
5.9
 21
0.625
  0
LINE
  5
239
100
AcDbEntity
  8
0
100
AcDbLine
 62
2
  6
CONTINUOUS
 10
5.2
 20
0.0
 11
5.2
 21
0.625
  0
LINE
  5
23A
100
AcDbEntity
  8
0
100
AcDbLine
 62
2
  6
CONTINUOUS
 10
4.1
 20
0.0
 11
4.1
 21
1.25
  0
LINE
  5
23B
100
AcDbEntity
  8
0
100
AcDbLine
 62
2
  6
CONTINUOUS
 10
-0.0
 20
0.0
 11
-0.0
 21
1.25
  0
MTEXT
  5
23C
100
AcDbEntity
  8
0
100
AcDbMText
 62
2
  6
CONTINUOUS
  7
STANDARD
 71
2
 72
1
 10
6.6
 20
0.325
 30
0.0
 11
1.0
 21
0.0
 31
0.0
 44
0.9
  1
2
 40
0.125
 41
0.2
  0
MTEXT
  5
23D
100
AcDbEntity
  8
0
100
AcDbMText
 62
2
  6
CONTINUOUS
  7
STANDARD
 71
2
 72
1
 10
6.15
 20
0.325
 30
0.0
 11
1.0
 21
0.0
 31
0.0
 44
0.9
  1
C
 40
0.125
 41
0.2
  0
MTEXT
  5
23E
100
AcDbEntity
  8
0
100
AcDbMText
 62
2
  6
CONTINUOUS
  7
STANDARD
 71
2
 72
1
 10
5.55
 20
0.325
 30
0.0
 11
1.0
 21
0.0
 31
0.0
 44
0.9
  1
1.000
 40
0.125
 41
1.0
  0
MTEXT
  5
23F
100
AcDbEntity
  8
0
100
AcDbMText
 62
2
  6
CONTINUOUS
  7
STANDARD
 71
2
 72
1
 10
4.65
 20
0.325
 30
0.0
 11
1.0
 21
0.0
 31
0.0
 44
0.9
  1
Jul-20-21
 40
0.125
 41
1.8
  0
MTEXT
  5
240
100
AcDbEntity
  8
0
100
AcDbMText
 62
2
  6
CONTINUOUS
  7
STANDARD
 71
2
 72
1
 10
2.05
 20
0.4625
 30
0.0
 11
1.0
 21
0.0
 31
0.0
 44
0.9
  1
T-23A Sandwich ISO 07\P(See Notes for Body Features)
 40
0.125
 41
5.8
  0
MTEXT
  5
241
100
AcDbEntity
  8
0
100
AcDbMText
 62
2
  6
CONTINUOUS
  7
STANDARD
 71
1
 72
1
 10
6.45
 20
0.5625
 30
0.0
 11
1.0
 21
0.0
 31
0.0
 44
0.9
  1
SHEET
 40
0.06
 41
0.48
  0
MTEXT
  5
242
100
AcDbEntity
  8
0
100
AcDbMText
 62
2
  6
CONTINUOUS
  7
STANDARD
 71
1
 72
1
 10
5.95
 20
0.5625
 30
0.0
 11
1.0
 21
0.0
 31
0.0
 44
0.9
  1
DWG SIZE
 40
0.06
 41
0.768
  0
MTEXT
  5
243
100
AcDbEntity
  8
0
100
AcDbMText
 62
2
  6
CONTINUOUS
  7
STANDARD
 71
1
 72
1
 10
5.25
 20
0.5625
 30
0.0
 11
1.0
 21
0.0
 31
0.0
 44
0.9
  1
SCALE
 40
0.06
 41
0.48
  0
MTEXT
  5
244
100
AcDbEntity
  8
0
100
AcDbMText
 62
2
  6
CONTINUOUS
  7
STANDARD
 71
1
 72
1
 10
4.15
 20
0.5625
 30
0.0
 11
1.0
 21
0.0
 31
0.0
 44
0.9
  1
DATE
 40
0.06
 41
0.384
  0
MTEXT
  5
245
100
AcDbEntity
  8
0
100
AcDbMText
 62
2
  6
CONTINUOUS
  7
STANDARD
 71
1
 72
1
 10
0.05
 20
0.5625
 30
0.0
 11
1.0
 21
0.0
 31
0.0
 44
0.9
  1
DESCRIPTION
 40
0.06
 41
1.056
  0
MTEXT
  5
246
100
AcDbEntity
  8
0
100
AcDbMText
 62
2
  6
CONTINUOUS
  7
STANDARD
 71
2
 72
1
 10
5.45
 20
1.0375
 30
0.0
 11
1.0
 21
0.0
 31
0.0
 44
0.9
  1
ALL DIMENSIONS IN INCH\PVIEWS ARE THIRD ANGLE
 40
0.12
 41
4.224
  0
MTEXT
  5
247
100
AcDbEntity
  8
0
100
AcDbMText
 62
2
  6
CONTINUOUS
  7
STANDARD
 71
2
 72
1
 10
2.05
 20
0.95
 30
0.0
 11
1.0
 21
0.0
 31
0.0
 44
0.9
  1
PK2
 40
0.125
 41
0.6
  0
MTEXT
  5
248
100
AcDbEntity
  8
0
100
AcDbMText
 62
2
  6
CONTINUOUS
  7
STANDARD
 71
1
 72
1
 10
0.05
 20
1.1875
 30
0.0
 11
1.0
 21
0.0
 31
0.0
 44
0.9
  1
MODEL
 40
0.06
 41
0.48
  0
ENDBLK
  5
249
100
AcDbEntity
  8
0
  6
BYBLOCK
 62
0
100
AcDbBlockEnd
  0
BLOCK
  5
24A
100
AcDbEntity
  8
0
100
AcDbBlockBegin
  2
*T2
 70
1
 10
0.0
 20
0.0
  3
*T2
  1

  0
LINE
  5
24B
100
AcDbEntity
  8
0
100
AcDbLine
 62
2
  6
CONTINUOUS
 10
0.0
 20
0.0
 11
9.055
 21
0.0
  0
LINE
  5
24C
100
AcDbEntity
  8
0
100
AcDbLine
 62
2
  6
CONTINUOUS
 10
0.0
 20
0.0
 11
0.0
 21
-2.344
  0
LINE
  5
24D
100
AcDbEntity
  8
0
100
AcDbLine
 62
2
  6
CONTINUOUS
 10
0.0
 20
-0.344
 11
9.055
 21
-0.344
  0
LINE
  5
24E
100
AcDbEntity
  8
0
100
AcDbLine
 62
2
  6
CONTINUOUS
 10
0.0
 20
-0.594
 11
9.055
 21
-0.594
  0
LINE
  5
24F
100
AcDbEntity
  8
0
100
AcDbLine
 62
2
  6
CONTINUOUS
 10
0.0
 20
-0.844
 11
9.055
 21
-0.844
  0
LINE
  5
250
100
AcDbEntity
  8
0
100
AcDbLine
 62
2
  6
CONTINUOUS
 10
0.0
 20
-1.094
 11
9.055
 21
-1.094
  0
LINE
  5
251
100
AcDbEntity
  8
0
100
AcDbLine
 62
2
  6
CONTINUOUS
 10
0.0
 20
-1.344
 11
9.055
 21
-1.344
  0
LINE
  5
252
100
AcDbEntity
  8
0
100
AcDbLine
 62
2
  6
CONTINUOUS
 10
0.0
 20
-1.594
 11
9.055
 21
-1.594
  0
LINE
  5
253
100
AcDbEntity
  8
0
100
AcDbLine
 62
2
  6
CONTINUOUS
 10
0.0
 20
-1.844
 11
9.055
 21
-1.844
  0
LINE
  5
254
100
AcDbEntity
  8
0
100
AcDbLine
 62
2
  6
CONTINUOUS
 10
0.0
 20
-2.094
 11
9.055
 21
-2.094
  0
LINE
  5
255
100
AcDbEntity
  8
0
100
AcDbLine
 62
2
  6
CONTINUOUS
 10
0.0
 20
-2.344
 11
9.055
 21
-2.344
  0
LINE
  5
256
100
AcDbEntity
  8
0
100
AcDbLine
 62
2
  6
CONTINUOUS
 10
3.055
 20
0.0
 11
3.055
 21
-2.344
  0
LINE
  5
257
100
AcDbEntity
  8
0
100
AcDbLine
 62
2
  6
CONTINUOUS
 10
9.055
 20
0.0
 11
9.055
 21
-2.344
  0
MTEXT
  5
258
100
AcDbEntity
  8
0
100
AcDbMText
 62
2
  6
CONTINUOUS
  7
STANDARD
 71
2
 72
1
 10
1.5275
 20
-0.0995
 30
0.0
 11
1.0
 21
0.0
 31
0.0
 44
0.9
  1
Technical Data
 40
0.145
 41
3.248
  0
MTEXT
  5
259
100
AcDbEntity
  8
0
100
AcDbMText
 62
2
  6
CONTINUOUS
  7
STANDARD
 71
2
 72
1
 10
4.555
 20
-0.0995
 30
0.0
 11
1.0
 21
0.0
 31
0.0
 44
0.9
  1
U.S. Units
 40
0.145
 41
2.32
  0
MTEXT
  5
25A
100
AcDbEntity
  8
0
100
AcDbMText
 62
2
  6
CONTINUOUS
  7
STANDARD
 71
2
 72
1
 10
7.555
 20
-0.0995
 30
0.0
 11
1.0
 21
0.0
 31
0.0
 44
0.9
  1
Metric Units
 40
0.145
 41
2.784
  0
MTEXT
  5
25B
100
AcDbEntity
  8
0
100
AcDbMText
 62
2
  6
CONTINUOUS
  7
STANDARD
 71
2
 72
1
 10
1.5275
 20
-0.4065
 30
0.0
 11
1.0
 21
0.0
 31
0.0
 44
0.9
  1
Cavity
 40
0.125
 41
1.2
  0
MTEXT
  5
25C
100
AcDbEntity
  8
0
100
AcDbMText
 62
2
  6
CONTINUOUS
  7
STANDARD
 71
2
 72
1
 10
6.055
 20
-0.4065
 30
0.0
 11
1.0
 21
0.0
 31
0.0
 44
0.9
  1
T-23A
 40
0.125
 41
1.0
  0
MTEXT
  5
25D
100
AcDbEntity
  8
0
100
AcDbMText
 62
2
  6
CONTINUOUS
  7
STANDARD
 71
2
 72
1
 10
1.5275
 20
-0.6565
 30
0.0
 11
1.0
 21
0.0
 31
0.0
 44
0.9
  1
Body Features
 40
0.125
 41
2.6
  0
MTEXT
  5
25E
100
AcDbEntity
  8
0
100
AcDbMText
 62
2
  6
CONTINUOUS
  7
STANDARD
 71
2
 72
1
 10
6.055
 20
-0.6565
 30
0.0
 11
1.0
 21
0.0
 31
0.0
 44
0.9
  1
(See Notes)
 40
0.125
 41
2.2
  0
MTEXT
  5
25F
100
AcDbEntity
  8
0
100
AcDbMText
 62
2
  6
CONTINUOUS
  7
STANDARD
 71
2
 72
1
 10
1.5275
 20
-0.9065
 30
0.0
 11
1.0
 21
0.0
 31
0.0
 44
0.9
  1
Body Type
 40
0.125
 41
1.8
  0
MTEXT
  5
260
100
AcDbEntity
  8
0
100
AcDbMText
 62
2
  6
CONTINUOUS
  7
STANDARD
 71
2
 72
1
 10
6.055
 20
-0.9065
 30
0.0
 11
1.0
 21
0.0
 31
0.0
 44
0.9
  1
Sandwich
 40
0.125
 41
1.6
  0
MTEXT
  5
261
100
AcDbEntity
  8
0
100
AcDbMText
 62
2
  6
CONTINUOUS
  7
STANDARD
 71
2
 72
1
 10
1.5275
 20
-1.1565
 30
0.0
 11
1.0
 21
0.0
 31
0.0
 44
0.9
  1
Interface
 40
0.125
 41
1.8
  0
MTEXT
  5
262
100
AcDbEntity
  8
0
100
AcDbMText
 62
2
  6
CONTINUOUS
  7
STANDARD
 71
2
 72
1
 10
6.055
 20
-1.1565
 30
0.0
 11
1.0
 21
0.0
 31
0.0
 44
0.9
  1
ISO 07
 40
0.125
 41
1.2
  0
MTEXT
  5
263
100
AcDbEntity
  8
0
100
AcDbMText
 62
2
  6
CONTINUOUS
  7
STANDARD
 71
2
 72
1
 10
1.5275
 20
-1.4065
 30
0.0
 11
1.0
 21
0.0
 31
0.0
 44
0.9
  1
Open Cavity Quantity
 40
0.125
 41
4.0
  0
MTEXT
  5
264
100
AcDbEntity
  8
0
100
AcDbMText
 62
2
  6
CONTINUOUS
  7
STANDARD
 71
2
 72
1
 10
6.055
 20
-1.4065
 30
0.0
 11
1.0
 21
0.0
 31
0.0
 44
0.9
  1
1
 40
0.125
 41
0.2
  0
MTEXT
  5
265
100
AcDbEntity
  8
0
100
AcDbMText
 62
2
  6
CONTINUOUS
  7
STANDARD
 71
2
 72
1
 10
1.5275
 20
-1.6565
 30
0.0
 11
1.0
 21
0.0
 31
0.0
 44
0.9
  1
Stack Height
 40
0.125
 41
2.4
  0
MTEXT
  5
266
100
AcDbEntity
  8
0
100
AcDbMText
 62
2
  6
CONTINUOUS
  7
STANDARD
 71
2
 72
1
 10
4.555
 20
-1.6565
 30
0.0
 11
1.0
 21
0.0
 31
0.0
 44
0.9
  1
3.52 in.
 40
0.125
 41
1.6
  0
MTEXT
  5
267
100
AcDbEntity
  8
0
100
AcDbMText
 62
2
  6
CONTINUOUS
  7
STANDARD
 71
2
 72
1
 10
7.555
 20
-1.6565
 30
0.0
 11
1.0
 21
0.0
 31
0.0
 44
0.9
  1
90 mm
 40
0.125
 41
1.0
  0
MTEXT
  5
268
100
AcDbEntity
  8
0
100
AcDbMText
 62
2
  6
CONTINUOUS
  7
STANDARD
 71
2
 72
1
 10
1.5275
 20
-1.9065
 30
0.0
 11
1.0
 21
0.0
 31
0.0
 44
0.9
  1
Weight
 40
0.125
 41
1.2
  0
MTEXT
  5
269
100
AcDbEntity
  8
0
100
AcDbMText
 62
2
  6
CONTINUOUS
  7
STANDARD
 71
2
 72
1
 10
4.555
 20
-1.9065
 30
0.0
 11
1.0
 21
0.0
 31
0.0
 44
0.9
  1
7.198 lb.
 40
0.125
 41
1.8
  0
MTEXT
  5
26A
100
AcDbEntity
  8
0
100
AcDbMText
 62
2
  6
CONTINUOUS
  7
STANDARD
 71
2
 72
1
 10
7.555
 20
-1.9065
 30
0.0
 11
1.0
 21
0.0
 31
0.0
 44
0.9
  1
3,265 kg.
 40
0.125
 41
1.8
  0
MTEXT
  5
26B
100
AcDbEntity
  8
0
100
AcDbMText
 62
2
  6
CONTINUOUS
  7
STANDARD
 71
2
 72
1
 10
1.5275
 20
-2.1565
 30
0.0
 11
1.0
 21
0.0
 31
0.0
 44
0.9
  1
Seal Plate Included (see notes)
 40
0.125
 41
6.2
  0
MTEXT
  5
26C
100
AcDbEntity
  8
0
100
AcDbMText
 62
2
  6
CONTINUOUS
  7
STANDARD
 71
2
 72
1
 10
6.055
 20
-2.1565
 30
0.0
 11
1.0
 21
0.0
 31
0.0
 44
0.9
  1
Yes
 40
0.125
 41
0.6
  0
ENDBLK
  5
26D
100
AcDbEntity
  8
0
  6
BYBLOCK
 62
0
100
AcDbBlockEnd
  0
BLOCK
  5
26E
100
AcDbEntity
  8
0
100
AcDbBlockBegin
  2
*T3
 70
1
 10
0.0
 20
0.0
  3
*T3
  1

  0
LINE
  5
26F
100
AcDbEntity
  8
0
100
AcDbLine
 62
2
  6
CONTINUOUS
 10
0.0
 20
0.0
 11
4.6
 21
0.0
  0
LINE
  5
270
100
AcDbEntity
  8
0
100
AcDbLine
 62
2
  6
CONTINUOUS
 10
0.0
 20
0.0
 11
0.0
 21
-0.93775
  0
LINE
  5
271
100
AcDbEntity
  8
0
100
AcDbLine
 62
2
  6
CONTINUOUS
 10
0.0
 20
-0.34375
 11
4.6
 21
-0.34375
  0
LINE
  5
272
100
AcDbEntity
  8
0
100
AcDbLine
 62
2
  6
CONTINUOUS
 10
0.0
 20
-0.68775
 11
4.6
 21
-0.68775
  0
LINE
  5
273
100
AcDbEntity
  8
0
100
AcDbLine
 62
2
  6
CONTINUOUS
 10
0.0
 20
-0.93775
 11
4.6
 21
-0.93775
  0
LINE
  5
274
100
AcDbEntity
  8
0
100
AcDbLine
 62
2
  6
CONTINUOUS
 10
1.3
 20
-0.34375
 11
1.3
 21
-0.93775
  0
LINE
  5
275
100
AcDbEntity
  8
0
100
AcDbLine
 62
2
  6
CONTINUOUS
 10
3.3
 20
-0.34375
 11
3.3
 21
-0.93775
  0
LINE
  5
276
100
AcDbEntity
  8
0
100
AcDbLine
 62
2
  6
CONTINUOUS
 10
4.6
 20
0.0
 11
4.6
 21
-0.93775
  0
MTEXT
  5
277
100
AcDbEntity
  8
0
100
AcDbMText
 62
2
  6
CONTINUOUS
  7
STANDARD
 71
2
 72
1
 10
2.3
 20
-0.099375
 30
0.0
 11
1.0
 21
0.0
 31
0.0
 44
0.9
  1
Port Headings
 40
0.145
 41
3.016
  0
MTEXT
  5
278
100
AcDbEntity
  8
0
100
AcDbMText
 62
2
  6
CONTINUOUS
  7
STANDARD
 71
2
 72
1
 10
0.65
 20
-0.44325
 30
0.0
 11
1.0
 21
0.0
 31
0.0
 44
0.9
  1
Product
 40
0.145
 41
1.624
  0
MTEXT
  5
279
100
AcDbEntity
  8
0
100
AcDbMText
 62
2
  6
CONTINUOUS
  7
STANDARD
 71
2
 72
1
 10
2.3
 20
-0.44325
 30
0.0
 11
1.0
 21
0.0
 31
0.0
 44
0.9
  1
Port
 40
0.145
 41
0.928
  0
MTEXT
  5
27A
100
AcDbEntity
  8
0
100
AcDbMText
 62
2
  6
CONTINUOUS
  7
STANDARD
 71
2
 72
1
 10
3.95
 20
-0.44325
 30
0.0
 11
1.0
 21
0.0
 31
0.0
 44
0.9
  1
Size
 40
0.145
 41
0.928
  0
MTEXT
  5
27B
100
AcDbEntity
  8
0
100
AcDbMText
 62
2
  6
CONTINUOUS
  7
STANDARD
 71
2
 72
1
 10
0.65
 20
-0.75025
 30
0.0
 11
1.0
 21
0.0
 31
0.0
 44
0.9
  1
PK2
 40
0.125
 41
0.6
  0
MTEXT
  5
27C
100
AcDbEntity
  8
0
100
AcDbMText
 62
2
  6
CONTINUOUS
  7
STANDARD
 71
2
 72
1
 10
2.3
 20
-0.75025
 30
0.0
 11
1.0
 21
0.0
 31
0.0
 44
0.9
  1
Port 4
 40
0.125
 41
1.2
  0
MTEXT
  5
27D
100
AcDbEntity
  8
0
100
AcDbMText
 62
2
  6
CONTINUOUS
  7
STANDARD
 71
2
 72
1
 10
3.95
 20
-0.75025
 30
0.0
 11
1.0
 21
0.0
 31
0.0
 44
0.9
  1
SAE 6
 40
0.125
 41
1.0
  0
ENDBLK
  5
27E
100
AcDbEntity
  8
0
  6
BYBLOCK
 62
0
100
AcDbBlockEnd
  0
ENDSEC
  0
SECTION
  2
ENTITIES
  0
IMAGE
  5
27F
100
AcDbEntity
  8
0
100
AcDbRasterImage
 62
7
  6
CONTINUOUS
 10
19.2297077316
 20
0.3094318264
 30
0.0
 11
0.0066666667
 21
0.0
 31
0.0
 12
0.0
 22
0.0066666667
 32
0.0
 13
369.0
 23
92.0
340
       334
 70
9
280
0
281
50
282
50
283
0
360
       32E
 71
1
 91
2
 14
-0.5
 24
-0.5
 14
368.5
 24
91.5
  0
INSERT
  5
280
100
AcDbEntity
  8
0
100
AcDbBlockReference
 62
2
  6
CONTINUOUS
  2
SUN_FIRST_THIRD_ANGLE_BL0
 10
20.4816717061
 20
1.2289683772
  0
ACAD_TABLE
  5
281
100
AcDbEntity
  8
0
 62
2
  6
CONTINUOUS
100
AcDbBlockReference
  2
*T1
 10
12.42375
 20
0.30125
 30
0.0
100
AcDbTable
342
       336
343
20A
 11
1.0
 21
0.0
 31
0.0
 90
6
 91
4
 92
6
 93
20
 94
0
 95
0
 96
0
 70
1
 41
0.0
141
0.525
141
0.1
141
0.525
141
0.1
142
4.1
142
1.1
142
0.7
142
0.5
142
0.4
142
2.475
171
1
172
0
173
0
174
0
175
1
176
1
 91
33
178
0
145
0.0
301
CELL_VALUE
 90
4
  1
T-23A Sandwich ISO 07\P(See Notes for Body Features)
304
ACVALUE_END
170
2
140
0.125
171
1
172
0
173
0
174
0
175
1
176
1
 91
33
178
0
145
0.0
301
CELL_VALUE
 90
4
  1
Jul-20-21
304
ACVALUE_END
170
5
140
0.125
171
1
172
0
173
0
174
0
175
1
176
1
 91
33
178
0
145
0.0
301
CELL_VALUE
 90
4
  1
1.000
304
ACVALUE_END
170
5
140
0.125
171
1
172
0
173
0
174
0
175
1
176
1
 91
33
178
0
145
0.0
301
CELL_VALUE
 90
4
  1
C
304
ACVALUE_END
170
5
140
0.125
171
1
172
0
173
0
174
0
175
1
176
1
 91
33
178
0
145
0.0
301
CELL_VALUE
 90
4
  1
2
304
ACVALUE_END
170
5
140
0.125
171
1
172
0
173
0
174
0
175
1
176
1
 91
33
178
0
145
0.0
301
CELL_VALUE
 90
4
  1
 
304
ACVALUE_END
170
1
140
0.125
171
1
172
0
173
0
174
0
175
1
176
1
 91
33
178
0
145
0.0
301
CELL_VALUE
 90
4
  1
DESCRIPTION
304
ACVALUE_END
170
1
140
0.06
171
1
172
0
173
0
174
0
175
1
176
1
 91
33
178
0
145
0.0
301
CELL_VALUE
 90
4
  1
DATE
304
ACVALUE_END
170
1
140
0.06
171
1
172
0
173
0
174
0
175
1
176
1
 91
33
178
0
145
0.0
301
CELL_VALUE
 90
4
  1
SCALE
304
ACVALUE_END
170
1
140
0.06
171
1
172
0
173
0
174
0
175
1
176
1
 91
33
178
0
145
0.0
301
CELL_VALUE
 90
4
  1
DWG SIZE
304
ACVALUE_END
170
1
140
0.06
171
1
172
0
173
0
174
0
175
1
176
1
 91
33
178
0
145
0.0
301
CELL_VALUE
 90
4
  1
SHEET
304
ACVALUE_END
170
1
140
0.06
171
1
172
0
173
0
174
0
175
1
176
1
 91
33
178
0
145
0.0
301
CELL_VALUE
 90
4
  1
 
304
ACVALUE_END
170
1
140
0.125
171
1
172
0
173
0
174
0
175
1
176
1
 91
33
178
0
145
0.0
301
CELL_VALUE
 90
4
  1
PK2
304
ACVALUE_END
170
5
140
0.125
171
1
172
0
173
0
174
0
175
4
176
1
 91
33
178
0
145
0.0
301
CELL_VALUE
 90
4
  1
ALL DIMENSIONS IN INCH\PVIEWS ARE THIRD ANGLE
304
ACVALUE_END
170
5
140
0.12
171
1
172
0
173
1
174
0
175
1
176
1
 91
1
178
0
145
0.0
170
1
171
1
172
0
173
1
174
0
175
1
176
1
 91
1
178
0
145
0.0
170
1
171
1
172
0
173
1
174
0
175
1
176
1
 91
1
178
0
145
0.0
170
5
171
1
172
0
173
0
174
0
175
1
176
1
 91
33
178
0
145
0.0
301
CELL_VALUE
 90
4
  1
 
304
ACVALUE_END
170
1
140
0.125
171
1
172
0
173
0
174
0
175
1
176
1
 91
33
178
0
145
0.0
301
CELL_VALUE
 90
4
  1
MODEL
304
ACVALUE_END
170
1
140
0.06
171
1
172
0
173
0
174
0
175
1
176
1
 91
33
178
0
145
0.0
301
CELL_VALUE
 90
4
  1
 
304
ACVALUE_END
170
1
140
0.125
171
1
172
0
173
0
174
0
175
1
176
1
 91
33
178
0
145
0.0
301
CELL_VALUE
 90
4
  1
 
304
ACVALUE_END
170
1
140
0.125
171
1
172
0
173
0
174
0
175
1
176
1
 91
33
178
0
145
0.0
301
CELL_VALUE
 90
4
  1
 
304
ACVALUE_END
170
1
140
0.125
171
1
172
0
173
0
174
0
175
1
176
1
 91
33
178
0
145
0.0
301
CELL_VALUE
 90
4
  1
 
304
ACVALUE_END
170
1
140
0.125
171
1
172
0
173
0
174
0
175
1
176
1
 91
33
178
0
145
0.0
301
CELL_VALUE
 90
4
  1
 
304
ACVALUE_END
170
1
140
0.125
  0
ACAD_TABLE
  5
282
100
AcDbEntity
  8
0
 62
2
  6
CONTINUOUS
100
AcDbBlockReference
  2
*T2
 10
12.4237499994
 20
16.47875
 30
0.0
100
AcDbTable
342
       335
343
20B
 11
1.0
 21
0.0
 31
0.0
 90
22
 91
9
 92
3
 93
16
 94
0
 95
0
 96
0
 41
0.028
141
0.344
141
0.25
141
0.25
141
0.25
141
0.25
141
0.25
141
0.25
141
0.25
141
0.25
142
3.055
142
3.0
142
3.0
171
1
172
0
173
0
174
0
175
1
176
1
 91
33
178
0
145
0.0
301
CELL_VALUE
 90
4
  1
Technical Data
304
ACVALUE_END
170
5
140
0.145
171
1
172
0
173
0
174
0
175
1
176
1
 91
33
178
0
145
0.0
301
CELL_VALUE
 90
4
  1
U.S. Units
304
ACVALUE_END
170
5
140
0.145
171
1
172
0
173
0
174
0
175
1
176
1
 91
33
178
0
145
0.0
301
CELL_VALUE
 90
4
  1
Metric Units
304
ACVALUE_END
170
5
140
0.145
171
1
172
0
173
0
174
0
175
1
176
1
 91
33
178
0
145
0.0
301
CELL_VALUE
 90
4
  1
Cavity
304
ACVALUE_END
170
5
140
0.125
171
1
172
0
173
0
174
0
175
2
176
1
 91
33
178
0
145
0.0
301
CELL_VALUE
 90
4
  1
T-23A
304
ACVALUE_END
170
5
140
0.125
171
1
172
0
173
1
174
0
175
1
176
1
 91
1
178
0
145
0.0
170
1
171
1
172
0
173
0
174
0
175
1
176
1
 91
33
178
0
145
0.0
301
CELL_VALUE
 90
4
  1
Body Features
304
ACVALUE_END
170
5
140
0.125
171
1
172
0
173
0
174
0
175
2
176
1
 91
33
178
0
145
0.0
301
CELL_VALUE
 90
4
  1
(See Notes)
304
ACVALUE_END
170
5
140
0.125
171
1
172
0
173
1
174
0
175
1
176
1
 91
1
178
0
145
0.0
170
1
171
1
172
0
173
0
174
0
175
1
176
1
 91
33
178
0
145
0.0
301
CELL_VALUE
 90
4
  1
Body Type
304
ACVALUE_END
170
5
140
0.125
171
1
172
0
173
0
174
0
175
2
176
1
 91
33
178
0
145
0.0
301
CELL_VALUE
 90
4
  1
Sandwich
304
ACVALUE_END
170
5
140
0.125
171
1
172
0
173
1
174
0
175
1
176
1
 91
1
178
0
145
0.0
170
1
171
1
172
0
173
0
174
0
175
1
176
1
 91
33
178
0
145
0.0
301
CELL_VALUE
 90
4
  1
Interface
304
ACVALUE_END
170
5
140
0.125
171
1
172
0
173
0
174
0
175
2
176
1
 91
33
178
0
145
0.0
301
CELL_VALUE
 90
4
  1
ISO 07
304
ACVALUE_END
170
5
140
0.125
171
1
172
0
173
1
174
0
175
1
176
1
 91
1
178
0
145
0.0
170
1
171
1
172
0
173
0
174
0
175
1
176
1
 91
33
178
0
145
0.0
301
CELL_VALUE
 90
4
  1
Open Cavity Quantity
304
ACVALUE_END
170
5
140
0.125
171
1
172
0
173
0
174
0
175
2
176
1
 91
33
178
0
145
0.0
301
CELL_VALUE
 90
4
  1
1
304
ACVALUE_END
170
5
140
0.125
171
1
172
0
173
1
174
0
175
1
176
1
 91
1
178
0
145
0.0
170
1
171
1
172
0
173
0
174
0
175
1
176
1
 91
33
178
0
145
0.0
301
CELL_VALUE
 90
4
  1
Stack Height
304
ACVALUE_END
170
5
140
0.125
171
1
172
0
173
0
174
0
175
1
176
1
 91
33
178
0
145
0.0
301
CELL_VALUE
 90
4
  1
3.52 in.
304
ACVALUE_END
170
5
140
0.125
171
1
172
0
173
0
174
0
175
1
176
1
 91
33
178
0
145
0.0
301
CELL_VALUE
 90
4
  1
90 mm
304
ACVALUE_END
170
5
140
0.125
171
1
172
0
173
0
174
0
175
1
176
1
 91
33
178
0
145
0.0
301
CELL_VALUE
 90
4
  1
Weight
304
ACVALUE_END
170
5
140
0.125
171
1
172
0
173
0
174
0
175
1
176
1
 91
33
178
0
145
0.0
301
CELL_VALUE
 90
4
  1
7.198 lb.
304
ACVALUE_END
170
5
140
0.125
171
1
172
0
173
0
174
0
175
1
176
1
 91
33
178
0
145
0.0
301
CELL_VALUE
 90
4
  1
3,265 kg.
304
ACVALUE_END
170
5
140
0.125
171
1
172
0
173
0
174
0
175
1
176
1
 91
33
178
0
145
0.0
301
CELL_VALUE
 90
4
  1
Seal Plate Included (see notes)
304
ACVALUE_END
170
5
140
0.125
171
1
172
0
173
0
174
0
175
2
176
1
 91
33
178
0
145
0.0
301
CELL_VALUE
 90
4
  1
Yes
304
ACVALUE_END
170
5
140
0.125
171
1
172
0
173
1
174
0
175
1
176
1
 91
1
178
0
145
0.0
170
1
  0
ACAD_TABLE
  5
283
100
AcDbEntity
  8
0
 62
2
  6
CONTINUOUS
100
AcDbBlockReference
  2
*T3
 10
0.52125
 20
1.459
 30
0.0
100
AcDbTable
342
       335
343
20C
 11
1.0
 21
0.0
 31
0.0
 90
22
 91
3
 92
3
 93
16
 94
0
 95
0
 96
0
 41
0.05
141
0.34375
141
0.344
141
0.25
142
1.3
142
2.0
142
1.3
171
1
172
0
173
0
174
0
175
3
176
1
 91
33
178
0
145
0.0
301
CELL_VALUE
 90
4
  1
Port Headings
304
ACVALUE_END
170
5
140
0.145
171
1
172
0
173
1
174
0
175
1
176
1
 91
1
178
0
145
0.0
170
1
171
1
172
0
173
1
174
0
175
1
176
1
 91
1
178
0
145
0.0
170
1
171
1
172
0
173
0
174
0
175
1
176
1
 91
33
178
0
145
0.0
301
CELL_VALUE
 90
4
  1
Product
304
ACVALUE_END
170
5
140
0.145
171
1
172
0
173
0
174
0
175
1
176
1
 91
33
178
0
145
0.0
301
CELL_VALUE
 90
4
  1
Port
304
ACVALUE_END
170
5
140
0.145
171
1
172
0
173
0
174
0
175
1
176
1
 91
33
178
0
145
0.0
301
CELL_VALUE
 90
4
  1
Size
304
ACVALUE_END
170
5
140
0.145
171
1
172
0
173
0
174
0
175
1
176
1
 91
33
178
0
145
0.0
301
CELL_VALUE
 90
4
  1
PK2
304
ACVALUE_END
170
5
140
0.125
171
1
172
0
173
0
174
0
175
1
176
1
 91
33
178
0
145
0.0
301
CELL_VALUE
 90
4
  1
Port 4
304
ACVALUE_END
170
5
140
0.125
171
1
172
0
173
0
174
0
175
1
176
1
 91
33
178
0
145
0.0
301
CELL_VALUE
 90
4
  1
SAE 6
304
ACVALUE_END
170
5
140
0.125
  0
MTEXT
  5
284
100
AcDbEntity
  8
0
100
AcDbMText
 62
2
  6
CONTINUOUS
  7
STANDARD
 71
1
 72
1
 10
0.52125
 20
5.75995
 30
0.0
 11
1.0
 21
0.0
 31
0.0
 44
0.6
  3
Notes\P \P1. Stack height value in technical\P   data table includes seal retainer\P   plate.\P2. Important: Carefully consider\P   the maximum system pressure. The\P   pressure rating of the manifold is\P   dependent on the manifold material,\P   wi
  3
th the port type/size a secondary\P   consideration. Manifolds\P   constructed of aluminum are not\P   rated for pressures higher than\P   3000 psi (210 bar), regardless of\P   the port type/size specified.\P3. Items without balloons are\P   shipped 
  1
loose.\P4. Body Features: Reducer/reliever\P   on A with reverse flow check and\P   port 4 external.
 40
0.1
 41
3.04
  0
LINE
  5
285
100
AcDbEntity
  8
0
100
AcDbLine
 62
7
  6
CONTINUOUS
 10
0.30125
 20
0.30125
 11
0.30125
 21
16.69875
  0
LINE
  5
286
100
AcDbEntity
  8
0
100
AcDbLine
 62
7
  6
CONTINUOUS
 10
0.30125
 20
0.30125
 11
21.69875
 21
0.30125
  0
LINE
  5
287
100
AcDbEntity
  8
0
100
AcDbLine
 62
7
  6
CONTINUOUS
 10
0.30125
 20
16.69875
 11
21.69875
 21
16.69875
  0
LINE
  5
288
100
AcDbEntity
  8
0
100
AcDbLine
 62
7
  6
CONTINUOUS
 10
21.69875
 20
0.30125
 11
21.69875
 21
16.69875
  0
LINE
  5
289
100
AcDbEntity
  8
0
100
AcDbLine
 62
7
  6
CONTINUOUS
 10
6.8974981306
 20
9.4327437664
 11
6.8974981306
 21
7.3192979333
  0
LINE
  5
28A
100
AcDbEntity
  8
0
100
AcDbLine
 62
7
  6
CONTINUOUS
 10
6.9194184492
 20
9.4229171695
 11
6.9194184492
 21
7.3094713364
  0
LINE
  5
28B
100
AcDbEntity
  8
0
100
AcDbLine
 62
7
  6
CONTINUOUS
 10
6.9911216216
 20
6.9108383383
 11
6.9652461458
 21
6.9426535881
  0
LINE
  5
28C
100
AcDbEntity
  8
0
100
AcDbLine
 62
7
  6
CONTINUOUS
 10
7.6273672355
 20
10.6506498705
 11
7.0349309301
 21
10.0784003089
  0
LINE
  5
28D
100
AcDbEntity
  8
0
100
AcDbLine
 62
7
  6
CONTINUOUS
 10
7.6573109378
 20
10.6785169701
 11
7.0648746325
 21
10.1062674084
  0
LINE
  5
28E
100
AcDbEntity
  8
0
100
AcDbLine
 62
7
  6
CONTINUOUS
 10
7.6586840208
 20
10.6798190791
 11
7.6573109378
 21
10.6785169701
  0
LINE
  5
28F
100
AcDbEntity
  8
0
100
AcDbLine
 62
7
  6
CONTINUOUS
 10
7.6286659188
 20
10.6518812015
 11
7.6273672355
 21
10.6506498705
  0
LINE
  5
290
100
AcDbEntity
  8
0
100
AcDbLine
 62
7
  6
CONTINUOUS
 10
7.6273672355
 20
10.6506498705
 11
7.6572988747
 21
10.6785299315
  0
LINE
  5
291
100
AcDbEntity
  8
0
100
AcDbLine
 62
7
  6
CONTINUOUS
 10
7.0349309301
 20
10.0784003089
 11
7.0648746325
 21
10.1062674084
  0
LINE
  5
292
100
AcDbEntity
  8
0
100
AcDbLine
 62
7
  6
CONTINUOUS
 10
9.7390187235
 20
10.7800895363
 11
8.8473878663
 21
9.9188402128
  0
LINE
  5
293
100
AcDbEntity
  8
0
100
AcDbLine
 62
7
  6
CONTINUOUS
 10
6.8974981306
 20
7.3192979333
 11
6.9194184492
 21
7.3094713364
  0
LINE
  5
294
100
AcDbEntity
  8
0
100
AcDbLine
 62
7
  6
CONTINUOUS
 10
8.8473878663
 20
6.5380996204
 11
8.8473878663
 21
9.9188402128
  0
LINE
  5
295
100
AcDbEntity
  8
0
100
AcDbLine
 62
7
  6
CONTINUOUS
 10
8.8473878663
 20
6.5380996204
 11
13.4355360433
 21
6.2199104637
  0
LINE
  5
296
100
AcDbEntity
  8
0
100
AcDbLine
 62
7
  6
CONTINUOUS
 10
8.8473878663
 20
6.7630036803
 11
7.0259931873
 21
6.8893178303
  0
LINE
  5
297
100
AcDbEntity
  8
0
100
AcDbLine
 62
7
  6
CONTINUOUS
 10
12.564522715
 20
7.0005733028
 11
12.5604070602
 21
7.0007860054
  0
LINE
  5
298
100
AcDbEntity
  8
0
100
AcDbLine
 62
7
  6
CONTINUOUS
 10
6.9194184492
 20
7.3094713364
 11
8.8473878663
 21
7.1757662032
  0
LINE
  5
299
100
AcDbEntity
  8
0
100
AcDbLine
 62
7
  6
CONTINUOUS
 10
12.5562914101
 20
7.2509987228
 11
12.5604070702
 21
7.25078602
  0
LINE
  5
29A
100
AcDbEntity
  8
0
100
AcDbLine
 62
4
  6
CONTINUOUS
 10
13.7422363294
 20
7.9795379217
 11
13.7344717646
 21
7.9792823715
  0
LINE
  5
29B
100
AcDbEntity
  8
0
100
AcDbLine
 62
7
  6
CONTINUOUS
 10
6.8974981306
 20
9.4327437664
 11
6.9194184492
 21
9.4229171695
  0
LINE
  5
29C
100
AcDbEntity
  8
0
100
AcDbLine
 62
7
  6
CONTINUOUS
 10
13.9672645149
 20
7.713674587
 11
14.1288874697
 21
7.702465997
  0
LINE
  5
29D
100
AcDbEntity
  8
0
100
AcDbLine
 62
7
  6
CONTINUOUS
 10
14.1354988087
 20
7.7899758663
 11
14.805766981
 21
7.7434926107
  0
LINE
  5
29E
100
AcDbEntity
  8
0
100
AcDbLine
 62
7
  6
CONTINUOUS
 10
14.1253575096
 20
7.802031605
 11
14.7956256818
 21
7.7555483494
  0
LINE
  5
29F
100
AcDbEntity
  8
0
100
AcDbLine
 62
7
  6
CONTINUOUS
 10
14.0387236004
 20
8.2783605578
 11
14.7089917726
 21
8.2318773022
  0
LINE
  5
2A0
100
AcDbEntity
  8
0
100
AcDbLine
 62
7
  6
CONTINUOUS
 10
14.0387236004
 20
8.3220635219
 11
14.7089917726
 21
8.2755802662
  0
LINE
  5
2A1
100
AcDbEntity
  8
0
100
AcDbLine
 62
7
  6
CONTINUOUS
 10
6.9194184492
 20
9.4229171695
 11
8.8473878663
 21
9.2892120363
  0
LINE
  5
2A2
100
AcDbEntity
  8
0
100
AcDbLine
 62
4
  6
CONTINUOUS
 10
13.7577654589
 20
8.3495156641
 11
13.7267071998
 21
8.3557379076
  0
LINE
  5
2A3
100
AcDbEntity
  8
0
100
AcDbLine
 62
7
  6
CONTINUOUS
 10
14.3271669006
 20
10.4619003796
 11
13.4355360433
 21
9.600651056
  0
LINE
  5
2A4
100
AcDbEntity
  8
0
100
AcDbLine
 62
7
  6
CONTINUOUS
 10
14.1253575096
 20
8.9657563453
 11
14.7956256818
 21
8.9192730897
  0
LINE
  5
2A5
100
AcDbEntity
  8
0
100
AcDbLine
 62
7
  6
CONTINUOUS
 10
14.1354988087
 20
8.9974035707
 11
14.805766981
 21
8.9509203151
  0
LINE
  5
2A6
100
AcDbEntity
  8
0
100
AcDbLine
 62
7
  6
CONTINUOUS
 10
14.3087666273
 20
9.1647674414
 11
14.9790347995
 21
9.1182841857
  0
LINE
  5
2A7
100
AcDbEntity
  8
0
100
AcDbLine
 62
7
  6
CONTINUOUS
 10
14.0752896465
 20
9.2689274922
 11
14.2367454291
 21
9.2577304956
  0
LINE
  5
2A8
100
AcDbEntity
  8
0
100
AcDbLine
 62
7
  6
CONTINUOUS
 10
13.4355360433
 20
9.600651056
 11
8.8473878663
 21
9.9188402128
  0
LINE
  5
2A9
100
AcDbEntity
  8
0
100
AcDbLine
 62
7
  6
CONTINUOUS
 10
7.0648746325
 20
10.1062674084
 11
8.9090230976
 21
9.978375278
  0
LINE
  5
2AA
100
AcDbEntity
  8
0
100
AcDbLine
 62
4
  6
CONTINUOUS
 10
13.7577654589
 20
8.1249379012
 11
13.7267071998
 21
8.1528934766
  0
LINE
  5
2AB
100
AcDbEntity
  8
0
100
AcDbLine
 62
7
  6
CONTINUOUS
 10
14.3087666273
 20
9.1647674414
 11
14.1354988087
 21
8.9974035707
  0
LINE
  5
2AC
100
AcDbEntity
  8
0
100
AcDbLine
 62
4
  6
CONTINUOUS
 10
13.7267071998
 20
8.26880458
 11
13.7577654589
 21
8.2988045563
  0
LINE
  5
2AD
100
AcDbEntity
  8
0
100
AcDbLine
 62
4
  6
CONTINUOUS
 10
13.7267071998
 20
8.2108490283
 11
13.7577654589
 21
8.2408490046
  0
LINE
  5
2AE
100
AcDbEntity
  8
0
100
AcDbLine
 62
7
  6
CONTINUOUS
 10
7.6573109378
 20
10.6785169701
 11
9.5014594029
 21
10.5506248397
  0
LINE
  5
2AF
100
AcDbEntity
  8
0
100
AcDbLine
 62
7
  6
CONTINUOUS
 10
9.5212603902
 20
10.5697511258
 11
7.6961923831
 21
10.696320022
  0
LINE
  5
2B0
100
AcDbEntity
  8
0
100
AcDbLine
 62
7
  6
CONTINUOUS
 10
14.3271669006
 20
10.4619003796
 11
9.7390187235
 21
10.7800895363
  0
LINE
  5
2B1
100
AcDbEntity
  8
0
100
AcDbLine
 62
4
  6
CONTINUOUS
 10
13.7344717646
 20
7.9792823715
 11
13.7292953875
 21
7.9887712628
  0
LINE
  5
2B2
100
AcDbEntity
  8
0
100
AcDbLine
 62
4
  6
CONTINUOUS
 10
13.7525890822
 20
8.0619823533
 11
13.7551772706
 21
8.0572379074
  0
LINE
  5
2B3
100
AcDbEntity
  8
0
100
AcDbLine
 62
7
  6
CONTINUOUS
 10
13.4355360433
 20
6.2199104637
 11
13.4355360433
 21
9.600651056
  0
LINE
  5
2B4
100
AcDbEntity
  8
0
100
AcDbLine
 62
4
  6
CONTINUOUS
 10
13.7267071998
 20
8.3557379076
 11
13.7577654589
 21
8.4219601037
  0
LINE
  5
2B5
100
AcDbEntity
  8
0
100
AcDbLine
 62
4
  6
CONTINUOUS
 10
13.7267071998
 20
8.0007601533
 11
13.7267071998
 21
8.0152490412
  0
LINE
  5
2B6
100
AcDbEntity
  8
0
100
AcDbLine
 62
4
  6
CONTINUOUS
 10
13.7422363294
 20
8.2258490164
 11
13.7422363294
 21
8.2838045682
  0
LINE
  5
2B7
100
AcDbEntity
  8
0
100
AcDbLine
 62
4
  6
CONTINUOUS
 10
13.7474127056
 20
8.3540045596
 11
13.7474127056
 21
8.3974712234
  0
LINE
  5
2B8
100
AcDbEntity
  8
0
100
AcDbLine
 62
4
  6
CONTINUOUS
 10
13.7577654589
 20
8.0452490176
 11
13.7577654589
 21
8.0307601297
  0
LINE
  5
2B9
100
AcDbEntity
  8
0
100
AcDbLine
 62
4
  6
CONTINUOUS
 10
13.7267071998
 20
8.0152490412
 11
13.7292953875
 21
8.0322379266
  0
LINE
  5
2BA
100
AcDbEntity
  8
0
100
AcDbLine
 62
4
  6
CONTINUOUS
 10
13.7577654589
 20
8.0307601297
 11
13.7551772706
 21
8.0137712436
  0
LINE
  5
2BB
100
AcDbEntity
  8
0
100
AcDbLine
 62
4
  6
CONTINUOUS
 10
13.7292953875
 20
8.0322379266
 11
13.7318835769
 21
8.0419823698
  0
LINE
  5
2BC
100
AcDbEntity
  8
0
100
AcDbLine
 62
4
  6
CONTINUOUS
 10
13.7551772706
 20
8.0137712436
 11
13.7500008941
 21
7.9942823597
  0
LINE
  5
2BD
100
AcDbEntity
  8
0
100
AcDbLine
 62
4
  6
CONTINUOUS
 10
13.7267071998
 20
8.0949379248
 11
13.7577654589
 21
8.1828934529
  0
LINE
  5
2BE
100
AcDbEntity
  8
0
100
AcDbLine
 62
4
  6
CONTINUOUS
 10
13.7500008941
 20
7.9942823597
 11
13.7422363294
 21
7.9795379217
  0
LINE
  5
2BF
100
AcDbEntity
  8
0
100
AcDbLine
 62
4
  6
CONTINUOUS
 10
13.7292953875
 20
7.9887712628
 11
13.7267071998
 21
8.0007601533
  0
LINE
  5
2C0
100
AcDbEntity
  8
0
100
AcDbLine
 62
4
  6
CONTINUOUS
 10
13.7551772706
 20
8.0572379074
 11
13.7577654589
 21
8.0452490176
  0
LINE
  5
2C1
100
AcDbEntity
  8
0
100
AcDbLine
 62
7
  6
CONTINUOUS
 10
14.1253575096
 20
8.9657563453
 11
14.0387236004
 21
8.3220635219
  0
LINE
  5
2C2
100
AcDbEntity
  8
0
100
AcDbLine
 62
7
  6
CONTINUOUS
 10
14.2215226847
 20
7.7785332422
 11
14.2246260048
 21
7.7837948743
  0
LINE
  5
2C3
100
AcDbEntity
  8
0
100
AcDbLine
 62
7
  6
CONTINUOUS
 10
14.0387236004
 20
8.2783605578
 11
14.1253575096
 21
7.802031605
  0
LINE
  5
2C4
100
AcDbEntity
  8
0
100
AcDbLine
 62
7
  6
CONTINUOUS
 10
14.3271669006
 20
7.0811597872
 11
14.3271669006
 21
7.776683639
  0
LINE
  5
2C5
100
AcDbEntity
  8
0
100
AcDbLine
 62
7
  6
CONTINUOUS
 10
14.3271669006
 20
9.1634913781
 11
14.3271669006
 21
10.4619003796
  0
LINE
  5
2C6
100
AcDbEntity
  8
0
100
AcDbLine
 62
7
  6
CONTINUOUS
 10
14.3271669006
 20
7.0811597872
 11
13.4355360433
 21
6.2199104637
  0
LINE
  5
2C7
100
AcDbEntity
  8
0
100
AcDbLine
 62
7
  6
CONTINUOUS
 10
14.317993796
 20
9.1696043831
 11
14.3203411107
 21
9.1639647482
  0
LINE
  5
2C8
100
AcDbEntity
  8
0
100
AcDbLine
 62
7
  6
CONTINUOUS
 10
14.9640469747
 20
7.8545591344
 11
14.9728204233
 21
7.8694343829
  0
LINE
  5
2C9
100
AcDbEntity
  8
0
100
AcDbLine
 62
7
  6
CONTINUOUS
 10
15.0351491483
 20
9.0104704571
 11
15.0495517755
 21
8.9758668491
  0
ARC
  5
2CA
100
AcDbEntity
  8
0
100
AcDbCircle
 62
7
  6
CONTINUOUS
 10
16.6301950539
 20
8.300057264
 40
2.5915648883
100
AcDbArc
 50
179.5134673813
 51
179.9985734311
  0
ARC
  5
2CB
100
AcDbEntity
  8
0
100
AcDbCircle
 62
7
  6
CONTINUOUS
 10
17.300463226
 20
8.2535740084
 40
2.5915648882
100
AcDbArc
 50
179.5134673813
 51
179.9985734312
  0
ARC
  5
2CC
100
AcDbEntity
  8
0
100
AcDbCircle
 62
7
  6
CONTINUOUS
 10
17.2376696139
 20
8.2536152336
 40
2.5287712753
100
AcDbArc
 50
179.9994720696
 51
180.492534488
  0
ARC
  5
2CD
100
AcDbEntity
  8
0
100
AcDbCircle
 62
7
  6
CONTINUOUS
 10
16.5563386435
 20
8.30005099
 40
2.5177084781
100
AcDbArc
 50
179.9983888061
 51
180.4936177515
  0
ARC
  5
2CE
100
AcDbEntity
  8
0
100
AcDbCircle
 62
7
  6
CONTINUOUS
 10
15.1852569979
 20
8.6435618642
 40
1.1077888829
100
AcDbArc
 50
161.3725959887
 51
163.0914686476
  0
ARC
  5
2CF
100
AcDbEntity
  8
0
100
AcDbCircle
 62
7
  6
CONTINUOUS
 10
15.8555251701
 20
8.5970786086
 40
1.1077888829
100
AcDbArc
 50
161.3725959887
 51
163.0914686476
  0
ARC
  5
2D0
100
AcDbEntity
  8
0
100
AcDbCircle
 62
7
  6
CONTINUOUS
 10
10.6006204737
 20
7.3414703397
 40
0.2349732567
100
AcDbArc
 50
39.8113249435
 51
40.2421127034
  0
SPLINE
  5
2D1
100
AcDbEntity
  8
0
100
AcDbSpline
 62
7
  6
CONTINUOUS
 70
0
 71
3
 72
23
 73
19
 74
0
 42
0.0000001
 43
0.0000001
 44
0.0000000001
 40
0.0
 40
0.0
 40
0.0
 40
0.0
 40
0.0778915856
 40
0.1545454438
 40
0.2297388202
 40
0.3032879841
 40
0.3750174017
 40
0.4447505127
 40
0.512316206
 40
0.5775550501
 40
0.6403154135
 40
0.7004563918
 40
0.75784725
 40
0.8123710763
 40
0.8639245062
 40
0.9124214177
 40
0.9577945528
 40
1.0
 40
1.0
 40
1.0
 40
1.0
 10
15.1025018694
 20
8.5824461982
 30
0.0
 10
15.1025018694
 20
8.5928067903
 30
0.0
 10
15.1023588625
 20
8.6133636565
 30
0.0
 10
15.1017064042
 20
8.6439159814
 30
0.0
 10
15.1006184547
 20
8.6738780553
 30
0.0
 10
15.0990986451
 20
8.7031655151
 30
0.0
 10
15.0971508688
 20
8.7316997938
 30
0.0
 10
15.0947809715
 20
8.7594035305
 30
0.0
 10
15.0919949709
 20
8.7862008256
 30
0.0
 10
15.0888011271
 20
8.8120184633
 30
0.0
 10
15.0852078699
 20
8.8367862407
 30
0.0
 10
15.0812255822
 20
8.8604367712
 30
0.0
 10
15.0768649256
 20
8.882905759
 30
0.0
 10
15.0721383444
 20
8.9041322911
 30
0.0
 10
15.0670586527
 20
8.9240589179
 30
0.0
 10
15.0616400531
 20
8.9426322517
 30
0.0
 10
15.0558974261
 20
8.9598019277
 30
0.0
 10
15.0517110779
 20
8.9706786538
 30
0.0
 10
15.0495539324
 20
8.9758615379
 30
0.0
  0
SPLINE
  5
2D2
100
AcDbEntity
  8
0
100
AcDbSpline
 62
7
  6
CONTINUOUS
 70
0
 71
3
 72
9
 73
5
 74
0
 42
0.0000001
 43
0.0000001
 44
0.0000000001
 40
0.0
 40
0.0
 40
0.0
 40
0.0
 40
0.5149357862
 40
1.0
 40
1.0
 40
1.0
 40
1.0
 10
14.9891760986
 20
9.106228447
 30
0.0
 10
14.9875661503
 20
9.1084028651
 30
0.0
 10
14.9843194484
 20
9.1125384335
 30
0.0
 10
14.9808076288
 20
9.1164532125
 30
0.0
 10
14.9790347995
 20
9.1182841857
 30
0.0
  0
SPLINE
  5
2D3
100
AcDbEntity
  8
0
100
AcDbSpline
 62
7
  6
CONTINUOUS
 70
0
 71
3
 72
22
 73
18
 74
0
 42
0.0000001
 43
0.0000001
 44
0.0000000001
 40
0.0
 40
0.0
 40
0.0
 40
0.0
 40
0.1581228667
 40
0.2341982852
 40
0.3081049186
 40
0.379717385
 40
0.4489184745
 40
0.5156040998
 40
0.5796927374
 40
0.6411263993
 40
0.6998833948
 40
0.755975683
 40
0.8094620448
 40
0.8604412683
 40
0.9090606462
 40
0.9555055836
 40
1.0
 40
1.0
 40
1.0
 40
1.0
 10
14.805766981
 20
7.7434926107
 30
0.0
 10
14.8152366421
 20
7.747695797
 30
0.0
 10
14.8291800457
 20
7.7541114741
 30
0.0
 10
14.8472900296
 20
7.7630339764
 30
0.0
 10
14.860186369
 20
7.769706924
 30
0.0
 10
14.8725363611
 20
7.7764485091
 30
0.0
 10
14.8843051768
 20
7.7832591048
 30
0.0
 10
14.8954585211
 20
7.7901393446
 30
0.0
 10
14.9059649708
 20
7.797087721
 30
0.0
 10
14.9157952438
 20
7.8041037836
 30
0.0
 10
14.9249253925
 20
7.8111841794
 30
0.0
 10
14.933335014
 20
7.8183271479
 30
0.0
 10
14.9410111448
 20
7.8255277931
 30
0.0
 10
14.947945271
 20
7.8327829055
 30
0.0
 10
14.9541373829
 20
7.8400866967
 30
0.0
 10
14.9595916983
 20
7.8474340915
 30
0.0
 10
14.9628083866
 20
7.8524568565
 30
0.0
 10
14.9642884138
 20
7.854968613
 30
0.0
  0
SPLINE
  5
2D4
100
AcDbEntity
  8
0
100
AcDbSpline
 62
7
  6
CONTINUOUS
 70
0
 71
3
 72
28
 73
24
 74
0
 42
0.0000001
 43
0.0000001
 44
0.0000000001
 40
0.0
 40
0.0
 40
0.0
 40
0.0
 40
0.0188524871
 40
0.0388801737
 40
0.0600715651
 40
0.0824089768
 40
0.1058699668
 40
0.1304265019
 40
0.1560475994
 40
0.1826975814
 40
0.2103382308
 40
0.2389280827
 40
0.2987741688
 40
0.3618564495
 40
0.4277601831
 40
0.4960432585
 40
0.5662412158
 40
0.6378720029
 40
0.7104405345
 40
0.7834444448
 40
0.8563742018
 40
0.9287292883
 40
1.0
 40
1.0
 40
1.0
 40
1.0
 10
14.97281952
 20
7.8694330074
 30
0.0
 10
14.9751524606
 20
7.8733884575
 30
0.0
 10
14.979783857
 20
7.8816529406
 30
0.0
 10
14.986450627
 20
7.8946817286
 30
0.0
 10
14.9930361653
 20
7.9086955827
 30
0.0
 10
14.9995282565
 20
7.9236686666
 30
0.0
 10
15.005914545
 20
7.9395737924
 30
0.0
 10
15.0121837375
 20
7.9563816394
 30
0.0
 10
15.0183235639
 20
7.9740614261
 30
0.0
 10
15.0243231153
 20
7.9925804735
 30
0.0
 10
15.0301709768
 20
8.011904701
 30
0.0
 10
15.0378688393
 20
8.0391125291
 30
0.0
 10
15.0469992607
 20
8.0748802118
 30
0.0
 10
15.057028913
 20
8.119776292
 30
0.0
 10
15.0662165013
 20
8.1669473531
 30
0.0
 10
15.0744933021
 20
8.2160446823
 30
0.0
 10
15.0817973244
 20
8.2667056205
 30
0.0
 10
15.0880740059
 20
8.3185554448
 30
0.0
 10
15.0932766607
 20
8.3712107317
 30
0.0
 10
15.0973663859
 20
8.4242813865
 30
0.0
 10
15.1003132853
 20
8.4773757728
 30
0.0
 10
15.1020950368
 20
8.530099398
 30
0.0
 10
15.1025018694
 20
8.5650857005
 30
0.0
 10
15.1025018694
 20
8.5824461982
 30
0.0
  0
SPLINE
  5
2D5
100
AcDbEntity
  8
0
100
AcDbSpline
 62
7
  6
CONTINUOUS
 70
0
 71
3
 72
9
 73
5
 74
0
 42
0.0000001
 43
0.0000001
 44
0.0000000001
 40
0.0
 40
0.0
 40
0.0
 40
0.0
 40
0.4955326499
 40
1.0
 40
1.0
 40
1.0
 40
1.0
 10
15.0352962727
 20
9.0101167554
 30
0.0
 10
15.0285246285
 20
9.026377131
 30
0.0
 10
15.0138861017
 20
9.0587909618
 30
0.0
 10
14.9976731298
 20
9.090437804
 30
0.0
 10
14.9891760986
 20
9.106228447
 30
0.0
  0
SPLINE
  5
2D6
100
AcDbEntity
  8
0
100
AcDbSpline
 62
7
  6
CONTINUOUS
 70
0
 71
3
 72
23
 73
19
 74
0
 42
0.0000001
 43
0.0000001
 44
0.0000000001
 40
0.0
 40
0.0
 40
0.0
 40
0.0
 40
0.0879689742
 40
0.1720374745
 40
0.2522277104
 40
0.3285767996
 40
0.4011454457
 40
0.4700180837
 40
0.5353037253
 40
0.5971447226
 40
0.6557237648
 40
0.7112648106
 40
0.7640406505
 40
0.8143822203
 40
0.8626779008
 40
0.909373088
 40
0.9549671986
 40
1.0
 40
1.0
 40
1.0
 40
1.0
 10
14.2215225242
 20
7.7785329732
 30
0.0
 10
14.2196515987
 20
7.7753608703
 30
0.0
 10
14.2159046402
 20
7.7692086011
 30
0.0
 10
14.2101290667
 20
7.7603666362
 30
0.0
 10
14.2043305409
 20
7.7521274598
 30
0.0
 10
14.198513503
 20
7.7444981601
 30
0.0
 10
14.1926827021
 20
7.7374848288
 30
0.0
 10
14.1868428647
 20
7.7310929584
 30
0.0
 10
14.180998231
 20
7.7253279629
 30
0.0
 10
14.1751529641
 20
7.7201948054
 30
0.0
 10
14.1693114974
 20
7.7156975172
 30
0.0
 10
14.1634777809
 20
7.7118402208
 30
0.0
 10
14.1576554897
 20
7.7086273996
 30
0.0
 10
14.1518489133
 20
7.7060625839
 30
0.0
 10
14.1460625643
 20
7.7041494076
 30
0.0
 10
14.1403011004
 20
7.7028921773
 30
0.0
 10
14.1345717115
 20
7.7022939536
 30
0.0
 10
14.1307678885
 20
7.7023357369
 30
0.0
 10
14.1288871443
 20
7.7024661232
 30
0.0
  0
SPLINE
  5
2D7
100
AcDbEntity
  8
0
100
AcDbSpline
 62
7
  6
CONTINUOUS
 70
0
 71
3
 72
23
 73
19
 74
0
 42
0.0000001
 43
0.0000001
 44
0.0000000001
 40
0.0
 40
0.0
 40
0.0
 40
0.0
 40
0.0879702547
 40
0.1720387707
 40
0.252227033
 40
0.328576627
 40
0.4011464305
 40
0.4700175817
 40
0.5353026847
 40
0.597145183
 40
0.655723887
 40
0.7112638297
 40
0.7640406038
 40
0.8143826993
 40
0.8626776158
 40
0.909372916
 40
0.9549673584
 40
1.0
 40
1.0
 40
1.0
 40
1.0
 10
14.3179934316
 20
9.1696050127
 30
0.0
 10
14.3165782799
 20
9.1730050287
 30
0.0
 10
14.3137165562
 20
9.1796156667
 30
0.0
 10
14.3092168914
 20
9.1891701536
 30
0.0
 10
14.3046109825
 20
9.1981305993
 30
0.0
 10
14.2999028793
 20
9.2064897838
 30
0.0
 10
14.2950962546
 20
9.2142409267
 30
0.0
 10
14.2901944791
 20
9.2213774884
 30
0.0
 10
14.2852015294
 20
9.227893906
 30
0.0
 10
14.2801210994
 20
9.2337850033
 30
0.0
 10
14.27495635
 20
9.23904552
 30
0.0
 10
14.2697107544
 20
9.2436708288
 30
0.0
 10
14.2643879286
 20
9.2476568105
 30
0.0
 10
14.2589911336
 20
9.2509988394
 30
0.0
 10
14.2535241233
 20
9.2536920276
 30
0.0
 10
14.2479914723
 20
9.2557325593
 30
0.0
 10
14.2423996649
 20
9.2571164452
 30
0.0
 10
14.2386264761
 20
9.2575999847
 30
0.0
 10
14.2367457545
 20
9.2577303694
 30
0.0
  0
SPLINE
  5
2D8
100
AcDbEntity
  8
0
100
AcDbSpline
 62
7
  6
CONTINUOUS
 70
0
 71
3
 72
23
 73
19
 74
0
 42
0.0000001
 43
0.0000001
 44
0.0000000001
 40
0.0
 40
0.0
 40
0.0
 40
0.0
 40
0.0430432041
 40
0.0864276157
 40
0.130656649
 40
0.1763288731
 40
0.2240992276
 40
0.2746265429
 40
0.3285147701
 40
0.3862610475
 40
0.4482190742
 40
0.5145822216
 40
0.585391119
 40
0.6605550141
 40
0.7398801137
 40
0.8231012882
 40
0.9099156628
 40
1.0
 40
1.0
 40
1.0
 40
1.0
 10
14.9790347995
 20
9.1182841857
 30
0.0
 10
14.979095748
 20
9.1146247553
 30
0.0
 10
14.9788750443
 20
9.107265461
 30
0.0
 10
14.9774033609
 20
9.0962333124
 30
0.0
 10
14.9746784383
 20
9.0852079401
 30
0.0
 10
14.9705937845
 20
9.0742107412
 30
0.0
 10
14.9650560242
 20
9.0632651259
 30
0.0
 10
14.9579923537
 20
9.0523949806
 30
0.0
 10
14.9493541888
 20
9.0416213129
 30
0.0
 10
14.9391195578
 20
9.030961511
 30
0.0
 10
14.9272948696
 20
9.0204294198
 30
0.0
 10
14.9139154109
 20
9.0100349421
 30
0.0
 10
14.8990421511
 20
8.9997850786
 30
0.0
 10
14.8827574134
 20
8.9896839013
 30
0.0
 10
14.8651592681
 20
8.9797324559
 30
0.0
 10
14.8463550548
 20
8.9699286673
 30
0.0
 10
14.8264556094
 20
8.9602684654
 30
0.0
 10
14.8127681331
 20
8.9540278335
 30
0.0
 10
14.805766981
 20
8.9509203151
 30
0.0
  0
SPLINE
  5
2D9
100
AcDbEntity
  8
0
100
AcDbSpline
 62
7
  6
CONTINUOUS
 70
0
 71
3
 72
21
 73
17
 74
0
 42
0.0000001
 43
0.0000001
 44
0.0000000001
 40
0.0
 40
0.0
 40
0.0
 40
0.0
 40
0.1231153359
 40
0.184837322
 40
0.2466817013
 40
0.3086598058
 40
0.3707815459
 40
0.4330548007
 40
0.4954844141
 40
0.558071395
 40
0.6208128987
 40
0.6837027994
 40
0.7467321283
 40
0.809889664
 40
0.8731630859
 40
1.0
 40
1.0
 40
1.0
 40
1.0
 10
14.7956256818
 20
8.9192730897
 30
0.0
 10
14.7992822941
 20
8.8925123346
 30
0.0
 10
14.8037753343
 20
8.8521847306
 30
0.0
 10
14.8073569648
 20
8.7981787039
 30
0.0
 10
14.8087368165
 20
8.7574887877
 30
0.0
 10
14.8087069559
 20
8.7166872328
 30
0.0
 10
14.8071813579
 20
8.6758190347
 30
0.0
 10
14.8040948366
 20
8.6349390678
 30
0.0
 10
14.7994087966
 20
8.5941083861
 30
0.0
 10
14.7931152557
 20
8.5533905452
 30
0.0
 10
14.7852393308
 20
8.5128465744
 30
0.0
 10
14.7758354098
 20
8.4725306314
 30
0.0
 10
14.7649821654
 20
8.4324870061
 30
0.0
 10
14.752776058
 20
8.3927474777
 30
0.0
 10
14.7348286181
 20
8.340156435
 30
0.0
 10
14.7196864262
 20
8.3012688543
 30
0.0
 10
14.7089917726
 20
8.2755802662
 30
0.0
  0
SPLINE
  5
2DA
100
AcDbEntity
  8
0
100
AcDbSpline
 62
7
  6
CONTINUOUS
 70
0
 71
3
 72
23
 73
19
 74
0
 42
0.0000001
 43
0.0000001
 44
0.0000000001
 40
0.0
 40
0.0
 40
0.0
 40
0.0
 40
0.0681436223
 40
0.1355717925
 40
0.2022246133
 40
0.2680530577
 40
0.3330188589
 40
0.3971018651
 40
0.4603047619
 40
0.5226553367
 40
0.5842062484
 40
0.6450322154
 40
0.7052236803
 40
0.7648789131
 40
0.8240963959
 40
0.8829688942
 40
0.9415804852
 40
1.0
 40
1.0
 40
1.0
 40
1.0
 10
14.7089917726
 20
8.2318773022
 30
0.0
 10
14.7143204689
 20
8.2219746033
 30
0.0
 10
14.7246721921
 20
8.2021372295
 30
0.0
 10
14.7392555427
 20
8.17211472
 30
0.0
 10
14.752707829
 20
8.1419850327
 30
0.0
 10
14.764917561
 20
8.1117671714
 30
0.0
 10
14.7757771188
 20
8.0814868276
 30
0.0
 10
14.7851896383
 20
8.0511778011
 30
0.0
 10
14.7930758412
 20
8.020880705
 30
0.0
 10
14.7993803393
 20
7.9906411309
 30
0.0
 10
14.8040768623
 20
7.9605068653
 30
0.0
 10
14.8071723211
 20
7.9305245025
 30
0.0
 10
14.8087046511
 20
7.9007355226
 30
0.0
 10
14.8087388173
 20
7.8711735703
 30
0.0
 10
14.8073611456
 20
7.8418629092
 30
0.0
 10
14.8046726968
 20
7.8128175759
 30
0.0
 10
14.8007814573
 20
7.7840434699
 30
0.0
 10
14.7974536492
 20
7.76501412
 30
0.0
 10
14.7956256818
 20
7.7555483494
 30
0.0
  0
SPLINE
  5
2DB
100
AcDbEntity
  8
0
100
AcDbSpline
 62
7
  6
CONTINUOUS
 70
0
 71
3
 72
29
 73
25
 74
0
 42
0.0000001
 43
0.0000001
 44
0.0000000001
 40
0.0
 40
0.0
 40
0.0
 40
0.0
 40
0.0844109308
 40
0.167021196
 40
0.2475180268
 40
0.3256369966
 40
0.401116176
 40
0.4737019132
 40
0.5431596849
 40
0.6092721542
 40
0.6718401978
 40
0.7306888572
 40
0.7586717622
 40
0.7856716262
 40
0.8116742211
 40
0.8366682477
 40
0.8606452028
 40
0.8835986256
 40
0.9055261083
 40
0.9264302219
 40
0.9463170845
 40
0.9651968369
 40
0.9830842384
 40
1.0
 40
1.0
 40
1.0
 40
1.0
 10
14.0387236004
 20
8.2783605578
 30
0.0
 10
14.0388424001
 20
8.2645869388
 30
0.0
 10
14.0393035535
 20
8.2373348546
 30
0.0
 10
14.0406890928
 20
8.1969667252
 30
0.0
 10
14.0427572025
 20
8.1576556171
 30
0.0
 10
14.0454995472
 20
8.1195521692
 30
0.0
 10
14.048905215
 20
8.0827982644
 30
0.0
 10
14.0529615617
 20
8.0475324068
 30
0.0
 10
14.0576527232
 20
8.013887553
 30
0.0
 10
14.0629603643
 20
7.98198982
 30
0.0
 10
14.0688646048
 20
7.9519591892
 30
0.0
 10
14.0743504516
 20
7.9281997256
 30
0.0
 10
14.0790438491
 20
7.9102264217
 30
0.0
 10
14.0826393101
 20
7.8975087699
 30
0.0
 10
14.0863662087
 20
7.885338122
 30
0.0
 10
14.0902210074
 20
7.8737258711
 30
0.0
 10
14.0941997745
 20
7.8626828284
 30
0.0
 10
14.0982989463
 20
7.852219385
 30
0.0
 10
14.1025148684
 20
7.8423452103
 30
0.0
 10
14.1068435328
 20
7.833069059
 30
0.0
 10
14.1112812384
 20
7.8243994116
 30
0.0
 10
14.1158241193
 20
7.816344549
 30
0.0
 10
14.1204669145
 20
7.8089125738
 30
0.0
 10
14.1237149821
 20
7.8042500251
 30
0.0
 10
14.1253575096
 20
7.802031605
 30
0.0
  0
SPLINE
  5
2DC
100
AcDbEntity
  8
0
100
AcDbSpline
 62
7
  6
CONTINUOUS
 70
0
 71
3
 72
37
 73
33
 74
0
 42
0.0000001
 43
0.0000001
 44
0.0000000001
 40
0.0
 40
0.0
 40
0.0
 40
0.0
 40
0.0242160064
 40
0.0471276776
 40
0.0688728694
 40
0.0896181497
 40
0.1095643177
 40
0.1289412712
 40
0.1480010561
 40
0.1670091283
 40
0.1862325832
 40
0.2059292153
 40
0.2263374353
 40
0.2476687588
 40
0.2701059695
 40
0.2938027283
 40
0.3188839929
 40
0.3454511185
 40
0.3735850406
 40
0.4033469108
 40
0.4347832022
 40
0.4679286948
 40
0.5028057521
 40
0.5394275751
 40
0.5778008267
 40
0.6179236654
 40
0.6597872747
 40
0.7033790872
 40
0.7486826578
 40
0.7956778314
 40
0.8946424786
 40
1.0
 40
1.0
 40
1.0
 40
1.0
 10
14.3087666273
 20
9.1647674414
 30
0.0
 10
14.3071566101
 20
9.1664302626
 30
0.0
 10
14.3039095085
 20
9.169559343
 30
0.0
 10
14.2988145118
 20
9.1737394517
 30
0.0
 10
14.2936408835
 20
9.1772643621
 30
0.0
 10
14.2883928293
 20
9.1801274325
 30
0.0
 10
14.2830752789
 20
9.182323685
 30
0.0
 10
14.2776939319
 20
9.1838487975
 30
0.0
 10
14.2722555669
 20
9.1846984672
 30
0.0
 10
14.2667685096
 20
9.1848707811
 30
0.0
 10
14.2612413336
 20
9.1843663216
 30
0.0
 10
14.2556821012
 20
9.1831866849
 30
0.0
 10
14.2500978112
 20
9.1813354103
 30
0.0
 10
14.244493835
 20
9.1788174725
 30
0.0
 10
14.2388749183
 20
9.175636995
 30
0.0
 10
14.2332455209
 20
9.1717981386
 30
0.0
 10
14.227609474
 20
9.1673058396
 30
0.0
 10
14.2219710857
 20
9.1621645098
 30
0.0
 10
14.21633512
 20
9.156378728
 30
0.0
 10
14.2107058815
 20
9.149954213
 30
0.0
 10
14.2050881487
 20
9.142896819
 30
0.0
 10
14.1994871772
 20
9.1352127
 30
0.0
 10
14.1939077558
 20
9.126909052
 30
0.0
 10
14.1883548404
 20
9.1179935363
 30
0.0
 10
14.1828338502
 20
9.1084741617
 30
0.0
 10
14.1773498399
 20
9.0983598991
 30
0.0
 10
14.1719077737
 20
9.0876604279
 30
0.0
 10
14.1665129887
 20
9.0763856542
 30
0.0
 10
14.1611704771
 20
9.0645458675
 30
0.0
 10
14.153999149
 20
9.0477291782
 30
0.0
 10
14.1452295558
 20
9.0253603849
 30
0.0
 10
14.1387173328
 20
9.0069453648
 30
0.0
 10
14.1354988087
 20
8.9974035707
 30
0.0
  0
SPLINE
  5
2DD
100
AcDbEntity
  8
0
100
AcDbSpline
 62
7
  6
CONTINUOUS
 70
0
 71
3
 72
21
 73
17
 74
0
 42
0.0000001
 43
0.0000001
 44
0.0000000001
 40
0.0
 40
0.0
 40
0.0
 40
0.0
 40
0.0721750434
 40
0.1408704233
 40
0.2690156223
 40
0.3293895806
 40
0.3879136836
 40
0.4451490293
 40
0.5016982119
 40
0.5581866935
 40
0.6152406903
 40
0.6734670847
 40
0.733434797
 40
0.8604758414
 40
0.9285177531
 40
1.0
 40
1.0
 40
1.0
 40
1.0
 10
14.1354988087
 20
7.7899758663
 30
0.0
 10
14.1369336382
 20
7.7884939784
 30
0.0
 10
14.1398251362
 20
7.7856867662
 30
0.0
 10
14.1457047398
 20
7.7807279771
 30
0.0
 10
14.1518588514
 20
7.7766303611
 30
0.0
 10
14.1582359098
 20
7.7735783118
 30
0.0
 10
14.1629770722
 20
7.7718608205
 30
0.0
 10
14.1677657098
 20
7.7706732368
 30
0.0
 10
14.1725974136
 20
7.7700178334
 30
0.0
 10
14.1774666618
 20
7.7698954233
 30
0.0
 10
14.1823678819
 20
7.7703055985
 30
0.0
 10
14.1872961765
 20
7.7712476567
 30
0.0
 10
14.194023401
 20
7.7732478003
 30
0.0
 10
14.2006825399
 20
7.7763176788
 30
0.0
 10
14.2071898569
 20
7.7802856123
 30
0.0
 10
14.2104410244
 20
7.7826015008
 30
0.0
 10
14.2120667943
 20
7.7838385582
 30
0.0
  0
SPLINE
  5
2DE
100
AcDbEntity
  8
0
100
AcDbSpline
 62
7
  6
CONTINUOUS
 70
0
 71
3
 72
11
 73
7
 74
0
 42
0.0000001
 43
0.0000001
 44
0.0000000001
 40
0.0
 40
0.0
 40
0.0
 40
0.0
 40
0.2707423955
 40
0.5275743428
 40
0.7705940619
 40
1.0
 40
1.0
 40
1.0
 40
1.0
 10
15.0495539324
 20
8.9758615379
 30
0.0
 10
15.0482576264
 20
8.9789761184
 30
0.0
 10
15.045632606
 20
8.985004797
 30
0.0
 10
15.0414754495
 20
8.9936628513
 30
0.0
 10
15.0372067223
 20
9.0016877055
 30
0.0
 10
15.0342040129
 20
9.0067542224
 30
0.0
 10
15.0326814893
 20
9.0091735145
 30
0.0
  0
SPLINE
  5
2DF
100
AcDbEntity
  8
0
100
AcDbSpline
 62
7
  6
CONTINUOUS
 70
0
 71
3
 72
55
 73
51
 74
0
 42
0.0000001
 43
0.0000001
 44
0.0000000001
 40
0.0
 40
0.0
 40
0.0
 40
0.0
 40
0.0091577868
 40
0.0177618445
 40
0.0258372884
 40
0.0334170679
 40
0.0405430748
 40
0.0472684852
 40
0.0536583613
 40
0.0597898466
 40
0.0657516837
 40
0.0716409717
 40
0.0775587123
 40
0.0836043685
 40
0.0898706698
 40
0.0964402932
 40
0.0998623988
 40
0.1033856202
 40
0.1107605558
 40
0.1186142058
 40
0.126983132
 40
0.1358954139
 40
0.14537248
 40
0.1554292655
 40
0.1660758699
 40
0.1773187873
 40
0.1891604404
 40
0.2016004246
 40
0.2146363091
 40
0.2282628502
 40
0.2424730097
 40
0.257258518
 40
0.2726089663
 40
0.3049559727
 40
0.3394089097
 40
0.3758441812
 40
0.4141231893
 40
0.4540951793
 40
0.4955985596
 40
0.5384619526
 40
0.5825062071
 40
0.6275453385
 40
0.6733874576
 40
0.7198363195
 40
0.7666923239
 40
0.8137540635
 40
0.8608176619
 40
0.9076794905
 40
0.9541447315
 40
1.0
 40
1.0
 40
1.0
 40
1.0
 10
15.0326814893
 20
9.0091735145
 30
0.0
 10
15.0312293027
 20
9.0114810411
 30
0.0
 10
15.0282979813
 20
9.0158861134
 30
0.0
 10
15.0236604534
 20
9.0220294239
 30
0.0
 10
15.0189264002
 20
9.027492259
 30
0.0
 10
15.0141002893
 20
9.0322683921
 30
0.0
 10
15.0091854536
 20
9.036351379
 30
0.0
 10
15.0041859922
 20
9.0397353399
 30
0.0
 10
14.9991063042
 20
9.0424143169
 30
0.0
 10
14.9939514195
 20
9.0443809289
 30
0.0
 10
14.9887289934
 20
9.0456293022
 30
0.0
 10
14.9834485488
 20
9.0461553258
 30
0.0
 10
14.9781209707
 20
9.0459565747
 30
0.0
 10
14.9727570003
 20
9.0450354664
 30
0.0
 10
14.967365792
 20
9.0433968746
 30
0.0
 10
14.9629170651
 20
9.0414638428
 30
0.0
 10
14.9593587059
 20
9.0395828439
 30
0.0
 10
14.9556897291
 20
9.0374083368
 30
0.0
 10
14.9510911297
 20
9.0342292704
 30
0.0
 10
14.9456496401
 20
9.0297753132
 30
0.0
 10
14.940207144
 20
9.0246313044
 30
0.0
 10
14.934768974
 20
9.018803472
 30
0.0
 10
14.9293408174
 20
9.0122978274
 30
0.0
 10
14.9239280213
 20
9.0051218452
 30
0.0
 10
14.9185362619
 20
8.9972834769
 30
0.0
 10
14.9131718516
 20
8.9887911618
 30
0.0
 10
14.9078404757
 20
8.9796545891
 30
0.0
 10
14.9025480578
 20
8.9698840567
 30
0.0
 10
14.8973009748
 20
8.959490409
 30
0.0
 10
14.8921049423
 20
8.948485574
 30
0.0
 10
14.8869658606
 20
8.9368820924
 30
0.0
 10
14.881889898
 20
8.9246930382
 30
0.0
 10
14.8750946336
 20
8.9073750141
 30
0.0
 10
14.866828279
 20
8.8843503105
 30
0.0
 10
14.8574144553
 20
8.855087319
 30
0.0
 10
14.8483850063
 20
8.8238610528
 30
0.0
 10
14.8397815405
 20
8.7908146333
 30
0.0
 10
14.8316441254
 20
8.7560991471
 30
0.0
 10
14.824010704
 20
8.7198737112
 30
0.0
 10
14.816916439
 20
8.6823045734
 30
0.0
 10
14.8103942506
 20
8.6435642231
 30
0.0
 10
14.8044745068
 20
8.6038305739
 30
0.0
 10
14.7991843787
 20
8.5632862523
 30
0.0
 10
14.7945483426
 20
8.5221176413
 30
0.0
 10
14.7905879453
 20
8.4805138443
 30
0.0
 10
14.7873213405
 20
8.4386662779
 30
0.0
 10
14.7847635017
 20
8.3967676905
 30
0.0
 10
14.7829261847
 20
8.355009022
 30
0.0
 10
14.7818181753
 20
8.3135846057
 30
0.0
 10
14.7815665183
 20
8.2860984304
 30
0.0
 10
14.7815665183
 20
8.2724464357
 30
0.0
  0
SPLINE
  5
2E0
100
AcDbEntity
  8
0
100
AcDbSpline
 62
7
  6
CONTINUOUS
 70
0
 71
3
 72
37
 73
33
 74
0
 42
0.0000001
 43
0.0000001
 44
0.0000000001
 40
0.0
 40
0.0
 40
0.0
 40
0.0
 40
0.0063161058
 40
0.0126711378
 40
0.0191032437
 40
0.0256490428
 40
0.0392092754
 40
0.0536077755
 40
0.0690450541
 40
0.0856786812
 40
0.1036273253
 40
0.1229775466
 40
0.1437909472
 40
0.1661071032
 40
0.1899504634
 40
0.2153308692
 40
0.2422476215
 40
0.2706911411
 40
0.3006430285
 40
0.3320796323
 40
0.3649700317
 40
0.399279162
 40
0.4349670666
 40
0.4719892306
 40
0.5102983916
 40
0.549842539
 40
0.5905676834
 40
0.6324164775
 40
0.7192416165
 40
0.8098093508
 40
0.9035887078
 40
1.0
 40
1.0
 40
1.0
 40
1.0
 10
14.1288871443
 20
7.7024661232
 30
0.0
 10
14.127569644
 20
7.7025574615
 30
0.0
 10
14.124932738
 20
7.7028485332
 30
0.0
 10
14.1210069866
 20
7.7036074926
 30
0.0
 10
14.1171073854
 20
7.7046887153
 30
0.0
 10
14.1118857333
 20
7.7065800807
 30
0.0
 10
14.1053972735
 20
7.7097952446
 30
0.0
 10
14.0978568106
 20
7.7148832277
 30
0.0
 10
14.0904737017
 20
7.7212292942
 30
0.0
 10
14.083256695
 20
7.7288197773
 30
0.0
 10
14.0762121003
 20
7.7376409908
 30
0.0
 10
14.069347787
 20
7.7476788367
 30
0.0
 10
14.062673359
 20
7.7589182654
 30
0.0
 10
14.0561973664
 20
7.7713415523
 30
0.0
 10
14.0499304607
 20
7.7849297216
 30
0.0
 10
14.043881876
 20
7.7996610977
 30
0.0
 10
14.0380614669
 20
7.8155122561
 30
0.0
 10
14.0324790092
 20
7.8324577132
 30
0.0
 10
14.0271430689
 20
7.8504699288
 30
0.0
 10
14.0220632101
 20
7.8695196846
 30
0.0
 10
14.0172472118
 20
7.8895757828
 30
0.0
 10
14.0127034605
 20
7.910605426
 30
0.0
 10
14.0084394864
 20
7.9325740969
 30
0.0
 10
14.0044620998
 20
7.9554457143
 30
0.0
 10
14.0007784534
 20
7.9791826536
 30
0.0
 10
13.9973941086
 20
8.003745814
 30
0.0
 10
13.9943151167
 20
8.0290947815
 30
0.0
 10
13.990577785
 20
8.0643186004
 30
0.0
 10
13.9867354427
 20
8.1100059082
 30
0.0
 10
13.9834617452
 20
8.1666177181
 30
0.0
 10
13.9814943325
 20
8.2252949845
 30
0.0
 10
13.9810671702
 20
8.2650643309
 30
0.0
 10
13.9810671702
 20
8.2852233956
 30
0.0
  0
SPLINE
  5
2E1
100
AcDbEntity
  8
0
100
AcDbSpline
 62
7
  6
CONTINUOUS
 70
0
 71
3
 72
55
 73
51
 74
0
 42
0.0000001
 43
0.0000001
 44
0.0000000001
 40
0.0
 40
0.0
 40
0.0
 40
0.0
 40
0.0544796836
 40
0.1080730038
 40
0.1606188057
 40
0.2119841062
 40
0.2620411187
 40
0.3106614428
 40
0.3577215751
 40
0.4031061635
 40
0.4467061545
 40
0.4884199557
 40
0.5281545703
 40
0.5658265035
 40
0.6013637281
 40
0.6347062423
 40
0.6658099984
 40
0.694647824
 40
0.7082163713
 40
0.7212192512
 40
0.7336600645
 40
0.7455452452
 40
0.7568838525
 40
0.7676875652
 40
0.7779714304
 40
0.7877550967
 40
0.7970627058
 40
0.8059233995
 40
0.8143724103
 40
0.8224520268
 40
0.8302114288
 40
0.8377068764
 40
0.8450017153
 40
0.8521653036
 40
0.8592710663
 40
0.8663944188
 40
0.8736102248
 40
0.8809901605
 40
0.888600879
 40
0.8965027645
 40
0.9047487914
 40
0.9133845833
 40
0.92244909
 40
0.9319750597
 40
0.9419890353
 40
0.9525126212
 40
0.9635634308
 40
0.9751553269
 40
0.9872983602
 40
1.0
 40
1.0
 40
1.0
 40
1.0
 10
14.7815665183
 20
8.2724464357
 30
0.0
 10
14.7815665183
 20
8.2618814708
 30
0.0
 10
14.7817151829
 20
8.2409230936
 30
0.0
 10
14.7823936873
 20
8.209781395
 30
0.0
 10
14.7835250053
 20
8.1792570829
 30
0.0
 10
14.7851052682
 20
8.1494393688
 30
0.0
 10
14.7871301664
 20
8.120411487
 30
0.0
 10
14.7895935361
 20
8.0922553705
 30
0.0
 10
14.7924886597
 20
8.0650512588
 30
0.0
 10
14.7958068444
 20
8.0388763861
 30
0.0
 10
14.7995386814
 20
8.0138047881
 30
0.0
 10
14.8036733125
 20
7.9899073848
 30
0.0
 10
14.808198783
 20
7.9672517197
 30
0.0
 10
14.8131021536
 20
7.9459016223
 30
0.0
 10
14.8183690424
 20
7.9259170782
 30
0.0
 10
14.8239847291
 20
7.9073537546
 30
0.0
 10
14.8299327171
 20
7.890263602
 30
0.0
 10
14.8352556412
 20
7.8770315251
 30
0.0
 10
14.839687917
 20
7.8672414966
 30
0.0
 10
14.8430169928
 20
7.86044644
 30
0.0
 10
14.8464165181
 20
7.8540536944
 30
0.0
 10
14.8498841172
 20
7.8480676022
 30
0.0
 10
14.853417335
 20
7.842492169
 30
0.0
 10
14.8570138843
 20
7.8373312892
 30
0.0
 10
14.8606716829
 20
7.832588732
 30
0.0
 10
14.8643882412
 20
7.8282676174
 30
0.0
 10
14.8681612602
 20
7.8243708794
 30
0.0
 10
14.8719886415
 20
7.8209015165
 30
0.0
 10
14.875868365
 20
7.817862505
 30
0.0
 10
14.8797979843
 20
7.8152562004
 30
0.0
 10
14.8837751435
 20
7.8130851132
 30
0.0
 10
14.8877973442
 20
7.8113520946
 30
0.0
 10
14.8918615117
 20
7.8100597196
 30
0.0
 10
14.8959639056
 20
7.8092096282
 30
0.0
 10
14.9001004882
 20
7.8088032077
 30
0.0
 10
14.904266887
 20
7.8088414577
 30
0.0
 10
14.9084586363
 20
7.8093238993
 30
0.0
 10
14.9126716851
 20
7.8102489822
 30
0.0
 10
14.9169024497
 20
7.8116150336
 30
0.0
 10
14.9211476147
 20
7.8134203716
 30
0.0
 10
14.9254044226
 20
7.8156624695
 30
0.0
 10
14.9296703444
 20
7.8183388495
 30
0.0
 10
14.9339428184
 20
7.8214473002
 30
0.0
 10
14.9382191094
 20
7.8249856178
 30
0.0
 10
14.9424968015
 20
7.8289508894
 30
0.0
 10
14.9467732624
 20
7.8333402244
 30
0.0
 10
14.9510456633
 20
7.8381507131
 30
0.0
 10
14.9553110766
 20
7.8433791638
 30
0.0
 10
14.9595668009
 20
7.8490216548
 30
0.0
 10
14.9623330908
 20
7.8529676384
 30
0.0
 10
14.9637154372
 20
7.8550063375
 30
0.0
  0
SPLINE
  5
2E2
100
AcDbEntity
  8
0
100
AcDbSpline
 62
7
  6
CONTINUOUS
 70
0
 71
3
 72
9
 73
5
 74
0
 42
0.0000001
 43
0.0000001
 44
0.0000000001
 40
0.0
 40
0.0
 40
0.0
 40
0.0
 40
0.2415810799
 40
1.0
 40
1.0
 40
1.0
 40
1.0
 10
14.9637154372
 20
7.8550063375
 30
0.0
 10
14.964486452
 20
7.8561434382
 30
0.0
 10
14.9676369335
 20
7.8608781379
 30
0.0
 10
14.9706283842
 20
7.8657179844
 30
0.0
 10
14.97281952
 20
7.8694330074
 30
0.0
  0
SPLINE
  5
2E3
100
AcDbEntity
  8
0
100
AcDbSpline
 62
7
  6
CONTINUOUS
 70
0
 71
3
 72
48
 73
44
 74
0
 42
0.0000001
 43
0.0000001
 44
0.0000000001
 40
0.0
 40
0.0
 40
0.0
 40
0.0
 40
0.0053769687
 40
0.0108200173
 40
0.0163927233
 40
0.0221539786
 40
0.0281563765
 40
0.0344458485
 40
0.041061621
 40
0.0480361
 40
0.055395926
 40
0.063162886
 40
0.0713540501
 40
0.0799824939
 40
0.0890583737
 40
0.0985891074
 40
0.1085792771
 40
0.1190316545
 40
0.1299475178
 40
0.1413261599
 40
0.153165471
 40
0.1654624895
 40
0.1782130527
 40
0.1914116601
 40
0.2191270145
 40
0.2485513502
 40
0.2796151531
 40
0.3122388146
 40
0.3463350437
 40
0.3818084318
 40
0.4185575649
 40
0.4564749463
 40
0.4954478721
 40
0.535359436
 40
0.5760883781
 40
0.6175104986
 40
0.6594984787
 40
0.744649988
 40
0.8304924563
 40
0.8733398395
 40
0.9159613744
 40
0.9582295888
 40
1.0
 40
1.0
 40
1.0
 40
1.0
 10
14.2367457545
 20
9.2577303694
 30
0.0
 10
14.2348784342
 20
9.2578598251
 30
0.0
 10
14.2311022485
 20
9.257902885
 30
0.0
 10
14.2254144682
 20
9.2573160463
 30
0.0
 10
14.2196949153
 20
9.2560796097
 30
0.0
 10
14.2139506327
 20
9.2541964986
 30
0.0
 10
14.2081861982
 20
9.2516709058
 30
0.0
 10
14.2024060381
 20
9.2485063849
 30
0.0
 10
14.1966143803
 20
9.2447063419
 30
0.0
 10
14.1908148469
 20
9.2402751433
 30
0.0
 10
14.1850112943
 20
9.2352168391
 30
0.0
 10
14.1792080489
 20
9.2295353571
 30
0.0
 10
14.1734092309
 20
9.2232354792
 30
0.0
 10
14.1676189629
 20
9.2163225103
 30
0.0
 10
14.1618418331
 20
9.208801806
 30
0.0
 10
14.1560825539
 20
9.2006792611
 30
0.0
 10
14.1503454072
 20
9.1919616803
 30
0.0
 10
14.1446350282
 20
9.1826560829
 30
0.0
 10
14.1389563207
 20
9.1727698172
 30
0.0
 10
14.1333137443
 20
9.1623110658
 30
0.0
 10
14.1277118101
 20
9.1512884711
 30
0.0
 10
14.1221553215
 20
9.1397109221
 30
0.0
 10
14.1166488742
 20
9.1275878688
 30
0.0
 10
14.1092587823
 20
9.1104292162
 30
0.0
 10
14.1002035828
 20
9.0876734665
 30
0.0
 10
14.0897764318
 20
9.0587884305
 30
0.0
 10
14.0796538021
 20
9.0279916842
 30
0.0
 10
14.0698688975
 20
8.9953847803
 30
0.0
 10
14.0604549464
 20
8.9610747828
 30
0.0
 10
14.0514428175
 20
8.9251748312
 30
0.0
 10
14.0428628415
 20
8.8878033235
 30
0.0
 10
14.0347435714
 20
8.8490836434
 30
0.0
 10
14.0271118013
 20
8.8091437352
 30
0.0
 10
14.0199933391
 20
8.7681155634
 30
0.0
 10
14.0134114033
 20
8.7261348113
 30
0.0
 10
14.0073881615
 20
8.6833401945
 30
0.0
 10
14.0000951446
 20
8.6251144796
 30
0.0
 10
13.9925255488
 20
8.5513483866
 30
0.0
 10
13.9870583464
 20
8.4770972073
 30
0.0
 10
13.9839616917
 20
8.4175399047
 30
0.0
 10
13.9822969182
 20
8.3731022238
 30
0.0
 10
13.9812942316
 20
8.32901984
 30
0.0
 10
13.9810671702
 20
8.2997642933
 30
0.0
 10
13.9810671702
 20
8.2852233956
 30
0.0
  0
SPLINE
  5
2E4
100
AcDbEntity
  8
0
100
AcDbSpline
 62
7
  6
CONTINUOUS
 70
0
 71
3
 72
9
 73
5
 74
0
 42
0.0000001
 43
0.0000001
 44
0.0000000001
 40
0.0
 40
0.0
 40
0.0
 40
0.0
 40
0.4850642138
 40
1.0
 40
1.0
 40
1.0
 40
1.0
 10
14.1354988087
 20
7.7899758663
 30
0.0
 10
14.1337259794
 20
7.7918068395
 30
0.0
 10
14.1302141598
 20
7.7957216185
 30
0.0
 10
14.1269674579
 20
7.799857187
 30
0.0
 10
14.1253575096
 20
7.802031605
 30
0.0
  0
SPLINE
  5
2E5
100
AcDbEntity
  8
0
100
AcDbSpline
 62
7
  6
CONTINUOUS
 70
0
 71
3
 72
9
 73
5
 74
0
 42
0.0000001
 43
0.0000001
 44
0.0000000001
 40
0.0
 40
0.0
 40
0.0
 40
0.0
 40
0.5149357862
 40
1.0
 40
1.0
 40
1.0
 40
1.0
 10
14.7956256818
 20
7.7555483494
 30
0.0
 10
14.7972356301
 20
7.7533739314
 30
0.0
 10
14.800482332
 20
7.7492383629
 30
0.0
 10
14.8039941516
 20
7.7453235839
 30
0.0
 10
14.805766981
 20
7.7434926107
 30
0.0
  0
SPLINE
  5
2E6
100
AcDbEntity
  8
0
100
AcDbSpline
 62
7
  6
CONTINUOUS
 70
0
 71
3
 72
23
 73
19
 74
0
 42
0.0000001
 43
0.0000001
 44
0.0000000001
 40
0.0
 40
0.0
 40
0.0
 40
0.0
 40
0.0517124017
 40
0.105817437
 40
0.1621248898
 40
0.2204554779
 40
0.2806133097
 40
0.342391697
 40
0.4055775525
 40
0.4699511935
 40
0.5352873143
 40
0.6013557937
 40
0.6679239017
 40
0.7347566859
 40
0.801615562
 40
0.8682649978
 40
0.9344779167
 40
1.0
 40
1.0
 40
1.0
 40
1.0
 10
14.1253575096
 20
8.9657563453
 30
0.0
 10
14.1220848697
 20
8.955014018
 30
0.0
 10
14.1156909521
 20
8.9329392194
 30
0.0
 10
14.106723797
 20
8.8988904961
 30
0.0
 10
14.0981891352
 20
8.8632513116
 30
0.0
 10
14.090119629
 20
8.82615801
 30
0.0
 10
14.0825452837
 20
8.7877489673
 30
0.0
 10
14.0754953873
 20
8.7481689841
 30
0.0
 10
14.0689965212
 20
8.7075675212
 30
0.0
 10
14.0630732074
 20
8.6660976345
 30
0.0
 10
14.0577482307
 20
8.6239157351
 30
0.0
 10
14.0530414352
 20
8.5811809916
 30
0.0
 10
14.048970765
 20
8.5380545397
 30
0.0
 10
14.0455518237
 20
8.4946993762
 30
0.0
 10
14.0427970943
 20
8.4512792626
 30
0.0
 10
14.0407172066
 20
8.4079563072
 30
0.0
 10
14.0393203245
 20
8.3648964881
 30
0.0
 10
14.0388443091
 20
8.3362916668
 30
0.0
 10
14.0387236004
 20
8.3220635219
 30
0.0
  0
SPLINE
  5
2E7
100
AcDbEntity
  8
0
100
AcDbSpline
 62
7
  6
CONTINUOUS
 70
0
 71
3
 72
15
 73
11
 74
0
 42
0.0000001
 43
0.0000001
 44
0.0000000001
 40
0.0
 40
0.0
 40
0.0
 40
0.0
 40
0.127348315
 40
0.2538606239
 40
0.3795878599
 40
0.5046051181
 40
0.6290174391
 40
0.7529533757
 40
0.8765605793
 40
1.0
 40
1.0
 40
1.0
 40
1.0
 10
9.413420434
 20
9.5173635146
 30
0.0
 10
9.413420434
 20
9.5108651486
 30
0.0
 10
9.4127999686
 20
9.4979020928
 30
0.0
 10
9.4099939961
 20
9.4787068331
 30
0.0
 10
9.4053412157
 20
9.4599938764
 30
0.0
 10
9.3988836665
 20
9.4419382244
 30
0.0
 10
9.3906805527
 20
9.4247064007
 30
0.0
 10
9.3808066975
 20
9.4084575116
 30
0.0
 10
9.3693549434
 20
9.3933437937
 30
0.0
 10
9.3607323527
 20
9.3841114675
 30
0.0
 10
9.3562018427
 20
9.3797353228
 30
0.0
  0
SPLINE
  5
2E8
100
AcDbEntity
  8
0
100
AcDbSpline
 62
7
  6
CONTINUOUS
 70
0
 71
3
 72
15
 73
11
 74
0
 42
0.0000001
 43
0.0000001
 44
0.0000000001
 40
0.0
 40
0.0
 40
0.0
 40
0.0
 40
0.127348315
 40
0.2538606239
 40
0.3795878599
 40
0.5046051181
 40
0.6290174391
 40
0.7529533757
 40
0.8765605793
 40
1.0
 40
1.0
 40
1.0
 40
1.0
 10
13.2771241984
 20
9.2494147484
 30
0.0
 10
13.2771241984
 20
9.2429163825
 30
0.0
 10
13.276503733
 20
9.2299533267
 30
0.0
 10
13.2736977605
 20
9.210758067
 30
0.0
 10
13.2690449801
 20
9.1920451102
 30
0.0
 10
13.2625874309
 20
9.1739894583
 30
0.0
 10
13.2543843171
 20
9.1567576346
 30
0.0
 10
13.2445104619
 20
9.1405087455
 30
0.0
 10
13.2330587078
 20
9.1253950276
 30
0.0
 10
13.2244361171
 20
9.1161627013
 30
0.0
 10
13.2199056071
 20
9.1117865566
 30
0.0
  0
SPLINE
  5
2E9
100
AcDbEntity
  8
0
100
AcDbSpline
 62
7
  6
CONTINUOUS
 70
0
 71
3
 72
15
 73
11
 74
0
 42
0.0000001
 43
0.0000001
 44
0.0000000001
 40
0.0
 40
0.0
 40
0.0
 40
0.0
 40
0.127348315
 40
0.2538606239
 40
0.3795878599
 40
0.5046051181
 40
0.6290174391
 40
0.7529533757
 40
0.8765605793
 40
1.0
 40
1.0
 40
1.0
 40
1.0
 10
9.413420434
 20
6.8610673349
 30
0.0
 10
9.413420434
 20
6.8545689689
 30
0.0
 10
9.4127999686
 20
6.8416059132
 30
0.0
 10
9.4099939961
 20
6.8224106534
 30
0.0
 10
9.4053412157
 20
6.8036976967
 30
0.0
 10
9.3988836665
 20
6.7856420447
 30
0.0
 10
9.3906805527
 20
6.7684102211
 30
0.0
 10
9.3808066975
 20
6.7521613319
 30
0.0
 10
9.3693549434
 20
6.737047614
 30
0.0
 10
9.3607323527
 20
6.7278152878
 30
0.0
 10
9.3562018427
 20
6.7234391431
 30
0.0
  0
SPLINE
  5
2EA
100
AcDbEntity
  8
0
100
AcDbSpline
 62
7
  6
CONTINUOUS
 70
0
 71
3
 72
15
 73
11
 74
0
 42
0.0000001
 43
0.0000001
 44
0.0000000001
 40
0.0
 40
0.0
 40
0.0
 40
0.0
 40
0.127348315
 40
0.2538606239
 40
0.3795878599
 40
0.5046051181
 40
0.6290174391
 40
0.7529533757
 40
0.8765605793
 40
1.0
 40
1.0
 40
1.0
 40
1.0
 10
13.2771241984
 20
6.5931185687
 30
0.0
 10
13.2771241984
 20
6.5866202028
 30
0.0
 10
13.276503733
 20
6.573657147
 30
0.0
 10
13.2736977605
 20
6.5544618873
 30
0.0
 10
13.2690449801
 20
6.5357489306
 30
0.0
 10
13.2625874309
 20
6.5176932786
 30
0.0
 10
13.2543843171
 20
6.5004614549
 30
0.0
 10
13.2445104619
 20
6.4842125658
 30
0.0
 10
13.2330587078
 20
6.4690988479
 30
0.0
 10
13.2244361171
 20
6.4598665216
 30
0.0
 10
13.2199056071
 20
6.4554903769
 30
0.0
  0
SPLINE
  5
2EB
100
AcDbEntity
  8
0
100
AcDbSpline
 62
7
  6
CONTINUOUS
 70
0
 71
3
 72
15
 73
11
 74
0
 42
0.0000001
 43
0.0000001
 44
0.0000000001
 40
0.0
 40
0.0
 40
0.0
 40
0.0
 40
0.1273482228
 40
0.253860527
 40
0.3795879206
 40
0.5046050801
 40
0.6290174363
 40
0.7529533709
 40
0.8765605784
 40
1.0
 40
1.0
 40
1.0
 40
1.0
 10
10.6435271443
 20
9.4929086489
 30
0.0
 10
10.6435271443
 20
9.4885815545
 30
0.0
 10
10.6431139979
 20
9.4799497865
 30
0.0
 10
10.6412455736
 20
9.4671681462
 30
0.0
 10
10.6381474094
 20
9.454707658
 30
0.0
 10
10.6338474828
 20
9.4426848561
 30
0.0
 10
10.6283852731
 20
9.4312106069
 30
0.0
 10
10.6218105512
 20
9.4203908628
 30
0.0
 10
10.6141851367
 20
9.4103270061
 30
0.0
 10
10.608443587
 20
9.4041794186
 30
0.0
 10
10.6054268387
 20
9.4012654506
 30
0.0
  0
SPLINE
  5
2EC
100
AcDbEntity
  8
0
100
AcDbSpline
 62
7
  6
CONTINUOUS
 70
0
 71
3
 72
15
 73
11
 74
0
 42
0.0000001
 43
0.0000001
 44
0.0000000001
 40
0.0
 40
0.0
 40
0.0
 40
0.0
 40
0.1273482228
 40
0.253860527
 40
0.3795879206
 40
0.5046050801
 40
0.6290174363
 40
0.7529533709
 40
0.8765605784
 40
1.0
 40
1.0
 40
1.0
 40
1.0
 10
11.2472308215
 20
6.6730388569
 30
0.0
 10
11.2472308215
 20
6.6687117625
 30
0.0
 10
11.2468176751
 20
6.6600799945
 30
0.0
 10
11.2449492508
 20
6.6472983542
 30
0.0
 10
11.2418510866
 20
6.634837866
 30
0.0
 10
11.23755116
 20
6.6228150641
 30
0.0
 10
11.2320889503
 20
6.6113408149
 30
0.0
 10
11.2255142284
 20
6.6005210708
 30
0.0
 10
11.2178888139
 20
6.5904572141
 30
0.0
 10
11.2121472642
 20
6.5843096266
 30
0.0
 10
11.2091305159
 20
6.5813956586
 30
0.0
  0
SPLINE
  5
2ED
100
AcDbEntity
  8
0
100
AcDbSpline
 62
7
  6
CONTINUOUS
 70
0
 71
3
 72
40
 73
36
 74
0
 42
0.0000001
 43
0.0000001
 44
0.0000000001
 40
0.0
 40
0.0
 40
0.0
 40
0.0
 40
0.0310629263
 40
0.046651552
 40
0.06227559
 40
0.0936237148
 40
0.1251034152
 40
0.1567041784
 40
0.1884131947
 40
0.2202157666
 40
0.2520955517
 40
0.284034885
 40
0.3160151
 40
0.3480168643
 40
0.3800205189
 40
0.4120064183
 40
0.4439552671
 40
0.4758484488
 40
0.5076683431
 40
0.5393986284
 40
0.5710245667
 40
0.6025332649
 40
0.6339139125
 40
0.665157989
 40
0.6962594386
 40
0.7272148076
 40
0.7580233418
 40
0.7886870376
 40
0.8192106463
 40
0.8496016251
 40
0.8798700353
 40
0.9100283847
 40
0.9400914145
 40
0.970075833
 40
1.0
 40
1.0
 40
1.0
 40
1.0
 10
9.9041108805
 20
9.3031235578
 30
0.0
 10
9.9124721129
 20
9.3025437044
 30
0.0
 10
9.9250046751
 20
9.3012376852
 30
0.0
 10
9.9416083608
 20
9.2986422536
 30
0.0
 10
9.9581904051
 20
9.2954690607
 30
0.0
 10
9.9787686048
 20
9.2904346464
 30
0.0
 10
10.0030729422
 20
9.2827277309
 30
0.0
 10
10.0269018231
 20
9.2733857165
 30
0.0
 10
10.0501406488
 20
9.2624543686
 30
0.0
 10
10.0726787583
 20
9.2499869715
 30
0.0
 10
10.0944088547
 20
9.2360441706
 30
0.0
 10
10.1152278229
 20
9.2206935938
 30
0.0
 10
10.1350371312
 20
9.2040094805
 30
0.0
 10
10.1537433043
 20
9.1860722745
 30
0.0
 10
10.1712583336
 20
9.1669681939
 30
0.0
 10
10.1875000586
 20
9.1467887804
 30
0.0
 10
10.2023925113
 20
9.1256304331
 30
0.0
 10
10.215866225
 20
9.1035939288
 30
0.0
 10
10.2278585077
 20
9.0807839338
 30
0.0
 10
10.2383136819
 20
9.0573085093
 30
0.0
 10
10.2471832916
 20
9.0332786117
 30
0.0
 10
10.2544262778
 20
9.0088075924
 30
0.0
 10
10.2600091259
 20
8.9840106955
 30
0.0
 10
10.2639059829
 20
8.9590045566
 30
0.0
 10
10.2660987488
 20
8.9339067014
 30
0.0
 10
10.2665771425
 20
8.9088350468
 30
0.0
 10
10.2653387425
 20
8.883907401
 30
0.0
 10
10.262389004
 20
8.8592409658
 30
0.0
 10
10.2577412491
 20
8.8349518354
 30
0.0
 10
10.2514166424
 20
8.8111545081
 30
0.0
 10
10.2434440979
 20
8.7879613445
 30
0.0
 10
10.2338603178
 20
8.7654822251
 30
0.0
 10
10.2227092107
 20
8.7438234622
 30
0.0
 10
10.2100434673
 20
8.7230894877
 30
0.0
 10
10.20061905
 20
8.7099356269
 30
0.0
 10
10.1956781469
 20
8.7035498704
 30
0.0
  0
SPLINE
  5
2EE
100
AcDbEntity
  8
0
100
AcDbSpline
 62
7
  6
CONTINUOUS
 70
0
 71
3
 72
40
 73
36
 74
0
 42
0.0000001
 43
0.0000001
 44
0.0000000001
 40
0.0
 40
0.0
 40
0.0
 40
0.0
 40
0.031012815
 40
0.062167825
 40
0.0934594456
 40
0.1248801476
 40
0.1564198278
 40
0.1880664684
 40
0.2198062162
 40
0.2516237266
 40
0.2835024383
 40
0.3154248867
 40
0.3473730123
 40
0.3793284696
 40
0.4112729299
 40
0.4431883738
 40
0.475057371
 40
0.5068633452
 40
0.5385908209
 40
0.570225653
 40
0.6017552354
 40
0.6331686898
 40
0.6644570321
 40
0.6956133167
 40
0.7266327552
 40
0.7575128106
 40
0.7882532622
 40
0.8188562406
 40
0.8493262303
 40
0.8645155623
 40
0.8796743944
 40
0.9099010716
 40
0.9400218136
 40
0.9700497996
 40
1.0
 40
1.0
 40
1.0
 40
1.0
 10
11.1115182349
 20
9.1613981968
 30
0.0
 10
11.1182730778
 20
9.1609297469
 30
0.0
 10
11.1317862655
 20
9.1595320725
 30
0.0
 10
11.1519115673
 20
9.1560787738
 30
0.0
 10
11.1718515188
 20
9.1512801713
 30
0.0
 10
11.1915136725
 20
9.1451596581
 30
0.0
 10
11.2108088293
 20
9.1377467844
 30
0.0
 10
11.2296494807
 20
9.129077329
 30
0.0
 10
11.247950844
 20
9.1191928801
 30
0.0
 10
11.2656311343
 20
9.108140585
 30
0.0
 10
11.2826119921
 20
9.0959727785
 30
0.0
 10
11.2988188179
 20
9.0827466269
 30
0.0
 10
11.3141810766
 20
9.0685237412
 30
0.0
 10
11.3286325545
 20
9.0533697873
 30
0.0
 10
11.342111577
 20
9.0373540916
 30
0.0
 10
11.3545611853
 20
9.0205492507
 30
0.0
 10
11.3659292783
 20
9.0030307486
 30
0.0
 10
11.3761687223
 20
8.9848765849
 30
0.0
 10
11.3852374323
 20
8.9661669178
 30
0.0
 10
11.3930984309
 20
8.9469837228
 30
0.0
 10
11.3997198884
 20
8.927410467
 30
0.0
 10
11.4050751482
 20
8.9075318009
 30
0.0
 10
11.4091427417
 20
8.8874332632
 30
0.0
 10
11.4119063987
 20
8.8672010048
 30
0.0
 10
11.4133550467
 20
8.8469215018
 30
0.0
 10
11.4134828345
 20
8.8266813593
 30
0.0
 10
11.4122890672
 20
8.8065668105
 30
0.0
 10
11.4097784612
 20
8.7866643647
 30
0.0
 10
11.4065931856
 20
8.7703075487
 30
0.0
 10
11.4033978259
 20
8.7574169756
 30
0.0
 10
11.3997820798
 20
8.7446931874
 30
0.0
 10
11.3944684322
 20
8.7290729646
 30
0.0
 10
11.3868399762
 20
8.7108586092
 30
0.0
 10
11.3779962097
 20
8.6932702766
 30
0.0
 10
11.371305051
 20
8.6819989721
 30
0.0
 10
11.3677713233
 20
8.6764969598
 30
0.0
  0
SPLINE
  5
2EF
100
AcDbEntity
  8
0
100
AcDbSpline
 62
7
  6
CONTINUOUS
 70
0
 71
3
 72
30
 73
26
 74
0
 42
0.0000001
 43
0.0000001
 44
0.0000000001
 40
0.0
 40
0.0
 40
0.0
 40
0.0
 40
0.030965816
 40
0.0620752709
 40
0.0933181572
 40
0.1246898524
 40
0.1561793419
 40
0.1877747695
 40
0.2194625793
 40
0.251227727
 40
0.3148953857
 40
0.3786736234
 40
0.4424256446
 40
0.5060215563
 40
0.5693448214
 40
0.6322978117
 40
0.694805423
 40
0.7568180316
 40
0.8183134551
 40
0.8488827557
 40
0.8793277415
 40
0.9096538308
 40
0.9398682769
 40
0.9699800976
 40
1.0
 40
1.0
 40
1.0
 40
1.0
 10
12.1228425686
 20
8.8507607815
 30
0.0
 10
12.1254699782
 20
8.8505785701
 30
0.0
 10
12.1307263439
 20
8.8500358595
 30
0.0
 10
12.1385551682
 20
8.8486972493
 30
0.0
 10
12.1463128614
 20
8.846838625
 30
0.0
 10
12.1539639446
 20
8.84446994
 30
0.0
 10
12.1614747207
 20
8.8416031716
 30
0.0
 10
12.1688121459
 20
8.8382532023
 30
0.0
 10
12.1759449735
 20
8.8344368075
 30
0.0
 10
12.1851469121
 20
8.8287494186
 30
0.0
 10
12.1959874557
 20
8.8205731373
 30
0.0
 10
12.2077192882
 20
8.8092569649
 30
0.0
 10
12.2180164919
 20
8.7966288223
 30
0.0
 10
12.2267318159
 20
8.7829082946
 30
0.0
 10
12.2337483597
 20
8.768321835
 30
0.0
 10
12.238976157
 20
8.7531009842
 30
0.0
 10
12.2423504529
 20
8.7374784801
 30
0.0
 10
12.2438305247
 20
8.7216895466
 30
0.0
 10
12.2434685469
 20
8.7085542231
 30
0.0
 10
12.2422195192
 20
8.6982040322
 30
0.0
 10
12.2408104426
 20
8.6905587854
 30
0.0
 10
12.2389314072
 20
8.6830466067
 30
0.0
 10
12.2365878948
 20
8.6756955869
 30
0.0
 10
12.2337871402
 20
8.6685345764
 30
0.0
 10
12.2316174342
 20
8.6638985208
 30
0.0
 10
12.2304597774
 20
8.6616227775
 30
0.0
  0
SPLINE
  5
2F0
100
AcDbEntity
  8
0
100
AcDbSpline
 62
7
  6
CONTINUOUS
 70
0
 71
3
 72
41
 73
37
 74
0
 42
0.0000001
 43
0.0000001
 44
0.0000000001
 40
0.0
 40
0.0
 40
0.0
 40
0.0
 40
0.0314064657
 40
0.0630250992
 40
0.0948402938
 40
0.1268267542
 40
0.1589536508
 40
0.175063114
 40
0.1911939538
 40
0.2234913729
 40
0.2558146489
 40
0.2719776287
 40
0.2881322357
 40
0.3203895822
 40
0.3525595643
 40
0.3846105798
 40
0.4165155216
 40
0.4482523785
 40
0.479804706
 40
0.5111619911
 40
0.5423199274
 40
0.5732806042
 40
0.6040526028
 40
0.6346509763
 40
0.6650970818
 40
0.6954182231
 40
0.7256470577
 40
0.7558207271
 40
0.7859796839
 40
0.8161662142
 40
0.8464226917
 40
0.8767896358
 40
0.9073036956
 40
0.937995804
 40
0.9688887952
 40
1.0
 40
1.0
 40
1.0
 40
1.0
 10
12.5604070702
 20
7.25078602
 30
0.0
 10
12.5643977108
 20
7.2505092681
 30
0.0
 10
12.5723832518
 20
7.2495437219
 30
0.0
 10
12.5841884888
 20
7.2468952307
 30
0.0
 10
12.5957462823
 20
7.2430729243
 30
0.0
 10
12.606937077
 20
7.2381226678
 30
0.0
 10
12.615859342
 20
7.2331087894
 30
0.0
 10
12.6227082402
 20
7.2285978837
 30
0.0
 10
12.6293570127
 20
7.2237597295
 30
0.0
 10
12.6372448873
 20
7.2171349774
 30
0.0
 10
12.6444969758
 20
7.2098145696
 30
0.0
 10
12.6498827984
 20
7.2035839978
 30
0.0
 10
12.6549772271
 20
7.1971237514
 30
0.0
 10
12.6607843411
 20
7.1886427458
 30
0.0
 10
12.6668021262
 20
7.1779104256
 30
0.0
 10
12.6718223445
 20
7.1667255648
 30
0.0
 10
12.6758079494
 20
7.155190146
 30
0.0
 10
12.6787307683
 20
7.1434060702
 30
0.0
 10
12.6805704572
 20
7.1314755366
 30
0.0
 10
12.6813143311
 20
7.1195005722
 30
0.0
 10
12.6809571007
 20
7.1075829216
 30
0.0
 10
12.6795008023
 20
7.0958239164
 30
0.0
 10
12.6769548563
 20
7.0843243626
 30
0.0
 10
12.6733362757
 20
7.0731843717
 30
0.0
 10
12.6686700033
 20
7.0625030925
 30
0.0
 10
12.6629893526
 20
7.0523782942
 30
0.0
 10
12.6563365157
 20
7.0429057571
 30
0.0
 10
12.6487630813
 20
7.0341784364
 30
0.0
 10
12.6403304911
 20
7.0262853814
 30
0.0
 10
12.631110349
 20
7.0193104121
 30
0.0
 10
12.6211845121
 20
7.0133305861
 30
0.0
 10
12.6106448034
 20
7.0084145253
 30
0.0
 10
12.5995925636
 20
7.0046206546
 30
0.0
 10
12.5881369879
 20
7.0019956479
 30
0.0
 10
12.5763958511
 20
7.0005725202
 30
0.0
 10
12.5684830418
 20
7.0004384842
 30
0.0
 10
12.5645227164
 20
7.0005732646
 30
0.0
  0
SPLINE
  5
2F1
100
AcDbEntity
  8
0
100
AcDbSpline
 62
7
  6
CONTINUOUS
 70
0
 71
3
 72
15
 73
11
 74
0
 42
0.0000001
 43
0.0000001
 44
0.0000000001
 40
0.0
 40
0.0
 40
0.0
 40
0.0
 40
0.127347002
 40
0.2538611168
 40
0.379587791
 40
0.5046051628
 40
0.6290174373
 40
0.7529533687
 40
0.8765605638
 40
1.0
 40
1.0
 40
1.0
 40
1.0
 10
12.1981847875
 20
9.3242394507
 30
0.0
 10
12.1981847875
 20
9.321837185
 30
0.0
 10
12.1979554012
 20
9.3170450454
 30
0.0
 10
12.1969181133
 20
9.3099490152
 30
0.0
 10
12.1951980235
 20
9.3030312718
 30
0.0
 10
12.1928107774
 20
9.2963565555
 30
0.0
 10
12.1897782217
 20
9.2899863889
 30
0.0
 10
12.1861280226
 20
9.2839796079
 30
0.0
 10
12.1818945058
 20
9.2783924829
 30
0.0
 10
12.178706859
 20
9.2749795903
 30
0.0
 10
12.1770320233
 20
9.2733618488
 30
0.0
  0
SPLINE
  5
2F2
100
AcDbEntity
  8
0
100
AcDbSpline
 62
7
  6
CONTINUOUS
 70
0
 71
3
 72
15
 73
11
 74
0
 42
0.0000001
 43
0.0000001
 44
0.0000000001
 40
0.0
 40
0.0
 40
0.0
 40
0.0
 40
0.127347002
 40
0.2538611168
 40
0.379587791
 40
0.5046051628
 40
0.6290174373
 40
0.7529533687
 40
0.8765605638
 40
1.0
 40
1.0
 40
1.0
 40
1.0
 10
9.9794530994
 20
6.8218128362
 30
0.0
 10
9.9794530994
 20
6.8194105705
 30
0.0
 10
9.9792237131
 20
6.8146184309
 30
0.0
 10
9.9781864252
 20
6.8075224007
 30
0.0
 10
9.9764663354
 20
6.8006046573
 30
0.0
 10
9.9740790893
 20
6.793929941
 30
0.0
 10
9.9710465336
 20
6.7875597744
 30
0.0
 10
9.9673963345
 20
6.7815529934
 30
0.0
 10
9.9631628177
 20
6.7759658684
 30
0.0
 10
9.9599751709
 20
6.7725529758
 30
0.0
 10
9.9583003352
 20
6.7709352343
 30
0.0
  0
SPLINE
  5
2F3
100
AcDbEntity
  8
0
100
AcDbSpline
 62
7
  6
CONTINUOUS
 70
0
 71
3
 72
18
 73
14
 74
0
 42
0.0000001
 43
0.0000001
 44
0.0000000001
 40
0.0
 40
0.0
 40
0.0
 40
0.0
 40
0.1504686872
 40
0.2917143508
 40
0.4244422581
 40
0.4879097286
 40
0.549609416
 40
0.6682625881
 40
0.7817882869
 40
0.8371380068
 40
0.8918078217
 40
0.9460192903
 40
1.0
 40
1.0
 40
1.0
 40
1.0
 10
14.0359957151
 20
9.2456343397
 30
0.0
 10
14.0382065143
 20
9.2477698079
 30
0.0
 10
14.042625088
 20
9.251776558
 30
0.0
 10
14.0494667964
 20
9.2571160166
 30
0.0
 10
14.0552457605
 20
9.2608923754
 30
0.0
 10
14.0598539946
 20
9.2634495991
 30
0.0
 10
14.0643266514
 20
9.2656450766
 30
0.0
 10
14.0699188966
 20
9.2678635125
 30
0.0
 10
14.0756106107
 20
9.2693773957
 30
0.0
 10
14.0801186192
 20
9.2701231564
 30
0.0
 10
14.0834596794
 20
9.2704541156
 30
0.0
 10
14.086787221
 20
9.270561022
 30
0.0
 10
14.0889979593
 20
9.2704828237
 30
0.0
 10
14.0900980213
 20
9.2704065303
 30
0.0
  0
SPLINE
  5
2F4
100
AcDbEntity
  8
0
100
AcDbSpline
 62
7
  6
CONTINUOUS
 70
0
 71
3
 72
39
 73
35
 74
0
 42
0.0000001
 43
0.0000001
 44
0.0000000001
 40
0.0
 40
0.0
 40
0.0
 40
0.0
 40
0.0071626305
 40
0.0146567796
 40
0.0224900537
 40
0.0306686706
 40
0.0391977046
 40
0.0480809813
 40
0.0573207996
 40
0.0669184069
 40
0.0768741415
 40
0.0871874214
 40
0.1088799375
 40
0.131978937
 40
0.1564568751
 40
0.182278417
 40
0.209401486
 40
0.2377780679
 40
0.2673549265
 40
0.2980741807
 40
0.3298737714
 40
0.3626878467
 40
0.3964471182
 40
0.4310792351
 40
0.466509094
 40
0.5026591221
 40
0.5394495351
 40
0.57679863
 40
0.6146230625
 40
0.6913563437
 40
0.7689609396
 40
0.8467367446
 40
0.9239814542
 40
1.0
 40
1.0
 40
1.0
 40
1.0
 10
7.0349309301
 20
10.0784003089
 30
0.0
 10
7.0337807115
 20
10.0772892829
 30
0.0
 10
7.0314817987
 20
10.07495857
 30
0.0
 10
7.0281123268
 20
10.0712338694
 30
0.0
 10
7.0247471132
 20
10.0672050238
 30
0.0
 10
7.0213883667
 20
10.0628746389
 30
0.0
 10
7.0180379152
 20
10.058245279
 30
0.0
 10
7.0146977407
 20
10.0533195862
 30
0.0
 10
7.0113697168
 20
10.048100489
 30
0.0
 10
7.0080558666
 20
10.0425910772
 30
0.0
 10
7.0047581665
 20
10.0367946197
 30
0.0
 10
7.0003102433
 20
10.0285484165
 30
0.0
 10
6.9948180179
 20
10.0175352539
 30
0.0
 10
6.9884289459
 20
10.0034478298
 30
0.0
 10
6.9821504413
 20
9.9883079301
 30
0.0
 10
6.9759976522
 20
9.9721517364
 30
0.0
 10
6.9699854562
 20
9.9550176535
 30
0.0
 10
6.9641283963
 20
9.9369466533
 30
0.0
 10
6.9584406518
 20
9.9179820085
 30
0.0
 10
6.9529359986
 20
9.8981691977
 30
0.0
 10
6.9476277735
 20
9.8775557759
 30
0.0
 10
6.9425288323
 20
9.856191266
 30
0.0
 10
6.9376515062
 20
9.8341270333
 30
0.0
 10
6.9330075949
 20
9.8114161444
 30
0.0
 10
6.9286083325
 20
9.7881132325
 30
0.0
 10
6.9244643622
 20
9.7642743649
 30
0.0
 10
6.9205857062
 20
9.7399569304
 30
0.0
 10
6.9169816892
 20
9.7152194267
 30
0.0
 10
6.9125331886
 20
9.6815957938
 30
0.0
 10
6.9077276772
 20
9.638957172
 30
0.0
 10
6.9032014724
 20
9.5873267377
 30
0.0
 10
6.8999324675
 20
9.5354868042
 30
0.0
 10
6.8979519892
 20
9.4839363728
 30
0.0
 10
6.8974981306
 20
9.4497162262
 30
0.0
 10
6.8974981306
 20
9.4327437664
 30
0.0
  0
SPLINE
  5
2F5
100
AcDbEntity
  8
0
100
AcDbSpline
 62
7
  6
CONTINUOUS
 70
0
 71
3
 72
31
 73
27
 74
0
 42
0.0000001
 43
0.0000001
 44
0.0000000001
 40
0.0
 40
0.0
 40
0.0
 40
0.0
 40
0.0851789116
 40
0.1685809973
 40
0.2498837057
 40
0.3287747006
 40
0.4049552448
 40
0.4781415664
 40
0.548067387
 40
0.6144863644
 40
0.6463109872
 40
0.6771771637
 40
0.70706119
 40
0.7359411901
 40
0.7637975283
 40
0.790612712
 40
0.8163719908
 40
0.841063226
 40
0.8646777049
 40
0.8872100434
 40
0.9086592608
 40
0.9290288217
 40
0.9483280459
 40
0.9665724509
 40
0.9837856085
 40
1.0
 40
1.0
 40
1.0
 40
1.0
 10
6.8974981306
 20
7.3192979333
 30
0.0
 10
6.8974981306
 20
7.3082958218
 30
0.0
 10
6.8976856092
 20
7.2865205716
 30
0.0
 10
6.8985454831
 20
7.2542541165
 30
0.0
 10
6.8999776197
 20
7.2228207478
 30
0.0
 10
6.9019758135
 20
7.192352831
 30
0.0
 10
6.9045314096
 20
7.1629785437
 30
0.0
 10
6.9076333497
 20
7.1348212769
 30
0.0
 10
6.911268304
 20
7.1079994853
 30
0.0
 10
6.9147764762
 20
7.0865596277
 30
0.0
 10
6.9178530877
 20
7.0701688257
 30
0.0
 10
6.9202508258
 20
7.0584536986
 30
0.0
 10
6.9227691039
 20
7.0471532147
 30
0.0
 10
6.9254053278
 20
7.0362792211
 30
0.0
 10
6.9281566493
 20
7.0258431244
 30
0.0
 10
6.9310202173
 20
7.0158558581
 30
0.0
 10
6.9339929377
 20
7.0063278597
 30
0.0
 10
6.9370717579
 20
6.9972690813
 30
0.0
 10
6.9402533531
 20
6.9886889356
 30
0.0
 10
6.9435345019
 20
6.9805963402
 30
0.0
 10
6.9469116867
 20
6.9729996269
 30
0.0
 10
6.9503815719
 20
6.9659066247
 30
0.0
 10
6.9539404991
 20
6.9593245551
 30
0.0
 10
6.9575851654
 20
6.9532600538
 30
0.0
 10
6.9613116826
 20
6.9477194787
 30
0.0
 10
6.9639247828
 20
6.9442782944
 30
0.0
 10
6.9652462384
 20
6.9426534981
 30
0.0
  0
SPLINE
  5
2F6
100
AcDbEntity
  8
0
100
AcDbSpline
 62
7
  6
CONTINUOUS
 70
0
 71
3
 72
41
 73
37
 74
0
 42
0.0000001
 43
0.0000001
 44
0.0000000001
 40
0.0
 40
0.0
 40
0.0
 40
0.0
 40
0.0299421238
 40
0.0449237703
 40
0.059914519
 40
0.0899291762
 40
0.1200146048
 40
0.1350933663
 40
0.1501974853
 40
0.1804849834
 40
0.2108989722
 40
0.2414525913
 40
0.2721557558
 40
0.3030149766
 40
0.3340332647
 40
0.365210118
 40
0.396541585
 40
0.4280204007
 40
0.4596361866
 40
0.4913757084
 40
0.5232231826
 40
0.5551606251
 40
0.5871682346
 40
0.6192248024
 40
0.6513081434
 40
0.68339554
 40
0.7154641944
 40
0.7474916807
 40
0.7794563937
 40
0.8113379827
 40
0.8431177771
 40
0.8747791563
 40
0.9063079829
 40
0.9376927254
 40
0.9689252285
 40
1.0
 40
1.0
 40
1.0
 40
1.0
 10
9.0630183025
 20
9.6832602995
 30
0.0
 10
9.0665187218
 20
9.6866414511
 30
0.0
 10
9.0719756454
 20
9.6915083449
 30
0.0
 10
9.0796180096
 20
9.6975470399
 30
0.0
 10
9.0875037015
 20
9.7032853018
 30
0.0
 10
9.0977932789
 20
9.7098746445
 30
0.0
 10
9.1085831368
 20
9.7156384393
 30
0.0
 10
9.117481982
 20
9.7197388095
 30
0.0
 10
9.1265646523
 20
9.7235006958
 30
0.0
 10
9.1382173134
 20
9.7275457941
 30
0.0
 10
9.1525774594
 20
9.7313157434
 30
0.0
 10
9.1672509536
 20
9.7339864852
 30
0.0
 10
9.1821564771
 20
9.7355432857
 30
0.0
 10
9.1972121503
 20
9.7359778364
 30
0.0
 10
9.212335132
 20
9.7352879258
 30
0.0
 10
9.2274423026
 20
9.7334775392
 30
0.0
 10
9.2424506544
 20
9.7305568017
 30
0.0
 10
9.2572777592
 20
9.7265419231
 30
0.0
 10
9.2718422104
 20
9.7214551016
 30
0.0
 10
9.286064065
 20
9.7153243985
 30
0.0
 10
9.2998652758
 20
9.7081835823
 30
0.0
 10
9.3131701137
 20
9.700071942
 30
0.0
 10
9.3259055778
 20
9.6910340723
 30
0.0
 10
9.3380017907
 20
9.6811196294
 30
0.0
 10
9.3493923777
 20
9.6703830604
 30
0.0
 10
9.3600148267
 20
9.6588833074
 30
0.0
 10
9.3698108274
 20
9.6466834863
 30
0.0
 10
9.3787265889
 20
9.6338505446
 30
0.0
 10
9.3867131313
 20
9.620454898
 30
0.0
 10
9.3937265555
 20
9.6065700468
 30
0.0
 10
9.3997282743
 20
9.5922721861
 30
0.0
 10
9.4046852456
 20
9.5776397568
 30
0.0
 10
9.4085701064
 20
9.5627531614
 30
0.0
 10
9.4113614183
 20
9.5476938115
 30
0.0
 10
9.4130436375
 20
9.5325455412
 30
0.0
 10
9.413420434
 20
9.5224143491
 30
0.0
 10
9.413420434
 20
9.5173635146
 30
0.0
  0
SPLINE
  5
2F7
100
AcDbEntity
  8
0
100
AcDbSpline
 62
7
  6
CONTINUOUS
 70
0
 71
3
 72
41
 73
37
 74
0
 42
0.0000001
 43
0.0000001
 44
0.0000000001
 40
0.0
 40
0.0
 40
0.0
 40
0.0
 40
0.0299421238
 40
0.0449237703
 40
0.059914519
 40
0.0899291762
 40
0.1200146048
 40
0.1350933663
 40
0.1501974853
 40
0.1804849834
 40
0.2108989722
 40
0.2414525913
 40
0.2721557558
 40
0.3030149766
 40
0.3340332647
 40
0.365210118
 40
0.396541585
 40
0.4280204007
 40
0.4596361866
 40
0.4913757084
 40
0.5232231826
 40
0.5551606251
 40
0.5871682346
 40
0.6192248024
 40
0.6513081434
 40
0.68339554
 40
0.7154641944
 40
0.7474916807
 40
0.7794563937
 40
0.8113379827
 40
0.8431177771
 40
0.8747791563
 40
0.9063079829
 40
0.9376927254
 40
0.9689252285
 40
1.0
 40
1.0
 40
1.0
 40
1.0
 10
12.9267220669
 20
9.4153115333
 30
0.0
 10
12.9302224861
 20
9.4186926849
 30
0.0
 10
12.9356794097
 20
9.4235595787
 30
0.0
 10
12.943321774
 20
9.4295982738
 30
0.0
 10
12.9512074659
 20
9.4353365356
 30
0.0
 10
12.9614970433
 20
9.4419258784
 30
0.0
 10
12.9722869012
 20
9.4476896731
 30
0.0
 10
12.9811857464
 20
9.4517900434
 30
0.0
 10
12.9902684167
 20
9.4555519297
 30
0.0
 10
13.0019210777
 20
9.459597028
 30
0.0
 10
13.0162812238
 20
9.4633669773
 30
0.0
 10
13.030954718
 20
9.4660377191
 30
0.0
 10
13.0458602415
 20
9.4675945196
 30
0.0
 10
13.0609159146
 20
9.4680290703
 30
0.0
 10
13.0760388964
 20
9.4673391597
 30
0.0
 10
13.091146067
 20
9.465528773
 30
0.0
 10
13.1061544188
 20
9.4626080355
 30
0.0
 10
13.1209815235
 20
9.458593157
 30
0.0
 10
13.1355459747
 20
9.4535063355
 30
0.0
 10
13.1497678294
 20
9.4473756324
 30
0.0
 10
13.1635690402
 20
9.4402348161
 30
0.0
 10
13.1768738781
 20
9.4321231759
 30
0.0
 10
13.1896093422
 20
9.4230853062
 30
0.0
 10
13.2017055551
 20
9.4131708632
 30
0.0
 10
13.2130961421
 20
9.4024342943
 30
0.0
 10
13.2237185911
 20
9.3909345412
 30
0.0
 10
13.2335145917
 20
9.3787347201
 30
0.0
 10
13.2424303533
 20
9.3659017785
 30
0.0
 10
13.2504168957
 20
9.3525061319
 30
0.0
 10
13.2574303199
 20
9.3386212807
 30
0.0
 10
13.2634320387
 20
9.3243234199
 30
0.0
 10
13.26838901
 20
9.3096909906
 30
0.0
 10
13.2722738708
 20
9.2948043953
 30
0.0
 10
13.2750651827
 20
9.2797450453
 30
0.0
 10
13.2767474018
 20
9.2645967751
 30
0.0
 10
13.2771241984
 20
9.254465583
 30
0.0
 10
13.2771241984
 20
9.2494147484
 30
0.0
  0
SPLINE
  5
2F8
100
AcDbEntity
  8
0
100
AcDbSpline
 62
7
  6
CONTINUOUS
 70
0
 71
3
 72
41
 73
37
 74
0
 42
0.0000001
 43
0.0000001
 44
0.0000000001
 40
0.0
 40
0.0
 40
0.0
 40
0.0
 40
0.0299421238
 40
0.0449237703
 40
0.059914519
 40
0.0899291762
 40
0.1200146048
 40
0.1350933663
 40
0.1501974853
 40
0.1804849834
 40
0.2108989722
 40
0.2414525913
 40
0.2721557558
 40
0.3030149766
 40
0.3340332647
 40
0.365210118
 40
0.396541585
 40
0.4280204007
 40
0.4596361866
 40
0.4913757084
 40
0.5232231826
 40
0.5551606251
 40
0.5871682346
 40
0.6192248024
 40
0.6513081434
 40
0.68339554
 40
0.7154641944
 40
0.7474916807
 40
0.7794563937
 40
0.8113379827
 40
0.8431177771
 40
0.8747791563
 40
0.9063079829
 40
0.9376927254
 40
0.9689252285
 40
1.0
 40
1.0
 40
1.0
 40
1.0
 10
9.0630183025
 20
7.0269641198
 30
0.0
 10
9.0665187218
 20
7.0303452714
 30
0.0
 10
9.0719756454
 20
7.0352121652
 30
0.0
 10
9.0796180096
 20
7.0412508602
 30
0.0
 10
9.0875037015
 20
7.0469891221
 30
0.0
 10
9.0977932789
 20
7.0535784648
 30
0.0
 10
9.1085831368
 20
7.0593422596
 30
0.0
 10
9.117481982
 20
7.0634426298
 30
0.0
 10
9.1265646523
 20
7.0672045161
 30
0.0
 10
9.1382173134
 20
7.0712496144
 30
0.0
 10
9.1525774594
 20
7.0750195637
 30
0.0
 10
9.1672509536
 20
7.0776903056
 30
0.0
 10
9.1821564771
 20
7.079247106
 30
0.0
 10
9.1972121503
 20
7.0796816568
 30
0.0
 10
9.212335132
 20
7.0789917462
 30
0.0
 10
9.2274423026
 20
7.0771813595
 30
0.0
 10
9.2424506544
 20
7.074260622
 30
0.0
 10
9.2572777592
 20
7.0702457434
 30
0.0
 10
9.2718422104
 20
7.0651589219
 30
0.0
 10
9.286064065
 20
7.0590282188
 30
0.0
 10
9.2998652758
 20
7.0518874026
 30
0.0
 10
9.3131701137
 20
7.0437757623
 30
0.0
 10
9.3259055778
 20
7.0347378926
 30
0.0
 10
9.3380017907
 20
7.0248234497
 30
0.0
 10
9.3493923777
 20
7.0140868807
 30
0.0
 10
9.3600148267
 20
7.0025871277
 30
0.0
 10
9.3698108274
 20
6.9903873066
 30
0.0
 10
9.3787265889
 20
6.9775543649
 30
0.0
 10
9.3867131313
 20
6.9641587184
 30
0.0
 10
9.3937265555
 20
6.9502738671
 30
0.0
 10
9.3997282743
 20
6.9359760064
 30
0.0
 10
9.4046852456
 20
6.9213435771
 30
0.0
 10
9.4085701064
 20
6.9064569817
 30
0.0
 10
9.4113614183
 20
6.8913976318
 30
0.0
 10
9.4130436375
 20
6.8762493615
 30
0.0
 10
9.413420434
 20
6.8661181695
 30
0.0
 10
9.413420434
 20
6.8610673349
 30
0.0
  0
SPLINE
  5
2F9
100
AcDbEntity
  8
0
100
AcDbSpline
 62
7
  6
CONTINUOUS
 70
0
 71
3
 72
41
 73
37
 74
0
 42
0.0000001
 43
0.0000001
 44
0.0000000001
 40
0.0
 40
0.0
 40
0.0
 40
0.0
 40
0.0299421238
 40
0.0449237703
 40
0.059914519
 40
0.0899291762
 40
0.1200146048
 40
0.1350933663
 40
0.1501974853
 40
0.1804849834
 40
0.2108989722
 40
0.2414525913
 40
0.2721557558
 40
0.3030149766
 40
0.3340332647
 40
0.365210118
 40
0.396541585
 40
0.4280204007
 40
0.4596361866
 40
0.4913757084
 40
0.5232231826
 40
0.5551606251
 40
0.5871682346
 40
0.6192248024
 40
0.6513081434
 40
0.68339554
 40
0.7154641944
 40
0.7474916807
 40
0.7794563937
 40
0.8113379827
 40
0.8431177771
 40
0.8747791563
 40
0.9063079829
 40
0.9376927254
 40
0.9689252285
 40
1.0
 40
1.0
 40
1.0
 40
1.0
 10
12.9267220669
 20
6.7590153537
 30
0.0
 10
12.9302224861
 20
6.7623965052
 30
0.0
 10
12.9356794097
 20
6.767263399
 30
0.0
 10
12.943321774
 20
6.7733020941
 30
0.0
 10
12.9512074659
 20
6.7790403559
 30
0.0
 10
12.9614970433
 20
6.7856296987
 30
0.0
 10
12.9722869012
 20
6.7913934934
 30
0.0
 10
12.9811857464
 20
6.7954938637
 30
0.0
 10
12.9902684167
 20
6.79925575
 30
0.0
 10
13.0019210777
 20
6.8033008483
 30
0.0
 10
13.0162812238
 20
6.8070707976
 30
0.0
 10
13.030954718
 20
6.8097415394
 30
0.0
 10
13.0458602415
 20
6.8112983399
 30
0.0
 10
13.0609159146
 20
6.8117328906
 30
0.0
 10
13.0760388964
 20
6.81104298
 30
0.0
 10
13.091146067
 20
6.8092325933
 30
0.0
 10
13.1061544188
 20
6.8063118559
 30
0.0
 10
13.1209815235
 20
6.8022969773
 30
0.0
 10
13.1355459747
 20
6.7972101558
 30
0.0
 10
13.1497678294
 20
6.7910794527
 30
0.0
 10
13.1635690402
 20
6.7839386364
 30
0.0
 10
13.1768738781
 20
6.7758269962
 30
0.0
 10
13.1896093422
 20
6.7667891265
 30
0.0
 10
13.2017055551
 20
6.7568746835
 30
0.0
 10
13.2130961421
 20
6.7461381146
 30
0.0
 10
13.2237185911
 20
6.7346383615
 30
0.0
 10
13.2335145917
 20
6.7224385404
 30
0.0
 10
13.2424303533
 20
6.7096055988
 30
0.0
 10
13.2504168957
 20
6.6962099522
 30
0.0
 10
13.2574303199
 20
6.682325101
 30
0.0
 10
13.2634320387
 20
6.6680272403
 30
0.0
 10
13.26838901
 20
6.6533948109
 30
0.0
 10
13.2722738708
 20
6.6385082156
 30
0.0
 10
13.2750651827
 20
6.6234488656
 30
0.0
 10
13.2767474018
 20
6.6083005954
 30
0.0
 10
13.2771241984
 20
6.5981694033
 30
0.0
 10
13.2771241984
 20
6.5931185687
 30
0.0
  0
SPLINE
  5
2FA
100
AcDbEntity
  8
0
100
AcDbSpline
 62
7
  6
CONTINUOUS
 70
0
 71
3
 72
39
 73
35
 74
0
 42
0.0000001
 43
0.0000001
 44
0.0000000001
 40
0.0
 40
0.0
 40
0.0
 40
0.0
 40
0.0299424756
 40
0.0599093253
 40
0.0899243308
 40
0.1200101061
 40
0.1501875593
 40
0.1804754054
 40
0.2108897454
 40
0.2414437198
 40
0.2721472437
 40
0.3030068255
 40
0.3340254745
 40
0.3652026886
 40
0.3965345175
 40
0.4280136976
 40
0.4596298523
 40
0.4913697474
 40
0.5232175981
 40
0.5551554173
 40
0.5871634018
 40
0.6192203434
 40
0.6513040581
 40
0.68339183
 40
0.7154608619
 40
0.7474887274
 40
0.7794538181
 40
0.8113357796
 40
0.8431159521
 40
0.8747776664
 40
0.9063069638
 40
0.937691791
 40
0.9689252156
 40
1.0
 40
1.0
 40
1.0
 40
1.0
 10
10.4102022767
 20
9.6033752469
 30
0.0
 10
10.4125331241
 20
9.6056266825
 30
0.0
 10
10.417378083
 20
9.6099478719
 30
0.0
 10
10.425140486
 20
9.6158347117
 30
0.0
 10
10.4333581535
 20
9.62109717
 30
0.0
 10
10.4419851723
 20
9.6257057232
 30
0.0
 10
10.4509741102
 20
9.6296351968
 30
0.0
 10
10.4602753598
 20
9.6328639902
 30
0.0
 10
10.4698376669
 20
9.6353744353
 30
0.0
 10
10.4796083511
 20
9.6371528225
 30
0.0
 10
10.4895336169
 20
9.6381894843
 30
0.0
 10
10.4995588451
 20
9.6384788506
 30
0.0
 10
10.5096288981
 20
9.6380194655
 30
0.0
 10
10.519688422
 20
9.6368139826
 30
0.0
 10
10.5296821464
 20
9.6348691461
 30
0.0
 10
10.5395551848
 20
9.6321957486
 30
0.0
 10
10.5492533306
 20
9.6288085687
 30
0.0
 10
10.5587233503
 20
9.6247262881
 30
0.0
 10
10.5679132698
 20
9.6199713866
 30
0.0
 10
10.5767726633
 20
9.6145700306
 30
0.0
 10
10.5852529232
 20
9.6085519195
 30
0.0
 10
10.5933075215
 20
9.6019501202
 30
0.0
 10
10.6008922624
 20
9.5948008885
 30
0.0
 10
10.6079655205
 20
9.587143471
 30
0.0
 10
10.614488467
 20
9.5790198933
 30
0.0
 10
10.6204252806
 20
9.570474732
 30
0.0
 10
10.6257433394
 20
9.5615548726
 30
0.0
 10
10.6304134189
 20
9.5523092615
 30
0.0
 10
10.6344098185
 20
9.5427886388
 30
0.0
 10
10.6377105684
 20
9.5330452305
 30
0.0
 10
10.6402973814
 20
9.5231326005
 30
0.0
 10
10.6421561094
 20
9.5131048882
 30
0.0
 10
10.6432762215
 20
9.5030180003
 30
0.0
 10
10.6435271443
 20
9.4962718477
 30
0.0
 10
10.6435271443
 20
9.4929086489
 30
0.0
  0
SPLINE
  5
2FB
100
AcDbEntity
  8
0
100
AcDbSpline
 62
7
  6
CONTINUOUS
 70
0
 71
3
 72
39
 73
35
 74
0
 42
0.0000001
 43
0.0000001
 44
0.0000000001
 40
0.0
 40
0.0
 40
0.0
 40
0.0
 40
0.0299424756
 40
0.0599093253
 40
0.0899243308
 40
0.1200101061
 40
0.1501875593
 40
0.1804754054
 40
0.2108897454
 40
0.2414437198
 40
0.2721472437
 40
0.3030068255
 40
0.3340254745
 40
0.3652026886
 40
0.3965345175
 40
0.4280136976
 40
0.4596298523
 40
0.4913697474
 40
0.5232175981
 40
0.5551554173
 40
0.5871634018
 40
0.6192203434
 40
0.6513040581
 40
0.68339183
 40
0.7154608619
 40
0.7474887274
 40
0.7794538181
 40
0.8113357796
 40
0.8431159521
 40
0.8747776664
 40
0.9063069638
 40
0.937691791
 40
0.9689252156
 40
1.0
 40
1.0
 40
1.0
 40
1.0
 10
11.0139059539
 20
6.7835054549
 30
0.0
 10
11.0162368013
 20
6.7857568905
 30
0.0
 10
11.0210817602
 20
6.7900780799
 30
0.0
 10
11.0288441632
 20
6.7959649197
 30
0.0
 10
11.0370618307
 20
6.801227378
 30
0.0
 10
11.0456888495
 20
6.8058359312
 30
0.0
 10
11.0546777874
 20
6.8097654048
 30
0.0
 10
11.063979037
 20
6.8129941982
 30
0.0
 10
11.0735413441
 20
6.8155046433
 30
0.0
 10
11.0833120283
 20
6.8172830305
 30
0.0
 10
11.0932372941
 20
6.8183196923
 30
0.0
 10
11.1032625223
 20
6.8186090586
 30
0.0
 10
11.1133325753
 20
6.8181496735
 30
0.0
 10
11.1233920992
 20
6.8169441906
 30
0.0
 10
11.1333858236
 20
6.8149993541
 30
0.0
 10
11.143258862
 20
6.8123259566
 30
0.0
 10
11.1529570078
 20
6.8089387767
 30
0.0
 10
11.1624270275
 20
6.8048564961
 30
0.0
 10
11.171616947
 20
6.8001015946
 30
0.0
 10
11.1804763405
 20
6.7947002386
 30
0.0
 10
11.1889566004
 20
6.7886821275
 30
0.0
 10
11.1970111987
 20
6.7820803282
 30
0.0
 10
11.2045959396
 20
6.7749310965
 30
0.0
 10
11.2116691977
 20
6.767273679
 30
0.0
 10
11.2181921442
 20
6.7591501013
 30
0.0
 10
11.2241289578
 20
6.75060494
 30
0.0
 10
11.2294470166
 20
6.7416850806
 30
0.0
 10
11.2341170961
 20
6.7324394695
 30
0.0
 10
11.2381134957
 20
6.7229188468
 30
0.0
 10
11.2414142456
 20
6.7131754385
 30
0.0
 10
11.2440010586
 20
6.7032628085
 30
0.0
 10
11.2458597866
 20
6.6932350962
 30
0.0
 10
11.2469798987
 20
6.6831482083
 30
0.0
 10
11.2472308215
 20
6.6764020557
 30
0.0
 10
11.2472308215
 20
6.6730388569
 30
0.0
  0
SPLINE
  5
2FC
100
AcDbEntity
  8
0
100
AcDbSpline
 62
7
  6
CONTINUOUS
 70
0
 71
3
 72
23
 73
19
 74
0
 42
0.0000001
 43
0.0000001
 44
0.0000000001
 40
0.0
 40
0.0
 40
0.0
 40
0.0
 40
0.0618155483
 40
0.1235903706
 40
0.1853555637
 40
0.2471424321
 40
0.3089820139
 40
0.3709046085
 40
0.4329393158
 40
0.4951135954
 40
0.557452858
 40
0.6199800846
 40
0.6827155282
 40
0.7456763124
 40
0.8088765966
 40
0.8723262405
 40
0.936033611
 40
1.0
 40
1.0
 40
1.0
 40
1.0
 10
9.6125436141
 20
9.1754855727
 30
0.0
 10
9.6167235837
 20
9.1808878781
 30
0.0
 10
9.625419863
 20
9.1914314385
 30
0.0
 10
9.6394224187
 20
9.2063964152
 30
0.0
 10
9.6543319465
 20
9.2204546078
 30
0.0
 10
9.6700974387
 20
9.2335565391
 30
0.0
 10
9.6866656686
 20
9.245656959
 30
0.0
 10
9.7039803154
 20
9.2567137105
 30
0.0
 10
9.7219824298
 20
9.2666882495
 30
0.0
 10
9.7406105544
 20
9.2755457138
 30
0.0
 10
9.7598009572
 20
9.2832550895
 30
0.0
 10
9.7794878546
 20
9.2897893376
 30
0.0
 10
9.7996036347
 20
9.2951254871
 30
0.0
 10
9.8200791507
 20
9.2992447938
 30
0.0
 10
9.8408437926
 20
9.3021326825
 30
0.0
 10
9.8618263507
 20
9.3037790712
 30
0.0
 10
9.8829533997
 20
9.3041780453
 30
0.0
 10
9.8970595529
 20
9.3036125691
 30
0.0
 10
9.9041108805
 20
9.3031235578
 30
0.0
  0
SPLINE
  5
2FD
100
AcDbEntity
  8
0
100
AcDbSpline
 62
7
  6
CONTINUOUS
 70
0
 71
3
 72
25
 73
21
 74
0
 42
0.0000001
 43
0.0000001
 44
0.0000000001
 40
0.0
 40
0.0
 40
0.0
 40
0.0
 40
0.0619710017
 40
0.0929259555
 40
0.1238633815
 40
0.1856945929
 40
0.2475094904
 40
0.2784267186
 40
0.3093536103
 40
0.3712457176
 40
0.4332304762
 40
0.4953422394
 40
0.5576133013
 40
0.6200732839
 40
0.6827486198
 40
0.7456619484
 40
0.8088320707
 40
0.8722725923
 40
0.9359942524
 40
1.0
 40
1.0
 40
1.0
 40
1.0
 10
10.8552651465
 20
9.0350705144
 30
0.0
 10
10.8586130549
 20
9.0402832061
 30
0.0
 10
10.8638961746
 20
9.0479355374
 30
0.0
 10
10.8714361878
 20
9.0577598602
 30
0.0
 10
10.8792935544
 20
9.0673147792
 30
0.0
 10
10.8897078969
 20
9.0787489731
 30
0.0
 10
10.9008700429
 20
9.0894516762
 30
0.0
 10
10.9102179534
 20
9.0975442876
 30
0.0
 10
10.9198407322
 20
9.1053202633
 30
0.0
 10
10.9323674917
 20
9.1144294036
 30
0.0
 10
10.9481239068
 20
9.1243268989
 30
0.0
 10
10.9645480698
 20
9.1331528736
 30
0.0
 10
10.9815740022
 20
9.1408688503
 30
0.0
 10
10.9991333099
 20
9.1474413016
 30
0.0
 10
11.0171547906
 20
9.1528413189
 30
0.0
 10
11.035564981
 20
9.1570450286
 30
0.0
 10
11.0542882872
 20
9.1600336103
 30
0.0
 10
11.0732479581
 20
9.1617936824
 30
0.0
 10
11.0923645534
 20
9.1623171076
 30
0.0
 10
11.1051349424
 20
9.1618408797
 30
0.0
 10
11.1115182349
 20
9.1613981968
 30
0.0
  0
SPLINE
  5
2FE
100
AcDbEntity
  8
0
100
AcDbSpline
 62
7
  6
CONTINUOUS
 70
0
 71
3
 72
23
 73
19
 74
0
 42
0.0000001
 43
0.0000001
 44
0.0000000001
 40
0.0
 40
0.0
 40
0.0
 40
0.0
 40
0.062203392
 40
0.1242632836
 40
0.1862159055
 40
0.2481003038
 40
0.3099577541
 40
0.3718309963
 40
0.433763317
 40
0.4957975895
 40
0.5579753755
 40
0.6203359442
 40
0.682915168
 40
0.7457445105
 40
0.808850839
 40
0.8722526542
 40
0.9359691425
 40
1.0
 40
1.0
 40
1.0
 40
1.0
 10
12.0152253598
 20
8.7898987708
 30
0.0
 10
12.0164576667
 20
8.7923212627
 30
0.0
 10
12.0190896056
 20
8.7970763169
 30
0.0
 10
12.0235273343
 20
8.8039039086
 30
0.0
 10
12.0284336696
 20
8.8103861312
 30
0.0
 10
12.0337892424
 20
8.8164906898
 30
0.0
 10
12.0395725793
 20
8.8221868951
 30
0.0
 10
12.0457596834
 20
8.8274451239
 30
0.0
 10
12.0523240844
 20
8.8322372811
 30
0.0
 10
12.0592367922
 20
8.8365370628
 30
0.0
 10
12.0664663989
 20
8.8403202082
 30
0.0
 10
12.073979164
 20
8.8435647921
 30
0.0
 10
12.0817391434
 20
8.8462515089
 30
0.0
 10
12.0897084052
 20
8.8483640099
 30
0.0
 10
12.0978471249
 20
8.849889052
 30
0.0
 10
12.1061143944
 20
8.850817033
 30
0.0
 10
12.114467162
 20
8.851141499
 30
0.0
 10
12.1200515107
 20
8.8509543421
 30
0.0
 10
12.1228425686
 20
8.8507607815
 30
0.0
  0
SPLINE
  5
2FF
100
AcDbEntity
  8
0
100
AcDbSpline
 62
7
  6
CONTINUOUS
 70
0
 71
3
 72
34
 73
30
 74
0
 42
0.0000001
 43
0.0000001
 44
0.0000000001
 40
0.0
 40
0.0
 40
0.0
 40
0.0
 40
0.029948265
 40
0.059920911
 40
0.0899417355
 40
0.1200333579
 40
0.1502166746
 40
0.1805103996
 40
0.2109306468
 40
0.241490565
 40
0.2722000568
 40
0.303065626
 40
0.3340902961
 40
0.3652735746
 40
0.3966114954
 40
0.4280967817
 40
0.4597190652
 40
0.4914651189
 40
0.5552240134
 40
0.6192627273
 40
0.6834082032
 40
0.7474789322
 40
0.8112993139
 40
0.8430855846
 40
0.8747534858
 40
0.9062889405
 40
0.9376793031
 40
0.9689201346
 40
1.0
 40
1.0
 40
1.0
 40
1.0
 10
12.0686531139
 20
9.3855670538
 30
0.0
 10
12.0699471097
 20
9.3868169379
 30
0.0
 10
12.0726368938
 20
9.3892157853
 30
0.0
 10
12.0769462848
 20
9.3924838308
 30
0.0
 10
12.0815084157
 20
9.3954052487
 30
0.0
 10
12.0862978051
 20
9.397963628
 30
0.0
 10
12.0912881138
 20
9.4001449973
 30
0.0
 10
12.0964517886
 20
9.4019373958
 30
0.0
 10
12.1017603805
 20
9.4033310163
 30
0.0
 10
12.1071846528
 20
9.4043182132
 30
0.0
 10
12.1126947353
 20
9.4048936277
 30
0.0
 10
12.1182603029
 20
9.405054201
 30
0.0
 10
12.1238507533
 20
9.4047991209
 30
0.0
 10
12.12943535
 20
9.4041298287
 30
0.0
 10
12.1349834254
 20
9.4030500506
 30
0.0
 10
12.1404644352
 20
9.4015658676
 30
0.0
 10
12.1458485912
 20
9.3996852912
 30
0.0
 10
12.1528664707
 20
9.3966601954
 30
0.0
 10
12.1612477366
 20
9.3919411277
 30
0.0
 10
12.1704409669
 20
9.3849219016
 30
0.0
 10
12.1785922611
 20
9.3766875524
 30
0.0
 10
12.1855220675
 20
9.367419784
 30
0.0
 10
12.1901621036
 20
9.3589854595
 30
0.0
 10
12.1931232004
 20
9.3519307698
 30
0.0
 10
12.1949557494
 20
9.3465214667
 30
0.0
 10
12.1963917534
 20
9.3410184778
 30
0.0
 10
12.1974236768
 20
9.3354514739
 30
0.0
 10
12.1980454517
 20
9.3298516836
 30
0.0
 10
12.1981847875
 20
9.3261064938
 30
0.0
 10
12.1981847875
 20
9.3242394507
 30
0.0
  0
SPLINE
  5
300
100
AcDbEntity
  8
0
100
AcDbSpline
 62
7
  6
CONTINUOUS
 70
0
 71
3
 72
34
 73
30
 74
0
 42
0.0000001
 43
0.0000001
 44
0.0000000001
 40
0.0
 40
0.0
 40
0.0
 40
0.0
 40
0.029948265
 40
0.059920911
 40
0.0899417355
 40
0.1200333579
 40
0.1502166746
 40
0.1805103996
 40
0.2109306468
 40
0.241490565
 40
0.2722000568
 40
0.303065626
 40
0.3340902961
 40
0.3652735746
 40
0.3966114954
 40
0.4280967817
 40
0.4597190652
 40
0.4914651189
 40
0.5552240134
 40
0.6192627273
 40
0.6834082032
 40
0.7474789322
 40
0.8112993139
 40
0.8430855846
 40
0.8747534858
 40
0.9062889405
 40
0.9376793031
 40
0.9689201346
 40
1.0
 40
1.0
 40
1.0
 40
1.0
 10
9.8499214258
 20
6.8831404393
 30
0.0
 10
9.8512154216
 20
6.8843903234
 30
0.0
 10
9.8539052057
 20
6.8867891708
 30
0.0
 10
9.8582145967
 20
6.8900572163
 30
0.0
 10
9.8627767276
 20
6.8929786342
 30
0.0
 10
9.8675661169
 20
6.8955370135
 30
0.0
 10
9.8725564257
 20
6.8977183828
 30
0.0
 10
9.8777201005
 20
6.8995107813
 30
0.0
 10
9.8830286924
 20
6.9009044018
 30
0.0
 10
9.8884529647
 20
6.9018915987
 30
0.0
 10
9.8939630471
 20
6.9024670132
 30
0.0
 10
9.8995286148
 20
6.9026275865
 30
0.0
 10
9.9051190652
 20
6.9023725064
 30
0.0
 10
9.9107036619
 20
6.9017032142
 30
0.0
 10
9.9162517373
 20
6.9006234361
 30
0.0
 10
9.9217327471
 20
6.8991392531
 30
0.0
 10
9.927116903
 20
6.8972586767
 30
0.0
 10
9.9341347826
 20
6.8942335809
 30
0.0
 10
9.9425160485
 20
6.8895145132
 30
0.0
 10
9.9517092788
 20
6.8824952871
 30
0.0
 10
9.9598605729
 20
6.8742609379
 30
0.0
 10
9.9667903794
 20
6.8649931695
 30
0.0
 10
9.9714304155
 20
6.856558845
 30
0.0
 10
9.9743915123
 20
6.8495041553
 30
0.0
 10
9.9762240613
 20
6.8440948522
 30
0.0
 10
9.9776600652
 20
6.8385918633
 30
0.0
 10
9.9786919887
 20
6.8330248594
 30
0.0
 10
9.9793137636
 20
6.8274250691
 30
0.0
 10
9.9794530994
 20
6.8236798793
 30
0.0
 10
9.9794530994
 20
6.8218128362
 30
0.0
  0
SPLINE
  5
301
100
AcDbEntity
  8
0
100
AcDbSpline
 62
7
  6
CONTINUOUS
 70
0
 71
3
 72
23
 73
19
 74
0
 42
0.0000001
 43
0.0000001
 44
0.0000000001
 40
0.0
 40
0.0
 40
0.0
 40
0.0
 40
0.0626777964
 40
0.1250021065
 40
0.1870320755
 40
0.2488323999
 40
0.3104726505
 40
0.3720267112
 40
0.4335719652
 40
0.4951881824
 40
0.556956223
 40
0.618956868
 40
0.6812694239
 40
0.7439702337
 40
0.8071311784
 40
0.8708182845
 40
0.9350909192
 40
1.0
 40
1.0
 40
1.0
 40
1.0
 10
10.8223897098
 20
7.2908850211
 30
0.0
 10
10.8236545761
 20
7.2951726715
 30
0.0
 10
10.8259373479
 20
7.3037968028
 30
0.0
 10
10.8286040832
 20
7.3168744285
 30
0.0
 10
10.8304894644
 20
7.3300248233
 30
0.0
 10
10.8315809645
 20
7.343215943
 30
0.0
 10
10.8318680148
 20
7.3564153334
 30
0.0
 10
10.831341884
 20
7.3695893416
 30
0.0
 10
10.8299959187
 20
7.3827034189
 30
0.0
 10
10.8278257505
 20
7.395722142
 30
0.0
 10
10.8248296326
 20
7.4086093816
 30
0.0
 10
10.8210085155
 20
7.4213284548
 30
0.0
 10
10.8163662351
 20
7.4338423138
 30
0.0
 10
10.8109096533
 20
7.4461137607
 30
0.0
 10
10.8046489311
 20
7.4581056689
 30
0.0
 10
10.7975973673
 20
7.469781455
 30
0.0
 10
10.7897720527
 20
7.481104527
 30
0.0
 10
10.7840808893
 20
7.4883585182
 30
0.0
 10
10.7811168223
 20
7.4919146798
 30
0.0
  0
SPLINE
  5
302
100
AcDbEntity
  8
0
100
AcDbSpline
 62
7
  6
CONTINUOUS
 70
0
 71
3
 72
23
 73
19
 74
0
 42
0.0000001
 43
0.0000001
 44
0.0000000001
 40
0.0
 40
0.0
 40
0.0
 40
0.0
 40
0.0465982127
 40
0.0936910447
 40
0.1417565395
 40
0.1912417233
 40
0.242552895
 40
0.2960496183
 40
0.3520437831
 40
0.4108006555
 40
0.4725427759
 40
0.5374539378
 40
0.605684023
 40
0.6773532846
 40
0.7525562873
 40
0.8313656263
 40
0.9138345335
 40
1.0
 40
1.0
 40
1.0
 40
1.0
 10
13.9818934089
 20
7.7101540674
 30
0.0
 10
13.9801543569
 20
7.7102746772
 30
0.0
 10
13.9766680073
 20
7.7107053578
 30
0.0
 10
13.9714945168
 20
7.711911807
 30
0.0
 10
13.9663700893
 20
7.713678172
 30
0.0
 10
13.9612998867
 20
7.7160015029
 30
0.0
 10
13.9562874968
 20
7.7188787892
 30
0.0
 10
13.9513361675
 20
7.7223066406
 30
0.0
 10
13.9464488583
 20
7.7262817869
 30
0.0
 10
13.9416283158
 20
7.7308007797
 30
0.0
 10
13.9368773344
 20
7.7358601451
 30
0.0
 10
13.9321986865
 20
7.7414561622
 30
0.0
 10
13.9275952356
 20
7.7475848856
 30
0.0
 10
13.9230698831
 20
7.754242051
 30
0.0
 10
13.9186255585
 20
7.7614230416
 30
0.0
 10
13.9142652307
 20
7.7691229221
 30
0.0
 10
13.9099918617
 20
7.7773362404
 30
0.0
 10
13.9072628634
 20
7.783025329
 30
0.0
 10
13.9059112441
 20
7.7859516987
 30
0.0
  0
SPLINE
  5
303
100
AcDbEntity
  8
0
100
AcDbSpline
 62
7
  6
CONTINUOUS
 70
0
 71
3
 72
55
 73
51
 74
0
 42
0.0000001
 43
0.0000001
 44
0.0000000001
 40
0.0
 40
0.0
 40
0.0
 40
0.0
 40
0.0093523115
 40
0.0192198529
 40
0.0296014447
 40
0.0404935908
 40
0.0518908679
 40
0.0637861323
 40
0.0761706753
 40
0.0890344658
 40
0.1023662263
 40
0.1161535359
 40
0.1303829907
 40
0.1450402185
 40
0.1601099711
 40
0.1755762306
 40
0.1914221995
 40
0.2076303959
 40
0.2410598525
 40
0.2757133879
 40
0.3114309705
 40
0.3480456853
 40
0.3853849208
 40
0.4232715543
 40
0.4615251012
 40
0.4999628334
 40
0.5384009026
 40
0.5766554607
 40
0.6145437702
 40
0.6518853359
 40
0.6885030264
 40
0.7242242088
 40
0.7588819376
 40
0.7923161626
 40
0.8085269507
 40
0.8243756441
 40
0.8398447416
 40
0.8549174648
 40
0.8695777764
 40
0.8838104128
 40
0.8976010204
 40
0.9109361674
 40
0.9238034245
 40
0.9361915271
 40
0.9480904087
 40
0.9594913603
 40
0.9703872408
 40
0.9807725845
 40
0.9906438965
 40
1.0
 40
1.0
 40
1.0
 40
1.0
 10
13.9059112441
 20
7.7859516987
 30
0.0
 10
13.904012628
 20
7.7900623623
 30
0.0
 10
13.9002833935
 20
7.798590641
 30
0.0
 10
13.8950121358
 20
7.8119203676
 30
0.0
 10
13.8899200373
 20
7.8261141256
 30
0.0
 10
13.8850136114
 20
7.8411538104
 30
0.0
 10
13.8802990922
 20
7.8570205904
 30
0.0
 10
13.8757825347
 20
7.8736944146
 30
0.0
 10
13.8714696783
 20
7.8911541814
 30
0.0
 10
13.8673660881
 20
7.9093777596
 30
0.0
 10
13.863477038
 20
7.9283420145
 30
0.0
 10
13.859807492
 20
7.9480228397
 30
0.0
 10
13.8563622016
 20
7.9683952065
 30
0.0
 10
13.853145587
 20
7.9894331838
 30
0.0
 10
13.8501617588
 20
8.0111099817
 30
0.0
 10
13.8474145992
 20
8.0333979813
 30
0.0
 10
13.8449075793
 20
8.056268809
 30
0.0
 10
13.8418581328
 20
8.0878266097
 30
0.0
 10
13.8386890176
 20
8.1285173988
 30
0.0
 10
13.8359243263
 20
8.1787004993
 30
0.0
 10
13.8341747071
 20
8.2304721409
 30
0.0
 10
13.8334494017
 20
8.2835683582
 30
0.0
 10
13.8337524265
 20
8.3377186549
 30
0.0
 10
13.8350824458
 20
8.3926470039
 30
0.0
 10
13.8374328477
 20
8.448073394
 30
0.0
 10
13.8407917434
 20
8.5037152434
 30
0.0
 10
13.8451420214
 20
8.5592888633
 30
0.0
 10
13.8504614762
 20
8.6145109146
 30
0.0
 10
13.8567229149
 20
8.6690998674
 30
0.0
 10
13.8638942486
 20
8.7227774649
 30
0.0
 10
13.8719387015
 20
8.7752701212
 30
0.0
 10
13.8808149796
 20
8.8263104564
 30
0.0
 10
13.8904775219
 20
8.875638274
 30
0.0
 10
13.899230879
 20
8.9155082982
 30
0.0
 10
13.9066055595
 20
8.9463484925
 30
0.0
 10
13.9122444021
 20
8.9686586926
 30
0.0
 10
13.9180407084
 20
8.9903586972
 30
0.0
 10
13.9239870844
 20
9.0114208865
 30
0.0
 10
13.9300758972
 20
9.0318184303
 30
0.0
 10
13.9362993929
 20
9.0515253525
 30
0.0
 10
13.9426495753
 20
9.0705165841
 30
0.0
 10
13.949118318
 20
9.0887679766
 30
0.0
 10
13.9556973788
 20
9.106256331
 30
0.0
 10
13.9623783068
 20
9.122959466
 30
0.0
 10
13.9691525784
 20
9.1388562093
 30
0.0
 10
13.9760115804
 20
9.1539264509
 30
0.0
 10
13.9829465256
 20
9.1681511688
 30
0.0
 10
13.9899486875
 20
9.1815125418
 30
0.0
 10
13.9970090791
 20
9.1939935522
 30
0.0
 10
14.0018795469
 20
9.2019298857
 30
0.0
 10
14.0043272898
 20
9.2057413791
 30
0.0
  0
SPLINE
  5
304
100
AcDbEntity
  8
0
100
AcDbSpline
 62
7
  6
CONTINUOUS
 70
0
 71
3
 72
11
 73
7
 74
0
 42
0.0000001
 43
0.0000001
 44
0.0000000001
 40
0.0
 40
0.0
 40
0.0
 40
0.0
 40
0.275855272
 40
0.5342138372
 40
0.775423442
 40
1.0
 40
1.0
 40
1.0
 40
1.0
 10
14.0043272898
 20
9.2057413791
 30
0.0
 10
14.006863304
 20
9.2096903237
 30
0.0
 10
14.0119372037
 20
9.2172353112
 30
0.0
 10
14.0198365108
 20
9.2278088464
 30
0.0
 10
14.0277621512
 20
9.2372500621
 30
0.0
 10
14.0332476377
 20
9.2429799006
 30
0.0
 10
14.0359957151
 20
9.2456343397
 30
0.0
  0
SPLINE
  5
305
100
AcDbEntity
  8
0
100
AcDbSpline
 62
7
  6
CONTINUOUS
 70
0
 71
3
 72
18
 73
14
 74
0
 42
0.0000001
 43
0.0000001
 44
0.0000000001
 40
0.0
 40
0.0
 40
0.0
 40
0.0
 40
0.1492438628
 40
0.2896566766
 40
0.4219552654
 40
0.4853510326
 40
0.5470696139
 40
0.6660130313
 40
0.7801157008
 40
0.8358361162
 40
0.8909169338
 40
0.9455668697
 40
1.0
 40
1.0
 40
1.0
 40
1.0
 10
6.9911216246
 20
6.9108383599
 30
0.0
 10
6.9924447139
 20
6.90921155
 30
0.0
 10
6.9951133822
 20
6.906133811
 30
0.0
 10
6.9993200372
 20
6.9019483198
 30
0.0
 10
7.0029378238
 20
6.8989024102
 30
0.0
 10
7.0058641085
 20
6.8967746961
 30
0.0
 10
7.0087347163
 20
6.8948968748
 30
0.0
 10
7.0123724002
 20
6.8928993265
 30
0.0
 10
7.0161384471
 20
6.8913620962
 30
0.0
 10
7.0191640438
 20
6.8904442702
 30
0.0
 10
7.0214283051
 20
6.8899106707
 30
0.0
 10
7.0237042431
 20
6.8895268626
 30
0.0
 10
7.0252302198
 20
6.8893707655
 30
0.0
 10
7.0259931885
 20
6.8893178481
 30
0.0
  0
SPLINE
  5
306
100
AcDbEntity
  8
0
100
AcDbSpline
 62
7
  6
CONTINUOUS
 70
0
 71
3
 72
17
 73
13
 74
0
 42
0.0000001
 43
0.0000001
 44
0.0000000001
 40
0.0
 40
0.0
 40
0.0
 40
0.0
 40
0.0544358448
 40
0.1090885253
 40
0.2198402599
 40
0.3339491399
 40
0.4528985532
 40
0.5146194848
 40
0.5780176026
 40
0.7103219531
 40
0.8507493365
 40
1.0
 40
1.0
 40
1.0
 40
1.0
 10
7.6961923819
 20
10.6963200042
 30
0.0
 10
7.6954294171
 20
10.6963729214
 30
0.0
 10
7.6938964581
 20
10.69642896
 30
0.0
 10
7.6908073415
 20
10.6963407092
 30
0.0
 10
7.6868998173
 20
10.6958467607
 30
0.0
 10
7.6822080268
 20
10.6946529646
 30
0.0
 10
7.6783290496
 20
10.6931767085
 30
0.0
 10
7.6752267832
 20
10.6917131692
 30
0.0
 10
7.6720348585
 20
10.6900097507
 30
0.0
 10
7.6680311664
 20
10.6874924324
 30
0.0
 10
7.6632870566
 20
10.6839275471
 30
0.0
 10
7.6602190011
 20
10.6812476427
 30
0.0
 10
7.6586840208
 20
10.6798190673
 30
0.0
  0
SPLINE
  5
307
100
AcDbEntity
  8
0
100
AcDbSpline
 62
7
  6
CONTINUOUS
 70
0
 71
3
 72
27
 73
23
 74
0
 42
0.0000001
 43
0.0000001
 44
0.0000000001
 40
0.0
 40
0.0
 40
0.0
 40
0.0
 40
0.0289847839
 40
0.0582877687
 40
0.1178109879
 40
0.1785329082
 40
0.2403410949
 40
0.3030816779
 40
0.3665714657
 40
0.4306096343
 40
0.4949882017
 40
0.5595002492
 40
0.6239466146
 40
0.6881402507
 40
0.7519096474
 40
0.815100934
 40
0.846442864
 40
0.8775914299
 40
0.9085329404
 40
0.9392551202
 40
0.9697473845
 40
1.0
 40
1.0
 40
1.0
 40
1.0
 10
10.2609610283
 20
7.1389717269
 30
0.0
 10
10.2645287735
 20
7.1358371582
 30
0.0
 10
10.2718812639
 20
7.1297326836
 30
0.0
 10
10.2873864796
 20
7.118222224
 30
0.0
 10
10.3082070952
 20
7.1052105511
 30
0.0
 10
10.3350124814
 20
7.092017259
 30
0.0
 10
10.3634545085
 20
7.0812785988
 30
0.0
 10
10.393196505
 20
7.0730792223
 30
0.0
 10
10.4239015029
 20
7.067463993
 30
0.0
 10
10.4552365417
 20
7.0644443027
 30
0.0
 10
10.4868792153
 20
7.0640009257
 30
0.0
 10
10.5185215582
 20
7.0660893176
 30
0.0
 10
10.5498722422
 20
7.070643419
 30
0.0
 10
10.5806579797
 20
7.0775804698
 30
0.0
 10
10.6106213551
 20
7.0868033115
 30
0.0
 10
10.6347759866
 20
7.0963320961
 30
0.0
 10
10.6534606593
 20
7.1049997852
 30
0.0
 10
10.6670881064
 20
7.1119839397
 30
0.0
 10
10.6803395361
 20
7.1194525661
 30
0.0
 10
10.6931893219
 20
7.1273904088
 30
0.0
 10
10.705614102
 20
7.13577772
 30
0.0
 10
10.7136299276
 20
7.1416834458
 30
0.0
 10
10.7175570223
 20
7.1447080975
 30
0.0
  0
SPLINE
  5
308
100
AcDbEntity
  8
0
100
AcDbSpline
 62
7
  6
CONTINUOUS
 70
0
 71
3
 72
40
 73
36
 74
0
 42
0.0000001
 43
0.0000001
 44
0.0000000001
 40
0.0
 40
0.0
 40
0.0
 40
0.0
 40
0.0310629264
 40
0.0466515521
 40
0.0622755902
 40
0.093623715
 40
0.1251034154
 40
0.1567041787
 40
0.188413195
 40
0.220215767
 40
0.2520955521
 40
0.2840348854
 40
0.3160151004
 40
0.3480168647
 40
0.3800205193
 40
0.4120064187
 40
0.4439552675
 40
0.4758484492
 40
0.5076683434
 40
0.5393986288
 40
0.571024567
 40
0.6025332651
 40
0.6339139127
 40
0.6651579892
 40
0.6962594387
 40
0.7272148078
 40
0.7580233419
 40
0.7886870377
 40
0.8192106463
 40
0.8496016251
 40
0.8798700353
 40
0.9100283847
 40
0.9400914145
 40
0.970075833
 40
1.0
 40
1.0
 40
1.0
 40
1.0
 10
9.9041108678
 20
8.5759118857
 30
0.0
 10
9.8957496354
 20
8.5764917391
 30
0.0
 10
9.8832170735
 20
8.5777977596
 30
0.0
 10
9.8666133881
 20
8.5803931917
 30
0.0
 10
9.8500313442
 20
8.5835663849
 30
0.0
 10
9.8294531449
 20
8.5886007998
 30
0.0
 10
9.805148808
 20
8.5963077159
 30
0.0
 10
9.7813199278
 20
8.6056497309
 30
0.0
 10
9.7580811027
 20
8.6165810793
 30
0.0
 10
9.7355429939
 20
8.6290484768
 30
0.0
 10
9.7138128982
 20
8.642991278
 30
0.0
 10
9.6929939307
 20
8.6583418551
 30
0.0
 10
9.6731846231
 20
8.6750259686
 30
0.0
 10
9.6544784506
 20
8.6929631747
 30
0.0
 10
9.636963422
 20
8.7120672554
 30
0.0
 10
9.6207216977
 20
8.7322466688
 30
0.0
 10
9.6058292456
 20
8.7534050161
 30
0.0
 10
9.5923555325
 20
8.7754415203
 30
0.0
 10
9.5803632504
 20
8.7982515151
 30
0.0
 10
9.5699080767
 20
8.8217269394
 30
0.0
 10
9.5610384676
 20
8.8457568367
 30
0.0
 10
9.5537954818
 20
8.8702278557
 30
0.0
 10
9.5482126342
 20
8.8950247523
 30
0.0
 10
9.5443157775
 20
8.9200308909
 30
0.0
 10
9.5421230119
 20
8.9451287456
 30
0.0
 10
9.5416446185
 20
8.9702003998
 30
0.0
 10
9.5428830188
 20
8.9951280452
 30
0.0
 10
9.5458327574
 20
9.0197944799
 30
0.0
 10
9.5504805124
 20
9.0440836099
 30
0.0
 10
9.5568051192
 20
9.0678809368
 30
0.0
 10
9.5647776636
 20
9.0910741
 30
0.0
 10
9.5743614437
 20
9.113553219
 30
0.0
 10
9.5855125507
 20
9.1352119815
 30
0.0
 10
9.5981782939
 20
9.1559459557
 30
0.0
 10
9.607602711
 20
9.1690998163
 30
0.0
 10
9.6125436141
 20
9.1754855727
 30
0.0
  0
SPLINE
  5
309
100
AcDbEntity
  8
0
100
AcDbSpline
 62
7
  6
CONTINUOUS
 70
0
 71
3
 72
15
 73
11
 74
0
 42
0.0000001
 43
0.0000001
 44
0.0000000001
 40
0.0
 40
0.0
 40
0.0
 40
0.0
 40
0.127347002
 40
0.2538611168
 40
0.379587791
 40
0.5046051628
 40
0.6290174373
 40
0.7529533687
 40
0.8765605638
 40
1.0
 40
1.0
 40
1.0
 40
1.0
 10
9.8287686616
 20
6.8322628375
 30
0.0
 10
9.8287686616
 20
6.8346651032
 30
0.0
 10
9.8289980479
 20
6.8394572428
 30
0.0
 10
9.8300353358
 20
6.846553273
 30
0.0
 10
9.8317554256
 20
6.8534710163
 30
0.0
 10
9.8341426717
 20
6.8601457326
 30
0.0
 10
9.8371752274
 20
6.8665158992
 30
0.0
 10
9.8408254265
 20
6.8725226802
 30
0.0
 10
9.8450589433
 20
6.8781098052
 30
0.0
 10
9.8482465901
 20
6.8815226979
 30
0.0
 10
9.8499214258
 20
6.8831404393
 30
0.0
  0
SPLINE
  5
30A
100
AcDbEntity
  8
0
100
AcDbSpline
 62
7
  6
CONTINUOUS
 70
0
 71
3
 72
39
 73
35
 74
0
 42
0.0000001
 43
0.0000001
 44
0.0000000001
 40
0.0
 40
0.0
 40
0.0
 40
0.0
 40
0.0071626305
 40
0.0146567796
 40
0.0224900537
 40
0.0306686706
 40
0.0391977046
 40
0.0480809813
 40
0.0573207996
 40
0.0669184069
 40
0.0768741415
 40
0.0871874214
 40
0.1088799375
 40
0.131978937
 40
0.1564568751
 40
0.182278417
 40
0.209401486
 40
0.2377780679
 40
0.2673549265
 40
0.2980741807
 40
0.3298737714
 40
0.3626878467
 40
0.3964471182
 40
0.4310792351
 40
0.466509094
 40
0.5026591221
 40
0.5394495351
 40
0.57679863
 40
0.6146230625
 40
0.6913563437
 40
0.7689609396
 40
0.8467367446
 40
0.9239814542
 40
1.0
 40
1.0
 40
1.0
 40
1.0
 10
7.0648746325
 20
10.1062674084
 30
0.0
 10
7.0636572636
 20
10.1050915203
 30
0.0
 10
7.0612241394
 20
10.1026247394
 30
0.0
 10
7.0576579563
 20
10.0986825892
 30
0.0
 10
7.0540962802
 20
10.094418538
 30
0.0
 10
7.0505414486
 20
10.0898353435
 30
0.0
 10
7.0469953964
 20
10.0849357195
 30
0.0
 10
7.0434602211
 20
10.0797224628
 30
0.0
 10
7.0399379058
 20
10.0741986725
 30
0.0
 10
7.0364305917
 20
10.068367619
 30
0.0
 10
7.0329403704
 20
10.0622327619
 30
0.0
 10
7.0282327756
 20
10.0535051419
 30
0.0
 10
7.0224199119
 20
10.0418490263
 30
0.0
 10
7.0156578432
 20
10.0269391726
 30
0.0
 10
7.0090127969
 20
10.0109153993
 30
0.0
 10
7.0025008054
 20
9.9938160003
 30
0.0
 10
6.996137615
 20
9.9756816225
 30
0.0
 10
6.9899386174
 20
9.9565556298
 30
0.0
 10
6.9839188201
 20
9.9364838212
 30
0.0
 10
6.978092803
 20
9.9155143303
 30
0.0
 10
6.9724746814
 20
9.8936974884
 30
0.0
 10
6.9670780619
 20
9.8710857096
 30
0.0
 10
6.9619159955
 20
9.8477333578
 30
0.0
 10
6.9570009708
 20
9.8236965978
 30
0.0
 10
6.9523448776
 20
9.7990332522
 30
0.0
 10
6.9479589806
 20
9.7738026617
 30
0.0
 10
6.9438538871
 20
9.7480655654
 30
0.0
 10
6.9400394661
 20
9.7218838759
 30
0.0
 10
6.9353312601
 20
9.6862972814
 30
0.0
 10
6.9302452009
 20
9.6411693992
 30
0.0
 10
6.9254547544
 20
9.5865247588
 30
0.0
 10
6.9219949037
 20
9.5316583884
 30
0.0
 10
6.9198988043
 20
9.4770984215
 30
0.0
 10
6.9194184492
 20
9.4408804885
 30
0.0
 10
6.9194184492
 20
9.4229171695
 30
0.0
  0
SPLINE
  5
30B
100
AcDbEntity
  8
0
100
AcDbSpline
 62
7
  6
CONTINUOUS
 70
0
 71
3
 72
32
 73
28
 74
0
 42
0.0000001
 43
0.0000001
 44
0.0000000001
 40
0.0
 40
0.0
 40
0.0
 40
0.0
 40
0.0851787312
 40
0.1685806418
 40
0.2498831816
 40
0.3287740155
 40
0.4049544072
 40
0.4781405859
 40
0.5480662739
 40
0.5817294426
 40
0.6144868925
 40
0.646311459
 40
0.6771775823
 40
0.7070615585
 40
0.7359415117
 40
0.7637978061
 40
0.7906129494
 40
0.8163721909
 40
0.841063392
 40
0.8646778401
 40
0.8872101508
 40
0.9086593436
 40
0.9290288828
 40
0.9483280881
 40
0.9665724768
 40
0.9837856204
 40
1.0
 40
1.0
 40
1.0
 40
1.0
 10
6.9194184492
 20
7.3094713364
 30
0.0
 10
6.9194184492
 20
7.2978269255
 30
0.0
 10
6.9196168725
 20
7.2747804434
 30
0.0
 10
6.9205269453
 20
7.2406302843
 30
0.0
 10
6.9220426872
 20
7.2073618412
 30
0.0
 10
6.9241575375
 20
7.1751152288
 30
0.0
 10
6.9268623118
 20
7.1440260301
 30
0.0
 10
6.9301453913
 20
7.1142251114
 30
0.0
 10
6.9333909773
 20
7.0902747885
 30
0.0
 10
6.9362798502
 20
7.0718601597
 30
0.0
 10
6.9385543698
 20
7.0586229679
 30
0.0
 10
6.9409617263
 20
7.0457981163
 30
0.0
 10
6.9434994171
 20
7.0333990692
 30
0.0
 10
6.9461647159
 20
7.0214388584
 30
0.0
 10
6.9489548383
 20
7.0099300391
 30
0.0
 10
6.9518667795
 20
6.9988846796
 30
0.0
 10
6.9548975197
 20
6.9883143529
 30
0.0
 10
6.9580437847
 20
6.9782301052
 30
0.0
 10
6.9613023434
 20
6.9686424699
 30
0.0
 10
6.9646696771
 20
6.9595614093
 30
0.0
 10
6.9681423762
 20
6.9509963614
 30
0.0
 10
6.971716718
 20
6.9429561445
 30
0.0
 10
6.9753891718
 20
6.9354490445
 30
0.0
 10
6.9791558661
 20
6.9284827048
 30
0.0
 10
6.9830133047
 20
6.9220641482
 30
0.0
 10
6.9869573729
 20
6.9162001039
 30
0.0
 10
6.9897230235
 20
6.9125580157
 30
0.0
 10
6.9911216246
 20
6.9108383599
 30
0.0
  0
SPLINE
  5
30C
100
AcDbEntity
  8
0
100
AcDbSpline
 62
7
  6
CONTINUOUS
 70
0
 71
3
 72
40
 73
36
 74
0
 42
0.0000001
 43
0.0000001
 44
0.0000000001
 40
0.0
 40
0.0
 40
0.0
 40
0.0
 40
0.0310128152
 40
0.0621678252
 40
0.093459446
 40
0.1248801481
 40
0.1564198283
 40
0.188066469
 40
0.2198062168
 40
0.2516237273
 40
0.2835024389
 40
0.3154248873
 40
0.3473730129
 40
0.3793284702
 40
0.4112729305
 40
0.4431883744
 40
0.4750573716
 40
0.5068633457
 40
0.5385908214
 40
0.5702256534
 40
0.6017552358
 40
0.6331686901
 40
0.6644570324
 40
0.6956133169
 40
0.7266327554
 40
0.7575128108
 40
0.7882532623
 40
0.8188562407
 40
0.8493262303
 40
0.8645155623
 40
0.8796743944
 40
0.9099010717
 40
0.9400218136
 40
0.9700497996
 40
1.0
 40
1.0
 40
1.0
 40
1.0
 10
11.1115182193
 20
8.5501692779
 30
0.0
 10
11.1047633765
 20
8.5506377278
 30
0.0
 10
11.0912501893
 20
8.5520354041
 30
0.0
 10
11.071124888
 20
8.5554887033
 30
0.0
 10
11.0511849371
 20
8.5602873068
 30
0.0
 10
11.0315227841
 20
8.5664078206
 30
0.0
 10
11.012227628
 20
8.573820695
 30
0.0
 10
10.9933869774
 20
8.582490151
 30
0.0
 10
10.9750856149
 20
8.5923746004
 30
0.0
 10
10.9574053254
 20
8.6034268959
 30
0.0
 10
10.9404244685
 20
8.6155947027
 30
0.0
 10
10.9242176435
 20
8.6288208546
 30
0.0
 10
10.9088553857
 20
8.6430437404
 30
0.0
 10
10.8944039085
 20
8.6581976944
 30
0.0
 10
10.8809248868
 20
8.6742133901
 30
0.0
 10
10.8684752793
 20
8.6910182309
 30
0.0
 10
10.857107187
 20
8.7085367329
 30
0.0
 10
10.8468677438
 20
8.7266908964
 30
0.0
 10
10.8377990345
 20
8.7454005632
 30
0.0
 10
10.8299380365
 20
8.7645837579
 30
0.0
 10
10.8233165795
 20
8.7841570134
 30
0.0
 10
10.8179613202
 20
8.8040356791
 30
0.0
 10
10.8138937271
 20
8.8241342164
 30
0.0
 10
10.8111300706
 20
8.8443664743
 30
0.0
 10
10.8096814229
 20
8.8646459767
 30
0.0
 10
10.8095536354
 20
8.8848861188
 30
0.0
 10
10.8107474029
 20
8.9050006671
 30
0.0
 10
10.8132580091
 20
8.9249031124
 30
0.0
 10
10.8164432847
 20
8.9412599279
 30
0.0
 10
10.8196386444
 20
8.9541505006
 30
0.0
 10
10.8232543905
 20
8.9668742886
 30
0.0
 10
10.8285680381
 20
8.9824945109
 30
0.0
 10
10.836196494
 20
9.0007088658
 30
0.0
 10
10.8450402603
 20
9.018297198
 30
0.0
 10
10.8517314188
 20
9.0295685022
 30
0.0
 10
10.8552651465
 20
9.0350705144
 30
0.0
  0
SPLINE
  5
30D
100
AcDbEntity
  8
0
100
AcDbSpline
 62
7
  6
CONTINUOUS
 70
0
 71
3
 72
15
 73
11
 74
0
 42
0.0000001
 43
0.0000001
 44
0.0000000001
 40
0.0
 40
0.0
 40
0.0
 40
0.0
 40
0.127348315
 40
0.2538606239
 40
0.3795878599
 40
0.5046051181
 40
0.6290174391
 40
0.7529533757
 40
0.8765605793
 40
1.0
 40
1.0
 40
1.0
 40
1.0
 10
9.0057997112
 20
9.5456321077
 30
0.0
 10
9.0057997112
 20
9.5521304736
 30
0.0
 10
9.0064201766
 20
9.5650935294
 30
0.0
 10
9.0092261491
 20
9.5842887891
 30
0.0
 10
9.0138789294
 20
9.6030017459
 30
0.0
 10
9.0203364787
 20
9.6210573978
 30
0.0
 10
9.0285395925
 20
9.6382892215
 30
0.0
 10
9.0384134477
 20
9.6545381107
 30
0.0
 10
9.0498652018
 20
9.6696518285
 30
0.0
 10
9.0584877925
 20
9.6788841548
 30
0.0
 10
9.0630183025
 20
9.6832602995
 30
0.0
  0
SPLINE
  5
30E
100
AcDbEntity
  8
0
100
AcDbSpline
 62
7
  6
CONTINUOUS
 70
0
 71
3
 72
15
 73
11
 74
0
 42
0.0000001
 43
0.0000001
 44
0.0000000001
 40
0.0
 40
0.0
 40
0.0
 40
0.0
 40
0.1273482228
 40
0.253860527
 40
0.3795879206
 40
0.5046050801
 40
0.6290174363
 40
0.7529533709
 40
0.8765605784
 40
1.0
 40
1.0
 40
1.0
 40
1.0
 10
10.9758056483
 20
6.6918622566
 30
0.0
 10
10.9758056483
 20
6.696189351
 30
0.0
 10
10.9762187947
 20
6.7048211189
 30
0.0
 10
10.978087219
 20
6.7176027593
 30
0.0
 10
10.9811853832
 20
6.7300632475
 30
0.0
 10
10.9854853098
 20
6.7420860493
 30
0.0
 10
10.9909475195
 20
6.7535602986
 30
0.0
 10
10.9975222413
 20
6.7643800427
 30
0.0
 10
11.0051476559
 20
6.7744438994
 30
0.0
 10
11.0108892055
 20
6.7805914869
 30
0.0
 10
11.0139059539
 20
6.7835054549
 30
0.0
  0
SPLINE
  5
30F
100
AcDbEntity
  8
0
100
AcDbSpline
 62
7
  6
CONTINUOUS
 70
0
 71
3
 72
30
 73
26
 74
0
 42
0.0000001
 43
0.0000001
 44
0.0000000001
 40
0.0
 40
0.0
 40
0.0
 40
0.0
 40
0.0309658162
 40
0.0620752714
 40
0.0933181577
 40
0.124689853
 40
0.1561793426
 40
0.1877747703
 40
0.2194625802
 40
0.2512277279
 40
0.3148953867
 40
0.3786736244
 40
0.4424256455
 40
0.5060215571
 40
0.569344822
 40
0.6322978122
 40
0.6948054234
 40
0.7568180319
 40
0.8183134553
 40
0.8488827559
 40
0.8793277416
 40
0.9096538309
 40
0.9398682769
 40
0.9699800976
 40
1.0
 40
1.0
 40
1.0
 40
1.0
 10
12.1228425597
 20
8.6007607669
 30
0.0
 10
12.1202151502
 20
8.6009429784
 30
0.0
 10
12.1149587846
 20
8.6014856899
 30
0.0
 10
12.1071299608
 20
8.6028243008
 30
0.0
 10
12.0993722679
 20
8.6046829254
 30
0.0
 10
12.0917211851
 20
8.6070516109
 30
0.0
 10
12.0842104094
 20
8.6099183796
 30
0.0
 10
12.0768729846
 20
8.6132683493
 30
0.0
 10
12.0697401575
 20
8.6170847443
 30
0.0
 10
12.0605382196
 20
8.6227721335
 30
0.0
 10
12.0496976767
 20
8.6309484151
 30
0.0
 10
12.0379658451
 20
8.6422645876
 30
0.0
 10
12.0276686423
 20
8.6548927302
 30
0.0
 10
12.0189533192
 20
8.6686132577
 30
0.0
 10
12.011936776
 20
8.6831997169
 30
0.0
 10
12.0067089793
 20
8.6984205673
 30
0.0
 10
12.0033346839
 20
8.7140430709
 30
0.0
 10
12.0018546125
 20
8.7298320039
 30
0.0
 10
12.0022165904
 20
8.7429673269
 30
0.0
 10
12.0034656183
 20
8.7533175174
 30
0.0
 10
12.0048746949
 20
8.760962764
 30
0.0
 10
12.0067537302
 20
8.7684749423
 30
0.0
 10
12.0090972427
 20
8.7758259618
 30
0.0
 10
12.0118979971
 20
8.7829869721
 30
0.0
 10
12.0140677031
 20
8.7876230275
 30
0.0
 10
12.0152253598
 20
8.7898987708
 30
0.0
  0
SPLINE
  5
310
100
AcDbEntity
  8
0
100
AcDbSpline
 62
7
  6
CONTINUOUS
 70
0
 71
3
 72
41
 73
37
 74
0
 42
0.0000001
 43
0.0000001
 44
0.0000000001
 40
0.0
 40
0.0
 40
0.0
 40
0.0
 40
0.0299421238
 40
0.0449237703
 40
0.059914519
 40
0.0899291762
 40
0.1200146048
 40
0.1350933663
 40
0.1501974853
 40
0.1804849834
 40
0.2108989722
 40
0.2414525913
 40
0.2721557558
 40
0.3030149766
 40
0.3340332647
 40
0.365210118
 40
0.396541585
 40
0.4280204007
 40
0.4596361866
 40
0.4913757084
 40
0.5232231826
 40
0.5551606251
 40
0.5871682346
 40
0.6192248024
 40
0.6513081434
 40
0.68339554
 40
0.7154641944
 40
0.7474916807
 40
0.7794563937
 40
0.8113379827
 40
0.8431177771
 40
0.8747791563
 40
0.9063079829
 40
0.9376927254
 40
0.9689252285
 40
1.0
 40
1.0
 40
1.0
 40
1.0
 10
9.3562018427
 20
9.3797353228
 30
0.0
 10
9.3527014234
 20
9.3763541712
 30
0.0
 10
9.3472444998
 20
9.3714872774
 30
0.0
 10
9.3396021355
 20
9.3654485823
 30
0.0
 10
9.3317164436
 20
9.3597103205
 30
0.0
 10
9.3214268663
 20
9.3531209778
 30
0.0
 10
9.3106370084
 20
9.347357183
 30
0.0
 10
9.3017381632
 20
9.3432568127
 30
0.0
 10
9.2926554929
 20
9.3394949264
 30
0.0
 10
9.2810028318
 20
9.3354498281
 30
0.0
 10
9.2666426858
 20
9.3316798788
 30
0.0
 10
9.2519691916
 20
9.329009137
 30
0.0
 10
9.2370636681
 20
9.3274523366
 30
0.0
 10
9.2220079949
 20
9.3270177858
 30
0.0
 10
9.2068850132
 20
9.3277076964
 30
0.0
 10
9.1917778425
 20
9.3295180831
 30
0.0
 10
9.1767694908
 20
9.3324388206
 30
0.0
 10
9.161942386
 20
9.3364536991
 30
0.0
 10
9.1473779348
 20
9.3415405206
 30
0.0
 10
9.1331560802
 20
9.3476712237
 30
0.0
 10
9.1193548694
 20
9.35481204
 30
0.0
 10
9.1060500315
 20
9.3629236802
 30
0.0
 10
9.0933145674
 20
9.3719615499
 30
0.0
 10
9.0812183545
 20
9.3818759929
 30
0.0
 10
9.0698277674
 20
9.3926125618
 30
0.0
 10
9.0592053185
 20
9.4041123149
 30
0.0
 10
9.0494093178
 20
9.416312136
 30
0.0
 10
9.0404935562
 20
9.4291450777
 30
0.0
 10
9.0325070139
 20
9.4425407242
 30
0.0
 10
9.0254935897
 20
9.4564255754
 30
0.0
 10
9.0194918709
 20
9.4707234362
 30
0.0
 10
9.0145348996
 20
9.4853558655
 30
0.0
 10
9.0106500387
 20
9.5002424608
 30
0.0
 10
9.0078587269
 20
9.5153018108
 30
0.0
 10
9.0061765077
 20
9.5304500811
 30
0.0
 10
9.0057997112
 20
9.5405812731
 30
0.0
 10
9.0057997112
 20
9.5456321077
 30
0.0
  0
SPLINE
  5
311
100
AcDbEntity
  8
0
100
AcDbSpline
 62
7
  6
CONTINUOUS
 70
0
 71
3
 72
15
 73
11
 74
0
 42
0.0000001
 43
0.0000001
 44
0.0000000001
 40
0.0
 40
0.0
 40
0.0
 40
0.0
 40
0.127348315
 40
0.2538606239
 40
0.3795878599
 40
0.5046051181
 40
0.6290174391
 40
0.7529533757
 40
0.8765605793
 40
1.0
 40
1.0
 40
1.0
 40
1.0
 10
12.8695034755
 20
9.2776833416
 30
0.0
 10
12.8695034755
 20
9.2841817075
 30
0.0
 10
12.870123941
 20
9.2971447633
 30
0.0
 10
12.8729299135
 20
9.316340023
 30
0.0
 10
12.8775826938
 20
9.3350529797
 30
0.0
 10
12.8840402431
 20
9.3531086317
 30
0.0
 10
12.8922433569
 20
9.3703404554
 30
0.0
 10
12.9021172121
 20
9.3865893445
 30
0.0
 10
12.9135689662
 20
9.4017030624
 30
0.0
 10
12.9221915568
 20
9.4109353887
 30
0.0
 10
12.9267220669
 20
9.4153115333
 30
0.0
  0
SPLINE
  5
312
100
AcDbEntity
  8
0
100
AcDbSpline
 62
7
  6
CONTINUOUS
 70
0
 71
3
 72
41
 73
37
 74
0
 42
0.0000001
 43
0.0000001
 44
0.0000000001
 40
0.0
 40
0.0
 40
0.0
 40
0.0
 40
0.0299421238
 40
0.0449237703
 40
0.059914519
 40
0.0899291762
 40
0.1200146048
 40
0.1350933663
 40
0.1501974853
 40
0.1804849834
 40
0.2108989722
 40
0.2414525913
 40
0.2721557558
 40
0.3030149766
 40
0.3340332647
 40
0.365210118
 40
0.396541585
 40
0.4280204007
 40
0.4596361866
 40
0.4913757084
 40
0.5232231826
 40
0.5551606251
 40
0.5871682346
 40
0.6192248024
 40
0.6513081434
 40
0.68339554
 40
0.7154641944
 40
0.7474916807
 40
0.7794563937
 40
0.8113379827
 40
0.8431177771
 40
0.8747791563
 40
0.9063079829
 40
0.9376927254
 40
0.9689252285
 40
1.0
 40
1.0
 40
1.0
 40
1.0
 10
13.2199056071
 20
9.1117865566
 30
0.0
 10
13.2164051878
 20
9.1084054051
 30
0.0
 10
13.2109482642
 20
9.1035385113
 30
0.0
 10
13.2033058999
 20
9.0974998162
 30
0.0
 10
13.195420208
 20
9.0917615543
 30
0.0
 10
13.1851306307
 20
9.0851722116
 30
0.0
 10
13.1743407728
 20
9.0794084168
 30
0.0
 10
13.1654419276
 20
9.0753080466
 30
0.0
 10
13.1563592573
 20
9.0715461603
 30
0.0
 10
13.1447065962
 20
9.067501062
 30
0.0
 10
13.1303464502
 20
9.0637311127
 30
0.0
 10
13.115672956
 20
9.0610603709
 30
0.0
 10
13.1007674325
 20
9.0595035704
 30
0.0
 10
13.0857117593
 20
9.0590690197
 30
0.0
 10
13.0705887775
 20
9.0597589303
 30
0.0
 10
13.0554816069
 20
9.0615693169
 30
0.0
 10
13.0404732552
 20
9.0644900544
 30
0.0
 10
13.0256461504
 20
9.068504933
 30
0.0
 10
13.0110816992
 20
9.0735917545
 30
0.0
 10
12.9968598446
 20
9.0797224576
 30
0.0
 10
12.9830586338
 20
9.0868632739
 30
0.0
 10
12.9697537959
 20
9.0949749141
 30
0.0
 10
12.9570183318
 20
9.1040127838
 30
0.0
 10
12.9449221188
 20
9.1139272267
 30
0.0
 10
12.9335315318
 20
9.1246637957
 30
0.0
 10
12.9229090829
 20
9.1361635488
 30
0.0
 10
12.9131130822
 20
9.1483633698
 30
0.0
 10
12.9041973206
 20
9.1611963115
 30
0.0
 10
12.8962107783
 20
9.1745919581
 30
0.0
 10
12.8891973541
 20
9.1884768093
 30
0.0
 10
12.8831956353
 20
9.20277467
 30
0.0
 10
12.8782386639
 20
9.2174070993
 30
0.0
 10
12.8743538031
 20
9.2322936947
 30
0.0
 10
12.8715624912
 20
9.2473530447
 30
0.0
 10
12.8698802721
 20
9.2625013149
 30
0.0
 10
12.8695034755
 20
9.272632507
 30
0.0
 10
12.8695034755
 20
9.2776833416
 30
0.0
  0
SPLINE
  5
313
100
AcDbEntity
  8
0
100
AcDbSpline
 62
7
  6
CONTINUOUS
 70
0
 71
3
 72
41
 73
37
 74
0
 42
0.0000001
 43
0.0000001
 44
0.0000000001
 40
0.0
 40
0.0
 40
0.0
 40
0.0
 40
0.0299421238
 40
0.0449237703
 40
0.059914519
 40
0.0899291762
 40
0.1200146048
 40
0.1350933663
 40
0.1501974853
 40
0.1804849834
 40
0.2108989722
 40
0.2414525913
 40
0.2721557558
 40
0.3030149766
 40
0.3340332647
 40
0.365210118
 40
0.396541585
 40
0.4280204007
 40
0.4596361866
 40
0.4913757084
 40
0.5232231826
 40
0.5551606251
 40
0.5871682346
 40
0.6192248024
 40
0.6513081434
 40
0.68339554
 40
0.7154641944
 40
0.7474916807
 40
0.7794563937
 40
0.8113379827
 40
0.8431177771
 40
0.8747791563
 40
0.9063079829
 40
0.9376927254
 40
0.9689252285
 40
1.0
 40
1.0
 40
1.0
 40
1.0
 10
9.3562018427
 20
6.7234391431
 30
0.0
 10
9.3527014234
 20
6.7200579915
 30
0.0
 10
9.3472444998
 20
6.7151910977
 30
0.0
 10
9.3396021355
 20
6.7091524027
 30
0.0
 10
9.3317164436
 20
6.7034141408
 30
0.0
 10
9.3214268663
 20
6.6968247981
 30
0.0
 10
9.3106370084
 20
6.6910610033
 30
0.0
 10
9.3017381632
 20
6.6869606331
 30
0.0
 10
9.2926554929
 20
6.6831987467
 30
0.0
 10
9.2810028318
 20
6.6791536484
 30
0.0
 10
9.2666426858
 20
6.6753836992
 30
0.0
 10
9.2519691916
 20
6.6727129573
 30
0.0
 10
9.2370636681
 20
6.6711561569
 30
0.0
 10
9.2220079949
 20
6.6707216061
 30
0.0
 10
9.2068850132
 20
6.6714115167
 30
0.0
 10
9.1917778425
 20
6.6732219034
 30
0.0
 10
9.1767694908
 20
6.6761426409
 30
0.0
 10
9.161942386
 20
6.6801575194
 30
0.0
 10
9.1473779348
 20
6.685244341
 30
0.0
 10
9.1331560802
 20
6.6913750441
 30
0.0
 10
9.1193548694
 20
6.6985158603
 30
0.0
 10
9.1060500315
 20
6.7066275006
 30
0.0
 10
9.0933145674
 20
6.7156653703
 30
0.0
 10
9.0812183545
 20
6.7255798132
 30
0.0
 10
9.0698277674
 20
6.7363163821
 30
0.0
 10
9.0592053185
 20
6.7478161352
 30
0.0
 10
9.0494093178
 20
6.7600159563
 30
0.0
 10
9.0404935562
 20
6.772848898
 30
0.0
 10
9.0325070139
 20
6.7862445445
 30
0.0
 10
9.0254935897
 20
6.8001293957
 30
0.0
 10
9.0194918709
 20
6.8144272565
 30
0.0
 10
9.0145348996
 20
6.8290596858
 30
0.0
 10
9.0106500387
 20
6.8439462811
 30
0.0
 10
9.0078587269
 20
6.8590056311
 30
0.0
 10
9.0061765077
 20
6.8741539014
 30
0.0
 10
9.0057997112
 20
6.8842850934
 30
0.0
 10
9.0057997112
 20
6.889335928
 30
0.0
  0
SPLINE
  5
314
100
AcDbEntity
  8
0
100
AcDbSpline
 62
7
  6
CONTINUOUS
 70
0
 71
3
 72
15
 73
11
 74
0
 42
0.0000001
 43
0.0000001
 44
0.0000000001
 40
0.0
 40
0.0
 40
0.0
 40
0.0
 40
0.127348315
 40
0.2538606239
 40
0.3795878599
 40
0.5046051181
 40
0.6290174391
 40
0.7529533757
 40
0.8765605793
 40
1.0
 40
1.0
 40
1.0
 40
1.0
 10
9.0057997112
 20
6.889335928
 30
0.0
 10
9.0057997112
 20
6.895834294
 30
0.0
 10
9.0064201766
 20
6.9087973497
 30
0.0
 10
9.0092261491
 20
6.9279926094
 30
0.0
 10
9.0138789294
 20
6.9467055662
 30
0.0
 10
9.0203364787
 20
6.9647612181
 30
0.0
 10
9.0285395925
 20
6.9819930418
 30
0.0
 10
9.0384134477
 20
6.998241931
 30
0.0
 10
9.0498652018
 20
7.0133556488
 30
0.0
 10
9.0584877925
 20
7.0225879751
 30
0.0
 10
9.0630183025
 20
7.0269641198
 30
0.0
  0
SPLINE
  5
315
100
AcDbEntity
  8
0
100
AcDbSpline
 62
7
  6
CONTINUOUS
 70
0
 71
3
 72
41
 73
37
 74
0
 42
0.0000001
 43
0.0000001
 44
0.0000000001
 40
0.0
 40
0.0
 40
0.0
 40
0.0
 40
0.0299421238
 40
0.0449237703
 40
0.059914519
 40
0.0899291762
 40
0.1200146048
 40
0.1350933663
 40
0.1501974853
 40
0.1804849834
 40
0.2108989722
 40
0.2414525913
 40
0.2721557558
 40
0.3030149766
 40
0.3340332647
 40
0.365210118
 40
0.396541585
 40
0.4280204007
 40
0.4596361866
 40
0.4913757084
 40
0.5232231826
 40
0.5551606251
 40
0.5871682346
 40
0.6192248024
 40
0.6513081434
 40
0.68339554
 40
0.7154641944
 40
0.7474916807
 40
0.7794563937
 40
0.8113379827
 40
0.8431177771
 40
0.8747791563
 40
0.9063079829
 40
0.9376927254
 40
0.9689252285
 40
1.0
 40
1.0
 40
1.0
 40
1.0
 10
13.2199056071
 20
6.4554903769
 30
0.0
 10
13.2164051878
 20
6.4521092254
 30
0.0
 10
13.2109482642
 20
6.4472423316
 30
0.0
 10
13.2033058999
 20
6.4412036365
 30
0.0
 10
13.195420208
 20
6.4354653747
 30
0.0
 10
13.1851306307
 20
6.4288760319
 30
0.0
 10
13.1743407728
 20
6.4231122372
 30
0.0
 10
13.1654419276
 20
6.4190118669
 30
0.0
 10
13.1563592573
 20
6.4152499806
 30
0.0
 10
13.1447065962
 20
6.4112048823
 30
0.0
 10
13.1303464502
 20
6.407434933
 30
0.0
 10
13.115672956
 20
6.4047641912
 30
0.0
 10
13.1007674325
 20
6.4032073907
 30
0.0
 10
13.0857117593
 20
6.40277284
 30
0.0
 10
13.0705887775
 20
6.4034627506
 30
0.0
 10
13.0554816069
 20
6.4052731373
 30
0.0
 10
13.0404732552
 20
6.4081938748
 30
0.0
 10
13.0256461504
 20
6.4122087533
 30
0.0
 10
13.0110816992
 20
6.4172955748
 30
0.0
 10
12.9968598446
 20
6.4234262779
 30
0.0
 10
12.9830586338
 20
6.4305670942
 30
0.0
 10
12.9697537959
 20
6.4386787344
 30
0.0
 10
12.9570183318
 20
6.4477166041
 30
0.0
 10
12.9449221188
 20
6.4576310471
 30
0.0
 10
12.9335315318
 20
6.468367616
 30
0.0
 10
12.9229090829
 20
6.4798673691
 30
0.0
 10
12.9131130822
 20
6.4920671902
 30
0.0
 10
12.9041973206
 20
6.5049001318
 30
0.0
 10
12.8962107783
 20
6.5182957784
 30
0.0
 10
12.8891973541
 20
6.5321806296
 30
0.0
 10
12.8831956353
 20
6.5464784903
 30
0.0
 10
12.8782386639
 20
6.5611109197
 30
0.0
 10
12.8743538031
 20
6.575997515
 30
0.0
 10
12.8715624912
 20
6.591056865
 30
0.0
 10
12.8698802721
 20
6.6062051352
 30
0.0
 10
12.8695034755
 20
6.6163363273
 30
0.0
 10
12.8695034755
 20
6.6213871619
 30
0.0
  0
SPLINE
  5
316
100
AcDbEntity
  8
0
100
AcDbSpline
 62
7
  6
CONTINUOUS
 70
0
 71
3
 72
11
 73
7
 74
0
 42
0.0000001
 43
0.0000001
 44
0.0000000001
 40
0.0
 40
0.0
 40
0.0
 40
0.0
 40
0.2544764417
 40
0.5051371634
 40
0.7532188045
 40
1.0
 40
1.0
 40
1.0
 40
1.0
 10
13.9966869874
 20
7.7113399022
 30
0.0
 10
13.9954551856
 20
7.7110602458
 30
0.0
 10
13.9929900332
 20
7.7105889503
 30
0.0
 10
13.9892736562
 20
7.7101520205
 30
0.0
 10
13.9855732807
 20
7.7099916397
 30
0.0
 10
13.9831154248
 20
7.710069316
 30
0.0
 10
13.9818934089
 20
7.7101540674
 30
0.0
  0
SPLINE
  5
317
100
AcDbEntity
  8
0
100
AcDbSpline
 62
7
  6
CONTINUOUS
 70
0
 71
3
 72
39
 73
35
 74
0
 42
0.0000001
 43
0.0000001
 44
0.0000000001
 40
0.0
 40
0.0
 40
0.0
 40
0.0
 40
0.0299424756
 40
0.0599093253
 40
0.0899243308
 40
0.1200101061
 40
0.1501875593
 40
0.1804754054
 40
0.2108897454
 40
0.2414437198
 40
0.2721472437
 40
0.3030068255
 40
0.3340254745
 40
0.3652026886
 40
0.3965345175
 40
0.4280136976
 40
0.4596298523
 40
0.4913697474
 40
0.5232175981
 40
0.5551554173
 40
0.5871634018
 40
0.6192203434
 40
0.6513040581
 40
0.68339183
 40
0.7154608619
 40
0.7474887274
 40
0.7794538181
 40
0.8113357796
 40
0.8431159521
 40
0.8747776664
 40
0.9063069638
 40
0.937691791
 40
0.9689252156
 40
1.0
 40
1.0
 40
1.0
 40
1.0
 10
10.6054268387
 20
9.4012654506
 30
0.0
 10
10.6030959913
 20
9.399014015
 30
0.0
 10
10.5982510324
 20
9.3946928256
 30
0.0
 10
10.5904886294
 20
9.3888059858
 30
0.0
 10
10.5822709619
 20
9.3835435275
 30
0.0
 10
10.5736439431
 20
9.3789349743
 30
0.0
 10
10.5646550052
 20
9.3750055007
 30
0.0
 10
10.5553537556
 20
9.3717767073
 30
0.0
 10
10.5457914485
 20
9.3692662622
 30
0.0
 10
10.5360207642
 20
9.367487875
 30
0.0
 10
10.5260954984
 20
9.3664512132
 30
0.0
 10
10.5160702703
 20
9.3661618469
 30
0.0
 10
10.5060002172
 20
9.366621232
 30
0.0
 10
10.4959406934
 20
9.3678267149
 30
0.0
 10
10.485946969
 20
9.3697715514
 30
0.0
 10
10.4760739305
 20
9.3724449489
 30
0.0
 10
10.4663757847
 20
9.3758321288
 30
0.0
 10
10.4569057651
 20
9.3799144094
 30
0.0
 10
10.4477158455
 20
9.3846693109
 30
0.0
 10
10.4388564521
 20
9.3900706669
 30
0.0
 10
10.4303761922
 20
9.396088778
 30
0.0
 10
10.4223215939
 20
9.4026905773
 30
0.0
 10
10.414736853
 20
9.409839809
 30
0.0
 10
10.4076635949
 20
9.4174972265
 30
0.0
 10
10.4011406483
 20
9.4256208041
 30
0.0
 10
10.3952038348
 20
9.4341659655
 30
0.0
 10
10.389885776
 20
9.4430858249
 30
0.0
 10
10.3852156965
 20
9.452331436
 30
0.0
 10
10.3812192969
 20
9.4618520586
 30
0.0
 10
10.377918547
 20
9.4715954669
 30
0.0
 10
10.3753317339
 20
9.481508097
 30
0.0
 10
10.373473006
 20
9.4915358093
 30
0.0
 10
10.3723528938
 20
9.5016226972
 30
0.0
 10
10.3721019711
 20
9.5083688498
 30
0.0
 10
10.3721019711
 20
9.5117320486
 30
0.0
  0
SPLINE
  5
318
100
AcDbEntity
  8
0
100
AcDbSpline
 62
7
  6
CONTINUOUS
 70
0
 71
3
 72
23
 73
19
 74
0
 42
0.0000001
 43
0.0000001
 44
0.0000000001
 40
0.0
 40
0.0
 40
0.0
 40
0.0
 40
0.0615923148
 40
0.1235204212
 40
0.185755608
 40
0.2482601229
 40
0.3109897846
 40
0.3738937397
 40
0.4369166002
 40
0.4999997136
 40
0.563082816
 40
0.6261056513
 40
0.6890095892
 40
0.7517392027
 40
0.8142437825
 40
0.8764787604
 40
0.9384070086
 40
1.0
 40
1.0
 40
1.0
 40
1.0
 10
12.1287390205
 20
9.4041013072
 30
0.0
 10
12.1289852005
 20
9.4019299811
 30
0.0
 10
12.1296644354
 20
9.3975943242
 30
0.0
 10
12.1312278484
 20
9.3911845481
 30
0.0
 10
12.1333272542
 20
9.3848952673
 30
0.0
 10
12.1359469904
 20
9.3787736305
 30
0.0
 10
12.1390675787
 20
9.372864713
 30
0.0
 10
12.1426659077
 20
9.3672122277
 30
0.0
 10
12.1467153257
 20
9.3618579342
 30
0.0
 10
12.1511858832
 20
9.356841416
 30
0.0
 10
12.1560445169
 20
9.3521997566
 30
0.0
 10
12.1612553037
 20
9.3479672728
 30
0.0
 10
12.1667797288
 20
9.3441752758
 30
0.0
 10
12.1725769823
 20
9.340851839
 30
0.0
 10
12.1786041816
 20
9.338021603
 30
0.0
 10
12.1848169511
 20
9.3357055623
 30
0.0
 10
12.1911687423
 20
9.3339210297
 30
0.0
 10
12.195478301
 20
9.3330920393
 30
0.0
 10
12.197639816
 20
9.3327707624
 30
0.0
  0
SPLINE
  5
319
100
AcDbEntity
  8
0
100
AcDbSpline
 62
7
  6
CONTINUOUS
 70
0
 71
3
 72
15
 73
11
 74
0
 42
0.0000001
 43
0.0000001
 44
0.0000000001
 40
0.0
 40
0.0
 40
0.0
 40
0.0
 40
0.127348315
 40
0.2538606239
 40
0.3795878599
 40
0.5046051181
 40
0.6290174391
 40
0.7529533757
 40
0.8765605793
 40
1.0
 40
1.0
 40
1.0
 40
1.0
 10
12.8695034755
 20
6.6213871619
 30
0.0
 10
12.8695034755
 20
6.6278855278
 30
0.0
 10
12.870123941
 20
6.6408485836
 30
0.0
 10
12.8729299135
 20
6.6600438433
 30
0.0
 10
12.8775826938
 20
6.6787568001
 30
0.0
 10
12.8840402431
 20
6.696812452
 30
0.0
 10
12.8922433569
 20
6.7140442757
 30
0.0
 10
12.9021172121
 20
6.7302931648
 30
0.0
 10
12.9135689662
 20
6.7454068827
 30
0.0
 10
12.9221915568
 20
6.754639209
 30
0.0
 10
12.9267220669
 20
6.7590153537
 30
0.0
  0
SPLINE
  5
31A
100
AcDbEntity
  8
0
100
AcDbSpline
 62
7
  6
CONTINUOUS
 70
0
 71
3
 72
39
 73
35
 74
0
 42
0.0000001
 43
0.0000001
 44
0.0000000001
 40
0.0
 40
0.0
 40
0.0
 40
0.0
 40
0.0299424756
 40
0.0599093253
 40
0.0899243308
 40
0.1200101061
 40
0.1501875593
 40
0.1804754054
 40
0.2108897454
 40
0.2414437198
 40
0.2721472437
 40
0.3030068255
 40
0.3340254745
 40
0.3652026886
 40
0.3965345175
 40
0.4280136976
 40
0.4596298523
 40
0.4913697474
 40
0.5232175981
 40
0.5551554173
 40
0.5871634018
 40
0.6192203434
 40
0.6513040581
 40
0.68339183
 40
0.7154608619
 40
0.7474887274
 40
0.7794538181
 40
0.8113357796
 40
0.8431159521
 40
0.8747776664
 40
0.9063069638
 40
0.937691791
 40
0.9689252156
 40
1.0
 40
1.0
 40
1.0
 40
1.0
 10
11.2091305159
 20
6.5813956586
 30
0.0
 10
11.2067996685
 20
6.579144223
 30
0.0
 10
11.2019547096
 20
6.5748230336
 30
0.0
 10
11.1941923066
 20
6.5689361938
 30
0.0
 10
11.1859746391
 20
6.5636737355
 30
0.0
 10
11.1773476203
 20
6.5590651823
 30
0.0
 10
11.1683586824
 20
6.5551357087
 30
0.0
 10
11.1590574328
 20
6.5519069153
 30
0.0
 10
11.1494951257
 20
6.5493964702
 30
0.0
 10
11.1397244414
 20
6.547618083
 30
0.0
 10
11.1297991756
 20
6.5465814212
 30
0.0
 10
11.1197739475
 20
6.5462920549
 30
0.0
 10
11.1097038944
 20
6.54675144
 30
0.0
 10
11.0996443706
 20
6.5479569229
 30
0.0
 10
11.0896506462
 20
6.5499017594
 30
0.0
 10
11.0797776077
 20
6.5525751569
 30
0.0
 10
11.0700794619
 20
6.5559623368
 30
0.0
 10
11.0606094423
 20
6.5600446174
 30
0.0
 10
11.0514195227
 20
6.5647995189
 30
0.0
 10
11.0425601293
 20
6.5702008749
 30
0.0
 10
11.0340798694
 20
6.576218986
 30
0.0
 10
11.0260252711
 20
6.5828207853
 30
0.0
 10
11.0184405302
 20
6.589970017
 30
0.0
 10
11.0113672721
 20
6.5976274345
 30
0.0
 10
11.0048443255
 20
6.6057510121
 30
0.0
 10
10.998907512
 20
6.6142961735
 30
0.0
 10
10.9935894532
 20
6.6232160329
 30
0.0
 10
10.9889193737
 20
6.632461644
 30
0.0
 10
10.9849229741
 20
6.6419822666
 30
0.0
 10
10.9816222242
 20
6.6517256749
 30
0.0
 10
10.9790354112
 20
6.661638305
 30
0.0
 10
10.9771766832
 20
6.6716660173
 30
0.0
 10
10.976056571
 20
6.6817529052
 30
0.0
 10
10.9758056483
 20
6.6884990578
 30
0.0
 10
10.9758056483
 20
6.6918622566
 30
0.0
  0
SPLINE
  5
31B
100
AcDbEntity
  8
0
100
AcDbSpline
 62
7
  6
CONTINUOUS
 70
0
 71
3
 72
23
 73
19
 74
0
 42
0.0000001
 43
0.0000001
 44
0.0000000001
 40
0.0
 40
0.0
 40
0.0
 40
0.0
 40
0.0618155482
 40
0.1235903705
 40
0.1853555635
 40
0.2471424319
 40
0.3089820137
 40
0.3709046082
 40
0.4329393155
 40
0.495113595
 40
0.5574528576
 40
0.6199800843
 40
0.6827155279
 40
0.7456763122
 40
0.8088765964
 40
0.8723262404
 40
0.936033611
 40
1.0
 40
1.0
 40
1.0
 40
1.0
 10
10.1956781469
 20
8.7035498704
 30
0.0
 10
10.1914981771
 20
8.6981475647
 30
0.0
 10
10.1828018975
 20
8.6876040039
 30
0.0
 10
10.1687993412
 20
8.6726390267
 30
0.0
 10
10.1538898127
 20
8.6585808337
 30
0.0
 10
10.1381243199
 20
8.645478902
 30
0.0
 10
10.1215560892
 20
8.6333784818
 30
0.0
 10
10.1042414416
 20
8.6223217301
 30
0.0
 10
10.0862393263
 20
8.6123471911
 30
0.0
 10
10.0676112009
 20
8.6034897268
 30
0.0
 10
10.0484207972
 20
8.5957803512
 30
0.0
 10
10.0287338989
 20
8.5892461032
 30
0.0
 10
10.0086181179
 20
8.583909954
 30
0.0
 10
9.988142601
 20
8.5797906476
 30
0.0
 10
9.9673779582
 20
8.5769027594
 30
0.0
 10
9.9463953992
 20
8.5752563713
 30
0.0
 10
9.9252683493
 20
8.5748573979
 30
0.0
 10
9.9111621956
 20
8.5754228744
 30
0.0
 10
9.9041108678
 20
8.5759118857
 30
0.0
  0
SPLINE
  5
31C
100
AcDbEntity
  8
0
100
AcDbSpline
 62
7
  6
CONTINUOUS
 70
0
 71
3
 72
41
 73
37
 74
0
 42
0.0000001
 43
0.0000001
 44
0.0000000001
 40
0.0
 40
0.0
 40
0.0
 40
0.0
 40
0.0314064654
 40
0.0630250988
 40
0.0948402932
 40
0.1268267535
 40
0.15895365
 40
0.1750631132
 40
0.191193953
 40
0.223491372
 40
0.2558146481
 40
0.2719776279
 40
0.2881322349
 40
0.3203895814
 40
0.3525595636
 40
0.3846105791
 40
0.416515521
 40
0.448252378
 40
0.4798047055
 40
0.5111619907
 40
0.542319927
 40
0.5732806039
 40
0.6040526025
 40
0.6346509759
 40
0.6650970814
 40
0.6954182228
 40
0.7256470574
 40
0.7558207268
 40
0.7859796836
 40
0.8161662139
 40
0.8464226915
 40
0.8767896355
 40
0.9073036954
 40
0.9379958039
 40
0.9688887951
 40
1.0
 40
1.0
 40
1.0
 40
1.0
 10
12.5604070602
 20
7.0007860054
 30
0.0
 10
12.5564164195
 20
7.0010627573
 30
0.0
 10
12.548430878
 20
7.0020283016
 30
0.0
 10
12.5366256404
 20
7.0046767927
 30
0.0
 10
12.5250678462
 20
7.0084990982
 30
0.0
 10
12.5138770509
 20
7.0134493542
 30
0.0
 10
12.5049547851
 20
7.0184632321
 30
0.0
 10
12.4981058865
 20
7.0229741376
 30
0.0
 10
12.4914571135
 20
7.0278122916
 30
0.0
 10
12.4835692382
 20
7.0344370435
 30
0.0
 10
12.4763171491
 20
7.0417574513
 30
0.0
 10
12.4709313259
 20
7.047988023
 30
0.0
 10
12.4658368967
 20
7.0544482695
 30
0.0
 10
12.4600297821
 20
7.0629292752
 30
0.0
 10
12.4540119964
 20
7.0736615956
 30
0.0
 10
12.4489917775
 20
7.0848464567
 30
0.0
 10
12.4450061721
 20
7.0963818758
 30
0.0
 10
12.4420833528
 20
7.108165952
 30
0.0
 10
12.4402436634
 20
7.120096486
 30
0.0
 10
12.4394997893
 20
7.1320714509
 30
0.0
 10
12.4398570195
 20
7.143989102
 30
0.0
 10
12.4413133178
 20
7.1557481076
 30
0.0
 10
12.4438592637
 20
7.167247662
 30
0.0
 10
12.4474778443
 20
7.1783876534
 30
0.0
 10
12.4521441169
 20
7.189068933
 30
0.0
 10
12.4578247679
 20
7.1991937316
 30
0.0
 10
12.464477605
 20
7.2086662691
 30
0.0
 10
12.4720510398
 20
7.2173935901
 30
0.0
 10
12.4804836304
 20
7.2252866453
 30
0.0
 10
12.489703773
 20
7.2322616147
 30
0.0
 10
12.4996296104
 20
7.2382414407
 30
0.0
 10
12.5101693197
 20
7.2431575015
 30
0.0
 10
12.52122156
 20
7.246951372
 30
0.0
 10
12.5326771362
 20
7.2495763785
 30
0.0
 10
12.5444182735
 20
7.2509995058
 30
0.0
 10
12.5523310831
 20
7.2511335415
 30
0.0
 10
12.5562914088
 20
7.2509987611
 30
0.0
  0
SPLINE
  5
31D
100
AcDbEntity
  8
0
100
AcDbSpline
 62
7
  6
CONTINUOUS
 70
0
 71
3
 72
15
 73
11
 74
0
 42
0.0000001
 43
0.0000001
 44
0.0000000001
 40
0.0
 40
0.0
 40
0.0
 40
0.0
 40
0.127347002
 40
0.2538611168
 40
0.379587791
 40
0.5046051628
 40
0.6290174373
 40
0.7529533687
 40
0.8765605638
 40
1.0
 40
1.0
 40
1.0
 40
1.0
 10
12.0475003497
 20
9.334689452
 30
0.0
 10
12.0475003497
 20
9.3370917177
 30
0.0
 10
12.047729736
 20
9.3418838573
 30
0.0
 10
12.0487670239
 20
9.3489798875
 30
0.0
 10
12.0504871137
 20
9.3558976308
 30
0.0
 10
12.0528743598
 20
9.3625723471
 30
0.0
 10
12.0559069155
 20
9.3689425138
 30
0.0
 10
12.0595571146
 20
9.3749492947
 30
0.0
 10
12.0637906314
 20
9.3805364197
 30
0.0
 10
12.0669782782
 20
9.3839493124
 30
0.0
 10
12.0686531139
 20
9.3855670538
 30
0.0
  0
SPLINE
  5
31E
100
AcDbEntity
  8
0
100
AcDbSpline
 62
7
  6
CONTINUOUS
 70
0
 71
3
 72
25
 73
21
 74
0
 42
0.0000001
 43
0.0000001
 44
0.0000000001
 40
0.0
 40
0.0
 40
0.0
 40
0.0
 40
0.0619710016
 40
0.0929259553
 40
0.1238633813
 40
0.1856945926
 40
0.24750949
 40
0.2784267182
 40
0.3093536099
 40
0.3712457171
 40
0.4332304758
 40
0.4953422389
 40
0.5576133008
 40
0.6200732835
 40
0.6827486194
 40
0.7456619481
 40
0.8088320704
 40
0.8722725921
 40
0.9359942523
 40
1.0
 40
1.0
 40
1.0
 40
1.0
 10
11.3677713233
 20
8.6764969598
 30
0.0
 10
11.3644234147
 20
8.6712842678
 30
0.0
 10
11.3591402948
 20
8.6636319362
 30
0.0
 10
11.3516002811
 20
8.6538076129
 30
0.0
 10
11.3437429141
 20
8.6442526934
 30
0.0
 10
11.3333285709
 20
8.6328184991
 30
0.0
 10
11.3221664242
 20
8.6221157956
 30
0.0
 10
11.3128185131
 20
8.6140231838
 30
0.0
 10
11.3031957337
 20
8.6062472079
 30
0.0
 10
11.2906689734
 20
8.5971380674
 30
0.0
 10
11.2749125572
 20
8.587240572
 30
0.0
 10
11.2584883932
 20
8.5784145972
 30
0.0
 10
11.2414624597
 20
8.5706986206
 30
0.0
 10
11.2239031508
 20
8.5641261695
 30
0.0
 10
11.205881669
 20
8.5587261526
 30
0.0
 10
11.1874714775
 20
8.5545224434
 30
0.0
 10
11.1687481701
 20
8.5515338623
 30
0.0
 10
11.1497884981
 20
8.5497737909
 30
0.0
 10
11.1306719017
 20
8.5492503667
 30
0.0
 10
11.1179015121
 20
8.549726595
 30
0.0
 10
11.1115182193
 20
8.5501692779
 30
0.0
  0
SPLINE
  5
31F
100
AcDbEntity
  8
0
100
AcDbSpline
 62
7
  6
CONTINUOUS
 70
0
 71
3
 72
23
 73
19
 74
0
 42
0.0000001
 43
0.0000001
 44
0.0000000001
 40
0.0
 40
0.0
 40
0.0
 40
0.0
 40
0.0622033919
 40
0.1242632834
 40
0.1862159052
 40
0.2481003033
 40
0.3099577536
 40
0.3718309956
 40
0.4337633163
 40
0.4957975887
 40
0.5579753748
 40
0.6203359435
 40
0.6829151673
 40
0.74574451
 40
0.8088508386
 40
0.8722526539
 40
0.9359691425
 40
1.0
 40
1.0
 40
1.0
 40
1.0
 10
12.2304597774
 20
8.6616227775
 30
0.0
 10
12.2292274704
 20
8.6592002854
 30
0.0
 10
12.2265955314
 20
8.6544452309
 30
0.0
 10
12.2221578023
 20
8.6476176387
 30
0.0
 10
12.2172514667
 20
8.6411354158
 30
0.0
 10
12.2118958933
 20
8.6350308569
 30
0.0
 10
12.206112556
 20
8.6293346513
 30
0.0
 10
12.1999254513
 20
8.6240764223
 30
0.0
 10
12.1933610497
 20
8.619284265
 30
0.0
 10
12.1864483413
 20
8.6149844833
 30
0.0
 10
12.1792187339
 20
8.6112013379
 30
0.0
 10
12.1717059682
 20
8.6079567541
 30
0.0
 10
12.1639459881
 20
8.6052700376
 30
0.0
 10
12.1559767256
 20
8.6031575368
 30
0.0
 10
12.1478380052
 20
8.6016324952
 30
0.0
 10
12.139570735
 20
8.6007045146
 30
0.0
 10
12.1312179669
 20
8.6003800492
 30
0.0
 10
12.1256336177
 20
8.6005672064
 30
0.0
 10
12.1228425597
 20
8.6007607669
 30
0.0
  0
SPLINE
  5
320
100
AcDbEntity
  8
0
100
AcDbSpline
 62
7
  6
CONTINUOUS
 70
0
 71
3
 72
34
 73
30
 74
0
 42
0.0000001
 43
0.0000001
 44
0.0000000001
 40
0.0
 40
0.0
 40
0.0
 40
0.0
 40
0.029948265
 40
0.059920911
 40
0.0899417355
 40
0.1200333579
 40
0.1502166746
 40
0.1805103996
 40
0.2109306468
 40
0.241490565
 40
0.2722000568
 40
0.303065626
 40
0.3340902961
 40
0.3652735746
 40
0.3966114954
 40
0.4280967817
 40
0.4597190652
 40
0.4914651189
 40
0.5552240134
 40
0.6192627273
 40
0.6834082032
 40
0.7474789322
 40
0.8112993139
 40
0.8430855846
 40
0.8747534858
 40
0.9062889405
 40
0.9376793031
 40
0.9689201346
 40
1.0
 40
1.0
 40
1.0
 40
1.0
 10
12.1770320233
 20
9.2733618488
 30
0.0
 10
12.1757380275
 20
9.2721119647
 30
0.0
 10
12.1730482434
 20
9.2697131174
 30
0.0
 10
12.1687388524
 20
9.2664450719
 30
0.0
 10
12.1641767215
 20
9.2635236539
 30
0.0
 10
12.1593873322
 20
9.2609652747
 30
0.0
 10
12.1543970234
 20
9.2587839053
 30
0.0
 10
12.1492333486
 20
9.2569915068
 30
0.0
 10
12.1439247567
 20
9.2555978864
 30
0.0
 10
12.1385004844
 20
9.2546106895
 30
0.0
 10
12.132990402
 20
9.254035275
 30
0.0
 10
12.1274248343
 20
9.2538747017
 30
0.0
 10
12.1218343839
 20
9.2541297818
 30
0.0
 10
12.1162497872
 20
9.254799074
 30
0.0
 10
12.1107017118
 20
9.2558788521
 30
0.0
 10
12.105220702
 20
9.257363035
 30
0.0
 10
12.0998365461
 20
9.2592436114
 30
0.0
 10
12.0928186665
 20
9.2622687073
 30
0.0
 10
12.0844374006
 20
9.2669877749
 30
0.0
 10
12.0752441703
 20
9.2740070011
 30
0.0
 10
12.0670928762
 20
9.2822413503
 30
0.0
 10
12.0601630697
 20
9.2915091187
 30
0.0
 10
12.0555230336
 20
9.2999434431
 30
0.0
 10
12.0525619368
 20
9.3069981328
 30
0.0
 10
12.0507293878
 20
9.3124074359
 30
0.0
 10
12.0492933839
 20
9.3179104249
 30
0.0
 10
12.0482614604
 20
9.3234774288
 30
0.0
 10
12.0476396855
 20
9.3290772191
 30
0.0
 10
12.0475003497
 20
9.3328224088
 30
0.0
 10
12.0475003497
 20
9.334689452
 30
0.0
  0
SPLINE
  5
321
100
AcDbEntity
  8
0
100
AcDbSpline
 62
7
  6
CONTINUOUS
 70
0
 71
3
 72
34
 73
30
 74
0
 42
0.0000001
 43
0.0000001
 44
0.0000000001
 40
0.0
 40
0.0
 40
0.0
 40
0.0
 40
0.029948265
 40
0.059920911
 40
0.0899417355
 40
0.1200333579
 40
0.1502166746
 40
0.1805103996
 40
0.2109306468
 40
0.241490565
 40
0.2722000568
 40
0.303065626
 40
0.3340902961
 40
0.3652735746
 40
0.3966114954
 40
0.4280967817
 40
0.4597190652
 40
0.4914651189
 40
0.5552240134
 40
0.6192627273
 40
0.6834082032
 40
0.7474789322
 40
0.8112993139
 40
0.8430855846
 40
0.8747534858
 40
0.9062889405
 40
0.9376793031
 40
0.9689201346
 40
1.0
 40
1.0
 40
1.0
 40
1.0
 10
9.9583003352
 20
6.7709352343
 30
0.0
 10
9.9570063394
 20
6.7696853502
 30
0.0
 10
9.9543165553
 20
6.7672865029
 30
0.0
 10
9.9500071643
 20
6.7640184574
 30
0.0
 10
9.9454450333
 20
6.7610970394
 30
0.0
 10
9.940655644
 20
6.7585386602
 30
0.0
 10
9.9356653353
 20
6.7563572908
 30
0.0
 10
9.9305016605
 20
6.7545648923
 30
0.0
 10
9.9251930686
 20
6.7531712719
 30
0.0
 10
9.9197687963
 20
6.752184075
 30
0.0
 10
9.9142587138
 20
6.7516086605
 30
0.0
 10
9.9086931462
 20
6.7514480872
 30
0.0
 10
9.9031026958
 20
6.7517031673
 30
0.0
 10
9.8975180991
 20
6.7523724595
 30
0.0
 10
9.8919700237
 20
6.7534522376
 30
0.0
 10
9.8864890139
 20
6.7549364205
 30
0.0
 10
9.8811048579
 20
6.7568169969
 30
0.0
 10
9.8740869784
 20
6.7598420928
 30
0.0
 10
9.8657057125
 20
6.7645611604
 30
0.0
 10
9.8565124822
 20
6.7715803866
 30
0.0
 10
9.848361188
 20
6.7798147358
 30
0.0
 10
9.8414313816
 20
6.7890825042
 30
0.0
 10
9.8367913455
 20
6.7975168286
 30
0.0
 10
9.8338302487
 20
6.8045715183
 30
0.0
 10
9.8319976997
 20
6.8099808214
 30
0.0
 10
9.8305616957
 20
6.8154838104
 30
0.0
 10
9.8295297723
 20
6.8210508143
 30
0.0
 10
9.8289079974
 20
6.8266506046
 30
0.0
 10
9.8287686616
 20
6.8303957943
 30
0.0
 10
9.8287686616
 20
6.8322628375
 30
0.0
  0
SPLINE
  5
322
100
AcDbEntity
  8
0
100
AcDbSpline
 62
7
  6
CONTINUOUS
 70
0
 71
3
 72
11
 73
7
 74
0
 42
0.0000001
 43
0.0000001
 44
0.0000000001
 40
0.0
 40
0.0
 40
0.0
 40
0.0
 40
0.246709364
 40
0.4947487107
 40
0.7454245596
 40
1.0
 40
1.0
 40
1.0
 40
1.0
 10
14.0900980213
 20
9.2704065303
 30
0.0
 10
14.0913338993
 20
9.2703208174
 30
0.0
 10
14.0938067804
 20
9.2700543861
 30
0.0
 10
14.0974906929
 20
9.2693722671
 30
0.0
 10
14.1011517307
 20
9.268407776
 30
0.0
 10
14.1035541574
 20
9.2675843194
 30
0.0
 10
14.104748346
 20
9.2671281591
 30
0.0
  0
SPLINE
  5
323
100
AcDbEntity
  8
0
100
AcDbSpline
 62
7
  6
CONTINUOUS
 70
0
 71
3
 72
21
 73
17
 74
0
 42
0.0000001
 43
0.0000001
 44
0.0000000001
 40
0.0
 40
0.0
 40
0.0
 40
0.0
 40
0.0560440418
 40
0.1129243056
 40
0.1706118662
 40
0.2290879961
 40
0.2883666402
 40
0.3484687993
 40
0.4094143061
 40
0.4712206055
 40
0.597488529
 40
0.6620109275
 40
0.7275072427
 40
0.7940088169
 40
0.8615416322
 40
1.0
 40
1.0
 40
1.0
 40
1.0
 10
10.7175570223
 20
7.1447080975
 30
0.0
 10
10.7170591355
 20
7.1509270946
 30
0.0
 10
10.7159822686
 20
7.1634521188
 30
0.0
 10
10.7141236397
 20
7.1823541681
 30
0.0
 10
10.7119926431
 20
7.2014999838
 30
0.0
 10
10.709572323
 20
7.2208804792
 30
0.0
 10
10.7068637319
 20
7.2404941436
 30
0.0
 10
10.7038672308
 20
7.2603439048
 30
0.0
 10
10.7005827393
 20
7.2804332604
 30
0.0
 10
10.6957729424
 20
7.3077345457
 30
0.0
 10
10.6903765956
 20
7.3353348223
 30
0.0
 10
10.6843808717
 20
7.3632284228
 30
0.0
 10
10.6795158582
 20
7.3845581353
 30
0.0
 10
10.6742994103
 20
7.4061496174
 30
0.0
 10
10.6667810978
 20
7.4355381268
 30
0.0
 10
10.6606331765
 20
7.4576335457
 30
0.0
 10
10.6563182081
 20
7.4724306017
 30
0.0
  0
SPLINE
  5
324
100
AcDbEntity
  8
0
100
AcDbSpline
 62
7
  6
CONTINUOUS
 70
0
 71
3
 72
15
 73
11
 74
0
 42
0.0000001
 43
0.0000001
 44
0.0000000001
 40
0.0
 40
0.0
 40
0.0
 40
0.0
 40
0.1313485737
 40
0.2608556466
 40
0.3884910089
 40
0.514252554
 40
0.6381807105
 40
0.7603562318
 40
0.8809050283
 40
1.0
 40
1.0
 40
1.0
 40
1.0
 10
10.7175570223
 20
7.1447080975
 30
0.0
 10
10.7239007909
 20
7.1495883458
 30
0.0
 10
10.73617038
 20
7.1597173645
 30
0.0
 10
10.7533424405
 20
7.1760398584
 30
0.0
 10
10.7690580859
 20
7.1933146621
 30
0.0
 10
10.7832255679
 20
7.2114519566
 30
0.0
 10
10.7957551658
 20
7.2303609071
 30
0.0
 10
10.8065615728
 20
7.249945147
 30
0.0
 10
10.8155626026
 20
7.2700997189
 30
0.0
 10
10.8203363384
 20
7.2839244918
 30
0.0
 10
10.8223897098
 20
7.2908850211
 30
0.0
  0
SPLINE
  5
325
100
AcDbEntity
  8
0
100
AcDbSpline
 62
7
  6
CONTINUOUS
 70
0
 71
3
 72
15
 73
11
 74
0
 42
0.0000001
 43
0.0000001
 44
0.0000000001
 40
0.0
 40
0.0
 40
0.0
 40
0.0
 40
0.1273482228
 40
0.253860527
 40
0.3795879206
 40
0.5046050801
 40
0.6290174363
 40
0.7529533709
 40
0.8765605784
 40
1.0
 40
1.0
 40
1.0
 40
1.0
 10
10.3721019711
 20
9.5117320486
 30
0.0
 10
10.3721019711
 20
9.516059143
 30
0.0
 10
10.3725151175
 20
9.5246909109
 30
0.0
 10
10.3743835418
 20
9.5374725513
 30
0.0
 10
10.377481706
 20
9.5499330395
 30
0.0
 10
10.3817816326
 20
9.5619558413
 30
0.0
 10
10.3872438423
 20
9.5734300906
 30
0.0
 10
10.3938185641
 20
9.5842498347
 30
0.0
 10
10.4014439787
 20
9.5943136914
 30
0.0
 10
10.4071855283
 20
9.6004612789
 30
0.0
 10
10.4102022767
 20
9.6033752469
 30
0.0
  0
SPLINE
  5
326
100
AcDbEntity
  8
0
100
AcDbSpline
 62
7
  6
CONTINUOUS
 70
0
 71
3
 72
13
 73
9
 74
0
 42
0.0000001
 43
0.0000001
 44
0.0000000001
 40
0.0
 40
0.0
 40
0.0
 40
0.0
 40
0.2565066925
 40
0.383153186
 40
0.5087032986
 40
0.6331649767
 40
0.7565475755
 40
1.0
 40
1.0
 40
1.0
 40
1.0
 10
10.7175570223
 20
7.1447080975
 30
0.0
 10
10.7181280399
 20
7.1374575918
 30
0.0
 10
10.7188864968
 20
7.1266195128
 30
0.0
 10
10.7197104722
 20
7.1122192539
 30
0.0
 10
10.7202309049
 20
7.1015520846
 30
0.0
 10
10.7206536227
 20
7.0909731975
 30
0.0
 10
10.7210813478
 20
7.0770494671
 30
0.0
 10
10.7212568069
 20
7.066648992
 30
0.0
 10
10.721310617
 20
7.0597463844
 30
0.0
  0
SPLINE
  5
327
100
AcDbEntity
  8
0
100
AcDbSpline
 62
7
  6
CONTINUOUS
 70
0
 71
3
 72
23
 73
19
 74
0
 42
0.0000001
 43
0.0000001
 44
0.0000000001
 40
0.0
 40
0.0
 40
0.0
 40
0.0
 40
0.0615923148
 40
0.1235204212
 40
0.185755608
 40
0.2482601229
 40
0.3109897846
 40
0.3738937397
 40
0.4369166002
 40
0.4999997136
 40
0.563082816
 40
0.6261056513
 40
0.6890095892
 40
0.7517392027
 40
0.8142437825
 40
0.8764787604
 40
0.9384070086
 40
1.0
 40
1.0
 40
1.0
 40
1.0
 10
9.9100073324
 20
6.9016746927
 30
0.0
 10
9.9102535124
 20
6.8995033666
 30
0.0
 10
9.9109327472
 20
6.8951677097
 30
0.0
 10
9.9124961603
 20
6.8887579336
 30
0.0
 10
9.9145955661
 20
6.8824686528
 30
0.0
 10
9.9172153023
 20
6.876347016
 30
0.0
 10
9.9203358906
 20
6.8704380985
 30
0.0
 10
9.9239342196
 20
6.8647856132
 30
0.0
 10
9.9279836376
 20
6.8594313197
 30
0.0
 10
9.9324541951
 20
6.8544148015
 30
0.0
 10
9.9373128288
 20
6.8497731421
 30
0.0
 10
9.9425236155
 20
6.8455406583
 30
0.0
 10
9.9480480407
 20
6.8417486613
 30
0.0
 10
9.9538452942
 20
6.8384252245
 30
0.0
 10
9.9598724934
 20
6.8355949885
 30
0.0
 10
9.9660852629
 20
6.8332789478
 30
0.0
 10
9.9724370541
 20
6.8314944152
 30
0.0
 10
9.9767466128
 20
6.8306654248
 30
0.0
 10
9.9789081279
 20
6.8303441479
 30
0.0
  0
SPLINE
  5
328
100
AcDbEntity
  8
0
100
AcDbSpline
 62
7
  6
CONTINUOUS
 70
0
 71
3
 72
14
 73
10
 74
0
 42
0.0000001
 43
0.0000001
 44
0.0000000001
 40
0.0
 40
0.0
 40
0.0
 40
0.0
 40
0.2334719306
 40
0.3537470124
 40
0.4766405611
 40
0.6023955366
 40
0.7313011489
 40
0.8637013119
 40
1.0
 40
1.0
 40
1.0
 40
1.0
 10
10.6563182081
 20
7.4724306017
 30
0.0
 10
10.6516300548
 20
7.4884434961
 30
0.0
 10
10.6441547975
 20
7.5125993759
 30
0.0
 10
10.6332844924
 20
7.5448827231
 30
0.0
 10
10.6244300742
 20
7.5697182155
 30
0.0
 10
10.614886778
 20
7.5949578948
 30
0.0
 10
10.6045697833
 20
7.6206255691
 30
0.0
 10
10.5933730457
 20
7.6467441038
 30
0.0
 10
10.5853570549
 20
7.6641966912
 30
0.0
 10
10.5811646455
 20
7.6729888864
 30
0.0
  0
ELLIPSE
  5
329
100
AcDbEntity
  8
0
100
AcDbEllipse
 62
7
  6
CONTINUOUS
 10
10.5078145577
 20
7.328987082
 30
0.0
 11
-0.0566568894
 21
0.3574493605
 31
0.0
 40
0.829451701
 41
5.1367950507
 42
6.880021567
  0
ELLIPSE
  5
32A
100
AcDbEntity
  8
0
100
AcDbEllipse
 62
7
  6
CONTINUOUS
 10
10.5078145577
 20
7.328987082
 30
0.0
 11
-0.0566568894
 21
0.3574493605
 31
0.0
 40
0.829451701
 41
-4.2879829101
 42
-2.5447563938
  0
ELLIPSE
  5
32B
100
AcDbEntity
  8
0
100
AcDbEllipse
 62
7
  6
CONTINUOUS
 10
10.5078145577
 20
7.328987082
 30
0.0
 11
0.342318573
 21
-0.1308173974
 31
0.0
 40
0.8089762441
 41
2.5089535766
 42
4.2521800929
  0
ELLIPSE
  5
32C
100
AcDbEntity
  8
0
100
AcDbEllipse
 62
7
  6
CONTINUOUS
 10
10.5078145577
 20
7.328987082
 30
0.0
 11
0.342318573
 21
-0.1308173974
 31
0.0
 40
0.8089762441
 41
-0.632639077
 42
1.1105874393
  0
ELLIPSE
  5
32D
100
AcDbEntity
  8
0
100
AcDbEllipse
 62
7
  6
CONTINUOUS
 10
11.7152219121
 20
7.2452530976
 30
0.0
 11
-0.1976028915
 21
0.2447314657
 31
0.0
 40
0.9323824549
 41
0.0
 42
6.2831853072
  0
ENDSEC
  0
SECTION
  2
OBJECTS
  0
DICTIONARY
  5
C
100
AcDbDictionary
280
0
281
1
  3
ACAD_GROUP
350
D
  3
ACAD_MLINESTYLE
350
17
  3
ACAD_LAYOUT
350
1A
  3
ACAD_PLOTSETTINGS
350
19
  3
ACAD_PLOTSTYLENAME
350
E
  3
ACAD_IMAGE_DICT
350
       32F
  3
ACAD_IMAGE_VARS
350
       330
  3
ACAD_TABLESTYLE
350
       331
  0
IMAGEDEF_REACTOR
  5
32E
100
AcDbRasterImageDefReactor
 90
2
330
27F
  0
DICTIONARY
  5
D
102
{ACAD_REACTORS
330
C
102
}
100
AcDbDictionary
280
0
281
1
  0
ACDBDICTIONARYWDFLT
  5
E
102
{ACAD_REACTORS
330
C
102
}
100
AcDbDictionary
281
1
  3
Normal
350
F
100
AcDbDictionaryWithDefault
340
F
  0
DICTIONARY
  5
32F
330
C
100
AcDbDictionary
281
1
  3
PK2_assy_2_img_1
350
       334
  0
RASTERVARIABLES
  5
330
330
C
100
AcDbRasterVariables
 90
0
 70
0
 71
1
 72
5
  0
DICTIONARY
  5
17
102
{ACAD_REACTORS
330
C
102
}
100
AcDbDictionary
280
0
281
1
  3
Standard
350
18
  0
DICTIONARY
  5
331
330
C
100
AcDbDictionary
281
1
  3
Standard
350
       335
  3
Standard1
350
       336
  0
DICTIONARY
  5
19
102
{ACAD_REACTORS
330
C
102
}
100
AcDbDictionary
281
1
  0
DICTIONARY
  5
1A
102
{ACAD_REACTORS
330
C
102
}
100
AcDbDictionary
281
1
  3
Model
350
332
  3
Layout1
350
333
  0
ACDBPLACEHOLDER
  5
F
102
{ACAD_REACTORS
330
E
102
}
  0
MLINESTYLE
  5
18
102
{ACAD_REACTORS
330
17
102
}
100
AcDbMlineStyle
  2
STANDARD
 70
0
  3

 62
256
 51
90.0
 52
90.0
 71
2
 49
0.5
 62
256
  6
BYLAYER
 49
-0.5
 62
256
  6
BYLAYER
  0
LAYOUT
  5
332
102
{ACAD_REACTORS
330
1A
102
}
100
AcDbPlotSettings
  1

  2
none_device
  4
ANSI_C_(22.00_x_17.00_Inches)
  6

 40
0.0
 41
0.0
 42
0.0
 43
0.0
 44
558.8
 45
431.8
 46
0.0
 47
0.0
 48
0.0
 49
0.0
140
0.0
141
0.0
142
1.0
143
1.0
 70
1024
 72
0
 73
0
 74
0
  7

 75
0
147
1.0
148
0.0
149
0.0
100
AcDbLayout
  1
Model
 70
0
 71
0
 10
0.0
 20
0.0
 11
22.0
 21
17.0
 12
0.0
 22
0.0
 32
0.0
 14
0.0
 24
0.0
 34
0.0
 15
0.0
 25
0.0
 35
0.0
146
0.0
 13
0.0
 23
0.0
 33
0.0
 16
1.0
 26
0.0
 36
0.0
 17
0.0
 27
1.0
 37
0.0
 76
0
330
207
345
0
346
0
  0
LAYOUT
  5
333
102
{ACAD_REACTORS
330
1A
102
}
100
AcDbPlotSettings
  1

  2
none_device
  4
ANSI_C_(22.00_x_17.00_Inches)
  6

 40
0.0
 41
0.0
 42
0.0
 43
0.0
 44
558.8
 45
431.8
 46
0.0
 47
0.0
 48
0.0
 49
0.0
140
0.0
141
0.0
142
1.0
143
1.0
 70
0
 72
0
 73
0
 74
0
  7

 75
0
147
1.0
148
0.0
149
0.0
100
AcDbLayout
  1
Layout1
 70
0
 71
1
 10
0.0
 20
0.0
 11
22.0
 21
17.0
 12
0.0
 22
0.0
 32
0.0
 14
0.0
 24
0.0
 34
0.0
 15
0.0
 25
0.0
 35
0.0
146
0.0
 13
0.0
 23
0.0
 33
0.0
 16
1.0
 26
0.0
 36
0.0
 17
0.0
 27
1.0
 37
0.0
 76
0
330
208
345
0
346
0
  0
IMAGEDEF
  5
334
102
{ACAD_REACTORS
330
32F
330
32E
102
}
100
AcDbRasterImageDef
 90
0
  1
PK2_assy_2_img_1.png
 10
369.0
 20
92.0
 11
0.0066666667
 21
0.0066666667
280
1
281
0
  0
TABLESTYLE
  5
335
102
{ACAD_REACTORS
330
331
330
282
330
283
102
}
330
331
100
AcDbTableStyle
  3
Standard
 70
0
 71
0
 40
0.06
 41
0.06
280
1
281
1
  7
Standard
140
0.18
170
1
 62
0
 63
7
283
0
  7
Standard
140
0.18
170
1
 62
0
 63
7
283
0
  7
Standard
140
0.18
170
1
 62
0
 63
7
283
0
  0
TABLESTYLE
  5
336
102
{ACAD_REACTORS
330
331
330
281
102
}
330
331
100
AcDbTableStyle
  3
Standard1
 70
1
 71
0
 40
0.06
 41
0.06
280
1
281
1
  7
Standard
140
0.18
170
1
 62
0
 63
7
283
0
  7
Standard
140
0.18
170
1
 62
0
 63
7
283
0
  7
Standard
140
0.18
170
1
 62
0
 63
7
283
0
  0
ENDSEC
  0
EOF
