999
DXF file: P4X_assy_2.dxf
999
Pro/ENGINEER 2014200 by Parametric Technology Corporation
  0
SECTION
  2
HEADER
  9
$ACADVER
  1
AC1021
  9
$DWGCODEPAGE
  3
ANSI_1252
  9
$EXTMAX
 10
22.0
 20
17.0
 30
0.0
  9
$EXTMIN
 10
0.0
 20
0.0
 30
0.0
  9
$LIMMIN
 10
0.0
 20
0.0
  9
$LIMMAX
 10
22.0
 20
17.0
  9
$VIEWCTR
 10
11.0
 20
8.5
  9
$VIEWSIZE
 40
17.0
  9
$CLAYER
  8
0
  9
$LTSCALE
 40
1.21
  9
$CELTYPE
  6
BYLAYER
  9
$DIMSCALE
 40
1.0
  9
$DIMASZ
 40
0.1875
  9
$DIMEXO
 40
0.0625
  9
$DIMDLI
 40
0.836
  9
$DIMEXE
 40
0.125
  9
$DIMCEN
 40
0.198
  9
$DIMLFAC
 40
1.0
  9
$DIMBLK
  1
_FILLED
  9
$DIMTXT
 40
0.1
  9
$DIMTOL
 70
0
  9
$DIMLIM
 70
0
  9
$DIMTFAC
 40
1.0
  9
$DIMGAP
 40
0.09
  9
$DIMDSEP
 70
46
  9
$AUNITS
 70
0
  9
$PDMODE
 70
3
  9
$PDSIZE
 40
0.3125
  9
$HANDSEED
  5
3AD
  9
$TILEMODE
 70
1
  9
$MEASUREMENT
 70
0
  9
$INSUNITS
 70
1
  0
ENDSEC
  0
SECTION
  2
CLASSES
  0
CLASS
  1
ACDBDICTIONARYWDFLT
  2
AcDbDictionaryWithDefault
  3
AutoCAD 2000
 90
0
 91
1
280
0
281
0
  0
CLASS
  1
ACDBPLACEHOLDER
  2
AcDbPlaceHolder
  3
AutoCAD 2000
 90
0
 91
1
280
0
281
0
  0
CLASS
  1
LAYOUT
  2
AcDbLayout
  3
AutoCAD 2000
 90
0
 91
0
280
0
281
0
  0
CLASS
  1
RASTERVARIABLES
  2
AcDbRasterVariables
  3
ISM
 90
0
 91
1
280
0
281
0
  0
CLASS
  1
IMAGEDEF
  2
AcDbRasterImageDef
  3
ISM
 90
0
 91
1
280
0
281
0
  0
CLASS
  1
IMAGEDEF_REACTOR
  2
AcDbRasterImageDefReactor
  3
ISM
 90
0
 91
1
280
0
281
0
  0
CLASS
  1
IMAGE
  2
AcDbRasterImage
  3
ISM
 90
127
 91
1
280
0
281
1
  0
CLASS
  1
TABLESTYLE
  2
AcDbTableStyle
  3
ObjectDBX Classes
 90
2047
 91
1
280
0
281
0
  0
CLASS
  1
ACAD_TABLE
  2
AcDbTable
  3
ObjectDBX Classes
 90
1025
 91
3
280
0
281
1
  0
ENDSEC
  0
SECTION
  2
TABLES
  0
TABLE
  2
VPORT
  5
8
100
AcDbSymbolTable
 70
2
  0
VPORT
  5
1F4
100
AcDbSymbolTableRecord
100
AcDbViewportTableRecord
  2
*ACTIVE
 70
0
 10
0.0
 20
0.0
 11
1.0
 21
1.0
 12
11.0
 22
8.5
 13
0.0
 23
0.0
 14
1.0
 24
1.0
 15
0.0
 25
0.0
 16
0.0
 26
0.0
 36
1.0
 17
0.0
 27
0.0
 37
0.0
 40
17.0
 41
1.2941176471
 42
50.0
 43
0.0
 44
0.0
 50
0.0
 51
0.0
 71
0
 72
100
 73
1
 74
1
 75
0
 76
0
 77
0
 78
0
  0
ENDTAB
  0
TABLE
  2
LTYPE
  5
5
100
AcDbSymbolTable
 70
6
  0
LTYPE
  5
14
100
AcDbSymbolTableRecord
100
AcDbLinetypeTableRecord
  2
BYBLOCK
 70
0
  3

 72
65
 73
0
 40
0.0
  0
LTYPE
  5
15
100
AcDbSymbolTableRecord
100
AcDbLinetypeTableRecord
  2
BYLAYER
 70
0
  3

 72
65
 73
0
 40
0.0
  0
LTYPE
  5
16
100
AcDbSymbolTableRecord
100
AcDbLinetypeTableRecord
  2
CONTINUOUS
 70
64
  3
Solid line
 72
65
 73
0
 40
0.0
  0
LTYPE
  5
1F5
100
AcDbSymbolTableRecord
100
AcDbLinetypeTableRecord
  2
CENTER
 70
64
  3
____ _ ____ _ ____ _ ____ _ ____ _ ____ _ ____
 72
65
 73
4
 40
0.6
 49
0.375
 74
0
 49
-0.075
 74
0
 49
0.075
 74
0
 49
-0.075
 74
0
  0
LTYPE
  5
1F6
100
AcDbSymbolTableRecord
100
AcDbLinetypeTableRecord
  2
HIDDEN
 70
64
  3
- - - - - - - - - - - - - - - - - - - -
 72
65
 73
2
 40
0.2
 49
0.1
 74
0
 49
-0.1
 74
0
  0
LTYPE
  5
1F7
100
AcDbSymbolTableRecord
100
AcDbLinetypeTableRecord
  2
PHANTOM
 70
64
  3
_____ _ _ _____ _ _ _____ _ _ _____
 72
65
 73
6
 40
0.8
 49
0.45
 74
0
 49
-0.05
 74
0
 49
0.1
 74
0
 49
-0.05
 74
0
 49
0.1
 74
0
 49
-0.05
 74
0
  0
LTYPE
  5
1F8
100
AcDbSymbolTableRecord
100
AcDbLinetypeTableRecord
  2
DOT
 70
64
  3
. . . . . . . . . . . . . . . . . . . .
 72
65
 73
2
 40
0.2
 49
0.1
 74
0
 49
-0.1
 74
0
  0
LTYPE
  5
1F9
100
AcDbSymbolTableRecord
100
AcDbLinetypeTableRecord
  2
DASHED
 70
64
  3
- - - - - - - - - - - - - - - - - - - -
 72
65
 73
2
 40
0.2
 49
0.1
 74
0
 49
-0.1
 74
0
  0
ENDTAB
  0
TABLE
  2
LAYER
  5
2
100
AcDbSymbolTable
 70
36
  0
LAYER
  5
10
100
AcDbSymbolTableRecord
100
AcDbLayerTableRecord
  2
0
 70
0
 62
7
  6
CONTINUOUS
370
-3
390
F
  0
LAYER
  5
1FA
100
AcDbSymbolTableRecord
100
AcDbLayerTableRecord
  2
DEFAULT_1
 70
0
 62
7
  6
CENTER
370
-3
390
F
  0
LAYER
  5
1FB
100
AcDbSymbolTableRecord
100
AcDbLayerTableRecord
  2
DEFAULT_2
 70
0
 62
8
  6
HIDDEN
370
-3
390
F
  0
LAYER
  5
1FC
100
AcDbSymbolTableRecord
100
AcDbLayerTableRecord
  2
DEFAULT_3
 70
0
 62
7
  6
PHANTOM
370
-3
390
F
  0
LAYER
  5
1FD
100
AcDbSymbolTableRecord
100
AcDbLayerTableRecord
  2
DATUM_PLANES
 70
0
 62
7
  6
CONTINUOUS
370
-3
390
F
  0
LAYER
  5
1FE
100
AcDbSymbolTableRecord
100
AcDbLayerTableRecord
  2
PORT_AREAS
 70
0
 62
7
  6
CONTINUOUS
370
-3
390
F
  0
LAYER
  5
1FF
100
AcDbSymbolTableRecord
100
AcDbLayerTableRecord
  2
SUNNBOMCOSMETIC
 70
0
 62
7
  6
CONTINUOUS
370
-3
390
F
  0
LAYER
  5
200
100
AcDbSymbolTableRecord
100
AcDbLayerTableRecord
  2
SUNNBOMSTAMPING
 70
0
 62
7
  6
CONTINUOUS
370
-3
390
F
  0
LAYER
  5
201
100
AcDbSymbolTableRecord
100
AcDbLayerTableRecord
  2
THREADS
 70
0
 62
7
  6
CONTINUOUS
370
-3
390
F
  0
ENDTAB
  0
TABLE
  2
STYLE
  5
3
100
AcDbSymbolTable
 70
1
  0
STYLE
  5
11
100
AcDbSymbolTableRecord
100
AcDbTextStyleTableRecord
  2
STANDARD
 70
0
 40
0.0
 41
0.8
 50
0.0
 71
0
 42
0.2
  3
txt
  4

  0
STYLE
  5
202
100
AcDbSymbolTableRecord
100
AcDbTextStyleTableRecord
  2
TEXTSTYLE_1
 70
0
 40
0.0
 41
0.8
 50
0.0
 71
0
 42
0.2
  3
gdt
  4

  0
ENDTAB
  0
TABLE
  2
VIEW
  5
6
100
AcDbSymbolTable
 70
0
  0
ENDTAB
  0
TABLE
  2
UCS
  5
7
100
AcDbSymbolTable
 70
0
  0
ENDTAB
  0
TABLE
  2
APPID
  5
9
100
AcDbSymbolTable
 70
1
  0
APPID
  5
203
100
AcDbSymbolTableRecord
100
AcDbRegAppTableRecord
  2
ACAD
 70
0
  0
ENDTAB
  0
TABLE
  2
BLOCK_RECORD
  5
1
100
AcDbSymbolTable
 70
0
  0
BLOCK_RECORD
  5
204
100
AcDbSymbolTableRecord
100
AcDbBlockTableRecord
  2
*Model_Space
  0
BLOCK_RECORD
  5
205
100
AcDbSymbolTableRecord
100
AcDbBlockTableRecord
  2
*Paper_Space
  0
BLOCK_RECORD
  5
206
100
AcDbSymbolTableRecord
100
AcDbBlockTableRecord
  2
SUN_FIRST_THIRD_ANGLE_BL0
  0
BLOCK_RECORD
  5
207
100
AcDbSymbolTableRecord
100
AcDbBlockTableRecord
  2
*T1
  0
BLOCK_RECORD
  5
208
100
AcDbSymbolTableRecord
100
AcDbBlockTableRecord
  2
*T2
  0
BLOCK_RECORD
  5
209
100
AcDbSymbolTableRecord
100
AcDbBlockTableRecord
  2
*T3
  0
ENDTAB
  0
TABLE
  2
DIMSTYLE
  5
A
100
AcDbSymbolTable
 70
1
100
AcDbDimStyleTable
 71
0
  0
DIMSTYLE
105
20A
100
AcDbSymbolTableRecord
100
AcDbDimStyleTableRecord
  2
STANDARD
 70
0
  3

  4

 40
1.0
 41
0.1875
 42
0.0625
 43
0.38
 44
0.125
 45
0.0
 46
0.0
 47
0.001
 48
0.001
140
0.1
141
0.09
142
0.0
143
25.4
144
1.0
145
0.0
146
1.0
147
0.09
 71
0.0
 72
0.0
 73
1
 74
1
 75
0
 76
0
 77
0
 78
4
170
0
171
2
172
0
173
0
174
0
175
0
176
0
177
0
178
0
270
2
271
3
272
3
273
2
274
2
275
0
280
0
281
0
282
0
283
1
284
4
285
0
286
0
287
3
288
0
340
11
278
46
  0
ENDTAB
  0
ENDSEC
  0
SECTION
  2
BLOCKS
  0
BLOCK
  5
20
100
AcDbEntity
  8
0
100
AcDbBlockBegin
  2
*Model_Space
 70
0
 10
0.0
 20
0.0
 30
0.0
  3
*Model_Space
  1

  0
ENDBLK
  5
21
100
AcDbEntity
  8
0
100
AcDbBlockEnd
  0
BLOCK
  5
1C
100
AcDbEntity
  8
0
100
AcDbBlockBegin
  2
*Paper_Space
 70
0
 10
0.0
 20
0.0
 30
0.0
  3
*Paper_Space
  1

  0
ENDBLK
  5
1D
100
AcDbEntity
  8
0
100
AcDbBlockEnd
  0
BLOCK
  5
20B
100
AcDbEntity
  8
0
100
AcDbBlockBegin
 62
2
  6
CONTINUOUS
  2
SUN_FIRST_THIRD_ANGLE_BL0
 70
64
 10
20.4816717061
 20
1.2289683772
  3
SUN_FIRST_THIRD_ANGLE_BL0
  1

  0
TEXT
  5
20C
100
AcDbEntity
  8
0
100
AcDbText
 62
2
  6
CONTINUOUS
 10
19.4750896608
 20
1.4136269581
  7
STANDARD
 40
0.08
  1
FIRST ANGLE
 41
0.8
 72
0
100
AcDbText
  0
TEXT
  5
20D
100
AcDbEntity
  8
0
100
AcDbText
 62
2
  6
CONTINUOUS
 10
20.7842537513
 20
1.4047600029
  7
STANDARD
 40
0.08
  1
THIRD ANGLE
 41
0.8
 72
0
100
AcDbText
  0
LINE
  5
20E
100
AcDbEntity
  8
0
100
AcDbLine
 62
7
  6
CONTINUOUS
 10
19.4767170086
 20
1.1727031207
 11
19.6334271527
 21
1.1717972817
  0
LINE
  5
20F
100
AcDbEntity
  8
0
100
AcDbLine
 62
7
  6
CONTINUOUS
 10
19.6596964832
 20
1.1717972817
 11
19.6950230232
 21
1.171593082
  0
LINE
  5
210
100
AcDbEntity
  8
0
100
AcDbLine
 62
7
  6
CONTINUOUS
 10
19.7194818561
 20
1.1708914427
 11
19.8852396156
 21
1.1699333054
  0
LINE
  5
211
100
AcDbEntity
  8
0
100
AcDbLine
 62
7
  6
CONTINUOUS
 10
19.4758111696
 20
1.2723454088
 11
19.88525039
 21
1.3511534004
  0
LINE
  5
212
100
AcDbEntity
  8
0
100
AcDbLine
 62
7
  6
CONTINUOUS
 10
19.88525039
 20
1.3511534004
 11
19.8831348489
 21
0.9851647912
  0
LINE
  5
213
100
AcDbEntity
  8
0
100
AcDbLine
 62
7
  6
CONTINUOUS
 10
19.8831348489
 20
0.9851647912
 11
19.4767170086
 21
1.0658141206
  0
LINE
  5
214
100
AcDbEntity
  8
0
100
AcDbLine
 62
7
  6
CONTINUOUS
 10
19.4767170086
 20
1.0658141206
 11
19.4779056764
 21
1.2714536432
  0
CIRCLE
  5
215
100
AcDbEntity
  8
0
100
AcDbCircle
 62
7
  6
CONTINUOUS
 10
20.2068232291
 20
1.1717972817
 40
0.175742101
  0
CIRCLE
  5
216
100
AcDbEntity
  8
0
100
AcDbCircle
 62
7
  6
CONTINUOUS
 10
20.2068232291
 20
1.1717972817
 40
0.1005522074
  0
LINE
  5
217
100
AcDbEntity
  8
0
100
AcDbLine
 62
7
  6
CONTINUOUS
 10
20.2077290681
 20
1.3756110529
 11
20.2071171714
 21
1.2379342989
  0
LINE
  5
218
100
AcDbEntity
  8
0
100
AcDbLine
 62
7
  6
CONTINUOUS
 10
20.2077290681
 20
1.2016899681
 11
20.2074674401
 21
1.1428236749
  0
LINE
  5
219
100
AcDbEntity
  8
0
100
AcDbLine
 62
7
  6
CONTINUOUS
 10
20.208634907
 20
1.101141841
 11
20.2080230104
 21
0.963465087
  0
LINE
  5
21A
100
AcDbEntity
  8
0
100
AcDbLine
 62
7
  6
CONTINUOUS
 10
20.0066328138
 20
1.1745147986
 11
20.1443095678
 21
1.1739029019
  0
LINE
  5
21B
100
AcDbEntity
  8
0
100
AcDbLine
 62
7
  6
CONTINUOUS
 10
20.1832714155
 20
1.1727031207
 11
20.238153505
 21
1.172335442
  0
LINE
  5
21C
100
AcDbEntity
  8
0
100
AcDbLine
 62
7
  6
CONTINUOUS
 10
20.2756669918
 20
1.1717972817
 11
20.407916871
 21
1.1712095044
  0
CIRCLE
  5
21D
100
AcDbEntity
  8
0
100
AcDbCircle
 62
7
  6
CONTINUOUS
 10
20.7509457401
 20
1.1693297793
 40
0.1722024983
  0
CIRCLE
  5
21E
100
AcDbEntity
  8
0
100
AcDbCircle
 62
7
  6
CONTINUOUS
 10
20.7509457401
 20
1.1693297793
 40
0.0985164967
  0
LINE
  5
21F
100
AcDbEntity
  8
0
100
AcDbLine
 62
7
  6
CONTINUOUS
 10
20.7169767782
 20
1.170462078
 11
20.7825395137
 21
1.1682766535
  0
LINE
  5
220
100
AcDbEntity
  8
0
100
AcDbLine
 62
7
  6
CONTINUOUS
 10
20.8177513651
 20
1.1693297793
 11
20.947965719
 21
1.1693297793
  0
LINE
  5
221
100
AcDbEntity
  8
0
100
AcDbLine
 62
7
  6
CONTINUOUS
 10
20.6875370113
 20
1.170462078
 11
20.5573226574
 21
1.170462078
  0
LINE
  5
222
100
AcDbEntity
  8
0
100
AcDbLine
 62
7
  6
CONTINUOUS
 10
20.7486811426
 20
1.1987695462
 11
20.7486811426
 21
1.1432869085
  0
LINE
  5
223
100
AcDbEntity
  8
0
100
AcDbLine
 62
7
  6
CONTINUOUS
 10
20.7498134414
 20
1.1059210505
 11
20.7498134414
 21
0.9757066966
  0
LINE
  5
224
100
AcDbEntity
  8
0
100
AcDbLine
 62
7
  6
CONTINUOUS
 10
20.7486811426
 20
1.2338708068
 11
20.7486811426
 21
1.3640851607
  0
LINE
  5
225
100
AcDbEntity
  8
0
100
AcDbLine
 62
7
  6
CONTINUOUS
 10
21.0702539817
 20
1.2701043662
 11
21.4790138229
 21
1.3448360823
  0
LINE
  5
226
100
AcDbEntity
  8
0
100
AcDbLine
 62
7
  6
CONTINUOUS
 10
21.4790138229
 20
1.3448360823
 11
21.4790138229
 21
0.9779712941
  0
LINE
  5
227
100
AcDbEntity
  8
0
100
AcDbLine
 62
7
  6
CONTINUOUS
 10
21.4790138229
 20
0.9779712941
 11
21.069121683
 21
1.0617614
  0
LINE
  5
228
100
AcDbEntity
  8
0
100
AcDbLine
 62
7
  6
CONTINUOUS
 10
21.0702539817
 20
1.2701043662
 11
21.069121683
 21
1.0617614
  0
LINE
  5
229
100
AcDbEntity
  8
0
100
AcDbLine
 62
7
  6
CONTINUOUS
 10
21.4790138229
 20
1.1693297793
 11
21.3159628059
 21
1.1693297793
  0
LINE
  5
22A
100
AcDbEntity
  8
0
100
AcDbLine
 62
7
  6
CONTINUOUS
 10
21.2876553377
 20
1.1693297793
 11
21.2502894796
 21
1.1693297793
  0
LINE
  5
22B
100
AcDbEntity
  8
0
100
AcDbLine
 62
7
  6
CONTINUOUS
 10
21.2208497126
 20
1.1659328831
 11
21.0713862804
 21
1.1659328831
  0
LINE
  5
22C
100
AcDbEntity
  8
0
100
AcDbLine
 62
7
  6
CONTINUOUS
 10
20.4796138713
 20
1.5284908897
 11
20.4766766948
 21
0.9294458646
  0
ENDBLK
  5
22D
100
AcDbEntity
  8
0
  6
BYBLOCK
 62
0
100
AcDbBlockEnd
  0
BLOCK
  5
22E
100
AcDbEntity
  8
0
100
AcDbBlockBegin
  2
*T1
 70
1
 10
0.0
 20
0.0
  3
*T1
  1

  0
LINE
  5
22F
100
AcDbEntity
  8
0
100
AcDbLine
 62
2
  6
CONTINUOUS
 10
9.275
 20
0.0
 11
-0.0
 21
0.0
  0
LINE
  5
230
100
AcDbEntity
  8
0
100
AcDbLine
 62
2
  6
CONTINUOUS
 10
9.275
 20
0.0
 11
9.275
 21
1.25
  0
LINE
  5
231
100
AcDbEntity
  8
0
100
AcDbLine
 62
2
  6
CONTINUOUS
 10
9.275
 20
0.625
 11
-0.0
 21
0.625
  0
LINE
  5
232
100
AcDbEntity
  8
0
100
AcDbLine
 62
2
  6
CONTINUOUS
 10
9.275
 20
1.25
 11
-0.0
 21
1.25
  0
LINE
  5
233
100
AcDbEntity
  8
0
100
AcDbLine
 62
2
  6
CONTINUOUS
 10
6.8
 20
0.0
 11
6.8
 21
1.25
  0
LINE
  5
234
100
AcDbEntity
  8
0
100
AcDbLine
 62
2
  6
CONTINUOUS
 10
6.4
 20
0.0
 11
6.4
 21
0.625
  0
LINE
  5
235
100
AcDbEntity
  8
0
100
AcDbLine
 62
2
  6
CONTINUOUS
 10
5.9
 20
0.0
 11
5.9
 21
0.625
  0
LINE
  5
236
100
AcDbEntity
  8
0
100
AcDbLine
 62
2
  6
CONTINUOUS
 10
5.2
 20
0.0
 11
5.2
 21
0.625
  0
LINE
  5
237
100
AcDbEntity
  8
0
100
AcDbLine
 62
2
  6
CONTINUOUS
 10
4.1
 20
0.0
 11
4.1
 21
1.25
  0
LINE
  5
238
100
AcDbEntity
  8
0
100
AcDbLine
 62
2
  6
CONTINUOUS
 10
-0.0
 20
0.0
 11
-0.0
 21
1.25
  0
MTEXT
  5
239
100
AcDbEntity
  8
0
100
AcDbMText
 62
2
  6
CONTINUOUS
  7
STANDARD
 71
2
 72
1
 10
6.6
 20
0.325
 30
0.0
 11
1.0
 21
0.0
 31
0.0
 44
0.9
  1
2
 40
0.125
 41
0.2
  0
MTEXT
  5
23A
100
AcDbEntity
  8
0
100
AcDbMText
 62
2
  6
CONTINUOUS
  7
STANDARD
 71
2
 72
1
 10
6.15
 20
0.325
 30
0.0
 11
1.0
 21
0.0
 31
0.0
 44
0.9
  1
C
 40
0.125
 41
0.2
  0
MTEXT
  5
23B
100
AcDbEntity
  8
0
100
AcDbMText
 62
2
  6
CONTINUOUS
  7
STANDARD
 71
2
 72
1
 10
5.55
 20
0.325
 30
0.0
 11
1.0
 21
0.0
 31
0.0
 44
0.9
  1
1.000
 40
0.125
 41
1.0
  0
MTEXT
  5
23C
100
AcDbEntity
  8
0
100
AcDbMText
 62
2
  6
CONTINUOUS
  7
STANDARD
 71
2
 72
1
 10
4.65
 20
0.325
 30
0.0
 11
1.0
 21
0.0
 31
0.0
 44
0.9
  1
Jul-26-19
 40
0.125
 41
1.8
  0
MTEXT
  5
23D
100
AcDbEntity
  8
0
100
AcDbMText
 62
2
  6
CONTINUOUS
  7
STANDARD
 71
2
 72
1
 10
2.05
 20
0.4625
 30
0.0
 11
1.0
 21
0.0
 31
0.0
 44
0.9
  1
T-23A Line mount\P(See Technical Data for Body Features)
 40
0.125
 41
7.6
  0
MTEXT
  5
23E
100
AcDbEntity
  8
0
100
AcDbMText
 62
2
  6
CONTINUOUS
  7
STANDARD
 71
1
 72
1
 10
6.45
 20
0.5625
 30
0.0
 11
1.0
 21
0.0
 31
0.0
 44
0.9
  1
SHEET
 40
0.06
 41
0.48
  0
MTEXT
  5
23F
100
AcDbEntity
  8
0
100
AcDbMText
 62
2
  6
CONTINUOUS
  7
STANDARD
 71
1
 72
1
 10
5.95
 20
0.5625
 30
0.0
 11
1.0
 21
0.0
 31
0.0
 44
0.9
  1
DWG SIZE
 40
0.06
 41
0.768
  0
MTEXT
  5
240
100
AcDbEntity
  8
0
100
AcDbMText
 62
2
  6
CONTINUOUS
  7
STANDARD
 71
1
 72
1
 10
5.25
 20
0.5625
 30
0.0
 11
1.0
 21
0.0
 31
0.0
 44
0.9
  1
SCALE
 40
0.06
 41
0.48
  0
MTEXT
  5
241
100
AcDbEntity
  8
0
100
AcDbMText
 62
2
  6
CONTINUOUS
  7
STANDARD
 71
1
 72
1
 10
4.15
 20
0.5625
 30
0.0
 11
1.0
 21
0.0
 31
0.0
 44
0.9
  1
DATE
 40
0.06
 41
0.384
  0
MTEXT
  5
242
100
AcDbEntity
  8
0
100
AcDbMText
 62
2
  6
CONTINUOUS
  7
STANDARD
 71
1
 72
1
 10
0.05
 20
0.5625
 30
0.0
 11
1.0
 21
0.0
 31
0.0
 44
0.9
  1
DESCRIPTION
 40
0.06
 41
1.056
  0
MTEXT
  5
243
100
AcDbEntity
  8
0
100
AcDbMText
 62
2
  6
CONTINUOUS
  7
STANDARD
 71
2
 72
1
 10
5.45
 20
1.0375
 30
0.0
 11
1.0
 21
0.0
 31
0.0
 44
0.9
  1
ALL DIMENSIONS IN INCH\PVIEWS ARE THIRD ANGLE
 40
0.12
 41
4.224
  0
MTEXT
  5
244
100
AcDbEntity
  8
0
100
AcDbMText
 62
2
  6
CONTINUOUS
  7
STANDARD
 71
2
 72
1
 10
2.05
 20
0.95
 30
0.0
 11
1.0
 21
0.0
 31
0.0
 44
0.9
  1
P4X
 40
0.125
 41
0.6
  0
MTEXT
  5
245
100
AcDbEntity
  8
0
100
AcDbMText
 62
2
  6
CONTINUOUS
  7
STANDARD
 71
1
 72
1
 10
0.05
 20
1.1875
 30
0.0
 11
1.0
 21
0.0
 31
0.0
 44
0.9
  1
MODEL
 40
0.06
 41
0.48
  0
ENDBLK
  5
246
100
AcDbEntity
  8
0
  6
BYBLOCK
 62
0
100
AcDbBlockEnd
  0
BLOCK
  5
247
100
AcDbEntity
  8
0
100
AcDbBlockBegin
  2
*T2
 70
1
 10
0.0
 20
0.0
  3
*T2
  1

  0
LINE
  5
248
100
AcDbEntity
  8
0
100
AcDbLine
 62
2
  6
CONTINUOUS
 10
0.0
 20
0.0
 11
9.055
 21
0.0
  0
LINE
  5
249
100
AcDbEntity
  8
0
100
AcDbLine
 62
2
  6
CONTINUOUS
 10
0.0
 20
0.0
 11
0.0
 21
-2.594
  0
LINE
  5
24A
100
AcDbEntity
  8
0
100
AcDbLine
 62
2
  6
CONTINUOUS
 10
0.0
 20
-0.344
 11
9.055
 21
-0.344
  0
LINE
  5
24B
100
AcDbEntity
  8
0
100
AcDbLine
 62
2
  6
CONTINUOUS
 10
0.0
 20
-0.594
 11
9.055
 21
-0.594
  0
LINE
  5
24C
100
AcDbEntity
  8
0
100
AcDbLine
 62
2
  6
CONTINUOUS
 10
0.0
 20
-0.844
 11
9.055
 21
-0.844
  0
LINE
  5
24D
100
AcDbEntity
  8
0
100
AcDbLine
 62
2
  6
CONTINUOUS
 10
0.0
 20
-1.094
 11
9.055
 21
-1.094
  0
LINE
  5
24E
100
AcDbEntity
  8
0
100
AcDbLine
 62
2
  6
CONTINUOUS
 10
0.0
 20
-1.344
 11
9.055
 21
-1.344
  0
LINE
  5
24F
100
AcDbEntity
  8
0
100
AcDbLine
 62
2
  6
CONTINUOUS
 10
0.0
 20
-1.594
 11
9.055
 21
-1.594
  0
LINE
  5
250
100
AcDbEntity
  8
0
100
AcDbLine
 62
2
  6
CONTINUOUS
 10
0.0
 20
-1.844
 11
9.055
 21
-1.844
  0
LINE
  5
251
100
AcDbEntity
  8
0
100
AcDbLine
 62
2
  6
CONTINUOUS
 10
0.0
 20
-2.094
 11
9.055
 21
-2.094
  0
LINE
  5
252
100
AcDbEntity
  8
0
100
AcDbLine
 62
2
  6
CONTINUOUS
 10
0.0
 20
-2.344
 11
9.055
 21
-2.344
  0
LINE
  5
253
100
AcDbEntity
  8
0
100
AcDbLine
 62
2
  6
CONTINUOUS
 10
0.0
 20
-2.594
 11
9.055
 21
-2.594
  0
LINE
  5
254
100
AcDbEntity
  8
0
100
AcDbLine
 62
2
  6
CONTINUOUS
 10
3.055
 20
0.0
 11
3.055
 21
-2.594
  0
LINE
  5
255
100
AcDbEntity
  8
0
100
AcDbLine
 62
2
  6
CONTINUOUS
 10
9.055
 20
0.0
 11
9.055
 21
-2.594
  0
MTEXT
  5
256
100
AcDbEntity
  8
0
100
AcDbMText
 62
2
  6
CONTINUOUS
  7
STANDARD
 71
2
 72
1
 10
1.5275
 20
-0.0995
 30
0.0
 11
1.0
 21
0.0
 31
0.0
 44
0.9
  1
Technical Data
 40
0.145
 41
3.248
  0
MTEXT
  5
257
100
AcDbEntity
  8
0
100
AcDbMText
 62
2
  6
CONTINUOUS
  7
STANDARD
 71
2
 72
1
 10
4.555
 20
-0.0995
 30
0.0
 11
1.0
 21
0.0
 31
0.0
 44
0.9
  1
U.S. Units
 40
0.145
 41
2.32
  0
MTEXT
  5
258
100
AcDbEntity
  8
0
100
AcDbMText
 62
2
  6
CONTINUOUS
  7
STANDARD
 71
2
 72
1
 10
7.555
 20
-0.0995
 30
0.0
 11
1.0
 21
0.0
 31
0.0
 44
0.9
  1
Metric Units
 40
0.145
 41
2.784
  0
MTEXT
  5
259
100
AcDbEntity
  8
0
100
AcDbMText
 62
2
  6
CONTINUOUS
  7
STANDARD
 71
2
 72
1
 10
1.5275
 20
-0.4065
 30
0.0
 11
1.0
 21
0.0
 31
0.0
 44
0.9
  1
Cavity
 40
0.125
 41
1.2
  0
MTEXT
  5
25A
100
AcDbEntity
  8
0
100
AcDbMText
 62
2
  6
CONTINUOUS
  7
STANDARD
 71
2
 72
1
 10
6.055
 20
-0.4065
 30
0.0
 11
1.0
 21
0.0
 31
0.0
 44
0.9
  1
T-23A
 40
0.125
 41
1.0
  0
MTEXT
  5
25B
100
AcDbEntity
  8
0
100
AcDbMText
 62
2
  6
CONTINUOUS
  7
STANDARD
 71
2
 72
1
 10
1.5275
 20
-0.6565
 30
0.0
 11
1.0
 21
0.0
 31
0.0
 44
0.9
  1
Body Features
 40
0.125
 41
2.6
  0
MTEXT
  5
25C
100
AcDbEntity
  8
0
100
AcDbMText
 62
2
  6
CONTINUOUS
  7
STANDARD
 71
2
 72
1
 10
6.055
 20
-0.6565
 30
0.0
 11
1.0
 21
0.0
 31
0.0
 44
0.9
  1
Ninety degree with reverse flow check - reducing
 40
0.125
 41
9.6
  0
MTEXT
  5
25D
100
AcDbEntity
  8
0
100
AcDbMText
 62
2
  6
CONTINUOUS
  7
STANDARD
 71
2
 72
1
 10
1.5275
 20
-0.9065
 30
0.0
 11
1.0
 21
0.0
 31
0.0
 44
0.9
  1
Body Type
 40
0.125
 41
1.8
  0
MTEXT
  5
25E
100
AcDbEntity
  8
0
100
AcDbMText
 62
2
  6
CONTINUOUS
  7
STANDARD
 71
2
 72
1
 10
6.055
 20
-0.9065
 30
0.0
 11
1.0
 21
0.0
 31
0.0
 44
0.9
  1
Line mount
 40
0.125
 41
2.0
  0
MTEXT
  5
25F
100
AcDbEntity
  8
0
100
AcDbMText
 62
2
  6
CONTINUOUS
  7
STANDARD
 71
2
 72
1
 10
1.5275
 20
-1.1565
 30
0.0
 11
1.0
 21
0.0
 31
0.0
 44
0.9
  1
Interface
 40
0.125
 41
1.8
  0
MTEXT
  5
260
100
AcDbEntity
  8
0
100
AcDbMText
 62
2
  6
CONTINUOUS
  7
STANDARD
 71
2
 72
1
 10
6.055
 20
-1.1565
 30
0.0
 11
1.0
 21
0.0
 31
0.0
 44
0.9
  1
None
 40
0.125
 41
0.8
  0
MTEXT
  5
261
100
AcDbEntity
  8
0
100
AcDbMText
 62
2
  6
CONTINUOUS
  7
STANDARD
 71
2
 72
1
 10
1.5275
 20
-1.4065
 30
0.0
 11
1.0
 21
0.0
 31
0.0
 44
0.9
  1
Open Cavity Quantity
 40
0.125
 41
4.0
  0
MTEXT
  5
262
100
AcDbEntity
  8
0
100
AcDbMText
 62
2
  6
CONTINUOUS
  7
STANDARD
 71
2
 72
1
 10
6.055
 20
-1.4065
 30
0.0
 11
1.0
 21
0.0
 31
0.0
 44
0.9
  1
1
 40
0.125
 41
0.2
  0
MTEXT
  5
263
100
AcDbEntity
  8
0
100
AcDbMText
 62
2
  6
CONTINUOUS
  7
STANDARD
 71
2
 72
1
 10
1.5275
 20
-1.6565
 30
0.0
 11
1.0
 21
0.0
 31
0.0
 44
0.9
  1
Weight
 40
0.125
 41
1.2
  0
MTEXT
  5
264
100
AcDbEntity
  8
0
100
AcDbMText
 62
2
  6
CONTINUOUS
  7
STANDARD
 71
2
 72
1
 10
4.555
 20
-1.6565
 30
0.0
 11
1.0
 21
0.0
 31
0.0
 44
0.9
  1
6.609 lb.
 40
0.125
 41
1.8
  0
MTEXT
  5
265
100
AcDbEntity
  8
0
100
AcDbMText
 62
2
  6
CONTINUOUS
  7
STANDARD
 71
2
 72
1
 10
7.555
 20
-1.6565
 30
0.0
 11
1.0
 21
0.0
 31
0.0
 44
0.9
  1
2,998 kg.
 40
0.125
 41
1.8
  0
MTEXT
  5
266
100
AcDbEntity
  8
0
100
AcDbMText
 62
2
  6
CONTINUOUS
  7
STANDARD
 71
2
 72
1
 10
1.5275
 20
-1.9065
 30
0.0
 11
1.0
 21
0.0
 31
0.0
 44
0.9
  1
Mounting Hole Diameter
 40
0.125
 41
4.4
  0
MTEXT
  5
267
100
AcDbEntity
  8
0
100
AcDbMText
 62
2
  6
CONTINUOUS
  7
STANDARD
 71
2
 72
1
 10
4.555
 20
-1.9065
 30
0.0
 11
1.0
 21
0.0
 31
0.0
 44
0.9
  1
.42 in.
 40
0.125
 41
1.4
  0
MTEXT
  5
268
100
AcDbEntity
  8
0
100
AcDbMText
 62
2
  6
CONTINUOUS
  7
STANDARD
 71
2
 72
1
 10
7.555
 20
-1.9065
 30
0.0
 11
1.0
 21
0.0
 31
0.0
 44
0.9
  1
10,7 mm
 40
0.125
 41
1.4
  0
MTEXT
  5
269
100
AcDbEntity
  8
0
100
AcDbMText
 62
2
  6
CONTINUOUS
  7
STANDARD
 71
2
 72
1
 10
1.5275
 20
-2.1565
 30
0.0
 11
1.0
 21
0.0
 31
0.0
 44
0.9
  1
Mounting Hole Depth
 40
0.125
 41
3.8
  0
MTEXT
  5
26A
100
AcDbEntity
  8
0
100
AcDbMText
 62
2
  6
CONTINUOUS
  7
STANDARD
 71
2
 72
1
 10
6.055
 20
-2.1565
 30
0.0
 11
1.0
 21
0.0
 31
0.0
 44
0.9
  1
Through
 40
0.125
 41
1.4
  0
MTEXT
  5
26B
100
AcDbEntity
  8
0
100
AcDbMText
 62
2
  6
CONTINUOUS
  7
STANDARD
 71
2
 72
1
 10
1.5275
 20
-2.4065
 30
0.0
 11
1.0
 21
0.0
 31
0.0
 44
0.9
  1
Mounting Hole Quantity
 40
0.125
 41
4.4
  0
MTEXT
  5
26C
100
AcDbEntity
  8
0
100
AcDbMText
 62
2
  6
CONTINUOUS
  7
STANDARD
 71
2
 72
1
 10
6.055
 20
-2.4065
 30
0.0
 11
1.0
 21
0.0
 31
0.0
 44
0.9
  1
2
 40
0.125
 41
0.2
  0
ENDBLK
  5
26D
100
AcDbEntity
  8
0
  6
BYBLOCK
 62
0
100
AcDbBlockEnd
  0
BLOCK
  5
26E
100
AcDbEntity
  8
0
100
AcDbBlockBegin
  2
*T3
 70
1
 10
0.0
 20
0.0
  3
*T3
  1

  0
LINE
  5
26F
100
AcDbEntity
  8
0
100
AcDbLine
 62
2
  6
CONTINUOUS
 10
0.0
 20
0.0
 11
4.6
 21
0.0
  0
LINE
  5
270
100
AcDbEntity
  8
0
100
AcDbLine
 62
2
  6
CONTINUOUS
 10
0.0
 20
0.0
 11
0.0
 21
-1.68775
  0
LINE
  5
271
100
AcDbEntity
  8
0
100
AcDbLine
 62
2
  6
CONTINUOUS
 10
0.0
 20
-0.34375
 11
4.6
 21
-0.34375
  0
LINE
  5
272
100
AcDbEntity
  8
0
100
AcDbLine
 62
2
  6
CONTINUOUS
 10
0.0
 20
-0.68775
 11
4.6
 21
-0.68775
  0
LINE
  5
273
100
AcDbEntity
  8
0
100
AcDbLine
 62
2
  6
CONTINUOUS
 10
0.0
 20
-0.93775
 11
4.6
 21
-0.93775
  0
LINE
  5
274
100
AcDbEntity
  8
0
100
AcDbLine
 62
2
  6
CONTINUOUS
 10
0.0
 20
-1.18775
 11
4.6
 21
-1.18775
  0
LINE
  5
275
100
AcDbEntity
  8
0
100
AcDbLine
 62
2
  6
CONTINUOUS
 10
0.0
 20
-1.43775
 11
4.6
 21
-1.43775
  0
LINE
  5
276
100
AcDbEntity
  8
0
100
AcDbLine
 62
2
  6
CONTINUOUS
 10
0.0
 20
-1.68775
 11
4.6
 21
-1.68775
  0
LINE
  5
277
100
AcDbEntity
  8
0
100
AcDbLine
 62
2
  6
CONTINUOUS
 10
1.3
 20
-0.34375
 11
1.3
 21
-1.68775
  0
LINE
  5
278
100
AcDbEntity
  8
0
100
AcDbLine
 62
2
  6
CONTINUOUS
 10
3.3
 20
-0.34375
 11
3.3
 21
-1.68775
  0
LINE
  5
279
100
AcDbEntity
  8
0
100
AcDbLine
 62
2
  6
CONTINUOUS
 10
4.6
 20
0.0
 11
4.6
 21
-1.68775
  0
MTEXT
  5
27A
100
AcDbEntity
  8
0
100
AcDbMText
 62
2
  6
CONTINUOUS
  7
STANDARD
 71
2
 72
1
 10
2.3
 20
-0.099375
 30
0.0
 11
1.0
 21
0.0
 31
0.0
 44
0.9
  1
Port Headings
 40
0.145
 41
3.016
  0
MTEXT
  5
27B
100
AcDbEntity
  8
0
100
AcDbMText
 62
2
  6
CONTINUOUS
  7
STANDARD
 71
2
 72
1
 10
0.65
 20
-0.44325
 30
0.0
 11
1.0
 21
0.0
 31
0.0
 44
0.9
  1
Product
 40
0.145
 41
1.624
  0
MTEXT
  5
27C
100
AcDbEntity
  8
0
100
AcDbMText
 62
2
  6
CONTINUOUS
  7
STANDARD
 71
2
 72
1
 10
2.3
 20
-0.44325
 30
0.0
 11
1.0
 21
0.0
 31
0.0
 44
0.9
  1
Port
 40
0.145
 41
0.928
  0
MTEXT
  5
27D
100
AcDbEntity
  8
0
100
AcDbMText
 62
2
  6
CONTINUOUS
  7
STANDARD
 71
2
 72
1
 10
3.95
 20
-0.44325
 30
0.0
 11
1.0
 21
0.0
 31
0.0
 44
0.9
  1
Size
 40
0.145
 41
0.928
  0
MTEXT
  5
27E
100
AcDbEntity
  8
0
100
AcDbMText
 62
2
  6
CONTINUOUS
  7
STANDARD
 71
2
 72
1
 10
0.65
 20
-0.75025
 30
0.0
 11
1.0
 21
0.0
 31
0.0
 44
0.9
  1
P4X
 40
0.125
 41
0.6
  0
MTEXT
  5
27F
100
AcDbEntity
  8
0
100
AcDbMText
 62
2
  6
CONTINUOUS
  7
STANDARD
 71
2
 72
1
 10
2.3
 20
-0.75025
 30
0.0
 11
1.0
 21
0.0
 31
0.0
 44
0.9
  1
Ports 1 &  2
 40
0.125
 41
2.4
  0
MTEXT
  5
280
100
AcDbEntity
  8
0
100
AcDbMText
 62
2
  6
CONTINUOUS
  7
STANDARD
 71
2
 72
1
 10
3.95
 20
-0.75025
 30
0.0
 11
1.0
 21
0.0
 31
0.0
 44
0.9
  1
1" BSPP
 40
0.125
 41
1.4
  0
MTEXT
  5
281
100
AcDbEntity
  8
0
100
AcDbMText
 62
2
  6
CONTINUOUS
  7
STANDARD
 71
2
 72
1
 10
0.65
 20
-1.00025
 30
0.0
 11
1.0
 21
0.0
 31
0.0
 44
0.9
  1
P4X
 40
0.125
 41
0.6
  0
MTEXT
  5
282
100
AcDbEntity
  8
0
100
AcDbMText
 62
2
  6
CONTINUOUS
  7
STANDARD
 71
2
 72
1
 10
2.3
 20
-1.00025
 30
0.0
 11
1.0
 21
0.0
 31
0.0
 44
0.9
  1
Port 3
 40
0.125
 41
1.2
  0
MTEXT
  5
283
100
AcDbEntity
  8
0
100
AcDbMText
 62
2
  6
CONTINUOUS
  7
STANDARD
 71
2
 72
1
 10
3.95
 20
-1.00025
 30
0.0
 11
1.0
 21
0.0
 31
0.0
 44
0.9
  1
3/4" BSPP
 40
0.125
 41
1.8
  0
MTEXT
  5
284
100
AcDbEntity
  8
0
100
AcDbMText
 62
2
  6
CONTINUOUS
  7
STANDARD
 71
2
 72
1
 10
0.65
 20
-1.25025
 30
0.0
 11
1.0
 21
0.0
 31
0.0
 44
0.9
  1
P4X
 40
0.125
 41
0.6
  0
MTEXT
  5
285
100
AcDbEntity
  8
0
100
AcDbMText
 62
2
  6
CONTINUOUS
  7
STANDARD
 71
2
 72
1
 10
2.3
 20
-1.25025
 30
0.0
 11
1.0
 21
0.0
 31
0.0
 44
0.9
  1
Port 4
 40
0.125
 41
1.2
  0
MTEXT
  5
286
100
AcDbEntity
  8
0
100
AcDbMText
 62
2
  6
CONTINUOUS
  7
STANDARD
 71
2
 72
1
 10
3.95
 20
-1.25025
 30
0.0
 11
1.0
 21
0.0
 31
0.0
 44
0.9
  1
1/4" BSPP
 40
0.125
 41
1.8
  0
MTEXT
  5
287
100
AcDbEntity
  8
0
100
AcDbMText
 62
2
  6
CONTINUOUS
  7
STANDARD
 71
2
 72
1
 10
0.65
 20
-1.50025
 30
0.0
 11
1.0
 21
0.0
 31
0.0
 44
0.9
  1
P4X
 40
0.125
 41
0.6
  0
MTEXT
  5
288
100
AcDbEntity
  8
0
100
AcDbMText
 62
2
  6
CONTINUOUS
  7
STANDARD
 71
2
 72
1
 10
2.3
 20
-1.50025
 30
0.0
 11
1.0
 21
0.0
 31
0.0
 44
0.9
  1
Gage Port
 40
0.125
 41
1.8
  0
MTEXT
  5
289
100
AcDbEntity
  8
0
100
AcDbMText
 62
2
  6
CONTINUOUS
  7
STANDARD
 71
2
 72
1
 10
3.95
 20
-1.50025
 30
0.0
 11
1.0
 21
0.0
 31
0.0
 44
0.9
  1
1/4" BSPP
 40
0.125
 41
1.8
  0
ENDBLK
  5
28A
100
AcDbEntity
  8
0
  6
BYBLOCK
 62
0
100
AcDbBlockEnd
  0
ENDSEC
  0
SECTION
  2
ENTITIES
  0
IMAGE
  5
28B
100
AcDbEntity
  8
0
100
AcDbRasterImage
 62
7
  6
CONTINUOUS
 10
19.2297077316
 20
0.3094318264
 30
0.0
 11
0.0066666667
 21
0.0
 31
0.0
 12
0.0
 22
0.0066666667
 32
0.0
 13
369.0
 23
92.0
340
       3AA
 70
9
280
0
281
50
282
50
283
0
360
       3A4
 71
1
 91
2
 14
-0.5
 24
-0.5
 14
368.5
 24
91.5
  0
INSERT
  5
28C
100
AcDbEntity
  8
0
100
AcDbBlockReference
 62
2
  6
CONTINUOUS
  2
SUN_FIRST_THIRD_ANGLE_BL0
 10
20.4816717061
 20
1.2289683772
  0
ACAD_TABLE
  5
28D
100
AcDbEntity
  8
0
 62
2
  6
CONTINUOUS
100
AcDbBlockReference
  2
*T1
 10
12.42375
 20
0.30125
 30
0.0
100
AcDbTable
342
       3AC
343
207
 11
1.0
 21
0.0
 31
0.0
 90
6
 91
4
 92
6
 93
20
 94
0
 95
0
 96
0
 70
1
 41
0.0
141
0.525
141
0.1
141
0.525
141
0.1
142
4.1
142
1.1
142
0.7
142
0.5
142
0.4
142
2.475
171
1
172
0
173
0
174
0
175
1
176
1
 91
33
178
0
145
0.0
301
CELL_VALUE
 90
4
  1
T-23A Line mount\P(See Technical Data for Body Features)
304
ACVALUE_END
170
2
140
0.125
171
1
172
0
173
0
174
0
175
1
176
1
 91
33
178
0
145
0.0
301
CELL_VALUE
 90
4
  1
Jul-26-19
304
ACVALUE_END
170
5
140
0.125
171
1
172
0
173
0
174
0
175
1
176
1
 91
33
178
0
145
0.0
301
CELL_VALUE
 90
4
  1
1.000
304
ACVALUE_END
170
5
140
0.125
171
1
172
0
173
0
174
0
175
1
176
1
 91
33
178
0
145
0.0
301
CELL_VALUE
 90
4
  1
C
304
ACVALUE_END
170
5
140
0.125
171
1
172
0
173
0
174
0
175
1
176
1
 91
33
178
0
145
0.0
301
CELL_VALUE
 90
4
  1
2
304
ACVALUE_END
170
5
140
0.125
171
1
172
0
173
0
174
0
175
1
176
1
 91
33
178
0
145
0.0
301
CELL_VALUE
 90
4
  1
 
304
ACVALUE_END
170
1
140
0.125
171
1
172
0
173
0
174
0
175
1
176
1
 91
33
178
0
145
0.0
301
CELL_VALUE
 90
4
  1
DESCRIPTION
304
ACVALUE_END
170
1
140
0.06
171
1
172
0
173
0
174
0
175
1
176
1
 91
33
178
0
145
0.0
301
CELL_VALUE
 90
4
  1
DATE
304
ACVALUE_END
170
1
140
0.06
171
1
172
0
173
0
174
0
175
1
176
1
 91
33
178
0
145
0.0
301
CELL_VALUE
 90
4
  1
SCALE
304
ACVALUE_END
170
1
140
0.06
171
1
172
0
173
0
174
0
175
1
176
1
 91
33
178
0
145
0.0
301
CELL_VALUE
 90
4
  1
DWG SIZE
304
ACVALUE_END
170
1
140
0.06
171
1
172
0
173
0
174
0
175
1
176
1
 91
33
178
0
145
0.0
301
CELL_VALUE
 90
4
  1
SHEET
304
ACVALUE_END
170
1
140
0.06
171
1
172
0
173
0
174
0
175
1
176
1
 91
33
178
0
145
0.0
301
CELL_VALUE
 90
4
  1
 
304
ACVALUE_END
170
1
140
0.125
171
1
172
0
173
0
174
0
175
1
176
1
 91
33
178
0
145
0.0
301
CELL_VALUE
 90
4
  1
P4X
304
ACVALUE_END
170
5
140
0.125
171
1
172
0
173
0
174
0
175
4
176
1
 91
33
178
0
145
0.0
301
CELL_VALUE
 90
4
  1
ALL DIMENSIONS IN INCH\PVIEWS ARE THIRD ANGLE
304
ACVALUE_END
170
5
140
0.12
171
1
172
0
173
1
174
0
175
1
176
1
 91
1
178
0
145
0.0
170
1
171
1
172
0
173
1
174
0
175
1
176
1
 91
1
178
0
145
0.0
170
1
171
1
172
0
173
1
174
0
175
1
176
1
 91
1
178
0
145
0.0
170
5
171
1
172
0
173
0
174
0
175
1
176
1
 91
33
178
0
145
0.0
301
CELL_VALUE
 90
4
  1
 
304
ACVALUE_END
170
1
140
0.125
171
1
172
0
173
0
174
0
175
1
176
1
 91
33
178
0
145
0.0
301
CELL_VALUE
 90
4
  1
MODEL
304
ACVALUE_END
170
1
140
0.06
171
1
172
0
173
0
174
0
175
1
176
1
 91
33
178
0
145
0.0
301
CELL_VALUE
 90
4
  1
 
304
ACVALUE_END
170
1
140
0.125
171
1
172
0
173
0
174
0
175
1
176
1
 91
33
178
0
145
0.0
301
CELL_VALUE
 90
4
  1
 
304
ACVALUE_END
170
1
140
0.125
171
1
172
0
173
0
174
0
175
1
176
1
 91
33
178
0
145
0.0
301
CELL_VALUE
 90
4
  1
 
304
ACVALUE_END
170
1
140
0.125
171
1
172
0
173
0
174
0
175
1
176
1
 91
33
178
0
145
0.0
301
CELL_VALUE
 90
4
  1
 
304
ACVALUE_END
170
1
140
0.125
171
1
172
0
173
0
174
0
175
1
176
1
 91
33
178
0
145
0.0
301
CELL_VALUE
 90
4
  1
 
304
ACVALUE_END
170
1
140
0.125
  0
ACAD_TABLE
  5
28E
100
AcDbEntity
  8
0
 62
2
  6
CONTINUOUS
100
AcDbBlockReference
  2
*T2
 10
12.4237499994
 20
16.47875
 30
0.0
100
AcDbTable
342
       3AB
343
208
 11
1.0
 21
0.0
 31
0.0
 90
22
 91
10
 92
3
 93
16
 94
0
 95
0
 96
0
 41
0.028
141
0.344
141
0.25
141
0.25
141
0.25
141
0.25
141
0.25
141
0.25
141
0.25
141
0.25
141
0.25
142
3.055
142
3.0
142
3.0
171
1
172
0
173
0
174
0
175
1
176
1
 91
33
178
0
145
0.0
301
CELL_VALUE
 90
4
  1
Technical Data
304
ACVALUE_END
170
5
140
0.145
171
1
172
0
173
0
174
0
175
1
176
1
 91
33
178
0
145
0.0
301
CELL_VALUE
 90
4
  1
U.S. Units
304
ACVALUE_END
170
5
140
0.145
171
1
172
0
173
0
174
0
175
1
176
1
 91
33
178
0
145
0.0
301
CELL_VALUE
 90
4
  1
Metric Units
304
ACVALUE_END
170
5
140
0.145
171
1
172
0
173
0
174
0
175
1
176
1
 91
33
178
0
145
0.0
301
CELL_VALUE
 90
4
  1
Cavity
304
ACVALUE_END
170
5
140
0.125
171
1
172
0
173
0
174
0
175
2
176
1
 91
33
178
0
145
0.0
301
CELL_VALUE
 90
4
  1
T-23A
304
ACVALUE_END
170
5
140
0.125
171
1
172
0
173
1
174
0
175
1
176
1
 91
1
178
0
145
0.0
170
1
171
1
172
0
173
0
174
0
175
1
176
1
 91
33
178
0
145
0.0
301
CELL_VALUE
 90
4
  1
Body Features
304
ACVALUE_END
170
5
140
0.125
171
1
172
0
173
0
174
0
175
2
176
1
 91
33
178
0
145
0.0
301
CELL_VALUE
 90
4
  1
Ninety degree with reverse flow check - reducing
304
ACVALUE_END
170
5
140
0.125
171
1
172
0
173
1
174
0
175
1
176
1
 91
1
178
0
145
0.0
170
1
171
1
172
0
173
0
174
0
175
1
176
1
 91
33
178
0
145
0.0
301
CELL_VALUE
 90
4
  1
Body Type
304
ACVALUE_END
170
5
140
0.125
171
1
172
0
173
0
174
0
175
2
176
1
 91
33
178
0
145
0.0
301
CELL_VALUE
 90
4
  1
Line mount
304
ACVALUE_END
170
5
140
0.125
171
1
172
0
173
1
174
0
175
1
176
1
 91
1
178
0
145
0.0
170
1
171
1
172
0
173
0
174
0
175
1
176
1
 91
33
178
0
145
0.0
301
CELL_VALUE
 90
4
  1
Interface
304
ACVALUE_END
170
5
140
0.125
171
1
172
0
173
0
174
0
175
2
176
1
 91
33
178
0
145
0.0
301
CELL_VALUE
 90
4
  1
None
304
ACVALUE_END
170
5
140
0.125
171
1
172
0
173
1
174
0
175
1
176
1
 91
1
178
0
145
0.0
170
1
171
1
172
0
173
0
174
0
175
1
176
1
 91
33
178
0
145
0.0
301
CELL_VALUE
 90
4
  1
Open Cavity Quantity
304
ACVALUE_END
170
5
140
0.125
171
1
172
0
173
0
174
0
175
2
176
1
 91
33
178
0
145
0.0
301
CELL_VALUE
 90
4
  1
1
304
ACVALUE_END
170
5
140
0.125
171
1
172
0
173
1
174
0
175
1
176
1
 91
1
178
0
145
0.0
170
1
171
1
172
0
173
0
174
0
175
1
176
1
 91
33
178
0
145
0.0
301
CELL_VALUE
 90
4
  1
Weight
304
ACVALUE_END
170
5
140
0.125
171
1
172
0
173
0
174
0
175
1
176
1
 91
33
178
0
145
0.0
301
CELL_VALUE
 90
4
  1
6.609 lb.
304
ACVALUE_END
170
5
140
0.125
171
1
172
0
173
0
174
0
175
1
176
1
 91
33
178
0
145
0.0
301
CELL_VALUE
 90
4
  1
2,998 kg.
304
ACVALUE_END
170
5
140
0.125
171
1
172
0
173
0
174
0
175
1
176
1
 91
33
178
0
145
0.0
301
CELL_VALUE
 90
4
  1
Mounting Hole Diameter
304
ACVALUE_END
170
5
140
0.125
171
1
172
0
173
0
174
0
175
1
176
1
 91
33
178
0
145
0.0
301
CELL_VALUE
 90
4
  1
.42 in.
304
ACVALUE_END
170
5
140
0.125
171
1
172
0
173
0
174
0
175
1
176
1
 91
33
178
0
145
0.0
301
CELL_VALUE
 90
4
  1
10,7 mm
304
ACVALUE_END
170
5
140
0.125
171
1
172
0
173
0
174
0
175
1
176
1
 91
33
178
0
145
0.0
301
CELL_VALUE
 90
4
  1
Mounting Hole Depth
304
ACVALUE_END
170
5
140
0.125
171
1
172
0
173
0
174
0
175
2
176
1
 91
33
178
0
145
0.0
301
CELL_VALUE
 90
4
  1
Through
304
ACVALUE_END
170
5
140
0.125
171
1
172
0
173
1
174
0
175
1
176
1
 91
1
178
0
145
0.0
170
1
171
1
172
0
173
0
174
0
175
1
176
1
 91
33
178
0
145
0.0
301
CELL_VALUE
 90
4
  1
Mounting Hole Quantity
304
ACVALUE_END
170
5
140
0.125
171
1
172
0
173
0
174
0
175
2
176
1
 91
33
178
0
145
0.0
301
CELL_VALUE
 90
4
  1
2
304
ACVALUE_END
170
5
140
0.125
171
1
172
0
173
1
174
0
175
1
176
1
 91
1
178
0
145
0.0
170
1
  0
ACAD_TABLE
  5
28F
100
AcDbEntity
  8
0
 62
2
  6
CONTINUOUS
100
AcDbBlockReference
  2
*T3
 10
0.52125
 20
2.209
 30
0.0
100
AcDbTable
342
       3AB
343
209
 11
1.0
 21
0.0
 31
0.0
 90
22
 91
6
 92
3
 93
16
 94
0
 95
0
 96
0
 41
0.05
141
0.34375
141
0.344
141
0.25
141
0.25
141
0.25
141
0.25
142
1.3
142
2.0
142
1.3
171
1
172
0
173
0
174
0
175
3
176
1
 91
33
178
0
145
0.0
301
CELL_VALUE
 90
4
  1
Port Headings
304
ACVALUE_END
170
5
140
0.145
171
1
172
0
173
1
174
0
175
1
176
1
 91
1
178
0
145
0.0
170
1
171
1
172
0
173
1
174
0
175
1
176
1
 91
1
178
0
145
0.0
170
1
171
1
172
0
173
0
174
0
175
1
176
1
 91
33
178
0
145
0.0
301
CELL_VALUE
 90
4
  1
Product
304
ACVALUE_END
170
5
140
0.145
171
1
172
0
173
0
174
0
175
1
176
1
 91
33
178
0
145
0.0
301
CELL_VALUE
 90
4
  1
Port
304
ACVALUE_END
170
5
140
0.145
171
1
172
0
173
0
174
0
175
1
176
1
 91
33
178
0
145
0.0
301
CELL_VALUE
 90
4
  1
Size
304
ACVALUE_END
170
5
140
0.145
171
1
172
0
173
0
174
0
175
1
176
1
 91
33
178
0
145
0.0
301
CELL_VALUE
 90
4
  1
P4X
304
ACVALUE_END
170
5
140
0.125
171
1
172
0
173
0
174
0
175
1
176
1
 91
33
178
0
145
0.0
301
CELL_VALUE
 90
4
  1
Ports 1 &  2
304
ACVALUE_END
170
5
140
0.125
171
1
172
0
173
0
174
0
175
1
176
1
 91
33
178
0
145
0.0
301
CELL_VALUE
 90
4
  1
1" BSPP
304
ACVALUE_END
170
5
140
0.125
171
1
172
0
173
0
174
0
175
1
176
1
 91
33
178
0
145
0.0
301
CELL_VALUE
 90
4
  1
P4X
304
ACVALUE_END
170
5
140
0.125
171
1
172
0
173
0
174
0
175
1
176
1
 91
33
178
0
145
0.0
301
CELL_VALUE
 90
4
  1
Port 3
304
ACVALUE_END
170
5
140
0.125
171
1
172
0
173
0
174
0
175
1
176
1
 91
33
178
0
145
0.0
301
CELL_VALUE
 90
4
  1
3/4" BSPP
304
ACVALUE_END
170
5
140
0.125
171
1
172
0
173
0
174
0
175
1
176
1
 91
33
178
0
145
0.0
301
CELL_VALUE
 90
4
  1
P4X
304
ACVALUE_END
170
5
140
0.125
171
1
172
0
173
0
174
0
175
1
176
1
 91
33
178
0
145
0.0
301
CELL_VALUE
 90
4
  1
Port 4
304
ACVALUE_END
170
5
140
0.125
171
1
172
0
173
0
174
0
175
1
176
1
 91
33
178
0
145
0.0
301
CELL_VALUE
 90
4
  1
1/4" BSPP
304
ACVALUE_END
170
5
140
0.125
171
1
172
0
173
0
174
0
175
1
176
1
 91
33
178
0
145
0.0
301
CELL_VALUE
 90
4
  1
P4X
304
ACVALUE_END
170
5
140
0.125
171
1
172
0
173
0
174
0
175
1
176
1
 91
33
178
0
145
0.0
301
CELL_VALUE
 90
4
  1
Gage Port
304
ACVALUE_END
170
5
140
0.125
171
1
172
0
173
0
174
0
175
1
176
1
 91
33
178
0
145
0.0
301
CELL_VALUE
 90
4
  1
1/4" BSPP
304
ACVALUE_END
170
5
140
0.125
  0
MTEXT
  5
290
100
AcDbEntity
  8
0
100
AcDbMText
 62
2
  6
CONTINUOUS
  7
STANDARD
 71
1
 72
1
 10
0.52125
 20
5.75995
 30
0.0
 11
1.0
 21
0.0
 31
0.0
 44
0.6
  3
Notes\P \P1. Important: Carefully consider\P   the maximum system pressure. The\P   pressure rating of the manifold is\P   dependent on the manifold material,\P   with the port type/size a secondary\P   consideration. Manifolds\P   constructed of alu
  1
minum are not\P   rated for pressures higher than\P   3000 psi (210 bar), regardless of\P   the port type/size specified.
 40
0.1
 41
3.04
  0
LINE
  5
291
100
AcDbEntity
  8
0
100
AcDbLine
 62
7
  6
CONTINUOUS
 10
0.30125
 20
0.30125
 11
0.30125
 21
16.69875
  0
LINE
  5
292
100
AcDbEntity
  8
0
100
AcDbLine
 62
7
  6
CONTINUOUS
 10
0.30125
 20
0.30125
 11
21.69875
 21
0.30125
  0
LINE
  5
293
100
AcDbEntity
  8
0
100
AcDbLine
 62
7
  6
CONTINUOUS
 10
0.30125
 20
16.69875
 11
21.69875
 21
16.69875
  0
LINE
  5
294
100
AcDbEntity
  8
0
100
AcDbLine
 62
7
  6
CONTINUOUS
 10
21.69875
 20
0.30125
 11
21.69875
 21
16.69875
  0
LINE
  5
295
100
AcDbEntity
  8
0
100
AcDbLine
 62
7
  6
CONTINUOUS
 10
8.9087088306
 20
12.1936514865
 11
8.2616617518
 21
11.5686519652
  0
LINE
  5
296
100
AcDbEntity
  8
0
100
AcDbLine
 62
4
  6
CONTINUOUS
 10
8.440358039
 20
10.5565260442
 11
8.433113595
 21
10.5473691918
  0
LINE
  5
297
100
AcDbEntity
  8
0
100
AcDbLine
 62
4
  6
CONTINUOUS
 10
8.4476024829
 20
10.4980680886
 11
8.433113595
 21
10.4797543795
  0
LINE
  5
298
100
AcDbEntity
  8
0
100
AcDbLine
 62
4
  6
CONTINUOUS
 10
8.3896469312
 20
10.579361391
 11
8.4041358191
 21
10.5880158396
  0
LINE
  5
299
100
AcDbEntity
  8
0
100
AcDbLine
 62
4
  6
CONTINUOUS
 10
8.433113595
 20
10.5473691918
 11
8.4186247071
 21
10.5387147364
  0
LINE
  5
29A
100
AcDbEntity
  8
0
100
AcDbLine
 62
7
  6
CONTINUOUS
 10
8.2616617518
 20
5.7730966641
 11
8.2616617518
 21
11.5686519652
  0
LINE
  5
29B
100
AcDbEntity
  8
0
100
AcDbLine
 62
4
  6
CONTINUOUS
 10
8.433113595
 20
10.4797543795
 11
8.4186247071
 21
10.4710999284
  0
LINE
  5
29C
100
AcDbEntity
  8
0
100
AcDbLine
 62
7
  6
CONTINUOUS
 10
8.2616617518
 20
5.7730966641
 11
13.0912911694
 21
5.4381607264
  0
LINE
  5
29D
100
AcDbEntity
  8
0
100
AcDbLine
 62
7
  6
CONTINUOUS
 10
11.5060988387
 20
4.9077023682
 11
11.5374816669
 21
4.892199852
  0
LINE
  5
29E
100
AcDbEntity
  8
0
100
AcDbLine
 62
4
  6
CONTINUOUS
 10
8.440358039
 20
10.5661853006
 11
8.440358039
 21
10.5565260442
  0
LINE
  5
29F
100
AcDbEntity
  8
0
100
AcDbLine
 62
4
  6
CONTINUOUS
 10
8.440358039
 20
7.2047632278
 11
8.440358039
 21
7.0888521243
  0
LINE
  5
2A0
100
AcDbEntity
  8
0
100
AcDbLine
 62
4
  6
CONTINUOUS
 10
8.4476024829
 20
10.5077273484
 11
8.4476024829
 21
10.4980680886
  0
LINE
  5
2A1
100
AcDbEntity
  8
0
100
AcDbLine
 62
7
  6
CONTINUOUS
 10
11.1960829544
 20
11.7000853579
 11
11.194017206
 21
11.6981273294
  0
LINE
  5
2A2
100
AcDbEntity
  8
0
100
AcDbLine
 62
4
  6
CONTINUOUS
 10
10.1341780954
 20
9.9105597787
 11
10.1507368252
 21
9.9259701549
  0
LINE
  5
2A3
100
AcDbEntity
  8
0
100
AcDbLine
 62
4
  6
CONTINUOUS
 10
10.1755749191
 20
9.8083365238
 11
10.1921336471
 21
9.8237469019
  0
LINE
  5
2A4
100
AcDbEntity
  8
0
100
AcDbLine
 62
4
  6
CONTINUOUS
 10
10.2666479338
 20
9.8020205888
 11
10.283206655
 21
9.8174309674
  0
LINE
  5
2A5
100
AcDbEntity
  8
0
100
AcDbLine
 62
4
  6
CONTINUOUS
 10
10.6530182832
 20
9.8497399939
 11
10.6695770044
 21
9.8568710101
  0
LINE
  5
2A6
100
AcDbEntity
  8
0
100
AcDbLine
 62
4
  6
CONTINUOUS
 10
10.8103262172
 20
9.7974338314
 11
10.8268849384
 21
9.8045648442
  0
LINE
  5
2A7
100
AcDbEntity
  8
0
100
AcDbLine
 62
4
  6
CONTINUOUS
 10
10.6102414626
 20
9.5082850159
 11
10.5936827346
 21
9.4928746361
  0
LINE
  5
2A8
100
AcDbEntity
  8
0
100
AcDbLine
 62
4
  6
CONTINUOUS
 10
10.3190839086
 20
9.2237962439
 11
10.3025251805
 21
9.2083858658
  0
LINE
  5
2A9
100
AcDbEntity
  8
0
100
AcDbLine
 62
4
  6
CONTINUOUS
 10
11.0945843652
 20
9.8191172821
 11
11.1028636981
 21
9.8268224759
  0
LINE
  5
2AA
100
AcDbEntity
  8
0
100
AcDbLine
 62
4
  6
CONTINUOUS
 10
10.2390500562
 20
9.2845423759
 11
10.1948934446
 21
9.2655263397
  0
LINE
  5
2AB
100
AcDbEntity
  8
0
100
AcDbLine
 62
4
  6
CONTINUOUS
 10
10.6644024593
 20
7.4784303573
 11
10.6499135714
 21
7.4794351651
  0
LINE
  5
2AC
100
AcDbEntity
  8
0
100
AcDbLine
 62
4
  6
CONTINUOUS
 10
10.6571580153
 20
7.536888313
 11
10.6861357912
 21
7.5348786974
  0
LINE
  5
2AD
100
AcDbEntity
  8
0
100
AcDbLine
 62
4
  6
CONTINUOUS
 10
10.6499135714
 20
7.5953462686
 11
10.6644024593
 21
7.5943414608
  0
LINE
  5
2AE
100
AcDbEntity
  8
0
100
AcDbLine
 62
4
  6
CONTINUOUS
 10
10.6499135714
 20
7.4794351651
 11
10.6354246835
 21
7.4900992318
  0
LINE
  5
2AF
100
AcDbEntity
  8
0
100
AcDbLine
 62
4
  6
CONTINUOUS
 10
10.6644024593
 20
7.5943414608
 11
10.6788913472
 21
7.5836773967
  0
LINE
  5
2B0
100
AcDbEntity
  8
0
100
AcDbLine
 62
4
  6
CONTINUOUS
 10
8.3896469312
 20
10.4827688028
 11
8.3824024873
 21
10.4929304656
  0
LINE
  5
2B1
100
AcDbEntity
  8
0
100
AcDbLine
 62
4
  6
CONTINUOUS
 10
8.433113595
 20
10.5280506723
 11
8.4476024829
 21
10.5077273484
  0
LINE
  5
2B2
100
AcDbEntity
  8
0
100
AcDbLine
 62
4
  6
CONTINUOUS
 10
8.433113595
 20
10.5763469677
 11
8.440358039
 21
10.5661853006
  0
LINE
  5
2B3
100
AcDbEntity
  8
0
100
AcDbLine
 62
4
  6
CONTINUOUS
 10
10.6354246835
 20
7.4900992318
 11
10.6209357955
 21
7.5104225566
  0
LINE
  5
2B4
100
AcDbEntity
  8
0
100
AcDbLine
 62
4
  6
CONTINUOUS
 10
10.1341780954
 20
9.8940010506
 11
10.1341780954
 21
9.9105597787
  0
LINE
  5
2B5
100
AcDbEntity
  8
0
100
AcDbLine
 62
4
  6
CONTINUOUS
 10
10.1921336471
 20
9.8237469019
 11
10.1921336471
 21
9.8403056317
  0
LINE
  5
2B6
100
AcDbEntity
  8
0
100
AcDbLine
 62
4
  6
CONTINUOUS
 10
10.2252511033
 20
9.9208025722
 11
10.2252511033
 21
9.8214501986
  0
LINE
  5
2B7
100
AcDbEntity
  8
0
100
AcDbLine
 62
4
  6
CONTINUOUS
 10
10.2611283638
 20
9.2112567448
 11
10.2611283638
 21
9.3271678482
  0
LINE
  5
2B8
100
AcDbEntity
  8
0
100
AcDbLine
 62
4
  6
CONTINUOUS
 10
10.283206655
 20
9.8174309674
 11
10.283206655
 21
9.916783341
  0
LINE
  5
2B9
100
AcDbEntity
  8
0
100
AcDbLine
 62
4
  6
CONTINUOUS
 10
10.3163241111
 20
9.7985755342
 11
10.3163241111
 21
9.9144866376
  0
LINE
  5
2BA
100
AcDbEntity
  8
0
100
AcDbLine
 62
4
  6
CONTINUOUS
 10
10.3190839086
 20
9.3065898895
 11
10.3190839086
 21
9.2237962439
  0
LINE
  5
2BB
100
AcDbEntity
  8
0
100
AcDbLine
 62
4
  6
CONTINUOUS
 10
10.3742796629
 20
9.794556303
 11
10.3742796629
 21
9.9104674065
  0
LINE
  5
2BC
100
AcDbEntity
  8
0
100
AcDbLine
 62
4
  6
CONTINUOUS
 10
10.6433589188
 20
9.4645914872
 11
10.6681970144
 21
9.553941969
  0
LINE
  5
2BD
100
AcDbEntity
  8
0
100
AcDbLine
 62
4
  6
CONTINUOUS
 10
10.3660003082
 20
9.2039838507
 11
10.3991177644
 21
9.3175982508
  0
LINE
  5
2BE
100
AcDbEntity
  8
0
100
AcDbLine
 62
4
  6
CONTINUOUS
 10
10.5978225091
 20
9.7514556722
 11
10.6309399515
 21
9.8595504989
  0
LINE
  5
2BF
100
AcDbEntity
  8
0
100
AcDbLine
 62
4
  6
CONTINUOUS
 10
10.7344319267
 20
9.4334374588
 11
10.800666839
 21
9.5447551554
  0
LINE
  5
2C0
100
AcDbEntity
  8
0
100
AcDbLine
 62
4
  6
CONTINUOUS
 10
11.1690986934
 20
9.8139496959
 11
11.1773780263
 21
9.8216548897
  0
LINE
  5
2C1
100
AcDbEntity
  8
0
100
AcDbLine
 62
4
  6
CONTINUOUS
 10
11.2104954686
 20
9.7365645399
 11
11.2187748016
 21
9.7442697312
  0
LINE
  5
2C2
100
AcDbEntity
  8
0
100
AcDbLine
 62
4
  6
CONTINUOUS
 10
10.7385717417
 20
9.2774983094
 11
10.7551304629
 21
9.2929086863
  0
LINE
  5
2C3
100
AcDbEntity
  8
0
100
AcDbLine
 62
4
  6
CONTINUOUS
 10
10.8351642911
 20
9.2707995934
 11
10.8517230123
 21
9.2862099702
  0
LINE
  5
2C4
100
AcDbEntity
  8
0
100
AcDbLine
 62
4
  6
CONTINUOUS
 10
10.8931198428
 20
9.1839867167
 11
10.8765611216
 21
9.1685763381
  0
LINE
  5
2C5
100
AcDbEntity
  8
0
100
AcDbLine
 62
4
  6
CONTINUOUS
 10
11.158059492
 20
9.1987305475
 11
11.1139028838
 21
9.1797145128
  0
LINE
  5
2C6
100
AcDbEntity
  8
0
100
AcDbLine
 62
4
  6
CONTINUOUS
 10
10.6788913472
 20
7.5836773967
 11
10.6861357912
 21
7.5735157295
  0
LINE
  5
2C7
100
AcDbEntity
  8
0
100
AcDbLine
 62
4
  6
CONTINUOUS
 10
10.6209357955
 20
7.5104225566
 11
10.6136913516
 21
7.5399027363
  0
LINE
  5
2C8
100
AcDbEntity
  8
0
100
AcDbLine
 62
4
  6
CONTINUOUS
 10
10.4984701467
 20
9.1947970362
 11
10.4984701467
 21
9.3107081397
  0
LINE
  5
2C9
100
AcDbEntity
  8
0
100
AcDbLine
 62
4
  6
CONTINUOUS
 10
10.4984701269
 20
9.7859436651
 11
10.4984701269
 21
9.9018547685
  0
LINE
  5
2CA
100
AcDbEntity
  8
0
100
AcDbLine
 62
4
  6
CONTINUOUS
 10
10.548146318
 20
9.8570128893
 11
10.548146318
 21
9.7824986096
  0
LINE
  5
2CB
100
AcDbEntity
  8
0
100
AcDbLine
 62
4
  6
CONTINUOUS
 10
10.5522859109
 20
9.4460693279
 11
10.5522859109
 21
9.5619804313
  0
LINE
  5
2CC
100
AcDbEntity
  8
0
100
AcDbLine
 62
4
  6
CONTINUOUS
 10
10.564705059
 20
9.1902036295
 11
10.564705059
 21
9.3061147329
  0
LINE
  5
2CD
100
AcDbEntity
  8
0
100
AcDbLine
 62
4
  6
CONTINUOUS
 10
10.6102414626
 20
9.5414024721
 11
10.6102414626
 21
9.5082850159
  0
LINE
  5
2CE
100
AcDbEntity
  8
0
100
AcDbLine
 62
4
  6
CONTINUOUS
 10
10.6530182832
 20
9.783505079
 11
10.6530182832
 21
9.8497399939
  0
LINE
  5
2CF
100
AcDbEntity
  8
0
100
AcDbLine
 62
4
  6
CONTINUOUS
 10
10.6819959579
 20
9.4370739056
 11
10.6819959579
 21
9.4950294573
  0
LINE
  5
2D0
100
AcDbEntity
  8
0
100
AcDbLine
 62
4
  6
CONTINUOUS
 10
10.6861357912
 20
7.5348786974
 11
10.6861357912
 21
7.4962416635
  0
LINE
  5
2D1
100
AcDbEntity
  8
0
100
AcDbLine
 62
4
  6
CONTINUOUS
 10
10.7026944467
 20
9.8876917639
 11
10.7026944467
 21
9.7717806604
  0
LINE
  5
2D2
100
AcDbEntity
  8
0
100
AcDbLine
 62
4
  6
CONTINUOUS
 10
11.0531875347
 20
9.8633849857
 11
11.050427757
 21
9.8552970094
  0
LINE
  5
2D3
100
AcDbEntity
  8
0
100
AcDbLine
 62
7
  6
CONTINUOUS
 10
13.0912911694
 20
11.2337160275
 11
13.7383382482
 21
11.8587155488
  0
LINE
  5
2D4
100
AcDbEntity
  8
0
100
AcDbLine
 62
7
  6
CONTINUOUS
 10
13.3845534665
 20
11.321981484
 11
13.3839050798
 21
11.3213667956
  0
LINE
  5
2D5
100
AcDbEntity
  8
0
100
AcDbLine
 62
4
  6
CONTINUOUS
 10
10.9841928368
 20
9.1776707831
 11
10.9676341157
 21
9.1622604045
  0
LINE
  5
2D6
100
AcDbEntity
  8
0
100
AcDbLine
 62
4
  6
CONTINUOUS
 10
10.3991177644
 20
9.3175982508
 11
10.4322352344
 21
9.199390443
  0
LINE
  5
2D7
100
AcDbEntity
  8
0
100
AcDbLine
 62
4
  6
CONTINUOUS
 10
10.7358119443
 20
9.7694839542
 11
10.7358119443
 21
9.8522776015
  0
LINE
  5
2D8
100
AcDbEntity
  8
0
100
AcDbLine
 62
4
  6
CONTINUOUS
 10
10.7385717417
 20
9.1947046639
 11
10.7385717417
 21
9.2774983094
  0
LINE
  5
2D9
100
AcDbEntity
  8
0
100
AcDbLine
 62
4
  6
CONTINUOUS
 10
10.7744489419
 20
9.8413187491
 11
10.7744489419
 21
9.824760021
  0
LINE
  5
2DA
100
AcDbEntity
  8
0
100
AcDbLine
 62
4
  6
CONTINUOUS
 10
10.8103262172
 20
9.7725957367
 11
10.8103262172
 21
9.7974338314
  0
LINE
  5
2DB
100
AcDbEntity
  8
0
100
AcDbLine
 62
4
  6
CONTINUOUS
 10
10.8351642911
 20
9.1880059478
 11
10.8351642911
 21
9.2707995934
  0
LINE
  5
2DC
100
AcDbEntity
  8
0
100
AcDbLine
 62
4
  6
CONTINUOUS
 10
10.8600023807
 20
9.7608713182
 11
10.8600023807
 21
9.8271062374
  0
LINE
  5
2DD
100
AcDbEntity
  8
0
100
AcDbLine
 62
4
  6
CONTINUOUS
 10
10.893119823
 20
9.841368263
 11
10.893119823
 21
9.7668539806
  0
LINE
  5
2DE
100
AcDbEntity
  8
0
100
AcDbLine
 62
4
  6
CONTINUOUS
 10
10.8931198428
 20
9.2667803622
 11
10.8931198428
 21
9.1839867167
  0
LINE
  5
2DF
100
AcDbEntity
  8
0
100
AcDbLine
 62
4
  6
CONTINUOUS
 10
10.9262372851
 20
9.1651312844
 11
10.9262372851
 21
9.2810423879
  0
LINE
  5
2E0
100
AcDbEntity
  8
0
100
AcDbLine
 62
4
  6
CONTINUOUS
 10
10.9427960418
 20
9.7551295583
 11
10.9427960418
 21
9.8379232055
  0
LINE
  5
2E1
100
AcDbEntity
  8
0
100
AcDbLine
 62
4
  6
CONTINUOUS
 10
10.9759134841
 20
9.7611122207
 11
10.9759134841
 21
9.8687439593
  0
LINE
  5
2E2
100
AcDbEntity
  8
0
100
AcDbLine
 62
4
  6
CONTINUOUS
 10
10.9841928368
 20
9.2604644286
 11
10.9841928368
 21
9.1776707831
  0
LINE
  5
2E3
100
AcDbEntity
  8
0
100
AcDbLine
 62
4
  6
CONTINUOUS
 10
11.031109278
 20
9.157858387
 11
11.031109278
 21
9.2737694905
  0
LINE
  5
2E4
100
AcDbEntity
  8
0
100
AcDbLine
 62
4
  6
CONTINUOUS
 10
10.6136913516
 20
7.5399027363
 11
10.6209357955
 21
7.5683781083
  0
LINE
  5
2E5
100
AcDbEntity
  8
0
100
AcDbLine
 62
4
  6
CONTINUOUS
 10
10.3163241111
 20
9.9144866376
 11
10.3742796629
 21
9.794556303
  0
LINE
  5
2E6
100
AcDbEntity
  8
0
100
AcDbLine
 62
4
  6
CONTINUOUS
 10
10.581263788
 20
9.8629955525
 11
10.6061018974
 21
9.7784793765
  0
LINE
  5
2E7
100
AcDbEntity
  8
0
100
AcDbLine
 62
4
  6
CONTINUOUS
 10
11.050427757
 20
9.7476652735
 11
11.050427757
 21
9.8304589207
  0
LINE
  5
2E8
100
AcDbEntity
  8
0
100
AcDbLine
 62
4
  6
CONTINUOUS
 10
11.050427757
 20
9.8552970094
 11
11.050427757
 21
9.8635763769
  0
LINE
  5
2E9
100
AcDbEntity
  8
0
100
AcDbLine
 62
4
  6
CONTINUOUS
 10
11.0945843652
 20
9.7528823672
 11
11.0945843652
 21
9.8191172821
  0
LINE
  5
2EA
100
AcDbEntity
  8
0
100
AcDbLine
 62
4
  6
CONTINUOUS
 10
11.1690986934
 20
9.7891116037
 11
11.1690986934
 21
9.8139496959
  0
LINE
  5
2EB
100
AcDbEntity
  8
0
100
AcDbLine
 62
4
  6
CONTINUOUS
 10
11.2187748016
 20
9.7442697312
 11
11.2187748016
 21
9.7691078259
  0
LINE
  5
2EC
100
AcDbEntity
  8
0
100
AcDbLine
 62
4
  6
CONTINUOUS
 10
10.6209357955
 20
7.5683781083
 11
10.6354246835
 21
7.58669182
  0
LINE
  5
2ED
100
AcDbEntity
  8
0
100
AcDbLine
 62
4
  6
CONTINUOUS
 10
12.9096971095
 20
8.6499008785
 11
12.9676526613
 21
8.6458816473
  0
LINE
  5
2EE
100
AcDbEntity
  8
0
100
AcDbLine
 62
4
  6
CONTINUOUS
 10
10.1948934446
 20
9.2655263397
 11
10.2390500562
 21
9.2403857625
  0
LINE
  5
2EF
100
AcDbEntity
  8
0
100
AcDbLine
 62
4
  6
CONTINUOUS
 10
8.4041358191
 20
10.4721047361
 11
8.3896469312
 21
10.4827688028
  0
LINE
  5
2F0
100
AcDbEntity
  8
0
100
AcDbLine
 62
4
  6
CONTINUOUS
 10
8.4186247071
 20
10.5387147364
 11
8.433113595
 21
10.5280506723
  0
LINE
  5
2F1
100
AcDbEntity
  8
0
100
AcDbLine
 62
4
  6
CONTINUOUS
 10
8.4186247071
 20
10.5870110318
 11
8.433113595
 21
10.5763469677
  0
LINE
  5
2F2
100
AcDbEntity
  8
0
100
AcDbLine
 62
4
  6
CONTINUOUS
 10
10.3025251805
 20
9.3242969692
 11
10.3190839086
 21
9.3065898895
  0
LINE
  5
2F3
100
AcDbEntity
  8
0
100
AcDbLine
 62
4
  6
CONTINUOUS
 10
10.1341780954
 20
9.8194867682
 11
10.1424574603
 21
9.8106332274
  0
LINE
  5
2F4
100
AcDbEntity
  8
0
100
AcDbLine
 62
4
  6
CONTINUOUS
 10
10.7551304629
 20
9.1769975829
 11
10.7385717417
 21
9.1947046639
  0
LINE
  5
2F5
100
AcDbEntity
  8
0
100
AcDbLine
 62
4
  6
CONTINUOUS
 10
10.2252511033
 20
9.8214501986
 11
10.2418098314
 21
9.8037431171
  0
LINE
  5
2F6
100
AcDbEntity
  8
0
100
AcDbLine
 62
4
  6
CONTINUOUS
 10
10.7344319267
 20
9.5493485622
 11
10.800666839
 21
9.428844052
  0
LINE
  5
2F7
100
AcDbEntity
  8
0
100
AcDbLine
 62
7
  6
CONTINUOUS
 10
11.3963188575
 20
5.5557074555
 11
11.3963188575
 21
4.9744921597
  0
LINE
  5
2F8
100
AcDbEntity
  8
0
100
AcDbLine
 62
7
  6
CONTINUOUS
 10
11.4080290404
 20
5.5548953515
 11
11.4080290404
 21
4.9631810109
  0
LINE
  5
2F9
100
AcDbEntity
  8
0
100
AcDbLine
 62
4
  6
CONTINUOUS
 10
12.9604082173
 20
10.8158537433
 11
12.9096971095
 21
10.732437243
  0
LINE
  5
2FA
100
AcDbEntity
  8
0
100
AcDbLine
 62
4
  6
CONTINUOUS
 10
10.6861357912
 20
7.4962416635
 11
10.6788913472
 21
7.4870848085
  0
LINE
  5
2FB
100
AcDbEntity
  8
0
100
AcDbLine
 62
4
  6
CONTINUOUS
 10
10.6354246835
 20
7.58669182
 11
10.6499135714
 21
7.5953462686
  0
LINE
  5
2FC
100
AcDbEntity
  8
0
100
AcDbLine
 62
4
  6
CONTINUOUS
 10
12.9314304414
 20
8.7643047702
 11
12.9459193294
 21
8.7632999624
  0
LINE
  5
2FD
100
AcDbEntity
  8
0
100
AcDbLine
 62
4
  6
CONTINUOUS
 10
10.1921336471
 20
9.8403056317
 11
10.1341780954
 21
9.8940010506
  0
LINE
  5
2FE
100
AcDbEntity
  8
0
100
AcDbLine
 62
4
  6
CONTINUOUS
 10
10.8517230123
 20
9.1702988668
 11
10.8351642911
 21
9.1880059478
  0
LINE
  5
2FF
100
AcDbEntity
  8
0
100
AcDbLine
 62
4
  6
CONTINUOUS
 10
10.1838542831
 20
9.9236734514
 11
10.1921336471
 21
9.9148199081
  0
LINE
  5
300
100
AcDbEntity
  8
0
100
AcDbLine
 62
4
  6
CONTINUOUS
 10
10.5936827346
 20
9.5591095518
 11
10.6102414626
 21
9.5414024721
  0
LINE
  5
301
100
AcDbEntity
  8
0
100
AcDbLine
 62
4
  6
CONTINUOUS
 10
10.8765611216
 20
9.2844874415
 11
10.8931198428
 21
9.2667803622
  0
LINE
  5
302
100
AcDbEntity
  8
0
100
AcDbLine
 62
4
  6
CONTINUOUS
 10
10.9676341157
 20
9.2781715079
 11
10.9841928368
 21
9.2604644286
  0
LINE
  5
303
100
AcDbEntity
  8
0
100
AcDbLine
 62
4
  6
CONTINUOUS
 10
10.5398669574
 20
9.8658664324
 11
10.548146318
 21
9.8570128893
  0
LINE
  5
304
100
AcDbEntity
  8
0
100
AcDbLine
 62
4
  6
CONTINUOUS
 10
10.7689293866
 20
9.849980899
 11
10.7744489419
 21
9.8413187491
  0
LINE
  5
305
100
AcDbEntity
  8
0
100
AcDbLine
 62
4
  6
CONTINUOUS
 10
10.8600023807
 20
9.8271062374
 11
10.8517230477
 21
9.8442391391
  0
LINE
  5
306
100
AcDbEntity
  8
0
100
AcDbLine
 62
7
  6
CONTINUOUS
 10
11.8814060193
 20
5.5109303608
 11
11.8814060193
 21
4.8406621886
  0
LINE
  5
307
100
AcDbEntity
  8
0
100
AcDbLine
 62
7
  6
CONTINUOUS
 10
11.9251089833
 20
5.5078995499
 11
11.9251089833
 21
4.8376313777
  0
LINE
  5
308
100
AcDbEntity
  8
0
100
AcDbLine
 62
7
  6
CONTINUOUS
 10
13.3855189959
 20
9.651845295
 11
13.3839050798
 21
9.6503150171
  0
LINE
  5
309
100
AcDbEntity
  8
0
100
AcDbLine
 62
4
  6
CONTINUOUS
 10
10.6788913472
 20
7.4870848085
 11
10.6644024593
 21
7.4784303573
  0
LINE
  5
30A
100
AcDbEntity
  8
0
100
AcDbLine
 62
4
  6
CONTINUOUS
 10
12.9169415535
 20
8.7556503217
 11
12.9314304414
 21
8.7643047702
  0
LINE
  5
30B
100
AcDbEntity
  8
0
100
AcDbLine
 62
4
  6
CONTINUOUS
 10
12.9604082173
 20
8.7139988592
 11
12.9314304414
 21
8.6966899587
  0
LINE
  5
30C
100
AcDbEntity
  8
0
100
AcDbLine
 62
4
  6
CONTINUOUS
 10
10.9676341157
 20
9.1622604045
 11
10.9262372851
 21
9.1651312844
  0
LINE
  5
30D
100
AcDbEntity
  8
0
100
AcDbLine
 62
4
  6
CONTINUOUS
 10
10.8765611216
 20
9.1685763381
 11
10.8517230123
 21
9.1702988668
  0
LINE
  5
30E
100
AcDbEntity
  8
0
100
AcDbLine
 62
4
  6
CONTINUOUS
 10
10.7882479052
 20
9.1747008804
 11
10.7551304629
 21
9.1769975829
  0
LINE
  5
30F
100
AcDbEntity
  8
0
100
AcDbLine
 62
4
  6
CONTINUOUS
 10
10.3025251805
 20
9.2083858658
 11
10.2611283638
 21
9.2112567448
  0
LINE
  5
310
100
AcDbEntity
  8
0
100
AcDbLine
 62
4
  6
CONTINUOUS
 10
10.564705059
 20
9.1902036295
 11
10.6143812501
 21
9.1867585739
  0
LINE
  5
311
100
AcDbEntity
  8
0
100
AcDbLine
 62
4
  6
CONTINUOUS
 10
11.031109278
 20
9.157858387
 11
11.0807854415
 21
9.1544133334
  0
LINE
  5
312
100
AcDbEntity
  8
0
100
AcDbLine
 62
4
  6
CONTINUOUS
 10
10.3770394603
 20
9.2363357425
 11
10.4211960685
 21
9.2332734714
  0
LINE
  5
313
100
AcDbEntity
  8
0
100
AcDbLine
 62
4
  6
CONTINUOUS
 10
11.0642267203
 20
9.2217966038
 11
11.031109278
 21
9.2240933062
  0
LINE
  5
314
100
AcDbEntity
  8
0
100
AcDbLine
 62
4
  6
CONTINUOUS
 10
10.5978225289
 20
9.2541418443
 11
10.564705059
 21
9.2564385487
  0
LINE
  5
315
100
AcDbEntity
  8
0
100
AcDbLine
 62
4
  6
CONTINUOUS
 10
10.2611283638
 20
9.3271678482
 11
10.3025251805
 21
9.3242969692
  0
LINE
  5
316
100
AcDbEntity
  8
0
100
AcDbLine
 62
4
  6
CONTINUOUS
 10
10.4653526767
 20
9.313004844
 11
10.531587589
 21
9.3084114372
  0
LINE
  5
317
100
AcDbEntity
  8
0
100
AcDbLine
 62
4
  6
CONTINUOUS
 10
10.564705059
 20
9.3061147329
 11
10.6143812501
 21
9.3026696773
  0
LINE
  5
318
100
AcDbEntity
  8
0
100
AcDbLine
 62
4
  6
CONTINUOUS
 10
10.7551304629
 20
9.2929086863
 11
10.7882479052
 21
9.2906119839
  0
LINE
  5
319
100
AcDbEntity
  8
0
100
AcDbLine
 62
4
  6
CONTINUOUS
 10
10.8517230123
 20
9.2862099702
 11
10.8765611216
 21
9.2844874415
  0
LINE
  5
31A
100
AcDbEntity
  8
0
100
AcDbLine
 62
4
  6
CONTINUOUS
 10
10.9262372851
 20
9.2810423879
 11
10.9676341157
 21
9.2781715079
  0
LINE
  5
31B
100
AcDbEntity
  8
0
100
AcDbLine
 62
4
  6
CONTINUOUS
 10
11.031109278
 20
9.2737694905
 11
11.0807854415
 21
9.2703244368
  0
LINE
  5
31C
100
AcDbEntity
  8
0
100
AcDbLine
 62
4
  6
CONTINUOUS
 10
10.7013144705
 20
9.460572256
 11
10.6433589188
 21
9.4645914872
  0
LINE
  5
31D
100
AcDbEntity
  8
0
100
AcDbLine
 62
4
  6
CONTINUOUS
 10
11.1139028838
 20
9.2238711262
 11
11.158059492
 21
9.1987305475
  0
LINE
  5
31E
100
AcDbEntity
  8
0
100
AcDbLine
 62
4
  6
CONTINUOUS
 10
10.6695770044
 20
9.7740773629
 11
10.6530182832
 21
9.783505079
  0
LINE
  5
31F
100
AcDbEntity
  8
0
100
AcDbLine
 62
4
  6
CONTINUOUS
 10
10.893119823
 20
9.7668539806
 11
10.9013992112
 21
9.7580004382
  0
LINE
  5
320
100
AcDbEntity
  8
0
100
AcDbLine
 62
4
  6
CONTINUOUS
 10
10.9841928723
 20
9.7522586783
 11
10.9759134841
 21
9.7611122207
  0
LINE
  5
321
100
AcDbEntity
  8
0
100
AcDbLine
 62
4
  6
CONTINUOUS
 10
11.1028636981
 20
9.7440288286
 11
11.0945843652
 21
9.7528823672
  0
LINE
  5
322
100
AcDbEntity
  8
0
100
AcDbLine
 62
4
  6
CONTINUOUS
 10
10.5936827346
 20
9.4928746361
 11
10.5522859109
 21
9.4957455155
  0
LINE
  5
323
100
AcDbEntity
  8
0
100
AcDbLine
 62
4
  6
CONTINUOUS
 10
10.5522859109
 20
9.5619804313
 11
10.5936827346
 21
9.5591095518
  0
LINE
  5
324
100
AcDbEntity
  8
0
100
AcDbLine
 62
4
  6
CONTINUOUS
 10
10.581263788
 20
9.7526040234
 11
10.5978225091
 21
9.7514556722
  0
LINE
  5
325
100
AcDbEntity
  8
0
100
AcDbLine
 62
4
  6
CONTINUOUS
 10
11.135981251
 20
9.7417321185
 11
11.1028636981
 21
9.7440288286
  0
LINE
  5
326
100
AcDbEntity
  8
0
100
AcDbLine
 62
4
  6
CONTINUOUS
 10
11.0007515935
 20
9.7511103271
 11
10.9841928723
 21
9.7522586783
  0
LINE
  5
327
100
AcDbEntity
  8
0
100
AcDbLine
 62
4
  6
CONTINUOUS
 10
10.8600023807
 20
9.7608713182
 11
10.8268849384
 21
9.7631680206
  0
LINE
  5
328
100
AcDbEntity
  8
0
100
AcDbLine
 62
4
  6
CONTINUOUS
 10
10.7026944467
 20
9.7717806604
 11
10.6695770044
 21
9.7740773629
  0
LINE
  5
329
100
AcDbEntity
  8
0
100
AcDbLine
 62
4
  6
CONTINUOUS
 10
10.1424574603
 20
9.8106332274
 11
10.1755749191
 21
9.8083365238
  0
LINE
  5
32A
100
AcDbEntity
  8
0
100
AcDbLine
 62
4
  6
CONTINUOUS
 10
10.2418098314
 20
9.8037431171
 11
10.2666479338
 21
9.8020205888
  0
LINE
  5
32B
100
AcDbEntity
  8
0
100
AcDbLine
 62
4
  6
CONTINUOUS
 10
10.9013992112
 20
9.7580004382
 11
10.9427960418
 21
9.7551295583
  0
LINE
  5
32C
100
AcDbEntity
  8
0
100
AcDbLine
 62
4
  6
CONTINUOUS
 10
11.1773780263
 20
9.7388612424
 11
11.2104954686
 21
9.7365645399
  0
LINE
  5
32D
100
AcDbEntity
  8
0
100
AcDbLine
 62
4
  6
CONTINUOUS
 10
10.8268849384
 20
9.7631680206
 11
10.8103262172
 21
9.7725957367
  0
LINE
  5
32E
100
AcDbEntity
  8
0
100
AcDbLine
 62
4
  6
CONTINUOUS
 10
11.1773780263
 20
9.783017854
 11
11.1690986934
 21
9.7891116037
  0
LINE
  5
32F
100
AcDbEntity
  8
0
100
AcDbLine
 62
4
  6
CONTINUOUS
 10
11.2187748016
 20
9.7691078259
 11
11.2104954686
 21
9.7752015756
  0
LINE
  5
330
100
AcDbEntity
  8
0
100
AcDbLine
 62
4
  6
CONTINUOUS
 10
11.1690986934
 20
9.747714781
 11
11.1773780263
 21
9.7388612424
  0
LINE
  5
331
100
AcDbEntity
  8
0
100
AcDbLine
 62
4
  6
CONTINUOUS
 10
11.2104954686
 20
9.8193581872
 11
11.2187748016
 21
9.8105046461
  0
LINE
  5
332
100
AcDbEntity
  8
0
100
AcDbLine
 62
7
  6
CONTINUOUS
 10
12.5717537807
 20
5.4741907667
 11
12.5717537807
 21
4.8824764261
  0
LINE
  5
333
100
AcDbEntity
  8
0
100
AcDbLine
 62
4
  6
CONTINUOUS
 10
12.9096971095
 20
8.7464934623
 11
12.9169415535
 21
8.7556503217
  0
LINE
  5
334
100
AcDbEntity
  8
0
100
AcDbLine
 62
4
  6
CONTINUOUS
 10
12.9314304414
 20
8.6966899587
 11
12.9169415535
 21
8.6783762504
  0
LINE
  5
335
100
AcDbEntity
  8
0
100
AcDbLine
 62
4
  6
CONTINUOUS
 10
12.9676526613
 20
8.7231557185
 11
12.9604082173
 21
8.7139988592
  0
LINE
  5
336
100
AcDbEntity
  8
0
100
AcDbLine
 62
4
  6
CONTINUOUS
 10
10.8268849384
 20
9.8045648442
 11
10.8600023807
 21
9.8022681418
  0
LINE
  5
337
100
AcDbEntity
  8
0
100
AcDbLine
 62
4
  6
CONTINUOUS
 10
10.8517230477
 20
9.8442391391
 11
10.8103262172
 21
9.8471100191
  0
LINE
  5
338
100
AcDbEntity
  8
0
100
AcDbLine
 62
4
  6
CONTINUOUS
 10
10.4984701269
 20
9.8687373124
 11
10.5398669574
 21
9.8658664324
  0
LINE
  5
339
100
AcDbEntity
  8
0
100
AcDbLine
 62
4
  6
CONTINUOUS
 10
10.6695770044
 20
9.8568710101
 11
10.7026944467
 21
9.8545743077
  0
LINE
  5
33A
100
AcDbEntity
  8
0
100
AcDbLine
 62
4
  6
CONTINUOUS
 10
10.7358119443
 20
9.8522776015
 11
10.7689293866
 21
9.849980899
  0
LINE
  5
33B
100
AcDbEntity
  8
0
100
AcDbLine
 62
4
  6
CONTINUOUS
 10
11.1028636981
 20
9.8268224759
 11
11.135981251
 21
9.8245257658
  0
LINE
  5
33C
100
AcDbEntity
  8
0
100
AcDbLine
 62
4
  6
CONTINUOUS
 10
11.1773780263
 20
9.8216548897
 11
11.2104954686
 21
9.8193581872
  0
LINE
  5
33D
100
AcDbEntity
  8
0
100
AcDbLine
 62
4
  6
CONTINUOUS
 10
10.1507368252
 20
9.9259701549
 11
10.1838542831
 21
9.9236734514
  0
LINE
  5
33E
100
AcDbEntity
  8
0
100
AcDbLine
 62
4
  6
CONTINUOUS
 10
11.050427757
 20
9.8635763769
 11
11.0531875347
 21
9.8633849857
  0
LINE
  5
33F
100
AcDbEntity
  8
0
100
AcDbLine
 62
4
  6
CONTINUOUS
 10
11.2104954686
 20
9.7752015756
 11
11.1773780263
 21
9.783017854
  0
LINE
  5
340
100
AcDbEntity
  8
0
100
AcDbLine
 62
4
  6
CONTINUOUS
 10
12.9459193294
 20
8.7632999624
 11
12.9604082173
 21
8.7526358983
  0
LINE
  5
341
100
AcDbEntity
  8
0
100
AcDbLine
 62
7
  6
CONTINUOUS
 10
12.6037465619
 20
5.4719720598
 11
12.6037465619
 21
4.890756764
  0
LINE
  5
342
100
AcDbEntity
  8
0
100
AcDbLine
 62
7
  6
CONTINUOUS
 10
12.7770143804
 20
5.4599558957
 11
12.7770143804
 21
5.0581206346
  0
LINE
  5
343
100
AcDbEntity
  8
0
100
AcDbLine
 62
4
  6
CONTINUOUS
 10
12.9169415535
 20
8.6783762504
 11
12.9096971095
 21
8.6499008785
  0
LINE
  5
344
100
AcDbEntity
  8
0
100
AcDbLine
 62
4
  6
CONTINUOUS
 10
8.4186247071
 20
10.4710999284
 11
8.4041358191
 21
10.4721047361
  0
LINE
  5
345
100
AcDbEntity
  8
0
100
AcDbLine
 62
4
  6
CONTINUOUS
 10
8.4041358191
 20
10.5397195442
 11
8.4186247071
 21
10.5387147364
  0
LINE
  5
346
100
AcDbEntity
  8
0
100
AcDbLine
 62
4
  6
CONTINUOUS
 10
12.9604082173
 20
8.7526358983
 11
12.9676526613
 21
8.7424742312
  0
LINE
  5
347
100
AcDbEntity
  8
0
100
AcDbLine
 62
4
  6
CONTINUOUS
 10
12.9604082173
 20
10.6999426398
 11
12.9604082173
 21
10.8158537433
  0
LINE
  5
348
100
AcDbEntity
  8
0
100
AcDbLine
 62
4
  6
CONTINUOUS
 10
12.9676526613
 20
8.7424742312
 11
12.9676526613
 21
8.7231557185
  0
LINE
  5
349
100
AcDbEntity
  8
0
100
AcDbLine
 62
7
  6
CONTINUOUS
 10
13.0912911694
 20
5.4381607264
 11
13.0912911694
 21
11.2337160275
  0
LINE
  5
34A
100
AcDbEntity
  8
0
100
AcDbLine
 62
4
  6
CONTINUOUS
 10
8.4041358191
 20
10.5880158396
 11
8.4186247071
 21
10.5870110318
  0
LINE
  5
34B
100
AcDbEntity
  8
0
100
AcDbLine
 62
4
  6
CONTINUOUS
 10
12.9096971095
 20
10.732437243
 11
12.9748971052
 21
10.7279156079
  0
LINE
  5
34C
100
AcDbEntity
  8
0
100
AcDbLine
 62
7
  6
CONTINUOUS
 10
13.7383382482
 20
6.0631602476
 11
13.7383382482
 21
11.8587155488
  0
LINE
  5
34D
100
AcDbEntity
  8
0
100
AcDbLine
 62
7
  6
CONTINUOUS
 10
8.2616617518
 20
11.5686519652
 11
13.0912911694
 21
11.2337160275
  0
LINE
  5
34E
100
AcDbEntity
  8
0
100
AcDbLine
 62
7
  6
CONTINUOUS
 10
13.0912911694
 20
5.4381607264
 11
13.7383382482
 21
6.0631602476
  0
LINE
  5
34F
100
AcDbEntity
  8
0
100
AcDbLine
 62
7
  6
CONTINUOUS
 10
13.7383382482
 20
11.8587155488
 11
8.9087088306
 21
12.1936514865
  0
LINE
  5
350
100
AcDbEntity
  8
0
100
AcDbLine
 62
7
  6
CONTINUOUS
 10
12.6546107126
 20
4.9014665088
 11
12.6358515711
 21
4.892199852
  0
ARC
  5
351
100
AcDbEntity
  8
0
100
AcDbCircle
 62
7
  6
CONTINUOUS
 10
12.0774421468
 20
7.3529669844
 40
2.5199441674
100
AcDbArc
 50
266.0342868665
 51
266.5342994209
  0
ARC
  5
352
100
AcDbEntity
  8
0
100
AcDbCircle
 62
7
  6
CONTINUOUS
 10
12.0774421468
 20
8.0232351565
 40
2.5199441674
100
AcDbArc
 50
266.0342868665
 51
266.5342994209
  0
ARC
  5
353
100
AcDbEntity
  8
0
100
AcDbCircle
 62
7
  6
CONTINUOUS
 10
12.073420182
 20
7.2944000391
 40
2.4612392971
100
AcDbArc
 50
265.5255095249
 51
266.0333993217
  0
ARC
  5
354
100
AcDbEntity
  8
0
100
AcDbCircle
 62
7
  6
CONTINUOUS
 10
12.0726570145
 20
7.9543266189
 40
2.4508696859
100
AcDbArc
 50
265.5244350788
 51
266.0344737677
  0
ARC
  5
355
100
AcDbEntity
  8
0
100
AcDbCircle
 62
7
  6
CONTINUOUS
 10
12.324156388
 20
5.9050651567
 40
1.0521369592
100
AcDbArc
 50
283.610963992
 51
285.4106627597
  0
ARC
  5
356
100
AcDbEntity
  8
0
100
AcDbCircle
 62
7
  6
CONTINUOUS
 10
11.8774648547
 20
5.6569920334
 40
0.8362695756
100
AcDbArc
 50
243.6645406528
 51
246.0372127916
  0
ARC
  5
357
100
AcDbEntity
  8
0
100
AcDbCircle
 62
7
  6
CONTINUOUS
 10
10.0415317699
 20
7.628267962
 40
0.3831091253
100
AcDbArc
 50
134.760221394
 51
135.7288593518
  0
ARC
  5
358
100
AcDbEntity
  8
0
100
AcDbCircle
 62
7
  6
CONTINUOUS
 10
10.1205966034
 20
7.5464134052
 40
0.3830866078
100
AcDbArc
 50
312.2857513653
 51
313.4298591636
  0
ARC
  5
359
100
AcDbEntity
  8
0
100
AcDbCircle
 62
7
  6
CONTINUOUS
 10
10.2975726916
 20
7.7928874647
 40
0.2224088863
100
AcDbArc
 50
172.4189397085
 51
180.0593402474
  0
ARC
  5
35A
100
AcDbEntity
  8
0
100
AcDbCircle
 62
7
  6
CONTINUOUS
 10
12.6095773785
 20
4.9888119592
 40
0.0981934129
100
AcDbArc
 50
283.9847284823
 51
285.1201944793
  0
ARC
  5
35B
100
AcDbEntity
  8
0
100
AcDbCircle
 62
7
  6
CONTINUOUS
 10
13.3701662942
 20
11.28713415
 40
0.0147440802
100
AcDbArc
 50
86.0359601072
 51
92.2761186411
  0
ARC
  5
35C
100
AcDbEntity
  8
0
100
AcDbCircle
 62
7
  6
CONTINUOUS
 10
13.3396891228
 20
10.8476710295
 40
0.0147372283
100
AcDbArc
 50
260.0441513517
 51
266.0309558159
  0
SPLINE
  5
35D
100
AcDbEntity
  8
0
100
AcDbSpline
 62
7
  6
CONTINUOUS
 70
0
 71
3
 72
23
 73
19
 74
0
 42
0.0000001
 43
0.0000001
 44
0.0000000001
 40
0.0
 40
0.0
 40
0.0
 40
0.0
 40
0.0771590785
 40
0.1531512427
 40
0.2277612979
 40
0.3008117489
 40
0.3721336482
 40
0.44155687
 40
0.5089157636
 40
0.5740560601
 40
0.6368305817
 40
0.6971026466
 40
0.7547444793
 40
0.8096419614
 40
0.8616927906
 40
0.9108116469
 40
0.956929521
 40
1.0
 40
1.0
 40
1.0
 40
1.0
 10
11.9261989434
 20
4.8116732123
 30
0.0
 10
11.9159607472
 20
4.8123832336
 30
0.0
 10
11.8956488528
 20
4.813936508
 30
0.0
 10
11.8654788972
 20
4.8166881686
 30
0.0
 10
11.8358974108
 20
4.8198390811
 30
0.0
 10
11.8069857373
 20
4.8233799995
 30
0.0
 10
11.7788195642
 20
4.8273018876
 30
0.0
 10
11.7514733129
 20
4.8315937495
 30
0.0
 10
11.7250201288
 20
4.8362446821
 30
0.0
 10
11.6995305263
 20
4.8412415498
 30
0.0
 10
11.6750721727
 20
4.8465714921
 30
0.0
 10
11.6517099638
 20
4.8522196061
 30
0.0
 10
11.6295059244
 20
4.8581712999
 30
0.0
 10
11.6085187734
 20
4.8644099857
 30
0.0
 10
11.5888040253
 20
4.8709194867
 30
0.0
 10
11.5704132359
 20
4.8776818627
 30
0.0
 10
11.5533952159
 20
4.8846794629
 30
0.0
 10
11.5426230678
 20
4.8896601853
 30
0.0
 10
11.5374868097
 20
4.8921973378
 30
0.0
  0
SPLINE
  5
35E
100
AcDbEntity
  8
0
100
AcDbSpline
 62
7
  6
CONTINUOUS
 70
0
 71
3
 72
9
 73
5
 74
0
 42
0.0000001
 43
0.0000001
 44
0.0000000001
 40
0.0
 40
0.0
 40
0.0
 40
0.0
 40
0.5143582232
 40
1.0
 40
1.0
 40
1.0
 40
1.0
 10
11.4080290404
 20
4.9631810109
 30
0.0
 10
11.4059070583
 20
4.9649968161
 30
0.0
 10
11.401877724
 20
4.9686416665
 30
0.0
 10
11.3980873958
 20
4.9725362448
 30
0.0
 10
11.3963188575
 20
4.9744921597
 30
0.0
  0
SPLINE
  5
35F
100
AcDbEntity
  8
0
100
AcDbSpline
 62
7
  6
CONTINUOUS
 70
0
 71
3
 72
11
 73
7
 74
0
 42
0.0000001
 43
0.0000001
 44
0.0000000001
 40
0.0
 40
0.0
 40
0.0
 40
0.0
 40
0.2513148147
 40
0.5026937832
 40
0.7527405603
 40
1.0
 40
1.0
 40
1.0
 40
1.0
 10
12.1446651181
 20
5.5036870361
 30
0.0
 10
12.1262685602
 20
5.5032962004
 30
0.0
 10
12.0894617557
 20
5.5028883691
 30
0.0
 10
12.0343464263
 20
5.5033865702
 30
0.0
 10
11.9795492208
 20
5.5049911886
 30
0.0
 10
11.9431796495
 20
5.5068050152
 30
0.0
 10
11.9251089833
 20
5.5078995499
 30
0.0
  0
SPLINE
  5
360
100
AcDbEntity
  8
0
100
AcDbSpline
 62
7
  6
CONTINUOUS
 70
0
 71
3
 72
23
 73
19
 74
0
 42
0.0000001
 43
0.0000001
 44
0.0000000001
 40
0.0
 40
0.0
 40
0.0
 40
0.0
 40
0.0812409014
 40
0.1604608797
 40
0.2375100932
 40
0.3122411127
 40
0.3845133802
 40
0.4541951487
 40
0.5211712092
 40
0.5853507102
 40
0.6466734522
 40
0.7051170591
 40
0.7607045391
 40
0.8135052119
 40
0.8636427385
 40
0.9112859631
 40
0.9566542888
 40
1.0
 40
1.0
 40
1.0
 40
1.0
 10
12.7770143804
 20
5.0581206346
 30
0.0
 10
12.7745458903
 20
5.0532251533
 30
0.0
 10
12.7696041847
 20
5.0435890915
 30
0.0
 10
12.7620684321
 20
5.0294416065
 30
0.0
 10
12.7544988089
 20
5.0158124135
 30
0.0
 10
12.7468962012
 20
5.0027410347
 30
0.0
 10
12.7392618476
 20
4.9902672465
 30
0.0
 10
12.7315979483
 20
4.9784300651
 30
0.0
 10
12.7239068977
 20
4.9672672772
 30
0.0
 10
12.7161922266
 20
4.9568135581
 30
0.0
 10
12.7084576835
 20
4.9470998344
 30
0.0
 10
12.7007075727
 20
4.9381518185
 30
0.0
 10
12.6929470332
 20
4.9299887122
 30
0.0
 10
12.685180463
 20
4.9226234828
 30
0.0
 10
12.6774140561
 20
4.9160602685
 30
0.0
 10
12.6696518212
 20
4.9102974225
 30
0.0
 10
12.6619008862
 20
4.9053238256
 30
0.0
 10
12.6566334999
 20
4.9024640455
 30
0.0
 10
12.6540100774
 20
4.9011699732
 30
0.0
  0
SPLINE
  5
361
100
AcDbEntity
  8
0
100
AcDbSpline
 62
7
  6
CONTINUOUS
 70
0
 71
3
 72
11
 73
7
 74
0
 42
0.0000001
 43
0.0000001
 44
0.0000000001
 40
0.0
 40
0.0
 40
0.0
 40
0.0
 40
0.2622692237
 40
0.5173014749
 40
0.7636474076
 40
1.0
 40
1.0
 40
1.0
 40
1.0
 10
11.8814060193
 20
5.5109303608
 30
0.0
 10
11.8639838663
 20
5.5122942068
 30
0.0
 10
11.8296479982
 20
5.5153552975
 30
0.0
 10
11.7790781332
 20
5.5210346616
 30
0.0
 10
11.7303724904
 20
5.5277119158
 30
0.0
 10
11.6986285737
 20
5.5329174564
 30
0.0
 10
11.6831268282
 20
5.5356948252
 30
0.0
  0
SPLINE
  5
362
100
AcDbEntity
  8
0
100
AcDbSpline
 62
7
  6
CONTINUOUS
 70
0
 71
3
 72
9
 73
5
 74
0
 42
0.0000001
 43
0.0000001
 44
0.0000000001
 40
0.0
 40
0.0
 40
0.0
 40
0.0
 40
0.4953420278
 40
1.0
 40
1.0
 40
1.0
 40
1.0
 10
11.5064739902
 20
4.9075171629
 30
0.0
 10
11.4897284088
 20
4.9157939882
 30
0.0
 10
11.4564400697
 20
4.9335632866
 30
0.0
 10
11.424122325
 20
4.9530235363
 30
0.0
 10
11.4080290404
 20
4.9631810109
 30
0.0
  0
SPLINE
  5
363
100
AcDbEntity
  8
0
100
AcDbSpline
 62
7
  6
CONTINUOUS
 70
0
 71
3
 72
29
 73
25
 74
0
 42
0.0000001
 43
0.0000001
 44
0.0000000001
 40
0.0
 40
0.0
 40
0.0
 40
0.0
 40
0.0193649897
 40
0.0398592492
 40
0.0614698882
 40
0.0841796427
 40
0.1079654076
 40
0.1328004487
 40
0.1586542721
 40
0.1854925107
 40
0.2132786677
 40
0.241972485
 40
0.2715320307
 40
0.3019126276
 40
0.3649466691
 40
0.4306811724
 40
0.4986953172
 40
0.568547489
 40
0.6397796479
 40
0.711921545
 40
0.7844961084
 40
0.8570190112
 40
0.9290157159
 40
1.0
 40
1.0
 40
1.0
 40
1.0
 10
12.6358468443
 20
4.8921975896
 30
0.0
 10
12.6316787293
 20
4.8901386668
 30
0.0
 10
12.6230102055
 20
4.886079747
 30
0.0
 10
12.6094261158
 20
4.880307595
 30
0.0
 10
12.5949138751
 20
4.874687694
 30
0.0
 10
12.5794990696
 20
4.8692308218
 30
0.0
 10
12.5632088312
 20
4.8639461302
 30
0.0
 10
12.5460718626
 20
4.8588433008
 30
0.0
 10
12.5281184483
 20
4.8539315367
 30
0.0
 10
12.5093803928
 20
4.8492192594
 30
0.0
 10
12.4898908539
 20
4.8447154276
 30
0.0
 10
12.4696844453
 20
4.8404275689
 30
0.0
 10
12.4487969681
 20
4.8363637087
 30
0.0
 10
12.4197306693
 20
4.8311899314
 30
0.0
 10
12.3819654629
 20
4.8253603382
 30
0.0
 10
12.3350909814
 20
4.8194432167
 30
0.0
 10
12.2864519974
 20
4.8145645619
 30
0.0
 10
12.2363940075
 20
4.8107595623
 30
0.0
 10
12.1852723614
 20
4.8080558095
 30
0.0
 10
12.1334500437
 20
4.806472715
 30
0.0
 10
12.0812957286
 20
4.8060218823
 30
0.0
 10
12.0291787238
 20
4.806706186
 30
0.0
 10
11.9774710535
 20
4.8085212394
 30
0.0
 10
11.9431991434
 20
4.8104942444
 30
0.0
 10
11.9261989434
 20
4.8116732123
 30
0.0
  0
SPLINE
  5
364
100
AcDbEntity
  8
0
100
AcDbSpline
 62
7
  6
CONTINUOUS
 70
0
 71
3
 72
21
 73
17
 74
0
 42
0.0000001
 43
0.0000001
 44
0.0000000001
 40
0.0
 40
0.0
 40
0.0
 40
0.0
 40
0.1269687393
 40
0.190297651
 40
0.2535025489
 40
0.3165702103
 40
0.3794885762
 40
0.4422479702
 40
0.5048417502
 40
0.5672668003
 40
0.629524135
 40
0.6916188713
 40
0.7535593925
 40
0.8153562928
 40
0.8770217052
 40
1.0
 40
1.0
 40
1.0
 40
1.0
 10
12.5717537807
 20
4.8824764261
 30
0.0
 10
12.5454503022
 20
4.8734826128
 30
0.0
 10
12.5057030677
 20
4.8609098136
 30
0.0
 10
12.4521180962
 20
4.8464243094
 30
0.0
 10
12.4117232969
 20
4.8368286855
 30
0.0
 10
12.3711191927
 20
4.8285994166
 30
0.0
 10
12.3303440513
 20
4.8218304895
 30
0.0
 10
12.2894473603
 20
4.816597379
 30
0.0
 10
12.2484867569
 20
4.8129507541
 30
0.0
 10
12.2075247027
 20
4.8109117059
 30
0.0
 10
12.1666239057
 20
4.8104682136
 30
0.0
 10
12.1258424803
 20
4.8115779393
 30
0.0
 10
12.0852305625
 20
4.8141724666
 30
0.0
 10
12.0448270178
 20
4.8181632666
 30
0.0
 10
11.9913253729
 20
4.8252020584
 30
0.0
 10
11.9514945544
 20
4.8322691926
 30
0.0
 10
11.9251089833
 20
4.8376313777
 30
0.0
  0
SPLINE
  5
365
100
AcDbEntity
  8
0
100
AcDbSpline
 62
7
  6
CONTINUOUS
 70
0
 71
3
 72
21
 73
17
 74
0
 42
0.0000001
 43
0.0000001
 44
0.0000000001
 40
0.0
 40
0.0
 40
0.0
 40
0.0
 40
0.1199495811
 40
0.240617027
 40
0.3013308367
 40
0.3623559963
 40
0.4237435874
 40
0.485545524
 40
0.5478132454
 40
0.6105957309
 40
0.6739363834
 40
0.737872795
 40
0.8024329429
 40
0.8676364423
 40
0.9334921192
 40
1.0
 40
1.0
 40
1.0
 40
1.0
 10
11.8814060193
 20
4.8406621886
 30
0.0
 10
11.8674230435
 20
4.839074773
 30
0.0
 10
11.8392865517
 20
4.8365999758
 30
0.0
 10
11.8039259086
 20
4.8355377271
 30
0.0
 10
11.7754863188
 20
4.836055062
 30
0.0
 10
11.754025974
 20
4.8371686613
 30
0.0
 10
11.7324902835
 20
4.8390423747
 30
0.0
 10
11.7108908907
 20
4.8417068148
 30
0.0
 10
11.6892416712
 20
4.8451855498
 30
0.0
 10
11.6675586359
 20
4.8494969925
 30
0.0
 10
11.6458583584
 20
4.8546480876
 30
0.0
 10
11.6241590862
 20
4.860641259
 30
0.0
 10
11.6024776644
 20
4.8674654187
 30
0.0
 10
11.5808315573
 20
4.8751057905
 30
0.0
 10
11.5592357174
 20
4.8835358448
 30
0.0
 10
11.544950574
 20
4.8896332674
 30
0.0
 10
11.5378196343
 20
4.8928010054
 30
0.0
  0
SPLINE
  5
366
100
AcDbEntity
  8
0
100
AcDbSpline
 62
7
  6
CONTINUOUS
 70
0
 71
3
 72
9
 73
5
 74
0
 42
0.0000001
 43
0.0000001
 44
0.0000000001
 40
0.0
 40
0.0
 40
0.0
 40
0.0
 40
0.5103877732
 40
1.0
 40
1.0
 40
1.0
 40
1.0
 10
12.6540100774
 20
4.9011699732
 30
0.0
 10
12.6509346585
 20
4.8996529417
 30
0.0
 10
12.644768185
 20
4.8969559026
 30
0.0
 10
12.6383663744
 20
4.8948759985
 30
0.0
 10
12.635190618
 20
4.8940179282
 30
0.0
  0
SPLINE
  5
367
100
AcDbEntity
  8
0
100
AcDbSpline
 62
7
  6
CONTINUOUS
 70
0
 71
3
 72
11
 73
7
 74
0
 42
0.0000001
 43
0.0000001
 44
0.0000000001
 40
0.0
 40
0.0
 40
0.0
 40
0.0
 40
0.2550434453
 40
0.5057160268
 40
0.7535820415
 40
1.0
 40
1.0
 40
1.0
 40
1.0
 10
12.6333071194
 20
4.893528982
 30
0.0
 10
12.6308493599
 20
4.8929169229
 30
0.0
 10
12.6259265656
 20
4.8918924139
 30
0.0
 10
12.618497014
 20
4.8909370851
 30
0.0
 10
12.6111029628
 20
4.8905433112
 30
0.0
 10
12.6061905084
 20
4.8906312996
 30
0.0
 10
12.6037465619
 20
4.890756764
 30
0.0
  0
SPLINE
  5
368
100
AcDbEntity
  8
0
100
AcDbSpline
 62
7
  6
CONTINUOUS
 70
0
 71
3
 72
17
 73
13
 74
0
 42
0.0000001
 43
0.0000001
 44
0.0000000001
 40
0.0
 40
0.0
 40
0.0
 40
0.0
 40
0.1504740482
 40
0.2917305938
 40
0.4244676119
 40
0.4879385597
 40
0.549641313
 40
0.668301051
 40
0.7818340393
 40
0.8918017529
 40
0.9460163028
 40
1.0
 40
1.0
 40
1.0
 40
1.0
 10
13.4148147088
 20
11.4882602351
 30
0.0
 10
13.4160585875
 20
11.4894617298
 30
0.0
 10
13.4185447062
 20
11.4917161065
 30
0.0
 10
13.4223941717
 20
11.4947203998
 30
0.0
 10
13.4256457393
 20
11.4968451912
 30
0.0
 10
13.4282385661
 20
11.4982840463
 30
0.0
 10
13.4307550405
 20
11.4995193444
 30
0.0
 10
13.433901868
 20
11.500767534
 30
0.0
 10
13.4377111697
 20
11.5017812248
 30
0.0
 10
13.4408848629
 20
11.5022049577
 30
0.0
 10
13.4433924612
 20
11.5022854766
 30
0.0
 10
13.4446363751
 20
11.5022414997
 30
0.0
 10
13.4452553239
 20
11.5021985795
 30
0.0
  0
SPLINE
  5
369
100
AcDbEntity
  8
0
100
AcDbSpline
 62
7
  6
CONTINUOUS
 70
0
 71
3
 72
19
 73
15
 74
0
 42
0.0000001
 43
0.0000001
 44
0.0000000001
 40
0.0
 40
0.0
 40
0.0
 40
0.0
 40
0.1504611406
 40
0.2916985742
 40
0.4244193292
 40
0.4878835935
 40
0.5495802133
 40
0.6682271463
 40
0.7255606136
 40
0.7817999183
 40
0.8371467056
 40
0.8918136429
 40
0.9460222308
 40
1.0
 40
1.0
 40
1.0
 40
1.0
 10
13.4148147088
 20
9.855845492
 30
0.0
 10
13.4172884089
 20
9.8582349029
 30
0.0
 10
13.4222323932
 20
9.8627181135
 30
0.0
 10
13.4298876833
 20
9.8686924984
 30
0.0
 10
13.4363537678
 20
9.872917928
 30
0.0
 10
13.4415100682
 20
9.8757792679
 30
0.0
 10
13.4465142435
 20
9.8782358065
 30
0.0
 10
13.4515770162
 20
9.8802437948
 30
0.0
 10
13.4566682663
 20
9.8817548331
 30
0.0
 10
13.4604325975
 20
9.8826258157
 30
0.0
 10
13.4641844018
 20
9.8832466017
 30
0.0
 10
13.4679226812
 20
9.8836169204
 30
0.0
 10
13.4716459283
 20
9.8837366184
 30
0.0
 10
13.4741195485
 20
9.8836491465
 30
0.0
 10
13.4753504215
 20
9.8835637892
 30
0.0
  0
SPLINE
  5
36A
100
AcDbEntity
  8
0
100
AcDbSpline
 62
7
  6
CONTINUOUS
 70
0
 71
3
 72
23
 73
19
 74
0
 42
0.0000001
 43
0.0000001
 44
0.0000000001
 40
0.0
 40
0.0
 40
0.0
 40
0.0
 40
0.063776909
 40
0.1273449468
 40
0.1907019575
 40
0.2538561145
 40
0.3168131979
 40
0.3795820804
 40
0.4421733815
 40
0.5045993354
 40
0.5668738682
 40
0.6290123838
 40
0.6910316538
 40
0.75294965
 40
0.8147853622
 40
0.8765586114
 40
0.9382898593
 40
1.0
 40
1.0
 40
1.0
 40
1.0
 10
10.4977801722
 20
7.549873092
 30
0.0
 10
10.4977801722
 20
7.5430844948
 30
0.0
 10
10.4974552322
 20
7.5295272331
 30
0.0
 10
10.4959886811
 20
7.5092738222
 30
0.0
 10
10.4935468318
 20
7.4891809436
 30
0.0
 10
10.4901355527
 20
7.469295794
 30
0.0
 10
10.4857624486
 20
7.4496638216
 30
0.0
 10
10.4804376338
 20
7.4303304093
 30
0.0
 10
10.4741733569
 20
7.4113400954
 30
0.0
 10
10.4669840054
 20
7.3927366718
 30
0.0
 10
10.4588860936
 20
7.3745630564
 30
0.0
 10
10.4498982585
 20
7.3568611681
 30
0.0
 10
10.4400412264
 20
7.3396718297
 30
0.0
 10
10.4293376938
 20
7.3230346836
 30
0.0
 10
10.4178123388
 20
7.3069881613
 30
0.0
 10
10.4054915863
 20
7.2915691661
 30
0.0
 10
10.3924043543
 20
7.2768137376
 30
0.0
 10
10.3831869472
 20
7.2674401045
 30
0.0
 10
10.3784624581
 20
7.2628765788
 30
0.0
  0
SPLINE
  5
36B
100
AcDbEntity
  8
0
100
AcDbSpline
 62
7
  6
CONTINUOUS
 70
0
 71
3
 72
15
 73
11
 74
0
 42
0.0000001
 43
0.0000001
 44
0.0000000001
 40
0.0
 40
0.0
 40
0.0
 40
0.0
 40
0.127348315
 40
0.2538606239
 40
0.3795878599
 40
0.5046051181
 40
0.6290174391
 40
0.7529533757
 40
0.8765605793
 40
1.0
 40
1.0
 40
1.0
 40
1.0
 10
11.8462127056
 20
10.2333958933
 30
0.0
 10
11.8462127056
 20
10.2268975274
 30
0.0
 10
11.8455922401
 20
10.2139344716
 30
0.0
 10
11.8427862676
 20
10.1947392119
 30
0.0
 10
11.8381334873
 20
10.1760262551
 30
0.0
 10
11.831675938
 20
10.1579706032
 30
0.0
 10
11.8234728243
 20
10.1407387795
 30
0.0
 10
11.813598969
 20
10.1244898903
 30
0.0
 10
11.8021472149
 20
10.1093761725
 30
0.0
 10
11.7935246243
 20
10.1001438462
 30
0.0
 10
11.7889941142
 20
10.0957677015
 30
0.0
  0
SPLINE
  5
36C
100
AcDbEntity
  8
0
100
AcDbSpline
 62
7
  6
CONTINUOUS
 70
0
 71
3
 72
15
 73
11
 74
0
 42
0.0000001
 43
0.0000001
 44
0.0000000001
 40
0.0
 40
0.0
 40
0.0
 40
0.0
 40
0.127348315
 40
0.2538606239
 40
0.3795878599
 40
0.5046051181
 40
0.6290174391
 40
0.7529533757
 40
0.8765605793
 40
1.0
 40
1.0
 40
1.0
 40
1.0
 10
9.9143609385
 20
6.0207037925
 30
0.0
 10
9.9143609385
 20
6.0142054266
 30
0.0
 10
9.9137404731
 20
6.0012423708
 30
0.0
 10
9.9109345006
 20
5.9820471111
 30
0.0
 10
9.9062817203
 20
5.9633341544
 30
0.0
 10
9.899824171
 20
5.9452785024
 30
0.0
 10
9.8916210572
 20
5.9280466787
 30
0.0
 10
9.881747202
 20
5.9117977896
 30
0.0
 10
9.8702954479
 20
5.8966840717
 30
0.0
 10
9.8616728572
 20
5.8874517454
 30
0.0
 10
9.8571423472
 20
5.8830756007
 30
0.0
  0
SPLINE
  5
36D
100
AcDbEntity
  8
0
100
AcDbSpline
 62
7
  6
CONTINUOUS
 70
0
 71
3
 72
35
 73
31
 74
0
 42
0.0000001
 43
0.0000001
 44
0.0000000001
 40
0.0
 40
0.0
 40
0.0
 40
0.0
 40
0.0623142204
 40
0.0938561647
 40
0.1255775599
 40
0.1893281391
 40
0.2212784524
 40
0.2532175033
 40
0.2851115069
 40
0.3169332693
 40
0.3486622791
 40
0.3802842406
 40
0.4431575777
 40
0.5055631447
 40
0.5366177487
 40
0.5675809611
 40
0.5984668228
 40
0.629291121
 40
0.6600708207
 40
0.6908234221
 40
0.721566332
 40
0.7523162669
 40
0.7830887777
 40
0.8138977457
 40
0.8447549153
 40
0.8756695453
 40
0.906648411
 40
0.9376956972
 40
0.9688130812
 40
1.0
 40
1.0
 40
1.0
 40
1.0
 10
10.0751639246
 20
7.7926571197
 30
0.0
 10
10.0751639246
 20
7.784826422
 30
0.0
 10
10.0757587836
 20
7.7730222406
 30
0.0
 10
10.0776823389
 20
7.7573550858
 30
0.0
 10
10.0803775744
 20
7.7416180156
 30
0.0
 10
10.0841937578
 20
7.7260382175
 30
0.0
 10
10.0890907582
 20
7.7107596146
 30
0.0
 10
10.09329899
 20
7.6994775955
 30
0.0
 10
10.0980280002
 20
7.6884216488
 30
0.0
 10
10.1032666871
 20
7.6776270982
 30
0.0
 10
10.1090040712
 20
7.667127618
 30
0.0
 10
10.1172863967
 20
7.6535935274
 30
0.0
 10
10.1288268316
 20
7.6375625047
 30
0.0
 10
10.1419288592
 20
7.6228700226
 30
0.0
 10
10.153261146
 20
7.6120873936
 30
0.0
 10
10.1621600332
 20
7.6045204141
 30
0.0
 10
10.1714535709
 20
7.5974916335
 30
0.0
 10
10.18112258
 20
7.5910298371
 30
0.0
 10
10.1911449112
 20
7.5851635251
 30
0.0
 10
10.2014955193
 20
7.5799200759
 30
0.0
 10
10.2121460836
 20
7.5753252642
 30
0.0
 10
10.2230649716
 20
7.5714026693
 30
0.0
 10
10.2342173091
 20
7.5681731204
 30
0.0
 10
10.2455651838
 20
7.5656540925
 30
0.0
 10
10.2570679848
 20
7.5638591858
 30
0.0
 10
10.2686829179
 20
7.5627976011
 30
0.0
 10
10.2803655845
 20
7.5624739393
 30
0.0
 10
10.2920709074
 20
7.5628881522
 30
0.0
 10
10.3037529209
 20
7.5640354305
 30
0.0
 10
10.3114884088
 20
7.5652819385
 30
0.0
 10
10.315336779
 20
7.5660231201
 30
0.0
  0
SPLINE
  5
36E
100
AcDbEntity
  8
0
100
AcDbSpline
 62
7
  6
CONTINUOUS
 70
0
 71
3
 72
15
 73
11
 74
0
 42
0.0000001
 43
0.0000001
 44
0.0000000001
 40
0.0
 40
0.0
 40
0.0
 40
0.0
 40
0.1273482888
 40
0.2538606703
 40
0.3795878487
 40
0.5046051206
 40
0.6290174369
 40
0.7529533749
 40
0.8765605786
 40
1.0
 40
1.0
 40
1.0
 40
1.0
 10
10.3158121338
 20
7.5791054537
 30
0.0
 10
10.3158121338
 20
7.5718679232
 30
0.0
 10
10.315121088
 20
7.5574303633
 30
0.0
 10
10.311995947
 20
7.5360517114
 30
0.0
 10
10.306813921
 20
7.5152102218
 30
0.0
 10
10.299621821
 20
7.4951008157
 30
0.0
 10
10.2904856099
 20
7.4759089438
 30
0.0
 10
10.2794886335
 20
7.4578118042
 30
0.0
 10
10.2667342598
 20
7.4409789713
 30
0.0
 10
10.2571308572
 20
7.43069652
 30
0.0
 10
10.2520849967
 20
7.4258226259
 30
0.0
  0
SPLINE
  5
36F
100
AcDbEntity
  8
0
100
AcDbSpline
 62
7
  6
CONTINUOUS
 70
0
 71
3
 72
42
 73
38
 74
0
 42
0.0000001
 43
0.0000001
 44
0.0000000001
 40
0.0
 40
0.0
 40
0.0
 40
0.0
 40
0.0310746617
 40
0.0466742702
 40
0.062312125
 40
0.0936967446
 40
0.1252253881
 40
0.1568866066
 40
0.188666232
 40
0.2205476543
 40
0.2525121998
 40
0.2845395188
 40
0.316608006
 40
0.3486952358
 40
0.3807784103
 40
0.4128348121
 40
0.4448422562
 40
0.4767795339
 40
0.508626844
 40
0.5403662024
 40
0.5719818257
 40
0.6034604794
 40
0.6347917851
 40
0.6659684779
 40
0.6969866061
 40
0.7278456675
 40
0.7585486731
 40
0.7891021336
 40
0.8195159643
 40
0.8498033043
 40
0.864907343
 40
0.8799860277
 40
0.9100712982
 40
0.9400857971
 40
0.9550764662
 40
0.9700580353
 40
1.0
 40
1.0
 40
1.0
 40
1.0
 10
10.3158121338
 20
7.5791054537
 30
0.0
 10
10.3158121338
 20
7.5847307967
 30
0.0
 10
10.315497683
 20
7.5931843311
 30
0.0
 10
10.3144591937
 20
7.6044183563
 30
0.0
 10
10.313004063
 20
7.6156631467
 30
0.0
 10
10.3104100935
 20
7.6296580902
 30
0.0
 10
10.3060833922
 20
7.6462376564
 30
0.0
 10
10.3005625974
 20
7.6625345038
 30
0.0
 10
10.2938782301
 20
7.6784586324
 30
0.0
 10
10.2860670824
 20
7.6939228016
 30
0.0
 10
10.2771721309
 20
7.7088421161
 30
0.0
 10
10.2672422681
 20
7.7231347249
 30
0.0
 10
10.2563320447
 20
7.7367222004
 30
0.0
 10
10.2445013701
 20
7.7495299809
 30
0.0
 10
10.2318151864
 20
7.7614877712
 30
0.0
 10
10.2183431163
 20
7.7725299252
 30
0.0
 10
10.204159084
 20
7.7825958025
 30
0.0
 10
10.1893409148
 20
7.7916300989
 30
0.0
 10
10.1739699129
 20
7.7995831474
 30
0.0
 10
10.1581304211
 20
7.8064111899
 30
0.0
 10
10.1419093639
 20
7.8120766171
 30
0.0
 10
10.1253957772
 20
7.8165481757
 30
0.0
 10
10.108680327
 20
7.8198011428
 30
0.0
 10
10.091854817
 20
7.8218174647
 30
0.0
 10
10.0750116964
 20
7.8225858647
 30
0.0
 10
10.0582435392
 20
7.8221019039
 30
0.0
 10
10.0416426088
 20
7.8203680462
 30
0.0
 10
10.0253000989
 20
7.8173935427
 30
0.0
 10
10.0093065744
 20
7.8131948111
 30
0.0
 10
9.9963285014
 20
7.8086896115
 30
0.0
 10
9.986212719
 20
7.8044998798
 30
0.0
 10
9.9763016973
 20
7.7999331028
 30
0.0
 10
9.9642845443
 20
7.7935137534
 30
0.0
 10
9.9528246035
 20
7.7861749085
 30
0.0
 10
9.9440419236
 20
7.779784017
 30
0.0
 10
9.9355303131
 20
7.7730584326
 30
0.0
 10
9.9294526901
 20
7.7676379777
 30
0.0
 10
9.9255541056
 20
7.7638722597
 30
0.0
  0
SPLINE
  5
370
100
AcDbEntity
  8
0
100
AcDbSpline
 62
7
  6
CONTINUOUS
 70
0
 71
3
 72
67
 73
63
 74
0
 42
0.0000001
 43
0.0000001
 44
0.0000000001
 40
0.0
 40
0.0
 40
0.0
 40
0.0
 40
0.0038007496
 40
0.0077417495
 40
0.0118260346
 40
0.0160562664
 40
0.0204347193
 40
0.024963219
 40
0.0296430811
 40
0.0344752877
 40
0.0445984539
 40
0.0553352202
 40
0.0666833522
 40
0.0786372401
 40
0.091188395
 40
0.1043258067
 40
0.1180362421
 40
0.132304517
 40
0.1471136991
 40
0.1624452615
 40
0.1782792197
 40
0.1945942804
 40
0.2113679516
 40
0.2285766273
 40
0.2461956736
 40
0.2641995318
 40
0.2825617958
 40
0.3012552752
 40
0.3202520639
 40
0.3395236248
 40
0.3787735078
 40
0.4187670489
 40
0.4592596882
 40
0.5000028653
 40
0.5407460347
 40
0.5812386485
 40
0.6212321489
 40
0.660481974
 40
0.6797535038
 40
0.6987502513
 40
0.7174436845
 40
0.7358059064
 40
0.75380972
 40
0.7714287092
 40
0.7886373236
 40
0.8054109404
 40
0.8217259445
 40
0.8375598321
 40
0.8528913203
 40
0.8677004379
 40
0.8819686463
 40
0.8956790003
 40
0.9088163282
 40
0.9213674113
 40
0.9333212267
 40
0.9446692701
 40
0.955405949
 40
0.9655290434
 40
0.9750403273
 40
0.9839463973
 40
0.9922597286
 40
1.0
 40
1.0
 40
1.0
 40
1.0
 10
11.1940173801
 20
11.6981273168
 30
0.0
 10
11.1924881101
 20
11.6967042234
 30
0.0
 10
11.1893150419
 20
11.6938674218
 30
0.0
 10
11.1843138637
 20
11.689713756
 30
0.0
 10
11.1789881832
 20
11.6855874467
 30
0.0
 10
11.1733403814
 20
11.6814902492
 30
0.0
 10
11.1673726907
 20
11.6774237154
 30
0.0
 10
11.161087478
 20
11.6733894953
 30
0.0
 10
11.154487312
 20
11.669389098
 30
0.0
 10
11.1451250951
 20
11.6640192493
 30
0.0
 10
11.1326371126
 20
11.6574170625
 30
0.0
 10
11.1166654125
 20
11.6497737988
 30
0.0
 10
11.0995088853
 20
11.6423039421
 30
0.0
 10
11.0811955584
 20
11.6350197476
 30
0.0
 10
11.0617550536
 20
11.6279331577
 30
0.0
 10
11.0412190684
 20
11.6210558647
 30
0.0
 10
11.0196211595
 20
11.6143992145
 30
0.0
 10
10.9969966943
 20
11.6079742238
 30
0.0
 10
10.9733827657
 20
11.6017915433
 30
0.0
 10
10.9488181432
 20
11.5958614236
 30
0.0
 10
10.9233432031
 20
11.5901936792
 30
0.0
 10
10.8969998402
 20
11.5847977043
 30
0.0
 10
10.8698313914
 20
11.5796824501
 30
0.0
 10
10.8418825752
 20
11.5748563984
 30
0.0
 10
10.8131994163
 20
11.5703275324
 30
0.0
 10
10.7838291568
 20
11.5661033548
 30
0.0
 10
10.7538201695
 20
11.5621908678
 30
0.0
 10
10.7232219058
 20
11.5585965652
 30
0.0
 10
10.6920847452
 20
11.5553263489
 30
0.0
 10
10.6496609838
 20
11.5513816252
 30
0.0
 10
10.5956627623
 20
11.5473118321
 30
0.0
 10
10.5299404781
 20
11.5438207796
 30
0.0
 10
10.4633379924
 20
11.5417168382
 30
0.0
 10
10.3962940974
 20
11.541013973
 30
0.0
 10
10.3292502174
 20
11.5417169313
 30
0.0
 10
10.2626477753
 20
11.5438209656
 30
0.0
 10
10.196925564
 20
11.5473121078
 30
0.0
 10
10.1429274201
 20
11.5513819817
 30
0.0
 10
10.1005037351
 20
11.5553267543
 30
0.0
 10
10.0693666451
 20
11.5585970205
 30
0.0
 10
10.038768459
 20
11.5621913722
 30
0.0
 10
10.00875955
 20
11.5661038945
 30
0.0
 10
9.9793893752
 20
11.5703281064
 30
0.0
 10
9.9507063143
 20
11.5748570189
 30
0.0
 10
9.9227576023
 20
11.5796831163
 30
0.0
 10
9.8955892558
 20
11.5847984015
 30
0.0
 10
9.8692460008
 20
11.5901944062
 30
0.0
 10
9.8437711835
 20
11.5958621927
 30
0.0
 10
9.8192066895
 20
11.6017923541
 30
0.0
 10
9.7955928842
 20
11.6079750601
 30
0.0
 10
9.7729685469
 20
11.6144000747
 30
0.0
 10
9.751370783
 20
11.6210567621
 30
0.0
 10
9.7308349461
 20
11.6279340922
 30
0.0
 10
9.7113945864
 20
11.6350207
 30
0.0
 10
9.6930813881
 20
11.6423049153
 30
0.0
 10
9.675925078
 20
11.6497747915
 30
0.0
 10
9.6599533556
 20
11.6574181273
 30
0.0
 10
9.6451918127
 20
11.6652226096
 30
0.0
 10
9.6316640198
 20
11.6731757899
 30
0.0
 10
9.6193910145
 20
11.6812656142
 30
0.0
 10
9.6083928327
 20
11.6894792035
 30
0.0
 10
9.6016885777
 20
11.6952300594
 30
0.0
 10
9.5985742484
 20
11.6981282562
 30
0.0
  0
SPLINE
  5
371
100
AcDbEntity
  8
0
100
AcDbSpline
 62
7
  6
CONTINUOUS
 70
0
 71
3
 72
18
 73
14
 74
0
 42
0.0000001
 43
0.0000001
 44
0.0000000001
 40
0.0
 40
0.0
 40
0.0
 40
0.0
 40
0.0885151899
 40
0.1824486853
 40
0.2322046617
 40
0.2842325548
 40
0.3389012929
 40
0.3965969545
 40
0.4577135291
 40
0.5226129783
 40
0.6644500259
 40
0.8233448852
 40
1.0
 40
1.0
 40
1.0
 40
1.0
 10
11.1932963228
 20
11.7132039592
 30
0.0
 10
11.1932963228
 20
11.7123697878
 30
0.0
 10
11.1932083925
 20
11.7106491807
 30
0.0
 10
11.1928711577
 20
11.708483083
 30
0.0
 10
11.1924553584
 20
11.7066855278
 30
0.0
 10
11.1920546783
 20
11.7052659846
 30
0.0
 10
11.1915630563
 20
11.703796218
 30
0.0
 10
11.1909728494
 20
11.702270971
 30
0.0
 10
11.190276401
 20
11.7006853094
 30
0.0
 10
11.1891641048
 20
11.6984186155
 30
0.0
 10
11.1874530788
 20
11.6954230954
 30
0.0
 10
11.1849295496
 20
11.691694161
 30
0.0
 10
11.1829791405
 20
11.6892016051
 30
0.0
 10
11.1819145585
 20
11.6879216656
 30
0.0
  0
SPLINE
  5
372
100
AcDbEntity
  8
0
100
AcDbSpline
 62
7
  6
CONTINUOUS
 70
0
 71
3
 72
17
 73
13
 74
0
 42
0.0000001
 43
0.0000001
 44
0.0000000001
 40
0.0
 40
0.0
 40
0.0
 40
0.0
 40
0.1767245815
 40
0.3355899137
 40
0.4774072857
 40
0.6033150223
 40
0.6610790945
 40
0.7158486534
 40
0.7679677458
 40
0.8177657095
 40
0.9116432874
 40
1.0
 40
1.0
 40
1.0
 40
1.0
 10
9.6106889151
 20
11.6879086416
 30
0.0
 10
9.6096229051
 20
11.6891894864
 30
0.0
 10
9.6076702136
 20
11.6916830425
 30
0.0
 10
9.6051462773
 20
11.6954152745
 30
0.0
 10
9.6031466828
 20
11.6989100981
 30
0.0
 10
9.6018426277
 20
11.7016930974
 30
0.0
 10
9.6010316706
 20
11.7037908881
 30
0.0
 10
9.6005393433
 20
11.7052639471
 30
0.0
 10
9.6001372665
 20
11.7066862535
 30
0.0
 10
9.5997202511
 20
11.7084853707
 30
0.0
 10
9.5993835189
 20
11.7106512271
 30
0.0
 10
9.5992963228
 20
11.712370804
 30
0.0
 10
9.5992963228
 20
11.7132039592
 30
0.0
  0
SPLINE
  5
373
100
AcDbEntity
  8
0
100
AcDbSpline
 62
7
  6
CONTINUOUS
 70
0
 71
3
 72
39
 73
35
 74
0
 42
0.0000001
 43
0.0000001
 44
0.0000000001
 40
0.0
 40
0.0
 40
0.0
 40
0.0
 40
0.0299424725
 40
0.05990932
 40
0.0899243252
 40
0.1200101024
 40
0.1501875589
 40
0.1804754082
 40
0.2108897494
 40
0.2414437221
 40
0.272147242
 40
0.3030068208
 40
0.33402547
 40
0.3652026865
 40
0.3965345185
 40
0.428013701
 40
0.459629856
 40
0.4913697495
 40
0.5232175971
 40
0.5551554142
 40
0.587163399
 40
0.619220343
 40
0.6513040608
 40
0.6833918343
 40
0.715460865
 40
0.747488727
 40
0.7794538147
 40
0.8113357784
 40
0.8431159423
 40
0.8747777013
 40
0.90630686
 40
0.937692088
 40
0.9689246466
 40
1.0
 40
1.0
 40
1.0
 40
1.0
 10
9.7670831088
 20
7.8958183302
 30
0.0
 10
9.7743825593
 20
7.9028690885
 30
0.0
 10
9.7895553927
 20
7.9164016269
 30
0.0
 10
9.8138646808
 20
7.9348373001
 30
0.0
 10
9.8395997099
 20
7.9513176204
 30
0.0
 10
9.8666167003
 20
7.9657501205
 30
0.0
 10
9.8947671185
 20
7.9780559382
 30
0.0
 10
9.9238956003
 20
7.9881674335
 30
0.0
 10
9.9538416247
 20
7.9960292951
 30
0.0
 10
9.9844402103
 20
8.0015986037
 30
0.0
 10
10.0155228882
 20
8.0048451048
 30
0.0
 10
10.0469186178
 20
8.0057513333
 30
0.0
 10
10.0784547283
 20
8.004312699
 30
0.0
 10
10.1099578659
 20
8.0005375209
 30
0.0
 10
10.1412549408
 20
7.9944469222
 30
0.0
 10
10.172174064
 20
7.9860747048
 30
0.0
 10
10.2025454778
 20
7.9754671531
 30
0.0
 10
10.2322024693
 20
7.9626827677
 30
0.0
 10
10.260982285
 20
7.9477919714
 30
0.0
 10
10.2887270119
 20
7.9308767074
 30
0.0
 10
10.3152844228
 20
7.9120299717
 30
0.0
 10
10.3405088015
 20
7.8913553106
 30
0.0
 10
10.3642617297
 20
7.8689662556
 30
0.0
 10
10.3864128391
 20
7.8449857105
 30
0.0
 10
10.4068405456
 20
7.8195453046
 30
0.0
 10
10.4254326846
 20
7.7927846484
 30
0.0
 10
10.4420871204
 20
7.7648505809
 30
0.0
 10
10.4567123023
 20
7.7358963692
 30
0.0
 10
10.4692277611
 20
7.7060808974
 30
0.0
 10
10.4795645622
 20
7.6755677488
 30
0.0
 10
10.4876657385
 20
7.6445245579
 30
0.0
 10
10.4934864232
 20
7.6131212106
 30
0.0
 10
10.496994462
 20
7.5815323714
 30
0.0
 10
10.4977801722
 20
7.5604057224
 30
0.0
 10
10.4977801722
 20
7.549873092
 30
0.0
  0
SPLINE
  5
374
100
AcDbEntity
  8
0
100
AcDbSpline
 62
7
  6
CONTINUOUS
 70
0
 71
3
 72
41
 73
37
 74
0
 42
0.0000001
 43
0.0000001
 44
0.0000000001
 40
0.0
 40
0.0
 40
0.0
 40
0.0
 40
0.0299421238
 40
0.0449237703
 40
0.059914519
 40
0.0899291762
 40
0.1200146048
 40
0.1350933663
 40
0.1501974853
 40
0.1804849834
 40
0.2108989722
 40
0.2414525913
 40
0.2721557558
 40
0.3030149766
 40
0.3340332647
 40
0.365210118
 40
0.396541585
 40
0.4280204007
 40
0.4596361866
 40
0.4913757084
 40
0.5232231826
 40
0.5551606251
 40
0.5871682346
 40
0.6192248024
 40
0.6513081434
 40
0.68339554
 40
0.7154641944
 40
0.7474916807
 40
0.7794563937
 40
0.8113379827
 40
0.8431177771
 40
0.8747791563
 40
0.9063079829
 40
0.9376927254
 40
0.9689252285
 40
1.0
 40
1.0
 40
1.0
 40
1.0
 10
11.4958105741
 20
10.3992926782
 30
0.0
 10
11.4993109933
 20
10.4026738298
 30
0.0
 10
11.5047679169
 20
10.4075407236
 30
0.0
 10
11.5124102812
 20
10.4135794187
 30
0.0
 10
11.5202959731
 20
10.4193176805
 30
0.0
 10
11.5305855505
 20
10.4259070232
 30
0.0
 10
11.5413754083
 20
10.431670818
 30
0.0
 10
11.5502742535
 20
10.4357711883
 30
0.0
 10
11.5593569238
 20
10.4395330746
 30
0.0
 10
11.5710095849
 20
10.4435781729
 30
0.0
 10
11.5853697309
 20
10.4473481222
 30
0.0
 10
11.6000432252
 20
10.450018864
 30
0.0
 10
11.6149487486
 20
10.4515756644
 30
0.0
 10
11.6300044218
 20
10.4520102152
 30
0.0
 10
11.6451274036
 20
10.4513203046
 30
0.0
 10
11.6602345742
 20
10.4495099179
 30
0.0
 10
11.675242926
 20
10.4465891804
 30
0.0
 10
11.6900700307
 20
10.4425743019
 30
0.0
 10
11.7046344819
 20
10.4374874804
 30
0.0
 10
11.7188563365
 20
10.4313567773
 30
0.0
 10
11.7326575474
 20
10.424215961
 30
0.0
 10
11.7459623853
 20
10.4161043208
 30
0.0
 10
11.7586978493
 20
10.4070664511
 30
0.0
 10
11.7707940623
 20
10.3971520081
 30
0.0
 10
11.7821846493
 20
10.3864154392
 30
0.0
 10
11.7928070982
 20
10.3749156861
 30
0.0
 10
11.8026030989
 20
10.362715865
 30
0.0
 10
11.8115188605
 20
10.3498829233
 30
0.0
 10
11.8195054029
 20
10.3364872768
 30
0.0
 10
11.826518827
 20
10.3226024256
 30
0.0
 10
11.8325205458
 20
10.3083045648
 30
0.0
 10
11.8374775172
 20
10.2936721355
 30
0.0
 10
11.841362378
 20
10.2787855402
 30
0.0
 10
11.8441536899
 20
10.2637261902
 30
0.0
 10
11.845835909
 20
10.2485779199
 30
0.0
 10
11.8462127056
 20
10.2384467279
 30
0.0
 10
11.8462127056
 20
10.2333958933
 30
0.0
  0
SPLINE
  5
375
100
AcDbEntity
  8
0
100
AcDbSpline
 62
7
  6
CONTINUOUS
 70
0
 71
3
 72
41
 73
37
 74
0
 42
0.0000001
 43
0.0000001
 44
0.0000000001
 40
0.0
 40
0.0
 40
0.0
 40
0.0
 40
0.0299421238
 40
0.0449237703
 40
0.059914519
 40
0.0899291762
 40
0.1200146048
 40
0.1350933663
 40
0.1501974853
 40
0.1804849834
 40
0.2108989722
 40
0.2414525913
 40
0.2721557558
 40
0.3030149766
 40
0.3340332647
 40
0.365210118
 40
0.396541585
 40
0.4280204007
 40
0.4596361866
 40
0.4913757084
 40
0.5232231826
 40
0.5551606251
 40
0.5871682346
 40
0.6192248024
 40
0.6513081434
 40
0.68339554
 40
0.7154641944
 40
0.7474916807
 40
0.7794563937
 40
0.8113379827
 40
0.8431177771
 40
0.8747791563
 40
0.9063079829
 40
0.9376927254
 40
0.9689252285
 40
1.0
 40
1.0
 40
1.0
 40
1.0
 10
9.563958807
 20
6.1866005775
 30
0.0
 10
9.5674592263
 20
6.189981729
 30
0.0
 10
9.5729161499
 20
6.1948486228
 30
0.0
 10
9.5805585141
 20
6.2008873179
 30
0.0
 10
9.588444206
 20
6.2066255798
 30
0.0
 10
9.5987337834
 20
6.2132149225
 30
0.0
 10
9.6095236413
 20
6.2189787173
 30
0.0
 10
9.6184224865
 20
6.2230790875
 30
0.0
 10
9.6275051568
 20
6.2268409738
 30
0.0
 10
9.6391578179
 20
6.2308860721
 30
0.0
 10
9.6535179639
 20
6.2346560214
 30
0.0
 10
9.6681914581
 20
6.2373267632
 30
0.0
 10
9.6830969816
 20
6.2388835637
 30
0.0
 10
9.6981526548
 20
6.2393181144
 30
0.0
 10
9.7132756365
 20
6.2386282038
 30
0.0
 10
9.7283828071
 20
6.2368178172
 30
0.0
 10
9.7433911589
 20
6.2338970797
 30
0.0
 10
9.7582182637
 20
6.2298822011
 30
0.0
 10
9.7727827149
 20
6.2247953796
 30
0.0
 10
9.7870045695
 20
6.2186646765
 30
0.0
 10
9.8008057803
 20
6.2115238602
 30
0.0
 10
9.8141106182
 20
6.20341222
 30
0.0
 10
9.8268460823
 20
6.1943743503
 30
0.0
 10
9.8389422952
 20
6.1844599074
 30
0.0
 10
9.8503328822
 20
6.1737233384
 30
0.0
 10
9.8609553312
 20
6.1622235853
 30
0.0
 10
9.8707513319
 20
6.1500237643
 30
0.0
 10
9.8796670935
 20
6.1371908226
 30
0.0
 10
9.8876536358
 20
6.123795176
 30
0.0
 10
9.89466706
 20
6.1099103248
 30
0.0
 10
9.9006687788
 20
6.0956124641
 30
0.0
 10
9.9056257501
 20
6.0809800348
 30
0.0
 10
9.9095106109
 20
6.0660934394
 30
0.0
 10
9.9123019228
 20
6.0510340894
 30
0.0
 10
9.913984142
 20
6.0358858192
 30
0.0
 10
9.9143609385
 20
6.0257546271
 30
0.0
 10
9.9143609385
 20
6.0207037925
 30
0.0
  0
SPLINE
  5
376
100
AcDbEntity
  8
0
100
AcDbSpline
 62
7
  6
CONTINUOUS
 70
0
 71
3
 72
70
 73
66
 74
0
 42
0.0000001
 43
0.0000001
 44
0.0000000001
 40
0.0
 40
0.0
 40
0.0
 40
0.0
 40
0.0027164666
 40
0.0054533041
 40
0.0082304067
 40
0.0110667261
 40
0.0139799562
 40
0.0169862953
 40
0.023331396
 40
0.0266977803
 40
0.0302057471
 40
0.0338636886
 40
0.0376786857
 40
0.0416566747
 40
0.0458026393
 40
0.050120601
 40
0.0546138137
 40
0.0592848743
 40
0.0641356829
 40
0.0743808629
 40
0.0853558462
 40
0.0970598015
 40
0.109486676
 40
0.122626049
 40
0.1364638461
 40
0.1509828214
 40
0.1661628895
 40
0.1819815028
 40
0.1984139268
 40
0.2154334059
 40
0.2330113512
 40
0.2511175539
 40
0.269720313
 40
0.2887865258
 40
0.3082818606
 40
0.3281708807
 40
0.36898238
 40
0.4109199737
 40
0.4536705751
 40
0.4969131977
 40
0.5403221104
 40
0.5835699953
 40
0.6263310817
 40
0.6682842665
 40
0.7091163191
 40
0.729017411
 40
0.7485259916
 40
0.7676065616
 40
0.7862247522
 40
0.8043474539
 40
0.8219428989
 40
0.8389807991
 40
0.8554325484
 40
0.8712713402
 40
0.8864723296
 40
0.9010128995
 40
0.9148729267
 40
0.92803504
 40
0.9404850212
 40
0.9522123628
 40
0.963210893
 40
0.9734795279
 40
0.9830234328
 40
0.9918561859
 40
1.0
 40
1.0
 40
1.0
 40
1.0
 10
13.3843740937
 20
10.6243071132
 30
0.0
 10
13.383552887
 20
10.6243640586
 30
0.0
 10
13.3819085195
 20
10.6245526935
 30
0.0
 10
13.3794628925
 20
10.6250574695
 30
0.0
 10
13.3770357609
 20
10.6257840871
 30
0.0
 10
13.37462885
 20
10.6267317101
 30
0.0
 10
13.3722433055
 20
10.6278996179
 30
0.0
 10
13.3690357823
 20
10.6297827769
 30
0.0
 10
13.3659308332
 20
10.632088195
 30
0.0
 10
13.3629390808
 20
10.634754078
 30
0.0
 10
13.3606772791
 20
10.6370083871
 30
0.0
 10
13.3584435051
 20
10.6394764973
 30
0.0
 10
13.3562384424
 20
10.6421573564
 30
0.0
 10
13.3540631407
 20
10.6450495461
 30
0.0
 10
13.3519186442
 20
10.6481516984
 30
0.0
 10
13.3498059165
 20
10.651462247
 30
0.0
 10
13.3477259681
 20
10.6549795648
 30
0.0
 10
13.3456798196
 20
10.6587019512
 30
0.0
 10
13.3429480982
 20
10.6640336557
 30
0.0
 10
13.3396364018
 20
10.6712105289
 30
0.0
 10
13.3358821072
 20
10.6804575442
 30
0.0
 10
13.3322856576
 20
10.6904722153
 30
0.0
 10
13.3288542245
 20
10.7012346868
 30
0.0
 10
13.3255946655
 20
10.7127238242
 30
0.0
 10
13.322513575
 20
10.7249168401
 30
0.0
 10
13.3196172198
 20
10.7377894878
 30
0.0
 10
13.3169114655
 20
10.7513160704
 30
0.0
 10
13.3144018109
 20
10.7654695367
 30
0.0
 10
13.3120933791
 20
10.7802215496
 30
0.0
 10
13.3099908697
 20
10.7955425343
 30
0.0
 10
13.3080985463
 20
10.8114017451
 30
0.0
 10
13.3064202663
 20
10.827767345
 30
0.0
 10
13.3049594607
 20
10.8446064695
 30
0.0
 10
13.3037190965
 20
10.8618852751
 30
0.0
 10
13.3027016634
 20
10.879569064
 30
0.0
 10
13.3016361322
 20
10.903848296
 30
0.0
 10
13.3008874612
 20
10.9349456926
 30
0.0
 10
13.3009052606
 20
10.9729797311
 30
0.0
 10
13.3018323089
 20
11.0117393606
 30
0.0
 10
13.3036613683
 20
11.0509130964
 30
0.0
 10
13.3063778677
 20
11.0901863438
 30
0.0
 10
13.3099600283
 20
11.1292436014
 30
0.0
 10
13.3143788909
 20
11.1677712306
 30
0.0
 10
13.319598791
 20
11.205459635
 30
0.0
 10
13.3246227606
 20
11.2361724525
 30
0.0
 10
13.3290217729
 20
11.2600877387
 30
0.0
 10
13.3324650364
 20
11.2774751342
 30
0.0
 10
13.3360734374
 20
11.2944317558
 30
0.0
 10
13.3398397272
 20
11.3109235549
 30
0.0
 10
13.3437562765
 20
11.3269174016
 30
0.0
 10
13.3478151789
 20
11.3423811776
 30
0.0
 10
13.3520082497
 20
11.3572838375
 30
0.0
 10
13.356327
 20
11.3715954947
 30
0.0
 10
13.3607626956
 20
11.3852874706
 30
0.0
 10
13.3653063874
 20
11.3983323466
 30
0.0
 10
13.3699488995
 20
11.4107040475
 30
0.0
 10
13.3746808463
 20
11.422377909
 30
0.0
 10
13.3794926983
 20
11.4333307133
 30
0.0
 10
13.3843748178
 20
11.4435407547
 30
0.0
 10
13.3893174298
 20
11.4529879425
 30
0.0
 10
13.3943107798
 20
11.4616538423
 30
0.0
 10
13.3993451051
 20
11.4695216067
 30
0.0
 10
13.4044110771
 20
11.4765765485
 30
0.0
 10
13.4094989176
 20
11.4828046192
 30
0.0
 10
13.413039701
 20
11.4865457092
 30
0.0
 10
13.4148147088
 20
11.4882602351
 30
0.0
  0
SPLINE
  5
377
100
AcDbEntity
  8
0
100
AcDbSpline
 62
7
  6
CONTINUOUS
 70
0
 71
3
 72
55
 73
51
 74
0
 42
0.0000001
 43
0.0000001
 44
0.0000000001
 40
0.0
 40
0.0
 40
0.0
 40
0.0
 40
0.0075207276
 40
0.0156240089
 40
0.0243308207
 40
0.0336545928
 40
0.043602365
 40
0.0541763389
 40
0.0653743606
 40
0.0771909295
 40
0.0896174813
 40
0.1026428948
 40
0.116253846
 40
0.1304348978
 40
0.1451689804
 40
0.1604372273
 40
0.1762194783
 40
0.1924940832
 40
0.2264271412
 40
0.2620419495
 40
0.2991276932
 40
0.3374607998
 40
0.3768072249
 40
0.4169246159
 40
0.4575644021
 40
0.4984738451
 40
0.5393980691
 40
0.5800820837
 40
0.620272802
 40
0.6597210674
 40
0.6981837004
 40
0.7354255831
 40
0.7712218119
 40
0.8053599666
 40
0.8217454057
 40
0.8376436694
 40
0.8530328382
 40
0.8678923604
 40
0.8822031269
 40
0.8959475409
 40
0.9091098817
 40
0.9216762031
 40
0.9336349384
 40
0.9449768312
 40
0.9556956959
 40
0.9657885254
 40
0.9752562638
 40
0.9841050879
 40
0.992347075
 40
1.0
 40
1.0
 40
1.0
 40
1.0
 10
13.3491286482
 20
10.8111785615
 30
0.0
 10
13.3482940178
 20
10.812204771
 30
0.0
 10
13.3466494868
 20
10.8144102864
 30
0.0
 10
13.3443352724
 20
10.8180131776
 30
0.0
 10
13.3420870735
 20
10.8220251768
 30
0.0
 10
13.3399085708
 20
10.8264397621
 30
0.0
 10
13.3378029465
 20
10.8312500273
 30
0.0
 10
13.3357736906
 20
10.836448291
 30
0.0
 10
13.3338240158
 20
10.8420261517
 30
0.0
 10
13.3319571951
 20
10.8479745483
 30
0.0
 10
13.3301763041
 20
10.8542837481
 30
0.0
 10
13.328484307
 20
10.8609433897
 30
0.0
 10
13.3268840714
 20
10.8679425047
 30
0.0
 10
13.3253782213
 20
10.8752695357
 30
0.0
 10
13.3239693526
 20
10.8829123683
 30
0.0
 10
13.3226597628
 20
10.8908583452
 30
0.0
 10
13.321451688
 20
10.8990943101
 30
0.0
 10
13.319958199
 20
10.9106047662
 30
0.0
 10
13.318371685
 20
10.9256183477
 30
0.0
 10
13.3169248406
 20
10.9443196418
 30
0.0
 10
13.3159196529
 20
10.9638247026
 30
0.0
 10
13.3153630369
 20
10.9840040782
 30
0.0
 10
13.3152589486
 20
11.0047239586
 30
0.0
 10
13.3156082496
 20
11.025846822
 30
0.0
 10
13.3164087434
 20
11.0472324463
 30
0.0
 10
13.3176551856
 20
11.068738836
 30
0.0
 10
13.3193393231
 20
11.0902231849
 30
0.0
 10
13.3214499524
 20
11.1115428361
 30
0.0
 10
13.3239729952
 20
11.1325562402
 30
0.0
 10
13.3268915878
 20
11.1531239149
 30
0.0
 10
13.3301861966
 20
11.1731093652
 30
0.0
 10
13.3338347204
 20
11.1923800906
 30
0.0
 10
13.3378127096
 20
11.2108082165
 30
0.0
 10
13.3414275246
 20
11.2255562775
 30
0.0
 10
13.3444738834
 20
11.2368350164
 30
0.0
 10
13.3467926875
 20
11.2448932801
 30
0.0
 10
13.3491728985
 20
11.2526533451
 30
0.0
 10
13.3516105634
 20
11.2601023638
 30
0.0
 10
13.3541015932
 20
11.2672280035
 30
0.0
 10
13.3566418737
 20
11.2740184766
 30
0.0
 10
13.3592271085
 20
11.2804625839
 30
0.0
 10
13.3618530725
 20
11.2865496924
 30
0.0
 10
13.3645153163
 20
11.2922698237
 30
0.0
 10
13.3672095149
 20
11.2976136041
 30
0.0
 10
13.3699311805
 20
11.3025723483
 30
0.0
 10
13.3726759054
 20
11.3071380219
 30
0.0
 10
13.3754392412
 20
11.3113033194
 30
0.0
 10
13.3782169989
 20
11.3150617957
 30
0.0
 10
13.3810047258
 20
11.3184070994
 30
0.0
 10
13.3829369496
 20
11.3204316536
 30
0.0
 10
13.3839050798
 20
11.3213667956
 30
0.0
  0
SPLINE
  5
378
100
AcDbEntity
  8
0
100
AcDbSpline
 62
7
  6
CONTINUOUS
 70
0
 71
3
 72
88
 73
84
 74
0
 42
0.0000001
 43
0.0000001
 44
0.0000000001
 40
0.0
 40
0.0
 40
0.0
 40
0.0
 40
0.0027164206
 40
0.0054532135
 40
0.00823027
 40
0.0110665466
 40
0.0139797362
 40
0.0169860264
 40
0.0200999638
 40
0.0233344621
 40
0.0267007864
 40
0.030208716
 40
0.033866602
 40
0.0376815365
 40
0.0416594862
 40
0.0458053757
 40
0.0501232805
 40
0.0546164357
 40
0.0592874172
 40
0.0641381604
 40
0.0691700473
 40
0.0743839976
 40
0.0797804461
 40
0.085359486
 40
0.0911208072
 40
0.097063806
 40
0.1031875785
 40
0.1094909314
 40
0.1226301057
 40
0.1364676988
 40
0.1509864378
 40
0.1661662591
 40
0.1819846247
 40
0.1984167804
 40
0.2154359739
 40
0.2330136371
 40
0.2511195505
 40
0.2697219952
 40
0.2887878869
 40
0.3082829001
 40
0.3281715858
 40
0.3484174815
 40
0.3689832185
 40
0.3898306305
 40
0.410920857
 40
0.4322144439
 40
0.4536714439
 40
0.4969133241
 40
0.5403214886
 40
0.5835686279
 40
0.6050302166
 40
0.6263296837
 40
0.6474270673
 40
0.6682828961
 40
0.6888582896
 40
0.7091150586
 40
0.7290158075
 40
0.7485240405
 40
0.7676042737
 40
0.7862221443
 40
0.8043445271
 40
0.8219396585
 40
0.8389772699
 40
0.8554287349
 40
0.8712672375
 40
0.8864679574
 40
0.9010082824
 40
0.9148680665
 40
0.9280299429
 40
0.9343448017
 40
0.9404801679
 40
0.9464348204
 40
0.9522078552
 40
0.9577986253
 40
0.9632068219
 40
0.9684325067
 40
0.9734760906
 40
0.9783384494
 40
0.9830208978
 40
0.9875254123
 40
0.9918545974
 40
0.9960115688
 40
1.0
 40
1.0
 40
1.0
 40
1.0
 10
13.3542789961
 20
8.1377568986
 30
0.0
 10
13.3526459156
 20
8.1378701477
 30
0.0
 10
13.3493758715
 20
8.138245321
 30
0.0
 10
13.3445124188
 20
8.1392491903
 30
0.0
 10
13.339685744
 20
8.1406941665
 30
0.0
 10
13.3348992445
 20
8.1425787068
 30
0.0
 10
13.3301554215
 20
8.1449012211
 30
0.0
 10
13.325456711
 20
8.1476598793
 30
0.0
 10
13.3208052334
 20
8.1508526629
 30
0.0
 10
13.3162031366
 20
8.1544776471
 30
0.0
 10
13.3116523124
 20
8.1585326046
 30
0.0
 10
13.3071548101
 20
8.1630154111
 30
0.0
 10
13.3027125389
 20
8.1679236731
 30
0.0
 10
13.2983274761
 20
8.1732549135
 30
0.0
 10
13.2940016515
 20
8.1790064996
 30
0.0
 10
13.2897369799
 20
8.1851755417
 30
0.0
 10
13.2855355652
 20
8.1917590581
 30
0.0
 10
13.2813993151
 20
8.1987537594
 30
0.0
 10
13.2773302901
 20
8.2061562319
 30
0.0
 10
13.2733304498
 20
8.2139628089
 30
0.0
 10
13.2694017347
 20
8.2221696232
 30
0.0
 10
13.2655461476
 20
8.2307726249
 30
0.0
 10
13.2617655185
 20
8.2397675162
 30
0.0
 10
13.2580618172
 20
8.2491498433
 30
0.0
 10
13.254436826
 20
8.2589149128
 30
0.0
 10
13.250892403
 20
8.2690578553
 30
0.0
 10
13.2474302967
 20
8.2795736154
 30
0.0
 10
13.2428629886
 20
8.2942888122
 30
0.0
 10
13.2373882921
 20
8.3135864218
 30
0.0
 10
13.2312611418
 20
8.3378337953
 30
0.0
 10
13.2255013508
 20
8.3634328737
 30
0.0
 10
13.2201205973
 20
8.3903323335
 30
0.0
 10
13.2151298333
 20
8.4184784545
 30
0.0
 10
13.2105392143
 20
8.4478148548
 30
0.0
 10
13.2063580882
 20
8.4782827297
 30
0.0
 10
13.2025949662
 20
8.5098209466
 30
0.0
 10
13.1992575052
 20
8.5423661867
 30
0.0
 10
13.1963524985
 20
8.5758530805
 30
0.0
 10
13.1938858611
 20
8.6102143473
 30
0.0
 10
13.1918626186
 20
8.6453809334
 30
0.0
 10
13.1902868983
 20
8.6812821532
 30
0.0
 10
13.1891619201
 20
8.7178458311
 30
0.0
 10
13.1884899857
 20
8.7549984479
 30
0.0
 10
13.1882724778
 20
8.7926652984
 30
0.0
 10
13.1885098722
 20
8.8307706185
 30
0.0
 10
13.1892016812
 20
8.8692378401
 30
0.0
 10
13.1907322142
 20
8.9210380037
 30
0.0
 10
13.1937712062
 20
8.9861219875
 30
0.0
 10
13.1991733477
 20
9.0642217783
 30
0.0
 10
13.205124471
 20
9.1291102794
 30
0.0
 10
13.2107409324
 20
9.1806373328
 30
0.0
 10
13.2153526016
 20
9.2188440813
 30
0.0
 10
13.2203646932
 20
9.2566321237
 30
0.0
 10
13.2257671461
 20
9.2939255284
 30
0.0
 10
13.2315490549
 20
9.3306492887
 30
0.0
 10
13.2376987616
 20
9.3667295673
 30
0.0
 10
13.2442038606
 20
9.4020938219
 30
0.0
 10
13.2510512278
 20
9.4366709607
 30
0.0
 10
13.2582270389
 20
9.4703914892
 30
0.0
 10
13.2657168046
 20
9.5031876513
 30
0.0
 10
13.2735053984
 20
9.534993566
 30
0.0
 10
13.2815770877
 20
9.5657453626
 30
0.0
 10
13.2899155639
 20
9.595381315
 30
0.0
 10
13.2985039796
 20
9.6238419716
 30
0.0
 10
13.3073249762
 20
9.6510702984
 30
0.0
 10
13.3163607251
 20
9.6770117719
 30
0.0
 10
13.3255929761
 20
9.7016146131
 30
0.0
 10
13.3350030911
 20
9.7248295135
 30
0.0
 10
13.343084853
 20
9.7432256849
 30
0.0
 10
13.3496365184
 20
9.7572015285
 30
0.0
 10
13.3545150136
 20
9.7671630432
 30
0.0
 10
13.3594237583
 20
9.7767442512
 30
0.0
 10
13.3643602649
 20
9.7859403934
 30
0.0
 10
13.3693220859
 20
9.7947468679
 30
0.0
 10
13.3743067521
 20
9.8031592854
 30
0.0
 10
13.3793117431
 20
9.8111734805
 30
0.0
 10
13.3843346416
 20
9.8187854283
 30
0.0
 10
13.3893728538
 20
9.8259913815
 30
0.0
 10
13.3944239821
 20
9.8327877504
 30
0.0
 10
13.3994855614
 20
9.8391712421
 30
0.0
 10
13.4045552349
 20
9.8451387502
 30
0.0
 10
13.4096303019
 20
9.8506870349
 30
0.0
 10
13.4130859393
 20
9.8541756288
 30
0.0
 10
13.4148147088
 20
9.855845492
 30
0.0
  0
SPLINE
  5
379
100
AcDbEntity
  8
0
100
AcDbSpline
 62
7
  6
CONTINUOUS
 70
0
 71
3
 72
61
 73
57
 74
0
 42
0.0000001
 43
0.0000001
 44
0.0000000001
 40
0.0
 40
0.0
 40
0.0
 40
0.0
 40
0.007520736
 40
0.0156240064
 40
0.0243308314
 40
0.0336545627
 40
0.0436023576
 40
0.0541762911
 40
0.065374298
 40
0.0771908404
 40
0.0896173637
 40
0.1026427459
 40
0.1162536401
 40
0.1304346776
 40
0.1451686827
 40
0.1604368921
 40
0.1762190747
 40
0.1924936262
 40
0.2092377338
 40
0.2264274719
 40
0.2440378492
 40
0.2620429285
 40
0.2804159201
 40
0.2991292233
 40
0.337462144
 40
0.3768083795
 40
0.4169255651
 40
0.4575651352
 40
0.4984743559
 40
0.5393983541
 40
0.5800821394
 40
0.6202726307
 40
0.6597206676
 40
0.6981830696
 40
0.7169711587
 40
0.73542544
 40
0.7535181279
 40
0.7712222409
 40
0.788511644
 40
0.8053611137
 40
0.821746466
 40
0.8376446296
 40
0.8530337122
 40
0.8678931419
 40
0.8822038118
 40
0.8959481707
 40
0.9091104
 40
0.921676668
 40
0.9336353219
 40
0.9449771721
 40
0.9556959291
 40
0.9657887028
 40
0.9752565161
 40
0.9841051753
 40
0.9923468585
 40
1.0
 40
1.0
 40
1.0
 40
1.0
 10
13.2972916433
 20
8.3796580355
 30
0.0
 10
13.2952129373
 20
8.3822138983
 30
0.0
 10
13.2911171679
 20
8.3877069483
 30
0.0
 10
13.2853534395
 20
8.3966802315
 30
0.0
 10
13.2797542279
 20
8.4066724613
 30
0.0
 10
13.2743284625
 20
8.4176673046
 30
0.0
 10
13.2690843642
 20
8.4296476663
 30
0.0
 10
13.2640303306
 20
8.4425943191
 30
0.0
 10
13.2591745798
 20
8.4564863961
 30
0.0
 10
13.2545251512
 20
8.4713013131
 30
0.0
 10
13.2500897421
 20
8.4870148321
 30
0.0
 10
13.2458757449
 20
8.503601142
 30
0.0
 10
13.241890234
 20
8.5210329304
 30
0.0
 10
13.2381398872
 20
8.539281417
 30
0.0
 10
13.2346309748
 20
8.558316417
 30
0.0
 10
13.2313693978
 20
8.5781064195
 30
0.0
 10
13.2283606472
 20
8.5986186326
 30
0.0
 10
13.2256097499
 20
8.6198190338
 30
0.0
 10
13.2231213252
 20
8.6416724476
 30
0.0
 10
13.2208995731
 20
8.6641426046
 30
0.0
 10
13.218948206
 20
8.6871921955
 30
0.0
 10
13.2172705009
 20
8.710782928
 30
0.0
 10
13.2158692587
 20
8.7348756535
 30
0.0
 10
13.214360794
 20
8.7678792834
 30
0.0
 10
13.213196605
 20
8.8100921458
 30
0.0
 10
13.2129373538
 20
8.8616962015
 30
0.0
 10
13.2138073478
 20
8.9143040904
 30
0.0
 10
13.2158010456
 20
8.9675663401
 30
0.0
 10
13.2189054156
 20
9.0211293688
 30
0.0
 10
13.2230998681
 20
9.0746374994
 30
0.0
 10
13.2283565507
 20
9.1277354204
 30
0.0
 10
13.2346403483
 20
9.1800706626
 30
0.0
 10
13.2419093331
 20
9.2312955891
 30
0.0
 10
13.2487997333
 20
9.2730944076
 30
0.0
 10
13.2547806635
 20
9.3057137869
 30
0.0
 10
13.2594456631
 20
9.3295008411
 30
0.0
 10
13.2643170447
 20
9.352761571
 30
0.0
 10
13.2693867042
 20
9.3754573762
 30
0.0
 10
13.2746461733
 20
9.3975505605
 30
0.0
 10
13.2800867025
 20
9.4190044386
 30
0.0
 10
13.285699205
 20
9.4397834059
 30
0.0
 10
13.2914743028
 20
9.4598529962
 30
0.0
 10
13.2974023729
 20
9.4791799239
 30
0.0
 10
13.3034735305
 20
9.4977321609
 30
0.0
 10
13.3096776233
 20
9.5154790047
 30
0.0
 10
13.3160043063
 20
9.5323911079
 30
0.0
 10
13.3224430572
 20
9.5484405391
 30
0.0
 10
13.3289831336
 20
9.5636008719
 30
0.0
 10
13.3356136649
 20
9.5778472099
 30
0.0
 10
13.3423237061
 20
9.5911562265
 30
0.0
 10
13.3491021986
 20
9.6035062714
 30
0.0
 10
13.3559381078
 20
9.6148774109
 30
0.0
 10
13.3628204013
 20
9.625251335
 30
0.0
 10
13.3697385477
 20
9.6346119441
 30
0.0
 10
13.3766814221
 20
9.6429436841
 30
0.0
 10
13.3814938089
 20
9.6479859081
 30
0.0
 10
13.3839050798
 20
9.6503150171
 30
0.0
  0
SPLINE
  5
37A
100
AcDbEntity
  8
0
100
AcDbSpline
 62
7
  6
CONTINUOUS
 70
0
 71
3
 72
11
 73
7
 74
0
 42
0.0000001
 43
0.0000001
 44
0.0000000001
 40
0.0
 40
0.0
 40
0.0
 40
0.0
 40
0.2450212763
 40
0.4920655609
 40
0.7431020079
 40
1.0
 40
1.0
 40
1.0
 40
1.0
 10
13.2889227975
 20
8.4129378824
 30
0.0
 10
13.2877377061
 20
8.4130200659
 30
0.0
 10
13.2853640511
 20
8.4132977435
 30
0.0
 10
13.2818357116
 20
8.4140504982
 30
0.0
 10
13.278335949
 20
8.4151390444
 30
0.0
 10
13.2760544176
 20
8.4160752231
 30
0.0
 10
13.274922496
 20
8.4165949079
 30
0.0
  0
SPLINE
  5
37B
100
AcDbEntity
  8
0
100
AcDbSpline
 62
7
  6
CONTINUOUS
 70
0
 71
3
 72
11
 73
7
 74
0
 42
0.0000001
 43
0.0000001
 44
0.0000000001
 40
0.0
 40
0.0
 40
0.0
 40
0.0
 40
0.2451747255
 40
0.4923088615
 40
0.7433122485
 40
1.0
 40
1.0
 40
1.0
 40
1.0
 10
13.3726355149
 20
9.6200385761
 30
0.0
 10
13.3714696347
 20
9.6201194274
 30
0.0
 10
13.3691195868
 20
9.6201729947
 30
0.0
 10
13.3655802442
 20
9.6199268456
 30
0.0
 10
13.3620233229
 20
9.6193549617
 30
0.0
 10
13.3596728958
 20
9.6187648037
 30
0.0
 10
13.3584992227
 20
9.6184189862
 30
0.0
  0
SPLINE
  5
37C
100
AcDbEntity
  8
0
100
AcDbSpline
 62
7
  6
CONTINUOUS
 70
0
 71
3
 72
15
 73
11
 74
0
 42
0.0000001
 43
0.0000001
 44
0.0000000001
 40
0.0
 40
0.0
 40
0.0
 40
0.0
 40
0.1451821682
 40
0.2837469552
 40
0.41601823
 40
0.5424026532
 40
0.6633860347
 40
0.7795333462
 40
0.8914928878
 40
1.0
 40
1.0
 40
1.0
 40
1.0
 10
13.3839050798
 20
8.1676187859
 30
0.0
 10
13.3820659443
 20
8.1658423173
 30
0.0
 10
13.3783891792
 20
8.1624540081
 30
0.0
 10
13.3727440564
 20
8.1577773544
 30
0.0
 10
13.367103713
 20
8.1536311604
 30
0.0
 10
13.3614715362
 20
8.1500184584
 30
0.0
 10
13.3558504488
 20
8.1469418983
 30
0.0
 10
13.3502433149
 20
8.144403906
 30
0.0
 10
13.3446539974
 20
8.1424071368
 30
0.0
 10
13.3408907793
 20
8.1414251063
 30
0.0
 10
13.3390209939
 20
8.1410300349
 30
0.0
  0
SPLINE
  5
37D
100
AcDbEntity
  8
0
100
AcDbSpline
 62
7
  6
CONTINUOUS
 70
0
 71
3
 72
23
 73
19
 74
0
 42
0.0000001
 43
0.0000001
 44
0.0000000001
 40
0.0
 40
0.0
 40
0.0
 40
0.0
 40
0.0755970481
 40
0.1466395192
 40
0.2134651039
 40
0.2765141432
 40
0.3363266137
 40
0.3935468688
 40
0.4489231172
 40
0.5032882226
 40
0.5575261408
 40
0.6125274601
 40
0.6691434874
 40
0.7281489695
 40
0.7902195499
 40
0.8559235776
 40
0.9257266248
 40
1.0
 40
1.0
 40
1.0
 40
1.0
 10
13.3839050798
 20
8.3752928508
 30
0.0
 10
13.3820707559
 20
8.3735210299
 30
0.0
 10
13.3784045741
 20
8.3701930167
 30
0.0
 10
13.372730779
 20
8.3657470291
 30
0.0
 10
13.3670636632
 20
8.3620130058
 30
0.0
 10
13.3614083789
 20
8.3589966209
 30
0.0
 10
13.3557697082
 20
8.3567032097
 30
0.0
 10
13.3501533961
 20
8.3551386295
 30
0.0
 10
13.3445668747
 20
8.3543081468
 30
0.0
 10
13.3390194117
 20
8.3542159235
 30
0.0
 10
13.333521673
 20
8.3548631213
 30
0.0
 10
13.3280843317
 20
8.3562479739
 30
0.0
 10
13.3227166033
 20
8.3583657096
 30
0.0
 10
13.3174256048
 20
8.361210175
 30
0.0
 10
13.3122167272
 20
8.3647749054
 30
0.0
 10
13.3070940952
 20
8.3690536188
 30
0.0
 10
13.3020619641
 20
8.3740401192
 30
0.0
 10
13.2988726395
 20
8.3777141295
 30
0.0
 10
13.2972916433
 20
8.3796580355
 30
0.0
  0
SPLINE
  5
37E
100
AcDbEntity
  8
0
100
AcDbSpline
 62
7
  6
CONTINUOUS
 70
0
 71
3
 72
15
 73
11
 74
0
 42
0.0000001
 43
0.0000001
 44
0.0000000001
 40
0.0
 40
0.0
 40
0.0
 40
0.0
 40
0.127348315
 40
0.2538606239
 40
0.3795878599
 40
0.5046051181
 40
0.6290174391
 40
0.7529533757
 40
0.8765605793
 40
1.0
 40
1.0
 40
1.0
 40
1.0
 10
9.5067402157
 20
6.0489723857
 30
0.0
 10
9.5067402157
 20
6.0554707516
 30
0.0
 10
9.5073606811
 20
6.0684338074
 30
0.0
 10
9.5101666536
 20
6.0876290671
 30
0.0
 10
9.5148194339
 20
6.1063420239
 30
0.0
 10
9.5212769832
 20
6.1243976758
 30
0.0
 10
9.529480097
 20
6.1416294995
 30
0.0
 10
9.5393539522
 20
6.1578783886
 30
0.0
 10
9.5508057063
 20
6.1729921065
 30
0.0
 10
9.559428297
 20
6.1822244328
 30
0.0
 10
9.563958807
 20
6.1866005775
 30
0.0
  0
SPLINE
  5
37F
100
AcDbEntity
  8
0
100
AcDbSpline
 62
7
  6
CONTINUOUS
 70
0
 71
3
 72
18
 73
14
 74
0
 42
0.0000001
 43
0.0000001
 44
0.0000000001
 40
0.0
 40
0.0
 40
0.0
 40
0.0
 40
0.150467008
 40
0.2917141408
 40
0.4244426259
 40
0.4879099277
 40
0.549609295
 40
0.6682624161
 40
0.7817883561
 40
0.8371380822
 40
0.8918079419
 40
0.9460193459
 40
1.0
 40
1.0
 40
1.0
 40
1.0
 10
13.3307791562
 20
8.4321030697
 30
0.0
 10
13.3290687847
 20
8.4304509776
 30
0.0
 10
13.3256503358
 20
8.4273511597
 30
0.0
 10
13.3203572479
 20
8.4232202407
 30
0.0
 10
13.3158863066
 20
8.4202986439
 30
0.0
 10
13.3123211464
 20
8.4183202163
 30
0.0
 10
13.3088608686
 20
8.416621688
 30
0.0
 10
13.3045344206
 20
8.4149053823
 30
0.0
 10
13.300131016
 20
8.4137341256
 30
0.0
 10
13.296643379
 20
8.4131571701
 30
0.0
 10
13.2940585651
 20
8.412901065
 30
0.0
 10
13.2914842036
 20
8.4128183585
 30
0.0
 10
13.2897738628
 20
8.4128788629
 30
0.0
 10
13.2889227975
 20
8.4129378824
 30
0.0
  0
SPLINE
  5
380
100
AcDbEntity
  8
0
100
AcDbSpline
 62
7
  6
CONTINUOUS
 70
0
 71
3
 72
85
 73
81
 74
0
 42
0.0000001
 43
0.0000001
 44
0.0000000001
 40
0.0
 40
0.0
 40
0.0
 40
0.0
 40
0.0028080002
 40
0.0056356852
 40
0.0085022927
 40
0.0114262241
 40
0.0144246975
 40
0.0175135618
 40
0.024014741
 40
0.0274544582
 40
0.0310326244
 40
0.0347576794
 40
0.0386367818
 40
0.0426760129
 40
0.046880437
 40
0.0512542236
 40
0.0558007827
 40
0.0605227731
 40
0.0654222815
 40
0.0705007965
 40
0.0757593288
 40
0.0811984517
 40
0.0868183013
 40
0.0926187017
 40
0.0985990923
 40
0.1110957866
 40
0.1242990552
 40
0.13819522
 40
0.1527673431
 40
0.1679956325
 40
0.1838577577
 40
0.2003291251
 40
0.2173830991
 40
0.2349912041
 40
0.2531232914
 40
0.2717476846
 40
0.290831326
 40
0.31033989
 40
0.3302379217
 40
0.3504889453
 40
0.3710555739
 40
0.3918996212
 40
0.4129821988
 40
0.434263823
 40
0.455704522
 40
0.4989006551
 40
0.5422455567
 40
0.5854119627
 40
0.6068267299
 40
0.6280751247
 40
0.6491172498
 40
0.6699137283
 40
0.6904257909
 40
0.7106153881
 40
0.7304452921
 40
0.7498792003
 40
0.7688818537
 40
0.7874191531
 40
0.8054582806
 40
0.8229678293
 40
0.83991794
 40
0.8562804549
 40
0.872029097
 40
0.8871396664
 40
0.9015902789
 40
0.9153616316
 40
0.9284373431
 40
0.9408043809
 40
0.9467193925
 40
0.9524541841
 40
0.9580083152
 40
0.9633817224
 40
0.9685747178
 40
0.9735879981
 40
0.9784227492
 40
0.9830806289
 40
0.9875639997
 40
0.9918758774
 40
0.9960198232
 40
1.0
 40
1.0
 40
1.0
 40
1.0
 10
11.1932963171
 20
11.7132039592
 30
0.0
 10
11.1932963247
 20
11.7147522681
 30
0.0
 10
11.1931607215
 20
11.7178614145
 30
0.0
 10
11.192551504
 20
11.7225152686
 30
0.0
 10
11.1915369109
 20
11.7271634476
 30
0.0
 10
11.190117888
 20
11.7318025952
 30
0.0
 10
11.1882957551
 20
11.736430505
 30
0.0
 10
11.1852798978
 20
11.742688012
 30
0.0
 10
11.1814814278
 20
11.7488147307
 30
0.0
 10
11.1770081565
 20
11.7547805861
 30
0.0
 10
11.173195005
 20
11.7593178159
 30
0.0
 10
11.1689895795
 20
11.7638301734
 30
0.0
 10
11.16439379
 20
11.7683162306
 30
0.0
 10
11.1594100113
 20
11.7727736973
 30
0.0
 10
11.1540407334
 20
11.7772005437
 30
0.0
 10
11.1482886553
 20
11.781594681
 30
0.0
 10
11.1421565946
 20
11.7859539272
 30
0.0
 10
11.1356476507
 20
11.7902762488
 30
0.0
 10
11.1287650185
 20
11.7945594415
 30
0.0
 10
11.1215121574
 20
11.798801444
 30
0.0
 10
11.1138926796
 20
11.8030001345
 30
0.0
 10
11.105910385
 20
11.8071533897
 30
0.0
 10
11.0975692964
 20
11.8112591829
 30
0.0
 10
11.0888735592
 20
11.8153154118
 30
0.0
 10
11.0766322788
 20
11.8207344916
 30
0.0
 10
11.0604626247
 20
11.827354377
 30
0.0
 10
11.0399923597
 20
11.8349567254
 30
0.0
 10
11.0182215588
 20
11.8423142809
 30
0.0
 10
10.9951940573
 20
11.8494121061
 30
0.0
 10
10.9709559833
 20
11.8562357696
 30
0.0
 10
10.9455561028
 20
11.8627713785
 30
0.0
 10
10.9190455752
 20
11.869005626
 30
0.0
 10
10.891477864
 20
11.874925814
 30
0.0
 10
10.8629086061
 20
11.8805198818
 30
0.0
 10
10.8333954947
 20
11.8857764352
 30
0.0
 10
10.8029981549
 20
11.890684766
 30
0.0
 10
10.7717780274
 20
11.8952348795
 30
0.0
 10
10.739798234
 20
11.8994175185
 30
0.0
 10
10.7071234475
 20
11.9032241718
 30
0.0
 10
10.6738197536
 20
11.906647095
 30
0.0
 10
10.6399545185
 20
11.9096793231
 30
0.0
 10
10.6055962471
 20
11.912314688
 30
0.0
 10
10.5708144695
 20
11.9145478199
 30
0.0
 10
10.5356795016
 20
11.9163742195
 30
0.0
 10
10.4883416404
 20
11.9182665844
 30
0.0
 10
10.4288100391
 20
11.9195882762
 30
0.0
 10
10.3572843544
 20
11.9195128259
 30
0.0
 10
10.2977863625
 20
11.9180653601
 30
0.0
 10
10.2505016734
 20
11.9160725756
 30
0.0
 10
10.215425647
 20
11.9141719165
 30
0.0
 10
10.1807156652
 20
11.9118652855
 30
0.0
 10
10.1464418981
 20
11.9091573361
 30
0.0
 10
10.1126737007
 20
11.9060535888
 30
0.0
 10
10.0794793805
 20
11.9025603547
 30
0.0
 10
10.0469260831
 20
11.8986847408
 30
0.0
 10
10.0150796492
 20
11.894434631
 30
0.0
 10
9.9840044797
 20
11.8898186709
 30
0.0
 10
9.9537633984
 20
11.8848462585
 30
0.0
 10
9.9244175214
 20
11.8795275211
 30
0.0
 10
9.8960261335
 20
11.8738732908
 30
0.0
 10
9.8686465656
 20
11.8678950847
 30
0.0
 10
9.8423340706
 20
11.8616050795
 30
0.0
 10
9.8171417047
 20
11.8550160841
 30
0.0
 10
9.7931201887
 20
11.8481415203
 30
0.0
 10
9.7703178357
 20
11.8409953827
 30
0.0
 10
9.7487802984
 20
11.833592194
 30
0.0
 10
9.7285509329
 20
11.8259469766
 30
0.0
 10
9.7125880661
 20
11.8192920679
 30
0.0
 10
9.7005161306
 20
11.8138462309
 30
0.0
 10
9.6919488611
 20
11.8097717385
 30
0.0
 10
9.6837377751
 20
11.8056484533
 30
0.0
 10
9.6758869687
 20
11.8014784208
 30
0.0
 10
9.668400364
 20
11.797263753
 30
0.0
 10
9.6612817374
 20
11.793006494
 30
0.0
 10
9.6545346176
 20
11.7887088612
 30
0.0
 10
9.6481623865
 20
11.7843728853
 30
0.0
 10
9.6421681451
 20
11.7800006972
 30
0.0
 10
9.6365548352
 20
11.7755943187
 30
0.0
 10
9.631325538
 20
11.7711561213
 30
0.0
 10
9.6280318968
 20
11.7681174647
 30
0.0
 10
9.6264533936
 20
11.7665927477
 30
0.0
  0
SPLINE
  5
381
100
AcDbEntity
  8
0
100
AcDbSpline
 62
7
  6
CONTINUOUS
 70
0
 71
3
 72
92
 73
88
 74
0
 42
0.0000001
 43
0.0000001
 44
0.0000000001
 40
0.0
 40
0.0
 40
0.0
 40
0.0
 40
0.0042067366
 40
0.0086075244
 40
0.0132068283
 40
0.0180083448
 40
0.0230150823
 40
0.0282292321
 40
0.0336521258
 40
0.0392845348
 40
0.0451266321
 40
0.0511781492
 40
0.0574383514
 40
0.0639060741
 40
0.0705798373
 40
0.077457758
 40
0.0918168161
 40
0.1069632118
 40
0.1228724598
 40
0.1395166315
 40
0.1568647495
 40
0.1748831121
 40
0.1935355649
 40
0.21278374
 40
0.2325872776
 40
0.25290402
 40
0.2736901926
 40
0.2949005737
 40
0.3164886563
 40
0.3384068041
 40
0.3606064109
 40
0.3830380523
 40
0.4056516338
 40
0.451220911
 40
0.4969065388
 40
0.5196652416
 40
0.5422994728
 40
0.5647585554
 40
0.5869923134
 40
0.6089512217
 40
0.6305865578
 40
0.65185055
 40
0.6726965308
 40
0.6930790933
 40
0.7129542534
 40
0.7322796223
 40
0.7510145912
 40
0.7691205189
 40
0.7865609415
 40
0.8033018079
 40
0.8193117499
 40
0.8345624012
 40
0.8490287911
 40
0.8626898153
 40
0.8692132197
 40
0.8755294441
 40
0.8816372756
 40
0.8875358419
 40
0.8932247283
 40
0.8987040149
 40
0.903974277
 40
0.9090367625
 40
0.9138933332
 40
0.9185466869
 40
0.9230003746
 40
0.927258958
 40
0.9313281896
 40
0.9352150892
 40
0.9389282476
 40
0.9424779032
 40
0.9458762283
 40
0.9491374667
 40
0.9522780607
 40
0.9553167475
 40
0.9582744218
 40
0.9611739598
 40
0.9640397557
 40
0.9668971558
 40
0.9697717436
 40
0.972688619
 40
0.9756717075
 40
0.9787432566
 40
0.9852254055
 40
0.9886743218
 40
0.9922790758
 40
0.9960512115
 40
1.0
 40
1.0
 40
1.0
 40
1.0
 10
13.3839050798
 20
8.3752928508
 30
0.0
 10
13.3853303528
 20
8.3766695589
 30
0.0
 10
13.3881790051
 20
8.3795571773
 30
0.0
 10
13.3923544867
 20
8.3841710762
 30
0.0
 10
13.396524672
 20
8.3891607457
 30
0.0
 10
13.4006869304
 20
8.3945229738
 30
0.0
 10
13.4048389686
 20
8.400254663
 30
0.0
 10
13.4089783756
 20
8.406352517
 30
0.0
 10
13.4131028159
 20
8.412812927
 30
0.0
 10
13.4172097478
 20
8.4196321137
 30
0.0
 10
13.4212968144
 20
8.4268060058
 30
0.0
 10
13.4253615538
 20
8.434330377
 30
0.0
 10
13.4294015543
 20
8.4422007664
 30
0.0
 10
13.4334144357
 20
8.4504124876
 30
0.0
 10
13.4373977673
 20
8.458960684
 30
0.0
 10
13.4427431967
 20
8.4709730243
 30
0.0
 10
13.4493205316
 20
8.4868024918
 30
0.0
 10
13.4569493835
 20
8.5067915453
 30
0.0
 10
13.4644050288
 20
8.5279902317
 30
0.0
 10
13.4716695378
 20
8.5503479859
 30
0.0
 10
13.4787254227
 20
8.5738116605
 30
0.0
 10
13.4855556951
 20
8.598325313
 30
0.0
 10
13.4921439133
 20
8.623830454
 30
0.0
 10
13.4984742261
 20
8.6502661698
 30
0.0
 10
13.5045314053
 20
8.677569291
 30
0.0
 10
13.5103008841
 20
8.7056745493
 30
0.0
 10
13.5157687911
 20
8.7345147395
 30
0.0
 10
13.5209219837
 20
8.7640208821
 30
0.0
 10
13.5257480775
 20
8.7941223881
 30
0.0
 10
13.5302354882
 20
8.8247472351
 30
0.0
 10
13.534373432
 20
8.8558221239
 30
0.0
 10
13.5381520207
 20
8.8872727365
 30
0.0
 10
13.542710148
 20
8.9297138717
 30
0.0
 10
13.5474440097
 20
8.9831484855
 30
0.0
 10
13.5508777643
 20
9.0367507967
 30
0.0
 10
13.5528316394
 20
9.0796100578
 30
0.0
 10
13.5538915389
 20
9.1115552612
 30
0.0
 10
13.5545453328
 20
9.1432640016
 30
0.0
 10
13.554791441
 20
9.1746604416
 30
0.0
 10
13.5546293109
 20
9.2056694235
 30
0.0
 10
13.5540593659
 20
9.2362167433
 30
0.0
 10
13.5530830138
 20
9.2662293044
 30
0.0
 10
13.551702641
 20
9.2956352992
 30
0.0
 10
13.5499216088
 20
9.3243643804
 30
0.0
 10
13.5477442455
 20
9.352347833
 30
0.0
 10
13.5451758385
 20
9.3795187458
 30
0.0
 10
13.5422226292
 20
9.4058121786
 30
0.0
 10
13.53889179
 20
9.4311653227
 30
0.0
 10
13.5351914084
 20
9.4555176543
 30
0.0
 10
13.5311304682
 20
9.4788110991
 30
0.0
 10
13.5267188236
 20
9.5009901522
 30
0.0
 10
13.5219671775
 20
9.5220021567
 30
0.0
 10
13.5168870249
 20
9.5417970451
 30
0.0
 10
13.5123226334
 20
9.5574719533
 30
0.0
 10
13.508502852
 20
9.5693570849
 30
0.0
 10
13.5056076415
 20
9.5778003654
 30
0.0
 10
13.5026397587
 20
9.5859056685
 30
0.0
 10
13.4996008941
 20
9.593668191
 30
0.0
 10
13.4964928644
 20
9.6010833292
 30
0.0
 10
13.4933175505
 20
9.6081467138
 30
0.0
 10
13.4900767442
 20
9.614854153
 30
0.0
 10
13.4867724404
 20
9.6212017349
 30
0.0
 10
13.4834064646
 20
9.6271857033
 30
0.0
 10
13.4799808129
 20
9.6328025821
 30
0.0
 10
13.4764974078
 20
9.63804909
 30
0.0
 10
13.4729581526
 20
9.6429221432
 30
0.0
 10
13.4693650562
 20
9.647418944
 30
0.0
 10
13.4657199206
 20
9.6515367652
 30
0.0
 10
13.4620247418
 20
9.6552732127
 30
0.0
 10
13.4582813052
 20
9.6586258985
 30
0.0
 10
13.4544915101
 20
9.6615926415
 30
0.0
 10
13.4506572619
 20
9.664171348
 30
0.0
 10
13.4467804863
 20
9.666359865
 30
0.0
 10
13.4428634155
 20
9.668156332
 30
0.0
 10
13.4389083883
 20
9.6695587084
 30
0.0
 10
13.4349182145
 20
9.6705654741
 30
0.0
 10
13.430895952
 20
9.6711752659
 30
0.0
 10
13.4268449763
 20
9.6713873309
 30
0.0
 10
13.422768725
 20
9.6712016224
 30
0.0
 10
13.4186706542
 20
9.6706185055
 30
0.0
 10
13.4145536353
 20
9.669639035
 30
0.0
 10
13.4089440167
 20
9.6677735537
 30
0.0
 10
13.4033931357
 20
9.6651180967
 30
0.0
 10
13.3979524948
 20
9.6617883349
 30
0.0
 10
13.3937795261
 20
9.6588507761
 30
0.0
 10
13.3896028104
 20
9.6555274526
 30
0.0
 10
13.3868806447
 20
9.6531126956
 30
0.0
 10
13.3855189963
 20
9.6518454748
 30
0.0
  0
SPLINE
  5
382
100
AcDbEntity
  8
0
100
AcDbSpline
 62
7
  6
CONTINUOUS
 70
0
 71
3
 72
80
 73
76
 74
0
 42
0.0000001
 43
0.0000001
 44
0.0000000001
 40
0.0
 40
0.0
 40
0.0
 40
0.0
 40
0.0039883799
 40
0.0081453752
 40
0.0124746386
 40
0.0169792156
 40
0.021661669
 40
0.0265240231
 40
0.0315676328
 40
0.0367933336
 40
0.042201574
 40
0.0477923628
 40
0.0595195651
 40
0.0719693889
 40
0.0851313116
 40
0.0989911574
 40
0.1135315518
 40
0.1287323373
 40
0.1445709047
 40
0.1610224436
 40
0.1780601318
 40
0.1956553356
 40
0.2137777909
 40
0.2323957448
 40
0.2514760677
 40
0.2709843863
 40
0.2908852167
 40
0.311142073
 40
0.3317175598
 40
0.3736702008
 40
0.4164307353
 40
0.4596780682
 40
0.5030864323
 40
0.5463285118
 40
0.5890785868
 40
0.6310156693
 40
0.6515815081
 40
0.6718274996
 40
0.6917162816
 40
0.711211397
 40
0.7302773921
 40
0.7488799298
 40
0.7669859313
 40
0.7845636874
 40
0.801582979
 40
0.818015225
 40
0.8338336755
 40
0.8490135854
 40
0.8635324141
 40
0.8773700842
 40
0.8905093296
 40
0.9029360806
 40
0.9146399417
 40
0.9202190025
 40
0.9256155028
 40
0.9308294768
 40
0.9358613995
 40
0.940712184
 40
0.9453831863
 40
0.9498763813
 40
0.9541943136
 40
0.9583402313
 40
0.9623182136
 40
0.9661331738
 40
0.9697910847
 40
0.9732990446
 40
0.9766653897
 40
0.9798999101
 40
0.9830138747
 40
0.9860201789
 40
0.9889333931
 40
0.9917696852
 40
0.9945467564
 40
0.9972835667
 40
1.0
 40
1.0
 40
1.0
 40
1.0
 10
13.3307791562
 20
8.4321030697
 30
0.0
 10
13.3319744553
 20
8.4332576401
 30
0.0
 10
13.3343637569
 20
8.4356697378
 30
0.0
 10
13.3378727953
 20
8.4395059797
 30
0.0
 10
13.3413781587
 20
8.4436320996
 30
0.0
 10
13.34487789
 20
8.4480458606
 30
0.0
 10
13.3483703897
 20
8.4527450553
 30
0.0
 10
13.3518539383
 20
8.4577274432
 30
0.0
 10
13.3553268866
 20
8.4629905598
 30
0.0
 10
13.3587875081
 20
8.4685317841
 30
0.0
 10
13.3622340471
 20
8.4743483856
 30
0.0
 10
13.3668826157
 20
8.4825990366
 30
0.0
 10
13.3726339704
 20
8.4935923739
 30
0.0
 10
13.3793468516
 20
8.5076310124
 30
0.0
 10
13.3859631633
 20
8.5226911223
 30
0.0
 10
13.392469581
 20
8.538742641
 30
0.0
 10
13.3988530158
 20
8.5557537139
 30
0.0
 10
13.4051005887
 20
8.5736903827
 30
0.0
 10
13.4111996795
 20
8.5925168059
 30
0.0
 10
13.4171379506
 20
8.6121953028
 30
0.0
 10
13.4229034065
 20
8.6326864313
 30
0.0
 10
13.4284844034
 20
8.6539490809
 30
0.0
 10
13.433869664
 20
8.6759405762
 30
0.0
 10
13.4390482997
 20
8.6986167629
 30
0.0
 10
13.4440098532
 20
8.7219320859
 30
0.0
 10
13.4487443189
 20
8.7458396909
 30
0.0
 10
13.4532421295
 20
8.770291518
 30
0.0
 10
13.4574942403
 20
8.7952384547
 30
0.0
 10
13.4628590796
 20
8.8293139136
 30
0.0
 10
13.4688782736
 20
8.8727748661
 30
0.0
 10
13.4749542712
 20
8.9257500737
 30
0.0
 10
13.4798797335
 20
8.9794537924
 30
0.0
 10
13.4836149455
 20
9.0334544124
 30
0.0
 10
13.4861299327
 20
9.0873183009
 30
0.0
 10
13.4874045775
 20
9.1406125461
 30
0.0
 10
13.4874253501
 20
9.1844734772
 30
0.0
 10
13.4868019743
 20
9.2189480067
 30
0.0
 10
13.4860241111
 20
9.2442291968
 30
0.0
 10
13.484934624
 20
9.2690523144
 30
0.0
 10
13.4835357064
 20
9.2933675001
 30
0.0
 10
13.4818302175
 20
9.3171258644
 30
0.0
 10
13.4798216166
 20
9.3402796594
 30
0.0
 10
13.4775140036
 20
9.3627823666
 30
0.0
 10
13.4749120818
 20
9.3845887954
 30
0.0
 10
13.4720211467
 20
9.4056551647
 30
0.0
 10
13.4688470693
 20
9.4259392005
 30
0.0
 10
13.4653963177
 20
9.4454002403
 30
0.0
 10
13.461675922
 20
9.463999317
 30
0.0
 10
13.45769345
 20
9.4816992433
 30
0.0
 10
13.4534569785
 20
9.4984646688
 30
0.0
 10
13.4489751042
 20
9.5142623077
 30
0.0
 10
13.4442568855
 20
9.5290606151
 30
0.0
 10
13.4400718904
 20
9.5407146838
 30
0.0
 10
13.4366018915
 20
9.5495051665
 30
0.0
 10
13.433987872
 20
9.5557245194
 30
0.0
 10
13.4313219971
 20
9.5616728857
 30
0.0
 10
13.4286055769
 20
9.5673473257
 30
0.0
 10
13.4258399945
 20
9.572745038
 30
0.0
 10
13.4230265338
 20
9.5778633219
 30
0.0
 10
13.420166637
 20
9.5826996818
 30
0.0
 10
13.4172616542
 20
9.5872517249
 30
0.0
 10
13.4143129408
 20
9.5915171904
 30
0.0
 10
13.4113219536
 20
9.5954940233
 30
0.0
 10
13.4082899966
 20
9.5991802094
 30
0.0
 10
13.4052184824
 20
9.6025739344
 30
0.0
 10
13.4021087963
 20
9.6056735033
 30
0.0
 10
13.398962223
 20
9.6084772273
 30
0.0
 10
13.3957802005
 20
9.610983655
 30
0.0
 10
13.3925640587
 20
9.6131912829
 30
0.0
 10
13.3893152154
 20
9.6150986784
 30
0.0
 10
13.3860352251
 20
9.6167045873
 30
0.0
 10
13.3827256985
 20
9.6180076204
 30
0.0
 10
13.3793883962
 20
9.6190067116
 30
0.0
 10
13.3760256806
 20
9.6197008966
 30
0.0
 10
13.3737646729
 20
9.6199602715
 30
0.0
 10
13.3726355149
 20
9.6200385761
 30
0.0
  0
SPLINE
  5
383
100
AcDbEntity
  8
0
100
AcDbSpline
 62
7
  6
CONTINUOUS
 70
0
 71
3
 72
39
 73
35
 74
0
 42
0.0000001
 43
0.0000001
 44
0.0000000001
 40
0.0
 40
0.0
 40
0.0
 40
0.0
 40
0.0311159723
 40
0.0620233248
 40
0.0927351404
 40
0.1232711776
 40
0.1536587326
 40
0.1839312111
 40
0.2141268393
 40
0.2442870992
 40
0.2744549754
 40
0.3046731314
 40
0.3349820899
 40
0.3654185435
 40
0.3960138648
 40
0.4267928822
 40
0.4577729963
 40
0.4889636214
 40
0.5203659689
 40
0.551973178
 40
0.5837707188
 40
0.6157370639
 40
0.6478445901
 40
0.6800606405
 40
0.7123487311
 40
0.7446698622
 40
0.7769838843
 40
0.8092508939
 40
0.8414326243
 40
0.8734937998
 40
0.9054034123
 40
0.9371359058
 40
0.9686717941
 40
1.0
 40
1.0
 40
1.0
 40
1.0
 10
10.3370253454
 20
7.5695958439
 30
0.0
 10
10.3370253454
 20
7.5612509937
 30
0.0
 10
10.3362106616
 20
7.5446051696
 30
0.0
 10
10.3325262699
 20
7.5199692337
 30
0.0
 10
10.3264183692
 20
7.4959768518
 30
0.0
 10
10.3179447145
 20
7.4728627683
 30
0.0
 10
10.3071864592
 20
7.4508496866
 30
0.0
 10
10.2942468607
 20
7.4301508811
 30
0.0
 10
10.2792505223
 20
7.4109668092
 30
0.0
 10
10.2623423658
 20
7.3934832388
 30
0.0
 10
10.2436859196
 20
7.3778694483
 30
0.0
 10
10.2234618092
 20
7.364276453
 30
0.0
 10
10.201865975
 20
7.3528353154
 30
0.0
 10
10.1791074722
 20
7.3436561512
 30
0.0
 10
10.1554064748
 20
7.3368269371
 30
0.0
 10
10.1309920463
 20
7.3324126154
 30
0.0
 10
10.1060997982
 20
7.3304548675
 30
0.0
 10
10.0809696718
 20
7.3309715722
 30
0.0
 10
10.0558435851
 20
7.3339566949
 30
0.0
 10
10.0309631663
 20
7.3393807048
 30
0.0
 10
10.0065674667
 20
7.347190639
 30
0.0
 10
9.9828906798
 20
7.3573107024
 30
0.0
 10
9.9601600509
 20
7.369643234
 30
0.0
 10
9.9385936414
 20
7.3840693701
 30
0.0
 10
9.9183982952
 20
7.4004502922
 30
0.0
 10
9.8997678336
 20
7.4186286831
 30
0.0
 10
9.8828810351
 20
7.4384299661
 30
0.0
 10
9.8679000347
 20
7.4596641027
 30
0.0
 10
9.8549689273
 20
7.4821274146
 30
0.0
 10
9.8442121371
 20
7.5056044206
 30
0.0
 10
9.8357333867
 20
7.5298696254
 30
0.0
 10
9.829614887
 20
7.5546909445
 30
0.0
 10
9.8259159297
 20
7.5798268463
 30
0.0
 10
9.8250846271
 20
7.5966972851
 30
0.0
 10
9.8250846271
 20
7.6050990533
 30
0.0
  0
SPLINE
  5
384
100
AcDbEntity
  8
0
100
AcDbSpline
 62
7
  6
CONTINUOUS
 70
0
 71
3
 72
23
 73
19
 74
0
 42
0.0000001
 43
0.0000001
 44
0.0000000001
 40
0.0
 40
0.0
 40
0.0
 40
0.0
 40
0.063776909
 40
0.1273449468
 40
0.1907019575
 40
0.2538561145
 40
0.3168131979
 40
0.3795820804
 40
0.4421733815
 40
0.5045993354
 40
0.5668738682
 40
0.6290123838
 40
0.6910316538
 40
0.75294965
 40
0.8147853622
 40
0.8765586114
 40
0.9382898593
 40
1.0
 40
1.0
 40
1.0
 40
1.0
 10
9.6477653947
 20
7.608821817
 30
0.0
 10
9.6477653947
 20
7.6156104143
 30
0.0
 10
9.6480903346
 20
7.6291676759
 30
0.0
 10
9.6495568857
 20
7.6494210868
 30
0.0
 10
9.651998735
 20
7.6695139654
 30
0.0
 10
9.6554100142
 20
7.6893991151
 30
0.0
 10
9.6597831183
 20
7.7090310874
 30
0.0
 10
9.665107933
 20
7.7283644997
 30
0.0
 10
9.67137221
 20
7.7473548136
 30
0.0
 10
9.6785615614
 20
7.7659582372
 30
0.0
 10
9.6866594732
 20
7.7841318526
 30
0.0
 10
9.6956473083
 20
7.8018337409
 30
0.0
 10
9.7055043404
 20
7.8190230793
 30
0.0
 10
9.7162078731
 20
7.8356602254
 30
0.0
 10
9.727733228
 20
7.8517067477
 30
0.0
 10
9.7400539805
 20
7.8671257429
 30
0.0
 10
9.7531412125
 20
7.8818811714
 30
0.0
 10
9.7623586196
 20
7.8912548045
 30
0.0
 10
9.7670831088
 20
7.8958183302
 30
0.0
  0
SPLINE
  5
385
100
AcDbEntity
  8
0
100
AcDbSpline
 62
7
  6
CONTINUOUS
 70
0
 71
3
 72
39
 73
35
 74
0
 42
0.0000001
 43
0.0000001
 44
0.0000000001
 40
0.0
 40
0.0
 40
0.0
 40
0.0
 40
0.0299424725
 40
0.05990932
 40
0.0899243252
 40
0.1200101024
 40
0.1501875589
 40
0.1804754082
 40
0.2108897494
 40
0.2414437221
 40
0.272147242
 40
0.3030068208
 40
0.33402547
 40
0.3652026865
 40
0.3965345185
 40
0.428013701
 40
0.459629856
 40
0.4913697495
 40
0.5232175971
 40
0.5551554142
 40
0.587163399
 40
0.619220343
 40
0.6513040608
 40
0.6833918343
 40
0.715460865
 40
0.747488727
 40
0.7794538147
 40
0.8113357784
 40
0.8431159423
 40
0.8747777013
 40
0.90630686
 40
0.937692088
 40
0.9689246466
 40
1.0
 40
1.0
 40
1.0
 40
1.0
 10
10.3784624581
 20
7.2628765788
 30
0.0
 10
10.3711630075
 20
7.2558258206
 30
0.0
 10
10.3559901741
 20
7.2422932822
 30
0.0
 10
10.3316808861
 20
7.2238576089
 30
0.0
 10
10.3059458569
 20
7.2073772886
 30
0.0
 10
10.2789288665
 20
7.1929447885
 30
0.0
 10
10.2507784483
 20
7.1806389708
 30
0.0
 10
10.2216499665
 20
7.1705274755
 30
0.0
 10
10.1917039422
 20
7.1626656139
 30
0.0
 10
10.1611053566
 20
7.1570963053
 30
0.0
 10
10.1300226787
 20
7.1538498042
 30
0.0
 10
10.098626949
 20
7.1529435757
 30
0.0
 10
10.0670908386
 20
7.15438221
 30
0.0
 10
10.035587701
 20
7.1581573881
 30
0.0
 10
10.0042906261
 20
7.1642479868
 30
0.0
 10
9.9733715028
 20
7.1726202042
 30
0.0
 10
9.943000089
 20
7.1832277559
 30
0.0
 10
9.9133430975
 20
7.1960121414
 30
0.0
 10
9.8845632819
 20
7.2109029376
 30
0.0
 10
9.856818555
 20
7.2278182016
 30
0.0
 10
9.830261144
 20
7.2466649373
 30
0.0
 10
9.8050367653
 20
7.2673395985
 30
0.0
 10
9.7812838371
 20
7.2897286534
 30
0.0
 10
9.7591327278
 20
7.3137091986
 30
0.0
 10
9.7387050212
 20
7.3391496044
 30
0.0
 10
9.7201128823
 20
7.3659102606
 30
0.0
 10
9.7034584465
 20
7.3938443281
 30
0.0
 10
9.6888332646
 20
7.4227985398
 30
0.0
 10
9.6763178057
 20
7.4526140117
 30
0.0
 10
9.6659810047
 20
7.4831271602
 30
0.0
 10
9.6578798283
 20
7.5141703511
 30
0.0
 10
9.6520591436
 20
7.5455736984
 30
0.0
 10
9.6485511048
 20
7.5771625376
 30
0.0
 10
9.6477653947
 20
7.5982891866
 30
0.0
 10
9.6477653947
 20
7.608821817
 30
0.0
  0
SPLINE
  5
386
100
AcDbEntity
  8
0
100
AcDbSpline
 62
7
  6
CONTINUOUS
 70
0
 71
3
 72
39
 73
35
 74
0
 42
0.0000001
 43
0.0000001
 44
0.0000000001
 40
0.0
 40
0.0
 40
0.0
 40
0.0
 40
0.0299337079
 40
0.0599001909
 40
0.0899223151
 40
0.1200216304
 40
0.150217873
 40
0.1805285216
 40
0.2109684185
 40
0.2415494646
 40
0.2722803908
 40
0.3031666103
 40
0.3342101494
 40
0.3654096542
 40
0.3967604695
 40
0.4282547841
 40
0.4598818352
 40
0.4916281651
 40
0.5234779216
 40
0.5554131974
 40
0.5874144002
 40
0.6194606478
 40
0.651530181
 40
0.6836007895
 40
0.7156502418
 40
0.7476567171
 40
0.7795992305
 40
0.8114580474
 40
0.8432150804
 40
0.8748542689
 40
0.9063618841
 40
0.937726999
 40
0.9689411657
 40
1.0
 40
1.0
 40
1.0
 40
1.0
 10
10.3783482129
 20
7.2630065301
 30
0.0
 10
10.3709273469
 20
7.256257428
 30
0.0
 10
10.3555398243
 20
7.2433297812
 30
0.0
 10
10.3309955909
 20
7.2257977308
 30
0.0
 10
10.3051073711
 20
7.2102077384
 30
0.0
 10
10.2780164169
 20
7.1966452015
 30
0.0
 10
10.2498681444
 20
7.1851824403
 30
0.0
 10
10.2208142327
 20
7.1758809484
 30
0.0
 10
10.1910109983
 20
7.1687903812
 30
0.0
 10
10.1606187502
 20
7.1639485025
 30
0.0
 10
10.1298008638
 20
7.1613809506
 30
0.0
 10
10.0987229149
 20
7.1611011365
 30
0.0
 10
10.0675517894
 20
7.1631101884
 30
0.0
 10
10.0364547952
 20
7.1673969663
 30
0.0
 10
10.0055987688
 20
7.1739381155
 30
0.0
 10
9.9751491909
 20
7.1826982245
 30
0.0
 10
9.9452693121
 20
7.1936300258
 30
0.0
 10
9.9161192901
 20
7.2066746552
 30
0.0
 10
9.8878553443
 20
7.2217619702
 30
0.0
 10
9.8606289308
 20
7.2388109271
 30
0.0
 10
9.8345859423
 20
7.257730014
 30
0.0
 10
9.8098659233
 20
7.278417723
 30
0.0
 10
9.7866013399
 20
7.3007631075
 30
0.0
 10
9.7649168793
 20
7.3246463724
 30
0.0
 10
9.7449287891
 20
7.3499395093
 30
0.0
 10
9.7267442604
 20
7.3765069754
 30
0.0
 10
9.7104608583
 20
7.4042064096
 30
0.0
 10
9.6961660051
 20
7.4328893915
 30
0.0
 10
9.6839364879
 20
7.4624022
 30
0.0
 10
9.6738380874
 20
7.4925867033
 30
0.0
 10
9.6659251553
 20
7.5232809626
 30
0.0
 10
9.6602404998
 20
7.5543209374
 30
0.0
 10
9.6568147811
 20
7.5855380266
 30
0.0
 10
9.6560475975
 20
7.6064138419
 30
0.0
 10
9.6560475975
 20
7.6168218111
 30
0.0
  0
SPLINE
  5
387
100
AcDbEntity
  8
0
100
AcDbSpline
 62
7
  6
CONTINUOUS
 70
0
 71
3
 72
42
 73
38
 74
0
 42
0.0000001
 43
0.0000001
 44
0.0000000001
 40
0.0
 40
0.0
 40
0.0
 40
0.0
 40
0.0299419647
 40
0.0449235338
 40
0.0599142029
 40
0.0899287018
 40
0.1200139723
 40
0.135092657
 40
0.1501966957
 40
0.1804840357
 40
0.2108978664
 40
0.2414513269
 40
0.2721543325
 40
0.3030133939
 40
0.3340315221
 40
0.3652082149
 40
0.3965395206
 40
0.4280181743
 40
0.4596337976
 40
0.491373156
 40
0.5232204661
 40
0.5551577438
 40
0.5871651879
 40
0.6192215897
 40
0.6513047642
 40
0.683391994
 40
0.7154604812
 40
0.7474878002
 40
0.7794523457
 40
0.811333768
 40
0.8431133934
 40
0.8747746119
 40
0.9063032554
 40
0.937687875
 40
0.9533257298
 40
0.9689253383
 40
1.0
 40
1.0
 40
1.0
 40
1.0
 10
10.2520849967
 20
7.4258226259
 30
0.0
 10
10.2481864123
 20
7.422056908
 30
0.0
 10
10.2421087893
 20
7.4166364531
 30
0.0
 10
10.2335971787
 20
7.4099108686
 30
0.0
 10
10.2248144988
 20
7.4035199772
 30
0.0
 10
10.213354558
 20
7.3961811323
 30
0.0
 10
10.201337405
 20
7.3897617829
 30
0.0
 10
10.1914263833
 20
7.3851950058
 30
0.0
 10
10.1813106009
 20
7.3810052741
 30
0.0
 10
10.168332528
 20
7.3765000746
 30
0.0
 10
10.1523390034
 20
7.372301343
 30
0.0
 10
10.1359964935
 20
7.3693268394
 30
0.0
 10
10.1193955631
 20
7.3675929817
 30
0.0
 10
10.102627406
 20
7.3671090209
 30
0.0
 10
10.0857842853
 20
7.3678774209
 30
0.0
 10
10.0689587753
 20
7.3698937429
 30
0.0
 10
10.0522433251
 20
7.3731467099
 30
0.0
 10
10.0357297384
 20
7.3776182685
 30
0.0
 10
10.0195086812
 20
7.3832836957
 30
0.0
 10
10.0036691894
 20
7.3901117383
 30
0.0
 10
9.9882981875
 20
7.3980647868
 30
0.0
 10
9.9734800184
 20
7.4070990831
 30
0.0
 10
9.959295986
 20
7.4171649604
 30
0.0
 10
9.9458239159
 20
7.4282071144
 30
0.0
 10
9.9331377323
 20
7.4401649047
 30
0.0
 10
9.9213070576
 20
7.4529726853
 30
0.0
 10
9.9103968343
 20
7.4665601607
 30
0.0
 10
9.9004669714
 20
7.4808527695
 30
0.0
 10
9.89157202
 20
7.4957720841
 30
0.0
 10
9.8837608722
 20
7.5112362532
 30
0.0
 10
9.8770765049
 20
7.5271603819
 30
0.0
 10
9.8715557101
 20
7.5434572293
 30
0.0
 10
9.8672290088
 20
7.5600367955
 30
0.0
 10
9.8646350393
 20
7.574031739
 30
0.0
 10
9.8631799086
 20
7.5852765293
 30
0.0
 10
9.8621414194
 20
7.5965105546
 30
0.0
 10
9.8618269685
 20
7.604964089
 30
0.0
 10
9.8618269685
 20
7.6105894319
 30
0.0
  0
SPLINE
  5
388
100
AcDbEntity
  8
0
100
AcDbSpline
 62
7
  6
CONTINUOUS
 70
0
 71
3
 72
37
 73
33
 74
0
 42
0.0000001
 43
0.0000001
 44
0.0000000001
 40
0.0
 40
0.0
 40
0.0
 40
0.0
 40
0.0301489243
 40
0.0604089242
 40
0.090786919
 40
0.1212880554
 40
0.1519156555
 40
0.1826711883
 40
0.2135542685
 40
0.2445626811
 40
0.2756924395
 40
0.3069378662
 40
0.3382916881
 40
0.369745149
 40
0.4012881394
 40
0.4329093484
 40
0.4645964283
 40
0.4963361613
 40
0.5598923676
 40
0.6234868049
 40
0.6552738102
 40
0.6870262066
 40
0.7187299109
 40
0.750371483
 40
0.7819383031
 40
0.8134187562
 40
0.8448023605
 40
0.8760799326
 40
0.907243931
 40
0.9382875033
 40
0.9692080309
 40
1.0
 40
1.0
 40
1.0
 40
1.0
 10
10.3043769304
 20
7.508881695
 30
0.0
 10
10.3001020687
 20
7.507605255
 30
0.0
 10
10.2914539328
 20
7.5053158602
 30
0.0
 10
10.2782701865
 20
7.5026905643
 30
0.0
 10
10.2648974875
 20
7.5008766887
 30
0.0
 10
10.2513848249
 20
7.4998809056
 30
0.0
 10
10.2377808354
 20
7.4997066741
 30
0.0
 10
10.2241346965
 20
7.5003545673
 30
0.0
 10
10.210495667
 20
7.5018221895
 30
0.0
 10
10.1969129865
 20
7.5041041755
 30
0.0
 10
10.1834356702
 20
7.5071922003
 30
0.0
 10
10.1701123452
 20
7.5110750539
 30
0.0
 10
10.1569910736
 20
7.5157386749
 30
0.0
 10
10.144119199
 20
7.5211661981
 30
0.0
 10
10.1315431247
 20
7.527338029
 30
0.0
 10
10.1193083005
 20
7.5342317499
 30
0.0
 10
10.1074584575
 20
7.5418228112
 30
0.0
 10
10.0922257717
 20
7.5528394124
 30
0.0
 10
10.0743629678
 20
7.5682090115
 30
0.0
 10
10.0583279663
 20
7.5854863195
 30
0.0
 10
10.0467292911
 20
7.6003088874
 30
0.0
 10
10.0386766338
 20
7.6118851477
 30
0.0
 10
10.0313004235
 20
7.6238780436
 30
0.0
 10
10.024626904
 20
7.6362446888
 30
0.0
 10
10.0186802667
 20
7.648940381
 30
0.0
 10
10.0134819757
 20
7.6619193632
 30
0.0
 10
10.0090508481
 20
7.6751348142
 30
0.0
 10
10.005402911
 20
7.6885390996
 30
0.0
 10
10.0025514472
 20
7.7020837408
 30
0.0
 10
10.0005066039
 20
7.7157202102
 30
0.0
 10
9.9992761193
 20
7.7293984416
 30
0.0
 10
9.9990009492
 20
7.7385328133
 30
0.0
 10
9.9990009492
 20
7.7430893304
 30
0.0
  0
SPLINE
  5
389
100
AcDbEntity
  8
0
100
AcDbSpline
 62
7
  6
CONTINUOUS
 70
0
 71
3
 72
21
 73
17
 74
0
 42
0.0000001
 43
0.0000001
 44
0.0000000001
 40
0.0
 40
0.0
 40
0.0
 40
0.0
 40
0.0616941334
 40
0.1234196559
 40
0.1851957625
 40
0.2470411722
 40
0.3089739576
 40
0.3710113661
 40
0.4331696576
 40
0.4954639692
 40
0.5579081973
 40
0.6205148568
 40
0.6832948893
 40
0.746257947
 40
0.872726355
 40
1.0
 40
1.0
 40
1.0
 40
1.0
 10
9.7672086154
 20
7.8956990909
 30
0.0
 10
9.7627900336
 20
7.8911666395
 30
0.0
 10
9.7541738752
 20
7.8818786562
 30
0.0
 10
9.7419522398
 20
7.8673199127
 30
0.0
 10
9.7304558519
 20
7.8521618677
 30
0.0
 10
9.7197096998
 20
7.8364374557
 30
0.0
 10
9.7097366596
 20
7.820180229
 30
0.0
 10
9.7005581466
 20
7.8034250041
 30
0.0
 10
9.6921937487
 20
7.7862076707
 30
0.0
 10
9.6846613148
 20
7.7685651183
 30
0.0
 10
9.6779769595
 20
7.7505350718
 30
0.0
 10
9.6721550149
 20
7.7321562421
 30
0.0
 10
9.6672077845
 20
7.7134675351
 30
0.0
 10
9.6617845643
 20
7.6881566194
 30
0.0
 10
9.6572488201
 20
7.6559297883
 30
0.0
 10
9.6560475975
 20
7.6298801497
 30
0.0
 10
9.6560475975
 20
7.6168218111
 30
0.0
  0
SPLINE
  5
38A
100
AcDbEntity
  8
0
100
AcDbSpline
 62
7
  6
CONTINUOUS
 70
0
 71
3
 72
15
 73
11
 74
0
 42
0.0000001
 43
0.0000001
 44
0.0000000001
 40
0.0
 40
0.0
 40
0.0
 40
0.0
 40
0.1234394214
 40
0.2470466251
 40
0.3709825631
 40
0.4953948794
 40
0.6204121513
 40
0.7461393297
 40
0.8726517112
 40
1.0
 40
1.0
 40
1.0
 40
1.0
 10
9.9255541056
 20
7.7638722597
 30
0.0
 10
9.9205082451
 20
7.7589983657
 30
0.0
 10
9.9109048426
 20
7.7487159144
 30
0.0
 10
9.8981504688
 20
7.7318830814
 30
0.0
 10
9.8871534924
 20
7.7137859418
 30
0.0
 10
9.8780172813
 20
7.69459407
 30
0.0
 10
9.8708251813
 20
7.6744846638
 30
0.0
 10
9.8656431553
 20
7.6536431742
 30
0.0
 10
9.8625180143
 20
7.6322645223
 30
0.0
 10
9.8618269685
 20
7.6178269625
 30
0.0
 10
9.8618269685
 20
7.6105894319
 30
0.0
  0
SPLINE
  5
38B
100
AcDbEntity
  8
0
100
AcDbSpline
 62
7
  6
CONTINUOUS
 70
0
 71
3
 72
11
 73
7
 74
0
 42
0.0000001
 43
0.0000001
 44
0.0000000001
 40
0.0
 40
0.0
 40
0.0
 40
0.0
 40
0.2480713806
 40
0.4973766969
 40
0.7480007058
 40
1.0
 40
1.0
 40
1.0
 40
1.0
 10
10.0103682367
 20
7.8132330831
 30
0.0
 10
10.0084857864
 20
7.8076412662
 30
0.0
 10
10.005175582
 20
7.7962676603
 30
0.0
 10
10.0016173383
 20
7.7788171369
 30
0.0
 10
9.9994748842
 20
7.7610429842
 30
0.0
 10
9.9990009492
 20
7.7490829251
 30
0.0
 10
9.9990009492
 20
7.7430893304
 30
0.0
  0
SPLINE
  5
38C
100
AcDbEntity
  8
0
100
AcDbSpline
 62
7
  6
CONTINUOUS
 70
0
 71
3
 72
37
 73
33
 74
0
 42
0.0000001
 43
0.0000001
 44
0.0000000001
 40
0.0
 40
0.0
 40
0.0
 40
0.0
 40
0.0300795458
 40
0.0602648057
 40
0.090564999
 40
0.1209874843
 40
0.1515376611
 40
0.1822189057
 40
0.2130325412
 40
0.2439778462
 40
0.275052097
 40
0.306250632
 40
0.3375669407
 40
0.3689927776
 40
0.4005183013
 40
0.4321322393
 40
0.4638220589
 40
0.4955741519
 40
0.5591797143
 40
0.6228531714
 40
0.6546891465
 40
0.686494759
 40
0.7182547677
 40
0.749954575
 40
0.7815804288
 40
0.8131196342
 40
0.8445607126
 40
0.8758935772
 40
0.907109934
 40
0.9382022864
 40
0.9691675786
 40
1.0
 40
1.0
 40
1.0
 40
1.0
 10
10.312003531
 20
7.538695239
 30
0.0
 10
10.3081395183
 20
7.5372546024
 30
0.0
 10
10.3003013232
 20
7.5346202367
 30
0.0
 10
10.2882927696
 20
7.5314325425
 30
0.0
 10
10.27605771
 20
7.5290135215
 30
0.0
 10
10.2636440003
 20
7.5273726761
 30
0.0
 10
10.2510993467
 20
7.5265161895
 30
0.0
 10
10.2384721674
 20
7.5264473195
 30
0.0
 10
10.2258111277
 20
7.5271662528
 30
0.0
 10
10.213165023
 20
7.528670122
 30
0.0
 10
10.200582571
 20
7.5309530538
 30
0.0
 10
10.1881122348
 20
7.5340061865
 30
0.0
 10
10.1758020363
 20
7.5378177109
 30
0.0
 10
10.1636993875
 20
7.5423728994
 30
0.0
 10
10.1518508471
 20
7.5476541641
 30
0.0
 10
10.1403021245
 20
7.5536410282
 30
0.0
 10
10.1290972768
 20
7.5603107429
 30
0.0
 10
10.1146688095
 20
7.5700827012
 30
0.0
 10
10.097710835
 20
7.5838693398
 30
0.0
 10
10.0824533851
 20
7.5995328428
 30
0.0
 10
10.0713999766
 20
7.6130521076
 30
0.0
 10
10.0637177327
 20
7.6236470703
 30
0.0
 10
10.05667481
 20
7.6346547625
 30
0.0
 10
10.0502979564
 20
7.6460331709
 30
0.0
 10
10.0446118458
 20
7.6577384021
 30
0.0
 10
10.0396383835
 20
7.6697254311
 30
0.0
 10
10.0353967882
 20
7.6819481069
 30
0.0
 10
10.0319034242
 20
7.6943594062
 30
0.0
 10
10.0291718696
 20
7.7069114265
 30
0.0
 10
10.0272125108
 20
7.7195561597
 30
0.0
 10
10.0260332493
 20
7.7322440693
 30
0.0
 10
10.0257694694
 20
7.7407186828
 30
0.0
 10
10.0257694694
 20
7.7449457369
 30
0.0
  0
SPLINE
  5
38D
100
AcDbEntity
  8
0
100
AcDbSpline
 62
7
  6
CONTINUOUS
 70
0
 71
3
 72
41
 73
37
 74
0
 42
0.0000001
 43
0.0000001
 44
0.0000000001
 40
0.0
 40
0.0
 40
0.0
 40
0.0
 40
0.0299421238
 40
0.0449237703
 40
0.059914519
 40
0.0899291762
 40
0.1200146048
 40
0.1350933663
 40
0.1501974853
 40
0.1804849834
 40
0.2108989722
 40
0.2414525913
 40
0.2721557558
 40
0.3030149766
 40
0.3340332647
 40
0.365210118
 40
0.396541585
 40
0.4280204007
 40
0.4596361866
 40
0.4913757084
 40
0.5232231826
 40
0.5551606251
 40
0.5871682346
 40
0.6192248024
 40
0.6513081434
 40
0.68339554
 40
0.7154641944
 40
0.7474916807
 40
0.7794563937
 40
0.8113379827
 40
0.8431177771
 40
0.8747791563
 40
0.9063079829
 40
0.9376927254
 40
0.9689252285
 40
1.0
 40
1.0
 40
1.0
 40
1.0
 10
11.7889941142
 20
10.0957677015
 30
0.0
 10
11.785493695
 20
10.0923865499
 30
0.0
 10
11.7800367714
 20
10.0875196562
 30
0.0
 10
11.7723944071
 20
10.0814809611
 30
0.0
 10
11.7645087152
 20
10.0757426992
 30
0.0
 10
11.7542191378
 20
10.0691533565
 30
0.0
 10
11.7434292799
 20
10.0633895617
 30
0.0
 10
11.7345304347
 20
10.0592891915
 30
0.0
 10
11.7254477644
 20
10.0555273052
 30
0.0
 10
11.7137951034
 20
10.0514822069
 30
0.0
 10
11.6994349574
 20
10.0477122576
 30
0.0
 10
11.6847614631
 20
10.0450415158
 30
0.0
 10
11.6698559396
 20
10.0434847153
 30
0.0
 10
11.6548002665
 20
10.0430501646
 30
0.0
 10
11.6396772847
 20
10.0437400752
 30
0.0
 10
11.6245701141
 20
10.0455504618
 30
0.0
 10
11.6095617623
 20
10.0484711993
 30
0.0
 10
11.5947346576
 20
10.0524860779
 30
0.0
 10
11.5801702064
 20
10.0575728994
 30
0.0
 10
11.5659483517
 20
10.0637036025
 30
0.0
 10
11.5521471409
 20
10.0708444187
 30
0.0
 10
11.538842303
 20
10.078956059
 30
0.0
 10
11.526106839
 20
10.0879939287
 30
0.0
 10
11.514010626
 20
10.0979083716
 30
0.0
 10
11.502620039
 20
10.1086449406
 30
0.0
 10
11.4919975901
 20
10.1201446936
 30
0.0
 10
11.4822015894
 20
10.1323445147
 30
0.0
 10
11.4732858278
 20
10.1451774564
 30
0.0
 10
11.4652992854
 20
10.158573103
 30
0.0
 10
11.4582858612
 20
10.1724579542
 30
0.0
 10
11.4522841425
 20
10.1867558149
 30
0.0
 10
11.4473271711
 20
10.2013882442
 30
0.0
 10
11.4434423103
 20
10.2162748396
 30
0.0
 10
11.4406509984
 20
10.2313341895
 30
0.0
 10
11.4389687793
 20
10.2464824598
 30
0.0
 10
11.4385919827
 20
10.2566136519
 30
0.0
 10
11.4385919827
 20
10.2616644864
 30
0.0
  0
SPLINE
  5
38E
100
AcDbEntity
  8
0
100
AcDbSpline
 62
7
  6
CONTINUOUS
 70
0
 71
3
 72
41
 73
37
 74
0
 42
0.0000001
 43
0.0000001
 44
0.0000000001
 40
0.0
 40
0.0
 40
0.0
 40
0.0
 40
0.0299421238
 40
0.0449237703
 40
0.059914519
 40
0.0899291762
 40
0.1200146048
 40
0.1350933663
 40
0.1501974853
 40
0.1804849834
 40
0.2108989722
 40
0.2414525913
 40
0.2721557558
 40
0.3030149766
 40
0.3340332647
 40
0.365210118
 40
0.396541585
 40
0.4280204007
 40
0.4596361866
 40
0.4913757084
 40
0.5232231826
 40
0.5551606251
 40
0.5871682346
 40
0.6192248024
 40
0.6513081434
 40
0.68339554
 40
0.7154641944
 40
0.7474916807
 40
0.7794563937
 40
0.8113379827
 40
0.8431177771
 40
0.8747791563
 40
0.9063079829
 40
0.9376927254
 40
0.9689252285
 40
1.0
 40
1.0
 40
1.0
 40
1.0
 10
9.8571423472
 20
5.8830756007
 30
0.0
 10
9.8536419279
 20
5.8796944492
 30
0.0
 10
9.8481850043
 20
5.8748275554
 30
0.0
 10
9.8405426401
 20
5.8687888603
 30
0.0
 10
9.8326569482
 20
5.8630505985
 30
0.0
 10
9.8223673708
 20
5.8564612557
 30
0.0
 10
9.8115775129
 20
5.850697461
 30
0.0
 10
9.8026786677
 20
5.8465970907
 30
0.0
 10
9.7935959974
 20
5.8428352044
 30
0.0
 10
9.7819433363
 20
5.8387901061
 30
0.0
 10
9.7675831903
 20
5.8350201568
 30
0.0
 10
9.7529096961
 20
5.832349415
 30
0.0
 10
9.7380041726
 20
5.8307926145
 30
0.0
 10
9.7229484994
 20
5.8303580638
 30
0.0
 10
9.7078255177
 20
5.8310479744
 30
0.0
 10
9.6927183471
 20
5.8328583611
 30
0.0
 10
9.6777099953
 20
5.8357790986
 30
0.0
 10
9.6628828905
 20
5.8397939771
 30
0.0
 10
9.6483184393
 20
5.8448807986
 30
0.0
 10
9.6340965847
 20
5.8510115017
 30
0.0
 10
9.6202953739
 20
5.858152318
 30
0.0
 10
9.606990536
 20
5.8662639582
 30
0.0
 10
9.5942550719
 20
5.8753018279
 30
0.0
 10
9.582158859
 20
5.8852162709
 30
0.0
 10
9.570768272
 20
5.8959528398
 30
0.0
 10
9.560145823
 20
5.9074525929
 30
0.0
 10
9.5503498223
 20
5.919652414
 30
0.0
 10
9.5414340607
 20
5.9324853556
 30
0.0
 10
9.5334475184
 20
5.9458810022
 30
0.0
 10
9.5264340942
 20
5.9597658534
 30
0.0
 10
9.5204323754
 20
5.9740637142
 30
0.0
 10
9.5154754041
 20
5.9886961435
 30
0.0
 10
9.5115905432
 20
6.0035827388
 30
0.0
 10
9.5087992314
 20
6.0186420888
 30
0.0
 10
9.5071170122
 20
6.033790359
 30
0.0
 10
9.5067402157
 20
6.0439215511
 30
0.0
 10
9.5067402157
 20
6.0489723857
 30
0.0
  0
SPLINE
  5
38F
100
AcDbEntity
  8
0
100
AcDbSpline
 62
7
  6
CONTINUOUS
 70
0
 71
3
 72
39
 73
35
 74
0
 42
0.0000001
 43
0.0000001
 44
0.0000000001
 40
0.0
 40
0.0
 40
0.0
 40
0.0
 40
0.0313282059
 40
0.0628640942
 40
0.0945965877
 40
0.1265062002
 40
0.1585673757
 40
0.1907491061
 40
0.2230161157
 40
0.2553301378
 40
0.2876512689
 40
0.3199393595
 40
0.3521554099
 40
0.3842629361
 40
0.4162292812
 40
0.448026822
 40
0.4796340311
 40
0.5110363786
 40
0.5422270037
 40
0.5732071178
 40
0.6039861352
 40
0.6345814565
 40
0.6650179101
 40
0.6953268686
 40
0.7255450246
 40
0.7557129008
 40
0.7858731607
 40
0.8160687889
 40
0.8463412674
 40
0.8767288224
 40
0.9072648596
 40
0.9379766752
 40
0.9688840277
 40
1.0
 40
1.0
 40
1.0
 40
1.0
 10
10.3370253454
 20
7.5695958439
 30
0.0
 10
10.3370253454
 20
7.577997612
 30
0.0
 10
10.3361940428
 20
7.5948680509
 30
0.0
 10
10.3324950855
 20
7.6200039526
 30
0.0
 10
10.3263765857
 20
7.6448252718
 30
0.0
 10
10.3178978354
 20
7.6690904766
 30
0.0
 10
10.3071410452
 20
7.6925674825
 30
0.0
 10
10.2942099378
 20
7.7150307944
 30
0.0
 10
10.2792289373
 20
7.7362649311
 30
0.0
 10
10.2623421389
 20
7.756066214
 30
0.0
 10
10.2437116773
 20
7.7742446049
 30
0.0
 10
10.2235163311
 20
7.7906255271
 30
0.0
 10
10.2019499215
 20
7.8050516631
 30
0.0
 10
10.1792192926
 20
7.8173841947
 30
0.0
 10
10.1555425057
 20
7.8275042582
 30
0.0
 10
10.1311468061
 20
7.8353141924
 30
0.0
 10
10.1062663874
 20
7.8407382022
 30
0.0
 10
10.0811403006
 20
7.8437233249
 30
0.0
 10
10.0560101743
 20
7.8442400296
 30
0.0
 10
10.0311179261
 20
7.8422822818
 30
0.0
 10
10.0067034977
 20
7.8378679601
 30
0.0
 10
9.9830025003
 20
7.8310387459
 30
0.0
 10
9.9602439975
 20
7.8218595818
 30
0.0
 10
9.9386481633
 20
7.8104184441
 30
0.0
 10
9.9184240528
 20
7.7968254488
 30
0.0
 10
9.8997676066
 20
7.7812116583
 30
0.0
 10
9.8828594501
 20
7.763728088
 30
0.0
 10
9.8678631117
 20
7.744544016
 30
0.0
 10
9.8549235133
 20
7.7238452105
 30
0.0
 10
9.8441652579
 20
7.7018321288
 30
0.0
 10
9.8356916033
 20
7.6787180453
 30
0.0
 10
9.8295837025
 20
7.6547256635
 30
0.0
 10
9.8258993108
 20
7.6300897275
 30
0.0
 10
9.8250846271
 20
7.6134439034
 30
0.0
 10
9.8250846271
 20
7.6050990533
 30
0.0
  0
SPLINE
  5
390
100
AcDbEntity
  8
0
100
AcDbSpline
 62
7
  6
CONTINUOUS
 70
0
 71
3
 72
96
 73
92
 74
0
 42
0.0000001
 43
0.0000001
 44
0.0000000001
 40
0.0
 40
0.0
 40
0.0
 40
0.0
 40
0.0041939316
 40
0.0085762345
 40
0.013152003
 40
0.0179255449
 40
0.0229003899
 40
0.028079114
 40
0.0334634814
 40
0.0390546174
 40
0.0448530487
 40
0.0508588133
 40
0.0570714153
 40
0.0634899863
 40
0.0701132126
 40
0.0769394782
 40
0.0911924452
 40
0.106230225
 40
0.1220294542
 40
0.1385631596
 40
0.1558011816
 40
0.1737105227
 40
0.1922556429
 40
0.2113987135
 40
0.2310998424
 40
0.2513172786
 40
0.2720075998
 40
0.2931258902
 40
0.3146259089
 40
0.3364602524
 40
0.3585805127
 40
0.3809374316
 40
0.403481054
 40
0.4261608788
 40
0.448926009
 40
0.4717252998
 40
0.4945075078
 40
0.5172214391
 40
0.5398160975
 40
0.5622408333
 40
0.5844454926
 40
0.6063805682
 40
0.6279973515
 40
0.6492480868
 40
0.6700861278
 40
0.6904660986
 40
0.71034406
 40
0.7296776834
 40
0.7484264352
 40
0.7665517753
 40
0.784017374
 40
0.8007893558
 40
0.8168365794
 40
0.8321309665
 40
0.8466478974
 40
0.8536084442
 40
0.8603672305
 40
0.8669224159
 40
0.8732724484
 40
0.8794161974
 40
0.8853528757
 40
0.8910821966
 40
0.8966043164
 40
0.9019199782
 40
0.9070305177
 40
0.9119379708
 40
0.9166451672
 40
0.9211558019
 40
0.9254746195
 40
0.9296074693
 40
0.9335615598
 40
0.9373455275
 40
0.9409697109
 40
0.9444462469
 40
0.9477892843
 40
0.9510150563
 40
0.9541419216
 40
0.9571902812
 40
0.9601823271
 40
0.9631416682
 40
0.96609277
 40
0.9690603222
 40
0.9720685747
 40
0.9751407154
 40
0.9782983899
 40
0.9815613165
 40
0.9849471215
 40
0.9884713722
 40
0.9921476341
 40
0.9959874035
 40
1.0
 40
1.0
 40
1.0
 40
1.0
 10
9.5965096912
 20
11.8110161405
 30
0.0
 10
9.5983019654
 20
11.8127473445
 30
0.0
 10
9.6020561348
 20
11.8161961649
 30
0.0
 10
9.6080436004
 20
11.8212210167
 30
0.0
 10
9.6145050641
 20
11.8262059206
 30
0.0
 10
9.6214363311
 20
11.8311478095
 30
0.0
 10
9.6288334273
 20
11.8360439095
 30
0.0
 10
9.6366920042
 20
11.8408914429
 30
0.0
 10
9.6450074227
 20
11.8456875585
 30
0.0
 10
9.653774747
 20
11.8504293742
 30
0.0
 10
9.6629887446
 20
11.8551141395
 30
0.0
 10
9.6726439592
 20
11.8597389903
 30
0.0
 10
9.6827346087
 20
11.8643012559
 30
0.0
 10
9.6932546874
 20
11.8687980942
 30
0.0
 10
9.7041978944
 20
11.8732269391
 30
0.0
 10
9.719566149
 20
11.8791226718
 30
0.0
 10
9.7397992429
 20
11.8862848885
 30
0.0
 10
9.7653195856
 20
11.8944479121
 30
0.0
 10
9.7923573284
 20
11.9022786698
 30
0.0
 10
9.8208476017
 20
11.9097581814
 30
0.0
 10
9.8507222884
 20
11.9168682986
 30
0.0
 10
9.881909737
 20
11.9235917655
 30
0.0
 10
9.914335095
 20
11.9299122639
 30
0.0
 10
9.9479204658
 20
11.9358144562
 30
0.0
 10
9.9825851203
 20
11.9412840236
 30
0.0
 10
10.0182456968
 20
11.9463077006
 30
0.0
 10
10.05481641
 20
11.9508733064
 30
0.0
 10
10.0922092624
 20
11.9549697741
 30
0.0
 10
10.1303342605
 20
11.9585871764
 30
0.0
 10
10.1690996346
 20
11.9617167485
 30
0.0
 10
10.2084120623
 20
11.9643509089
 30
0.0
 10
10.2481768957
 20
11.9664832782
 30
0.0
 10
10.2882983907
 20
11.9681086934
 30
0.0
 10
10.3286799405
 20
11.9692232194
 30
0.0
 10
10.369224309
 20
11.969824158
 30
0.0
 10
10.4098338667
 20
11.9699100546
 30
0.0
 10
10.4504108261
 20
11.9694807012
 30
0.0
 10
10.4908574787
 20
11.9685371372
 30
0.0
 10
10.5310764311
 20
11.9670816466
 30
0.0
 10
10.5709708406
 20
11.9651177533
 30
0.0
 10
10.6104446498
 20
11.9626502121
 30
0.0
 10
10.6494028195
 20
11.9596849983
 30
0.0
 10
10.6877515601
 20
11.9562292947
 30
0.0
 10
10.7253985593
 20
11.9522914736
 30
0.0
 10
10.7622532071
 20
11.9478810775
 30
0.0
 10
10.7982268162
 20
11.9430087961
 30
0.0
 10
10.8332328402
 20
11.9376864418
 30
0.0
 10
10.8671870862
 20
11.931926922
 30
0.0
 10
10.9000079249
 20
11.9257442081
 30
0.0
 10
10.9316164925
 20
11.9191533021
 30
0.0
 10
10.9619369021
 20
11.9121701999
 30
0.0
 10
10.990896405
 20
11.9048118495
 30
0.0
 10
11.0184257145
 20
11.8970961085
 30
0.0
 10
11.0444587512
 20
11.8890416822
 30
0.0
 10
11.0651344336
 20
11.8819681341
 30
0.0
 10
11.0808672311
 20
11.8761404138
 30
0.0
 10
11.0920889071
 20
11.8717584357
 30
0.0
 10
11.1028917923
 20
11.8673066788
 30
0.0
 10
11.1132694157
 20
11.8627876945
 30
0.0
 10
11.1232155935
 20
11.8582042977
 30
0.0
 10
11.1327243621
 20
11.8535591347
 30
0.0
 10
11.1417900803
 20
11.8488550679
 30
0.0
 10
11.1504073312
 20
11.8440948236
 30
0.0
 10
11.1585710156
 20
11.8392812715
 30
0.0
 10
11.1662762903
 20
11.834417223
 30
0.0
 10
11.1735185941
 20
11.829505513
 30
0.0
 10
11.1802936767
 20
11.824549023
 30
0.0
 10
11.1865975015
 20
11.8195505198
 30
0.0
 10
11.1924264082
 20
11.814512913
 30
0.0
 10
11.1977768581
 20
11.8094388846
 30
0.0
 10
11.2026457298
 20
11.8043313081
 30
0.0
 10
11.2070299337
 20
11.7991927959
 30
0.0
 10
11.2109267636
 20
11.7940261403
 30
0.0
 10
11.2143334985
 20
11.7888339625
 30
0.0
 10
11.2172476721
 20
11.7836190431
 30
0.0
 10
11.2196668634
 20
11.7783842145
 30
0.0
 10
11.2215887628
 20
11.7731325216
 30
0.0
 10
11.2230113728
 20
11.7678673367
 30
0.0
 10
11.223932813
 20
11.762592333
 30
0.0
 10
11.2243519926
 20
11.757311587
 30
0.0
 10
11.2242681047
 20
11.7520293811
 30
0.0
 10
11.2236814789
 20
11.7467500773
 30
0.0
 10
11.2225927705
 20
11.7414779229
 30
0.0
 10
11.2210035693
 20
11.7362168258
 30
0.0
 10
11.2189156321
 20
11.7309704034
 30
0.0
 10
11.2163312046
 20
11.7257418922
 30
0.0
 10
11.2132526186
 20
11.7205342561
 30
0.0
 10
11.2096822372
 20
11.7153502851
 30
0.0
 10
11.2056225622
 20
11.7101925876
 30
0.0
 10
11.2010765151
 20
11.7050642102
 30
0.0
 10
11.1977977351
 20
11.701741709
 30
0.0
 10
11.1960829544
 20
11.7000853579
 30
0.0
  0
SPLINE
  5
391
100
AcDbEntity
  8
0
100
AcDbSpline
 62
7
  6
CONTINUOUS
 70
0
 71
3
 72
28
 73
24
 74
0
 42
0.0000001
 43
0.0000001
 44
0.0000000001
 40
0.0
 40
0.0
 40
0.0
 40
0.0
 40
0.0749524859
 40
0.1455492802
 40
0.2121320353
 40
0.2751267841
 40
0.3350538581
 40
0.392531217
 40
0.4205832565
 40
0.4482964977
 40
0.4757714291
 40
0.5031113638
 40
0.5304213313
 40
0.5578067258
 40
0.5853719828
 40
0.6132193785
 40
0.6414477519
 40
0.6701516201
 40
0.7293157367
 40
0.7913812992
 40
0.8568968395
 40
0.9263174188
 40
1.0
 40
1.0
 40
1.0
 40
1.0
 10
9.5985742484
 20
11.6981282562
 30
0.0
 10
9.5961832658
 20
11.7003533061
 30
0.0
 10
9.5916728069
 20
11.7048204327
 30
0.0
 10
9.5855867592
 20
11.7117897599
 30
0.0
 10
9.5803969874
 20
11.7188142581
 30
0.0
 10
9.5761111722
 20
11.7258880429
 30
0.0
 10
9.5727365807
 20
11.7330040189
 30
0.0
 10
9.5706731591
 20
11.7390139298
 30
0.0
 10
9.5695014211
 20
11.7438102008
 30
0.0
 10
9.5688595681
 20
11.7473827286
 30
0.0
 10
9.56844812
 20
11.7509577911
 30
0.0
 10
9.5682672342
 20
11.7545343717
 30
0.0
 10
9.5683170545
 20
11.7581112764
 30
0.0
 10
9.5685974744
 20
11.761687347
 30
0.0
 10
9.5691083851
 20
11.7652614407
 30
0.0
 10
9.5698496082
 20
11.7688323881
 30
0.0
 10
9.5708208186
 20
11.772399197
 30
0.0
 10
9.5724377432
 20
11.7771955131
 30
0.0
 10
9.5750594102
 20
11.7831958865
 30
0.0
 10
9.5790868991
 20
11.7902818659
 30
0.0
 10
9.5840206357
 20
11.7973212084
 30
0.0
 10
9.5898527241
 20
11.8043066237
 30
0.0
 10
9.5942003097
 20
11.8087854491
 30
0.0
 10
9.5965096912
 20
11.8110161405
 30
0.0
  0
SPLINE
  5
392
100
AcDbEntity
  8
0
100
AcDbSpline
 62
7
  6
CONTINUOUS
 70
0
 71
3
 72
15
 73
11
 74
0
 42
0.0000001
 43
0.0000001
 44
0.0000000001
 40
0.0
 40
0.0
 40
0.0
 40
0.0
 40
0.127348315
 40
0.2538606239
 40
0.3795878599
 40
0.5046051181
 40
0.6290174391
 40
0.7529533757
 40
0.8765605793
 40
1.0
 40
1.0
 40
1.0
 40
1.0
 10
11.4385919827
 20
10.2616644864
 30
0.0
 10
11.4385919827
 20
10.2681628524
 30
0.0
 10
11.4392124482
 20
10.2811259082
 30
0.0
 10
11.4420184206
 20
10.3003211679
 30
0.0
 10
11.446671201
 20
10.3190341246
 30
0.0
 10
11.4531287502
 20
10.3370897766
 30
0.0
 10
11.461331864
 20
10.3543216003
 30
0.0
 10
11.4712057193
 20
10.3705704894
 30
0.0
 10
11.4826574734
 20
10.3856842073
 30
0.0
 10
11.491280064
 20
10.3949165335
 30
0.0
 10
11.4958105741
 20
10.3992926782
 30
0.0
  0
SPLINE
  5
393
100
AcDbEntity
  8
0
100
AcDbSpline
 62
7
  6
CONTINUOUS
 70
0
 71
3
 72
11
 73
7
 74
0
 42
0.0000001
 43
0.0000001
 44
0.0000000001
 40
0.0
 40
0.0
 40
0.0
 40
0.0
 40
0.2523615167
 40
0.5030745161
 40
0.7522385162
 40
1.0
 40
1.0
 40
1.0
 40
1.0
 10
10.0257694694
 20
7.7449457369
 30
0.0
 10
10.0257694694
 20
7.7514109295
 30
0.0
 10
10.0263835792
 20
7.7643078381
 30
0.0
 10
10.0291611128
 20
7.7834078751
 30
0.0
 10
10.0337661172
 20
7.8020304494
 30
0.0
 10
10.0380402552
 20
7.8140486144
 30
0.0
 10
10.0404648311
 20
7.8199146374
 30
0.0
  0
SPLINE
  5
394
100
AcDbEntity
  8
0
100
AcDbSpline
 62
7
  6
CONTINUOUS
 70
0
 71
3
 72
70
 73
66
 74
0
 42
0.0000001
 43
0.0000001
 44
0.0000000001
 40
0.0
 40
0.0
 40
0.0
 40
0.0
 40
0.0027164666
 40
0.0054533041
 40
0.0082304067
 40
0.0110667261
 40
0.0139799562
 40
0.0169862953
 40
0.023331396
 40
0.0266977803
 40
0.0302057471
 40
0.0338636886
 40
0.0376786857
 40
0.0416566747
 40
0.0458026393
 40
0.050120601
 40
0.0546138137
 40
0.0592848743
 40
0.0641356829
 40
0.0743808629
 40
0.0853558462
 40
0.0970598015
 40
0.109486676
 40
0.122626049
 40
0.1364638461
 40
0.1509828214
 40
0.1661628895
 40
0.1819815028
 40
0.1984139268
 40
0.2154334059
 40
0.2330113512
 40
0.2511175539
 40
0.269720313
 40
0.2887865258
 40
0.3082818606
 40
0.3281708807
 40
0.36898238
 40
0.4109199737
 40
0.4536705751
 40
0.4969131977
 40
0.5403221104
 40
0.5835699953
 40
0.6263310817
 40
0.6682842665
 40
0.7091163191
 40
0.729017411
 40
0.7485259916
 40
0.7676065616
 40
0.7862247522
 40
0.8043474539
 40
0.8219428989
 40
0.8389807991
 40
0.8554325484
 40
0.8712713402
 40
0.8864723296
 40
0.9010128995
 40
0.9148729267
 40
0.92803504
 40
0.9404850212
 40
0.9522123628
 40
0.963210893
 40
0.9734795279
 40
0.9830234328
 40
0.9918561859
 40
1.0
 40
1.0
 40
1.0
 40
1.0
 10
13.4452553239
 20
11.5021985795
 30
0.0
 10
13.4460765306
 20
11.5021416341
 30
0.0
 10
13.4477208981
 20
11.5019529993
 30
0.0
 10
13.4501665251
 20
11.5014482233
 30
0.0
 10
13.4525936567
 20
11.5007216056
 30
0.0
 10
13.4550005676
 20
11.4997739826
 30
0.0
 10
13.4573861121
 20
11.4986060748
 30
0.0
 10
13.4605936353
 20
11.4967229159
 30
0.0
 10
13.4636985844
 20
11.4944174978
 30
0.0
 10
13.4666903368
 20
11.4917516148
 30
0.0
 10
13.4689521385
 20
11.4894973056
 30
0.0
 10
13.4711859125
 20
11.4870291954
 30
0.0
 10
13.4733909752
 20
11.4843483364
 30
0.0
 10
13.4755662769
 20
11.4814561466
 30
0.0
 10
13.4777107734
 20
11.4783539943
 30
0.0
 10
13.4798235011
 20
11.4750434457
 30
0.0
 10
13.4819034496
 20
11.471526128
 30
0.0
 10
13.4839495981
 20
11.4678037416
 30
0.0
 10
13.4866813194
 20
11.4624720371
 30
0.0
 10
13.4899930158
 20
11.4552951639
 30
0.0
 10
13.4937473104
 20
11.4460481486
 30
0.0
 10
13.4973437601
 20
11.4360334774
 30
0.0
 10
13.5007751931
 20
11.425271006
 30
0.0
 10
13.5040347521
 20
11.4137818686
 30
0.0
 10
13.5071158426
 20
11.4015888526
 30
0.0
 10
13.5100121978
 20
11.3887162049
 30
0.0
 10
13.5127179522
 20
11.3751896224
 30
0.0
 10
13.5152276067
 20
11.3610361561
 30
0.0
 10
13.5175360385
 20
11.3462841432
 30
0.0
 10
13.5196385479
 20
11.3309631585
 30
0.0
 10
13.5215308713
 20
11.3151039476
 30
0.0
 10
13.5232091513
 20
11.2987383478
 30
0.0
 10
13.5246699569
 20
11.2818992233
 30
0.0
 10
13.5259103211
 20
11.2646204177
 30
0.0
 10
13.5269277542
 20
11.2469366287
 30
0.0
 10
13.5279932854
 20
11.2226573967
 30
0.0
 10
13.5287419564
 20
11.1915600002
 30
0.0
 10
13.528724157
 20
11.1535259617
 30
0.0
 10
13.5277971087
 20
11.1147663322
 30
0.0
 10
13.5259680493
 20
11.0755925964
 30
0.0
 10
13.5232515499
 20
11.036319349
 30
0.0
 10
13.5196693893
 20
10.9972620914
 30
0.0
 10
13.5152505268
 20
10.9587344622
 30
0.0
 10
13.5100306266
 20
10.9210460577
 30
0.0
 10
13.5050066571
 20
10.8903332403
 30
0.0
 10
13.5006076447
 20
10.866417954
 30
0.0
 10
13.4971643812
 20
10.8490305586
 30
0.0
 10
13.4935559802
 20
10.832073937
 30
0.0
 10
13.4897896904
 20
10.8155821379
 30
0.0
 10
13.4858731411
 20
10.7995882911
 30
0.0
 10
13.4818142387
 20
10.7841245151
 30
0.0
 10
13.477621168
 20
10.7692218553
 30
0.0
 10
13.4733024176
 20
10.7549101981
 30
0.0
 10
13.468866722
 20
10.7412182222
 30
0.0
 10
13.4643230302
 20
10.7281733462
 30
0.0
 10
13.4596805181
 20
10.7158016453
 30
0.0
 10
13.4549485713
 20
10.7041277838
 30
0.0
 10
13.4501367193
 20
10.6931749795
 30
0.0
 10
13.4452545998
 20
10.6829649381
 30
0.0
 10
13.4403119878
 20
10.6735177503
 30
0.0
 10
13.4353186378
 20
10.6648518505
 30
0.0
 10
13.4302843125
 20
10.656984086
 30
0.0
 10
13.4252183405
 20
10.6499291443
 30
0.0
 10
13.4201305
 20
10.6437010735
 30
0.0
 10
13.4165897166
 20
10.6399599836
 30
0.0
 10
13.4148147088
 20
10.6382454576
 30
0.0
  0
SPLINE
  5
395
100
AcDbEntity
  8
0
100
AcDbSpline
 62
7
  6
CONTINUOUS
 70
0
 71
3
 72
61
 73
57
 74
0
 42
0.0000001
 43
0.0000001
 44
0.0000000001
 40
0.0
 40
0.0
 40
0.0
 40
0.0
 40
0.0078709805
 40
0.016375535
 40
0.0255335993
 40
0.0353580913
 40
0.0458546081
 40
0.0570232832
 40
0.0688598707
 40
0.0813562306
 40
0.0945010383
 40
0.1082802132
 40
0.1226771477
 40
0.1376731001
 40
0.1532474034
 40
0.1693775606
 40
0.1860395143
 40
0.2032077662
 40
0.2208554247
 40
0.2389544133
 40
0.2574755527
 40
0.2763885962
 40
0.3152642449
 40
0.3553234501
 40
0.3962967571
 40
0.4379065735
 40
0.4798697449
 40
0.5219000492
 40
0.56371068
 40
0.6050167386
 40
0.6455377123
 40
0.6850000268
 40
0.72313959
 40
0.741634477
 40
0.7597053302
 40
0.7773230142
 40
0.7944594974
 40
0.8110880316
 40
0.8271831765
 40
0.8427209402
 40
0.8576790044
 40
0.8720367823
 40
0.885775631
 40
0.8988791692
 40
0.9113334376
 40
0.9231272755
 40
0.9342528511
 40
0.9447061034
 40
0.9544875188
 40
0.9636031993
 40
0.9720660359
 40
0.9798974717
 40
0.9871298246
 40
0.9905361544
 40
0.9938113109
 40
1.0
 40
1.0
 40
1.0
 40
1.0
 10
13.3839050798
 20
10.6403890477
 30
0.0
 10
13.385590241
 20
10.6420167885
 30
0.0
 10
13.3889527342
 20
10.645553608
 30
0.0
 10
13.3937948256
 20
10.6514183601
 30
0.0
 10
13.3986180494
 20
10.6580329725
 30
0.0
 10
13.4034139155
 20
10.6653854376
 30
0.0
 10
13.4081744506
 20
10.6734632783
 30
0.0
 10
13.412891201
 20
10.6822523002
 30
0.0
 10
13.4175557305
 20
10.6917369713
 30
0.0
 10
13.4221596586
 20
10.7019003752
 30
0.0
 10
13.4266946245
 20
10.7127243044
 30
0.0
 10
13.4311523404
 20
10.7241892954
 30
0.0
 10
13.4355247076
 20
10.7362746473
 30
0.0
 10
13.4398037336
 20
10.748958508
 30
0.0
 10
13.44398157
 20
10.7622179135
 30
0.0
 10
13.4480506108
 20
10.7760288102
 30
0.0
 10
13.4520034123
 20
10.7903661338
 30
0.0
 10
13.4558327228
 20
10.8052038522
 30
0.0
 10
13.459531575
 20
10.8205149987
 30
0.0
 10
13.4630931969
 20
10.8362717361
 30
0.0
 10
13.4665110906
 20
10.8524454407
 30
0.0
 10
13.4709084814
 20
10.8747311872
 30
0.0
 10
13.4759887388
 20
10.9034141403
 30
0.0
 10
13.4813665035
 20
10.938702509
 30
0.0
 10
13.4860405221
 20
10.974911682
 30
0.0
 10
13.4899766141
 20
11.0117783239
 30
0.0
 10
13.4931459842
 20
11.0490344973
 30
0.0
 10
13.4955254985
 20
11.0864093238
 30
0.0
 10
13.4970979022
 20
11.1236310712
 30
0.0
 10
13.4978518858
 20
11.1604291076
 30
0.0
 10
13.497782197
 20
11.1965360047
 30
0.0
 10
13.4968896226
 20
11.2316891733
 30
0.0
 10
13.4954518168
 20
11.2602613531
 30
0.0
 10
13.4938817937
 20
11.2824437373
 30
0.0
 10
13.4925164875
 20
11.2985150154
 30
0.0
 10
13.4909539619
 20
11.3141620287
 30
0.0
 10
13.4891970345
 20
11.329356354
 30
0.0
 10
13.4872489772
 20
11.3440703742
 30
0.0
 10
13.4851133661
 20
11.3582773618
 30
0.0
 10
13.4827941063
 20
11.3719515218
 30
0.0
 10
13.4802954977
 20
11.3850680569
 30
0.0
 10
13.4776221288
 20
11.3976032016
 30
0.0
 10
13.474778886
 20
11.4095342737
 30
0.0
 10
13.471771025
 20
11.4208397434
 30
0.0
 10
13.4686040465
 20
11.4314992602
 30
0.0
 10
13.4652836963
 20
11.4414937044
 30
0.0
 10
13.4618160306
 20
11.450805273
 30
0.0
 10
13.4582072537
 20
11.4594174899
 30
0.0
 10
13.4544636665
 20
11.4673152759
 30
0.0
 10
13.450591727
 20
11.4744849738
 30
0.0
 10
13.4465976122
 20
11.4809145311
 30
0.0
 10
13.4424875701
 20
11.4865926645
 30
0.0
 10
13.4389015033
 20
11.4907709422
 30
0.0
 10
13.4359764724
 20
11.4937058027
 30
0.0
 10
13.4331319383
 20
11.4962734213
 30
0.0
 10
13.4308823861
 20
11.4979845232
 30
0.0
 10
13.429343516
 20
11.4989971693
 30
0.0
  0
SPLINE
  5
396
100
AcDbEntity
  8
0
100
AcDbSpline
 62
7
  6
CONTINUOUS
 70
0
 71
3
 72
17
 73
13
 74
0
 42
0.0000001
 43
0.0000001
 44
0.0000000001
 40
0.0
 40
0.0
 40
0.0
 40
0.0
 40
0.1504740482
 40
0.2917305938
 40
0.4244676119
 40
0.4879385597
 40
0.549641313
 40
0.668301051
 40
0.7818340393
 40
0.8918017529
 40
0.9460163028
 40
1.0
 40
1.0
 40
1.0
 40
1.0
 10
13.4148147088
 20
10.6382454576
 30
0.0
 10
13.4135708301
 20
10.637043963
 30
0.0
 10
13.4110847114
 20
10.6347895863
 30
0.0
 10
13.4072352459
 20
10.6317852929
 30
0.0
 10
13.4039836784
 20
10.6296605015
 30
0.0
 10
13.4013908515
 20
10.6282216465
 30
0.0
 10
13.3988743771
 20
10.6269863483
 30
0.0
 10
13.3957275496
 20
10.6257381588
 30
0.0
 10
13.3919182479
 20
10.6247244679
 30
0.0
 10
13.3887445547
 20
10.6243007351
 30
0.0
 10
13.3862369565
 20
10.6242202161
 30
0.0
 10
13.3849930425
 20
10.6242641931
 30
0.0
 10
13.3843740937
 20
10.6243071132
 30
0.0
  0
SPLINE
  5
397
100
AcDbEntity
  8
0
100
AcDbSpline
 62
7
  6
CONTINUOUS
 70
0
 71
3
 72
10
 73
6
 74
0
 42
0.0000001
 43
0.0000001
 44
0.0000000001
 40
0.0
 40
0.0
 40
0.0
 40
0.0
 40
0.2726048908
 40
0.5294321026
 40
1.0
 40
1.0
 40
1.0
 40
1.0
 10
13.3839050798
 20
10.6403890477
 30
0.0
 10
13.3827298743
 20
10.6392538863
 30
0.0
 10
13.3803803489
 20
10.637116076
 30
0.0
 10
13.3756778883
 20
10.6333971504
 30
0.0
 10
13.3719492613
 20
10.6310816443
 30
0.0
 10
13.3694136361
 20
10.6298464945
 30
0.0
  0
SPLINE
  5
398
100
AcDbEntity
  8
0
100
AcDbSpline
 62
7
  6
CONTINUOUS
 70
0
 71
3
 72
24
 73
20
 74
0
 42
0.0000001
 43
0.0000001
 44
0.0000000001
 40
0.0
 40
0.0
 40
0.0
 40
0.0
 40
0.0755919747
 40
0.1466353424
 40
0.2134624271
 40
0.2454363282
 40
0.2765291433
 40
0.3363394199
 40
0.3935588324
 40
0.4489344672
 40
0.5032986405
 40
0.557535494
 40
0.612535826
 40
0.6691506165
 40
0.7281550923
 40
0.7902240778
 40
0.855926948
 40
0.9257281551
 40
1.0
 40
1.0
 40
1.0
 40
1.0
 10
13.3839050798
 20
10.8094260773
 30
0.0
 10
13.3831686114
 20
10.8087147035
 30
0.0
 10
13.3816965665
 20
10.8073784816
 30
0.0
 10
13.379418575
 20
10.8055933914
 30
0.0
 10
13.3774947417
 20
10.8043257842
 30
0.0
 10
13.375960427
 20
10.8034632862
 30
0.0
 10
13.3744707905
 20
10.802719573
 30
0.0
 10
13.3726082949
 20
10.8019620778
 30
0.0
 10
13.3703533644
 20
10.8013338864
 30
0.0
 10
13.3681102786
 20
10.8010004083
 30
0.0
 10
13.3658829028
 20
10.8009633785
 30
0.0
 10
13.3636754843
 20
10.8012232036
 30
0.0
 10
13.3614923335
 20
10.8017792605
 30
0.0
 10
13.3593370978
 20
10.8026294932
 30
0.0
 10
13.3572127208
 20
10.8037716145
 30
0.0
 10
13.3551212524
 20
10.8052028336
 30
0.0
 10
13.3530644824
 20
10.8069208108
 30
0.0
 10
13.3510439834
 20
10.8089229034
 30
0.0
 10
13.349763439
 20
10.8103980623
 30
0.0
 10
13.3491286482
 20
10.8111785615
 30
0.0
  0
SPLINE
  5
399
100
AcDbEntity
  8
0
100
AcDbSpline
 62
7
  6
CONTINUOUS
 70
0
 71
3
 72
16
 73
12
 74
0
 42
0.0000001
 43
0.0000001
 44
0.0000000001
 40
0.0
 40
0.0
 40
0.0
 40
0.0
 40
0.1504770367
 40
0.2917455134
 40
0.4244955346
 40
0.4879706334
 40
0.5496766798
 40
0.6683414614
 40
0.7818811374
 40
0.8918562794
 40
1.0
 40
1.0
 40
1.0
 40
1.0
 10
13.3549273033
 20
10.8404134694
 30
0.0
 10
13.3542629795
 20
10.8397717819
 30
0.0
 10
13.3529351524
 20
10.8385677538
 30
0.0
 10
13.3508791655
 20
10.8369631557
 30
0.0
 10
13.3491424784
 20
10.8358282685
 30
0.0
 10
13.3477576255
 20
10.8350597863
 30
0.0
 10
13.3464135946
 20
10.8344000159
 30
0.0
 10
13.3447329506
 20
10.8337333966
 30
0.0
 10
13.3426981702
 20
10.8331920468
 30
0.0
 10
13.3406748819
 20
10.832921672
 30
0.0
 10
13.3393312448
 20
10.832923228
 30
0.0
 10
13.3386690487
 20
10.8329691471
 30
0.0
  0
SPLINE
  5
39A
100
AcDbEntity
  8
0
100
AcDbSpline
 62
7
  6
CONTINUOUS
 70
0
 71
3
 72
88
 73
84
 74
0
 42
0.0000001
 43
0.0000001
 44
0.0000000001
 40
0.0
 40
0.0
 40
0.0
 40
0.0
 40
0.0027164206
 40
0.0054532135
 40
0.00823027
 40
0.0110665466
 40
0.0139797362
 40
0.0169860264
 40
0.0200999638
 40
0.0233344621
 40
0.0267007864
 40
0.030208716
 40
0.033866602
 40
0.0376815365
 40
0.0416594862
 40
0.0458053757
 40
0.0501232805
 40
0.0546164357
 40
0.0592874172
 40
0.0641381604
 40
0.0691700473
 40
0.0743839976
 40
0.0797804461
 40
0.085359486
 40
0.0911208072
 40
0.097063806
 40
0.1031875785
 40
0.1094909314
 40
0.1226301057
 40
0.1364676988
 40
0.1509864378
 40
0.1661662591
 40
0.1819846247
 40
0.1984167804
 40
0.2154359739
 40
0.2330136371
 40
0.2511195505
 40
0.2697219952
 40
0.2887878869
 40
0.3082829001
 40
0.3281715858
 40
0.3484174815
 40
0.3689832185
 40
0.3898306305
 40
0.410920857
 40
0.4322144439
 40
0.4536714439
 40
0.4969133241
 40
0.5403214886
 40
0.5835686279
 40
0.6050302166
 40
0.6263296837
 40
0.6474270673
 40
0.6682828961
 40
0.6888582896
 40
0.7091150586
 40
0.7290158075
 40
0.7485240405
 40
0.7676042737
 40
0.7862221443
 40
0.8043445271
 40
0.8219396585
 40
0.8389772699
 40
0.8554287349
 40
0.8712672375
 40
0.8864679574
 40
0.9010082824
 40
0.9148680665
 40
0.9280299429
 40
0.9343448017
 40
0.9404801679
 40
0.9464348204
 40
0.9522078552
 40
0.9577986253
 40
0.9632068219
 40
0.9684325067
 40
0.9734760906
 40
0.9783384494
 40
0.9830208978
 40
0.9875254123
 40
0.9918545974
 40
0.9960115688
 40
1.0
 40
1.0
 40
1.0
 40
1.0
 10
13.4753504215
 20
9.8835637892
 30
0.0
 10
13.4769835021
 20
9.8834505401
 30
0.0
 10
13.4802535461
 20
9.8830753668
 30
0.0
 10
13.4851169989
 20
9.8820714975
 30
0.0
 10
13.4899436736
 20
9.8806265213
 30
0.0
 10
13.4947301731
 20
9.878741981
 30
0.0
 10
13.4994739961
 20
9.8764194667
 30
0.0
 10
13.5041727066
 20
9.8736608085
 30
0.0
 10
13.5088241842
 20
9.8704680249
 30
0.0
 10
13.513426281
 20
9.8668430407
 30
0.0
 10
13.5179771052
 20
9.8627880832
 30
0.0
 10
13.5224746075
 20
9.8583052767
 30
0.0
 10
13.5269168787
 20
9.8533970147
 30
0.0
 10
13.5313019415
 20
9.8480657743
 30
0.0
 10
13.5356277661
 20
9.8423141882
 30
0.0
 10
13.5398924377
 20
9.8361451461
 30
0.0
 10
13.5440938524
 20
9.8295616297
 30
0.0
 10
13.5482301025
 20
9.8225669284
 30
0.0
 10
13.5522991275
 20
9.8151644559
 30
0.0
 10
13.5562989678
 20
9.8073578789
 30
0.0
 10
13.560227683
 20
9.7991510646
 30
0.0
 10
13.56408327
 20
9.7905480629
 30
0.0
 10
13.5678638992
 20
9.7815531716
 30
0.0
 10
13.5715676004
 20
9.7721708445
 30
0.0
 10
13.5751925916
 20
9.762405775
 30
0.0
 10
13.5787370147
 20
9.7522628325
 30
0.0
 10
13.5821991209
 20
9.7417470724
 30
0.0
 10
13.586766429
 20
9.7270318756
 30
0.0
 10
13.5922411256
 20
9.707734266
 30
0.0
 10
13.5983682758
 20
9.6834868925
 30
0.0
 10
13.6041280668
 20
9.6578878141
 30
0.0
 10
13.6095088203
 20
9.6309883543
 30
0.0
 10
13.6144995843
 20
9.6028422333
 30
0.0
 10
13.6190902033
 20
9.573505833
 30
0.0
 10
13.6232713294
 20
9.5430379581
 30
0.0
 10
13.6270344514
 20
9.5114997412
 30
0.0
 10
13.6303719124
 20
9.4789545011
 30
0.0
 10
13.6332769191
 20
9.4454676073
 30
0.0
 10
13.6357435565
 20
9.4111063405
 30
0.0
 10
13.637766799
 20
9.3759397544
 30
0.0
 10
13.6393425193
 20
9.3400385346
 30
0.0
 10
13.6404674975
 20
9.3034748567
 30
0.0
 10
13.6411394319
 20
9.2663222399
 30
0.0
 10
13.6413569398
 20
9.2286553894
 30
0.0
 10
13.6411195454
 20
9.1905500693
 30
0.0
 10
13.6404277364
 20
9.1520828477
 30
0.0
 10
13.6388972034
 20
9.1002826841
 30
0.0
 10
13.6358582114
 20
9.0351987003
 30
0.0
 10
13.6304560699
 20
8.9570989094
 30
0.0
 10
13.6245049466
 20
8.8922104084
 30
0.0
 10
13.6188884853
 20
8.840683355
 30
0.0
 10
13.614276816
 20
8.8024766065
 30
0.0
 10
13.6092647244
 20
8.7646885641
 30
0.0
 10
13.6038622715
 20
8.7273951594
 30
0.0
 10
13.5980803628
 20
8.6906713991
 30
0.0
 10
13.591930656
 20
8.6545911205
 30
0.0
 10
13.585425557
 20
8.6192268659
 30
0.0
 10
13.5785781898
 20
8.5846497271
 30
0.0
 10
13.5714023787
 20
8.5509291986
 30
0.0
 10
13.563912613
 20
8.5181330365
 30
0.0
 10
13.5561240192
 20
8.4863271218
 30
0.0
 10
13.54805233
 20
8.4555753252
 30
0.0
 10
13.5397138537
 20
8.4259393728
 30
0.0
 10
13.531125438
 20
8.3974787162
 30
0.0
 10
13.5223044414
 20
8.3702503894
 30
0.0
 10
13.5132686925
 20
8.3443089159
 30
0.0
 10
13.5040364416
 20
8.3197060747
 30
0.0
 10
13.4946263265
 20
8.2964911743
 30
0.0
 10
13.4865445647
 20
8.2780950029
 30
0.0
 10
13.4799928992
 20
8.2641191592
 30
0.0
 10
13.475114404
 20
8.2541576446
 30
0.0
 10
13.4702056593
 20
8.2445764366
 30
0.0
 10
13.4652691527
 20
8.2353802944
 30
0.0
 10
13.4603073317
 20
8.2265738199
 30
0.0
 10
13.4553226655
 20
8.2181614023
 30
0.0
 10
13.4503176745
 20
8.2101472073
 30
0.0
 10
13.445294776
 20
8.2025352595
 30
0.0
 10
13.4402565638
 20
8.1953293063
 30
0.0
 10
13.4352054355
 20
8.1885329374
 30
0.0
 10
13.4301438562
 20
8.1821494457
 30
0.0
 10
13.4250741827
 20
8.1761819376
 30
0.0
 10
13.4199991157
 20
8.1706336529
 30
0.0
 10
13.4165434783
 20
8.167145059
 30
0.0
 10
13.4148147088
 20
8.1654751958
 30
0.0
  0
SPLINE
  5
39B
100
AcDbEntity
  8
0
100
AcDbSpline
 62
7
  6
CONTINUOUS
 70
0
 71
3
 72
95
 73
91
 74
0
 42
0.0000001
 43
0.0000001
 44
0.0000000001
 40
0.0
 40
0.0
 40
0.0
 40
0.0
 40
0.0037330408
 40
0.007310868
 40
0.0140473523
 40
0.01724042
 40
0.0203386852
 40
0.0233621774
 40
0.026332612
 40
0.0292730102
 40
0.0322071648
 40
0.035159037
 40
0.0381521178
 40
0.0412088642
 40
0.0443502071
 40
0.0475952741
 40
0.0509611665
 40
0.0544629733
 40
0.0581137782
 40
0.0619248131
 40
0.0659056022
 40
0.0700641128
 40
0.0744069732
 40
0.0789395547
 40
0.0836662128
 40
0.0885903062
 40
0.0937144159
 40
0.0990403506
 40
0.1045692965
 40
0.1103018542
 40
0.1162380977
 40
0.1223776655
 40
0.1287197343
 40
0.1352631542
 40
0.1420063705
 40
0.148947566
 40
0.1560845827
 40
0.1709358339
 40
0.1865383921
 40
0.2028665321
 40
0.2198914225
 40
0.2375814614
 40
0.2559025617
 40
0.2748184035
 40
0.2942906409
 40
0.3142791132
 40
0.3347420094
 40
0.3556360546
 40
0.3769166611
 40
0.3985380885
 40
0.420453595
 40
0.4426155805
 40
0.4649757366
 40
0.4874851879
 40
0.5100946304
 40
0.5327544825
 40
0.5554150123
 40
0.5780264944
 40
0.6005393357
 40
0.6229042266
 40
0.6450722781
 40
0.666995161
 40
0.6886252584
 40
0.7099157971
 40
0.73082101
 40
0.7512962756
 40
0.7712982799
 40
0.7907851759
 40
0.8097167503
 40
0.8280546094
 40
0.8457623716
 40
0.8628058847
 40
0.8791534764
 40
0.8947762296
 40
0.9096483345
 40
0.9237474874
 40
0.9305015891
 40
0.9370559678
 40
0.9434090955
 40
0.94955975
 40
0.9555071375
 40
0.9612508245
 40
0.9667909019
 40
0.972127923
 40
0.9772630301
 40
0.9821979764
 40
0.9869353122
 40
0.9914784991
 40
0.9958317412
 40
1.0
 40
1.0
 40
1.0
 40
1.0
 10
11.1821321706
 20
11.6879149175
 30
0.0
 10
11.1835524616
 20
11.6895240621
 30
0.0
 10
11.1862496553
 20
11.6927520461
 30
0.0
 10
11.191046895
 20
11.6992527761
 30
0.0
 10
11.1950511958
 20
11.7059436394
 30
0.0
 10
11.1981254686
 20
11.7127813936
 30
0.0
 10
11.1999176849
 20
11.717835027
 30
0.0
 10
11.2012350007
 20
11.7229008202
 30
0.0
 10
11.2020758984
 20
11.7279755726
 30
0.0
 10
11.2024392765
 20
11.7330553902
 30
0.0
 10
11.2023246366
 20
11.7381362781
 30
0.0
 10
11.2017320727
 20
11.7432141498
 30
0.0
 10
11.2006625187
 20
11.7482850899
 30
0.0
 10
11.1991171808
 20
11.7533453878
 30
0.0
 10
11.197097984
 20
11.7583917582
 30
0.0
 10
11.1946067715
 20
11.7634210942
 30
0.0
 10
11.1916458576
 20
11.7684306754
 30
0.0
 10
11.188217416
 20
11.7734177967
 30
0.0
 10
11.1843239046
 20
11.778379943
 30
0.0
 10
11.1799678161
 20
11.7833145619
 30
0.0
 10
11.1751518181
 20
11.7882190887
 30
0.0
 10
11.1698788151
 20
11.7930909993
 30
0.0
 10
11.1641518299
 20
11.7979276083
 30
0.0
 10
11.1579742427
 20
11.8027263812
 30
0.0
 10
11.1513495473
 20
11.8074845546
 30
0.0
 10
11.1442816196
 20
11.8121995648
 30
0.0
 10
11.1367744884
 20
11.8168686484
 30
0.0
 10
11.1288325229
 20
11.8214892001
 30
0.0
 10
11.1204603037
 20
11.8260585229
 30
0.0
 10
11.1116626918
 20
11.8305739747
 30
0.0
 10
11.1024448084
 20
11.8350329561
 30
0.0
 10
11.0928120064
 20
11.8394328119
 30
0.0
 10
11.0827699232
 20
11.8437710418
 30
0.0
 10
11.0723244008
 20
11.8480450205
 30
0.0
 10
11.061481569
 20
11.8522523178
 30
0.0
 10
11.050247742
 20
11.8563904178
 30
0.0
 10
11.0345481267
 20
11.8618853288
 30
0.0
 10
11.0139844405
 20
11.8685478985
 30
0.0
 10
10.9881742678
 20
11.8761272577
 30
0.0
 10
10.9609738526
 20
11.8833752494
 30
0.0
 10
10.932446997
 20
11.8902747215
 30
0.0
 10
10.9026604121
 20
11.8968093221
 30
0.0
 10
10.8716839214
 20
11.9029635674
 30
0.0
 10
10.8395901762
 20
11.9087228761
 30
0.0
 10
10.8064544989
 20
11.9140736055
 30
0.0
 10
10.7723546965
 20
11.919003084
 30
0.0
 10
10.7373708658
 20
11.9234996435
 30
0.0
 10
10.7015852047
 20
11.927552642
 30
0.0
 10
10.6650818098
 20
11.9311524905
 30
0.0
 10
10.6279464777
 20
11.9342906735
 30
0.0
 10
10.5902665006
 20
11.9369597689
 30
0.0
 10
10.5521304586
 20
11.9391534652
 30
0.0
 10
10.5136280102
 20
11.9408665751
 30
0.0
 10
10.4748496812
 20
11.9420950482
 30
0.0
 10
10.4358866477
 20
11.9428359794
 30
0.0
 10
10.3968305256
 20
11.9430876177
 30
0.0
 10
10.357773147
 20
11.9428493695
 30
0.0
 10
10.31880635
 20
11.942121798
 30
0.0
 10
10.2800217556
 20
11.9409066239
 30
0.0
 10
10.2415105558
 20
11.9392067192
 30
0.0
 10
10.2033632966
 20
11.9370261032
 30
0.0
 10
10.1656696625
 20
11.9343699306
 30
0.0
 10
10.1285182687
 20
11.9312444824
 30
0.0
 10
10.0919964449
 20
11.9276571494
 30
0.0
 10
10.0561900337
 20
11.923616417
 30
0.0
 10
10.0211831796
 20
11.9191318469
 30
0.0
 10
9.9870581323
 20
11.9142140532
 30
0.0
 10
9.9538950482
 20
11.9088746783
 30
0.0
 10
9.9217717967
 20
11.9031263662
 30
0.0
 10
9.8907637714
 20
11.8969827323
 30
0.0
 10
9.860943706
 20
11.8904583326
 30
0.0
 10
9.8323814813
 20
11.8835686263
 30
0.0
 10
9.8051439856
 20
11.8763299384
 30
0.0
 10
9.7792948009
 20
11.8687594134
 30
0.0
 10
9.7548944881
 20
11.8608749631
 30
0.0
 10
9.7355479485
 20
11.8539631849
 30
0.0
 10
9.7208510184
 20
11.8482768952
 30
0.0
 10
9.7103836065
 20
11.8440064404
 30
0.0
 10
9.7003192969
 20
11.8396717033
 30
0.0
 10
9.6906639745
 20
11.8352751098
 30
0.0
 10
9.6814232495
 20
11.8308193327
 30
0.0
 10
9.6726025287
 20
11.8263068757
 30
0.0
 10
9.664206907
 20
11.8217404466
 30
0.0
 10
9.6562412867
 20
11.8171226136
 30
0.0
 10
9.6487102787
 20
11.8124561075
 30
0.0
 10
9.6416182301
 20
11.8077435921
 30
0.0
 10
9.634969206
 20
11.8029876875
 30
0.0
 10
9.6287669361
 20
11.7981909942
 30
0.0
 10
9.6230153564
 20
11.7933564058
 30
0.0
 10
9.6194067937
 20
11.7900393392
 30
0.0
 10
9.6176830863
 20
11.7883743656
 30
0.0
  0
SPLINE
  5
39C
100
AcDbEntity
  8
0
100
AcDbSpline
 62
7
  6
CONTINUOUS
 70
0
 71
3
 72
68
 73
64
 74
0
 42
0.0000001
 43
0.0000001
 44
0.0000000001
 40
0.0
 40
0.0
 40
0.0
 40
0.0
 40
0.0086055877
 40
0.0180054942
 40
0.0282254311
 40
0.0392801356
 40
0.0511734203
 40
0.0639011155
 40
0.0774527449
 40
0.0918122697
 40
0.1069591348
 40
0.1228689176
 40
0.1395136361
 40
0.1568623038
 40
0.1748812665
 40
0.1935343246
 40
0.2127831085
 40
0.2325873023
 40
0.2529047114
 40
0.2736915536
 40
0.3164903859
 40
0.3606086357
 40
0.4056544516
 40
0.4512252441
 40
0.4969124009
 40
0.542305993
 40
0.5869994312
 40
0.6305941965
 40
0.6727045426
 40
0.6930878146
 40
0.7129636658
 40
0.732289739
 40
0.751025381
 40
0.7691319542
 40
0.7865730292
 40
0.8033145074
 40
0.8193250296
 40
0.8345762772
 40
0.8490432237
 40
0.8627047647
 40
0.8755443136
 40
0.8875504489
 40
0.8987181373
 40
0.9090501729
 40
0.9185590166
 40
0.9272697132
 40
0.9352236635
 40
0.938936962
 40
0.942486787
 40
0.9491422866
 40
0.952283025
 40
0.9553218285
 40
0.9582796155
 40
0.9611792637
 40
0.9640451563
 40
0.966902647
 40
0.9697773258
 40
0.9726943014
 40
0.9756774958
 40
0.9787490904
 40
0.9852313038
 40
0.9922817591
 40
1.0
 40
1.0
 40
1.0
 40
1.0
 10
13.3839050798
 20
10.8094260773
 30
0.0
 10
13.3850757103
 20
10.8105568196
 30
0.0
 10
13.3874096046
 20
10.8130435913
 30
0.0
 10
13.3907497532
 20
10.8172130237
 30
0.0
 10
13.394072875
 20
10.8219728574
 30
0.0
 10
13.3973713502
 20
10.8273118869
 30
0.0
 10
13.4006379689
 20
10.8332182936
 30
0.0
 10
13.4038650756
 20
10.8396784704
 30
0.0
 10
13.4070450433
 20
10.8466774218
 30
0.0
 10
13.4101703227
 20
10.8541987305
 30
0.0
 10
13.4132334274
 20
10.862224661
 30
0.0
 10
13.416226968
 20
10.8707362174
 30
0.0
 10
13.4191437725
 20
10.8797131739
 30
0.0
 10
13.4219768226
 20
10.8891341637
 30
0.0
 10
13.424719269
 20
10.8989767397
 30
0.0
 10
13.4273645348
 20
10.9092174087
 30
0.0
 10
13.4299062608
 20
10.9198317148
 30
0.0
 10
13.4323382965
 20
10.9307942979
 30
0.0
 10
13.434654846
 20
10.9420789659
 30
0.0
 10
13.4376107645
 20
10.9576701871
 30
0.0
 10
13.4409671879
 20
10.9777645849
 30
0.0
 10
13.4444168861
 20
11.0024857173
 30
0.0
 10
13.4472931893
 20
11.0278077684
 30
0.0
 10
13.4495684126
 20
11.0534886608
 30
0.0
 10
13.4512207241
 20
11.0792830451
 30
0.0
 10
13.4522343469
 20
11.1049443879
 30
0.0
 10
13.4525997666
 20
11.1302275337
 30
0.0
 10
13.4523137454
 20
11.1548907706
 30
0.0
 10
13.4515271408
 20
11.174942743
 30
0.0
 10
13.4505633042
 20
11.1904918349
 30
0.0
 10
13.4496890459
 20
11.201727629
 30
0.0
 10
13.4486578207
 20
11.2126371644
 30
0.0
 10
13.447472074
 20
11.2231943854
 30
0.0
 10
13.4461346996
 20
11.2333740672
 30
0.0
 10
13.4446489642
 20
11.2431519129
 30
0.0
 10
13.4430184475
 20
11.252504598
 30
0.0
 10
13.4412471114
 20
11.2614098473
 30
0.0
 10
13.4393392787
 20
11.2698464962
 30
0.0
 10
13.437299541
 20
11.2777945352
 30
0.0
 10
13.4351328272
 20
11.2852351926
 30
0.0
 10
13.4328443739
 20
11.2921510055
 30
0.0
 10
13.430439595
 20
11.2985258515
 30
0.0
 10
13.427924102
 20
11.3043450691
 30
0.0
 10
13.4253036568
 20
11.3095954672
 30
0.0
 10
13.4225837474
 20
11.3142655491
 30
0.0
 10
13.4197699323
 20
11.3183447503
 30
0.0
 10
13.4172963858
 20
11.3213097794
 30
0.0
 10
13.4152715279
 20
11.3233573444
 30
0.0
 10
13.413309955
 20
11.3251143054
 30
0.0
 10
13.4112667898
 20
11.3266142946
 30
0.0
 10
13.4091509047
 20
11.3278088521
 30
0.0
 10
13.4075780851
 20
11.3285302087
 30
0.0
 10
13.4059900999
 20
11.3290933
 30
0.0
 10
13.4043879929
 20
11.3294975882
 30
0.0
 10
13.4027730004
 20
11.3297424631
 30
0.0
 10
13.4011464782
 20
11.3298276345
 30
0.0
 10
13.399509806
 20
11.3297531192
 30
0.0
 10
13.3978643584
 20
11.329519028
 30
0.0
 10
13.3962113477
 20
11.3291257546
 30
0.0
 10
13.3939589062
 20
11.3283768237
 30
0.0
 10
13.3911137202
 20
11.3270156324
 30
0.0
 10
13.387757492
 20
11.3247862669
 30
0.0
 10
13.3856220601
 20
11.3229761002
 30
0.0
 10
13.3845534669
 20
11.3219816434
 30
0.0
  0
SPLINE
  5
39D
100
AcDbEntity
  8
0
100
AcDbSpline
 62
7
  6
CONTINUOUS
 70
0
 71
3
 72
17
 73
13
 74
0
 42
0.0000001
 43
0.0000001
 44
0.0000000001
 40
0.0
 40
0.0
 40
0.0
 40
0.0
 40
0.1480487011
 40
0.2876793192
 40
0.4195783754
 40
0.5446195804
 40
0.6638542347
 40
0.7785162538
 40
0.8345925939
 40
0.8900666865
 40
0.9451353213
 40
1.0
 40
1.0
 40
1.0
 40
1.0
 10
9.6264533936
 20
11.7665927477
 30
0.0
 10
9.6242687951
 20
11.7644825874
 30
0.0
 10
9.6201518588
 20
11.7602460518
 30
0.0
 10
9.6146163526
 20
11.753643141
 30
0.0
 10
9.6099150286
 20
11.7469904099
 30
0.0
 10
9.606054834
 20
11.7402936016
 30
0.0
 10
9.6030422009
 20
11.7335592922
 30
0.0
 10
9.6012301061
 20
11.7278775656
 30
0.0
 10
9.6002242692
 20
11.7233444976
 30
0.0
 10
9.5996890126
 20
11.719966059
 30
0.0
 10
9.5993678007
 20
11.7165857531
 30
0.0
 10
9.5992963385
 20
11.7143297549
 30
0.0
 10
9.5992963285
 20
11.7132041726
 30
0.0
  0
SPLINE
  5
39E
100
AcDbEntity
  8
0
100
AcDbSpline
 62
7
  6
CONTINUOUS
 70
0
 71
3
 72
61
 73
57
 74
0
 42
0.0000001
 43
0.0000001
 44
0.0000000001
 40
0.0
 40
0.0
 40
0.0
 40
0.0
 40
0.0081437192
 40
0.016976846
 40
0.0265209418
 40
0.0367896451
 40
0.0477883244
 40
0.0595158837
 40
0.071966029
 40
0.0851283264
 40
0.0989885666
 40
0.1135293323
 40
0.128730566
 40
0.1445695643
 40
0.1610215585
 40
0.178059723
 40
0.1956553959
 40
0.2137783784
 40
0.2514766415
 40
0.2908859675
 40
0.3317186229
 40
0.3736724332
 40
0.4164341499
 40
0.4596826796
 40
0.5030922454
 40
0.5463355214
 40
0.5890867763
 40
0.6310250194
 40
0.6718371634
 40
0.7112212449
 40
0.7302877464
 40
0.7488908114
 40
0.7669973187
 40
0.7845755476
 40
0.8015953253
 40
0.818028006
 40
0.8338469134
 40
0.8490272409
 40
0.8635464502
 40
0.8773845303
 40
0.8905241195
 40
0.9029512292
 40
0.9146554042
 40
0.9256305944
 40
0.9358759965
 40
0.945397007
 40
0.9542071087
 40
0.9623296003
 40
0.9698005782
 40
0.9766724026
 40
0.983017621
 40
0.9889330932
 40
0.9917694604
 40
0.9945466128
 40
0.9972834968
 40
1.0
 40
1.0
 40
1.0
 40
1.0
 10
13.3549273033
 20
10.8404134694
 30
0.0
 10
13.3558752924
 20
10.8413291566
 30
0.0
 10
13.3577663727
 20
10.8433272577
 30
0.0
 10
13.3604837806
 20
10.8466535892
 30
0.0
 10
13.3631894833
 20
10.8504215956
 30
0.0
 10
13.3658782372
 20
10.8546237
 30
0.0
 10
13.3685451647
 20
10.8592520453
 30
0.0
 10
13.3711849477
 20
10.8642977068
 30
0.0
 10
13.373792446
 20
10.8697507882
 30
0.0
 10
13.3763624129
 20
10.8756005674
 30
0.0
 10
13.3788896927
 20
10.8818354605
 30
0.0
 10
13.3813692255
 20
10.8884430607
 30
0.0
 10
13.3837959523
 20
10.8954102007
 30
0.0
 10
13.386165028
 20
10.902722944
 30
0.0
 10
13.3884716301
 20
10.9103666577
 30
0.0
 10
13.3907110941
 20
10.9183260189
 30
0.0
 10
13.3928789514
 20
10.9265850705
 30
0.0
 10
13.3957051335
 20
10.9381266582
 30
0.0
 10
13.3990158334
 20
10.9531820072
 30
0.0
 10
13.4025881748
 20
10.9719349953
 30
0.0
 10
13.4057812333
 20
10.9914543957
 30
0.0
 10
13.4085691153
 20
11.0115834633
 30
0.0
 10
13.4109292026
 20
11.0321606731
 30
0.0
 10
13.4128424025
 20
11.0530207765
 30
0.0
 10
13.414293275
 20
11.0739962316
 30
0.0
 10
13.4152701619
 20
11.0949185524
 30
0.0
 10
13.4157652878
 20
11.1156196738
 30
0.0
 10
13.4157748412
 20
11.1359333836
 30
0.0
 10
13.4152989155
 20
11.155696467
 30
0.0
 10
13.4144929153
 20
11.1717435644
 30
0.0
 10
13.4136000319
 20
11.1841826492
 30
0.0
 10
13.4128198262
 20
11.1931762817
 30
0.0
 10
13.4119234854
 20
11.2019170007
 30
0.0
 10
13.4109128121
 20
11.2103872668
 30
0.0
 10
13.4097898988
 20
11.2185700697
 30
0.0
 10
13.4085569789
 20
11.2264489928
 30
0.0
 10
13.4072166155
 20
11.2340082406
 30
0.0
 10
13.4057715023
 20
11.2412326749
 30
0.0
 10
13.4042245794
 20
11.2481078489
 30
0.0
 10
13.4025790258
 20
11.254620046
 30
0.0
 10
13.4008381161
 20
11.2607563011
 30
0.0
 10
13.3990054326
 20
11.2665044627
 30
0.0
 10
13.397084612
 20
11.2718531999
 30
0.0
 10
13.3950794669
 20
11.2767920559
 30
0.0
 10
13.3929939498
 20
11.2813115018
 30
0.0
 10
13.3908319134
 20
11.2854029052
 30
0.0
 10
13.3885973136
 20
11.2890586481
 30
0.0
 10
13.386293734
 20
11.292271985
 30
0.0
 10
13.3839245001
 20
11.2950369374
 30
0.0
 10
13.3814921726
 20
11.2973480806
 30
0.0
 10
13.3789995277
 20
11.2991994205
 30
0.0
 10
13.3768428731
 20
11.3003698714
 30
0.0
 10
13.3751049038
 20
11.3010540379
 30
0.0
 10
13.3738085695
 20
11.3014421619
 30
0.0
 10
13.3725023998
 20
11.3017117986
 30
0.0
 10
13.3716241557
 20
11.301812543
 30
0.0
 10
13.3711855579
 20
11.301842957
 30
0.0
  0
SPLINE
  5
39F
100
AcDbEntity
  8
0
100
AcDbSpline
 62
7
  6
CONTINUOUS
 70
0
 71
3
 72
19
 73
15
 74
0
 42
0.0000001
 43
0.0000001
 44
0.0000000001
 40
0.0
 40
0.0
 40
0.0
 40
0.0
 40
0.1504611406
 40
0.2916985742
 40
0.4244193292
 40
0.4878835935
 40
0.5495802133
 40
0.6682271463
 40
0.7255606136
 40
0.7817999183
 40
0.8371467056
 40
0.8918136429
 40
0.9460222308
 40
1.0
 40
1.0
 40
1.0
 40
1.0
 10
13.4148147088
 20
8.1654751958
 30
0.0
 10
13.4123410087
 20
8.1630857849
 30
0.0
 10
13.4073970244
 20
8.1586025743
 30
0.0
 10
13.3997417343
 20
8.1526281894
 30
0.0
 10
13.3932756498
 20
8.1484027598
 30
0.0
 10
13.3881193494
 20
8.1455414199
 30
0.0
 10
13.3831151742
 20
8.1430848813
 30
0.0
 10
13.3780524014
 20
8.141076893
 30
0.0
 10
13.3729611513
 20
8.1395658547
 30
0.0
 10
13.3691968201
 20
8.1386948721
 30
0.0
 10
13.3654450158
 20
8.138074086
 30
0.0
 10
13.3617067364
 20
8.1377037674
 30
0.0
 10
13.3579834893
 20
8.1375840694
 30
0.0
 10
13.3555098691
 20
8.1376715413
 30
0.0
 10
13.3542789961
 20
8.1377568986
 30
0.0
  0
SPLINE
  5
3A0
100
AcDbEntity
  8
0
100
AcDbSpline
 62
7
  6
CONTINUOUS
 70
0
 71
3
 72
23
 73
19
 74
0
 42
0.0000001
 43
0.0000001
 44
0.0000000001
 40
0.0
 40
0.0
 40
0.0
 40
0.0
 40
0.0753295827
 40
0.1466999117
 40
0.2143970156
 40
0.278782387
 40
0.3402876653
 40
0.3994164393
 40
0.456744733
 40
0.5129110218
 40
0.5685980582
 40
0.6245077752
 40
0.6813330485
 40
0.7397311054
 40
0.8003023959
 40
0.8635782412
 40
0.9300159272
 40
1.0
 40
1.0
 40
1.0
 40
1.0
 10
9.6176830863
 20
11.7883743656
 30
0.0
 10
9.6156427377
 20
11.78640354
 30
0.0
 10
9.6117801742
 20
11.78244784
 30
0.0
 10
9.6065348614
 20
11.7763015665
 30
0.0
 10
9.6020051929
 20
11.7701125286
 30
0.0
 10
9.598196485
 20
11.7638857034
 30
0.0
 10
9.5951135349
 20
11.7576256426
 30
0.0
 10
9.5927613156
 20
11.7513375494
 30
0.0
 10
9.5911444113
 20
11.7450276133
 30
0.0
 10
9.590266784
 20
11.7387031475
 30
0.0
 10
9.5901306626
 20
11.7323725775
 30
0.0
 10
9.5907366372
 20
11.7260448571
 30
0.0
 10
9.592082813
 20
11.7197286711
 30
0.0
 10
9.594165945
 20
11.7134318033
 30
0.0
 10
9.5969814916
 20
11.7071608172
 30
0.0
 10
9.6005247286
 20
11.7009211626
 30
0.0
 10
9.6047904001
 20
11.6947180535
 30
0.0
 10
9.6080241864
 20
11.690719216
 30
0.0
 10
9.6097499317
 20
11.6887273778
 30
0.0
  0
SPLINE
  5
3A1
100
AcDbEntity
  8
0
100
AcDbSpline
 62
7
  6
CONTINUOUS
 70
0
 71
3
 72
83
 73
79
 74
0
 42
0.0000001
 43
0.0000001
 44
0.0000000001
 40
0.0
 40
0.0
 40
0.0
 40
0.0
 40
0.0039222352
 40
0.0080061359
 40
0.0122551604
 40
0.0166722416
 40
0.021259857
 40
0.0260199411
 40
0.0309537942
 40
0.0360622964
 40
0.0413459146
 40
0.0468047565
 40
0.0524386341
 40
0.0582470014
 40
0.0703834026
 40
0.0832052218
 40
0.0966997669
 40
0.1108513713
 40
0.1256417607
 40
0.1410503353
 40
0.1570544145
 40
0.1736294477
 40
0.190749186
 40
0.2083858331
 40
0.2265101735
 40
0.2450916959
 40
0.2640987149
 40
0.2834984781
 40
0.3032572663
 40
0.3233404882
 40
0.3437127727
 40
0.3643380684
 40
0.3851797344
 40
0.4062006287
 40
0.4486288976
 40
0.4913197093
 40
0.5339668329
 40
0.576264429
 40
0.5971877181
 40
0.6179105477
 40
0.6383960467
 40
0.6586078989
 40
0.6785104343
 40
0.6980687175
 40
0.7172486402
 40
0.7360170165
 40
0.7543416877
 40
0.7721916316
 40
0.7895370657
 40
0.8063495652
 40
0.8226021908
 40
0.8382696381
 40
0.8533284083
 40
0.8677569873
 40
0.8815360663
 40
0.8946488094
 40
0.9070811884
 40
0.9188224129
 40
0.9244317653
 40
0.9298660345
 40
0.9351250764
 40
0.9402090325
 40
0.9451184424
 40
0.9498542601
 40
0.9544178654
 40
0.9588112033
 40
0.9630367459
 40
0.9670976475
 40
0.9709977915
 40
0.9747418631
 40
0.9783355218
 40
0.9817854252
 40
0.9850994247
 40
0.9882866415
 40
0.9913575694
 40
0.994324202
 40
0.9972000146
 40
1.0
 40
1.0
 40
1.0
 40
1.0
 10
13.3839050798
 20
8.1676187859
 30
0.0
 10
13.3855904524
 20
8.1692467309
 30
0.0
 10
13.3889594504
 20
8.1726441067
 30
0.0
 10
13.3939098951
 20
8.1780404385
 30
0.0
 10
13.3988553636
 20
8.1838357937
 30
0.0
 10
13.4037933012
 20
8.1900271756
 30
0.0
 10
13.408721539
 20
8.1966116864
 30
0.0
 10
13.4136377686
 20
8.203586315
 30
0.0
 10
13.4185397851
 20
8.2109477511
 30
0.0
 10
13.4234251977
 20
8.2186925395
 30
0.0
 10
13.428291708
 20
8.2268169971
 30
0.0
 10
13.4331370333
 20
8.2353172631
 30
0.0
 10
13.4379588514
 20
8.2441893445
 30
0.0
 10
13.4444487196
 20
8.2566924227
 30
0.0
 10
13.4524708674
 20
8.2732343315
 30
0.0
 10
13.4618320188
 20
8.2942165966
 30
0.0
 10
13.4710455264
 20
8.316571804
 30
0.0
 10
13.4800937191
 20
8.3402573974
 30
0.0
 10
13.4889592322
 20
8.3652285233
 30
0.0
 10
13.497625034
 20
8.3914376775
 30
0.0
 10
13.5060744738
 20
8.4188349476
 30
0.0
 10
13.5142913084
 20
8.4473680938
 30
0.0
 10
13.5222597417
 20
8.4769826724
 30
0.0
 10
13.5299644531
 20
8.5076221405
 30
0.0
 10
13.537390635
 20
8.5392279638
 30
0.0
 10
13.5445240258
 20
8.5717397338
 30
0.0
 10
13.5513509245
 20
8.6050952945
 30
0.0
 10
13.5578582212
 20
8.6392308673
 30
0.0
 10
13.5640334192
 20
8.6740811726
 30
0.0
 10
13.5698646614
 20
8.70957955
 30
0.0
 10
13.5753407668
 20
8.7456580927
 30
0.0
 10
13.5804512207
 20
8.7822477613
 30
0.0
 10
13.5851862614
 20
8.8192786028
 30
0.0
 10
13.5910045465
 20
8.8692992636
 30
0.0
 10
13.5972698713
 20
8.9324048072
 30
0.0
 10
13.6031446166
 20
9.0085144306
 30
0.0
 10
13.6073532812
 20
9.0846561673
 30
0.0
 10
13.6094531971
 20
9.1478746859
 30
0.0
 10
13.6102665535
 20
9.1980186411
 30
0.0
 10
13.6104417769
 20
9.2351377606
 30
0.0
 10
13.6101842008
 20
9.2718313478
 30
0.0
 10
13.609494311
 20
9.3080292525
 30
0.0
 10
13.608373474
 20
9.3436622092
 30
0.0
 10
13.6068238703
 20
9.3786620583
 30
0.0
 10
13.6048485079
 20
9.4129618503
 30
0.0
 10
13.6024512107
 20
9.4464959828
 30
0.0
 10
13.5996366204
 20
9.4792003319
 30
0.0
 10
13.5964101929
 20
9.5110123798
 30
0.0
 10
13.5927781754
 20
9.5418713343
 30
0.0
 10
13.5887475981
 20
9.5717182435
 30
0.0
 10
13.5843262585
 20
9.6004961147
 30
0.0
 10
13.579522709
 20
9.6281500384
 30
0.0
 10
13.5743462527
 20
9.6546273048
 30
0.0
 10
13.5688069054
 20
9.679877524
 30
0.0
 10
13.5629153739
 20
9.7038526892
 30
0.0
 10
13.5566830232
 20
9.7265074355
 30
0.0
 10
13.5501218405
 20
9.7477986603
 30
0.0
 10
13.5443055206
 20
9.764618682
 30
0.0
 10
13.5394832744
 20
9.7773488561
 30
0.0
 10
13.535847315
 20
9.7863850486
 30
0.0
 10
13.5321387973
 20
9.7950513484
 30
0.0
 10
13.5283593779
 20
9.8033436519
 30
0.0
 10
13.5245108672
 20
9.8112580379
 30
0.0
 10
13.5205951071
 20
9.8187907888
 30
0.0
 10
13.5166138486
 20
9.8259383248
 30
0.0
 10
13.5125690298
 20
9.8326973273
 30
0.0
 10
13.5084624333
 20
9.8390645934
 30
0.0
 10
13.5042959523
 20
9.8450371499
 30
0.0
 10
13.5000714802
 20
9.8506122167
 30
0.0
 10
13.4957907997
 20
9.855787115
 30
0.0
 10
13.4914558631
 20
9.860559459
 30
0.0
 10
13.4870684248
 20
9.8649268819
 30
0.0
 10
13.4826303654
 20
9.8688872476
 30
0.0
 10
13.4781435243
 20
9.872438535
 30
0.0
 10
13.4736097335
 20
9.8755786974
 30
0.0
 10
13.4690308754
 20
9.8783060236
 30
0.0
 10
13.4644093305
 20
9.8806184596
 30
0.0
 10
13.4612643261
 20
9.8818973872
 30
0.0
 10
13.4596901343
 20
9.8824631337
 30
0.0
  0
SPLINE
  5
3A2
100
AcDbEntity
  8
0
100
AcDbSpline
 62
4
  6
CONTINUOUS
 70
0
 71
3
 72
313
 73
309
 74
0
 42
0.0000001
 43
0.0000001
 44
0.0000000001
 40
0.0
 40
0.0
 40
0.0
 40
0.0
 40
0.015625
 40
0.0234375
 40
0.03125
 40
0.0390625
 40
0.046875
 40
0.05078125
 40
0.0546875
 40
0.056640625
 40
0.05859375
 40
0.060546875
 40
0.0615234375
 40
0.0620117188
 40
0.0625
 40
0.0629882812
 40
0.0634765625
 40
0.064453125
 40
0.06640625
 40
0.068359375
 40
0.0703125
 40
0.07421875
 40
0.078125
 40
0.0859375
 40
0.09375
 40
0.1015625
 40
0.109375
 40
0.11328125
 40
0.1171875
 40
0.119140625
 40
0.12109375
 40
0.123046875
 40
0.1240234375
 40
0.1245117188
 40
0.125
 40
0.1254882812
 40
0.1259765625
 40
0.126953125
 40
0.12890625
 40
0.130859375
 40
0.1328125
 40
0.13671875
 40
0.140625
 40
0.1484375
 40
0.15625
 40
0.1640625
 40
0.171875
 40
0.17578125
 40
0.1796875
 40
0.181640625
 40
0.18359375
 40
0.185546875
 40
0.1865234375
 40
0.1870117188
 40
0.1875
 40
0.1879882812
 40
0.1884765625
 40
0.189453125
 40
0.19140625
 40
0.193359375
 40
0.1953125
 40
0.19921875
 40
0.203125
 40
0.2109375
 40
0.21875
 40
0.2265625
 40
0.234375
 40
0.23828125
 40
0.2421875
 40
0.244140625
 40
0.24609375
 40
0.248046875
 40
0.2490234375
 40
0.2495117188
 40
0.25
 40
0.2504882812
 40
0.2509765625
 40
0.251953125
 40
0.25390625
 40
0.255859375
 40
0.2578125
 40
0.26171875
 40
0.265625
 40
0.2734375
 40
0.28125
 40
0.2890625
 40
0.296875
 40
0.30078125
 40
0.3046875
 40
0.306640625
 40
0.30859375
 40
0.310546875
 40
0.3115234375
 40
0.3120117188
 40
0.3125
 40
0.3129882812
 40
0.3134765625
 40
0.314453125
 40
0.31640625
 40
0.318359375
 40
0.3203125
 40
0.32421875
 40
0.328125
 40
0.3359375
 40
0.34375
 40
0.3515625
 40
0.359375
 40
0.36328125
 40
0.3671875
 40
0.369140625
 40
0.37109375
 40
0.373046875
 40
0.3740234375
 40
0.3745117188
 40
0.375
 40
0.3754882812
 40
0.3759765625
 40
0.376953125
 40
0.37890625
 40
0.380859375
 40
0.3828125
 40
0.38671875
 40
0.390625
 40
0.3984375
 40
0.40625
 40
0.4140625
 40
0.421875
 40
0.42578125
 40
0.4296875
 40
0.431640625
 40
0.43359375
 40
0.435546875
 40
0.4365234375
 40
0.4370117188
 40
0.4375
 40
0.4379882812
 40
0.4384765625
 40
0.439453125
 40
0.44140625
 40
0.443359375
 40
0.4453125
 40
0.44921875
 40
0.453125
 40
0.4609375
 40
0.46875
 40
0.4765625
 40
0.484375
 40
0.48828125
 40
0.4921875
 40
0.494140625
 40
0.49609375
 40
0.498046875
 40
0.4990234375
 40
0.4995117188
 40
0.5
 40
0.5004882812
 40
0.5009765625
 40
0.501953125
 40
0.50390625
 40
0.505859375
 40
0.5078125
 40
0.51171875
 40
0.515625
 40
0.5234375
 40
0.53125
 40
0.5390625
 40
0.546875
 40
0.55078125
 40
0.5546875
 40
0.556640625
 40
0.55859375
 40
0.560546875
 40
0.5615234375
 40
0.5620117188
 40
0.5625
 40
0.5629882812
 40
0.5634765625
 40
0.564453125
 40
0.56640625
 40
0.568359375
 40
0.5703125
 40
0.57421875
 40
0.578125
 40
0.5859375
 40
0.59375
 40
0.6015625
 40
0.609375
 40
0.61328125
 40
0.6171875
 40
0.619140625
 40
0.62109375
 40
0.623046875
 40
0.6240234375
 40
0.6245117188
 40
0.625
 40
0.6254882812
 40
0.6259765625
 40
0.626953125
 40
0.62890625
 40
0.630859375
 40
0.6328125
 40
0.63671875
 40
0.640625
 40
0.6484375
 40
0.65625
 40
0.6640625
 40
0.671875
 40
0.67578125
 40
0.6796875
 40
0.681640625
 40
0.68359375
 40
0.685546875
 40
0.6865234375
 40
0.6870117188
 40
0.6875
 40
0.6879882812
 40
0.6884765625
 40
0.689453125
 40
0.69140625
 40
0.693359375
 40
0.6953125
 40
0.69921875
 40
0.703125
 40
0.7109375
 40
0.71875
 40
0.7265625
 40
0.734375
 40
0.73828125
 40
0.7421875
 40
0.744140625
 40
0.74609375
 40
0.748046875
 40
0.7490234375
 40
0.7495117188
 40
0.75
 40
0.7504882812
 40
0.7509765625
 40
0.751953125
 40
0.75390625
 40
0.755859375
 40
0.7578125
 40
0.76171875
 40
0.765625
 40
0.7734375
 40
0.78125
 40
0.7890625
 40
0.796875
 40
0.80078125
 40
0.8046875
 40
0.806640625
 40
0.80859375
 40
0.810546875
 40
0.8115234375
 40
0.8120117188
 40
0.8125
 40
0.8129882812
 40
0.8134765625
 40
0.814453125
 40
0.81640625
 40
0.818359375
 40
0.8203125
 40
0.82421875
 40
0.828125
 40
0.8359375
 40
0.84375
 40
0.8515625
 40
0.859375
 40
0.86328125
 40
0.8671875
 40
0.869140625
 40
0.87109375
 40
0.873046875
 40
0.8740234375
 40
0.8745117188
 40
0.875
 40
0.8754882812
 40
0.8759765625
 40
0.876953125
 40
0.87890625
 40
0.880859375
 40
0.8828125
 40
0.88671875
 40
0.890625
 40
0.8984375
 40
0.90625
 40
0.9140625
 40
0.921875
 40
0.92578125
 40
0.9296875
 40
0.931640625
 40
0.93359375
 40
0.935546875
 40
0.9365234375
 40
0.9370117188
 40
0.9375
 40
0.9379882812
 40
0.9384765625
 40
0.939453125
 40
0.94140625
 40
0.943359375
 40
0.9453125
 40
0.94921875
 40
0.953125
 40
0.9609375
 40
0.96875
 40
0.9765625
 40
0.984375
 40
1.0
 40
1.0
 40
1.0
 40
1.0
 10
10.251082711
 20
9.6674840497
 30
0.0
 10
10.2542158979
 20
9.6675739741
 30
0.0
 10
10.2589156784
 20
9.6677088604
 30
0.0
 10
10.2651820521
 20
9.6678887099
 30
0.0
 10
10.2698818328
 20
9.6680235946
 30
0.0
 10
10.2745816118
 20
9.6681584886
 30
0.0
 10
10.2784980999
 20
9.6682708709
 30
0.0
 10
10.2816312776
 20
9.6683608427
 30
0.0
 10
10.283589543
 20
9.6684169249
 30
0.0
 10
10.2851560881
 20
9.6684621346
 30
0.0
 10
10.2863311809
 20
9.6684951001
 30
0.0
 10
10.2873098397
 20
9.6685255673
 30
0.0
 10
10.2879960493
 20
9.6685410149
 30
0.0
 10
10.2883863759
 20
9.6685590223
 30
0.0
 10
10.2886841721
 20
9.6685466673
 30
0.0
 10
10.2889626601
 20
9.6686331642
 30
0.0
 10
10.2893407124
 20
9.6687140127
 30
0.0
 10
10.2899991661
 20
9.6688715628
 30
0.0
 10
10.2909414547
 20
9.6690882353
 30
0.0
 10
10.2920714988
 20
9.6693518374
 30
0.0
 10
10.2935784695
 20
9.6697020512
 30
0.0
 10
10.295462099
 20
9.6701402484
 30
0.0
 10
10.2984759531
 20
9.6708411235
 30
0.0
 10
10.3022432543
 20
9.6717173004
 30
0.0
 10
10.3067640238
 20
9.6727686748
 30
0.0
 10
10.3112847877
 20
9.6738200678
 30
0.0
 10
10.3150521027
 20
9.6746961983
 30
0.0
 10
10.3180659293
 20
9.6753971662
 30
0.0
 10
10.3199496286
 20
9.6758351274
 30
0.0
 10
10.3214564561
 20
9.6761858254
 30
0.0
 10
10.3225869377
 20
9.6764479483
 30
0.0
 10
10.3235278576
 20
9.676669249
 30
0.0
 10
10.3241887545
 20
9.676818537
 30
0.0
 10
10.3245628921
 20
9.6769126234
 30
0.0
 10
10.3248534051
 20
9.6769584578
 30
0.0
 10
10.3251060375
 20
9.6770988245
 30
0.0
 10
10.3254560938
 20
9.6772530063
 30
0.0
 10
10.3260625362
 20
9.6775381875
 30
0.0
 10
10.326932101
 20
9.6779375572
 30
0.0
 10
10.3279742011
 20
9.6784202389
 30
0.0
 10
10.3293641491
 20
9.6790626136
 30
0.0
 10
10.3311014193
 20
9.6798659931
 30
0.0
 10
10.3338811437
 20
9.6811511705
 30
0.0
 10
10.3373557674
 20
9.6827577216
 30
0.0
 10
10.3415253307
 20
9.6846855467
 30
0.0
 10
10.3456948857
 20
9.6866133898
 30
0.0
 10
10.3491695301
 20
9.688219896
 30
0.0
 10
10.3519492131
 20
9.6895051632
 30
0.0
 10
10.3536865887
 20
9.6903083145
 30
0.0
 10
10.3550763203
 20
9.6909511577
 30
0.0
 10
10.3561190816
 20
9.6914324079
 30
0.0
 10
10.3569865777
 20
9.6918362561
 30
0.0
 10
10.357596713
 20
9.6921134426
 30
0.0
 10
10.3579408523
 20
9.6922804339
 30
0.0
 10
10.3582116599
 20
9.6923814537
 30
0.0
 10
10.3584339099
 20
9.6925750688
 30
0.0
 10
10.3587471806
 20
9.6928009239
 30
0.0
 10
10.359287513
 20
9.6932112188
 30
0.0
 10
10.3600635422
 20
9.6937894869
 30
0.0
 10
10.3609930112
 20
9.6944867761
 30
0.0
 10
10.3622329201
 20
9.6954153189
 30
0.0
 10
10.3637825949
 20
9.6965764
 30
0.0
 10
10.3662621928
 20
9.6984339048
 30
0.0
 10
10.3693616492
 20
9.7007558634
 30
0.0
 10
10.3730810163
 20
9.7035421787
 30
0.0
 10
10.3768003712
 20
9.7063285097
 30
0.0
 10
10.3798998579
 20
9.7086504291
 30
0.0
 10
10.3823793951
 20
9.7105080122
 30
0.0
 10
10.3839292242
 20
9.7116688942
 30
0.0
 10
10.3851688165
 20
9.7125978457
 30
0.0
 10
10.3860992526
 20
9.7132938863
 30
0.0
 10
10.3868722561
 20
9.7138760609
 30
0.0
 10
10.3874179898
 20
9.714279382
 30
0.0
 10
10.3877226062
 20
9.714516411
 30
0.0
 10
10.3879714398
 20
9.7146757036
 30
0.0
 10
10.3881424038
 20
9.7149056326
 30
0.0
 10
10.3883975175
 20
9.7151875659
 30
0.0
 10
10.3888313114
 20
9.7156924289
 30
0.0
 10
10.3894576332
 20
9.7164076599
 30
0.0
 10
10.3902063874
 20
9.717268506
 30
0.0
 10
10.3912057155
 20
9.7184154037
 30
0.0
 10
10.392454537
 20
9.7198493329
 30
0.0
 10
10.3944528406
 20
9.7221434479
 30
0.0
 10
10.3969506547
 20
9.725011151
 30
0.0
 10
10.3999480617
 20
9.7284523678
 30
0.0
 10
10.4029454533
 20
9.7318935973
 30
0.0
 10
10.4054433059
 20
9.7347612687
 30
0.0
 10
10.4074415325
 20
9.737055447
 30
0.0
 10
10.4086905497
 20
9.7384892156
 30
0.0
 10
10.409689476
 20
9.7396364429
 30
0.0
 10
10.4104394577
 20
9.7404962819
 30
0.0
 10
10.411061939
 20
9.741214664
 30
0.0
 10
10.4115025889
 20
9.7417139017
 30
0.0
 10
10.4117467176
 20
9.7420048479
 30
0.0
 10
10.4119514242
 20
9.7422070922
 30
0.0
 10
10.412073526
 20
9.7424703643
 30
0.0
 10
10.4122651418
 20
9.7428001065
 30
0.0
 10
10.4125870449
 20
9.7433870735
 30
0.0
 10
10.4130539249
 20
9.7442204125
 30
0.0
 10
10.4136111768
 20
9.7452226387
 30
0.0
 10
10.4143552287
 20
9.7465581652
 30
0.0
 10
10.4152849342
 20
9.7482278387
 30
0.0
 10
10.4167726638
 20
9.750899168
 30
0.0
 10
10.4186322565
 20
9.7542383807
 30
0.0
 10
10.4208637997
 20
9.7582454129
 30
0.0
 10
10.4230953261
 20
9.7622524553
 30
0.0
 10
10.4249549606
 20
9.7655916427
 30
0.0
 10
10.4264426066
 20
9.7682630226
 30
0.0
 10
10.4273725248
 20
9.7699325673
 30
0.0
 10
10.42811614
 20
9.7712683581
 30
0.0
 10
10.4286747258
 20
9.7722697767
 30
0.0
 10
10.4291374326
 20
9.7731056428
 30
0.0
 10
10.4294667856
 20
9.7736880985
 30
0.0
 10
10.4296464647
 20
9.774025069
 30
0.0
 10
10.4298052325
 20
9.7742661381
 30
0.0
 10
10.4298722276
 20
9.7745517729
 30
0.0
 10
10.4299935658
 20
9.7749170743
 30
0.0
 10
10.430190993
 20
9.7755635945
 30
0.0
 10
10.4304808294
 20
9.7764834082
 30
0.0
 10
10.4308252954
 20
9.7775888055
 30
0.0
 10
10.4312857493
 20
9.7790621023
 30
0.0
 10
10.4318609174
 20
9.7809039172
 30
0.0
 10
10.4327814096
 20
9.7838507127
 30
0.0
 10
10.4339319477
 20
9.7875342445
 30
0.0
 10
10.4353126288
 20
9.7919544657
 30
0.0
 10
10.4366932918
 20
9.7963746947
 30
0.0
 10
10.4378438753
 20
9.8000582072
 30
0.0
 10
10.4387642767
 20
9.8030050411
 30
0.0
 10
10.4393396756
 20
9.8048467584
 30
0.0
 10
10.4397996557
 20
9.8063202557
 30
0.0
 10
10.440145569
 20
9.8074250404
 30
0.0
 10
10.4404308774
 20
9.8083467706
 30
0.0
 10
10.4406363879
 20
9.8089898695
 30
0.0
 10
10.4407447745
 20
9.8093606527
 30
0.0
 10
10.4408515527
 20
9.8096294492
 30
0.0
 10
10.440860902
 20
9.8099337605
 30
0.0
 10
10.440907352
 20
9.810327121
 30
0.0
 10
10.4409728056
 20
9.8110212736
 30
0.0
 10
10.4410745888
 20
9.8120099026
 30
0.0
 10
10.4411931854
 20
9.813197549
 30
0.0
 10
10.4413525518
 20
9.8147806264
 30
0.0
 10
10.4415513361
 20
9.8167596276
 30
0.0
 10
10.4418696278
 20
9.8199259433
 30
0.0
 10
10.4422674105
 20
9.8238838674
 30
0.0
 10
10.4427447874
 20
9.8286333638
 30
0.0
 10
10.4432221451
 20
9.8333828634
 30
0.0
 10
10.4436199755
 20
9.8373407795
 30
0.0
 10
10.4439381719
 20
9.8405071112
 30
0.0
 10
10.4441371984
 20
9.8424860715
 30
0.0
 10
10.4442960675
 20
9.844069233
 30
0.0
 10
10.4444161834
 20
9.8452566224
 30
0.0
 10
10.4445132132
 20
9.8462460555
 30
0.0
 10
10.4445871525
 20
9.8469387726
 30
0.0
 10
10.4446200062
 20
9.8473344331
 30
0.0
 10
10.4446711189
 20
9.8476316796
 30
0.0
 10
10.4446210406
 20
9.8479270104
 30
0.0
 10
10.444589566
 20
9.8483214531
 30
0.0
 10
10.4445180403
 20
9.8490114164
 30
0.0
 10
10.4444244584
 20
9.849997241
 30
0.0
 10
10.44430848
 20
9.8511801609
 30
0.0
 10
10.4441551275
 20
9.8527574118
 30
0.0
 10
10.4439629968
 20
9.854728967
 30
0.0
 10
10.4436558337
 20
9.85788346
 30
0.0
 10
10.4432717948
 20
9.8618265747
 30
0.0
 10
10.442810987
 20
9.8665583133
 30
0.0
 10
10.44235016
 20
9.8712900504
 30
0.0
 10
10.4419661689
 20
9.8752331686
 30
0.0
 10
10.4416589104
 20
9.8783876547
 30
0.0
 10
10.4414670221
 20
9.8803592275
 30
0.0
 10
10.4413131721
 20
9.8819364422
 30
0.0
 10
10.4411987136
 20
9.8831194727
 30
0.0
 10
10.4411003762
 20
9.8841049512
 30
0.0
 10
10.4410373398
 20
9.8847955324
 30
0.0
 10
10.4409922632
 20
9.8851889851
 30
0.0
 10
10.4409839659
 20
9.8854873567
 30
0.0
 10
10.4408781558
 20
9.8857731827
 30
0.0
 10
10.4407710893
 20
9.8861586601
 30
0.0
 10
10.4405678753
 20
9.8868312067
 30
0.0
 10
10.4402858548
 20
9.8877930535
 30
0.0
 10
10.4399438839
 20
9.8889468133
 30
0.0
 10
10.4394891613
 20
9.8904853192
 30
0.0
 10
10.438920334
 20
9.8924083969
 30
0.0
 10
10.4380104474
 20
9.8954853519
 30
0.0
 10
10.4368730073
 20
9.8993315349
 30
0.0
 10
10.4355081165
 20
9.9039469598
 30
0.0
 10
10.4341432074
 20
9.9085623805
 30
0.0
 10
10.4330058128
 20
9.9124085741
 30
0.0
 10
10.4320958353
 20
9.9154855079
 30
0.0
 10
10.431527239
 20
9.9174086394
 30
0.0
 10
10.4310720422
 20
9.918947035
 30
0.0
 10
10.4307315202
 20
9.9201011318
 30
0.0
 10
10.4304449665
 20
9.9210619243
 30
0.0
 10
10.4302498451
 20
9.921736353
 30
0.0
 10
10.4301298121
 20
9.9221188148
 30
0.0
 10
10.4300638306
 20
9.9224139037
 30
0.0
 10
10.4299059437
 20
9.9226774855
 30
0.0
 10
10.4297274855
 20
9.923039918
 30
0.0
 10
10.4294002474
 20
9.9236690544
 30
0.0
 10
10.4289405731
 20
9.9245704977
 30
0.0
 10
10.4283856216
 20
9.9256510838
 30
0.0
 10
10.4276468537
 20
9.9270922655
 30
0.0
 10
10.426722994
 20
9.9288936056
 30
0.0
 10
10.4252450421
 20
9.9317758264
 30
0.0
 10
10.423397525
 20
9.9353785759
 30
0.0
 10
10.4211805397
 20
9.9397018876
 30
0.0
 10
10.418963537
 20
9.9440251922
 30
0.0
 10
10.4171160634
 20
9.9476279594
 30
0.0
 10
10.4156380245
 20
9.9505101447
 30
0.0
 10
10.4147143859
 20
9.9523115749
 30
0.0
 10
10.4139751644
 20
9.9537525716
 30
0.0
 10
10.4134215984
 20
9.9548337229
 30
0.0
 10
10.4129575892
 20
9.9557333981
 30
0.0
 10
10.4126380897
 20
9.9563656908
 30
0.0
 10
10.4124472322
 20
9.9567230661
 30
0.0
 10
10.4123274319
 20
9.9570021819
 30
0.0
 10
10.4121184037
 20
9.957238928
 30
0.0
 10
10.4118708232
 20
9.9575693686
 30
0.0
 10
10.4114230561
 20
9.9581407537
 30
0.0
 10
10.4107909702
 20
9.9589606182
 30
0.0
 10
10.4100292221
 20
9.9599429146
 30
0.0
 10
10.4090146914
 20
9.9612531814
 30
0.0
 10
10.4077461399
 20
9.9628908306
 30
0.0
 10
10.4057166744
 20
9.9655111724
 30
0.0
 10
10.4031797678
 20
9.9687865638
 30
0.0
 10
10.4001355135
 20
9.9727170507
 30
0.0
 10
10.3970912444
 20
9.9766475264
 30
0.0
 10
10.3945543748
 20
9.9799229456
 30
0.0
 10
10.3925248353
 20
9.9825432319
 30
0.0
 10
10.3912564722
 20
9.9841810222
 30
0.0
 10
10.3902415547
 20
9.9854909993
 30
0.0
 10
10.3894809881
 20
9.9864741809
 30
0.0
 10
10.3888452056
 20
9.987291276
 30
0.0
 10
10.3884040377
 20
9.9878676049
 30
0.0
 10
10.3881458835
 20
9.9881901243
 30
0.0
 10
10.3879693342
 20
9.9884512016
 30
0.0
 10
10.3877275488
 20
9.9886389335
 30
0.0
 10
10.3874279233
 20
9.9889148263
 30
0.0
 10
10.3868929767
 20
9.9893857189
 30
0.0
 10
10.3861343101
 20
9.9900646544
 30
0.0
 10
10.3852215376
 20
9.9908767096
 30
0.0
 10
10.3840053364
 20
9.9919603815
 30
0.0
 10
10.3824848011
 20
9.9933146524
 30
0.0
 10
10.3800521032
 20
9.9954816642
 30
0.0
 10
10.3770111762
 20
9.9981903674
 30
0.0
 10
10.3733620885
 20
10.0014408394
 30
0.0
 10
10.3697129892
 20
10.0046912969
 30
0.0
 10
10.3666720911
 20
10.0074000365
 30
0.0
 10
10.3642393353
 20
10.0095669753
 30
0.0
 10
10.3627189471
 20
10.0109214318
 30
0.0
 10
10.361502444
 20
10.0120047229
 30
0.0
 10
10.3605905936
 20
10.0128179416
 30
0.0
 10
10.3598290423
 20
10.0134932367
 30
0.0
 10
10.3592992454
 20
10.0139706281
 30
0.0
 10
10.3589913688
 20
10.0142361081
 30
0.0
 10
10.3587749281
 20
10.014455825
 30
0.0
 10
10.3585031882
 20
10.014596772
 30
0.0
 10
10.3581601574
 20
10.0148121771
 30
0.0
 10
10.3575508663
 20
10.0151763346
 30
0.0
 10
10.3566851491
 20
10.0157032524
 30
0.0
 10
10.3556442773
 20
10.016332689
 30
0.0
 10
10.3542571507
 20
10.0171729384
 30
0.0
 10
10.3525230018
 20
10.0182229075
 30
0.0
 10
10.3497484982
 20
10.0199030496
 30
0.0
 10
10.3462803223
 20
10.0220031611
 30
0.0
 10
10.342118532
 20
10.0245233254
 30
0.0
 10
10.3379567327
 20
10.0270434736
 30
0.0
 10
10.3344885793
 20
10.0291436253
 30
0.0
 10
10.3317140308
 20
10.0308236869
 30
0.0
 10
10.329979996
 20
10.0318738609
 30
0.0
 10
10.3285926353
 20
10.0327136899
 30
0.0
 10
10.3275524787
 20
10.0333444107
 30
0.0
 10
10.3266845237
 20
10.0338673104
 30
0.0
 10
10.3260792274
 20
10.0342386409
 30
0.0
 10
10.3257297961
 20
10.0344425531
 30
0.0
 10
10.3254777164
 20
10.0346188027
 30
0.0
 10
10.3251874354
 20
10.0347059289
 30
0.0
 10
10.3248137192
 20
10.0348531844
 30
0.0
 10
10.3241535073
 20
10.0350963974
 30
0.0
 10
10.3232135934
 20
10.0354514171
 30
0.0
 10
10.3220843074
 20
10.0358741994
 30
0.0
 10
10.3205790779
 20
10.0364390412
 30
0.0
 10
10.318697375
 20
10.0371447059
 30
0.0
 10
10.3156867431
 20
10.0382739861
 30
0.0
 10
10.3119234213
 20
10.0396855115
 30
0.0
 10
10.3074074495
 20
10.0413793763
 30
0.0
 10
10.3028914713
 20
10.0430732234
 30
0.0
 10
10.2991281655
 20
10.0444847931
 30
0.0
 10
10.2961175015
 20
10.0456139847
 30
0.0
 10
10.2942358802
 20
10.0463198745
 30
0.0
 10
10.2927304831
 20
10.0468842543
 30
0.0
 10
10.2916017093
 20
10.0473084483
 30
0.0
 10
10.2906601928
 20
10.047659051
 30
0.0
 10
10.2900028418
 20
10.047910149
 30
0.0
 10
10.2896245419
 20
10.0480447709
 30
0.0
 10
10.2893483404
 20
10.0481707037
 30
0.0
 10
10.2890433805
 20
10.048201202
 30
0.0
 10
10.2886467986
 20
10.0482751551
 30
0.0
 10
10.2879481064
 20
10.0483890631
 30
0.0
 10
10.2869524183
 20
10.0485598976
 30
0.0
 10
10.2857565467
 20
10.0487614281
 30
0.0
 10
10.2841624165
 20
10.0490313478
 30
0.0
 10
10.2821696286
 20
10.0493683324
 30
0.0
 10
10.278981238
 20
10.0499077397
 30
0.0
 10
10.2749957257
 20
10.0505819191
 30
0.0
 10
10.2702131212
 20
10.0513909686
 30
0.0
 10
10.2654305139
 20
10.052200009
 30
0.0
 10
10.2590537053
 20
10.0532787327
 30
0.0
 10
10.2542710985
 20
10.0540877748
 30
0.0
 10
10.2510826941
 20
10.0546271363
 30
0.0
  0
SPLINE
  5
3A3
100
AcDbEntity
  8
0
100
AcDbSpline
 62
4
  6
CONTINUOUS
 70
0
 71
3
 72
313
 73
309
 74
0
 42
0.0000001
 43
0.0000001
 44
0.0000000001
 40
0.0
 40
0.0
 40
0.0
 40
0.0
 40
0.015625
 40
0.0234375
 40
0.03125
 40
0.0390625
 40
0.046875
 40
0.05078125
 40
0.0546875
 40
0.056640625
 40
0.05859375
 40
0.060546875
 40
0.0615234375
 40
0.0620117188
 40
0.0625
 40
0.0629882812
 40
0.0634765625
 40
0.064453125
 40
0.06640625
 40
0.068359375
 40
0.0703125
 40
0.07421875
 40
0.078125
 40
0.0859375
 40
0.09375
 40
0.1015625
 40
0.109375
 40
0.11328125
 40
0.1171875
 40
0.119140625
 40
0.12109375
 40
0.123046875
 40
0.1240234375
 40
0.1245117188
 40
0.125
 40
0.1254882812
 40
0.1259765625
 40
0.126953125
 40
0.12890625
 40
0.130859375
 40
0.1328125
 40
0.13671875
 40
0.140625
 40
0.1484375
 40
0.15625
 40
0.1640625
 40
0.171875
 40
0.17578125
 40
0.1796875
 40
0.181640625
 40
0.18359375
 40
0.185546875
 40
0.1865234375
 40
0.1870117188
 40
0.1875
 40
0.1879882812
 40
0.1884765625
 40
0.189453125
 40
0.19140625
 40
0.193359375
 40
0.1953125
 40
0.19921875
 40
0.203125
 40
0.2109375
 40
0.21875
 40
0.2265625
 40
0.234375
 40
0.23828125
 40
0.2421875
 40
0.244140625
 40
0.24609375
 40
0.248046875
 40
0.2490234375
 40
0.2495117188
 40
0.25
 40
0.2504882812
 40
0.2509765625
 40
0.251953125
 40
0.25390625
 40
0.255859375
 40
0.2578125
 40
0.26171875
 40
0.265625
 40
0.2734375
 40
0.28125
 40
0.2890625
 40
0.296875
 40
0.30078125
 40
0.3046875
 40
0.306640625
 40
0.30859375
 40
0.310546875
 40
0.3115234375
 40
0.3120117188
 40
0.3125
 40
0.3129882812
 40
0.3134765625
 40
0.314453125
 40
0.31640625
 40
0.318359375
 40
0.3203125
 40
0.32421875
 40
0.328125
 40
0.3359375
 40
0.34375
 40
0.3515625
 40
0.359375
 40
0.36328125
 40
0.3671875
 40
0.369140625
 40
0.37109375
 40
0.373046875
 40
0.3740234375
 40
0.3745117188
 40
0.375
 40
0.3754882812
 40
0.3759765625
 40
0.376953125
 40
0.37890625
 40
0.380859375
 40
0.3828125
 40
0.38671875
 40
0.390625
 40
0.3984375
 40
0.40625
 40
0.4140625
 40
0.421875
 40
0.42578125
 40
0.4296875
 40
0.431640625
 40
0.43359375
 40
0.435546875
 40
0.4365234375
 40
0.4370117188
 40
0.4375
 40
0.4379882812
 40
0.4384765625
 40
0.439453125
 40
0.44140625
 40
0.443359375
 40
0.4453125
 40
0.44921875
 40
0.453125
 40
0.4609375
 40
0.46875
 40
0.4765625
 40
0.484375
 40
0.48828125
 40
0.4921875
 40
0.494140625
 40
0.49609375
 40
0.498046875
 40
0.4990234375
 40
0.4995117188
 40
0.5
 40
0.5004882812
 40
0.5009765625
 40
0.501953125
 40
0.50390625
 40
0.505859375
 40
0.5078125
 40
0.51171875
 40
0.515625
 40
0.5234375
 40
0.53125
 40
0.5390625
 40
0.546875
 40
0.55078125
 40
0.5546875
 40
0.556640625
 40
0.55859375
 40
0.560546875
 40
0.5615234375
 40
0.5620117188
 40
0.5625
 40
0.5629882812
 40
0.5634765625
 40
0.564453125
 40
0.56640625
 40
0.568359375
 40
0.5703125
 40
0.57421875
 40
0.578125
 40
0.5859375
 40
0.59375
 40
0.6015625
 40
0.609375
 40
0.61328125
 40
0.6171875
 40
0.619140625
 40
0.62109375
 40
0.623046875
 40
0.6240234375
 40
0.6245117188
 40
0.625
 40
0.6254882812
 40
0.6259765625
 40
0.626953125
 40
0.62890625
 40
0.630859375
 40
0.6328125
 40
0.63671875
 40
0.640625
 40
0.6484375
 40
0.65625
 40
0.6640625
 40
0.671875
 40
0.67578125
 40
0.6796875
 40
0.681640625
 40
0.68359375
 40
0.685546875
 40
0.6865234375
 40
0.6870117188
 40
0.6875
 40
0.6879882812
 40
0.6884765625
 40
0.689453125
 40
0.69140625
 40
0.693359375
 40
0.6953125
 40
0.69921875
 40
0.703125
 40
0.7109375
 40
0.71875
 40
0.7265625
 40
0.734375
 40
0.73828125
 40
0.7421875
 40
0.744140625
 40
0.74609375
 40
0.748046875
 40
0.7490234375
 40
0.7495117188
 40
0.75
 40
0.7504882812
 40
0.7509765625
 40
0.751953125
 40
0.75390625
 40
0.755859375
 40
0.7578125
 40
0.76171875
 40
0.765625
 40
0.7734375
 40
0.78125
 40
0.7890625
 40
0.796875
 40
0.80078125
 40
0.8046875
 40
0.806640625
 40
0.80859375
 40
0.810546875
 40
0.8115234375
 40
0.8120117188
 40
0.8125
 40
0.8129882812
 40
0.8134765625
 40
0.814453125
 40
0.81640625
 40
0.818359375
 40
0.8203125
 40
0.82421875
 40
0.828125
 40
0.8359375
 40
0.84375
 40
0.8515625
 40
0.859375
 40
0.86328125
 40
0.8671875
 40
0.869140625
 40
0.87109375
 40
0.873046875
 40
0.8740234375
 40
0.8745117188
 40
0.875
 40
0.8754882812
 40
0.8759765625
 40
0.876953125
 40
0.87890625
 40
0.880859375
 40
0.8828125
 40
0.88671875
 40
0.890625
 40
0.8984375
 40
0.90625
 40
0.9140625
 40
0.921875
 40
0.92578125
 40
0.9296875
 40
0.931640625
 40
0.93359375
 40
0.935546875
 40
0.9365234375
 40
0.9370117188
 40
0.9375
 40
0.9379882812
 40
0.9384765625
 40
0.939453125
 40
0.94140625
 40
0.943359375
 40
0.9453125
 40
0.94921875
 40
0.953125
 40
0.9609375
 40
0.96875
 40
0.9765625
 40
0.984375
 40
1.0
 40
1.0
 40
1.0
 40
1.0
 10
10.251082711
 20
10.0546271351
 30
0.0
 10
10.2479495241
 20
10.0545372107
 30
0.0
 10
10.2432497437
 20
10.0544023243
 30
0.0
 10
10.23698337
 20
10.0542224749
 30
0.0
 10
10.2322835892
 20
10.0540875902
 30
0.0
 10
10.2275838103
 20
10.0539526961
 30
0.0
 10
10.2236673221
 20
10.0538403139
 30
0.0
 10
10.2205341444
 20
10.0537503421
 30
0.0
 10
10.2185758791
 20
10.0536942599
 30
0.0
 10
10.2170093339
 20
10.0536490502
 30
0.0
 10
10.2158342412
 20
10.0536160847
 30
0.0
 10
10.2148555823
 20
10.0535856175
 30
0.0
 10
10.2141693728
 20
10.0535701698
 30
0.0
 10
10.2137790461
 20
10.0535521625
 30
0.0
 10
10.21348125
 20
10.0535645175
 30
0.0
 10
10.2132027619
 20
10.0534780206
 30
0.0
 10
10.2128247096
 20
10.0533971721
 30
0.0
 10
10.212166256
 20
10.053239622
 30
0.0
 10
10.2112239674
 20
10.0530229494
 30
0.0
 10
10.2100939233
 20
10.0527593473
 30
0.0
 10
10.2085869525
 20
10.0524091336
 30
0.0
 10
10.2067033231
 20
10.0519709364
 30
0.0
 10
10.203689469
 20
10.0512700613
 30
0.0
 10
10.1999221677
 20
10.0503938844
 30
0.0
 10
10.1954013983
 20
10.04934251
 30
0.0
 10
10.1908806343
 20
10.048291117
 30
0.0
 10
10.1871133193
 20
10.0474149865
 30
0.0
 10
10.1840994927
 20
10.0467140186
 30
0.0
 10
10.1822157935
 20
10.0462760573
 30
0.0
 10
10.1807089659
 20
10.0459253594
 30
0.0
 10
10.1795784844
 20
10.0456632365
 30
0.0
 10
10.1786375645
 20
10.0454419358
 30
0.0
 10
10.1779766675
 20
10.0452926478
 30
0.0
 10
10.17760253
 20
10.0451985614
 30
0.0
 10
10.1773120169
 20
10.045152727
 30
0.0
 10
10.1770593846
 20
10.0450123602
 30
0.0
 10
10.1767093282
 20
10.0448581785
 30
0.0
 10
10.1761028859
 20
10.0445729973
 30
0.0
 10
10.1752333211
 20
10.0441736275
 30
0.0
 10
10.174191221
 20
10.0436909459
 30
0.0
 10
10.172801273
 20
10.0430485712
 30
0.0
 10
10.1710640028
 20
10.0422451917
 30
0.0
 10
10.1682842783
 20
10.0409600143
 30
0.0
 10
10.1648096546
 20
10.0393534632
 30
0.0
 10
10.1606400914
 20
10.0374256381
 30
0.0
 10
10.1564705364
 20
10.035497795
 30
0.0
 10
10.152995892
 20
10.0338912888
 30
0.0
 10
10.150216209
 20
10.0326060216
 30
0.0
 10
10.1484788333
 20
10.0318028703
 30
0.0
 10
10.1470891018
 20
10.0311600271
 30
0.0
 10
10.1460463405
 20
10.0306787768
 30
0.0
 10
10.1451788444
 20
10.0302749287
 30
0.0
 10
10.1445687091
 20
10.0299977422
 30
0.0
 10
10.1442245697
 20
10.0298307509
 30
0.0
 10
10.1439537622
 20
10.0297297311
 30
0.0
 10
10.1437315122
 20
10.029536116
 30
0.0
 10
10.1434182414
 20
10.0293102608
 30
0.0
 10
10.142877909
 20
10.028899966
 30
0.0
 10
10.1421018799
 20
10.0283216979
 30
0.0
 10
10.1411724108
 20
10.0276244087
 30
0.0
 10
10.139932502
 20
10.0266958659
 30
0.0
 10
10.1383828271
 20
10.0255347847
 30
0.0
 10
10.1359032293
 20
10.02367728
 30
0.0
 10
10.1328037729
 20
10.0213553214
 30
0.0
 10
10.1290844058
 20
10.0185690061
 30
0.0
 10
10.1253650508
 20
10.0157826751
 30
0.0
 10
10.1222655641
 20
10.0134607557
 30
0.0
 10
10.1197860269
 20
10.0116031726
 30
0.0
 10
10.1182361978
 20
10.0104422905
 30
0.0
 10
10.1169966055
 20
10.0095133391
 30
0.0
 10
10.1160661694
 20
10.0088172985
 30
0.0
 10
10.115293166
 20
10.0082351239
 30
0.0
 10
10.1147474322
 20
10.0078318028
 30
0.0
 10
10.1144428159
 20
10.0075947738
 30
0.0
 10
10.1141939822
 20
10.0074354812
 30
0.0
 10
10.1140230183
 20
10.0072055521
 30
0.0
 10
10.1137679045
 20
10.0069236188
 30
0.0
 10
10.1133341106
 20
10.0064187559
 30
0.0
 10
10.1127077888
 20
10.0057035249
 30
0.0
 10
10.1119590346
 20
10.0048426787
 30
0.0
 10
10.1109597065
 20
10.0036957811
 30
0.0
 10
10.1097108851
 20
10.0022618519
 30
0.0
 10
10.1077125814
 20
9.9999677368
 30
0.0
 10
10.1052147673
 20
9.9971000338
 30
0.0
 10
10.1022173604
 20
9.993658817
 30
0.0
 10
10.0992199688
 20
9.9902175875
 30
0.0
 10
10.0967221162
 20
9.987349916
 30
0.0
 10
10.0947238895
 20
9.9850557378
 30
0.0
 10
10.0934748723
 20
9.9836219692
 30
0.0
 10
10.092475946
 20
9.9824747419
 30
0.0
 10
10.0917259643
 20
9.9816149029
 30
0.0
 10
10.0911034831
 20
9.9808965208
 30
0.0
 10
10.0906628331
 20
9.980397283
 30
0.0
 10
10.0904187045
 20
9.9801063368
 30
0.0
 10
10.0902139978
 20
9.9799040926
 30
0.0
 10
10.0900918961
 20
9.9796408205
 30
0.0
 10
10.0899002802
 20
9.9793110783
 30
0.0
 10
10.0895783772
 20
9.9787241113
 30
0.0
 10
10.0891114971
 20
9.9778907723
 30
0.0
 10
10.0885542452
 20
9.976888546
 30
0.0
 10
10.0878101934
 20
9.9755530196
 30
0.0
 10
10.0868804879
 20
9.9738833461
 30
0.0
 10
10.0853927582
 20
9.9712120168
 30
0.0
 10
10.0835331655
 20
9.9678728041
 30
0.0
 10
10.0813016224
 20
9.9638657719
 30
0.0
 10
10.079070096
 20
9.9598587295
 30
0.0
 10
10.0772104615
 20
9.9565195421
 30
0.0
 10
10.0757228155
 20
9.9538481622
 30
0.0
 10
10.0747928973
 20
9.9521786175
 30
0.0
 10
10.074049282
 20
9.9508428266
 30
0.0
 10
10.0734906963
 20
9.9498414081
 30
0.0
 10
10.0730279895
 20
9.949005542
 30
0.0
 10
10.0726986365
 20
9.9484230863
 30
0.0
 10
10.0725189574
 20
9.9480861158
 30
0.0
 10
10.0723601896
 20
9.9478450467
 30
0.0
 10
10.0722931944
 20
9.9475594119
 30
0.0
 10
10.0721718562
 20
9.9471941104
 30
0.0
 10
10.0719744291
 20
9.9465475903
 30
0.0
 10
10.0716845927
 20
9.9456277765
 30
0.0
 10
10.0713401266
 20
9.9445223793
 30
0.0
 10
10.0708796728
 20
9.9430490825
 30
0.0
 10
10.0703045046
 20
9.9412072675
 30
0.0
 10
10.0693840125
 20
9.938260472
 30
0.0
 10
10.0682334743
 20
9.9345769403
 30
0.0
 10
10.0668527932
 20
9.930156719
 30
0.0
 10
10.0654721303
 20
9.9257364901
 30
0.0
 10
10.0643215467
 20
9.9220529776
 30
0.0
 10
10.0634011454
 20
9.9191061436
 30
0.0
 10
10.0628257464
 20
9.9172644264
 30
0.0
 10
10.0623657663
 20
9.9157909291
 30
0.0
 10
10.062019853
 20
9.9146861444
 30
0.0
 10
10.0617345447
 20
9.9137644141
 30
0.0
 10
10.0615290341
 20
9.9131213153
 30
0.0
 10
10.0614206475
 20
9.912750532
 30
0.0
 10
10.0613138693
 20
9.9124817356
 30
0.0
 10
10.06130452
 20
9.9121774243
 30
0.0
 10
10.06125807
 20
9.9117840638
 30
0.0
 10
10.0611926165
 20
9.9110899112
 30
0.0
 10
10.0610908332
 20
9.9101012822
 30
0.0
 10
10.0609722366
 20
9.9089136358
 30
0.0
 10
10.0608128702
 20
9.9073305584
 30
0.0
 10
10.060614086
 20
9.9053515572
 30
0.0
 10
10.0602957943
 20
9.9021852415
 30
0.0
 10
10.0598980115
 20
9.8982273174
 30
0.0
 10
10.0594206347
 20
9.893477821
 30
0.0
 10
10.0589432769
 20
9.8887283214
 30
0.0
 10
10.0585454465
 20
9.8847704053
 30
0.0
 10
10.0582272501
 20
9.8816040735
 30
0.0
 10
10.0580282236
 20
9.8796251133
 30
0.0
 10
10.0578693545
 20
9.8780419518
 30
0.0
 10
10.0577492386
 20
9.8768545624
 30
0.0
 10
10.0576522088
 20
9.8758651292
 30
0.0
 10
10.0575782695
 20
9.8751724121
 30
0.0
 10
10.0575454158
 20
9.8747767517
 30
0.0
 10
10.0574943031
 20
9.8744795052
 30
0.0
 10
10.0575443815
 20
9.8741841744
 30
0.0
 10
10.057575856
 20
9.8737897317
 30
0.0
 10
10.0576473818
 20
9.8730997684
 30
0.0
 10
10.0577409637
 20
9.8721139438
 30
0.0
 10
10.0578569421
 20
9.8709310239
 30
0.0
 10
10.0580102946
 20
9.869353773
 30
0.0
 10
10.0582024253
 20
9.8673822178
 30
0.0
 10
10.0585095884
 20
9.8642277247
 30
0.0
 10
10.0588936272
 20
9.8602846101
 30
0.0
 10
10.0593544351
 20
9.8555528715
 30
0.0
 10
10.059815262
 20
9.8508211343
 30
0.0
 10
10.0601992532
 20
9.8468780162
 30
0.0
 10
10.0605065117
 20
9.8437235301
 30
0.0
 10
10.0606984
 20
9.8417519572
 30
0.0
 10
10.06085225
 20
9.8401747426
 30
0.0
 10
10.0609667084
 20
9.8389917121
 30
0.0
 10
10.0610650458
 20
9.8380062335
 30
0.0
 10
10.0611280823
 20
9.8373156524
 30
0.0
 10
10.0611731589
 20
9.8369221997
 30
0.0
 10
10.0611814561
 20
9.8366238281
 30
0.0
 10
10.0612872662
 20
9.8363380021
 30
0.0
 10
10.0613943328
 20
9.8359525247
 30
0.0
 10
10.0615975468
 20
9.8352799781
 30
0.0
 10
10.0618795672
 20
9.8343181313
 30
0.0
 10
10.0622215382
 20
9.8331643715
 30
0.0
 10
10.0626762607
 20
9.8316258656
 30
0.0
 10
10.063245088
 20
9.8297027878
 30
0.0
 10
10.0641549746
 20
9.8266258329
 30
0.0
 10
10.0652924147
 20
9.8227796499
 30
0.0
 10
10.0666573056
 20
9.818164225
 30
0.0
 10
10.0680222146
 20
9.8135488042
 30
0.0
 10
10.0691596093
 20
9.8097026107
 30
0.0
 10
10.0700695868
 20
9.8066256769
 30
0.0
 10
10.070638183
 20
9.8047025454
 30
0.0
 10
10.0710933798
 20
9.8031641498
 30
0.0
 10
10.0714339019
 20
9.802010053
 30
0.0
 10
10.0717204556
 20
9.8010492605
 30
0.0
 10
10.071915577
 20
9.8003748318
 30
0.0
 10
10.0720356099
 20
9.79999237
 30
0.0
 10
10.0721015914
 20
9.7996972811
 30
0.0
 10
10.0722594783
 20
9.7994336992
 30
0.0
 10
10.0724379365
 20
9.7990712668
 30
0.0
 10
10.0727651747
 20
9.7984421304
 30
0.0
 10
10.0732248489
 20
9.7975406871
 30
0.0
 10
10.0737798005
 20
9.796460101
 30
0.0
 10
10.0745185684
 20
9.7950189192
 30
0.0
 10
10.075442428
 20
9.7932175792
 30
0.0
 10
10.0769203799
 20
9.7903353584
 30
0.0
 10
10.078767897
 20
9.7867326089
 30
0.0
 10
10.0809848823
 20
9.7824092972
 30
0.0
 10
10.083201885
 20
9.7780859926
 30
0.0
 10
10.0850493586
 20
9.7744832254
 30
0.0
 10
10.0865273975
 20
9.7716010401
 30
0.0
 10
10.0874510362
 20
9.7697996099
 30
0.0
 10
10.0881902576
 20
9.7683586131
 30
0.0
 10
10.0887438236
 20
9.7672774619
 30
0.0
 10
10.0892078328
 20
9.7663777867
 30
0.0
 10
10.0895273323
 20
9.765745494
 30
0.0
 10
10.0897181898
 20
9.7653881187
 30
0.0
 10
10.0898379902
 20
9.7651090029
 30
0.0
 10
10.0900470183
 20
9.7648722568
 30
0.0
 10
10.0902945989
 20
9.7645418162
 30
0.0
 10
10.0907423659
 20
9.7639704311
 30
0.0
 10
10.0913744518
 20
9.7631505666
 30
0.0
 10
10.0921361999
 20
9.7621682702
 30
0.0
 10
10.0931507307
 20
9.7608580034
 30
0.0
 10
10.0944192822
 20
9.7592203542
 30
0.0
 10
10.0964487476
 20
9.7566000124
 30
0.0
 10
10.0989856542
 20
9.7533246209
 30
0.0
 10
10.1020299085
 20
9.7493941341
 30
0.0
 10
10.1050741777
 20
9.7454636584
 30
0.0
 10
10.1076110472
 20
9.7421882392
 30
0.0
 10
10.1096405868
 20
9.7395679529
 30
0.0
 10
10.1109089499
 20
9.7379301626
 30
0.0
 10
10.1119238673
 20
9.7366201855
 30
0.0
 10
10.1126844339
 20
9.7356370039
 30
0.0
 10
10.1133202165
 20
9.7348199088
 30
0.0
 10
10.1137613843
 20
9.7342435799
 30
0.0
 10
10.1140195385
 20
9.7339210605
 30
0.0
 10
10.1141960878
 20
9.7336599832
 30
0.0
 10
10.1144378733
 20
9.7334722513
 30
0.0
 10
10.1147374987
 20
9.7331963585
 30
0.0
 10
10.1152724454
 20
9.7327254659
 30
0.0
 10
10.116031112
 20
9.7320465304
 30
0.0
 10
10.1169438844
 20
9.7312344752
 30
0.0
 10
10.1181600857
 20
9.7301508033
 30
0.0
 10
10.119680621
 20
9.7287965323
 30
0.0
 10
10.1221133188
 20
9.7266295205
 30
0.0
 10
10.1251542459
 20
9.7239208174
 30
0.0
 10
10.1288033336
 20
9.7206703453
 30
0.0
 10
10.1324524328
 20
9.7174198879
 30
0.0
 10
10.135493331
 20
9.7147111483
 30
0.0
 10
10.1379260867
 20
9.7125442094
 30
0.0
 10
10.139446475
 20
9.711189753
 30
0.0
 10
10.140662978
 20
9.7101064619
 30
0.0
 10
10.1415748285
 20
9.7092932431
 30
0.0
 10
10.1423363798
 20
9.7086179481
 30
0.0
 10
10.1428661767
 20
9.7081405567
 30
0.0
 10
10.1431740533
 20
9.7078750767
 30
0.0
 10
10.143390494
 20
9.7076553598
 30
0.0
 10
10.1436622338
 20
9.7075144128
 30
0.0
 10
10.1440052647
 20
9.7072990077
 30
0.0
 10
10.1446145557
 20
9.7069348502
 30
0.0
 10
10.145480273
 20
9.7064079324
 30
0.0
 10
10.1465211448
 20
9.7057784958
 30
0.0
 10
10.1479082714
 20
9.7049382464
 30
0.0
 10
10.1496424202
 20
9.7038882773
 30
0.0
 10
10.1524169238
 20
9.7022081351
 30
0.0
 10
10.1558850997
 20
9.7001080237
 30
0.0
 10
10.16004689
 20
9.6975878594
 30
0.0
 10
10.1642086893
 20
9.6950677112
 30
0.0
 10
10.1676768428
 20
9.6929675594
 30
0.0
 10
10.1704513913
 20
9.6912874979
 30
0.0
 10
10.172185426
 20
9.6902373239
 30
0.0
 10
10.1735727868
 20
9.6893974949
 30
0.0
 10
10.1746129434
 20
9.688766774
 30
0.0
 10
10.1754808983
 20
9.6882438744
 30
0.0
 10
10.1760861947
 20
9.6878725439
 30
0.0
 10
10.176435626
 20
9.6876686317
 30
0.0
 10
10.1766877057
 20
9.6874923821
 30
0.0
 10
10.1769779866
 20
9.6874052559
 30
0.0
 10
10.1773517029
 20
9.6872580004
 30
0.0
 10
10.1780119147
 20
9.6870147874
 30
0.0
 10
10.1789518286
 20
9.6866597677
 30
0.0
 10
10.1800811147
 20
9.6862369854
 30
0.0
 10
10.1815863441
 20
9.6856721435
 30
0.0
 10
10.1834680471
 20
9.6849664789
 30
0.0
 10
10.1864786789
 20
9.6838371987
 30
0.0
 10
10.1902420008
 20
9.6824256733
 30
0.0
 10
10.1947579726
 20
9.6807318085
 30
0.0
 10
10.1992739508
 20
9.6790379614
 30
0.0
 10
10.2030372566
 20
9.6776263917
 30
0.0
 10
10.2060479206
 20
9.6764972001
 30
0.0
 10
10.2079295418
 20
9.6757913103
 30
0.0
 10
10.2094349389
 20
9.6752269305
 30
0.0
 10
10.2105637128
 20
9.6748027364
 30
0.0
 10
10.2115052292
 20
9.6744521337
 30
0.0
 10
10.2121625803
 20
9.6742010357
 30
0.0
 10
10.2125408802
 20
9.6740664139
 30
0.0
 10
10.2128170816
 20
9.6739404811
 30
0.0
 10
10.2131220415
 20
9.6739099828
 30
0.0
 10
10.2135186235
 20
9.6738360297
 30
0.0
 10
10.2142173156
 20
9.6737221217
 30
0.0
 10
10.2152130037
 20
9.6735512872
 30
0.0
 10
10.2164088754
 20
9.6733497566
 30
0.0
 10
10.2180030056
 20
9.6730798369
 30
0.0
 10
10.2199957934
 20
9.6727428524
 30
0.0
 10
10.2231841841
 20
9.6722034451
 30
0.0
 10
10.2271696964
 20
9.6715292656
 30
0.0
 10
10.2319523009
 20
9.6707202161
 30
0.0
 10
10.2367349081
 20
9.6699111758
 30
0.0
 10
10.2431117168
 20
9.6688324521
 30
0.0
 10
10.2478943235
 20
9.66802341
 30
0.0
 10
10.2510827279
 20
9.6674840485
 30
0.0
  0
ENDSEC
  0
SECTION
  2
OBJECTS
  0
DICTIONARY
  5
C
100
AcDbDictionary
280
0
281
1
  3
ACAD_GROUP
350
D
  3
ACAD_MLINESTYLE
350
17
  3
ACAD_LAYOUT
350
1A
  3
ACAD_PLOTSETTINGS
350
19
  3
ACAD_PLOTSTYLENAME
350
E
  3
ACAD_IMAGE_DICT
350
       3A5
  3
ACAD_IMAGE_VARS
350
       3A6
  3
ACAD_TABLESTYLE
350
       3A7
  0
IMAGEDEF_REACTOR
  5
3A4
100
AcDbRasterImageDefReactor
 90
2
330
28B
  0
DICTIONARY
  5
D
102
{ACAD_REACTORS
330
C
102
}
100
AcDbDictionary
280
0
281
1
  0
ACDBDICTIONARYWDFLT
  5
E
102
{ACAD_REACTORS
330
C
102
}
100
AcDbDictionary
281
1
  3
Normal
350
F
100
AcDbDictionaryWithDefault
340
F
  0
DICTIONARY
  5
3A5
330
C
100
AcDbDictionary
281
1
  3
P4X_assy_2_img_1
350
       3AA
  0
RASTERVARIABLES
  5
3A6
330
C
100
AcDbRasterVariables
 90
0
 70
0
 71
1
 72
5
  0
DICTIONARY
  5
17
102
{ACAD_REACTORS
330
C
102
}
100
AcDbDictionary
280
0
281
1
  3
Standard
350
18
  0
DICTIONARY
  5
3A7
330
C
100
AcDbDictionary
281
1
  3
Standard
350
       3AB
  3
Standard1
350
       3AC
  0
DICTIONARY
  5
19
102
{ACAD_REACTORS
330
C
102
}
100
AcDbDictionary
281
1
  0
DICTIONARY
  5
1A
102
{ACAD_REACTORS
330
C
102
}
100
AcDbDictionary
281
1
  3
Model
350
3A8
  3
Layout1
350
3A9
  0
ACDBPLACEHOLDER
  5
F
102
{ACAD_REACTORS
330
E
102
}
  0
MLINESTYLE
  5
18
102
{ACAD_REACTORS
330
17
102
}
100
AcDbMlineStyle
  2
STANDARD
 70
0
  3

 62
256
 51
90.0
 52
90.0
 71
2
 49
0.5
 62
256
  6
BYLAYER
 49
-0.5
 62
256
  6
BYLAYER
  0
LAYOUT
  5
3A8
102
{ACAD_REACTORS
330
1A
102
}
100
AcDbPlotSettings
  1

  2
none_device
  4
ANSI_C_(22.00_x_17.00_Inches)
  6

 40
0.0
 41
0.0
 42
0.0
 43
0.0
 44
558.8
 45
431.8
 46
0.0
 47
0.0
 48
0.0
 49
0.0
140
0.0
141
0.0
142
1.0
143
1.0
 70
1024
 72
0
 73
0
 74
0
  7

 75
0
147
1.0
148
0.0
149
0.0
100
AcDbLayout
  1
Model
 70
0
 71
0
 10
0.0
 20
0.0
 11
22.0
 21
17.0
 12
0.0
 22
0.0
 32
0.0
 14
0.0
 24
0.0
 34
0.0
 15
0.0
 25
0.0
 35
0.0
146
0.0
 13
0.0
 23
0.0
 33
0.0
 16
1.0
 26
0.0
 36
0.0
 17
0.0
 27
1.0
 37
0.0
 76
0
330
204
345
0
346
0
  0
LAYOUT
  5
3A9
102
{ACAD_REACTORS
330
1A
102
}
100
AcDbPlotSettings
  1

  2
none_device
  4
ANSI_C_(22.00_x_17.00_Inches)
  6

 40
0.0
 41
0.0
 42
0.0
 43
0.0
 44
558.8
 45
431.8
 46
0.0
 47
0.0
 48
0.0
 49
0.0
140
0.0
141
0.0
142
1.0
143
1.0
 70
0
 72
0
 73
0
 74
0
  7

 75
0
147
1.0
148
0.0
149
0.0
100
AcDbLayout
  1
Layout1
 70
0
 71
1
 10
0.0
 20
0.0
 11
22.0
 21
17.0
 12
0.0
 22
0.0
 32
0.0
 14
0.0
 24
0.0
 34
0.0
 15
0.0
 25
0.0
 35
0.0
146
0.0
 13
0.0
 23
0.0
 33
0.0
 16
1.0
 26
0.0
 36
0.0
 17
0.0
 27
1.0
 37
0.0
 76
0
330
205
345
0
346
0
  0
IMAGEDEF
  5
3AA
102
{ACAD_REACTORS
330
3A5
330
3A4
102
}
100
AcDbRasterImageDef
 90
0
  1
P4X_assy_2_img_1.png
 10
369.0
 20
92.0
 11
0.0066666667
 21
0.0066666667
280
1
281
0
  0
TABLESTYLE
  5
3AB
102
{ACAD_REACTORS
330
3A7
330
28E
330
28F
102
}
330
3A7
100
AcDbTableStyle
  3
Standard
 70
0
 71
0
 40
0.06
 41
0.06
280
1
281
1
  7
Standard
140
0.18
170
1
 62
0
 63
7
283
0
  7
Standard
140
0.18
170
1
 62
0
 63
7
283
0
  7
Standard
140
0.18
170
1
 62
0
 63
7
283
0
  0
TABLESTYLE
  5
3AC
102
{ACAD_REACTORS
330
3A7
330
28D
102
}
330
3A7
100
AcDbTableStyle
  3
Standard1
 70
1
 71
0
 40
0.06
 41
0.06
280
1
281
1
  7
Standard
140
0.18
170
1
 62
0
 63
7
283
0
  7
Standard
140
0.18
170
1
 62
0
 63
7
283
0
  7
Standard
140
0.18
170
1
 62
0
 63
7
283
0
  0
ENDSEC
  0
EOF
