999
DXF file: P4M_assy_2.dxf
999
Pro/ENGINEER 2014200 by Parametric Technology Corporation
  0
SECTION
  2
HEADER
  9
$ACADVER
  1
AC1021
  9
$DWGCODEPAGE
  3
ANSI_1252
  9
$EXTMAX
 10
22.0
 20
17.0
 30
0.0
  9
$EXTMIN
 10
0.0
 20
0.0
 30
0.0
  9
$LIMMIN
 10
0.0
 20
0.0
  9
$LIMMAX
 10
22.0
 20
17.0
  9
$VIEWCTR
 10
11.0
 20
8.5
  9
$VIEWSIZE
 40
17.0
  9
$CLAYER
  8
0
  9
$LTSCALE
 40
1.21
  9
$CELTYPE
  6
BYLAYER
  9
$DIMSCALE
 40
1.0
  9
$DIMASZ
 40
0.1875
  9
$DIMEXO
 40
0.0625
  9
$DIMDLI
 40
0.836
  9
$DIMEXE
 40
0.125
  9
$DIMCEN
 40
0.198
  9
$DIMLFAC
 40
1.0
  9
$DIMBLK
  1
_FILLED
  9
$DIMTXT
 40
0.1
  9
$DIMTOL
 70
0
  9
$DIMLIM
 70
0
  9
$DIMTFAC
 40
1.0
  9
$DIMGAP
 40
0.09
  9
$DIMDSEP
 70
46
  9
$AUNITS
 70
0
  9
$PDMODE
 70
3
  9
$PDSIZE
 40
0.3125
  9
$HANDSEED
  5
3A4
  9
$TILEMODE
 70
1
  9
$MEASUREMENT
 70
0
  9
$INSUNITS
 70
1
  0
ENDSEC
  0
SECTION
  2
CLASSES
  0
CLASS
  1
ACDBDICTIONARYWDFLT
  2
AcDbDictionaryWithDefault
  3
AutoCAD 2000
 90
0
 91
1
280
0
281
0
  0
CLASS
  1
ACDBPLACEHOLDER
  2
AcDbPlaceHolder
  3
AutoCAD 2000
 90
0
 91
1
280
0
281
0
  0
CLASS
  1
LAYOUT
  2
AcDbLayout
  3
AutoCAD 2000
 90
0
 91
0
280
0
281
0
  0
CLASS
  1
RASTERVARIABLES
  2
AcDbRasterVariables
  3
ISM
 90
0
 91
1
280
0
281
0
  0
CLASS
  1
IMAGEDEF
  2
AcDbRasterImageDef
  3
ISM
 90
0
 91
1
280
0
281
0
  0
CLASS
  1
IMAGEDEF_REACTOR
  2
AcDbRasterImageDefReactor
  3
ISM
 90
0
 91
1
280
0
281
0
  0
CLASS
  1
IMAGE
  2
AcDbRasterImage
  3
ISM
 90
127
 91
1
280
0
281
1
  0
CLASS
  1
TABLESTYLE
  2
AcDbTableStyle
  3
ObjectDBX Classes
 90
2047
 91
1
280
0
281
0
  0
CLASS
  1
ACAD_TABLE
  2
AcDbTable
  3
ObjectDBX Classes
 90
1025
 91
3
280
0
281
1
  0
ENDSEC
  0
SECTION
  2
TABLES
  0
TABLE
  2
VPORT
  5
8
100
AcDbSymbolTable
 70
2
  0
VPORT
  5
1F4
100
AcDbSymbolTableRecord
100
AcDbViewportTableRecord
  2
*ACTIVE
 70
0
 10
0.0
 20
0.0
 11
1.0
 21
1.0
 12
11.0
 22
8.5
 13
0.0
 23
0.0
 14
1.0
 24
1.0
 15
0.0
 25
0.0
 16
0.0
 26
0.0
 36
1.0
 17
0.0
 27
0.0
 37
0.0
 40
17.0
 41
1.2941176471
 42
50.0
 43
0.0
 44
0.0
 50
0.0
 51
0.0
 71
0
 72
100
 73
1
 74
1
 75
0
 76
0
 77
0
 78
0
  0
ENDTAB
  0
TABLE
  2
LTYPE
  5
5
100
AcDbSymbolTable
 70
6
  0
LTYPE
  5
14
100
AcDbSymbolTableRecord
100
AcDbLinetypeTableRecord
  2
BYBLOCK
 70
0
  3

 72
65
 73
0
 40
0.0
  0
LTYPE
  5
15
100
AcDbSymbolTableRecord
100
AcDbLinetypeTableRecord
  2
BYLAYER
 70
0
  3

 72
65
 73
0
 40
0.0
  0
LTYPE
  5
16
100
AcDbSymbolTableRecord
100
AcDbLinetypeTableRecord
  2
CONTINUOUS
 70
64
  3
Solid line
 72
65
 73
0
 40
0.0
  0
LTYPE
  5
1F5
100
AcDbSymbolTableRecord
100
AcDbLinetypeTableRecord
  2
CENTER
 70
64
  3
____ _ ____ _ ____ _ ____ _ ____ _ ____ _ ____
 72
65
 73
4
 40
0.6
 49
0.375
 74
0
 49
-0.075
 74
0
 49
0.075
 74
0
 49
-0.075
 74
0
  0
LTYPE
  5
1F6
100
AcDbSymbolTableRecord
100
AcDbLinetypeTableRecord
  2
HIDDEN
 70
64
  3
- - - - - - - - - - - - - - - - - - - -
 72
65
 73
2
 40
0.2
 49
0.1
 74
0
 49
-0.1
 74
0
  0
LTYPE
  5
1F7
100
AcDbSymbolTableRecord
100
AcDbLinetypeTableRecord
  2
PHANTOM
 70
64
  3
_____ _ _ _____ _ _ _____ _ _ _____
 72
65
 73
6
 40
0.8
 49
0.45
 74
0
 49
-0.05
 74
0
 49
0.1
 74
0
 49
-0.05
 74
0
 49
0.1
 74
0
 49
-0.05
 74
0
  0
LTYPE
  5
1F8
100
AcDbSymbolTableRecord
100
AcDbLinetypeTableRecord
  2
DOT
 70
64
  3
. . . . . . . . . . . . . . . . . . . .
 72
65
 73
2
 40
0.2
 49
0.1
 74
0
 49
-0.1
 74
0
  0
LTYPE
  5
1F9
100
AcDbSymbolTableRecord
100
AcDbLinetypeTableRecord
  2
DASHED
 70
64
  3
- - - - - - - - - - - - - - - - - - - -
 72
65
 73
2
 40
0.2
 49
0.1
 74
0
 49
-0.1
 74
0
  0
ENDTAB
  0
TABLE
  2
LAYER
  5
2
100
AcDbSymbolTable
 70
36
  0
LAYER
  5
10
100
AcDbSymbolTableRecord
100
AcDbLayerTableRecord
  2
0
 70
0
 62
7
  6
CONTINUOUS
370
-3
390
F
  0
LAYER
  5
1FA
100
AcDbSymbolTableRecord
100
AcDbLayerTableRecord
  2
DEFAULT_1
 70
0
 62
7
  6
CENTER
370
-3
390
F
  0
LAYER
  5
1FB
100
AcDbSymbolTableRecord
100
AcDbLayerTableRecord
  2
DEFAULT_2
 70
0
 62
8
  6
HIDDEN
370
-3
390
F
  0
LAYER
  5
1FC
100
AcDbSymbolTableRecord
100
AcDbLayerTableRecord
  2
DEFAULT_3
 70
0
 62
7
  6
PHANTOM
370
-3
390
F
  0
LAYER
  5
1FD
100
AcDbSymbolTableRecord
100
AcDbLayerTableRecord
  2
DATUM_PLANES
 70
0
 62
7
  6
CONTINUOUS
370
-3
390
F
  0
LAYER
  5
1FE
100
AcDbSymbolTableRecord
100
AcDbLayerTableRecord
  2
PORT_AREAS
 70
0
 62
7
  6
CONTINUOUS
370
-3
390
F
  0
LAYER
  5
1FF
100
AcDbSymbolTableRecord
100
AcDbLayerTableRecord
  2
SUNNBOMCOSMETIC
 70
0
 62
7
  6
CONTINUOUS
370
-3
390
F
  0
LAYER
  5
200
100
AcDbSymbolTableRecord
100
AcDbLayerTableRecord
  2
SUNNBOMSTAMPING
 70
0
 62
7
  6
CONTINUOUS
370
-3
390
F
  0
LAYER
  5
201
100
AcDbSymbolTableRecord
100
AcDbLayerTableRecord
  2
THREADS
 70
0
 62
7
  6
CONTINUOUS
370
-3
390
F
  0
ENDTAB
  0
TABLE
  2
STYLE
  5
3
100
AcDbSymbolTable
 70
1
  0
STYLE
  5
11
100
AcDbSymbolTableRecord
100
AcDbTextStyleTableRecord
  2
STANDARD
 70
0
 40
0.0
 41
0.8
 50
0.0
 71
0
 42
0.2
  3
txt
  4

  0
STYLE
  5
202
100
AcDbSymbolTableRecord
100
AcDbTextStyleTableRecord
  2
TEXTSTYLE_1
 70
0
 40
0.0
 41
0.8
 50
0.0
 71
0
 42
0.2
  3
gdt
  4

  0
ENDTAB
  0
TABLE
  2
VIEW
  5
6
100
AcDbSymbolTable
 70
0
  0
ENDTAB
  0
TABLE
  2
UCS
  5
7
100
AcDbSymbolTable
 70
0
  0
ENDTAB
  0
TABLE
  2
APPID
  5
9
100
AcDbSymbolTable
 70
1
  0
APPID
  5
203
100
AcDbSymbolTableRecord
100
AcDbRegAppTableRecord
  2
ACAD
 70
0
  0
ENDTAB
  0
TABLE
  2
BLOCK_RECORD
  5
1
100
AcDbSymbolTable
 70
0
  0
BLOCK_RECORD
  5
204
100
AcDbSymbolTableRecord
100
AcDbBlockTableRecord
  2
*Model_Space
  0
BLOCK_RECORD
  5
205
100
AcDbSymbolTableRecord
100
AcDbBlockTableRecord
  2
*Paper_Space
  0
BLOCK_RECORD
  5
206
100
AcDbSymbolTableRecord
100
AcDbBlockTableRecord
  2
SUN_FIRST_THIRD_ANGLE_BL0
  0
BLOCK_RECORD
  5
207
100
AcDbSymbolTableRecord
100
AcDbBlockTableRecord
  2
*T1
  0
BLOCK_RECORD
  5
208
100
AcDbSymbolTableRecord
100
AcDbBlockTableRecord
  2
*T2
  0
BLOCK_RECORD
  5
209
100
AcDbSymbolTableRecord
100
AcDbBlockTableRecord
  2
*T3
  0
ENDTAB
  0
TABLE
  2
DIMSTYLE
  5
A
100
AcDbSymbolTable
 70
1
100
AcDbDimStyleTable
 71
0
  0
DIMSTYLE
105
20A
100
AcDbSymbolTableRecord
100
AcDbDimStyleTableRecord
  2
STANDARD
 70
0
  3

  4

 40
1.0
 41
0.1875
 42
0.0625
 43
0.38
 44
0.125
 45
0.0
 46
0.0
 47
0.001
 48
0.001
140
0.1
141
0.09
142
0.0
143
25.4
144
1.0
145
0.0
146
1.0
147
0.09
 71
0.0
 72
0.0
 73
1
 74
1
 75
0
 76
0
 77
0
 78
4
170
0
171
2
172
0
173
0
174
0
175
0
176
0
177
0
178
0
270
2
271
3
272
3
273
2
274
2
275
0
280
0
281
0
282
0
283
1
284
4
285
0
286
0
287
3
288
0
340
11
278
46
  0
ENDTAB
  0
ENDSEC
  0
SECTION
  2
BLOCKS
  0
BLOCK
  5
20
100
AcDbEntity
  8
0
100
AcDbBlockBegin
  2
*Model_Space
 70
0
 10
0.0
 20
0.0
 30
0.0
  3
*Model_Space
  1

  0
ENDBLK
  5
21
100
AcDbEntity
  8
0
100
AcDbBlockEnd
  0
BLOCK
  5
1C
100
AcDbEntity
  8
0
100
AcDbBlockBegin
  2
*Paper_Space
 70
0
 10
0.0
 20
0.0
 30
0.0
  3
*Paper_Space
  1

  0
ENDBLK
  5
1D
100
AcDbEntity
  8
0
100
AcDbBlockEnd
  0
BLOCK
  5
20B
100
AcDbEntity
  8
0
100
AcDbBlockBegin
 62
2
  6
CONTINUOUS
  2
SUN_FIRST_THIRD_ANGLE_BL0
 70
64
 10
20.4816717061
 20
1.2289683772
  3
SUN_FIRST_THIRD_ANGLE_BL0
  1

  0
TEXT
  5
20C
100
AcDbEntity
  8
0
100
AcDbText
 62
2
  6
CONTINUOUS
 10
19.4750896608
 20
1.4136269581
  7
STANDARD
 40
0.08
  1
FIRST ANGLE
 41
0.8
 72
0
100
AcDbText
  0
TEXT
  5
20D
100
AcDbEntity
  8
0
100
AcDbText
 62
2
  6
CONTINUOUS
 10
20.7842537513
 20
1.4047600029
  7
STANDARD
 40
0.08
  1
THIRD ANGLE
 41
0.8
 72
0
100
AcDbText
  0
LINE
  5
20E
100
AcDbEntity
  8
0
100
AcDbLine
 62
7
  6
CONTINUOUS
 10
19.4767170086
 20
1.1727031207
 11
19.6334271527
 21
1.1717972817
  0
LINE
  5
20F
100
AcDbEntity
  8
0
100
AcDbLine
 62
7
  6
CONTINUOUS
 10
19.6596964832
 20
1.1717972817
 11
19.6950230232
 21
1.171593082
  0
LINE
  5
210
100
AcDbEntity
  8
0
100
AcDbLine
 62
7
  6
CONTINUOUS
 10
19.7194818561
 20
1.1708914427
 11
19.8852396156
 21
1.1699333054
  0
LINE
  5
211
100
AcDbEntity
  8
0
100
AcDbLine
 62
7
  6
CONTINUOUS
 10
19.4758111696
 20
1.2723454088
 11
19.88525039
 21
1.3511534004
  0
LINE
  5
212
100
AcDbEntity
  8
0
100
AcDbLine
 62
7
  6
CONTINUOUS
 10
19.88525039
 20
1.3511534004
 11
19.8831348489
 21
0.9851647912
  0
LINE
  5
213
100
AcDbEntity
  8
0
100
AcDbLine
 62
7
  6
CONTINUOUS
 10
19.8831348489
 20
0.9851647912
 11
19.4767170086
 21
1.0658141206
  0
LINE
  5
214
100
AcDbEntity
  8
0
100
AcDbLine
 62
7
  6
CONTINUOUS
 10
19.4767170086
 20
1.0658141206
 11
19.4779056764
 21
1.2714536432
  0
CIRCLE
  5
215
100
AcDbEntity
  8
0
100
AcDbCircle
 62
7
  6
CONTINUOUS
 10
20.2068232291
 20
1.1717972817
 40
0.175742101
  0
CIRCLE
  5
216
100
AcDbEntity
  8
0
100
AcDbCircle
 62
7
  6
CONTINUOUS
 10
20.2068232291
 20
1.1717972817
 40
0.1005522074
  0
LINE
  5
217
100
AcDbEntity
  8
0
100
AcDbLine
 62
7
  6
CONTINUOUS
 10
20.2077290681
 20
1.3756110529
 11
20.2071171714
 21
1.2379342989
  0
LINE
  5
218
100
AcDbEntity
  8
0
100
AcDbLine
 62
7
  6
CONTINUOUS
 10
20.2077290681
 20
1.2016899681
 11
20.2074674401
 21
1.1428236749
  0
LINE
  5
219
100
AcDbEntity
  8
0
100
AcDbLine
 62
7
  6
CONTINUOUS
 10
20.208634907
 20
1.101141841
 11
20.2080230104
 21
0.963465087
  0
LINE
  5
21A
100
AcDbEntity
  8
0
100
AcDbLine
 62
7
  6
CONTINUOUS
 10
20.0066328138
 20
1.1745147986
 11
20.1443095678
 21
1.1739029019
  0
LINE
  5
21B
100
AcDbEntity
  8
0
100
AcDbLine
 62
7
  6
CONTINUOUS
 10
20.1832714155
 20
1.1727031207
 11
20.238153505
 21
1.172335442
  0
LINE
  5
21C
100
AcDbEntity
  8
0
100
AcDbLine
 62
7
  6
CONTINUOUS
 10
20.2756669918
 20
1.1717972817
 11
20.407916871
 21
1.1712095044
  0
CIRCLE
  5
21D
100
AcDbEntity
  8
0
100
AcDbCircle
 62
7
  6
CONTINUOUS
 10
20.7509457401
 20
1.1693297793
 40
0.1722024983
  0
CIRCLE
  5
21E
100
AcDbEntity
  8
0
100
AcDbCircle
 62
7
  6
CONTINUOUS
 10
20.7509457401
 20
1.1693297793
 40
0.0985164967
  0
LINE
  5
21F
100
AcDbEntity
  8
0
100
AcDbLine
 62
7
  6
CONTINUOUS
 10
20.7169767782
 20
1.170462078
 11
20.7825395137
 21
1.1682766535
  0
LINE
  5
220
100
AcDbEntity
  8
0
100
AcDbLine
 62
7
  6
CONTINUOUS
 10
20.8177513651
 20
1.1693297793
 11
20.947965719
 21
1.1693297793
  0
LINE
  5
221
100
AcDbEntity
  8
0
100
AcDbLine
 62
7
  6
CONTINUOUS
 10
20.6875370113
 20
1.170462078
 11
20.5573226574
 21
1.170462078
  0
LINE
  5
222
100
AcDbEntity
  8
0
100
AcDbLine
 62
7
  6
CONTINUOUS
 10
20.7486811426
 20
1.1987695462
 11
20.7486811426
 21
1.1432869085
  0
LINE
  5
223
100
AcDbEntity
  8
0
100
AcDbLine
 62
7
  6
CONTINUOUS
 10
20.7498134414
 20
1.1059210505
 11
20.7498134414
 21
0.9757066966
  0
LINE
  5
224
100
AcDbEntity
  8
0
100
AcDbLine
 62
7
  6
CONTINUOUS
 10
20.7486811426
 20
1.2338708068
 11
20.7486811426
 21
1.3640851607
  0
LINE
  5
225
100
AcDbEntity
  8
0
100
AcDbLine
 62
7
  6
CONTINUOUS
 10
21.0702539817
 20
1.2701043662
 11
21.4790138229
 21
1.3448360823
  0
LINE
  5
226
100
AcDbEntity
  8
0
100
AcDbLine
 62
7
  6
CONTINUOUS
 10
21.4790138229
 20
1.3448360823
 11
21.4790138229
 21
0.9779712941
  0
LINE
  5
227
100
AcDbEntity
  8
0
100
AcDbLine
 62
7
  6
CONTINUOUS
 10
21.4790138229
 20
0.9779712941
 11
21.069121683
 21
1.0617614
  0
LINE
  5
228
100
AcDbEntity
  8
0
100
AcDbLine
 62
7
  6
CONTINUOUS
 10
21.0702539817
 20
1.2701043662
 11
21.069121683
 21
1.0617614
  0
LINE
  5
229
100
AcDbEntity
  8
0
100
AcDbLine
 62
7
  6
CONTINUOUS
 10
21.4790138229
 20
1.1693297793
 11
21.3159628059
 21
1.1693297793
  0
LINE
  5
22A
100
AcDbEntity
  8
0
100
AcDbLine
 62
7
  6
CONTINUOUS
 10
21.2876553377
 20
1.1693297793
 11
21.2502894796
 21
1.1693297793
  0
LINE
  5
22B
100
AcDbEntity
  8
0
100
AcDbLine
 62
7
  6
CONTINUOUS
 10
21.2208497126
 20
1.1659328831
 11
21.0713862804
 21
1.1659328831
  0
LINE
  5
22C
100
AcDbEntity
  8
0
100
AcDbLine
 62
7
  6
CONTINUOUS
 10
20.4796138713
 20
1.5284908897
 11
20.4766766948
 21
0.9294458646
  0
ENDBLK
  5
22D
100
AcDbEntity
  8
0
  6
BYBLOCK
 62
0
100
AcDbBlockEnd
  0
BLOCK
  5
22E
100
AcDbEntity
  8
0
100
AcDbBlockBegin
  2
*T1
 70
1
 10
0.0
 20
0.0
  3
*T1
  1

  0
LINE
  5
22F
100
AcDbEntity
  8
0
100
AcDbLine
 62
2
  6
CONTINUOUS
 10
9.275
 20
0.0
 11
-0.0
 21
0.0
  0
LINE
  5
230
100
AcDbEntity
  8
0
100
AcDbLine
 62
2
  6
CONTINUOUS
 10
9.275
 20
0.0
 11
9.275
 21
1.25
  0
LINE
  5
231
100
AcDbEntity
  8
0
100
AcDbLine
 62
2
  6
CONTINUOUS
 10
9.275
 20
0.625
 11
-0.0
 21
0.625
  0
LINE
  5
232
100
AcDbEntity
  8
0
100
AcDbLine
 62
2
  6
CONTINUOUS
 10
9.275
 20
1.25
 11
-0.0
 21
1.25
  0
LINE
  5
233
100
AcDbEntity
  8
0
100
AcDbLine
 62
2
  6
CONTINUOUS
 10
6.8
 20
0.0
 11
6.8
 21
1.25
  0
LINE
  5
234
100
AcDbEntity
  8
0
100
AcDbLine
 62
2
  6
CONTINUOUS
 10
6.4
 20
0.0
 11
6.4
 21
0.625
  0
LINE
  5
235
100
AcDbEntity
  8
0
100
AcDbLine
 62
2
  6
CONTINUOUS
 10
5.9
 20
0.0
 11
5.9
 21
0.625
  0
LINE
  5
236
100
AcDbEntity
  8
0
100
AcDbLine
 62
2
  6
CONTINUOUS
 10
5.2
 20
0.0
 11
5.2
 21
0.625
  0
LINE
  5
237
100
AcDbEntity
  8
0
100
AcDbLine
 62
2
  6
CONTINUOUS
 10
4.1
 20
0.0
 11
4.1
 21
1.25
  0
LINE
  5
238
100
AcDbEntity
  8
0
100
AcDbLine
 62
2
  6
CONTINUOUS
 10
-0.0
 20
0.0
 11
-0.0
 21
1.25
  0
MTEXT
  5
239
100
AcDbEntity
  8
0
100
AcDbMText
 62
2
  6
CONTINUOUS
  7
STANDARD
 71
2
 72
1
 10
6.6
 20
0.325
 30
0.0
 11
1.0
 21
0.0
 31
0.0
 44
0.9
  1
2
 40
0.125
 41
0.2
  0
MTEXT
  5
23A
100
AcDbEntity
  8
0
100
AcDbMText
 62
2
  6
CONTINUOUS
  7
STANDARD
 71
2
 72
1
 10
6.15
 20
0.325
 30
0.0
 11
1.0
 21
0.0
 31
0.0
 44
0.9
  1
C
 40
0.125
 41
0.2
  0
MTEXT
  5
23B
100
AcDbEntity
  8
0
100
AcDbMText
 62
2
  6
CONTINUOUS
  7
STANDARD
 71
2
 72
1
 10
5.55
 20
0.325
 30
0.0
 11
1.0
 21
0.0
 31
0.0
 44
0.9
  1
1.000
 40
0.125
 41
1.0
  0
MTEXT
  5
23C
100
AcDbEntity
  8
0
100
AcDbMText
 62
2
  6
CONTINUOUS
  7
STANDARD
 71
2
 72
1
 10
4.65
 20
0.325
 30
0.0
 11
1.0
 21
0.0
 31
0.0
 44
0.9
  1
Apr-19-22
 40
0.125
 41
1.8
  0
MTEXT
  5
23D
100
AcDbEntity
  8
0
100
AcDbMText
 62
2
  6
CONTINUOUS
  7
STANDARD
 71
2
 72
1
 10
2.05
 20
0.4625
 30
0.0
 11
1.0
 21
0.0
 31
0.0
 44
0.9
  1
T-23A Line mount\P(See Technical Data for Body Features)
 40
0.125
 41
7.6
  0
MTEXT
  5
23E
100
AcDbEntity
  8
0
100
AcDbMText
 62
2
  6
CONTINUOUS
  7
STANDARD
 71
1
 72
1
 10
6.45
 20
0.5625
 30
0.0
 11
1.0
 21
0.0
 31
0.0
 44
0.9
  1
SHEET
 40
0.06
 41
0.48
  0
MTEXT
  5
23F
100
AcDbEntity
  8
0
100
AcDbMText
 62
2
  6
CONTINUOUS
  7
STANDARD
 71
1
 72
1
 10
5.95
 20
0.5625
 30
0.0
 11
1.0
 21
0.0
 31
0.0
 44
0.9
  1
DWG SIZE
 40
0.06
 41
0.768
  0
MTEXT
  5
240
100
AcDbEntity
  8
0
100
AcDbMText
 62
2
  6
CONTINUOUS
  7
STANDARD
 71
1
 72
1
 10
5.25
 20
0.5625
 30
0.0
 11
1.0
 21
0.0
 31
0.0
 44
0.9
  1
SCALE
 40
0.06
 41
0.48
  0
MTEXT
  5
241
100
AcDbEntity
  8
0
100
AcDbMText
 62
2
  6
CONTINUOUS
  7
STANDARD
 71
1
 72
1
 10
4.15
 20
0.5625
 30
0.0
 11
1.0
 21
0.0
 31
0.0
 44
0.9
  1
DATE
 40
0.06
 41
0.384
  0
MTEXT
  5
242
100
AcDbEntity
  8
0
100
AcDbMText
 62
2
  6
CONTINUOUS
  7
STANDARD
 71
1
 72
1
 10
0.05
 20
0.5625
 30
0.0
 11
1.0
 21
0.0
 31
0.0
 44
0.9
  1
DESCRIPTION
 40
0.06
 41
1.056
  0
MTEXT
  5
243
100
AcDbEntity
  8
0
100
AcDbMText
 62
2
  6
CONTINUOUS
  7
STANDARD
 71
2
 72
1
 10
5.45
 20
1.0375
 30
0.0
 11
1.0
 21
0.0
 31
0.0
 44
0.9
  1
ALL DIMENSIONS IN INCH\PVIEWS ARE THIRD ANGLE
 40
0.12
 41
4.224
  0
MTEXT
  5
244
100
AcDbEntity
  8
0
100
AcDbMText
 62
2
  6
CONTINUOUS
  7
STANDARD
 71
2
 72
1
 10
2.05
 20
0.95
 30
0.0
 11
1.0
 21
0.0
 31
0.0
 44
0.9
  1
P4M
 40
0.125
 41
0.6
  0
MTEXT
  5
245
100
AcDbEntity
  8
0
100
AcDbMText
 62
2
  6
CONTINUOUS
  7
STANDARD
 71
1
 72
1
 10
0.05
 20
1.1875
 30
0.0
 11
1.0
 21
0.0
 31
0.0
 44
0.9
  1
MODEL
 40
0.06
 41
0.48
  0
ENDBLK
  5
246
100
AcDbEntity
  8
0
  6
BYBLOCK
 62
0
100
AcDbBlockEnd
  0
BLOCK
  5
247
100
AcDbEntity
  8
0
100
AcDbBlockBegin
  2
*T2
 70
1
 10
0.0
 20
0.0
  3
*T2
  1

  0
LINE
  5
248
100
AcDbEntity
  8
0
100
AcDbLine
 62
2
  6
CONTINUOUS
 10
0.0
 20
0.0
 11
9.055
 21
0.0
  0
LINE
  5
249
100
AcDbEntity
  8
0
100
AcDbLine
 62
2
  6
CONTINUOUS
 10
0.0
 20
0.0
 11
0.0
 21
-2.844
  0
LINE
  5
24A
100
AcDbEntity
  8
0
100
AcDbLine
 62
2
  6
CONTINUOUS
 10
0.0
 20
-0.344
 11
9.055
 21
-0.344
  0
LINE
  5
24B
100
AcDbEntity
  8
0
100
AcDbLine
 62
2
  6
CONTINUOUS
 10
0.0
 20
-0.594
 11
9.055
 21
-0.594
  0
LINE
  5
24C
100
AcDbEntity
  8
0
100
AcDbLine
 62
2
  6
CONTINUOUS
 10
0.0
 20
-0.844
 11
9.055
 21
-0.844
  0
LINE
  5
24D
100
AcDbEntity
  8
0
100
AcDbLine
 62
2
  6
CONTINUOUS
 10
0.0
 20
-1.094
 11
9.055
 21
-1.094
  0
LINE
  5
24E
100
AcDbEntity
  8
0
100
AcDbLine
 62
2
  6
CONTINUOUS
 10
0.0
 20
-1.344
 11
9.055
 21
-1.344
  0
LINE
  5
24F
100
AcDbEntity
  8
0
100
AcDbLine
 62
2
  6
CONTINUOUS
 10
0.0
 20
-1.594
 11
9.055
 21
-1.594
  0
LINE
  5
250
100
AcDbEntity
  8
0
100
AcDbLine
 62
2
  6
CONTINUOUS
 10
0.0
 20
-1.844
 11
9.055
 21
-1.844
  0
LINE
  5
251
100
AcDbEntity
  8
0
100
AcDbLine
 62
2
  6
CONTINUOUS
 10
0.0
 20
-2.094
 11
9.055
 21
-2.094
  0
LINE
  5
252
100
AcDbEntity
  8
0
100
AcDbLine
 62
2
  6
CONTINUOUS
 10
0.0
 20
-2.344
 11
9.055
 21
-2.344
  0
LINE
  5
253
100
AcDbEntity
  8
0
100
AcDbLine
 62
2
  6
CONTINUOUS
 10
0.0
 20
-2.594
 11
9.055
 21
-2.594
  0
LINE
  5
254
100
AcDbEntity
  8
0
100
AcDbLine
 62
2
  6
CONTINUOUS
 10
0.0
 20
-2.844
 11
9.055
 21
-2.844
  0
LINE
  5
255
100
AcDbEntity
  8
0
100
AcDbLine
 62
2
  6
CONTINUOUS
 10
3.055
 20
0.0
 11
3.055
 21
-2.844
  0
LINE
  5
256
100
AcDbEntity
  8
0
100
AcDbLine
 62
2
  6
CONTINUOUS
 10
9.055
 20
0.0
 11
9.055
 21
-2.844
  0
MTEXT
  5
257
100
AcDbEntity
  8
0
100
AcDbMText
 62
2
  6
CONTINUOUS
  7
STANDARD
 71
2
 72
1
 10
1.5275
 20
-0.0995
 30
0.0
 11
1.0
 21
0.0
 31
0.0
 44
0.9
  1
Technical Data
 40
0.145
 41
3.248
  0
MTEXT
  5
258
100
AcDbEntity
  8
0
100
AcDbMText
 62
2
  6
CONTINUOUS
  7
STANDARD
 71
2
 72
1
 10
4.555
 20
-0.0995
 30
0.0
 11
1.0
 21
0.0
 31
0.0
 44
0.9
  1
U.S. Units
 40
0.145
 41
2.32
  0
MTEXT
  5
259
100
AcDbEntity
  8
0
100
AcDbMText
 62
2
  6
CONTINUOUS
  7
STANDARD
 71
2
 72
1
 10
7.555
 20
-0.0995
 30
0.0
 11
1.0
 21
0.0
 31
0.0
 44
0.9
  1
Metric Units
 40
0.145
 41
2.784
  0
MTEXT
  5
25A
100
AcDbEntity
  8
0
100
AcDbMText
 62
2
  6
CONTINUOUS
  7
STANDARD
 71
2
 72
1
 10
1.5275
 20
-0.4065
 30
0.0
 11
1.0
 21
0.0
 31
0.0
 44
0.9
  1
Cavity
 40
0.125
 41
1.2
  0
MTEXT
  5
25B
100
AcDbEntity
  8
0
100
AcDbMText
 62
2
  6
CONTINUOUS
  7
STANDARD
 71
2
 72
1
 10
6.055
 20
-0.4065
 30
0.0
 11
1.0
 21
0.0
 31
0.0
 44
0.9
  1
T-23A
 40
0.125
 41
1.0
  0
MTEXT
  5
25C
100
AcDbEntity
  8
0
100
AcDbMText
 62
2
  6
CONTINUOUS
  7
STANDARD
 71
2
 72
1
 10
1.5275
 20
-0.6565
 30
0.0
 11
1.0
 21
0.0
 31
0.0
 44
0.9
  1
Body Features
 40
0.125
 41
2.6
  0
MTEXT
  5
25D
100
AcDbEntity
  8
0
100
AcDbMText
 62
2
  6
CONTINUOUS
  7
STANDARD
 71
2
 72
1
 10
6.055
 20
-0.6565
 30
0.0
 11
1.0
 21
0.0
 31
0.0
 44
0.9
  1
Ninety degree with reverse flow check - reducing
 40
0.125
 41
9.6
  0
MTEXT
  5
25E
100
AcDbEntity
  8
0
100
AcDbMText
 62
2
  6
CONTINUOUS
  7
STANDARD
 71
2
 72
1
 10
1.5275
 20
-0.9065
 30
0.0
 11
1.0
 21
0.0
 31
0.0
 44
0.9
  1
Body Type
 40
0.125
 41
1.8
  0
MTEXT
  5
25F
100
AcDbEntity
  8
0
100
AcDbMText
 62
2
  6
CONTINUOUS
  7
STANDARD
 71
2
 72
1
 10
6.055
 20
-0.9065
 30
0.0
 11
1.0
 21
0.0
 31
0.0
 44
0.9
  1
Line mount
 40
0.125
 41
2.0
  0
MTEXT
  5
260
100
AcDbEntity
  8
0
100
AcDbMText
 62
2
  6
CONTINUOUS
  7
STANDARD
 71
2
 72
1
 10
1.5275
 20
-1.1565
 30
0.0
 11
1.0
 21
0.0
 31
0.0
 44
0.9
  1
Interface
 40
0.125
 41
1.8
  0
MTEXT
  5
261
100
AcDbEntity
  8
0
100
AcDbMText
 62
2
  6
CONTINUOUS
  7
STANDARD
 71
2
 72
1
 10
6.055
 20
-1.1565
 30
0.0
 11
1.0
 21
0.0
 31
0.0
 44
0.9
  1
None
 40
0.125
 41
0.8
  0
MTEXT
  5
262
100
AcDbEntity
  8
0
100
AcDbMText
 62
2
  6
CONTINUOUS
  7
STANDARD
 71
2
 72
1
 10
1.5275
 20
-1.4065
 30
0.0
 11
1.0
 21
0.0
 31
0.0
 44
0.9
  1
Open Cavity Quantity
 40
0.125
 41
4.0
  0
MTEXT
  5
263
100
AcDbEntity
  8
0
100
AcDbMText
 62
2
  6
CONTINUOUS
  7
STANDARD
 71
2
 72
1
 10
6.055
 20
-1.4065
 30
0.0
 11
1.0
 21
0.0
 31
0.0
 44
0.9
  1
1
 40
0.125
 41
0.2
  0
MTEXT
  5
264
100
AcDbEntity
  8
0
100
AcDbMText
 62
2
  6
CONTINUOUS
  7
STANDARD
 71
2
 72
1
 10
1.5275
 20
-1.6565
 30
0.0
 11
1.0
 21
0.0
 31
0.0
 44
0.9
  1
Weight
 40
0.125
 41
1.2
  0
MTEXT
  5
265
100
AcDbEntity
  8
0
100
AcDbMText
 62
2
  6
CONTINUOUS
  7
STANDARD
 71
2
 72
1
 10
4.555
 20
-1.6565
 30
0.0
 11
1.0
 21
0.0
 31
0.0
 44
0.9
  1
6.602 lb.
 40
0.125
 41
1.8
  0
MTEXT
  5
266
100
AcDbEntity
  8
0
100
AcDbMText
 62
2
  6
CONTINUOUS
  7
STANDARD
 71
2
 72
1
 10
7.555
 20
-1.6565
 30
0.0
 11
1.0
 21
0.0
 31
0.0
 44
0.9
  1
2,995 kg.
 40
0.125
 41
1.8
  0
MTEXT
  5
267
100
AcDbEntity
  8
0
100
AcDbMText
 62
2
  6
CONTINUOUS
  7
STANDARD
 71
2
 72
1
 10
1.5275
 20
-1.9065
 30
0.0
 11
1.0
 21
0.0
 31
0.0
 44
0.9
  1
Mounting Hole Diameter
 40
0.125
 41
4.4
  0
MTEXT
  5
268
100
AcDbEntity
  8
0
100
AcDbMText
 62
2
  6
CONTINUOUS
  7
STANDARD
 71
2
 72
1
 10
4.555
 20
-1.9065
 30
0.0
 11
1.0
 21
0.0
 31
0.0
 44
0.9
  1
.42 in.
 40
0.125
 41
1.4
  0
MTEXT
  5
269
100
AcDbEntity
  8
0
100
AcDbMText
 62
2
  6
CONTINUOUS
  7
STANDARD
 71
2
 72
1
 10
7.555
 20
-1.9065
 30
0.0
 11
1.0
 21
0.0
 31
0.0
 44
0.9
  1
10,7 mm
 40
0.125
 41
1.4
  0
MTEXT
  5
26A
100
AcDbEntity
  8
0
100
AcDbMText
 62
2
  6
CONTINUOUS
  7
STANDARD
 71
2
 72
1
 10
1.5275
 20
-2.1565
 30
0.0
 11
1.0
 21
0.0
 31
0.0
 44
0.9
  1
Mounting Hole Depth
 40
0.125
 41
3.8
  0
MTEXT
  5
26B
100
AcDbEntity
  8
0
100
AcDbMText
 62
2
  6
CONTINUOUS
  7
STANDARD
 71
2
 72
1
 10
6.055
 20
-2.1565
 30
0.0
 11
1.0
 21
0.0
 31
0.0
 44
0.9
  1
Through
 40
0.125
 41
1.4
  0
MTEXT
  5
26C
100
AcDbEntity
  8
0
100
AcDbMText
 62
2
  6
CONTINUOUS
  7
STANDARD
 71
2
 72
1
 10
1.5275
 20
-2.4065
 30
0.0
 11
1.0
 21
0.0
 31
0.0
 44
0.9
  1
Mounting Hole Quantity
 40
0.125
 41
4.4
  0
MTEXT
  5
26D
100
AcDbEntity
  8
0
100
AcDbMText
 62
2
  6
CONTINUOUS
  7
STANDARD
 71
2
 72
1
 10
6.055
 20
-2.4065
 30
0.0
 11
1.0
 21
0.0
 31
0.0
 44
0.9
  1
2
 40
0.125
 41
0.2
  0
MTEXT
  5
26E
100
AcDbEntity
  8
0
100
AcDbMText
 62
2
  6
CONTINUOUS
  7
STANDARD
 71
2
 72
1
 10
1.5275
 20
-2.6565
 30
0.0
 11
1.0
 21
0.0
 31
0.0
 44
0.9
  1
Includes integral cartridge(s)
 40
0.125
 41
6.0
  0
MTEXT
  5
26F
100
AcDbEntity
  8
0
100
AcDbMText
 62
2
  6
CONTINUOUS
  7
STANDARD
 71
2
 72
1
 10
6.055
 20
-2.6565
 30
0.0
 11
1.0
 21
0.0
 31
0.0
 44
0.9
  1
Yes (see Included Components)
 40
0.125
 41
5.8
  0
ENDBLK
  5
270
100
AcDbEntity
  8
0
  6
BYBLOCK
 62
0
100
AcDbBlockEnd
  0
BLOCK
  5
271
100
AcDbEntity
  8
0
100
AcDbBlockBegin
  2
*T3
 70
1
 10
0.0
 20
0.0
  3
*T3
  1

  0
LINE
  5
272
100
AcDbEntity
  8
0
100
AcDbLine
 62
2
  6
CONTINUOUS
 10
0.0
 20
0.0
 11
4.6
 21
0.0
  0
LINE
  5
273
100
AcDbEntity
  8
0
100
AcDbLine
 62
2
  6
CONTINUOUS
 10
0.0
 20
0.0
 11
0.0
 21
-1.68775
  0
LINE
  5
274
100
AcDbEntity
  8
0
100
AcDbLine
 62
2
  6
CONTINUOUS
 10
0.0
 20
-0.34375
 11
4.6
 21
-0.34375
  0
LINE
  5
275
100
AcDbEntity
  8
0
100
AcDbLine
 62
2
  6
CONTINUOUS
 10
0.0
 20
-0.68775
 11
4.6
 21
-0.68775
  0
LINE
  5
276
100
AcDbEntity
  8
0
100
AcDbLine
 62
2
  6
CONTINUOUS
 10
0.0
 20
-0.93775
 11
4.6
 21
-0.93775
  0
LINE
  5
277
100
AcDbEntity
  8
0
100
AcDbLine
 62
2
  6
CONTINUOUS
 10
0.0
 20
-1.18775
 11
4.6
 21
-1.18775
  0
LINE
  5
278
100
AcDbEntity
  8
0
100
AcDbLine
 62
2
  6
CONTINUOUS
 10
0.0
 20
-1.43775
 11
4.6
 21
-1.43775
  0
LINE
  5
279
100
AcDbEntity
  8
0
100
AcDbLine
 62
2
  6
CONTINUOUS
 10
0.0
 20
-1.68775
 11
4.6
 21
-1.68775
  0
LINE
  5
27A
100
AcDbEntity
  8
0
100
AcDbLine
 62
2
  6
CONTINUOUS
 10
1.3
 20
-0.34375
 11
1.3
 21
-1.68775
  0
LINE
  5
27B
100
AcDbEntity
  8
0
100
AcDbLine
 62
2
  6
CONTINUOUS
 10
3.3
 20
-0.34375
 11
3.3
 21
-1.68775
  0
LINE
  5
27C
100
AcDbEntity
  8
0
100
AcDbLine
 62
2
  6
CONTINUOUS
 10
4.6
 20
0.0
 11
4.6
 21
-1.68775
  0
MTEXT
  5
27D
100
AcDbEntity
  8
0
100
AcDbMText
 62
2
  6
CONTINUOUS
  7
STANDARD
 71
2
 72
1
 10
2.3
 20
-0.099375
 30
0.0
 11
1.0
 21
0.0
 31
0.0
 44
0.9
  1
Port Headings
 40
0.145
 41
3.016
  0
MTEXT
  5
27E
100
AcDbEntity
  8
0
100
AcDbMText
 62
2
  6
CONTINUOUS
  7
STANDARD
 71
2
 72
1
 10
0.65
 20
-0.44325
 30
0.0
 11
1.0
 21
0.0
 31
0.0
 44
0.9
  1
Product
 40
0.145
 41
1.624
  0
MTEXT
  5
27F
100
AcDbEntity
  8
0
100
AcDbMText
 62
2
  6
CONTINUOUS
  7
STANDARD
 71
2
 72
1
 10
2.3
 20
-0.44325
 30
0.0
 11
1.0
 21
0.0
 31
0.0
 44
0.9
  1
Port
 40
0.145
 41
0.928
  0
MTEXT
  5
280
100
AcDbEntity
  8
0
100
AcDbMText
 62
2
  6
CONTINUOUS
  7
STANDARD
 71
2
 72
1
 10
3.95
 20
-0.44325
 30
0.0
 11
1.0
 21
0.0
 31
0.0
 44
0.9
  1
Size
 40
0.145
 41
0.928
  0
MTEXT
  5
281
100
AcDbEntity
  8
0
100
AcDbMText
 62
2
  6
CONTINUOUS
  7
STANDARD
 71
2
 72
1
 10
0.65
 20
-0.75025
 30
0.0
 11
1.0
 21
0.0
 31
0.0
 44
0.9
  1
P4M
 40
0.125
 41
0.6
  0
MTEXT
  5
282
100
AcDbEntity
  8
0
100
AcDbMText
 62
2
  6
CONTINUOUS
  7
STANDARD
 71
2
 72
1
 10
2.3
 20
-0.75025
 30
0.0
 11
1.0
 21
0.0
 31
0.0
 44
0.9
  1
Ports 1 &  2
 40
0.125
 41
2.4
  0
MTEXT
  5
283
100
AcDbEntity
  8
0
100
AcDbMText
 62
2
  6
CONTINUOUS
  7
STANDARD
 71
2
 72
1
 10
3.95
 20
-0.75025
 30
0.0
 11
1.0
 21
0.0
 31
0.0
 44
0.9
  1
SAE 16
 40
0.125
 41
1.2
  0
MTEXT
  5
284
100
AcDbEntity
  8
0
100
AcDbMText
 62
2
  6
CONTINUOUS
  7
STANDARD
 71
2
 72
1
 10
0.65
 20
-1.00025
 30
0.0
 11
1.0
 21
0.0
 31
0.0
 44
0.9
  1
P4M
 40
0.125
 41
0.6
  0
MTEXT
  5
285
100
AcDbEntity
  8
0
100
AcDbMText
 62
2
  6
CONTINUOUS
  7
STANDARD
 71
2
 72
1
 10
2.3
 20
-1.00025
 30
0.0
 11
1.0
 21
0.0
 31
0.0
 44
0.9
  1
Port 3
 40
0.125
 41
1.2
  0
MTEXT
  5
286
100
AcDbEntity
  8
0
100
AcDbMText
 62
2
  6
CONTINUOUS
  7
STANDARD
 71
2
 72
1
 10
3.95
 20
-1.00025
 30
0.0
 11
1.0
 21
0.0
 31
0.0
 44
0.9
  1
SAE 12
 40
0.125
 41
1.2
  0
MTEXT
  5
287
100
AcDbEntity
  8
0
100
AcDbMText
 62
2
  6
CONTINUOUS
  7
STANDARD
 71
2
 72
1
 10
0.65
 20
-1.25025
 30
0.0
 11
1.0
 21
0.0
 31
0.0
 44
0.9
  1
P4M
 40
0.125
 41
0.6
  0
MTEXT
  5
288
100
AcDbEntity
  8
0
100
AcDbMText
 62
2
  6
CONTINUOUS
  7
STANDARD
 71
2
 72
1
 10
2.3
 20
-1.25025
 30
0.0
 11
1.0
 21
0.0
 31
0.0
 44
0.9
  1
Port 4
 40
0.125
 41
1.2
  0
MTEXT
  5
289
100
AcDbEntity
  8
0
100
AcDbMText
 62
2
  6
CONTINUOUS
  7
STANDARD
 71
2
 72
1
 10
3.95
 20
-1.25025
 30
0.0
 11
1.0
 21
0.0
 31
0.0
 44
0.9
  1
SAE 6
 40
0.125
 41
1.0
  0
MTEXT
  5
28A
100
AcDbEntity
  8
0
100
AcDbMText
 62
2
  6
CONTINUOUS
  7
STANDARD
 71
2
 72
1
 10
0.65
 20
-1.50025
 30
0.0
 11
1.0
 21
0.0
 31
0.0
 44
0.9
  1
P4M
 40
0.125
 41
0.6
  0
MTEXT
  5
28B
100
AcDbEntity
  8
0
100
AcDbMText
 62
2
  6
CONTINUOUS
  7
STANDARD
 71
2
 72
1
 10
2.3
 20
-1.50025
 30
0.0
 11
1.0
 21
0.0
 31
0.0
 44
0.9
  1
Gage Port
 40
0.125
 41
1.8
  0
MTEXT
  5
28C
100
AcDbEntity
  8
0
100
AcDbMText
 62
2
  6
CONTINUOUS
  7
STANDARD
 71
2
 72
1
 10
3.95
 20
-1.50025
 30
0.0
 11
1.0
 21
0.0
 31
0.0
 44
0.9
  1
1/4" NPTF
 40
0.125
 41
1.8
  0
ENDBLK
  5
28D
100
AcDbEntity
  8
0
  6
BYBLOCK
 62
0
100
AcDbBlockEnd
  0
ENDSEC
  0
SECTION
  2
ENTITIES
  0
IMAGE
  5
28E
100
AcDbEntity
  8
0
100
AcDbRasterImage
 62
7
  6
CONTINUOUS
 10
19.2297077316
 20
0.3094318264
 30
0.0
 11
0.0066666667
 21
0.0
 31
0.0
 12
0.0
 22
0.0066666667
 32
0.0
 13
369.0
 23
92.0
340
       3A1
 70
9
280
0
281
50
282
50
283
0
360
       39B
 71
1
 91
2
 14
-0.5
 24
-0.5
 14
368.5
 24
91.5
  0
INSERT
  5
28F
100
AcDbEntity
  8
0
100
AcDbBlockReference
 62
2
  6
CONTINUOUS
  2
SUN_FIRST_THIRD_ANGLE_BL0
 10
20.4816717061
 20
1.2289683772
  0
ACAD_TABLE
  5
290
100
AcDbEntity
  8
0
 62
2
  6
CONTINUOUS
100
AcDbBlockReference
  2
*T1
 10
12.42375
 20
0.30125
 30
0.0
100
AcDbTable
342
       3A3
343
207
 11
1.0
 21
0.0
 31
0.0
 90
6
 91
4
 92
6
 93
20
 94
0
 95
0
 96
0
 70
1
 41
0.0
141
0.525
141
0.1
141
0.525
141
0.1
142
4.1
142
1.1
142
0.7
142
0.5
142
0.4
142
2.475
171
1
172
0
173
0
174
0
175
1
176
1
 91
33
178
0
145
0.0
301
CELL_VALUE
 90
4
  1
T-23A Line mount\P(See Technical Data for Body Features)
304
ACVALUE_END
170
2
140
0.125
171
1
172
0
173
0
174
0
175
1
176
1
 91
33
178
0
145
0.0
301
CELL_VALUE
 90
4
  1
Apr-19-22
304
ACVALUE_END
170
5
140
0.125
171
1
172
0
173
0
174
0
175
1
176
1
 91
33
178
0
145
0.0
301
CELL_VALUE
 90
4
  1
1.000
304
ACVALUE_END
170
5
140
0.125
171
1
172
0
173
0
174
0
175
1
176
1
 91
33
178
0
145
0.0
301
CELL_VALUE
 90
4
  1
C
304
ACVALUE_END
170
5
140
0.125
171
1
172
0
173
0
174
0
175
1
176
1
 91
33
178
0
145
0.0
301
CELL_VALUE
 90
4
  1
2
304
ACVALUE_END
170
5
140
0.125
171
1
172
0
173
0
174
0
175
1
176
1
 91
33
178
0
145
0.0
301
CELL_VALUE
 90
4
  1
 
304
ACVALUE_END
170
1
140
0.125
171
1
172
0
173
0
174
0
175
1
176
1
 91
33
178
0
145
0.0
301
CELL_VALUE
 90
4
  1
DESCRIPTION
304
ACVALUE_END
170
1
140
0.06
171
1
172
0
173
0
174
0
175
1
176
1
 91
33
178
0
145
0.0
301
CELL_VALUE
 90
4
  1
DATE
304
ACVALUE_END
170
1
140
0.06
171
1
172
0
173
0
174
0
175
1
176
1
 91
33
178
0
145
0.0
301
CELL_VALUE
 90
4
  1
SCALE
304
ACVALUE_END
170
1
140
0.06
171
1
172
0
173
0
174
0
175
1
176
1
 91
33
178
0
145
0.0
301
CELL_VALUE
 90
4
  1
DWG SIZE
304
ACVALUE_END
170
1
140
0.06
171
1
172
0
173
0
174
0
175
1
176
1
 91
33
178
0
145
0.0
301
CELL_VALUE
 90
4
  1
SHEET
304
ACVALUE_END
170
1
140
0.06
171
1
172
0
173
0
174
0
175
1
176
1
 91
33
178
0
145
0.0
301
CELL_VALUE
 90
4
  1
 
304
ACVALUE_END
170
1
140
0.125
171
1
172
0
173
0
174
0
175
1
176
1
 91
33
178
0
145
0.0
301
CELL_VALUE
 90
4
  1
P4M
304
ACVALUE_END
170
5
140
0.125
171
1
172
0
173
0
174
0
175
4
176
1
 91
33
178
0
145
0.0
301
CELL_VALUE
 90
4
  1
ALL DIMENSIONS IN INCH\PVIEWS ARE THIRD ANGLE
304
ACVALUE_END
170
5
140
0.12
171
1
172
0
173
1
174
0
175
1
176
1
 91
1
178
0
145
0.0
170
1
171
1
172
0
173
1
174
0
175
1
176
1
 91
1
178
0
145
0.0
170
1
171
1
172
0
173
1
174
0
175
1
176
1
 91
1
178
0
145
0.0
170
5
171
1
172
0
173
0
174
0
175
1
176
1
 91
33
178
0
145
0.0
301
CELL_VALUE
 90
4
  1
 
304
ACVALUE_END
170
1
140
0.125
171
1
172
0
173
0
174
0
175
1
176
1
 91
33
178
0
145
0.0
301
CELL_VALUE
 90
4
  1
MODEL
304
ACVALUE_END
170
1
140
0.06
171
1
172
0
173
0
174
0
175
1
176
1
 91
33
178
0
145
0.0
301
CELL_VALUE
 90
4
  1
 
304
ACVALUE_END
170
1
140
0.125
171
1
172
0
173
0
174
0
175
1
176
1
 91
33
178
0
145
0.0
301
CELL_VALUE
 90
4
  1
 
304
ACVALUE_END
170
1
140
0.125
171
1
172
0
173
0
174
0
175
1
176
1
 91
33
178
0
145
0.0
301
CELL_VALUE
 90
4
  1
 
304
ACVALUE_END
170
1
140
0.125
171
1
172
0
173
0
174
0
175
1
176
1
 91
33
178
0
145
0.0
301
CELL_VALUE
 90
4
  1
 
304
ACVALUE_END
170
1
140
0.125
171
1
172
0
173
0
174
0
175
1
176
1
 91
33
178
0
145
0.0
301
CELL_VALUE
 90
4
  1
 
304
ACVALUE_END
170
1
140
0.125
  0
ACAD_TABLE
  5
291
100
AcDbEntity
  8
0
 62
2
  6
CONTINUOUS
100
AcDbBlockReference
  2
*T2
 10
12.4237499994
 20
16.47875
 30
0.0
100
AcDbTable
342
       3A2
343
208
 11
1.0
 21
0.0
 31
0.0
 90
22
 91
11
 92
3
 93
16
 94
0
 95
0
 96
0
 41
0.028
141
0.344
141
0.25
141
0.25
141
0.25
141
0.25
141
0.25
141
0.25
141
0.25
141
0.25
141
0.25
141
0.25
142
3.055
142
3.0
142
3.0
171
1
172
0
173
0
174
0
175
1
176
1
 91
33
178
0
145
0.0
301
CELL_VALUE
 90
4
  1
Technical Data
304
ACVALUE_END
170
5
140
0.145
171
1
172
0
173
0
174
0
175
1
176
1
 91
33
178
0
145
0.0
301
CELL_VALUE
 90
4
  1
U.S. Units
304
ACVALUE_END
170
5
140
0.145
171
1
172
0
173
0
174
0
175
1
176
1
 91
33
178
0
145
0.0
301
CELL_VALUE
 90
4
  1
Metric Units
304
ACVALUE_END
170
5
140
0.145
171
1
172
0
173
0
174
0
175
1
176
1
 91
33
178
0
145
0.0
301
CELL_VALUE
 90
4
  1
Cavity
304
ACVALUE_END
170
5
140
0.125
171
1
172
0
173
0
174
0
175
2
176
1
 91
33
178
0
145
0.0
301
CELL_VALUE
 90
4
  1
T-23A
304
ACVALUE_END
170
5
140
0.125
171
1
172
0
173
1
174
0
175
1
176
1
 91
1
178
0
145
0.0
170
1
171
1
172
0
173
0
174
0
175
1
176
1
 91
33
178
0
145
0.0
301
CELL_VALUE
 90
4
  1
Body Features
304
ACVALUE_END
170
5
140
0.125
171
1
172
0
173
0
174
0
175
2
176
1
 91
33
178
0
145
0.0
301
CELL_VALUE
 90
4
  1
Ninety degree with reverse flow check - reducing
304
ACVALUE_END
170
5
140
0.125
171
1
172
0
173
1
174
0
175
1
176
1
 91
1
178
0
145
0.0
170
1
171
1
172
0
173
0
174
0
175
1
176
1
 91
33
178
0
145
0.0
301
CELL_VALUE
 90
4
  1
Body Type
304
ACVALUE_END
170
5
140
0.125
171
1
172
0
173
0
174
0
175
2
176
1
 91
33
178
0
145
0.0
301
CELL_VALUE
 90
4
  1
Line mount
304
ACVALUE_END
170
5
140
0.125
171
1
172
0
173
1
174
0
175
1
176
1
 91
1
178
0
145
0.0
170
1
171
1
172
0
173
0
174
0
175
1
176
1
 91
33
178
0
145
0.0
301
CELL_VALUE
 90
4
  1
Interface
304
ACVALUE_END
170
5
140
0.125
171
1
172
0
173
0
174
0
175
2
176
1
 91
33
178
0
145
0.0
301
CELL_VALUE
 90
4
  1
None
304
ACVALUE_END
170
5
140
0.125
171
1
172
0
173
1
174
0
175
1
176
1
 91
1
178
0
145
0.0
170
1
171
1
172
0
173
0
174
0
175
1
176
1
 91
33
178
0
145
0.0
301
CELL_VALUE
 90
4
  1
Open Cavity Quantity
304
ACVALUE_END
170
5
140
0.125
171
1
172
0
173
0
174
0
175
2
176
1
 91
33
178
0
145
0.0
301
CELL_VALUE
 90
4
  1
1
304
ACVALUE_END
170
5
140
0.125
171
1
172
0
173
1
174
0
175
1
176
1
 91
1
178
0
145
0.0
170
1
171
1
172
0
173
0
174
0
175
1
176
1
 91
33
178
0
145
0.0
301
CELL_VALUE
 90
4
  1
Weight
304
ACVALUE_END
170
5
140
0.125
171
1
172
0
173
0
174
0
175
1
176
1
 91
33
178
0
145
0.0
301
CELL_VALUE
 90
4
  1
6.602 lb.
304
ACVALUE_END
170
5
140
0.125
171
1
172
0
173
0
174
0
175
1
176
1
 91
33
178
0
145
0.0
301
CELL_VALUE
 90
4
  1
2,995 kg.
304
ACVALUE_END
170
5
140
0.125
171
1
172
0
173
0
174
0
175
1
176
1
 91
33
178
0
145
0.0
301
CELL_VALUE
 90
4
  1
Mounting Hole Diameter
304
ACVALUE_END
170
5
140
0.125
171
1
172
0
173
0
174
0
175
1
176
1
 91
33
178
0
145
0.0
301
CELL_VALUE
 90
4
  1
.42 in.
304
ACVALUE_END
170
5
140
0.125
171
1
172
0
173
0
174
0
175
1
176
1
 91
33
178
0
145
0.0
301
CELL_VALUE
 90
4
  1
10,7 mm
304
ACVALUE_END
170
5
140
0.125
171
1
172
0
173
0
174
0
175
1
176
1
 91
33
178
0
145
0.0
301
CELL_VALUE
 90
4
  1
Mounting Hole Depth
304
ACVALUE_END
170
5
140
0.125
171
1
172
0
173
0
174
0
175
2
176
1
 91
33
178
0
145
0.0
301
CELL_VALUE
 90
4
  1
Through
304
ACVALUE_END
170
5
140
0.125
171
1
172
0
173
1
174
0
175
1
176
1
 91
1
178
0
145
0.0
170
1
171
1
172
0
173
0
174
0
175
1
176
1
 91
33
178
0
145
0.0
301
CELL_VALUE
 90
4
  1
Mounting Hole Quantity
304
ACVALUE_END
170
5
140
0.125
171
1
172
0
173
0
174
0
175
2
176
1
 91
33
178
0
145
0.0
301
CELL_VALUE
 90
4
  1
2
304
ACVALUE_END
170
5
140
0.125
171
1
172
0
173
1
174
0
175
1
176
1
 91
1
178
0
145
0.0
170
1
171
1
172
0
173
0
174
0
175
1
176
1
 91
33
178
0
145
0.0
301
CELL_VALUE
 90
4
  1
Includes integral cartridge(s)
304
ACVALUE_END
170
5
140
0.125
171
1
172
0
173
0
174
0
175
2
176
1
 91
33
178
0
145
0.0
301
CELL_VALUE
 90
4
  1
Yes (see Included Components)
304
ACVALUE_END
170
5
140
0.125
171
1
172
0
173
1
174
0
175
1
176
1
 91
1
178
0
145
0.0
170
1
  0
ACAD_TABLE
  5
292
100
AcDbEntity
  8
0
 62
2
  6
CONTINUOUS
100
AcDbBlockReference
  2
*T3
 10
0.52125
 20
2.209
 30
0.0
100
AcDbTable
342
       3A2
343
209
 11
1.0
 21
0.0
 31
0.0
 90
22
 91
6
 92
3
 93
16
 94
0
 95
0
 96
0
 41
0.05
141
0.34375
141
0.344
141
0.25
141
0.25
141
0.25
141
0.25
142
1.3
142
2.0
142
1.3
171
1
172
0
173
0
174
0
175
3
176
1
 91
33
178
0
145
0.0
301
CELL_VALUE
 90
4
  1
Port Headings
304
ACVALUE_END
170
5
140
0.145
171
1
172
0
173
1
174
0
175
1
176
1
 91
1
178
0
145
0.0
170
1
171
1
172
0
173
1
174
0
175
1
176
1
 91
1
178
0
145
0.0
170
1
171
1
172
0
173
0
174
0
175
1
176
1
 91
33
178
0
145
0.0
301
CELL_VALUE
 90
4
  1
Product
304
ACVALUE_END
170
5
140
0.145
171
1
172
0
173
0
174
0
175
1
176
1
 91
33
178
0
145
0.0
301
CELL_VALUE
 90
4
  1
Port
304
ACVALUE_END
170
5
140
0.145
171
1
172
0
173
0
174
0
175
1
176
1
 91
33
178
0
145
0.0
301
CELL_VALUE
 90
4
  1
Size
304
ACVALUE_END
170
5
140
0.145
171
1
172
0
173
0
174
0
175
1
176
1
 91
33
178
0
145
0.0
301
CELL_VALUE
 90
4
  1
P4M
304
ACVALUE_END
170
5
140
0.125
171
1
172
0
173
0
174
0
175
1
176
1
 91
33
178
0
145
0.0
301
CELL_VALUE
 90
4
  1
Ports 1 &  2
304
ACVALUE_END
170
5
140
0.125
171
1
172
0
173
0
174
0
175
1
176
1
 91
33
178
0
145
0.0
301
CELL_VALUE
 90
4
  1
SAE 16
304
ACVALUE_END
170
5
140
0.125
171
1
172
0
173
0
174
0
175
1
176
1
 91
33
178
0
145
0.0
301
CELL_VALUE
 90
4
  1
P4M
304
ACVALUE_END
170
5
140
0.125
171
1
172
0
173
0
174
0
175
1
176
1
 91
33
178
0
145
0.0
301
CELL_VALUE
 90
4
  1
Port 3
304
ACVALUE_END
170
5
140
0.125
171
1
172
0
173
0
174
0
175
1
176
1
 91
33
178
0
145
0.0
301
CELL_VALUE
 90
4
  1
SAE 12
304
ACVALUE_END
170
5
140
0.125
171
1
172
0
173
0
174
0
175
1
176
1
 91
33
178
0
145
0.0
301
CELL_VALUE
 90
4
  1
P4M
304
ACVALUE_END
170
5
140
0.125
171
1
172
0
173
0
174
0
175
1
176
1
 91
33
178
0
145
0.0
301
CELL_VALUE
 90
4
  1
Port 4
304
ACVALUE_END
170
5
140
0.125
171
1
172
0
173
0
174
0
175
1
176
1
 91
33
178
0
145
0.0
301
CELL_VALUE
 90
4
  1
SAE 6
304
ACVALUE_END
170
5
140
0.125
171
1
172
0
173
0
174
0
175
1
176
1
 91
33
178
0
145
0.0
301
CELL_VALUE
 90
4
  1
P4M
304
ACVALUE_END
170
5
140
0.125
171
1
172
0
173
0
174
0
175
1
176
1
 91
33
178
0
145
0.0
301
CELL_VALUE
 90
4
  1
Gage Port
304
ACVALUE_END
170
5
140
0.125
171
1
172
0
173
0
174
0
175
1
176
1
 91
33
178
0
145
0.0
301
CELL_VALUE
 90
4
  1
1/4" NPTF
304
ACVALUE_END
170
5
140
0.125
  0
MTEXT
  5
293
100
AcDbEntity
  8
0
100
AcDbMText
 62
2
  6
CONTINUOUS
  7
STANDARD
 71
1
 72
1
 10
0.52125
 20
5.75995
 30
0.0
 11
1.0
 21
0.0
 31
0.0
 44
0.6
  3
Notes\P \P1. Important: Carefully consider\P   the maximum system pressure. The\P   pressure rating of the manifold is\P   dependent on the manifold material,\P   with the port type/size a secondary\P   consideration. Manifolds\P   constructed of alu
  1
minum are not\P   rated for pressures higher than\P   3000 psi (210 bar), regardless of\P   the port type/size specified.
 40
0.1
 41
3.04
  0
LINE
  5
294
100
AcDbEntity
  8
0
100
AcDbLine
 62
7
  6
CONTINUOUS
 10
0.30125
 20
0.30125
 11
0.30125
 21
16.69875
  0
LINE
  5
295
100
AcDbEntity
  8
0
100
AcDbLine
 62
7
  6
CONTINUOUS
 10
0.30125
 20
0.30125
 11
21.69875
 21
0.30125
  0
LINE
  5
296
100
AcDbEntity
  8
0
100
AcDbLine
 62
7
  6
CONTINUOUS
 10
0.30125
 20
16.69875
 11
21.69875
 21
16.69875
  0
LINE
  5
297
100
AcDbEntity
  8
0
100
AcDbLine
 62
7
  6
CONTINUOUS
 10
21.69875
 20
0.30125
 11
21.69875
 21
16.69875
  0
LINE
  5
298
100
AcDbEntity
  8
0
100
AcDbLine
 62
7
  6
CONTINUOUS
 10
8.9087088306
 20
12.1936514865
 11
8.2616617518
 21
11.5686519652
  0
LINE
  5
299
100
AcDbEntity
  8
0
100
AcDbLine
 62
4
  6
CONTINUOUS
 10
8.440358039
 20
10.2851007383
 11
8.433113595
 21
10.2759438859
  0
LINE
  5
29A
100
AcDbEntity
  8
0
100
AcDbLine
 62
4
  6
CONTINUOUS
 10
8.4476024829
 20
10.2266427827
 11
8.433113595
 21
10.2083290735
  0
LINE
  5
29B
100
AcDbEntity
  8
0
100
AcDbLine
 62
7
  6
CONTINUOUS
 10
8.2616617518
 20
5.7730966641
 11
8.2616617518
 21
11.5686519652
  0
LINE
  5
29C
100
AcDbEntity
  8
0
100
AcDbLine
 62
4
  6
CONTINUOUS
 10
8.3896469312
 20
10.3079360851
 11
8.4041358191
 21
10.3165905337
  0
LINE
  5
29D
100
AcDbEntity
  8
0
100
AcDbLine
 62
4
  6
CONTINUOUS
 10
8.433113595
 20
10.2759438859
 11
8.4186247071
 21
10.2672894305
  0
LINE
  5
29E
100
AcDbEntity
  8
0
100
AcDbLine
 62
4
  6
CONTINUOUS
 10
8.433113595
 20
10.2083290735
 11
8.4186247071
 21
10.1996746224
  0
LINE
  5
29F
100
AcDbEntity
  8
0
100
AcDbLine
 62
7
  6
CONTINUOUS
 10
8.2616617518
 20
5.7730966641
 11
13.0912911694
 21
5.4381607264
  0
LINE
  5
2A0
100
AcDbEntity
  8
0
100
AcDbLine
 62
7
  6
CONTINUOUS
 10
11.5060988387
 20
4.9077023682
 11
11.5374816669
 21
4.892199852
  0
LINE
  5
2A1
100
AcDbEntity
  8
0
100
AcDbLine
 62
4
  6
CONTINUOUS
 10
8.440358039
 20
10.2947599946
 11
8.440358039
 21
10.2851007383
  0
LINE
  5
2A2
100
AcDbEntity
  8
0
100
AcDbLine
 62
4
  6
CONTINUOUS
 10
8.440358039
 20
7.2047632278
 11
8.440358039
 21
7.0888521243
  0
LINE
  5
2A3
100
AcDbEntity
  8
0
100
AcDbLine
 62
4
  6
CONTINUOUS
 10
8.4476024829
 20
10.2363020425
 11
8.4476024829
 21
10.2266427827
  0
LINE
  5
2A4
100
AcDbEntity
  8
0
100
AcDbLine
 62
7
  6
CONTINUOUS
 10
11.1960829544
 20
11.7000853579
 11
11.194017206
 21
11.6981273294
  0
LINE
  5
2A5
100
AcDbEntity
  8
0
100
AcDbLine
 62
4
  6
CONTINUOUS
 10
10.1341780954
 20
9.9105597787
 11
10.1507368252
 21
9.9259701549
  0
LINE
  5
2A6
100
AcDbEntity
  8
0
100
AcDbLine
 62
4
  6
CONTINUOUS
 10
10.1755749191
 20
9.8083365238
 11
10.1921336471
 21
9.8237469019
  0
LINE
  5
2A7
100
AcDbEntity
  8
0
100
AcDbLine
 62
4
  6
CONTINUOUS
 10
10.2666479338
 20
9.8020205888
 11
10.283206655
 21
9.8174309674
  0
LINE
  5
2A8
100
AcDbEntity
  8
0
100
AcDbLine
 62
4
  6
CONTINUOUS
 10
10.6530182832
 20
9.8497399939
 11
10.6695770044
 21
9.8568710101
  0
LINE
  5
2A9
100
AcDbEntity
  8
0
100
AcDbLine
 62
4
  6
CONTINUOUS
 10
10.8103262172
 20
9.7974338314
 11
10.8268849384
 21
9.8045648442
  0
LINE
  5
2AA
100
AcDbEntity
  8
0
100
AcDbLine
 62
4
  6
CONTINUOUS
 10
10.6102414626
 20
9.5082850159
 11
10.5936827346
 21
9.4928746361
  0
LINE
  5
2AB
100
AcDbEntity
  8
0
100
AcDbLine
 62
4
  6
CONTINUOUS
 10
10.3190839086
 20
9.2237962439
 11
10.3025251805
 21
9.2083858658
  0
LINE
  5
2AC
100
AcDbEntity
  8
0
100
AcDbLine
 62
4
  6
CONTINUOUS
 10
11.0945843652
 20
9.8191172821
 11
11.1028636981
 21
9.8268224759
  0
LINE
  5
2AD
100
AcDbEntity
  8
0
100
AcDbLine
 62
4
  6
CONTINUOUS
 10
10.2390500562
 20
9.2845423759
 11
10.1948934446
 21
9.2655263397
  0
LINE
  5
2AE
100
AcDbEntity
  8
0
100
AcDbLine
 62
4
  6
CONTINUOUS
 10
10.5765032282
 20
7.4845261897
 11
10.5620143403
 21
7.4855309975
  0
LINE
  5
2AF
100
AcDbEntity
  8
0
100
AcDbLine
 62
4
  6
CONTINUOUS
 10
10.5692587842
 20
7.5429841453
 11
10.5982365601
 21
7.5409745298
  0
LINE
  5
2B0
100
AcDbEntity
  8
0
100
AcDbLine
 62
4
  6
CONTINUOUS
 10
10.5620143403
 20
7.6014421009
 11
10.5765032282
 21
7.6004372932
  0
LINE
  5
2B1
100
AcDbEntity
  8
0
100
AcDbLine
 62
4
  6
CONTINUOUS
 10
10.5620143403
 20
7.4855309975
 11
10.5475254523
 21
7.4961950642
  0
LINE
  5
2B2
100
AcDbEntity
  8
0
100
AcDbLine
 62
4
  6
CONTINUOUS
 10
10.5765032282
 20
7.6004372932
 11
10.5909921161
 21
7.5897732291
  0
LINE
  5
2B3
100
AcDbEntity
  8
0
100
AcDbLine
 62
4
  6
CONTINUOUS
 10
8.3896469312
 20
10.2113434969
 11
8.3824024873
 21
10.2215051597
  0
LINE
  5
2B4
100
AcDbEntity
  8
0
100
AcDbLine
 62
4
  6
CONTINUOUS
 10
8.433113595
 20
10.2566253664
 11
8.4476024829
 21
10.2363020425
  0
LINE
  5
2B5
100
AcDbEntity
  8
0
100
AcDbLine
 62
4
  6
CONTINUOUS
 10
8.433113595
 20
10.3049216618
 11
8.440358039
 21
10.2947599946
  0
LINE
  5
2B6
100
AcDbEntity
  8
0
100
AcDbLine
 62
4
  6
CONTINUOUS
 10
10.5475254523
 20
7.4961950642
 11
10.5330365644
 21
7.516518389
  0
LINE
  5
2B7
100
AcDbEntity
  8
0
100
AcDbLine
 62
4
  6
CONTINUOUS
 10
10.1341780954
 20
9.8940010506
 11
10.1341780954
 21
9.9105597787
  0
LINE
  5
2B8
100
AcDbEntity
  8
0
100
AcDbLine
 62
4
  6
CONTINUOUS
 10
10.1921336471
 20
9.8237469019
 11
10.1921336471
 21
9.8403056317
  0
LINE
  5
2B9
100
AcDbEntity
  8
0
100
AcDbLine
 62
4
  6
CONTINUOUS
 10
10.2252511033
 20
9.9208025722
 11
10.2252511033
 21
9.8214501986
  0
LINE
  5
2BA
100
AcDbEntity
  8
0
100
AcDbLine
 62
4
  6
CONTINUOUS
 10
10.2611283638
 20
9.2112567448
 11
10.2611283638
 21
9.3271678482
  0
LINE
  5
2BB
100
AcDbEntity
  8
0
100
AcDbLine
 62
4
  6
CONTINUOUS
 10
10.283206655
 20
9.8174309674
 11
10.283206655
 21
9.916783341
  0
LINE
  5
2BC
100
AcDbEntity
  8
0
100
AcDbLine
 62
4
  6
CONTINUOUS
 10
10.3163241111
 20
9.7985755342
 11
10.3163241111
 21
9.9144866376
  0
LINE
  5
2BD
100
AcDbEntity
  8
0
100
AcDbLine
 62
4
  6
CONTINUOUS
 10
10.3190839086
 20
9.3065898895
 11
10.3190839086
 21
9.2237962439
  0
LINE
  5
2BE
100
AcDbEntity
  8
0
100
AcDbLine
 62
4
  6
CONTINUOUS
 10
10.3742796629
 20
9.794556303
 11
10.3742796629
 21
9.9104674065
  0
LINE
  5
2BF
100
AcDbEntity
  8
0
100
AcDbLine
 62
4
  6
CONTINUOUS
 10
10.6433589188
 20
9.4645914872
 11
10.6681970144
 21
9.553941969
  0
LINE
  5
2C0
100
AcDbEntity
  8
0
100
AcDbLine
 62
4
  6
CONTINUOUS
 10
10.3660003082
 20
9.2039838507
 11
10.3991177644
 21
9.3175982508
  0
LINE
  5
2C1
100
AcDbEntity
  8
0
100
AcDbLine
 62
4
  6
CONTINUOUS
 10
10.5978225091
 20
9.7514556722
 11
10.6309399515
 21
9.8595504989
  0
LINE
  5
2C2
100
AcDbEntity
  8
0
100
AcDbLine
 62
4
  6
CONTINUOUS
 10
10.7675493828
 20
9.4808169431
 11
10.800666839
 21
9.5447551554
  0
LINE
  5
2C3
100
AcDbEntity
  8
0
100
AcDbLine
 62
4
  6
CONTINUOUS
 10
11.1690986934
 20
9.8139496959
 11
11.1773780263
 21
9.8216548897
  0
LINE
  5
2C4
100
AcDbEntity
  8
0
100
AcDbLine
 62
4
  6
CONTINUOUS
 10
11.2104954686
 20
9.7365645399
 11
11.2187748016
 21
9.7442697312
  0
LINE
  5
2C5
100
AcDbEntity
  8
0
100
AcDbLine
 62
4
  6
CONTINUOUS
 10
10.7385717417
 20
9.2774983094
 11
10.7551304629
 21
9.2929086863
  0
LINE
  5
2C6
100
AcDbEntity
  8
0
100
AcDbLine
 62
4
  6
CONTINUOUS
 10
10.8351642911
 20
9.2707995934
 11
10.8517230123
 21
9.2862099702
  0
LINE
  5
2C7
100
AcDbEntity
  8
0
100
AcDbLine
 62
4
  6
CONTINUOUS
 10
10.8931198428
 20
9.1839867167
 11
10.8765611216
 21
9.1685763381
  0
LINE
  5
2C8
100
AcDbEntity
  8
0
100
AcDbLine
 62
4
  6
CONTINUOUS
 10
11.158059492
 20
9.1987305475
 11
11.1139028838
 21
9.1797145128
  0
LINE
  5
2C9
100
AcDbEntity
  8
0
100
AcDbLine
 62
4
  6
CONTINUOUS
 10
10.5909921161
 20
7.5897732291
 11
10.5982365601
 21
7.5796115619
  0
LINE
  5
2CA
100
AcDbEntity
  8
0
100
AcDbLine
 62
4
  6
CONTINUOUS
 10
10.5330365644
 20
7.516518389
 11
10.5257921204
 21
7.5459985687
  0
LINE
  5
2CB
100
AcDbEntity
  8
0
100
AcDbLine
 62
4
  6
CONTINUOUS
 10
10.4984701467
 20
9.1947970362
 11
10.4984701467
 21
9.3107081397
  0
LINE
  5
2CC
100
AcDbEntity
  8
0
100
AcDbLine
 62
4
  6
CONTINUOUS
 10
10.4984701269
 20
9.7859436651
 11
10.4984701269
 21
9.9018547685
  0
LINE
  5
2CD
100
AcDbEntity
  8
0
100
AcDbLine
 62
4
  6
CONTINUOUS
 10
10.548146318
 20
9.8570128893
 11
10.548146318
 21
9.7824986096
  0
LINE
  5
2CE
100
AcDbEntity
  8
0
100
AcDbLine
 62
4
  6
CONTINUOUS
 10
10.5522859109
 20
9.4460693279
 11
10.5522859109
 21
9.5619804313
  0
LINE
  5
2CF
100
AcDbEntity
  8
0
100
AcDbLine
 62
4
  6
CONTINUOUS
 10
10.564705059
 20
9.1902036295
 11
10.564705059
 21
9.3061147329
  0
LINE
  5
2D0
100
AcDbEntity
  8
0
100
AcDbLine
 62
4
  6
CONTINUOUS
 10
10.5982365601
 20
7.5409745298
 11
10.5982365601
 21
7.5023374959
  0
LINE
  5
2D1
100
AcDbEntity
  8
0
100
AcDbLine
 62
4
  6
CONTINUOUS
 10
10.6102414626
 20
9.5414024721
 11
10.6102414626
 21
9.5082850159
  0
LINE
  5
2D2
100
AcDbEntity
  8
0
100
AcDbLine
 62
4
  6
CONTINUOUS
 10
10.6530182832
 20
9.783505079
 11
10.6530182832
 21
9.8497399939
  0
LINE
  5
2D3
100
AcDbEntity
  8
0
100
AcDbLine
 62
4
  6
CONTINUOUS
 10
10.6819959579
 20
9.4370739056
 11
10.6819959579
 21
9.4950294573
  0
LINE
  5
2D4
100
AcDbEntity
  8
0
100
AcDbLine
 62
4
  6
CONTINUOUS
 10
10.7026944467
 20
9.8876917639
 11
10.7026944467
 21
9.7717806604
  0
LINE
  5
2D5
100
AcDbEntity
  8
0
100
AcDbLine
 62
4
  6
CONTINUOUS
 10
10.7344319267
 20
9.4334374588
 11
10.7344319267
 21
9.5493485622
  0
LINE
  5
2D6
100
AcDbEntity
  8
0
100
AcDbLine
 62
4
  6
CONTINUOUS
 10
11.0531875347
 20
9.8633849857
 11
11.050427757
 21
9.8552970094
  0
LINE
  5
2D7
100
AcDbEntity
  8
0
100
AcDbLine
 62
7
  6
CONTINUOUS
 10
13.0912911694
 20
11.2337160275
 11
13.7383382482
 21
11.8587155488
  0
LINE
  5
2D8
100
AcDbEntity
  8
0
100
AcDbLine
 62
4
  6
CONTINUOUS
 10
10.9841928368
 20
9.1776707831
 11
10.9676341157
 21
9.1622604045
  0
LINE
  5
2D9
100
AcDbEntity
  8
0
100
AcDbLine
 62
4
  6
CONTINUOUS
 10
10.3991177644
 20
9.3175982508
 11
10.4322352344
 21
9.199390443
  0
LINE
  5
2DA
100
AcDbEntity
  8
0
100
AcDbLine
 62
4
  6
CONTINUOUS
 10
10.7358119443
 20
9.7694839542
 11
10.7358119443
 21
9.8522776015
  0
LINE
  5
2DB
100
AcDbEntity
  8
0
100
AcDbLine
 62
4
  6
CONTINUOUS
 10
10.7385717417
 20
9.1947046639
 11
10.7385717417
 21
9.2774983094
  0
LINE
  5
2DC
100
AcDbEntity
  8
0
100
AcDbLine
 62
4
  6
CONTINUOUS
 10
10.7744489419
 20
9.8413187491
 11
10.7744489419
 21
9.824760021
  0
LINE
  5
2DD
100
AcDbEntity
  8
0
100
AcDbLine
 62
4
  6
CONTINUOUS
 10
10.800666839
 20
9.5447551554
 11
10.800666839
 21
9.428844052
  0
LINE
  5
2DE
100
AcDbEntity
  8
0
100
AcDbLine
 62
4
  6
CONTINUOUS
 10
10.8103262172
 20
9.7725957367
 11
10.8103262172
 21
9.7974338314
  0
LINE
  5
2DF
100
AcDbEntity
  8
0
100
AcDbLine
 62
4
  6
CONTINUOUS
 10
10.8351642911
 20
9.1880059478
 11
10.8351642911
 21
9.2707995934
  0
LINE
  5
2E0
100
AcDbEntity
  8
0
100
AcDbLine
 62
4
  6
CONTINUOUS
 10
10.8600023807
 20
9.7608713182
 11
10.8600023807
 21
9.8271062374
  0
LINE
  5
2E1
100
AcDbEntity
  8
0
100
AcDbLine
 62
4
  6
CONTINUOUS
 10
10.893119823
 20
9.841368263
 11
10.893119823
 21
9.7668539806
  0
LINE
  5
2E2
100
AcDbEntity
  8
0
100
AcDbLine
 62
4
  6
CONTINUOUS
 10
10.8931198428
 20
9.2667803622
 11
10.8931198428
 21
9.1839867167
  0
LINE
  5
2E3
100
AcDbEntity
  8
0
100
AcDbLine
 62
4
  6
CONTINUOUS
 10
10.9262372851
 20
9.1651312844
 11
10.9262372851
 21
9.2810423879
  0
LINE
  5
2E4
100
AcDbEntity
  8
0
100
AcDbLine
 62
4
  6
CONTINUOUS
 10
10.9427960418
 20
9.7551295583
 11
10.9427960418
 21
9.8379232055
  0
LINE
  5
2E5
100
AcDbEntity
  8
0
100
AcDbLine
 62
4
  6
CONTINUOUS
 10
10.9759134841
 20
9.7611122207
 11
10.9759134841
 21
9.8687439593
  0
LINE
  5
2E6
100
AcDbEntity
  8
0
100
AcDbLine
 62
4
  6
CONTINUOUS
 10
10.9841928368
 20
9.2604644286
 11
10.9841928368
 21
9.1776707831
  0
LINE
  5
2E7
100
AcDbEntity
  8
0
100
AcDbLine
 62
4
  6
CONTINUOUS
 10
11.031109278
 20
9.157858387
 11
11.031109278
 21
9.2737694905
  0
LINE
  5
2E8
100
AcDbEntity
  8
0
100
AcDbLine
 62
4
  6
CONTINUOUS
 10
10.5257921204
 20
7.5459985687
 11
10.5330365644
 21
7.5744739407
  0
LINE
  5
2E9
100
AcDbEntity
  8
0
100
AcDbLine
 62
4
  6
CONTINUOUS
 10
8.4041358191
 20
10.2006794302
 11
8.3896469312
 21
10.2113434969
  0
LINE
  5
2EA
100
AcDbEntity
  8
0
100
AcDbLine
 62
4
  6
CONTINUOUS
 10
8.4186247071
 20
10.2672894305
 11
8.433113595
 21
10.2566253664
  0
LINE
  5
2EB
100
AcDbEntity
  8
0
100
AcDbLine
 62
4
  6
CONTINUOUS
 10
8.4186247071
 20
10.3155857259
 11
8.433113595
 21
10.3049216618
  0
LINE
  5
2EC
100
AcDbEntity
  8
0
100
AcDbLine
 62
4
  6
CONTINUOUS
 10
10.3163241111
 20
9.9144866376
 11
10.3742796629
 21
9.794556303
  0
LINE
  5
2ED
100
AcDbEntity
  8
0
100
AcDbLine
 62
4
  6
CONTINUOUS
 10
10.581263788
 20
9.8629955525
 11
10.6061018974
 21
9.7784793765
  0
LINE
  5
2EE
100
AcDbEntity
  8
0
100
AcDbLine
 62
4
  6
CONTINUOUS
 10
11.050427757
 20
9.7476652735
 11
11.050427757
 21
9.8304589207
  0
LINE
  5
2EF
100
AcDbEntity
  8
0
100
AcDbLine
 62
4
  6
CONTINUOUS
 10
11.050427757
 20
9.8552970094
 11
11.050427757
 21
9.8635763769
  0
LINE
  5
2F0
100
AcDbEntity
  8
0
100
AcDbLine
 62
4
  6
CONTINUOUS
 10
11.0945843652
 20
9.7528823672
 11
11.0945843652
 21
9.8191172821
  0
LINE
  5
2F1
100
AcDbEntity
  8
0
100
AcDbLine
 62
4
  6
CONTINUOUS
 10
11.1690986934
 20
9.7891116037
 11
11.1690986934
 21
9.8139496959
  0
LINE
  5
2F2
100
AcDbEntity
  8
0
100
AcDbLine
 62
4
  6
CONTINUOUS
 10
11.2187748016
 20
9.7442697312
 11
11.2187748016
 21
9.7691078259
  0
LINE
  5
2F3
100
AcDbEntity
  8
0
100
AcDbLine
 62
4
  6
CONTINUOUS
 10
10.5330365644
 20
7.5744739407
 11
10.5475254523
 21
7.5927876524
  0
LINE
  5
2F4
100
AcDbEntity
  8
0
100
AcDbLine
 62
4
  6
CONTINUOUS
 10
10.5982365601
 20
7.5023374959
 11
10.5909921161
 21
7.4931806408
  0
LINE
  5
2F5
100
AcDbEntity
  8
0
100
AcDbLine
 62
4
  6
CONTINUOUS
 10
12.9096971095
 20
8.6499008785
 11
12.9676526613
 21
8.6458816473
  0
LINE
  5
2F6
100
AcDbEntity
  8
0
100
AcDbLine
 62
4
  6
CONTINUOUS
 10
10.1948934446
 20
9.2655263397
 11
10.2390500562
 21
9.2403857625
  0
LINE
  5
2F7
100
AcDbEntity
  8
0
100
AcDbLine
 62
4
  6
CONTINUOUS
 10
10.3025251805
 20
9.3242969692
 11
10.3190839086
 21
9.3065898895
  0
LINE
  5
2F8
100
AcDbEntity
  8
0
100
AcDbLine
 62
4
  6
CONTINUOUS
 10
10.1341780954
 20
9.8194867682
 11
10.1424574603
 21
9.8106332274
  0
LINE
  5
2F9
100
AcDbEntity
  8
0
100
AcDbLine
 62
4
  6
CONTINUOUS
 10
10.7551304629
 20
9.1769975829
 11
10.7385717417
 21
9.1947046639
  0
LINE
  5
2FA
100
AcDbEntity
  8
0
100
AcDbLine
 62
4
  6
CONTINUOUS
 10
10.2252511033
 20
9.8214501986
 11
10.2418098314
 21
9.8037431171
  0
LINE
  5
2FB
100
AcDbEntity
  8
0
100
AcDbLine
 62
4
  6
CONTINUOUS
 10
10.7344319267
 20
9.5493485622
 11
10.7675493828
 21
9.4808169431
  0
LINE
  5
2FC
100
AcDbEntity
  8
0
100
AcDbLine
 62
7
  6
CONTINUOUS
 10
11.3963188575
 20
5.5557074555
 11
11.3963188575
 21
4.9744921597
  0
LINE
  5
2FD
100
AcDbEntity
  8
0
100
AcDbLine
 62
7
  6
CONTINUOUS
 10
11.4080290404
 20
5.5548953515
 11
11.4080290404
 21
4.9631810109
  0
LINE
  5
2FE
100
AcDbEntity
  8
0
100
AcDbLine
 62
4
  6
CONTINUOUS
 10
12.9604082173
 20
10.8158537433
 11
12.9096971095
 21
10.732437243
  0
LINE
  5
2FF
100
AcDbEntity
  8
0
100
AcDbLine
 62
4
  6
CONTINUOUS
 10
10.5475254523
 20
7.5927876524
 11
10.5620143403
 21
7.6014421009
  0
LINE
  5
300
100
AcDbEntity
  8
0
100
AcDbLine
 62
4
  6
CONTINUOUS
 10
12.9314304414
 20
8.7643047702
 11
12.9459193294
 21
8.7632999624
  0
LINE
  5
301
100
AcDbEntity
  8
0
100
AcDbLine
 62
4
  6
CONTINUOUS
 10
10.1921336471
 20
9.8403056317
 11
10.1341780954
 21
9.8940010506
  0
LINE
  5
302
100
AcDbEntity
  8
0
100
AcDbLine
 62
4
  6
CONTINUOUS
 10
10.8517230123
 20
9.1702988668
 11
10.8351642911
 21
9.1880059478
  0
LINE
  5
303
100
AcDbEntity
  8
0
100
AcDbLine
 62
4
  6
CONTINUOUS
 10
10.1838542831
 20
9.9236734514
 11
10.1921336471
 21
9.9148199081
  0
LINE
  5
304
100
AcDbEntity
  8
0
100
AcDbLine
 62
4
  6
CONTINUOUS
 10
10.5936827346
 20
9.5591095518
 11
10.6102414626
 21
9.5414024721
  0
LINE
  5
305
100
AcDbEntity
  8
0
100
AcDbLine
 62
4
  6
CONTINUOUS
 10
10.8765611216
 20
9.2844874415
 11
10.8931198428
 21
9.2667803622
  0
LINE
  5
306
100
AcDbEntity
  8
0
100
AcDbLine
 62
4
  6
CONTINUOUS
 10
10.9676341157
 20
9.2781715079
 11
10.9841928368
 21
9.2604644286
  0
LINE
  5
307
100
AcDbEntity
  8
0
100
AcDbLine
 62
4
  6
CONTINUOUS
 10
10.5398669574
 20
9.8658664324
 11
10.548146318
 21
9.8570128893
  0
LINE
  5
308
100
AcDbEntity
  8
0
100
AcDbLine
 62
4
  6
CONTINUOUS
 10
10.7689293866
 20
9.849980899
 11
10.7744489419
 21
9.8413187491
  0
LINE
  5
309
100
AcDbEntity
  8
0
100
AcDbLine
 62
4
  6
CONTINUOUS
 10
10.8600023807
 20
9.8271062374
 11
10.8517230477
 21
9.8442391391
  0
LINE
  5
30A
100
AcDbEntity
  8
0
100
AcDbLine
 62
7
  6
CONTINUOUS
 10
11.8814060193
 20
5.5109303608
 11
11.8814060193
 21
4.8406621886
  0
LINE
  5
30B
100
AcDbEntity
  8
0
100
AcDbLine
 62
7
  6
CONTINUOUS
 10
11.9251089833
 20
5.5078995499
 11
11.9251089833
 21
4.8376313777
  0
LINE
  5
30C
100
AcDbEntity
  8
0
100
AcDbLine
 62
4
  6
CONTINUOUS
 10
10.5909921161
 20
7.4931806408
 11
10.5765032282
 21
7.4845261897
  0
LINE
  5
30D
100
AcDbEntity
  8
0
100
AcDbLine
 62
4
  6
CONTINUOUS
 10
12.9169415535
 20
8.7556503217
 11
12.9314304414
 21
8.7643047702
  0
LINE
  5
30E
100
AcDbEntity
  8
0
100
AcDbLine
 62
4
  6
CONTINUOUS
 10
12.9604082173
 20
8.7139988592
 11
12.9314304414
 21
8.6966899587
  0
LINE
  5
30F
100
AcDbEntity
  8
0
100
AcDbLine
 62
4
  6
CONTINUOUS
 10
10.9676341157
 20
9.1622604045
 11
10.9262372851
 21
9.1651312844
  0
LINE
  5
310
100
AcDbEntity
  8
0
100
AcDbLine
 62
4
  6
CONTINUOUS
 10
10.8765611216
 20
9.1685763381
 11
10.8517230123
 21
9.1702988668
  0
LINE
  5
311
100
AcDbEntity
  8
0
100
AcDbLine
 62
4
  6
CONTINUOUS
 10
10.7882479052
 20
9.1747008804
 11
10.7551304629
 21
9.1769975829
  0
LINE
  5
312
100
AcDbEntity
  8
0
100
AcDbLine
 62
4
  6
CONTINUOUS
 10
10.3025251805
 20
9.2083858658
 11
10.2611283638
 21
9.2112567448
  0
LINE
  5
313
100
AcDbEntity
  8
0
100
AcDbLine
 62
4
  6
CONTINUOUS
 10
10.564705059
 20
9.1902036295
 11
10.6143812501
 21
9.1867585739
  0
LINE
  5
314
100
AcDbEntity
  8
0
100
AcDbLine
 62
4
  6
CONTINUOUS
 10
11.031109278
 20
9.157858387
 11
11.0807854415
 21
9.1544133334
  0
LINE
  5
315
100
AcDbEntity
  8
0
100
AcDbLine
 62
4
  6
CONTINUOUS
 10
10.3770394603
 20
9.2363357425
 11
10.4211960685
 21
9.2332734714
  0
LINE
  5
316
100
AcDbEntity
  8
0
100
AcDbLine
 62
4
  6
CONTINUOUS
 10
11.0642267203
 20
9.2217966038
 11
11.031109278
 21
9.2240933062
  0
LINE
  5
317
100
AcDbEntity
  8
0
100
AcDbLine
 62
4
  6
CONTINUOUS
 10
10.5978225289
 20
9.2541418443
 11
10.564705059
 21
9.2564385487
  0
LINE
  5
318
100
AcDbEntity
  8
0
100
AcDbLine
 62
4
  6
CONTINUOUS
 10
10.2611283638
 20
9.3271678482
 11
10.3025251805
 21
9.3242969692
  0
LINE
  5
319
100
AcDbEntity
  8
0
100
AcDbLine
 62
4
  6
CONTINUOUS
 10
10.4653526767
 20
9.313004844
 11
10.531587589
 21
9.3084114372
  0
LINE
  5
31A
100
AcDbEntity
  8
0
100
AcDbLine
 62
4
  6
CONTINUOUS
 10
10.564705059
 20
9.3061147329
 11
10.6143812501
 21
9.3026696773
  0
LINE
  5
31B
100
AcDbEntity
  8
0
100
AcDbLine
 62
4
  6
CONTINUOUS
 10
10.7551304629
 20
9.2929086863
 11
10.7882479052
 21
9.2906119839
  0
LINE
  5
31C
100
AcDbEntity
  8
0
100
AcDbLine
 62
4
  6
CONTINUOUS
 10
10.8517230123
 20
9.2862099702
 11
10.8765611216
 21
9.2844874415
  0
LINE
  5
31D
100
AcDbEntity
  8
0
100
AcDbLine
 62
4
  6
CONTINUOUS
 10
10.9262372851
 20
9.2810423879
 11
10.9676341157
 21
9.2781715079
  0
LINE
  5
31E
100
AcDbEntity
  8
0
100
AcDbLine
 62
4
  6
CONTINUOUS
 10
11.031109278
 20
9.2737694905
 11
11.0807854415
 21
9.2703244368
  0
LINE
  5
31F
100
AcDbEntity
  8
0
100
AcDbLine
 62
4
  6
CONTINUOUS
 10
10.7013144705
 20
9.460572256
 11
10.6433589188
 21
9.4645914872
  0
LINE
  5
320
100
AcDbEntity
  8
0
100
AcDbLine
 62
4
  6
CONTINUOUS
 10
11.1139028838
 20
9.2238711262
 11
11.158059492
 21
9.1987305475
  0
LINE
  5
321
100
AcDbEntity
  8
0
100
AcDbLine
 62
4
  6
CONTINUOUS
 10
10.6695770044
 20
9.7740773629
 11
10.6530182832
 21
9.783505079
  0
LINE
  5
322
100
AcDbEntity
  8
0
100
AcDbLine
 62
4
  6
CONTINUOUS
 10
10.893119823
 20
9.7668539806
 11
10.9013992112
 21
9.7580004382
  0
LINE
  5
323
100
AcDbEntity
  8
0
100
AcDbLine
 62
4
  6
CONTINUOUS
 10
10.9841928723
 20
9.7522586783
 11
10.9759134841
 21
9.7611122207
  0
LINE
  5
324
100
AcDbEntity
  8
0
100
AcDbLine
 62
4
  6
CONTINUOUS
 10
11.1028636981
 20
9.7440288286
 11
11.0945843652
 21
9.7528823672
  0
LINE
  5
325
100
AcDbEntity
  8
0
100
AcDbLine
 62
4
  6
CONTINUOUS
 10
10.5936827346
 20
9.4928746361
 11
10.5522859109
 21
9.4957455155
  0
LINE
  5
326
100
AcDbEntity
  8
0
100
AcDbLine
 62
4
  6
CONTINUOUS
 10
10.5522859109
 20
9.5619804313
 11
10.5936827346
 21
9.5591095518
  0
LINE
  5
327
100
AcDbEntity
  8
0
100
AcDbLine
 62
4
  6
CONTINUOUS
 10
10.581263788
 20
9.7526040234
 11
10.5978225091
 21
9.7514556722
  0
LINE
  5
328
100
AcDbEntity
  8
0
100
AcDbLine
 62
4
  6
CONTINUOUS
 10
11.135981251
 20
9.7417321185
 11
11.1028636981
 21
9.7440288286
  0
LINE
  5
329
100
AcDbEntity
  8
0
100
AcDbLine
 62
4
  6
CONTINUOUS
 10
11.0007515935
 20
9.7511103271
 11
10.9841928723
 21
9.7522586783
  0
LINE
  5
32A
100
AcDbEntity
  8
0
100
AcDbLine
 62
4
  6
CONTINUOUS
 10
10.8600023807
 20
9.7608713182
 11
10.8268849384
 21
9.7631680206
  0
LINE
  5
32B
100
AcDbEntity
  8
0
100
AcDbLine
 62
4
  6
CONTINUOUS
 10
10.7026944467
 20
9.7717806604
 11
10.6695770044
 21
9.7740773629
  0
LINE
  5
32C
100
AcDbEntity
  8
0
100
AcDbLine
 62
4
  6
CONTINUOUS
 10
10.1424574603
 20
9.8106332274
 11
10.1755749191
 21
9.8083365238
  0
LINE
  5
32D
100
AcDbEntity
  8
0
100
AcDbLine
 62
4
  6
CONTINUOUS
 10
10.2418098314
 20
9.8037431171
 11
10.2666479338
 21
9.8020205888
  0
LINE
  5
32E
100
AcDbEntity
  8
0
100
AcDbLine
 62
4
  6
CONTINUOUS
 10
10.9013992112
 20
9.7580004382
 11
10.9427960418
 21
9.7551295583
  0
LINE
  5
32F
100
AcDbEntity
  8
0
100
AcDbLine
 62
4
  6
CONTINUOUS
 10
11.1773780263
 20
9.7388612424
 11
11.2104954686
 21
9.7365645399
  0
LINE
  5
330
100
AcDbEntity
  8
0
100
AcDbLine
 62
4
  6
CONTINUOUS
 10
10.8268849384
 20
9.7631680206
 11
10.8103262172
 21
9.7725957367
  0
LINE
  5
331
100
AcDbEntity
  8
0
100
AcDbLine
 62
4
  6
CONTINUOUS
 10
11.1773780263
 20
9.783017854
 11
11.1690986934
 21
9.7891116037
  0
LINE
  5
332
100
AcDbEntity
  8
0
100
AcDbLine
 62
4
  6
CONTINUOUS
 10
11.2187748016
 20
9.7691078259
 11
11.2104954686
 21
9.7752015756
  0
LINE
  5
333
100
AcDbEntity
  8
0
100
AcDbLine
 62
4
  6
CONTINUOUS
 10
11.1690986934
 20
9.747714781
 11
11.1773780263
 21
9.7388612424
  0
LINE
  5
334
100
AcDbEntity
  8
0
100
AcDbLine
 62
4
  6
CONTINUOUS
 10
11.2104954686
 20
9.8193581872
 11
11.2187748016
 21
9.8105046461
  0
LINE
  5
335
100
AcDbEntity
  8
0
100
AcDbLine
 62
7
  6
CONTINUOUS
 10
12.5717537807
 20
5.4741907667
 11
12.5717537807
 21
4.8824764261
  0
LINE
  5
336
100
AcDbEntity
  8
0
100
AcDbLine
 62
4
  6
CONTINUOUS
 10
12.9096971095
 20
8.7464934623
 11
12.9169415535
 21
8.7556503217
  0
LINE
  5
337
100
AcDbEntity
  8
0
100
AcDbLine
 62
4
  6
CONTINUOUS
 10
12.9314304414
 20
8.6966899587
 11
12.9169415535
 21
8.6783762504
  0
LINE
  5
338
100
AcDbEntity
  8
0
100
AcDbLine
 62
4
  6
CONTINUOUS
 10
12.9676526613
 20
8.7231557185
 11
12.9604082173
 21
8.7139988592
  0
LINE
  5
339
100
AcDbEntity
  8
0
100
AcDbLine
 62
4
  6
CONTINUOUS
 10
10.8268849384
 20
9.8045648442
 11
10.8600023807
 21
9.8022681418
  0
LINE
  5
33A
100
AcDbEntity
  8
0
100
AcDbLine
 62
4
  6
CONTINUOUS
 10
10.8517230477
 20
9.8442391391
 11
10.8103262172
 21
9.8471100191
  0
LINE
  5
33B
100
AcDbEntity
  8
0
100
AcDbLine
 62
4
  6
CONTINUOUS
 10
10.4984701269
 20
9.8687373124
 11
10.5398669574
 21
9.8658664324
  0
LINE
  5
33C
100
AcDbEntity
  8
0
100
AcDbLine
 62
4
  6
CONTINUOUS
 10
10.6695770044
 20
9.8568710101
 11
10.7026944467
 21
9.8545743077
  0
LINE
  5
33D
100
AcDbEntity
  8
0
100
AcDbLine
 62
4
  6
CONTINUOUS
 10
10.7358119443
 20
9.8522776015
 11
10.7689293866
 21
9.849980899
  0
LINE
  5
33E
100
AcDbEntity
  8
0
100
AcDbLine
 62
4
  6
CONTINUOUS
 10
11.1028636981
 20
9.8268224759
 11
11.135981251
 21
9.8245257658
  0
LINE
  5
33F
100
AcDbEntity
  8
0
100
AcDbLine
 62
4
  6
CONTINUOUS
 10
11.1773780263
 20
9.8216548897
 11
11.2104954686
 21
9.8193581872
  0
LINE
  5
340
100
AcDbEntity
  8
0
100
AcDbLine
 62
4
  6
CONTINUOUS
 10
10.1507368252
 20
9.9259701549
 11
10.1838542831
 21
9.9236734514
  0
LINE
  5
341
100
AcDbEntity
  8
0
100
AcDbLine
 62
4
  6
CONTINUOUS
 10
11.050427757
 20
9.8635763769
 11
11.0531875347
 21
9.8633849857
  0
LINE
  5
342
100
AcDbEntity
  8
0
100
AcDbLine
 62
4
  6
CONTINUOUS
 10
8.4186247071
 20
10.1996746224
 11
8.4041358191
 21
10.2006794302
  0
LINE
  5
343
100
AcDbEntity
  8
0
100
AcDbLine
 62
4
  6
CONTINUOUS
 10
11.2104954686
 20
9.7752015756
 11
11.1773780263
 21
9.783017854
  0
LINE
  5
344
100
AcDbEntity
  8
0
100
AcDbLine
 62
4
  6
CONTINUOUS
 10
12.9459193294
 20
8.7632999624
 11
12.9604082173
 21
8.7526358983
  0
LINE
  5
345
100
AcDbEntity
  8
0
100
AcDbLine
 62
7
  6
CONTINUOUS
 10
12.6037465619
 20
5.4719720598
 11
12.6037465619
 21
4.890756764
  0
LINE
  5
346
100
AcDbEntity
  8
0
100
AcDbLine
 62
7
  6
CONTINUOUS
 10
12.7770143804
 20
5.4599558957
 11
12.7770143804
 21
5.0581206346
  0
LINE
  5
347
100
AcDbEntity
  8
0
100
AcDbLine
 62
4
  6
CONTINUOUS
 10
12.9169415535
 20
8.6783762504
 11
12.9096971095
 21
8.6499008785
  0
LINE
  5
348
100
AcDbEntity
  8
0
100
AcDbLine
 62
4
  6
CONTINUOUS
 10
8.4041358191
 20
10.2682942383
 11
8.4186247071
 21
10.2672894305
  0
LINE
  5
349
100
AcDbEntity
  8
0
100
AcDbLine
 62
4
  6
CONTINUOUS
 10
8.4041358191
 20
10.3165905337
 11
8.4186247071
 21
10.3155857259
  0
LINE
  5
34A
100
AcDbEntity
  8
0
100
AcDbLine
 62
4
  6
CONTINUOUS
 10
12.9604082173
 20
8.7526358983
 11
12.9676526613
 21
8.7424742312
  0
LINE
  5
34B
100
AcDbEntity
  8
0
100
AcDbLine
 62
4
  6
CONTINUOUS
 10
12.9604082173
 20
10.6999426398
 11
12.9604082173
 21
10.8158537433
  0
LINE
  5
34C
100
AcDbEntity
  8
0
100
AcDbLine
 62
4
  6
CONTINUOUS
 10
12.9676526613
 20
8.7424742312
 11
12.9676526613
 21
8.7231557185
  0
LINE
  5
34D
100
AcDbEntity
  8
0
100
AcDbLine
 62
7
  6
CONTINUOUS
 10
13.0912911694
 20
5.4381607264
 11
13.0912911694
 21
11.2337160275
  0
LINE
  5
34E
100
AcDbEntity
  8
0
100
AcDbLine
 62
4
  6
CONTINUOUS
 10
12.9096971095
 20
10.732437243
 11
12.9748971052
 21
10.7279156079
  0
LINE
  5
34F
100
AcDbEntity
  8
0
100
AcDbLine
 62
7
  6
CONTINUOUS
 10
13.7383382482
 20
6.0631602476
 11
13.7383382482
 21
11.8587155488
  0
LINE
  5
350
100
AcDbEntity
  8
0
100
AcDbLine
 62
7
  6
CONTINUOUS
 10
8.2616617518
 20
11.5686519652
 11
13.0912911694
 21
11.2337160275
  0
LINE
  5
351
100
AcDbEntity
  8
0
100
AcDbLine
 62
7
  6
CONTINUOUS
 10
13.0912911694
 20
5.4381607264
 11
13.7383382482
 21
6.0631602476
  0
LINE
  5
352
100
AcDbEntity
  8
0
100
AcDbLine
 62
7
  6
CONTINUOUS
 10
13.7383382482
 20
11.8587155488
 11
8.9087088306
 21
12.1936514865
  0
LINE
  5
353
100
AcDbEntity
  8
0
100
AcDbLine
 62
7
  6
CONTINUOUS
 10
12.6546107126
 20
4.9014665088
 11
12.6358515711
 21
4.892199852
  0
ARC
  5
354
100
AcDbEntity
  8
0
100
AcDbCircle
 62
7
  6
CONTINUOUS
 10
12.0774421468
 20
7.3529669844
 40
2.5199441674
100
AcDbArc
 50
266.0342868665
 51
266.5342994209
  0
ARC
  5
355
100
AcDbEntity
  8
0
100
AcDbCircle
 62
7
  6
CONTINUOUS
 10
12.0774421468
 20
8.0232351565
 40
2.5199441674
100
AcDbArc
 50
266.0342868665
 51
266.5342994209
  0
ARC
  5
356
100
AcDbEntity
  8
0
100
AcDbCircle
 62
7
  6
CONTINUOUS
 10
12.073420182
 20
7.2944000391
 40
2.4612392971
100
AcDbArc
 50
265.5255095249
 51
266.0333993217
  0
ARC
  5
357
100
AcDbEntity
  8
0
100
AcDbCircle
 62
7
  6
CONTINUOUS
 10
12.0726570145
 20
7.9543266189
 40
2.4508696859
100
AcDbArc
 50
265.5244350788
 51
266.0344737677
  0
ARC
  5
358
100
AcDbEntity
  8
0
100
AcDbCircle
 62
7
  6
CONTINUOUS
 10
12.324156388
 20
5.9050651567
 40
1.0521369592
100
AcDbArc
 50
283.610963992
 51
285.4106627597
  0
ARC
  5
359
100
AcDbEntity
  8
0
100
AcDbCircle
 62
7
  6
CONTINUOUS
 10
11.8774648547
 20
5.6569920334
 40
0.8362695756
100
AcDbArc
 50
243.6645406528
 51
246.0372127916
  0
ARC
  5
35A
100
AcDbEntity
  8
0
100
AcDbCircle
 62
7
  6
CONTINUOUS
 10
10.3048335067
 20
7.7926662518
 40
0.2296838573
100
AcDbArc
 50
177.9469709328
 51
180.0057174657
  0
ARC
  5
35B
100
AcDbEntity
  8
0
100
AcDbCircle
 62
7
  6
CONTINUOUS
 10
12.6095773785
 20
4.9888119592
 40
0.0981934129
100
AcDbArc
 50
283.9847284823
 51
285.1201944793
  0
SPLINE
  5
35C
100
AcDbEntity
  8
0
100
AcDbSpline
 62
7
  6
CONTINUOUS
 70
0
 71
3
 72
23
 73
19
 74
0
 42
0.0000001
 43
0.0000001
 44
0.0000000001
 40
0.0
 40
0.0
 40
0.0
 40
0.0
 40
0.0771590785
 40
0.1531512427
 40
0.2277612979
 40
0.3008117489
 40
0.3721336482
 40
0.44155687
 40
0.5089157636
 40
0.5740560601
 40
0.6368305817
 40
0.6971026466
 40
0.7547444793
 40
0.8096419614
 40
0.8616927906
 40
0.9108116469
 40
0.956929521
 40
1.0
 40
1.0
 40
1.0
 40
1.0
 10
11.9261989434
 20
4.8116732123
 30
0.0
 10
11.9159607472
 20
4.8123832336
 30
0.0
 10
11.8956488528
 20
4.813936508
 30
0.0
 10
11.8654788972
 20
4.8166881686
 30
0.0
 10
11.8358974108
 20
4.8198390811
 30
0.0
 10
11.8069857373
 20
4.8233799995
 30
0.0
 10
11.7788195642
 20
4.8273018876
 30
0.0
 10
11.7514733129
 20
4.8315937495
 30
0.0
 10
11.7250201288
 20
4.8362446821
 30
0.0
 10
11.6995305263
 20
4.8412415498
 30
0.0
 10
11.6750721727
 20
4.8465714921
 30
0.0
 10
11.6517099638
 20
4.8522196061
 30
0.0
 10
11.6295059244
 20
4.8581712999
 30
0.0
 10
11.6085187734
 20
4.8644099857
 30
0.0
 10
11.5888040253
 20
4.8709194867
 30
0.0
 10
11.5704132359
 20
4.8776818627
 30
0.0
 10
11.5533952159
 20
4.8846794629
 30
0.0
 10
11.5426230678
 20
4.8896601853
 30
0.0
 10
11.5374868097
 20
4.8921973378
 30
0.0
  0
SPLINE
  5
35D
100
AcDbEntity
  8
0
100
AcDbSpline
 62
7
  6
CONTINUOUS
 70
0
 71
3
 72
9
 73
5
 74
0
 42
0.0000001
 43
0.0000001
 44
0.0000000001
 40
0.0
 40
0.0
 40
0.0
 40
0.0
 40
0.5143582232
 40
1.0
 40
1.0
 40
1.0
 40
1.0
 10
11.4080290404
 20
4.9631810109
 30
0.0
 10
11.4059070583
 20
4.9649968161
 30
0.0
 10
11.401877724
 20
4.9686416665
 30
0.0
 10
11.3980873958
 20
4.9725362448
 30
0.0
 10
11.3963188575
 20
4.9744921597
 30
0.0
  0
SPLINE
  5
35E
100
AcDbEntity
  8
0
100
AcDbSpline
 62
7
  6
CONTINUOUS
 70
0
 71
3
 72
11
 73
7
 74
0
 42
0.0000001
 43
0.0000001
 44
0.0000000001
 40
0.0
 40
0.0
 40
0.0
 40
0.0
 40
0.2513148147
 40
0.5026937832
 40
0.7527405603
 40
1.0
 40
1.0
 40
1.0
 40
1.0
 10
12.1446651181
 20
5.5036870361
 30
0.0
 10
12.1262685602
 20
5.5032962004
 30
0.0
 10
12.0894617557
 20
5.5028883691
 30
0.0
 10
12.0343464263
 20
5.5033865702
 30
0.0
 10
11.9795492208
 20
5.5049911886
 30
0.0
 10
11.9431796495
 20
5.5068050152
 30
0.0
 10
11.9251089833
 20
5.5078995499
 30
0.0
  0
SPLINE
  5
35F
100
AcDbEntity
  8
0
100
AcDbSpline
 62
7
  6
CONTINUOUS
 70
0
 71
3
 72
23
 73
19
 74
0
 42
0.0000001
 43
0.0000001
 44
0.0000000001
 40
0.0
 40
0.0
 40
0.0
 40
0.0
 40
0.0812409014
 40
0.1604608797
 40
0.2375100932
 40
0.3122411127
 40
0.3845133802
 40
0.4541951487
 40
0.5211712092
 40
0.5853507102
 40
0.6466734522
 40
0.7051170591
 40
0.7607045391
 40
0.8135052119
 40
0.8636427385
 40
0.9112859631
 40
0.9566542888
 40
1.0
 40
1.0
 40
1.0
 40
1.0
 10
12.7770143804
 20
5.0581206346
 30
0.0
 10
12.7745458903
 20
5.0532251533
 30
0.0
 10
12.7696041847
 20
5.0435890915
 30
0.0
 10
12.7620684321
 20
5.0294416065
 30
0.0
 10
12.7544988089
 20
5.0158124135
 30
0.0
 10
12.7468962012
 20
5.0027410347
 30
0.0
 10
12.7392618476
 20
4.9902672465
 30
0.0
 10
12.7315979483
 20
4.9784300651
 30
0.0
 10
12.7239068977
 20
4.9672672772
 30
0.0
 10
12.7161922266
 20
4.9568135581
 30
0.0
 10
12.7084576835
 20
4.9470998344
 30
0.0
 10
12.7007075727
 20
4.9381518185
 30
0.0
 10
12.6929470332
 20
4.9299887122
 30
0.0
 10
12.685180463
 20
4.9226234828
 30
0.0
 10
12.6774140561
 20
4.9160602685
 30
0.0
 10
12.6696518212
 20
4.9102974225
 30
0.0
 10
12.6619008862
 20
4.9053238256
 30
0.0
 10
12.6566334999
 20
4.9024640455
 30
0.0
 10
12.6540100774
 20
4.9011699732
 30
0.0
  0
SPLINE
  5
360
100
AcDbEntity
  8
0
100
AcDbSpline
 62
7
  6
CONTINUOUS
 70
0
 71
3
 72
11
 73
7
 74
0
 42
0.0000001
 43
0.0000001
 44
0.0000000001
 40
0.0
 40
0.0
 40
0.0
 40
0.0
 40
0.2622692237
 40
0.5173014749
 40
0.7636474076
 40
1.0
 40
1.0
 40
1.0
 40
1.0
 10
11.8814060193
 20
5.5109303608
 30
0.0
 10
11.8639838663
 20
5.5122942068
 30
0.0
 10
11.8296479982
 20
5.5153552975
 30
0.0
 10
11.7790781332
 20
5.5210346616
 30
0.0
 10
11.7303724904
 20
5.5277119158
 30
0.0
 10
11.6986285737
 20
5.5329174564
 30
0.0
 10
11.6831268282
 20
5.5356948252
 30
0.0
  0
SPLINE
  5
361
100
AcDbEntity
  8
0
100
AcDbSpline
 62
7
  6
CONTINUOUS
 70
0
 71
3
 72
9
 73
5
 74
0
 42
0.0000001
 43
0.0000001
 44
0.0000000001
 40
0.0
 40
0.0
 40
0.0
 40
0.0
 40
0.4953420278
 40
1.0
 40
1.0
 40
1.0
 40
1.0
 10
11.5064739902
 20
4.9075171629
 30
0.0
 10
11.4897284088
 20
4.9157939882
 30
0.0
 10
11.4564400697
 20
4.9335632866
 30
0.0
 10
11.424122325
 20
4.9530235363
 30
0.0
 10
11.4080290404
 20
4.9631810109
 30
0.0
  0
SPLINE
  5
362
100
AcDbEntity
  8
0
100
AcDbSpline
 62
7
  6
CONTINUOUS
 70
0
 71
3
 72
29
 73
25
 74
0
 42
0.0000001
 43
0.0000001
 44
0.0000000001
 40
0.0
 40
0.0
 40
0.0
 40
0.0
 40
0.0193649897
 40
0.0398592492
 40
0.0614698882
 40
0.0841796427
 40
0.1079654076
 40
0.1328004487
 40
0.1586542721
 40
0.1854925107
 40
0.2132786677
 40
0.241972485
 40
0.2715320307
 40
0.3019126276
 40
0.3649466691
 40
0.4306811724
 40
0.4986953172
 40
0.568547489
 40
0.6397796479
 40
0.711921545
 40
0.7844961084
 40
0.8570190112
 40
0.9290157159
 40
1.0
 40
1.0
 40
1.0
 40
1.0
 10
12.6358468443
 20
4.8921975896
 30
0.0
 10
12.6316787293
 20
4.8901386668
 30
0.0
 10
12.6230102055
 20
4.886079747
 30
0.0
 10
12.6094261158
 20
4.880307595
 30
0.0
 10
12.5949138751
 20
4.874687694
 30
0.0
 10
12.5794990696
 20
4.8692308218
 30
0.0
 10
12.5632088312
 20
4.8639461302
 30
0.0
 10
12.5460718626
 20
4.8588433008
 30
0.0
 10
12.5281184483
 20
4.8539315367
 30
0.0
 10
12.5093803928
 20
4.8492192594
 30
0.0
 10
12.4898908539
 20
4.8447154276
 30
0.0
 10
12.4696844453
 20
4.8404275689
 30
0.0
 10
12.4487969681
 20
4.8363637087
 30
0.0
 10
12.4197306693
 20
4.8311899314
 30
0.0
 10
12.3819654629
 20
4.8253603382
 30
0.0
 10
12.3350909814
 20
4.8194432167
 30
0.0
 10
12.2864519974
 20
4.8145645619
 30
0.0
 10
12.2363940075
 20
4.8107595623
 30
0.0
 10
12.1852723614
 20
4.8080558095
 30
0.0
 10
12.1334500437
 20
4.806472715
 30
0.0
 10
12.0812957286
 20
4.8060218823
 30
0.0
 10
12.0291787238
 20
4.806706186
 30
0.0
 10
11.9774710535
 20
4.8085212394
 30
0.0
 10
11.9431991434
 20
4.8104942444
 30
0.0
 10
11.9261989434
 20
4.8116732123
 30
0.0
  0
SPLINE
  5
363
100
AcDbEntity
  8
0
100
AcDbSpline
 62
7
  6
CONTINUOUS
 70
0
 71
3
 72
21
 73
17
 74
0
 42
0.0000001
 43
0.0000001
 44
0.0000000001
 40
0.0
 40
0.0
 40
0.0
 40
0.0
 40
0.1269687393
 40
0.190297651
 40
0.2535025489
 40
0.3165702103
 40
0.3794885762
 40
0.4422479702
 40
0.5048417502
 40
0.5672668003
 40
0.629524135
 40
0.6916188713
 40
0.7535593925
 40
0.8153562928
 40
0.8770217052
 40
1.0
 40
1.0
 40
1.0
 40
1.0
 10
12.5717537807
 20
4.8824764261
 30
0.0
 10
12.5454503022
 20
4.8734826128
 30
0.0
 10
12.5057030677
 20
4.8609098136
 30
0.0
 10
12.4521180962
 20
4.8464243094
 30
0.0
 10
12.4117232969
 20
4.8368286855
 30
0.0
 10
12.3711191927
 20
4.8285994166
 30
0.0
 10
12.3303440513
 20
4.8218304895
 30
0.0
 10
12.2894473603
 20
4.816597379
 30
0.0
 10
12.2484867569
 20
4.8129507541
 30
0.0
 10
12.2075247027
 20
4.8109117059
 30
0.0
 10
12.1666239057
 20
4.8104682136
 30
0.0
 10
12.1258424803
 20
4.8115779393
 30
0.0
 10
12.0852305625
 20
4.8141724666
 30
0.0
 10
12.0448270178
 20
4.8181632666
 30
0.0
 10
11.9913253729
 20
4.8252020584
 30
0.0
 10
11.9514945544
 20
4.8322691926
 30
0.0
 10
11.9251089833
 20
4.8376313777
 30
0.0
  0
SPLINE
  5
364
100
AcDbEntity
  8
0
100
AcDbSpline
 62
7
  6
CONTINUOUS
 70
0
 71
3
 72
21
 73
17
 74
0
 42
0.0000001
 43
0.0000001
 44
0.0000000001
 40
0.0
 40
0.0
 40
0.0
 40
0.0
 40
0.1199495811
 40
0.240617027
 40
0.3013308367
 40
0.3623559963
 40
0.4237435874
 40
0.485545524
 40
0.5478132454
 40
0.6105957309
 40
0.6739363834
 40
0.737872795
 40
0.8024329429
 40
0.8676364423
 40
0.9334921192
 40
1.0
 40
1.0
 40
1.0
 40
1.0
 10
11.8814060193
 20
4.8406621886
 30
0.0
 10
11.8674230435
 20
4.839074773
 30
0.0
 10
11.8392865517
 20
4.8365999758
 30
0.0
 10
11.8039259086
 20
4.8355377271
 30
0.0
 10
11.7754863188
 20
4.836055062
 30
0.0
 10
11.754025974
 20
4.8371686613
 30
0.0
 10
11.7324902835
 20
4.8390423747
 30
0.0
 10
11.7108908907
 20
4.8417068148
 30
0.0
 10
11.6892416712
 20
4.8451855498
 30
0.0
 10
11.6675586359
 20
4.8494969925
 30
0.0
 10
11.6458583584
 20
4.8546480876
 30
0.0
 10
11.6241590862
 20
4.860641259
 30
0.0
 10
11.6024776644
 20
4.8674654187
 30
0.0
 10
11.5808315573
 20
4.8751057905
 30
0.0
 10
11.5592357174
 20
4.8835358448
 30
0.0
 10
11.544950574
 20
4.8896332674
 30
0.0
 10
11.5378196343
 20
4.8928010054
 30
0.0
  0
SPLINE
  5
365
100
AcDbEntity
  8
0
100
AcDbSpline
 62
7
  6
CONTINUOUS
 70
0
 71
3
 72
9
 73
5
 74
0
 42
0.0000001
 43
0.0000001
 44
0.0000000001
 40
0.0
 40
0.0
 40
0.0
 40
0.0
 40
0.5103877732
 40
1.0
 40
1.0
 40
1.0
 40
1.0
 10
12.6540100774
 20
4.9011699732
 30
0.0
 10
12.6509346585
 20
4.8996529417
 30
0.0
 10
12.644768185
 20
4.8969559026
 30
0.0
 10
12.6383663744
 20
4.8948759985
 30
0.0
 10
12.635190618
 20
4.8940179282
 30
0.0
  0
SPLINE
  5
366
100
AcDbEntity
  8
0
100
AcDbSpline
 62
7
  6
CONTINUOUS
 70
0
 71
3
 72
11
 73
7
 74
0
 42
0.0000001
 43
0.0000001
 44
0.0000000001
 40
0.0
 40
0.0
 40
0.0
 40
0.0
 40
0.2550434453
 40
0.5057160268
 40
0.7535820415
 40
1.0
 40
1.0
 40
1.0
 40
1.0
 10
12.6333071194
 20
4.893528982
 30
0.0
 10
12.6308493599
 20
4.8929169229
 30
0.0
 10
12.6259265656
 20
4.8918924139
 30
0.0
 10
12.618497014
 20
4.8909370851
 30
0.0
 10
12.6111029628
 20
4.8905433112
 30
0.0
 10
12.6061905084
 20
4.8906312996
 30
0.0
 10
12.6037465619
 20
4.890756764
 30
0.0
  0
SPLINE
  5
367
100
AcDbEntity
  8
0
100
AcDbSpline
 62
7
  6
CONTINUOUS
 70
0
 71
3
 72
17
 73
13
 74
0
 42
0.0000001
 43
0.0000001
 44
0.0000000001
 40
0.0
 40
0.0
 40
0.0
 40
0.0
 40
0.1504746818
 40
0.2917308329
 40
0.4244675419
 40
0.4879384983
 40
0.5496413146
 40
0.6683011746
 40
0.781834
 40
0.8918017087
 40
0.946016262
 40
1.0
 40
1.0
 40
1.0
 40
1.0
 10
13.4148147088
 20
11.5384883811
 30
0.0
 10
13.4162056035
 20
11.5398318822
 30
0.0
 10
13.4189855486
 20
11.5423527015
 30
0.0
 10
13.4232899758
 20
11.5457120546
 30
0.0
 10
13.4269258303
 20
11.5480879601
 30
0.0
 10
13.429825095
 20
11.5496968634
 30
0.0
 10
13.4326389908
 20
11.5510781478
 30
0.0
 10
13.43615773
 20
11.5524738649
 30
0.0
 10
13.4404172501
 20
11.5536073228
 30
0.0
 10
13.4439660294
 20
11.5540811414
 30
0.0
 10
13.4467699946
 20
11.5541711456
 30
0.0
 10
13.4481609228
 20
11.5541219647
 30
0.0
 10
13.4488530237
 20
11.5540739701
 30
0.0
  0
SPLINE
  5
368
100
AcDbEntity
  8
0
100
AcDbSpline
 62
7
  6
CONTINUOUS
 70
0
 71
3
 72
18
 73
14
 74
0
 42
0.0000001
 43
0.0000001
 44
0.0000000001
 40
0.0
 40
0.0
 40
0.0
 40
0.0
 40
0.1504673397
 40
0.291710036
 40
0.4244360001
 40
0.5495624032
 40
0.6682140019
 40
0.7255497517
 40
0.7817912955
 40
0.8371402647
 40
0.891809381
 40
0.9460201143
 40
1.0
 40
1.0
 40
1.0
 40
1.0
 10
13.4148147088
 20
9.9413299327
 30
0.0
 10
13.4175386049
 20
9.9439610144
 30
0.0
 10
13.4229825423
 20
9.9488976072
 30
0.0
 10
13.4314124274
 20
9.9554764694
 30
0.0
 10
13.4398324181
 20
9.9609786979
 30
0.0
 10
13.4482337892
 20
9.9653952489
 30
0.0
 10
13.4552950398
 20
9.9681958592
 30
0.0
 10
13.4609013697
 20
9.9698598003
 30
0.0
 10
13.4650463964
 20
9.9708188753
 30
0.0
 10
13.4691776696
 20
9.9715024453
 30
0.0
 10
13.4732940368
 20
9.9719102342
 30
0.0
 10
13.4773938558
 20
9.9720420575
 30
0.0
 10
13.4801176588
 20
9.971945733
 30
0.0
 10
13.4814730226
 20
9.9718517444
 30
0.0
  0
SPLINE
  5
369
100
AcDbEntity
  8
0
100
AcDbSpline
 62
7
  6
CONTINUOUS
 70
0
 71
3
 72
15
 73
11
 74
0
 42
0.0000001
 43
0.0000001
 44
0.0000000001
 40
0.0
 40
0.0
 40
0.0
 40
0.0
 40
0.127348315
 40
0.2538606239
 40
0.3795878599
 40
0.5046051181
 40
0.6290174391
 40
0.7529533757
 40
0.8765605793
 40
1.0
 40
1.0
 40
1.0
 40
1.0
 10
11.8462127056
 20
10.2333958933
 30
0.0
 10
11.8462127056
 20
10.2268975274
 30
0.0
 10
11.8455922401
 20
10.2139344716
 30
0.0
 10
11.8427862676
 20
10.1947392119
 30
0.0
 10
11.8381334873
 20
10.1760262551
 30
0.0
 10
11.831675938
 20
10.1579706032
 30
0.0
 10
11.8234728243
 20
10.1407387795
 30
0.0
 10
11.813598969
 20
10.1244898903
 30
0.0
 10
11.8021472149
 20
10.1093761725
 30
0.0
 10
11.7935246243
 20
10.1001438462
 30
0.0
 10
11.7889941142
 20
10.0957677015
 30
0.0
  0
SPLINE
  5
36A
100
AcDbEntity
  8
0
100
AcDbSpline
 62
7
  6
CONTINUOUS
 70
0
 71
3
 72
15
 73
11
 74
0
 42
0.0000001
 43
0.0000001
 44
0.0000000001
 40
0.0
 40
0.0
 40
0.0
 40
0.0
 40
0.127348315
 40
0.2538606239
 40
0.3795878599
 40
0.5046051181
 40
0.6290174391
 40
0.7529533757
 40
0.8765605793
 40
1.0
 40
1.0
 40
1.0
 40
1.0
 10
9.9143609385
 20
6.0207037925
 30
0.0
 10
9.9143609385
 20
6.0142054266
 30
0.0
 10
9.9137404731
 20
6.0012423708
 30
0.0
 10
9.9109345006
 20
5.9820471111
 30
0.0
 10
9.9062817203
 20
5.9633341544
 30
0.0
 10
9.899824171
 20
5.9452785024
 30
0.0
 10
9.8916210572
 20
5.9280466787
 30
0.0
 10
9.881747202
 20
5.9117977896
 30
0.0
 10
9.8702954479
 20
5.8966840717
 30
0.0
 10
9.8616728572
 20
5.8874517454
 30
0.0
 10
9.8571423472
 20
5.8830756007
 30
0.0
  0
SPLINE
  5
36B
100
AcDbEntity
  8
0
100
AcDbSpline
 62
7
  6
CONTINUOUS
 70
0
 71
3
 72
32
 73
28
 74
0
 42
0.0000001
 43
0.0000001
 44
0.0000000001
 40
0.0
 40
0.0
 40
0.0
 40
0.0
 40
0.0622745879
 40
0.1254489985
 40
0.189144662
 40
0.2530122413
 40
0.3167717874
 40
0.3485552387
 40
0.380245941
 40
0.4432923972
 40
0.5058934443
 40
0.537043251
 40
0.5680959146
 40
0.5990618758
 40
0.6299533774
 40
0.6607842195
 40
0.6915693453
 40
0.7223241121
 40
0.7530639712
 40
0.7838040965
 40
0.8145588307
 40
0.845341187
 40
0.8761626345
 40
0.9070327972
 40
0.9379591944
 40
0.968947191
 40
1.0
 40
1.0
 40
1.0
 40
1.0
 10
10.0751496506
 20
7.792643332
 30
0.0
 10
10.0751496506
 20
7.7852765323
 30
0.0
 10
10.075853695
 20
7.7704281572
 30
0.0
 10
10.0789344575
 20
7.7482379053
 30
0.0
 10
10.0840073647
 20
7.7262216202
 30
0.0
 10
10.0910121228
 20
7.7046704911
 30
0.0
 10
10.0984115245
 20
7.6872956481
 30
0.0
 10
10.1052332377
 20
7.6738740965
 30
0.0
 10
10.112619159
 20
7.6608514453
 30
0.0
 10
10.1229190679
 20
7.6453138853
 30
0.0
 10
10.1346281246
 20
7.6308867874
 30
0.0
 10
10.1447738419
 20
7.6201540688
 30
0.0
 10
10.1527500629
 20
7.6125406251
 30
0.0
 10
10.1610917964
 20
7.605376367
 30
0.0
 10
10.1697851211
 20
7.5986855734
 30
0.0
 10
10.1788141135
 20
7.5924925771
 30
0.0
 10
10.1881608927
 20
7.5868212298
 30
0.0
 10
10.1978052261
 20
7.5816946187
 30
0.0
 10
10.2077243743
 20
7.5771346564
 30
0.0
 10
10.2178930528
 20
7.5731617628
 30
0.0
 10
10.2282834123
 20
7.5697944566
 30
0.0
 10
10.2388650632
 20
7.5670487216
 30
0.0
 10
10.2496053612
 20
7.5649376965
 30
0.0
 10
10.2604696766
 20
7.5634713492
 30
0.0
 10
10.271421999
 20
7.5626562324
 30
0.0
 10
10.2824245928
 20
7.5624951223
 30
0.0
 10
10.2897614623
 20
7.5628228058
 30
0.0
 10
10.2934248148
 20
7.5630943888
 30
0.0
  0
SPLINE
  5
36C
100
AcDbEntity
  8
0
100
AcDbSpline
 62
7
  6
CONTINUOUS
 70
0
 71
3
 72
18
 73
14
 74
0
 42
0.0000001
 43
0.0000001
 44
0.0000000001
 40
0.0
 40
0.0
 40
0.0
 40
0.0
 40
0.1273328183
 40
0.2538296638
 40
0.379541638
 40
0.5045436436
 40
0.6289408158
 40
0.6909720529
 40
0.7529019843
 40
0.8147496271
 40
0.8765347896
 40
0.9382779451
 40
1.0
 40
1.0
 40
1.0
 40
1.0
 10
10.2944416442
 20
7.5824631447
 30
0.0
 10
10.2944416442
 20
7.5759647641
 30
0.0
 10
10.293821171
 20
7.5630016705
 30
0.0
 10
10.2910152152
 20
7.5438064239
 30
0.0
 10
10.2863622884
 20
7.5250932374
 30
0.0
 10
10.2799051705
 20
7.5070382677
 30
0.0
 10
10.2730605449
 20
7.4926609187
 30
0.0
 10
10.2667529666
 20
7.4816617714
 30
0.0
 10
10.261620002
 20
7.4736833054
 30
0.0
 10
10.2560930642
 20
7.465988276
 30
0.0
 10
10.2501846087
 20
7.4585941647
 30
0.0
 10
10.2439086674
 20
7.4515182218
 30
0.0
 10
10.2394884257
 20
7.447023167
 30
0.0
 10
10.237222811
 20
7.4448347329
 30
0.0
  0
SPLINE
  5
36D
100
AcDbEntity
  8
0
100
AcDbSpline
 62
7
  6
CONTINUOUS
 70
0
 71
3
 72
41
 73
37
 74
0
 42
0.0000001
 43
0.0000001
 44
0.0000000001
 40
0.0
 40
0.0
 40
0.0
 40
0.0
 40
0.0310747051
 40
0.0623073113
 40
0.0936919989
 40
0.1252208455
 40
0.1568822151
 40
0.1886620094
 40
0.2205435949
 40
0.2525083053
 40
0.2845357889
 40
0.316604441
 40
0.348691836
 40
0.3807751761
 40
0.4128317441
 40
0.4448393548
 40
0.4767767997
 40
0.508624277
 40
0.5403638028
 40
0.5719795929
 40
0.6034584126
 40
0.6347898832
 40
0.6659667393
 40
0.6969850295
 40
0.7278442515
 40
0.7585474165
 40
0.7891010353
 40
0.8195150233
 40
0.84980252
 40
0.8649066417
 40
0.8799854015
 40
0.9100708282
 40
0.9400854833
 40
0.9550762344
 40
0.9700578784
 40
1.0
 40
1.0
 40
1.0
 40
1.0
 10
10.2944416442
 20
7.5824631447
 30
0.0
 10
10.2944416442
 20
7.5875139651
 30
0.0
 10
10.2940648423
 20
7.5976451558
 30
0.0
 10
10.2923826375
 20
7.6127934145
 30
0.0
 10
10.2895913133
 20
7.6278527629
 30
0.0
 10
10.2857064655
 20
7.6427393432
 30
0.0
 10
10.2807494945
 20
7.6573717635
 30
0.0
 10
10.2747477853
 20
7.6716696144
 30
0.0
 10
10.2677343695
 20
7.685554457
 30
0.0
 10
10.2597478388
 20
7.6989500964
 30
0.0
 10
10.2508320901
 20
7.7117830327
 30
0.0
 10
10.241036104
 20
7.7239828504
 30
0.0
 10
10.2304136707
 20
7.7354826024
 30
0.0
 10
10.2190231
 20
7.7462191726
 30
0.0
 10
10.2069269036
 20
7.7561336191
 30
0.0
 10
10.1941914559
 20
7.7651714946
 30
0.0
 10
10.1808866337
 20
7.7732831426
 30
0.0
 10
10.1670854378
 20
7.780423968
 30
0.0
 10
10.1528635969
 20
7.7865546811
 30
0.0
 10
10.1382991582
 20
7.7916415129
 30
0.0
 10
10.1234720649
 20
7.7956564013
 30
0.0
 10
10.1084637238
 20
7.7985771485
 30
0.0
 10
10.0933565634
 20
7.8003875455
 30
0.0
 10
10.0782335914
 20
7.8010774675
 30
0.0
 10
10.0631779276
 20
7.8006429293
 30
0.0
 10
10.0482724122
 20
7.7990861444
 30
0.0
 10
10.0335989268
 20
7.7964154159
 30
0.0
 10
10.0192387812
 20
7.7926454987
 30
0.0
 10
10.0075861397
 20
7.7886003781
 30
0.0
 10
9.9985034359
 20
7.7848385882
 30
0.0
 10
9.9896046277
 20
7.7807381529
 30
0.0
 10
9.9788147453
 20
7.7749744268
 30
0.0
 10
9.968525189
 20
7.7683850682
 30
0.0
 10
9.9606394508
 20
7.762646881
 30
0.0
 10
9.9529971268
 20
7.7566081464
 30
0.0
 10
9.9475401601
 20
7.7517413102
 30
0.0
 10
9.9440397546
 20
7.7483601497
 30
0.0
  0
SPLINE
  5
36E
100
AcDbEntity
  8
0
100
AcDbSpline
 62
7
  6
CONTINUOUS
 70
0
 71
3
 72
67
 73
63
 74
0
 42
0.0000001
 43
0.0000001
 44
0.0000000001
 40
0.0
 40
0.0
 40
0.0
 40
0.0
 40
0.0038007496
 40
0.0077417495
 40
0.0118260346
 40
0.0160562664
 40
0.0204347193
 40
0.024963219
 40
0.0296430811
 40
0.0344752877
 40
0.0445984539
 40
0.0553352202
 40
0.0666833522
 40
0.0786372401
 40
0.091188395
 40
0.1043258067
 40
0.1180362421
 40
0.132304517
 40
0.1471136991
 40
0.1624452615
 40
0.1782792197
 40
0.1945942804
 40
0.2113679516
 40
0.2285766273
 40
0.2461956736
 40
0.2641995318
 40
0.2825617958
 40
0.3012552752
 40
0.3202520639
 40
0.3395236248
 40
0.3787735078
 40
0.4187670489
 40
0.4592596882
 40
0.5000028653
 40
0.5407460347
 40
0.5812386485
 40
0.6212321489
 40
0.660481974
 40
0.6797535038
 40
0.6987502513
 40
0.7174436845
 40
0.7358059064
 40
0.75380972
 40
0.7714287092
 40
0.7886373236
 40
0.8054109404
 40
0.8217259445
 40
0.8375598321
 40
0.8528913203
 40
0.8677004379
 40
0.8819686463
 40
0.8956790003
 40
0.9088163282
 40
0.9213674113
 40
0.9333212267
 40
0.9446692701
 40
0.955405949
 40
0.9655290434
 40
0.9750403273
 40
0.9839463973
 40
0.9922597286
 40
1.0
 40
1.0
 40
1.0
 40
1.0
 10
11.1940173801
 20
11.6981273168
 30
0.0
 10
11.1924881101
 20
11.6967042234
 30
0.0
 10
11.1893150419
 20
11.6938674218
 30
0.0
 10
11.1843138637
 20
11.689713756
 30
0.0
 10
11.1789881832
 20
11.6855874467
 30
0.0
 10
11.1733403814
 20
11.6814902492
 30
0.0
 10
11.1673726907
 20
11.6774237154
 30
0.0
 10
11.161087478
 20
11.6733894953
 30
0.0
 10
11.154487312
 20
11.669389098
 30
0.0
 10
11.1451250951
 20
11.6640192493
 30
0.0
 10
11.1326371126
 20
11.6574170625
 30
0.0
 10
11.1166654125
 20
11.6497737988
 30
0.0
 10
11.0995088853
 20
11.6423039421
 30
0.0
 10
11.0811955584
 20
11.6350197476
 30
0.0
 10
11.0617550536
 20
11.6279331577
 30
0.0
 10
11.0412190684
 20
11.6210558647
 30
0.0
 10
11.0196211595
 20
11.6143992145
 30
0.0
 10
10.9969966943
 20
11.6079742238
 30
0.0
 10
10.9733827657
 20
11.6017915433
 30
0.0
 10
10.9488181432
 20
11.5958614236
 30
0.0
 10
10.9233432031
 20
11.5901936792
 30
0.0
 10
10.8969998402
 20
11.5847977043
 30
0.0
 10
10.8698313914
 20
11.5796824501
 30
0.0
 10
10.8418825752
 20
11.5748563984
 30
0.0
 10
10.8131994163
 20
11.5703275324
 30
0.0
 10
10.7838291568
 20
11.5661033548
 30
0.0
 10
10.7538201695
 20
11.5621908678
 30
0.0
 10
10.7232219058
 20
11.5585965652
 30
0.0
 10
10.6920847452
 20
11.5553263489
 30
0.0
 10
10.6496609838
 20
11.5513816252
 30
0.0
 10
10.5956627623
 20
11.5473118321
 30
0.0
 10
10.5299404781
 20
11.5438207796
 30
0.0
 10
10.4633379924
 20
11.5417168382
 30
0.0
 10
10.3962940974
 20
11.541013973
 30
0.0
 10
10.3292502174
 20
11.5417169313
 30
0.0
 10
10.2626477753
 20
11.5438209656
 30
0.0
 10
10.196925564
 20
11.5473121078
 30
0.0
 10
10.1429274201
 20
11.5513819817
 30
0.0
 10
10.1005037351
 20
11.5553267543
 30
0.0
 10
10.0693666451
 20
11.5585970205
 30
0.0
 10
10.038768459
 20
11.5621913722
 30
0.0
 10
10.00875955
 20
11.5661038945
 30
0.0
 10
9.9793893752
 20
11.5703281064
 30
0.0
 10
9.9507063143
 20
11.5748570189
 30
0.0
 10
9.9227576023
 20
11.5796831163
 30
0.0
 10
9.8955892558
 20
11.5847984015
 30
0.0
 10
9.8692460008
 20
11.5901944062
 30
0.0
 10
9.8437711835
 20
11.5958621927
 30
0.0
 10
9.8192066895
 20
11.6017923541
 30
0.0
 10
9.7955928842
 20
11.6079750601
 30
0.0
 10
9.7729685469
 20
11.6144000747
 30
0.0
 10
9.751370783
 20
11.6210567621
 30
0.0
 10
9.7308349461
 20
11.6279340922
 30
0.0
 10
9.7113945864
 20
11.6350207
 30
0.0
 10
9.6930813881
 20
11.6423049153
 30
0.0
 10
9.675925078
 20
11.6497747915
 30
0.0
 10
9.6599533556
 20
11.6574181273
 30
0.0
 10
9.6451918127
 20
11.6652226096
 30
0.0
 10
9.6316640198
 20
11.6731757899
 30
0.0
 10
9.6193910145
 20
11.6812656142
 30
0.0
 10
9.6083928327
 20
11.6894792035
 30
0.0
 10
9.6016885777
 20
11.6952300594
 30
0.0
 10
9.5985742484
 20
11.6981282562
 30
0.0
  0
SPLINE
  5
36F
100
AcDbEntity
  8
0
100
AcDbSpline
 62
7
  6
CONTINUOUS
 70
0
 71
3
 72
18
 73
14
 74
0
 42
0.0000001
 43
0.0000001
 44
0.0000000001
 40
0.0
 40
0.0
 40
0.0
 40
0.0
 40
0.0885151899
 40
0.1824486853
 40
0.2322046617
 40
0.2842325548
 40
0.3389012929
 40
0.3965969545
 40
0.4577135291
 40
0.5226129783
 40
0.6644500259
 40
0.8233448852
 40
1.0
 40
1.0
 40
1.0
 40
1.0
 10
11.1932963228
 20
11.7132039592
 30
0.0
 10
11.1932963228
 20
11.7123697878
 30
0.0
 10
11.1932083925
 20
11.7106491807
 30
0.0
 10
11.1928711577
 20
11.708483083
 30
0.0
 10
11.1924553584
 20
11.7066855278
 30
0.0
 10
11.1920546783
 20
11.7052659846
 30
0.0
 10
11.1915630563
 20
11.703796218
 30
0.0
 10
11.1909728494
 20
11.702270971
 30
0.0
 10
11.190276401
 20
11.7006853094
 30
0.0
 10
11.1891641048
 20
11.6984186155
 30
0.0
 10
11.1874530788
 20
11.6954230954
 30
0.0
 10
11.1849295496
 20
11.691694161
 30
0.0
 10
11.1829791405
 20
11.6892016051
 30
0.0
 10
11.1819145585
 20
11.6879216656
 30
0.0
  0
SPLINE
  5
370
100
AcDbEntity
  8
0
100
AcDbSpline
 62
7
  6
CONTINUOUS
 70
0
 71
3
 72
17
 73
13
 74
0
 42
0.0000001
 43
0.0000001
 44
0.0000000001
 40
0.0
 40
0.0
 40
0.0
 40
0.0
 40
0.1767245815
 40
0.3355899137
 40
0.4774072857
 40
0.6033150223
 40
0.6610790945
 40
0.7158486534
 40
0.7679677458
 40
0.8177657095
 40
0.9116432874
 40
1.0
 40
1.0
 40
1.0
 40
1.0
 10
9.6106889151
 20
11.6879086416
 30
0.0
 10
9.6096229051
 20
11.6891894864
 30
0.0
 10
9.6076702136
 20
11.6916830425
 30
0.0
 10
9.6051462773
 20
11.6954152745
 30
0.0
 10
9.6031466828
 20
11.6989100981
 30
0.0
 10
9.6018426277
 20
11.7016930974
 30
0.0
 10
9.6010316706
 20
11.7037908881
 30
0.0
 10
9.6005393433
 20
11.7052639471
 30
0.0
 10
9.6001372665
 20
11.7066862535
 30
0.0
 10
9.5997202511
 20
11.7084853707
 30
0.0
 10
9.5993835189
 20
11.7106512271
 30
0.0
 10
9.5992963228
 20
11.712370804
 30
0.0
 10
9.5992963228
 20
11.7132039592
 30
0.0
  0
SPLINE
  5
371
100
AcDbEntity
  8
0
100
AcDbSpline
 62
7
  6
CONTINUOUS
 70
0
 71
3
 72
41
 73
37
 74
0
 42
0.0000001
 43
0.0000001
 44
0.0000000001
 40
0.0
 40
0.0
 40
0.0
 40
0.0
 40
0.0299421238
 40
0.0449237703
 40
0.059914519
 40
0.0899291762
 40
0.1200146048
 40
0.1350933663
 40
0.1501974853
 40
0.1804849834
 40
0.2108989722
 40
0.2414525913
 40
0.2721557558
 40
0.3030149766
 40
0.3340332647
 40
0.365210118
 40
0.396541585
 40
0.4280204007
 40
0.4596361866
 40
0.4913757084
 40
0.5232231826
 40
0.5551606251
 40
0.5871682346
 40
0.6192248024
 40
0.6513081434
 40
0.68339554
 40
0.7154641944
 40
0.7474916807
 40
0.7794563937
 40
0.8113379827
 40
0.8431177771
 40
0.8747791563
 40
0.9063079829
 40
0.9376927254
 40
0.9689252285
 40
1.0
 40
1.0
 40
1.0
 40
1.0
 10
11.4958105741
 20
10.3992926782
 30
0.0
 10
11.4993109933
 20
10.4026738298
 30
0.0
 10
11.5047679169
 20
10.4075407236
 30
0.0
 10
11.5124102812
 20
10.4135794187
 30
0.0
 10
11.5202959731
 20
10.4193176805
 30
0.0
 10
11.5305855505
 20
10.4259070232
 30
0.0
 10
11.5413754083
 20
10.431670818
 30
0.0
 10
11.5502742535
 20
10.4357711883
 30
0.0
 10
11.5593569238
 20
10.4395330746
 30
0.0
 10
11.5710095849
 20
10.4435781729
 30
0.0
 10
11.5853697309
 20
10.4473481222
 30
0.0
 10
11.6000432252
 20
10.450018864
 30
0.0
 10
11.6149487486
 20
10.4515756644
 30
0.0
 10
11.6300044218
 20
10.4520102152
 30
0.0
 10
11.6451274036
 20
10.4513203046
 30
0.0
 10
11.6602345742
 20
10.4495099179
 30
0.0
 10
11.675242926
 20
10.4465891804
 30
0.0
 10
11.6900700307
 20
10.4425743019
 30
0.0
 10
11.7046344819
 20
10.4374874804
 30
0.0
 10
11.7188563365
 20
10.4313567773
 30
0.0
 10
11.7326575474
 20
10.424215961
 30
0.0
 10
11.7459623853
 20
10.4161043208
 30
0.0
 10
11.7586978493
 20
10.4070664511
 30
0.0
 10
11.7707940623
 20
10.3971520081
 30
0.0
 10
11.7821846493
 20
10.3864154392
 30
0.0
 10
11.7928070982
 20
10.3749156861
 30
0.0
 10
11.8026030989
 20
10.362715865
 30
0.0
 10
11.8115188605
 20
10.3498829233
 30
0.0
 10
11.8195054029
 20
10.3364872768
 30
0.0
 10
11.826518827
 20
10.3226024256
 30
0.0
 10
11.8325205458
 20
10.3083045648
 30
0.0
 10
11.8374775172
 20
10.2936721355
 30
0.0
 10
11.841362378
 20
10.2787855402
 30
0.0
 10
11.8441536899
 20
10.2637261902
 30
0.0
 10
11.845835909
 20
10.2485779199
 30
0.0
 10
11.8462127056
 20
10.2384467279
 30
0.0
 10
11.8462127056
 20
10.2333958933
 30
0.0
  0
SPLINE
  5
372
100
AcDbEntity
  8
0
100
AcDbSpline
 62
7
  6
CONTINUOUS
 70
0
 71
3
 72
41
 73
37
 74
0
 42
0.0000001
 43
0.0000001
 44
0.0000000001
 40
0.0
 40
0.0
 40
0.0
 40
0.0
 40
0.0299421238
 40
0.0449237703
 40
0.059914519
 40
0.0899291762
 40
0.1200146048
 40
0.1350933663
 40
0.1501974853
 40
0.1804849834
 40
0.2108989722
 40
0.2414525913
 40
0.2721557558
 40
0.3030149766
 40
0.3340332647
 40
0.365210118
 40
0.396541585
 40
0.4280204007
 40
0.4596361866
 40
0.4913757084
 40
0.5232231826
 40
0.5551606251
 40
0.5871682346
 40
0.6192248024
 40
0.6513081434
 40
0.68339554
 40
0.7154641944
 40
0.7474916807
 40
0.7794563937
 40
0.8113379827
 40
0.8431177771
 40
0.8747791563
 40
0.9063079829
 40
0.9376927254
 40
0.9689252285
 40
1.0
 40
1.0
 40
1.0
 40
1.0
 10
9.563958807
 20
6.1866005775
 30
0.0
 10
9.5674592263
 20
6.189981729
 30
0.0
 10
9.5729161499
 20
6.1948486228
 30
0.0
 10
9.5805585141
 20
6.2008873179
 30
0.0
 10
9.588444206
 20
6.2066255798
 30
0.0
 10
9.5987337834
 20
6.2132149225
 30
0.0
 10
9.6095236413
 20
6.2189787173
 30
0.0
 10
9.6184224865
 20
6.2230790875
 30
0.0
 10
9.6275051568
 20
6.2268409738
 30
0.0
 10
9.6391578179
 20
6.2308860721
 30
0.0
 10
9.6535179639
 20
6.2346560214
 30
0.0
 10
9.6681914581
 20
6.2373267632
 30
0.0
 10
9.6830969816
 20
6.2388835637
 30
0.0
 10
9.6981526548
 20
6.2393181144
 30
0.0
 10
9.7132756365
 20
6.2386282038
 30
0.0
 10
9.7283828071
 20
6.2368178172
 30
0.0
 10
9.7433911589
 20
6.2338970797
 30
0.0
 10
9.7582182637
 20
6.2298822011
 30
0.0
 10
9.7727827149
 20
6.2247953796
 30
0.0
 10
9.7870045695
 20
6.2186646765
 30
0.0
 10
9.8008057803
 20
6.2115238602
 30
0.0
 10
9.8141106182
 20
6.20341222
 30
0.0
 10
9.8268460823
 20
6.1943743503
 30
0.0
 10
9.8389422952
 20
6.1844599074
 30
0.0
 10
9.8503328822
 20
6.1737233384
 30
0.0
 10
9.8609553312
 20
6.1622235853
 30
0.0
 10
9.8707513319
 20
6.1500237643
 30
0.0
 10
9.8796670935
 20
6.1371908226
 30
0.0
 10
9.8876536358
 20
6.123795176
 30
0.0
 10
9.89466706
 20
6.1099103248
 30
0.0
 10
9.9006687788
 20
6.0956124641
 30
0.0
 10
9.9056257501
 20
6.0809800348
 30
0.0
 10
9.9095106109
 20
6.0660934394
 30
0.0
 10
9.9123019228
 20
6.0510340894
 30
0.0
 10
9.913984142
 20
6.0358858192
 30
0.0
 10
9.9143609385
 20
6.0257546271
 30
0.0
 10
9.9143609385
 20
6.0207037925
 30
0.0
  0
SPLINE
  5
373
100
AcDbEntity
  8
0
100
AcDbSpline
 62
7
  6
CONTINUOUS
 70
0
 71
3
 72
71
 73
67
 74
0
 42
0.0000001
 43
0.0000001
 44
0.0000000001
 40
0.0
 40
0.0
 40
0.0
 40
0.0
 40
0.0027164569
 40
0.005453287
 40
0.0082303818
 40
0.0110666925
 40
0.0139799215
 40
0.0169862522
 40
0.0201002262
 40
0.0233347671
 40
0.0267011398
 40
0.030209103
 40
0.0338670461
 40
0.0376820279
 40
0.0416600191
 40
0.0458059789
 40
0.0501239231
 40
0.054617143
 40
0.0592881899
 40
0.0641389815
 40
0.0743841477
 40
0.0853591212
 40
0.0970630425
 40
0.1094898788
 40
0.1226292331
 40
0.1364670018
 40
0.1509859212
 40
0.1661659497
 40
0.1819845327
 40
0.198416903
 40
0.2154363179
 40
0.2330142199
 40
0.2511203737
 40
0.26972306
 40
0.2887892083
 40
0.3082844897
 40
0.3281734406
 40
0.3689847948
 40
0.4109222396
 40
0.4536726894
 40
0.4969151501
 40
0.5403239011
 40
0.5835716248
 40
0.6263325419
 40
0.6682855718
 40
0.7091174587
 40
0.7290184802
 40
0.7485269803
 40
0.767607468
 40
0.7862255922
 40
0.8043482274
 40
0.8219435923
 40
0.8389814255
 40
0.8554331179
 40
0.8712718455
 40
0.8864727662
 40
0.9010132841
 40
0.9148732614
 40
0.9280353159
 40
0.9404852478
 40
0.9522125493
 40
0.9632110329
 40
0.9734796288
 40
0.9830235034
 40
0.991856199
 40
1.0
 40
1.0
 40
1.0
 40
1.0
 10
13.3807763939
 20
10.5724317227
 30
0.0
 10
13.379858136
 20
10.5724954004
 30
0.0
 10
13.3780194336
 20
10.5727063268
 30
0.0
 10
13.3752847826
 20
10.5732707933
 30
0.0
 10
13.3725708165
 20
10.5740832909
 30
0.0
 10
13.3698794277
 20
10.5751429176
 30
0.0
 10
13.3672120475
 20
10.5764488407
 30
0.0
 10
13.3645700319
 20
10.5779999947
 30
0.0
 10
13.3619545654
 20
10.5797952376
 30
0.0
 10
13.3593668711
 20
10.581833513
 30
0.0
 10
13.356808021
 20
10.5841135663
 30
0.0
 10
13.3542791137
 20
10.5866341577
 30
0.0
 10
13.3517813091
 20
10.5893940192
 30
0.0
 10
13.3493156464
 20
10.5923916916
 30
0.0
 10
13.3468832771
 20
10.5956257121
 30
0.0
 10
13.3444853463
 20
10.5990944924
 30
0.0
 10
13.3421229164
 20
10.6027962891
 30
0.0
 10
13.3397971828
 20
10.6067293135
 30
0.0
 10
13.3375092085
 20
10.6108916219
 30
0.0
 10
13.3344546459
 20
10.616853444
 30
0.0
 10
13.3307515771
 20
10.6248785144
 30
0.0
 10
13.3265536102
 20
10.6352183836
 30
0.0
 10
13.3225321244
 20
10.6464166176
 30
0.0
 10
13.3186951563
 20
10.6584510277
 30
0.0
 10
13.3150503939
 20
10.6712979924
 30
0.0
 10
13.3116051876
 20
10.6849320154
 30
0.0
 10
13.3083665267
 20
10.69932598
 30
0.0
 10
13.3053410104
 20
10.7144511683
 30
0.0
 10
13.3025347782
 20
10.7302773306
 30
0.0
 10
13.2999535342
 20
10.7467727675
 30
0.0
 10
13.2976025407
 20
10.7639044149
 30
0.0
 10
13.2954865944
 20
10.7816379031
 30
0.0
 10
13.2936099864
 20
10.7999376246
 30
0.0
 10
13.2919765335
 20
10.8187668252
 30
0.0
 10
13.2905895834
 20
10.83808767
 30
0.0
 10
13.2894519264
 20
10.8578613633
 30
0.0
 10
13.2882604713
 20
10.8850099568
 30
0.0
 10
13.2874233255
 20
10.9197824903
 30
0.0
 10
13.2874432375
 20
10.9623114479
 30
0.0
 10
13.2884798616
 20
11.0056517445
 30
0.0
 10
13.2905250736
 20
11.0494550856
 30
0.0
 10
13.2935626409
 20
11.0933696936
 30
0.0
 10
13.2975681276
 20
11.1370427865
 30
0.0
 10
13.3025092465
 20
11.1801236541
 30
0.0
 10
13.308346024
 20
11.2222661174
 30
0.0
 10
13.3139637543
 20
11.2566086088
 30
0.0
 10
13.3188826368
 20
11.2833502301
 30
0.0
 10
13.3227328365
 20
11.3027924838
 30
0.0
 10
13.3267676907
 20
11.3217530535
 30
0.0
 10
13.3309790801
 20
11.3401938733
 30
0.0
 10
13.3353584889
 20
11.3580778906
 30
0.0
 10
13.3398970885
 20
11.3753691867
 30
0.0
 10
13.3445857008
 20
11.3920330574
 30
0.0
 10
13.3494148418
 20
11.4080360846
 30
0.0
 10
13.3543747552
 20
11.4233461909
 30
0.0
 10
13.3594554339
 20
11.437932719
 30
0.0
 10
13.3646465994
 20
11.4517665221
 30
0.0
 10
13.3699377707
 20
11.4648200148
 30
0.0
 10
13.3753182996
 20
11.4770672289
 30
0.0
 10
13.380777394
 20
11.4884839027
 30
0.0
 10
13.3863041276
 20
11.4990475708
 30
0.0
 10
13.3918875968
 20
11.5087376175
 30
0.0
 10
13.3975168911
 20
11.5175352003
 30
0.0
 10
13.4031815617
 20
11.5254238988
 30
0.0
 10
13.4088706848
 20
11.5323880143
 30
0.0
 10
13.4128299241
 20
11.5365712262
 30
0.0
 10
13.4148147088
 20
11.5384883811
 30
0.0
  0
SPLINE
  5
374
100
AcDbEntity
  8
0
100
AcDbSpline
 62
7
  6
CONTINUOUS
 70
0
 71
3
 72
61
 73
57
 74
0
 42
0.0000001
 43
0.0000001
 44
0.0000000001
 40
0.0
 40
0.0
 40
0.0
 40
0.0
 40
0.0027657861
 40
0.005596471
 40
0.0115120763
 40
0.0178633455
 40
0.0247379203
 40
0.0322015241
 40
0.0403014989
 40
0.0490704782
 40
0.0585296615
 40
0.0686910427
 40
0.0795594189
 40
0.0911338004
 40
0.1034082582
 40
0.1163729358
 40
0.1300145143
 40
0.1443166277
 40
0.1592604068
 40
0.1748245676
 40
0.1909857553
 40
0.207718803
 40
0.2249967295
 40
0.2427910691
 40
0.2610719379
 40
0.279808093
 40
0.2989671919
 40
0.3384185641
 40
0.3791483514
 40
0.4208655468
 40
0.4632698287
 40
0.5060544807
 40
0.5489092637
 40
0.5915232955
 40
0.6335879166
 40
0.6747995511
 40
0.7148626316
 40
0.7534925784
 40
0.7721854306
 40
0.7904198627
 40
0.8081647635
 40
0.825390411
 40
0.842068432
 40
0.858172057
 40
0.8736762842
 40
0.8885579117
 40
0.9027959429
 40
0.9163717019
 40
0.929269097
 40
0.9414751679
 40
0.9529803648
 40
0.963779275
 40
0.97387132
 40
0.9832619314
 40
0.9919645069
 40
1.0
 40
1.0
 40
1.0
 40
1.0
 10
13.3583296526
 20
10.7578948408
 30
0.0
 10
13.3577686995
 20
10.75805959
 30
0.0
 10
13.3566472859
 20
10.7584414709
 30
0.0
 10
13.3544127624
 20
10.7594105791
 30
0.0
 10
13.3516424213
 20
10.7610200044
 30
0.0
 10
13.348441629
 20
10.763511605
 30
0.0
 10
13.3453171521
 20
10.7665836878
 30
0.0
 10
13.3422728044
 20
10.7702291201
 30
0.0
 10
13.3393118821
 20
10.7744410563
 30
0.0
 10
13.3364385933
 20
10.779211944
 30
0.0
 10
13.3336575977
 20
10.7845333378
 30
0.0
 10
13.330973684
 20
10.7903955955
 30
0.0
 10
13.3283917451
 20
10.7967879512
 30
0.0
 10
13.3259166787
 20
10.8036985077
 30
0.0
 10
13.3235531551
 20
10.8111142366
 30
0.0
 10
13.3213057737
 20
10.8190210769
 30
0.0
 10
13.3191789107
 20
10.827403946
 30
0.0
 10
13.3171766718
 20
10.8362467852
 30
0.0
 10
13.3153030168
 20
10.8455326195
 30
0.0
 10
13.3135615871
 20
10.8552435789
 30
0.0
 10
13.3119557772
 20
10.8653609512
 30
0.0
 10
13.3104887712
 20
10.8758652232
 30
0.0
 10
13.3091634009
 20
10.8867361153
 30
0.0
 10
13.3079822736
 20
10.8979526307
 30
0.0
 10
13.3069477266
 20
10.9094930904
 30
0.0
 10
13.3060617234
 20
10.9213352057
 30
0.0
 10
13.3050712649
 20
10.9376555429
 30
0.0
 10
13.3042262548
 20
10.958640189
 30
0.0
 10
13.3038332595
 20
10.9844071166
 30
0.0
 10
13.3040552274
 20
11.0108002535
 30
0.0
 10
13.3048906215
 20
11.037615538
 30
0.0
 10
13.3063331554
 20
11.0646457872
 30
0.0
 10
13.3083717391
 20
11.0916820779
 30
0.0
 10
13.3109905828
 20
11.1185154601
 30
0.0
 10
13.3141693454
 20
11.1449385539
 30
0.0
 10
13.3178832696
 20
11.1707472633
 30
0.0
 10
13.322103423
 20
11.1957421034
 30
0.0
 10
13.3260565012
 20
11.2159477443
 30
0.0
 10
13.3294573441
 20
11.2315536362
 30
0.0
 10
13.3320851158
 20
11.242808275
 30
0.0
 10
13.3348128114
 20
11.2537197134
 30
0.0
 10
13.3376351202
 20
11.2642668925
 30
0.0
 10
13.3405465777
 20
11.2744294372
 30
0.0
 10
13.343541526
 20
11.2841877375
 30
0.0
 10
13.3466141108
 20
11.2935229841
 30
0.0
 10
13.3497584044
 20
11.3024171888
 30
0.0
 10
13.3529682682
 20
11.3108532568
 30
0.0
 10
13.3562374645
 20
11.3188150051
 30
0.0
 10
13.3595597035
 20
11.3262871858
 30
0.0
 10
13.3629285172
 20
11.3332555826
 30
0.0
 10
13.3663374652
 20
11.3397069896
 30
0.0
 10
13.3697801016
 20
11.3456292586
 30
0.0
 10
13.373249864
 20
11.3510113721
 30
0.0
 10
13.3767406725
 20
11.3558436305
 30
0.0
 10
13.3802459994
 20
11.3601167062
 30
0.0
 10
13.3826833663
 20
11.3626874498
 30
0.0
 10
13.3839050798
 20
11.3638675344
 30
0.0
  0
SPLINE
  5
375
100
AcDbEntity
  8
0
100
AcDbSpline
 62
7
  6
CONTINUOUS
 70
0
 71
3
 72
14
 73
10
 74
0
 42
0.0000001
 43
0.0000001
 44
0.0000000001
 40
0.0
 40
0.0
 40
0.0
 40
0.0
 40
0.1080392404
 40
0.2193560729
 40
0.3348702669
 40
0.455396688
 40
0.7140472603
 40
0.8534233982
 40
1.0
 40
1.0
 40
1.0
 40
1.0
 10
13.4010209812
 20
11.3734847233
 30
0.0
 10
13.4003106247
 20
11.3733794072
 30
0.0
 10
13.3988786256
 20
11.3730898617
 30
0.0
 10
13.3967477521
 20
11.3724358654
 30
0.0
 10
13.3946089724
 20
11.3715579476
 30
0.0
 10
13.3916808063
 20
11.3700550721
 30
0.0
 10
13.3888102709
 20
11.368122387
 30
0.0
 10
13.386006879
 20
11.3658307444
 30
0.0
 10
13.3846058303
 20
11.3645444075
 30
0.0
 10
13.3839050798
 20
11.3638675344
 30
0.0
  0
SPLINE
  5
376
100
AcDbEntity
  8
0
100
AcDbSpline
 62
7
  6
CONTINUOUS
 70
0
 71
3
 72
37
 73
33
 74
0
 42
0.0000001
 43
0.0000001
 44
0.0000000001
 40
0.0
 40
0.0
 40
0.0
 40
0.0
 40
0.0167140358
 40
0.0335891065
 40
0.0507813556
 40
0.0684376702
 40
0.0866926698
 40
0.1056666644
 40
0.1254652458
 40
0.1461792415
 40
0.1678859669
 40
0.1906500216
 40
0.2145251052
 40
0.2395548425
 40
0.2657745666
 40
0.2932118698
 40
0.3218881533
 40
0.3518188811
 40
0.3830148714
 40
0.4154823305
 40
0.4492239119
 40
0.4842386189
 40
0.5205226637
 40
0.5580693127
 40
0.5968695702
 40
0.6369120213
 40
0.6781833581
 40
0.7206682572
 40
0.7643497622
 40
0.8092092201
 40
0.9023781651
 40
1.0
 40
1.0
 40
1.0
 40
1.0
 10
13.348156395
 20
8.0494689434
 30
0.0
 10
13.3461159179
 20
8.0496104417
 30
0.0
 10
13.3420268399
 20
8.050104795
 30
0.0
 10
13.3359547388
 20
8.0514723523
 30
0.0
 10
13.3299366182
 20
8.0534654511
 30
0.0
 10
13.3239779794
 20
8.0560811992
 30
0.0
 10
13.3180827364
 20
8.0593165981
 30
0.0
 10
13.312254445
 20
8.063168155
 30
0.0
 10
13.3064964189
 20
8.0676325528
 30
0.0
 10
13.3008116177
 20
8.0727061416
 30
0.0
 10
13.2952031645
 20
8.0783853917
 30
0.0
 10
13.2896739536
 20
8.0846663676
 30
0.0
 10
13.2842271752
 20
8.091545088
 30
0.0
 10
13.2788658045
 20
8.0990170913
 30
0.0
 10
13.2735931159
 20
8.1070777406
 30
0.0
 10
13.2684121438
 20
8.1157218987
 30
0.0
 10
13.2633261816
 20
8.1249441767
 30
0.0
 10
13.2583382654
 20
8.1347387017
 30
0.0
 10
13.2534516407
 20
8.1450993074
 30
0.0
 10
13.2486692952
 20
8.1560193751
 30
0.0
 10
13.2439943774
 20
8.16749197
 30
0.0
 10
13.2394297916
 20
8.1795097382
 30
0.0
 10
13.2349785566
 20
8.1920649995
 30
0.0
 10
13.230643469
 20
8.2051496844
 30
0.0
 10
13.2264273966
 20
8.2187553948
 30
0.0
 10
13.222333012
 20
8.2328733689
 30
0.0
 10
13.2183630151
 20
8.2474945202
 30
0.0
 10
13.2145199498
 20
8.2626094165
 30
0.0
 10
13.2108063059
 20
8.2782083248
 30
0.0
 10
13.2059695235
 20
8.2999133163
 30
0.0
 10
13.2002833947
 20
8.3281884264
 30
0.0
 10
13.1962494121
 20
8.3511877796
 30
0.0
 10
13.1943164855
 20
8.3629768255
 30
0.0
  0
SPLINE
  5
377
100
AcDbEntity
  8
0
100
AcDbSpline
 62
7
  6
CONTINUOUS
 70
0
 71
3
 72
39
 73
35
 74
0
 42
0.0000001
 43
0.0000001
 44
0.0000000001
 40
0.0
 40
0.0
 40
0.0
 40
0.0
 40
0.0260545665
 40
0.0530745397
 40
0.0810092181
 40
0.1098049313
 40
0.1394053179
 40
0.1697515804
 40
0.2007827216
 40
0.2324357689
 40
0.2646459876
 40
0.2973470887
 40
0.3304714318
 40
0.3639502232
 40
0.3977137113
 40
0.4316913802
 40
0.4658121416
 40
0.5000045261
 40
0.5341968734
 40
0.5683175234
 40
0.6022950059
 40
0.6360582329
 40
0.6695366887
 40
0.7026606229
 40
0.7353612435
 40
0.7675709123
 40
0.7992233427
 40
0.8302538022
 40
0.8605993192
 40
0.8901988973
 40
0.9189937397
 40
0.9469274873
 40
0.9739464731
 40
1.0
 40
1.0
 40
1.0
 40
1.0
 10
13.1943164855
 20
8.3629768255
 30
0.0
 10
13.1924446883
 20
8.3743930388
 30
0.0
 10
13.1888821518
 20
8.3976901167
 30
0.0
 10
13.1841418852
 20
8.4333478101
 30
0.0
 10
13.1799154319
 20
8.4702953418
 30
0.0
 10
13.1762123859
 20
8.5084500743
 30
0.0
 10
13.1730411295
 20
8.5477269209
 30
0.0
 10
13.1704088509
 20
8.5880381794
 30
0.0
 10
13.1683215186
 20
8.6292938362
 30
0.0
 10
13.1667838731
 20
8.6714017427
 30
0.0
 10
13.1657994143
 20
8.7142678332
 30
0.0
 10
13.1653703955
 20
8.7577963355
 30
0.0
 10
13.1654978203
 20
8.8018899889
 30
0.0
 10
13.1661814407
 20
8.8464502632
 30
0.0
 10
13.1674197581
 20
8.8913775809
 30
0.0
 10
13.1692100276
 20
8.9365715403
 30
0.0
 10
13.171548264
 20
8.9819311414
 30
0.0
 10
13.1744292513
 20
9.0273550124
 30
0.0
 10
13.1778465543
 20
9.0727416368
 30
0.0
 10
13.1817925336
 20
9.1179895816
 30
0.0
 10
13.1862583615
 20
9.1629977249
 30
0.0
 10
13.1912340415
 20
9.2076654835
 30
0.0
 10
13.1967084313
 20
9.2518930388
 30
0.0
 10
13.2026692681
 20
9.2955815609
 30
0.0
 10
13.2091031952
 20
9.338633431
 30
0.0
 10
13.2159957916
 20
9.3809524606
 30
0.0
 10
13.2233316038
 20
9.4224441085
 30
0.0
 10
13.23109418
 20
9.4630156947
 30
0.0
 10
13.2392661055
 20
9.5025766085
 30
0.0
 10
13.2478290436
 20
9.5410385221
 30
0.0
 10
13.2567637683
 20
9.5783155662
 30
0.0
 10
13.2660502335
 20
9.6143246273
 30
0.0
 10
13.2756675193
 20
9.6489851898
 30
0.0
 10
13.2824120396
 20
9.6715664769
 30
0.0
 10
13.2858418729
 20
9.6826145136
 30
0.0
  0
SPLINE
  5
378
100
AcDbEntity
  8
0
100
AcDbSpline
 62
7
  6
CONTINUOUS
 70
0
 71
3
 72
23
 73
19
 74
0
 42
0.0000001
 43
0.0000001
 44
0.0000000001
 40
0.0
 40
0.0
 40
0.0
 40
0.0
 40
0.0826662501
 40
0.1628688457
 40
0.2405373824
 40
0.3156068269
 40
0.3880175896
 40
0.4577162819
 40
0.5246564704
 40
0.588799056
 40
0.6501135221
 40
0.7085789836
 40
0.764185302
 40
0.8169352638
 40
0.8668460243
 40
0.9139522546
 40
0.9583112298
 40
1.0
 40
1.0
 40
1.0
 40
1.0
 10
13.2858418729
 20
9.6826145136
 30
0.0
 10
13.2882240016
 20
9.6902877276
 30
0.0
 10
13.2930305787
 20
9.7053706264
 30
0.0
 10
13.3004872172
 20
9.7275288884
 30
0.0
 10
13.3080752702
 20
9.7488605564
 30
0.0
 10
13.3157859004
 20
9.7693410584
 30
0.0
 10
13.323610222
 20
9.7889468888
 30
0.0
 10
13.3315392083
 20
9.8076555541
 30
0.0
 10
13.3395636713
 20
9.8254456486
 30
0.0
 10
13.3476744032
 20
9.8422968329
 30
0.0
 10
13.3558620869
 20
9.8581898996
 30
0.0
 10
13.3641173174
 20
9.8731068164
 30
0.0
 10
13.3724307506
 20
9.8870306961
 30
0.0
 10
13.3807930182
 20
9.8999458706
 30
0.0
 10
13.3891947032
 20
9.9118378707
 30
0.0
 10
13.397626917
 20
9.9226937294
 30
0.0
 10
13.4060800692
 20
9.9325006966
 30
0.0
 10
13.4119004316
 20
9.9385149569
 30
0.0
 10
13.4148147088
 20
9.9413299327
 30
0.0
  0
SPLINE
  5
379
100
AcDbEntity
  8
0
100
AcDbSpline
 62
7
  6
CONTINUOUS
 70
0
 71
3
 72
78
 73
74
 74
0
 42
0.0000001
 43
0.0000001
 44
0.0000000001
 40
0.0
 40
0.0
 40
0.0
 40
0.0
 40
0.0027966476
 40
0.0056681923
 40
0.0116913031
 40
0.0148721197
 40
0.0181792354
 40
0.0216218554
 40
0.0252078937
 40
0.0289441294
 40
0.032836236
 40
0.03688899
 40
0.0411063258
 40
0.045491408
 40
0.0500468006
 40
0.0547744319
 40
0.0596757348
 40
0.064751701
 40
0.0700028536
 40
0.0810305963
 40
0.0927572205
 40
0.1051757946
 40
0.1182756111
 40
0.1320427083
 40
0.1464602862
 40
0.1615090655
 40
0.1771675585
 40
0.1934122822
 40
0.2102179317
 40
0.2275575676
 40
0.2454027642
 40
0.2637237333
 40
0.2824894264
 40
0.3016676614
 40
0.3212252345
 40
0.341128016
 40
0.3613410359
 40
0.3818285826
 40
0.4234806063
 40
0.4657878676
 40
0.508447355
 40
0.5511528464
 40
0.593597699
 40
0.6354776433
 40
0.6561123902
 40
0.6764943337
 40
0.6965873647
 40
0.7163560583
 40
0.7357657743
 40
0.7547827399
 40
0.7733741445
 40
0.7915082456
 40
0.8091544938
 40
0.82628363
 40
0.8428678026
 40
0.8588807047
 40
0.8742977492
 40
0.8890962286
 40
0.9032555052
 40
0.9167572512
 40
0.9295857653
 40
0.9417283401
 40
0.9531756968
 40
0.9586371424
 40
0.9639232299
 40
0.9690340425
 40
0.9739700665
 40
0.9787321594
 40
0.9833216466
 40
0.9877404821
 40
0.9919911256
 40
0.9960764804
 40
1.0
 40
1.0
 40
1.0
 40
1.0
 10
13.3235138418
 20
8.3169921491
 30
0.0
 10
13.3222534539
 20
8.317437767
 30
0.0
 10
13.3197351686
 20
8.3184471336
 30
0.0
 10
13.3147215376
 20
8.320925979
 30
0.0
 10
13.3098474532
 20
8.3240593375
 30
0.0
 10
13.3051425281
 20
8.3277547147
 30
0.0
 10
13.3015876148
 20
8.3309049654
 30
0.0
 10
13.2980735511
 20
8.3343810486
 30
0.0
 10
13.2946012718
 20
8.3381815174
 30
0.0
 10
13.2911724726
 20
8.3423045079
 30
0.0
 10
13.2877885115
 20
8.346748019
 30
0.0
 10
13.2844509384
 20
8.3515099858
 30
0.0
 10
13.2811612547
 20
8.3565881755
 30
0.0
 10
13.2779208931
 20
8.361980175
 30
0.0
 10
13.2747314232
 20
8.3676834931
 30
0.0
 10
13.2715942624
 20
8.3736954184
 30
0.0
 10
13.2685108938
 20
8.380013121
 30
0.0
 10
13.2654827726
 20
8.3866336451
 30
0.0
 10
13.2614549564
 20
8.3960142368
 30
0.0
 10
13.2565839258
 20
8.4084882279
 30
0.0
 10
13.2510726942
 20
8.4243762387
 30
0.0
 10
13.2458144478
 20
8.4413890452
 30
0.0
 10
13.2408192764
 20
8.4594943431
 30
0.0
 10
13.2360967999
 20
8.4786579911
 30
0.0
 10
13.231656127
 20
8.4988435957
 30
0.0
 10
13.227505849
 20
8.5200127684
 30
0.0
 10
13.2236540076
 20
8.5421251779
 30
0.0
 10
13.2201080741
 20
8.565138639
 30
0.0
 10
13.2168749059
 20
8.5890091946
 30
0.0
 10
13.2139607654
 20
8.6136912192
 30
0.0
 10
13.211371301
 20
8.6391375204
 30
0.0
 10
13.2091115419
 20
8.6652994239
 30
0.0
 10
13.2071858597
 20
8.6921268643
 30
0.0
 10
13.2055979833
 20
8.7195684873
 30
0.0
 10
13.2043509922
 20
8.7475717635
 30
0.0
 10
13.2034473279
 20
8.7760830676
 30
0.0
 10
13.2028887166
 20
8.8050478477
 30
0.0
 10
13.2026040324
 20
8.8444135222
 30
0.0
 10
13.2031266201
 20
8.8943429719
 30
0.0
 10
13.2051249866
 20
8.9548407207
 30
0.0
 10
13.208483286
 20
9.0157826388
 30
0.0
 10
13.2131758973
 20
9.076702305
 30
0.0
 10
13.2191668749
 20
9.1371334804
 30
0.0
 10
13.2252322281
 20
9.186942729
 30
0.0
 10
13.2307082138
 20
9.2261892909
 30
0.0
 10
13.2350880665
 20
9.2550712873
 30
0.0
 10
13.2397523805
 20
9.2834892585
 30
0.0
 10
13.2446922359
 20
9.3113888267
 30
0.0
 10
13.2498981229
 20
9.3387165679
 30
0.0
 10
13.2553600386
 20
9.3654201715
 30
0.0
 10
13.2610674877
 20
9.39144852
 30
0.0
 10
13.2670095049
 20
9.4167518018
 30
0.0
 10
13.2731746525
 20
9.4412816156
 30
0.0
 10
13.279551069
 20
9.4649910579
 30
0.0
 10
13.2861264875
 20
9.4878348068
 30
0.0
 10
13.2928882666
 20
9.5097692203
 30
0.0
 10
13.299823387
 20
9.5307524414
 30
0.0
 10
13.3069185004
 20
9.5507444771
 30
0.0
 10
13.3141599628
 20
9.5697072821
 30
0.0
 10
13.3215338711
 20
9.5876048091
 30
0.0
 10
13.3290260949
 20
9.6044032461
 30
0.0
 10
13.3366222761
 20
9.6200706547
 30
0.0
 10
13.343125019
 20
9.6323453748
 30
0.0
 10
13.3483783822
 20
9.641563777
 30
0.0
 10
13.3522734615
 20
9.6480678492
 30
0.0
 10
13.3561836867
 20
9.6542678743
 30
0.0
 10
13.3601071837
 20
9.6601609364
 30
0.0
 10
13.3640420793
 20
9.6657442449
 30
0.0
 10
13.3679866035
 20
9.6710151624
 30
0.0
 10
13.3719389044
 20
9.6759712919
 30
0.0
 10
13.375897257
 20
9.6806102796
 30
0.0
 10
13.3798595665
 20
9.6849297265
 30
0.0
 10
13.3825561119
 20
9.6876490495
 30
0.0
 10
13.3839050798
 20
9.6889520524
 30
0.0
  0
SPLINE
  5
37A
100
AcDbEntity
  8
0
100
AcDbSpline
 62
7
  6
CONTINUOUS
 70
0
 71
3
 72
15
 73
11
 74
0
 42
0.0000001
 43
0.0000001
 44
0.0000000001
 40
0.0
 40
0.0
 40
0.0
 40
0.0
 40
0.1084409689
 40
0.2203200574
 40
0.3363916714
 40
0.4573220485
 40
0.5836914378
 40
0.7159983307
 40
0.8546576762
 40
1.0
 40
1.0
 40
1.0
 40
1.0
 10
13.4201397515
 20
9.7102910508
 30
0.0
 10
13.4186308666
 20
9.7099830524
 30
0.0
 10
13.4155934793
 20
9.7092107443
 30
0.0
 10
13.4110814042
 20
9.7076246172
 30
0.0
 10
13.4065546887
 20
9.7055974125
 30
0.0
 10
13.4020165598
 20
9.7031312118
 30
0.0
 10
13.397469321
 20
9.7002280747
 30
0.0
 10
13.3929154033
 20
9.6968901445
 30
0.0
 10
13.3883575845
 20
9.6931199626
 30
0.0
 10
13.3853896535
 20
9.6903860406
 30
0.0
 10
13.3839050798
 20
9.6889520524
 30
0.0
  0
SPLINE
  5
37B
100
AcDbEntity
  8
0
100
AcDbSpline
 62
7
  6
CONTINUOUS
 70
0
 71
3
 72
15
 73
11
 74
0
 42
0.0000001
 43
0.0000001
 44
0.0000000001
 40
0.0
 40
0.0
 40
0.0
 40
0.0
 40
0.1217348158
 40
0.246259833
 40
0.3726597369
 40
0.5000014137
 40
0.6273429062
 40
0.7537422689
 40
0.878266412
 40
1.0
 40
1.0
 40
1.0
 40
1.0
 10
13.3040135779
 20
10.9821493444
 30
0.0
 10
13.3051731
 20
10.9892537207
 30
0.0
 10
13.3073366434
 20
11.0036555742
 30
0.0
 10
13.3100937356
 20
11.0255202678
 30
0.0
 10
13.3123853278
 20
11.0477720243
 30
0.0
 10
13.3141932396
 20
11.0702352976
 30
0.0
 10
13.3155031921
 20
11.0927330703
 30
0.0
 10
13.3163048973
 20
11.1150880496
 30
0.0
 10
13.3165921339
 20
11.137123861
 30
0.0
 10
13.3164371544
 20
11.1516863701
 30
0.0
 10
13.316269327
 20
11.1588827193
 30
0.0
  0
SPLINE
  5
37C
100
AcDbEntity
  8
0
100
AcDbSpline
 62
7
  6
CONTINUOUS
 70
0
 71
3
 72
17
 73
13
 74
0
 42
0.0000001
 43
0.0000001
 44
0.0000000001
 40
0.0
 40
0.0
 40
0.0
 40
0.0
 40
0.1504746818
 40
0.2917308329
 40
0.4244675419
 40
0.4879384983
 40
0.5496413146
 40
0.6683011746
 40
0.781834
 40
0.8918017087
 40
0.946016262
 40
1.0
 40
1.0
 40
1.0
 40
1.0
 10
13.4148147088
 20
10.5880173117
 30
0.0
 10
13.4134238141
 20
10.5866738105
 30
0.0
 10
13.410643869
 20
10.5841529912
 30
0.0
 10
13.4063394418
 20
10.5807936382
 30
0.0
 10
13.4027035873
 20
10.5784177327
 30
0.0
 10
13.3998043226
 20
10.5768088294
 30
0.0
 10
13.3969904268
 20
10.5754275449
 30
0.0
 10
13.3934716876
 20
10.5740318279
 30
0.0
 10
13.3892121675
 20
10.5728983699
 30
0.0
 10
13.3856633882
 20
10.5724245514
 30
0.0
 10
13.382859423
 20
10.5723345472
 30
0.0
 10
13.3814684948
 20
10.5723837281
 30
0.0
 10
13.3807763939
 20
10.5724317227
 30
0.0
  0
SPLINE
  5
37D
100
AcDbEntity
  8
0
100
AcDbSpline
 62
7
  6
CONTINUOUS
 70
0
 71
3
 72
86
 73
82
 74
0
 42
0.0000001
 43
0.0000001
 44
0.0000000001
 40
0.0
 40
0.0
 40
0.0
 40
0.0
 40
0.003929313
 40
0.0080210106
 40
0.0122785768
 40
0.0167049733
 40
0.0213026963
 40
0.0260736767
 40
0.0310192139
 40
0.036140192
 40
0.0414370673
 40
0.046909952
 40
0.0525586373
 40
0.058382569
 40
0.0643809668
 40
0.0705527508
 40
0.0834107568
 40
0.0969441742
 40
0.1111371575
 40
0.1259712351
 40
0.141425603
 40
0.1574773607
 40
0.1741017183
 40
0.191272176
 40
0.2089606766
 40
0.2271377412
 40
0.2457725915
 40
0.2648332604
 40
0.2842867058
 40
0.3040989156
 40
0.3242350051
 40
0.3446593127
 40
0.365335491
 40
0.3862265986
 40
0.407295195
 40
0.4285034295
 40
0.4498131302
 40
0.4925825174
 40
0.535295546
 40
0.5565349246
 40
0.5776449347
 40
0.598587628
 40
0.6193254447
 40
0.639821303
 40
0.6600386878
 40
0.679941742
 40
0.6994953582
 40
0.7186652769
 40
0.7374181883
 40
0.7557218299
 40
0.7735450915
 40
0.7908581279
 40
0.80763248
 40
0.8238412137
 40
0.8394590688
 40
0.854462621
 40
0.8688304761
 40
0.8825435004
 40
0.8955851016
 40
0.9079415845
 40
0.9138597667
 40
0.9196030798
 40
0.9251708682
 40
0.9305627132
 40
0.935778555
 40
0.9408186604
 40
0.9456836759
 40
0.9503747089
 40
0.9548932986
 40
0.9592415721
 40
0.9634222243
 40
0.9674386451
 40
0.9712950063
 40
0.9749963122
 40
0.9785485883
 40
0.9819589111
 40
0.9883853088
 40
0.9914250489
 40
0.9943644337
 40
0.997217552
 40
1.0
 40
1.0
 40
1.0
 40
1.0
 10
13.3839050798
 20
8.0821343452
 30
0.0
 10
13.3857660356
 20
8.0839318906
 30
0.0
 10
13.3894860018
 20
8.0876836323
 30
0.0
 10
13.3949518476
 20
8.0936436433
 30
0.0
 10
13.4004121553
 20
8.1000453895
 30
0.0
 10
13.4058641133
 20
8.1068855429
 30
0.0
 10
13.4113053035
 20
8.1141609007
 30
0.0
 10
13.4167331722
 20
8.1218681053
 30
0.0
 10
13.4221452634
 20
8.1300034787
 30
0.0
 10
13.4275389096
 20
8.1385631875
 30
0.0
 10
13.4329115902
 20
8.1475431264
 30
0.0
 10
13.4382607459
 20
8.1569390248
 30
0.0
 10
13.4435837876
 20
8.1667464213
 30
0.0
 10
13.4488782285
 20
8.1769606063
 30
0.0
 10
13.454141485
 20
8.1875767355
 30
0.0
 10
13.461210922
 20
8.2024645297
 30
0.0
 10
13.4699363691
 20
8.22205485
 30
0.0
 10
13.4801050671
 20
8.2467716776
 30
0.0
 10
13.4900902946
 20
8.2729604381
 30
0.0
 10
13.4998727713
 20
8.3005709301
 30
0.0
 10
13.5094335997
 20
8.3295504476
 30
0.0
 10
13.5187543043
 20
8.3598434811
 30
0.0
 10
13.5278168736
 20
8.3913919612
 30
0.0
 10
13.5366037919
 20
8.4241353555
 30
0.0
 10
13.5450980784
 20
8.4580108049
 30
0.0
 10
13.5532833192
 20
8.492953247
 30
0.0
 10
13.5611436985
 20
8.5288955424
 30
0.0
 10
13.5686640409
 20
8.5657686048
 30
0.0
 10
13.5758298288
 20
8.603501542
 30
0.0
 10
13.5826272311
 20
8.6420217992
 30
0.0
 10
13.5890431296
 20
8.6812553001
 30
0.0
 10
13.5950651426
 20
8.7211265888
 30
0.0
 10
13.6006816516
 20
8.7615589726
 30
0.0
 10
13.6058818332
 20
8.8024746759
 30
0.0
 10
13.6106556531
 20
8.8437949721
 30
0.0
 10
13.6149939497
 20
8.8854404243
 30
0.0
 10
13.6201923825
 20
8.941359521
 30
0.0
 10
13.6255443905
 20
9.0114811092
 30
0.0
 10
13.6293591017
 20
9.0816567738
 30
0.0
 10
13.6314695982
 20
9.1376291278
 30
0.0
 10
13.6325738677
 20
9.1792914284
 30
0.0
 10
13.6332004442
 20
9.2206333242
 30
0.0
 10
13.6333481139
 20
9.2615753394
 30
0.0
 10
13.6330166294
 20
9.3020386982
 30
0.0
 10
13.6322066574
 20
9.3419455697
 30
0.0
 10
13.6309197918
 20
9.3812191911
 30
0.0
 10
13.6291585467
 20
9.4197840241
 30
0.0
 10
13.6269263564
 20
9.4575659028
 30
0.0
 10
13.6242275763
 20
9.4944921819
 30
0.0
 10
13.6210674642
 20
9.530491876
 30
0.0
 10
13.6174521722
 20
9.5654957961
 30
0.0
 10
13.6133887358
 20
9.5994366843
 30
0.0
 10
13.608885058
 20
9.6322493511
 30
0.0
 10
13.6039499042
 20
9.6638708139
 30
0.0
 10
13.5985928834
 20
9.6942404242
 30
0.0
 10
13.5928244205
 20
9.7233000014
 30
0.0
 10
13.5866557335
 20
9.7509939164
 30
0.0
 10
13.5800988086
 20
9.7772693526
 30
0.0
 10
13.57316635
 20
9.80207597
 30
0.0
 10
13.5670021805
 20
9.8217582926
 30
0.0
 10
13.5618784851
 20
9.8367212588
 30
0.0
 10
13.5580054802
 20
9.8473854271
 30
0.0
 10
13.5540488963
 20
9.8576483134
 30
0.0
 10
13.5500105053
 20
9.8675050175
 30
0.0
 10
13.5458923009
 20
9.8769508505
 30
0.0
 10
13.5416962304
 20
9.8859813188
 30
0.0
 10
13.5374242432
 20
9.8945921172
 30
0.0
 10
13.5330784342
 20
9.9027791945
 30
0.0
 10
13.5286607398
 20
9.9105386384
 30
0.0
 10
13.5241733013
 20
9.9178668213
 30
0.0
 10
13.5196181312
 20
9.9247602732
 30
0.0
 10
13.5149973038
 20
9.9312157263
 30
0.0
 10
13.5103129086
 20
9.9372302138
 30
0.0
 10
13.5055670497
 20
9.9428006778
 30
0.0
 10
13.5007613888
 20
9.947925006
 30
0.0
 10
13.4944040983
 20
9.9540366992
 30
0.0
 10
13.4878091041
 20
9.9594054684
 30
0.0
 10
13.4809863356
 20
9.963907238
 30
0.0
 10
13.4759142011
 20
9.9667636529
 30
0.0
 10
13.470795776
 20
9.9691599992
 30
0.0
 10
13.4673163464
 20
9.9704638737
 30
0.0
 10
13.4655752757
 20
9.9710343916
 30
0.0
  0
SPLINE
  5
37E
100
AcDbEntity
  8
0
100
AcDbSpline
 62
7
  6
CONTINUOUS
 70
0
 71
3
 72
85
 73
81
 74
0
 42
0.0000001
 43
0.0000001
 44
0.0000000001
 40
0.0
 40
0.0
 40
0.0
 40
0.0
 40
0.0028080002
 40
0.0056356852
 40
0.0085022927
 40
0.0114262241
 40
0.0144246975
 40
0.0175135618
 40
0.024014741
 40
0.0274544582
 40
0.0310326244
 40
0.0347576794
 40
0.0386367818
 40
0.0426760129
 40
0.046880437
 40
0.0512542236
 40
0.0558007827
 40
0.0605227731
 40
0.0654222815
 40
0.0705007965
 40
0.0757593288
 40
0.0811984517
 40
0.0868183013
 40
0.0926187017
 40
0.0985990923
 40
0.1110957866
 40
0.1242990552
 40
0.13819522
 40
0.1527673431
 40
0.1679956325
 40
0.1838577577
 40
0.2003291251
 40
0.2173830991
 40
0.2349912041
 40
0.2531232914
 40
0.2717476846
 40
0.290831326
 40
0.31033989
 40
0.3302379217
 40
0.3504889453
 40
0.3710555739
 40
0.3918996212
 40
0.4129821988
 40
0.434263823
 40
0.455704522
 40
0.4989006551
 40
0.5422455567
 40
0.5854119627
 40
0.6068267299
 40
0.6280751247
 40
0.6491172498
 40
0.6699137283
 40
0.6904257909
 40
0.7106153881
 40
0.7304452921
 40
0.7498792003
 40
0.7688818537
 40
0.7874191531
 40
0.8054582806
 40
0.8229678293
 40
0.83991794
 40
0.8562804549
 40
0.872029097
 40
0.8871396664
 40
0.9015902789
 40
0.9153616316
 40
0.9284373431
 40
0.9408043809
 40
0.9467193925
 40
0.9524541841
 40
0.9580083152
 40
0.9633817224
 40
0.9685747178
 40
0.9735879981
 40
0.9784227492
 40
0.9830806289
 40
0.9875639997
 40
0.9918758774
 40
0.9960198232
 40
1.0
 40
1.0
 40
1.0
 40
1.0
 10
11.1932963171
 20
11.7132039592
 30
0.0
 10
11.1932963247
 20
11.7147522681
 30
0.0
 10
11.1931607215
 20
11.7178614145
 30
0.0
 10
11.192551504
 20
11.7225152686
 30
0.0
 10
11.1915369109
 20
11.7271634476
 30
0.0
 10
11.190117888
 20
11.7318025952
 30
0.0
 10
11.1882957551
 20
11.736430505
 30
0.0
 10
11.1852798978
 20
11.742688012
 30
0.0
 10
11.1814814278
 20
11.7488147307
 30
0.0
 10
11.1770081565
 20
11.7547805861
 30
0.0
 10
11.173195005
 20
11.7593178159
 30
0.0
 10
11.1689895795
 20
11.7638301734
 30
0.0
 10
11.16439379
 20
11.7683162306
 30
0.0
 10
11.1594100113
 20
11.7727736973
 30
0.0
 10
11.1540407334
 20
11.7772005437
 30
0.0
 10
11.1482886553
 20
11.781594681
 30
0.0
 10
11.1421565946
 20
11.7859539272
 30
0.0
 10
11.1356476507
 20
11.7902762488
 30
0.0
 10
11.1287650185
 20
11.7945594415
 30
0.0
 10
11.1215121574
 20
11.798801444
 30
0.0
 10
11.1138926796
 20
11.8030001345
 30
0.0
 10
11.105910385
 20
11.8071533897
 30
0.0
 10
11.0975692964
 20
11.8112591829
 30
0.0
 10
11.0888735592
 20
11.8153154118
 30
0.0
 10
11.0766322788
 20
11.8207344916
 30
0.0
 10
11.0604626247
 20
11.827354377
 30
0.0
 10
11.0399923597
 20
11.8349567254
 30
0.0
 10
11.0182215588
 20
11.8423142809
 30
0.0
 10
10.9951940573
 20
11.8494121061
 30
0.0
 10
10.9709559833
 20
11.8562357696
 30
0.0
 10
10.9455561028
 20
11.8627713785
 30
0.0
 10
10.9190455752
 20
11.869005626
 30
0.0
 10
10.891477864
 20
11.874925814
 30
0.0
 10
10.8629086061
 20
11.8805198818
 30
0.0
 10
10.8333954947
 20
11.8857764352
 30
0.0
 10
10.8029981549
 20
11.890684766
 30
0.0
 10
10.7717780274
 20
11.8952348795
 30
0.0
 10
10.739798234
 20
11.8994175185
 30
0.0
 10
10.7071234475
 20
11.9032241718
 30
0.0
 10
10.6738197536
 20
11.906647095
 30
0.0
 10
10.6399545185
 20
11.9096793231
 30
0.0
 10
10.6055962471
 20
11.912314688
 30
0.0
 10
10.5708144695
 20
11.9145478199
 30
0.0
 10
10.5356795016
 20
11.9163742195
 30
0.0
 10
10.4883416404
 20
11.9182665844
 30
0.0
 10
10.4288100391
 20
11.9195882762
 30
0.0
 10
10.3572843544
 20
11.9195128259
 30
0.0
 10
10.2977863625
 20
11.9180653601
 30
0.0
 10
10.2505016734
 20
11.9160725756
 30
0.0
 10
10.215425647
 20
11.9141719165
 30
0.0
 10
10.1807156652
 20
11.9118652855
 30
0.0
 10
10.1464418981
 20
11.9091573361
 30
0.0
 10
10.1126737007
 20
11.9060535888
 30
0.0
 10
10.0794793805
 20
11.9025603547
 30
0.0
 10
10.0469260831
 20
11.8986847408
 30
0.0
 10
10.0150796492
 20
11.894434631
 30
0.0
 10
9.9840044797
 20
11.8898186709
 30
0.0
 10
9.9537633984
 20
11.8848462585
 30
0.0
 10
9.9244175214
 20
11.8795275211
 30
0.0
 10
9.8960261335
 20
11.8738732908
 30
0.0
 10
9.8686465656
 20
11.8678950847
 30
0.0
 10
9.8423340706
 20
11.8616050795
 30
0.0
 10
9.8171417047
 20
11.8550160841
 30
0.0
 10
9.7931201887
 20
11.8481415203
 30
0.0
 10
9.7703178357
 20
11.8409953827
 30
0.0
 10
9.7487802984
 20
11.833592194
 30
0.0
 10
9.7285509329
 20
11.8259469766
 30
0.0
 10
9.7125880661
 20
11.8192920679
 30
0.0
 10
9.7005161306
 20
11.8138462309
 30
0.0
 10
9.6919488611
 20
11.8097717385
 30
0.0
 10
9.6837377751
 20
11.8056484533
 30
0.0
 10
9.6758869687
 20
11.8014784208
 30
0.0
 10
9.668400364
 20
11.797263753
 30
0.0
 10
9.6612817374
 20
11.793006494
 30
0.0
 10
9.6545346176
 20
11.7887088612
 30
0.0
 10
9.6481623865
 20
11.7843728853
 30
0.0
 10
9.6421681451
 20
11.7800006972
 30
0.0
 10
9.6365548352
 20
11.7755943187
 30
0.0
 10
9.631325538
 20
11.7711561213
 30
0.0
 10
9.6280318968
 20
11.7681174647
 30
0.0
 10
9.6264533936
 20
11.7665927477
 30
0.0
  0
SPLINE
  5
37F
100
AcDbEntity
  8
0
100
AcDbSpline
 62
7
  6
CONTINUOUS
 70
0
 71
3
 72
15
 73
11
 74
0
 42
0.0000001
 43
0.0000001
 44
0.0000000001
 40
0.0
 40
0.0
 40
0.0
 40
0.0
 40
0.1456693996
 40
0.2845165444
 40
0.4168888948
 40
0.5432246679
 40
0.6640471822
 40
0.779966748
 40
0.891685282
 40
1.0
 40
1.0
 40
1.0
 40
1.0
 10
13.3839050798
 20
8.0821343452
 30
0.0
 10
13.3818244656
 20
8.0801246261
 30
0.0
 10
13.3776650413
 20
8.0762964362
 30
0.0
 10
13.3712746404
 20
8.0710266371
 30
0.0
 10
13.3648898695
 20
8.0663743147
 30
0.0
 10
13.3585147331
 20
8.0623430521
 30
0.0
 10
13.352152672
 20
8.0589360693
 30
0.0
 10
13.3458071421
 20
8.0561562602
 30
0.0
 10
13.3394827659
 20
8.0540069483
 30
0.0
 10
13.3352271294
 20
8.0529827867
 30
0.0
 10
13.3331138095
 20
8.0525822661
 30
0.0
  0
SPLINE
  5
380
100
AcDbEntity
  8
0
100
AcDbSpline
 62
7
  6
CONTINUOUS
 70
0
 71
3
 72
23
 73
19
 74
0
 42
0.0000001
 43
0.0000001
 44
0.0000000001
 40
0.0
 40
0.0
 40
0.0
 40
0.0
 40
0.0781366256
 40
0.1532314921
 40
0.2254044528
 40
0.2947999486
 40
0.3615917484
 40
0.4259788933
 40
0.4881872746
 40
0.5484705101
 40
0.6071104664
 40
0.6644173581
 40
0.7207256504
 40
0.7763896105
 40
0.8317771081
 40
0.8872618933
 40
0.9432156738
 40
1.0
 40
1.0
 40
1.0
 40
1.0
 10
13.3839050798
 20
8.3366558155
 30
0.0
 10
13.3826476883
 20
8.3354412685
 30
0.0
 10
13.380133646
 20
8.3331086102
 30
0.0
 10
13.376287102
 20
8.329844555
 30
0.0
 10
13.3724431048
 20
8.3268879124
 30
0.0
 10
13.3686033878
 20
8.324240366
 30
0.0
 10
13.3647695629
 20
8.3219031244
 30
0.0
 10
13.3609430848
 20
8.3198774386
 30
0.0
 10
13.3571255215
 20
8.3181644245
 30
0.0
 10
13.3533185225
 20
8.316765131
 30
0.0
 10
13.349523769
 20
8.3156807126
 30
0.0
 10
13.3457431346
 20
8.3149119718
 30
0.0
 10
13.3419785666
 20
8.314459663
 30
0.0
 10
13.3382321519
 20
8.3143243854
 30
0.0
 10
13.3345061041
 20
8.3145062408
 30
0.0
 10
13.3308025676
 20
8.3150052885
 30
0.0
 10
13.3271240233
 20
8.3158210132
 30
0.0
 10
13.3247116439
 20
8.3165686589
 30
0.0
 10
13.3235138418
 20
8.3169921491
 30
0.0
  0
SPLINE
  5
381
100
AcDbEntity
  8
0
100
AcDbSpline
 62
7
  6
CONTINUOUS
 70
0
 71
3
 72
15
 73
11
 74
0
 42
0.0000001
 43
0.0000001
 44
0.0000000001
 40
0.0
 40
0.0
 40
0.0
 40
0.0
 40
0.127348315
 40
0.2538606239
 40
0.3795878599
 40
0.5046051181
 40
0.6290174391
 40
0.7529533757
 40
0.8765605793
 40
1.0
 40
1.0
 40
1.0
 40
1.0
 10
11.4385919827
 20
10.2616644864
 30
0.0
 10
11.4385919827
 20
10.2681628524
 30
0.0
 10
11.4392124482
 20
10.2811259082
 30
0.0
 10
11.4420184206
 20
10.3003211679
 30
0.0
 10
11.446671201
 20
10.3190341246
 30
0.0
 10
11.4531287502
 20
10.3370897766
 30
0.0
 10
11.461331864
 20
10.3543216003
 30
0.0
 10
11.4712057193
 20
10.3705704894
 30
0.0
 10
11.4826574734
 20
10.3856842073
 30
0.0
 10
11.491280064
 20
10.3949165335
 30
0.0
 10
11.4958105741
 20
10.3992926782
 30
0.0
  0
SPLINE
  5
382
100
AcDbEntity
  8
0
100
AcDbSpline
 62
7
  6
CONTINUOUS
 70
0
 71
3
 72
15
 73
11
 74
0
 42
0.0000001
 43
0.0000001
 44
0.0000000001
 40
0.0
 40
0.0
 40
0.0
 40
0.0
 40
0.127348315
 40
0.2538606239
 40
0.3795878599
 40
0.5046051181
 40
0.6290174391
 40
0.7529533757
 40
0.8765605793
 40
1.0
 40
1.0
 40
1.0
 40
1.0
 10
9.5067402157
 20
6.0489723857
 30
0.0
 10
9.5067402157
 20
6.0554707516
 30
0.0
 10
9.5073606811
 20
6.0684338074
 30
0.0
 10
9.5101666536
 20
6.0876290671
 30
0.0
 10
9.5148194339
 20
6.1063420239
 30
0.0
 10
9.5212769832
 20
6.1243976758
 30
0.0
 10
9.529480097
 20
6.1416294995
 30
0.0
 10
9.5393539522
 20
6.1578783886
 30
0.0
 10
9.5508057063
 20
6.1729921065
 30
0.0
 10
9.559428297
 20
6.1822244328
 30
0.0
 10
9.563958807
 20
6.1866005775
 30
0.0
  0
SPLINE
  5
383
100
AcDbEntity
  8
0
100
AcDbSpline
 62
7
  6
CONTINUOUS
 70
0
 71
3
 72
85
 73
81
 74
0
 42
0.0000001
 43
0.0000001
 44
0.0000000001
 40
0.0
 40
0.0
 40
0.0
 40
0.0
 40
0.0040523132
 40
0.0082800586
 40
0.012687107
 40
0.0172766976
 40
0.0220515287
 40
0.0270136709
 40
0.0321644567
 40
0.0375047323
 40
0.0430348704
 40
0.0487548259
 40
0.0546642229
 40
0.0607622717
 40
0.0735193565
 40
0.0870147767
 40
0.1012327724
 40
0.116154216
 40
0.1317570291
 40
0.1480165025
 40
0.1649055819
 40
0.1823951061
 40
0.2004540051
 40
0.2190494741
 40
0.2381471209
 40
0.2577111186
 40
0.2777043474
 40
0.2980885222
 40
0.3188243129
 40
0.3398714579
 40
0.3611888839
 40
0.3827348247
 40
0.4263416346
 40
0.4703488554
 40
0.5144086288
 40
0.5581725713
 40
0.5798358349
 40
0.6012960488
 40
0.6225110822
 40
0.6434394295
 40
0.6640403257
 40
0.6842738677
 40
0.704101126
 40
0.7234842621
 40
0.7423866525
 40
0.7607730229
 40
0.7786095977
 40
0.7958642408
 40
0.8125066169
 40
0.828508374
 40
0.8438433585
 40
0.8584878757
 40
0.8724209751
 40
0.8856248089
 40
0.8980850902
 40
0.9040333293
 40
0.9097922914
 40
0.9153614672
 40
0.920740747
 40
0.9259304392
 40
0.9309312645
 40
0.9357445176
 40
0.9403720079
 40
0.9448162238
 40
0.9490803884
 40
0.9531685156
 40
0.9570856184
 40
0.9608377212
 40
0.9644320859
 40
0.9678773242
 40
0.9711835192
 40
0.9774235373
 40
0.9803901421
 40
0.9832753234
 40
0.9860978075
 40
0.9888777434
 40
0.9916362884
 40
0.9943951441
 40
0.9971759996
 40
1.0
 40
1.0
 40
1.0
 40
1.0
 10
13.3839050798
 20
8.3366558155
 30
0.0
 10
13.3853221444
 20
8.3380245949
 30
0.0
 10
13.3881546416
 20
8.3408872128
 30
0.0
 10
13.3923124112
 20
8.3454456169
 30
0.0
 10
13.3964655684
 20
8.3503556344
 30
0.0
 10
13.4006117496
 20
8.3556144728
 30
0.0
 10
13.4047489563
 20
8.3612194194
 30
0.0
 10
13.4088750508
 20
8.3671676549
 30
0.0
 10
13.4129879987
 20
8.3734560703
 30
0.0
 10
13.4170855896
 20
8.3800814136
 30
0.0
 10
13.4211656924
 20
8.387040216
 30
0.0
 10
13.4252262047
 20
8.3943288307
 30
0.0
 10
13.4292649724
 20
8.4019434851
 30
0.0
 10
13.4347001082
 20
8.4126878366
 30
0.0
 10
13.4414109476
 20
8.4269165683
 30
0.0
 10
13.449227584
 20
8.4449767441
 30
0.0
 10
13.4569078554
 20
8.4642328057
 30
0.0
 10
13.464435512
 20
8.4846443483
 30
0.0
 10
13.4717946111
 20
8.506168744
 30
0.0
 10
13.4789695605
 20
8.5287608405
 30
0.0
 10
13.4859451532
 20
8.5523731969
 30
0.0
 10
13.4927066001
 20
8.5769561725
 30
0.0
 10
13.4992395673
 20
8.6024580508
 30
0.0
 10
13.5055302023
 20
8.6288251482
 30
0.0
 10
13.5115651792
 20
8.6560019268
 30
0.0
 10
13.5173317186
 20
8.6839311195
 30
0.0
 10
13.5228176098
 20
8.7125538622
 30
0.0
 10
13.528011237
 20
8.7418098194
 30
0.0
 10
13.5329016052
 20
8.7716373147
 30
0.0
 10
13.5374783571
 20
8.8019734389
 30
0.0
 10
13.5417318574
 20
8.8327542605
 30
0.0
 10
13.5469808038
 20
8.8744668931
 30
0.0
 10
13.5526638007
 20
8.9272393464
 30
0.0
 10
13.5580446988
 20
8.9910365308
 30
0.0
 10
13.5619679929
 20
9.0550164409
 30
0.0
 10
13.564002333
 20
9.1082140469
 30
0.0
 10
13.5648683329
 20
9.1504495993
 30
0.0
 10
13.5651344663
 20
9.1817298602
 30
0.0
 10
13.5650189915
 20
9.2126537158
 30
0.0
 10
13.5645221415
 20
9.2431559946
 30
0.0
 10
13.5636450001
 20
9.2731723544
 30
0.0
 10
13.5623894588
 20
9.3026395037
 30
0.0
 10
13.5607582115
 20
9.3314953145
 30
0.0
 10
13.5587547486
 20
9.3596789553
 30
0.0
 10
13.5563833497
 20
9.3871310198
 30
0.0
 10
13.5536490765
 20
9.4137936613
 30
0.0
 10
13.5505577774
 20
9.4396107221
 30
0.0
 10
13.5471160583
 20
9.464527854
 30
0.0
 10
13.5433312713
 20
9.4884926331
 30
0.0
 10
13.5392114978
 20
9.5114546755
 30
0.0
 10
13.5347655285
 20
9.5333657719
 30
0.0
 10
13.5300028577
 20
9.5541799753
 30
0.0
 10
13.5249336454
 20
9.5738538411
 30
0.0
 10
13.5195686538
 20
9.5923460963
 30
0.0
 10
13.5147897925
 20
9.6069576968
 30
0.0
 10
13.5108146071
 20
9.6180154889
 30
0.0
 10
13.5078126117
 20
9.6258609536
 30
0.0
 10
13.5047453541
 20
9.6333832633
 30
0.0
 10
13.5016144089
 20
9.640578502
 30
0.0
 10
13.4984214586
 20
9.6474429309
 30
0.0
 10
13.4951680798
 20
9.6539729529
 30
0.0
 10
13.491856038
 20
9.6601652112
 30
0.0
 10
13.4884869649
 20
9.6660164775
 30
0.0
 10
13.485062584
 20
9.671523733
 30
0.0
 10
13.4815846509
 20
9.6766841606
 30
0.0
 10
13.4780547939
 20
9.6814950522
 30
0.0
 10
13.4744748343
 20
9.6859539712
 30
0.0
 10
13.4708463515
 20
9.6900585779
 30
0.0
 10
13.4671712216
 20
9.6938066099
 30
0.0
 10
13.4634505782
 20
9.6971964223
 30
0.0
 10
13.4585281952
 20
9.7011582527
 30
0.0
 10
13.4534183446
 20
9.704505659
 30
0.0
 10
13.4481526401
 20
9.7071317854
 30
0.0
 10
13.4442328132
 20
9.7087014729
 30
0.0
 10
13.4402792681
 20
9.709902101
 30
0.0
 10
13.4362943492
 20
9.7107327398
 30
0.0
 10
13.4322808401
 20
9.7111923413
 30
0.0
 10
13.4282415408
 20
9.7112805272
 30
0.0
 10
13.4241797455
 20
9.7109974469
 30
0.0
 10
13.4214850061
 20
9.7105656484
 30
0.0
 10
13.4201397515
 20
9.7102910508
 30
0.0
  0
SPLINE
  5
384
100
AcDbEntity
  8
0
100
AcDbSpline
 62
7
  6
CONTINUOUS
 70
0
 71
3
 72
59
 73
55
 74
0
 42
0.0000001
 43
0.0000001
 44
0.0000000001
 40
0.0
 40
0.0
 40
0.0
 40
0.0
 40
0.0083780804
 40
0.0173205474
 40
0.0268345657
 40
0.0369228858
 40
0.0475847458
 40
0.0588163311
 40
0.0706112796
 40
0.082960961
 40
0.0958547669
 40
0.1092803881
 40
0.1232239142
 40
0.137670016
 40
0.1526021182
 40
0.1680024315
 40
0.1838520857
 40
0.2001312498
 40
0.2168191382
 40
0.2338941226
 40
0.2513338202
 40
0.2691150953
 40
0.3056060405
 40
0.3431704011
 40
0.3816029923
 40
0.420692297
 40
0.4602221025
 40
0.4999730676
 40
0.5397242847
 40
0.5792548479
 40
0.6183454036
 40
0.6567797328
 40
0.694346318
 40
0.7308399381
 40
0.748622721
 40
0.7660640205
 40
0.7831407287
 40
0.7998304359
 40
0.8161115019
 40
0.831963172
 40
0.847365581
 40
0.8622998492
 40
0.8767482193
 40
0.8906940749
 40
0.9041220802
 40
0.9170183556
 40
0.9293705444
 40
0.941168034
 40
0.9524022196
 40
0.9630666902
 40
0.9731576225
 40
0.982674253
 40
0.9916193508
 40
1.0
 40
1.0
 40
1.0
 40
1.0
 10
13.2622274619
 20
8.3943112747
 30
0.0
 10
13.2645005199
 20
8.3970826435
 30
0.0
 10
13.2690291781
 20
8.4029533515
 30
0.0
 10
13.2755750279
 20
8.4123895222
 30
0.0
 10
13.2820840222
 20
8.4227266507
 30
0.0
 10
13.2885464618
 20
8.433949603
 30
0.0
 10
13.2949531145
 20
8.4460423072
 30
0.0
 10
13.3012946145
 20
8.4589871894
 30
0.0
 10
13.3075615918
 20
8.4727654136
 30
0.0
 10
13.3137447912
 20
8.487356804
 30
0.0
 10
13.319835071
 20
8.5027399342
 30
0.0
 10
13.3258233505
 20
8.518892185
 30
0.0
 10
13.3317007431
 20
8.5357897453
 30
0.0
 10
13.3374585272
 20
8.5534076725
 30
0.0
 10
13.3430881035
 20
8.5717199514
 30
0.0
 10
13.3485811121
 20
8.5906995055
 30
0.0
 10
13.3539293969
 20
8.6103182557
 30
0.0
 10
13.3591249694
 20
8.6305471757
 30
0.0
 10
13.3641601209
 20
8.6513563158
 30
0.0
 10
13.369027367
 20
8.6727148509
 30
0.0
 10
13.3737194753
 20
8.6945911765
 30
0.0
 10
13.379784963
 20
8.7246660569
 30
0.0
 10
13.3868641285
 20
8.7633164049
 30
0.0
 10
13.3944860546
 20
8.8108371934
 30
0.0
 10
13.4012607607
 20
8.8596086185
 30
0.0
 10
13.4071479047
 20
8.9093417314
 30
0.0
 10
13.4121123998
 20
8.9597420942
 30
0.0
 10
13.4161247078
 20
9.0105111943
 30
0.0
 10
13.4191610451
 20
9.0613483244
 30
0.0
 10
13.4212034669
 20
9.1119523682
 30
0.0
 10
13.4222399683
 20
9.1620235894
 30
0.0
 10
13.4222646576
 20
9.2112655179
 30
0.0
 10
13.4212776236
 20
9.2593863882
 30
0.0
 10
13.4196033013
 20
9.2986467497
 30
0.0
 10
13.4177488539
 20
9.329273559
 30
0.0
 10
13.416122503
 20
9.3515903019
 30
0.0
 10
13.4142512345
 20
9.3734185378
 30
0.0
 10
13.4121378076
 20
9.3947259596
 30
0.0
 10
13.4097853696
 20
9.4154810005
 30
0.0
 10
13.4071974689
 20
9.435652934
 30
0.0
 10
13.4043779663
 20
9.4552119001
 30
0.0
 10
13.4013310567
 20
9.4741289575
 30
0.0
 10
13.3980613319
 20
9.4923761379
 30
0.0
 10
13.3945736674
 20
9.5099264758
 30
0.0
 10
13.3908732558
 20
9.5267540576
 30
0.0
 10
13.3869656633
 20
9.5428340796
 30
0.0
 10
13.3828567039
 20
9.5581428683
 30
0.0
 10
13.3785524774
 20
9.5726579339
 30
0.0
 10
13.3740594202
 20
9.5863580291
 30
0.0
 10
13.3693841439
 20
9.5992231784
 30
0.0
 10
13.3645335105
 20
9.6112346686
 30
0.0
 10
13.359514515
 20
9.622375358
 30
0.0
 10
13.3543345501
 20
9.6326288523
 30
0.0
 10
13.3506600903
 20
9.6390713073
 30
0.0
 10
13.3487915798
 20
9.6421313442
 30
0.0
  0
SPLINE
  5
385
100
AcDbEntity
  8
0
100
AcDbSpline
 62
7
  6
CONTINUOUS
 70
0
 71
3
 72
51
 73
47
 74
0
 42
0.0000001
 43
0.0000001
 44
0.0000000001
 40
0.0
 40
0.0
 40
0.0
 40
0.0
 40
0.009870402
 40
0.0202238896
 40
0.0310567351
 40
0.0423636446
 40
0.0541378535
 40
0.066371297
 40
0.0790547991
 40
0.0921780549
 40
0.1057298833
 40
0.1196981471
 40
0.1340699411
 40
0.1488315962
 40
0.1794656673
 40
0.2114785632
 40
0.2447386901
 40
0.2791066316
 40
0.3144362553
 40
0.3505757473
 40
0.387368609
 40
0.4246546202
 40
0.4622707814
 40
0.5000522454
 40
0.5378332425
 40
0.5754480051
 40
0.6127316931
 40
0.6495213203
 40
0.6856566855
 40
0.7209813154
 40
0.7553434258
 40
0.7885969147
 40
0.8206024062
 40
0.8512283548
 40
0.8659857031
 40
0.8803530205
 40
0.8943166727
 40
0.9078637331
 40
0.9209821027
 40
0.9336605911
 40
0.9458889094
 40
0.9576579056
 40
0.9689595026
 40
0.9797869839
 40
0.9901350421
 40
1.0
 40
1.0
 40
1.0
 40
1.0
 10
13.2372073536
 20
8.4746074539
 30
0.0
 10
13.2390307101
 20
8.4777869662
 30
0.0
 10
13.24265709
 20
8.4843649123
 30
0.0
 10
13.2479220209
 20
8.4946270644
 30
0.0
 10
13.2531368173
 20
8.5055094013
 30
0.0
 10
13.2582952684
 20
8.5169992026
 30
0.0
 10
13.263391382
 20
8.5290831897
 30
0.0
 10
13.2684192124
 20
8.5417473105
 30
0.0
 10
13.2733728144
 20
8.5549768478
 30
0.0
 10
13.2782464471
 20
8.5687563781
 30
0.0
 10
13.2830343278
 20
8.5830698486
 30
0.0
 10
13.2877308781
 20
8.5979005469
 30
0.0
 10
13.2923306026
 20
8.6132311778
 30
0.0
 10
13.2984022376
 20
8.6345789832
 30
0.0
 10
13.3056927857
 20
8.6623873715
 30
0.0
 10
13.3138687868
 20
8.6970531923
 30
0.0
 10
13.3215379701
 20
8.7332529945
 30
0.0
 10
13.3286641907
 20
8.7708175901
 30
0.0
 10
13.3352138392
 20
8.8095715982
 30
0.0
 10
13.3411560734
 20
8.8493339029
 30
0.0
 10
13.3464629308
 20
8.8899186359
 30
0.0
 10
13.3511094626
 20
8.9311360342
 30
0.0
 10
13.3550738451
 20
8.9727933478
 30
0.0
 10
13.3583374816
 20
9.014695749
 30
0.0
 10
13.3608850861
 20
9.056647252
 30
0.0
 10
13.3627047616
 20
9.0984516386
 30
0.0
 10
13.3637880548
 20
9.1399133848
 30
0.0
 10
13.3641299941
 20
9.1808385854
 30
0.0
 10
13.3637291161
 20
9.2210358677
 30
0.0
 10
13.3625874797
 20
9.2603173058
 30
0.0
 10
13.3607106522
 20
9.2984992866
 30
0.0
 10
13.3581077258
 20
9.3354034986
 30
0.0
 10
13.3547911686
 20
9.3708574195
 30
0.0
 10
13.3514056813
 20
9.3993981585
 30
0.0
 10
13.3483363568
 20
9.4213730123
 30
0.0
 10
13.3458949678
 20
9.4371864921
 30
0.0
 10
13.3432887288
 20
9.452517985
 30
0.0
 10
13.3405206474
 20
9.4673496103
 30
0.0
 10
13.3375939906
 20
9.4816640528
 30
0.0
 10
13.33451224
 20
9.4954446214
 30
0.0
 10
13.3312789625
 20
9.5086752549
 30
0.0
 10
13.3278980359
 20
9.5213405656
 30
0.0
 10
13.3243733671
 20
9.5334258174
 30
0.0
 10
13.3207091216
 20
9.5449170491
 30
0.0
 10
13.3169096275
 20
9.5558008032
 30
0.0
 10
13.3142249419
 20
9.5628116424
 30
0.0
 10
13.3128574167
 20
9.5662100224
 30
0.0
  0
SPLINE
  5
386
100
AcDbEntity
  8
0
100
AcDbSpline
 62
7
  6
CONTINUOUS
 70
0
 71
3
 72
18
 73
14
 74
0
 42
0.0000001
 43
0.0000001
 44
0.0000000001
 40
0.0
 40
0.0
 40
0.0
 40
0.0
 40
0.1504673397
 40
0.291710036
 40
0.4244360001
 40
0.5495624032
 40
0.6682140019
 40
0.7255497517
 40
0.7817912955
 40
0.8371402647
 40
0.891809381
 40
0.9460201143
 40
1.0
 40
1.0
 40
1.0
 40
1.0
 10
13.4148147088
 20
8.0799907551
 30
0.0
 10
13.4120908127
 20
8.0773596734
 30
0.0
 10
13.4066468754
 20
8.0724230806
 30
0.0
 10
13.3982169902
 20
8.0658442184
 30
0.0
 10
13.3897969995
 20
8.0603419899
 30
0.0
 10
13.3813956284
 20
8.0559254389
 30
0.0
 10
13.3743343778
 20
8.0531248286
 30
0.0
 10
13.3687280479
 20
8.0514608875
 30
0.0
 10
13.3645830213
 20
8.0505018125
 30
0.0
 10
13.360451748
 20
8.0498182425
 30
0.0
 10
13.3563353808
 20
8.0494104536
 30
0.0
 10
13.3522355618
 20
8.0492786302
 30
0.0
 10
13.3495117588
 20
8.0493749548
 30
0.0
 10
13.348156395
 20
8.0494689434
 30
0.0
  0
SPLINE
  5
387
100
AcDbEntity
  8
0
100
AcDbSpline
 62
7
  6
CONTINUOUS
 70
0
 71
3
 72
41
 73
37
 74
0
 42
0.0000001
 43
0.0000001
 44
0.0000000001
 40
0.0
 40
0.0
 40
0.0
 40
0.0
 40
0.0299421216
 40
0.0449237656
 40
0.0599145167
 40
0.0899291718
 40
0.1200145985
 40
0.1350933583
 40
0.15019748
 40
0.1804849767
 40
0.2108989647
 40
0.2414525835
 40
0.2721557485
 40
0.3030149705
 40
0.3340332607
 40
0.3652101168
 40
0.3965415874
 40
0.4280204071
 40
0.4596361972
 40
0.491375723
 40
0.5232232003
 40
0.5551606452
 40
0.5871682559
 40
0.6192248239
 40
0.651308164
 40
0.683395559
 40
0.7154642111
 40
0.7474916947
 40
0.7794564051
 40
0.8113379906
 40
0.8431177849
 40
0.8747791545
 40
0.9063080011
 40
0.9376926887
 40
0.9689252949
 40
1.0
 40
1.0
 40
1.0
 40
1.0
 10
10.237222811
 20
7.4448347329
 30
0.0
 10
10.2337224055
 20
7.4414535724
 30
0.0
 10
10.2282654388
 20
7.4365867362
 30
0.0
 10
10.2206231147
 20
7.4305480016
 30
0.0
 10
10.2127373766
 20
7.4248098144
 30
0.0
 10
10.2024478203
 20
7.4182204558
 30
0.0
 10
10.1916579378
 20
7.4124567296
 30
0.0
 10
10.1827591296
 20
7.4083562944
 30
0.0
 10
10.1736764259
 20
7.4045945044
 30
0.0
 10
10.1620237844
 20
7.4005493839
 30
0.0
 10
10.1476636387
 20
7.3967794666
 30
0.0
 10
10.1329901534
 20
7.3941087381
 30
0.0
 10
10.118084638
 20
7.3925519533
 30
0.0
 10
10.1030289742
 20
7.3921174151
 30
0.0
 10
10.0879060022
 20
7.3928073371
 30
0.0
 10
10.0727988418
 20
7.394617734
 30
0.0
 10
10.0577905007
 20
7.3975384813
 30
0.0
 10
10.0429634074
 20
7.4015533696
 30
0.0
 10
10.0283989687
 20
7.4066402014
 30
0.0
 10
10.0141771278
 20
7.4127709146
 30
0.0
 10
10.0003759318
 20
7.41991174
 30
0.0
 10
9.9870711097
 20
7.4280233879
 30
0.0
 10
9.974335662
 20
7.4370612634
 30
0.0
 10
9.9622394656
 20
7.44697571
 30
0.0
 10
9.9508488949
 20
7.4577122802
 30
0.0
 10
9.9402264616
 20
7.4692120322
 30
0.0
 10
9.9304304755
 20
7.4814118499
 30
0.0
 10
9.9215147268
 20
7.4942447862
 30
0.0
 10
9.9135281961
 20
7.5076404256
 30
0.0
 10
9.9065147803
 20
7.5215252682
 30
0.0
 10
9.9005130711
 20
7.5358231191
 30
0.0
 10
9.8955561001
 20
7.5504555394
 30
0.0
 10
9.8916712523
 20
7.5653421196
 30
0.0
 10
9.8888799281
 20
7.5804014681
 30
0.0
 10
9.8871977233
 20
7.5955497268
 30
0.0
 10
9.8868209214
 20
7.6056809175
 30
0.0
 10
9.8868209214
 20
7.6107317379
 30
0.0
  0
SPLINE
  5
388
100
AcDbEntity
  8
0
100
AcDbSpline
 62
7
  6
CONTINUOUS
 70
0
 71
3
 72
18
 73
14
 74
0
 42
0.0000001
 43
0.0000001
 44
0.0000000001
 40
0.0
 40
0.0
 40
0.0
 40
0.0
 40
0.0617220549
 40
0.1234652104
 40
0.1852503729
 40
0.2470980157
 40
0.3090279471
 40
0.3710591842
 40
0.4954563564
 40
0.620458362
 40
0.7461703362
 40
0.8726671817
 40
1.0
 40
1.0
 40
1.0
 40
1.0
 10
9.9440397546
 20
7.7483601497
 30
0.0
 10
9.9417741399
 20
7.7461717156
 30
0.0
 10
9.9373538982
 20
7.7416766608
 30
0.0
 10
9.9310779569
 20
7.7346007179
 30
0.0
 10
9.9251695014
 20
7.7272066066
 30
0.0
 10
9.9196425635
 20
7.7195115772
 30
0.0
 10
9.914509599
 20
7.7115331112
 30
0.0
 10
9.9082020207
 20
7.7005339639
 30
0.0
 10
9.9013573951
 20
7.6861566149
 30
0.0
 10
9.8949002771
 20
7.6681016451
 30
0.0
 10
9.8902473504
 20
7.6493884587
 30
0.0
 10
9.8874413945
 20
7.6301932121
 30
0.0
 10
9.8868209214
 20
7.6172301184
 30
0.0
 10
9.8868209214
 20
7.6107317379
 30
0.0
  0
SPLINE
  5
389
100
AcDbEntity
  8
0
100
AcDbSpline
 62
7
  6
CONTINUOUS
 70
0
 71
3
 72
41
 73
37
 74
0
 42
0.0000001
 43
0.0000001
 44
0.0000000001
 40
0.0
 40
0.0
 40
0.0
 40
0.0
 40
0.0299421238
 40
0.0449237703
 40
0.059914519
 40
0.0899291762
 40
0.1200146048
 40
0.1350933663
 40
0.1501974853
 40
0.1804849834
 40
0.2108989722
 40
0.2414525913
 40
0.2721557558
 40
0.3030149766
 40
0.3340332647
 40
0.365210118
 40
0.396541585
 40
0.4280204007
 40
0.4596361866
 40
0.4913757084
 40
0.5232231826
 40
0.5551606251
 40
0.5871682346
 40
0.6192248024
 40
0.6513081434
 40
0.68339554
 40
0.7154641944
 40
0.7474916807
 40
0.7794563937
 40
0.8113379827
 40
0.8431177771
 40
0.8747791563
 40
0.9063079829
 40
0.9376927254
 40
0.9689252285
 40
1.0
 40
1.0
 40
1.0
 40
1.0
 10
11.7889941142
 20
10.0957677015
 30
0.0
 10
11.785493695
 20
10.0923865499
 30
0.0
 10
11.7800367714
 20
10.0875196562
 30
0.0
 10
11.7723944071
 20
10.0814809611
 30
0.0
 10
11.7645087152
 20
10.0757426992
 30
0.0
 10
11.7542191378
 20
10.0691533565
 30
0.0
 10
11.7434292799
 20
10.0633895617
 30
0.0
 10
11.7345304347
 20
10.0592891915
 30
0.0
 10
11.7254477644
 20
10.0555273052
 30
0.0
 10
11.7137951034
 20
10.0514822069
 30
0.0
 10
11.6994349574
 20
10.0477122576
 30
0.0
 10
11.6847614631
 20
10.0450415158
 30
0.0
 10
11.6698559396
 20
10.0434847153
 30
0.0
 10
11.6548002665
 20
10.0430501646
 30
0.0
 10
11.6396772847
 20
10.0437400752
 30
0.0
 10
11.6245701141
 20
10.0455504618
 30
0.0
 10
11.6095617623
 20
10.0484711993
 30
0.0
 10
11.5947346576
 20
10.0524860779
 30
0.0
 10
11.5801702064
 20
10.0575728994
 30
0.0
 10
11.5659483517
 20
10.0637036025
 30
0.0
 10
11.5521471409
 20
10.0708444187
 30
0.0
 10
11.538842303
 20
10.078956059
 30
0.0
 10
11.526106839
 20
10.0879939287
 30
0.0
 10
11.514010626
 20
10.0979083716
 30
0.0
 10
11.502620039
 20
10.1086449406
 30
0.0
 10
11.4919975901
 20
10.1201446936
 30
0.0
 10
11.4822015894
 20
10.1323445147
 30
0.0
 10
11.4732858278
 20
10.1451774564
 30
0.0
 10
11.4652992854
 20
10.158573103
 30
0.0
 10
11.4582858612
 20
10.1724579542
 30
0.0
 10
11.4522841425
 20
10.1867558149
 30
0.0
 10
11.4473271711
 20
10.2013882442
 30
0.0
 10
11.4434423103
 20
10.2162748396
 30
0.0
 10
11.4406509984
 20
10.2313341895
 30
0.0
 10
11.4389687793
 20
10.2464824598
 30
0.0
 10
11.4385919827
 20
10.2566136519
 30
0.0
 10
11.4385919827
 20
10.2616644864
 30
0.0
  0
SPLINE
  5
38A
100
AcDbEntity
  8
0
100
AcDbSpline
 62
7
  6
CONTINUOUS
 70
0
 71
3
 72
39
 73
35
 74
0
 42
0.0000001
 43
0.0000001
 44
0.0000000001
 40
0.0
 40
0.0
 40
0.0
 40
0.0
 40
0.0311159584
 40
0.0620233352
 40
0.0927351385
 40
0.1232711775
 40
0.1536587332
 40
0.1839312107
 40
0.2141268395
 40
0.244287099
 40
0.2744549757
 40
0.3046731314
 40
0.3349820893
 40
0.3654185446
 40
0.396013864
 40
0.426792882
 40
0.4577729977
 40
0.4889636199
 40
0.5203659696
 40
0.5519731789
 40
0.5837707176
 40
0.6157370646
 40
0.6478445906
 40
0.68006064
 40
0.7123487314
 40
0.7446698626
 40
0.7769838842
 40
0.8092508939
 40
0.8414326248
 40
0.8734937998
 40
0.9054034138
 40
0.9371358961
 40
0.9686718081
 40
1.0
 40
1.0
 40
1.0
 40
1.0
 10
10.3432320308
 20
7.560591042
 30
0.0
 10
10.3432320308
 20
7.5517738457
 30
0.0
 10
10.342371228
 20
7.5341858029
 30
0.0
 10
10.3384783037
 20
7.5081553774
 30
0.0
 10
10.3320246515
 20
7.4828049367
 30
0.0
 10
10.3230713605
 20
7.458382512
 30
0.0
 10
10.3117041694
 20
7.4351233937
 30
0.0
 10
10.2980321056
 20
7.4132529793
 30
0.0
 10
10.2821869376
 20
7.3929830043
 30
0.0
 10
10.2643217292
 20
7.3745097802
 30
0.0
 10
10.2446092217
 20
7.3580122348
 30
0.0
 10
10.2232403808
 20
7.3436497831
 30
0.0
 10
10.2004221342
 20
7.3315610375
 30
0.0
 10
10.1763753995
 20
7.3218623427
 30
0.0
 10
10.1513328555
 20
7.3146465023
 30
0.0
 10
10.1255364673
 20
7.3099823547
 30
0.0
 10
10.0992352267
 20
7.3079138085
 30
0.0
 10
10.0726826369
 20
7.3084596939
 30
0.0
 10
10.0461343251
 20
7.3116138525
 30
0.0
 10
10.0198455803
 20
7.3173448631
 30
0.0
 10
9.9940689769
 20
7.3255968317
 30
0.0
 10
9.9690520209
 20
7.33628979
 30
0.0
 10
9.945034733
 20
7.3493203488
 30
0.0
 10
9.9222475777
 20
7.3645630559
 30
0.0
 10
9.9009091301
 20
7.3818712363
 30
0.0
 10
9.8812240772
 20
7.401078554
 30
0.0
 10
9.8633814363
 20
7.4220006795
 30
0.0
 10
9.8475524736
 20
7.4444367593
 30
0.0
 10
9.8338893827
 20
7.4681715604
 30
0.0
 10
9.8225237387
 20
7.4929774651
 30
0.0
 10
9.8135650637
 20
7.5186161691
 30
0.0
 10
9.8071002131
 20
7.5448424684
 30
0.0
 10
9.8031918982
 20
7.5714011595
 30
0.0
 10
9.802313536
 20
7.589226531
 30
0.0
 10
9.802313536
 20
7.598103867
 30
0.0
  0
SPLINE
  5
38B
100
AcDbEntity
  8
0
100
AcDbSpline
 62
7
  6
CONTINUOUS
 70
0
 71
3
 72
41
 73
37
 74
0
 42
0.0000001
 43
0.0000001
 44
0.0000000001
 40
0.0
 40
0.0
 40
0.0
 40
0.0
 40
0.0299421238
 40
0.0449237703
 40
0.059914519
 40
0.0899291762
 40
0.1200146048
 40
0.1350933663
 40
0.1501974853
 40
0.1804849834
 40
0.2108989722
 40
0.2414525913
 40
0.2721557558
 40
0.3030149766
 40
0.3340332647
 40
0.365210118
 40
0.396541585
 40
0.4280204007
 40
0.4596361866
 40
0.4913757084
 40
0.5232231826
 40
0.5551606251
 40
0.5871682346
 40
0.6192248024
 40
0.6513081434
 40
0.68339554
 40
0.7154641944
 40
0.7474916807
 40
0.7794563937
 40
0.8113379827
 40
0.8431177771
 40
0.8747791563
 40
0.9063079829
 40
0.9376927254
 40
0.9689252285
 40
1.0
 40
1.0
 40
1.0
 40
1.0
 10
9.8571423472
 20
5.8830756007
 30
0.0
 10
9.8536419279
 20
5.8796944492
 30
0.0
 10
9.8481850043
 20
5.8748275554
 30
0.0
 10
9.8405426401
 20
5.8687888603
 30
0.0
 10
9.8326569482
 20
5.8630505985
 30
0.0
 10
9.8223673708
 20
5.8564612557
 30
0.0
 10
9.8115775129
 20
5.850697461
 30
0.0
 10
9.8026786677
 20
5.8465970907
 30
0.0
 10
9.7935959974
 20
5.8428352044
 30
0.0
 10
9.7819433363
 20
5.8387901061
 30
0.0
 10
9.7675831903
 20
5.8350201568
 30
0.0
 10
9.7529096961
 20
5.832349415
 30
0.0
 10
9.7380041726
 20
5.8307926145
 30
0.0
 10
9.7229484994
 20
5.8303580638
 30
0.0
 10
9.7078255177
 20
5.8310479744
 30
0.0
 10
9.6927183471
 20
5.8328583611
 30
0.0
 10
9.6777099953
 20
5.8357790986
 30
0.0
 10
9.6628828905
 20
5.8397939771
 30
0.0
 10
9.6483184393
 20
5.8448807986
 30
0.0
 10
9.6340965847
 20
5.8510115017
 30
0.0
 10
9.6202953739
 20
5.858152318
 30
0.0
 10
9.606990536
 20
5.8662639582
 30
0.0
 10
9.5942550719
 20
5.8753018279
 30
0.0
 10
9.582158859
 20
5.8852162709
 30
0.0
 10
9.570768272
 20
5.8959528398
 30
0.0
 10
9.560145823
 20
5.9074525929
 30
0.0
 10
9.5503498223
 20
5.919652414
 30
0.0
 10
9.5414340607
 20
5.9324853556
 30
0.0
 10
9.5334475184
 20
5.9458810022
 30
0.0
 10
9.5264340942
 20
5.9597658534
 30
0.0
 10
9.5204323754
 20
5.9740637142
 30
0.0
 10
9.5154754041
 20
5.9886961435
 30
0.0
 10
9.5115905432
 20
6.0035827388
 30
0.0
 10
9.5087992314
 20
6.0186420888
 30
0.0
 10
9.5071170122
 20
6.033790359
 30
0.0
 10
9.5067402157
 20
6.0439215511
 30
0.0
 10
9.5067402157
 20
6.0489723857
 30
0.0
  0
SPLINE
  5
38C
100
AcDbEntity
  8
0
100
AcDbSpline
 62
7
  6
CONTINUOUS
 70
0
 71
3
 72
28
 73
24
 74
0
 42
0.0000001
 43
0.0000001
 44
0.0000000001
 40
0.0
 40
0.0
 40
0.0
 40
0.0
 40
0.0749524859
 40
0.1455492802
 40
0.2121320353
 40
0.2751267841
 40
0.3350538581
 40
0.392531217
 40
0.4205832565
 40
0.4482964977
 40
0.4757714291
 40
0.5031113638
 40
0.5304213313
 40
0.5578067258
 40
0.5853719828
 40
0.6132193785
 40
0.6414477519
 40
0.6701516201
 40
0.7293157367
 40
0.7913812992
 40
0.8568968395
 40
0.9263174188
 40
1.0
 40
1.0
 40
1.0
 40
1.0
 10
9.5985742484
 20
11.6981282562
 30
0.0
 10
9.5961832658
 20
11.7003533061
 30
0.0
 10
9.5916728069
 20
11.7048204327
 30
0.0
 10
9.5855867592
 20
11.7117897599
 30
0.0
 10
9.5803969874
 20
11.7188142581
 30
0.0
 10
9.5761111722
 20
11.7258880429
 30
0.0
 10
9.5727365807
 20
11.7330040189
 30
0.0
 10
9.5706731591
 20
11.7390139298
 30
0.0
 10
9.5695014211
 20
11.7438102008
 30
0.0
 10
9.5688595681
 20
11.7473827286
 30
0.0
 10
9.56844812
 20
11.7509577911
 30
0.0
 10
9.5682672342
 20
11.7545343717
 30
0.0
 10
9.5683170545
 20
11.7581112764
 30
0.0
 10
9.5685974744
 20
11.761687347
 30
0.0
 10
9.5691083851
 20
11.7652614407
 30
0.0
 10
9.5698496082
 20
11.7688323881
 30
0.0
 10
9.5708208186
 20
11.772399197
 30
0.0
 10
9.5724377432
 20
11.7771955131
 30
0.0
 10
9.5750594102
 20
11.7831958865
 30
0.0
 10
9.5790868991
 20
11.7902818659
 30
0.0
 10
9.5840206357
 20
11.7973212084
 30
0.0
 10
9.5898527241
 20
11.8043066237
 30
0.0
 10
9.5942003097
 20
11.8087854491
 30
0.0
 10
9.5965096912
 20
11.8110161405
 30
0.0
  0
SPLINE
  5
38D
100
AcDbEntity
  8
0
100
AcDbSpline
 62
7
  6
CONTINUOUS
 70
0
 71
3
 72
39
 73
35
 74
0
 42
0.0000001
 43
0.0000001
 44
0.0000000001
 40
0.0
 40
0.0
 40
0.0
 40
0.0
 40
0.0311159584
 40
0.0620233352
 40
0.0927351385
 40
0.1232711775
 40
0.1536587332
 40
0.1839312107
 40
0.2141268395
 40
0.244287099
 40
0.2744549757
 40
0.3046731314
 40
0.3349820893
 40
0.3654185446
 40
0.396013864
 40
0.426792882
 40
0.4577729977
 40
0.4889636199
 40
0.5203659696
 40
0.5519731789
 40
0.5837707176
 40
0.6157370646
 40
0.6478445906
 40
0.68006064
 40
0.7123487314
 40
0.7446698626
 40
0.7769838842
 40
0.8092508939
 40
0.8414326248
 40
0.8734937998
 40
0.9054034138
 40
0.9371358961
 40
0.9686718081
 40
1.0
 40
1.0
 40
1.0
 40
1.0
 10
9.802313536
 20
7.598103867
 30
0.0
 10
9.802313536
 20
7.6069210633
 30
0.0
 10
9.8031743389
 20
7.6245091061
 30
0.0
 10
9.8070672632
 20
7.6505395316
 30
0.0
 10
9.8135209153
 20
7.6758899723
 30
0.0
 10
9.8224742063
 20
7.700312397
 30
0.0
 10
9.8338413974
 20
7.7235715153
 30
0.0
 10
9.8475134613
 20
7.7454419297
 30
0.0
 10
9.8633586292
 20
7.7657119048
 30
0.0
 10
9.8812238376
 20
7.7841851288
 30
0.0
 10
9.9009363451
 20
7.8006826743
 30
0.0
 10
9.9223051861
 20
7.815045126
 30
0.0
 10
9.9451234326
 20
7.8271338715
 30
0.0
 10
9.9691701674
 20
7.8368325663
 30
0.0
 10
9.9942127113
 20
7.8440484067
 30
0.0
 10
10.0200090995
 20
7.8487125543
 30
0.0
 10
10.0463103401
 20
7.8507811005
 30
0.0
 10
10.0728629299
 20
7.8502352152
 30
0.0
 10
10.0994112417
 20
7.8470810565
 30
0.0
 10
10.1256999865
 20
7.8413500459
 30
0.0
 10
10.1514765899
 20
7.8330980773
 30
0.0
 10
10.1764935459
 20
7.822405119
 30
0.0
 10
10.2005108338
 20
7.8093745602
 30
0.0
 10
10.2232979892
 20
7.7941318531
 30
0.0
 10
10.2446364368
 20
7.7768236727
 30
0.0
 10
10.2643214896
 20
7.757616355
 30
0.0
 10
10.2821641306
 20
7.7366942295
 30
0.0
 10
10.2979930933
 20
7.7142581497
 30
0.0
 10
10.3116561841
 20
7.6905233486
 30
0.0
 10
10.3230218282
 20
7.6657174439
 30
0.0
 10
10.3319805032
 20
7.6400787399
 30
0.0
 10
10.3384453537
 20
7.6138524407
 30
0.0
 10
10.3423536686
 20
7.5872937495
 30
0.0
 10
10.3432320308
 20
7.569468378
 30
0.0
 10
10.3432320308
 20
7.560591042
 30
0.0
  0
SPLINE
  5
38E
100
AcDbEntity
  8
0
100
AcDbSpline
 62
7
  6
CONTINUOUS
 70
0
 71
3
 72
62
 73
58
 74
0
 42
0.0000001
 43
0.0000001
 44
0.0000000001
 40
0.0
 40
0.0
 40
0.0
 40
0.0
 40
0.0078966712
 40
0.0164320697
 40
0.025626407
 40
0.0354926528
 40
0.0460363605
 40
0.0572575593
 40
0.0691518307
 40
0.0817108364
 40
0.094922972
 40
0.1087738587
 40
0.1232465964
 40
0.1383220632
 40
0.1539792096
 40
0.1701951816
 40
0.1869454739
 40
0.2042041458
 40
0.2219439
 40
0.2401361679
 40
0.2587512855
 40
0.2777585644
 40
0.316821388
 40
0.357062764
 40
0.398209168
 40
0.4399789952
 40
0.4820851285
 40
0.5242374956
 40
0.5661456217
 40
0.6075211726
 40
0.6480805137
 40
0.6875472599
 40
0.7067875901
 40
0.725655783
 40
0.7441205476
 40
0.7621515484
 40
0.7797194869
 40
0.7967962736
 40
0.8133550879
 40
0.829370467
 40
0.8448185171
 40
0.8596770272
 40
0.8739255902
 40
0.8875458865
 40
0.9005219157
 40
0.9128402256
 40
0.9244903597
 40
0.9354653548
 40
0.9457622744
 40
0.9553830813
 40
0.9643357692
 40
0.9726357065
 40
0.9803075778
 40
0.9873879165
 40
0.9907228205
 40
0.9939305861
 40
1.0
 40
1.0
 40
1.0
 40
1.0
 10
13.3839050798
 20
10.5901609017
 30
0.0
 10
13.3857990783
 20
10.5919903639
 30
0.0
 10
13.3895781709
 20
10.5959670933
 30
0.0
 10
13.3950190363
 20
10.6025638611
 30
0.0
 10
13.4004384962
 20
10.6100072362
 30
0.0
 10
13.4058269338
 20
10.6182835926
 30
0.0
 10
13.4111752692
 20
10.6273787588
 30
0.0
 10
13.4164739331
 20
10.6372765772
 30
0.0
 10
13.4217133578
 20
10.6479593907
 30
0.0
 10
13.4268840074
 20
10.6594079681
 30
0.0
 10
13.431976422
 20
10.6716015824
 30
0.0
 10
13.4369812079
 20
10.6845180906
 30
0.0
 10
13.4418891477
 20
10.6981339516
 30
0.0
 10
13.4466912084
 20
10.7124242893
 30
0.0
 10
13.451378504
 20
10.7273629733
 30
0.0
 10
13.4559423755
 20
10.7429226473
 30
0.0
 10
13.4603744212
 20
10.7590747826
 30
0.0
 10
13.4646664433
 20
10.7757897584
 30
0.0
 10
13.4688105092
 20
10.7930369071
 30
0.0
 10
13.4727989867
 20
10.8107845525
 30
0.0
 10
13.4766245465
 20
10.8290001304
 30
0.0
 10
13.4815432324
 20
10.8540952715
 30
0.0
 10
13.487219835
 20
10.8863875352
 30
0.0
 10
13.4932187829
 20
10.9261069316
 30
0.0
 10
13.4984206513
 20
10.9668486803
 30
0.0
 10
13.5027869809
 20
11.0083135531
 30
0.0
 10
13.5062855001
 20
11.0501972128
 30
0.0
 10
13.5088904848
 20
11.0921921235
 30
0.0
 10
13.5105828121
 20
11.1339899251
 30
0.0
 10
13.511350233
 20
11.1752837898
 30
0.0
 10
13.5111873353
 20
11.2157703846
 30
0.0
 10
13.510270265
 20
11.2488634084
 30
0.0
 10
13.5090603478
 20
11.274704509
 30
0.0
 10
13.5079308418
 20
11.2935365767
 30
0.0
 10
13.5065738309
 20
11.3119492898
 30
0.0
 10
13.5049918093
 20
11.3299088557
 30
0.0
 10
13.5031877004
 20
11.3473822818
 30
0.0
 10
13.5011648753
 20
11.3643374939
 30
0.0
 10
13.4989271035
 20
11.3807433773
 30
0.0
 10
13.4964785159
 20
11.3965698349
 30
0.0
 10
13.493823677
 20
11.4117878599
 30
0.0
 10
13.4909675369
 20
11.426369588
 30
0.0
 10
13.4879153733
 20
11.4402883417
 30
0.0
 10
13.4846728556
 20
11.4535187069
 30
0.0
 10
13.4812460179
 20
11.4660365896
 30
0.0
 10
13.4776411686
 20
11.4778192508
 30
0.0
 10
13.4738649309
 20
11.4888453857
 30
0.0
 10
13.4699242289
 20
11.4990952
 30
0.0
 10
13.4658261438
 20
11.5085504247
 30
0.0
 10
13.4615778635
 20
11.5171944127
 30
0.0
 10
13.4571866894
 20
11.5250121382
 30
0.0
 10
13.4526595336
 20
11.5319904057
 30
0.0
 10
13.4480033828
 20
11.5381168376
 30
0.0
 10
13.4439424696
 20
11.5425899647
 30
0.0
 10
13.4406326836
 20
11.5457050093
 30
0.0
 10
13.4374134951
 20
11.5484132975
 30
0.0
 10
13.434870038
 20
11.5501941182
 30
0.0
 10
13.4331333668
 20
11.5512335146
 30
0.0
  0
SPLINE
  5
38F
100
AcDbEntity
  8
0
100
AcDbSpline
 62
7
  6
CONTINUOUS
 70
0
 71
3
 72
11
 73
7
 74
0
 42
0.0000001
 43
0.0000001
 44
0.0000000001
 40
0.0
 40
0.0
 40
0.0
 40
0.0
 40
0.2754017997
 40
0.4063294825
 40
0.5329453995
 40
1.0
 40
1.0
 40
1.0
 40
1.0
 10
13.3839050798
 20
10.5901609017
 30
0.0
 10
13.3824275231
 20
10.5887336915
 30
0.0
 10
13.3801757421
 20
10.5866996601
 30
0.0
 10
13.3770688226
 20
10.5842172494
 30
0.0
 10
13.3727078465
 20
10.5810266184
 30
0.0
 10
13.3688355021
 20
10.5787894312
 30
0.0
 10
13.3656288068
 20
10.5774276379
 30
0.0
  0
SPLINE
  5
390
100
AcDbEntity
  8
0
100
AcDbSpline
 62
7
  6
CONTINUOUS
 70
0
 71
3
 72
71
 73
67
 74
0
 42
0.0000001
 43
0.0000001
 44
0.0000000001
 40
0.0
 40
0.0
 40
0.0
 40
0.0
 40
0.0027164569
 40
0.005453287
 40
0.0082303818
 40
0.0110666925
 40
0.0139799215
 40
0.0169862522
 40
0.0201002262
 40
0.0233347671
 40
0.0267011398
 40
0.030209103
 40
0.0338670461
 40
0.0376820279
 40
0.0416600191
 40
0.0458059789
 40
0.0501239231
 40
0.054617143
 40
0.0592881899
 40
0.0641389815
 40
0.0743841477
 40
0.0853591212
 40
0.0970630425
 40
0.1094898788
 40
0.1226292331
 40
0.1364670018
 40
0.1509859212
 40
0.1661659497
 40
0.1819845327
 40
0.198416903
 40
0.2154363179
 40
0.2330142199
 40
0.2511203737
 40
0.26972306
 40
0.2887892083
 40
0.3082844897
 40
0.3281734406
 40
0.3689847948
 40
0.4109222396
 40
0.4536726894
 40
0.4969151501
 40
0.5403239011
 40
0.5835716248
 40
0.6263325419
 40
0.6682855718
 40
0.7091174587
 40
0.7290184802
 40
0.7485269803
 40
0.767607468
 40
0.7862255922
 40
0.8043482274
 40
0.8219435923
 40
0.8389814255
 40
0.8554331179
 40
0.8712718455
 40
0.8864727662
 40
0.9010132841
 40
0.9148732614
 40
0.9280353159
 40
0.9404852478
 40
0.9522125493
 40
0.9632110329
 40
0.9734796288
 40
0.9830235034
 40
0.991856199
 40
1.0
 40
1.0
 40
1.0
 40
1.0
 10
13.4488530237
 20
11.5540739701
 30
0.0
 10
13.4497712816
 20
11.5540102923
 30
0.0
 10
13.451609984
 20
11.553799366
 30
0.0
 10
13.454344635
 20
11.5532348995
 30
0.0
 10
13.4570586011
 20
11.5524224018
 30
0.0
 10
13.4597499899
 20
11.5513627752
 30
0.0
 10
13.4624173701
 20
11.550056852
 30
0.0
 10
13.4650593857
 20
11.5485056981
 30
0.0
 10
13.4676748522
 20
11.5467104552
 30
0.0
 10
13.4702625465
 20
11.5446721798
 30
0.0
 10
13.4728213967
 20
11.5423921264
 30
0.0
 10
13.4753503039
 20
11.5398715351
 30
0.0
 10
13.4778481085
 20
11.5371116735
 30
0.0
 10
13.4803137712
 20
11.5341140012
 30
0.0
 10
13.4827461405
 20
11.5308799807
 30
0.0
 10
13.4851440713
 20
11.5274112004
 30
0.0
 10
13.4875065012
 20
11.5237094037
 30
0.0
 10
13.4898322348
 20
11.5197763793
 30
0.0
 10
13.4921202091
 20
11.5156140709
 30
0.0
 10
13.4951747717
 20
11.5096522488
 30
0.0
 10
13.4988778405
 20
11.5016271784
 30
0.0
 10
13.5030758075
 20
11.4912873092
 30
0.0
 10
13.5070972933
 20
11.4800890752
 30
0.0
 10
13.5109342613
 20
11.468054665
 30
0.0
 10
13.5145790237
 20
11.4552077004
 30
0.0
 10
13.51802423
 20
11.4415736774
 30
0.0
 10
13.5212628909
 20
11.4271797128
 30
0.0
 10
13.5242884072
 20
11.4120545245
 30
0.0
 10
13.5270946394
 20
11.3962283622
 30
0.0
 10
13.5296758834
 20
11.3797329253
 30
0.0
 10
13.532026877
 20
11.3626012778
 30
0.0
 10
13.5341428232
 20
11.3448677896
 30
0.0
 10
13.5360194312
 20
11.3265680682
 30
0.0
 10
13.5376528841
 20
11.3077388676
 30
0.0
 10
13.5390398342
 20
11.2884180227
 30
0.0
 10
13.5401774912
 20
11.2686443294
 30
0.0
 10
13.5413689463
 20
11.241495736
 30
0.0
 10
13.5422060921
 20
11.2067232025
 30
0.0
 10
13.5421861801
 20
11.1641942449
 30
0.0
 10
13.541149556
 20
11.1208539482
 30
0.0
 10
13.539104344
 20
11.0770506071
 30
0.0
 10
13.5360667767
 20
11.0331359992
 30
0.0
 10
13.5320612901
 20
10.9894629063
 30
0.0
 10
13.5271201711
 20
10.9463820387
 30
0.0
 10
13.5212833936
 20
10.9042395753
 30
0.0
 10
13.5156656633
 20
10.869897084
 30
0.0
 10
13.5107467808
 20
10.8431554627
 30
0.0
 10
13.5068965812
 20
10.823713209
 30
0.0
 10
13.5028617269
 20
10.8047526392
 30
0.0
 10
13.4986503376
 20
10.7863118195
 30
0.0
 10
13.4942709287
 20
10.7684278022
 30
0.0
 10
13.4897323292
 20
10.7511365061
 30
0.0
 10
13.4850437168
 20
10.7344726353
 30
0.0
 10
13.4802145758
 20
10.7184696082
 30
0.0
 10
13.4752546624
 20
10.7031595019
 30
0.0
 10
13.4701739837
 20
10.6885729738
 30
0.0
 10
13.4649828182
 20
10.6747391707
 30
0.0
 10
13.4596916469
 20
10.661685678
 30
0.0
 10
13.454311118
 20
10.6494384639
 30
0.0
 10
13.4488520236
 20
10.63802179
 30
0.0
 10
13.44332529
 20
10.627458122
 30
0.0
 10
13.4377418208
 20
10.6177680752
 30
0.0
 10
13.4321125265
 20
10.6089704924
 30
0.0
 10
13.4264478559
 20
10.601081794
 30
0.0
 10
13.4207587328
 20
10.5941176785
 30
0.0
 10
13.4167994935
 20
10.5899344666
 30
0.0
 10
13.4148147088
 20
10.5880173117
 30
0.0
  0
SPLINE
  5
391
100
AcDbEntity
  8
0
100
AcDbSpline
 62
7
  6
CONTINUOUS
 70
0
 71
3
 72
15
 73
11
 74
0
 42
0.0000001
 43
0.0000001
 44
0.0000000001
 40
0.0
 40
0.0
 40
0.0
 40
0.0
 40
0.152928965
 40
0.2946812352
 40
0.4263794168
 40
0.5495390292
 40
0.6660639514
 40
0.7782361028
 40
0.8886412282
 40
1.0
 40
1.0
 40
1.0
 40
1.0
 10
13.3839050798
 20
10.7669253384
 30
0.0
 10
13.3828610164
 20
10.7659168506
 30
0.0
 10
13.3807747166
 20
10.7640479904
 30
0.0
 10
13.3775220862
 20
10.7616291513
 30
0.0
 10
13.3742733906
 20
10.759710864
 30
0.0
 10
13.3710324671
 20
10.7582988393
 30
0.0
 10
13.3678037745
 20
10.7573990253
 30
0.0
 10
13.3645938887
 20
10.7570178885
 30
0.0
 10
13.3614136524
 20
10.7571591892
 30
0.0
 10
13.359343827
 20
10.7575969827
 30
0.0
 10
13.3583296526
 20
10.7578948408
 30
0.0
  0
SPLINE
  5
392
100
AcDbEntity
  8
0
100
AcDbSpline
 62
7
  6
CONTINUOUS
 70
0
 71
3
 72
96
 73
92
 74
0
 42
0.0000001
 43
0.0000001
 44
0.0000000001
 40
0.0
 40
0.0
 40
0.0
 40
0.0
 40
0.0041939316
 40
0.0085762345
 40
0.013152003
 40
0.0179255449
 40
0.0229003899
 40
0.028079114
 40
0.0334634814
 40
0.0390546174
 40
0.0448530487
 40
0.0508588133
 40
0.0570714153
 40
0.0634899863
 40
0.0701132126
 40
0.0769394782
 40
0.0911924452
 40
0.106230225
 40
0.1220294542
 40
0.1385631596
 40
0.1558011816
 40
0.1737105227
 40
0.1922556429
 40
0.2113987135
 40
0.2310998424
 40
0.2513172786
 40
0.2720075998
 40
0.2931258902
 40
0.3146259089
 40
0.3364602524
 40
0.3585805127
 40
0.3809374316
 40
0.403481054
 40
0.4261608788
 40
0.448926009
 40
0.4717252998
 40
0.4945075078
 40
0.5172214391
 40
0.5398160975
 40
0.5622408333
 40
0.5844454926
 40
0.6063805682
 40
0.6279973515
 40
0.6492480868
 40
0.6700861278
 40
0.6904660986
 40
0.71034406
 40
0.7296776834
 40
0.7484264352
 40
0.7665517753
 40
0.784017374
 40
0.8007893558
 40
0.8168365794
 40
0.8321309665
 40
0.8466478974
 40
0.8536084442
 40
0.8603672305
 40
0.8669224159
 40
0.8732724484
 40
0.8794161974
 40
0.8853528757
 40
0.8910821966
 40
0.8966043164
 40
0.9019199782
 40
0.9070305177
 40
0.9119379708
 40
0.9166451672
 40
0.9211558019
 40
0.9254746195
 40
0.9296074693
 40
0.9335615598
 40
0.9373455275
 40
0.9409697109
 40
0.9444462469
 40
0.9477892843
 40
0.9510150563
 40
0.9541419216
 40
0.9571902812
 40
0.9601823271
 40
0.9631416682
 40
0.96609277
 40
0.9690603222
 40
0.9720685747
 40
0.9751407154
 40
0.9782983899
 40
0.9815613165
 40
0.9849471215
 40
0.9884713722
 40
0.9921476341
 40
0.9959874035
 40
1.0
 40
1.0
 40
1.0
 40
1.0
 10
9.5965096912
 20
11.8110161405
 30
0.0
 10
9.5983019654
 20
11.8127473445
 30
0.0
 10
9.6020561348
 20
11.8161961649
 30
0.0
 10
9.6080436004
 20
11.8212210167
 30
0.0
 10
9.6145050641
 20
11.8262059206
 30
0.0
 10
9.6214363311
 20
11.8311478095
 30
0.0
 10
9.6288334273
 20
11.8360439095
 30
0.0
 10
9.6366920042
 20
11.8408914429
 30
0.0
 10
9.6450074227
 20
11.8456875585
 30
0.0
 10
9.653774747
 20
11.8504293742
 30
0.0
 10
9.6629887446
 20
11.8551141395
 30
0.0
 10
9.6726439592
 20
11.8597389903
 30
0.0
 10
9.6827346087
 20
11.8643012559
 30
0.0
 10
9.6932546874
 20
11.8687980942
 30
0.0
 10
9.7041978944
 20
11.8732269391
 30
0.0
 10
9.719566149
 20
11.8791226718
 30
0.0
 10
9.7397992429
 20
11.8862848885
 30
0.0
 10
9.7653195856
 20
11.8944479121
 30
0.0
 10
9.7923573284
 20
11.9022786698
 30
0.0
 10
9.8208476017
 20
11.9097581814
 30
0.0
 10
9.8507222884
 20
11.9168682986
 30
0.0
 10
9.881909737
 20
11.9235917655
 30
0.0
 10
9.914335095
 20
11.9299122639
 30
0.0
 10
9.9479204658
 20
11.9358144562
 30
0.0
 10
9.9825851203
 20
11.9412840236
 30
0.0
 10
10.0182456968
 20
11.9463077006
 30
0.0
 10
10.05481641
 20
11.9508733064
 30
0.0
 10
10.0922092624
 20
11.9549697741
 30
0.0
 10
10.1303342605
 20
11.9585871764
 30
0.0
 10
10.1690996346
 20
11.9617167485
 30
0.0
 10
10.2084120623
 20
11.9643509089
 30
0.0
 10
10.2481768957
 20
11.9664832782
 30
0.0
 10
10.2882983907
 20
11.9681086934
 30
0.0
 10
10.3286799405
 20
11.9692232194
 30
0.0
 10
10.369224309
 20
11.969824158
 30
0.0
 10
10.4098338667
 20
11.9699100546
 30
0.0
 10
10.4504108261
 20
11.9694807012
 30
0.0
 10
10.4908574787
 20
11.9685371372
 30
0.0
 10
10.5310764311
 20
11.9670816466
 30
0.0
 10
10.5709708406
 20
11.9651177533
 30
0.0
 10
10.6104446498
 20
11.9626502121
 30
0.0
 10
10.6494028195
 20
11.9596849983
 30
0.0
 10
10.6877515601
 20
11.9562292947
 30
0.0
 10
10.7253985593
 20
11.9522914736
 30
0.0
 10
10.7622532071
 20
11.9478810775
 30
0.0
 10
10.7982268162
 20
11.9430087961
 30
0.0
 10
10.8332328402
 20
11.9376864418
 30
0.0
 10
10.8671870862
 20
11.931926922
 30
0.0
 10
10.9000079249
 20
11.9257442081
 30
0.0
 10
10.9316164925
 20
11.9191533021
 30
0.0
 10
10.9619369021
 20
11.9121701999
 30
0.0
 10
10.990896405
 20
11.9048118495
 30
0.0
 10
11.0184257145
 20
11.8970961085
 30
0.0
 10
11.0444587512
 20
11.8890416822
 30
0.0
 10
11.0651344336
 20
11.8819681341
 30
0.0
 10
11.0808672311
 20
11.8761404138
 30
0.0
 10
11.0920889071
 20
11.8717584357
 30
0.0
 10
11.1028917923
 20
11.8673066788
 30
0.0
 10
11.1132694157
 20
11.8627876945
 30
0.0
 10
11.1232155935
 20
11.8582042977
 30
0.0
 10
11.1327243621
 20
11.8535591347
 30
0.0
 10
11.1417900803
 20
11.8488550679
 30
0.0
 10
11.1504073312
 20
11.8440948236
 30
0.0
 10
11.1585710156
 20
11.8392812715
 30
0.0
 10
11.1662762903
 20
11.834417223
 30
0.0
 10
11.1735185941
 20
11.829505513
 30
0.0
 10
11.1802936767
 20
11.824549023
 30
0.0
 10
11.1865975015
 20
11.8195505198
 30
0.0
 10
11.1924264082
 20
11.814512913
 30
0.0
 10
11.1977768581
 20
11.8094388846
 30
0.0
 10
11.2026457298
 20
11.8043313081
 30
0.0
 10
11.2070299337
 20
11.7991927959
 30
0.0
 10
11.2109267636
 20
11.7940261403
 30
0.0
 10
11.2143334985
 20
11.7888339625
 30
0.0
 10
11.2172476721
 20
11.7836190431
 30
0.0
 10
11.2196668634
 20
11.7783842145
 30
0.0
 10
11.2215887628
 20
11.7731325216
 30
0.0
 10
11.2230113728
 20
11.7678673367
 30
0.0
 10
11.223932813
 20
11.762592333
 30
0.0
 10
11.2243519926
 20
11.757311587
 30
0.0
 10
11.2242681047
 20
11.7520293811
 30
0.0
 10
11.2236814789
 20
11.7467500773
 30
0.0
 10
11.2225927705
 20
11.7414779229
 30
0.0
 10
11.2210035693
 20
11.7362168258
 30
0.0
 10
11.2189156321
 20
11.7309704034
 30
0.0
 10
11.2163312046
 20
11.7257418922
 30
0.0
 10
11.2132526186
 20
11.7205342561
 30
0.0
 10
11.2096822372
 20
11.7153502851
 30
0.0
 10
11.2056225622
 20
11.7101925876
 30
0.0
 10
11.2010765151
 20
11.7050642102
 30
0.0
 10
11.1977977351
 20
11.701741709
 30
0.0
 10
11.1960829544
 20
11.7000853579
 30
0.0
  0
SPLINE
  5
393
100
AcDbEntity
  8
0
100
AcDbSpline
 62
7
  6
CONTINUOUS
 70
0
 71
3
 72
64
 73
60
 74
0
 42
0.0000001
 43
0.0000001
 44
0.0000000001
 40
0.0
 40
0.0
 40
0.0
 40
0.0
 40
0.0082508997
 40
0.0172133642
 40
0.026910081
 40
0.0373550097
 40
0.0485531277
 40
0.0605027641
 40
0.0731969557
 40
0.0866240685
 40
0.1007686976
 40
0.1156121084
 40
0.131132572
 40
0.1473058621
 40
0.1641054056
 40
0.1815024937
 40
0.1994666081
 40
0.217965467
 40
0.2369652042
 40
0.2564306012
 40
0.2966100512
 40
0.3381993423
 40
0.3808781448
 40
0.424315018
 40
0.4681708875
 40
0.5121024877
 40
0.5557658094
 40
0.5988195015
 40
0.6409283371
 40
0.6817666788
 40
0.7210220029
 40
0.7399634492
 40
0.7583998407
 40
0.7762975579
 40
0.7936244884
 40
0.8103502913
 40
0.8264465778
 40
0.8418869868
 40
0.8566475635
 40
0.8707069978
 40
0.8840468506
 40
0.8966521543
 40
0.9085118651
 40
0.9196194833
 40
0.9299741806
 40
0.9395819226
 40
0.9484571279
 40
0.9566251506
 40
0.9641251768
 40
0.9710141175
 40
0.9773712147
 40
0.9803843642
 40
0.9833065448
 40
0.9861552835
 40
0.9889496882
 40
0.9917100944
 40
0.9944576575
 40
0.9972138704
 40
1.0
 40
1.0
 40
1.0
 40
1.0
 10
13.3839050798
 20
10.7669253384
 30
0.0
 10
13.3851764446
 20
10.7681533825
 30
0.0
 10
13.3877123001
 20
10.7708374528
 30
0.0
 10
13.3913530824
 20
10.7753126027
 30
0.0
 10
13.3949776173
 20
10.7803904001
 30
0.0
 10
13.3985786132
 20
10.7860603285
 30
0.0
 10
13.4021492243
 20
10.7923113865
 30
0.0
 10
13.4056821424
 20
10.799131003
 30
0.0
 10
13.4091701066
 20
10.806505348
 30
0.0
 10
13.41260592
 20
10.8144193259
 30
0.0
 10
13.4159823885
 20
10.8228566682
 30
0.0
 10
13.4192924324
 20
10.8317999489
 30
0.0
 10
13.4225291476
 20
10.8412306287
 30
0.0
 10
13.4256857151
 20
10.8511291356
 30
0.0
 10
13.428755504
 20
10.8614748882
 30
0.0
 10
13.4317320985
 20
10.8722463417
 30
0.0
 10
13.4346092245
 20
10.8834210615
 30
0.0
 10
13.4373808381
 20
10.8949757461
 30
0.0
 10
13.4400411804
 20
10.9068863074
 30
0.0
 10
13.4434685384
 20
10.9233828063
 30
0.0
 10
13.4474228387
 20
10.9447099944
 30
0.0
 10
13.4515945093
 20
10.9710451537
 30
0.0
 10
13.4552060868
 20
10.9981670476
 30
0.0
 10
13.4582272004
 20
11.0258493813
 30
0.0
 10
13.460632443
 20
11.0538613396
 30
0.0
 10
13.4624016992
 20
11.0819692394
 30
0.0
 10
13.46352024
 20
11.109938606
 30
0.0
 10
13.4639788415
 20
11.1375361162
 30
0.0
 10
13.4637739636
 20
11.1645316739
 30
0.0
 10
13.4629076135
 20
11.1907000433
 30
0.0
 10
13.4616263383
 20
11.2118811248
 30
0.0
 10
13.4602635255
 20
11.2282423768
 30
0.0
 10
13.4590943912
 20
11.2400269026
 30
0.0
 10
13.4577686789
 20
11.251446734
 30
0.0
 10
13.4562891307
 20
11.2624780785
 30
0.0
 10
13.454658886
 20
11.2730979428
 30
0.0
 10
13.452881418
 20
11.2832842184
 30
0.0
 10
13.4509604528
 20
11.2930157142
 30
0.0
 10
13.4489000595
 20
11.3022722215
 30
0.0
 10
13.4467046144
 20
11.3110345621
 30
0.0
 10
13.4443787027
 20
11.3192846226
 30
0.0
 10
13.441927226
 20
11.3270054318
 30
0.0
 10
13.4393553186
 20
11.3341812064
 30
0.0
 10
13.4366682327
 20
11.3407973786
 30
0.0
 10
13.4338714263
 20
11.3468407008
 30
0.0
 10
13.4309703839
 20
11.3522992637
 30
0.0
 10
13.4279703732
 20
11.3571624882
 30
0.0
 10
13.4248765285
 20
11.3614211011
 30
0.0
 10
13.4216930272
 20
11.3650670414
 30
0.0
 10
13.4184241669
 20
11.3680921986
 30
0.0
 10
13.4155805708
 20
11.3701249351
 30
0.0
 10
13.4132781646
 20
11.3714079471
 30
0.0
 10
13.41156562
 20
11.3721930551
 30
0.0
 10
13.40983771
 20
11.3728172156
 30
0.0
 10
13.4080954284
 20
11.373279923
 30
0.0
 10
13.4063399323
 20
11.3735807278
 30
0.0
 10
13.4045723772
 20
11.3737192249
 30
0.0
 10
13.4027942175
 20
11.3736953836
 30
0.0
 10
13.4016114083
 20
11.3735722588
 30
0.0
 10
13.4010209812
 20
11.3734847233
 30
0.0
  0
SPLINE
  5
394
100
AcDbEntity
  8
0
100
AcDbSpline
 62
7
  6
CONTINUOUS
 70
0
 71
3
 72
33
 73
29
 74
0
 42
0.0000001
 43
0.0000001
 44
0.0000000001
 40
0.0
 40
0.0
 40
0.0
 40
0.0
 40
0.024659162
 40
0.0505270368
 40
0.0775459797
 40
0.1056532155
 40
0.1347814323
 40
0.1648592286
 40
0.1958114727
 40
0.2275597747
 40
0.2600228722
 40
0.2931169455
 40
0.3608501336
 40
0.430051995
 40
0.4999932796
 40
0.5699347937
 40
0.6391373283
 40
0.7068716316
 40
0.7399664089
 40
0.7724303462
 40
0.8041795854
 40
0.8351328271
 40
0.8652117213
 40
0.8943411719
 40
0.9224497094
 40
0.9494699872
 40
0.9753392892
 40
1.0
 40
1.0
 40
1.0
 40
1.0
 10
13.3137752818
 20
10.8545107343
 30
0.0
 10
13.3149880688
 20
10.8578693148
 30
0.0
 10
13.3173739814
 20
10.8647871963
 30
0.0
 10
13.3207644476
 20
10.8754934716
 30
0.0
 10
13.3240451022
 20
10.8867549159
 30
0.0
 10
13.3272065931
 20
10.8985397795
 30
0.0
 10
13.330239955
 20
10.9108149674
 30
0.0
 10
13.3331365626
 20
10.9235459336
 30
0.0
 10
13.3358882146
 20
10.936696831
 30
0.0
 10
13.3384871038
 20
10.9502306015
 30
0.0
 10
13.3409258971
 20
10.9641091382
 30
0.0
 10
13.3439783081
 20
10.9831683674
 30
0.0
 10
13.3473358938
 20
11.0075636035
 30
0.0
 10
13.3506010677
 20
11.0373460296
 30
0.0
 10
13.3530955043
 20
11.067523807
 30
0.0
 10
13.3547910779
 20
11.09775709
 30
0.0
 10
13.3556687297
 20
11.1277054037
 30
0.0
 10
13.3557111483
 20
11.1523309372
 30
0.0
 10
13.3553191599
 20
11.171629451
 30
0.0
 10
13.3548197218
 20
11.1857121417
 30
0.0
 10
13.3541141223
 20
11.1994755125
 30
0.0
 10
13.353204355
 20
11.212880803
 30
0.0
 10
13.3520930538
 20
11.2258902392
 30
0.0
 10
13.3507834067
 20
11.2384671883
 30
0.0
 10
13.3492791607
 20
11.2505762327
 30
0.0
 10
13.3475846239
 20
11.26218335
 30
0.0
 10
13.3457046825
 20
11.2732558123
 30
0.0
 10
13.3442967094
 20
11.2804372873
 30
0.0
 10
13.3435592041
 20
11.2839313685
 30
0.0
  0
SPLINE
  5
395
100
AcDbEntity
  8
0
100
AcDbSpline
 62
7
  6
CONTINUOUS
 70
0
 71
3
 72
95
 73
91
 74
0
 42
0.0000001
 43
0.0000001
 44
0.0000000001
 40
0.0
 40
0.0
 40
0.0
 40
0.0
 40
0.0037330408
 40
0.007310868
 40
0.0140473523
 40
0.01724042
 40
0.0203386852
 40
0.0233621774
 40
0.026332612
 40
0.0292730102
 40
0.0322071648
 40
0.035159037
 40
0.0381521178
 40
0.0412088642
 40
0.0443502071
 40
0.0475952741
 40
0.0509611665
 40
0.0544629733
 40
0.0581137782
 40
0.0619248131
 40
0.0659056022
 40
0.0700641128
 40
0.0744069732
 40
0.0789395547
 40
0.0836662128
 40
0.0885903062
 40
0.0937144159
 40
0.0990403506
 40
0.1045692965
 40
0.1103018542
 40
0.1162380977
 40
0.1223776655
 40
0.1287197343
 40
0.1352631542
 40
0.1420063705
 40
0.148947566
 40
0.1560845827
 40
0.1709358339
 40
0.1865383921
 40
0.2028665321
 40
0.2198914225
 40
0.2375814614
 40
0.2559025617
 40
0.2748184035
 40
0.2942906409
 40
0.3142791132
 40
0.3347420094
 40
0.3556360546
 40
0.3769166611
 40
0.3985380885
 40
0.4204535949
 40
0.4426155805
 40
0.4649757366
 40
0.4874851879
 40
0.5100946304
 40
0.5327544825
 40
0.5554150123
 40
0.5780264944
 40
0.6005393357
 40
0.6229042266
 40
0.6450722781
 40
0.666995161
 40
0.6886252584
 40
0.7099157971
 40
0.73082101
 40
0.7512962755
 40
0.7712982799
 40
0.7907851759
 40
0.8097167503
 40
0.8280546094
 40
0.8457623716
 40
0.8628058847
 40
0.8791534764
 40
0.8947762296
 40
0.9096483345
 40
0.9237474874
 40
0.9305015891
 40
0.9370559678
 40
0.9434090955
 40
0.94955975
 40
0.9555071375
 40
0.9612508245
 40
0.9667909019
 40
0.972127923
 40
0.9772630301
 40
0.9821979764
 40
0.9869353122
 40
0.9914784991
 40
0.9958317412
 40
1.0
 40
1.0
 40
1.0
 40
1.0
 10
11.1821321706
 20
11.6879149175
 30
0.0
 10
11.1835524616
 20
11.6895240621
 30
0.0
 10
11.1862496553
 20
11.6927520461
 30
0.0
 10
11.191046895
 20
11.6992527761
 30
0.0
 10
11.1950511958
 20
11.7059436394
 30
0.0
 10
11.1981254686
 20
11.7127813936
 30
0.0
 10
11.1999176849
 20
11.717835027
 30
0.0
 10
11.2012350007
 20
11.7229008202
 30
0.0
 10
11.2020758984
 20
11.7279755726
 30
0.0
 10
11.2024392765
 20
11.7330553902
 30
0.0
 10
11.2023246366
 20
11.7381362781
 30
0.0
 10
11.2017320727
 20
11.7432141498
 30
0.0
 10
11.2006625187
 20
11.7482850899
 30
0.0
 10
11.1991171808
 20
11.7533453878
 30
0.0
 10
11.197097984
 20
11.7583917582
 30
0.0
 10
11.1946067715
 20
11.7634210942
 30
0.0
 10
11.1916458576
 20
11.7684306753
 30
0.0
 10
11.188217416
 20
11.7734177967
 30
0.0
 10
11.1843239046
 20
11.778379943
 30
0.0
 10
11.1799678161
 20
11.7833145618
 30
0.0
 10
11.1751518181
 20
11.7882190887
 30
0.0
 10
11.1698788151
 20
11.7930909993
 30
0.0
 10
11.1641518299
 20
11.7979276083
 30
0.0
 10
11.1579742427
 20
11.8027263812
 30
0.0
 10
11.1513495473
 20
11.8074845546
 30
0.0
 10
11.1442816196
 20
11.8121995648
 30
0.0
 10
11.1367744884
 20
11.8168686484
 30
0.0
 10
11.1288325229
 20
11.8214892001
 30
0.0
 10
11.1204603037
 20
11.8260585229
 30
0.0
 10
11.1116626918
 20
11.8305739747
 30
0.0
 10
11.1024448084
 20
11.8350329561
 30
0.0
 10
11.0928120064
 20
11.8394328119
 30
0.0
 10
11.0827699232
 20
11.8437710418
 30
0.0
 10
11.0723244008
 20
11.8480450205
 30
0.0
 10
11.061481569
 20
11.8522523178
 30
0.0
 10
11.050247742
 20
11.8563904178
 30
0.0
 10
11.0345481267
 20
11.8618853288
 30
0.0
 10
11.0139844405
 20
11.8685478985
 30
0.0
 10
10.9881742678
 20
11.8761272577
 30
0.0
 10
10.9609738526
 20
11.8833752494
 30
0.0
 10
10.932446997
 20
11.8902747215
 30
0.0
 10
10.9026604121
 20
11.8968093221
 30
0.0
 10
10.8716839214
 20
11.9029635674
 30
0.0
 10
10.8395901762
 20
11.9087228761
 30
0.0
 10
10.8064544989
 20
11.9140736055
 30
0.0
 10
10.7723546965
 20
11.919003084
 30
0.0
 10
10.7373708658
 20
11.9234996435
 30
0.0
 10
10.7015852048
 20
11.927552642
 30
0.0
 10
10.6650818098
 20
11.9311524905
 30
0.0
 10
10.6279464777
 20
11.9342906735
 30
0.0
 10
10.5902665006
 20
11.9369597689
 30
0.0
 10
10.5521304586
 20
11.9391534652
 30
0.0
 10
10.5136280102
 20
11.9408665751
 30
0.0
 10
10.4748496812
 20
11.9420950482
 30
0.0
 10
10.4358866477
 20
11.9428359794
 30
0.0
 10
10.3968305257
 20
11.9430876177
 30
0.0
 10
10.357773147
 20
11.9428493695
 30
0.0
 10
10.31880635
 20
11.942121798
 30
0.0
 10
10.2800217556
 20
11.9409066239
 30
0.0
 10
10.2415105558
 20
11.9392067192
 30
0.0
 10
10.2033632966
 20
11.9370261032
 30
0.0
 10
10.1656696625
 20
11.9343699306
 30
0.0
 10
10.1285182687
 20
11.9312444824
 30
0.0
 10
10.0919964449
 20
11.9276571494
 30
0.0
 10
10.0561900337
 20
11.923616417
 30
0.0
 10
10.0211831796
 20
11.9191318469
 30
0.0
 10
9.9870581323
 20
11.9142140532
 30
0.0
 10
9.9538950482
 20
11.9088746783
 30
0.0
 10
9.9217717967
 20
11.9031263662
 30
0.0
 10
9.8907637714
 20
11.8969827323
 30
0.0
 10
9.860943706
 20
11.8904583326
 30
0.0
 10
9.8323814813
 20
11.8835686263
 30
0.0
 10
9.8051439856
 20
11.8763299384
 30
0.0
 10
9.7792948009
 20
11.8687594134
 30
0.0
 10
9.7548944881
 20
11.8608749631
 30
0.0
 10
9.7355479485
 20
11.8539631849
 30
0.0
 10
9.7208510184
 20
11.8482768952
 30
0.0
 10
9.7103836065
 20
11.8440064404
 30
0.0
 10
9.7003192969
 20
11.8396717033
 30
0.0
 10
9.6906639745
 20
11.8352751098
 30
0.0
 10
9.6814232495
 20
11.8308193327
 30
0.0
 10
9.6726025287
 20
11.8263068757
 30
0.0
 10
9.664206907
 20
11.8217404466
 30
0.0
 10
9.6562412867
 20
11.8171226136
 30
0.0
 10
9.6487102787
 20
11.8124561075
 30
0.0
 10
9.6416182301
 20
11.8077435921
 30
0.0
 10
9.634969206
 20
11.8029876875
 30
0.0
 10
9.6287669361
 20
11.7981909942
 30
0.0
 10
9.6230153564
 20
11.7933564058
 30
0.0
 10
9.6194067937
 20
11.7900393392
 30
0.0
 10
9.6176830863
 20
11.7883743656
 30
0.0
  0
SPLINE
  5
396
100
AcDbEntity
  8
0
100
AcDbSpline
 62
7
  6
CONTINUOUS
 70
0
 71
3
 72
17
 73
13
 74
0
 42
0.0000001
 43
0.0000001
 44
0.0000000001
 40
0.0
 40
0.0
 40
0.0
 40
0.0
 40
0.1480487011
 40
0.2876793192
 40
0.4195783754
 40
0.5446195804
 40
0.6638542347
 40
0.7785162538
 40
0.8345925939
 40
0.8900666865
 40
0.9451353213
 40
1.0
 40
1.0
 40
1.0
 40
1.0
 10
9.6264533936
 20
11.7665927477
 30
0.0
 10
9.6242687951
 20
11.7644825874
 30
0.0
 10
9.6201518588
 20
11.7602460518
 30
0.0
 10
9.6146163526
 20
11.753643141
 30
0.0
 10
9.6099150286
 20
11.7469904099
 30
0.0
 10
9.606054834
 20
11.7402936016
 30
0.0
 10
9.6030422009
 20
11.7335592922
 30
0.0
 10
9.6012301061
 20
11.7278775656
 30
0.0
 10
9.6002242692
 20
11.7233444976
 30
0.0
 10
9.5996890126
 20
11.719966059
 30
0.0
 10
9.5993678007
 20
11.7165857531
 30
0.0
 10
9.5992963385
 20
11.7143297549
 30
0.0
 10
9.5992963285
 20
11.7132041726
 30
0.0
  0
SPLINE
  5
397
100
AcDbEntity
  8
0
100
AcDbSpline
 62
7
  6
CONTINUOUS
 70
0
 71
3
 72
91
 73
87
 74
0
 42
0.0000001
 43
0.0000001
 44
0.0000000001
 40
0.0
 40
0.0
 40
0.0
 40
0.0
 40
0.0027164149
 40
0.0054532017
 40
0.0082302519
 40
0.0110665199
 40
0.0139797039
 40
0.0169859829
 40
0.0200999141
 40
0.0233344008
 40
0.0267007145
 40
0.0302086362
 40
0.0338665065
 40
0.0376814358
 40
0.0416593677
 40
0.0458052497
 40
0.0501231396
 40
0.0546162795
 40
0.059287253
 40
0.0641379749
 40
0.0691698569
 40
0.0743837851
 40
0.0797802236
 40
0.0853592475
 40
0.091120549
 40
0.0970635401
 40
0.1031872872
 40
0.1094906342
 40
0.122629771
 40
0.1364673248
 40
0.150986028
 40
0.1661658166
 40
0.1819841497
 40
0.1984162706
 40
0.2154354241
 40
0.2330130434
 40
0.251118914
 40
0.2697213196
 40
0.2887871741
 40
0.3082821495
 40
0.3281707942
 40
0.3484166458
 40
0.3689823383
 40
0.3898297074
 40
0.4109198931
 40
0.4322134396
 40
0.4536703979
 40
0.4752504252
 40
0.496912883
 40
0.5186169358
 40
0.5403216477
 40
0.5619860811
 40
0.5835693946
 40
0.6050309417
 40
0.6263303693
 40
0.647427715
 40
0.6682835069
 40
0.6888588628
 40
0.7091155924
 40
0.7290163019
 40
0.7485244988
 40
0.7676046989
 40
0.7862225381
 40
0.8043448897
 40
0.8219399883
 40
0.8389775652
 40
0.8554289983
 40
0.8712674731
 40
0.8864681675
 40
0.9010084679
 40
0.9148682273
 40
0.928030078
 40
0.9343449249
 40
0.9404802778
 40
0.9464349222
 40
0.9522079436
 40
0.9577987067
 40
0.9632068911
 40
0.9684325654
 40
0.9734761401
 40
0.9783384911
 40
0.9830209352
 40
0.9875254368
 40
0.9918546053
 40
0.9960115672
 40
1.0
 40
1.0
 40
1.0
 40
1.0
 10
13.4814730226
 20
9.9718517444
 30
0.0
 10
13.4832712779
 20
9.9717270431
 30
0.0
 10
13.4868720658
 20
9.9713139458
 30
0.0
 10
13.4922274245
 20
9.9702085511
 30
0.0
 10
13.4975422812
 20
9.9686174305
 30
0.0
 10
13.5028129134
 20
9.9665423164
 30
0.0
 10
13.5080365272
 20
9.9639848803
 30
0.0
 10
13.5132104994
 20
9.960947244
 30
0.0
 10
13.5183324263
 20
9.9574315214
 30
0.0
 10
13.5234000052
 20
9.9534399219
 30
0.0
 10
13.5284111169
 20
9.9489748462
 30
0.0
 10
13.5333634985
 20
9.9440386368
 30
0.0
 10
13.5382551002
 20
9.9386339674
 30
0.0
 10
13.5430836538
 20
9.9327635
 30
0.0
 10
13.5478470361
 20
9.9264302102
 30
0.0
 10
13.5525430297
 20
9.9196372108
 30
0.0
 10
13.5571693997
 20
9.912387835
 30
0.0
 10
13.5617240117
 20
9.9046856819
 30
0.0
 10
13.5662045717
 20
9.8965345038
 30
0.0
 10
13.5706089999
 20
9.8879383662
 30
0.0
 10
13.5749350463
 20
9.8789014884
 30
0.0
 10
13.5791806299
 20
9.8694283715
 30
0.0
 10
13.5833436276
 20
9.8595237142
 30
0.0
 10
13.5874219385
 20
9.8491924417
 30
0.0
 10
13.5914135868
 20
9.8384397151
 30
0.0
 10
13.5953164816
 20
9.8272708893
 30
0.0
 10
13.5991287879
 20
9.8156915457
 30
0.0
 10
13.6041580167
 20
9.7994880122
 30
0.0
 10
13.610186467
 20
9.7782386035
 30
0.0
 10
13.6169333398
 20
9.7515387985
 30
0.0
 10
13.6232757004
 20
9.7233505679
 30
0.0
 10
13.6292006811
 20
9.6937304226
 30
0.0
 10
13.6346962273
 20
9.6627375218
 30
0.0
 10
13.639751157
 20
9.6304339558
 30
0.0
 10
13.6443551809
 20
9.5968844803
 30
0.0
 10
13.6484989266
 20
9.5621564086
 30
0.0
 10
13.6521739574
 20
9.5263194572
 30
0.0
 10
13.655372789
 20
9.4894456034
 30
0.0
 10
13.6580889101
 20
9.4516089345
 30
0.0
 10
13.6603167894
 20
9.4128854933
 30
0.0
 10
13.6620518853
 20
9.3733531186
 30
0.0
 10
13.6632906551
 20
9.333091286
 30
0.0
 10
13.6640305606
 20
9.2921809464
 30
0.0
 10
13.6642700732
 20
9.2507043622
 30
0.0
 10
13.6640086759
 20
9.208744942
 30
0.0
 10
13.6632468698
 20
9.1663870708
 30
0.0
 10
13.6619861672
 20
9.1237159389
 30
0.0
 10
13.6602290883
 20
9.0808173681
 30
0.0
 10
13.6579791556
 20
9.0377776388
 30
0.0
 10
13.6552408869
 20
8.9946833163
 30
0.0
 10
13.6520197859
 20
8.9516210769
 30
0.0
 10
13.648322331
 20
8.9086775326
 30
0.0
 10
13.6441559677
 20
8.8659390555
 30
0.0
 10
13.6395290885
 20
8.8234916025
 30
0.0
 10
13.6344510158
 20
8.7814205424
 30
0.0
 10
13.6289319835
 20
8.739810484
 30
0.0
 10
13.6229831166
 20
8.6987451057
 30
0.0
 10
13.6166164093
 20
8.6583069863
 30
0.0
 10
13.6098447003
 20
8.6185774367
 30
0.0
 10
13.6026816533
 20
8.5796363324
 30
0.0
 10
13.5951417243
 20
8.5415619516
 30
0.0
 10
13.587240133
 20
8.5044308172
 30
0.0
 10
13.5789928328
 20
8.468317541
 30
0.0
 10
13.5704164786
 20
8.4332946709
 30
0.0
 10
13.5615283943
 20
8.3994325401
 30
0.0
 10
13.5523465358
 20
8.3667991172
 30
0.0
 10
13.5428894607
 20
8.3354598613
 30
0.0
 10
13.5331762832
 20
8.3054775723
 30
0.0
 10
13.5232266325
 20
8.2769122902
 30
0.0
 10
13.5130606043
 20
8.2498210347
 30
0.0
 10
13.5026987224
 20
8.2242581031
 30
0.0
 10
13.4937995432
 20
8.204001286
 30
0.0
 10
13.4865852249
 20
8.188611882
 30
0.0
 10
13.4812132978
 20
8.1776428303
 30
0.0
 10
13.4758080771
 20
8.1670925447
 30
0.0
 10
13.4703722663
 20
8.1569662782
 30
0.0
 10
13.4649086001
 20
8.147269085
 30
0.0
 10
13.4594197637
 20
8.1380058115
 30
0.0
 10
13.4539085559
 20
8.1291810352
 30
0.0
 10
13.4483776273
 20
8.1207991891
 30
0.0
 10
13.4428298274
 20
8.1128644033
 30
0.0
 10
13.4372678153
 20
8.1053806247
 30
0.0
 10
13.4316942929
 20
8.0983514929
 30
0.0
 10
13.4261118669
 20
8.0917804164
 30
0.0
 10
13.4205234918
 20
8.0856709614
 30
0.0
 10
13.4167183359
 20
8.0818295178
 30
0.0
 10
13.4148147088
 20
8.0799907551
 30
0.0
  0
SPLINE
  5
398
100
AcDbEntity
  8
0
100
AcDbSpline
 62
7
  6
CONTINUOUS
 70
0
 71
3
 72
23
 73
19
 74
0
 42
0.0000001
 43
0.0000001
 44
0.0000000001
 40
0.0
 40
0.0
 40
0.0
 40
0.0
 40
0.0753295828
 40
0.1466999117
 40
0.2143970157
 40
0.278782387
 40
0.3402876654
 40
0.3994164394
 40
0.4567447331
 40
0.5129110219
 40
0.5685980583
 40
0.6245077753
 40
0.6813330486
 40
0.7397311055
 40
0.800302396
 40
0.8635782413
 40
0.9300159273
 40
1.0
 40
1.0
 40
1.0
 40
1.0
 10
9.6176830863
 20
11.7883743656
 30
0.0
 10
9.6156427377
 20
11.78640354
 30
0.0
 10
9.6117801742
 20
11.78244784
 30
0.0
 10
9.6065348614
 20
11.7763015665
 30
0.0
 10
9.6020051929
 20
11.7701125286
 30
0.0
 10
9.598196485
 20
11.7638857035
 30
0.0
 10
9.5951135349
 20
11.7576256427
 30
0.0
 10
9.5927613156
 20
11.7513375494
 30
0.0
 10
9.5911444113
 20
11.7450276134
 30
0.0
 10
9.590266784
 20
11.7387031475
 30
0.0
 10
9.5901306626
 20
11.7323725776
 30
0.0
 10
9.5907366371
 20
11.7260448572
 30
0.0
 10
9.592082813
 20
11.7197286712
 30
0.0
 10
9.5941659449
 20
11.7134318034
 30
0.0
 10
9.5969814915
 20
11.7071608172
 30
0.0
 10
9.6005247285
 20
11.7009211627
 30
0.0
 10
9.6047904
 20
11.6947180536
 30
0.0
 10
9.6080241863
 20
11.690719216
 30
0.0
 10
9.6097499317
 20
11.6887273779
 30
0.0
  0
SPLINE
  5
399
100
AcDbEntity
  8
0
100
AcDbSpline
 62
4
  6
CONTINUOUS
 70
0
 71
3
 72
313
 73
309
 74
0
 42
0.0000001
 43
0.0000001
 44
0.0000000001
 40
0.0
 40
0.0
 40
0.0
 40
0.0
 40
0.015625
 40
0.0234375
 40
0.03125
 40
0.0390625
 40
0.046875
 40
0.05078125
 40
0.0546875
 40
0.056640625
 40
0.05859375
 40
0.060546875
 40
0.0615234375
 40
0.0620117188
 40
0.0625
 40
0.0629882812
 40
0.0634765625
 40
0.064453125
 40
0.06640625
 40
0.068359375
 40
0.0703125
 40
0.07421875
 40
0.078125
 40
0.0859375
 40
0.09375
 40
0.1015625
 40
0.109375
 40
0.11328125
 40
0.1171875
 40
0.119140625
 40
0.12109375
 40
0.123046875
 40
0.1240234375
 40
0.1245117188
 40
0.125
 40
0.1254882812
 40
0.1259765625
 40
0.126953125
 40
0.12890625
 40
0.130859375
 40
0.1328125
 40
0.13671875
 40
0.140625
 40
0.1484375
 40
0.15625
 40
0.1640625
 40
0.171875
 40
0.17578125
 40
0.1796875
 40
0.181640625
 40
0.18359375
 40
0.185546875
 40
0.1865234375
 40
0.1870117188
 40
0.1875
 40
0.1879882812
 40
0.1884765625
 40
0.189453125
 40
0.19140625
 40
0.193359375
 40
0.1953125
 40
0.19921875
 40
0.203125
 40
0.2109375
 40
0.21875
 40
0.2265625
 40
0.234375
 40
0.23828125
 40
0.2421875
 40
0.244140625
 40
0.24609375
 40
0.248046875
 40
0.2490234375
 40
0.2495117188
 40
0.25
 40
0.2504882812
 40
0.2509765625
 40
0.251953125
 40
0.25390625
 40
0.255859375
 40
0.2578125
 40
0.26171875
 40
0.265625
 40
0.2734375
 40
0.28125
 40
0.2890625
 40
0.296875
 40
0.30078125
 40
0.3046875
 40
0.306640625
 40
0.30859375
 40
0.310546875
 40
0.3115234375
 40
0.3120117188
 40
0.3125
 40
0.3129882812
 40
0.3134765625
 40
0.314453125
 40
0.31640625
 40
0.318359375
 40
0.3203125
 40
0.32421875
 40
0.328125
 40
0.3359375
 40
0.34375
 40
0.3515625
 40
0.359375
 40
0.36328125
 40
0.3671875
 40
0.369140625
 40
0.37109375
 40
0.373046875
 40
0.3740234375
 40
0.3745117188
 40
0.375
 40
0.3754882812
 40
0.3759765625
 40
0.376953125
 40
0.37890625
 40
0.380859375
 40
0.3828125
 40
0.38671875
 40
0.390625
 40
0.3984375
 40
0.40625
 40
0.4140625
 40
0.421875
 40
0.42578125
 40
0.4296875
 40
0.431640625
 40
0.43359375
 40
0.435546875
 40
0.4365234375
 40
0.4370117188
 40
0.4375
 40
0.4379882812
 40
0.4384765625
 40
0.439453125
 40
0.44140625
 40
0.443359375
 40
0.4453125
 40
0.44921875
 40
0.453125
 40
0.4609375
 40
0.46875
 40
0.4765625
 40
0.484375
 40
0.48828125
 40
0.4921875
 40
0.494140625
 40
0.49609375
 40
0.498046875
 40
0.4990234375
 40
0.4995117188
 40
0.5
 40
0.5004882812
 40
0.5009765625
 40
0.501953125
 40
0.50390625
 40
0.505859375
 40
0.5078125
 40
0.51171875
 40
0.515625
 40
0.5234375
 40
0.53125
 40
0.5390625
 40
0.546875
 40
0.55078125
 40
0.5546875
 40
0.556640625
 40
0.55859375
 40
0.560546875
 40
0.5615234375
 40
0.5620117188
 40
0.5625
 40
0.5629882812
 40
0.5634765625
 40
0.564453125
 40
0.56640625
 40
0.568359375
 40
0.5703125
 40
0.57421875
 40
0.578125
 40
0.5859375
 40
0.59375
 40
0.6015625
 40
0.609375
 40
0.61328125
 40
0.6171875
 40
0.619140625
 40
0.62109375
 40
0.623046875
 40
0.6240234375
 40
0.6245117188
 40
0.625
 40
0.6254882812
 40
0.6259765625
 40
0.626953125
 40
0.62890625
 40
0.630859375
 40
0.6328125
 40
0.63671875
 40
0.640625
 40
0.6484375
 40
0.65625
 40
0.6640625
 40
0.671875
 40
0.67578125
 40
0.6796875
 40
0.681640625
 40
0.68359375
 40
0.685546875
 40
0.6865234375
 40
0.6870117188
 40
0.6875
 40
0.6879882812
 40
0.6884765625
 40
0.689453125
 40
0.69140625
 40
0.693359375
 40
0.6953125
 40
0.69921875
 40
0.703125
 40
0.7109375
 40
0.71875
 40
0.7265625
 40
0.734375
 40
0.73828125
 40
0.7421875
 40
0.744140625
 40
0.74609375
 40
0.748046875
 40
0.7490234375
 40
0.7495117188
 40
0.75
 40
0.7504882812
 40
0.7509765625
 40
0.751953125
 40
0.75390625
 40
0.755859375
 40
0.7578125
 40
0.76171875
 40
0.765625
 40
0.7734375
 40
0.78125
 40
0.7890625
 40
0.796875
 40
0.80078125
 40
0.8046875
 40
0.806640625
 40
0.80859375
 40
0.810546875
 40
0.8115234375
 40
0.8120117188
 40
0.8125
 40
0.8129882812
 40
0.8134765625
 40
0.814453125
 40
0.81640625
 40
0.818359375
 40
0.8203125
 40
0.82421875
 40
0.828125
 40
0.8359375
 40
0.84375
 40
0.8515625
 40
0.859375
 40
0.86328125
 40
0.8671875
 40
0.869140625
 40
0.87109375
 40
0.873046875
 40
0.8740234375
 40
0.8745117188
 40
0.875
 40
0.8754882812
 40
0.8759765625
 40
0.876953125
 40
0.87890625
 40
0.880859375
 40
0.8828125
 40
0.88671875
 40
0.890625
 40
0.8984375
 40
0.90625
 40
0.9140625
 40
0.921875
 40
0.92578125
 40
0.9296875
 40
0.931640625
 40
0.93359375
 40
0.935546875
 40
0.9365234375
 40
0.9370117188
 40
0.9375
 40
0.9379882812
 40
0.9384765625
 40
0.939453125
 40
0.94140625
 40
0.943359375
 40
0.9453125
 40
0.94921875
 40
0.953125
 40
0.9609375
 40
0.96875
 40
0.9765625
 40
0.984375
 40
1.0
 40
1.0
 40
1.0
 40
1.0
 10
10.251082711
 20
9.6674840497
 30
0.0
 10
10.2542158979
 20
9.6675739741
 30
0.0
 10
10.2589156784
 20
9.6677088604
 30
0.0
 10
10.2651820521
 20
9.6678887099
 30
0.0
 10
10.2698818328
 20
9.6680235946
 30
0.0
 10
10.2745816118
 20
9.6681584886
 30
0.0
 10
10.2784980999
 20
9.6682708709
 30
0.0
 10
10.2816312776
 20
9.6683608427
 30
0.0
 10
10.283589543
 20
9.6684169249
 30
0.0
 10
10.2851560881
 20
9.6684621346
 30
0.0
 10
10.2863311809
 20
9.6684951001
 30
0.0
 10
10.2873098397
 20
9.6685255673
 30
0.0
 10
10.2879960493
 20
9.6685410149
 30
0.0
 10
10.2883863759
 20
9.6685590223
 30
0.0
 10
10.2886841721
 20
9.6685466673
 30
0.0
 10
10.2889626601
 20
9.6686331642
 30
0.0
 10
10.2893407124
 20
9.6687140127
 30
0.0
 10
10.2899991661
 20
9.6688715628
 30
0.0
 10
10.2909414547
 20
9.6690882353
 30
0.0
 10
10.2920714988
 20
9.6693518374
 30
0.0
 10
10.2935784695
 20
9.6697020512
 30
0.0
 10
10.295462099
 20
9.6701402484
 30
0.0
 10
10.2984759531
 20
9.6708411235
 30
0.0
 10
10.3022432543
 20
9.6717173004
 30
0.0
 10
10.3067640238
 20
9.6727686748
 30
0.0
 10
10.3112847877
 20
9.6738200678
 30
0.0
 10
10.3150521027
 20
9.6746961983
 30
0.0
 10
10.3180659293
 20
9.6753971662
 30
0.0
 10
10.3199496286
 20
9.6758351274
 30
0.0
 10
10.3214564561
 20
9.6761858254
 30
0.0
 10
10.3225869377
 20
9.6764479483
 30
0.0
 10
10.3235278576
 20
9.676669249
 30
0.0
 10
10.3241887545
 20
9.676818537
 30
0.0
 10
10.3245628921
 20
9.6769126234
 30
0.0
 10
10.3248534051
 20
9.6769584578
 30
0.0
 10
10.3251060375
 20
9.6770988245
 30
0.0
 10
10.3254560938
 20
9.6772530063
 30
0.0
 10
10.3260625362
 20
9.6775381875
 30
0.0
 10
10.326932101
 20
9.6779375572
 30
0.0
 10
10.3279742011
 20
9.6784202389
 30
0.0
 10
10.3293641491
 20
9.6790626136
 30
0.0
 10
10.3311014193
 20
9.6798659931
 30
0.0
 10
10.3338811437
 20
9.6811511705
 30
0.0
 10
10.3373557674
 20
9.6827577216
 30
0.0
 10
10.3415253307
 20
9.6846855467
 30
0.0
 10
10.3456948857
 20
9.6866133898
 30
0.0
 10
10.3491695301
 20
9.688219896
 30
0.0
 10
10.3519492131
 20
9.6895051632
 30
0.0
 10
10.3536865887
 20
9.6903083145
 30
0.0
 10
10.3550763203
 20
9.6909511577
 30
0.0
 10
10.3561190816
 20
9.6914324079
 30
0.0
 10
10.3569865777
 20
9.6918362561
 30
0.0
 10
10.357596713
 20
9.6921134426
 30
0.0
 10
10.3579408523
 20
9.6922804339
 30
0.0
 10
10.3582116599
 20
9.6923814537
 30
0.0
 10
10.3584339099
 20
9.6925750688
 30
0.0
 10
10.3587471806
 20
9.6928009239
 30
0.0
 10
10.359287513
 20
9.6932112188
 30
0.0
 10
10.3600635422
 20
9.6937894869
 30
0.0
 10
10.3609930112
 20
9.6944867761
 30
0.0
 10
10.3622329201
 20
9.6954153189
 30
0.0
 10
10.3637825949
 20
9.6965764
 30
0.0
 10
10.3662621928
 20
9.6984339048
 30
0.0
 10
10.3693616492
 20
9.7007558634
 30
0.0
 10
10.3730810163
 20
9.7035421787
 30
0.0
 10
10.3768003712
 20
9.7063285097
 30
0.0
 10
10.3798998579
 20
9.7086504291
 30
0.0
 10
10.3823793951
 20
9.7105080122
 30
0.0
 10
10.3839292242
 20
9.7116688942
 30
0.0
 10
10.3851688165
 20
9.7125978457
 30
0.0
 10
10.3860992526
 20
9.7132938863
 30
0.0
 10
10.3868722561
 20
9.7138760609
 30
0.0
 10
10.3874179898
 20
9.714279382
 30
0.0
 10
10.3877226062
 20
9.714516411
 30
0.0
 10
10.3879714398
 20
9.7146757036
 30
0.0
 10
10.3881424038
 20
9.7149056326
 30
0.0
 10
10.3883975175
 20
9.7151875659
 30
0.0
 10
10.3888313114
 20
9.7156924289
 30
0.0
 10
10.3894576332
 20
9.7164076599
 30
0.0
 10
10.3902063874
 20
9.717268506
 30
0.0
 10
10.3912057155
 20
9.7184154037
 30
0.0
 10
10.392454537
 20
9.7198493329
 30
0.0
 10
10.3944528406
 20
9.7221434479
 30
0.0
 10
10.3969506547
 20
9.725011151
 30
0.0
 10
10.3999480617
 20
9.7284523678
 30
0.0
 10
10.4029454533
 20
9.7318935973
 30
0.0
 10
10.4054433059
 20
9.7347612687
 30
0.0
 10
10.4074415325
 20
9.737055447
 30
0.0
 10
10.4086905497
 20
9.7384892156
 30
0.0
 10
10.409689476
 20
9.7396364429
 30
0.0
 10
10.4104394577
 20
9.7404962819
 30
0.0
 10
10.411061939
 20
9.741214664
 30
0.0
 10
10.4115025889
 20
9.7417139017
 30
0.0
 10
10.4117467176
 20
9.7420048479
 30
0.0
 10
10.4119514242
 20
9.7422070922
 30
0.0
 10
10.412073526
 20
9.7424703643
 30
0.0
 10
10.4122651418
 20
9.7428001065
 30
0.0
 10
10.4125870449
 20
9.7433870735
 30
0.0
 10
10.4130539249
 20
9.7442204125
 30
0.0
 10
10.4136111768
 20
9.7452226387
 30
0.0
 10
10.4143552287
 20
9.7465581652
 30
0.0
 10
10.4152849342
 20
9.7482278387
 30
0.0
 10
10.4167726638
 20
9.750899168
 30
0.0
 10
10.4186322565
 20
9.7542383807
 30
0.0
 10
10.4208637997
 20
9.7582454129
 30
0.0
 10
10.4230953261
 20
9.7622524553
 30
0.0
 10
10.4249549606
 20
9.7655916427
 30
0.0
 10
10.4264426066
 20
9.7682630226
 30
0.0
 10
10.4273725248
 20
9.7699325673
 30
0.0
 10
10.42811614
 20
9.7712683581
 30
0.0
 10
10.4286747258
 20
9.7722697767
 30
0.0
 10
10.4291374326
 20
9.7731056428
 30
0.0
 10
10.4294667856
 20
9.7736880985
 30
0.0
 10
10.4296464647
 20
9.774025069
 30
0.0
 10
10.4298052325
 20
9.7742661381
 30
0.0
 10
10.4298722276
 20
9.7745517729
 30
0.0
 10
10.4299935658
 20
9.7749170743
 30
0.0
 10
10.430190993
 20
9.7755635945
 30
0.0
 10
10.4304808294
 20
9.7764834082
 30
0.0
 10
10.4308252954
 20
9.7775888055
 30
0.0
 10
10.4312857493
 20
9.7790621023
 30
0.0
 10
10.4318609174
 20
9.7809039172
 30
0.0
 10
10.4327814096
 20
9.7838507127
 30
0.0
 10
10.4339319477
 20
9.7875342445
 30
0.0
 10
10.4353126288
 20
9.7919544657
 30
0.0
 10
10.4366932918
 20
9.7963746947
 30
0.0
 10
10.4378438753
 20
9.8000582072
 30
0.0
 10
10.4387642767
 20
9.8030050411
 30
0.0
 10
10.4393396756
 20
9.8048467584
 30
0.0
 10
10.4397996557
 20
9.8063202557
 30
0.0
 10
10.440145569
 20
9.8074250404
 30
0.0
 10
10.4404308774
 20
9.8083467706
 30
0.0
 10
10.4406363879
 20
9.8089898695
 30
0.0
 10
10.4407447745
 20
9.8093606527
 30
0.0
 10
10.4408515527
 20
9.8096294492
 30
0.0
 10
10.440860902
 20
9.8099337605
 30
0.0
 10
10.440907352
 20
9.810327121
 30
0.0
 10
10.4409728056
 20
9.8110212736
 30
0.0
 10
10.4410745888
 20
9.8120099026
 30
0.0
 10
10.4411931854
 20
9.813197549
 30
0.0
 10
10.4413525518
 20
9.8147806264
 30
0.0
 10
10.4415513361
 20
9.8167596276
 30
0.0
 10
10.4418696278
 20
9.8199259433
 30
0.0
 10
10.4422674105
 20
9.8238838674
 30
0.0
 10
10.4427447874
 20
9.8286333638
 30
0.0
 10
10.4432221451
 20
9.8333828634
 30
0.0
 10
10.4436199755
 20
9.8373407795
 30
0.0
 10
10.4439381719
 20
9.8405071112
 30
0.0
 10
10.4441371984
 20
9.8424860715
 30
0.0
 10
10.4442960675
 20
9.844069233
 30
0.0
 10
10.4444161834
 20
9.8452566224
 30
0.0
 10
10.4445132132
 20
9.8462460555
 30
0.0
 10
10.4445871525
 20
9.8469387726
 30
0.0
 10
10.4446200062
 20
9.8473344331
 30
0.0
 10
10.4446711189
 20
9.8476316796
 30
0.0
 10
10.4446210406
 20
9.8479270104
 30
0.0
 10
10.444589566
 20
9.8483214531
 30
0.0
 10
10.4445180403
 20
9.8490114164
 30
0.0
 10
10.4444244584
 20
9.849997241
 30
0.0
 10
10.44430848
 20
9.8511801609
 30
0.0
 10
10.4441551275
 20
9.8527574118
 30
0.0
 10
10.4439629968
 20
9.854728967
 30
0.0
 10
10.4436558337
 20
9.85788346
 30
0.0
 10
10.4432717948
 20
9.8618265747
 30
0.0
 10
10.442810987
 20
9.8665583133
 30
0.0
 10
10.44235016
 20
9.8712900504
 30
0.0
 10
10.4419661689
 20
9.8752331686
 30
0.0
 10
10.4416589104
 20
9.8783876547
 30
0.0
 10
10.4414670221
 20
9.8803592275
 30
0.0
 10
10.4413131721
 20
9.8819364422
 30
0.0
 10
10.4411987136
 20
9.8831194727
 30
0.0
 10
10.4411003762
 20
9.8841049512
 30
0.0
 10
10.4410373398
 20
9.8847955324
 30
0.0
 10
10.4409922632
 20
9.8851889851
 30
0.0
 10
10.4409839659
 20
9.8854873567
 30
0.0
 10
10.4408781558
 20
9.8857731827
 30
0.0
 10
10.4407710893
 20
9.8861586601
 30
0.0
 10
10.4405678753
 20
9.8868312067
 30
0.0
 10
10.4402858548
 20
9.8877930535
 30
0.0
 10
10.4399438839
 20
9.8889468133
 30
0.0
 10
10.4394891613
 20
9.8904853192
 30
0.0
 10
10.438920334
 20
9.8924083969
 30
0.0
 10
10.4380104474
 20
9.8954853519
 30
0.0
 10
10.4368730073
 20
9.8993315349
 30
0.0
 10
10.4355081165
 20
9.9039469598
 30
0.0
 10
10.4341432074
 20
9.9085623805
 30
0.0
 10
10.4330058128
 20
9.9124085741
 30
0.0
 10
10.4320958353
 20
9.9154855079
 30
0.0
 10
10.431527239
 20
9.9174086394
 30
0.0
 10
10.4310720422
 20
9.918947035
 30
0.0
 10
10.4307315202
 20
9.9201011318
 30
0.0
 10
10.4304449665
 20
9.9210619243
 30
0.0
 10
10.4302498451
 20
9.921736353
 30
0.0
 10
10.4301298121
 20
9.9221188148
 30
0.0
 10
10.4300638306
 20
9.9224139037
 30
0.0
 10
10.4299059437
 20
9.9226774855
 30
0.0
 10
10.4297274855
 20
9.923039918
 30
0.0
 10
10.4294002474
 20
9.9236690544
 30
0.0
 10
10.4289405731
 20
9.9245704977
 30
0.0
 10
10.4283856216
 20
9.9256510838
 30
0.0
 10
10.4276468537
 20
9.9270922655
 30
0.0
 10
10.426722994
 20
9.9288936056
 30
0.0
 10
10.4252450421
 20
9.9317758264
 30
0.0
 10
10.423397525
 20
9.9353785759
 30
0.0
 10
10.4211805397
 20
9.9397018876
 30
0.0
 10
10.418963537
 20
9.9440251922
 30
0.0
 10
10.4171160634
 20
9.9476279594
 30
0.0
 10
10.4156380245
 20
9.9505101447
 30
0.0
 10
10.4147143859
 20
9.9523115749
 30
0.0
 10
10.4139751644
 20
9.9537525716
 30
0.0
 10
10.4134215984
 20
9.9548337229
 30
0.0
 10
10.4129575892
 20
9.9557333981
 30
0.0
 10
10.4126380897
 20
9.9563656908
 30
0.0
 10
10.4124472322
 20
9.9567230661
 30
0.0
 10
10.4123274319
 20
9.9570021819
 30
0.0
 10
10.4121184037
 20
9.957238928
 30
0.0
 10
10.4118708232
 20
9.9575693686
 30
0.0
 10
10.4114230561
 20
9.9581407537
 30
0.0
 10
10.4107909702
 20
9.9589606182
 30
0.0
 10
10.4100292221
 20
9.9599429146
 30
0.0
 10
10.4090146914
 20
9.9612531814
 30
0.0
 10
10.4077461399
 20
9.9628908306
 30
0.0
 10
10.4057166744
 20
9.9655111724
 30
0.0
 10
10.4031797678
 20
9.9687865638
 30
0.0
 10
10.4001355135
 20
9.9727170507
 30
0.0
 10
10.3970912444
 20
9.9766475264
 30
0.0
 10
10.3945543748
 20
9.9799229456
 30
0.0
 10
10.3925248353
 20
9.9825432319
 30
0.0
 10
10.3912564722
 20
9.9841810222
 30
0.0
 10
10.3902415547
 20
9.9854909993
 30
0.0
 10
10.3894809881
 20
9.9864741809
 30
0.0
 10
10.3888452056
 20
9.987291276
 30
0.0
 10
10.3884040377
 20
9.9878676049
 30
0.0
 10
10.3881458835
 20
9.9881901243
 30
0.0
 10
10.3879693342
 20
9.9884512016
 30
0.0
 10
10.3877275488
 20
9.9886389335
 30
0.0
 10
10.3874279233
 20
9.9889148263
 30
0.0
 10
10.3868929767
 20
9.9893857189
 30
0.0
 10
10.3861343101
 20
9.9900646544
 30
0.0
 10
10.3852215376
 20
9.9908767096
 30
0.0
 10
10.3840053364
 20
9.9919603815
 30
0.0
 10
10.3824848011
 20
9.9933146524
 30
0.0
 10
10.3800521032
 20
9.9954816642
 30
0.0
 10
10.3770111762
 20
9.9981903674
 30
0.0
 10
10.3733620885
 20
10.0014408394
 30
0.0
 10
10.3697129892
 20
10.0046912969
 30
0.0
 10
10.3666720911
 20
10.0074000365
 30
0.0
 10
10.3642393353
 20
10.0095669753
 30
0.0
 10
10.3627189471
 20
10.0109214318
 30
0.0
 10
10.361502444
 20
10.0120047229
 30
0.0
 10
10.3605905936
 20
10.0128179416
 30
0.0
 10
10.3598290423
 20
10.0134932367
 30
0.0
 10
10.3592992454
 20
10.0139706281
 30
0.0
 10
10.3589913688
 20
10.0142361081
 30
0.0
 10
10.3587749281
 20
10.014455825
 30
0.0
 10
10.3585031882
 20
10.014596772
 30
0.0
 10
10.3581601574
 20
10.0148121771
 30
0.0
 10
10.3575508663
 20
10.0151763346
 30
0.0
 10
10.3566851491
 20
10.0157032524
 30
0.0
 10
10.3556442773
 20
10.016332689
 30
0.0
 10
10.3542571507
 20
10.0171729384
 30
0.0
 10
10.3525230018
 20
10.0182229075
 30
0.0
 10
10.3497484982
 20
10.0199030496
 30
0.0
 10
10.3462803223
 20
10.0220031611
 30
0.0
 10
10.342118532
 20
10.0245233254
 30
0.0
 10
10.3379567327
 20
10.0270434736
 30
0.0
 10
10.3344885793
 20
10.0291436253
 30
0.0
 10
10.3317140308
 20
10.0308236869
 30
0.0
 10
10.329979996
 20
10.0318738609
 30
0.0
 10
10.3285926353
 20
10.0327136899
 30
0.0
 10
10.3275524787
 20
10.0333444107
 30
0.0
 10
10.3266845237
 20
10.0338673104
 30
0.0
 10
10.3260792274
 20
10.0342386409
 30
0.0
 10
10.3257297961
 20
10.0344425531
 30
0.0
 10
10.3254777164
 20
10.0346188027
 30
0.0
 10
10.3251874354
 20
10.0347059289
 30
0.0
 10
10.3248137192
 20
10.0348531844
 30
0.0
 10
10.3241535073
 20
10.0350963974
 30
0.0
 10
10.3232135934
 20
10.0354514171
 30
0.0
 10
10.3220843074
 20
10.0358741994
 30
0.0
 10
10.3205790779
 20
10.0364390412
 30
0.0
 10
10.318697375
 20
10.0371447059
 30
0.0
 10
10.3156867431
 20
10.0382739861
 30
0.0
 10
10.3119234213
 20
10.0396855115
 30
0.0
 10
10.3074074495
 20
10.0413793763
 30
0.0
 10
10.3028914713
 20
10.0430732234
 30
0.0
 10
10.2991281655
 20
10.0444847931
 30
0.0
 10
10.2961175015
 20
10.0456139847
 30
0.0
 10
10.2942358802
 20
10.0463198745
 30
0.0
 10
10.2927304831
 20
10.0468842543
 30
0.0
 10
10.2916017093
 20
10.0473084483
 30
0.0
 10
10.2906601928
 20
10.047659051
 30
0.0
 10
10.2900028418
 20
10.047910149
 30
0.0
 10
10.2896245419
 20
10.0480447709
 30
0.0
 10
10.2893483404
 20
10.0481707037
 30
0.0
 10
10.2890433805
 20
10.048201202
 30
0.0
 10
10.2886467986
 20
10.0482751551
 30
0.0
 10
10.2879481064
 20
10.0483890631
 30
0.0
 10
10.2869524183
 20
10.0485598976
 30
0.0
 10
10.2857565467
 20
10.0487614281
 30
0.0
 10
10.2841624165
 20
10.0490313478
 30
0.0
 10
10.2821696286
 20
10.0493683324
 30
0.0
 10
10.278981238
 20
10.0499077397
 30
0.0
 10
10.2749957257
 20
10.0505819191
 30
0.0
 10
10.2702131212
 20
10.0513909686
 30
0.0
 10
10.2654305139
 20
10.052200009
 30
0.0
 10
10.2590537053
 20
10.0532787327
 30
0.0
 10
10.2542710985
 20
10.0540877748
 30
0.0
 10
10.2510826941
 20
10.0546271363
 30
0.0
  0
SPLINE
  5
39A
100
AcDbEntity
  8
0
100
AcDbSpline
 62
4
  6
CONTINUOUS
 70
0
 71
3
 72
313
 73
309
 74
0
 42
0.0000001
 43
0.0000001
 44
0.0000000001
 40
0.0
 40
0.0
 40
0.0
 40
0.0
 40
0.015625
 40
0.0234375
 40
0.03125
 40
0.0390625
 40
0.046875
 40
0.05078125
 40
0.0546875
 40
0.056640625
 40
0.05859375
 40
0.060546875
 40
0.0615234375
 40
0.0620117188
 40
0.0625
 40
0.0629882812
 40
0.0634765625
 40
0.064453125
 40
0.06640625
 40
0.068359375
 40
0.0703125
 40
0.07421875
 40
0.078125
 40
0.0859375
 40
0.09375
 40
0.1015625
 40
0.109375
 40
0.11328125
 40
0.1171875
 40
0.119140625
 40
0.12109375
 40
0.123046875
 40
0.1240234375
 40
0.1245117188
 40
0.125
 40
0.1254882812
 40
0.1259765625
 40
0.126953125
 40
0.12890625
 40
0.130859375
 40
0.1328125
 40
0.13671875
 40
0.140625
 40
0.1484375
 40
0.15625
 40
0.1640625
 40
0.171875
 40
0.17578125
 40
0.1796875
 40
0.181640625
 40
0.18359375
 40
0.185546875
 40
0.1865234375
 40
0.1870117188
 40
0.1875
 40
0.1879882812
 40
0.1884765625
 40
0.189453125
 40
0.19140625
 40
0.193359375
 40
0.1953125
 40
0.19921875
 40
0.203125
 40
0.2109375
 40
0.21875
 40
0.2265625
 40
0.234375
 40
0.23828125
 40
0.2421875
 40
0.244140625
 40
0.24609375
 40
0.248046875
 40
0.2490234375
 40
0.2495117188
 40
0.25
 40
0.2504882812
 40
0.2509765625
 40
0.251953125
 40
0.25390625
 40
0.255859375
 40
0.2578125
 40
0.26171875
 40
0.265625
 40
0.2734375
 40
0.28125
 40
0.2890625
 40
0.296875
 40
0.30078125
 40
0.3046875
 40
0.306640625
 40
0.30859375
 40
0.310546875
 40
0.3115234375
 40
0.3120117188
 40
0.3125
 40
0.3129882812
 40
0.3134765625
 40
0.314453125
 40
0.31640625
 40
0.318359375
 40
0.3203125
 40
0.32421875
 40
0.328125
 40
0.3359375
 40
0.34375
 40
0.3515625
 40
0.359375
 40
0.36328125
 40
0.3671875
 40
0.369140625
 40
0.37109375
 40
0.373046875
 40
0.3740234375
 40
0.3745117188
 40
0.375
 40
0.3754882812
 40
0.3759765625
 40
0.376953125
 40
0.37890625
 40
0.380859375
 40
0.3828125
 40
0.38671875
 40
0.390625
 40
0.3984375
 40
0.40625
 40
0.4140625
 40
0.421875
 40
0.42578125
 40
0.4296875
 40
0.431640625
 40
0.43359375
 40
0.435546875
 40
0.4365234375
 40
0.4370117188
 40
0.4375
 40
0.4379882812
 40
0.4384765625
 40
0.439453125
 40
0.44140625
 40
0.443359375
 40
0.4453125
 40
0.44921875
 40
0.453125
 40
0.4609375
 40
0.46875
 40
0.4765625
 40
0.484375
 40
0.48828125
 40
0.4921875
 40
0.494140625
 40
0.49609375
 40
0.498046875
 40
0.4990234375
 40
0.4995117188
 40
0.5
 40
0.5004882812
 40
0.5009765625
 40
0.501953125
 40
0.50390625
 40
0.505859375
 40
0.5078125
 40
0.51171875
 40
0.515625
 40
0.5234375
 40
0.53125
 40
0.5390625
 40
0.546875
 40
0.55078125
 40
0.5546875
 40
0.556640625
 40
0.55859375
 40
0.560546875
 40
0.5615234375
 40
0.5620117188
 40
0.5625
 40
0.5629882812
 40
0.5634765625
 40
0.564453125
 40
0.56640625
 40
0.568359375
 40
0.5703125
 40
0.57421875
 40
0.578125
 40
0.5859375
 40
0.59375
 40
0.6015625
 40
0.609375
 40
0.61328125
 40
0.6171875
 40
0.619140625
 40
0.62109375
 40
0.623046875
 40
0.6240234375
 40
0.6245117188
 40
0.625
 40
0.6254882812
 40
0.6259765625
 40
0.626953125
 40
0.62890625
 40
0.630859375
 40
0.6328125
 40
0.63671875
 40
0.640625
 40
0.6484375
 40
0.65625
 40
0.6640625
 40
0.671875
 40
0.67578125
 40
0.6796875
 40
0.681640625
 40
0.68359375
 40
0.685546875
 40
0.6865234375
 40
0.6870117188
 40
0.6875
 40
0.6879882812
 40
0.6884765625
 40
0.689453125
 40
0.69140625
 40
0.693359375
 40
0.6953125
 40
0.69921875
 40
0.703125
 40
0.7109375
 40
0.71875
 40
0.7265625
 40
0.734375
 40
0.73828125
 40
0.7421875
 40
0.744140625
 40
0.74609375
 40
0.748046875
 40
0.7490234375
 40
0.7495117188
 40
0.75
 40
0.7504882812
 40
0.7509765625
 40
0.751953125
 40
0.75390625
 40
0.755859375
 40
0.7578125
 40
0.76171875
 40
0.765625
 40
0.7734375
 40
0.78125
 40
0.7890625
 40
0.796875
 40
0.80078125
 40
0.8046875
 40
0.806640625
 40
0.80859375
 40
0.810546875
 40
0.8115234375
 40
0.8120117188
 40
0.8125
 40
0.8129882812
 40
0.8134765625
 40
0.814453125
 40
0.81640625
 40
0.818359375
 40
0.8203125
 40
0.82421875
 40
0.828125
 40
0.8359375
 40
0.84375
 40
0.8515625
 40
0.859375
 40
0.86328125
 40
0.8671875
 40
0.869140625
 40
0.87109375
 40
0.873046875
 40
0.8740234375
 40
0.8745117188
 40
0.875
 40
0.8754882812
 40
0.8759765625
 40
0.876953125
 40
0.87890625
 40
0.880859375
 40
0.8828125
 40
0.88671875
 40
0.890625
 40
0.8984375
 40
0.90625
 40
0.9140625
 40
0.921875
 40
0.92578125
 40
0.9296875
 40
0.931640625
 40
0.93359375
 40
0.935546875
 40
0.9365234375
 40
0.9370117188
 40
0.9375
 40
0.9379882812
 40
0.9384765625
 40
0.939453125
 40
0.94140625
 40
0.943359375
 40
0.9453125
 40
0.94921875
 40
0.953125
 40
0.9609375
 40
0.96875
 40
0.9765625
 40
0.984375
 40
1.0
 40
1.0
 40
1.0
 40
1.0
 10
10.251082711
 20
10.0546271351
 30
0.0
 10
10.2479495241
 20
10.0545372107
 30
0.0
 10
10.2432497437
 20
10.0544023243
 30
0.0
 10
10.23698337
 20
10.0542224749
 30
0.0
 10
10.2322835892
 20
10.0540875902
 30
0.0
 10
10.2275838103
 20
10.0539526961
 30
0.0
 10
10.2236673221
 20
10.0538403139
 30
0.0
 10
10.2205341444
 20
10.0537503421
 30
0.0
 10
10.2185758791
 20
10.0536942599
 30
0.0
 10
10.2170093339
 20
10.0536490502
 30
0.0
 10
10.2158342412
 20
10.0536160847
 30
0.0
 10
10.2148555823
 20
10.0535856175
 30
0.0
 10
10.2141693728
 20
10.0535701698
 30
0.0
 10
10.2137790461
 20
10.0535521625
 30
0.0
 10
10.21348125
 20
10.0535645175
 30
0.0
 10
10.2132027619
 20
10.0534780206
 30
0.0
 10
10.2128247096
 20
10.0533971721
 30
0.0
 10
10.212166256
 20
10.053239622
 30
0.0
 10
10.2112239674
 20
10.0530229494
 30
0.0
 10
10.2100939233
 20
10.0527593473
 30
0.0
 10
10.2085869525
 20
10.0524091336
 30
0.0
 10
10.2067033231
 20
10.0519709364
 30
0.0
 10
10.203689469
 20
10.0512700613
 30
0.0
 10
10.1999221677
 20
10.0503938844
 30
0.0
 10
10.1954013983
 20
10.04934251
 30
0.0
 10
10.1908806343
 20
10.048291117
 30
0.0
 10
10.1871133193
 20
10.0474149865
 30
0.0
 10
10.1840994927
 20
10.0467140186
 30
0.0
 10
10.1822157935
 20
10.0462760573
 30
0.0
 10
10.1807089659
 20
10.0459253594
 30
0.0
 10
10.1795784844
 20
10.0456632365
 30
0.0
 10
10.1786375645
 20
10.0454419358
 30
0.0
 10
10.1779766675
 20
10.0452926478
 30
0.0
 10
10.17760253
 20
10.0451985614
 30
0.0
 10
10.1773120169
 20
10.045152727
 30
0.0
 10
10.1770593846
 20
10.0450123602
 30
0.0
 10
10.1767093282
 20
10.0448581785
 30
0.0
 10
10.1761028859
 20
10.0445729973
 30
0.0
 10
10.1752333211
 20
10.0441736275
 30
0.0
 10
10.174191221
 20
10.0436909459
 30
0.0
 10
10.172801273
 20
10.0430485712
 30
0.0
 10
10.1710640028
 20
10.0422451917
 30
0.0
 10
10.1682842783
 20
10.0409600143
 30
0.0
 10
10.1648096546
 20
10.0393534632
 30
0.0
 10
10.1606400914
 20
10.0374256381
 30
0.0
 10
10.1564705364
 20
10.035497795
 30
0.0
 10
10.152995892
 20
10.0338912888
 30
0.0
 10
10.150216209
 20
10.0326060216
 30
0.0
 10
10.1484788333
 20
10.0318028703
 30
0.0
 10
10.1470891018
 20
10.0311600271
 30
0.0
 10
10.1460463405
 20
10.0306787768
 30
0.0
 10
10.1451788444
 20
10.0302749287
 30
0.0
 10
10.1445687091
 20
10.0299977422
 30
0.0
 10
10.1442245697
 20
10.0298307509
 30
0.0
 10
10.1439537622
 20
10.0297297311
 30
0.0
 10
10.1437315122
 20
10.029536116
 30
0.0
 10
10.1434182414
 20
10.0293102608
 30
0.0
 10
10.142877909
 20
10.028899966
 30
0.0
 10
10.1421018799
 20
10.0283216979
 30
0.0
 10
10.1411724108
 20
10.0276244087
 30
0.0
 10
10.139932502
 20
10.0266958659
 30
0.0
 10
10.1383828271
 20
10.0255347847
 30
0.0
 10
10.1359032293
 20
10.02367728
 30
0.0
 10
10.1328037729
 20
10.0213553214
 30
0.0
 10
10.1290844058
 20
10.0185690061
 30
0.0
 10
10.1253650508
 20
10.0157826751
 30
0.0
 10
10.1222655641
 20
10.0134607557
 30
0.0
 10
10.1197860269
 20
10.0116031726
 30
0.0
 10
10.1182361978
 20
10.0104422905
 30
0.0
 10
10.1169966055
 20
10.0095133391
 30
0.0
 10
10.1160661694
 20
10.0088172985
 30
0.0
 10
10.115293166
 20
10.0082351239
 30
0.0
 10
10.1147474322
 20
10.0078318028
 30
0.0
 10
10.1144428159
 20
10.0075947738
 30
0.0
 10
10.1141939822
 20
10.0074354812
 30
0.0
 10
10.1140230183
 20
10.0072055521
 30
0.0
 10
10.1137679045
 20
10.0069236188
 30
0.0
 10
10.1133341106
 20
10.0064187559
 30
0.0
 10
10.1127077888
 20
10.0057035249
 30
0.0
 10
10.1119590346
 20
10.0048426787
 30
0.0
 10
10.1109597065
 20
10.0036957811
 30
0.0
 10
10.1097108851
 20
10.0022618519
 30
0.0
 10
10.1077125814
 20
9.9999677368
 30
0.0
 10
10.1052147673
 20
9.9971000338
 30
0.0
 10
10.1022173604
 20
9.993658817
 30
0.0
 10
10.0992199688
 20
9.9902175875
 30
0.0
 10
10.0967221162
 20
9.987349916
 30
0.0
 10
10.0947238895
 20
9.9850557378
 30
0.0
 10
10.0934748723
 20
9.9836219692
 30
0.0
 10
10.092475946
 20
9.9824747419
 30
0.0
 10
10.0917259643
 20
9.9816149029
 30
0.0
 10
10.0911034831
 20
9.9808965208
 30
0.0
 10
10.0906628331
 20
9.980397283
 30
0.0
 10
10.0904187045
 20
9.9801063368
 30
0.0
 10
10.0902139978
 20
9.9799040926
 30
0.0
 10
10.0900918961
 20
9.9796408205
 30
0.0
 10
10.0899002802
 20
9.9793110783
 30
0.0
 10
10.0895783772
 20
9.9787241113
 30
0.0
 10
10.0891114971
 20
9.9778907723
 30
0.0
 10
10.0885542452
 20
9.976888546
 30
0.0
 10
10.0878101934
 20
9.9755530196
 30
0.0
 10
10.0868804879
 20
9.9738833461
 30
0.0
 10
10.0853927582
 20
9.9712120168
 30
0.0
 10
10.0835331655
 20
9.9678728041
 30
0.0
 10
10.0813016224
 20
9.9638657719
 30
0.0
 10
10.079070096
 20
9.9598587295
 30
0.0
 10
10.0772104615
 20
9.9565195421
 30
0.0
 10
10.0757228155
 20
9.9538481622
 30
0.0
 10
10.0747928973
 20
9.9521786175
 30
0.0
 10
10.074049282
 20
9.9508428266
 30
0.0
 10
10.0734906963
 20
9.9498414081
 30
0.0
 10
10.0730279895
 20
9.949005542
 30
0.0
 10
10.0726986365
 20
9.9484230863
 30
0.0
 10
10.0725189574
 20
9.9480861158
 30
0.0
 10
10.0723601896
 20
9.9478450467
 30
0.0
 10
10.0722931944
 20
9.9475594119
 30
0.0
 10
10.0721718562
 20
9.9471941104
 30
0.0
 10
10.0719744291
 20
9.9465475903
 30
0.0
 10
10.0716845927
 20
9.9456277765
 30
0.0
 10
10.0713401266
 20
9.9445223793
 30
0.0
 10
10.0708796728
 20
9.9430490825
 30
0.0
 10
10.0703045046
 20
9.9412072675
 30
0.0
 10
10.0693840125
 20
9.938260472
 30
0.0
 10
10.0682334743
 20
9.9345769403
 30
0.0
 10
10.0668527932
 20
9.930156719
 30
0.0
 10
10.0654721303
 20
9.9257364901
 30
0.0
 10
10.0643215467
 20
9.9220529776
 30
0.0
 10
10.0634011454
 20
9.9191061436
 30
0.0
 10
10.0628257464
 20
9.9172644264
 30
0.0
 10
10.0623657663
 20
9.9157909291
 30
0.0
 10
10.062019853
 20
9.9146861444
 30
0.0
 10
10.0617345447
 20
9.9137644141
 30
0.0
 10
10.0615290341
 20
9.9131213153
 30
0.0
 10
10.0614206475
 20
9.912750532
 30
0.0
 10
10.0613138693
 20
9.9124817356
 30
0.0
 10
10.06130452
 20
9.9121774243
 30
0.0
 10
10.06125807
 20
9.9117840638
 30
0.0
 10
10.0611926165
 20
9.9110899112
 30
0.0
 10
10.0610908332
 20
9.9101012822
 30
0.0
 10
10.0609722366
 20
9.9089136358
 30
0.0
 10
10.0608128702
 20
9.9073305584
 30
0.0
 10
10.060614086
 20
9.9053515572
 30
0.0
 10
10.0602957943
 20
9.9021852415
 30
0.0
 10
10.0598980115
 20
9.8982273174
 30
0.0
 10
10.0594206347
 20
9.893477821
 30
0.0
 10
10.0589432769
 20
9.8887283214
 30
0.0
 10
10.0585454465
 20
9.8847704053
 30
0.0
 10
10.0582272501
 20
9.8816040735
 30
0.0
 10
10.0580282236
 20
9.8796251133
 30
0.0
 10
10.0578693545
 20
9.8780419518
 30
0.0
 10
10.0577492386
 20
9.8768545624
 30
0.0
 10
10.0576522088
 20
9.8758651292
 30
0.0
 10
10.0575782695
 20
9.8751724121
 30
0.0
 10
10.0575454158
 20
9.8747767517
 30
0.0
 10
10.0574943031
 20
9.8744795052
 30
0.0
 10
10.0575443815
 20
9.8741841744
 30
0.0
 10
10.057575856
 20
9.8737897317
 30
0.0
 10
10.0576473818
 20
9.8730997684
 30
0.0
 10
10.0577409637
 20
9.8721139438
 30
0.0
 10
10.0578569421
 20
9.8709310239
 30
0.0
 10
10.0580102946
 20
9.869353773
 30
0.0
 10
10.0582024253
 20
9.8673822178
 30
0.0
 10
10.0585095884
 20
9.8642277247
 30
0.0
 10
10.0588936272
 20
9.8602846101
 30
0.0
 10
10.0593544351
 20
9.8555528715
 30
0.0
 10
10.059815262
 20
9.8508211343
 30
0.0
 10
10.0601992532
 20
9.8468780162
 30
0.0
 10
10.0605065117
 20
9.8437235301
 30
0.0
 10
10.0606984
 20
9.8417519572
 30
0.0
 10
10.06085225
 20
9.8401747426
 30
0.0
 10
10.0609667084
 20
9.8389917121
 30
0.0
 10
10.0610650458
 20
9.8380062335
 30
0.0
 10
10.0611280823
 20
9.8373156524
 30
0.0
 10
10.0611731589
 20
9.8369221997
 30
0.0
 10
10.0611814561
 20
9.8366238281
 30
0.0
 10
10.0612872662
 20
9.8363380021
 30
0.0
 10
10.0613943328
 20
9.8359525247
 30
0.0
 10
10.0615975468
 20
9.8352799781
 30
0.0
 10
10.0618795672
 20
9.8343181313
 30
0.0
 10
10.0622215382
 20
9.8331643715
 30
0.0
 10
10.0626762607
 20
9.8316258656
 30
0.0
 10
10.063245088
 20
9.8297027878
 30
0.0
 10
10.0641549746
 20
9.8266258329
 30
0.0
 10
10.0652924147
 20
9.8227796499
 30
0.0
 10
10.0666573056
 20
9.818164225
 30
0.0
 10
10.0680222146
 20
9.8135488042
 30
0.0
 10
10.0691596093
 20
9.8097026107
 30
0.0
 10
10.0700695868
 20
9.8066256769
 30
0.0
 10
10.070638183
 20
9.8047025454
 30
0.0
 10
10.0710933798
 20
9.8031641498
 30
0.0
 10
10.0714339019
 20
9.802010053
 30
0.0
 10
10.0717204556
 20
9.8010492605
 30
0.0
 10
10.071915577
 20
9.8003748318
 30
0.0
 10
10.0720356099
 20
9.79999237
 30
0.0
 10
10.0721015914
 20
9.7996972811
 30
0.0
 10
10.0722594783
 20
9.7994336992
 30
0.0
 10
10.0724379365
 20
9.7990712668
 30
0.0
 10
10.0727651747
 20
9.7984421304
 30
0.0
 10
10.0732248489
 20
9.7975406871
 30
0.0
 10
10.0737798005
 20
9.796460101
 30
0.0
 10
10.0745185684
 20
9.7950189192
 30
0.0
 10
10.075442428
 20
9.7932175792
 30
0.0
 10
10.0769203799
 20
9.7903353584
 30
0.0
 10
10.078767897
 20
9.7867326089
 30
0.0
 10
10.0809848823
 20
9.7824092972
 30
0.0
 10
10.083201885
 20
9.7780859926
 30
0.0
 10
10.0850493586
 20
9.7744832254
 30
0.0
 10
10.0865273975
 20
9.7716010401
 30
0.0
 10
10.0874510362
 20
9.7697996099
 30
0.0
 10
10.0881902576
 20
9.7683586131
 30
0.0
 10
10.0887438236
 20
9.7672774619
 30
0.0
 10
10.0892078328
 20
9.7663777867
 30
0.0
 10
10.0895273323
 20
9.765745494
 30
0.0
 10
10.0897181898
 20
9.7653881187
 30
0.0
 10
10.0898379902
 20
9.7651090029
 30
0.0
 10
10.0900470183
 20
9.7648722568
 30
0.0
 10
10.0902945989
 20
9.7645418162
 30
0.0
 10
10.0907423659
 20
9.7639704311
 30
0.0
 10
10.0913744518
 20
9.7631505666
 30
0.0
 10
10.0921361999
 20
9.7621682702
 30
0.0
 10
10.0931507307
 20
9.7608580034
 30
0.0
 10
10.0944192822
 20
9.7592203542
 30
0.0
 10
10.0964487476
 20
9.7566000124
 30
0.0
 10
10.0989856542
 20
9.7533246209
 30
0.0
 10
10.1020299085
 20
9.7493941341
 30
0.0
 10
10.1050741777
 20
9.7454636584
 30
0.0
 10
10.1076110472
 20
9.7421882392
 30
0.0
 10
10.1096405868
 20
9.7395679529
 30
0.0
 10
10.1109089499
 20
9.7379301626
 30
0.0
 10
10.1119238673
 20
9.7366201855
 30
0.0
 10
10.1126844339
 20
9.7356370039
 30
0.0
 10
10.1133202165
 20
9.7348199088
 30
0.0
 10
10.1137613843
 20
9.7342435799
 30
0.0
 10
10.1140195385
 20
9.7339210605
 30
0.0
 10
10.1141960878
 20
9.7336599832
 30
0.0
 10
10.1144378733
 20
9.7334722513
 30
0.0
 10
10.1147374987
 20
9.7331963585
 30
0.0
 10
10.1152724454
 20
9.7327254659
 30
0.0
 10
10.116031112
 20
9.7320465304
 30
0.0
 10
10.1169438844
 20
9.7312344752
 30
0.0
 10
10.1181600857
 20
9.7301508033
 30
0.0
 10
10.119680621
 20
9.7287965323
 30
0.0
 10
10.1221133188
 20
9.7266295205
 30
0.0
 10
10.1251542459
 20
9.7239208174
 30
0.0
 10
10.1288033336
 20
9.7206703453
 30
0.0
 10
10.1324524328
 20
9.7174198879
 30
0.0
 10
10.135493331
 20
9.7147111483
 30
0.0
 10
10.1379260867
 20
9.7125442094
 30
0.0
 10
10.139446475
 20
9.711189753
 30
0.0
 10
10.140662978
 20
9.7101064619
 30
0.0
 10
10.1415748285
 20
9.7092932431
 30
0.0
 10
10.1423363798
 20
9.7086179481
 30
0.0
 10
10.1428661767
 20
9.7081405567
 30
0.0
 10
10.1431740533
 20
9.7078750767
 30
0.0
 10
10.143390494
 20
9.7076553598
 30
0.0
 10
10.1436622338
 20
9.7075144128
 30
0.0
 10
10.1440052647
 20
9.7072990077
 30
0.0
 10
10.1446145557
 20
9.7069348502
 30
0.0
 10
10.145480273
 20
9.7064079324
 30
0.0
 10
10.1465211448
 20
9.7057784958
 30
0.0
 10
10.1479082714
 20
9.7049382464
 30
0.0
 10
10.1496424202
 20
9.7038882773
 30
0.0
 10
10.1524169238
 20
9.7022081351
 30
0.0
 10
10.1558850997
 20
9.7001080237
 30
0.0
 10
10.16004689
 20
9.6975878594
 30
0.0
 10
10.1642086893
 20
9.6950677112
 30
0.0
 10
10.1676768428
 20
9.6929675594
 30
0.0
 10
10.1704513913
 20
9.6912874979
 30
0.0
 10
10.172185426
 20
9.6902373239
 30
0.0
 10
10.1735727868
 20
9.6893974949
 30
0.0
 10
10.1746129434
 20
9.688766774
 30
0.0
 10
10.1754808983
 20
9.6882438744
 30
0.0
 10
10.1760861947
 20
9.6878725439
 30
0.0
 10
10.176435626
 20
9.6876686317
 30
0.0
 10
10.1766877057
 20
9.6874923821
 30
0.0
 10
10.1769779866
 20
9.6874052559
 30
0.0
 10
10.1773517029
 20
9.6872580004
 30
0.0
 10
10.1780119147
 20
9.6870147874
 30
0.0
 10
10.1789518286
 20
9.6866597677
 30
0.0
 10
10.1800811147
 20
9.6862369854
 30
0.0
 10
10.1815863441
 20
9.6856721435
 30
0.0
 10
10.1834680471
 20
9.6849664789
 30
0.0
 10
10.1864786789
 20
9.6838371987
 30
0.0
 10
10.1902420008
 20
9.6824256733
 30
0.0
 10
10.1947579726
 20
9.6807318085
 30
0.0
 10
10.1992739508
 20
9.6790379614
 30
0.0
 10
10.2030372566
 20
9.6776263917
 30
0.0
 10
10.2060479206
 20
9.6764972001
 30
0.0
 10
10.2079295418
 20
9.6757913103
 30
0.0
 10
10.2094349389
 20
9.6752269305
 30
0.0
 10
10.2105637128
 20
9.6748027364
 30
0.0
 10
10.2115052292
 20
9.6744521337
 30
0.0
 10
10.2121625803
 20
9.6742010357
 30
0.0
 10
10.2125408802
 20
9.6740664139
 30
0.0
 10
10.2128170816
 20
9.6739404811
 30
0.0
 10
10.2131220415
 20
9.6739099828
 30
0.0
 10
10.2135186235
 20
9.6738360297
 30
0.0
 10
10.2142173156
 20
9.6737221217
 30
0.0
 10
10.2152130037
 20
9.6735512872
 30
0.0
 10
10.2164088754
 20
9.6733497566
 30
0.0
 10
10.2180030056
 20
9.6730798369
 30
0.0
 10
10.2199957934
 20
9.6727428524
 30
0.0
 10
10.2231841841
 20
9.6722034451
 30
0.0
 10
10.2271696964
 20
9.6715292656
 30
0.0
 10
10.2319523009
 20
9.6707202161
 30
0.0
 10
10.2367349081
 20
9.6699111758
 30
0.0
 10
10.2431117168
 20
9.6688324521
 30
0.0
 10
10.2478943235
 20
9.66802341
 30
0.0
 10
10.2510827279
 20
9.6674840485
 30
0.0
  0
ENDSEC
  0
SECTION
  2
OBJECTS
  0
DICTIONARY
  5
C
100
AcDbDictionary
280
0
281
1
  3
ACAD_GROUP
350
D
  3
ACAD_MLINESTYLE
350
17
  3
ACAD_LAYOUT
350
1A
  3
ACAD_PLOTSETTINGS
350
19
  3
ACAD_PLOTSTYLENAME
350
E
  3
ACAD_IMAGE_DICT
350
       39C
  3
ACAD_IMAGE_VARS
350
       39D
  3
ACAD_TABLESTYLE
350
       39E
  0
IMAGEDEF_REACTOR
  5
39B
100
AcDbRasterImageDefReactor
 90
2
330
28E
  0
DICTIONARY
  5
D
102
{ACAD_REACTORS
330
C
102
}
100
AcDbDictionary
280
0
281
1
  0
ACDBDICTIONARYWDFLT
  5
E
102
{ACAD_REACTORS
330
C
102
}
100
AcDbDictionary
281
1
  3
Normal
350
F
100
AcDbDictionaryWithDefault
340
F
  0
DICTIONARY
  5
39C
330
C
100
AcDbDictionary
281
1
  3
P4M_assy_2_img_1
350
       3A1
  0
RASTERVARIABLES
  5
39D
330
C
100
AcDbRasterVariables
 90
0
 70
0
 71
1
 72
5
  0
DICTIONARY
  5
17
102
{ACAD_REACTORS
330
C
102
}
100
AcDbDictionary
280
0
281
1
  3
Standard
350
18
  0
DICTIONARY
  5
39E
330
C
100
AcDbDictionary
281
1
  3
Standard
350
       3A2
  3
Standard1
350
       3A3
  0
DICTIONARY
  5
19
102
{ACAD_REACTORS
330
C
102
}
100
AcDbDictionary
281
1
  0
DICTIONARY
  5
1A
102
{ACAD_REACTORS
330
C
102
}
100
AcDbDictionary
281
1
  3
Model
350
39F
  3
Layout1
350
3A0
  0
ACDBPLACEHOLDER
  5
F
102
{ACAD_REACTORS
330
E
102
}
  0
MLINESTYLE
  5
18
102
{ACAD_REACTORS
330
17
102
}
100
AcDbMlineStyle
  2
STANDARD
 70
0
  3

 62
256
 51
90.0
 52
90.0
 71
2
 49
0.5
 62
256
  6
BYLAYER
 49
-0.5
 62
256
  6
BYLAYER
  0
LAYOUT
  5
39F
102
{ACAD_REACTORS
330
1A
102
}
100
AcDbPlotSettings
  1

  2
none_device
  4
ANSI_C_(22.00_x_17.00_Inches)
  6

 40
0.0
 41
0.0
 42
0.0
 43
0.0
 44
558.8
 45
431.8
 46
0.0
 47
0.0
 48
0.0
 49
0.0
140
0.0
141
0.0
142
1.0
143
1.0
 70
1024
 72
0
 73
0
 74
0
  7

 75
0
147
1.0
148
0.0
149
0.0
100
AcDbLayout
  1
Model
 70
0
 71
0
 10
0.0
 20
0.0
 11
22.0
 21
17.0
 12
0.0
 22
0.0
 32
0.0
 14
0.0
 24
0.0
 34
0.0
 15
0.0
 25
0.0
 35
0.0
146
0.0
 13
0.0
 23
0.0
 33
0.0
 16
1.0
 26
0.0
 36
0.0
 17
0.0
 27
1.0
 37
0.0
 76
0
330
204
345
0
346
0
  0
LAYOUT
  5
3A0
102
{ACAD_REACTORS
330
1A
102
}
100
AcDbPlotSettings
  1

  2
none_device
  4
ANSI_C_(22.00_x_17.00_Inches)
  6

 40
0.0
 41
0.0
 42
0.0
 43
0.0
 44
558.8
 45
431.8
 46
0.0
 47
0.0
 48
0.0
 49
0.0
140
0.0
141
0.0
142
1.0
143
1.0
 70
0
 72
0
 73
0
 74
0
  7

 75
0
147
1.0
148
0.0
149
0.0
100
AcDbLayout
  1
Layout1
 70
0
 71
1
 10
0.0
 20
0.0
 11
22.0
 21
17.0
 12
0.0
 22
0.0
 32
0.0
 14
0.0
 24
0.0
 34
0.0
 15
0.0
 25
0.0
 35
0.0
146
0.0
 13
0.0
 23
0.0
 33
0.0
 16
1.0
 26
0.0
 36
0.0
 17
0.0
 27
1.0
 37
0.0
 76
0
330
205
345
0
346
0
  0
IMAGEDEF
  5
3A1
102
{ACAD_REACTORS
330
39C
330
39B
102
}
100
AcDbRasterImageDef
 90
0
  1
P4M_assy_2_img_1.png
 10
369.0
 20
92.0
 11
0.0066666667
 21
0.0066666667
280
1
281
0
  0
TABLESTYLE
  5
3A2
102
{ACAD_REACTORS
330
39E
330
291
330
292
102
}
330
39E
100
AcDbTableStyle
  3
Standard
 70
0
 71
0
 40
0.06
 41
0.06
280
1
281
1
  7
Standard
140
0.18
170
1
 62
0
 63
7
283
0
  7
Standard
140
0.18
170
1
 62
0
 63
7
283
0
  7
Standard
140
0.18
170
1
 62
0
 63
7
283
0
  0
TABLESTYLE
  5
3A3
102
{ACAD_REACTORS
330
39E
330
290
102
}
330
39E
100
AcDbTableStyle
  3
Standard1
 70
1
 71
0
 40
0.06
 41
0.06
280
1
281
1
  7
Standard
140
0.18
170
1
 62
0
 63
7
283
0
  7
Standard
140
0.18
170
1
 62
0
 63
7
283
0
  7
Standard
140
0.18
170
1
 62
0
 63
7
283
0
  0
ENDSEC
  0
EOF
