999
DXF file: P45_assy_2.dxf
999
Pro/ENGINEER 2014200 by Parametric Technology Corporation
  0
SECTION
  2
HEADER
  9
$ACADVER
  1
AC1021
  9
$DWGCODEPAGE
  3
ANSI_1252
  9
$EXTMAX
 10
22.0
 20
17.0
 30
0.0
  9
$EXTMIN
 10
0.0
 20
0.0
 30
0.0
  9
$LIMMIN
 10
0.0
 20
0.0
  9
$LIMMAX
 10
22.0
 20
17.0
  9
$VIEWCTR
 10
11.0
 20
8.5
  9
$VIEWSIZE
 40
17.0
  9
$CLAYER
  8
0
  9
$LTSCALE
 40
1.21
  9
$CELTYPE
  6
BYLAYER
  9
$DIMSCALE
 40
1.0
  9
$DIMASZ
 40
0.1875
  9
$DIMEXO
 40
0.0625
  9
$DIMDLI
 40
0.836
  9
$DIMEXE
 40
0.125
  9
$DIMCEN
 40
0.198
  9
$DIMLFAC
 40
1.0
  9
$DIMBLK
  1
_FILLED
  9
$DIMTXT
 40
0.1
  9
$DIMTOL
 70
0
  9
$DIMLIM
 70
0
  9
$DIMTFAC
 40
1.0
  9
$DIMGAP
 40
0.09
  9
$DIMDSEP
 70
46
  9
$AUNITS
 70
0
  9
$PDMODE
 70
3
  9
$PDSIZE
 40
0.3125
  9
$HANDSEED
  5
3D8
  9
$TILEMODE
 70
1
  9
$MEASUREMENT
 70
0
  9
$INSUNITS
 70
1
  0
ENDSEC
  0
SECTION
  2
CLASSES
  0
CLASS
  1
ACDBDICTIONARYWDFLT
  2
AcDbDictionaryWithDefault
  3
AutoCAD 2000
 90
0
 91
1
280
0
281
0
  0
CLASS
  1
ACDBPLACEHOLDER
  2
AcDbPlaceHolder
  3
AutoCAD 2000
 90
0
 91
1
280
0
281
0
  0
CLASS
  1
LAYOUT
  2
AcDbLayout
  3
AutoCAD 2000
 90
0
 91
0
280
0
281
0
  0
CLASS
  1
RASTERVARIABLES
  2
AcDbRasterVariables
  3
ISM
 90
0
 91
1
280
0
281
0
  0
CLASS
  1
IMAGEDEF
  2
AcDbRasterImageDef
  3
ISM
 90
0
 91
1
280
0
281
0
  0
CLASS
  1
IMAGEDEF_REACTOR
  2
AcDbRasterImageDefReactor
  3
ISM
 90
0
 91
1
280
0
281
0
  0
CLASS
  1
IMAGE
  2
AcDbRasterImage
  3
ISM
 90
127
 91
1
280
0
281
1
  0
CLASS
  1
TABLESTYLE
  2
AcDbTableStyle
  3
ObjectDBX Classes
 90
2047
 91
1
280
0
281
0
  0
CLASS
  1
ACAD_TABLE
  2
AcDbTable
  3
ObjectDBX Classes
 90
1025
 91
3
280
0
281
1
  0
ENDSEC
  0
SECTION
  2
TABLES
  0
TABLE
  2
VPORT
  5
8
100
AcDbSymbolTable
 70
2
  0
VPORT
  5
1F4
100
AcDbSymbolTableRecord
100
AcDbViewportTableRecord
  2
*ACTIVE
 70
0
 10
0.0
 20
0.0
 11
1.0
 21
1.0
 12
11.0
 22
8.5
 13
0.0
 23
0.0
 14
1.0
 24
1.0
 15
0.0
 25
0.0
 16
0.0
 26
0.0
 36
1.0
 17
0.0
 27
0.0
 37
0.0
 40
17.0
 41
1.2941176471
 42
50.0
 43
0.0
 44
0.0
 50
0.0
 51
0.0
 71
0
 72
100
 73
1
 74
1
 75
0
 76
0
 77
0
 78
0
  0
ENDTAB
  0
TABLE
  2
LTYPE
  5
5
100
AcDbSymbolTable
 70
6
  0
LTYPE
  5
14
100
AcDbSymbolTableRecord
100
AcDbLinetypeTableRecord
  2
BYBLOCK
 70
0
  3

 72
65
 73
0
 40
0.0
  0
LTYPE
  5
15
100
AcDbSymbolTableRecord
100
AcDbLinetypeTableRecord
  2
BYLAYER
 70
0
  3

 72
65
 73
0
 40
0.0
  0
LTYPE
  5
16
100
AcDbSymbolTableRecord
100
AcDbLinetypeTableRecord
  2
CONTINUOUS
 70
64
  3
Solid line
 72
65
 73
0
 40
0.0
  0
LTYPE
  5
1F5
100
AcDbSymbolTableRecord
100
AcDbLinetypeTableRecord
  2
CENTER
 70
64
  3
____ _ ____ _ ____ _ ____ _ ____ _ ____ _ ____
 72
65
 73
4
 40
0.6
 49
0.375
 74
0
 49
-0.075
 74
0
 49
0.075
 74
0
 49
-0.075
 74
0
  0
LTYPE
  5
1F6
100
AcDbSymbolTableRecord
100
AcDbLinetypeTableRecord
  2
HIDDEN
 70
64
  3
- - - - - - - - - - - - - - - - - - - -
 72
65
 73
2
 40
0.2
 49
0.1
 74
0
 49
-0.1
 74
0
  0
LTYPE
  5
1F7
100
AcDbSymbolTableRecord
100
AcDbLinetypeTableRecord
  2
PHANTOM
 70
64
  3
_____ _ _ _____ _ _ _____ _ _ _____
 72
65
 73
6
 40
0.8
 49
0.45
 74
0
 49
-0.05
 74
0
 49
0.1
 74
0
 49
-0.05
 74
0
 49
0.1
 74
0
 49
-0.05
 74
0
  0
LTYPE
  5
1F8
100
AcDbSymbolTableRecord
100
AcDbLinetypeTableRecord
  2
DOT
 70
64
  3
. . . . . . . . . . . . . . . . . . . .
 72
65
 73
2
 40
0.2
 49
0.1
 74
0
 49
-0.1
 74
0
  0
LTYPE
  5
1F9
100
AcDbSymbolTableRecord
100
AcDbLinetypeTableRecord
  2
DASHED
 70
64
  3
- - - - - - - - - - - - - - - - - - - -
 72
65
 73
2
 40
0.2
 49
0.1
 74
0
 49
-0.1
 74
0
  0
ENDTAB
  0
TABLE
  2
LAYER
  5
2
100
AcDbSymbolTable
 70
36
  0
LAYER
  5
10
100
AcDbSymbolTableRecord
100
AcDbLayerTableRecord
  2
0
 70
0
 62
7
  6
CONTINUOUS
370
-3
390
F
  0
LAYER
  5
1FA
100
AcDbSymbolTableRecord
100
AcDbLayerTableRecord
  2
DEFAULT_1
 70
0
 62
7
  6
CENTER
370
-3
390
F
  0
LAYER
  5
1FB
100
AcDbSymbolTableRecord
100
AcDbLayerTableRecord
  2
DEFAULT_2
 70
0
 62
8
  6
HIDDEN
370
-3
390
F
  0
LAYER
  5
1FC
100
AcDbSymbolTableRecord
100
AcDbLayerTableRecord
  2
DEFAULT_3
 70
0
 62
7
  6
PHANTOM
370
-3
390
F
  0
LAYER
  5
1FD
100
AcDbSymbolTableRecord
100
AcDbLayerTableRecord
  2
DATUM_PLANES
 70
0
 62
7
  6
CONTINUOUS
370
-3
390
F
  0
LAYER
  5
1FE
100
AcDbSymbolTableRecord
100
AcDbLayerTableRecord
  2
PORT_AREAS
 70
0
 62
7
  6
CONTINUOUS
370
-3
390
F
  0
LAYER
  5
1FF
100
AcDbSymbolTableRecord
100
AcDbLayerTableRecord
  2
SUNNBOMCOSMETIC
 70
0
 62
7
  6
CONTINUOUS
370
-3
390
F
  0
LAYER
  5
200
100
AcDbSymbolTableRecord
100
AcDbLayerTableRecord
  2
SUNNBOMSTAMPING
 70
0
 62
7
  6
CONTINUOUS
370
-3
390
F
  0
LAYER
  5
201
100
AcDbSymbolTableRecord
100
AcDbLayerTableRecord
  2
THREADS
 70
0
 62
7
  6
CONTINUOUS
370
-3
390
F
  0
ENDTAB
  0
TABLE
  2
STYLE
  5
3
100
AcDbSymbolTable
 70
1
  0
STYLE
  5
11
100
AcDbSymbolTableRecord
100
AcDbTextStyleTableRecord
  2
STANDARD
 70
0
 40
0.0
 41
0.8
 50
0.0
 71
0
 42
0.2
  3
txt
  4

  0
STYLE
  5
202
100
AcDbSymbolTableRecord
100
AcDbTextStyleTableRecord
  2
TEXTSTYLE_1
 70
0
 40
0.0
 41
0.8
 50
0.0
 71
0
 42
0.2
  3
gdt
  4

  0
ENDTAB
  0
TABLE
  2
VIEW
  5
6
100
AcDbSymbolTable
 70
0
  0
ENDTAB
  0
TABLE
  2
UCS
  5
7
100
AcDbSymbolTable
 70
0
  0
ENDTAB
  0
TABLE
  2
APPID
  5
9
100
AcDbSymbolTable
 70
1
  0
APPID
  5
203
100
AcDbSymbolTableRecord
100
AcDbRegAppTableRecord
  2
ACAD
 70
0
  0
ENDTAB
  0
TABLE
  2
BLOCK_RECORD
  5
1
100
AcDbSymbolTable
 70
0
  0
BLOCK_RECORD
  5
204
100
AcDbSymbolTableRecord
100
AcDbBlockTableRecord
  2
*Model_Space
  0
BLOCK_RECORD
  5
205
100
AcDbSymbolTableRecord
100
AcDbBlockTableRecord
  2
*Paper_Space
  0
BLOCK_RECORD
  5
206
100
AcDbSymbolTableRecord
100
AcDbBlockTableRecord
  2
SUN_FIRST_THIRD_ANGLE_BL0
  0
BLOCK_RECORD
  5
207
100
AcDbSymbolTableRecord
100
AcDbBlockTableRecord
  2
*T1
  0
BLOCK_RECORD
  5
208
100
AcDbSymbolTableRecord
100
AcDbBlockTableRecord
  2
*T2
  0
BLOCK_RECORD
  5
209
100
AcDbSymbolTableRecord
100
AcDbBlockTableRecord
  2
*T3
  0
ENDTAB
  0
TABLE
  2
DIMSTYLE
  5
A
100
AcDbSymbolTable
 70
1
100
AcDbDimStyleTable
 71
0
  0
DIMSTYLE
105
20A
100
AcDbSymbolTableRecord
100
AcDbDimStyleTableRecord
  2
STANDARD
 70
0
  3

  4

 40
1.0
 41
0.1875
 42
0.0625
 43
0.38
 44
0.125
 45
0.0
 46
0.0
 47
0.001
 48
0.001
140
0.1
141
0.09
142
0.0
143
25.4
144
1.0
145
0.0
146
1.0
147
0.09
 71
0.0
 72
0.0
 73
1
 74
1
 75
0
 76
0
 77
0
 78
4
170
0
171
2
172
0
173
0
174
0
175
0
176
0
177
0
178
0
270
2
271
3
272
3
273
2
274
2
275
0
280
0
281
0
282
0
283
1
284
4
285
0
286
0
287
3
288
0
340
11
278
46
  0
ENDTAB
  0
ENDSEC
  0
SECTION
  2
BLOCKS
  0
BLOCK
  5
20
100
AcDbEntity
  8
0
100
AcDbBlockBegin
  2
*Model_Space
 70
0
 10
0.0
 20
0.0
 30
0.0
  3
*Model_Space
  1

  0
ENDBLK
  5
21
100
AcDbEntity
  8
0
100
AcDbBlockEnd
  0
BLOCK
  5
1C
100
AcDbEntity
  8
0
100
AcDbBlockBegin
  2
*Paper_Space
 70
0
 10
0.0
 20
0.0
 30
0.0
  3
*Paper_Space
  1

  0
ENDBLK
  5
1D
100
AcDbEntity
  8
0
100
AcDbBlockEnd
  0
BLOCK
  5
20B
100
AcDbEntity
  8
0
100
AcDbBlockBegin
 62
2
  6
CONTINUOUS
  2
SUN_FIRST_THIRD_ANGLE_BL0
 70
64
 10
20.4816717061
 20
1.2289683772
  3
SUN_FIRST_THIRD_ANGLE_BL0
  1

  0
TEXT
  5
20C
100
AcDbEntity
  8
0
100
AcDbText
 62
2
  6
CONTINUOUS
 10
19.4750896608
 20
1.4136269581
  7
STANDARD
 40
0.08
  1
FIRST ANGLE
 41
0.8
 72
0
100
AcDbText
  0
TEXT
  5
20D
100
AcDbEntity
  8
0
100
AcDbText
 62
2
  6
CONTINUOUS
 10
20.7842537513
 20
1.4047600029
  7
STANDARD
 40
0.08
  1
THIRD ANGLE
 41
0.8
 72
0
100
AcDbText
  0
LINE
  5
20E
100
AcDbEntity
  8
0
100
AcDbLine
 62
7
  6
CONTINUOUS
 10
19.4767170086
 20
1.1727031207
 11
19.6334271527
 21
1.1717972817
  0
LINE
  5
20F
100
AcDbEntity
  8
0
100
AcDbLine
 62
7
  6
CONTINUOUS
 10
19.6596964832
 20
1.1717972817
 11
19.6950230232
 21
1.171593082
  0
LINE
  5
210
100
AcDbEntity
  8
0
100
AcDbLine
 62
7
  6
CONTINUOUS
 10
19.7194818561
 20
1.1708914427
 11
19.8852396156
 21
1.1699333054
  0
LINE
  5
211
100
AcDbEntity
  8
0
100
AcDbLine
 62
7
  6
CONTINUOUS
 10
19.4758111696
 20
1.2723454088
 11
19.88525039
 21
1.3511534004
  0
LINE
  5
212
100
AcDbEntity
  8
0
100
AcDbLine
 62
7
  6
CONTINUOUS
 10
19.88525039
 20
1.3511534004
 11
19.8831348489
 21
0.9851647912
  0
LINE
  5
213
100
AcDbEntity
  8
0
100
AcDbLine
 62
7
  6
CONTINUOUS
 10
19.8831348489
 20
0.9851647912
 11
19.4767170086
 21
1.0658141206
  0
LINE
  5
214
100
AcDbEntity
  8
0
100
AcDbLine
 62
7
  6
CONTINUOUS
 10
19.4767170086
 20
1.0658141206
 11
19.4779056764
 21
1.2714536432
  0
CIRCLE
  5
215
100
AcDbEntity
  8
0
100
AcDbCircle
 62
7
  6
CONTINUOUS
 10
20.2068232291
 20
1.1717972817
 40
0.175742101
  0
CIRCLE
  5
216
100
AcDbEntity
  8
0
100
AcDbCircle
 62
7
  6
CONTINUOUS
 10
20.2068232291
 20
1.1717972817
 40
0.1005522074
  0
LINE
  5
217
100
AcDbEntity
  8
0
100
AcDbLine
 62
7
  6
CONTINUOUS
 10
20.2077290681
 20
1.3756110529
 11
20.2071171714
 21
1.2379342989
  0
LINE
  5
218
100
AcDbEntity
  8
0
100
AcDbLine
 62
7
  6
CONTINUOUS
 10
20.2077290681
 20
1.2016899681
 11
20.2074674401
 21
1.1428236749
  0
LINE
  5
219
100
AcDbEntity
  8
0
100
AcDbLine
 62
7
  6
CONTINUOUS
 10
20.208634907
 20
1.101141841
 11
20.2080230104
 21
0.963465087
  0
LINE
  5
21A
100
AcDbEntity
  8
0
100
AcDbLine
 62
7
  6
CONTINUOUS
 10
20.0066328138
 20
1.1745147986
 11
20.1443095678
 21
1.1739029019
  0
LINE
  5
21B
100
AcDbEntity
  8
0
100
AcDbLine
 62
7
  6
CONTINUOUS
 10
20.1832714155
 20
1.1727031207
 11
20.238153505
 21
1.172335442
  0
LINE
  5
21C
100
AcDbEntity
  8
0
100
AcDbLine
 62
7
  6
CONTINUOUS
 10
20.2756669918
 20
1.1717972817
 11
20.407916871
 21
1.1712095044
  0
CIRCLE
  5
21D
100
AcDbEntity
  8
0
100
AcDbCircle
 62
7
  6
CONTINUOUS
 10
20.7509457401
 20
1.1693297793
 40
0.1722024983
  0
CIRCLE
  5
21E
100
AcDbEntity
  8
0
100
AcDbCircle
 62
7
  6
CONTINUOUS
 10
20.7509457401
 20
1.1693297793
 40
0.0985164967
  0
LINE
  5
21F
100
AcDbEntity
  8
0
100
AcDbLine
 62
7
  6
CONTINUOUS
 10
20.7169767782
 20
1.170462078
 11
20.7825395137
 21
1.1682766535
  0
LINE
  5
220
100
AcDbEntity
  8
0
100
AcDbLine
 62
7
  6
CONTINUOUS
 10
20.8177513651
 20
1.1693297793
 11
20.947965719
 21
1.1693297793
  0
LINE
  5
221
100
AcDbEntity
  8
0
100
AcDbLine
 62
7
  6
CONTINUOUS
 10
20.6875370113
 20
1.170462078
 11
20.5573226574
 21
1.170462078
  0
LINE
  5
222
100
AcDbEntity
  8
0
100
AcDbLine
 62
7
  6
CONTINUOUS
 10
20.7486811426
 20
1.1987695462
 11
20.7486811426
 21
1.1432869085
  0
LINE
  5
223
100
AcDbEntity
  8
0
100
AcDbLine
 62
7
  6
CONTINUOUS
 10
20.7498134414
 20
1.1059210505
 11
20.7498134414
 21
0.9757066966
  0
LINE
  5
224
100
AcDbEntity
  8
0
100
AcDbLine
 62
7
  6
CONTINUOUS
 10
20.7486811426
 20
1.2338708068
 11
20.7486811426
 21
1.3640851607
  0
LINE
  5
225
100
AcDbEntity
  8
0
100
AcDbLine
 62
7
  6
CONTINUOUS
 10
21.0702539817
 20
1.2701043662
 11
21.4790138229
 21
1.3448360823
  0
LINE
  5
226
100
AcDbEntity
  8
0
100
AcDbLine
 62
7
  6
CONTINUOUS
 10
21.4790138229
 20
1.3448360823
 11
21.4790138229
 21
0.9779712941
  0
LINE
  5
227
100
AcDbEntity
  8
0
100
AcDbLine
 62
7
  6
CONTINUOUS
 10
21.4790138229
 20
0.9779712941
 11
21.069121683
 21
1.0617614
  0
LINE
  5
228
100
AcDbEntity
  8
0
100
AcDbLine
 62
7
  6
CONTINUOUS
 10
21.0702539817
 20
1.2701043662
 11
21.069121683
 21
1.0617614
  0
LINE
  5
229
100
AcDbEntity
  8
0
100
AcDbLine
 62
7
  6
CONTINUOUS
 10
21.4790138229
 20
1.1693297793
 11
21.3159628059
 21
1.1693297793
  0
LINE
  5
22A
100
AcDbEntity
  8
0
100
AcDbLine
 62
7
  6
CONTINUOUS
 10
21.2876553377
 20
1.1693297793
 11
21.2502894796
 21
1.1693297793
  0
LINE
  5
22B
100
AcDbEntity
  8
0
100
AcDbLine
 62
7
  6
CONTINUOUS
 10
21.2208497126
 20
1.1659328831
 11
21.0713862804
 21
1.1659328831
  0
LINE
  5
22C
100
AcDbEntity
  8
0
100
AcDbLine
 62
7
  6
CONTINUOUS
 10
20.4796138713
 20
1.5284908897
 11
20.4766766948
 21
0.9294458646
  0
ENDBLK
  5
22D
100
AcDbEntity
  8
0
  6
BYBLOCK
 62
0
100
AcDbBlockEnd
  0
BLOCK
  5
22E
100
AcDbEntity
  8
0
100
AcDbBlockBegin
  2
*T1
 70
1
 10
0.0
 20
0.0
  3
*T1
  1

  0
LINE
  5
22F
100
AcDbEntity
  8
0
100
AcDbLine
 62
2
  6
CONTINUOUS
 10
9.275
 20
0.0
 11
-0.0
 21
0.0
  0
LINE
  5
230
100
AcDbEntity
  8
0
100
AcDbLine
 62
2
  6
CONTINUOUS
 10
9.275
 20
0.0
 11
9.275
 21
1.25
  0
LINE
  5
231
100
AcDbEntity
  8
0
100
AcDbLine
 62
2
  6
CONTINUOUS
 10
9.275
 20
0.625
 11
-0.0
 21
0.625
  0
LINE
  5
232
100
AcDbEntity
  8
0
100
AcDbLine
 62
2
  6
CONTINUOUS
 10
9.275
 20
1.25
 11
-0.0
 21
1.25
  0
LINE
  5
233
100
AcDbEntity
  8
0
100
AcDbLine
 62
2
  6
CONTINUOUS
 10
6.8
 20
0.0
 11
6.8
 21
1.25
  0
LINE
  5
234
100
AcDbEntity
  8
0
100
AcDbLine
 62
2
  6
CONTINUOUS
 10
6.4
 20
0.0
 11
6.4
 21
0.625
  0
LINE
  5
235
100
AcDbEntity
  8
0
100
AcDbLine
 62
2
  6
CONTINUOUS
 10
5.9
 20
0.0
 11
5.9
 21
0.625
  0
LINE
  5
236
100
AcDbEntity
  8
0
100
AcDbLine
 62
2
  6
CONTINUOUS
 10
5.2
 20
0.0
 11
5.2
 21
0.625
  0
LINE
  5
237
100
AcDbEntity
  8
0
100
AcDbLine
 62
2
  6
CONTINUOUS
 10
4.1
 20
0.0
 11
4.1
 21
1.25
  0
LINE
  5
238
100
AcDbEntity
  8
0
100
AcDbLine
 62
2
  6
CONTINUOUS
 10
-0.0
 20
0.0
 11
-0.0
 21
1.25
  0
MTEXT
  5
239
100
AcDbEntity
  8
0
100
AcDbMText
 62
2
  6
CONTINUOUS
  7
STANDARD
 71
2
 72
1
 10
6.6
 20
0.325
 30
0.0
 11
1.0
 21
0.0
 31
0.0
 44
0.9
  1
2
 40
0.125
 41
0.2
  0
MTEXT
  5
23A
100
AcDbEntity
  8
0
100
AcDbMText
 62
2
  6
CONTINUOUS
  7
STANDARD
 71
2
 72
1
 10
6.15
 20
0.325
 30
0.0
 11
1.0
 21
0.0
 31
0.0
 44
0.9
  1
C
 40
0.125
 41
0.2
  0
MTEXT
  5
23B
100
AcDbEntity
  8
0
100
AcDbMText
 62
2
  6
CONTINUOUS
  7
STANDARD
 71
2
 72
1
 10
5.55
 20
0.325
 30
0.0
 11
1.0
 21
0.0
 31
0.0
 44
0.9
  1
1.000
 40
0.125
 41
1.0
  0
MTEXT
  5
23C
100
AcDbEntity
  8
0
100
AcDbMText
 62
2
  6
CONTINUOUS
  7
STANDARD
 71
2
 72
1
 10
4.65
 20
0.325
 30
0.0
 11
1.0
 21
0.0
 31
0.0
 44
0.9
  1
Feb-08-21
 40
0.125
 41
1.8
  0
MTEXT
  5
23D
100
AcDbEntity
  8
0
100
AcDbMText
 62
2
  6
CONTINUOUS
  7
STANDARD
 71
2
 72
1
 10
2.05
 20
0.4625
 30
0.0
 11
1.0
 21
0.0
 31
0.0
 44
0.9
  1
T-23A Line mount\P(See Technical Data for Body Features)
 40
0.125
 41
7.6
  0
MTEXT
  5
23E
100
AcDbEntity
  8
0
100
AcDbMText
 62
2
  6
CONTINUOUS
  7
STANDARD
 71
1
 72
1
 10
6.45
 20
0.5625
 30
0.0
 11
1.0
 21
0.0
 31
0.0
 44
0.9
  1
SHEET
 40
0.06
 41
0.48
  0
MTEXT
  5
23F
100
AcDbEntity
  8
0
100
AcDbMText
 62
2
  6
CONTINUOUS
  7
STANDARD
 71
1
 72
1
 10
5.95
 20
0.5625
 30
0.0
 11
1.0
 21
0.0
 31
0.0
 44
0.9
  1
DWG SIZE
 40
0.06
 41
0.768
  0
MTEXT
  5
240
100
AcDbEntity
  8
0
100
AcDbMText
 62
2
  6
CONTINUOUS
  7
STANDARD
 71
1
 72
1
 10
5.25
 20
0.5625
 30
0.0
 11
1.0
 21
0.0
 31
0.0
 44
0.9
  1
SCALE
 40
0.06
 41
0.48
  0
MTEXT
  5
241
100
AcDbEntity
  8
0
100
AcDbMText
 62
2
  6
CONTINUOUS
  7
STANDARD
 71
1
 72
1
 10
4.15
 20
0.5625
 30
0.0
 11
1.0
 21
0.0
 31
0.0
 44
0.9
  1
DATE
 40
0.06
 41
0.384
  0
MTEXT
  5
242
100
AcDbEntity
  8
0
100
AcDbMText
 62
2
  6
CONTINUOUS
  7
STANDARD
 71
1
 72
1
 10
0.05
 20
0.5625
 30
0.0
 11
1.0
 21
0.0
 31
0.0
 44
0.9
  1
DESCRIPTION
 40
0.06
 41
1.056
  0
MTEXT
  5
243
100
AcDbEntity
  8
0
100
AcDbMText
 62
2
  6
CONTINUOUS
  7
STANDARD
 71
2
 72
1
 10
5.45
 20
1.0375
 30
0.0
 11
1.0
 21
0.0
 31
0.0
 44
0.9
  1
ALL DIMENSIONS IN INCH\PVIEWS ARE THIRD ANGLE
 40
0.12
 41
4.224
  0
MTEXT
  5
244
100
AcDbEntity
  8
0
100
AcDbMText
 62
2
  6
CONTINUOUS
  7
STANDARD
 71
2
 72
1
 10
2.05
 20
0.95
 30
0.0
 11
1.0
 21
0.0
 31
0.0
 44
0.9
  1
P45
 40
0.125
 41
0.6
  0
MTEXT
  5
245
100
AcDbEntity
  8
0
100
AcDbMText
 62
2
  6
CONTINUOUS
  7
STANDARD
 71
1
 72
1
 10
0.05
 20
1.1875
 30
0.0
 11
1.0
 21
0.0
 31
0.0
 44
0.9
  1
MODEL
 40
0.06
 41
0.48
  0
ENDBLK
  5
246
100
AcDbEntity
  8
0
  6
BYBLOCK
 62
0
100
AcDbBlockEnd
  0
BLOCK
  5
247
100
AcDbEntity
  8
0
100
AcDbBlockBegin
  2
*T2
 70
1
 10
0.0
 20
0.0
  3
*T2
  1

  0
LINE
  5
248
100
AcDbEntity
  8
0
100
AcDbLine
 62
2
  6
CONTINUOUS
 10
0.0
 20
0.0
 11
9.055
 21
0.0
  0
LINE
  5
249
100
AcDbEntity
  8
0
100
AcDbLine
 62
2
  6
CONTINUOUS
 10
0.0
 20
0.0
 11
0.0
 21
-1.844
  0
LINE
  5
24A
100
AcDbEntity
  8
0
100
AcDbLine
 62
2
  6
CONTINUOUS
 10
0.0
 20
-0.344
 11
9.055
 21
-0.344
  0
LINE
  5
24B
100
AcDbEntity
  8
0
100
AcDbLine
 62
2
  6
CONTINUOUS
 10
0.0
 20
-0.594
 11
9.055
 21
-0.594
  0
LINE
  5
24C
100
AcDbEntity
  8
0
100
AcDbLine
 62
2
  6
CONTINUOUS
 10
0.0
 20
-0.844
 11
9.055
 21
-0.844
  0
LINE
  5
24D
100
AcDbEntity
  8
0
100
AcDbLine
 62
2
  6
CONTINUOUS
 10
0.0
 20
-1.094
 11
9.055
 21
-1.094
  0
LINE
  5
24E
100
AcDbEntity
  8
0
100
AcDbLine
 62
2
  6
CONTINUOUS
 10
0.0
 20
-1.344
 11
9.055
 21
-1.344
  0
LINE
  5
24F
100
AcDbEntity
  8
0
100
AcDbLine
 62
2
  6
CONTINUOUS
 10
0.0
 20
-1.594
 11
9.055
 21
-1.594
  0
LINE
  5
250
100
AcDbEntity
  8
0
100
AcDbLine
 62
2
  6
CONTINUOUS
 10
0.0
 20
-1.844
 11
9.055
 21
-1.844
  0
LINE
  5
251
100
AcDbEntity
  8
0
100
AcDbLine
 62
2
  6
CONTINUOUS
 10
3.055
 20
0.0
 11
3.055
 21
-1.844
  0
LINE
  5
252
100
AcDbEntity
  8
0
100
AcDbLine
 62
2
  6
CONTINUOUS
 10
9.055
 20
0.0
 11
9.055
 21
-1.844
  0
MTEXT
  5
253
100
AcDbEntity
  8
0
100
AcDbMText
 62
2
  6
CONTINUOUS
  7
STANDARD
 71
2
 72
1
 10
1.5275
 20
-0.0995
 30
0.0
 11
1.0
 21
0.0
 31
0.0
 44
0.9
  1
Technical Data
 40
0.145
 41
3.248
  0
MTEXT
  5
254
100
AcDbEntity
  8
0
100
AcDbMText
 62
2
  6
CONTINUOUS
  7
STANDARD
 71
2
 72
1
 10
4.555
 20
-0.0995
 30
0.0
 11
1.0
 21
0.0
 31
0.0
 44
0.9
  1
U.S. Units
 40
0.145
 41
2.32
  0
MTEXT
  5
255
100
AcDbEntity
  8
0
100
AcDbMText
 62
2
  6
CONTINUOUS
  7
STANDARD
 71
2
 72
1
 10
7.555
 20
-0.0995
 30
0.0
 11
1.0
 21
0.0
 31
0.0
 44
0.9
  1
Metric Units
 40
0.145
 41
2.784
  0
MTEXT
  5
256
100
AcDbEntity
  8
0
100
AcDbMText
 62
2
  6
CONTINUOUS
  7
STANDARD
 71
2
 72
1
 10
1.5275
 20
-0.4065
 30
0.0
 11
1.0
 21
0.0
 31
0.0
 44
0.9
  1
Cavity
 40
0.125
 41
1.2
  0
MTEXT
  5
257
100
AcDbEntity
  8
0
100
AcDbMText
 62
2
  6
CONTINUOUS
  7
STANDARD
 71
2
 72
1
 10
6.055
 20
-0.4065
 30
0.0
 11
1.0
 21
0.0
 31
0.0
 44
0.9
  1
T-23A
 40
0.125
 41
1.0
  0
MTEXT
  5
258
100
AcDbEntity
  8
0
100
AcDbMText
 62
2
  6
CONTINUOUS
  7
STANDARD
 71
2
 72
1
 10
1.5275
 20
-0.6565
 30
0.0
 11
1.0
 21
0.0
 31
0.0
 44
0.9
  1
Body Features
 40
0.125
 41
2.6
  0
MTEXT
  5
259
100
AcDbEntity
  8
0
100
AcDbMText
 62
2
  6
CONTINUOUS
  7
STANDARD
 71
2
 72
1
 10
6.055
 20
-0.6565
 30
0.0
 11
1.0
 21
0.0
 31
0.0
 44
0.9
  1
Ninety degree with reverse flow check - reducing
 40
0.125
 41
9.6
  0
MTEXT
  5
25A
100
AcDbEntity
  8
0
100
AcDbMText
 62
2
  6
CONTINUOUS
  7
STANDARD
 71
2
 72
1
 10
1.5275
 20
-0.9065
 30
0.0
 11
1.0
 21
0.0
 31
0.0
 44
0.9
  1
Body Type
 40
0.125
 41
1.8
  0
MTEXT
  5
25B
100
AcDbEntity
  8
0
100
AcDbMText
 62
2
  6
CONTINUOUS
  7
STANDARD
 71
2
 72
1
 10
6.055
 20
-0.9065
 30
0.0
 11
1.0
 21
0.0
 31
0.0
 44
0.9
  1
Line mount
 40
0.125
 41
2.0
  0
MTEXT
  5
25C
100
AcDbEntity
  8
0
100
AcDbMText
 62
2
  6
CONTINUOUS
  7
STANDARD
 71
2
 72
1
 10
1.5275
 20
-1.1565
 30
0.0
 11
1.0
 21
0.0
 31
0.0
 44
0.9
  1
Interface
 40
0.125
 41
1.8
  0
MTEXT
  5
25D
100
AcDbEntity
  8
0
100
AcDbMText
 62
2
  6
CONTINUOUS
  7
STANDARD
 71
2
 72
1
 10
6.055
 20
-1.1565
 30
0.0
 11
1.0
 21
0.0
 31
0.0
 44
0.9
  1
None
 40
0.125
 41
0.8
  0
MTEXT
  5
25E
100
AcDbEntity
  8
0
100
AcDbMText
 62
2
  6
CONTINUOUS
  7
STANDARD
 71
2
 72
1
 10
1.5275
 20
-1.4065
 30
0.0
 11
1.0
 21
0.0
 31
0.0
 44
0.9
  1
Open Cavity Quantity
 40
0.125
 41
4.0
  0
MTEXT
  5
25F
100
AcDbEntity
  8
0
100
AcDbMText
 62
2
  6
CONTINUOUS
  7
STANDARD
 71
2
 72
1
 10
6.055
 20
-1.4065
 30
0.0
 11
1.0
 21
0.0
 31
0.0
 44
0.9
  1
1
 40
0.125
 41
0.2
  0
MTEXT
  5
260
100
AcDbEntity
  8
0
100
AcDbMText
 62
2
  6
CONTINUOUS
  7
STANDARD
 71
2
 72
1
 10
1.5275
 20
-1.6565
 30
0.0
 11
1.0
 21
0.0
 31
0.0
 44
0.9
  1
Weight
 40
0.125
 41
1.2
  0
MTEXT
  5
261
100
AcDbEntity
  8
0
100
AcDbMText
 62
2
  6
CONTINUOUS
  7
STANDARD
 71
2
 72
1
 10
4.555
 20
-1.6565
 30
0.0
 11
1.0
 21
0.0
 31
0.0
 44
0.9
  1
9.963 lb.
 40
0.125
 41
1.8
  0
MTEXT
  5
262
100
AcDbEntity
  8
0
100
AcDbMText
 62
2
  6
CONTINUOUS
  7
STANDARD
 71
2
 72
1
 10
7.555
 20
-1.6565
 30
0.0
 11
1.0
 21
0.0
 31
0.0
 44
0.9
  1
4,519 kg.
 40
0.125
 41
1.8
  0
ENDBLK
  5
263
100
AcDbEntity
  8
0
  6
BYBLOCK
 62
0
100
AcDbBlockEnd
  0
BLOCK
  5
264
100
AcDbEntity
  8
0
100
AcDbBlockBegin
  2
*T3
 70
1
 10
0.0
 20
0.0
  3
*T3
  1

  0
LINE
  5
265
100
AcDbEntity
  8
0
100
AcDbLine
 62
2
  6
CONTINUOUS
 10
0.0
 20
0.0
 11
4.6
 21
0.0
  0
LINE
  5
266
100
AcDbEntity
  8
0
100
AcDbLine
 62
2
  6
CONTINUOUS
 10
0.0
 20
0.0
 11
0.0
 21
-1.68775
  0
LINE
  5
267
100
AcDbEntity
  8
0
100
AcDbLine
 62
2
  6
CONTINUOUS
 10
0.0
 20
-0.34375
 11
4.6
 21
-0.34375
  0
LINE
  5
268
100
AcDbEntity
  8
0
100
AcDbLine
 62
2
  6
CONTINUOUS
 10
0.0
 20
-0.68775
 11
4.6
 21
-0.68775
  0
LINE
  5
269
100
AcDbEntity
  8
0
100
AcDbLine
 62
2
  6
CONTINUOUS
 10
0.0
 20
-0.93775
 11
4.6
 21
-0.93775
  0
LINE
  5
26A
100
AcDbEntity
  8
0
100
AcDbLine
 62
2
  6
CONTINUOUS
 10
0.0
 20
-1.18775
 11
4.6
 21
-1.18775
  0
LINE
  5
26B
100
AcDbEntity
  8
0
100
AcDbLine
 62
2
  6
CONTINUOUS
 10
0.0
 20
-1.43775
 11
4.6
 21
-1.43775
  0
LINE
  5
26C
100
AcDbEntity
  8
0
100
AcDbLine
 62
2
  6
CONTINUOUS
 10
0.0
 20
-1.68775
 11
4.6
 21
-1.68775
  0
LINE
  5
26D
100
AcDbEntity
  8
0
100
AcDbLine
 62
2
  6
CONTINUOUS
 10
1.3
 20
-0.34375
 11
1.3
 21
-1.68775
  0
LINE
  5
26E
100
AcDbEntity
  8
0
100
AcDbLine
 62
2
  6
CONTINUOUS
 10
3.3
 20
-0.34375
 11
3.3
 21
-1.68775
  0
LINE
  5
26F
100
AcDbEntity
  8
0
100
AcDbLine
 62
2
  6
CONTINUOUS
 10
4.6
 20
0.0
 11
4.6
 21
-1.68775
  0
MTEXT
  5
270
100
AcDbEntity
  8
0
100
AcDbMText
 62
2
  6
CONTINUOUS
  7
STANDARD
 71
2
 72
1
 10
2.3
 20
-0.099375
 30
0.0
 11
1.0
 21
0.0
 31
0.0
 44
0.9
  1
Port Headings
 40
0.145
 41
3.016
  0
MTEXT
  5
271
100
AcDbEntity
  8
0
100
AcDbMText
 62
2
  6
CONTINUOUS
  7
STANDARD
 71
2
 72
1
 10
0.65
 20
-0.44325
 30
0.0
 11
1.0
 21
0.0
 31
0.0
 44
0.9
  1
Product
 40
0.145
 41
1.624
  0
MTEXT
  5
272
100
AcDbEntity
  8
0
100
AcDbMText
 62
2
  6
CONTINUOUS
  7
STANDARD
 71
2
 72
1
 10
2.3
 20
-0.44325
 30
0.0
 11
1.0
 21
0.0
 31
0.0
 44
0.9
  1
Port
 40
0.145
 41
0.928
  0
MTEXT
  5
273
100
AcDbEntity
  8
0
100
AcDbMText
 62
2
  6
CONTINUOUS
  7
STANDARD
 71
2
 72
1
 10
3.95
 20
-0.44325
 30
0.0
 11
1.0
 21
0.0
 31
0.0
 44
0.9
  1
Size
 40
0.145
 41
0.928
  0
MTEXT
  5
274
100
AcDbEntity
  8
0
100
AcDbMText
 62
2
  6
CONTINUOUS
  7
STANDARD
 71
2
 72
1
 10
0.65
 20
-0.75025
 30
0.0
 11
1.0
 21
0.0
 31
0.0
 44
0.9
  1
P45
 40
0.125
 41
0.6
  0
MTEXT
  5
275
100
AcDbEntity
  8
0
100
AcDbMText
 62
2
  6
CONTINUOUS
  7
STANDARD
 71
2
 72
1
 10
2.3
 20
-0.75025
 30
0.0
 11
1.0
 21
0.0
 31
0.0
 44
0.9
  1
Ports 1 &  2
 40
0.125
 41
2.4
  0
MTEXT
  5
276
100
AcDbEntity
  8
0
100
AcDbMText
 62
2
  6
CONTINUOUS
  7
STANDARD
 71
2
 72
1
 10
3.95
 20
-0.75025
 30
0.0
 11
1.0
 21
0.0
 31
0.0
 44
0.9
  1
1 1/4" Code 62
 40
0.125
 41
2.8
  0
MTEXT
  5
277
100
AcDbEntity
  8
0
100
AcDbMText
 62
2
  6
CONTINUOUS
  7
STANDARD
 71
2
 72
1
 10
0.65
 20
-1.00025
 30
0.0
 11
1.0
 21
0.0
 31
0.0
 44
0.9
  1
P45
 40
0.125
 41
0.6
  0
MTEXT
  5
278
100
AcDbEntity
  8
0
100
AcDbMText
 62
2
  6
CONTINUOUS
  7
STANDARD
 71
2
 72
1
 10
2.3
 20
-1.00025
 30
0.0
 11
1.0
 21
0.0
 31
0.0
 44
0.9
  1
Port 3
 40
0.125
 41
1.2
  0
MTEXT
  5
279
100
AcDbEntity
  8
0
100
AcDbMText
 62
2
  6
CONTINUOUS
  7
STANDARD
 71
2
 72
1
 10
3.95
 20
-1.00025
 30
0.0
 11
1.0
 21
0.0
 31
0.0
 44
0.9
  1
1" Code 62
 40
0.125
 41
2.0
  0
MTEXT
  5
27A
100
AcDbEntity
  8
0
100
AcDbMText
 62
2
  6
CONTINUOUS
  7
STANDARD
 71
2
 72
1
 10
0.65
 20
-1.25025
 30
0.0
 11
1.0
 21
0.0
 31
0.0
 44
0.9
  1
P45
 40
0.125
 41
0.6
  0
MTEXT
  5
27B
100
AcDbEntity
  8
0
100
AcDbMText
 62
2
  6
CONTINUOUS
  7
STANDARD
 71
2
 72
1
 10
2.3
 20
-1.25025
 30
0.0
 11
1.0
 21
0.0
 31
0.0
 44
0.9
  1
Port 4
 40
0.125
 41
1.2
  0
MTEXT
  5
27C
100
AcDbEntity
  8
0
100
AcDbMText
 62
2
  6
CONTINUOUS
  7
STANDARD
 71
2
 72
1
 10
3.95
 20
-1.25025
 30
0.0
 11
1.0
 21
0.0
 31
0.0
 44
0.9
  1
SAE 6
 40
0.125
 41
1.0
  0
MTEXT
  5
27D
100
AcDbEntity
  8
0
100
AcDbMText
 62
2
  6
CONTINUOUS
  7
STANDARD
 71
2
 72
1
 10
0.65
 20
-1.50025
 30
0.0
 11
1.0
 21
0.0
 31
0.0
 44
0.9
  1
P45
 40
0.125
 41
0.6
  0
MTEXT
  5
27E
100
AcDbEntity
  8
0
100
AcDbMText
 62
2
  6
CONTINUOUS
  7
STANDARD
 71
2
 72
1
 10
2.3
 20
-1.50025
 30
0.0
 11
1.0
 21
0.0
 31
0.0
 44
0.9
  1
Gage Port
 40
0.125
 41
1.8
  0
MTEXT
  5
27F
100
AcDbEntity
  8
0
100
AcDbMText
 62
2
  6
CONTINUOUS
  7
STANDARD
 71
2
 72
1
 10
3.95
 20
-1.50025
 30
0.0
 11
1.0
 21
0.0
 31
0.0
 44
0.9
  1
1/4" NPTF
 40
0.125
 41
1.8
  0
ENDBLK
  5
280
100
AcDbEntity
  8
0
  6
BYBLOCK
 62
0
100
AcDbBlockEnd
  0
ENDSEC
  0
SECTION
  2
ENTITIES
  0
IMAGE
  5
281
100
AcDbEntity
  8
0
100
AcDbRasterImage
 62
7
  6
CONTINUOUS
 10
19.2297077316
 20
0.3094318264
 30
0.0
 11
0.0066666667
 21
0.0
 31
0.0
 12
0.0
 22
0.0066666667
 32
0.0
 13
369.0
 23
92.0
340
       3D5
 70
9
280
0
281
50
282
50
283
0
360
       3CF
 71
1
 91
2
 14
-0.5
 24
-0.5
 14
368.5
 24
91.5
  0
INSERT
  5
282
100
AcDbEntity
  8
0
100
AcDbBlockReference
 62
2
  6
CONTINUOUS
  2
SUN_FIRST_THIRD_ANGLE_BL0
 10
20.4816717061
 20
1.2289683772
  0
ACAD_TABLE
  5
283
100
AcDbEntity
  8
0
 62
2
  6
CONTINUOUS
100
AcDbBlockReference
  2
*T1
 10
12.42375
 20
0.30125
 30
0.0
100
AcDbTable
342
       3D7
343
207
 11
1.0
 21
0.0
 31
0.0
 90
6
 91
4
 92
6
 93
20
 94
0
 95
0
 96
0
 70
1
 41
0.0
141
0.525
141
0.1
141
0.525
141
0.1
142
4.1
142
1.1
142
0.7
142
0.5
142
0.4
142
2.475
171
1
172
0
173
0
174
0
175
1
176
1
 91
33
178
0
145
0.0
301
CELL_VALUE
 90
4
  1
T-23A Line mount\P(See Technical Data for Body Features)
304
ACVALUE_END
170
2
140
0.125
171
1
172
0
173
0
174
0
175
1
176
1
 91
33
178
0
145
0.0
301
CELL_VALUE
 90
4
  1
Feb-08-21
304
ACVALUE_END
170
5
140
0.125
171
1
172
0
173
0
174
0
175
1
176
1
 91
33
178
0
145
0.0
301
CELL_VALUE
 90
4
  1
1.000
304
ACVALUE_END
170
5
140
0.125
171
1
172
0
173
0
174
0
175
1
176
1
 91
33
178
0
145
0.0
301
CELL_VALUE
 90
4
  1
C
304
ACVALUE_END
170
5
140
0.125
171
1
172
0
173
0
174
0
175
1
176
1
 91
33
178
0
145
0.0
301
CELL_VALUE
 90
4
  1
2
304
ACVALUE_END
170
5
140
0.125
171
1
172
0
173
0
174
0
175
1
176
1
 91
33
178
0
145
0.0
301
CELL_VALUE
 90
4
  1
 
304
ACVALUE_END
170
1
140
0.125
171
1
172
0
173
0
174
0
175
1
176
1
 91
33
178
0
145
0.0
301
CELL_VALUE
 90
4
  1
DESCRIPTION
304
ACVALUE_END
170
1
140
0.06
171
1
172
0
173
0
174
0
175
1
176
1
 91
33
178
0
145
0.0
301
CELL_VALUE
 90
4
  1
DATE
304
ACVALUE_END
170
1
140
0.06
171
1
172
0
173
0
174
0
175
1
176
1
 91
33
178
0
145
0.0
301
CELL_VALUE
 90
4
  1
SCALE
304
ACVALUE_END
170
1
140
0.06
171
1
172
0
173
0
174
0
175
1
176
1
 91
33
178
0
145
0.0
301
CELL_VALUE
 90
4
  1
DWG SIZE
304
ACVALUE_END
170
1
140
0.06
171
1
172
0
173
0
174
0
175
1
176
1
 91
33
178
0
145
0.0
301
CELL_VALUE
 90
4
  1
SHEET
304
ACVALUE_END
170
1
140
0.06
171
1
172
0
173
0
174
0
175
1
176
1
 91
33
178
0
145
0.0
301
CELL_VALUE
 90
4
  1
 
304
ACVALUE_END
170
1
140
0.125
171
1
172
0
173
0
174
0
175
1
176
1
 91
33
178
0
145
0.0
301
CELL_VALUE
 90
4
  1
P45
304
ACVALUE_END
170
5
140
0.125
171
1
172
0
173
0
174
0
175
4
176
1
 91
33
178
0
145
0.0
301
CELL_VALUE
 90
4
  1
ALL DIMENSIONS IN INCH\PVIEWS ARE THIRD ANGLE
304
ACVALUE_END
170
5
140
0.12
171
1
172
0
173
1
174
0
175
1
176
1
 91
1
178
0
145
0.0
170
1
171
1
172
0
173
1
174
0
175
1
176
1
 91
1
178
0
145
0.0
170
1
171
1
172
0
173
1
174
0
175
1
176
1
 91
1
178
0
145
0.0
170
5
171
1
172
0
173
0
174
0
175
1
176
1
 91
33
178
0
145
0.0
301
CELL_VALUE
 90
4
  1
 
304
ACVALUE_END
170
1
140
0.125
171
1
172
0
173
0
174
0
175
1
176
1
 91
33
178
0
145
0.0
301
CELL_VALUE
 90
4
  1
MODEL
304
ACVALUE_END
170
1
140
0.06
171
1
172
0
173
0
174
0
175
1
176
1
 91
33
178
0
145
0.0
301
CELL_VALUE
 90
4
  1
 
304
ACVALUE_END
170
1
140
0.125
171
1
172
0
173
0
174
0
175
1
176
1
 91
33
178
0
145
0.0
301
CELL_VALUE
 90
4
  1
 
304
ACVALUE_END
170
1
140
0.125
171
1
172
0
173
0
174
0
175
1
176
1
 91
33
178
0
145
0.0
301
CELL_VALUE
 90
4
  1
 
304
ACVALUE_END
170
1
140
0.125
171
1
172
0
173
0
174
0
175
1
176
1
 91
33
178
0
145
0.0
301
CELL_VALUE
 90
4
  1
 
304
ACVALUE_END
170
1
140
0.125
171
1
172
0
173
0
174
0
175
1
176
1
 91
33
178
0
145
0.0
301
CELL_VALUE
 90
4
  1
 
304
ACVALUE_END
170
1
140
0.125
  0
ACAD_TABLE
  5
284
100
AcDbEntity
  8
0
 62
2
  6
CONTINUOUS
100
AcDbBlockReference
  2
*T2
 10
12.4237499994
 20
16.47875
 30
0.0
100
AcDbTable
342
       3D6
343
208
 11
1.0
 21
0.0
 31
0.0
 90
22
 91
7
 92
3
 93
16
 94
0
 95
0
 96
0
 41
0.028
141
0.344
141
0.25
141
0.25
141
0.25
141
0.25
141
0.25
141
0.25
142
3.055
142
3.0
142
3.0
171
1
172
0
173
0
174
0
175
1
176
1
 91
33
178
0
145
0.0
301
CELL_VALUE
 90
4
  1
Technical Data
304
ACVALUE_END
170
5
140
0.145
171
1
172
0
173
0
174
0
175
1
176
1
 91
33
178
0
145
0.0
301
CELL_VALUE
 90
4
  1
U.S. Units
304
ACVALUE_END
170
5
140
0.145
171
1
172
0
173
0
174
0
175
1
176
1
 91
33
178
0
145
0.0
301
CELL_VALUE
 90
4
  1
Metric Units
304
ACVALUE_END
170
5
140
0.145
171
1
172
0
173
0
174
0
175
1
176
1
 91
33
178
0
145
0.0
301
CELL_VALUE
 90
4
  1
Cavity
304
ACVALUE_END
170
5
140
0.125
171
1
172
0
173
0
174
0
175
2
176
1
 91
33
178
0
145
0.0
301
CELL_VALUE
 90
4
  1
T-23A
304
ACVALUE_END
170
5
140
0.125
171
1
172
0
173
1
174
0
175
1
176
1
 91
1
178
0
145
0.0
170
1
171
1
172
0
173
0
174
0
175
1
176
1
 91
33
178
0
145
0.0
301
CELL_VALUE
 90
4
  1
Body Features
304
ACVALUE_END
170
5
140
0.125
171
1
172
0
173
0
174
0
175
2
176
1
 91
33
178
0
145
0.0
301
CELL_VALUE
 90
4
  1
Ninety degree with reverse flow check - reducing
304
ACVALUE_END
170
5
140
0.125
171
1
172
0
173
1
174
0
175
1
176
1
 91
1
178
0
145
0.0
170
1
171
1
172
0
173
0
174
0
175
1
176
1
 91
33
178
0
145
0.0
301
CELL_VALUE
 90
4
  1
Body Type
304
ACVALUE_END
170
5
140
0.125
171
1
172
0
173
0
174
0
175
2
176
1
 91
33
178
0
145
0.0
301
CELL_VALUE
 90
4
  1
Line mount
304
ACVALUE_END
170
5
140
0.125
171
1
172
0
173
1
174
0
175
1
176
1
 91
1
178
0
145
0.0
170
1
171
1
172
0
173
0
174
0
175
1
176
1
 91
33
178
0
145
0.0
301
CELL_VALUE
 90
4
  1
Interface
304
ACVALUE_END
170
5
140
0.125
171
1
172
0
173
0
174
0
175
2
176
1
 91
33
178
0
145
0.0
301
CELL_VALUE
 90
4
  1
None
304
ACVALUE_END
170
5
140
0.125
171
1
172
0
173
1
174
0
175
1
176
1
 91
1
178
0
145
0.0
170
1
171
1
172
0
173
0
174
0
175
1
176
1
 91
33
178
0
145
0.0
301
CELL_VALUE
 90
4
  1
Open Cavity Quantity
304
ACVALUE_END
170
5
140
0.125
171
1
172
0
173
0
174
0
175
2
176
1
 91
33
178
0
145
0.0
301
CELL_VALUE
 90
4
  1
1
304
ACVALUE_END
170
5
140
0.125
171
1
172
0
173
1
174
0
175
1
176
1
 91
1
178
0
145
0.0
170
1
171
1
172
0
173
0
174
0
175
1
176
1
 91
33
178
0
145
0.0
301
CELL_VALUE
 90
4
  1
Weight
304
ACVALUE_END
170
5
140
0.125
171
1
172
0
173
0
174
0
175
1
176
1
 91
33
178
0
145
0.0
301
CELL_VALUE
 90
4
  1
9.963 lb.
304
ACVALUE_END
170
5
140
0.125
171
1
172
0
173
0
174
0
175
1
176
1
 91
33
178
0
145
0.0
301
CELL_VALUE
 90
4
  1
4,519 kg.
304
ACVALUE_END
170
5
140
0.125
  0
ACAD_TABLE
  5
285
100
AcDbEntity
  8
0
 62
2
  6
CONTINUOUS
100
AcDbBlockReference
  2
*T3
 10
0.52125
 20
2.209
 30
0.0
100
AcDbTable
342
       3D6
343
209
 11
1.0
 21
0.0
 31
0.0
 90
22
 91
6
 92
3
 93
16
 94
0
 95
0
 96
0
 41
0.05
141
0.34375
141
0.344
141
0.25
141
0.25
141
0.25
141
0.25
142
1.3
142
2.0
142
1.3
171
1
172
0
173
0
174
0
175
3
176
1
 91
33
178
0
145
0.0
301
CELL_VALUE
 90
4
  1
Port Headings
304
ACVALUE_END
170
5
140
0.145
171
1
172
0
173
1
174
0
175
1
176
1
 91
1
178
0
145
0.0
170
1
171
1
172
0
173
1
174
0
175
1
176
1
 91
1
178
0
145
0.0
170
1
171
1
172
0
173
0
174
0
175
1
176
1
 91
33
178
0
145
0.0
301
CELL_VALUE
 90
4
  1
Product
304
ACVALUE_END
170
5
140
0.145
171
1
172
0
173
0
174
0
175
1
176
1
 91
33
178
0
145
0.0
301
CELL_VALUE
 90
4
  1
Port
304
ACVALUE_END
170
5
140
0.145
171
1
172
0
173
0
174
0
175
1
176
1
 91
33
178
0
145
0.0
301
CELL_VALUE
 90
4
  1
Size
304
ACVALUE_END
170
5
140
0.145
171
1
172
0
173
0
174
0
175
1
176
1
 91
33
178
0
145
0.0
301
CELL_VALUE
 90
4
  1
P45
304
ACVALUE_END
170
5
140
0.125
171
1
172
0
173
0
174
0
175
1
176
1
 91
33
178
0
145
0.0
301
CELL_VALUE
 90
4
  1
Ports 1 &  2
304
ACVALUE_END
170
5
140
0.125
171
1
172
0
173
0
174
0
175
1
176
1
 91
33
178
0
145
0.0
301
CELL_VALUE
 90
4
  1
1 1/4" Code 62
304
ACVALUE_END
170
5
140
0.125
171
1
172
0
173
0
174
0
175
1
176
1
 91
33
178
0
145
0.0
301
CELL_VALUE
 90
4
  1
P45
304
ACVALUE_END
170
5
140
0.125
171
1
172
0
173
0
174
0
175
1
176
1
 91
33
178
0
145
0.0
301
CELL_VALUE
 90
4
  1
Port 3
304
ACVALUE_END
170
5
140
0.125
171
1
172
0
173
0
174
0
175
1
176
1
 91
33
178
0
145
0.0
301
CELL_VALUE
 90
4
  1
1" Code 62
304
ACVALUE_END
170
5
140
0.125
171
1
172
0
173
0
174
0
175
1
176
1
 91
33
178
0
145
0.0
301
CELL_VALUE
 90
4
  1
P45
304
ACVALUE_END
170
5
140
0.125
171
1
172
0
173
0
174
0
175
1
176
1
 91
33
178
0
145
0.0
301
CELL_VALUE
 90
4
  1
Port 4
304
ACVALUE_END
170
5
140
0.125
171
1
172
0
173
0
174
0
175
1
176
1
 91
33
178
0
145
0.0
301
CELL_VALUE
 90
4
  1
SAE 6
304
ACVALUE_END
170
5
140
0.125
171
1
172
0
173
0
174
0
175
1
176
1
 91
33
178
0
145
0.0
301
CELL_VALUE
 90
4
  1
P45
304
ACVALUE_END
170
5
140
0.125
171
1
172
0
173
0
174
0
175
1
176
1
 91
33
178
0
145
0.0
301
CELL_VALUE
 90
4
  1
Gage Port
304
ACVALUE_END
170
5
140
0.125
171
1
172
0
173
0
174
0
175
1
176
1
 91
33
178
0
145
0.0
301
CELL_VALUE
 90
4
  1
1/4" NPTF
304
ACVALUE_END
170
5
140
0.125
  0
MTEXT
  5
286
100
AcDbEntity
  8
0
100
AcDbMText
 62
2
  6
CONTINUOUS
  7
STANDARD
 71
1
 72
1
 10
0.52125
 20
5.75995
 30
0.0
 11
1.0
 21
0.0
 31
0.0
 44
0.6
  3
Notes\P \P1. Important: Carefully consider\P   the maximum system pressure. The\P   pressure rating of the manifold is\P   dependent on the manifold material,\P   with the port type/size a secondary\P   consideration. Manifolds\P   constructed of alu
  1
minum are not\P   rated for pressures higher than\P   3000 psi (210 bar), regardless of\P   the port type/size specified.
 40
0.1
 41
3.04
  0
LINE
  5
287
100
AcDbEntity
  8
0
100
AcDbLine
 62
7
  6
CONTINUOUS
 10
0.30125
 20
0.30125
 11
0.30125
 21
16.69875
  0
LINE
  5
288
100
AcDbEntity
  8
0
100
AcDbLine
 62
7
  6
CONTINUOUS
 10
0.30125
 20
0.30125
 11
21.69875
 21
0.30125
  0
LINE
  5
289
100
AcDbEntity
  8
0
100
AcDbLine
 62
7
  6
CONTINUOUS
 10
0.30125
 20
16.69875
 11
21.69875
 21
16.69875
  0
LINE
  5
28A
100
AcDbEntity
  8
0
100
AcDbLine
 62
7
  6
CONTINUOUS
 10
21.69875
 20
0.30125
 11
21.69875
 21
16.69875
  0
LINE
  5
28B
100
AcDbEntity
  8
0
100
AcDbLine
 62
7
  6
CONTINUOUS
 10
9.6424672462
 20
12.2518007953
 11
8.4938292197
 21
11.1423015947
  0
LINE
  5
28C
100
AcDbEntity
  8
0
100
AcDbLine
 62
7
  6
CONTINUOUS
 10
8.4938292197
 20
5.0453776132
 11
12.3575327538
 21
4.777428863
  0
LINE
  5
28D
100
AcDbEntity
  8
0
100
AcDbLine
 62
7
  6
CONTINUOUS
 10
10.6988981516
 20
4.8434545575
 11
10.717657237
 21
4.8341879285
  0
LINE
  5
28E
100
AcDbEntity
  8
0
100
AcDbLine
 62
4
  6
CONTINUOUS
 10
10.7385053936
 20
11.7234924007
 11
10.6280532734
 21
11.6783663379
  0
LINE
  5
28F
100
AcDbEntity
  8
0
100
AcDbLine
 62
4
  6
CONTINUOUS
 10
11.082547434
 20
11.6864365183
 11
11.1071872235
 21
11.6979242289
  0
LINE
  5
290
100
AcDbEntity
  8
0
100
AcDbLine
 62
7
  6
CONTINUOUS
 10
8.4938292197
 20
5.0453776132
 11
8.4938292197
 21
11.1423015947
  0
LINE
  5
291
100
AcDbEntity
  8
0
100
AcDbLine
 62
4
  6
CONTINUOUS
 10
10.792867397
 20
11.702127068
 11
10.7971163399
 21
11.7062312319
  0
LINE
  5
292
100
AcDbEntity
  8
0
100
AcDbLine
 62
4
  6
CONTINUOUS
 10
10.7792667063
 20
11.676677309
 11
10.7835156477
 21
11.6807814714
  0
LINE
  5
293
100
AcDbEntity
  8
0
100
AcDbLine
 62
4
  6
CONTINUOUS
 10
10.9695541023
 20
11.6634808332
 11
10.9780519851
 21
11.6716891582
  0
LINE
  5
294
100
AcDbEntity
  8
0
100
AcDbLine
 62
4
  6
CONTINUOUS
 10
11.3892028576
 20
11.6255804349
 11
11.4401901666
 21
11.6748303964
  0
LINE
  5
295
100
AcDbEntity
  8
0
100
AcDbLine
 62
7
  6
CONTINUOUS
 10
12.3575327538
 20
10.8743528445
 11
13.5061707803
 21
11.9838520451
  0
LINE
  5
296
100
AcDbEntity
  8
0
100
AcDbLine
 62
7
  6
CONTINUOUS
 10
10.7373421891
 20
6.9154396402
 11
10.7373421891
 21
6.8064274009
  0
LINE
  5
297
100
AcDbEntity
  8
0
100
AcDbLine
 62
4
  6
CONTINUOUS
 10
13.4251604337
 20
11.3620272739
 11
13.453840795
 21
11.3897303772
  0
LINE
  5
298
100
AcDbEntity
  8
0
100
AcDbLine
 62
7
  6
CONTINUOUS
 10
10.7497624607
 20
4.8889281115
 11
10.7497624607
 21
4.8327447812
  0
LINE
  5
299
100
AcDbEntity
  8
0
100
AcDbLine
 62
7
  6
CONTINUOUS
 10
10.7817552561
 20
4.8867094036
 11
10.7817552561
 21
4.824464447
  0
LINE
  5
29A
100
AcDbEntity
  8
0
100
AcDbLine
 62
4
  6
CONTINUOUS
 10
13.1667575493
 20
9.3910690086
 11
13.1521897537
 21
9.3860589017
  0
LINE
  5
29B
100
AcDbEntity
  8
0
100
AcDbLine
 62
4
  6
CONTINUOUS
 10
12.4317975821
 20
9.7145320026
 11
12.4381709957
 21
9.7206882478
  0
LINE
  5
29C
100
AcDbEntity
  8
0
100
AcDbLine
 62
4
  6
CONTINUOUS
 10
12.4317975821
 20
9.6352455838
 11
12.4381709957
 21
9.641401829
  0
LINE
  5
29D
100
AcDbEntity
  8
0
100
AcDbLine
 62
4
  6
CONTINUOUS
 10
12.4381709957
 20
9.5304008517
 11
12.4317975821
 21
9.5242446065
  0
LINE
  5
29E
100
AcDbEntity
  8
0
100
AcDbLine
 62
4
  6
CONTINUOUS
 10
12.7520211718
 20
6.1244013202
 11
12.7456477582
 21
6.1341023585
  0
LINE
  5
29F
100
AcDbEntity
  8
0
100
AcDbLine
 62
4
  6
CONTINUOUS
 10
12.7583945854
 20
6.3208449615
 11
12.764767999
 21
6.3111439274
  0
LINE
  5
2A0
100
AcDbEntity
  8
0
100
AcDbLine
 62
4
  6
CONTINUOUS
 10
10.6280532734
 20
11.6783663379
 11
10.6195757711
 21
11.731740198
  0
LINE
  5
2A1
100
AcDbEntity
  8
0
100
AcDbLine
 62
7
  6
CONTINUOUS
 10
11.4284001301
 20
4.8418644293
 11
11.4284001301
 21
4.7796194727
  0
LINE
  5
2A2
100
AcDbEntity
  8
0
100
AcDbLine
 62
7
  6
CONTINUOUS
 10
11.4721030889
 20
4.8388336188
 11
11.4721030889
 21
4.7826502885
  0
LINE
  5
2A3
100
AcDbEntity
  8
0
100
AcDbLine
 62
4
  6
CONTINUOUS
 10
12.7005878743
 20
9.0676419155
 11
12.7151556767
 21
9.0817133329
  0
LINE
  5
2A4
100
AcDbEntity
  8
0
100
AcDbLine
 62
4
  6
CONTINUOUS
 10
13.0963465047
 20
9.4499154202
 11
13.0975604836
 21
9.4510880339
  0
LINE
  5
2A5
100
AcDbEntity
  8
0
100
AcDbLine
 62
4
  6
CONTINUOUS
 10
13.0089397066
 20
9.3111191074
 11
12.9907299499
 21
9.2935298321
  0
LINE
  5
2A6
100
AcDbEntity
  8
0
100
AcDbLine
 62
4
  6
CONTINUOUS
 10
12.8535497975
 20
9.1610239721
 11
12.8717595542
 21
9.1786132474
  0
LINE
  5
2A7
100
AcDbEntity
  8
0
100
AcDbLine
 62
4
  6
CONTINUOUS
 10
12.9288167821
 20
9.2337263007
 11
12.9433845777
 21
9.2477977115
  0
LINE
  5
2A8
100
AcDbEntity
  8
0
100
AcDbLine
 62
4
  6
CONTINUOUS
 10
12.9579523976
 20
9.2618691459
 11
12.9725201933
 21
9.2759405567
  0
LINE
  5
2A9
100
AcDbEntity
  8
0
100
AcDbLine
 62
4
  6
CONTINUOUS
 10
13.1194121771
 20
9.417827326
 11
13.1339800213
 21
9.4318987838
  0
LINE
  5
2AA
100
AcDbEntity
  8
0
100
AcDbLine
 62
4
  6
CONTINUOUS
 10
13.1521897537
 20
9.4494880357
 11
13.1667575493
 21
9.4635594465
  0
LINE
  5
2AB
100
AcDbEntity
  8
0
100
AcDbLine
 62
4
  6
CONTINUOUS
 10
12.9980138478
 20
9.2326057516
 11
13.0125816434
 21
9.2466771624
  0
LINE
  5
2AC
100
AcDbEntity
  8
0
100
AcDbLine
 62
4
  6
CONTINUOUS
 10
13.1339800213
 20
9.295979212
 11
13.1194121771
 21
9.2819077541
  0
LINE
  5
2AD
100
AcDbEntity
  8
0
100
AcDbLine
 62
4
  6
CONTINUOUS
 10
13.0744948113
 20
9.2385209079
 11
13.0672109134
 21
9.2314852025
  0
LINE
  5
2AE
100
AcDbEntity
  8
0
100
AcDbLine
 62
4
  6
CONTINUOUS
 10
13.0125816434
 20
9.1787173765
 11
12.9980138478
 21
9.1646459656
  0
LINE
  5
2AF
100
AcDbEntity
  8
0
100
AcDbLine
 62
4
  6
CONTINUOUS
 10
12.9433845777
 20
9.1118781397
 11
12.9288167821
 21
9.0978067288
  0
LINE
  5
2B0
100
AcDbEntity
  8
0
100
AcDbLine
 62
4
  6
CONTINUOUS
 10
12.6969459235
 20
8.8738366649
 11
12.7115137263
 21
8.8879080827
  0
LINE
  5
2B1
100
AcDbEntity
  8
0
100
AcDbLine
 62
4
  6
CONTINUOUS
 10
12.7406493297
 20
8.9160509162
 11
12.7515751855
 21
8.9266044831
  0
LINE
  5
2B2
100
AcDbEntity
  8
0
100
AcDbLine
 62
4
  6
CONTINUOUS
 10
13.0307914001
 20
9.1963066518
 11
13.0490011568
 21
9.2138959271
  0
LINE
  5
2B3
100
AcDbEntity
  8
0
100
AcDbLine
 62
4
  6
CONTINUOUS
 10
13.1521897537
 20
9.3135684638
 11
13.1667575493
 21
9.3276398747
  0
LINE
  5
2B4
100
AcDbEntity
  8
0
100
AcDbLine
 62
4
  6
CONTINUOUS
 10
12.8899693108
 20
9.0149764279
 11
12.8972532087
 21
9.0220121333
  0
LINE
  5
2B5
100
AcDbEntity
  8
0
100
AcDbLine
 62
7
  6
CONTINUOUS
 10
10.6500985125
 20
6.8832842563
 11
10.6516965753
 21
6.8847976625
  0
LINE
  5
2B6
100
AcDbEntity
  8
0
100
AcDbLine
 62
4
  6
CONTINUOUS
 10
12.720011628
 20
8.0072024479
 11
12.7394353651
 21
7.9897191194
  0
LINE
  5
2B7
100
AcDbEntity
  8
0
100
AcDbLine
 62
4
  6
CONTINUOUS
 10
12.4477311161
 20
9.6823507666
 11
12.4445444093
 21
9.6634153647
  0
LINE
  5
2B8
100
AcDbEntity
  8
0
100
AcDbLine
 62
4
  6
CONTINUOUS
 10
12.4254241685
 20
9.6925184782
 11
12.4317975821
 21
9.7145320026
  0
LINE
  5
2B9
100
AcDbEntity
  8
0
100
AcDbLine
 62
4
  6
CONTINUOUS
 10
12.4445444093
 20
9.6634153647
 11
12.4381709957
 21
9.641401829
  0
LINE
  5
2BA
100
AcDbEntity
  8
0
100
AcDbLine
 62
4
  6
CONTINUOUS
 10
12.4445444093
 20
9.5524143804
 11
12.4381709957
 21
9.5304008517
  0
LINE
  5
2BB
100
AcDbEntity
  8
0
100
AcDbLine
 62
4
  6
CONTINUOUS
 10
13.4347205542
 20
9.448827869
 11
13.4410939678
 21
9.4549841142
  0
LINE
  5
2BC
100
AcDbEntity
  8
0
100
AcDbLine
 62
4
  6
CONTINUOUS
 10
13.4251604337
 20
9.2493061051
 11
13.4506540882
 21
9.2739310859
  0
LINE
  5
2BD
100
AcDbEntity
  8
0
100
AcDbLine
 62
4
  6
CONTINUOUS
 10
12.8808644503
 20
8.6899422779
 11
12.899074204
 21
8.7075315503
  0
LINE
  5
2BE
100
AcDbEntity
  8
0
100
AcDbLine
 62
4
  6
CONTINUOUS
 10
12.9609873627
 20
8.7673350729
 11
12.9828390683
 21
8.7884422009
  0
LINE
  5
2BF
100
AcDbEntity
  8
0
100
AcDbLine
 62
4
  6
CONTINUOUS
 10
12.9755551644
 20
8.6998547533
 11
12.9609873627
 21
8.6857833366
  0
LINE
  5
2C0
100
AcDbEntity
  8
0
100
AcDbLine
 62
7
  6
CONTINUOUS
 10
10.6516901484
 20
6.8847930624
 11
10.639165518
 21
6.873137579
  0
LINE
  5
2C1
100
AcDbEntity
  8
0
100
AcDbLine
 62
4
  6
CONTINUOUS
 10
12.7456477582
 20
6.1341023585
 11
12.7392743445
 21
6.1596606789
  0
LINE
  5
2C2
100
AcDbEntity
  8
0
100
AcDbLine
 62
4
  6
CONTINUOUS
 10
12.764767999
 20
6.3111439274
 11
12.7679547058
 21
6.2983647595
  0
LINE
  5
2C3
100
AcDbEntity
  8
0
100
AcDbLine
 62
7
  6
CONTINUOUS
 10
12.3575327538
 20
4.777428863
 11
12.3575327538
 21
10.8743528445
  0
LINE
  5
2C4
100
AcDbEntity
  8
0
100
AcDbLine
 62
4
  6
CONTINUOUS
 10
12.4477311161
 20
9.6982080458
 11
12.4477311161
 21
9.6823507666
  0
LINE
  5
2C5
100
AcDbEntity
  8
0
100
AcDbLine
 62
4
  6
CONTINUOUS
 10
12.4477311161
 20
6.5037300172
 11
12.4477311161
 21
6.3134426212
  0
LINE
  5
2C6
100
AcDbEntity
  8
0
100
AcDbLine
 62
4
  6
CONTINUOUS
 10
12.450917823
 20
9.606142476
 11
12.450917823
 21
9.5902851911
  0
LINE
  5
2C7
100
AcDbEntity
  8
0
100
AcDbLine
 62
4
  6
CONTINUOUS
 10
12.450917823
 20
9.5902851911
 11
12.4445444093
 21
9.5524143804
  0
LINE
  5
2C8
100
AcDbEntity
  8
0
100
AcDbLine
 62
4
  6
CONTINUOUS
 10
12.899074204
 20
8.5987958962
 11
12.8808644503
 21
8.5812066238
  0
LINE
  5
2C9
100
AcDbEntity
  8
0
100
AcDbLine
 62
4
  6
CONTINUOUS
 10
12.946419561
 20
8.6037521311
 11
12.9209259065
 21
8.5791271503
  0
LINE
  5
2CA
100
AcDbEntity
  8
0
100
AcDbLine
 62
4
  6
CONTINUOUS
 10
12.9609873627
 20
8.5770476768
 11
12.9755551644
 21
8.5911190935
  0
LINE
  5
2CB
100
AcDbEntity
  8
0
100
AcDbLine
 62
4
  6
CONTINUOUS
 10
12.7491472344
 20
8.1440809384
 11
12.767356985
 21
8.1616702079
  0
LINE
  5
2CC
100
AcDbEntity
  8
0
100
AcDbLine
 62
4
  6
CONTINUOUS
 10
12.8389820116
 20
8.2308546749
 11
12.868117615
 21
8.2589975084
  0
LINE
  5
2CD
100
AcDbEntity
  8
0
100
AcDbLine
 62
4
  6
CONTINUOUS
 10
12.8826854228
 20
8.273068931
 11
12.9045371284
 21
8.294176059
  0
LINE
  5
2CE
100
AcDbEntity
  8
0
100
AcDbLine
 62
4
  6
CONTINUOUS
 10
12.9664502962
 20
8.3539795904
 11
12.9810180919
 21
8.3680510013
  0
LINE
  5
2CF
100
AcDbEntity
  8
0
100
AcDbLine
 62
4
  6
CONTINUOUS
 10
13.0089397042
 20
8.3950212093
 11
13.0198655631
 21
8.4055747792
  0
LINE
  5
2D0
100
AcDbEntity
  8
0
100
AcDbLine
 62
4
  6
CONTINUOUS
 10
13.0417172565
 20
8.4266818955
 11
13.0599270132
 21
8.4442711708
  0
LINE
  5
2D1
100
AcDbEntity
  8
0
100
AcDbLine
 62
4
  6
CONTINUOUS
 10
13.0878486499
 20
8.4712414024
 11
13.1097003433
 21
8.4923485187
  0
LINE
  5
2D2
100
AcDbEntity
  8
0
100
AcDbLine
 62
4
  6
CONTINUOUS
 10
13.1024164455
 20
8.4037610769
 11
13.0878486499
 21
8.3896896661
  0
LINE
  5
2D3
100
AcDbEntity
  8
0
100
AcDbLine
 62
4
  6
CONTINUOUS
 10
12.8972532306
 20
8.2055886173
 11
12.8826854228
 21
8.1915171947
  0
LINE
  5
2D4
100
AcDbEntity
  8
0
100
AcDbLine
 62
4
  6
CONTINUOUS
 10
13.1242681389
 20
8.4339294973
 11
13.1436918745
 21
8.4164461644
  0
LINE
  5
2D5
100
AcDbEntity
  8
0
100
AcDbLine
 62
4
  6
CONTINUOUS
 10
12.8098464082
 20
8.2027118415
 11
12.824414216
 21
8.026495868
  0
LINE
  5
2D6
100
AcDbEntity
  8
0
100
AcDbLine
 62
4
  6
CONTINUOUS
 10
12.7392743445
 20
6.1596606789
 11
12.7360876377
 21
6.2041544053
  0
LINE
  5
2D7
100
AcDbEntity
  8
0
100
AcDbLine
 62
4
  6
CONTINUOUS
 10
12.6933039726
 20
9.0062383822
 11
12.6933039726
 21
9.0334222943
  0
LINE
  5
2D8
100
AcDbEntity
  8
0
100
AcDbLine
 62
4
  6
CONTINUOUS
 10
12.7187976271
 20
8.922127706
 11
12.7187976271
 21
8.9493116209
  0
LINE
  5
2D9
100
AcDbEntity
  8
0
100
AcDbLine
 62
4
  6
CONTINUOUS
 10
12.7333654289
 20
9.0993026039
 11
12.7333654289
 21
8.9361991227
  0
LINE
  5
2DA
100
AcDbEntity
  8
0
100
AcDbLine
 62
4
  6
CONTINUOUS
 10
12.7491472344
 20
7.9537935424
 11
12.7491472344
 21
8.1440809384
  0
LINE
  5
2DB
100
AcDbEntity
  8
0
100
AcDbLine
 62
4
  6
CONTINUOUS
 10
12.7588590834
 20
8.9608241035
 11
12.7588590834
 21
9.1239275846
  0
LINE
  5
2DC
100
AcDbEntity
  8
0
100
AcDbLine
 62
4
  6
CONTINUOUS
 10
12.7679547058
 20
6.2349356312
 11
12.7679547058
 21
6.1715065002
  0
LINE
  5
2DD
100
AcDbEntity
  8
0
100
AcDbLine
 62
4
  6
CONTINUOUS
 10
12.7734268851
 20
8.9477116053
 11
12.7734268851
 21
9.1379990013
  0
LINE
  5
2DE
100
AcDbEntity
  8
0
100
AcDbLine
 62
4
  6
CONTINUOUS
 10
12.7746408859
 20
8.1415220041
 11
12.7746408859
 21
8.0056024351
  0
LINE
  5
2DF
100
AcDbEntity
  8
0
100
AcDbLine
 62
4
  6
CONTINUOUS
 10
12.7989205396
 20
8.972336586
 11
12.7989205396
 21
9.1626239821
  0
LINE
  5
2E0
100
AcDbEntity
  8
0
100
AcDbLine
 62
4
  6
CONTINUOUS
 10
12.7952786065
 20
7.9983530287
 11
12.8098464082
 21
8.2027118415
  0
LINE
  5
2E1
100
AcDbEntity
  8
0
100
AcDbLine
 62
4
  6
CONTINUOUS
 10
12.6933039726
 20
9.0334222943
 11
12.7005878743
 21
9.0676419155
  0
LINE
  5
2E2
100
AcDbEntity
  8
0
100
AcDbLine
 62
4
  6
CONTINUOUS
 10
12.7115137263
 20
8.8879080827
 11
12.7187976271
 21
8.922127706
  0
LINE
  5
2E3
100
AcDbEntity
  8
0
100
AcDbLine
 62
4
  6
CONTINUOUS
 10
12.7515751855
 20
8.9266044831
 11
12.7588590834
 21
8.9608241035
  0
LINE
  5
2E4
100
AcDbEntity
  8
0
100
AcDbLine
 62
4
  6
CONTINUOUS
 10
12.9063581048
 20
8.6330155224
 11
12.899074204
 21
8.5987958962
  0
LINE
  5
2E5
100
AcDbEntity
  8
0
100
AcDbLine
 62
4
  6
CONTINUOUS
 10
12.7746408859
 20
8.0056024351
 11
12.767356985
 21
7.9713828118
  0
LINE
  5
2E6
100
AcDbEntity
  8
0
100
AcDbLine
 62
4
  6
CONTINUOUS
 10
12.9215328842
 20
9.2130986335
 11
12.9288167821
 21
9.2337263007
  0
LINE
  5
2E7
100
AcDbEntity
  8
0
100
AcDbLine
 62
4
  6
CONTINUOUS
 10
12.9907299499
 20
9.2119780901
 11
12.9980138478
 21
9.2326057516
  0
LINE
  5
2E8
100
AcDbEntity
  8
0
100
AcDbLine
 62
4
  6
CONTINUOUS
 10
12.7394353651
 20
8.0622095602
 11
12.720011628
 21
8.0072024479
  0
LINE
  5
2E9
100
AcDbEntity
  8
0
100
AcDbLine
 62
4
  6
CONTINUOUS
 10
12.8001345404
 20
8.0574113308
 11
12.819558276
 21
8.0761732198
  0
LINE
  5
2EA
100
AcDbEntity
  8
0
100
AcDbLine
 62
4
  6
CONTINUOUS
 10
13.0599270132
 20
8.2539837748
 11
13.0417172565
 21
8.2363944995
  0
LINE
  5
2EB
100
AcDbEntity
  8
0
100
AcDbLine
 62
4
  6
CONTINUOUS
 10
13.0198655631
 20
8.2152873832
 11
13.0089397042
 21
8.2047338133
  0
LINE
  5
2EC
100
AcDbEntity
  8
0
100
AcDbLine
 62
4
  6
CONTINUOUS
 10
12.9810180919
 20
8.1777636052
 11
12.9664502962
 21
8.1636921944
  0
LINE
  5
2ED
100
AcDbEntity
  8
0
100
AcDbLine
 62
4
  6
CONTINUOUS
 10
12.767356985
 20
7.9713828118
 11
12.7491472344
 21
7.9537935424
  0
LINE
  5
2EE
100
AcDbEntity
  8
0
100
AcDbLine
 62
4
  6
CONTINUOUS
 10
12.8826854228
 20
8.0827815349
 11
12.9045371284
 21
8.103888663
  0
LINE
  5
2EF
100
AcDbEntity
  8
0
100
AcDbLine
 62
4
  6
CONTINUOUS
 10
13.0878486499
 20
8.2809540063
 11
13.1097003433
 21
8.3020611226
  0
LINE
  5
2F0
100
AcDbEntity
  8
0
100
AcDbLine
 62
4
  6
CONTINUOUS
 10
12.9288167821
 20
9.0978067288
 11
12.9215328842
 21
9.1043629809
  0
LINE
  5
2F1
100
AcDbEntity
  8
0
100
AcDbLine
 62
4
  6
CONTINUOUS
 10
12.9980138478
 20
9.1646459656
 11
12.9907299499
 21
9.1712022177
  0
LINE
  5
2F2
100
AcDbEntity
  8
0
100
AcDbLine
 62
4
  6
CONTINUOUS
 10
12.4317975821
 20
9.5242446065
 11
12.4254241685
 21
9.5339456448
  0
LINE
  5
2F3
100
AcDbEntity
  8
0
100
AcDbLine
 62
4
  6
CONTINUOUS
 10
12.4381709957
 20
9.641401829
 11
12.4445444093
 21
9.6317007949
  0
LINE
  5
2F4
100
AcDbEntity
  8
0
100
AcDbLine
 62
4
  6
CONTINUOUS
 10
12.7187976271
 20
8.9493116209
 11
12.6933039726
 21
9.0062383822
  0
LINE
  5
2F5
100
AcDbEntity
  8
0
100
AcDbLine
 62
4
  6
CONTINUOUS
 10
12.767356985
 20
8.1616702079
 11
12.7746408859
 21
8.1415220041
  0
LINE
  5
2F6
100
AcDbEntity
  8
0
100
AcDbLine
 62
4
  6
CONTINUOUS
 10
12.6933039726
 20
8.8839107678
 11
12.6969459235
 21
8.8738366649
  0
LINE
  5
2F7
100
AcDbEntity
  8
0
100
AcDbLine
 62
4
  6
CONTINUOUS
 10
12.9664502962
 20
8.1636921944
 11
12.9591663984
 21
8.1838404039
  0
LINE
  5
2F8
100
AcDbEntity
  8
0
100
AcDbLine
 62
4
  6
CONTINUOUS
 10
12.7333654289
 20
8.9361991227
 11
12.7406493297
 21
8.9160509162
  0
LINE
  5
2F9
100
AcDbEntity
  8
0
100
AcDbLine
 62
4
  6
CONTINUOUS
 10
13.0089397042
 20
8.2047338133
 11
13.0016558064
 21
8.2248820228
  0
LINE
  5
2FA
100
AcDbEntity
  8
0
100
AcDbLine
 62
4
  6
CONTINUOUS
 10
12.7151556767
 20
9.0817133329
 11
12.7187976271
 21
9.0716392254
  0
LINE
  5
2FB
100
AcDbEntity
  8
0
100
AcDbLine
 62
4
  6
CONTINUOUS
 10
12.4254241685
 20
9.5339456448
 11
12.4222374616
 21
9.5467248057
  0
LINE
  5
2FC
100
AcDbEntity
  8
0
100
AcDbLine
 62
4
  6
CONTINUOUS
 10
12.4445444093
 20
9.6317007949
 11
12.450917823
 21
9.606142476
  0
LINE
  5
2FD
100
AcDbEntity
  8
0
100
AcDbLine
 62
4
  6
CONTINUOUS
 10
12.4445444093
 20
9.7109872138
 11
12.4477311161
 21
9.6982080458
  0
LINE
  5
2FE
100
AcDbEntity
  8
0
100
AcDbLine
 62
4
  6
CONTINUOUS
 10
12.8899693108
 20
9.1962025227
 11
12.9008951697
 21
9.0708365208
  0
LINE
  5
2FF
100
AcDbEntity
  8
0
100
AcDbLine
 62
4
  6
CONTINUOUS
 10
12.8535498194
 20
8.0546387015
 11
12.8535498194
 21
8.2449260975
  0
LINE
  5
300
100
AcDbEntity
  8
0
100
AcDbLine
 62
4
  6
CONTINUOUS
 10
12.8535497975
 20
9.0251044002
 11
12.8535497975
 21
9.2153917963
  0
LINE
  5
301
100
AcDbEntity
  8
0
100
AcDbLine
 62
4
  6
CONTINUOUS
 10
12.8754015031
 20
9.1685391384
 11
12.8754015031
 21
9.0462115283
  0
LINE
  5
302
100
AcDbEntity
  8
0
100
AcDbLine
 62
4
  6
CONTINUOUS
 10
12.8808644503
 20
8.4996548819
 11
12.8808644503
 21
8.6899422779
  0
LINE
  5
303
100
AcDbEntity
  8
0
100
AcDbLine
 62
4
  6
CONTINUOUS
 10
12.8826854228
 20
8.0827815349
 11
12.8826854228
 21
8.273068931
  0
LINE
  5
304
100
AcDbEntity
  8
0
100
AcDbLine
 62
4
  6
CONTINUOUS
 10
12.9063581048
 20
8.6873833466
 11
12.9063581048
 21
8.6330155224
  0
LINE
  5
305
100
AcDbEntity
  8
0
100
AcDbLine
 62
4
  6
CONTINUOUS
 10
12.9215328842
 20
9.1043629809
 11
12.9215328842
 21
9.2130986335
  0
LINE
  5
306
100
AcDbEntity
  8
0
100
AcDbLine
 62
4
  6
CONTINUOUS
 10
12.9379216782
 20
8.5547679351
 11
12.9379216782
 21
8.6499116332
  0
LINE
  5
307
100
AcDbEntity
  8
0
100
AcDbLine
 62
4
  6
CONTINUOUS
 10
12.9433845777
 20
9.3021655357
 11
12.9433845777
 21
9.1118781397
  0
LINE
  5
308
100
AcDbEntity
  8
0
100
AcDbLine
 62
4
  6
CONTINUOUS
 10
12.9579523976
 20
9.125949574
 11
12.9579523976
 21
9.2618691459
  0
LINE
  5
309
100
AcDbEntity
  8
0
100
AcDbLine
 62
4
  6
CONTINUOUS
 10
12.9591663984
 20
8.1838404039
 11
12.9591663984
 21
8.3197599729
  0
LINE
  5
30A
100
AcDbEntity
  8
0
100
AcDbLine
 62
4
  6
CONTINUOUS
 10
12.9609873627
 20
8.6857833366
 11
12.9609873627
 21
8.7673350729
  0
LINE
  5
30B
100
AcDbEntity
  8
0
100
AcDbLine
 62
4
  6
CONTINUOUS
 10
12.9749481511
 20
9.2646938223
 11
12.9749481511
 21
9.2375099102
  0
LINE
  5
30C
100
AcDbEntity
  8
0
100
AcDbLine
 62
4
  6
CONTINUOUS
 10
12.9828390683
 20
8.6253387198
 11
12.9828390683
 21
8.6797065468
  0
LINE
  5
30D
100
AcDbEntity
  8
0
100
AcDbLine
 62
4
  6
CONTINUOUS
 10
12.9907299499
 20
9.1712022177
 11
12.9907299499
 21
9.2119780901
  0
LINE
  5
30E
100
AcDbEntity
  8
0
100
AcDbLine
 62
4
  6
CONTINUOUS
 10
13.0016558064
 20
8.2248820228
 11
13.0016558064
 21
8.3608015918
  0
LINE
  5
30F
100
AcDbEntity
  8
0
100
AcDbLine
 62
4
  6
CONTINUOUS
 10
13.0125816434
 20
9.1787173765
 11
13.0125816434
 21
9.2874530363
  0
LINE
  5
310
100
AcDbEntity
  8
0
100
AcDbLine
 62
4
  6
CONTINUOUS
 10
13.027149439
 20
9.3287083592
 11
13.027149439
 21
9.2063807448
  0
LINE
  5
311
100
AcDbEntity
  8
0
100
AcDbLine
 62
4
  6
CONTINUOUS
 10
13.0271494609
 20
8.3854265726
 11
13.0271494609
 21
8.2495070035
  0
LINE
  5
312
100
AcDbEntity
  8
0
100
AcDbLine
 62
4
  6
CONTINUOUS
 10
13.0417172565
 20
8.2363944995
 11
13.0417172565
 21
8.4266818955
  0
LINE
  5
313
100
AcDbEntity
  8
0
100
AcDbLine
 62
4
  6
CONTINUOUS
 10
13.0490011568
 20
9.2138959271
 11
13.0490011568
 21
9.349815499
  0
LINE
  5
314
100
AcDbEntity
  8
0
100
AcDbLine
 62
4
  6
CONTINUOUS
 10
13.0635689524
 20
9.2415592955
 11
13.0635689524
 21
9.4182547341
  0
LINE
  5
315
100
AcDbEntity
  8
0
100
AcDbLine
 62
4
  6
CONTINUOUS
 10
13.067210911
 20
8.4241229642
 11
13.067210911
 21
8.2882033952
  0
LINE
  5
316
100
AcDbEntity
  8
0
100
AcDbLine
 62
4
  6
CONTINUOUS
 10
13.0878486499
 20
8.2809540063
 11
13.0878486499
 21
8.4712414024
  0
LINE
  5
317
100
AcDbEntity
  8
0
100
AcDbLine
 62
4
  6
CONTINUOUS
 10
13.0963465047
 20
9.2596280242
 11
13.0963465047
 21
9.395547596
  0
LINE
  5
318
100
AcDbEntity
  8
0
100
AcDbLine
 62
4
  6
CONTINUOUS
 10
13.0963465047
 20
9.4363234585
 11
13.0963465047
 21
9.4499154202
  0
LINE
  5
319
100
AcDbEntity
  8
0
100
AcDbLine
 62
4
  6
CONTINUOUS
 10
13.1157702403
 20
9.2919818706
 11
13.1157702403
 21
9.4007175233
  0
LINE
  5
31A
100
AcDbEntity
  8
0
100
AcDbLine
 62
4
  6
CONTINUOUS
 10
12.7360876377
 20
6.2041544053
 11
12.7392743445
 21
6.2548043769
  0
LINE
  5
31B
100
AcDbEntity
  8
0
100
AcDbLine
 62
4
  6
CONTINUOUS
 10
12.9209259065
 20
8.5791271503
 11
12.9318517593
 21
8.7391922394
  0
LINE
  5
31C
100
AcDbEntity
  8
0
100
AcDbLine
 62
4
  6
CONTINUOUS
 10
12.8972532087
 20
9.0220121333
 11
12.9118210043
 21
9.217309639
  0
LINE
  5
31D
100
AcDbEntity
  8
0
100
AcDbLine
 62
4
  6
CONTINUOUS
 10
13.0975604836
 20
9.4510880339
 11
13.0963465047
 21
9.4363234585
  0
LINE
  5
31E
100
AcDbEntity
  8
0
100
AcDbLine
 62
4
  6
CONTINUOUS
 10
13.4474673814
 20
11.5262896791
 11
13.4251604337
 21
11.3620272739
  0
LINE
  5
31F
100
AcDbEntity
  8
0
100
AcDbLine
 62
4
  6
CONTINUOUS
 10
12.7392743445
 20
6.2548043769
 11
12.7456477582
 21
6.2926751919
  0
LINE
  5
320
100
AcDbEntity
  8
0
100
AcDbLine
 62
4
  6
CONTINUOUS
 10
12.7679547058
 20
6.1715065002
 11
12.764767999
 21
6.1525710941
  0
LINE
  5
321
100
AcDbEntity
  8
0
100
AcDbLine
 62
4
  6
CONTINUOUS
 10
13.1157702403
 20
9.4007175233
 11
13.1194121771
 21
9.417827326
  0
LINE
  5
322
100
AcDbEntity
  8
0
100
AcDbLine
 62
4
  6
CONTINUOUS
 10
13.1485478169
 20
9.432378233
 11
13.1521897537
 21
9.4494880357
  0
LINE
  5
323
100
AcDbEntity
  8
0
100
AcDbLine
 62
4
  6
CONTINUOUS
 10
12.9755551644
 20
8.5911190935
 11
12.9828390683
 21
8.6253387198
  0
LINE
  5
324
100
AcDbEntity
  8
0
100
AcDbLine
 62
4
  6
CONTINUOUS
 10
13.1667575493
 20
9.3276398747
 11
13.1703994861
 21
9.3447496731
  0
LINE
  5
325
100
AcDbEntity
  8
0
100
AcDbLine
 62
4
  6
CONTINUOUS
 10
12.9591663984
 20
8.3197599729
 11
12.9664502962
 21
8.3539795904
  0
LINE
  5
326
100
AcDbEntity
  8
0
100
AcDbLine
 62
4
  6
CONTINUOUS
 10
13.0016558064
 20
8.3608015918
 11
13.0089397042
 21
8.3950212093
  0
LINE
  5
327
100
AcDbEntity
  8
0
100
AcDbLine
 62
4
  6
CONTINUOUS
 10
13.0271494609
 20
8.2495070035
 11
13.0198655631
 21
8.2152873832
  0
LINE
  5
328
100
AcDbEntity
  8
0
100
AcDbLine
 62
4
  6
CONTINUOUS
 10
13.067210911
 20
8.2882033952
 11
13.0599270132
 21
8.2539837748
  0
LINE
  5
329
100
AcDbEntity
  8
0
100
AcDbLine
 62
4
  6
CONTINUOUS
 10
13.4283471405
 20
9.4268143446
 11
13.4347205542
 21
9.448827869
  0
LINE
  5
32A
100
AcDbEntity
  8
0
100
AcDbLine
 62
4
  6
CONTINUOUS
 10
13.4474673814
 20
9.3818539406
 11
13.4347205542
 21
9.3378268861
  0
LINE
  5
32B
100
AcDbEntity
  8
0
100
AcDbLine
 62
4
  6
CONTINUOUS
 10
13.1436918745
 20
8.4164461644
 11
13.1242681389
 21
8.3614390565
  0
LINE
  5
32C
100
AcDbEntity
  8
0
100
AcDbLine
 62
4
  6
CONTINUOUS
 10
12.4381709957
 20
9.7206882478
 11
12.4445444093
 21
9.7109872138
  0
LINE
  5
32D
100
AcDbEntity
  8
0
100
AcDbLine
 62
4
  6
CONTINUOUS
 10
12.899074204
 20
8.7075315503
 11
12.9063581048
 21
8.6873833466
  0
LINE
  5
32E
100
AcDbEntity
  8
0
100
AcDbLine
 62
4
  6
CONTINUOUS
 10
13.0198655631
 20
8.4055747792
 11
13.0271494609
 21
8.3854265726
  0
LINE
  5
32F
100
AcDbEntity
  8
0
100
AcDbLine
 62
4
  6
CONTINUOUS
 10
13.0599270132
 20
8.4442711708
 11
13.067210911
 21
8.4241229642
  0
LINE
  5
330
100
AcDbEntity
  8
0
100
AcDbLine
 62
4
  6
CONTINUOUS
 10
12.9828390683
 20
8.6797065468
 11
12.9755551644
 21
8.6998547533
  0
LINE
  5
331
100
AcDbEntity
  8
0
100
AcDbLine
 62
4
  6
CONTINUOUS
 10
12.8717595542
 20
9.1786132474
 11
12.8754015031
 21
9.1685391384
  0
LINE
  5
332
100
AcDbEntity
  8
0
100
AcDbLine
 62
4
  6
CONTINUOUS
 10
12.9725201933
 20
9.2759405567
 11
12.9749481511
 21
9.2646938223
  0
LINE
  5
333
100
AcDbEntity
  8
0
100
AcDbLine
 62
4
  6
CONTINUOUS
 10
12.7734268851
 20
9.1379990013
 11
12.7989205396
 21
8.972336586
  0
LINE
  5
334
100
AcDbEntity
  8
0
100
AcDbLine
 62
4
  6
CONTINUOUS
 10
13.0125816434
 20
9.2874530363
 11
13.0089397066
 21
9.3111191074
  0
LINE
  5
335
100
AcDbEntity
  8
0
100
AcDbLine
 62
4
  6
CONTINUOUS
 10
13.1485478169
 20
9.3916023648
 11
13.1485478169
 21
9.432378233
  0
LINE
  5
336
100
AcDbEntity
  8
0
100
AcDbLine
 62
4
  6
CONTINUOUS
 10
13.1703994861
 20
9.3447496731
 11
13.1703994861
 21
9.3855255455
  0
LINE
  5
337
100
AcDbEntity
  8
0
100
AcDbLine
 62
4
  6
CONTINUOUS
 10
13.4283471405
 20
9.2999560768
 11
13.4251604337
 21
9.2493061051
  0
LINE
  5
338
100
AcDbEntity
  8
0
100
AcDbLine
 62
4
  6
CONTINUOUS
 10
13.4251604337
 20
9.4078789314
 11
13.4283471405
 21
9.4268143446
  0
LINE
  5
339
100
AcDbEntity
  8
0
100
AcDbLine
 62
4
  6
CONTINUOUS
 10
13.4347205542
 20
9.3378268861
 11
13.4283471405
 21
9.2999560768
  0
LINE
  5
33A
100
AcDbEntity
  8
0
100
AcDbLine
 62
4
  6
CONTINUOUS
 10
13.4506540882
 20
9.4007893537
 11
13.4474673814
 21
9.3818539406
  0
LINE
  5
33B
100
AcDbEntity
  8
0
100
AcDbLine
 62
4
  6
CONTINUOUS
 10
12.7456477582
 20
6.2926751919
 11
12.7520211718
 21
6.3146887163
  0
LINE
  5
33C
100
AcDbEntity
  8
0
100
AcDbLine
 62
4
  6
CONTINUOUS
 10
12.764767999
 20
6.1525710941
 11
12.7583945854
 21
6.1305575654
  0
LINE
  5
33D
100
AcDbEntity
  8
0
100
AcDbLine
 62
7
  6
CONTINUOUS
 10
12.745761001
 20
6.9316640882
 11
12.7464460397
 21
6.9323135377
  0
LINE
  5
33E
100
AcDbEntity
  8
0
100
AcDbLine
 62
4
  6
CONTINUOUS
 10
13.1521897537
 20
9.3860589017
 11
13.1485478169
 21
9.3916023648
  0
LINE
  5
33F
100
AcDbEntity
  8
0
100
AcDbLine
 62
4
  6
CONTINUOUS
 10
13.1703994861
 20
9.3855255455
 11
13.1667575493
 21
9.3910690086
  0
LINE
  5
340
100
AcDbEntity
  8
0
100
AcDbLine
 62
4
  6
CONTINUOUS
 10
13.027149439
 20
9.2063807448
 11
13.0307914001
 21
9.1963066518
  0
LINE
  5
341
100
AcDbEntity
  8
0
100
AcDbLine
 62
4
  6
CONTINUOUS
 10
13.0672109134
 20
9.2314852025
 11
13.0635689524
 21
9.2415592955
  0
LINE
  5
342
100
AcDbEntity
  8
0
100
AcDbLine
 62
4
  6
CONTINUOUS
 10
13.1194121771
 20
9.2819077541
 11
13.1157702403
 21
9.2919818706
  0
LINE
  5
343
100
AcDbEntity
  8
0
100
AcDbLine
 62
4
  6
CONTINUOUS
 10
13.1485478169
 20
9.3236425803
 11
13.1521897537
 21
9.3135684638
  0
LINE
  5
344
100
AcDbEntity
  8
0
100
AcDbLine
 62
4
  6
CONTINUOUS
 10
13.1667575493
 20
9.4635594465
 11
13.1703994861
 21
9.4534853258
  0
LINE
  5
345
100
AcDbEntity
  8
0
100
AcDbLine
 62
4
  6
CONTINUOUS
 10
13.4474673814
 20
11.336002283
 11
13.4474673814
 21
11.5262896791
  0
LINE
  5
346
100
AcDbEntity
  8
0
100
AcDbLine
 62
4
  6
CONTINUOUS
 10
13.4506540882
 20
9.4325039122
 11
13.4506540882
 21
9.4007893537
  0
LINE
  5
347
100
AcDbEntity
  8
0
100
AcDbLine
 62
7
  6
CONTINUOUS
 10
13.5061707803
 20
5.8869280636
 11
13.5061707803
 21
11.9838520451
  0
LINE
  5
348
100
AcDbEntity
  8
0
100
AcDbLine
 62
7
  6
CONTINUOUS
 10
8.4938292197
 20
11.1423015947
 11
12.3575327538
 21
10.8743528445
  0
LINE
  5
349
100
AcDbEntity
  8
0
100
AcDbLine
 62
4
  6
CONTINUOUS
 10
10.7869107241
 20
11.6717483638
 11
10.7792667063
 21
11.676677309
  0
LINE
  5
34A
100
AcDbEntity
  8
0
100
AcDbLine
 62
4
  6
CONTINUOUS
 10
10.8081554372
 20
11.6922691821
 11
10.792867397
 21
11.702127068
  0
LINE
  5
34B
100
AcDbEntity
  8
0
100
AcDbLine
 62
4
  6
CONTINUOUS
 10
10.9771981201
 20
11.6585518881
 11
10.9695541023
 21
11.6634808332
  0
LINE
  5
34C
100
AcDbEntity
  8
0
100
AcDbLine
 62
4
  6
CONTINUOUS
 10
10.9007579227
 20
11.7078413208
 11
10.9084019424
 21
11.7029123775
  0
LINE
  5
34D
100
AcDbEntity
  8
0
100
AcDbLine
 62
4
  6
CONTINUOUS
 10
13.4410939678
 20
9.4549841142
 11
13.4474673814
 21
9.4452830801
  0
LINE
  5
34E
100
AcDbEntity
  8
0
100
AcDbLine
 62
4
  6
CONTINUOUS
 10
13.4474673814
 20
9.4452830801
 11
13.4506540882
 21
9.4325039122
  0
LINE
  5
34F
100
AcDbEntity
  8
0
100
AcDbLine
 62
4
  6
CONTINUOUS
 10
12.7520211718
 20
6.3146887163
 11
12.7583945854
 21
6.3208449615
  0
LINE
  5
350
100
AcDbEntity
  8
0
100
AcDbLine
 62
4
  6
CONTINUOUS
 10
12.7552078786
 20
6.2226231409
 11
12.7679547058
 21
6.2349356312
  0
LINE
  5
351
100
AcDbEntity
  8
0
100
AcDbLine
 62
4
  6
CONTINUOUS
 10
12.7583945854
 20
6.1305575654
 11
12.7520211718
 21
6.1244013202
  0
LINE
  5
352
100
AcDbEntity
  8
0
100
AcDbLine
 62
4
  6
CONTINUOUS
 10
10.8064477072
 20
11.6659946419
 11
10.7869107241
 21
11.6717483638
  0
LINE
  5
353
100
AcDbEntity
  8
0
100
AcDbLine
 62
4
  6
CONTINUOUS
 10
10.8276924203
 20
11.6865154601
 11
10.8081554372
 21
11.6922691821
  0
LINE
  5
354
100
AcDbEntity
  8
0
100
AcDbLine
 62
4
  6
CONTINUOUS
 10
10.9967351032
 20
11.6527981661
 11
10.9771981201
 21
11.6585518881
  0
LINE
  5
355
100
AcDbEntity
  8
0
100
AcDbLine
 62
4
  6
CONTINUOUS
 10
11.0646978004
 20
11.6568825953
 11
11.0485558937
 21
11.6536032097
  0
LINE
  5
356
100
AcDbEntity
  8
0
100
AcDbLine
 62
4
  6
CONTINUOUS
 10
11.0502636252
 20
11.6798777513
 11
11.082547434
 21
11.6864365183
  0
LINE
  5
357
100
AcDbEntity
  8
0
100
AcDbLine
 62
4
  6
CONTINUOUS
 10
10.9780519851
 20
11.6716891582
 11
10.9941938918
 21
11.6749685439
  0
LINE
  5
358
100
AcDbEntity
  8
0
100
AcDbLine
 62
4
  6
CONTINUOUS
 10
10.7835156477
 20
11.6807814714
 11
10.7996575513
 21
11.6840608542
  0
LINE
  5
359
100
AcDbEntity
  8
0
100
AcDbLine
 62
4
  6
CONTINUOUS
 10
10.7971163399
 20
11.7062312319
 11
10.8294001491
 21
11.7127899992
  0
LINE
  5
35A
100
AcDbEntity
  8
0
100
AcDbLine
 62
4
  6
CONTINUOUS
 10
11.0485558937
 20
11.6536032097
 11
11.0205210277
 21
11.6511486067
  0
LINE
  5
35B
100
AcDbEntity
  8
0
100
AcDbLine
 62
4
  6
CONTINUOUS
 10
10.9941938918
 20
11.6749685439
 11
11.0502636252
 21
11.6798777513
  0
LINE
  5
35C
100
AcDbEntity
  8
0
100
AcDbLine
 62
4
  6
CONTINUOUS
 10
10.8582684976
 20
11.6667996854
 11
10.8302336317
 21
11.6643450824
  0
LINE
  5
35D
100
AcDbEntity
  8
0
100
AcDbLine
 62
4
  6
CONTINUOUS
 10
10.7996575513
 20
11.6840608542
 11
10.8276924203
 21
11.6865154601
  0
LINE
  5
35E
100
AcDbEntity
  8
0
100
AcDbLine
 62
4
  6
CONTINUOUS
 10
10.8294001491
 20
11.7127899992
 11
10.8574350162
 21
11.7152446034
  0
LINE
  5
35F
100
AcDbEntity
  8
0
100
AcDbLine
 62
4
  6
CONTINUOUS
 10
11.4486676689
 20
11.6214565362
 11
11.3297380463
 21
11.6297043336
  0
LINE
  5
360
100
AcDbEntity
  8
0
100
AcDbLine
 62
4
  6
CONTINUOUS
 10
11.0205210277
 20
11.6511486067
 11
10.9967351032
 21
11.6527981661
  0
LINE
  5
361
100
AcDbEntity
  8
0
100
AcDbLine
 62
4
  6
CONTINUOUS
 10
10.8302336317
 20
11.6643450824
 11
10.8064477072
 21
11.6659946419
  0
LINE
  5
362
100
AcDbEntity
  8
0
100
AcDbLine
 62
4
  6
CONTINUOUS
 10
10.8514783448
 20
11.6848659007
 11
10.8276924203
 21
11.6865154601
  0
LINE
  5
363
100
AcDbEntity
  8
0
100
AcDbLine
 62
4
  6
CONTINUOUS
 10
11.2600880028
 20
11.6609275522
 11
11.1887302293
 21
11.6658762306
  0
LINE
  5
364
100
AcDbEntity
  8
0
100
AcDbLine
 62
4
  6
CONTINUOUS
 10
10.697723699
 20
11.7087253058
 11
10.6263659254
 21
11.7136739842
  0
LINE
  5
365
100
AcDbEntity
  8
0
100
AcDbLine
 62
4
  6
CONTINUOUS
 10
11.1071872235
 20
11.6979242289
 11
11.0120435255
 21
11.7045224668
  0
LINE
  5
366
100
AcDbEntity
  8
0
100
AcDbLine
 62
4
  6
CONTINUOUS
 10
10.8574350162
 20
11.7152446034
 11
10.8812209407
 21
11.7135950439
  0
LINE
  5
367
100
AcDbEntity
  8
0
100
AcDbLine
 62
4
  6
CONTINUOUS
 10
10.8812209407
 20
11.7135950439
 11
10.9007579227
 21
11.7078413208
  0
LINE
  5
368
100
AcDbEntity
  8
0
100
AcDbLine
 62
7
  6
CONTINUOUS
 10
12.3575327538
 20
4.777428863
 11
13.5061707803
 21
5.8869280636
  0
LINE
  5
369
100
AcDbEntity
  8
0
100
AcDbLine
 62
7
  6
CONTINUOUS
 10
13.5061707803
 20
11.9838520451
 11
9.6424672462
 21
12.2518007953
  0
ARC
  5
36A
100
AcDbEntity
  8
0
100
AcDbCircle
 62
7
  6
CONTINUOUS
 10
10.7982071443
 20
7.2249213918
 40
2.6999411875
100
AcDbArc
 50
94.0210371489
 51
94.4794426835
  0
ARC
  5
36B
100
AcDbEntity
  8
0
100
AcDbCircle
 62
7
  6
CONTINUOUS
 10
10.797024781
 20
7.4085970754
 40
2.5040639261
100
AcDbArc
 50
93.4008689683
 51
95.6455260385
  0
ARC
  5
36C
100
AcDbEntity
  8
0
100
AcDbCircle
 62
7
  6
CONTINUOUS
 10
11.2789594764
 20
7.2510879918
 40
2.4759824616
100
AcDbArc
 50
273.460253038
 51
274.4740090323
  0
ARC
  5
36D
100
AcDbEntity
  8
0
100
AcDbCircle
 62
7
  6
CONTINUOUS
 10
11.0368161148
 20
5.8758907589
 40
1.0819211298
100
AcDbArc
 50
254.6141230724
 51
256.3642747627
  0
ARC
  5
36E
100
AcDbEntity
  8
0
100
AcDbCircle
 62
7
  6
CONTINUOUS
 10
10.7439103046
 20
4.9307181879
 40
0.0981089067
100
AcDbArc
 50
254.8737411393
 51
256.0157710269
  0
ARC
  5
36F
100
AcDbEntity
  8
0
100
AcDbCircle
 62
7
  6
CONTINUOUS
 10
10.7733017545
 20
6.8015524383
 40
0.0379835395
100
AcDbArc
 50
163.5583126528
 51
170.9215633389
  0
LINE
  5
370
100
AcDbEntity
  8
0
100
AcDbLine
 62
7
  6
CONTINUOUS
 10
10.638804451
 20
6.8728001863
 11
10.6391658407
 21
6.873137839
  0
SPLINE
  5
371
100
AcDbEntity
  8
0
100
AcDbSpline
 62
7
  6
CONTINUOUS
 70
0
 71
3
 72
23
 73
19
 74
0
 42
0.0000001
 43
0.0000001
 44
0.0000000001
 40
0.0
 40
0.0
 40
0.0
 40
0.0
 40
0.0924170076
 40
0.1812664812
 40
0.2663784686
 40
0.3476024726
 40
0.4248015003
 40
0.4978621335
 40
0.5666901401
 40
0.6312210707
 40
0.6914197037
 40
0.7472914321
 40
0.7988887538
 40
0.8463254056
 40
0.8897940916
 40
0.9295876483
 40
0.9661298714
 40
1.0
 40
1.0
 40
1.0
 40
1.0
 10
10.9204602179
 20
6.7312559035
 30
0.0
 10
10.9136747289
 20
6.7326969693
 30
0.0
 10
10.9003933898
 20
6.7356563276
 30
0.0
 10
10.8809757808
 20
6.740431059
 30
0.0
 10
10.8624877116
 20
6.7454462062
 30
0.0
 10
10.8449735354
 20
6.7506888383
 30
0.0
 10
10.8284751496
 20
6.7561469635
 30
0.0
 10
10.8130317541
 20
6.761806676
 30
0.0
 10
10.7986800446
 20
6.7676549739
 30
0.0
 10
10.7854536833
 20
6.773677336
 30
0.0
 10
10.7733835734
 20
6.7798599801
 30
0.0
 10
10.7624973753
 20
6.7861884386
 30
0.0
 10
10.752819658
 20
6.7926488254
 30
0.0
 10
10.7443719685
 20
6.7992281053
 30
0.0
 10
10.7371728693
 20
6.8059137439
 30
0.0
 10
10.7312395826
 20
6.8126971644
 30
0.0
 10
10.7265895997
 20
6.8195664407
 30
0.0
 10
10.7242865923
 20
6.8243525353
 30
0.0
 10
10.7233864057
 20
6.8267301221
 30
0.0
  0
SPLINE
  5
372
100
AcDbEntity
  8
0
100
AcDbSpline
 62
7
  6
CONTINUOUS
 70
0
 71
3
 72
15
 73
11
 74
0
 42
0.0000001
 43
0.0000001
 44
0.0000000001
 40
0.0
 40
0.0
 40
0.0
 40
0.0
 40
0.1018990793
 40
0.2101452781
 40
0.3249215296
 40
0.4463598953
 40
0.5745511191
 40
0.7095508543
 40
0.8513753436
 40
1.0
 40
1.0
 40
1.0
 40
1.0
 10
10.651695238
 20
6.8847977588
 30
0.0
 10
10.6536993759
 20
6.8866625178
 30
0.0
 10
10.6579634594
 20
6.8903690299
 30
0.0
 10
10.6648756699
 20
6.8957062518
 30
0.0
 10
10.6724850084
 20
6.9009789453
 30
0.0
 10
10.680782218
 20
6.9061802952
 30
0.0
 10
10.6897577462
 20
6.9113051941
 30
0.0
 10
10.6994018734
 20
6.9163478762
 30
0.0
 10
10.7097037407
 20
6.9213026459
 30
0.0
 10
10.7168362588
 20
6.9244699434
 30
0.0
 10
10.72050707
 20
6.9260407284
 30
0.0
  0
SPLINE
  5
373
100
AcDbEntity
  8
0
100
AcDbSpline
 62
7
  6
CONTINUOUS
 70
0
 71
3
 72
14
 73
10
 74
0
 42
0.0000001
 43
0.0000001
 44
0.0000000001
 40
0.0
 40
0.0
 40
0.0
 40
0.0
 40
0.1051407964
 40
0.2150252976
 40
0.451160561
 40
0.5784279548
 40
0.7122238768
 40
0.8527220288
 40
1.0
 40
1.0
 40
1.0
 40
1.0
 10
10.6994987852
 20
4.8431580227
 30
0.0
 10
10.696955527
 20
4.8444125519
 30
0.0
 10
10.6918498247
 20
4.8471766495
 30
0.0
 10
10.6815801584
 20
4.8537190918
 30
0.0
 10
10.6715374735
 20
4.8616625115
 30
0.0
 10
10.6617357917
 20
4.8708196213
 30
0.0
 10
10.6542056057
 20
4.8786113568
 30
0.0
 10
10.6466846409
 20
4.8871435843
 30
0.0
 10
10.6417945169
 20
4.8931742712
 30
0.0
 10
10.6393480979
 20
4.8963039175
 30
0.0
  0
SPLINE
  5
374
100
AcDbEntity
  8
0
100
AcDbSpline
 62
7
  6
CONTINUOUS
 70
0
 71
3
 72
41
 73
37
 74
0
 42
0.0000001
 43
0.0000001
 44
0.0000000001
 40
0.0
 40
0.0
 40
0.0
 40
0.0
 40
0.023256652
 40
0.0481659404
 40
0.0746583598
 40
0.1026525972
 40
0.1320569152
 40
0.1627701282
 40
0.1946836271
 40
0.2276816433
 40
0.2616423381
 40
0.2964389943
 40
0.3319402212
 40
0.3680111692
 40
0.404514125
 40
0.4413090395
 40
0.47825457
 40
0.5152085442
 40
0.5520288003
 40
0.5885737917
 40
0.6247033188
 40
0.6602794099
 40
0.6951666797
 40
0.7292334726
 40
0.7623523801
 40
0.7944008386
 40
0.8252625994
 40
0.8548278642
 40
0.8829945955
 40
0.9096700433
 40
0.9347712099
 40
0.9582274562
 40
0.9693212265
 40
0.9799839708
 40
0.9902111367
 40
1.0
 40
1.0
 40
1.0
 40
1.0
 10
11.7773411115
 20
4.8175986036
 30
0.0
 10
11.7695239548
 20
4.8146630447
 30
0.0
 10
11.7531911523
 20
4.8089600973
 30
0.0
 10
11.7275542663
 20
4.8011124912
 30
0.0
 10
11.7000220961
 20
4.7937031227
 30
0.0
 10
11.6707076085
 20
4.7867633452
 30
0.0
 10
11.6397305011
 20
4.7803222403
 30
0.0
 10
11.6072179198
 20
4.7744063796
 30
0.0
 10
11.5733033704
 20
4.7690407429
 30
0.0
 10
11.5381263131
 20
4.7642476753
 30
0.0
 10
11.5018315283
 20
4.7600469486
 30
0.0
 10
11.4645684445
 20
4.7564563925
 30
0.0
 10
11.4264905393
 20
4.7534907458
 30
0.0
 10
11.3877546953
 20
4.751162316
 30
0.0
 10
11.348520516
 20
4.7494810554
 30
0.0
 10
11.3089496971
 20
4.748453661
 30
0.0
 10
11.2692053422
 20
4.7480845384
 30
0.0
 10
11.2294512403
 20
4.7483753365
 30
0.0
 10
11.1898512417
 20
4.7493245717
 30
0.0
 10
11.1505685712
 20
4.7509285481
 30
0.0
 10
11.1117651072
 20
4.7531805268
 30
0.0
 10
11.0736007534
 20
4.7560709615
 30
0.0
 10
11.0362327481
 20
4.7595881289
 30
0.0
 10
10.999814992
 20
4.7637171476
 30
0.0
 10
10.9644974544
 20
4.7684407956
 30
0.0
 10
10.9304254928
 20
4.7737396444
 30
0.0
 10
10.8977392023
 20
4.7795912516
 30
0.0
 10
10.8665728714
 20
4.785971361
 30
0.0
 10
10.8370544107
 20
4.7928534462
 30
0.0
 10
10.8093044266
 20
4.8002083857
 30
0.0
 10
10.7834367081
 20
4.8080059308
 30
0.0
 10
10.7631754691
 20
4.8149687651
 30
0.0
 10
10.7480089449
 20
4.8207602717
 30
0.0
 10
10.7373810192
 20
4.8251132073
 30
0.0
 10
10.7272986054
 20
4.8295521012
 30
0.0
 10
10.7208045704
 20
4.832633255
 30
0.0
 10
10.7176534428
 20
4.8341898803
 30
0.0
  0
SPLINE
  5
375
100
AcDbEntity
  8
0
100
AcDbSpline
 62
7
  6
CONTINUOUS
 70
0
 71
3
 72
11
 73
7
 74
0
 42
0.0000001
 43
0.0000001
 44
0.0000000001
 40
0.0
 40
0.0
 40
0.0
 40
0.0
 40
0.2464179584
 40
0.4942839735
 40
0.7449565552
 40
1.0
 40
1.0
 40
1.0
 40
1.0
 10
10.7497624607
 20
4.8327447812
 30
0.0
 10
10.747318507
 20
4.8326193164
 30
0.0
 10
10.7424060381
 20
4.8325313276
 30
0.0
 10
10.7350119651
 20
4.8329251021
 30
0.0
 10
10.7275823914
 20
4.8338804333
 30
0.0
 10
10.7226595826
 20
4.8349049448
 30
0.0
 10
10.7202018158
 20
4.8355170055
 30
0.0
  0
SPLINE
  5
376
100
AcDbEntity
  8
0
100
AcDbSpline
 62
7
  6
CONTINUOUS
 70
0
 71
3
 72
9
 73
5
 74
0
 42
0.0000001
 43
0.0000001
 44
0.0000000001
 40
0.0
 40
0.0
 40
0.0
 40
0.0
 40
0.4896161665
 40
1.0
 40
1.0
 40
1.0
 40
1.0
 10
10.7183090836
 20
4.8360084468
 30
0.0
 10
10.7151348779
 20
4.8368664286
 30
0.0
 10
10.7087362384
 20
4.8389458124
 30
0.0
 10
10.7025727345
 20
4.8416417161
 30
0.0
 10
10.6994987852
 20
4.8431580227
 30
0.0
  0
SPLINE
  5
377
100
AcDbEntity
  8
0
100
AcDbSpline
 62
7
  6
CONTINUOUS
 70
0
 71
3
 72
15
 73
11
 74
0
 42
0.0000001
 43
0.0000001
 44
0.0000000001
 40
0.0
 40
0.0
 40
0.0
 40
0.0
 40
0.1454909208
 40
0.2858692583
 40
0.4207260399
 40
0.5496777661
 40
0.6723754553
 40
0.7885023796
 40
0.8977859929
 40
1.0
 40
1.0
 40
1.0
 40
1.0
 10
10.9407116755
 20
6.6984402476
 30
0.0
 10
10.9301959369
 20
6.7000572871
 30
0.0
 10
10.9095644132
 20
6.7034372318
 30
0.0
 10
10.8793132403
 20
6.7090579616
 30
0.0
 10
10.8503825126
 20
6.7151242696
 30
0.0
 10
10.8228706407
 20
6.7216157372
 30
0.0
 10
10.7968708633
 20
6.7285093555
 30
0.0
 10
10.7724709605
 20
6.7357820273
 30
0.0
 10
10.7497536912
 20
6.7434080324
 30
0.0
 10
10.7352885873
 20
6.7488973292
 30
0.0
 10
10.728363448
 20
6.7517102321
 30
0.0
  0
SPLINE
  5
378
100
AcDbEntity
  8
0
100
AcDbSpline
 62
7
  6
CONTINUOUS
 70
0
 71
3
 72
11
 73
7
 74
0
 42
0.0000001
 43
0.0000001
 44
0.0000000001
 40
0.0
 40
0.0
 40
0.0
 40
0.0
 40
0.2771829539
 40
0.5362633722
 40
0.7771647955
 40
1.0
 40
1.0
 40
1.0
 40
1.0
 10
10.728363448
 20
6.7517102321
 30
0.0
 10
10.7228548322
 20
6.7539477614
 30
0.0
 10
10.7122756703
 20
6.7584739231
 30
0.0
 10
10.6972418513
 20
6.7656912296
 30
0.0
 10
10.6836097799
 20
6.7730922533
 30
0.0
 10
10.6751501363
 20
6.7783403218
 30
0.0
 10
10.6711800046
 20
6.7810022153
 30
0.0
  0
SPLINE
  5
379
100
AcDbEntity
  8
0
100
AcDbSpline
 62
7
  6
CONTINUOUS
 70
0
 71
3
 72
9
 73
5
 74
0
 42
0.0000001
 43
0.0000001
 44
0.0000000001
 40
0.0
 40
0.0
 40
0.0
 40
0.0
 40
0.4824232453
 40
1.0
 40
1.0
 40
1.0
 40
1.0
 10
10.6389513324
 20
6.8705124997
 30
0.0
 10
10.6405360402
 20
6.8727341072
 30
0.0
 10
10.6440715846
 20
6.8771631863
 30
0.0
 10
10.6479927221
 20
6.8812502189
 30
0.0
 10
10.6500985125
 20
6.8832842563
 30
0.0
  0
SPLINE
  5
37A
100
AcDbEntity
  8
0
100
AcDbSpline
 62
7
  6
CONTINUOUS
 70
0
 71
3
 72
20
 73
16
 74
0
 42
0.0000001
 43
0.0000001
 44
0.0000000001
 40
0.0
 40
0.0
 40
0.0
 40
0.0
 40
0.1526204189
 40
0.2985759301
 40
0.4371638099
 40
0.5034935673
 40
0.5677469009
 40
0.6298537806
 40
0.6897511577
 40
0.747381858
 40
0.8026932697
 40
0.8556425263
 40
0.9061931852
 40
0.9543174121
 40
1.0
 40
1.0
 40
1.0
 40
1.0
 10
10.9510846273
 20
6.6804633649
 30
0.0
 10
10.9371264658
 20
6.6824650588
 30
0.0
 10
10.9098656638
 20
6.6867128755
 30
0.0
 10
10.8701333514
 20
6.6940023524
 30
0.0
 10
10.8384284016
 20
6.7007927375
 30
0.0
 10
10.8142483179
 20
6.7066117261
 30
0.0
 10
10.797014528
 20
6.7110818562
 30
0.0
 10
10.780440245
 20
6.7157156843
 30
0.0
 10
10.7645486093
 20
6.7205066251
 30
0.0
 10
10.7493617743
 20
6.725447666
 30
0.0
 10
10.7349010285
 20
6.730532339
 30
0.0
 10
10.7211864223
 20
6.7357530674
 30
0.0
 10
10.7082369268
 20
6.7411026354
 30
0.0
 10
10.6960708342
 20
6.746573789
 30
0.0
 10
10.68829003
 20
6.750396815
 30
0.0
 10
10.6845388876
 20
6.7523316075
 30
0.0
  0
SPLINE
  5
37B
100
AcDbEntity
  8
0
100
AcDbSpline
 62
7
  6
CONTINUOUS
 70
0
 71
3
 72
15
 73
11
 74
0
 42
0.0000001
 43
0.0000001
 44
0.0000000001
 40
0.0
 40
0.0
 40
0.0
 40
0.0
 40
0.1188712634
 40
0.2340988406
 40
0.348493648
 40
0.4649309261
 40
0.5861276541
 40
0.7144638197
 40
0.8519087604
 40
1.0
 40
1.0
 40
1.0
 40
1.0
 10
10.7233864057
 20
6.8267301221
 30
0.0
 10
10.7226462186
 20
6.8286851159
 30
0.0
 10
10.7214609675
 20
6.8326472405
 30
0.0
 10
10.7206575348
 20
6.8387494795
 30
0.0
 10
10.7208730982
 20
6.8448596939
 30
0.0
 10
10.7221068724
 20
6.8509531761
 30
0.0
 10
10.7243483498
 20
6.8570108466
 30
0.0
 10
10.727583338
 20
6.8630201879
 30
0.0
 10
10.7317991364
 20
6.8689716885
 30
0.0
 10
10.7351235463
 20
6.8727473336
 30
0.0
 10
10.7369280084
 20
6.8746251445
 30
0.0
  0
SPLINE
  5
37C
100
AcDbEntity
  8
0
100
AcDbSpline
 62
7
  6
CONTINUOUS
 70
0
 71
3
 72
15
 73
11
 74
0
 42
0.0000001
 43
0.0000001
 44
0.0000000001
 40
0.0
 40
0.0
 40
0.0
 40
0.0
 40
0.1310598587
 40
0.2598896056
 40
0.3866706682
 40
0.5116676961
 40
0.6351930737
 40
0.7575668782
 40
0.8790855254
 40
1.0
 40
1.0
 40
1.0
 40
1.0
 10
11.7737604271
 20
4.8176321573
 30
0.0
 10
11.7612112783
 20
4.812944875
 30
0.0
 10
11.7360534973
 20
4.8043587877
 30
0.0
 10
11.6979062687
 20
4.7939260534
 30
0.0
 10
11.6597710591
 20
4.7860967524
 30
0.0
 10
11.6217463695
 20
4.7808335298
 30
0.0
 10
11.5839164387
 20
4.7780204409
 30
0.0
 10
11.5463445974
 20
4.7774823171
 30
0.0
 10
11.5090713942
 20
4.7790080925
 30
0.0
 10
11.4843831849
 20
4.781256193
 30
0.0
 10
11.4721030889
 20
4.7826502885
 30
0.0
  0
SPLINE
  5
37D
100
AcDbEntity
  8
0
100
AcDbSpline
 62
7
  6
CONTINUOUS
 70
0
 71
3
 72
21
 73
17
 74
0
 42
0.0000001
 43
0.0000001
 44
0.0000000001
 40
0.0
 40
0.0
 40
0.0
 40
0.0
 40
0.1229782982
 40
0.1846437121
 40
0.2464406137
 40
0.308381136
 40
0.3704758731
 40
0.4327332085
 40
0.4951582589
 40
0.5577520389
 40
0.6205114325
 40
0.6834297978
 40
0.7464974582
 40
0.8097023547
 40
0.8730312648
 40
1.0
 40
1.0
 40
1.0
 40
1.0
 10
11.4284001301
 20
4.7796194727
 30
0.0
 10
11.4020145559
 20
4.7742572846
 30
0.0
 10
11.3621837327
 20
4.7671901458
 30
0.0
 10
11.3086820815
 20
4.7601513478
 30
0.0
 10
11.2682785319
 20
4.7561605432
 30
0.0
 10
11.2276666093
 20
4.7535660113
 30
0.0
 10
11.1868851791
 20
4.7524562809
 30
0.0
 10
11.1459843773
 20
4.7528997686
 30
0.0
 10
11.1050223183
 20
4.7549388121
 30
0.0
 10
11.06406171
 20
4.7585854323
 30
0.0
 10
11.0231650142
 20
4.7638185381
 30
0.0
 10
10.9823898679
 20
4.7705874605
 30
0.0
 10
10.9417857589
 20
4.7788167247
 30
0.0
 10
10.9013909548
 20
4.7884123441
 30
0.0
 10
10.8478059771
 20
4.802897842
 30
0.0
 10
10.8080587378
 20
4.8154706367
 30
0.0
 10
10.7817552561
 20
4.824464447
 30
0.0
  0
SPLINE
  5
37E
100
AcDbEntity
  8
0
100
AcDbSpline
 62
7
  6
CONTINUOUS
 70
0
 71
3
 72
47
 73
43
 74
0
 42
0.0000001
 43
0.0000001
 44
0.0000000001
 40
0.0
 40
0.0
 40
0.0
 40
0.0
 40
0.0958288111
 40
0.142819056
 40
0.1890973226
 40
0.2345926742
 40
0.2792365299
 40
0.3229621663
 40
0.3657048032
 40
0.4074019306
 40
0.4479935008
 40
0.4874221382
 40
0.5256333545
 40
0.5625758117
 40
0.5982016755
 40
0.6324669342
 40
0.6653317617
 40
0.6967609905
 40
0.7267247393
 40
0.7551990982
 40
0.7821669619
 40
0.8076191396
 40
0.8315558348
 40
0.8429598954
 40
0.8539904236
 40
0.8646510588
 40
0.8749463966
 40
0.8848821863
 40
0.894465538
 40
0.9037048856
 40
0.9126103351
 40
0.9211937488
 40
0.9294688783
 40
0.9374517162
 40
0.9451605113
 40
0.959834734
 40
0.9668566107
 40
0.9737035074
 40
0.9804067699
 40
0.9870000208
 40
0.9935188065
 40
1.0
 40
1.0
 40
1.0
 40
1.0
 10
10.5874427564
 20
11.1645770999
 30
0.0
 10
10.5646525385
 20
11.1661576069
 30
0.0
 10
10.5307113247
 20
11.1688915999
 30
0.0
 10
10.4858482598
 20
11.1733121255
 30
0.0
 10
10.4529683426
 20
11.1769567175
 30
0.0
 10
10.4206920266
 20
11.1809458578
 30
0.0
 10
10.3890732874
 20
11.1852728549
 30
0.0
 10
10.3581649766
 20
11.1899304207
 30
0.0
 10
10.3280187386
 20
11.1949107362
 30
0.0
 10
10.2986849547
 20
11.2002054386
 30
0.0
 10
10.2702126166
 20
11.205805618
 30
0.0
 10
10.2426492584
 20
11.2117018508
 30
0.0
 10
10.2160408838
 20
11.2178842213
 30
0.0
 10
10.1904318803
 20
11.2243423463
 30
0.0
 10
10.1658649233
 20
11.2310653585
 30
0.0
 10
10.1423809023
 20
11.2380419481
 30
0.0
 10
10.1200188581
 20
11.2452603947
 30
0.0
 10
10.0988159087
 20
11.2527086013
 30
0.0
 10
10.0788071341
 20
11.2603740948
 30
0.0
 10
10.0600255581
 20
11.2682440655
 30
0.0
 10
10.0425019032
 20
11.2763054856
 30
0.0
 10
10.0262651658
 20
11.2845450025
 30
0.0
 10
10.013632101
 20
11.2916590501
 30
0.0
 10
10.0042087732
 20
11.2974408208
 30
0.0
 10
9.9975941117
 20
11.3017430386
 30
0.0
 10
9.9913204762
 20
11.3060794084
 30
0.0
 10
9.9853904506
 20
11.3104482429
 30
0.0
 10
9.9798065073
 20
11.3148478006
 30
0.0
 10
9.9745708987
 20
11.3192762526
 30
0.0
 10
9.969685839
 20
11.3237319176
 30
0.0
 10
9.9651533446
 20
11.3282130069
 30
0.0
 10
9.9609752665
 20
11.332717793
 30
0.0
 10
9.9571535347
 20
11.337244485
 30
0.0
 10
9.9536894805
 20
11.3417917585
 30
0.0
 10
9.9496176608
 20
11.3477797425
 30
0.0
 10
9.9461726976
 20
11.3539092254
 30
0.0
 10
9.9434433027
 20
11.3601470597
 30
0.0
 10
9.941790672
 20
11.3647689613
 30
0.0
 10
9.9405040369
 20
11.3693999198
 30
0.0
 10
9.9395843218
 20
11.3740381176
 30
0.0
 10
9.9390321332
 20
11.3786808111
 30
0.0
 10
9.9389092474
 20
11.3817813031
 30
0.0
 10
9.93890924
 20
11.3833263769
 30
0.0
  0
SPLINE
  5
37F
100
AcDbEntity
  8
0
100
AcDbSpline
 62
7
  6
CONTINUOUS
 70
0
 71
3
 72
39
 73
35
 74
0
 42
0.0000001
 43
0.0000001
 44
0.0000000001
 40
0.0
 40
0.0
 40
0.0
 40
0.0
 40
0.0311450468
 40
0.0624431066
 40
0.0938883481
 40
0.1254709924
 40
0.157178888
 40
0.1889972656
 40
0.2209091813
 40
0.2528958506
 40
0.2849370306
 40
0.3170114219
 40
0.3490970827
 40
0.3811718539
 40
0.4132137864
 40
0.4452015658
 40
0.4771149283
 40
0.5089350609
 40
0.5406449831
 40
0.5722299015
 40
0.6036775303
 40
0.6349783704
 40
0.6661259418
 40
0.6971169618
 40
0.7279514635
 40
0.7586328449
 40
0.7891678453
 40
0.8195664447
 40
0.8498416857
 40
0.880009417
 40
0.9100879626
 40
0.9400977191
 40
0.9700606947
 40
1.0
 40
1.0
 40
1.0
 40
1.0
 10
10.4256809867
 20
10.1033031583
 30
0.0
 10
10.4374756841
 20
10.1024851933
 30
0.0
 10
10.4610719309
 20
10.0999819248
 30
0.0
 10
10.4961802307
 20
10.0936760861
 30
0.0
 10
10.530912484
 20
10.0848435403
 30
0.0
 10
10.5650811261
 20
10.0735317329
 30
0.0
 10
10.5985046161
 20
10.0598013189
 30
0.0
 10
10.63100466
 20
10.0437257144
 30
0.0
 10
10.6624081245
 20
10.0253908377
 30
0.0
 10
10.692547681
 20
10.0048945976
 30
0.0
 10
10.721262749
 20
9.9823463637
 30
0.0
 10
10.7484003219
 20
9.9578663919
 30
0.0
 10
10.7738157736
 20
9.931585186
 30
0.0
 10
10.7973736294
 20
9.9036428225
 30
0.0
 10
10.8189483038
 20
9.8741882232
 30
0.0
 10
10.8384247317
 20
9.8433783405
 30
0.0
 10
10.8556989805
 20
9.8113773369
 30
0.0
 10
10.870678799
 20
9.778355722
 30
0.0
 10
10.8832841037
 20
9.7444894564
 30
0.0
 10
10.8934474497
 20
9.7099590412
 30
0.0
 10
10.9011143577
 20
9.6749485502
 30
0.0
 10
10.9062436043
 20
9.6396446638
 30
0.0
 10
10.9088074529
 20
9.6042356894
 30
0.0
 10
10.9087918057
 20
9.5689105716
 30
0.0
 10
10.9061963314
 20
9.5338578962
 30
0.0
 10
10.9010344799
 20
9.4992648838
 30
0.0
 10
10.8933334037
 20
9.4653163983
 30
0.0
 10
10.8831338397
 20
9.4321939556
 30
0.0
 10
10.8704899283
 20
9.4000747667
 30
0.0
 10
10.8554688965
 20
9.3691307148
 30
0.0
 10
10.8381509771
 20
9.3395276206
 30
0.0
 10
10.8186280916
 20
9.3114235239
 30
0.0
 10
10.7970065589
 20
9.2849708782
 30
0.0
 10
10.7812632157
 20
9.268524318
 30
0.0
 10
10.7730886579
 20
9.2606283104
 30
0.0
  0
SPLINE
  5
380
100
AcDbEntity
  8
0
100
AcDbSpline
 62
7
  6
CONTINUOUS
 70
0
 71
3
 72
39
 73
35
 74
0
 42
0.0000001
 43
0.0000001
 44
0.0000000001
 40
0.0
 40
0.0
 40
0.0
 40
0.0
 40
0.0311450469
 40
0.0624431113
 40
0.09388834
 40
0.1254709884
 40
0.1571788814
 40
0.1889972579
 40
0.2209091718
 40
0.2528958393
 40
0.2849370182
 40
0.3170114084
 40
0.349097068
 40
0.3811718384
 40
0.4132137706
 40
0.4452015496
 40
0.4771149115
 40
0.5089350441
 40
0.5406449673
 40
0.5722298867
 40
0.6036775163
 40
0.6349783575
 40
0.6661259304
 40
0.6971169519
 40
0.7279514552
 40
0.7586328387
 40
0.7891678413
 40
0.8195664421
 40
0.8498416837
 40
0.8800094162
 40
0.9100879631
 40
0.9400977203
 40
0.9700606956
 40
1.0
 40
1.0
 40
1.0
 40
1.0
 10
10.4256809867
 20
7.0238831804
 30
0.0
 10
10.4404228733
 20
7.022860827
 30
0.0
 10
10.4699152122
 20
7.0197320541
 30
0.0
 10
10.5137961637
 20
7.0118505595
 30
0.0
 10
10.5572071066
 20
7.0008109983
 30
0.0
 10
10.5999136089
 20
6.9866726864
 30
0.0
 10
10.6416887578
 20
6.9695113843
 30
0.0
 10
10.6823097181
 20
6.9494189068
 30
0.0
 10
10.7215601081
 20
6.9265026489
 30
0.0
 10
10.7592307805
 20
6.9008849661
 30
0.0
 10
10.7951210099
 20
6.8727025279
 30
0.0
 10
10.829039551
 20
6.8421056394
 30
0.0
 10
10.8608056749
 20
6.8092574544
 30
0.0
 10
10.8902500701
 20
6.7743330562
 30
0.0
 10
10.9172157396
 20
6.737518548
 30
0.0
 10
10.9415588342
 20
6.699010082
 30
0.0
 10
10.963149482
 20
6.6590128647
 30
0.0
 10
10.9818723991
 20
6.6177400187
 30
0.0
 10
10.9976275077
 20
6.5754114746
 30
0.0
 10
11.0103304551
 20
6.532252815
 30
0.0
 10
11.0199131597
 20
6.4884941163
 30
0.0
 10
11.0263241149
 20
6.4443687088
 30
0.0
 10
11.0295286573
 20
6.4001119518
 30
0.0
 10
11.0295091546
 20
6.3559600005
 30
0.0
 10
11.0262651934
 20
6.3121485638
 30
0.0
 10
11.0198135944
 20
6.2689116423
 30
0.0
 10
11.0101882905
 20
6.2264802913
 30
0.0
 10
10.9974401765
 20
6.1850813887
 30
0.0
 10
10.9816369172
 20
6.144936431
 30
0.0
 10
10.9628625903
 20
6.1062602275
 30
0.0
 10
10.9412174554
 20
6.0692600373
 30
0.0
 10
10.9168163849
 20
6.0341333989
 30
0.0
 10
10.8897922267
 20
6.0010708945
 30
0.0
 10
10.8701150697
 20
5.9805147283
 30
0.0
 10
10.8598979117
 20
5.9706457033
 30
0.0
  0
SPLINE
  5
381
100
AcDbEntity
  8
0
100
AcDbSpline
 62
7
  6
CONTINUOUS
 70
0
 71
3
 72
42
 73
38
 74
0
 42
0.0000001
 43
0.0000001
 44
0.0000000001
 40
0.0
 40
0.0
 40
0.0
 40
0.0
 40
0.031356248
 40
0.0623165842
 40
0.0928884823
 40
0.1231080223
 40
0.1530376887
 40
0.1827572264
 40
0.2123554001
 40
0.2419219585
 40
0.2715411861
 40
0.3012878956
 40
0.331224534
 40
0.3613996179
 40
0.3918475002
 40
0.4225884288
 40
0.4536292674
 40
0.4849648233
 40
0.5165791415
 40
0.5484472621
 40
0.5805370928
 40
0.6128110538
 40
0.67769195
 40
0.7427910142
 40
0.7753479834
 40
0.8078378857
 40
0.824051753
 40
0.8402366751
 40
0.8563894278
 40
0.8725068941
 40
0.9046151177
 40
0.920614757
 40
0.9365731638
 40
0.9524897397
 40
0.9683653789
 40
0.9842030638
 40
1.0
 40
1.0
 40
1.0
 40
1.0
 10
10.6115129077
 20
9.9180818908
 30
0.0
 10
10.6078710885
 20
9.9183344518
 30
0.0
 10
10.6005978002
 20
9.9184274221
 30
0.0
 10
10.5898176807
 20
9.9173109369
 30
0.0
 10
10.5793699271
 20
9.9149696286
 30
0.0
 10
10.5693828072
 20
9.9114591678
 30
0.0
 10
10.5599619798
 20
9.9068539895
 30
0.0
 10
10.5511923546
 20
9.9012399037
 30
0.0
 10
10.5431390732
 20
9.8947081541
 30
0.0
 10
10.5358508054
 20
9.8873508529
 30
0.0
 10
10.5293632374
 20
9.8792582328
 30
0.0
 10
10.5237023841
 20
9.870517375
 30
0.0
 10
10.5188872728
 20
9.8612120039
 30
0.0
 10
10.5149319361
 20
9.8514229414
 30
0.0
 10
10.5118467421
 20
9.8412288824
 30
0.0
 10
10.5096391934
 20
9.8307072405
 30
0.0
 10
10.5083143716
 20
9.81993493
 30
0.0
 10
10.5078751267
 20
9.8089890627
 30
0.0
 10
10.5083221756
 20
9.7979473915
 30
0.0
 10
10.5096540209
 20
9.7868891216
 30
0.0
 10
10.5118673391
 20
9.7758940464
 30
0.0
 10
10.5159911962
 20
9.7614097594
 30
0.0
 10
10.5233154691
 20
9.7439046465
 30
0.0
 10
10.5334336948
 20
9.7277969113
 30
0.0
 10
10.5431269128
 20
9.7161287524
 30
0.0
 10
10.5498293126
 20
9.7094292103
 30
0.0
 10
10.5555486746
 20
9.7044898519
 30
0.0
 10
10.5600069294
 20
9.7010110338
 30
0.0
 10
10.5646279264
 20
9.6977705866
 30
0.0
 10
10.570983096
 20
9.6937924579
 30
0.0
 10
10.5776350591
 20
9.6903384018
 30
0.0
 10
10.5845232224
 20
9.6874691493
 30
0.0
 10
10.5897856112
 20
9.6856226337
 30
0.0
 10
10.595132537
 20
9.6840895359
 30
0.0
 10
10.6005472476
 20
9.6828783375
 30
0.0
 10
10.6060108578
 20
9.6819958259
 30
0.0
 10
10.6096781989
 20
9.6816289122
 30
0.0
 10
10.6115129077
 20
9.6815016747
 30
0.0
  0
SPLINE
  5
382
100
AcDbEntity
  8
0
100
AcDbSpline
 62
7
  6
CONTINUOUS
 70
0
 71
3
 72
11
 73
7
 74
0
 42
0.0000001
 43
0.0000001
 44
0.0000000001
 40
0.0
 40
0.0
 40
0.0
 40
0.0
 40
0.2490585624
 40
0.4985969709
 40
0.7488422129
 40
1.0
 40
1.0
 40
1.0
 40
1.0
 10
11.0201878427
 20
11.1908938966
 30
0.0
 10
11.0265732433
 20
11.1904510675
 30
0.0
 10
11.0393178833
 20
11.1888452308
 30
0.0
 10
11.0580619526
 20
11.1843172818
 30
0.0
 10
11.0762430847
 20
11.1777335912
 30
0.0
 10
11.0878376599
 20
11.1720443927
 30
0.0
 10
11.0934732856
 20
11.1688975362
 30
0.0
  0
SPLINE
  5
383
100
AcDbEntity
  8
0
100
AcDbSpline
 62
7
  6
CONTINUOUS
 70
0
 71
3
 72
41
 73
37
 74
0
 42
0.0000001
 43
0.0000001
 44
0.0000000001
 40
0.0
 40
0.0
 40
0.0
 40
0.0
 40
0.0310451088
 40
0.061970563
 40
0.0928027177
 40
0.1235660279
 40
0.1542835936
 40
0.1849747016
 40
0.2156550421
 40
0.2463369911
 40
0.2770301843
 40
0.2923880714
 40
0.3077515817
 40
0.3384912104
 40
0.3692652736
 40
0.3846716889
 40
0.4000897673
 40
0.4309582981
 40
0.4618888906
 40
0.49289296
 40
0.5239826295
 40
0.5551702817
 40
0.5864678936
 40
0.6178859079
 40
0.6494322318
 40
0.6811108083
 40
0.7129198239
 40
0.7448501519
 40
0.7768832751
 40
0.8089892437
 40
0.8411256212
 40
0.8732367715
 40
0.9052550193
 40
0.9371050014
 40
0.9687092025
 40
1.0
 40
1.0
 40
1.0
 40
1.0
 10
10.6115129077
 20
9.6815016747
 30
0.0
 10
10.6151687885
 20
9.6812481385
 30
0.0
 10
10.6225052268
 20
9.6811857445
 30
0.0
 10
10.6334148887
 20
9.6824311059
 30
0.0
 10
10.6440632143
 20
9.6849748151
 30
0.0
 10
10.6543119451
 20
9.688749077
 30
0.0
 10
10.6640441049
 20
9.6936654635
 30
0.0
 10
10.6731620162
 20
9.699623574
 30
0.0
 10
10.6815870042
 20
9.7065179654
 30
0.0
 10
10.6892559554
 20
9.7142422968
 30
0.0
 10
10.6949758326
 20
9.7212859011
 30
0.0
 10
10.6991273912
 20
9.7272318908
 30
0.0
 10
10.7029936644
 20
9.7333737932
 30
0.0
 10
10.707280392
 20
9.7413882203
 30
0.0
 10
10.7108128093
 20
9.7497672882
 30
0.0
 10
10.7131773299
 20
9.7566456457
 30
0.0
 10
10.7152337172
 20
9.7636339177
 30
0.0
 10
10.717218769
 20
9.7725434538
 30
0.0
 10
10.718650836
 20
9.7834181051
 30
0.0
 10
10.7191281081
 20
9.7944026412
 30
0.0
 10
10.7186482176
 20
9.8054172086
 30
0.0
 10
10.7172134092
 20
9.816383379
 30
0.0
 10
10.7148302889
 20
9.8272228815
 30
0.0
 10
10.7115099037
 20
9.8378573514
 30
0.0
 10
10.7072678116
 20
9.848207637
 30
0.0
 10
10.7021243755
 20
9.8581930441
 30
0.0
 10
10.6961053501
 20
9.8677304577
 30
0.0
 10
10.6892429323
 20
9.8767334644
 30
0.0
 10
10.6815773711
 20
9.8851116837
 30
0.0
 10
10.673159134
 20
9.892770608
 30
0.0
 10
10.6640515642
 20
9.8996123145
 30
0.0
 10
10.6543335895
 20
9.9055374779
 30
0.0
 10
10.6441022585
 20
9.9104490714
 30
0.0
 10
10.6334729777
 20
9.9142576952
 30
0.0
 10
10.6225812081
 20
9.91688839
 30
0.0
 10
10.6151977208
 20
9.9178263481
 30
0.0
 10
10.6115129077
 20
9.9180818908
 30
0.0
  0
SPLINE
  5
384
100
AcDbEntity
  8
0
100
AcDbSpline
 62
7
  6
CONTINUOUS
 70
0
 71
3
 72
15
 73
11
 74
0
 42
0.0000001
 43
0.0000001
 44
0.0000000001
 40
0.0
 40
0.0
 40
0.0
 40
0.0
 40
0.1273483316
 40
0.2538605887
 40
0.3795878789
 40
0.5046051138
 40
0.6290174418
 40
0.7529533759
 40
0.8765605771
 40
1.0
 40
1.0
 40
1.0
 40
1.0
 10
9.5413783235
 20
10.217482481
 30
0.0
 10
9.5413783235
 20
10.2112612825
 30
0.0
 10
9.5407843234
 20
10.1988511284
 30
0.0
 10
9.53809802
 20
10.1804745853
 30
0.0
 10
9.5336436787
 20
10.1625597772
 30
0.0
 10
9.5274615415
 20
10.145274239
 30
0.0
 10
9.5196083093
 20
10.1287773862
 30
0.0
 10
9.5101555636
 20
10.1132215628
 30
0.0
 10
9.4991922265
 20
10.09875249
 30
0.0
 10
9.4909373652
 20
10.0899139829
 30
0.0
 10
9.4866001041
 20
10.0857244753
 30
0.0
  0
SPLINE
  5
385
100
AcDbEntity
  8
0
100
AcDbSpline
 62
7
  6
CONTINUOUS
 70
0
 71
3
 72
15
 73
11
 74
0
 42
0.0000001
 43
0.0000001
 44
0.0000000001
 40
0.0
 40
0.0
 40
0.0
 40
0.0
 40
0.1273483316
 40
0.2538605887
 40
0.3795878789
 40
0.5046051138
 40
0.6290174418
 40
0.7529533759
 40
0.8765605771
 40
1.0
 40
1.0
 40
1.0
 40
1.0
 10
11.7147115614
 20
10.066761309
 30
0.0
 10
11.7147115614
 20
10.0605401105
 30
0.0
 10
11.7141175613
 20
10.0481299564
 30
0.0
 10
11.7114312579
 20
10.0297534134
 30
0.0
 10
11.7069769166
 20
10.0118386052
 30
0.0
 10
11.7007947794
 20
9.994553067
 30
0.0
 10
11.6929415472
 20
9.9780562142
 30
0.0
 10
11.6834888015
 20
9.9625003908
 30
0.0
 10
11.6725254644
 20
9.948031318
 30
0.0
 10
11.6642706031
 20
9.939192811
 30
0.0
 10
11.659933342
 20
9.9350033033
 30
0.0
  0
SPLINE
  5
386
100
AcDbEntity
  8
0
100
AcDbSpline
 62
7
  6
CONTINUOUS
 70
0
 71
3
 72
15
 73
11
 74
0
 42
0.0000001
 43
0.0000001
 44
0.0000000001
 40
0.0
 40
0.0
 40
0.0
 40
0.0
 40
0.1273483316
 40
0.2538605887
 40
0.3795878789
 40
0.5046051138
 40
0.6290174418
 40
0.7529533759
 40
0.8765605771
 40
1.0
 40
1.0
 40
1.0
 40
1.0
 10
9.5413783235
 20
9.160759697
 30
0.0
 10
9.5413783235
 20
9.1545384986
 30
0.0
 10
9.5407843234
 20
9.1421283445
 30
0.0
 10
9.53809802
 20
9.1237518014
 30
0.0
 10
9.5336436787
 20
9.1058369933
 30
0.0
 10
9.5274615415
 20
9.0885514551
 30
0.0
 10
9.5196083093
 20
9.0720546023
 30
0.0
 10
9.5101555636
 20
9.0564987788
 30
0.0
 10
9.4991922265
 20
9.0420297061
 30
0.0
 10
9.4909373652
 20
9.033191199
 30
0.0
 10
9.4866001041
 20
9.0290016914
 30
0.0
  0
SPLINE
  5
387
100
AcDbEntity
  8
0
100
AcDbSpline
 62
7
  6
CONTINUOUS
 70
0
 71
3
 72
15
 73
11
 74
0
 42
0.0000001
 43
0.0000001
 44
0.0000000001
 40
0.0
 40
0.0
 40
0.0
 40
0.0
 40
0.1273483316
 40
0.2538605887
 40
0.3795878789
 40
0.5046051138
 40
0.6290174418
 40
0.7529533759
 40
0.8765605771
 40
1.0
 40
1.0
 40
1.0
 40
1.0
 10
11.7147115614
 20
9.0100385251
 30
0.0
 10
11.7147115614
 20
9.0038173266
 30
0.0
 10
11.7141175613
 20
8.9914071725
 30
0.0
 10
11.7114312579
 20
8.9730306295
 30
0.0
 10
11.7069769166
 20
8.9551158213
 30
0.0
 10
11.7007947794
 20
8.9378302831
 30
0.0
 10
11.6929415472
 20
8.9213334303
 30
0.0
 10
11.6834888015
 20
8.9057776069
 30
0.0
 10
11.6725254644
 20
8.8913085341
 30
0.0
 10
11.6642706031
 20
8.8824700271
 30
0.0
 10
11.659933342
 20
8.8782805194
 30
0.0
  0
SPLINE
  5
388
100
AcDbEntity
  8
0
100
AcDbSpline
 62
7
  6
CONTINUOUS
 70
0
 71
3
 72
15
 73
11
 74
0
 42
0.0000001
 43
0.0000001
 44
0.0000000001
 40
0.0
 40
0.0
 40
0.0
 40
0.0
 40
0.1273482888
 40
0.2538606703
 40
0.3795878487
 40
0.5046051206
 40
0.6290174369
 40
0.7529533749
 40
0.8765605786
 40
1.0
 40
1.0
 40
1.0
 40
1.0
 10
9.3914010153
 20
7.1038112177
 30
0.0
 10
9.3914010153
 20
7.0966044851
 30
0.0
 10
9.3907129102
 20
7.0822283617
 30
0.0
 10
9.3876010676
 20
7.0609406827
 30
0.0
 10
9.3824410928
 20
7.0401878803
 30
0.0
 10
9.3752795975
 20
7.0201640461
 30
0.0
 10
9.3661822639
 20
7.0010538418
 30
0.0
 10
9.3552320831
 20
6.9830337113
 30
0.0
 10
9.3425319833
 20
6.9662725074
 30
0.0
 10
9.3329694463
 20
6.9560338112
 30
0.0
 10
9.3279450576
 20
6.9511806572
 30
0.0
  0
SPLINE
  5
389
100
AcDbEntity
  8
0
100
AcDbSpline
 62
7
  6
CONTINUOUS
 70
0
 71
3
 72
15
 73
11
 74
0
 42
0.0000001
 43
0.0000001
 44
0.0000000001
 40
0.0
 40
0.0
 40
0.0
 40
0.0
 40
0.1273482888
 40
0.2538606703
 40
0.3795878487
 40
0.5046051206
 40
0.6290174369
 40
0.7529533749
 40
0.8765605786
 40
1.0
 40
1.0
 40
1.0
 40
1.0
 10
11.9259905461
 20
6.9280368367
 30
0.0
 10
11.9259905461
 20
6.9208301041
 30
0.0
 10
11.925302441
 20
6.9064539807
 30
0.0
 10
11.9221905984
 20
6.8851663017
 30
0.0
 10
11.9170306236
 20
6.8644134994
 30
0.0
 10
11.9098691283
 20
6.8443896651
 30
0.0
 10
11.9007717947
 20
6.8252794608
 30
0.0
 10
11.8898216139
 20
6.8072593303
 30
0.0
 10
11.8771215141
 20
6.7904981265
 30
0.0
 10
11.8675589771
 20
6.7802594303
 30
0.0
 10
11.8625345884
 20
6.7754062762
 30
0.0
  0
SPLINE
  5
38A
100
AcDbEntity
  8
0
100
AcDbSpline
 62
7
  6
CONTINUOUS
 70
0
 71
3
 72
15
 73
11
 74
0
 42
0.0000001
 43
0.0000001
 44
0.0000000001
 40
0.0
 40
0.0
 40
0.0
 40
0.0
 40
0.1273482888
 40
0.2538606703
 40
0.3795878487
 40
0.5046051206
 40
0.6290174369
 40
0.7529533749
 40
0.8765605786
 40
1.0
 40
1.0
 40
1.0
 40
1.0
 10
9.3914010153
 20
5.8964039208
 30
0.0
 10
9.3914010153
 20
5.8891971883
 30
0.0
 10
9.3907129102
 20
5.8748210648
 30
0.0
 10
9.3876010676
 20
5.8535333859
 30
0.0
 10
9.3824410928
 20
5.8327805835
 30
0.0
 10
9.3752795975
 20
5.8127567493
 30
0.0
 10
9.3661822639
 20
5.793646545
 30
0.0
 10
9.3552320831
 20
5.7756264145
 30
0.0
 10
9.3425319833
 20
5.7588652106
 30
0.0
 10
9.3329694463
 20
5.7486265144
 30
0.0
 10
9.3279450576
 20
5.7437733604
 30
0.0
  0
SPLINE
  5
38B
100
AcDbEntity
  8
0
100
AcDbSpline
 62
7
  6
CONTINUOUS
 70
0
 71
3
 72
15
 73
11
 74
0
 42
0.0000001
 43
0.0000001
 44
0.0000000001
 40
0.0
 40
0.0
 40
0.0
 40
0.0
 40
0.1273482888
 40
0.2538606703
 40
0.3795878487
 40
0.5046051206
 40
0.6290174369
 40
0.7529533749
 40
0.8765605786
 40
1.0
 40
1.0
 40
1.0
 40
1.0
 10
11.9259905461
 20
5.7206295399
 30
0.0
 10
11.9259905461
 20
5.7134228073
 30
0.0
 10
11.925302441
 20
5.6990466839
 30
0.0
 10
11.9221905984
 20
5.6777590049
 30
0.0
 10
11.9170306236
 20
5.6570062025
 30
0.0
 10
11.9098691283
 20
5.6369823683
 30
0.0
 10
11.9007717947
 20
5.617872164
 30
0.0
 10
11.8898216139
 20
5.5998520335
 30
0.0
 10
11.8771215141
 20
5.5830908296
 30
0.0
 10
11.8675589771
 20
5.5728521334
 30
0.0
 10
11.8625345884
 20
5.5679989794
 30
0.0
  0
SPLINE
  5
38C
100
AcDbEntity
  8
0
100
AcDbSpline
 62
7
  6
CONTINUOUS
 70
0
 71
3
 72
34
 73
30
 74
0
 42
0.0000001
 43
0.0000001
 44
0.0000000001
 40
0.0
 40
0.0
 40
0.0
 40
0.0
 40
0.0328901676
 40
0.0655381287
 40
0.0979457542
 40
0.1301182102
 40
0.1620639751
 40
0.1937942729
 40
0.2253225202
 40
0.2566639159
 40
0.2878352684
 40
0.3188543118
 40
0.3497392062
 40
0.3805087107
 40
0.4111816844
 40
0.4417766233
 40
0.4723122705
 40
0.5028068404
 40
0.5332782659
 40
0.563744537
 40
0.594222921
 40
0.6247312253
 40
0.6858990183
 40
0.7473989628
 40
0.7783230515
 40
0.8093874742
 40
0.8720175618
 40
0.9354833143
 40
1.0
 40
1.0
 40
1.0
 40
1.0
 10
11.022139914
 20
6.4708154056
 30
0.0
 10
11.0147160627
 20
6.4724764636
 30
0.0
 10
11.0000020846
 20
6.4761521777
 30
0.0
 10
10.9783137105
 20
6.4827282837
 30
0.0
 10
10.9571330145
 20
6.4903132261
 30
0.0
 10
10.9365014491
 20
6.4988686179
 30
0.0
 10
10.9164534915
 20
6.5083529739
 30
0.0
 10
10.8970178459
 20
6.5187226161
 30
0.0
 10
10.8782174187
 20
6.5299326593
 30
0.0
 10
10.8600696886
 20
6.5419378046
 30
0.0
 10
10.8425870635
 20
6.5546929897
 30
0.0
 10
10.8257775613
 20
6.5681541704
 30
0.0
 10
10.8096453056
 20
6.582278728
 30
0.0
 10
10.7941909457
 20
6.5970257342
 30
0.0
 10
10.7794123637
 20
6.6123564039
 30
0.0
 10
10.7653049776
 20
6.6282341414
 30
0.0
 10
10.7518622835
 20
6.6446246888
 30
0.0
 10
10.7390762413
 20
6.6614962489
 30
0.0
 10
10.7269374207
 20
6.6788193691
 30
0.0
 10
10.7154357411
 20
6.6965670607
 30
0.0
 10
10.7045598917
 20
6.7147148651
 30
0.0
 10
10.6908676142
 20
6.7394346598
 30
0.0
 10
10.6752466938
 20
6.7712635756
 30
0.0
 10
10.6615963063
 20
6.8040859196
 30
0.0
 10
10.651787946
 20
6.8309150752
 30
0.0
 10
10.6426578345
 20
6.8582583324
 30
0.0
 10
10.6325657612
 20
6.8931996023
 30
0.0
 10
10.6225057945
 20
6.9361417082
 30
0.0
 10
10.6171250826
 20
6.965262833
 30
0.0
 10
10.6147306799
 20
6.9799920235
 30
0.0
  0
SPLINE
  5
38D
100
AcDbEntity
  8
0
100
AcDbSpline
 62
7
  6
CONTINUOUS
 70
0
 71
3
 72
53
 73
49
 74
0
 42
0.0000001
 43
0.0000001
 44
0.0000000001
 40
0.0
 40
0.0
 40
0.0
 40
0.0
 40
0.0055575376
 40
0.0111779567
 40
0.0169218821
 40
0.0228457564
 40
0.0290005139
 40
0.0354309032
 40
0.0421753268
 40
0.0492661629
 40
0.0567301863
 40
0.0645892833
 40
0.0728609369
 40
0.0815589669
 40
0.0906938756
 40
0.1002734826
 40
0.1103031213
 40
0.1207861401
 40
0.1317240026
 40
0.14311666
 40
0.1549626112
 40
0.1672591551
 40
0.1800024545
 40
0.1931876791
 40
0.2068090973
 40
0.2208601246
 40
0.2353334527
 40
0.2502210197
 40
0.2655141749
 40
0.2812035909
 40
0.3137306612
 40
0.3477179984
 40
0.3830731233
 40
0.4196969504
 40
0.4574845402
 40
0.4963257781
 40
0.5361060008
 40
0.5767065869
 40
0.618005522
 40
0.6598779471
 40
0.7021966942
 40
0.7448328149
 40
0.7876560998
 40
0.8305356101
 40
0.8733401519
 40
0.9159389309
 40
0.9582016869
 40
1.0
 40
1.0
 40
1.0
 40
1.0
 10
11.6889092279
 20
11.3833274878
 30
0.0
 10
11.6889092382
 20
11.3811629064
 30
0.0
 10
11.6886669217
 20
11.3768054832
 30
0.0
 10
11.6875792964
 20
11.3702925963
 30
0.0
 10
11.6857692694
 20
11.3637942408
 30
0.0
 10
11.6832403929
 20
11.357317948
 30
0.0
 10
11.6799968258
 20
11.3508689638
 30
0.0
 10
11.6760429087
 20
11.3444522497
 30
0.0
 10
11.6713831876
 20
11.3380721728
 30
0.0
 10
11.6660221686
 20
11.3317330895
 30
0.0
 10
11.6599647225
 20
11.3254391898
 30
0.0
 10
11.6532158429
 20
11.3191949439
 30
0.0
 10
11.6457811028
 20
11.3130047041
 30
0.0
 10
11.6376663684
 20
11.3068731639
 30
0.0
 10
11.6288781788
 20
11.3008048407
 30
0.0
 10
11.6194234702
 20
11.2948045499
 30
0.0
 10
11.6093098502
 20
11.288876891
 30
0.0
 10
11.5985453826
 20
11.2830266819
 30
0.0
 10
11.5871387605
 20
11.2772585292
 30
0.0
 10
11.5750991647
 20
11.2715771653
 30
0.0
 10
11.5624363545
 20
11.2659871492
 30
0.0
 10
11.5491605912
 20
11.2604930717
 30
0.0
 10
11.535282668
 20
11.2550994042
 30
0.0
 10
11.5208138803
 20
11.2498105613
 30
0.0
 10
11.505766017
 20
11.244630895
 30
0.0
 10
11.4901513596
 20
11.2395646232
 30
0.0
 10
11.4739826503
 20
11.2346159488
 30
0.0
 10
11.4572731113
 20
11.2297888895
 30
0.0
 10
11.4400363775
 20
11.2250874363
 30
0.0
 10
11.4160814731
 20
11.2189172502
 30
0.0
 10
11.3849156423
 20
11.2115657385
 30
0.0
 10
11.3460834802
 20
11.2034058447
 30
0.0
 10
11.3055085999
 20
11.1958323574
 30
0.0
 10
11.2633238298
 20
11.1888703049
 30
0.0
 10
11.2196670459
 20
11.1825427407
 30
0.0
 10
11.1746811155
 20
11.1768705919
 30
0.0
 10
11.1285132926
 20
11.1718726138
 30
0.0
 10
11.0813147543
 20
11.1675653249
 30
0.0
 10
11.0332400867
 20
11.1639629559
 30
0.0
 10
10.9844467721
 20
11.1610774052
 30
0.0
 10
10.9350946662
 20
11.158918201
 30
0.0
 10
10.8853454701
 20
11.1574924726
 30
0.0
 10
10.8353621927
 20
11.1568049252
 30
0.0
 10
10.7853086218
 20
11.1568578315
 30
0.0
 10
10.7353487606
 20
11.15765101
 30
0.0
 10
10.6856463283
 20
11.1591818562
 30
0.0
 10
10.6363642734
 20
11.1614452906
 30
0.0
 10
10.6036835931
 20
11.163450794
 30
0.0
 10
10.5874427564
 20
11.1645770999
 30
0.0
  0
SPLINE
  5
38E
100
AcDbEntity
  8
0
100
AcDbSpline
 62
7
  6
CONTINUOUS
 70
0
 71
3
 72
54
 73
50
 74
0
 42
0.0000001
 43
0.0000001
 44
0.0000000001
 40
0.0
 40
0.0
 40
0.0
 40
0.0
 40
0.0075207735
 40
0.015624124
 40
0.0243310058
 40
0.0336548231
 40
0.0436026859
 40
0.0541766859
 40
0.0653748025
 40
0.0771913993
 40
0.0896180294
 40
0.1026434935
 40
0.1162544893
 40
0.1304356164
 40
0.1451697137
 40
0.1604380442
 40
0.1924938682
 40
0.2264269899
 40
0.2620418548
 40
0.2991276536
 40
0.3374608139
 40
0.3768072844
 40
0.4169247082
 40
0.4575645149
 40
0.4984739701
 40
0.5393982025
 40
0.5800822216
 40
0.6202729369
 40
0.6597211911
 40
0.6981838069
 40
0.7354256708
 40
0.771221884
 40
0.8053600308
 40
0.8217454634
 40
0.8376437291
 40
0.8530328742
 40
0.8678924084
 40
0.8822031469
 40
0.8959475725
 40
0.9091098935
 40
0.9216762175
 40
0.9336349509
 40
0.9449768343
 40
0.9556956978
 40
0.9657885223
 40
0.9752562816
 40
0.984105078
 40
0.9923470385
 40
1.0
 40
1.0
 40
1.0
 40
1.0
 10
12.7090158294
 20
6.3925976036
 30
0.0
 10
12.7081339567
 20
6.3936819088
 30
0.0
 10
12.7063963447
 20
6.3960122891
 30
0.0
 10
12.7039511512
 20
6.3998191576
 30
0.0
 10
12.7015757149
 20
6.4040582902
 30
0.0
 10
12.6992738916
 20
6.4087227853
 30
0.0
 10
12.6970491218
 20
6.413805369
 30
0.0
 10
12.6949049789
 20
6.4192978951
 30
0.0
 10
12.69284499
 20
6.4251915167
 30
0.0
 10
12.6908724833
 20
6.4314766357
 30
0.0
 10
12.6889908164
 20
6.4381429855
 30
0.0
 10
12.6872030531
 20
6.4451796085
 30
0.0
 10
12.6855122392
 20
6.4525749192
 30
0.0
 10
12.68392119
 20
6.4603167025
 30
0.0
 10
12.6824325329
 20
6.4683921707
 30
0.0
 10
12.6805571724
 20
6.4797720489
 30
0.0
 10
12.6785028125
 20
6.4947354983
 30
0.0
 10
12.6765180543
 20
6.5135153862
 30
0.0
 10
12.6749893909
 20
6.5332753867
 30
0.0
 10
12.6739273048
 20
6.5538844591
 30
0.0
 10
12.673339207
 20
6.5752060647
 30
0.0
 10
12.6732292449
 20
6.5970987491
 30
0.0
 10
12.6735983351
 20
6.6194172236
 30
0.0
 10
12.6744441523
 20
6.6420133243
 30
0.0
 10
12.6757611553
 20
6.6647370216
 30
0.0
 10
12.6775406257
 20
6.6874374275
 30
0.0
 10
12.6797707285
 20
6.7099638104
 30
0.0
 10
12.682436591
 20
6.7321666081
 30
0.0
 10
12.6855203928
 20
6.7538984427
 30
0.0
 10
12.689001493
 20
6.7750150949
 30
0.0
 10
12.6928565385
 20
6.7953765668
 30
0.0
 10
12.6970596962
 20
6.8148477483
 30
0.0
 10
12.700879117
 20
6.8304305703
 30
0.0
 10
12.7040979105
 20
6.8423477022
 30
0.0
 10
12.706547958
 20
6.8508620743
 30
0.0
 10
12.7090629082
 20
6.8590613665
 30
0.0
 10
12.7116385349
 20
6.8669320101
 30
0.0
 10
12.7142705806
 20
6.8744609663
 30
0.0
 10
12.7169546315
 20
6.8816357904
 30
0.0
 10
12.7196862084
 20
6.8884446396
 30
0.0
 10
12.7224608012
 20
6.8948762877
 30
0.0
 10
12.7252737353
 20
6.900920186
 30
0.0
 10
12.7281204351
 20
6.9065664289
 30
0.0
 10
12.7309961443
 20
6.911805848
 30
0.0
 10
12.7338962369
 20
6.9166299433
 30
0.0
 10
12.7368159782
 20
6.9210310044
 30
0.0
 10
12.7397509623
 20
6.925002209
 30
0.0
 10
12.7426964719
 20
6.9285368652
 30
0.0
 10
12.7447380681
 20
6.9306760108
 30
0.0
 10
12.745761001
 20
6.9316640882
 30
0.0
  0
SPLINE
  5
38F
100
AcDbEntity
  8
0
100
AcDbSpline
 62
7
  6
CONTINUOUS
 70
0
 71
3
 72
15
 73
11
 74
0
 42
0.0000001
 43
0.0000001
 44
0.0000000001
 40
0.0
 40
0.0
 40
0.0
 40
0.0
 40
0.1251179155
 40
0.2501975556
 40
0.375229528
 40
0.5002125195
 40
0.6251550885
 40
0.7500775961
 40
0.8750106089
 40
1.0
 40
1.0
 40
1.0
 40
1.0
 10
10.9067616274
 20
11.1583135408
 30
0.0
 10
10.9108378492
 20
11.1612438315
 30
0.0
 10
10.9192413617
 20
11.166761494
 30
0.0
 10
10.932497904
 20
11.1739348317
 30
0.0
 10
10.9463147991
 20
11.1799484215
 30
0.0
 10
10.9605924562
 20
11.1847497083
 30
0.0
 10
10.9752282668
 20
11.1882954364
 30
0.0
 10
10.9901159949
 20
11.1905514841
 30
0.0
 10
11.0051449641
 20
11.191494863
 30
0.0
 10
11.0151848379
 20
11.1912408561
 30
0.0
 10
11.0201878427
 20
11.1908938966
 30
0.0
  0
SPLINE
  5
390
100
AcDbEntity
  8
0
100
AcDbSpline
 62
7
  6
CONTINUOUS
 70
0
 71
3
 72
41
 73
37
 74
0
 42
0.0000001
 43
0.0000001
 44
0.0000000001
 40
0.0
 40
0.0
 40
0.0
 40
0.0
 40
0.0299421216
 40
0.0449237656
 40
0.0599145167
 40
0.0899291718
 40
0.1200145985
 40
0.1350933583
 40
0.15019748
 40
0.1804849767
 40
0.2108989647
 40
0.2414525835
 40
0.2721557485
 40
0.3030149705
 40
0.3340332607
 40
0.3652101168
 40
0.3965415874
 40
0.4280204071
 40
0.4596361972
 40
0.491375723
 40
0.5232232003
 40
0.5551606452
 40
0.5871682559
 40
0.6192248239
 40
0.651308164
 40
0.683395559
 40
0.7154642111
 40
0.7474916947
 40
0.7794564051
 40
0.8113379906
 40
0.8431177849
 40
0.8747791545
 40
0.9063080011
 40
0.9376926887
 40
0.9689252949
 40
1.0
 40
1.0
 40
1.0
 40
1.0
 10
9.205922486
 20
10.3763033104
 30
0.0
 10
9.2092735852
 20
10.3795402508
 30
0.0
 10
9.2144977903
 20
10.3841994967
 30
0.0
 10
9.2218141384
 20
10.389980655
 30
0.0
 10
9.2293635181
 20
10.3954740854
 30
0.0
 10
9.2392141833
 20
10.4017823814
 30
0.0
 10
9.2495438338
 20
10.4073002613
 30
0.0
 10
9.258063072
 20
10.4112257965
 30
0.0
 10
9.2667583619
 20
10.414827131
 30
0.0
 10
9.2779139712
 20
10.4186997108
 30
0.0
 10
9.2916615988
 20
10.4223088259
 30
0.0
 10
9.3057092009
 20
10.4248656371
 30
0.0
 10
9.3199789361
 20
10.4263560188
 30
0.0
 10
9.3343924152
 20
10.4267720222
 30
0.0
 10
9.3488703315
 20
10.4261115281
 30
0.0
 10
9.3633331106
 20
10.4243783519
 30
0.0
 10
9.3777012855
 20
10.4215821863
 30
0.0
 10
9.3918959435
 20
10.4177385491
 30
0.0
 10
9.4058391502
 20
10.4128686912
 30
0.0
 10
9.4194543723
 20
10.4069994776
 30
0.0
 10
9.4326668917
 20
10.4001632372
 30
0.0
 10
9.4454042096
 20
10.3923975837
 30
0.0
 10
9.4575964391
 20
10.38374521
 30
0.0
 10
9.469176684
 20
10.3742536546
 30
0.0
 10
9.480081401
 20
10.3639750423
 30
0.0
 10
9.4902507447
 20
10.3529658011
 30
0.0
 10
9.4996288926
 20
10.3412863547
 30
0.0
 10
9.5081643486
 20
10.3290007949
 30
0.0
 10
9.5158102216
 20
10.3161765334
 30
0.0
 10
9.522524487
 20
10.3028839353
 30
0.0
 10
9.5282701991
 20
10.2891959454
 30
0.0
 10
9.5330157354
 20
10.2751876568
 30
0.0
 10
9.5367348788
 20
10.2609360491
 30
0.0
 10
9.5394071417
 20
10.2465190425
 30
0.0
 10
9.5410175937
 20
10.2320169181
 30
0.0
 10
9.5413783235
 20
10.2223178635
 30
0.0
 10
9.5413783235
 20
10.217482481
 30
0.0
  0
SPLINE
  5
391
100
AcDbEntity
  8
0
100
AcDbSpline
 62
7
  6
CONTINUOUS
 70
0
 71
3
 72
41
 73
37
 74
0
 42
0.0000001
 43
0.0000001
 44
0.0000000001
 40
0.0
 40
0.0
 40
0.0
 40
0.0
 40
0.0299421216
 40
0.0449237656
 40
0.0599145167
 40
0.0899291718
 40
0.1200145985
 40
0.1350933583
 40
0.15019748
 40
0.1804849767
 40
0.2108989647
 40
0.2414525835
 40
0.2721557485
 40
0.3030149705
 40
0.3340332607
 40
0.3652101168
 40
0.3965415874
 40
0.4280204071
 40
0.4596361972
 40
0.491375723
 40
0.5232232003
 40
0.5551606452
 40
0.5871682559
 40
0.6192248239
 40
0.651308164
 40
0.683395559
 40
0.7154642111
 40
0.7474916947
 40
0.7794564051
 40
0.8113379906
 40
0.8431177849
 40
0.8747791545
 40
0.9063080011
 40
0.9376926887
 40
0.9689252949
 40
1.0
 40
1.0
 40
1.0
 40
1.0
 10
11.379255724
 20
10.2255821384
 30
0.0
 10
11.3826068231
 20
10.2288190788
 30
0.0
 10
11.3878310282
 20
10.2334783248
 30
0.0
 10
11.3951473763
 20
10.2392594831
 30
0.0
 10
11.402696756
 20
10.2447529134
 30
0.0
 10
11.4125474212
 20
10.2510612094
 30
0.0
 10
11.4228770717
 20
10.2565790894
 30
0.0
 10
11.4313963099
 20
10.2605046246
 30
0.0
 10
11.4400915998
 20
10.264105959
 30
0.0
 10
11.4512472091
 20
10.2679785389
 30
0.0
 10
11.4649948367
 20
10.271587654
 30
0.0
 10
11.4790424389
 20
10.2741444651
 30
0.0
 10
11.493312174
 20
10.2756348468
 30
0.0
 10
11.5077256531
 20
10.2760508502
 30
0.0
 10
11.5222035694
 20
10.2753903562
 30
0.0
 10
11.5366663485
 20
10.2736571799
 30
0.0
 10
11.5510345234
 20
10.2708610143
 30
0.0
 10
11.5652291815
 20
10.2670173771
 30
0.0
 10
11.5791723882
 20
10.2621475192
 30
0.0
 10
11.5927876103
 20
10.2562783057
 30
0.0
 10
11.6060001296
 20
10.2494420652
 30
0.0
 10
11.6187374475
 20
10.2416764118
 30
0.0
 10
11.630929677
 20
10.2330240381
 30
0.0
 10
11.6425099219
 20
10.2235324826
 30
0.0
 10
11.6534146389
 20
10.2132538703
 30
0.0
 10
11.6635839826
 20
10.2022446291
 30
0.0
 10
11.6729621305
 20
10.1905651827
 30
0.0
 10
11.6814975866
 20
10.1782796229
 30
0.0
 10
11.6891434596
 20
10.1654553615
 30
0.0
 10
11.6958577249
 20
10.1521627634
 30
0.0
 10
11.701603437
 20
10.1384747734
 30
0.0
 10
11.7063489733
 20
10.1244664848
 30
0.0
 10
11.7100681167
 20
10.1102148771
 30
0.0
 10
11.7127403796
 20
10.0957978705
 30
0.0
 10
11.7143508316
 20
10.0812957461
 30
0.0
 10
11.7147115614
 20
10.0715966915
 30
0.0
 10
11.7147115614
 20
10.066761309
 30
0.0
  0
SPLINE
  5
392
100
AcDbEntity
  8
0
100
AcDbSpline
 62
7
  6
CONTINUOUS
 70
0
 71
3
 72
41
 73
37
 74
0
 42
0.0000001
 43
0.0000001
 44
0.0000000001
 40
0.0
 40
0.0
 40
0.0
 40
0.0
 40
0.0299421216
 40
0.0449237656
 40
0.0599145167
 40
0.0899291718
 40
0.1200145985
 40
0.1350933583
 40
0.15019748
 40
0.1804849767
 40
0.2108989647
 40
0.2414525835
 40
0.2721557485
 40
0.3030149705
 40
0.3340332607
 40
0.3652101168
 40
0.3965415874
 40
0.4280204071
 40
0.4596361972
 40
0.491375723
 40
0.5232232003
 40
0.5551606452
 40
0.5871682559
 40
0.6192248239
 40
0.651308164
 40
0.683395559
 40
0.7154642111
 40
0.7474916947
 40
0.7794564051
 40
0.8113379906
 40
0.8431177849
 40
0.8747791545
 40
0.9063080011
 40
0.9376926887
 40
0.9689252949
 40
1.0
 40
1.0
 40
1.0
 40
1.0
 10
9.205922486
 20
9.3195805265
 30
0.0
 10
9.2092735852
 20
9.3228174669
 30
0.0
 10
9.2144977903
 20
9.3274767128
 30
0.0
 10
9.2218141384
 20
9.3332578711
 30
0.0
 10
9.2293635181
 20
9.3387513015
 30
0.0
 10
9.2392141833
 20
9.3450595974
 30
0.0
 10
9.2495438338
 20
9.3505774774
 30
0.0
 10
9.258063072
 20
9.3545030126
 30
0.0
 10
9.2667583619
 20
9.358104347
 30
0.0
 10
9.2779139712
 20
9.3619769269
 30
0.0
 10
9.2916615988
 20
9.365586042
 30
0.0
 10
9.3057092009
 20
9.3681428532
 30
0.0
 10
9.3199789361
 20
9.3696332349
 30
0.0
 10
9.3343924152
 20
9.3700492383
 30
0.0
 10
9.3488703315
 20
9.3693887442
 30
0.0
 10
9.3633331106
 20
9.367655568
 30
0.0
 10
9.3777012855
 20
9.3648594024
 30
0.0
 10
9.3918959435
 20
9.3610157652
 30
0.0
 10
9.4058391502
 20
9.3561459072
 30
0.0
 10
9.4194543723
 20
9.3502766937
 30
0.0
 10
9.4326668917
 20
9.3434404533
 30
0.0
 10
9.4454042096
 20
9.3356747998
 30
0.0
 10
9.4575964391
 20
9.3270224261
 30
0.0
 10
9.469176684
 20
9.3175308706
 30
0.0
 10
9.480081401
 20
9.3072522584
 30
0.0
 10
9.4902507447
 20
9.2962430172
 30
0.0
 10
9.4996288926
 20
9.2845635708
 30
0.0
 10
9.5081643486
 20
9.272278011
 30
0.0
 10
9.5158102216
 20
9.2594537495
 30
0.0
 10
9.522524487
 20
9.2461611514
 30
0.0
 10
9.5282701991
 20
9.2324731615
 30
0.0
 10
9.5330157354
 20
9.2184648728
 30
0.0
 10
9.5367348788
 20
9.2042132652
 30
0.0
 10
9.5394071417
 20
9.1897962586
 30
0.0
 10
9.5410175937
 20
9.1752941341
 30
0.0
 10
9.5413783235
 20
9.1655950796
 30
0.0
 10
9.5413783235
 20
9.160759697
 30
0.0
  0
SPLINE
  5
393
100
AcDbEntity
  8
0
100
AcDbSpline
 62
7
  6
CONTINUOUS
 70
0
 71
3
 72
41
 73
37
 74
0
 42
0.0000001
 43
0.0000001
 44
0.0000000001
 40
0.0
 40
0.0
 40
0.0
 40
0.0
 40
0.0299421216
 40
0.0449237656
 40
0.0599145167
 40
0.0899291718
 40
0.1200145985
 40
0.1350933583
 40
0.15019748
 40
0.1804849767
 40
0.2108989647
 40
0.2414525835
 40
0.2721557485
 40
0.3030149705
 40
0.3340332607
 40
0.3652101168
 40
0.3965415874
 40
0.4280204071
 40
0.4596361972
 40
0.491375723
 40
0.5232232003
 40
0.5551606452
 40
0.5871682559
 40
0.6192248239
 40
0.651308164
 40
0.683395559
 40
0.7154642111
 40
0.7474916947
 40
0.7794564051
 40
0.8113379906
 40
0.8431177849
 40
0.8747791545
 40
0.9063080011
 40
0.9376926887
 40
0.9689252949
 40
1.0
 40
1.0
 40
1.0
 40
1.0
 10
11.379255724
 20
9.1688593545
 30
0.0
 10
11.3826068231
 20
9.1720962949
 30
0.0
 10
11.3878310282
 20
9.1767555408
 30
0.0
 10
11.3951473763
 20
9.1825366992
 30
0.0
 10
11.402696756
 20
9.1880301295
 30
0.0
 10
11.4125474212
 20
9.1943384255
 30
0.0
 10
11.4228770717
 20
9.1998563054
 30
0.0
 10
11.4313963099
 20
9.2037818407
 30
0.0
 10
11.4400915998
 20
9.2073831751
 30
0.0
 10
11.4512472091
 20
9.2112557549
 30
0.0
 10
11.4649948367
 20
9.21486487
 30
0.0
 10
11.4790424389
 20
9.2174216812
 30
0.0
 10
11.493312174
 20
9.2189120629
 30
0.0
 10
11.5077256531
 20
9.2193280663
 30
0.0
 10
11.5222035694
 20
9.2186675722
 30
0.0
 10
11.5366663485
 20
9.216934396
 30
0.0
 10
11.5510345234
 20
9.2141382304
 30
0.0
 10
11.5652291815
 20
9.2102945932
 30
0.0
 10
11.5791723882
 20
9.2054247353
 30
0.0
 10
11.5927876103
 20
9.1995555217
 30
0.0
 10
11.6060001296
 20
9.1927192813
 30
0.0
 10
11.6187374475
 20
9.1849536278
 30
0.0
 10
11.630929677
 20
9.1763012541
 30
0.0
 10
11.6425099219
 20
9.1668096987
 30
0.0
 10
11.6534146389
 20
9.1565310864
 30
0.0
 10
11.6635839826
 20
9.1455218452
 30
0.0
 10
11.6729621305
 20
9.1338423988
 30
0.0
 10
11.6814975866
 20
9.121556839
 30
0.0
 10
11.6891434596
 20
9.1087325776
 30
0.0
 10
11.6958577249
 20
9.0954399794
 30
0.0
 10
11.701603437
 20
9.0817519895
 30
0.0
 10
11.7063489733
 20
9.0677437009
 30
0.0
 10
11.7100681167
 20
9.0534920932
 30
0.0
 10
11.7127403796
 20
9.0390750866
 30
0.0
 10
11.7143508316
 20
9.0245729622
 30
0.0
 10
11.7147115614
 20
9.0148739076
 30
0.0
 10
11.7147115614
 20
9.0100385251
 30
0.0
  0
SPLINE
  5
394
100
AcDbEntity
  8
0
100
AcDbSpline
 62
7
  6
CONTINUOUS
 70
0
 71
3
 72
41
 73
37
 74
0
 42
0.0000001
 43
0.0000001
 44
0.0000000001
 40
0.0
 40
0.0
 40
0.0
 40
0.0
 40
0.0299421207
 40
0.0449237678
 40
0.059914515
 40
0.0899291702
 40
0.1200145975
 40
0.1350933607
 40
0.1501974781
 40
0.1804849759
 40
0.210898965
 40
0.2414525847
 40
0.2721557502
 40
0.3030149724
 40
0.3340332622
 40
0.3652101173
 40
0.3965415863
 40
0.428020404
 40
0.4596361919
 40
0.4913757156
 40
0.5232231916
 40
0.5551606357
 40
0.5871682465
 40
0.6192248153
 40
0.651308157
 40
0.6833955539
 40
0.7154642081
 40
0.747491694
 40
0.779456406
 40
0.8113379944
 40
0.8431177853
 40
0.8747791687
 40
0.9063079764
 40
0.9376927595
 40
0.9689251765
 40
1.0
 40
1.0
 40
1.0
 40
1.0
 10
9.0028036596
 20
7.2877917819
 30
0.0
 10
9.0066856543
 20
7.2915414755
 30
0.0
 10
9.0127374151
 20
7.2969388647
 30
0.0
 10
9.021212806
 20
7.3036358296
 30
0.0
 10
9.0299581128
 20
7.3099995258
 30
0.0
 10
9.0413692879
 20
7.3173071415
 30
0.0
 10
9.0533353041
 20
7.3236991746
 30
0.0
 10
9.0632041513
 20
7.3282465185
 30
0.0
 10
9.0732768877
 20
7.3324184215
 30
0.0
 10
9.0861997349
 20
7.33690445
 30
0.0
 10
9.1021252018
 20
7.3410853147
 30
0.0
 10
9.1183981692
 20
7.3440471608
 30
0.0
 10
9.1349284573
 20
7.3457736404
 30
0.0
 10
9.1516252606
 20
7.3462555418
 30
0.0
 10
9.1683967084
 20
7.3454904116
 30
0.0
 10
9.1851506205
 20
7.3434826697
 30
0.0
 10
9.2017949411
 20
7.3402435451
 30
0.0
 10
9.2182382572
 20
7.3357910143
 30
0.0
 10
9.2343902887
 20
7.3301496954
 30
0.0
 10
9.2501623784
 20
7.3233507083
 30
0.0
 10
9.2654679717
 20
7.3154315026
 30
0.0
 10
9.2802230849
 20
7.3064356501
 30
0.0
 10
9.2943467596
 20
7.2964126063
 30
0.0
 10
9.3077615018
 20
7.2854174402
 30
0.0
 10
9.3203937016
 20
7.2735105341
 30
0.0
 10
9.332174033
 20
7.2607572547
 30
0.0
 10
9.3430378299
 20
7.2472275982
 30
0.0
 10
9.3529254379
 20
7.2329958094
 30
0.0
 10
9.3617825387
 20
7.2181399799
 30
0.0
 10
9.3695604468
 20
7.2027416212
 30
0.0
 10
9.3762163728
 20
7.1868852342
 30
0.0
 10
9.3817136641
 20
7.1706578115
 30
0.0
 10
9.3860219941
 20
7.1541485133
 30
0.0
 10
9.3891175542
 20
7.1374476425
 30
0.0
 10
9.3909831518
 20
7.12064815
 30
0.0
 10
9.3914010153
 20
7.1094126229
 30
0.0
 10
9.3914010153
 20
7.1038112177
 30
0.0
  0
SPLINE
  5
395
100
AcDbEntity
  8
0
100
AcDbSpline
 62
7
  6
CONTINUOUS
 70
0
 71
3
 72
41
 73
37
 74
0
 42
0.0000001
 43
0.0000001
 44
0.0000000001
 40
0.0
 40
0.0
 40
0.0
 40
0.0
 40
0.0299421207
 40
0.0449237678
 40
0.059914515
 40
0.0899291702
 40
0.1200145975
 40
0.1350933607
 40
0.1501974781
 40
0.1804849759
 40
0.210898965
 40
0.2414525847
 40
0.2721557502
 40
0.3030149724
 40
0.3340332622
 40
0.3652101173
 40
0.3965415863
 40
0.428020404
 40
0.4596361919
 40
0.4913757156
 40
0.5232231916
 40
0.5551606357
 40
0.5871682465
 40
0.6192248153
 40
0.651308157
 40
0.6833955539
 40
0.7154642081
 40
0.747491694
 40
0.779456406
 40
0.8113379944
 40
0.8431177853
 40
0.8747791687
 40
0.9063079764
 40
0.9376927595
 40
0.9689251765
 40
1.0
 40
1.0
 40
1.0
 40
1.0
 10
11.5373931904
 20
7.1120174009
 30
0.0
 10
11.5412751851
 20
7.1157670946
 30
0.0
 10
11.5473269459
 20
7.1211644837
 30
0.0
 10
11.5558023368
 20
7.1278614486
 30
0.0
 10
11.5645476436
 20
7.1342251448
 30
0.0
 10
11.5759588187
 20
7.1415327606
 30
0.0
 10
11.5879248349
 20
7.1479247936
 30
0.0
 10
11.5977936821
 20
7.1524721376
 30
0.0
 10
11.6078664185
 20
7.1566440406
 30
0.0
 10
11.6207892657
 20
7.1611300691
 30
0.0
 10
11.6367147326
 20
7.1653109338
 30
0.0
 10
11.6529877
 20
7.1682727798
 30
0.0
 10
11.6695179881
 20
7.1699992594
 30
0.0
 10
11.6862147914
 20
7.1704811608
 30
0.0
 10
11.7029862392
 20
7.1697160306
 30
0.0
 10
11.7197401513
 20
7.1677082887
 30
0.0
 10
11.7363844719
 20
7.1644691641
 30
0.0
 10
11.752827788
 20
7.1600166334
 30
0.0
 10
11.7689798195
 20
7.1543753144
 30
0.0
 10
11.7847519092
 20
7.1475763274
 30
0.0
 10
11.8000575025
 20
7.1396571216
 30
0.0
 10
11.8148126157
 20
7.1306612691
 30
0.0
 10
11.8289362904
 20
7.1206382253
 30
0.0
 10
11.8423510326
 20
7.1096430592
 30
0.0
 10
11.8549832324
 20
7.0977361531
 30
0.0
 10
11.8667635638
 20
7.0849828738
 30
0.0
 10
11.8776273607
 20
7.0714532172
 30
0.0
 10
11.8875149687
 20
7.0572214285
 30
0.0
 10
11.8963720695
 20
7.0423655989
 30
0.0
 10
11.9041499776
 20
7.0269672403
 30
0.0
 10
11.9108059036
 20
7.0111108532
 30
0.0
 10
11.9163031949
 20
6.9948834305
 30
0.0
 10
11.9206115249
 20
6.9783741324
 30
0.0
 10
11.923707085
 20
6.9616732616
 30
0.0
 10
11.9255726826
 20
6.944873769
 30
0.0
 10
11.9259905461
 20
6.933638242
 30
0.0
 10
11.9259905461
 20
6.9280368367
 30
0.0
  0
SPLINE
  5
396
100
AcDbEntity
  8
0
100
AcDbSpline
 62
7
  6
CONTINUOUS
 70
0
 71
3
 72
41
 73
37
 74
0
 42
0.0000001
 43
0.0000001
 44
0.0000000001
 40
0.0
 40
0.0
 40
0.0
 40
0.0
 40
0.0299421207
 40
0.0449237678
 40
0.059914515
 40
0.0899291702
 40
0.1200145975
 40
0.1350933607
 40
0.1501974781
 40
0.1804849759
 40
0.210898965
 40
0.2414525847
 40
0.2721557502
 40
0.3030149724
 40
0.3340332622
 40
0.3652101173
 40
0.3965415863
 40
0.428020404
 40
0.4596361919
 40
0.4913757156
 40
0.5232231916
 40
0.5551606357
 40
0.5871682465
 40
0.6192248153
 40
0.651308157
 40
0.6833955539
 40
0.7154642081
 40
0.747491694
 40
0.779456406
 40
0.8113379944
 40
0.8431177853
 40
0.8747791687
 40
0.9063079764
 40
0.9376927595
 40
0.9689251765
 40
1.0
 40
1.0
 40
1.0
 40
1.0
 10
9.0028036596
 20
6.080384485
 30
0.0
 10
9.0066856543
 20
6.0841341787
 30
0.0
 10
9.0127374151
 20
6.0895315678
 30
0.0
 10
9.021212806
 20
6.0962285328
 30
0.0
 10
9.0299581128
 20
6.1025922289
 30
0.0
 10
9.0413692879
 20
6.1098998447
 30
0.0
 10
9.0533353041
 20
6.1162918777
 30
0.0
 10
9.0632041513
 20
6.1208392217
 30
0.0
 10
9.0732768877
 20
6.1250111247
 30
0.0
 10
9.0861997349
 20
6.1294971532
 30
0.0
 10
9.1021252018
 20
6.1336780179
 30
0.0
 10
9.1183981692
 20
6.1366398639
 30
0.0
 10
9.1349284573
 20
6.1383663436
 30
0.0
 10
9.1516252606
 20
6.1388482449
 30
0.0
 10
9.1683967084
 20
6.1380831148
 30
0.0
 10
9.1851506205
 20
6.1360753729
 30
0.0
 10
9.2017949411
 20
6.1328362482
 30
0.0
 10
9.2182382572
 20
6.1283837175
 30
0.0
 10
9.2343902887
 20
6.1227423985
 30
0.0
 10
9.2501623784
 20
6.1159434115
 30
0.0
 10
9.2654679717
 20
6.1080242058
 30
0.0
 10
9.2802230849
 20
6.0990283532
 30
0.0
 10
9.2943467596
 20
6.0890053094
 30
0.0
 10
9.3077615018
 20
6.0780101434
 30
0.0
 10
9.3203937016
 20
6.0661032372
 30
0.0
 10
9.332174033
 20
6.0533499579
 30
0.0
 10
9.3430378299
 20
6.0398203014
 30
0.0
 10
9.3529254379
 20
6.0255885126
 30
0.0
 10
9.3617825387
 20
6.010732683
 30
0.0
 10
9.3695604468
 20
5.9953343244
 30
0.0
 10
9.3762163728
 20
5.9794779374
 30
0.0
 10
9.3817136641
 20
5.9632505147
 30
0.0
 10
9.3860219941
 20
5.9467412165
 30
0.0
 10
9.3891175542
 20
5.9300403457
 30
0.0
 10
9.3909831518
 20
5.9132408531
 30
0.0
 10
9.3914010153
 20
5.9020053261
 30
0.0
 10
9.3914010153
 20
5.8964039208
 30
0.0
  0
SPLINE
  5
397
100
AcDbEntity
  8
0
100
AcDbSpline
 62
7
  6
CONTINUOUS
 70
0
 71
3
 72
41
 73
37
 74
0
 42
0.0000001
 43
0.0000001
 44
0.0000000001
 40
0.0
 40
0.0
 40
0.0
 40
0.0
 40
0.0299421207
 40
0.0449237678
 40
0.059914515
 40
0.0899291702
 40
0.1200145975
 40
0.1350933607
 40
0.1501974781
 40
0.1804849759
 40
0.210898965
 40
0.2414525847
 40
0.2721557502
 40
0.3030149724
 40
0.3340332622
 40
0.3652101173
 40
0.3965415863
 40
0.428020404
 40
0.4596361919
 40
0.4913757156
 40
0.5232231916
 40
0.5551606357
 40
0.5871682465
 40
0.6192248153
 40
0.651308157
 40
0.6833955539
 40
0.7154642081
 40
0.747491694
 40
0.779456406
 40
0.8113379944
 40
0.8431177853
 40
0.8747791687
 40
0.9063079764
 40
0.9376927595
 40
0.9689251765
 40
1.0
 40
1.0
 40
1.0
 40
1.0
 10
11.5373931904
 20
5.9046101041
 30
0.0
 10
11.5412751851
 20
5.9083597977
 30
0.0
 10
11.5473269459
 20
5.9137571869
 30
0.0
 10
11.5558023368
 20
5.9204541518
 30
0.0
 10
11.5645476436
 20
5.926817848
 30
0.0
 10
11.5759588187
 20
5.9341254637
 30
0.0
 10
11.5879248349
 20
5.9405174968
 30
0.0
 10
11.5977936821
 20
5.9450648407
 30
0.0
 10
11.6078664185
 20
5.9492367437
 30
0.0
 10
11.6207892657
 20
5.9537227722
 30
0.0
 10
11.6367147326
 20
5.9579036369
 30
0.0
 10
11.6529877
 20
5.960865483
 30
0.0
 10
11.6695179881
 20
5.9625919626
 30
0.0
 10
11.6862147914
 20
5.963073864
 30
0.0
 10
11.7029862392
 20
5.9623087338
 30
0.0
 10
11.7197401513
 20
5.9603009919
 30
0.0
 10
11.7363844719
 20
5.9570618673
 30
0.0
 10
11.752827788
 20
5.9526093365
 30
0.0
 10
11.7689798195
 20
5.9469680176
 30
0.0
 10
11.7847519092
 20
5.9401690305
 30
0.0
 10
11.8000575025
 20
5.9322498248
 30
0.0
 10
11.8148126157
 20
5.9232539723
 30
0.0
 10
11.8289362904
 20
5.9132309285
 30
0.0
 10
11.8423510326
 20
5.9022357624
 30
0.0
 10
11.8549832324
 20
5.8903288563
 30
0.0
 10
11.8667635638
 20
5.8775755769
 30
0.0
 10
11.8776273607
 20
5.8640459204
 30
0.0
 10
11.8875149687
 20
5.8498141316
 30
0.0
 10
11.8963720695
 20
5.8349583021
 30
0.0
 10
11.9041499776
 20
5.8195599434
 30
0.0
 10
11.9108059036
 20
5.8037035564
 30
0.0
 10
11.9163031949
 20
5.7874761337
 30
0.0
 10
11.9206115249
 20
5.7709668355
 30
0.0
 10
11.923707085
 20
5.7542659647
 30
0.0
 10
11.9255726826
 20
5.7374664722
 30
0.0
 10
11.9259905461
 20
5.7262309451
 30
0.0
 10
11.9259905461
 20
5.7206295399
 30
0.0
  0
SPLINE
  5
398
100
AcDbEntity
  8
0
100
AcDbSpline
 62
7
  6
CONTINUOUS
 70
0
 71
3
 72
23
 73
19
 74
0
 42
0.0000001
 43
0.0000001
 44
0.0000000001
 40
0.0
 40
0.0
 40
0.0
 40
0.0
 40
0.0616482089
 40
0.1233194432
 40
0.1850364732
 40
0.2468215598
 40
0.3086962068
 40
0.3706809242
 40
0.4327950065
 40
0.4950563338
 40
0.5574811812
 40
0.6200840725
 40
0.6828776069
 40
0.7458723252
 40
0.8090769559
 40
0.8724968153
 40
0.9361384461
 40
1.0
 40
1.0
 40
1.0
 40
1.0
 10
10.0782733156
 20
9.9799555301
 30
0.0
 10
10.0838849025
 20
9.9853759007
 30
0.0
 10
10.0954042023
 20
9.9959189467
 30
0.0
 10
10.1135116096
 20
10.0107850557
 30
0.0
 10
10.1324053095
 20
10.0246685368
 30
0.0
 10
10.1520370423
 20
10.0375338129
 30
0.0
 10
10.1723575078
 20
10.0493486537
 30
0.0
 10
10.193315457
 20
10.0600832626
 30
0.0
 10
10.2148580801
 20
10.0697106585
 30
0.0
 10
10.2369310852
 20
10.0782066453
 30
0.0
 10
10.2594788616
 20
10.0855498815
 30
0.0
 10
10.2824446137
 20
10.0917219253
 30
0.0
 10
10.305770494
 20
10.0967072744
 30
0.0
 10
10.3293978005
 20
10.1004934616
 30
0.0
 10
10.3532668978
 20
10.1030709592
 30
0.0
 10
10.3773181213
 20
10.1044335141
 30
0.0
 10
10.4014898907
 20
10.1045775479
 30
0.0
 10
10.4176182965
 20
10.1038623078
 30
0.0
 10
10.4256809867
 20
10.1033031583
 30
0.0
  0
SPLINE
  5
399
100
AcDbEntity
  8
0
100
AcDbSpline
 62
7
  6
CONTINUOUS
 70
0
 71
3
 72
23
 73
19
 74
0
 42
0.0000001
 43
0.0000001
 44
0.0000000001
 40
0.0
 40
0.0
 40
0.0
 40
0.0
 40
0.0616482077
 40
0.1233194432
 40
0.1850364764
 40
0.2468215657
 40
0.3086962119
 40
0.3706809253
 40
0.4327950037
 40
0.4950563292
 40
0.5574811795
 40
0.6200840681
 40
0.6828776095
 40
0.745872322
 40
0.8090769221
 40
0.8724969185
 40
0.9361382339
 40
1.0
 40
1.0
 40
1.0
 40
1.0
 10
9.9914640617
 20
6.869713303
 30
0.0
 10
9.998477853
 20
6.8764881109
 30
0.0
 10
10.0128755244
 20
6.88966568
 30
0.0
 10
10.0355075289
 20
6.908246554
 30
0.0
 10
10.0591223126
 20
6.9255992568
 30
0.0
 10
10.083659568
 20
6.9416793018
 30
0.0
 10
10.1090576591
 20
6.956446423
 30
0.0
 10
10.1352525157
 20
6.9698634073
 30
0.0
 10
10.1621781405
 20
6.9818965225
 30
0.0
 10
10.1897666841
 20
6.9925155099
 30
0.0
 10
10.2179486415
 20
7.0016936852
 30
0.0
 10
10.2466530252
 20
7.0094079946
 30
0.0
 10
10.2758075249
 20
7.015639076
 30
0.0
 10
10.3053387632
 20
7.0203713688
 30
0.0
 10
10.3351722322
 20
7.0235929566
 30
0.0
 10
10.3652332909
 20
7.0252959737
 30
0.0
 10
10.3954450549
 20
7.0254760258
 30
0.0
 10
10.4156035754
 20
7.0245820512
 30
0.0
 10
10.4256809867
 20
7.0238831804
 30
0.0
  0
SPLINE
  5
39A
100
AcDbEntity
  8
0
100
AcDbSpline
 62
7
  6
CONTINUOUS
 70
0
 71
3
 72
39
 73
35
 74
0
 42
0.0000001
 43
0.0000001
 44
0.0000000001
 40
0.0
 40
0.0
 40
0.0
 40
0.0
 40
0.0311159848
 40
0.0620233135
 40
0.092735143
 40
0.1232711778
 40
0.1536587319
 40
0.1839312112
 40
0.2141268392
 40
0.2442870988
 40
0.2744549756
 40
0.3046731305
 40
0.33498209
 40
0.3654185441
 40
0.3960138631
 40
0.4267928826
 40
0.4577729973
 40
0.4889636195
 40
0.5203659692
 40
0.5519731791
 40
0.5837707176
 40
0.6157370638
 40
0.647844591
 40
0.6800606401
 40
0.7123487307
 40
0.7446698624
 40
0.7769838846
 40
0.8092508934
 40
0.8414326242
 40
0.8734938002
 40
0.9054034094
 40
0.9371359163
 40
0.9686717816
 40
1.0
 40
1.0
 40
1.0
 40
1.0
 10
9.1168514146
 20
10.2394209513
 30
0.0
 10
9.1168514146
 20
10.2466636544
 30
0.0
 10
9.1175584946
 20
10.2611109712
 30
0.0
 10
9.1207562815
 20
10.2824931028
 30
0.0
 10
9.1260574691
 20
10.3033166781
 30
0.0
 10
9.1334119535
 20
10.3233779646
 30
0.0
 10
9.142749326
 20
10.3424836485
 30
0.0
 10
9.1539799151
 20
10.3604486511
 30
0.0
 10
9.1669955864
 20
10.3770989938
 30
0.0
 10
9.1816706157
 20
10.3922733897
 30
0.0
 10
9.1978629971
 20
10.4058249842
 30
0.0
 10
9.2154159796
 20
10.4176227095
 30
0.0
 10
9.2341595559
 20
10.4275527145
 30
0.0
 10
9.253912214
 20
10.4355195389
 30
0.0
 10
9.27448288
 20
10.4414468258
 30
0.0
 10
9.2956727717
 20
10.4452780746
 30
0.0
 10
9.3172773609
 20
10.4469772536
 30
0.0
 10
9.3390884166
 20
10.4465288428
 30
0.0
 10
9.3608959592
 20
10.4439379316
 30
0.0
 10
9.3824902817
 20
10.4392303004
 30
0.0
 10
9.4036639236
 20
10.4324519124
 30
0.0
 10
9.4242135716
 20
10.42366842
 30
0.0
 10
9.4439420382
 20
10.4129647115
 30
0.0
 10
9.4626600781
 20
10.4004439486
 30
0.0
 10
9.4801880936
 20
10.3862265171
 30
0.0
 10
9.4963579231
 20
10.3704490433
 30
0.0
 10
9.5110144146
 20
10.3532630447
 30
0.0
 10
9.5240167742
 20
10.3348334028
 30
0.0
 10
9.535239994
 20
10.3153369418
 30
0.0
 10
9.5445760941
 20
10.2949606812
 30
0.0
 10
9.5519350017
 20
10.2739003087
 30
0.0
 10
9.5572453884
 20
10.2523572786
 30
0.0
 10
9.5604558169
 20
10.2305412142
 30
0.0
 10
9.561177321
 20
10.2158989486
 30
0.0
 10
9.561177321
 20
10.2086068451
 30
0.0
  0
SPLINE
  5
39B
100
AcDbEntity
  8
0
100
AcDbSpline
 62
7
  6
CONTINUOUS
 70
0
 71
3
 72
50
 73
46
 74
0
 42
0.0000001
 43
0.0000001
 44
0.0000000001
 40
0.0
 40
0.0
 40
0.0
 40
0.0
 40
0.0402644837
 40
0.0809582141
 40
0.1219706383
 40
0.1631902664
 40
0.204504758
 40
0.2458015059
 40
0.2869679306
 40
0.3278919333
 40
0.3684622519
 40
0.4085688948
 40
0.4481035102
 40
0.486959823
 40
0.5250340209
 40
0.5622252017
 40
0.5984357911
 40
0.6335720161
 40
0.6675443795
 40
0.7002681922
 40
0.7316641509
 40
0.7616589971
 40
0.7901862899
 40
0.8038813718
 40
0.8171882351
 40
0.8301009901
 40
0.8426143053
 40
0.8547236423
 40
0.8664251337
 40
0.8777158568
 40
0.8885937174
 40
0.8990577608
 40
0.9091080852
 40
0.9187462049
 40
0.9279750067
 40
0.9367991708
 40
0.9452252052
 40
0.9532619465
 40
0.9609206951
 40
0.9682157973
 40
0.9751648989
 40
0.9817895901
 40
0.9881157195
 40
0.9941739633
 40
1.0
 40
1.0
 40
1.0
 40
1.0
 10
11.0225378374
 20
11.4728762898
 30
0.0
 10
11.0084184517
 20
11.4738554726
 30
0.0
 10
10.9800139662
 20
11.4756112963
 30
0.0
 10
10.9371865933
 20
11.4776335623
 30
0.0
 10
10.8939990732
 20
11.4790547695
 30
0.0
 10
10.850577687
 20
11.4798707294
 30
0.0
 10
10.8070491937
 20
11.4800790448
 30
0.0
 10
10.7635407416
 20
11.479679104
 30
0.0
 10
10.7201793894
 20
11.478672082
 30
0.0
 10
10.6770917775
 20
11.4770609395
 30
0.0
 10
10.6344037335
 20
11.4748504132
 30
0.0
 10
10.5922399171
 20
11.4720470031
 30
0.0
 10
10.550723441
 20
11.4686589539
 30
0.0
 10
10.5099755183
 20
11.4646962317
 30
0.0
 10
10.4701150948
 20
11.4601704968
 30
0.0
 10
10.4312585047
 20
11.4550950695
 30
0.0
 10
10.393519116
 20
11.4494848939
 30
0.0
 10
10.357006999
 20
11.4433564945
 30
0.0
 10
10.3218285787
 20
11.4367279302
 30
0.0
 10
10.2880863473
 20
11.4296187378
 30
0.0
 10
10.2558784129
 20
11.4220498863
 30
0.0
 10
10.2252986374
 20
11.4140436678
 30
0.0
 10
10.2009254773
 20
11.406933761
 30
0.0
 10
10.1823202404
 20
11.4010291573
 30
0.0
 10
10.169017841
 20
11.3965664318
 30
0.0
 10
10.1561863094
 20
11.3920125135
 30
0.0
 10
10.1438349725
 20
11.3873706041
 30
0.0
 10
10.1319727908
 20
11.3826441941
 30
0.0
 10
10.1206083903
 20
11.3778366317
 30
0.0
 10
10.1097499813
 20
11.3729515172
 30
0.0
 10
10.0994054454
 20
11.3679922922
 30
0.0
 10
10.0895822175
 20
11.3629626561
 30
0.0
 10
10.0802874098
 20
11.3578661193
 30
0.0
 10
10.0715276533
 20
11.3527064499
 30
0.0
 10
10.0633092705
 20
11.3474871944
 30
0.0
 10
10.0556380716
 20
11.3422121484
 30
0.0
 10
10.0485195869
 20
11.3368848488
 30
0.0
 10
10.041958811
 20
11.3315090574
 30
0.0
 10
10.0359605124
 20
11.3260882401
 30
0.0
 10
10.0305289305
 20
11.3206260601
 30
0.0
 10
10.0256681746
 20
11.3151258492
 30
0.0
 10
10.021381903
 20
11.309591187
 30
0.0
 10
10.0176737141
 20
11.3040251574
 30
0.0
 10
10.0145471504
 20
11.2984319778
 30
0.0
 10
10.0128224756
 20
11.2946201218
 30
0.0
 10
10.0120657177
 20
11.2927171736
 30
0.0
  0
SPLINE
  5
39C
100
AcDbEntity
  8
0
100
AcDbSpline
 62
7
  6
CONTINUOUS
 70
0
 71
3
 72
39
 73
35
 74
0
 42
0.0000001
 43
0.0000001
 44
0.0000000001
 40
0.0
 40
0.0
 40
0.0
 40
0.0
 40
0.0311159723
 40
0.0620233248
 40
0.0927351404
 40
0.1232711776
 40
0.1536587326
 40
0.1839312111
 40
0.2141268393
 40
0.2442870992
 40
0.2744549754
 40
0.3046731314
 40
0.3349820899
 40
0.3654185435
 40
0.3960138648
 40
0.4267928822
 40
0.4577729963
 40
0.4889636214
 40
0.5203659689
 40
0.551973178
 40
0.5837707188
 40
0.6157370639
 40
0.6478445901
 40
0.6800606405
 40
0.7123487311
 40
0.7446698622
 40
0.7769838843
 40
0.8092508939
 40
0.8414326243
 40
0.8734937998
 40
0.9054034123
 40
0.9371359058
 40
0.9686717941
 40
1.0
 40
1.0
 40
1.0
 40
1.0
 10
8.9062795945
 20
5.9228125838
 30
0.0
 10
8.9062795945
 20
5.931031474
 30
0.0
 10
8.9070819811
 20
5.9474260403
 30
0.0
 10
8.9107107593
 20
5.9716901131
 30
0.0
 10
8.9167264654
 20
5.9953203458
 30
0.0
 10
8.9250722158
 20
6.0180855375
 30
0.0
 10
8.9356680824
 20
6.0397663462
 30
0.0
 10
8.9484123662
 20
6.0601527169
 30
0.0
 10
8.9631823447
 20
6.079047218
 30
0.0
 10
8.9798352838
 20
6.0962668854
 30
0.0
 10
8.9982101233
 20
6.111644996
 30
0.0
 10
9.0181289641
 20
6.125032814
 30
0.0
 10
9.0393988235
 20
6.1363012553
 30
0.0
 10
9.0618138017
 20
6.145341866
 30
0.0
 10
9.0851570482
 20
6.1520679977
 30
0.0
 10
9.109202957
 20
6.1564156881
 30
0.0
 10
9.1337194731
 20
6.158343885
 30
0.0
 10
9.1584702768
 20
6.1578349797
 30
0.0
 10
9.1832171018
 20
6.1548949155
 30
0.0
 10
9.2077219671
 20
6.1495527774
 30
0.0
 10
9.2317494297
 20
6.141860729
 30
0.0
 10
9.2550688311
 20
6.1318934213
 30
0.0
 10
9.2774563562
 20
6.1197470411
 30
0.0
 10
9.2986972351
 20
6.105538658
 30
0.0
 10
9.3185877458
 20
6.0894049951
 30
0.0
 10
9.3369369929
 20
6.071500995
 30
0.0
 10
9.3535688963
 20
6.0519985993
 30
0.0
 10
9.3683237684
 20
6.031084978
 30
0.0
 10
9.3810596893
 20
6.0089607349
 30
0.0
 10
9.3916541129
 20
5.9858380989
 30
0.0
 10
9.4000048821
 20
5.9619391613
 30
0.0
 10
9.4060310271
 20
5.9374925035
 30
0.0
 10
9.4096741511
 20
5.9127360117
 30
0.0
 10
9.4104929057
 20
5.8961202209
 30
0.0
 10
9.4104929057
 20
5.8878452719
 30
0.0
  0
SPLINE
  5
39D
100
AcDbEntity
  8
0
100
AcDbSpline
 62
7
  6
CONTINUOUS
 70
0
 71
3
 72
39
 73
35
 74
0
 42
0.0000001
 43
0.0000001
 44
0.0000000001
 40
0.0
 40
0.0
 40
0.0
 40
0.0
 40
0.0311159848
 40
0.0620233135
 40
0.092735143
 40
0.1232711778
 40
0.1536587319
 40
0.1839312112
 40
0.2141268392
 40
0.2442870988
 40
0.2744549756
 40
0.3046731305
 40
0.33498209
 40
0.3654185441
 40
0.3960138631
 40
0.4267928826
 40
0.4577729973
 40
0.4889636195
 40
0.5203659692
 40
0.5519731791
 40
0.5837707176
 40
0.6157370638
 40
0.647844591
 40
0.6800606401
 40
0.7123487307
 40
0.7446698624
 40
0.7769838846
 40
0.8092508934
 40
0.8414326242
 40
0.8734938002
 40
0.9054034094
 40
0.9371359163
 40
0.9686717816
 40
1.0
 40
1.0
 40
1.0
 40
1.0
 10
9.561177321
 20
10.2086068451
 30
0.0
 10
9.561177321
 20
10.201364142
 30
0.0
 10
9.5604702409
 20
10.1869168252
 30
0.0
 10
9.5572724541
 20
10.1655346936
 30
0.0
 10
9.5519712664
 20
10.1447111183
 30
0.0
 10
9.5446167821
 20
10.1246498318
 30
0.0
 10
9.5352794096
 20
10.1055441479
 30
0.0
 10
9.5240488204
 20
10.0875791453
 30
0.0
 10
9.5110331491
 20
10.0709288026
 30
0.0
 10
9.4963581199
 20
10.0557544067
 30
0.0
 10
9.4801657384
 20
10.0422028122
 30
0.0
 10
9.462612756
 20
10.0304050869
 30
0.0
 10
9.4438691797
 20
10.0204750819
 30
0.0
 10
9.4241165216
 20
10.0125082575
 30
0.0
 10
9.4035458555
 20
10.0065809706
 30
0.0
 10
9.3823559638
 20
10.0027497218
 30
0.0
 10
9.3607513746
 20
10.0010505428
 30
0.0
 10
9.338940319
 20
10.0014989536
 30
0.0
 10
9.3171327764
 20
10.0040898648
 30
0.0
 10
9.2955384538
 20
10.008797496
 30
0.0
 10
9.2743648119
 20
10.015575884
 30
0.0
 10
9.2538151639
 20
10.0243593764
 30
0.0
 10
9.2340866973
 20
10.0350630849
 30
0.0
 10
9.2153686575
 20
10.0475838478
 30
0.0
 10
9.1978406419
 20
10.0618012793
 30
0.0
 10
9.1816708124
 20
10.0775787531
 30
0.0
 10
9.1670143209
 20
10.0947647517
 30
0.0
 10
9.1540119613
 20
10.1131943936
 30
0.0
 10
9.1427887415
 20
10.1326908546
 30
0.0
 10
9.1334526415
 20
10.1530671152
 30
0.0
 10
9.1260937338
 20
10.1741274877
 30
0.0
 10
9.1207833471
 20
10.1956705178
 30
0.0
 10
9.1175729187
 20
10.2174865822
 30
0.0
 10
9.1168514146
 20
10.2321288478
 30
0.0
 10
9.1168514146
 20
10.2394209513
 30
0.0
  0
SPLINE
  5
39E
100
AcDbEntity
  8
0
100
AcDbSpline
 62
7
  6
CONTINUOUS
 70
0
 71
3
 72
53
 73
49
 74
0
 42
0.0000001
 43
0.0000001
 44
0.0000000001
 40
0.0
 40
0.0
 40
0.0
 40
0.0
 40
0.0055575376
 40
0.0111779567
 40
0.0169218821
 40
0.0228457564
 40
0.0290005139
 40
0.0354309032
 40
0.0421753268
 40
0.0492661629
 40
0.0567301863
 40
0.0645892833
 40
0.0728609369
 40
0.0815589669
 40
0.0906938756
 40
0.1002734826
 40
0.1103031213
 40
0.1207861401
 40
0.1317240026
 40
0.14311666
 40
0.1549626112
 40
0.1672591551
 40
0.1800024545
 40
0.1931876791
 40
0.2068090973
 40
0.2208601246
 40
0.2353334527
 40
0.2502210197
 40
0.2655141749
 40
0.2812035909
 40
0.3137306612
 40
0.3477179984
 40
0.3830731233
 40
0.4196969504
 40
0.4574845402
 40
0.4963257781
 40
0.5361060008
 40
0.5767065869
 40
0.618005522
 40
0.6598779471
 40
0.7021966942
 40
0.7448328149
 40
0.7876560998
 40
0.8305356101
 40
0.8733401519
 40
0.9159389309
 40
0.9582016869
 40
1.0
 40
1.0
 40
1.0
 40
1.0
 10
9.93890924
 20
11.3833263769
 30
0.0
 10
9.9389092298
 20
11.3854909582
 30
0.0
 10
9.9391515462
 20
11.3898483814
 30
0.0
 10
9.9402391716
 20
11.3963612684
 30
0.0
 10
9.9420491986
 20
11.4028596238
 30
0.0
 10
9.944578075
 20
11.4093359166
 30
0.0
 10
9.9478216421
 20
11.4157849009
 30
0.0
 10
9.9517755592
 20
11.422201615
 30
0.0
 10
9.9564352803
 20
11.4285816919
 30
0.0
 10
9.9617962994
 20
11.4349207752
 30
0.0
 10
9.9678537455
 20
11.4412146748
 30
0.0
 10
9.9746026251
 20
11.4474589208
 30
0.0
 10
9.9820373652
 20
11.4536491606
 30
0.0
 10
9.9901520995
 20
11.4597807007
 30
0.0
 10
9.9989402891
 20
11.465849024
 30
0.0
 10
10.0083949978
 20
11.4718493148
 30
0.0
 10
10.0185086178
 20
11.4777769737
 30
0.0
 10
10.0292730853
 20
11.4836271828
 30
0.0
 10
10.0406797075
 20
11.4893953355
 30
0.0
 10
10.0527193033
 20
11.4950766994
 30
0.0
 10
10.0653821135
 20
11.5006667155
 30
0.0
 10
10.0786578767
 20
11.506160793
 30
0.0
 10
10.0925358
 20
11.5115544604
 30
0.0
 10
10.1070045877
 20
11.5168433034
 30
0.0
 10
10.122052451
 20
11.5220229696
 30
0.0
 10
10.1376671084
 20
11.5270892414
 30
0.0
 10
10.1538358177
 20
11.5320379159
 30
0.0
 10
10.1705453567
 20
11.5368649752
 30
0.0
 10
10.1877820905
 20
11.5415664283
 30
0.0
 10
10.2117369948
 20
11.5477366144
 30
0.0
 10
10.2429028257
 20
11.5550881261
 30
0.0
 10
10.2817349878
 20
11.5632480199
 30
0.0
 10
10.3223098681
 20
11.5708215073
 30
0.0
 10
10.3644946381
 20
11.5777835598
 30
0.0
 10
10.4081514221
 20
11.584111124
 30
0.0
 10
10.4531373524
 20
11.5897832728
 30
0.0
 10
10.4993051754
 20
11.5947812508
 30
0.0
 10
10.5465037136
 20
11.5990885398
 30
0.0
 10
10.5945783813
 20
11.6026909088
 30
0.0
 10
10.6433716959
 20
11.6055764595
 30
0.0
 10
10.6927238017
 20
11.6077356636
 30
0.0
 10
10.7424729979
 20
11.609161392
 30
0.0
 10
10.7924562752
 20
11.6098489394
 30
0.0
 10
10.8425098461
 20
11.6097960332
 30
0.0
 10
10.8924697074
 20
11.6090028547
 30
0.0
 10
10.9421721397
 20
11.6074720085
 30
0.0
 10
10.9914541946
 20
11.6052085741
 30
0.0
 10
11.0241348749
 20
11.6032030706
 30
0.0
 10
11.0403757116
 20
11.6020767648
 30
0.0
  0
SPLINE
  5
39F
100
AcDbEntity
  8
0
100
AcDbSpline
 62
7
  6
CONTINUOUS
 70
0
 71
3
 72
51
 73
47
 74
0
 42
0.0000001
 43
0.0000001
 44
0.0000000001
 40
0.0
 40
0.0
 40
0.0
 40
0.0
 40
0.0058123863
 40
0.0118540941
 40
0.0181613857
 40
0.0247654848
 40
0.0316927229
 40
0.0389651188
 40
0.0466006827
 40
0.0546140752
 40
0.0630168566
 40
0.0718180841
 40
0.0810244514
 40
0.0906407927
 40
0.1006701241
 40
0.1111140631
 40
0.1219728007
 40
0.1332454524
 40
0.1449299875
 40
0.1570235258
 40
0.1695222447
 40
0.1824216313
 40
0.1957163822
 40
0.2094006174
 40
0.223467783
 40
0.2379108312
 40
0.2678929609
 40
0.2992812931
 40
0.3320024661
 40
0.3659770239
 40
0.4011200813
 40
0.4373419105
 40
0.4745484708
 40
0.5126418981
 40
0.5515209664
 40
0.5910815282
 40
0.6312169413
 40
0.6718184849
 40
0.712775769
 40
0.7539771387
 40
0.7953100776
 40
0.8366615988
 40
0.8779186693
 40
0.9189685368
 40
0.9596993048
 40
1.0
 40
1.0
 40
1.0
 40
1.0
 10
9.9432922385
 20
11.3605673323
 30
0.0
 10
9.9440952096
 20
11.3626358799
 30
0.0
 10
9.9459309445
 20
11.3667799865
 30
0.0
 10
9.949273945
 20
11.3728624146
 30
0.0
 10
9.9532503791
 20
11.3789156243
 30
0.0
 10
9.9578564199
 20
11.3849349874
 30
0.0
 10
9.9630881396
 20
11.3909171577
 30
0.0
 10
9.9689415842
 20
11.3968582273
 30
0.0
 10
9.9754122908
 20
11.4027545812
 30
0.0
 10
9.9824956746
 20
11.4086022266
 30
0.0
 10
9.9901865649
 20
11.4143973954
 30
0.0
 10
9.9984795535
 20
11.4201359881
 30
0.0
 10
10.0073686451
 20
11.4258141515
 30
0.0
 10
10.0168475395
 20
11.431427751
 30
0.0
 10
10.0269093783
 20
11.4369729164
 30
0.0
 10
10.0375469633
 20
11.4424455436
 30
0.0
 10
10.0487525747
 20
11.4478417969
 30
0.0
 10
10.0605181363
 20
11.4531576496
 30
0.0
 10
10.0728350867
 20
11.4583893371
 30
0.0
 10
10.0856945016
 20
11.4635329418
 30
0.0
 10
10.0990870054
 20
11.4685847964
 30
0.0
 10
10.1130028589
 20
11.4735411143
 30
0.0
 10
10.1274319034
 20
11.478398347
 30
0.0
 10
10.1423636163
 20
11.4831528472
 30
0.0
 10
10.1577871039
 20
11.4878012336
 30
0.0
 10
10.1792604555
 20
11.4939292808
 30
0.0
 10
10.2072576567
 20
11.5012807894
 30
0.0
 10
10.2422235123
 20
11.5095209679
 30
0.0
 10
10.2788624254
 20
11.5172613576
 30
0.0
 10
10.3170672363
 20
11.5244790992
 30
0.0
 10
10.356726421
 20
11.5311528484
 30
0.0
 10
10.3977240309
 20
11.5372628863
 30
0.0
 10
10.4399401669
 20
11.542791164
 30
0.0
 10
10.4832513102
 20
11.5477213583
 30
0.0
 10
10.5275307034
 20
11.5520389167
 30
0.0
 10
10.5726487268
 20
11.5557310992
 30
0.0
 10
10.6184732847
 20
11.5587870141
 30
0.0
 10
10.6648701967
 20
11.5611976486
 30
0.0
 10
10.7117035945
 20
11.5629558942
 30
0.0
 10
10.758836324
 20
11.5640565673
 30
0.0
 10
10.8061303464
 20
11.5644964223
 30
0.0
 10
10.8534471565
 20
11.564274164
 30
0.0
 10
10.9006481542
 20
11.563390445
 30
0.0
 10
10.9475951631
 20
11.5618478735
 30
0.0
 10
10.9941505263
 20
11.5596509982
 30
0.0
 10
11.025027426
 20
11.5577426729
 30
0.0
 10
11.0403757116
 20
11.5566782657
 30
0.0
  0
SPLINE
  5
3A0
100
AcDbEntity
  8
0
100
AcDbSpline
 62
7
  6
CONTINUOUS
 70
0
 71
3
 72
24
 73
20
 74
0
 42
0.0000001
 43
0.0000001
 44
0.0000000001
 40
0.0
 40
0.0
 40
0.0
 40
0.0
 40
0.0755923066
 40
0.1466353257
 40
0.2134617747
 40
0.2454355169
 40
0.2765282346
 40
0.3363384309
 40
0.393557742
 40
0.4489331062
 40
0.5032971329
 40
0.5575339256
 40
0.6125342166
 40
0.6691491175
 40
0.7281536798
 40
0.7902228906
 40
0.855926086
 40
0.9257275406
 40
1.0
 40
1.0
 40
1.0
 40
1.0
 10
12.745761001
 20
6.3907455934
 30
0.0
 10
12.7449828347
 20
6.3899939424
 30
0.0
 10
12.7434274528
 20
6.3885820701
 30
0.0
 10
12.7410205001
 20
6.3866959264
 30
0.0
 10
12.7389877584
 20
6.3853565726
 30
0.0
 10
12.7373665901
 20
6.3844452529
 30
0.0
 10
12.7357926211
 20
6.3836594413
 30
0.0
 10
12.7338246809
 20
6.3828590763
 30
0.0
 10
12.7314420963
 20
6.3821953152
 30
0.0
 10
12.7290720219
 20
6.3818429998
 30
0.0
 10
12.7267185516
 20
6.3818038671
 30
0.0
 10
12.7243861711
 20
6.38207845
 30
0.0
 10
12.7220794224
 20
6.3826659834
 30
0.0
 10
12.7198021844
 20
6.3835643969
 30
0.0
 10
12.7175575385
 20
6.3847711907
 30
0.0
 10
12.7153476728
 20
6.3862834686
 30
0.0
 10
12.7131744736
 20
6.3880987398
 30
0.0
 10
12.7110395798
 20
6.3902141982
 30
0.0
 10
12.7096865605
 20
6.3917729074
 30
0.0
 10
12.7090158294
 20
6.3925976036
 30
0.0
  0
SPLINE
  5
3A1
100
AcDbEntity
  8
0
100
AcDbSpline
 62
7
  6
CONTINUOUS
 70
0
 71
3
 72
39
 73
35
 74
0
 42
0.0000001
 43
0.0000001
 44
0.0000000001
 40
0.0
 40
0.0
 40
0.0
 40
0.0
 40
0.0311159723
 40
0.0620233248
 40
0.0927351404
 40
0.1232711776
 40
0.1536587326
 40
0.1839312111
 40
0.2141268393
 40
0.2442870992
 40
0.2744549754
 40
0.3046731314
 40
0.3349820899
 40
0.3654185435
 40
0.3960138648
 40
0.4267928822
 40
0.4577729963
 40
0.4889636214
 40
0.5203659689
 40
0.551973178
 40
0.5837707188
 40
0.6157370639
 40
0.6478445901
 40
0.6800606405
 40
0.7123487311
 40
0.7446698622
 40
0.7769838843
 40
0.8092508939
 40
0.8414326243
 40
0.8734937998
 40
0.9054034123
 40
0.9371359058
 40
0.9686717941
 40
1.0
 40
1.0
 40
1.0
 40
1.0
 10
9.4104929057
 20
5.8878452719
 30
0.0
 10
9.4104929057
 20
5.8796263818
 30
0.0
 10
9.4096905191
 20
5.8632318154
 30
0.0
 10
9.4060617409
 20
5.8389677427
 30
0.0
 10
9.4000460348
 20
5.8153375099
 30
0.0
 10
9.3917002844
 20
5.7925723183
 30
0.0
 10
9.3811044178
 20
5.7708915095
 30
0.0
 10
9.368360134
 20
5.7505051388
 30
0.0
 10
9.3535901555
 20
5.7316106378
 30
0.0
 10
9.3369372164
 20
5.7143909704
 30
0.0
 10
9.318562377
 20
5.6990128597
 30
0.0
 10
9.2986435361
 20
5.6856250417
 30
0.0
 10
9.2773736768
 20
5.6743566005
 30
0.0
 10
9.2549586985
 20
5.6653159898
 30
0.0
 10
9.231615452
 20
5.6585898581
 30
0.0
 10
9.2075695433
 20
5.6542421676
 30
0.0
 10
9.1830530272
 20
5.6523139707
 30
0.0
 10
9.1583022235
 20
5.6528228761
 30
0.0
 10
9.1335553984
 20
5.6557629403
 30
0.0
 10
9.1090505332
 20
5.6611050783
 30
0.0
 10
9.0850230706
 20
5.6687971267
 30
0.0
 10
9.0617036691
 20
5.6787644345
 30
0.0
 10
9.039316144
 20
5.6909108147
 30
0.0
 10
9.0180752652
 20
5.7051191977
 30
0.0
 10
8.9981847544
 20
5.7212528607
 30
0.0
 10
8.9798355073
 20
5.7391568608
 30
0.0
 10
8.963203604
 20
5.7586592564
 30
0.0
 10
8.9484487318
 20
5.7795728778
 30
0.0
 10
8.9357128109
 20
5.8016971209
 30
0.0
 10
8.9251183874
 20
5.8248197569
 30
0.0
 10
8.9167676181
 20
5.8487186945
 30
0.0
 10
8.9107414731
 20
5.8731653522
 30
0.0
 10
8.9070983491
 20
5.8979218441
 30
0.0
 10
8.9062795945
 20
5.9145376348
 30
0.0
 10
8.9062795945
 20
5.9228125838
 30
0.0
  0
SPLINE
  5
3A2
100
AcDbEntity
  8
0
100
AcDbSpline
 62
7
  6
CONTINUOUS
 70
0
 71
3
 72
11
 73
7
 74
0
 42
0.0000001
 43
0.0000001
 44
0.0000000001
 40
0.0
 40
0.0
 40
0.0
 40
0.0
 40
0.2432679948
 40
0.4915590505
 40
0.7440751639
 40
1.0
 40
1.0
 40
1.0
 40
1.0
 10
10.5225431098
 20
9.8682141711
 30
0.0
 10
10.5356820029
 20
9.8697190268
 30
0.0
 10
10.5622593799
 20
9.8725174498
 30
0.0
 10
10.6025561513
 20
9.8760583493
 30
0.0
 10
10.643592509
 20
9.8789773908
 30
0.0
 10
10.6711926793
 20
9.8804934715
 30
0.0
 10
10.6850901507
 20
9.8811475687
 30
0.0
  0
SPLINE
  5
3A3
100
AcDbEntity
  8
0
100
AcDbSpline
 62
7
  6
CONTINUOUS
 70
0
 71
3
 72
11
 73
7
 74
0
 42
0.0000001
 43
0.0000001
 44
0.0000000001
 40
0.0
 40
0.0
 40
0.0
 40
0.0
 40
0.2442985718
 40
0.4928619709
 40
0.7449977151
 40
1.0
 40
1.0
 40
1.0
 40
1.0
 10
10.5451998716
 20
9.7141917047
 30
0.0
 10
10.5575699342
 20
9.7154796259
 30
0.0
 10
10.5825478757
 20
9.7178719934
 30
0.0
 10
10.6203556546
 20
9.7208936084
 30
0.0
 10
10.6587488543
 20
9.7233734445
 30
0.0
 10
10.684535903
 20
9.7246544041
 30
0.0
 10
10.6975060895
 20
9.7252043619
 30
0.0
  0
SPLINE
  5
3A4
100
AcDbEntity
  8
0
100
AcDbSpline
 62
7
  6
CONTINUOUS
 70
0
 71
3
 72
47
 73
43
 74
0
 42
0.0000001
 43
0.0000001
 44
0.0000000001
 40
0.0
 40
0.0
 40
0.0
 40
0.0
 40
0.0958288111
 40
0.142819056
 40
0.1890973226
 40
0.2345926742
 40
0.2792365299
 40
0.3229621663
 40
0.3657048032
 40
0.4074019306
 40
0.4479935008
 40
0.4874221382
 40
0.5256333545
 40
0.5625758117
 40
0.5982016755
 40
0.6324669342
 40
0.6653317617
 40
0.6967609905
 40
0.7267247393
 40
0.7551990982
 40
0.7821669619
 40
0.8076191396
 40
0.8315558348
 40
0.8429598954
 40
0.8539904236
 40
0.8646510588
 40
0.8749463966
 40
0.8848821863
 40
0.894465538
 40
0.9037048856
 40
0.9126103351
 40
0.9211937488
 40
0.9294688783
 40
0.9374517162
 40
0.9451605113
 40
0.959834734
 40
0.9668566107
 40
0.9737035074
 40
0.9804067699
 40
0.9870000208
 40
0.9935188065
 40
1.0
 40
1.0
 40
1.0
 40
1.0
 10
11.0403757116
 20
11.6020767648
 30
0.0
 10
11.0631659295
 20
11.6004962578
 30
0.0
 10
11.0971071433
 20
11.5977622648
 30
0.0
 10
11.1419702082
 20
11.5933417392
 30
0.0
 10
11.1748501254
 20
11.5896971471
 30
0.0
 10
11.2071264413
 20
11.5857080069
 30
0.0
 10
11.2387451806
 20
11.5813810097
 30
0.0
 10
11.2696534914
 20
11.5767234439
 30
0.0
 10
11.2997997294
 20
11.5717431285
 30
0.0
 10
11.3291335132
 20
11.5664484261
 30
0.0
 10
11.3576058514
 20
11.5608482467
 30
0.0
 10
11.3851692095
 20
11.5549520139
 30
0.0
 10
11.4117775842
 20
11.5487696433
 30
0.0
 10
11.4373865877
 20
11.5423115183
 30
0.0
 10
11.4619535446
 20
11.5355885061
 30
0.0
 10
11.4854375657
 20
11.5286119166
 30
0.0
 10
11.5077996098
 20
11.5213934699
 30
0.0
 10
11.5290025593
 20
11.5139452634
 30
0.0
 10
11.5490113338
 20
11.5062797698
 30
0.0
 10
11.5677929099
 20
11.4984097991
 30
0.0
 10
11.5853165648
 20
11.4903483791
 30
0.0
 10
11.6015533022
 20
11.4821088621
 30
0.0
 10
11.614186367
 20
11.4749948145
 30
0.0
 10
11.6236096948
 20
11.4692130438
 30
0.0
 10
11.6302243562
 20
11.464910826
 30
0.0
 10
11.6364979918
 20
11.4605744563
 30
0.0
 10
11.6424280174
 20
11.4562056217
 30
0.0
 10
11.6480119607
 20
11.451806064
 30
0.0
 10
11.6532475693
 20
11.447377612
 30
0.0
 10
11.658132629
 20
11.442921947
 30
0.0
 10
11.6626651234
 20
11.4384408578
 30
0.0
 10
11.6668432015
 20
11.4339360717
 30
0.0
 10
11.6706649333
 20
11.4294093796
 30
0.0
 10
11.6741289875
 20
11.4248621061
 30
0.0
 10
11.6782008072
 20
11.4188741221
 30
0.0
 10
11.6816457704
 20
11.4127446393
 30
0.0
 10
11.6843751653
 20
11.4065068049
 30
0.0
 10
11.686027796
 20
11.4018849034
 30
0.0
 10
11.6873144311
 20
11.3972539449
 30
0.0
 10
11.6882341461
 20
11.392615747
 30
0.0
 10
11.6887863348
 20
11.3879730535
 30
0.0
 10
11.6889092206
 20
11.3848725616
 30
0.0
 10
11.6889092279
 20
11.3833274878
 30
0.0
  0
SPLINE
  5
3A5
100
AcDbEntity
  8
0
100
AcDbSpline
 62
7
  6
CONTINUOUS
 70
0
 71
3
 72
37
 73
33
 74
0
 42
0.0000001
 43
0.0000001
 44
0.0000000001
 40
0.0
 40
0.0
 40
0.0
 40
0.0
 40
0.0135220305
 40
0.0278307409
 40
0.0430757229
 40
0.0593760284
 40
0.0768236449
 40
0.0954876658
 40
0.11541832
 40
0.1366502604
 40
0.1592053183
 40
0.1830948489
 40
0.2083213995
 40
0.2348800051
 40
0.2627594147
 40
0.2919429035
 40
0.3224088414
 40
0.3541313872
 40
0.3870809357
 40
0.4212243624
 40
0.4565254541
 40
0.4929452078
 40
0.5304419434
 40
0.5689715825
 40
0.6084878883
 40
0.6489425346
 40
0.6902852984
 40
0.7324642473
 40
0.7754258061
 40
0.8191150675
 40
0.9084477049
 40
1.0
 40
1.0
 40
1.0
 40
1.0
 10
11.6845272846
 20
11.3605646632
 30
0.0
 10
11.6833987051
 20
11.363472327
 30
0.0
 10
11.6806799497
 20
11.3693087288
 30
0.0
 10
11.6754628278
 20
11.3777861629
 30
0.0
 10
11.669019226
 20
11.3861942609
 30
0.0
 10
11.6613615654
 20
11.394522634
 30
0.0
 10
11.6525014271
 20
11.4027634211
 30
0.0
 10
11.6424513785
 20
11.4109073354
 30
0.0
 10
11.6312250685
 20
11.4189446648
 30
0.0
 10
11.6188377239
 20
11.4268652109
 30
0.0
 10
11.6053062477
 20
11.434658563
 30
0.0
 10
11.5906492084
 20
11.4423141144
 30
0.0
 10
11.5748868902
 20
11.4498212536
 30
0.0
 10
11.5580412848
 20
11.4571695008
 30
0.0
 10
11.5401359893
 20
11.4643484602
 30
0.0
 10
11.5211961867
 20
11.4713479043
 30
0.0
 10
11.5012486277
 20
11.4781578899
 30
0.0
 10
11.4803215362
 20
11.484768684
 30
0.0
 10
11.4584445661
 20
11.4911707951
 30
0.0
 10
11.4356487827
 20
11.4973550821
 30
0.0
 10
11.4119665829
 20
11.5033126908
 30
0.0
 10
11.3874316389
 20
11.5090350528
 30
0.0
 10
11.3620788718
 20
11.5145139823
 30
0.0
 10
11.3359443851
 20
11.5197416411
 30
0.0
 10
11.3090653985
 20
11.5247105119
 30
0.0
 10
11.2814802102
 20
11.5294134781
 30
0.0
 10
11.2532281384
 20
11.5338438231
 30
0.0
 10
11.2243494665
 20
11.5379951708
 30
0.0
 10
11.1948853119
 20
11.5418616121
 30
0.0
 10
11.1545771508
 20
11.5466649636
 30
0.0
 10
11.1030374125
 20
11.5519016805
 30
0.0
 10
11.0614426646
 20
11.5552172676
 30
0.0
 10
11.0403757116
 20
11.5566782657
 30
0.0
  0
SPLINE
  5
3A6
100
AcDbEntity
  8
0
100
AcDbSpline
 62
7
  6
CONTINUOUS
 70
0
 71
3
 72
35
 73
31
 74
0
 42
0.0000001
 43
0.0000001
 44
0.0000000001
 40
0.0
 40
0.0
 40
0.0
 40
0.0
 40
0.0144777925
 40
0.0298895804
 40
0.0463234628
 40
0.0638474674
 40
0.0825126108
 40
0.1023557412
 40
0.1234021109
 40
0.1456671653
 40
0.1691581826
 40
0.193875652
 40
0.2198140744
 40
0.2469628859
 40
0.2753071538
 40
0.3048279139
 40
0.3355027601
 40
0.3673061809
 40
0.4002097201
 40
0.4341824011
 40
0.4691908661
 40
0.5051994952
 40
0.5421707294
 40
0.5800651005
 40
0.6188413629
 40
0.6584567439
 40
0.7400247079
 40
0.8244002308
 40
0.9111932452
 40
1.0
 40
1.0
 40
1.0
 40
1.0
 10
11.6001208004
 20
11.2840086357
 30
0.0
 10
11.5985157815
 20
11.2865076194
 30
0.0
 10
11.5949338184
 20
11.2914977542
 30
0.0
 10
11.5887225401
 20
11.298703227
 30
0.0
 10
11.5815250162
 20
11.3058415879
 30
0.0
 10
11.5733512141
 20
11.3129045375
 30
0.0
 10
11.5642110688
 20
11.3198849349
 30
0.0
 10
11.55411584
 20
11.3267748986
 30
0.0
 10
11.5430778185
 20
11.333566348
 30
0.0
 10
11.5311106015
 20
11.340251113
 30
0.0
 10
11.5182290197
 20
11.346821
 30
0.0
 10
11.5044491066
 20
11.3532677559
 30
0.0
 10
11.4897881483
 20
11.3595832921
 30
0.0
 10
11.4742646007
 20
11.3657596082
 30
0.0
 10
11.457898055
 20
11.3717887903
 30
0.0
 10
11.44070925
 20
11.3776631769
 30
0.0
 10
11.4227199946
 20
11.3833752438
 30
0.0
 10
11.4039531424
 20
11.3889176362
 30
0.0
 10
11.3844325829
 20
11.3942832874
 30
0.0
 10
11.3641831745
 20
11.3994652961
 30
0.0
 10
11.3432307218
 20
11.4044569909
 30
0.0
 10
11.3216019527
 20
11.4092520015
 30
0.0
 10
11.2993244567
 20
11.4138441511
 30
0.0
 10
11.2764266739
 20
11.4182275274
 30
0.0
 10
11.2529378131
 20
11.4223965775
 30
0.0
 10
11.2205561338
 20
11.4277139166
 30
0.0
 10
11.1788194729
 20
11.4337674206
 30
0.0
 10
11.1273478734
 20
11.4400307697
 30
0.0
 10
11.0742758224
 20
11.4453294991
 30
0.0
 10
11.0383622747
 20
11.448172573
 30
0.0
 10
11.0201878427
 20
11.4494329741
 30
0.0
  0
SPLINE
  5
3A7
100
AcDbEntity
  8
0
100
AcDbSpline
 62
7
  6
CONTINUOUS
 70
0
 71
3
 72
49
 73
45
 74
0
 42
0.0000001
 43
0.0000001
 44
0.0000000001
 40
0.0
 40
0.0
 40
0.0
 40
0.0
 40
0.008396686
 40
0.0173568041
 40
0.0268878296
 40
0.0369924053
 40
0.0476695928
 40
0.0589154054
 40
0.0707234879
 40
0.0830851231
 40
0.095989722
 40
0.1094248923
 40
0.137828704
 40
0.1681706503
 40
0.200304442
 40
0.2340679054
 40
0.2692853485
 40
0.3057696015
 40
0.3433238555
 40
0.3817433795
 40
0.4208171636
 40
0.4603295169
 40
0.5000616407
 40
0.5397931874
 40
0.5793038134
 40
0.6183747323
 40
0.6567902737
 40
0.6943394561
 40
0.7308175858
 40
0.7660278999
 40
0.7997832836
 40
0.8319081103
 40
0.8622402827
 40
0.8906336026
 40
0.9040633153
 40
0.9169622691
 40
0.9293181879
 40
0.9411204113
 40
0.9523603367
 40
0.9630314992
 40
0.9731300693
 40
0.9826551644
 40
0.991609488
 40
1.0
 40
1.0
 40
1.0
 40
1.0
 10
12.6828948929
 20
6.4661600266
 30
0.0
 10
12.6836174243
 20
6.4670451476
 30
0.0
 10
12.6850568191
 20
6.4689194159
 30
0.0
 10
12.687137453
 20
6.4719305028
 30
0.0
 10
12.6892061927
 20
6.4752275439
 30
0.0
 10
12.6912601072
 20
6.4788057092
 30
0.0
 10
12.69329617
 20
6.4826599267
 30
0.0
 10
12.6953114469
 20
6.4867845729
 30
0.0
 10
12.6973029393
 20
6.4911736648
 30
0.0
 10
12.6992677428
 20
6.4958207818
 30
0.0
 10
12.7012029502
 20
6.5007191282
 30
0.0
 10
12.7037880183
 20
6.5077059744
 30
0.0
 10
12.7069119071
 20
6.517020737
 30
0.0
 10
12.7104328583
 20
6.5288775444
 30
0.0
 10
12.7137711824
 20
6.541542636
 30
0.0
 10
12.7169069317
 20
6.5549413991
 30
0.0
 10
12.7198213306
 20
6.5689950098
 30
0.0
 10
12.7224969684
 20
6.5836205875
 30
0.0
 10
12.7249178762
 20
6.5987318213
 30
0.0
 10
12.7270696251
 20
6.6142394718
 30
0.0
 10
12.7289394063
 20
6.6300519231
 30
0.0
 10
12.7305161049
 20
6.6460757326
 30
0.0
 10
12.731790364
 20
6.6622161933
 30
0.0
 10
12.7327546393
 20
6.6783779003
 30
0.0
 10
12.7334032433
 20
6.6944653213
 30
0.0
 10
12.7337323804
 20
6.7103833681
 30
0.0
 10
12.7337401705
 20
6.7260379654
 30
0.0
 10
12.7334266636
 20
6.7413366156
 30
0.0
 10
12.7327938423
 20
6.7561889547
 30
0.0
 10
12.7318456186
 20
6.7705073091
 30
0.0
 10
12.7305878063
 20
6.7842072069
 30
0.0
 10
12.7290281289
 20
6.7972080074
 30
0.0
 10
12.7271760581
 20
6.8094330837
 30
0.0
 10
12.7253666022
 20
6.8190860956
 30
0.0
 10
12.7237697667
 20
6.8263596745
 30
0.0
 10
12.7225285412
 20
6.8314757362
 30
0.0
 10
12.7212233769
 20
6.8363469849
 30
0.0
 10
12.7198561456
 20
6.8409662874
 30
0.0
 10
12.7184289128
 20
6.8453268914
 30
0.0
 10
12.7169437553
 20
6.8494224515
 30
0.0
 10
12.715402874
 20
6.853247026
 30
0.0
 10
12.7138084622
 20
6.8567951604
 30
0.0
 10
12.7121628721
 20
6.860061643
 30
0.0
 10
12.7109956262
 20
6.8621145905
 30
0.0
 10
12.7104020459
 20
6.8630899027
 30
0.0
  0
SPLINE
  5
3A8
100
AcDbEntity
  8
0
100
AcDbSpline
 62
7
  6
CONTINUOUS
 70
0
 71
3
 72
39
 73
35
 74
0
 42
0.0000001
 43
0.0000001
 44
0.0000000001
 40
0.0
 40
0.0
 40
0.0
 40
0.0
 40
0.0311159848
 40
0.0620233135
 40
0.092735143
 40
0.1232711778
 40
0.1536587319
 40
0.1839312112
 40
0.2141268392
 40
0.2442870988
 40
0.2744549756
 40
0.3046731305
 40
0.33498209
 40
0.3654185441
 40
0.3960138631
 40
0.4267928826
 40
0.4577729973
 40
0.4889636195
 40
0.5203659692
 40
0.5519731791
 40
0.5837707176
 40
0.6157370638
 40
0.647844591
 40
0.6800606401
 40
0.7123487307
 40
0.7446698624
 40
0.7769838846
 40
0.8092508934
 40
0.8414326242
 40
0.8734938002
 40
0.9054034094
 40
0.9371359163
 40
0.9686717816
 40
1.0
 40
1.0
 40
1.0
 40
1.0
 10
11.2901846525
 20
10.0886997794
 30
0.0
 10
11.2901846525
 20
10.0959424824
 30
0.0
 10
11.2908917325
 20
10.1103897992
 30
0.0
 10
11.2940895194
 20
10.1317719309
 30
0.0
 10
11.299390707
 20
10.1525955061
 30
0.0
 10
11.3067451914
 20
10.1726567926
 30
0.0
 10
11.3160825639
 20
10.1917624765
 30
0.0
 10
11.3273131531
 20
10.2097274791
 30
0.0
 10
11.3403288243
 20
10.2263778219
 30
0.0
 10
11.3550038536
 20
10.2415522178
 30
0.0
 10
11.371196235
 20
10.2551038122
 30
0.0
 10
11.3887492175
 20
10.2669015376
 30
0.0
 10
11.4074927938
 20
10.2768315425
 30
0.0
 10
11.4272454519
 20
10.284798367
 30
0.0
 10
11.4478161179
 20
10.2907256538
 30
0.0
 10
11.4690060097
 20
10.2945569027
 30
0.0
 10
11.4906105988
 20
10.2962560817
 30
0.0
 10
11.5124216545
 20
10.2958076708
 30
0.0
 10
11.5342291971
 20
10.2932167597
 30
0.0
 10
11.5558235197
 20
10.2885091284
 30
0.0
 10
11.5769971616
 20
10.2817307405
 30
0.0
 10
11.5975468096
 20
10.272947248
 30
0.0
 10
11.6172752761
 20
10.2622435396
 30
0.0
 10
11.635993316
 20
10.2497227766
 30
0.0
 10
11.6535213316
 20
10.2355053451
 30
0.0
 10
11.669691161
 20
10.2197278713
 30
0.0
 10
11.6843476526
 20
10.2025418727
 30
0.0
 10
11.6973500121
 20
10.1841122308
 30
0.0
 10
11.7085732319
 20
10.1646157698
 30
0.0
 10
11.717909332
 20
10.1442395092
 30
0.0
 10
11.7252682396
 20
10.1231791367
 30
0.0
 10
11.7305786264
 20
10.1016361066
 30
0.0
 10
11.7337890548
 20
10.0798200423
 30
0.0
 10
11.7345105589
 20
10.0651777766
 30
0.0
 10
11.7345105589
 20
10.0578856731
 30
0.0
  0
SPLINE
  5
3A9
100
AcDbEntity
  8
0
100
AcDbSpline
 62
7
  6
CONTINUOUS
 70
0
 71
3
 72
39
 73
35
 74
0
 42
0.0000001
 43
0.0000001
 44
0.0000000001
 40
0.0
 40
0.0
 40
0.0
 40
0.0
 40
0.0311159723
 40
0.0620233248
 40
0.0927351404
 40
0.1232711776
 40
0.1536587326
 40
0.1839312111
 40
0.2141268393
 40
0.2442870992
 40
0.2744549754
 40
0.3046731314
 40
0.3349820899
 40
0.3654185435
 40
0.3960138648
 40
0.4267928822
 40
0.4577729963
 40
0.4889636214
 40
0.5203659689
 40
0.551973178
 40
0.5837707188
 40
0.6157370639
 40
0.6478445901
 40
0.6800606405
 40
0.7123487311
 40
0.7446698622
 40
0.7769838843
 40
0.8092508939
 40
0.8414326243
 40
0.8734937998
 40
0.9054034123
 40
0.9371359058
 40
0.9686717941
 40
1.0
 40
1.0
 40
1.0
 40
1.0
 10
11.4408691253
 20
5.7470382029
 30
0.0
 10
11.4408691253
 20
5.755257093
 30
0.0
 10
11.4416715119
 20
5.7716516594
 30
0.0
 10
11.4453002901
 20
5.7959157321
 30
0.0
 10
11.4513159962
 20
5.8195459649
 30
0.0
 10
11.4596617466
 20
5.8423111565
 30
0.0
 10
11.4702576132
 20
5.8639919653
 30
0.0
 10
11.483001897
 20
5.884378336
 30
0.0
 10
11.4977718755
 20
5.903272837
 30
0.0
 10
11.5144248146
 20
5.9204925044
 30
0.0
 10
11.5327996541
 20
5.9358706151
 30
0.0
 10
11.5527184949
 20
5.9492584331
 30
0.0
 10
11.5739883543
 20
5.9605268743
 30
0.0
 10
11.5964033325
 20
5.969567485
 30
0.0
 10
11.619746579
 20
5.9762936167
 30
0.0
 10
11.6437924878
 20
5.9806413072
 30
0.0
 10
11.6683090039
 20
5.9825695041
 30
0.0
 10
11.6930598076
 20
5.9820605987
 30
0.0
 10
11.7178066326
 20
5.9791205345
 30
0.0
 10
11.7423114979
 20
5.9737783965
 30
0.0
 10
11.7663389605
 20
5.9660863481
 30
0.0
 10
11.7896583619
 20
5.9561190403
 30
0.0
 10
11.812045887
 20
5.9439726601
 30
0.0
 10
11.8332867659
 20
5.9297642771
 30
0.0
 10
11.8531772766
 20
5.9136306141
 30
0.0
 10
11.8715265237
 20
5.895726614
 30
0.0
 10
11.8881584271
 20
5.8762242184
 30
0.0
 10
11.9029132992
 20
5.855310597
 30
0.0
 10
11.9156492201
 20
5.8331863539
 30
0.0
 10
11.9262436437
 20
5.8100637179
 30
0.0
 10
11.9345944129
 20
5.7861647803
 30
0.0
 10
11.9406205579
 20
5.7617181226
 30
0.0
 10
11.9442636819
 20
5.7369616307
 30
0.0
 10
11.9450824365
 20
5.7203458399
 30
0.0
 10
11.9450824365
 20
5.712070891
 30
0.0
  0
SPLINE
  5
3AA
100
AcDbEntity
  8
0
100
AcDbSpline
 62
7
  6
CONTINUOUS
 70
0
 71
3
 72
39
 73
35
 74
0
 42
0.0000001
 43
0.0000001
 44
0.0000000001
 40
0.0
 40
0.0
 40
0.0
 40
0.0
 40
0.0311159723
 40
0.0620233248
 40
0.0927351404
 40
0.1232711776
 40
0.1536587326
 40
0.1839312111
 40
0.2141268393
 40
0.2442870992
 40
0.2744549754
 40
0.3046731314
 40
0.3349820899
 40
0.3654185435
 40
0.3960138648
 40
0.4267928822
 40
0.4577729963
 40
0.4889636214
 40
0.5203659689
 40
0.551973178
 40
0.5837707188
 40
0.6157370639
 40
0.6478445901
 40
0.6800606405
 40
0.7123487311
 40
0.7446698622
 40
0.7769838843
 40
0.8092508939
 40
0.8414326243
 40
0.8734937998
 40
0.9054034123
 40
0.9371359058
 40
0.9686717941
 40
1.0
 40
1.0
 40
1.0
 40
1.0
 10
11.9450824365
 20
5.712070891
 30
0.0
 10
11.9450824365
 20
5.7038520008
 30
0.0
 10
11.9442800499
 20
5.6874574344
 30
0.0
 10
11.9406512717
 20
5.6631933617
 30
0.0
 10
11.9346355656
 20
5.6395631289
 30
0.0
 10
11.9262898152
 20
5.6167979373
 30
0.0
 10
11.9156939486
 20
5.5951171286
 30
0.0
 10
11.9029496648
 20
5.5747307579
 30
0.0
 10
11.8881796863
 20
5.5558362568
 30
0.0
 10
11.8715267472
 20
5.5386165894
 30
0.0
 10
11.8531519078
 20
5.5232384788
 30
0.0
 10
11.8332330669
 20
5.5098506608
 30
0.0
 10
11.8119632076
 20
5.4985822195
 30
0.0
 10
11.7895482293
 20
5.4895416088
 30
0.0
 10
11.7662049828
 20
5.4828154771
 30
0.0
 10
11.7421590741
 20
5.4784677867
 30
0.0
 10
11.717642558
 20
5.4765395898
 30
0.0
 10
11.6928917543
 20
5.4770484951
 30
0.0
 10
11.6681449292
 20
5.4799885593
 30
0.0
 10
11.643640064
 20
5.4853306973
 30
0.0
 10
11.6196126014
 20
5.4930227457
 30
0.0
 10
11.5962931999
 20
5.5029900535
 30
0.0
 10
11.5739056748
 20
5.5151364337
 30
0.0
 10
11.552664796
 20
5.5293448168
 30
0.0
 10
11.5327742852
 20
5.5454784797
 30
0.0
 10
11.5144250381
 20
5.5633824798
 30
0.0
 10
11.4977931348
 20
5.5828848755
 30
0.0
 10
11.4830382626
 20
5.6037984968
 30
0.0
 10
11.4703023417
 20
5.6259227399
 30
0.0
 10
11.4597079182
 20
5.6490453759
 30
0.0
 10
11.4513571489
 20
5.6729443135
 30
0.0
 10
11.4453310039
 20
5.6973909713
 30
0.0
 10
11.4416878799
 20
5.7221474631
 30
0.0
 10
11.4408691253
 20
5.7387632539
 30
0.0
 10
11.4408691253
 20
5.7470382029
 30
0.0
  0
SPLINE
  5
3AB
100
AcDbEntity
  8
0
100
AcDbSpline
 62
7
  6
CONTINUOUS
 70
0
 71
3
 72
39
 73
35
 74
0
 42
0.0000001
 43
0.0000001
 44
0.0000000001
 40
0.0
 40
0.0
 40
0.0
 40
0.0
 40
0.0311450468
 40
0.0624431066
 40
0.0938883481
 40
0.1254709924
 40
0.157178888
 40
0.1889972656
 40
0.2209091813
 40
0.2528958506
 40
0.2849370306
 40
0.3170114219
 40
0.3490970827
 40
0.3811718539
 40
0.4132137864
 40
0.4452015658
 40
0.4771149283
 40
0.5089350609
 40
0.5406449831
 40
0.5722299015
 40
0.6036775303
 40
0.6349783704
 40
0.6661259418
 40
0.6971169618
 40
0.7279514635
 40
0.7586328449
 40
0.7891678453
 40
0.8195664447
 40
0.8498416857
 40
0.880009417
 40
0.9100879626
 40
0.9400977191
 40
0.9700606947
 40
1.0
 40
1.0
 40
1.0
 40
1.0
 10
10.4256809867
 20
9.1372806822
 30
0.0
 10
10.4138862893
 20
9.1380986472
 30
0.0
 10
10.3902900426
 20
9.1406019157
 30
0.0
 10
10.3551817428
 20
9.1469077544
 30
0.0
 10
10.3204494894
 20
9.1557403002
 30
0.0
 10
10.2862808474
 20
9.1670521076
 30
0.0
 10
10.2528573573
 20
9.1807825216
 30
0.0
 10
10.2203573135
 20
9.1968581261
 30
0.0
 10
10.188953849
 20
9.2151930028
 30
0.0
 10
10.1588142925
 20
9.2356892429
 30
0.0
 10
10.1300992244
 20
9.2582374768
 30
0.0
 10
10.1029616515
 20
9.2827174486
 30
0.0
 10
10.0775461999
 20
9.3089986545
 30
0.0
 10
10.053988344
 20
9.336941018
 30
0.0
 10
10.0324136696
 20
9.3663956173
 30
0.0
 10
10.0129372418
 20
9.3972055
 30
0.0
 10
9.995662993
 20
9.4292065036
 30
0.0
 10
9.9806831745
 20
9.4622281185
 30
0.0
 10
9.9680778698
 20
9.4960943841
 30
0.0
 10
9.9579145238
 20
9.5306247993
 30
0.0
 10
9.9502476157
 20
9.5656352903
 30
0.0
 10
9.9451183691
 20
9.6009391767
 30
0.0
 10
9.9425545206
 20
9.6363481511
 30
0.0
 10
9.9425701678
 20
9.6716732689
 30
0.0
 10
9.9451656421
 20
9.7067259443
 30
0.0
 10
9.9503274936
 20
9.7413189567
 30
0.0
 10
9.9580285698
 20
9.7752674422
 30
0.0
 10
9.9682281337
 20
9.8083898849
 30
0.0
 10
9.9808720451
 20
9.8405090738
 30
0.0
 10
9.9958930769
 20
9.8714531257
 30
0.0
 10
10.0132109963
 20
9.9010562199
 30
0.0
 10
10.0327338819
 20
9.9291603166
 30
0.0
 10
10.0543554146
 20
9.9556129624
 30
0.0
 10
10.0700987577
 20
9.9720595225
 30
0.0
 10
10.0782733156
 20
9.9799555301
 30
0.0
  0
SPLINE
  5
3AC
100
AcDbEntity
  8
0
100
AcDbSpline
 62
7
  6
CONTINUOUS
 70
0
 71
3
 72
36
 73
32
 74
0
 42
0.0000001
 43
0.0000001
 44
0.0000000001
 40
0.0
 40
0.0
 40
0.0
 40
0.0
 40
0.0135530813
 40
0.0279011214
 40
0.0431908031
 40
0.0595386922
 40
0.0770347667
 40
0.0957465122
 40
0.1157229065
 40
0.1369976592
 40
0.1595918745
 40
0.1835163557
 40
0.2087732565
 40
0.2353573277
 40
0.2632571149
 40
0.2924557741
 40
0.3229316236
 40
0.3546588075
 40
0.3876077544
 40
0.4217454257
 40
0.457035709
 40
0.4934397338
 40
0.5309159955
 40
0.569420596
 40
0.6089075018
 40
0.6493286243
 40
0.6906339801
 40
0.7327718925
 40
0.8193293697
 40
0.9085591366
 40
1.0
 40
1.0
 40
1.0
 40
1.0
 10
11.6157400454
 20
11.292749133
 30
0.0
 10
11.6146753917
 20
11.2954222285
 30
0.0
 10
11.6121225922
 20
11.3007864737
 30
0.0
 10
11.6072527264
 20
11.3085752495
 30
0.0
 10
11.601258531
 20
11.3162999742
 30
0.0
 10
11.5941513545
 20
11.3239511484
 30
0.0
 10
11.5859418006
 20
11.3315215147
 30
0.0
 10
11.5766414375
 20
11.3390025367
 30
0.0
 10
11.5662628371
 20
11.3463852946
 30
0.0
 10
11.5548200122
 20
11.3536604202
 30
0.0
 10
11.5423285225
 20
11.3608183767
 30
0.0
 10
11.5288054491
 20
11.3678494556
 30
0.0
 10
11.5142694312
 20
11.3747439372
 30
0.0
 10
11.4987406703
 20
11.3814922342
 30
0.0
 10
11.4822408347
 20
11.3880848423
 30
0.0
 10
11.4647930337
 20
11.3945124035
 30
0.0
 10
11.446421808
 20
11.4007658243
 30
0.0
 10
11.4271530445
 20
11.4068362088
 30
0.0
 10
11.4070139316
 20
11.4127148772
 30
0.0
 10
11.3860329446
 20
11.418393469
 30
0.0
 10
11.364239776
 20
11.4238638925
 30
0.0
 10
11.3416652799
 20
11.4291183136
 30
0.0
 10
11.3183414493
 20
11.4341492454
 30
0.0
 10
11.2943013574
 20
11.4389495239
 30
0.0
 10
11.2695790924
 20
11.4435122788
 30
0.0
 10
11.2442097373
 20
11.4478309908
 30
0.0
 10
11.2182292633
 20
11.4518995608
 30
0.0
 10
11.1825037019
 20
11.4570286814
 30
0.0
 10
11.136589119
 20
11.4627545761
 30
0.0
 10
11.0801426592
 20
11.4684860699
 30
0.0
 10
11.0419041724
 20
11.4715332299
 30
0.0
 10
11.0225378374
 20
11.4728762898
 30
0.0
  0
SPLINE
  5
3AD
100
AcDbEntity
  8
0
100
AcDbSpline
 62
7
  6
CONTINUOUS
 70
0
 71
3
 72
39
 73
35
 74
0
 42
0.0000001
 43
0.0000001
 44
0.0000000001
 40
0.0
 40
0.0
 40
0.0
 40
0.0
 40
0.0311159848
 40
0.0620233135
 40
0.092735143
 40
0.1232711778
 40
0.1536587319
 40
0.1839312112
 40
0.2141268392
 40
0.2442870988
 40
0.2744549756
 40
0.3046731305
 40
0.33498209
 40
0.3654185441
 40
0.3960138631
 40
0.4267928826
 40
0.4577729973
 40
0.4889636195
 40
0.5203659692
 40
0.5519731791
 40
0.5837707176
 40
0.6157370638
 40
0.647844591
 40
0.6800606401
 40
0.7123487307
 40
0.7446698624
 40
0.7769838846
 40
0.8092508934
 40
0.8414326242
 40
0.8734938002
 40
0.9054034094
 40
0.9371359163
 40
0.9686717816
 40
1.0
 40
1.0
 40
1.0
 40
1.0
 10
11.7345105589
 20
10.0578856731
 30
0.0
 10
11.7345105589
 20
10.0506429701
 30
0.0
 10
11.7338034788
 20
10.0361956532
 30
0.0
 10
11.730605692
 20
10.0148135216
 30
0.0
 10
11.7253045044
 20
9.9939899463
 30
0.0
 10
11.71795002
 20
9.9739286598
 30
0.0
 10
11.7086126475
 20
9.9548229759
 30
0.0
 10
11.6973820583
 20
9.9368579734
 30
0.0
 10
11.684366387
 20
9.9202076306
 30
0.0
 10
11.6696913578
 20
9.9050332347
 30
0.0
 10
11.6534989764
 20
9.8914816402
 30
0.0
 10
11.6359459939
 20
9.8796839149
 30
0.0
 10
11.6172024176
 20
9.8697539099
 30
0.0
 10
11.5974497595
 20
9.8617870855
 30
0.0
 10
11.5768790935
 20
9.8558597986
 30
0.0
 10
11.5556892017
 20
9.8520285498
 30
0.0
 10
11.5340846126
 20
9.8503293708
 30
0.0
 10
11.5122735569
 20
9.8507777816
 30
0.0
 10
11.4904660143
 20
9.8533686928
 30
0.0
 10
11.4688716917
 20
9.8580763241
 30
0.0
 10
11.4476980498
 20
9.864854712
 30
0.0
 10
11.4271484018
 20
9.8736382044
 30
0.0
 10
11.4074199353
 20
9.8843419129
 30
0.0
 10
11.3887018954
 20
9.8968626759
 30
0.0
 10
11.3711738798
 20
9.9110801074
 30
0.0
 10
11.3550040504
 20
9.9268575812
 30
0.0
 10
11.3403475588
 20
9.9440435797
 30
0.0
 10
11.3273451993
 20
9.9624732216
 30
0.0
 10
11.3161219794
 20
9.9819696826
 30
0.0
 10
11.3067858794
 20
10.0023459432
 30
0.0
 10
11.2994269718
 20
10.0234063157
 30
0.0
 10
11.294116585
 20
10.0449493459
 30
0.0
 10
11.2909061566
 20
10.0667654102
 30
0.0
 10
11.2901846525
 20
10.0814076759
 30
0.0
 10
11.2901846525
 20
10.0886997794
 30
0.0
  0
SPLINE
  5
3AE
100
AcDbEntity
  8
0
100
AcDbSpline
 62
7
  6
CONTINUOUS
 70
0
 71
3
 72
69
 73
65
 74
0
 42
0.0000001
 43
0.0000001
 44
0.0000000001
 40
0.0
 40
0.0
 40
0.0
 40
0.0
 40
0.0077182502
 40
0.0147686575
 40
0.0212508681
 40
0.0243224672
 40
0.0273056586
 40
0.0302226231
 40
0.033097295
 40
0.0359547786
 40
0.0388206659
 40
0.0417203042
 40
0.0446780807
 40
0.0477168811
 40
0.0508576022
 40
0.0575130874
 40
0.0610628882
 40
0.0647761711
 40
0.0686632481
 40
0.0727326313
 40
0.0814433149
 40
0.0909521066
 40
0.101284104
 40
0.1124517799
 40
0.124457858
 40
0.1372973566
 40
0.1509588838
 40
0.1654257722
 40
0.1806769584
 40
0.1966874633
 40
0.2134288847
 40
0.23086989
 40
0.2489764402
 40
0.2677120276
 40
0.2870380269
 40
0.3069138479
 40
0.3272970669
 40
0.369407301
 40
0.4130019445
 40
0.4576952834
 40
0.503088762
 40
0.548775807
 40
0.5943464876
 40
0.6393922054
 40
0.6835103489
 40
0.7263090709
 40
0.7470958749
 40
0.7674132466
 40
0.7872173747
 40
0.8064661234
 40
0.8251191506
 40
0.8431380517
 40
0.8604866866
 40
0.8771313793
 40
0.8930411083
 40
0.9081879427
 40
0.9225474446
 40
0.9360990319
 40
0.9488266992
 40
0.9607199577
 40
0.971774642
 40
0.9819945558
 40
0.9913944015
 40
1.0
 40
1.0
 40
1.0
 40
1.0
 10
12.7464460401
 20
6.9323136934
 30
0.0
 10
12.747575122
 20
6.9333644465
 30
0.0
 10
12.7498314221
 20
6.935277082
 30
0.0
 10
12.7533776272
 20
6.9376326415
 30
0.0
 10
12.7563838599
 20
6.939070882
 30
0.0
 10
12.7587637988
 20
6.9398622219
 30
0.0
 10
12.7605103769
 20
6.9402777684
 30
0.0
 10
12.7622489653
 20
6.9405250969
 30
0.0
 10
12.7639782774
 20
6.9406038449
 30
0.0
 10
12.7656968692
 20
6.940513864
 30
0.0
 10
12.7674032739
 20
6.940255113
 30
0.0
 10
12.7690960699
 20
6.9398279611
 30
0.0
 10
12.7707739458
 20
6.9392330066
 30
0.0
 10
12.7724357832
 20
6.9384708007
 30
0.0
 10
12.7746714503
 20
6.9372086583
 30
0.0
 10
12.7768302634
 20
6.9356237409
 30
0.0
 10
12.7789028447
 20
6.9337673591
 30
0.0
 10
12.7804706607
 20
6.9321820805
 30
0.0
 10
12.7820170298
 20
6.9304351055
 30
0.0
 10
12.7840968114
 20
6.9278320574
 30
0.0
 10
12.7866291103
 20
6.9241606696
 30
0.0
 10
12.789502824
 20
6.9192266089
 30
0.0
 10
12.7922716517
 20
6.9136789185
 30
0.0
 10
12.7949295007
 20
6.9075303409
 30
0.0
 10
12.7974704184
 20
6.9007946561
 30
0.0
 10
12.7998884135
 20
6.8934873913
 30
0.0
 10
12.8021777564
 20
6.8856255621
 30
0.0
 10
12.8043329617
 20
6.8772276411
 30
0.0
 10
12.806348797
 20
6.8683134517
 30
0.0
 10
12.8082203821
 20
6.8589041302
 30
0.0
 10
12.8099431991
 20
6.8490220515
 30
0.0
 10
12.8115130478
 20
6.8386907471
 30
0.0
 10
12.8129261081
 20
6.8279348556
 30
0.0
 10
12.8141789756
 20
6.8167800571
 30
0.0
 10
12.8152685895
 20
6.8052530034
 30
0.0
 10
12.8161923198
 20
6.7933812195
 30
0.0
 10
12.8172107189
 20
6.7769519862
 30
0.0
 10
12.8180418491
 20
6.7557649976
 30
0.0
 10
12.8183440771
 20
6.729705726
 30
0.0
 10
12.817957956
 20
6.7029914549
 30
0.0
 10
12.8168869718
 20
6.6758775759
 30
0.0
 10
12.8151411397
 20
6.6486231263
 30
0.0
 10
12.8127371153
 20
6.621488592
 30
0.0
 10
12.8096980184
 20
6.5947332073
 30
0.0
 10
12.8060530529
 20
6.5686127583
 30
0.0
 10
12.8025066331
 20
6.5473809374
 30
0.0
 10
12.799383406
 20
6.5309071853
 30
0.0
 10
12.7969357375
 20
6.5189837571
 30
0.0
 10
12.7943660252
 20
6.5074006496
 30
0.0
 10
12.7916804346
 20
6.4961855279
 30
0.0
 10
12.7888854432
 20
6.4853651924
 30
0.0
 10
12.7859877511
 20
6.4749654892
 30
0.0
 10
12.7829943441
 20
6.465011231
 30
0.0
 10
12.7799124438
 20
6.4555261386
 30
0.0
 10
12.7767494465
 20
6.4465327963
 30
0.0
 10
12.7735129609
 20
6.4380525643
 30
0.0
 10
12.7702107846
 20
6.4301055146
 30
0.0
 10
12.7668508097
 20
6.422710397
 30
0.0
 10
12.7634410377
 20
6.4158845483
 30
0.0
 10
12.7599895212
 20
6.4096438091
 30
0.0
 10
12.7565043304
 20
6.4040025717
 30
0.0
 10
12.7529931111
 20
6.3989733168
 30
0.0
 10
12.7494639035
 20
6.3945678733
 30
0.0
 10
12.7469978985
 20
6.3919403447
 30
0.0
 10
12.745761001
 20
6.3907455934
 30
0.0
  0
SPLINE
  5
3AF
100
AcDbEntity
  8
0
100
AcDbSpline
 62
7
  6
CONTINUOUS
 70
0
 71
3
 72
49
 73
45
 74
0
 42
0.0000001
 43
0.0000001
 44
0.0000000001
 40
0.0
 40
0.0
 40
0.0
 40
0.0
 40
0.0393541041
 40
0.0791166711
 40
0.1191870028
 40
0.1594640471
 40
0.1998456684
 40
0.2402295788
 40
0.2805134054
 40
0.3205951348
 40
0.360373401
 40
0.3997478429
 40
0.4386194349
 40
0.4768908279
 40
0.5144667044
 40
0.5512541184
 40
0.5871628778
 40
0.6221059007
 40
0.6559996352
 40
0.688764461
 40
0.72032517
 40
0.7506114646
 40
0.7795585509
 40
0.8071078215
 40
0.8203422566
 40
0.833208532
 40
0.8457014611
 40
0.8578164454
 40
0.8695495291
 40
0.8808974185
 40
0.8918576233
 40
0.9024284255
 40
0.9126091068
 40
0.9223998939
 40
0.931802272
 40
0.9408189302
 40
0.9494541483
 40
0.9577137932
 40
0.9656057714
 40
0.9731401194
 40
0.9803294996
 40
0.9871894178
 40
0.9937387388
 40
1.0
 40
1.0
 40
1.0
 40
1.0
 10
11.0201878427
 20
11.4494329741
 30
0.0
 10
11.0067299794
 20
11.4503662801
 30
0.0
 10
10.9796606262
 20
11.4520468949
 30
0.0
 10
10.9388502707
 20
11.4540057722
 30
0.0
 10
10.8977005297
 20
11.4554123665
 30
0.0
 10
10.8563233331
 20
11.4562628475
 30
0.0
 10
10.8148309362
 20
11.4565548797
 30
0.0
 10
10.7733360491
 20
11.4562876731
 30
0.0
 10
10.7319513284
 20
11.4554619538
 30
0.0
 10
10.6907891533
 20
11.4540799793
 30
0.0
 10
10.6499612861
 20
11.452145525
 30
0.0
 10
10.6095785797
 20
11.4496638764
 30
0.0
 10
10.5697506695
 20
11.4466418161
 30
0.0
 10
10.5305856743
 20
11.4430876036
 30
0.0
 10
10.492189901
 20
11.4390109568
 30
0.0
 10
10.454667549
 20
11.4344230231
 30
0.0
 10
10.4181204273
 20
11.4293363537
 30
0.0
 10
10.3826476656
 20
11.423764867
 30
0.0
 10
10.3483454465
 20
11.4177238148
 30
0.0
 10
10.3153067178
 20
11.4112297395
 30
0.0
 10
10.2836209659
 20
11.4043004277
 30
0.0
 10
10.2533738314
 20
11.39695487
 30
0.0
 10
10.2246472701
 20
11.3892131656
 30
0.0
 10
10.2017436033
 20
11.3823608561
 30
0.0
 10
10.1842508055
 20
11.3766825447
 30
0.0
 10
10.1717346499
 20
11.3723950927
 30
0.0
 10
10.1596544316
 20
11.3680248413
 30
0.0
 10
10.1480183049
 20
11.3635747129
 30
0.0
 10
10.136834128
 20
11.3590477603
 30
0.0
 10
10.1261094552
 20
11.3544470103
 30
0.0
 10
10.1158514982
 20
11.349775631
 30
0.0
 10
10.1060671776
 20
11.3450367051
 30
0.0
 10
10.0967630369
 20
11.3402335069
 30
0.0
 10
10.0879453439
 20
11.3353691577
 30
0.0
 10
10.0796199503
 20
11.3304470078
 30
0.0
 10
10.0717924539
 20
11.3254701992
 30
0.0
 10
10.0644680034
 20
11.3204421152
 30
0.0
 10
10.05765152
 20
11.3153658944
 30
0.0
 10
10.0513474597
 20
11.3102448939
 30
0.0
 10
10.0455600745
 20
11.3050822071
 30
0.0
 10
10.0402932006
 20
11.2998811282
 30
0.0
 10
10.0355504206
 20
11.2946445735
 30
0.0
 10
10.0313353065
 20
11.2893760926
 30
0.0
 10
10.0288255582
 20
11.2857673628
 30
0.0
 10
10.0276668942
 20
11.2839606843
 30
0.0
  0
SPLINE
  5
3B0
100
AcDbEntity
  8
0
100
AcDbSpline
 62
7
  6
CONTINUOUS
 70
0
 71
3
 72
39
 73
35
 74
0
 42
0.0000001
 43
0.0000001
 44
0.0000000001
 40
0.0
 40
0.0
 40
0.0
 40
0.0
 40
0.0311159848
 40
0.0620233135
 40
0.092735143
 40
0.1232711778
 40
0.1536587319
 40
0.1839312112
 40
0.2141268392
 40
0.2442870988
 40
0.2744549756
 40
0.3046731305
 40
0.33498209
 40
0.3654185441
 40
0.3960138631
 40
0.4267928826
 40
0.4577729973
 40
0.4889636195
 40
0.5203659692
 40
0.5519731791
 40
0.5837707176
 40
0.6157370638
 40
0.647844591
 40
0.6800606401
 40
0.7123487307
 40
0.7446698624
 40
0.7769838846
 40
0.8092508934
 40
0.8414326242
 40
0.8734938002
 40
0.9054034094
 40
0.9371359163
 40
0.9686717816
 40
1.0
 40
1.0
 40
1.0
 40
1.0
 10
9.1168514146
 20
9.1826981674
 30
0.0
 10
9.1168514146
 20
9.1899408704
 30
0.0
 10
9.1175584946
 20
9.2043881873
 30
0.0
 10
9.1207562815
 20
9.2257703189
 30
0.0
 10
9.1260574691
 20
9.2465938942
 30
0.0
 10
9.1334119535
 20
9.2666551807
 30
0.0
 10
9.142749326
 20
9.2857608646
 30
0.0
 10
9.1539799151
 20
9.3037258671
 30
0.0
 10
9.1669955864
 20
9.3203762099
 30
0.0
 10
9.1816706157
 20
9.3355506058
 30
0.0
 10
9.1978629971
 20
9.3491022003
 30
0.0
 10
9.2154159796
 20
9.3608999256
 30
0.0
 10
9.2341595559
 20
9.3708299306
 30
0.0
 10
9.253912214
 20
9.378796755
 30
0.0
 10
9.27448288
 20
9.3847240419
 30
0.0
 10
9.2956727717
 20
9.3885552907
 30
0.0
 10
9.3172773609
 20
9.3902544697
 30
0.0
 10
9.3390884166
 20
9.3898060589
 30
0.0
 10
9.3608959592
 20
9.3872151477
 30
0.0
 10
9.3824902817
 20
9.3825075164
 30
0.0
 10
9.4036639236
 20
9.3757291285
 30
0.0
 10
9.4242135716
 20
9.3669456361
 30
0.0
 10
9.4439420382
 20
9.3562419276
 30
0.0
 10
9.4626600781
 20
9.3437211646
 30
0.0
 10
9.4801880936
 20
9.3295037331
 30
0.0
 10
9.4963579231
 20
9.3137262593
 30
0.0
 10
9.5110144146
 20
9.2965402608
 30
0.0
 10
9.5240167742
 20
9.2781106189
 30
0.0
 10
9.535239994
 20
9.2586141579
 30
0.0
 10
9.5445760941
 20
9.2382378973
 30
0.0
 10
9.5519350017
 20
9.2171775248
 30
0.0
 10
9.5572453884
 20
9.1956344946
 30
0.0
 10
9.5604558169
 20
9.1738184303
 30
0.0
 10
9.561177321
 20
9.1591761646
 30
0.0
 10
9.561177321
 20
9.1518840611
 30
0.0
  0
SPLINE
  5
3B1
100
AcDbEntity
  8
0
100
AcDbSpline
 62
7
  6
CONTINUOUS
 70
0
 71
3
 72
39
 73
35
 74
0
 42
0.0000001
 43
0.0000001
 44
0.0000000001
 40
0.0
 40
0.0
 40
0.0
 40
0.0
 40
0.0311450469
 40
0.0624431113
 40
0.09388834
 40
0.1254709884
 40
0.1571788814
 40
0.1889972579
 40
0.2209091718
 40
0.2528958393
 40
0.2849370182
 40
0.3170114084
 40
0.349097068
 40
0.3811718384
 40
0.4132137706
 40
0.4452015496
 40
0.4771149115
 40
0.5089350441
 40
0.5406449673
 40
0.5722298867
 40
0.6036775163
 40
0.6349783575
 40
0.6661259304
 40
0.6971169519
 40
0.7279514552
 40
0.7586328387
 40
0.7891678413
 40
0.8195664421
 40
0.8498416837
 40
0.8800094162
 40
0.9100879631
 40
0.9400977203
 40
0.9700606956
 40
1.0
 40
1.0
 40
1.0
 40
1.0
 10
10.4256809867
 20
5.8164758259
 30
0.0
 10
10.4109391002
 20
5.8174981793
 30
0.0
 10
10.3814467612
 20
5.8206269522
 30
0.0
 10
10.3375658098
 20
5.8285084468
 30
0.0
 10
10.2941548668
 20
5.839548008
 30
0.0
 10
10.2514483645
 20
5.8536863199
 30
0.0
 10
10.2096732157
 20
5.870847622
 30
0.0
 10
10.1690522554
 20
5.8909400995
 30
0.0
 10
10.1298018654
 20
5.9138563574
 30
0.0
 10
10.0921311929
 20
5.9394740402
 30
0.0
 10
10.0562409635
 20
5.9676564784
 30
0.0
 10
10.0223224224
 20
5.9982533669
 30
0.0
 10
9.9905562986
 20
6.0311015519
 30
0.0
 10
9.9611119034
 20
6.0660259501
 30
0.0
 10
9.9341462338
 20
6.1028404583
 30
0.0
 10
9.9098031393
 20
6.1413489243
 30
0.0
 10
9.8882124914
 20
6.1813461416
 30
0.0
 10
9.8694895744
 20
6.2226189876
 30
0.0
 10
9.8537344657
 20
6.2649475317
 30
0.0
 10
9.8410315184
 20
6.3081061913
 30
0.0
 10
9.8314488137
 20
6.35186489
 30
0.0
 10
9.8250378585
 20
6.3959902975
 30
0.0
 10
9.8218333162
 20
6.4402470545
 30
0.0
 10
9.8218528188
 20
6.4843990058
 30
0.0
 10
9.82509678
 20
6.5282104425
 30
0.0
 10
9.831548379
 20
6.571447364
 30
0.0
 10
9.8411736829
 20
6.613878715
 30
0.0
 10
9.853921797
 20
6.6552776176
 30
0.0
 10
9.8697250563
 20
6.6954225753
 30
0.0
 10
9.8884993831
 20
6.7340987788
 30
0.0
 10
9.910144518
 20
6.771098969
 30
0.0
 10
9.9345455886
 20
6.8062256074
 30
0.0
 10
9.9615697468
 20
6.8392881118
 30
0.0
 10
9.9812469038
 20
6.859844278
 30
0.0
 10
9.9914640617
 20
6.869713303
 30
0.0
  0
SPLINE
  5
3B2
100
AcDbEntity
  8
0
100
AcDbSpline
 62
7
  6
CONTINUOUS
 70
0
 71
3
 72
15
 73
11
 74
0
 42
0.0000001
 43
0.0000001
 44
0.0000000001
 40
0.0
 40
0.0
 40
0.0
 40
0.0
 40
0.1273483316
 40
0.2538605887
 40
0.3795878789
 40
0.5046051138
 40
0.6290174418
 40
0.7529533759
 40
0.8765605771
 40
1.0
 40
1.0
 40
1.0
 40
1.0
 10
9.1511442666
 20
10.2445453047
 30
0.0
 10
9.1511442666
 20
10.2507665032
 30
0.0
 10
9.1517382667
 20
10.2631766573
 30
0.0
 10
9.1544245701
 20
10.2815532003
 30
0.0
 10
9.1588789114
 20
10.2994680085
 30
0.0
 10
9.1650610486
 20
10.3167535467
 30
0.0
 10
9.1729142808
 20
10.3332503995
 30
0.0
 10
9.1823670265
 20
10.3488062229
 30
0.0
 10
9.1933303636
 20
10.3632752957
 30
0.0
 10
9.2015852249
 20
10.3721138027
 30
0.0
 10
9.205922486
 20
10.3763033104
 30
0.0
  0
SPLINE
  5
3B3
100
AcDbEntity
  8
0
100
AcDbSpline
 62
7
  6
CONTINUOUS
 70
0
 71
3
 72
15
 73
11
 74
0
 42
0.0000001
 43
0.0000001
 44
0.0000000001
 40
0.0
 40
0.0
 40
0.0
 40
0.0
 40
0.1273483316
 40
0.2538605887
 40
0.3795878789
 40
0.5046051138
 40
0.6290174418
 40
0.7529533759
 40
0.8765605771
 40
1.0
 40
1.0
 40
1.0
 40
1.0
 10
11.3244775045
 20
10.0938241328
 30
0.0
 10
11.3244775045
 20
10.1000453312
 30
0.0
 10
11.3250715046
 20
10.1124554853
 30
0.0
 10
11.327757808
 20
10.1308320284
 30
0.0
 10
11.3322121493
 20
10.1487468365
 30
0.0
 10
11.3383942865
 20
10.1660323747
 30
0.0
 10
11.3462475188
 20
10.1825292275
 30
0.0
 10
11.3557002644
 20
10.198085051
 30
0.0
 10
11.3666636015
 20
10.2125541237
 30
0.0
 10
11.3749184629
 20
10.2213926308
 30
0.0
 10
11.379255724
 20
10.2255821384
 30
0.0
  0
SPLINE
  5
3B4
100
AcDbEntity
  8
0
100
AcDbSpline
 62
7
  6
CONTINUOUS
 70
0
 71
3
 72
39
 73
35
 74
0
 42
0.0000001
 43
0.0000001
 44
0.0000000001
 40
0.0
 40
0.0
 40
0.0
 40
0.0
 40
0.0311159848
 40
0.0620233135
 40
0.092735143
 40
0.1232711778
 40
0.1536587319
 40
0.1839312112
 40
0.2141268392
 40
0.2442870988
 40
0.2744549756
 40
0.3046731305
 40
0.33498209
 40
0.3654185441
 40
0.3960138631
 40
0.4267928826
 40
0.4577729973
 40
0.4889636195
 40
0.5203659692
 40
0.5519731791
 40
0.5837707176
 40
0.6157370638
 40
0.647844591
 40
0.6800606401
 40
0.7123487307
 40
0.7446698624
 40
0.7769838846
 40
0.8092508934
 40
0.8414326242
 40
0.8734938002
 40
0.9054034094
 40
0.9371359163
 40
0.9686717816
 40
1.0
 40
1.0
 40
1.0
 40
1.0
 10
9.561177321
 20
9.1518840611
 30
0.0
 10
9.561177321
 20
9.1446413581
 30
0.0
 10
9.5604702409
 20
9.1301940413
 30
0.0
 10
9.5572724541
 20
9.1088119096
 30
0.0
 10
9.5519712664
 20
9.0879883344
 30
0.0
 10
9.5446167821
 20
9.0679270479
 30
0.0
 10
9.5352794096
 20
9.048821364
 30
0.0
 10
9.5240488204
 20
9.0308563614
 30
0.0
 10
9.5110331491
 20
9.0142060186
 30
0.0
 10
9.4963581199
 20
8.9990316227
 30
0.0
 10
9.4801657384
 20
8.9854800283
 30
0.0
 10
9.462612756
 20
8.973682303
 30
0.0
 10
9.4438691797
 20
8.963752298
 30
0.0
 10
9.4241165216
 20
8.9557854735
 30
0.0
 10
9.4035458555
 20
8.9498581867
 30
0.0
 10
9.3823559638
 20
8.9460269378
 30
0.0
 10
9.3607513746
 20
8.9443277589
 30
0.0
 10
9.338940319
 20
8.9447761697
 30
0.0
 10
9.3171327764
 20
8.9473670808
 30
0.0
 10
9.2955384538
 20
8.9520747121
 30
0.0
 10
9.2743648119
 20
8.9588531
 30
0.0
 10
9.2538151639
 20
8.9676365925
 30
0.0
 10
9.2340866973
 20
8.9783403009
 30
0.0
 10
9.2153686575
 20
8.9908610639
 30
0.0
 10
9.1978406419
 20
9.0050784954
 30
0.0
 10
9.1816708124
 20
9.0208559692
 30
0.0
 10
9.1670143209
 20
9.0380419678
 30
0.0
 10
9.1540119613
 20
9.0564716097
 30
0.0
 10
9.1427887415
 20
9.0759680707
 30
0.0
 10
9.1334526415
 20
9.0963443313
 30
0.0
 10
9.1260937338
 20
9.1174047038
 30
0.0
 10
9.1207833471
 20
9.1389477339
 30
0.0
 10
9.1175729187
 20
9.1607637982
 30
0.0
 10
9.1168514146
 20
9.1754060639
 30
0.0
 10
9.1168514146
 20
9.1826981674
 30
0.0
  0
SPLINE
  5
3B5
100
AcDbEntity
  8
0
100
AcDbSpline
 62
7
  6
CONTINUOUS
 70
0
 71
3
 72
15
 73
11
 74
0
 42
0.0000001
 43
0.0000001
 44
0.0000000001
 40
0.0
 40
0.0
 40
0.0
 40
0.0
 40
0.1273483316
 40
0.2538605887
 40
0.3795878789
 40
0.5046051138
 40
0.6290174418
 40
0.7529533759
 40
0.8765605771
 40
1.0
 40
1.0
 40
1.0
 40
1.0
 10
9.1511442666
 20
9.1878225208
 30
0.0
 10
9.1511442666
 20
9.1940437193
 30
0.0
 10
9.1517382667
 20
9.2064538734
 30
0.0
 10
9.1544245701
 20
9.2248304164
 30
0.0
 10
9.1588789114
 20
9.2427452245
 30
0.0
 10
9.1650610486
 20
9.2600307628
 30
0.0
 10
9.1729142808
 20
9.2765276155
 30
0.0
 10
9.1823670265
 20
9.292083439
 30
0.0
 10
9.1933303636
 20
9.3065525118
 30
0.0
 10
9.2015852249
 20
9.3153910188
 30
0.0
 10
9.205922486
 20
9.3195805265
 30
0.0
  0
SPLINE
  5
3B6
100
AcDbEntity
  8
0
100
AcDbSpline
 62
7
  6
CONTINUOUS
 70
0
 71
3
 72
39
 73
35
 74
0
 42
0.0000001
 43
0.0000001
 44
0.0000000001
 40
0.0
 40
0.0
 40
0.0
 40
0.0
 40
0.0311159848
 40
0.0620233135
 40
0.092735143
 40
0.1232711778
 40
0.1536587319
 40
0.1839312112
 40
0.2141268392
 40
0.2442870988
 40
0.2744549756
 40
0.3046731305
 40
0.33498209
 40
0.3654185441
 40
0.3960138631
 40
0.4267928826
 40
0.4577729973
 40
0.4889636195
 40
0.5203659692
 40
0.5519731791
 40
0.5837707176
 40
0.6157370638
 40
0.647844591
 40
0.6800606401
 40
0.7123487307
 40
0.7446698624
 40
0.7769838846
 40
0.8092508934
 40
0.8414326242
 40
0.8734938002
 40
0.9054034094
 40
0.9371359163
 40
0.9686717816
 40
1.0
 40
1.0
 40
1.0
 40
1.0
 10
11.2901846525
 20
9.0319769954
 30
0.0
 10
11.2901846525
 20
9.0392196985
 30
0.0
 10
11.2908917325
 20
9.0536670153
 30
0.0
 10
11.2940895194
 20
9.0750491469
 30
0.0
 10
11.299390707
 20
9.0958727222
 30
0.0
 10
11.3067451914
 20
9.1159340087
 30
0.0
 10
11.3160825639
 20
9.1350396926
 30
0.0
 10
11.3273131531
 20
9.1530046952
 30
0.0
 10
11.3403288243
 20
9.1696550379
 30
0.0
 10
11.3550038536
 20
9.1848294339
 30
0.0
 10
11.371196235
 20
9.1983810283
 30
0.0
 10
11.3887492175
 20
9.2101787536
 30
0.0
 10
11.4074927938
 20
9.2201087586
 30
0.0
 10
11.4272454519
 20
9.228075583
 30
0.0
 10
11.4478161179
 20
9.2340028699
 30
0.0
 10
11.4690060097
 20
9.2378341187
 30
0.0
 10
11.4906105988
 20
9.2395332977
 30
0.0
 10
11.5124216545
 20
9.2390848869
 30
0.0
 10
11.5342291971
 20
9.2364939757
 30
0.0
 10
11.5558235197
 20
9.2317863445
 30
0.0
 10
11.5769971616
 20
9.2250079565
 30
0.0
 10
11.5975468096
 20
9.2162244641
 30
0.0
 10
11.6172752761
 20
9.2055207557
 30
0.0
 10
11.635993316
 20
9.1929999927
 30
0.0
 10
11.6535213316
 20
9.1787825612
 30
0.0
 10
11.669691161
 20
9.1630050874
 30
0.0
 10
11.6843476526
 20
9.1458190888
 30
0.0
 10
11.6973500121
 20
9.1273894469
 30
0.0
 10
11.7085732319
 20
9.1078929859
 30
0.0
 10
11.717909332
 20
9.0875167253
 30
0.0
 10
11.7252682396
 20
9.0664563528
 30
0.0
 10
11.7305786264
 20
9.0449133227
 30
0.0
 10
11.7337890548
 20
9.0230972584
 30
0.0
 10
11.7345105589
 20
9.0084549927
 30
0.0
 10
11.7345105589
 20
9.0011628892
 30
0.0
  0
SPLINE
  5
3B7
100
AcDbEntity
  8
0
100
AcDbSpline
 62
7
  6
CONTINUOUS
 70
0
 71
3
 72
15
 73
11
 74
0
 42
0.0000001
 43
0.0000001
 44
0.0000000001
 40
0.0
 40
0.0
 40
0.0
 40
0.0
 40
0.1273483316
 40
0.2538605887
 40
0.3795878789
 40
0.5046051138
 40
0.6290174418
 40
0.7529533759
 40
0.8765605771
 40
1.0
 40
1.0
 40
1.0
 40
1.0
 10
11.3244775045
 20
9.0371013488
 30
0.0
 10
11.3244775045
 20
9.0433225473
 30
0.0
 10
11.3250715046
 20
9.0557327014
 30
0.0
 10
11.327757808
 20
9.0741092444
 30
0.0
 10
11.3322121493
 20
9.0920240526
 30
0.0
 10
11.3383942865
 20
9.1093095908
 30
0.0
 10
11.3462475188
 20
9.1258064436
 30
0.0
 10
11.3557002644
 20
9.141362267
 30
0.0
 10
11.3666636015
 20
9.1558313398
 30
0.0
 10
11.3749184629
 20
9.1646698468
 30
0.0
 10
11.379255724
 20
9.1688593545
 30
0.0
  0
SPLINE
  5
3B8
100
AcDbEntity
  8
0
100
AcDbSpline
 62
7
  6
CONTINUOUS
 70
0
 71
3
 72
15
 73
11
 74
0
 42
0.0000001
 43
0.0000001
 44
0.0000000001
 40
0.0
 40
0.0
 40
0.0
 40
0.0
 40
0.1273482888
 40
0.2538606703
 40
0.3795878487
 40
0.5046051206
 40
0.6290174369
 40
0.7529533749
 40
0.8765605786
 40
1.0
 40
1.0
 40
1.0
 40
1.0
 10
8.9393477018
 20
7.1351612214
 30
0.0
 10
8.9393477018
 20
7.142367954
 30
0.0
 10
8.940035807
 20
7.1567440774
 30
0.0
 10
8.9431476495
 20
7.1780317564
 30
0.0
 10
8.9483076243
 20
7.1987845588
 30
0.0
 10
8.9554691197
 20
7.218808393
 30
0.0
 10
8.9645664533
 20
7.2379185973
 30
0.0
 10
8.975516634
 20
7.2559387278
 30
0.0
 10
8.9882167338
 20
7.2726999316
 30
0.0
 10
8.9977792708
 20
7.2829386278
 30
0.0
 10
9.0028036596
 20
7.2877917819
 30
0.0
  0
SPLINE
  5
3B9
100
AcDbEntity
  8
0
100
AcDbSpline
 62
7
  6
CONTINUOUS
 70
0
 71
3
 72
15
 73
11
 74
0
 42
0.0000001
 43
0.0000001
 44
0.0000000001
 40
0.0
 40
0.0
 40
0.0
 40
0.0
 40
0.1273482888
 40
0.2538606703
 40
0.3795878487
 40
0.5046051206
 40
0.6290174369
 40
0.7529533749
 40
0.8765605786
 40
1.0
 40
1.0
 40
1.0
 40
1.0
 10
11.4739372326
 20
6.9593868405
 30
0.0
 10
11.4739372326
 20
6.966593573
 30
0.0
 10
11.4746253378
 20
6.9809696965
 30
0.0
 10
11.4777371803
 20
7.0022573754
 30
0.0
 10
11.4828971551
 20
7.0230101778
 30
0.0
 10
11.4900586505
 20
7.043034012
 30
0.0
 10
11.4991559841
 20
7.0621442163
 30
0.0
 10
11.5101061648
 20
7.0801643468
 30
0.0
 10
11.5228062646
 20
7.0969255507
 30
0.0
 10
11.5323688016
 20
7.1071642469
 30
0.0
 10
11.5373931904
 20
7.1120174009
 30
0.0
  0
SPLINE
  5
3BA
100
AcDbEntity
  8
0
100
AcDbSpline
 62
7
  6
CONTINUOUS
 70
0
 71
3
 72
39
 73
35
 74
0
 42
0.0000001
 43
0.0000001
 44
0.0000000001
 40
0.0
 40
0.0
 40
0.0
 40
0.0
 40
0.0311159848
 40
0.0620233135
 40
0.092735143
 40
0.1232711778
 40
0.1536587319
 40
0.1839312112
 40
0.2141268392
 40
0.2442870988
 40
0.2744549756
 40
0.3046731305
 40
0.33498209
 40
0.3654185441
 40
0.3960138631
 40
0.4267928826
 40
0.4577729973
 40
0.4889636195
 40
0.5203659692
 40
0.5519731791
 40
0.5837707176
 40
0.6157370638
 40
0.647844591
 40
0.6800606401
 40
0.7123487307
 40
0.7446698624
 40
0.7769838846
 40
0.8092508934
 40
0.8414326242
 40
0.8734938002
 40
0.9054034094
 40
0.9371359163
 40
0.9686717816
 40
1.0
 40
1.0
 40
1.0
 40
1.0
 10
11.7345105589
 20
9.0011628892
 30
0.0
 10
11.7345105589
 20
8.9939201862
 30
0.0
 10
11.7338034788
 20
8.9794728693
 30
0.0
 10
11.730605692
 20
8.9580907377
 30
0.0
 10
11.7253045044
 20
8.9372671624
 30
0.0
 10
11.71795002
 20
8.9172058759
 30
0.0
 10
11.7086126475
 20
8.898100192
 30
0.0
 10
11.6973820583
 20
8.8801351894
 30
0.0
 10
11.684366387
 20
8.8634848467
 30
0.0
 10
11.6696913578
 20
8.8483104508
 30
0.0
 10
11.6534989764
 20
8.8347588563
 30
0.0
 10
11.6359459939
 20
8.822961131
 30
0.0
 10
11.6172024176
 20
8.813031126
 30
0.0
 10
11.5974497595
 20
8.8050643016
 30
0.0
 10
11.5768790935
 20
8.7991370147
 30
0.0
 10
11.5556892017
 20
8.7953057659
 30
0.0
 10
11.5340846126
 20
8.7936065869
 30
0.0
 10
11.5122735569
 20
8.7940549977
 30
0.0
 10
11.4904660143
 20
8.7966459089
 30
0.0
 10
11.4688716917
 20
8.8013535401
 30
0.0
 10
11.4476980498
 20
8.8081319281
 30
0.0
 10
11.4271484018
 20
8.8169154205
 30
0.0
 10
11.4074199353
 20
8.827619129
 30
0.0
 10
11.3887018954
 20
8.8401398919
 30
0.0
 10
11.3711738798
 20
8.8543573235
 30
0.0
 10
11.3550040504
 20
8.8701347972
 30
0.0
 10
11.3403475588
 20
8.8873207958
 30
0.0
 10
11.3273451993
 20
8.9057504377
 30
0.0
 10
11.3161219794
 20
8.9252468987
 30
0.0
 10
11.3067858794
 20
8.9456231593
 30
0.0
 10
11.2994269718
 20
8.9666835318
 30
0.0
 10
11.294116585
 20
8.9882265619
 30
0.0
 10
11.2909061566
 20
9.0100426263
 30
0.0
 10
11.2901846525
 20
9.0246848919
 30
0.0
 10
11.2901846525
 20
9.0319769954
 30
0.0
  0
SPLINE
  5
3BB
100
AcDbEntity
  8
0
100
AcDbSpline
 62
7
  6
CONTINUOUS
 70
0
 71
3
 72
15
 73
11
 74
0
 42
0.0000001
 43
0.0000001
 44
0.0000000001
 40
0.0
 40
0.0
 40
0.0
 40
0.0
 40
0.1273482888
 40
0.2538606703
 40
0.3795878487
 40
0.5046051206
 40
0.6290174369
 40
0.7529533749
 40
0.8765605786
 40
1.0
 40
1.0
 40
1.0
 40
1.0
 10
8.9393477018
 20
5.9277539246
 30
0.0
 10
8.9393477018
 20
5.9349606572
 30
0.0
 10
8.940035807
 20
5.9493367806
 30
0.0
 10
8.9431476495
 20
5.9706244595
 30
0.0
 10
8.9483076243
 20
5.9913772619
 30
0.0
 10
8.9554691197
 20
6.0114010961
 30
0.0
 10
8.9645664533
 20
6.0305113004
 30
0.0
 10
8.975516634
 20
6.048531431
 30
0.0
 10
8.9882167338
 20
6.0652926348
 30
0.0
 10
8.9977792708
 20
6.075531331
 30
0.0
 10
9.0028036596
 20
6.080384485
 30
0.0
  0
SPLINE
  5
3BC
100
AcDbEntity
  8
0
100
AcDbSpline
 62
7
  6
CONTINUOUS
 70
0
 71
3
 72
15
 73
11
 74
0
 42
0.0000001
 43
0.0000001
 44
0.0000000001
 40
0.0
 40
0.0
 40
0.0
 40
0.0
 40
0.1273482888
 40
0.2538606703
 40
0.3795878487
 40
0.5046051206
 40
0.6290174369
 40
0.7529533749
 40
0.8765605786
 40
1.0
 40
1.0
 40
1.0
 40
1.0
 10
11.4739372326
 20
5.7519795436
 30
0.0
 10
11.4739372326
 20
5.7591862762
 30
0.0
 10
11.4746253378
 20
5.7735623996
 30
0.0
 10
11.4777371803
 20
5.7948500786
 30
0.0
 10
11.4828971551
 20
5.815602881
 30
0.0
 10
11.4900586505
 20
5.8356267152
 30
0.0
 10
11.4991559841
 20
5.8547369195
 30
0.0
 10
11.5101061648
 20
5.87275705
 30
0.0
 10
11.5228062646
 20
5.8895182538
 30
0.0
 10
11.5323688016
 20
5.89975695
 30
0.0
 10
11.5373931904
 20
5.9046101041
 30
0.0
  0
SPLINE
  5
3BD
100
AcDbEntity
  8
0
100
AcDbSpline
 62
7
  6
CONTINUOUS
 70
0
 71
3
 72
41
 73
37
 74
0
 42
0.0000001
 43
0.0000001
 44
0.0000000001
 40
0.0
 40
0.0
 40
0.0
 40
0.0
 40
0.0299421216
 40
0.0449237656
 40
0.0599145167
 40
0.0899291718
 40
0.1200145985
 40
0.1350933583
 40
0.15019748
 40
0.1804849767
 40
0.2108989647
 40
0.2414525835
 40
0.2721557485
 40
0.3030149705
 40
0.3340332607
 40
0.3652101168
 40
0.3965415874
 40
0.4280204071
 40
0.4596361972
 40
0.491375723
 40
0.5232232003
 40
0.5551606452
 40
0.5871682559
 40
0.6192248239
 40
0.651308164
 40
0.683395559
 40
0.7154642111
 40
0.7474916947
 40
0.7794564051
 40
0.8113379906
 40
0.8431177849
 40
0.8747791545
 40
0.9063080011
 40
0.9376926887
 40
0.9689252949
 40
1.0
 40
1.0
 40
1.0
 40
1.0
 10
9.4866001041
 20
10.0857244753
 30
0.0
 10
9.4832490049
 20
10.0824875349
 30
0.0
 10
9.4780247998
 20
10.0778282889
 30
0.0
 10
9.4707084517
 20
10.0720471306
 30
0.0
 10
9.463159072
 20
10.0665537003
 30
0.0
 10
9.4533084068
 20
10.0602454043
 30
0.0
 10
9.4429787563
 20
10.0547275243
 30
0.0
 10
9.4344595181
 20
10.0508019891
 30
0.0
 10
9.4257642282
 20
10.0472006547
 30
0.0
 10
9.4146086189
 20
10.0433280748
 30
0.0
 10
9.4008609913
 20
10.0397189598
 30
0.0
 10
9.3868133892
 20
10.0371621486
 30
0.0
 10
9.372543654
 20
10.0356717669
 30
0.0
 10
9.3581301749
 20
10.0352557635
 30
0.0
 10
9.3436522586
 20
10.0359162575
 30
0.0
 10
9.3291894795
 20
10.0376494338
 30
0.0
 10
9.3148213046
 20
10.0404455994
 30
0.0
 10
9.3006266465
 20
10.0442892366
 30
0.0
 10
9.2866834399
 20
10.0491590945
 30
0.0
 10
9.2730682178
 20
10.055028308
 30
0.0
 10
9.2598556984
 20
10.0618645485
 30
0.0
 10
9.2471183805
 20
10.0696302019
 30
0.0
 10
9.234926151
 20
10.0782825756
 30
0.0
 10
9.2233459061
 20
10.0877741311
 30
0.0
 10
9.2124411891
 20
10.0980527434
 30
0.0
 10
9.2022718454
 20
10.1090619846
 30
0.0
 10
9.1928936975
 20
10.120741431
 30
0.0
 10
9.1843582415
 20
10.1330269908
 30
0.0
 10
9.1767123684
 20
10.1458512522
 30
0.0
 10
9.1699981031
 20
10.1591438503
 30
0.0
 10
9.164252391
 20
10.1728318403
 30
0.0
 10
9.1595068547
 20
10.1868401289
 30
0.0
 10
9.1557877113
 20
10.2010917366
 30
0.0
 10
9.1531154484
 20
10.2155087432
 30
0.0
 10
9.1515049964
 20
10.2300108676
 30
0.0
 10
9.1511442666
 20
10.2397099222
 30
0.0
 10
9.1511442666
 20
10.2445453047
 30
0.0
  0
SPLINE
  5
3BE
100
AcDbEntity
  8
0
100
AcDbSpline
 62
7
  6
CONTINUOUS
 70
0
 71
3
 72
39
 73
35
 74
0
 42
0.0000001
 43
0.0000001
 44
0.0000000001
 40
0.0
 40
0.0
 40
0.0
 40
0.0
 40
0.0311159723
 40
0.0620233248
 40
0.0927351404
 40
0.1232711776
 40
0.1536587326
 40
0.1839312111
 40
0.2141268393
 40
0.2442870992
 40
0.2744549754
 40
0.3046731314
 40
0.3349820899
 40
0.3654185435
 40
0.3960138648
 40
0.4267928822
 40
0.4577729963
 40
0.4889636214
 40
0.5203659689
 40
0.551973178
 40
0.5837707188
 40
0.6157370639
 40
0.6478445901
 40
0.6800606405
 40
0.7123487311
 40
0.7446698622
 40
0.7769838843
 40
0.8092508939
 40
0.8414326243
 40
0.8734937998
 40
0.9054034123
 40
0.9371359058
 40
0.9686717941
 40
1.0
 40
1.0
 40
1.0
 40
1.0
 10
8.9062795945
 20
7.1302198807
 30
0.0
 10
8.9062795945
 20
7.1384387708
 30
0.0
 10
8.9070819811
 20
7.1548333372
 30
0.0
 10
8.9107107593
 20
7.1790974099
 30
0.0
 10
8.9167264654
 20
7.2027276427
 30
0.0
 10
8.9250722158
 20
7.2254928343
 30
0.0
 10
8.9356680824
 20
7.2471736431
 30
0.0
 10
8.9484123662
 20
7.2675600138
 30
0.0
 10
8.9631823447
 20
7.2864545148
 30
0.0
 10
8.9798352838
 20
7.3036741822
 30
0.0
 10
8.9982101233
 20
7.3190522929
 30
0.0
 10
9.0181289641
 20
7.3324401109
 30
0.0
 10
9.0393988235
 20
7.3437085521
 30
0.0
 10
9.0618138017
 20
7.3527491628
 30
0.0
 10
9.0851570482
 20
7.3594752945
 30
0.0
 10
9.109202957
 20
7.363822985
 30
0.0
 10
9.1337194731
 20
7.3657511819
 30
0.0
 10
9.1584702768
 20
7.3652422765
 30
0.0
 10
9.1832171018
 20
7.3623022123
 30
0.0
 10
9.2077219671
 20
7.3569600743
 30
0.0
 10
9.2317494297
 20
7.3492680259
 30
0.0
 10
9.2550688311
 20
7.3393007181
 30
0.0
 10
9.2774563562
 20
7.3271543379
 30
0.0
 10
9.2986972351
 20
7.3129459549
 30
0.0
 10
9.3185877458
 20
7.2968122919
 30
0.0
 10
9.3369369929
 20
7.2789082918
 30
0.0
 10
9.3535688963
 20
7.2594058962
 30
0.0
 10
9.3683237684
 20
7.2384922748
 30
0.0
 10
9.3810596893
 20
7.2163680317
 30
0.0
 10
9.3916541129
 20
7.1932453957
 30
0.0
 10
9.4000048821
 20
7.1693464581
 30
0.0
 10
9.4060310271
 20
7.1448998004
 30
0.0
 10
9.4096741511
 20
7.1201433085
 30
0.0
 10
9.4104929057
 20
7.1035275178
 30
0.0
 10
9.4104929057
 20
7.0952525688
 30
0.0
  0
SPLINE
  5
3BF
100
AcDbEntity
  8
0
100
AcDbSpline
 62
7
  6
CONTINUOUS
 70
0
 71
3
 72
41
 73
37
 74
0
 42
0.0000001
 43
0.0000001
 44
0.0000000001
 40
0.0
 40
0.0
 40
0.0
 40
0.0
 40
0.0299421216
 40
0.0449237656
 40
0.0599145167
 40
0.0899291718
 40
0.1200145985
 40
0.1350933583
 40
0.15019748
 40
0.1804849767
 40
0.2108989647
 40
0.2414525835
 40
0.2721557485
 40
0.3030149705
 40
0.3340332607
 40
0.3652101168
 40
0.3965415874
 40
0.4280204071
 40
0.4596361972
 40
0.491375723
 40
0.5232232003
 40
0.5551606452
 40
0.5871682559
 40
0.6192248239
 40
0.651308164
 40
0.683395559
 40
0.7154642111
 40
0.7474916947
 40
0.7794564051
 40
0.8113379906
 40
0.8431177849
 40
0.8747791545
 40
0.9063080011
 40
0.9376926887
 40
0.9689252949
 40
1.0
 40
1.0
 40
1.0
 40
1.0
 10
11.659933342
 20
9.9350033033
 30
0.0
 10
11.6565822428
 20
9.9317663629
 30
0.0
 10
11.6513580377
 20
9.927107117
 30
0.0
 10
11.6440416896
 20
9.9213259587
 30
0.0
 10
11.63649231
 20
9.9158325283
 30
0.0
 10
11.6266416447
 20
9.9095242324
 30
0.0
 10
11.6163119942
 20
9.9040063524
 30
0.0
 10
11.607792756
 20
9.9000808172
 30
0.0
 10
11.5990974661
 20
9.8964794827
 30
0.0
 10
11.5879418568
 20
9.8926069029
 30
0.0
 10
11.5741942292
 20
9.8889977878
 30
0.0
 10
11.5601466271
 20
9.8864409766
 30
0.0
 10
11.545876892
 20
9.8849505949
 30
0.0
 10
11.5314634129
 20
9.8845345915
 30
0.0
 10
11.5169854965
 20
9.8851950856
 30
0.0
 10
11.5025227174
 20
9.8869282618
 30
0.0
 10
11.4881545426
 20
9.8897244274
 30
0.0
 10
11.4739598845
 20
9.8935680646
 30
0.0
 10
11.4600166778
 20
9.8984379225
 30
0.0
 10
11.4464014557
 20
9.9043071361
 30
0.0
 10
11.4331889363
 20
9.9111433765
 30
0.0
 10
11.4204516185
 20
9.91890903
 30
0.0
 10
11.4082593889
 20
9.9275614037
 30
0.0
 10
11.396679144
 20
9.9370529591
 30
0.0
 10
11.3857744271
 20
9.9473315714
 30
0.0
 10
11.3756050833
 20
9.9583408126
 30
0.0
 10
11.3662269354
 20
9.970020259
 30
0.0
 10
11.3576914794
 20
9.9823058188
 30
0.0
 10
11.3500456064
 20
9.9951300803
 30
0.0
 10
11.343331341
 20
10.0084226784
 30
0.0
 10
11.3375856289
 20
10.0221106683
 30
0.0
 10
11.3328400926
 20
10.036118957
 30
0.0
 10
11.3291209492
 20
10.0503705646
 30
0.0
 10
11.3264486863
 20
10.0647875712
 30
0.0
 10
11.3248382343
 20
10.0792896956
 30
0.0
 10
11.3244775045
 20
10.0889887502
 30
0.0
 10
11.3244775045
 20
10.0938241328
 30
0.0
  0
SPLINE
  5
3C0
100
AcDbEntity
  8
0
100
AcDbSpline
 62
7
  6
CONTINUOUS
 70
0
 71
3
 72
44
 73
40
 74
0
 42
0.0000001
 43
0.0000001
 44
0.0000000001
 40
0.0
 40
0.0
 40
0.0
 40
0.0
 40
0.0310223774
 40
0.0465886825
 40
0.0621892706
 40
0.0934875307
 40
0.1249137439
 40
0.1564583918
 40
0.1881098396
 40
0.2198546963
 40
0.2516780098
 40
0.2676160257
 40
0.283567475
 40
0.3154979555
 40
0.3474553943
 40
0.3794213593
 40
0.4113772802
 40
0.4273476652
 40
0.4433086704
 40
0.4751897424
 40
0.5070072282
 40
0.5228890235
 40
0.538748972
 40
0.5703921577
 40
0.6019275164
 40
0.6333435963
 40
0.664630968
 40
0.6957824096
 40
0.7267930597
 40
0.7576605346
 40
0.7883850039
 40
0.818969224
 40
0.8494185225
 40
0.8797407351
 40
0.8948595989
 40
0.9099507207
 40
0.9400516743
 40
0.9700626945
 40
1.0
 40
1.0
 40
1.0
 40
1.0
 10
10.5550904025
 20
9.2622805864
 30
0.0
 10
10.5442759058
 20
9.2630305743
 30
0.0
 10
10.5280660008
 20
9.2647006801
 30
0.0
 10
10.5065830082
 20
9.2679956349
 30
0.0
 10
10.4851244438
 20
9.2720131567
 30
0.0
 10
10.4584816135
 20
9.2783713466
 30
0.0
 10
10.4269824585
 20
9.2880884548
 30
0.0
 10
10.3960587422
 20
9.2998578621
 30
0.0
 10
10.3658497789
 20
9.3136266152
 30
0.0
 10
10.336491442
 20
9.3293323631
 30
0.0
 10
10.3128541365
 20
9.3439702397
 30
0.0
 10
10.294497307
 20
9.3565736056
 30
0.0
 10
10.276515299
 20
9.3697696486
 30
0.0
 10
10.254809017
 20
9.3873282339
 30
0.0
 10
10.230120483
 20
9.4099963893
 30
0.0
 10
10.2068904349
 20
9.4341692789
 30
0.0
 10
10.1888292405
 20
9.455483357
 30
0.0
 10
10.1752102301
 20
9.473176859
 30
0.0
 10
10.1621674757
 20
9.4912671677
 30
0.0
 10
10.1469574682
 20
9.5146037738
 30
0.0
 10
10.1332599815
 20
9.53882751
 30
0.0
 10
10.1232561828
 20
9.5586608405
 30
0.0
 10
10.113911939
 20
9.5787460436
 30
0.0
 10
10.1034606932
 20
9.6043335237
 30
0.0
 10
10.0929380792
 20
9.6356925732
 30
0.0
 10
10.0844896845
 20
9.6675452047
 30
0.0
 10
10.0781539585
 20
9.6997478084
 30
0.0
 10
10.0739594595
 20
9.7321561263
 30
0.0
 10
10.0719252775
 20
9.7646246782
 30
0.0
 10
10.0720608028
 20
9.7970077585
 30
0.0
 10
10.0743656761
 20
9.8291598902
 30
0.0
 10
10.0788299118
 20
9.8609368996
 30
0.0
 10
10.0854334049
 20
9.8921950611
 30
0.0
 10
10.092702851
 20
9.917722588
 30
0.0
 10
10.099554682
 20
9.9377384617
 30
0.0
 10
10.1070752339
 20
9.9574299455
 30
0.0
 10
10.1177406475
 20
9.9814735645
 30
0.0
 10
10.1325131909
 20
10.0092850307
 30
0.0
 10
10.1436416948
 20
10.027057962
 30
0.0
 10
10.1495069806
 20
10.0357203689
 30
0.0
  0
SPLINE
  5
3C1
100
AcDbEntity
  8
0
100
AcDbSpline
 62
7
  6
CONTINUOUS
 70
0
 71
3
 72
41
 73
37
 74
0
 42
0.0000001
 43
0.0000001
 44
0.0000000001
 40
0.0
 40
0.0
 40
0.0
 40
0.0
 40
0.0299421216
 40
0.0449237656
 40
0.0599145167
 40
0.0899291718
 40
0.1200145985
 40
0.1350933583
 40
0.15019748
 40
0.1804849767
 40
0.2108989647
 40
0.2414525835
 40
0.2721557485
 40
0.3030149705
 40
0.3340332607
 40
0.3652101168
 40
0.3965415874
 40
0.4280204071
 40
0.4596361972
 40
0.491375723
 40
0.5232232003
 40
0.5551606452
 40
0.5871682559
 40
0.6192248239
 40
0.651308164
 40
0.683395559
 40
0.7154642111
 40
0.7474916947
 40
0.7794564051
 40
0.8113379906
 40
0.8431177849
 40
0.8747791545
 40
0.9063080011
 40
0.9376926887
 40
0.9689252949
 40
1.0
 40
1.0
 40
1.0
 40
1.0
 10
9.4866001041
 20
9.0290016914
 30
0.0
 10
9.4832490049
 20
9.025764751
 30
0.0
 10
9.4780247998
 20
9.021105505
 30
0.0
 10
9.4707084517
 20
9.0153243467
 30
0.0
 10
9.463159072
 20
9.0098309164
 30
0.0
 10
9.4533084068
 20
9.0035226204
 30
0.0
 10
9.4429787563
 20
8.9980047404
 30
0.0
 10
9.4344595181
 20
8.9940792052
 30
0.0
 10
9.4257642282
 20
8.9904778708
 30
0.0
 10
9.4146086189
 20
8.9866052909
 30
0.0
 10
9.4008609913
 20
8.9829961758
 30
0.0
 10
9.3868133892
 20
8.9804393647
 30
0.0
 10
9.372543654
 20
8.978948983
 30
0.0
 10
9.3581301749
 20
8.9785329796
 30
0.0
 10
9.3436522586
 20
8.9791934736
 30
0.0
 10
9.3291894795
 20
8.9809266498
 30
0.0
 10
9.3148213046
 20
8.9837228155
 30
0.0
 10
9.3006266465
 20
8.9875664526
 30
0.0
 10
9.2866834399
 20
8.9924363106
 30
0.0
 10
9.2730682178
 20
8.9983055241
 30
0.0
 10
9.2598556984
 20
9.0051417646
 30
0.0
 10
9.2471183805
 20
9.012907418
 30
0.0
 10
9.234926151
 20
9.0215597917
 30
0.0
 10
9.2233459061
 20
9.0310513472
 30
0.0
 10
9.2124411891
 20
9.0413299594
 30
0.0
 10
9.2022718454
 20
9.0523392007
 30
0.0
 10
9.1928936975
 20
9.064018647
 30
0.0
 10
9.1843582415
 20
9.0763042069
 30
0.0
 10
9.1767123684
 20
9.0891284683
 30
0.0
 10
9.1699981031
 20
9.1024210664
 30
0.0
 10
9.164252391
 20
9.1161090564
 30
0.0
 10
9.1595068547
 20
9.130117345
 30
0.0
 10
9.1557877113
 20
9.1443689526
 30
0.0
 10
9.1531154484
 20
9.1587859592
 30
0.0
 10
9.1515049964
 20
9.1732880837
 30
0.0
 10
9.1511442666
 20
9.1829871383
 30
0.0
 10
9.1511442666
 20
9.1878225208
 30
0.0
  0
SPLINE
  5
3C2
100
AcDbEntity
  8
0
100
AcDbSpline
 62
7
  6
CONTINUOUS
 70
0
 71
3
 72
15
 73
11
 74
0
 42
0.0000001
 43
0.0000001
 44
0.0000000001
 40
0.0
 40
0.0
 40
0.0
 40
0.0
 40
0.127094843
 40
0.2535200609
 40
0.3792945713
 40
0.504448731
 40
0.6290295439
 40
0.7530976241
 40
0.8767263269
 40
1.0
 40
1.0
 40
1.0
 40
1.0
 10
10.5550904025
 20
9.2622805864
 30
0.0
 10
10.5673108291
 20
9.261433097
 30
0.0
 10
10.5917616389
 20
9.2606633645
 30
0.0
 10
10.6283163727
 20
9.2623131839
 30
0.0
 10
10.6644513244
 20
9.26676051
 30
0.0
 10
10.6999544978
 20
9.2739804864
 30
0.0
 10
10.7346204135
 20
9.2839315276
 30
0.0
 10
10.7682484175
 20
9.2965568965
 30
0.0
 10
10.8006406977
 20
9.3117820518
 30
0.0
 10
10.8213172701
 20
9.323624821
 30
0.0
 10
10.8313790845
 20
9.3299438017
 30
0.0
  0
SPLINE
  5
3C3
100
AcDbEntity
  8
0
100
AcDbSpline
 62
7
  6
CONTINUOUS
 70
0
 71
3
 72
41
 73
37
 74
0
 42
0.0000001
 43
0.0000001
 44
0.0000000001
 40
0.0
 40
0.0
 40
0.0
 40
0.0
 40
0.0299421216
 40
0.0449237656
 40
0.0599145167
 40
0.0899291718
 40
0.1200145985
 40
0.1350933583
 40
0.15019748
 40
0.1804849767
 40
0.2108989647
 40
0.2414525835
 40
0.2721557485
 40
0.3030149705
 40
0.3340332607
 40
0.3652101168
 40
0.3965415874
 40
0.4280204071
 40
0.4596361972
 40
0.491375723
 40
0.5232232003
 40
0.5551606452
 40
0.5871682559
 40
0.6192248239
 40
0.651308164
 40
0.683395559
 40
0.7154642111
 40
0.7474916947
 40
0.7794564051
 40
0.8113379906
 40
0.8431177849
 40
0.8747791545
 40
0.9063080011
 40
0.9376926887
 40
0.9689252949
 40
1.0
 40
1.0
 40
1.0
 40
1.0
 10
11.659933342
 20
8.8782805194
 30
0.0
 10
11.6565822428
 20
8.875043579
 30
0.0
 10
11.6513580377
 20
8.870384333
 30
0.0
 10
11.6440416896
 20
8.8646031747
 30
0.0
 10
11.63649231
 20
8.8591097444
 30
0.0
 10
11.6266416447
 20
8.8528014484
 30
0.0
 10
11.6163119942
 20
8.8472835684
 30
0.0
 10
11.607792756
 20
8.8433580332
 30
0.0
 10
11.5990974661
 20
8.8397566988
 30
0.0
 10
11.5879418568
 20
8.8358841189
 30
0.0
 10
11.5741942292
 20
8.8322750039
 30
0.0
 10
11.5601466271
 20
8.8297181927
 30
0.0
 10
11.545876892
 20
8.828227811
 30
0.0
 10
11.5314634129
 20
8.8278118076
 30
0.0
 10
11.5169854965
 20
8.8284723016
 30
0.0
 10
11.5025227174
 20
8.8302054779
 30
0.0
 10
11.4881545426
 20
8.8330016435
 30
0.0
 10
11.4739598845
 20
8.8368452807
 30
0.0
 10
11.4600166778
 20
8.8417151386
 30
0.0
 10
11.4464014557
 20
8.8475843521
 30
0.0
 10
11.4331889363
 20
8.8544205926
 30
0.0
 10
11.4204516185
 20
8.8621862461
 30
0.0
 10
11.4082593889
 20
8.8708386198
 30
0.0
 10
11.396679144
 20
8.8803301752
 30
0.0
 10
11.3857744271
 20
8.8906087875
 30
0.0
 10
11.3756050833
 20
8.9016180287
 30
0.0
 10
11.3662269354
 20
8.9132974751
 30
0.0
 10
11.3576914794
 20
8.9255830349
 30
0.0
 10
11.3500456064
 20
8.9384072963
 30
0.0
 10
11.343331341
 20
8.9516998944
 30
0.0
 10
11.3375856289
 20
8.9653878844
 30
0.0
 10
11.3328400926
 20
8.979396173
 30
0.0
 10
11.3291209492
 20
8.9936477807
 30
0.0
 10
11.3264486863
 20
9.0080647873
 30
0.0
 10
11.3248382343
 20
9.0225669117
 30
0.0
 10
11.3244775045
 20
9.0322659663
 30
0.0
 10
11.3244775045
 20
9.0371013488
 30
0.0
  0
SPLINE
  5
3C4
100
AcDbEntity
  8
0
100
AcDbSpline
 62
7
  6
CONTINUOUS
 70
0
 71
3
 72
41
 73
37
 74
0
 42
0.0000001
 43
0.0000001
 44
0.0000000001
 40
0.0
 40
0.0
 40
0.0
 40
0.0
 40
0.0299421207
 40
0.0449237678
 40
0.059914515
 40
0.0899291702
 40
0.1200145975
 40
0.1350933607
 40
0.1501974781
 40
0.1804849759
 40
0.210898965
 40
0.2414525847
 40
0.2721557502
 40
0.3030149724
 40
0.3340332622
 40
0.3652101173
 40
0.3965415863
 40
0.428020404
 40
0.4596361919
 40
0.4913757156
 40
0.5232231916
 40
0.5551606357
 40
0.5871682465
 40
0.6192248153
 40
0.651308157
 40
0.6833955539
 40
0.7154642081
 40
0.747491694
 40
0.779456406
 40
0.8113379944
 40
0.8431177853
 40
0.8747791687
 40
0.9063079764
 40
0.9376927595
 40
0.9689251765
 40
1.0
 40
1.0
 40
1.0
 40
1.0
 10
9.3279450576
 20
6.9511806572
 30
0.0
 10
9.3240630628
 20
6.9474309636
 30
0.0
 10
9.318011302
 20
6.9420335744
 30
0.0
 10
9.3095359111
 20
6.9353366095
 30
0.0
 10
9.3007906043
 20
6.9289729133
 30
0.0
 10
9.2893794292
 20
6.9216652976
 30
0.0
 10
9.277413413
 20
6.9152732645
 30
0.0
 10
9.2675445659
 20
6.9107259206
 30
0.0
 10
9.2574718294
 20
6.9065540175
 30
0.0
 10
9.2445489823
 20
6.902067989
 30
0.0
 10
9.2286235153
 20
6.8978871244
 30
0.0
 10
9.2123505479
 20
6.8949252783
 30
0.0
 10
9.1958202598
 20
6.8931987987
 30
0.0
 10
9.1791234565
 20
6.8927168973
 30
0.0
 10
9.1623520088
 20
6.8934820275
 30
0.0
 10
9.1455980967
 20
6.8954897694
 30
0.0
 10
9.128953776
 20
6.898728894
 30
0.0
 10
9.1125104599
 20
6.9031814247
 30
0.0
 10
9.0963584285
 20
6.9088227437
 30
0.0
 10
9.0805863388
 20
6.9156217307
 30
0.0
 10
9.0652807454
 20
6.9235409365
 30
0.0
 10
9.0505256323
 20
6.932536789
 30
0.0
 10
9.0364019576
 20
6.9425598328
 30
0.0
 10
9.0229872154
 20
6.9535549989
 30
0.0
 10
9.0103550155
 20
6.965461905
 30
0.0
 10
8.9985746841
 20
6.9782151844
 30
0.0
 10
8.9877108872
 20
6.9917448409
 30
0.0
 10
8.9778232792
 20
7.0059766296
 30
0.0
 10
8.9689661784
 20
7.0208324592
 30
0.0
 10
8.9611882704
 20
7.0362308179
 30
0.0
 10
8.9545323443
 20
7.0520872049
 30
0.0
 10
8.949035053
 20
7.0683146276
 30
0.0
 10
8.944726723
 20
7.0848239258
 30
0.0
 10
8.941631163
 20
7.1015247965
 30
0.0
 10
8.9397655653
 20
7.1183242891
 30
0.0
 10
8.9393477018
 20
7.1295598162
 30
0.0
 10
8.9393477018
 20
7.1351612214
 30
0.0
  0
SPLINE
  5
3C5
100
AcDbEntity
  8
0
100
AcDbSpline
 62
7
  6
CONTINUOUS
 70
0
 71
3
 72
39
 73
35
 74
0
 42
0.0000001
 43
0.0000001
 44
0.0000000001
 40
0.0
 40
0.0
 40
0.0
 40
0.0
 40
0.0311159723
 40
0.0620233248
 40
0.0927351404
 40
0.1232711776
 40
0.1536587326
 40
0.1839312111
 40
0.2141268393
 40
0.2442870992
 40
0.2744549754
 40
0.3046731314
 40
0.3349820899
 40
0.3654185435
 40
0.3960138648
 40
0.4267928822
 40
0.4577729963
 40
0.4889636214
 40
0.5203659689
 40
0.551973178
 40
0.5837707188
 40
0.6157370639
 40
0.6478445901
 40
0.6800606405
 40
0.7123487311
 40
0.7446698622
 40
0.7769838843
 40
0.8092508939
 40
0.8414326243
 40
0.8734937998
 40
0.9054034123
 40
0.9371359058
 40
0.9686717941
 40
1.0
 40
1.0
 40
1.0
 40
1.0
 10
9.4104929057
 20
7.0952525688
 30
0.0
 10
9.4104929057
 20
7.0870336786
 30
0.0
 10
9.4096905191
 20
7.0706391122
 30
0.0
 10
9.4060617409
 20
7.0463750395
 30
0.0
 10
9.4000460348
 20
7.0227448068
 30
0.0
 10
9.3917002844
 20
6.9999796151
 30
0.0
 10
9.3811044178
 20
6.9782988064
 30
0.0
 10
9.368360134
 20
6.9579124357
 30
0.0
 10
9.3535901555
 20
6.9390179346
 30
0.0
 10
9.3369372164
 20
6.9217982672
 30
0.0
 10
9.318562377
 20
6.9064201566
 30
0.0
 10
9.2986435361
 20
6.8930323386
 30
0.0
 10
9.2773736768
 20
6.8817638973
 30
0.0
 10
9.2549586985
 20
6.8727232866
 30
0.0
 10
9.231615452
 20
6.8659971549
 30
0.0
 10
9.2075695433
 20
6.8616494645
 30
0.0
 10
9.1830530272
 20
6.8597212676
 30
0.0
 10
9.1583022235
 20
6.8602301729
 30
0.0
 10
9.1335553984
 20
6.8631702371
 30
0.0
 10
9.1090505332
 20
6.8685123751
 30
0.0
 10
9.0850230706
 20
6.8762044235
 30
0.0
 10
9.0617036691
 20
6.8861717313
 30
0.0
 10
9.039316144
 20
6.8983181115
 30
0.0
 10
9.0180752652
 20
6.9125264946
 30
0.0
 10
8.9981847544
 20
6.9286601575
 30
0.0
 10
8.9798355073
 20
6.9465641576
 30
0.0
 10
8.963203604
 20
6.9660665533
 30
0.0
 10
8.9484487318
 20
6.9869801746
 30
0.0
 10
8.9357128109
 20
7.0091044177
 30
0.0
 10
8.9251183874
 20
7.0322270537
 30
0.0
 10
8.9167676181
 20
7.0561259913
 30
0.0
 10
8.9107414731
 20
7.0805726491
 30
0.0
 10
8.9070983491
 20
7.1053291409
 30
0.0
 10
8.9062795945
 20
7.1219449317
 30
0.0
 10
8.9062795945
 20
7.1302198807
 30
0.0
  0
SPLINE
  5
3C6
100
AcDbEntity
  8
0
100
AcDbSpline
 62
7
  6
CONTINUOUS
 70
0
 71
3
 72
41
 73
37
 74
0
 42
0.0000001
 43
0.0000001
 44
0.0000000001
 40
0.0
 40
0.0
 40
0.0
 40
0.0
 40
0.0299421207
 40
0.0449237678
 40
0.059914515
 40
0.0899291702
 40
0.1200145975
 40
0.1350933607
 40
0.1501974781
 40
0.1804849759
 40
0.210898965
 40
0.2414525847
 40
0.2721557502
 40
0.3030149724
 40
0.3340332622
 40
0.3652101173
 40
0.3965415863
 40
0.428020404
 40
0.4596361919
 40
0.4913757156
 40
0.5232231916
 40
0.5551606357
 40
0.5871682465
 40
0.6192248153
 40
0.651308157
 40
0.6833955539
 40
0.7154642081
 40
0.747491694
 40
0.779456406
 40
0.8113379944
 40
0.8431177853
 40
0.8747791687
 40
0.9063079764
 40
0.9376927595
 40
0.9689251765
 40
1.0
 40
1.0
 40
1.0
 40
1.0
 10
11.8625345884
 20
6.7754062762
 30
0.0
 10
11.8586525936
 20
6.7716565826
 30
0.0
 10
11.8526008328
 20
6.7662591935
 30
0.0
 10
11.8441254419
 20
6.7595622285
 30
0.0
 10
11.8353801351
 20
6.7531985323
 30
0.0
 10
11.82396896
 20
6.7458909166
 30
0.0
 10
11.8120029438
 20
6.7394988836
 30
0.0
 10
11.8021340967
 20
6.7349515396
 30
0.0
 10
11.7920613602
 20
6.7307796366
 30
0.0
 10
11.7791385131
 20
6.7262936081
 30
0.0
 10
11.7632130461
 20
6.7221127434
 30
0.0
 10
11.7469400787
 20
6.7191508973
 30
0.0
 10
11.7304097906
 20
6.7174244177
 30
0.0
 10
11.7137129873
 20
6.7169425163
 30
0.0
 10
11.6969415396
 20
6.7177076465
 30
0.0
 10
11.6801876275
 20
6.7197153884
 30
0.0
 10
11.6635433068
 20
6.7229545131
 30
0.0
 10
11.6470999907
 20
6.7274070438
 30
0.0
 10
11.6309479593
 20
6.7330483628
 30
0.0
 10
11.6151758695
 20
6.7398473498
 30
0.0
 10
11.5998702762
 20
6.7477665555
 30
0.0
 10
11.5851151631
 20
6.7567624081
 30
0.0
 10
11.5709914884
 20
6.7667854519
 30
0.0
 10
11.5575767462
 20
6.7777806179
 30
0.0
 10
11.5449445463
 20
6.789687524
 30
0.0
 10
11.5331642149
 20
6.8024408034
 30
0.0
 10
11.522300418
 20
6.8159704599
 30
0.0
 10
11.51241281
 20
6.8302022487
 30
0.0
 10
11.5035557092
 20
6.8450580783
 30
0.0
 10
11.4957778012
 20
6.8604564369
 30
0.0
 10
11.4891218751
 20
6.8763128239
 30
0.0
 10
11.4836245838
 20
6.8925402466
 30
0.0
 10
11.4793162538
 20
6.9090495448
 30
0.0
 10
11.4762206938
 20
6.9257504156
 30
0.0
 10
11.4743550961
 20
6.9425499081
 30
0.0
 10
11.4739372326
 20
6.9537854352
 30
0.0
 10
11.4739372326
 20
6.9593868405
 30
0.0
  0
SPLINE
  5
3C7
100
AcDbEntity
  8
0
100
AcDbSpline
 62
7
  6
CONTINUOUS
 70
0
 71
3
 72
39
 73
35
 74
0
 42
0.0000001
 43
0.0000001
 44
0.0000000001
 40
0.0
 40
0.0
 40
0.0
 40
0.0
 40
0.0311159723
 40
0.0620233248
 40
0.0927351404
 40
0.1232711776
 40
0.1536587326
 40
0.1839312111
 40
0.2141268393
 40
0.2442870992
 40
0.2744549754
 40
0.3046731314
 40
0.3349820899
 40
0.3654185435
 40
0.3960138648
 40
0.4267928822
 40
0.4577729963
 40
0.4889636214
 40
0.5203659689
 40
0.551973178
 40
0.5837707188
 40
0.6157370639
 40
0.6478445901
 40
0.6800606405
 40
0.7123487311
 40
0.7446698622
 40
0.7769838843
 40
0.8092508939
 40
0.8414326243
 40
0.8734937998
 40
0.9054034123
 40
0.9371359058
 40
0.9686717941
 40
1.0
 40
1.0
 40
1.0
 40
1.0
 10
11.4408691253
 20
6.9544454997
 30
0.0
 10
11.4408691253
 20
6.9626643899
 30
0.0
 10
11.4416715119
 20
6.9790589562
 30
0.0
 10
11.4453002901
 20
7.003323029
 30
0.0
 10
11.4513159962
 20
7.0269532617
 30
0.0
 10
11.4596617466
 20
7.0497184534
 30
0.0
 10
11.4702576132
 20
7.0713992621
 30
0.0
 10
11.483001897
 20
7.0917856328
 30
0.0
 10
11.4977718755
 20
7.1106801339
 30
0.0
 10
11.5144248146
 20
7.1278998012
 30
0.0
 10
11.5327996541
 20
7.1432779119
 30
0.0
 10
11.5527184949
 20
7.1566657299
 30
0.0
 10
11.5739883543
 20
7.1679341712
 30
0.0
 10
11.5964033325
 20
7.1769747819
 30
0.0
 10
11.619746579
 20
7.1837009136
 30
0.0
 10
11.6437924878
 20
7.188048604
 30
0.0
 10
11.6683090039
 20
7.1899768009
 30
0.0
 10
11.6930598076
 20
7.1894678955
 30
0.0
 10
11.7178066326
 20
7.1865278313
 30
0.0
 10
11.7423114979
 20
7.1811856933
 30
0.0
 10
11.7663389605
 20
7.1734936449
 30
0.0
 10
11.7896583619
 20
7.1635263371
 30
0.0
 10
11.812045887
 20
7.151379957
 30
0.0
 10
11.8332867659
 20
7.1371715739
 30
0.0
 10
11.8531772766
 20
7.1210379109
 30
0.0
 10
11.8715265237
 20
7.1031339108
 30
0.0
 10
11.8881584271
 20
7.0836315152
 30
0.0
 10
11.9029132992
 20
7.0627178938
 30
0.0
 10
11.9156492201
 20
7.0405936507
 30
0.0
 10
11.9262436437
 20
7.0174710147
 30
0.0
 10
11.9345944129
 20
6.9935720771
 30
0.0
 10
11.9406205579
 20
6.9691254194
 30
0.0
 10
11.9442636819
 20
6.9443689275
 30
0.0
 10
11.9450824365
 20
6.9277531368
 30
0.0
 10
11.9450824365
 20
6.9194781878
 30
0.0
  0
SPLINE
  5
3C8
100
AcDbEntity
  8
0
100
AcDbSpline
 62
7
  6
CONTINUOUS
 70
0
 71
3
 72
41
 73
37
 74
0
 42
0.0000001
 43
0.0000001
 44
0.0000000001
 40
0.0
 40
0.0
 40
0.0
 40
0.0
 40
0.0299421207
 40
0.0449237678
 40
0.059914515
 40
0.0899291702
 40
0.1200145975
 40
0.1350933607
 40
0.1501974781
 40
0.1804849759
 40
0.210898965
 40
0.2414525847
 40
0.2721557502
 40
0.3030149724
 40
0.3340332622
 40
0.3652101173
 40
0.3965415863
 40
0.428020404
 40
0.4596361919
 40
0.4913757156
 40
0.5232231916
 40
0.5551606357
 40
0.5871682465
 40
0.6192248153
 40
0.651308157
 40
0.6833955539
 40
0.7154642081
 40
0.747491694
 40
0.779456406
 40
0.8113379944
 40
0.8431177853
 40
0.8747791687
 40
0.9063079764
 40
0.9376927595
 40
0.9689251765
 40
1.0
 40
1.0
 40
1.0
 40
1.0
 10
9.3279450576
 20
5.7437733604
 30
0.0
 10
9.3240630628
 20
5.7400236667
 30
0.0
 10
9.318011302
 20
5.7346262776
 30
0.0
 10
9.3095359111
 20
5.7279293127
 30
0.0
 10
9.3007906043
 20
5.7215656165
 30
0.0
 10
9.2893794292
 20
5.7142580007
 30
0.0
 10
9.277413413
 20
5.7078659677
 30
0.0
 10
9.2675445659
 20
5.7033186237
 30
0.0
 10
9.2574718294
 20
5.6991467207
 30
0.0
 10
9.2445489823
 20
5.6946606922
 30
0.0
 10
9.2286235153
 20
5.6904798275
 30
0.0
 10
9.2123505479
 20
5.6875179815
 30
0.0
 10
9.1958202598
 20
5.6857915018
 30
0.0
 10
9.1791234565
 20
5.6853096005
 30
0.0
 10
9.1623520088
 20
5.6860747307
 30
0.0
 10
9.1455980967
 20
5.6880824725
 30
0.0
 10
9.128953776
 20
5.6913215972
 30
0.0
 10
9.1125104599
 20
5.6957741279
 30
0.0
 10
9.0963584285
 20
5.7014154469
 30
0.0
 10
9.0805863388
 20
5.7082144339
 30
0.0
 10
9.0652807454
 20
5.7161336397
 30
0.0
 10
9.0505256323
 20
5.7251294922
 30
0.0
 10
9.0364019576
 20
5.735152536
 30
0.0
 10
9.0229872154
 20
5.7461477021
 30
0.0
 10
9.0103550155
 20
5.7580546082
 30
0.0
 10
8.9985746841
 20
5.7708078875
 30
0.0
 10
8.9877108872
 20
5.784337544
 30
0.0
 10
8.9778232792
 20
5.7985693328
 30
0.0
 10
8.9689661784
 20
5.8134251624
 30
0.0
 10
8.9611882704
 20
5.828823521
 30
0.0
 10
8.9545323443
 20
5.844679908
 30
0.0
 10
8.949035053
 20
5.8609073308
 30
0.0
 10
8.944726723
 20
5.8774166289
 30
0.0
 10
8.941631163
 20
5.8941174997
 30
0.0
 10
8.9397655653
 20
5.9109169923
 30
0.0
 10
8.9393477018
 20
5.9221525193
 30
0.0
 10
8.9393477018
 20
5.9277539246
 30
0.0
  0
SPLINE
  5
3C9
100
AcDbEntity
  8
0
100
AcDbSpline
 62
7
  6
CONTINUOUS
 70
0
 71
3
 72
41
 73
37
 74
0
 42
0.0000001
 43
0.0000001
 44
0.0000000001
 40
0.0
 40
0.0
 40
0.0
 40
0.0
 40
0.0299421207
 40
0.0449237678
 40
0.059914515
 40
0.0899291702
 40
0.1200145975
 40
0.1350933607
 40
0.1501974781
 40
0.1804849759
 40
0.210898965
 40
0.2414525847
 40
0.2721557502
 40
0.3030149724
 40
0.3340332622
 40
0.3652101173
 40
0.3965415863
 40
0.428020404
 40
0.4596361919
 40
0.4913757156
 40
0.5232231916
 40
0.5551606357
 40
0.5871682465
 40
0.6192248153
 40
0.651308157
 40
0.6833955539
 40
0.7154642081
 40
0.747491694
 40
0.779456406
 40
0.8113379944
 40
0.8431177853
 40
0.8747791687
 40
0.9063079764
 40
0.9376927595
 40
0.9689251765
 40
1.0
 40
1.0
 40
1.0
 40
1.0
 10
11.8625345884
 20
5.5679989794
 30
0.0
 10
11.8586525936
 20
5.5642492858
 30
0.0
 10
11.8526008328
 20
5.5588518966
 30
0.0
 10
11.8441254419
 20
5.5521549317
 30
0.0
 10
11.8353801351
 20
5.5457912355
 30
0.0
 10
11.82396896
 20
5.5384836198
 30
0.0
 10
11.8120029438
 20
5.5320915867
 30
0.0
 10
11.8021340967
 20
5.5275442428
 30
0.0
 10
11.7920613602
 20
5.5233723397
 30
0.0
 10
11.7791385131
 20
5.5188863112
 30
0.0
 10
11.7632130461
 20
5.5147054466
 30
0.0
 10
11.7469400787
 20
5.5117436005
 30
0.0
 10
11.7304097906
 20
5.5100171209
 30
0.0
 10
11.7137129873
 20
5.5095352195
 30
0.0
 10
11.6969415396
 20
5.5103003497
 30
0.0
 10
11.6801876275
 20
5.5123080916
 30
0.0
 10
11.6635433068
 20
5.5155472162
 30
0.0
 10
11.6470999907
 20
5.5199997469
 30
0.0
 10
11.6309479593
 20
5.5256410659
 30
0.0
 10
11.6151758695
 20
5.5324400529
 30
0.0
 10
11.5998702762
 20
5.5403592587
 30
0.0
 10
11.5851151631
 20
5.5493551112
 30
0.0
 10
11.5709914884
 20
5.559378155
 30
0.0
 10
11.5575767462
 20
5.5703733211
 30
0.0
 10
11.5449445463
 20
5.5822802272
 30
0.0
 10
11.5331642149
 20
5.5950335066
 30
0.0
 10
11.522300418
 20
5.6085631631
 30
0.0
 10
11.51241281
 20
5.6227949518
 30
0.0
 10
11.5035557092
 20
5.6376507814
 30
0.0
 10
11.4957778012
 20
5.6530491401
 30
0.0
 10
11.4891218751
 20
5.6689055271
 30
0.0
 10
11.4836245838
 20
5.6851329498
 30
0.0
 10
11.4793162538
 20
5.701642248
 30
0.0
 10
11.4762206938
 20
5.7183431187
 30
0.0
 10
11.4743550961
 20
5.7351426113
 30
0.0
 10
11.4739372326
 20
5.7463781384
 30
0.0
 10
11.4739372326
 20
5.7519795436
 30
0.0
  0
SPLINE
  5
3CA
100
AcDbEntity
  8
0
100
AcDbSpline
 62
7
  6
CONTINUOUS
 70
0
 71
3
 72
23
 73
19
 74
0
 42
0.0000001
 43
0.0000001
 44
0.0000000001
 40
0.0
 40
0.0
 40
0.0
 40
0.0
 40
0.0616482077
 40
0.1233194432
 40
0.1850364764
 40
0.2468215657
 40
0.3086962119
 40
0.3706809253
 40
0.4327950037
 40
0.4950563292
 40
0.5574811795
 40
0.6200840681
 40
0.6828776095
 40
0.745872322
 40
0.8090769221
 40
0.8724969185
 40
0.9361382339
 40
1.0
 40
1.0
 40
1.0
 40
1.0
 10
10.8598979117
 20
5.9706457033
 30
0.0
 10
10.8528841204
 20
5.9638708954
 30
0.0
 10
10.8384864491
 20
5.9506933263
 30
0.0
 10
10.8158544445
 20
5.9321124523
 30
0.0
 10
10.7922396609
 20
5.9147597495
 30
0.0
 10
10.7677024054
 20
5.8986797045
 30
0.0
 10
10.7423043144
 20
5.8839125833
 30
0.0
 10
10.7161094577
 20
5.870495599
 30
0.0
 10
10.689183833
 20
5.8584624838
 30
0.0
 10
10.6615952894
 20
5.8478434963
 30
0.0
 10
10.633413332
 20
5.8386653211
 30
0.0
 10
10.6047089482
 20
5.8309510116
 30
0.0
 10
10.5755544486
 20
5.8247199302
 30
0.0
 10
10.5460232103
 20
5.8199876375
 30
0.0
 10
10.5161897413
 20
5.8167660497
 30
0.0
 10
10.4861286826
 20
5.8150630326
 30
0.0
 10
10.4559169185
 20
5.8148829805
 30
0.0
 10
10.435758398
 20
5.8157769551
 30
0.0
 10
10.4256809867
 20
5.8164758259
 30
0.0
  0
SPLINE
  5
3CB
100
AcDbEntity
  8
0
100
AcDbSpline
 62
7
  6
CONTINUOUS
 70
0
 71
3
 72
23
 73
19
 74
0
 42
0.0000001
 43
0.0000001
 44
0.0000000001
 40
0.0
 40
0.0
 40
0.0
 40
0.0
 40
0.0616482089
 40
0.1233194432
 40
0.1850364732
 40
0.2468215598
 40
0.3086962068
 40
0.3706809242
 40
0.4327950065
 40
0.4950563338
 40
0.5574811812
 40
0.6200840725
 40
0.6828776069
 40
0.7458723252
 40
0.8090769559
 40
0.8724968153
 40
0.9361384461
 40
1.0
 40
1.0
 40
1.0
 40
1.0
 10
10.7730886579
 20
9.2606283104
 30
0.0
 10
10.767477071
 20
9.2552079398
 30
0.0
 10
10.7559577712
 20
9.2446648938
 30
0.0
 10
10.7378503639
 20
9.2297987848
 30
0.0
 10
10.718956664
 20
9.2159153037
 30
0.0
 10
10.6993249311
 20
9.2030500276
 30
0.0
 10
10.6790044656
 20
9.1912351868
 30
0.0
 10
10.6580465164
 20
9.1805005779
 30
0.0
 10
10.6365038934
 20
9.170873182
 30
0.0
 10
10.6144308882
 20
9.1623771952
 30
0.0
 10
10.5918831118
 20
9.155033959
 30
0.0
 10
10.5689173598
 20
9.1488619152
 30
0.0
 10
10.5455914795
 20
9.1438765661
 30
0.0
 10
10.5219641729
 20
9.1400903789
 30
0.0
 10
10.4980950756
 20
9.1375128813
 30
0.0
 10
10.4740438521
 20
9.1361503264
 30
0.0
 10
10.4498720827
 20
9.1360062926
 30
0.0
 10
10.4337436769
 20
9.1367215327
 30
0.0
 10
10.4256809867
 20
9.1372806822
 30
0.0
  0
SPLINE
  5
3CC
100
AcDbEntity
  8
0
100
AcDbSpline
 62
7
  6
CONTINUOUS
 70
0
 71
3
 72
39
 73
35
 74
0
 42
0.0000001
 43
0.0000001
 44
0.0000000001
 40
0.0
 40
0.0
 40
0.0
 40
0.0
 40
0.0311159723
 40
0.0620233248
 40
0.0927351404
 40
0.1232711776
 40
0.1536587326
 40
0.1839312111
 40
0.2141268393
 40
0.2442870992
 40
0.2744549754
 40
0.3046731314
 40
0.3349820899
 40
0.3654185435
 40
0.3960138648
 40
0.4267928822
 40
0.4577729963
 40
0.4889636214
 40
0.5203659689
 40
0.551973178
 40
0.5837707188
 40
0.6157370639
 40
0.6478445901
 40
0.6800606405
 40
0.7123487311
 40
0.7446698622
 40
0.7769838843
 40
0.8092508939
 40
0.8414326243
 40
0.8734937998
 40
0.9054034123
 40
0.9371359058
 40
0.9686717941
 40
1.0
 40
1.0
 40
1.0
 40
1.0
 10
11.9450824365
 20
6.9194781878
 30
0.0
 10
11.9450824365
 20
6.9112592976
 30
0.0
 10
11.9442800499
 20
6.8948647313
 30
0.0
 10
11.9406512717
 20
6.8706006585
 30
0.0
 10
11.9346355656
 20
6.8469704258
 30
0.0
 10
11.9262898152
 20
6.8242052341
 30
0.0
 10
11.9156939486
 20
6.8025244254
 30
0.0
 10
11.9029496648
 20
6.7821380547
 30
0.0
 10
11.8881796863
 20
6.7632435536
 30
0.0
 10
11.8715267472
 20
6.7460238862
 30
0.0
 10
11.8531519078
 20
6.7306457756
 30
0.0
 10
11.8332330669
 20
6.7172579576
 30
0.0
 10
11.8119632076
 20
6.7059895163
 30
0.0
 10
11.7895482293
 20
6.6969489056
 30
0.0
 10
11.7662049828
 20
6.6902227739
 30
0.0
 10
11.7421590741
 20
6.6858750835
 30
0.0
 10
11.717642558
 20
6.6839468866
 30
0.0
 10
11.6928917543
 20
6.684455792
 30
0.0
 10
11.6681449292
 20
6.6873958562
 30
0.0
 10
11.643640064
 20
6.6927379942
 30
0.0
 10
11.6196126014
 20
6.7004300426
 30
0.0
 10
11.5962931999
 20
6.7103973504
 30
0.0
 10
11.5739056748
 20
6.7225437305
 30
0.0
 10
11.552664796
 20
6.7367521136
 30
0.0
 10
11.5327742852
 20
6.7528857766
 30
0.0
 10
11.5144250381
 20
6.7707897767
 30
0.0
 10
11.4977931348
 20
6.7902921723
 30
0.0
 10
11.4830382626
 20
6.8112057937
 30
0.0
 10
11.4703023417
 20
6.8333300367
 30
0.0
 10
11.4597079182
 20
6.8564526728
 30
0.0
 10
11.4513571489
 20
6.8803516103
 30
0.0
 10
11.4453310039
 20
6.9047982681
 30
0.0
 10
11.4416878799
 20
6.92955476
 30
0.0
 10
11.4408691253
 20
6.9461705507
 30
0.0
 10
11.4408691253
 20
6.9544454997
 30
0.0
  0
SPLINE
  5
3CD
100
AcDbEntity
  8
0
100
AcDbSpline
 62
4
  6
CONTINUOUS
 70
0
 71
3
 72
334
 73
330
 74
0
 42
0.0000001
 43
0.0000001
 44
0.0000000001
 40
0.0
 40
0.0
 40
0.0
 40
0.0
 40
0.015625
 40
0.0234375
 40
0.03125
 40
0.0390625
 40
0.046875
 40
0.05078125
 40
0.0546875
 40
0.056640625
 40
0.05859375
 40
0.060546875
 40
0.0615234375
 40
0.0620117188
 40
0.0625
 40
0.0629882812
 40
0.0634765625
 40
0.064453125
 40
0.06640625
 40
0.068359375
 40
0.0703125
 40
0.07421875
 40
0.078125
 40
0.0859375
 40
0.09375
 40
0.1015625
 40
0.109375
 40
0.11328125
 40
0.1171875
 40
0.119140625
 40
0.12109375
 40
0.123046875
 40
0.1240234375
 40
0.1245117188
 40
0.125
 40
0.1254882812
 40
0.1259765625
 40
0.126953125
 40
0.12890625
 40
0.130859375
 40
0.1328125
 40
0.13671875
 40
0.140625
 40
0.1484375
 40
0.15625
 40
0.1640625
 40
0.171875
 40
0.17578125
 40
0.1796875
 40
0.181640625
 40
0.18359375
 40
0.185546875
 40
0.1865234375
 40
0.1870117188
 40
0.1875
 40
0.1879882812
 40
0.1884765625
 40
0.189453125
 40
0.19140625
 40
0.193359375
 40
0.1953125
 40
0.19921875
 40
0.203125
 40
0.2109375
 40
0.21875
 40
0.2265625
 40
0.23046875
 40
0.234375
 40
0.23828125
 40
0.2421875
 40
0.244140625
 40
0.24609375
 40
0.2470703125
 40
0.248046875
 40
0.2490234375
 40
0.2495117188
 40
0.2497558594
 40
0.25
 40
0.2502441406
 40
0.2504882812
 40
0.2509765625
 40
0.251953125
 40
0.2529296875
 40
0.25390625
 40
0.255859375
 40
0.2578125
 40
0.26171875
 40
0.265625
 40
0.26953125
 40
0.2734375
 40
0.28125
 40
0.2890625
 40
0.29296875
 40
0.296875
 40
0.30078125
 40
0.3046875
 40
0.306640625
 40
0.30859375
 40
0.3095703125
 40
0.310546875
 40
0.3115234375
 40
0.3120117188
 40
0.3122558594
 40
0.3125
 40
0.3127441406
 40
0.3129882812
 40
0.3134765625
 40
0.314453125
 40
0.3154296875
 40
0.31640625
 40
0.318359375
 40
0.3203125
 40
0.32421875
 40
0.328125
 40
0.33203125
 40
0.3359375
 40
0.34375
 40
0.3515625
 40
0.35546875
 40
0.359375
 40
0.36328125
 40
0.3671875
 40
0.369140625
 40
0.37109375
 40
0.3720703125
 40
0.373046875
 40
0.3740234375
 40
0.3745117188
 40
0.3747558594
 40
0.375
 40
0.3752441406
 40
0.3754882812
 40
0.3759765625
 40
0.376953125
 40
0.3779296875
 40
0.37890625
 40
0.380859375
 40
0.3828125
 40
0.38671875
 40
0.390625
 40
0.39453125
 40
0.3984375
 40
0.40625
 40
0.4140625
 40
0.41796875
 40
0.421875
 40
0.42578125
 40
0.4296875
 40
0.431640625
 40
0.43359375
 40
0.4345703125
 40
0.435546875
 40
0.4365234375
 40
0.4370117188
 40
0.4372558594
 40
0.4375
 40
0.4377441406
 40
0.4379882812
 40
0.4384765625
 40
0.439453125
 40
0.4404296875
 40
0.44140625
 40
0.443359375
 40
0.4453125
 40
0.44921875
 40
0.453125
 40
0.45703125
 40
0.4609375
 40
0.46875
 40
0.4765625
 40
0.48046875
 40
0.484375
 40
0.48828125
 40
0.4921875
 40
0.494140625
 40
0.49609375
 40
0.4970703125
 40
0.498046875
 40
0.4990234375
 40
0.4995117188
 40
0.4997558594
 40
0.5
 40
0.5002441406
 40
0.5004882812
 40
0.5009765625
 40
0.501953125
 40
0.5029296875
 40
0.50390625
 40
0.505859375
 40
0.5078125
 40
0.51171875
 40
0.515625
 40
0.51953125
 40
0.5234375
 40
0.53125
 40
0.5390625
 40
0.54296875
 40
0.546875
 40
0.55078125
 40
0.5546875
 40
0.556640625
 40
0.55859375
 40
0.5595703125
 40
0.560546875
 40
0.5615234375
 40
0.5620117188
 40
0.5625
 40
0.5629882812
 40
0.5634765625
 40
0.564453125
 40
0.5654296875
 40
0.56640625
 40
0.568359375
 40
0.5703125
 40
0.57421875
 40
0.578125
 40
0.58203125
 40
0.5859375
 40
0.59375
 40
0.6015625
 40
0.609375
 40
0.61328125
 40
0.6171875
 40
0.619140625
 40
0.62109375
 40
0.623046875
 40
0.6240234375
 40
0.6245117188
 40
0.625
 40
0.6254882812
 40
0.6259765625
 40
0.626953125
 40
0.62890625
 40
0.630859375
 40
0.6328125
 40
0.63671875
 40
0.640625
 40
0.6484375
 40
0.65625
 40
0.6640625
 40
0.671875
 40
0.67578125
 40
0.6796875
 40
0.681640625
 40
0.68359375
 40
0.685546875
 40
0.6865234375
 40
0.6870117188
 40
0.6875
 40
0.6879882812
 40
0.6884765625
 40
0.689453125
 40
0.69140625
 40
0.693359375
 40
0.6953125
 40
0.69921875
 40
0.703125
 40
0.7109375
 40
0.71875
 40
0.7265625
 40
0.734375
 40
0.73828125
 40
0.7421875
 40
0.744140625
 40
0.74609375
 40
0.748046875
 40
0.7490234375
 40
0.7495117188
 40
0.75
 40
0.7504882812
 40
0.7509765625
 40
0.751953125
 40
0.75390625
 40
0.755859375
 40
0.7578125
 40
0.76171875
 40
0.765625
 40
0.7734375
 40
0.78125
 40
0.7890625
 40
0.796875
 40
0.80078125
 40
0.8046875
 40
0.80859375
 40
0.810546875
 40
0.8115234375
 40
0.8125
 40
0.8134765625
 40
0.814453125
 40
0.81640625
 40
0.8203125
 40
0.82421875
 40
0.828125
 40
0.8359375
 40
0.84375
 40
0.8515625
 40
0.859375
 40
0.86328125
 40
0.8671875
 40
0.87109375
 40
0.873046875
 40
0.8740234375
 40
0.875
 40
0.8759765625
 40
0.876953125
 40
0.87890625
 40
0.8828125
 40
0.88671875
 40
0.890625
 40
0.8984375
 40
0.90625
 40
0.9140625
 40
0.921875
 40
0.92578125
 40
0.9296875
 40
0.93359375
 40
0.935546875
 40
0.9365234375
 40
0.9375
 40
0.9384765625
 40
0.939453125
 40
0.94140625
 40
0.9453125
 40
0.94921875
 40
0.953125
 40
0.9609375
 40
0.96875
 40
0.984375
 40
1.0
 40
1.0
 40
1.0
 40
1.0
 10
12.659579537
 20
8.932887203
 30
0.0
 10
12.6597146741
 20
8.9278740869
 30
0.0
 10
12.6599173797
 20
8.9203544126
 30
0.0
 10
12.6601876543
 20
8.9103281809
 30
0.0
 10
12.6603903592
 20
8.9028085053
 30
0.0
 10
12.6605930681
 20
8.8952888367
 30
0.0
 10
12.6607619795
 20
8.8890224244
 30
0.0
 10
12.6608971372
 20
8.8840093434
 30
0.0
 10
12.6609815456
 20
8.8808760566
 30
0.0
 10
12.6610492216
 20
8.8783696817
 30
0.0
 10
12.6610995699
 20
8.8764892037
 30
0.0
 10
12.6611428268
 20
8.8749243552
 30
0.0
 10
12.6611705555
 20
8.8738246116
 30
0.0
 10
12.6611903839
 20
8.8732029782
 30
0.0
 10
12.6611940337
 20
8.8727176216
 30
0.0
 10
12.6612405778
 20
8.8723053951
 30
0.0
 10
12.6612876745
 20
8.8717302512
 30
0.0
 10
12.6613770649
 20
8.8707356343
 30
0.0
 10
12.6615011208
 20
8.8693085393
 30
0.0
 10
12.661651548
 20
8.8675986851
 30
0.0
 10
12.6618515726
 20
8.8653179504
 30
0.0
 10
12.66210179
 20
8.8624673502
 30
0.0
 10
12.6625020336
 20
8.8579062119
 30
0.0
 10
12.663002374
 20
8.8522048507
 30
0.0
 10
12.6636027661
 20
8.8453631885
 30
0.0
 10
12.6642031662
 20
8.8385215429
 30
0.0
 10
12.6647034866
 20
8.8328201399
 30
0.0
 10
12.6651037701
 20
8.8282590853
 30
0.0
 10
12.6653538859
 20
8.8254082724
 30
0.0
 10
12.6655541192
 20
8.8231279743
 30
0.0
 10
12.665703909
 20
8.8214167863
 30
0.0
 10
12.665829959
 20
8.8199938644
 30
0.0
 10
12.6659157896
 20
8.8189917979
 30
0.0
 10
12.6659685901
 20
8.8184285901
 30
0.0
 10
12.6659976142
 20
8.8179796996
 30
0.0
 10
12.6660670659
 20
8.8176320468
 30
0.0
 10
12.6661455666
 20
8.8171331968
 30
0.0
 10
12.6662895131
 20
8.8162766622
 30
0.0
 10
12.6664917159
 20
8.8150444396
 30
0.0
 10
12.6667358296
 20
8.8135694543
 30
0.0
 10
12.6670608009
 20
8.8116015212
 30
0.0
 10
12.667467191
 20
8.8091420453
 30
0.0
 10
12.6681173167
 20
8.8052066375
 30
0.0
 10
12.6689300078
 20
8.800287463
 30
0.0
 10
12.6699052217
 20
8.7943844142
 30
0.0
 10
12.6708804432
 20
8.7884813865
 30
0.0
 10
12.6716931152
 20
8.7835621594
 30
0.0
 10
12.6723432792
 20
8.7796268567
 30
0.0
 10
12.672749572
 20
8.7771671138
 30
0.0
 10
12.6730747429
 20
8.7751997287
 30
0.0
 10
12.6733182471
 20
8.7737230693
 30
0.0
 10
12.6735223568
 20
8.7724960846
 30
0.0
 10
12.6736628991
 20
8.7716301994
 30
0.0
 10
12.6737468541
 20
8.7711463315
 30
0.0
 10
12.6737995522
 20
8.7707526583
 30
0.0
 10
12.6738915001
 20
8.7704766127
 30
0.0
 10
12.6740004065
 20
8.7700675221
 30
0.0
 10
12.6741973716
 20
8.76937073
 30
0.0
 10
12.6744754154
 20
8.7683653185
 30
0.0
 10
12.6748104953
 20
8.7671631026
 30
0.0
 10
12.67525677
 20
8.7655586538
 30
0.0
 10
12.6758147841
 20
8.7635536045
 30
0.0
 10
12.6767075112
 20
8.7603452396
 30
0.0
 10
12.6778234528
 20
8.7563348815
 30
0.0
 10
12.6791625687
 20
8.7515224099
 30
0.0
 10
12.6802785018
 20
8.7475120261
 30
0.0
 10
12.6811712477
 20
8.7443037179
 30
0.0
 10
12.6818408069
 20
8.741897485
 30
0.0
 10
12.6825103674
 20
8.7394912594
 30
0.0
 10
12.6830683302
 20
8.7374860483
 30
0.0
 10
12.68351471
 20
8.7358819313
 30
0.0
 10
12.6837936756
 20
8.7348792401
 30
0.0
 10
12.684016898
 20
8.7340773577
 30
0.0
 10
12.6841841782
 20
8.7334752049
 30
0.0
 10
12.6843240131
 20
8.7329757681
 30
0.0
 10
12.6844210442
 20
8.7326215364
 30
0.0
 10
12.684477823
 20
8.7324263413
 30
0.0
 10
12.6845166535
 20
8.7322595977
 30
0.0
 10
12.6845698321
 20
8.7321706314
 30
0.0
 10
12.6846357322
 20
8.7320248801
 30
0.0
 10
12.6847533891
 20
8.7317824555
 30
0.0
 10
12.6849202513
 20
8.7314295262
 30
0.0
 10
12.6851210078
 20
8.7310088397
 30
0.0
 10
12.6853885009
 20
8.7304469363
 30
0.0
 10
12.6857229296
 20
8.7297448954
 30
0.0
 10
12.6862579806
 20
8.7286214409
 30
0.0
 10
12.6869268065
 20
8.7272171876
 30
0.0
 10
12.6877293923
 20
8.7255320559
 30
0.0
 10
12.6885319795
 20
8.7238469316
 30
0.0
 10
12.6896020953
 20
8.7216000965
 30
0.0
 10
12.6909397402
 20
8.7187915537
 30
0.0
 10
12.692277385
 20
8.7159830103
 30
0.0
 10
12.693347501
 20
8.7137361763
 30
0.0
 10
12.6941500877
 20
8.7120510488
 30
0.0
 10
12.6949526755
 20
8.7103659289
 30
0.0
 10
12.6956214951
 20
8.7089616387
 30
0.0
 10
12.6961565589
 20
8.7078382596
 30
0.0
 10
12.6964909552
 20
8.7071360267
 30
0.0
 10
12.6967585147
 20
8.7065745173
 30
0.0
 10
12.6969590684
 20
8.7061526273
 30
0.0
 10
12.697126565
 20
8.7058034633
 30
0.0
 10
12.6972430893
 20
8.705554317
 30
0.0
 10
12.6973108042
 20
8.7054193356
 30
0.0
 10
12.6973584084
 20
8.7052972877
 30
0.0
 10
12.6974181753
 20
8.7052547929
 30
0.0
 10
12.697493622
 20
8.7051703841
 30
0.0
 10
12.6976276303
 20
8.7050355975
 30
0.0
 10
12.6978180374
 20
8.7048362859
 30
0.0
 10
12.6980469683
 20
8.7046000052
 30
0.0
 10
12.6983520549
 20
8.7042839537
 30
0.0
 10
12.6987334661
 20
8.7038892354
 30
0.0
 10
12.6993436944
 20
8.7032574926
 30
0.0
 10
12.7001064899
 20
8.7024678806
 30
0.0
 10
12.7010218402
 20
8.7015203176
 30
0.0
 10
12.7019371917
 20
8.7005727623
 30
0.0
 10
12.7031576599
 20
8.6993093526
 30
0.0
 10
12.7046832453
 20
8.6977300914
 30
0.0
 10
12.7062088307
 20
8.6961508295
 30
0.0
 10
12.707429299
 20
8.6948874208
 30
0.0
 10
12.7083446501
 20
8.6939398623
 30
0.0
 10
12.7092600019
 20
8.6929923116
 30
0.0
 10
12.7100227927
 20
8.6922026613
 30
0.0
 10
12.7106330308
 20
8.6915709967
 30
0.0
 10
12.7110144169
 20
8.6911760795
 30
0.0
 10
12.711319555
 20
8.6908604361
 30
0.0
 10
12.7115483286
 20
8.6906229086
 30
0.0
 10
12.7117392278
 20
8.690427498
 30
0.0
 10
12.7118723576
 20
8.6902857475
 30
0.0
 10
12.711949212
 20
8.6902124966
 30
0.0
 10
12.7120046548
 20
8.6901357283
 30
0.0
 10
12.7120684996
 20
8.6901424058
 30
0.0
 10
12.7121506953
 20
8.6901222023
 30
0.0
 10
12.7122959032
 20
8.6901004076
 30
0.0
 10
12.7125026292
 20
8.6900621822
 30
0.0
 10
12.712751006
 20
8.6900193466
 30
0.0
 10
12.7130820683
 20
8.6899611724
 30
0.0
 10
12.7134959328
 20
8.6898888176
 30
0.0
 10
12.7141580955
 20
8.689772847
 30
0.0
 10
12.7149858059
 20
8.6896279535
 30
0.0
 10
12.7159790553
 20
8.6894540514
 30
0.0
 10
12.7169723056
 20
8.6892801573
 30
0.0
 10
12.718296639
 20
8.6890482956
 30
0.0
 10
12.7199520558
 20
8.6887584696
 30
0.0
 10
12.7216074726
 20
8.6884686429
 30
0.0
 10
12.7229318061
 20
8.6882367824
 30
0.0
 10
12.723925056
 20
8.6880628849
 30
0.0
 10
12.7249183066
 20
8.6878889956
 30
0.0
 10
12.7257460135
 20
8.6877440622
 30
0.0
 10
12.7264081833
 20
8.6876281729
 30
0.0
 10
12.7268220297
 20
8.6875556113
 30
0.0
 10
12.7271531289
 20
8.6874978616
 30
0.0
 10
12.7274013931
 20
8.6874537292
 30
0.0
 10
12.7276084716
 20
8.6874195611
 30
0.0
 10
12.7277530503
 20
8.6873905235
 30
0.0
 10
12.7278362541
 20
8.6873819249
 30
0.0
 10
12.7278970023
 20
8.687352956
 30
0.0
 10
12.7279640756
 20
8.6874100696
 30
0.0
 10
12.7280513003
 20
8.6874561946
 30
0.0
 10
12.7282049716
 20
8.6875509031
 30
0.0
 10
12.7284239646
 20
8.687678887
 30
0.0
 10
12.7286869862
 20
8.6878355984
 30
0.0
 10
12.7290376013
 20
8.6880434534
 30
0.0
 10
12.7294758977
 20
8.6883036465
 30
0.0
 10
12.7301771567
 20
8.6887197462
 30
0.0
 10
12.7310537356
 20
8.6892399427
 30
0.0
 10
12.732105628
 20
8.6898641477
 30
0.0
 10
12.733157521
 20
8.690488361
 30
0.0
 10
12.7345600449
 20
8.6913206424
 30
0.0
 10
12.7363131997
 20
8.6923609953
 30
0.0
 10
12.7380663546
 20
8.6934013475
 30
0.0
 10
12.7394688784
 20
8.6942336301
 30
0.0
 10
12.7405207714
 20
8.6948578399
 30
0.0
 10
12.7415726642
 20
8.6954820576
 30
0.0
 10
12.742449242
 20
8.6960022148
 30
0.0
 10
12.743150503
 20
8.6964183947
 30
0.0
 10
12.7435887941
 20
8.6966783838
 30
0.0
 10
12.7439394202
 20
8.6968866575
 30
0.0
 10
12.7442024085
 20
8.6970420896
 30
0.0
 10
12.7444215058
 20
8.6971740761
 30
0.0
 10
12.7445749908
 20
8.6972616393
 30
0.0
 10
12.744662514
 20
8.6973192129
 30
0.0
 10
12.7447286705
 20
8.6973411601
 30
0.0
 10
12.7447928621
 20
8.6974442704
 30
0.0
 10
12.7448791363
 20
8.6975534403
 30
0.0
 10
12.7450297968
 20
8.6977576779
 30
0.0
 10
12.7452451931
 20
8.6980425499
 30
0.0
 10
12.7455035972
 20
8.6983873481
 30
0.0
 10
12.7458481609
 20
8.6988460479
 30
0.0
 10
12.7462788571
 20
8.6994197757
 30
0.0
 10
12.7469679756
 20
8.700337543
 30
0.0
 10
12.7478293722
 20
8.7014848197
 30
0.0
 10
12.7488630488
 20
8.7028615228
 30
0.0
 10
12.7498967252
 20
8.7042382336
 30
0.0
 10
12.7512749605
 20
8.7060738454
 30
0.0
 10
12.7529977546
 20
8.7083683607
 30
0.0
 10
12.7547205486
 20
8.7106628767
 30
0.0
 10
12.7560987839
 20
8.7124984875
 30
0.0
 10
12.7571324601
 20
8.713875201
 30
0.0
 10
12.7581661375
 20
8.7152518941
 30
0.0
 10
12.7590275317
 20
8.7163992021
 30
0.0
 10
12.7597166551
 20
8.7173169055
 30
0.0
 10
12.760147339
 20
8.7178907957
 30
0.0
 10
12.7604919278
 20
8.7183491623
 30
0.0
 10
12.7607502552
 20
8.7186949786
 30
0.0
 10
12.7609658913
 20
8.7189766648
 30
0.0
 10
12.7611375856
 20
8.7192165789
 30
0.0
 10
12.761268582
 20
8.7193567156
 30
0.0
 10
12.7613910832
 20
8.719648765
 30
0.0
 10
12.7615573856
 20
8.719985099
 30
0.0
 10
12.7617642455
 20
8.720423723
 30
0.0
 10
12.7620129131
 20
8.7209422788
 30
0.0
 10
12.7623443178
 20
8.7216364085
 30
0.0
 10
12.7627586258
 20
8.7225031385
 30
0.0
 10
12.7634214894
 20
8.7238904276
 30
0.0
 10
12.7642500789
 20
8.7256243601
 30
0.0
 10
12.765244382
 20
8.7277051558
 30
0.0
 10
12.7662386863
 20
8.7297859309
 30
0.0
 10
12.7675644249
 20
8.7325603053
 30
0.0
 10
12.7692215986
 20
8.736028268
 30
0.0
 10
12.7712102054
 20
8.7401898375
 30
0.0
 10
12.7728673827
 20
8.7436577715
 30
0.0
 10
12.7741931134
 20
8.7464322088
 30
0.0
 10
12.7750217204
 20
8.7481660273
 30
0.0
 10
12.7756845481
 20
8.7495535511
 30
0.0
 10
12.7761818275
 20
8.7505929099
 30
0.0
 10
12.7765957221
 20
8.751463127
 30
0.0
 10
12.7768864393
 20
8.7520642626
 30
0.0
 10
12.777051016
 20
8.7524202856
 30
0.0
 10
12.7771788077
 20
8.7526520425
 30
0.0
 10
12.7772899364
 20
8.7530185823
 30
0.0
 10
12.7774439202
 20
8.7534602881
 30
0.0
 10
12.7777106838
 20
8.754255178
 30
0.0
 10
12.7780931904
 20
8.7553792829
 30
0.0
 10
12.7785515924
 20
8.7567331107
 30
0.0
 10
12.7791630067
 20
8.7585365023
 30
0.0
 10
12.7799272021
 20
8.760791328
 30
0.0
 10
12.7811499553
 20
8.7643987213
 30
0.0
 10
12.7826783828
 20
8.7689080762
 30
0.0
 10
12.7845125022
 20
8.7743192506
 30
0.0
 10
12.786346618
 20
8.7797304499
 30
0.0
 10
12.7878750546
 20
8.7842397423
 30
0.0
 10
12.7890977895
 20
8.7878472608
 30
0.0
 10
12.7898620313
 20
8.7901017685
 30
0.0
 10
12.7904733504
 20
8.7919058127
 30
0.0
 10
12.7909320433
 20
8.7932576468
 30
0.0
 10
12.79131364
 20
8.7943879893
 30
0.0
 10
12.791582028
 20
8.795171744
 30
0.0
 10
12.791733409
 20
8.7956312912
 30
0.0
 10
12.7918525326
 20
8.7959430281
 30
0.0
 10
12.7919502966
 20
8.7963806154
 30
0.0
 10
12.792088099
 20
8.7969201671
 30
0.0
 10
12.792325782
 20
8.7978848355
 30
0.0
 10
12.7926671439
 20
8.7992522401
 30
0.0
 10
12.7930760014
 20
8.8008977027
 30
0.0
 10
12.7936214161
 20
8.8030900541
 30
0.0
 10
12.7943030915
 20
8.8058310408
 30
0.0
 10
12.7953938242
 20
8.8102163134
 30
0.0
 10
12.7967572219
 20
8.8156980097
 30
0.0
 10
12.7983933078
 20
8.8222759982
 30
0.0
 10
12.8000293883
 20
8.8288540059
 30
0.0
 10
12.8013927995
 20
8.8343356542
 30
0.0
 10
12.8024835054
 20
8.8387210228
 30
0.0
 10
12.8031652487
 20
8.8414617657
 30
0.0
 10
12.8037105241
 20
8.8436546175
 30
0.0
 10
12.804119807
 20
8.8452985513
 30
0.0
 10
12.804459838
 20
8.8466707391
 30
0.0
 10
12.8046998969
 20
8.8476268687
 30
0.0
 10
12.8048338924
 20
8.8481801016
 30
0.0
 10
12.8049433501
 20
8.8485756647
 30
0.0
 10
12.8050185542
 20
8.8490452374
 30
0.0
 10
12.8051307744
 20
8.849645519
 30
0.0
 10
12.8053215929
 20
8.8507080395
 30
0.0
 10
12.8055971011
 20
8.8522196377
 30
0.0
 10
12.8059264653
 20
8.8540362472
 30
0.0
 10
12.8063660526
 20
8.856457453
 30
0.0
 10
12.8069153877
 20
8.8594842823
 30
0.0
 10
12.8077944075
 20
8.8643270287
 30
0.0
 10
12.8088931514
 20
8.8703805268
 30
0.0
 10
12.8102116664
 20
8.8776446827
 30
0.0
 10
12.8115301416
 20
8.8849089016
 30
0.0
 10
12.812628985
 20
8.8909622423
 30
0.0
 10
12.813507806
 20
8.8958053035
 30
0.0
 10
12.8141676142
 20
8.8994365383
 30
0.0
 10
12.8147152519
 20
8.9024659426
 30
0.0
 10
12.8151029206
 20
8.9045799017
 30
0.0
 10
12.8153176967
 20
8.9057982209
 30
0.0
 10
12.8154977905
 20
8.9066828253
 30
0.0
 10
12.8156052115
 20
8.9076787985
 30
0.0
 10
12.8157737886
 20
8.908967916
 30
0.0
 10
12.8160569878
 20
8.9112419711
 30
0.0
 10
12.8164677329
 20
8.9144811587
 30
0.0
 10
12.816957984
 20
8.9183722341
 30
0.0
 10
12.8176125757
 20
8.9235589197
 30
0.0
 10
12.818430496
 20
8.9300427635
 30
0.0
 10
12.8194121474
 20
8.9378231615
 30
0.0
 10
12.8203937218
 20
8.9456036391
 30
0.0
 10
12.8212118345
 20
8.9520872837
 30
0.0
 10
12.8218660414
 20
8.9572743676
 30
0.0
 10
12.8223574661
 20
8.9611642281
 30
0.0
 10
12.8227645396
 20
8.9644072164
 30
0.0
 10
12.8230542932
 20
8.9666744867
 30
0.0
 10
12.8232123686
 20
8.9679744753
 30
0.0
 10
12.8233520471
 20
8.968937056
 30
0.0
 10
12.8234109872
 20
8.9699470769
 30
0.0
 10
12.8235177363
 20
8.9712772237
 30
0.0
 10
12.823691426
 20
8.9736126906
 30
0.0
 10
12.8239464142
 20
8.976945041
 30
0.0
 10
12.8242494635
 20
8.9809455868
 30
0.0
 10
12.8246545554
 20
8.9862790451
 30
0.0
 10
12.8251605657
 20
8.9929460752
 30
0.0
 10
12.8257679408
 20
9.000946421
 30
0.0
 10
12.8263752324
 20
9.0089467964
 30
0.0
 10
12.8268814515
 20
9.0156137524
 30
0.0
 10
12.8272861259
 20
9.0209473589
 30
0.0
 10
12.8275904486
 20
9.0249474528
 30
0.0
 10
12.8278414531
 20
9.0282812169
 30
0.0
 10
12.8280222542
 20
9.03061416
 30
0.0
 10
12.8281176091
 20
9.0319483504
 30
0.0
 10
12.8282115489
 20
9.0329459508
 30
0.0
 10
12.828219774
 20
9.0339551807
 30
0.0
 10
12.8282606392
 20
9.0352967641
 30
0.0
 10
12.828318223
 20
9.037646425
 30
0.0
 10
12.8284077684
 20
9.0410020952
 30
0.0
 10
12.8285121056
 20
9.0450293225
 30
0.0
 10
12.8286523107
 20
9.0503988112
 30
0.0
 10
12.8288271943
 20
9.0571107225
 30
0.0
 10
12.8291072164
 20
9.0678497525
 30
0.0
 10
12.8294571721
 20
9.0812735497
 30
0.0
 10
12.8297371585
 20
9.0920125844
 30
0.0
 10
12.829877149
 20
9.0973821022
 30
0.0
  0
SPLINE
  5
3CE
100
AcDbEntity
  8
0
100
AcDbSpline
 62
4
  6
CONTINUOUS
 70
0
 71
3
 72
334
 73
330
 74
0
 42
0.0000001
 43
0.0000001
 44
0.0000000001
 40
0.0
 40
0.0
 40
0.0
 40
0.0
 40
0.015625
 40
0.0234375
 40
0.03125
 40
0.0390625
 40
0.046875
 40
0.05078125
 40
0.0546875
 40
0.056640625
 40
0.05859375
 40
0.060546875
 40
0.0615234375
 40
0.0620117188
 40
0.0625
 40
0.0629882812
 40
0.0634765625
 40
0.064453125
 40
0.06640625
 40
0.068359375
 40
0.0703125
 40
0.07421875
 40
0.078125
 40
0.0859375
 40
0.09375
 40
0.1015625
 40
0.109375
 40
0.11328125
 40
0.1171875
 40
0.119140625
 40
0.12109375
 40
0.123046875
 40
0.1240234375
 40
0.1245117188
 40
0.125
 40
0.1254882812
 40
0.1259765625
 40
0.126953125
 40
0.12890625
 40
0.130859375
 40
0.1328125
 40
0.13671875
 40
0.140625
 40
0.1484375
 40
0.15625
 40
0.1640625
 40
0.171875
 40
0.17578125
 40
0.1796875
 40
0.181640625
 40
0.18359375
 40
0.185546875
 40
0.1865234375
 40
0.1870117188
 40
0.1875
 40
0.1879882812
 40
0.1884765625
 40
0.189453125
 40
0.19140625
 40
0.193359375
 40
0.1953125
 40
0.19921875
 40
0.203125
 40
0.2109375
 40
0.21875
 40
0.2265625
 40
0.23046875
 40
0.234375
 40
0.23828125
 40
0.2421875
 40
0.244140625
 40
0.24609375
 40
0.2470703125
 40
0.248046875
 40
0.2490234375
 40
0.2495117188
 40
0.2497558594
 40
0.25
 40
0.2502441406
 40
0.2504882812
 40
0.2509765625
 40
0.251953125
 40
0.2529296875
 40
0.25390625
 40
0.255859375
 40
0.2578125
 40
0.26171875
 40
0.265625
 40
0.26953125
 40
0.2734375
 40
0.28125
 40
0.2890625
 40
0.29296875
 40
0.296875
 40
0.30078125
 40
0.3046875
 40
0.306640625
 40
0.30859375
 40
0.3095703125
 40
0.310546875
 40
0.3115234375
 40
0.3120117188
 40
0.3122558594
 40
0.3125
 40
0.3127441406
 40
0.3129882812
 40
0.3134765625
 40
0.314453125
 40
0.3154296875
 40
0.31640625
 40
0.318359375
 40
0.3203125
 40
0.32421875
 40
0.328125
 40
0.33203125
 40
0.3359375
 40
0.34375
 40
0.3515625
 40
0.35546875
 40
0.359375
 40
0.36328125
 40
0.3671875
 40
0.369140625
 40
0.37109375
 40
0.3720703125
 40
0.373046875
 40
0.3740234375
 40
0.3745117188
 40
0.3747558594
 40
0.375
 40
0.3752441406
 40
0.3754882812
 40
0.3759765625
 40
0.376953125
 40
0.3779296875
 40
0.37890625
 40
0.380859375
 40
0.3828125
 40
0.38671875
 40
0.390625
 40
0.39453125
 40
0.3984375
 40
0.40625
 40
0.4140625
 40
0.41796875
 40
0.421875
 40
0.42578125
 40
0.4296875
 40
0.431640625
 40
0.43359375
 40
0.4345703125
 40
0.435546875
 40
0.4365234375
 40
0.4370117188
 40
0.4372558594
 40
0.4375
 40
0.4377441406
 40
0.4379882812
 40
0.4384765625
 40
0.439453125
 40
0.4404296875
 40
0.44140625
 40
0.443359375
 40
0.4453125
 40
0.44921875
 40
0.453125
 40
0.45703125
 40
0.4609375
 40
0.46875
 40
0.4765625
 40
0.48046875
 40
0.484375
 40
0.48828125
 40
0.4921875
 40
0.494140625
 40
0.49609375
 40
0.4970703125
 40
0.498046875
 40
0.4990234375
 40
0.4995117188
 40
0.4997558594
 40
0.5
 40
0.5002441406
 40
0.5004882812
 40
0.5009765625
 40
0.501953125
 40
0.5029296875
 40
0.50390625
 40
0.505859375
 40
0.5078125
 40
0.51171875
 40
0.515625
 40
0.51953125
 40
0.5234375
 40
0.53125
 40
0.5390625
 40
0.54296875
 40
0.546875
 40
0.55078125
 40
0.5546875
 40
0.556640625
 40
0.55859375
 40
0.5595703125
 40
0.560546875
 40
0.5615234375
 40
0.5620117188
 40
0.5625
 40
0.5629882812
 40
0.5634765625
 40
0.564453125
 40
0.5654296875
 40
0.56640625
 40
0.568359375
 40
0.5703125
 40
0.57421875
 40
0.578125
 40
0.58203125
 40
0.5859375
 40
0.59375
 40
0.6015625
 40
0.609375
 40
0.61328125
 40
0.6171875
 40
0.619140625
 40
0.62109375
 40
0.623046875
 40
0.6240234375
 40
0.6245117188
 40
0.625
 40
0.6254882812
 40
0.6259765625
 40
0.626953125
 40
0.62890625
 40
0.630859375
 40
0.6328125
 40
0.63671875
 40
0.640625
 40
0.6484375
 40
0.65625
 40
0.6640625
 40
0.671875
 40
0.67578125
 40
0.6796875
 40
0.681640625
 40
0.68359375
 40
0.685546875
 40
0.6865234375
 40
0.6870117188
 40
0.6875
 40
0.6879882812
 40
0.6884765625
 40
0.689453125
 40
0.69140625
 40
0.693359375
 40
0.6953125
 40
0.69921875
 40
0.703125
 40
0.7109375
 40
0.71875
 40
0.7265625
 40
0.734375
 40
0.73828125
 40
0.7421875
 40
0.744140625
 40
0.74609375
 40
0.748046875
 40
0.7490234375
 40
0.7495117188
 40
0.75
 40
0.7504882812
 40
0.7509765625
 40
0.751953125
 40
0.75390625
 40
0.755859375
 40
0.7578125
 40
0.76171875
 40
0.765625
 40
0.7734375
 40
0.78125
 40
0.7890625
 40
0.796875
 40
0.80078125
 40
0.8046875
 40
0.80859375
 40
0.810546875
 40
0.8115234375
 40
0.8125
 40
0.8134765625
 40
0.814453125
 40
0.81640625
 40
0.8203125
 40
0.82421875
 40
0.828125
 40
0.8359375
 40
0.84375
 40
0.8515625
 40
0.859375
 40
0.86328125
 40
0.8671875
 40
0.87109375
 40
0.873046875
 40
0.8740234375
 40
0.875
 40
0.8759765625
 40
0.876953125
 40
0.87890625
 40
0.8828125
 40
0.88671875
 40
0.890625
 40
0.8984375
 40
0.90625
 40
0.9140625
 40
0.921875
 40
0.92578125
 40
0.9296875
 40
0.93359375
 40
0.935546875
 40
0.9365234375
 40
0.9375
 40
0.9384765625
 40
0.939453125
 40
0.94140625
 40
0.9453125
 40
0.94921875
 40
0.953125
 40
0.9609375
 40
0.96875
 40
0.984375
 40
1.0
 40
1.0
 40
1.0
 40
1.0
 10
12.829877149
 20
9.0973820744
 30
0.0
 10
12.8297420119
 20
9.1023951905
 30
0.0
 10
12.8295393063
 20
9.1099148648
 30
0.0
 10
12.8292690317
 20
9.1199410965
 30
0.0
 10
12.8290663268
 20
9.1274607721
 30
0.0
 10
12.8288636179
 20
9.1349804407
 30
0.0
 10
12.8286947065
 20
9.141246853
 30
0.0
 10
12.8285595488
 20
9.1462599341
 30
0.0
 10
12.8284751404
 20
9.1493932208
 30
0.0
 10
12.8284074644
 20
9.1518995958
 30
0.0
 10
12.8283571161
 20
9.1537800737
 30
0.0
 10
12.8283138592
 20
9.1553449223
 30
0.0
 10
12.8282861305
 20
9.1564446658
 30
0.0
 10
12.8282663021
 20
9.1570662993
 30
0.0
 10
12.8282626523
 20
9.1575516558
 30
0.0
 10
12.8282161082
 20
9.1579638823
 30
0.0
 10
12.8281690115
 20
9.1585390262
 30
0.0
 10
12.8280796211
 20
9.1595336432
 30
0.0
 10
12.8279555652
 20
9.1609607381
 30
0.0
 10
12.827805138
 20
9.1626705924
 30
0.0
 10
12.8276051134
 20
9.164951327
 30
0.0
 10
12.827354896
 20
9.1678019272
 30
0.0
 10
12.8269546524
 20
9.1723630655
 30
0.0
 10
12.826454312
 20
9.1780644267
 30
0.0
 10
12.8258539199
 20
9.1849060889
 30
0.0
 10
12.8252535198
 20
9.1917477345
 30
0.0
 10
12.8247531994
 20
9.1974491375
 30
0.0
 10
12.8243529159
 20
9.2020101921
 30
0.0
 10
12.8241028001
 20
9.204861005
 30
0.0
 10
12.8239025668
 20
9.2071413031
 30
0.0
 10
12.823752777
 20
9.2088524911
 30
0.0
 10
12.823626727
 20
9.210275413
 30
0.0
 10
12.8235408964
 20
9.2112774795
 30
0.0
 10
12.8234880959
 20
9.2118406873
 30
0.0
 10
12.8234590718
 20
9.2122895778
 30
0.0
 10
12.8233896201
 20
9.2126372307
 30
0.0
 10
12.8233111194
 20
9.2131360807
 30
0.0
 10
12.8231671729
 20
9.2139926152
 30
0.0
 10
12.8229649701
 20
9.2152248378
 30
0.0
 10
12.8227208564
 20
9.2166998231
 30
0.0
 10
12.8223958851
 20
9.2186677562
 30
0.0
 10
12.821989495
 20
9.2211272321
 30
0.0
 10
12.8213393693
 20
9.2250626399
 30
0.0
 10
12.8205266782
 20
9.2299818144
 30
0.0
 10
12.8195514643
 20
9.2358848632
 30
0.0
 10
12.8185762428
 20
9.2417878909
 30
0.0
 10
12.8177635708
 20
9.246707118
 30
0.0
 10
12.8171134068
 20
9.2506424207
 30
0.0
 10
12.816707114
 20
9.2531021637
 30
0.0
 10
12.8163819431
 20
9.2550695487
 30
0.0
 10
12.8161384389
 20
9.2565462082
 30
0.0
 10
12.8159343292
 20
9.2577731928
 30
0.0
 10
12.8157937869
 20
9.258639078
 30
0.0
 10
12.8157098319
 20
9.2591229459
 30
0.0
 10
12.8156571338
 20
9.2595166191
 30
0.0
 10
12.8155651859
 20
9.2597926647
 30
0.0
 10
12.8154562794
 20
9.2602017554
 30
0.0
 10
12.8152593144
 20
9.2608985474
 30
0.0
 10
12.8149812706
 20
9.2619039589
 30
0.0
 10
12.8146461907
 20
9.2631061748
 30
0.0
 10
12.814199916
 20
9.2647106236
 30
0.0
 10
12.8136419019
 20
9.266715673
 30
0.0
 10
12.8127491748
 20
9.2699240379
 30
0.0
 10
12.8116332332
 20
9.2739343959
 30
0.0
 10
12.8102941173
 20
9.2787468675
 30
0.0
 10
12.8091781842
 20
9.2827572513
 30
0.0
 10
12.8082854383
 20
9.2859655596
 30
0.0
 10
12.8076158791
 20
9.2883717925
 30
0.0
 10
12.8069463186
 20
9.290778018
 30
0.0
 10
12.8063883558
 20
9.2927832291
 30
0.0
 10
12.805941976
 20
9.2943873461
 30
0.0
 10
12.8056630104
 20
9.2953900374
 30
0.0
 10
12.805439788
 20
9.2961919198
 30
0.0
 10
12.8052725078
 20
9.2967940725
 30
0.0
 10
12.8051326729
 20
9.2972935093
 30
0.0
 10
12.8050356418
 20
9.297647741
 30
0.0
 10
12.804978863
 20
9.2978429361
 30
0.0
 10
12.8049400325
 20
9.2980096797
 30
0.0
 10
12.8048868539
 20
9.298098646
 30
0.0
 10
12.8048209538
 20
9.2982443973
 30
0.0
 10
12.8047032969
 20
9.2984868219
 30
0.0
 10
12.8045364347
 20
9.2988397512
 30
0.0
 10
12.8043356782
 20
9.2992604377
 30
0.0
 10
12.8040681851
 20
9.2998223411
 30
0.0
 10
12.8037337564
 20
9.300524382
 30
0.0
 10
12.8031987054
 20
9.3016478365
 30
0.0
 10
12.8025298795
 20
9.3030520898
 30
0.0
 10
12.8017272937
 20
9.3047372216
 30
0.0
 10
12.8009247065
 20
9.3064223459
 30
0.0
 10
12.7998545907
 20
9.3086691809
 30
0.0
 10
12.7985169458
 20
9.3114777237
 30
0.0
 10
12.797179301
 20
9.3142862672
 30
0.0
 10
12.796109185
 20
9.3165331011
 30
0.0
 10
12.7953065983
 20
9.3182182286
 30
0.0
 10
12.7945040105
 20
9.3199033485
 30
0.0
 10
12.7938351909
 20
9.3213076387
 30
0.0
 10
12.7933001271
 20
9.3224310179
 30
0.0
 10
12.7929657308
 20
9.3231332507
 30
0.0
 10
12.7926981713
 20
9.3236947601
 30
0.0
 10
12.7924976176
 20
9.3241166501
 30
0.0
 10
12.792330121
 20
9.3244658141
 30
0.0
 10
12.7922135967
 20
9.3247149604
 30
0.0
 10
12.7921458818
 20
9.3248499419
 30
0.0
 10
12.7920982776
 20
9.3249719897
 30
0.0
 10
12.7920385107
 20
9.3250144845
 30
0.0
 10
12.791963064
 20
9.3250988933
 30
0.0
 10
12.7918290557
 20
9.3252336799
 30
0.0
 10
12.7916386486
 20
9.3254329915
 30
0.0
 10
12.7914097177
 20
9.3256692722
 30
0.0
 10
12.7911046311
 20
9.3259853237
 30
0.0
 10
12.7907232199
 20
9.3263800421
 30
0.0
 10
12.7901129916
 20
9.3270117848
 30
0.0
 10
12.7893501961
 20
9.3278013969
 30
0.0
 10
12.7884348458
 20
9.3287489598
 30
0.0
 10
12.7875194943
 20
9.3296965151
 30
0.0
 10
12.7862990261
 20
9.3309599248
 30
0.0
 10
12.7847734407
 20
9.332539186
 30
0.0
 10
12.7832478553
 20
9.3341184479
 30
0.0
 10
12.782027387
 20
9.3353818566
 30
0.0
 10
12.7811120359
 20
9.3363294152
 30
0.0
 10
12.7801966841
 20
9.3372769658
 30
0.0
 10
12.7794338933
 20
9.3380666162
 30
0.0
 10
12.7788236552
 20
9.3386982808
 30
0.0
 10
12.7784422691
 20
9.3390931979
 30
0.0
 10
12.778137131
 20
9.3394088413
 30
0.0
 10
12.7779083574
 20
9.3396463688
 30
0.0
 10
12.7777174582
 20
9.3398417795
 30
0.0
 10
12.7775843284
 20
9.3399835299
 30
0.0
 10
12.777507474
 20
9.3400567808
 30
0.0
 10
12.7774520312
 20
9.3401335491
 30
0.0
 10
12.7773881864
 20
9.3401268716
 30
0.0
 10
12.7773059907
 20
9.3401470751
 30
0.0
 10
12.7771607828
 20
9.3401688698
 30
0.0
 10
12.7769540568
 20
9.3402070952
 30
0.0
 10
12.77670568
 20
9.3402499308
 30
0.0
 10
12.7763746177
 20
9.340308105
 30
0.0
 10
12.7759607532
 20
9.3403804598
 30
0.0
 10
12.7752985905
 20
9.3404964304
 30
0.0
 10
12.7744708801
 20
9.3406413239
 30
0.0
 10
12.7734776307
 20
9.340815226
 30
0.0
 10
12.7724843804
 20
9.3409891202
 30
0.0
 10
12.771160047
 20
9.3412209818
 30
0.0
 10
12.7695046302
 20
9.3415108078
 30
0.0
 10
12.7678492134
 20
9.3418006345
 30
0.0
 10
12.7665248799
 20
9.342032495
 30
0.0
 10
12.76553163
 20
9.3422063925
 30
0.0
 10
12.7645383794
 20
9.3423802818
 30
0.0
 10
12.7637106725
 20
9.3425252152
 30
0.0
 10
12.7630485027
 20
9.3426411045
 30
0.0
 10
12.7626346563
 20
9.3427136661
 30
0.0
 10
12.7623035571
 20
9.3427714158
 30
0.0
 10
12.7620552929
 20
9.3428155482
 30
0.0
 10
12.7618482144
 20
9.3428497164
 30
0.0
 10
12.7617036357
 20
9.3428787539
 30
0.0
 10
12.7616204319
 20
9.3428873525
 30
0.0
 10
12.7615596837
 20
9.3429163214
 30
0.0
 10
12.7614926104
 20
9.3428592078
 30
0.0
 10
12.7614053857
 20
9.3428130829
 30
0.0
 10
12.7612517144
 20
9.3427183743
 30
0.0
 10
12.7610327214
 20
9.3425903904
 30
0.0
 10
12.7607696998
 20
9.342433679
 30
0.0
 10
12.7604190847
 20
9.3422258241
 30
0.0
 10
12.7599807883
 20
9.3419656309
 30
0.0
 10
12.7592795293
 20
9.3415495312
 30
0.0
 10
12.7584029504
 20
9.3410293347
 30
0.0
 10
12.757351058
 20
9.3404051297
 30
0.0
 10
12.756299165
 20
9.3397809164
 30
0.0
 10
12.7548966411
 20
9.338948635
 30
0.0
 10
12.7531434863
 20
9.3379082821
 30
0.0
 10
12.7513903314
 20
9.3368679299
 30
0.0
 10
12.7499878076
 20
9.3360356474
 30
0.0
 10
12.7489359146
 20
9.3354114375
 30
0.0
 10
12.7478840218
 20
9.3347872198
 30
0.0
 10
12.747007444
 20
9.3342670626
 30
0.0
 10
12.746306183
 20
9.3338508827
 30
0.0
 10
12.7458678919
 20
9.3335908936
 30
0.0
 10
12.7455172658
 20
9.3333826199
 30
0.0
 10
12.7452542775
 20
9.3332271878
 30
0.0
 10
12.7450351802
 20
9.3330952013
 30
0.0
 10
12.7448816952
 20
9.3330076381
 30
0.0
 10
12.744794172
 20
9.3329500645
 30
0.0
 10
12.7447280155
 20
9.3329281173
 30
0.0
 10
12.7446638239
 20
9.332825007
 30
0.0
 10
12.7445775497
 20
9.3327158371
 30
0.0
 10
12.7444268891
 20
9.3325115995
 30
0.0
 10
12.7442114929
 20
9.3322267275
 30
0.0
 10
12.7439530888
 20
9.3318819294
 30
0.0
 10
12.7436085251
 20
9.3314232295
 30
0.0
 10
12.7431778289
 20
9.3308495017
 30
0.0
 10
12.7424887104
 20
9.3299317344
 30
0.0
 10
12.7416273138
 20
9.3287844577
 30
0.0
 10
12.7405936372
 20
9.3274077546
 30
0.0
 10
12.7395599608
 20
9.3260310438
 30
0.0
 10
12.7381817255
 20
9.3241954321
 30
0.0
 10
12.7364589314
 20
9.3219009167
 30
0.0
 10
12.7347361374
 20
9.3196064007
 30
0.0
 10
12.7333579021
 20
9.3177707899
 30
0.0
 10
12.7323242259
 20
9.3163940764
 30
0.0
 10
12.7312905485
 20
9.3150173834
 30
0.0
 10
12.7304291543
 20
9.3138700753
 30
0.0
 10
12.7297400309
 20
9.3129523719
 30
0.0
 10
12.729309347
 20
9.3123784817
 30
0.0
 10
12.7289647582
 20
9.3119201151
 30
0.0
 10
12.7287064308
 20
9.3115742988
 30
0.0
 10
12.7284907947
 20
9.3112926126
 30
0.0
 10
12.7283191004
 20
9.3110526985
 30
0.0
 10
12.728188104
 20
9.3109125618
 30
0.0
 10
12.7280656028
 20
9.3106205124
 30
0.0
 10
12.7278993004
 20
9.3102841784
 30
0.0
 10
12.7276924405
 20
9.3098455544
 30
0.0
 10
12.7274437729
 20
9.3093269986
 30
0.0
 10
12.7271123682
 20
9.308632869
 30
0.0
 10
12.7266980602
 20
9.3077661389
 30
0.0
 10
12.7260351966
 20
9.3063788498
 30
0.0
 10
12.7252066071
 20
9.3046449173
 30
0.0
 10
12.724212304
 20
9.3025641216
 30
0.0
 10
12.7232179997
 20
9.3004833465
 30
0.0
 10
12.7218922611
 20
9.2977089721
 30
0.0
 10
12.7202350874
 20
9.2942410094
 30
0.0
 10
12.7182464806
 20
9.29007944
 30
0.0
 10
12.7165893033
 20
9.2866115059
 30
0.0
 10
12.7152635726
 20
9.2838370686
 30
0.0
 10
12.7144349656
 20
9.2821032501
 30
0.0
 10
12.7137721379
 20
9.2807157263
 30
0.0
 10
12.7132748585
 20
9.2796763675
 30
0.0
 10
12.7128609639
 20
9.2788061504
 30
0.0
 10
12.7125702467
 20
9.2782050148
 30
0.0
 10
12.71240567
 20
9.2778489918
 30
0.0
 10
12.7122778783
 20
9.2776172349
 30
0.0
 10
12.7121667496
 20
9.2772506952
 30
0.0
 10
12.7120127658
 20
9.2768089893
 30
0.0
 10
12.7117460022
 20
9.2760140995
 30
0.0
 10
12.7113634956
 20
9.2748899945
 30
0.0
 10
12.7109050936
 20
9.2735361667
 30
0.0
 10
12.7102936793
 20
9.2717327752
 30
0.0
 10
12.7095294839
 20
9.2694779495
 30
0.0
 10
12.7083067307
 20
9.2658705561
 30
0.0
 10
12.7067783032
 20
9.2613612012
 30
0.0
 10
12.7049441838
 20
9.2559500268
 30
0.0
 10
12.703110068
 20
9.2505388275
 30
0.0
 10
12.7015816314
 20
9.2460295351
 30
0.0
 10
12.7003588965
 20
9.2424220167
 30
0.0
 10
12.6995946547
 20
9.2401675089
 30
0.0
 10
12.6989833355
 20
9.2383634648
 30
0.0
 10
12.6985246427
 20
9.2370116306
 30
0.0
 10
12.698143046
 20
9.2358812881
 30
0.0
 10
12.697874658
 20
9.2350975334
 30
0.0
 10
12.697723277
 20
9.2346379862
 30
0.0
 10
12.6976041534
 20
9.2343262493
 30
0.0
 10
12.6975063894
 20
9.233888662
 30
0.0
 10
12.697368587
 20
9.2333491103
 30
0.0
 10
12.697130904
 20
9.232384442
 30
0.0
 10
12.6967895421
 20
9.2310170373
 30
0.0
 10
12.6963806846
 20
9.2293715748
 30
0.0
 10
12.6958352699
 20
9.2271792233
 30
0.0
 10
12.6951535945
 20
9.2244382367
 30
0.0
 10
12.6940628618
 20
9.220052964
 30
0.0
 10
12.6926994641
 20
9.2145712677
 30
0.0
 10
12.6910633782
 20
9.2079932792
 30
0.0
 10
12.6894272977
 20
9.2014152715
 30
0.0
 10
12.6880638865
 20
9.1959336232
 30
0.0
 10
12.6869731806
 20
9.1915482546
 30
0.0
 10
12.6862914373
 20
9.1888075117
 30
0.0
 10
12.6857461619
 20
9.1866146599
 30
0.0
 10
12.685336879
 20
9.1849707261
 30
0.0
 10
12.684996848
 20
9.1835985383
 30
0.0
 10
12.6847567891
 20
9.1826424087
 30
0.0
 10
12.6846227936
 20
9.1820891758
 30
0.0
 10
12.6845133359
 20
9.1816936127
 30
0.0
 10
12.6844381318
 20
9.18122404
 30
0.0
 10
12.6843259116
 20
9.1806237585
 30
0.0
 10
12.6841350931
 20
9.1795612379
 30
0.0
 10
12.6838595849
 20
9.1780496397
 30
0.0
 10
12.6835302207
 20
9.1762330302
 30
0.0
 10
12.6830906334
 20
9.1738118244
 30
0.0
 10
12.6825412983
 20
9.1707849951
 30
0.0
 10
12.6816622785
 20
9.1659422487
 30
0.0
 10
12.6805635346
 20
9.1598887506
 30
0.0
 10
12.6792450196
 20
9.1526245947
 30
0.0
 10
12.6779265444
 20
9.1453603758
 30
0.0
 10
12.676827701
 20
9.1393070352
 30
0.0
 10
12.67594888
 20
9.1344639739
 30
0.0
 10
12.6752890718
 20
9.1308327391
 30
0.0
 10
12.6747414341
 20
9.1278033349
 30
0.0
 10
12.6743537654
 20
9.1256893757
 30
0.0
 10
12.6741389893
 20
9.1244710565
 30
0.0
 10
12.6739588955
 20
9.1235864521
 30
0.0
 10
12.6738514745
 20
9.122590479
 30
0.0
 10
12.6736828974
 20
9.1213013614
 30
0.0
 10
12.6733996982
 20
9.1190273063
 30
0.0
 10
12.6729889531
 20
9.1157881187
 30
0.0
 10
12.672498702
 20
9.1118970433
 30
0.0
 10
12.6718441103
 20
9.1067103578
 30
0.0
 10
12.67102619
 20
9.1002265139
 30
0.0
 10
12.6700445386
 20
9.092446116
 30
0.0
 10
12.6690629642
 20
9.0846656384
 30
0.0
 10
12.6682448515
 20
9.0781819937
 30
0.0
 10
12.6675906446
 20
9.0729949098
 30
0.0
 10
12.6670992199
 20
9.0691050493
 30
0.0
 10
12.6666921464
 20
9.065862061
 30
0.0
 10
12.6664023928
 20
9.0635947907
 30
0.0
 10
12.6662443174
 20
9.0622948021
 30
0.0
 10
12.6661046389
 20
9.0613322214
 30
0.0
 10
12.6660456988
 20
9.0603222005
 30
0.0
 10
12.6659389497
 20
9.0589920537
 30
0.0
 10
12.66576526
 20
9.0566565868
 30
0.0
 10
12.6655102718
 20
9.0533242365
 30
0.0
 10
12.6652072225
 20
9.0493236907
 30
0.0
 10
12.6648021306
 20
9.0439902323
 30
0.0
 10
12.6642961203
 20
9.0373232023
 30
0.0
 10
12.6636887452
 20
9.0293228565
 30
0.0
 10
12.6630814536
 20
9.021322481
 30
0.0
 10
12.6625752345
 20
9.014655525
 30
0.0
 10
12.6621705601
 20
9.0093219185
 30
0.0
 10
12.6618662374
 20
9.0053218246
 30
0.0
 10
12.6616152329
 20
9.0019880605
 30
0.0
 10
12.6614344318
 20
8.9996551174
 30
0.0
 10
12.6613390769
 20
8.998320927
 30
0.0
 10
12.6612451371
 20
8.9973233266
 30
0.0
 10
12.6612369119
 20
8.9963140967
 30
0.0
 10
12.6611960468
 20
8.9949725133
 30
0.0
 10
12.661138463
 20
8.9926228525
 30
0.0
 10
12.6610489176
 20
8.9892671822
 30
0.0
 10
12.6609445804
 20
8.9852399549
 30
0.0
 10
12.6608043753
 20
8.9798704663
 30
0.0
 10
12.6606294917
 20
8.9731585549
 30
0.0
 10
12.6603494696
 20
8.9624195249
 30
0.0
 10
12.6599995139
 20
8.9489957278
 30
0.0
 10
12.6597195275
 20
8.938256693
 30
0.0
 10
12.659579537
 20
8.9328871752
 30
0.0
  0
ENDSEC
  0
SECTION
  2
OBJECTS
  0
DICTIONARY
  5
C
100
AcDbDictionary
280
0
281
1
  3
ACAD_GROUP
350
D
  3
ACAD_MLINESTYLE
350
17
  3
ACAD_LAYOUT
350
1A
  3
ACAD_PLOTSETTINGS
350
19
  3
ACAD_PLOTSTYLENAME
350
E
  3
ACAD_IMAGE_DICT
350
       3D0
  3
ACAD_IMAGE_VARS
350
       3D1
  3
ACAD_TABLESTYLE
350
       3D2
  0
IMAGEDEF_REACTOR
  5
3CF
100
AcDbRasterImageDefReactor
 90
2
330
281
  0
DICTIONARY
  5
D
102
{ACAD_REACTORS
330
C
102
}
100
AcDbDictionary
280
0
281
1
  0
ACDBDICTIONARYWDFLT
  5
E
102
{ACAD_REACTORS
330
C
102
}
100
AcDbDictionary
281
1
  3
Normal
350
F
100
AcDbDictionaryWithDefault
340
F
  0
DICTIONARY
  5
3D0
330
C
100
AcDbDictionary
281
1
  3
P45_assy_2_img_1
350
       3D5
  0
RASTERVARIABLES
  5
3D1
330
C
100
AcDbRasterVariables
 90
0
 70
0
 71
1
 72
5
  0
DICTIONARY
  5
17
102
{ACAD_REACTORS
330
C
102
}
100
AcDbDictionary
280
0
281
1
  3
Standard
350
18
  0
DICTIONARY
  5
3D2
330
C
100
AcDbDictionary
281
1
  3
Standard
350
       3D6
  3
Standard1
350
       3D7
  0
DICTIONARY
  5
19
102
{ACAD_REACTORS
330
C
102
}
100
AcDbDictionary
281
1
  0
DICTIONARY
  5
1A
102
{ACAD_REACTORS
330
C
102
}
100
AcDbDictionary
281
1
  3
Model
350
3D3
  3
Layout1
350
3D4
  0
ACDBPLACEHOLDER
  5
F
102
{ACAD_REACTORS
330
E
102
}
  0
MLINESTYLE
  5
18
102
{ACAD_REACTORS
330
17
102
}
100
AcDbMlineStyle
  2
STANDARD
 70
0
  3

 62
256
 51
90.0
 52
90.0
 71
2
 49
0.5
 62
256
  6
BYLAYER
 49
-0.5
 62
256
  6
BYLAYER
  0
LAYOUT
  5
3D3
102
{ACAD_REACTORS
330
1A
102
}
100
AcDbPlotSettings
  1

  2
none_device
  4
ANSI_C_(22.00_x_17.00_Inches)
  6

 40
0.0
 41
0.0
 42
0.0
 43
0.0
 44
558.8
 45
431.8
 46
0.0
 47
0.0
 48
0.0
 49
0.0
140
0.0
141
0.0
142
1.0
143
1.0
 70
1024
 72
0
 73
0
 74
0
  7

 75
0
147
1.0
148
0.0
149
0.0
100
AcDbLayout
  1
Model
 70
0
 71
0
 10
0.0
 20
0.0
 11
22.0
 21
17.0
 12
0.0
 22
0.0
 32
0.0
 14
0.0
 24
0.0
 34
0.0
 15
0.0
 25
0.0
 35
0.0
146
0.0
 13
0.0
 23
0.0
 33
0.0
 16
1.0
 26
0.0
 36
0.0
 17
0.0
 27
1.0
 37
0.0
 76
0
330
204
345
0
346
0
  0
LAYOUT
  5
3D4
102
{ACAD_REACTORS
330
1A
102
}
100
AcDbPlotSettings
  1

  2
none_device
  4
ANSI_C_(22.00_x_17.00_Inches)
  6

 40
0.0
 41
0.0
 42
0.0
 43
0.0
 44
558.8
 45
431.8
 46
0.0
 47
0.0
 48
0.0
 49
0.0
140
0.0
141
0.0
142
1.0
143
1.0
 70
0
 72
0
 73
0
 74
0
  7

 75
0
147
1.0
148
0.0
149
0.0
100
AcDbLayout
  1
Layout1
 70
0
 71
1
 10
0.0
 20
0.0
 11
22.0
 21
17.0
 12
0.0
 22
0.0
 32
0.0
 14
0.0
 24
0.0
 34
0.0
 15
0.0
 25
0.0
 35
0.0
146
0.0
 13
0.0
 23
0.0
 33
0.0
 16
1.0
 26
0.0
 36
0.0
 17
0.0
 27
1.0
 37
0.0
 76
0
330
205
345
0
346
0
  0
IMAGEDEF
  5
3D5
102
{ACAD_REACTORS
330
3D0
330
3CF
102
}
100
AcDbRasterImageDef
 90
0
  1
P45_assy_2_img_1.png
 10
369.0
 20
92.0
 11
0.0066666667
 21
0.0066666667
280
1
281
0
  0
TABLESTYLE
  5
3D6
102
{ACAD_REACTORS
330
3D2
330
284
330
285
102
}
330
3D2
100
AcDbTableStyle
  3
Standard
 70
0
 71
0
 40
0.06
 41
0.06
280
1
281
1
  7
Standard
140
0.18
170
1
 62
0
 63
7
283
0
  7
Standard
140
0.18
170
1
 62
0
 63
7
283
0
  7
Standard
140
0.18
170
1
 62
0
 63
7
283
0
  0
TABLESTYLE
  5
3D7
102
{ACAD_REACTORS
330
3D2
330
283
102
}
330
3D2
100
AcDbTableStyle
  3
Standard1
 70
1
 71
0
 40
0.06
 41
0.06
280
1
281
1
  7
Standard
140
0.18
170
1
 62
0
 63
7
283
0
  7
Standard
140
0.18
170
1
 62
0
 63
7
283
0
  7
Standard
140
0.18
170
1
 62
0
 63
7
283
0
  0
ENDSEC
  0
EOF
