999
DXF file: NJ3_assy_2.dxf
999
Pro/ENGINEER 2014200 by Parametric Technology Corporation
  0
SECTION
  2
HEADER
  9
$ACADVER
  1
AC1021
  9
$DWGCODEPAGE
  3
ANSI_1252
  9
$EXTMAX
 10
22.0
 20
17.0
 30
0.0
  9
$EXTMIN
 10
0.0
 20
0.0
 30
0.0
  9
$LIMMIN
 10
0.0
 20
0.0
  9
$LIMMAX
 10
22.0
 20
17.0
  9
$VIEWCTR
 10
11.0
 20
8.5
  9
$VIEWSIZE
 40
17.0
  9
$CLAYER
  8
0
  9
$LTSCALE
 40
1.21
  9
$CELTYPE
  6
BYLAYER
  9
$DIMSCALE
 40
1.0
  9
$DIMASZ
 40
0.1875
  9
$DIMEXO
 40
0.0625
  9
$DIMDLI
 40
0.836
  9
$DIMEXE
 40
0.125
  9
$DIMCEN
 40
0.198
  9
$DIMLFAC
 40
1.0
  9
$DIMBLK
  1
_FILLED
  9
$DIMTXT
 40
0.1
  9
$DIMTOL
 70
0
  9
$DIMLIM
 70
0
  9
$DIMTFAC
 40
1.0
  9
$DIMGAP
 40
0.09
  9
$DIMDSEP
 70
46
  9
$AUNITS
 70
0
  9
$PDMODE
 70
3
  9
$PDSIZE
 40
0.3125
  9
$HANDSEED
  5
3FF
  9
$TILEMODE
 70
1
  9
$MEASUREMENT
 70
0
  9
$INSUNITS
 70
1
  0
ENDSEC
  0
SECTION
  2
CLASSES
  0
CLASS
  1
ACDBDICTIONARYWDFLT
  2
AcDbDictionaryWithDefault
  3
AutoCAD 2000
 90
0
 91
1
280
0
281
0
  0
CLASS
  1
ACDBPLACEHOLDER
  2
AcDbPlaceHolder
  3
AutoCAD 2000
 90
0
 91
1
280
0
281
0
  0
CLASS
  1
LAYOUT
  2
AcDbLayout
  3
AutoCAD 2000
 90
0
 91
0
280
0
281
0
  0
CLASS
  1
RASTERVARIABLES
  2
AcDbRasterVariables
  3
ISM
 90
0
 91
1
280
0
281
0
  0
CLASS
  1
IMAGEDEF
  2
AcDbRasterImageDef
  3
ISM
 90
0
 91
1
280
0
281
0
  0
CLASS
  1
IMAGEDEF_REACTOR
  2
AcDbRasterImageDefReactor
  3
ISM
 90
0
 91
1
280
0
281
0
  0
CLASS
  1
IMAGE
  2
AcDbRasterImage
  3
ISM
 90
127
 91
1
280
0
281
1
  0
CLASS
  1
TABLESTYLE
  2
AcDbTableStyle
  3
ObjectDBX Classes
 90
2047
 91
1
280
0
281
0
  0
CLASS
  1
ACAD_TABLE
  2
AcDbTable
  3
ObjectDBX Classes
 90
1025
 91
3
280
0
281
1
  0
ENDSEC
  0
SECTION
  2
TABLES
  0
TABLE
  2
VPORT
  5
8
100
AcDbSymbolTable
 70
2
  0
VPORT
  5
1F4
100
AcDbSymbolTableRecord
100
AcDbViewportTableRecord
  2
*ACTIVE
 70
0
 10
0.0
 20
0.0
 11
1.0
 21
1.0
 12
11.0
 22
8.5
 13
0.0
 23
0.0
 14
1.0
 24
1.0
 15
0.0
 25
0.0
 16
0.0
 26
0.0
 36
1.0
 17
0.0
 27
0.0
 37
0.0
 40
17.0
 41
1.2941176471
 42
50.0
 43
0.0
 44
0.0
 50
0.0
 51
0.0
 71
0
 72
100
 73
1
 74
1
 75
0
 76
0
 77
0
 78
0
  0
ENDTAB
  0
TABLE
  2
LTYPE
  5
5
100
AcDbSymbolTable
 70
6
  0
LTYPE
  5
14
100
AcDbSymbolTableRecord
100
AcDbLinetypeTableRecord
  2
BYBLOCK
 70
0
  3

 72
65
 73
0
 40
0.0
  0
LTYPE
  5
15
100
AcDbSymbolTableRecord
100
AcDbLinetypeTableRecord
  2
BYLAYER
 70
0
  3

 72
65
 73
0
 40
0.0
  0
LTYPE
  5
16
100
AcDbSymbolTableRecord
100
AcDbLinetypeTableRecord
  2
CONTINUOUS
 70
64
  3
Solid line
 72
65
 73
0
 40
0.0
  0
LTYPE
  5
1F5
100
AcDbSymbolTableRecord
100
AcDbLinetypeTableRecord
  2
CENTER
 70
64
  3
____ _ ____ _ ____ _ ____ _ ____ _ ____ _ ____
 72
65
 73
4
 40
0.6
 49
0.375
 74
0
 49
-0.075
 74
0
 49
0.075
 74
0
 49
-0.075
 74
0
  0
LTYPE
  5
1F6
100
AcDbSymbolTableRecord
100
AcDbLinetypeTableRecord
  2
HIDDEN
 70
64
  3
- - - - - - - - - - - - - - - - - - - -
 72
65
 73
2
 40
0.2
 49
0.1
 74
0
 49
-0.1
 74
0
  0
LTYPE
  5
1F7
100
AcDbSymbolTableRecord
100
AcDbLinetypeTableRecord
  2
PHANTOM
 70
64
  3
_____ _ _ _____ _ _ _____ _ _ _____
 72
65
 73
6
 40
0.8
 49
0.45
 74
0
 49
-0.05
 74
0
 49
0.1
 74
0
 49
-0.05
 74
0
 49
0.1
 74
0
 49
-0.05
 74
0
  0
LTYPE
  5
1F8
100
AcDbSymbolTableRecord
100
AcDbLinetypeTableRecord
  2
DOT
 70
64
  3
. . . . . . . . . . . . . . . . . . . .
 72
65
 73
2
 40
0.2
 49
0.1
 74
0
 49
-0.1
 74
0
  0
LTYPE
  5
1F9
100
AcDbSymbolTableRecord
100
AcDbLinetypeTableRecord
  2
DASHED
 70
64
  3
- - - - - - - - - - - - - - - - - - - -
 72
65
 73
2
 40
0.2
 49
0.1
 74
0
 49
-0.1
 74
0
  0
ENDTAB
  0
TABLE
  2
LAYER
  5
2
100
AcDbSymbolTable
 70
36
  0
LAYER
  5
10
100
AcDbSymbolTableRecord
100
AcDbLayerTableRecord
  2
0
 70
0
 62
7
  6
CONTINUOUS
370
-3
390
F
  0
LAYER
  5
1FA
100
AcDbSymbolTableRecord
100
AcDbLayerTableRecord
  2
DEFAULT_1
 70
0
 62
7
  6
CENTER
370
-3
390
F
  0
LAYER
  5
1FB
100
AcDbSymbolTableRecord
100
AcDbLayerTableRecord
  2
DEFAULT_2
 70
0
 62
8
  6
HIDDEN
370
-3
390
F
  0
LAYER
  5
1FC
100
AcDbSymbolTableRecord
100
AcDbLayerTableRecord
  2
DEFAULT_3
 70
0
 62
7
  6
PHANTOM
370
-3
390
F
  0
LAYER
  5
1FD
100
AcDbSymbolTableRecord
100
AcDbLayerTableRecord
  2
01___PRT_ALL_DTM_PLN
 70
0
 62
7
  6
CONTINUOUS
370
-3
390
F
  0
LAYER
  5
1FE
100
AcDbSymbolTableRecord
100
AcDbLayerTableRecord
  2
01___PRT_DEF_DTM_PLN
 70
0
 62
7
  6
CONTINUOUS
370
-3
390
F
  0
LAYER
  5
1FF
100
AcDbSymbolTableRecord
100
AcDbLayerTableRecord
  2
02___PRT_ALL_AXES
 70
0
 62
7
  6
CONTINUOUS
370
-3
390
F
  0
LAYER
  5
200
100
AcDbSymbolTableRecord
100
AcDbLayerTableRecord
  2
03___PRT_ALL_CURVES
 70
0
 62
7
  6
CONTINUOUS
370
-3
390
F
  0
LAYER
  5
201
100
AcDbSymbolTableRecord
100
AcDbLayerTableRecord
  2
04___PRT_ALL_DTM_PNT
 70
0
 62
7
  6
CONTINUOUS
370
-3
390
F
  0
LAYER
  5
202
100
AcDbSymbolTableRecord
100
AcDbLayerTableRecord
  2
05___PRT_ALL_DTM_CSYS
 70
0
 62
7
  6
CONTINUOUS
370
-3
390
F
  0
LAYER
  5
203
100
AcDbSymbolTableRecord
100
AcDbLayerTableRecord
  2
05___PRT_DEF_DTM_CSYS
 70
0
 62
7
  6
CONTINUOUS
370
-3
390
F
  0
LAYER
  5
204
100
AcDbSymbolTableRecord
100
AcDbLayerTableRecord
  2
06___PRT_ALL_SURFS
 70
0
 62
7
  6
CONTINUOUS
370
-3
390
F
  0
LAYER
  5
205
100
AcDbSymbolTableRecord
100
AcDbLayerTableRecord
  2
DATUM_PLANES
 70
0
 62
7
  6
CONTINUOUS
370
-3
390
F
  0
LAYER
  5
206
100
AcDbSymbolTableRecord
100
AcDbLayerTableRecord
  2
PORT_AREAS
 70
0
 62
7
  6
CONTINUOUS
370
-3
390
F
  0
LAYER
  5
207
100
AcDbSymbolTableRecord
100
AcDbLayerTableRecord
  2
SUNNBOMCOSMETIC
 70
0
 62
7
  6
CONTINUOUS
370
-3
390
F
  0
LAYER
  5
208
100
AcDbSymbolTableRecord
100
AcDbLayerTableRecord
  2
SUNNBOMSTAMPING
 70
0
 62
7
  6
CONTINUOUS
370
-3
390
F
  0
LAYER
  5
209
100
AcDbSymbolTableRecord
100
AcDbLayerTableRecord
  2
THREADS
 70
0
 62
7
  6
CONTINUOUS
370
-3
390
F
  0
ENDTAB
  0
TABLE
  2
STYLE
  5
3
100
AcDbSymbolTable
 70
1
  0
STYLE
  5
11
100
AcDbSymbolTableRecord
100
AcDbTextStyleTableRecord
  2
STANDARD
 70
0
 40
0.0
 41
0.8
 50
0.0
 71
0
 42
0.2
  3
txt
  4

  0
STYLE
  5
20A
100
AcDbSymbolTableRecord
100
AcDbTextStyleTableRecord
  2
TEXTSTYLE_1
 70
0
 40
0.0
 41
0.8
 50
0.0
 71
0
 42
0.2
  3
gdt
  4

  0
ENDTAB
  0
TABLE
  2
VIEW
  5
6
100
AcDbSymbolTable
 70
0
  0
ENDTAB
  0
TABLE
  2
UCS
  5
7
100
AcDbSymbolTable
 70
0
  0
ENDTAB
  0
TABLE
  2
APPID
  5
9
100
AcDbSymbolTable
 70
1
  0
APPID
  5
20B
100
AcDbSymbolTableRecord
100
AcDbRegAppTableRecord
  2
ACAD
 70
0
  0
ENDTAB
  0
TABLE
  2
BLOCK_RECORD
  5
1
100
AcDbSymbolTable
 70
0
  0
BLOCK_RECORD
  5
20C
100
AcDbSymbolTableRecord
100
AcDbBlockTableRecord
  2
*Model_Space
  0
BLOCK_RECORD
  5
20D
100
AcDbSymbolTableRecord
100
AcDbBlockTableRecord
  2
*Paper_Space
  0
BLOCK_RECORD
  5
20E
100
AcDbSymbolTableRecord
100
AcDbBlockTableRecord
  2
SUN_FIRST_THIRD_ANGLE_BL0
  0
BLOCK_RECORD
  5
20F
100
AcDbSymbolTableRecord
100
AcDbBlockTableRecord
  2
*T1
  0
BLOCK_RECORD
  5
210
100
AcDbSymbolTableRecord
100
AcDbBlockTableRecord
  2
*T2
  0
BLOCK_RECORD
  5
211
100
AcDbSymbolTableRecord
100
AcDbBlockTableRecord
  2
*T3
  0
ENDTAB
  0
TABLE
  2
DIMSTYLE
  5
A
100
AcDbSymbolTable
 70
1
100
AcDbDimStyleTable
 71
0
  0
DIMSTYLE
105
212
100
AcDbSymbolTableRecord
100
AcDbDimStyleTableRecord
  2
STANDARD
 70
0
  3

  4

 40
1.0
 41
0.1875
 42
0.0625
 43
0.38
 44
0.125
 45
0.0
 46
0.0
 47
0.001
 48
0.001
140
0.1
141
0.09
142
0.0
143
25.4
144
1.0
145
0.0
146
1.0
147
0.09
 71
0.0
 72
0.0
 73
1
 74
1
 75
0
 76
0
 77
0
 78
4
170
0
171
2
172
0
173
0
174
0
175
0
176
0
177
0
178
0
270
2
271
3
272
3
273
2
274
2
275
0
280
0
281
0
282
0
283
1
284
4
285
0
286
0
287
3
288
0
340
11
278
46
  0
ENDTAB
  0
ENDSEC
  0
SECTION
  2
BLOCKS
  0
BLOCK
  5
20
100
AcDbEntity
  8
0
100
AcDbBlockBegin
  2
*Model_Space
 70
0
 10
0.0
 20
0.0
 30
0.0
  3
*Model_Space
  1

  0
ENDBLK
  5
21
100
AcDbEntity
  8
0
100
AcDbBlockEnd
  0
BLOCK
  5
1C
100
AcDbEntity
  8
0
100
AcDbBlockBegin
  2
*Paper_Space
 70
0
 10
0.0
 20
0.0
 30
0.0
  3
*Paper_Space
  1

  0
ENDBLK
  5
1D
100
AcDbEntity
  8
0
100
AcDbBlockEnd
  0
BLOCK
  5
213
100
AcDbEntity
  8
0
100
AcDbBlockBegin
 62
2
  6
CONTINUOUS
  2
SUN_FIRST_THIRD_ANGLE_BL0
 70
64
 10
20.4816717061
 20
1.2289683772
  3
SUN_FIRST_THIRD_ANGLE_BL0
  1

  0
TEXT
  5
214
100
AcDbEntity
  8
0
100
AcDbText
 62
2
  6
CONTINUOUS
 10
19.4750896608
 20
1.4136269581
  7
STANDARD
 40
0.08
  1
FIRST ANGLE
 41
0.8
 72
0
100
AcDbText
  0
TEXT
  5
215
100
AcDbEntity
  8
0
100
AcDbText
 62
2
  6
CONTINUOUS
 10
20.7842537513
 20
1.4047600029
  7
STANDARD
 40
0.08
  1
THIRD ANGLE
 41
0.8
 72
0
100
AcDbText
  0
LINE
  5
216
100
AcDbEntity
  8
0
100
AcDbLine
 62
7
  6
CONTINUOUS
 10
19.4767170086
 20
1.1727031207
 11
19.6334271527
 21
1.1717972817
  0
LINE
  5
217
100
AcDbEntity
  8
0
100
AcDbLine
 62
7
  6
CONTINUOUS
 10
19.6596964832
 20
1.1717972817
 11
19.6950230232
 21
1.171593082
  0
LINE
  5
218
100
AcDbEntity
  8
0
100
AcDbLine
 62
7
  6
CONTINUOUS
 10
19.7194818561
 20
1.1708914427
 11
19.8852396156
 21
1.1699333054
  0
LINE
  5
219
100
AcDbEntity
  8
0
100
AcDbLine
 62
7
  6
CONTINUOUS
 10
19.4758111696
 20
1.2723454088
 11
19.88525039
 21
1.3511534004
  0
LINE
  5
21A
100
AcDbEntity
  8
0
100
AcDbLine
 62
7
  6
CONTINUOUS
 10
19.88525039
 20
1.3511534004
 11
19.8831348489
 21
0.9851647912
  0
LINE
  5
21B
100
AcDbEntity
  8
0
100
AcDbLine
 62
7
  6
CONTINUOUS
 10
19.8831348489
 20
0.9851647912
 11
19.4767170086
 21
1.0658141206
  0
LINE
  5
21C
100
AcDbEntity
  8
0
100
AcDbLine
 62
7
  6
CONTINUOUS
 10
19.4767170086
 20
1.0658141206
 11
19.4779056764
 21
1.2714536432
  0
CIRCLE
  5
21D
100
AcDbEntity
  8
0
100
AcDbCircle
 62
7
  6
CONTINUOUS
 10
20.2068232291
 20
1.1717972817
 40
0.175742101
  0
CIRCLE
  5
21E
100
AcDbEntity
  8
0
100
AcDbCircle
 62
7
  6
CONTINUOUS
 10
20.2068232291
 20
1.1717972817
 40
0.1005522074
  0
LINE
  5
21F
100
AcDbEntity
  8
0
100
AcDbLine
 62
7
  6
CONTINUOUS
 10
20.2077290681
 20
1.3756110529
 11
20.2071171714
 21
1.2379342989
  0
LINE
  5
220
100
AcDbEntity
  8
0
100
AcDbLine
 62
7
  6
CONTINUOUS
 10
20.2077290681
 20
1.2016899681
 11
20.2074674401
 21
1.1428236749
  0
LINE
  5
221
100
AcDbEntity
  8
0
100
AcDbLine
 62
7
  6
CONTINUOUS
 10
20.208634907
 20
1.101141841
 11
20.2080230104
 21
0.963465087
  0
LINE
  5
222
100
AcDbEntity
  8
0
100
AcDbLine
 62
7
  6
CONTINUOUS
 10
20.0066328138
 20
1.1745147986
 11
20.1443095678
 21
1.1739029019
  0
LINE
  5
223
100
AcDbEntity
  8
0
100
AcDbLine
 62
7
  6
CONTINUOUS
 10
20.1832714155
 20
1.1727031207
 11
20.238153505
 21
1.172335442
  0
LINE
  5
224
100
AcDbEntity
  8
0
100
AcDbLine
 62
7
  6
CONTINUOUS
 10
20.2756669918
 20
1.1717972817
 11
20.407916871
 21
1.1712095044
  0
CIRCLE
  5
225
100
AcDbEntity
  8
0
100
AcDbCircle
 62
7
  6
CONTINUOUS
 10
20.7509457401
 20
1.1693297793
 40
0.1722024983
  0
CIRCLE
  5
226
100
AcDbEntity
  8
0
100
AcDbCircle
 62
7
  6
CONTINUOUS
 10
20.7509457401
 20
1.1693297793
 40
0.0985164967
  0
LINE
  5
227
100
AcDbEntity
  8
0
100
AcDbLine
 62
7
  6
CONTINUOUS
 10
20.7169767782
 20
1.170462078
 11
20.7825395137
 21
1.1682766535
  0
LINE
  5
228
100
AcDbEntity
  8
0
100
AcDbLine
 62
7
  6
CONTINUOUS
 10
20.8177513651
 20
1.1693297793
 11
20.947965719
 21
1.1693297793
  0
LINE
  5
229
100
AcDbEntity
  8
0
100
AcDbLine
 62
7
  6
CONTINUOUS
 10
20.6875370113
 20
1.170462078
 11
20.5573226574
 21
1.170462078
  0
LINE
  5
22A
100
AcDbEntity
  8
0
100
AcDbLine
 62
7
  6
CONTINUOUS
 10
20.7486811426
 20
1.1987695462
 11
20.7486811426
 21
1.1432869085
  0
LINE
  5
22B
100
AcDbEntity
  8
0
100
AcDbLine
 62
7
  6
CONTINUOUS
 10
20.7498134414
 20
1.1059210505
 11
20.7498134414
 21
0.9757066966
  0
LINE
  5
22C
100
AcDbEntity
  8
0
100
AcDbLine
 62
7
  6
CONTINUOUS
 10
20.7486811426
 20
1.2338708068
 11
20.7486811426
 21
1.3640851607
  0
LINE
  5
22D
100
AcDbEntity
  8
0
100
AcDbLine
 62
7
  6
CONTINUOUS
 10
21.0702539817
 20
1.2701043662
 11
21.4790138229
 21
1.3448360823
  0
LINE
  5
22E
100
AcDbEntity
  8
0
100
AcDbLine
 62
7
  6
CONTINUOUS
 10
21.4790138229
 20
1.3448360823
 11
21.4790138229
 21
0.9779712941
  0
LINE
  5
22F
100
AcDbEntity
  8
0
100
AcDbLine
 62
7
  6
CONTINUOUS
 10
21.4790138229
 20
0.9779712941
 11
21.069121683
 21
1.0617614
  0
LINE
  5
230
100
AcDbEntity
  8
0
100
AcDbLine
 62
7
  6
CONTINUOUS
 10
21.0702539817
 20
1.2701043662
 11
21.069121683
 21
1.0617614
  0
LINE
  5
231
100
AcDbEntity
  8
0
100
AcDbLine
 62
7
  6
CONTINUOUS
 10
21.4790138229
 20
1.1693297793
 11
21.3159628059
 21
1.1693297793
  0
LINE
  5
232
100
AcDbEntity
  8
0
100
AcDbLine
 62
7
  6
CONTINUOUS
 10
21.2876553377
 20
1.1693297793
 11
21.2502894796
 21
1.1693297793
  0
LINE
  5
233
100
AcDbEntity
  8
0
100
AcDbLine
 62
7
  6
CONTINUOUS
 10
21.2208497126
 20
1.1659328831
 11
21.0713862804
 21
1.1659328831
  0
LINE
  5
234
100
AcDbEntity
  8
0
100
AcDbLine
 62
7
  6
CONTINUOUS
 10
20.4796138713
 20
1.5284908897
 11
20.4766766948
 21
0.9294458646
  0
ENDBLK
  5
235
100
AcDbEntity
  8
0
  6
BYBLOCK
 62
0
100
AcDbBlockEnd
  0
BLOCK
  5
236
100
AcDbEntity
  8
0
100
AcDbBlockBegin
  2
*T1
 70
1
 10
0.0
 20
0.0
  3
*T1
  1

  0
LINE
  5
237
100
AcDbEntity
  8
0
100
AcDbLine
 62
2
  6
CONTINUOUS
 10
9.275
 20
0.0
 11
-0.0
 21
0.0
  0
LINE
  5
238
100
AcDbEntity
  8
0
100
AcDbLine
 62
2
  6
CONTINUOUS
 10
9.275
 20
0.0
 11
9.275
 21
1.25
  0
LINE
  5
239
100
AcDbEntity
  8
0
100
AcDbLine
 62
2
  6
CONTINUOUS
 10
9.275
 20
0.625
 11
-0.0
 21
0.625
  0
LINE
  5
23A
100
AcDbEntity
  8
0
100
AcDbLine
 62
2
  6
CONTINUOUS
 10
9.275
 20
1.25
 11
-0.0
 21
1.25
  0
LINE
  5
23B
100
AcDbEntity
  8
0
100
AcDbLine
 62
2
  6
CONTINUOUS
 10
6.8
 20
0.0
 11
6.8
 21
1.25
  0
LINE
  5
23C
100
AcDbEntity
  8
0
100
AcDbLine
 62
2
  6
CONTINUOUS
 10
6.4
 20
0.0
 11
6.4
 21
0.625
  0
LINE
  5
23D
100
AcDbEntity
  8
0
100
AcDbLine
 62
2
  6
CONTINUOUS
 10
5.9
 20
0.0
 11
5.9
 21
0.625
  0
LINE
  5
23E
100
AcDbEntity
  8
0
100
AcDbLine
 62
2
  6
CONTINUOUS
 10
5.2
 20
0.0
 11
5.2
 21
0.625
  0
LINE
  5
23F
100
AcDbEntity
  8
0
100
AcDbLine
 62
2
  6
CONTINUOUS
 10
4.1
 20
0.0
 11
4.1
 21
1.25
  0
LINE
  5
240
100
AcDbEntity
  8
0
100
AcDbLine
 62
2
  6
CONTINUOUS
 10
-0.0
 20
0.0
 11
-0.0
 21
1.25
  0
MTEXT
  5
241
100
AcDbEntity
  8
0
100
AcDbMText
 62
2
  6
CONTINUOUS
  7
STANDARD
 71
2
 72
1
 10
6.6
 20
0.325
 30
0.0
 11
1.0
 21
0.0
 31
0.0
 44
0.9
  1
2
 40
0.125
 41
0.2
  0
MTEXT
  5
242
100
AcDbEntity
  8
0
100
AcDbMText
 62
2
  6
CONTINUOUS
  7
STANDARD
 71
2
 72
1
 10
6.15
 20
0.325
 30
0.0
 11
1.0
 21
0.0
 31
0.0
 44
0.9
  1
C
 40
0.125
 41
0.2
  0
MTEXT
  5
243
100
AcDbEntity
  8
0
100
AcDbMText
 62
2
  6
CONTINUOUS
  7
STANDARD
 71
2
 72
1
 10
5.55
 20
0.325
 30
0.0
 11
1.0
 21
0.0
 31
0.0
 44
0.9
  1
1.000
 40
0.125
 41
1.0
  0
MTEXT
  5
244
100
AcDbEntity
  8
0
100
AcDbMText
 62
2
  6
CONTINUOUS
  7
STANDARD
 71
2
 72
1
 10
4.65
 20
0.325
 30
0.0
 11
1.0
 21
0.0
 31
0.0
 44
0.9
  1
Aug-31-22
 40
0.125
 41
1.8
  0
MTEXT
  5
245
100
AcDbEntity
  8
0
100
AcDbMText
 62
2
  6
CONTINUOUS
  7
STANDARD
 71
2
 72
1
 10
2.05
 20
0.4625
 30
0.0
 11
1.0
 21
0.0
 31
0.0
 44
0.9
  1
T-22A Sandwich ISO 05 - X&Y\P(See Notes for Body Features)
 40
0.125
 41
5.8
  0
MTEXT
  5
246
100
AcDbEntity
  8
0
100
AcDbMText
 62
2
  6
CONTINUOUS
  7
STANDARD
 71
1
 72
1
 10
6.45
 20
0.5625
 30
0.0
 11
1.0
 21
0.0
 31
0.0
 44
0.9
  1
SHEET
 40
0.06
 41
0.48
  0
MTEXT
  5
247
100
AcDbEntity
  8
0
100
AcDbMText
 62
2
  6
CONTINUOUS
  7
STANDARD
 71
1
 72
1
 10
5.95
 20
0.5625
 30
0.0
 11
1.0
 21
0.0
 31
0.0
 44
0.9
  1
DWG SIZE
 40
0.06
 41
0.768
  0
MTEXT
  5
248
100
AcDbEntity
  8
0
100
AcDbMText
 62
2
  6
CONTINUOUS
  7
STANDARD
 71
1
 72
1
 10
5.25
 20
0.5625
 30
0.0
 11
1.0
 21
0.0
 31
0.0
 44
0.9
  1
SCALE
 40
0.06
 41
0.48
  0
MTEXT
  5
249
100
AcDbEntity
  8
0
100
AcDbMText
 62
2
  6
CONTINUOUS
  7
STANDARD
 71
1
 72
1
 10
4.15
 20
0.5625
 30
0.0
 11
1.0
 21
0.0
 31
0.0
 44
0.9
  1
DATE
 40
0.06
 41
0.384
  0
MTEXT
  5
24A
100
AcDbEntity
  8
0
100
AcDbMText
 62
2
  6
CONTINUOUS
  7
STANDARD
 71
1
 72
1
 10
0.05
 20
0.5625
 30
0.0
 11
1.0
 21
0.0
 31
0.0
 44
0.9
  1
DESCRIPTION
 40
0.06
 41
1.056
  0
MTEXT
  5
24B
100
AcDbEntity
  8
0
100
AcDbMText
 62
2
  6
CONTINUOUS
  7
STANDARD
 71
2
 72
1
 10
5.45
 20
1.0375
 30
0.0
 11
1.0
 21
0.0
 31
0.0
 44
0.9
  1
ALL DIMENSIONS IN INCH\PVIEWS ARE THIRD ANGLE
 40
0.12
 41
4.224
  0
MTEXT
  5
24C
100
AcDbEntity
  8
0
100
AcDbMText
 62
2
  6
CONTINUOUS
  7
STANDARD
 71
2
 72
1
 10
2.05
 20
0.95
 30
0.0
 11
1.0
 21
0.0
 31
0.0
 44
0.9
  1
NJ3
 40
0.125
 41
0.6
  0
MTEXT
  5
24D
100
AcDbEntity
  8
0
100
AcDbMText
 62
2
  6
CONTINUOUS
  7
STANDARD
 71
1
 72
1
 10
0.05
 20
1.1875
 30
0.0
 11
1.0
 21
0.0
 31
0.0
 44
0.9
  1
MODEL
 40
0.06
 41
0.48
  0
ENDBLK
  5
24E
100
AcDbEntity
  8
0
  6
BYBLOCK
 62
0
100
AcDbBlockEnd
  0
BLOCK
  5
24F
100
AcDbEntity
  8
0
100
AcDbBlockBegin
  2
*T2
 70
1
 10
0.0
 20
0.0
  3
*T2
  1

  0
LINE
  5
250
100
AcDbEntity
  8
0
100
AcDbLine
 62
2
  6
CONTINUOUS
 10
0.0
 20
0.0
 11
9.055
 21
0.0
  0
LINE
  5
251
100
AcDbEntity
  8
0
100
AcDbLine
 62
2
  6
CONTINUOUS
 10
0.0
 20
0.0
 11
0.0
 21
-2.344
  0
LINE
  5
252
100
AcDbEntity
  8
0
100
AcDbLine
 62
2
  6
CONTINUOUS
 10
0.0
 20
-0.344
 11
9.055
 21
-0.344
  0
LINE
  5
253
100
AcDbEntity
  8
0
100
AcDbLine
 62
2
  6
CONTINUOUS
 10
0.0
 20
-0.594
 11
9.055
 21
-0.594
  0
LINE
  5
254
100
AcDbEntity
  8
0
100
AcDbLine
 62
2
  6
CONTINUOUS
 10
0.0
 20
-0.844
 11
9.055
 21
-0.844
  0
LINE
  5
255
100
AcDbEntity
  8
0
100
AcDbLine
 62
2
  6
CONTINUOUS
 10
0.0
 20
-1.094
 11
9.055
 21
-1.094
  0
LINE
  5
256
100
AcDbEntity
  8
0
100
AcDbLine
 62
2
  6
CONTINUOUS
 10
0.0
 20
-1.344
 11
9.055
 21
-1.344
  0
LINE
  5
257
100
AcDbEntity
  8
0
100
AcDbLine
 62
2
  6
CONTINUOUS
 10
0.0
 20
-1.594
 11
9.055
 21
-1.594
  0
LINE
  5
258
100
AcDbEntity
  8
0
100
AcDbLine
 62
2
  6
CONTINUOUS
 10
0.0
 20
-1.844
 11
9.055
 21
-1.844
  0
LINE
  5
259
100
AcDbEntity
  8
0
100
AcDbLine
 62
2
  6
CONTINUOUS
 10
0.0
 20
-2.094
 11
9.055
 21
-2.094
  0
LINE
  5
25A
100
AcDbEntity
  8
0
100
AcDbLine
 62
2
  6
CONTINUOUS
 10
0.0
 20
-2.344
 11
9.055
 21
-2.344
  0
LINE
  5
25B
100
AcDbEntity
  8
0
100
AcDbLine
 62
2
  6
CONTINUOUS
 10
3.055
 20
0.0
 11
3.055
 21
-2.344
  0
LINE
  5
25C
100
AcDbEntity
  8
0
100
AcDbLine
 62
2
  6
CONTINUOUS
 10
9.055
 20
0.0
 11
9.055
 21
-2.344
  0
MTEXT
  5
25D
100
AcDbEntity
  8
0
100
AcDbMText
 62
2
  6
CONTINUOUS
  7
STANDARD
 71
2
 72
1
 10
1.5275
 20
-0.0995
 30
0.0
 11
1.0
 21
0.0
 31
0.0
 44
0.9
  1
Technical Data
 40
0.145
 41
3.248
  0
MTEXT
  5
25E
100
AcDbEntity
  8
0
100
AcDbMText
 62
2
  6
CONTINUOUS
  7
STANDARD
 71
2
 72
1
 10
4.555
 20
-0.0995
 30
0.0
 11
1.0
 21
0.0
 31
0.0
 44
0.9
  1
U.S. Units
 40
0.145
 41
2.32
  0
MTEXT
  5
25F
100
AcDbEntity
  8
0
100
AcDbMText
 62
2
  6
CONTINUOUS
  7
STANDARD
 71
2
 72
1
 10
7.555
 20
-0.0995
 30
0.0
 11
1.0
 21
0.0
 31
0.0
 44
0.9
  1
Metric Units
 40
0.145
 41
2.784
  0
MTEXT
  5
260
100
AcDbEntity
  8
0
100
AcDbMText
 62
2
  6
CONTINUOUS
  7
STANDARD
 71
2
 72
1
 10
1.5275
 20
-0.4065
 30
0.0
 11
1.0
 21
0.0
 31
0.0
 44
0.9
  1
Cavity
 40
0.125
 41
1.2
  0
MTEXT
  5
261
100
AcDbEntity
  8
0
100
AcDbMText
 62
2
  6
CONTINUOUS
  7
STANDARD
 71
2
 72
1
 10
6.055
 20
-0.4065
 30
0.0
 11
1.0
 21
0.0
 31
0.0
 44
0.9
  1
T-22A
 40
0.125
 41
1.0
  0
MTEXT
  5
262
100
AcDbEntity
  8
0
100
AcDbMText
 62
2
  6
CONTINUOUS
  7
STANDARD
 71
2
 72
1
 10
1.5275
 20
-0.6565
 30
0.0
 11
1.0
 21
0.0
 31
0.0
 44
0.9
  1
Body Features
 40
0.125
 41
2.6
  0
MTEXT
  5
263
100
AcDbEntity
  8
0
100
AcDbMText
 62
2
  6
CONTINUOUS
  7
STANDARD
 71
2
 72
1
 10
6.055
 20
-0.6565
 30
0.0
 11
1.0
 21
0.0
 31
0.0
 44
0.9
  1
(See Notes)
 40
0.125
 41
2.2
  0
MTEXT
  5
264
100
AcDbEntity
  8
0
100
AcDbMText
 62
2
  6
CONTINUOUS
  7
STANDARD
 71
2
 72
1
 10
1.5275
 20
-0.9065
 30
0.0
 11
1.0
 21
0.0
 31
0.0
 44
0.9
  1
Body Type
 40
0.125
 41
1.8
  0
MTEXT
  5
265
100
AcDbEntity
  8
0
100
AcDbMText
 62
2
  6
CONTINUOUS
  7
STANDARD
 71
2
 72
1
 10
6.055
 20
-0.9065
 30
0.0
 11
1.0
 21
0.0
 31
0.0
 44
0.9
  1
Sandwich
 40
0.125
 41
1.6
  0
MTEXT
  5
266
100
AcDbEntity
  8
0
100
AcDbMText
 62
2
  6
CONTINUOUS
  7
STANDARD
 71
2
 72
1
 10
1.5275
 20
-1.1565
 30
0.0
 11
1.0
 21
0.0
 31
0.0
 44
0.9
  1
Interface
 40
0.125
 41
1.8
  0
MTEXT
  5
267
100
AcDbEntity
  8
0
100
AcDbMText
 62
2
  6
CONTINUOUS
  7
STANDARD
 71
2
 72
1
 10
6.055
 20
-1.1565
 30
0.0
 11
1.0
 21
0.0
 31
0.0
 44
0.9
  1
ISO 05 - X&Y
 40
0.125
 41
2.4
  0
MTEXT
  5
268
100
AcDbEntity
  8
0
100
AcDbMText
 62
2
  6
CONTINUOUS
  7
STANDARD
 71
2
 72
1
 10
1.5275
 20
-1.4065
 30
0.0
 11
1.0
 21
0.0
 31
0.0
 44
0.9
  1
Open Cavity Quantity
 40
0.125
 41
4.0
  0
MTEXT
  5
269
100
AcDbEntity
  8
0
100
AcDbMText
 62
2
  6
CONTINUOUS
  7
STANDARD
 71
2
 72
1
 10
6.055
 20
-1.4065
 30
0.0
 11
1.0
 21
0.0
 31
0.0
 44
0.9
  1
1
 40
0.125
 41
0.2
  0
MTEXT
  5
26A
100
AcDbEntity
  8
0
100
AcDbMText
 62
2
  6
CONTINUOUS
  7
STANDARD
 71
2
 72
1
 10
1.5275
 20
-1.6565
 30
0.0
 11
1.0
 21
0.0
 31
0.0
 44
0.9
  1
Stack Height
 40
0.125
 41
2.4
  0
MTEXT
  5
26B
100
AcDbEntity
  8
0
100
AcDbMText
 62
2
  6
CONTINUOUS
  7
STANDARD
 71
2
 72
1
 10
4.555
 20
-1.6565
 30
0.0
 11
1.0
 21
0.0
 31
0.0
 44
0.9
  1
2.99 in.
 40
0.125
 41
1.6
  0
MTEXT
  5
26C
100
AcDbEntity
  8
0
100
AcDbMText
 62
2
  6
CONTINUOUS
  7
STANDARD
 71
2
 72
1
 10
7.555
 20
-1.6565
 30
0.0
 11
1.0
 21
0.0
 31
0.0
 44
0.9
  1
76 mm
 40
0.125
 41
1.0
  0
MTEXT
  5
26D
100
AcDbEntity
  8
0
100
AcDbMText
 62
2
  6
CONTINUOUS
  7
STANDARD
 71
2
 72
1
 10
1.5275
 20
-1.9065
 30
0.0
 11
1.0
 21
0.0
 31
0.0
 44
0.9
  1
Weight
 40
0.125
 41
1.2
  0
MTEXT
  5
26E
100
AcDbEntity
  8
0
100
AcDbMText
 62
2
  6
CONTINUOUS
  7
STANDARD
 71
2
 72
1
 10
4.555
 20
-1.9065
 30
0.0
 11
1.0
 21
0.0
 31
0.0
 44
0.9
  1
4.537 lb.
 40
0.125
 41
1.8
  0
MTEXT
  5
26F
100
AcDbEntity
  8
0
100
AcDbMText
 62
2
  6
CONTINUOUS
  7
STANDARD
 71
2
 72
1
 10
7.555
 20
-1.9065
 30
0.0
 11
1.0
 21
0.0
 31
0.0
 44
0.9
  1
2,058 kg.
 40
0.125
 41
1.8
  0
MTEXT
  5
270
100
AcDbEntity
  8
0
100
AcDbMText
 62
2
  6
CONTINUOUS
  7
STANDARD
 71
2
 72
1
 10
1.5275
 20
-2.1565
 30
0.0
 11
1.0
 21
0.0
 31
0.0
 44
0.9
  1
Includes integral cartridge(s)
 40
0.125
 41
6.0
  0
MTEXT
  5
271
100
AcDbEntity
  8
0
100
AcDbMText
 62
2
  6
CONTINUOUS
  7
STANDARD
 71
2
 72
1
 10
6.055
 20
-2.1565
 30
0.0
 11
1.0
 21
0.0
 31
0.0
 44
0.9
  1
Yes (see Included Components)
 40
0.125
 41
5.8
  0
ENDBLK
  5
272
100
AcDbEntity
  8
0
  6
BYBLOCK
 62
0
100
AcDbBlockEnd
  0
BLOCK
  5
273
100
AcDbEntity
  8
0
100
AcDbBlockBegin
  2
*T3
 70
1
 10
0.0
 20
0.0
  3
*T3
  1

  0
LINE
  5
274
100
AcDbEntity
  8
0
100
AcDbLine
 62
2
  6
CONTINUOUS
 10
0.0
 20
0.0
 11
4.6
 21
0.0
  0
LINE
  5
275
100
AcDbEntity
  8
0
100
AcDbLine
 62
2
  6
CONTINUOUS
 10
0.0
 20
0.0
 11
0.0
 21
-0.93775
  0
LINE
  5
276
100
AcDbEntity
  8
0
100
AcDbLine
 62
2
  6
CONTINUOUS
 10
0.0
 20
-0.34375
 11
4.6
 21
-0.34375
  0
LINE
  5
277
100
AcDbEntity
  8
0
100
AcDbLine
 62
2
  6
CONTINUOUS
 10
0.0
 20
-0.68775
 11
4.6
 21
-0.68775
  0
LINE
  5
278
100
AcDbEntity
  8
0
100
AcDbLine
 62
2
  6
CONTINUOUS
 10
0.0
 20
-0.93775
 11
4.6
 21
-0.93775
  0
LINE
  5
279
100
AcDbEntity
  8
0
100
AcDbLine
 62
2
  6
CONTINUOUS
 10
1.3
 20
-0.34375
 11
1.3
 21
-0.93775
  0
LINE
  5
27A
100
AcDbEntity
  8
0
100
AcDbLine
 62
2
  6
CONTINUOUS
 10
3.3
 20
-0.34375
 11
3.3
 21
-0.93775
  0
LINE
  5
27B
100
AcDbEntity
  8
0
100
AcDbLine
 62
2
  6
CONTINUOUS
 10
4.6
 20
0.0
 11
4.6
 21
-0.93775
  0
MTEXT
  5
27C
100
AcDbEntity
  8
0
100
AcDbMText
 62
2
  6
CONTINUOUS
  7
STANDARD
 71
2
 72
1
 10
2.3
 20
-0.099375
 30
0.0
 11
1.0
 21
0.0
 31
0.0
 44
0.9
  1
Port Headings
 40
0.145
 41
3.016
  0
MTEXT
  5
27D
100
AcDbEntity
  8
0
100
AcDbMText
 62
2
  6
CONTINUOUS
  7
STANDARD
 71
2
 72
1
 10
0.65
 20
-0.44325
 30
0.0
 11
1.0
 21
0.0
 31
0.0
 44
0.9
  1
Product
 40
0.145
 41
1.624
  0
MTEXT
  5
27E
100
AcDbEntity
  8
0
100
AcDbMText
 62
2
  6
CONTINUOUS
  7
STANDARD
 71
2
 72
1
 10
2.3
 20
-0.44325
 30
0.0
 11
1.0
 21
0.0
 31
0.0
 44
0.9
  1
Port
 40
0.145
 41
0.928
  0
MTEXT
  5
27F
100
AcDbEntity
  8
0
100
AcDbMText
 62
2
  6
CONTINUOUS
  7
STANDARD
 71
2
 72
1
 10
3.95
 20
-0.44325
 30
0.0
 11
1.0
 21
0.0
 31
0.0
 44
0.9
  1
Size
 40
0.145
 41
0.928
  0
MTEXT
  5
280
100
AcDbEntity
  8
0
100
AcDbMText
 62
2
  6
CONTINUOUS
  7
STANDARD
 71
2
 72
1
 10
0.65
 20
-0.75025
 30
0.0
 11
1.0
 21
0.0
 31
0.0
 44
0.9
  1
NJ3
 40
0.125
 41
0.6
  0
MTEXT
  5
281
100
AcDbEntity
  8
0
100
AcDbMText
 62
2
  6
CONTINUOUS
  7
STANDARD
 71
2
 72
1
 10
2.3
 20
-0.75025
 30
0.0
 11
1.0
 21
0.0
 31
0.0
 44
0.9
  1
External Port
 40
0.125
 41
2.6
  0
MTEXT
  5
282
100
AcDbEntity
  8
0
100
AcDbMText
 62
2
  6
CONTINUOUS
  7
STANDARD
 71
2
 72
1
 10
3.95
 20
-0.75025
 30
0.0
 11
1.0
 21
0.0
 31
0.0
 44
0.9
  1
SAE 6
 40
0.125
 41
1.0
  0
ENDBLK
  5
283
100
AcDbEntity
  8
0
  6
BYBLOCK
 62
0
100
AcDbBlockEnd
  0
ENDSEC
  0
SECTION
  2
ENTITIES
  0
IMAGE
  5
284
100
AcDbEntity
  8
0
100
AcDbRasterImage
 62
7
  6
CONTINUOUS
 10
19.2297077316
 20
0.3094318264
 30
0.0
 11
0.0066666667
 21
0.0
 31
0.0
 12
0.0
 22
0.0066666667
 32
0.0
 13
369.0
 23
92.0
340
       3FC
 70
9
280
0
281
50
282
50
283
0
360
       3F6
 71
1
 91
2
 14
-0.5
 24
-0.5
 14
368.5
 24
91.5
  0
INSERT
  5
285
100
AcDbEntity
  8
0
100
AcDbBlockReference
 62
2
  6
CONTINUOUS
  2
SUN_FIRST_THIRD_ANGLE_BL0
 10
20.4816717061
 20
1.2289683772
  0
ACAD_TABLE
  5
286
100
AcDbEntity
  8
0
 62
2
  6
CONTINUOUS
100
AcDbBlockReference
  2
*T1
 10
12.42375
 20
0.30125
 30
0.0
100
AcDbTable
342
       3FE
343
20F
 11
1.0
 21
0.0
 31
0.0
 90
6
 91
4
 92
6
 93
20
 94
0
 95
0
 96
0
 70
1
 41
0.0
141
0.525
141
0.1
141
0.525
141
0.1
142
4.1
142
1.1
142
0.7
142
0.5
142
0.4
142
2.475
171
1
172
0
173
0
174
0
175
1
176
1
 91
33
178
0
145
0.0
301
CELL_VALUE
 90
4
  1
T-22A Sandwich ISO 05 - X&Y\P(See Notes for Body Features)
304
ACVALUE_END
170
2
140
0.125
171
1
172
0
173
0
174
0
175
1
176
1
 91
33
178
0
145
0.0
301
CELL_VALUE
 90
4
  1
Aug-31-22
304
ACVALUE_END
170
5
140
0.125
171
1
172
0
173
0
174
0
175
1
176
1
 91
33
178
0
145
0.0
301
CELL_VALUE
 90
4
  1
1.000
304
ACVALUE_END
170
5
140
0.125
171
1
172
0
173
0
174
0
175
1
176
1
 91
33
178
0
145
0.0
301
CELL_VALUE
 90
4
  1
C
304
ACVALUE_END
170
5
140
0.125
171
1
172
0
173
0
174
0
175
1
176
1
 91
33
178
0
145
0.0
301
CELL_VALUE
 90
4
  1
2
304
ACVALUE_END
170
5
140
0.125
171
1
172
0
173
0
174
0
175
1
176
1
 91
33
178
0
145
0.0
301
CELL_VALUE
 90
4
  1
 
304
ACVALUE_END
170
1
140
0.125
171
1
172
0
173
0
174
0
175
1
176
1
 91
33
178
0
145
0.0
301
CELL_VALUE
 90
4
  1
DESCRIPTION
304
ACVALUE_END
170
1
140
0.06
171
1
172
0
173
0
174
0
175
1
176
1
 91
33
178
0
145
0.0
301
CELL_VALUE
 90
4
  1
DATE
304
ACVALUE_END
170
1
140
0.06
171
1
172
0
173
0
174
0
175
1
176
1
 91
33
178
0
145
0.0
301
CELL_VALUE
 90
4
  1
SCALE
304
ACVALUE_END
170
1
140
0.06
171
1
172
0
173
0
174
0
175
1
176
1
 91
33
178
0
145
0.0
301
CELL_VALUE
 90
4
  1
DWG SIZE
304
ACVALUE_END
170
1
140
0.06
171
1
172
0
173
0
174
0
175
1
176
1
 91
33
178
0
145
0.0
301
CELL_VALUE
 90
4
  1
SHEET
304
ACVALUE_END
170
1
140
0.06
171
1
172
0
173
0
174
0
175
1
176
1
 91
33
178
0
145
0.0
301
CELL_VALUE
 90
4
  1
 
304
ACVALUE_END
170
1
140
0.125
171
1
172
0
173
0
174
0
175
1
176
1
 91
33
178
0
145
0.0
301
CELL_VALUE
 90
4
  1
NJ3
304
ACVALUE_END
170
5
140
0.125
171
1
172
0
173
0
174
0
175
4
176
1
 91
33
178
0
145
0.0
301
CELL_VALUE
 90
4
  1
ALL DIMENSIONS IN INCH\PVIEWS ARE THIRD ANGLE
304
ACVALUE_END
170
5
140
0.12
171
1
172
0
173
1
174
0
175
1
176
1
 91
1
178
0
145
0.0
170
1
171
1
172
0
173
1
174
0
175
1
176
1
 91
1
178
0
145
0.0
170
1
171
1
172
0
173
1
174
0
175
1
176
1
 91
1
178
0
145
0.0
170
5
171
1
172
0
173
0
174
0
175
1
176
1
 91
33
178
0
145
0.0
301
CELL_VALUE
 90
4
  1
 
304
ACVALUE_END
170
1
140
0.125
171
1
172
0
173
0
174
0
175
1
176
1
 91
33
178
0
145
0.0
301
CELL_VALUE
 90
4
  1
MODEL
304
ACVALUE_END
170
1
140
0.06
171
1
172
0
173
0
174
0
175
1
176
1
 91
33
178
0
145
0.0
301
CELL_VALUE
 90
4
  1
 
304
ACVALUE_END
170
1
140
0.125
171
1
172
0
173
0
174
0
175
1
176
1
 91
33
178
0
145
0.0
301
CELL_VALUE
 90
4
  1
 
304
ACVALUE_END
170
1
140
0.125
171
1
172
0
173
0
174
0
175
1
176
1
 91
33
178
0
145
0.0
301
CELL_VALUE
 90
4
  1
 
304
ACVALUE_END
170
1
140
0.125
171
1
172
0
173
0
174
0
175
1
176
1
 91
33
178
0
145
0.0
301
CELL_VALUE
 90
4
  1
 
304
ACVALUE_END
170
1
140
0.125
171
1
172
0
173
0
174
0
175
1
176
1
 91
33
178
0
145
0.0
301
CELL_VALUE
 90
4
  1
 
304
ACVALUE_END
170
1
140
0.125
  0
ACAD_TABLE
  5
287
100
AcDbEntity
  8
0
 62
2
  6
CONTINUOUS
100
AcDbBlockReference
  2
*T2
 10
12.4237499994
 20
16.47875
 30
0.0
100
AcDbTable
342
       3FD
343
210
 11
1.0
 21
0.0
 31
0.0
 90
22
 91
9
 92
3
 93
16
 94
0
 95
0
 96
0
 41
0.028
141
0.344
141
0.25
141
0.25
141
0.25
141
0.25
141
0.25
141
0.25
141
0.25
141
0.25
142
3.055
142
3.0
142
3.0
171
1
172
0
173
0
174
0
175
1
176
1
 91
33
178
0
145
0.0
301
CELL_VALUE
 90
4
  1
Technical Data
304
ACVALUE_END
170
5
140
0.145
171
1
172
0
173
0
174
0
175
1
176
1
 91
33
178
0
145
0.0
301
CELL_VALUE
 90
4
  1
U.S. Units
304
ACVALUE_END
170
5
140
0.145
171
1
172
0
173
0
174
0
175
1
176
1
 91
33
178
0
145
0.0
301
CELL_VALUE
 90
4
  1
Metric Units
304
ACVALUE_END
170
5
140
0.145
171
1
172
0
173
0
174
0
175
1
176
1
 91
33
178
0
145
0.0
301
CELL_VALUE
 90
4
  1
Cavity
304
ACVALUE_END
170
5
140
0.125
171
1
172
0
173
0
174
0
175
2
176
1
 91
33
178
0
145
0.0
301
CELL_VALUE
 90
4
  1
T-22A
304
ACVALUE_END
170
5
140
0.125
171
1
172
0
173
1
174
0
175
1
176
1
 91
1
178
0
145
0.0
170
1
171
1
172
0
173
0
174
0
175
1
176
1
 91
33
178
0
145
0.0
301
CELL_VALUE
 90
4
  1
Body Features
304
ACVALUE_END
170
5
140
0.125
171
1
172
0
173
0
174
0
175
2
176
1
 91
33
178
0
145
0.0
301
CELL_VALUE
 90
4
  1
(See Notes)
304
ACVALUE_END
170
5
140
0.125
171
1
172
0
173
1
174
0
175
1
176
1
 91
1
178
0
145
0.0
170
1
171
1
172
0
173
0
174
0
175
1
176
1
 91
33
178
0
145
0.0
301
CELL_VALUE
 90
4
  1
Body Type
304
ACVALUE_END
170
5
140
0.125
171
1
172
0
173
0
174
0
175
2
176
1
 91
33
178
0
145
0.0
301
CELL_VALUE
 90
4
  1
Sandwich
304
ACVALUE_END
170
5
140
0.125
171
1
172
0
173
1
174
0
175
1
176
1
 91
1
178
0
145
0.0
170
1
171
1
172
0
173
0
174
0
175
1
176
1
 91
33
178
0
145
0.0
301
CELL_VALUE
 90
4
  1
Interface
304
ACVALUE_END
170
5
140
0.125
171
1
172
0
173
0
174
0
175
2
176
1
 91
33
178
0
145
0.0
301
CELL_VALUE
 90
4
  1
ISO 05 - X&Y
304
ACVALUE_END
170
5
140
0.125
171
1
172
0
173
1
174
0
175
1
176
1
 91
1
178
0
145
0.0
170
1
171
1
172
0
173
0
174
0
175
1
176
1
 91
33
178
0
145
0.0
301
CELL_VALUE
 90
4
  1
Open Cavity Quantity
304
ACVALUE_END
170
5
140
0.125
171
1
172
0
173
0
174
0
175
2
176
1
 91
33
178
0
145
0.0
301
CELL_VALUE
 90
4
  1
1
304
ACVALUE_END
170
5
140
0.125
171
1
172
0
173
1
174
0
175
1
176
1
 91
1
178
0
145
0.0
170
1
171
1
172
0
173
0
174
0
175
1
176
1
 91
33
178
0
145
0.0
301
CELL_VALUE
 90
4
  1
Stack Height
304
ACVALUE_END
170
5
140
0.125
171
1
172
0
173
0
174
0
175
1
176
1
 91
33
178
0
145
0.0
301
CELL_VALUE
 90
4
  1
2.99 in.
304
ACVALUE_END
170
5
140
0.125
171
1
172
0
173
0
174
0
175
1
176
1
 91
33
178
0
145
0.0
301
CELL_VALUE
 90
4
  1
76 mm
304
ACVALUE_END
170
5
140
0.125
171
1
172
0
173
0
174
0
175
1
176
1
 91
33
178
0
145
0.0
301
CELL_VALUE
 90
4
  1
Weight
304
ACVALUE_END
170
5
140
0.125
171
1
172
0
173
0
174
0
175
1
176
1
 91
33
178
0
145
0.0
301
CELL_VALUE
 90
4
  1
4.537 lb.
304
ACVALUE_END
170
5
140
0.125
171
1
172
0
173
0
174
0
175
1
176
1
 91
33
178
0
145
0.0
301
CELL_VALUE
 90
4
  1
2,058 kg.
304
ACVALUE_END
170
5
140
0.125
171
1
172
0
173
0
174
0
175
1
176
1
 91
33
178
0
145
0.0
301
CELL_VALUE
 90
4
  1
Includes integral cartridge(s)
304
ACVALUE_END
170
5
140
0.125
171
1
172
0
173
0
174
0
175
2
176
1
 91
33
178
0
145
0.0
301
CELL_VALUE
 90
4
  1
Yes (see Included Components)
304
ACVALUE_END
170
5
140
0.125
171
1
172
0
173
1
174
0
175
1
176
1
 91
1
178
0
145
0.0
170
1
  0
ACAD_TABLE
  5
288
100
AcDbEntity
  8
0
 62
2
  6
CONTINUOUS
100
AcDbBlockReference
  2
*T3
 10
0.52125
 20
1.459
 30
0.0
100
AcDbTable
342
       3FD
343
211
 11
1.0
 21
0.0
 31
0.0
 90
22
 91
3
 92
3
 93
16
 94
0
 95
0
 96
0
 41
0.05
141
0.34375
141
0.344
141
0.25
142
1.3
142
2.0
142
1.3
171
1
172
0
173
0
174
0
175
3
176
1
 91
33
178
0
145
0.0
301
CELL_VALUE
 90
4
  1
Port Headings
304
ACVALUE_END
170
5
140
0.145
171
1
172
0
173
1
174
0
175
1
176
1
 91
1
178
0
145
0.0
170
1
171
1
172
0
173
1
174
0
175
1
176
1
 91
1
178
0
145
0.0
170
1
171
1
172
0
173
0
174
0
175
1
176
1
 91
33
178
0
145
0.0
301
CELL_VALUE
 90
4
  1
Product
304
ACVALUE_END
170
5
140
0.145
171
1
172
0
173
0
174
0
175
1
176
1
 91
33
178
0
145
0.0
301
CELL_VALUE
 90
4
  1
Port
304
ACVALUE_END
170
5
140
0.145
171
1
172
0
173
0
174
0
175
1
176
1
 91
33
178
0
145
0.0
301
CELL_VALUE
 90
4
  1
Size
304
ACVALUE_END
170
5
140
0.145
171
1
172
0
173
0
174
0
175
1
176
1
 91
33
178
0
145
0.0
301
CELL_VALUE
 90
4
  1
NJ3
304
ACVALUE_END
170
5
140
0.125
171
1
172
0
173
0
174
0
175
1
176
1
 91
33
178
0
145
0.0
301
CELL_VALUE
 90
4
  1
External Port
304
ACVALUE_END
170
5
140
0.125
171
1
172
0
173
0
174
0
175
1
176
1
 91
33
178
0
145
0.0
301
CELL_VALUE
 90
4
  1
SAE 6
304
ACVALUE_END
170
5
140
0.125
  0
MTEXT
  5
289
100
AcDbEntity
  8
0
100
AcDbMText
 62
2
  6
CONTINUOUS
  7
STANDARD
 71
1
 72
1
 10
0.52125
 20
5.75995
 30
0.0
 11
1.0
 21
0.0
 31
0.0
 44
0.6
  3
Notes\P \P1. Stack height value in technical\P   data table includes seal retainer\P   plate.\P2. This installation requires a\P   retainer and seal kit which are\P   purchased separately. See "Related\P   Accessories" section.\P3. Important: Careful
  3
ly consider\P   the maximum system pressure. The\P   pressure rating of the manifold is\P   dependent on the manifold material,\P   with the port type/size a secondary\P   consideration. Manifolds\P   constructed of aluminum are not\P   rated for pre
  1
ssures higher than\P   3000 psi (210 bar), regardless of\P   the port type/size specified.\P4. Body Features: Reducer/reliever\P   on B with reverse flow check and\P   port 4 external.
 40
0.1
 41
3.04
  0
LINE
  5
28A
100
AcDbEntity
  8
0
100
AcDbLine
 62
7
  6
CONTINUOUS
 10
0.30125
 20
0.30125
 11
0.30125
 21
16.69875
  0
LINE
  5
28B
100
AcDbEntity
  8
0
100
AcDbLine
 62
7
  6
CONTINUOUS
 10
0.30125
 20
0.30125
 11
21.69875
 21
0.30125
  0
LINE
  5
28C
100
AcDbEntity
  8
0
100
AcDbLine
 62
7
  6
CONTINUOUS
 10
0.30125
 20
16.69875
 11
21.69875
 21
16.69875
  0
LINE
  5
28D
100
AcDbEntity
  8
0
100
AcDbLine
 62
7
  6
CONTINUOUS
 10
21.69875
 20
0.30125
 11
21.69875
 21
16.69875
  0
LINE
  5
28E
100
AcDbEntity
  8
0
100
AcDbLine
 62
7
  6
CONTINUOUS
 10
9.8476278042
 20
5.3410443226
 11
11.4172573649
 21
5.2321901428
  0
LINE
  5
28F
100
AcDbEntity
  8
0
100
AcDbLine
 62
7
  6
CONTINUOUS
 10
9.8396044204
 20
5.3632380309
 11
11.4092339811
 21
5.2543838511
  0
LINE
  5
290
100
AcDbEntity
  8
0
100
AcDbLine
 62
7
  6
CONTINUOUS
 10
9.575374066
 20
5.4309816207
 11
9.6052404924
 21
5.4031877756
  0
LINE
  5
291
100
AcDbEntity
  8
0
100
AcDbLine
 62
7
  6
CONTINUOUS
 10
10.5295487008
 20
11.6845624405
 11
10.548766632
 21
11.6940557305
  0
LINE
  5
292
100
AcDbEntity
  8
0
100
AcDbLine
 62
7
  6
CONTINUOUS
 10
9.5744392759
 20
10.734813109
 11
10.1324526766
 21
11.2738126961
  0
LINE
  5
293
100
AcDbEntity
  8
0
100
AcDbLine
 62
7
  6
CONTINUOUS
 10
9.6043829783
 20
10.7626802086
 11
10.162396379
 21
11.3016797957
  0
LINE
  5
294
100
AcDbEntity
  8
0
100
AcDbLine
 62
7
  6
CONTINUOUS
 10
10.1324526766
 20
11.2738126961
 11
10.1333874667
 21
11.2746988391
  0
LINE
  5
295
100
AcDbEntity
  8
0
100
AcDbLine
 62
7
  6
CONTINUOUS
 10
10.162396379
 20
11.3016797957
 11
10.1632551516
 21
11.3024936824
  0
LINE
  5
296
100
AcDbEntity
  8
0
100
AcDbLine
 62
7
  6
CONTINUOUS
 10
10.1623889574
 20
11.3016877707
 11
10.1324526766
 21
11.2738126961
  0
LINE
  5
297
100
AcDbEntity
  8
0
100
AcDbLine
 62
7
  6
CONTINUOUS
 10
9.6043829783
 20
10.7626802086
 11
9.5744392759
 21
10.734813109
  0
LINE
  5
298
100
AcDbEntity
  8
0
100
AcDbLine
 62
7
  6
CONTINUOUS
 10
11.8272024956
 20
6.1570926389
 11
9.4123877868
 21
6.3245606078
  0
LINE
  5
299
100
AcDbEntity
  8
0
100
AcDbLine
 62
7
  6
CONTINUOUS
 10
9.8476278042
 20
5.3410443226
 11
9.8396044204
 21
5.3632380309
  0
LINE
  5
29A
100
AcDbEntity
  8
0
100
AcDbLine
 62
7
  6
CONTINUOUS
 10
9.4123877868
 20
9.8260419355
 11
9.5616614822
 21
9.9702292616
  0
LINE
  5
29B
100
AcDbEntity
  8
0
100
AcDbLine
 62
7
  6
CONTINUOUS
 10
11.5169265557
 20
11.080769597
 11
11.551202784
 21
11.0977013974
  0
LINE
  5
29C
100
AcDbEntity
  8
0
100
AcDbLine
 62
7
  6
CONTINUOUS
 10
11.406695587
 20
6.409668978
 11
11.4041269648
 21
6.4098017024
  0
LINE
  5
29D
100
AcDbEntity
  8
0
100
AcDbLine
 62
7
  6
CONTINUOUS
 10
11.401558325
 20
6.5659344364
 11
11.4041269298
 21
6.5658017124
  0
LINE
  5
29E
100
AcDbEntity
  8
0
100
AcDbLine
 62
7
  6
CONTINUOUS
 10
9.4123877868
 20
9.8260419355
 11
9.4123877868
 21
6.3245606078
  0
LINE
  5
29F
100
AcDbEntity
  8
0
100
AcDbLine
 62
7
  6
CONTINUOUS
 10
9.5616614822
 20
6.3142084418
 11
9.5616614822
 21
5.4569879591
  0
LINE
  5
2A0
100
AcDbEntity
  8
0
100
AcDbLine
 62
7
  6
CONTINUOUS
 10
9.5616614822
 20
9.894451468
 11
9.5616614822
 21
10.7096929137
  0
LINE
  5
2A1
100
AcDbEntity
  8
0
100
AcDbLine
 62
7
  6
CONTINUOUS
 10
9.8476278042
 20
10.6536366819
 11
9.8396044204
 21
10.6159429855
  0
LINE
  5
2A2
100
AcDbEntity
  8
0
100
AcDbLine
 62
7
  6
CONTINUOUS
 10
9.8396044204
 20
10.6159429855
 11
9.8396044204
 21
9.8007015398
  0
LINE
  5
2A3
100
AcDbEntity
  8
0
100
AcDbLine
 62
7
  6
CONTINUOUS
 10
9.8396044204
 20
5.3632380309
 11
9.8396044204
 21
6.2949330336
  0
LINE
  5
2A4
100
AcDbEntity
  8
0
100
AcDbLine
 62
7
  6
CONTINUOUS
 10
12.3965829476
 20
11.1467384309
 11
11.8385695469
 21
10.6077388438
  0
LINE
  5
2A5
100
AcDbEntity
  8
0
100
AcDbLine
 62
7
  6
CONTINUOUS
 10
12.42652665
 20
11.1147181257
 11
11.8685132493
 21
10.5757185386
  0
LINE
  5
2A6
100
AcDbEntity
  8
0
100
AcDbLine
 62
7
  6
CONTINUOUS
 10
11.4172573649
 20
5.2321901428
 11
11.4092339811
 21
5.2543838511
  0
LINE
  5
2A7
100
AcDbEntity
  8
0
100
AcDbLine
 62
7
  6
CONTINUOUS
 10
10.4213485262
 20
11.1634792873
 11
10.4213485262
 21
11.5478827286
  0
LINE
  5
2A8
100
AcDbEntity
  8
0
100
AcDbLine
 62
7
  6
CONTINUOUS
 10
10.4357965743
 20
11.1495235682
 11
10.4357965743
 21
11.5339270096
  0
LINE
  5
2A9
100
AcDbEntity
  8
0
100
AcDbLine
 62
7
  6
CONTINUOUS
 10
10.5023757424
 20
10.9818969625
 11
10.5023757424
 21
11.111572797
  0
LINE
  5
2AA
100
AcDbEntity
  8
0
100
AcDbLine
 62
7
  6
CONTINUOUS
 10
12.42652665
 20
10.29947668
 11
11.8685132493
 21
9.7604770929
  0
LINE
  5
2AB
100
AcDbEntity
  8
0
100
AcDbLine
 62
7
  6
CONTINUOUS
 10
12.5876122132
 20
10.393073395
 11
11.8272024956
 21
9.6585739667
  0
LINE
  5
2AC
100
AcDbEntity
  8
0
100
AcDbLine
 62
4
  6
CONTINUOUS
 10
11.8893190162
 20
8.1320406516
 11
11.8815544514
 21
8.1317851015
  0
LINE
  5
2AD
100
AcDbEntity
  8
0
100
AcDbLine
 62
4
  6
CONTINUOUS
 10
11.8893190162
 20
8.2189739792
 11
11.897083581
 21
8.2192295293
  0
LINE
  5
2AE
100
AcDbEntity
  8
0
100
AcDbLine
 62
4
  6
CONTINUOUS
 10
12.259947578
 20
7.9549864587
 11
12.2288893189
 21
7.9581039385
  0
LINE
  5
2AF
100
AcDbEntity
  8
0
100
AcDbLine
 62
4
  6
CONTINUOUS
 10
12.1089452803
 20
8.0409516318
 11
12.0793659854
 21
8.0454976675
  0
LINE
  5
2B0
100
AcDbEntity
  8
0
100
AcDbLine
 62
7
  6
CONTINUOUS
 10
10.8494832924
 20
11.0424537026
 11
10.8494832924
 21
11.4268571439
  0
LINE
  5
2B1
100
AcDbEntity
  8
0
100
AcDbLine
 62
7
  6
CONTINUOUS
 10
10.903404101
 20
11.0387142818
 11
10.903404101
 21
11.4231177232
  0
LINE
  5
2B2
100
AcDbEntity
  8
0
100
AcDbLine
 62
7
  6
CONTINUOUS
 10
11.4172573649
 20
10.5447825022
 11
11.4092339811
 21
10.5070888057
  0
LINE
  5
2B3
100
AcDbEntity
  8
0
100
AcDbLine
 62
4
  6
CONTINUOUS
 10
11.9048481457
 20
8.5382406139
 11
11.8737898867
 21
8.5444628574
  0
LINE
  5
2B4
100
AcDbEntity
  8
0
100
AcDbLine
 62
4
  6
CONTINUOUS
 10
12.0704921976
 20
8.4591738294
 11
12.0727106454
 21
8.458556908
  0
LINE
  5
2B5
100
AcDbEntity
  8
0
100
AcDbLine
 62
4
  6
CONTINUOUS
 10
11.8660253219
 20
7.8849629078
 11
11.8848847111
 21
7.8703589601
  0
LINE
  5
2B6
100
AcDbEntity
  8
0
100
AcDbLine
 62
7
  6
CONTINUOUS
 10
11.4092339811
 20
10.5070888057
 11
11.4092339811
 21
9.69184736
  0
LINE
  5
2B7
100
AcDbEntity
  8
0
100
AcDbLine
 62
7
  6
CONTINUOUS
 10
11.4092339811
 20
5.2543838511
 11
11.4092339811
 21
6.1860788538
  0
LINE
  5
2B8
100
AcDbEntity
  8
0
100
AcDbLine
 62
7
  6
CONTINUOUS
 10
11.4685105086
 20
11.0779046136
 11
11.4685105086
 21
11.462308055
  0
LINE
  5
2B9
100
AcDbEntity
  8
0
100
AcDbLine
 62
7
  6
CONTINUOUS
 10
11.5079832691
 20
11.0881209119
 11
11.5079832691
 21
11.4725243532
  0
LINE
  5
2BA
100
AcDbEntity
  8
0
100
AcDbLine
 62
4
  6
CONTINUOUS
 10
11.9048481457
 20
8.9729072518
 11
11.8737898867
 21
8.9429072754
  0
LINE
  5
2BB
100
AcDbEntity
  8
0
100
AcDbLine
 62
4
  6
CONTINUOUS
 10
11.8737898867
 20
8.7110850686
 11
11.9048481457
 21
8.7410850449
  0
LINE
  5
2BC
100
AcDbEntity
  8
0
100
AcDbLine
 62
4
  6
CONTINUOUS
 10
11.9048481457
 20
8.6179294975
 11
11.8737898867
 21
8.624151741
  0
LINE
  5
2BD
100
AcDbEntity
  8
0
100
AcDbLine
 62
7
  6
CONTINUOUS
 10
11.5783757424
 20
10.9819843036
 11
11.5783757424
 21
11.1165728723
  0
LINE
  5
2BE
100
AcDbEntity
  8
0
100
AcDbLine
 62
7
  6
CONTINUOUS
 10
11.6594029587
 20
11.2343811093
 11
11.6594029587
 21
11.6187845507
  0
LINE
  5
2BF
100
AcDbEntity
  8
0
100
AcDbLine
 62
4
  6
CONTINUOUS
 10
11.8737898867
 20
8.819751728
 11
11.9048481457
 21
8.8859739242
  0
LINE
  5
2C0
100
AcDbEntity
  8
0
100
AcDbLine
 62
4
  6
CONTINUOUS
 10
11.8737898867
 20
8.624151741
 11
11.9048481457
 21
8.6903739371
  0
LINE
  5
2C1
100
AcDbEntity
  8
0
100
AcDbLine
 62
4
  6
CONTINUOUS
 10
12.0993320095
 20
8.6526182171
 11
12.092676668
 21
8.6461896505
  0
LINE
  5
2C2
100
AcDbEntity
  8
0
100
AcDbLine
 62
4
  6
CONTINUOUS
 10
12.0882397741
 20
8.5922278316
 11
12.0815844332
 21
8.5857992656
  0
LINE
  5
2C3
100
AcDbEntity
  8
0
100
AcDbLine
 62
4
  6
CONTINUOUS
 10
12.0993320095
 20
8.5284277808
 11
12.0815844332
 21
8.5112849375
  0
LINE
  5
2C4
100
AcDbEntity
  8
0
100
AcDbLine
 62
4
  6
CONTINUOUS
 10
11.9048481457
 20
8.8859739242
 11
11.8737898867
 21
8.8921961677
  0
LINE
  5
2C5
100
AcDbEntity
  8
0
100
AcDbLine
 62
4
  6
CONTINUOUS
 10
11.8763780743
 20
8.0253628894
 11
11.8789662638
 21
8.0206184446
  0
LINE
  5
2C6
100
AcDbEntity
  8
0
100
AcDbLine
 62
4
  6
CONTINUOUS
 10
11.8996717691
 20
8.0985739798
 11
11.9022599574
 21
8.093829534
  0
LINE
  5
2C7
100
AcDbEntity
  8
0
100
AcDbLine
 62
4
  6
CONTINUOUS
 10
11.8815544514
 20
8.1317851015
 11
11.8763780743
 21
8.1412739928
  0
LINE
  5
2C8
100
AcDbEntity
  8
0
100
AcDbLine
 62
4
  6
CONTINUOUS
 10
11.897083581
 20
8.2192295293
 11
11.9022599574
 21
8.2097406374
  0
LINE
  5
2C9
100
AcDbEntity
  8
0
100
AcDbLine
 62
4
  6
CONTINUOUS
 10
12.0749290915
 20
7.5444501008
 11
12.0704921976
 21
7.55672312
  0
LINE
  5
2CA
100
AcDbEntity
  8
0
100
AcDbLine
 62
4
  6
CONTINUOUS
 10
12.1015504567
 20
7.6115611902
 11
12.0971135623
 21
7.6238342071
  0
LINE
  5
2CB
100
AcDbEntity
  8
0
100
AcDbLine
 62
4
  6
CONTINUOUS
 10
11.8737898867
 20
8.0373517799
 11
11.8763780743
 21
8.0253628894
  0
LINE
  5
2CC
100
AcDbEntity
  8
0
100
AcDbLine
 62
7
  6
CONTINUOUS
 10
11.8272024956
 20
9.6585739667
 11
11.8272024956
 21
6.1570926389
  0
LINE
  5
2CD
100
AcDbEntity
  8
0
100
AcDbLine
 62
7
  6
CONTINUOUS
 10
11.8685132493
 20
10.5757185386
 11
11.8685132493
 21
9.7604770929
  0
LINE
  5
2CE
100
AcDbEntity
  8
0
100
AcDbLine
 62
7
  6
CONTINUOUS
 10
11.8685132493
 20
5.323013584
 11
11.8685132493
 21
6.1969957651
  0
LINE
  5
2CF
100
AcDbEntity
  8
0
100
AcDbLine
 62
4
  6
CONTINUOUS
 10
11.8737898867
 20
8.0518406678
 11
11.8737898867
 21
8.0373517799
  0
LINE
  5
2D0
100
AcDbEntity
  8
0
100
AcDbLine
 62
4
  6
CONTINUOUS
 10
11.8737898867
 20
8.1532628833
 11
11.8737898867
 21
8.1677517712
  0
LINE
  5
2D1
100
AcDbEntity
  8
0
100
AcDbLine
 62
4
  6
CONTINUOUS
 10
11.8737898867
 20
8.9429072754
 11
11.8737898867
 21
9.0008628271
  0
LINE
  5
2D2
100
AcDbEntity
  8
0
100
AcDbLine
 62
4
  6
CONTINUOUS
 10
11.8893190162
 20
8.9579072636
 11
11.8893190162
 21
8.9941294834
  0
LINE
  5
2D3
100
AcDbEntity
  8
0
100
AcDbLine
 62
4
  6
CONTINUOUS
 10
11.8944953924
 20
8.622418393
 11
11.8944953924
 21
8.6658850568
  0
LINE
  5
2D4
100
AcDbEntity
  8
0
100
AcDbLine
 62
4
  6
CONTINUOUS
 10
11.9048481457
 20
9.0308628035
 11
11.9048481457
 21
8.9729072518
  0
LINE
  5
2D5
100
AcDbEntity
  8
0
100
AcDbLine
 62
4
  6
CONTINUOUS
 10
11.9048481457
 20
8.1977517476
 11
11.9048481457
 21
8.1832628596
  0
LINE
  5
2D6
100
AcDbEntity
  8
0
100
AcDbLine
 62
4
  6
CONTINUOUS
 10
11.9048481457
 20
8.0818406441
 11
11.9048481457
 21
8.0673517562
  0
LINE
  5
2D7
100
AcDbEntity
  8
0
100
AcDbLine
 62
4
  6
CONTINUOUS
 10
11.9048481457
 20
8.2774406312
 11
11.9048481457
 21
8.3353961829
  0
LINE
  5
2D8
100
AcDbEntity
  8
0
100
AcDbLine
 62
4
  6
CONTINUOUS
 10
11.9048481457
 20
8.7410850449
 11
11.9048481457
 21
8.7990405966
  0
LINE
  5
2D9
100
AcDbEntity
  8
0
100
AcDbLine
 62
4
  6
CONTINUOUS
 10
11.9087304281
 20
7.9262128753
 11
11.9087304281
 21
9.0853239096
  0
LINE
  5
2DA
100
AcDbEntity
  8
0
100
AcDbLine
 62
4
  6
CONTINUOUS
 10
11.8737898867
 20
8.1677517712
 11
11.8763780743
 21
8.1847406566
  0
LINE
  5
2DB
100
AcDbEntity
  8
0
100
AcDbLine
 62
4
  6
CONTINUOUS
 10
11.8763780743
 20
8.0688295531
 11
11.8737898867
 21
8.0518406678
  0
LINE
  5
2DC
100
AcDbEntity
  8
0
100
AcDbLine
 62
4
  6
CONTINUOUS
 10
11.9048481457
 20
8.1832628596
 11
11.9022599574
 21
8.1662739736
  0
LINE
  5
2DD
100
AcDbEntity
  8
0
100
AcDbLine
 62
4
  6
CONTINUOUS
 10
11.8841426391
 20
8.0328628834
 11
11.8919072048
 21
8.0838295422
  0
LINE
  5
2DE
100
AcDbEntity
  8
0
100
AcDbLine
 62
4
  6
CONTINUOUS
 10
11.9048481457
 20
8.0673517562
 11
11.9022599574
 21
8.0503628702
  0
LINE
  5
2DF
100
AcDbEntity
  8
0
100
AcDbLine
 62
4
  6
CONTINUOUS
 10
11.8763780743
 20
8.1847406566
 11
11.8815544514
 21
8.2042295412
  0
LINE
  5
2E0
100
AcDbEntity
  8
0
100
AcDbLine
 62
4
  6
CONTINUOUS
 10
11.9022599574
 20
8.1662739736
 11
11.897083581
 21
8.1467850897
  0
LINE
  5
2E1
100
AcDbEntity
  8
0
100
AcDbLine
 62
4
  6
CONTINUOUS
 10
11.8789662638
 20
8.0785739963
 11
11.8763780743
 21
8.0688295531
  0
LINE
  5
2E2
100
AcDbEntity
  8
0
100
AcDbLine
 62
4
  6
CONTINUOUS
 10
11.8919072048
 20
8.0838295422
 11
11.8944953924
 21
8.0935739836
  0
LINE
  5
2E3
100
AcDbEntity
  8
0
100
AcDbLine
 62
4
  6
CONTINUOUS
 10
11.8815544514
 20
8.023118442
 11
11.8841426391
 21
8.0328628834
  0
LINE
  5
2E4
100
AcDbEntity
  8
0
100
AcDbLine
 62
4
  6
CONTINUOUS
 10
11.9022599574
 20
8.0503628702
 11
11.897083581
 21
8.0308739863
  0
LINE
  5
2E5
100
AcDbEntity
  8
0
100
AcDbLine
 62
4
  6
CONTINUOUS
 10
11.8737898867
 20
8.4720184177
 11
11.9048481457
 21
8.5382406139
  0
LINE
  5
2E6
100
AcDbEntity
  8
0
100
AcDbLine
 62
4
  6
CONTINUOUS
 10
11.8815544514
 20
8.2042295412
 11
11.8893190162
 21
8.2189739792
  0
LINE
  5
2E7
100
AcDbEntity
  8
0
100
AcDbLine
 62
4
  6
CONTINUOUS
 10
11.897083581
 20
8.1467850897
 11
11.8893190162
 21
8.1320406516
  0
LINE
  5
2E8
100
AcDbEntity
  8
0
100
AcDbLine
 62
4
  6
CONTINUOUS
 10
12.1015504567
 20
8.4864140281
 11
12.0793659854
 21
8.4649854731
  0
LINE
  5
2E9
100
AcDbEntity
  8
0
100
AcDbLine
 62
4
  6
CONTINUOUS
 10
12.0727106454
 20
8.458556908
 11
12.0704921976
 21
8.4564140518
  0
LINE
  5
2EA
100
AcDbEntity
  8
0
100
AcDbLine
 62
4
  6
CONTINUOUS
 10
11.8737898867
 20
8.2474406548
 11
11.9048481457
 21
8.2774406312
  0
LINE
  5
2EB
100
AcDbEntity
  8
0
100
AcDbLine
 62
4
  6
CONTINUOUS
 10
12.259947578
 20
8.6200954285
 11
12.2288893189
 21
8.5900954521
  0
LINE
  5
2EC
100
AcDbEntity
  8
0
100
AcDbLine
 62
4
  6
CONTINUOUS
 10
12.2333262128
 20
8.5474647216
 11
12.2555106836
 21
8.5688932762
  0
LINE
  5
2ED
100
AcDbEntity
  8
0
100
AcDbLine
 62
4
  6
CONTINUOUS
 10
12.0993320095
 20
8.4097568997
 11
12.0704921976
 21
8.3818997789
  0
LINE
  5
2EE
100
AcDbEntity
  8
0
100
AcDbLine
 62
4
  6
CONTINUOUS
 10
12.1015504567
 20
8.3787823129
 11
12.0793659854
 21
8.3573537579
  0
LINE
  5
2EF
100
AcDbEntity
  8
0
100
AcDbLine
 62
4
  6
CONTINUOUS
 10
12.259947578
 20
8.5152234356
 11
12.2288893189
 21
8.4852234593
  0
LINE
  5
2F0
100
AcDbEntity
  8
0
100
AcDbLine
 62
4
  6
CONTINUOUS
 10
12.0793659854
 20
8.3076775391
 11
12.0993320095
 21
8.3269632386
  0
LINE
  5
2F1
100
AcDbEntity
  8
0
100
AcDbLine
 62
4
  6
CONTINUOUS
 10
12.2333262128
 20
8.4563917276
 11
12.2555106836
 21
8.4778202822
  0
LINE
  5
2F2
100
AcDbEntity
  8
0
100
AcDbLine
 62
4
  6
CONTINUOUS
 10
12.1015504567
 20
8.2959886518
 11
12.0838028792
 21
8.2788458074
  0
LINE
  5
2F3
100
AcDbEntity
  8
0
100
AcDbLine
 62
4
  6
CONTINUOUS
 10
11.8944953924
 20
8.0935739836
 11
11.8996717691
 21
8.0985739798
  0
LINE
  5
2F4
100
AcDbEntity
  8
0
100
AcDbLine
 62
4
  6
CONTINUOUS
 10
12.2555106836
 20
8.4198647305
 11
12.2333262128
 21
8.3984361759
  0
LINE
  5
2F5
100
AcDbEntity
  8
0
100
AcDbLine
 62
4
  6
CONTINUOUS
 10
12.0993320095
 20
8.2441696328
 11
12.092676668
 21
8.2377410661
  0
LINE
  5
2F6
100
AcDbEntity
  8
0
100
AcDbLine
 62
4
  6
CONTINUOUS
 10
11.8789662638
 20
8.0206184446
 11
11.8815544514
 21
8.023118442
  0
LINE
  5
2F7
100
AcDbEntity
  8
0
100
AcDbLine
 62
4
  6
CONTINUOUS
 10
12.1894009608
 20
8.3049514928
 11
12.1783087254
 21
8.2942372155
  0
LINE
  5
2F8
100
AcDbEntity
  8
0
100
AcDbLine
 62
4
  6
CONTINUOUS
 10
12.1716533846
 20
8.2850488718
 11
12.1649980428
 21
8.278620305
  0
LINE
  5
2F9
100
AcDbEntity
  8
0
100
AcDbLine
 62
4
  6
CONTINUOUS
 10
12.0815844332
 20
8.1911495142
 11
12.0860213271
 21
8.1954352249
  0
LINE
  5
2FA
100
AcDbEntity
  8
0
100
AcDbLine
 62
4
  6
CONTINUOUS
 10
12.2555106836
 20
8.3232721811
 11
12.2333262128
 21
8.3018436265
  0
LINE
  5
2FB
100
AcDbEntity
  8
0
100
AcDbLine
 62
4
  6
CONTINUOUS
 10
12.1015504567
 20
8.1717982154
 11
12.0793659854
 21
8.1503696604
  0
LINE
  5
2FC
100
AcDbEntity
  8
0
100
AcDbLine
 62
4
  6
CONTINUOUS
 10
12.1015504567
 20
7.7026342049
 11
12.0971135623
 21
7.714907215
  0
LINE
  5
2FD
100
AcDbEntity
  8
0
100
AcDbLine
 62
4
  6
CONTINUOUS
 10
12.2555106836
 20
7.903784348
 11
12.259947578
 21
7.891511331
  0
LINE
  5
2FE
100
AcDbEntity
  8
0
100
AcDbLine
 62
4
  6
CONTINUOUS
 10
11.8763780743
 20
8.1412739928
 11
11.8737898867
 21
8.1532628833
  0
LINE
  5
2FF
100
AcDbEntity
  8
0
100
AcDbLine
 62
4
  6
CONTINUOUS
 10
11.9022599574
 20
8.093829534
 11
11.9048481457
 21
8.0818406441
  0
LINE
  5
300
100
AcDbEntity
  8
0
100
AcDbLine
 62
4
  6
CONTINUOUS
 10
11.9022599574
 20
8.2097406374
 11
11.9048481457
 21
8.1977517476
  0
LINE
  5
301
100
AcDbEntity
  8
0
100
AcDbLine
 62
4
  6
CONTINUOUS
 10
12.0704921976
 20
7.55672312
 11
12.0704921976
 21
7.5898405779
  0
LINE
  5
302
100
AcDbEntity
  8
0
100
AcDbLine
 62
4
  6
CONTINUOUS
 10
12.0704921976
 20
8.4564140518
 11
12.0704921976
 21
8.4591738294
  0
LINE
  5
303
100
AcDbEntity
  8
0
100
AcDbLine
 62
4
  6
CONTINUOUS
 10
12.0793659854
 20
8.2662807638
 11
12.0793659854
 21
8.2248839333
  0
LINE
  5
304
100
AcDbEntity
  8
0
100
AcDbLine
 62
4
  6
CONTINUOUS
 10
12.0793659854
 20
7.9130278429
 11
12.0793659854
 21
7.9544246735
  0
LINE
  5
305
100
AcDbEntity
  8
0
100
AcDbLine
 62
4
  6
CONTINUOUS
 10
12.0793659854
 20
8.0841347204
 11
12.0793659854
 21
8.1172521628
  0
LINE
  5
306
100
AcDbEntity
  8
0
100
AcDbLine
 62
4
  6
CONTINUOUS
 10
12.0793659854
 20
8.1503696604
 11
12.0793659854
 21
8.1834871027
  0
LINE
  5
307
100
AcDbEntity
  8
0
100
AcDbLine
 62
4
  6
CONTINUOUS
 10
12.0793659854
 20
8.5174214142
 11
12.0793659854
 21
8.5505389671
  0
LINE
  5
308
100
AcDbEntity
  8
0
100
AcDbLine
 62
4
  6
CONTINUOUS
 10
12.0793659854
 20
8.5919357424
 11
12.0793659854
 21
8.6250531847
  0
LINE
  5
309
100
AcDbEntity
  8
0
100
AcDbLine
 62
4
  6
CONTINUOUS
 10
12.090458221
 20
8.2521569319
 11
12.090458221
 21
8.2852743743
  0
LINE
  5
30A
100
AcDbEntity
  8
0
100
AcDbLine
 62
4
  6
CONTINUOUS
 10
12.1015504567
 20
8.5719675221
 11
12.1015504567
 21
8.5388499693
  0
LINE
  5
30B
100
AcDbEntity
  8
0
100
AcDbLine
 62
4
  6
CONTINUOUS
 10
12.1015504567
 20
8.4367378646
 11
12.1015504567
 21
8.4201791434
  0
LINE
  5
30C
100
AcDbEntity
  8
0
100
AcDbLine
 62
4
  6
CONTINUOUS
 10
12.1015504567
 20
8.2959886518
 11
12.1015504567
 21
8.2628712095
  0
LINE
  5
30D
100
AcDbEntity
  8
0
100
AcDbLine
 62
4
  6
CONTINUOUS
 10
12.1015504567
 20
8.1386807178
 11
12.1015504567
 21
8.1055632755
  0
LINE
  5
30E
100
AcDbEntity
  8
0
100
AcDbLine
 62
4
  6
CONTINUOUS
 10
12.1015504567
 20
7.5784437314
 11
12.1015504567
 21
7.6115611902
  0
LINE
  5
30F
100
AcDbEntity
  8
0
100
AcDbLine
 62
4
  6
CONTINUOUS
 10
12.1015504567
 20
7.6777961025
 11
12.1015504567
 21
7.7026342049
  0
LINE
  5
310
100
AcDbEntity
  8
0
100
AcDbLine
 62
4
  6
CONTINUOUS
 10
12.1015504567
 20
8.3373854823
 11
12.1015504567
 21
8.3787823129
  0
LINE
  5
311
100
AcDbEntity
  8
0
100
AcDbLine
 62
4
  6
CONTINUOUS
 10
12.1015504567
 20
8.6133642974
 11
12.1015504567
 21
8.6464817397
  0
LINE
  5
312
100
AcDbEntity
  8
0
100
AcDbLine
 62
4
  6
CONTINUOUS
 10
12.1089452803
 20
8.0243929106
 11
12.1089452803
 21
8.0409516318
  0
LINE
  5
313
100
AcDbEntity
  8
0
100
AcDbLine
 62
4
  6
CONTINUOUS
 10
12.1605611489
 20
8.2605356508
 11
12.1605611489
 21
8.2274181946
  0
LINE
  5
314
100
AcDbEntity
  8
0
100
AcDbLine
 62
4
  6
CONTINUOUS
 10
12.1738718306
 20
8.2733927828
 11
12.1738718306
 21
8.2568340478
  0
LINE
  5
315
100
AcDbEntity
  8
0
100
AcDbLine
 62
4
  6
CONTINUOUS
 10
12.191619408
 20
8.1829038843
 11
12.191619408
 21
8.2077419799
  0
LINE
  5
316
100
AcDbEntity
  8
0
100
AcDbLine
 62
4
  6
CONTINUOUS
 10
12.191619408
 20
8.257418171
 11
12.191619408
 21
8.2988149877
  0
LINE
  5
317
100
AcDbEntity
  8
0
100
AcDbLine
 62
4
  6
CONTINUOUS
 10
12.2288893189
 20
7.8201145379
 11
12.2288893189
 21
7.8615113546
  0
LINE
  5
318
100
AcDbEntity
  8
0
100
AcDbLine
 62
4
  6
CONTINUOUS
 10
12.2288893189
 20
8.0243388508
 11
12.2288893189
 21
8.0905737631
  0
LINE
  5
319
100
AcDbEntity
  8
0
100
AcDbLine
 62
4
  6
CONTINUOUS
 10
12.2288893189
 20
8.1236912331
 11
12.2288893189
 21
8.1733674242
  0
LINE
  5
31A
100
AcDbEntity
  8
0
100
AcDbLine
 62
4
  6
CONTINUOUS
 10
12.2288893189
 20
8.314116637
 11
12.2288893189
 21
8.3472340794
  0
LINE
  5
31B
100
AcDbEntity
  8
0
100
AcDbLine
 62
4
  6
CONTINUOUS
 10
12.2288893189
 20
8.4107091864
 11
12.2288893189
 21
8.4355472958
  0
LINE
  5
31C
100
AcDbEntity
  8
0
100
AcDbLine
 62
4
  6
CONTINUOUS
 10
12.2288893189
 20
8.4852234593
 11
12.2288893189
 21
8.5266202898
  0
LINE
  5
31D
100
AcDbEntity
  8
0
100
AcDbLine
 62
4
  6
CONTINUOUS
 10
12.2288893189
 20
8.5900954521
 11
12.2288893189
 21
8.6397716156
  0
LINE
  5
31E
100
AcDbEntity
  8
0
100
AcDbLine
 62
4
  6
CONTINUOUS
 10
12.2422000006
 20
8.6360700264
 11
12.2422000006
 21
8.6029525841
  0
LINE
  5
31F
100
AcDbEntity
  8
0
100
AcDbLine
 62
4
  6
CONTINUOUS
 10
12.2422000006
 20
8.169665835
 11
12.2422000006
 21
8.136548365
  0
LINE
  5
320
100
AcDbEntity
  8
0
100
AcDbLine
 62
4
  6
CONTINUOUS
 10
12.0911977033
 20
8.6364817473
 11
12.0897187387
 21
8.6019357348
  0
LINE
  5
321
100
AcDbEntity
  8
0
100
AcDbLine
 62
4
  6
CONTINUOUS
 10
12.1015504567
 20
8.2628712095
 11
12.0993320095
 21
8.2441696328
  0
LINE
  5
322
100
AcDbEntity
  8
0
100
AcDbLine
 62
4
  6
CONTINUOUS
 10
12.1015504567
 20
8.1055632755
 11
12.0993320095
 21
8.0868616988
  0
LINE
  5
323
100
AcDbEntity
  8
0
100
AcDbLine
 62
4
  6
CONTINUOUS
 10
12.240721036
 20
8.6843176197
 11
12.2466368954
 21
8.7341885096
  0
LINE
  5
324
100
AcDbEntity
  8
0
100
AcDbLine
 62
4
  6
CONTINUOUS
 10
12.092676668
 20
8.6461896505
 11
12.0911977033
 21
8.6364817473
  0
LINE
  5
325
100
AcDbEntity
  8
0
100
AcDbLine
 62
4
  6
CONTINUOUS
 10
12.0897187387
 20
8.6019357348
 11
12.0882397741
 21
8.5922278316
  0
LINE
  5
326
100
AcDbEntity
  8
0
100
AcDbLine
 62
4
  6
CONTINUOUS
 10
12.092676668
 20
7.619548496
 11
12.0793659854
 21
7.5487358115
  0
LINE
  5
327
100
AcDbEntity
  8
0
100
AcDbLine
 62
4
  6
CONTINUOUS
 10
12.0793659854
 20
8.6250531847
 11
12.0815844332
 21
8.6354753739
  0
LINE
  5
328
100
AcDbEntity
  8
0
100
AcDbLine
 62
4
  6
CONTINUOUS
 10
12.0993320095
 20
8.6029421089
 11
12.1015504567
 21
8.6133642974
  0
LINE
  5
329
100
AcDbEntity
  8
0
100
AcDbLine
 62
4
  6
CONTINUOUS
 10
12.1015504567
 20
8.5388499693
 11
12.0993320095
 21
8.5284277808
  0
LINE
  5
32A
100
AcDbEntity
  8
0
100
AcDbLine
 62
4
  6
CONTINUOUS
 10
12.1015504567
 20
8.4201791434
 11
12.0993320095
 21
8.4097568997
  0
LINE
  5
32B
100
AcDbEntity
  8
0
100
AcDbLine
 62
4
  6
CONTINUOUS
 10
12.0993320095
 20
8.3269632386
 11
12.1015504567
 21
8.3373854823
  0
LINE
  5
32C
100
AcDbEntity
  8
0
100
AcDbLine
 62
4
  6
CONTINUOUS
 10
12.0793659854
 20
7.9544246735
 11
12.0815844332
 21
7.9648468903
  0
LINE
  5
32D
100
AcDbEntity
  8
0
100
AcDbLine
 62
4
  6
CONTINUOUS
 10
12.1783087254
 20
8.2942372155
 11
12.1738718306
 21
8.2733927828
  0
LINE
  5
32E
100
AcDbEntity
  8
0
100
AcDbLine
 62
4
  6
CONTINUOUS
 10
12.2288893189
 20
8.5266202898
 11
12.2333262128
 21
8.5474647216
  0
LINE
  5
32F
100
AcDbEntity
  8
0
100
AcDbLine
 62
4
  6
CONTINUOUS
 10
12.2288893189
 20
8.4355472958
 11
12.2333262128
 21
8.4563917276
  0
LINE
  5
330
100
AcDbEntity
  8
0
100
AcDbLine
 62
4
  6
CONTINUOUS
 10
12.0704921976
 20
7.5898405779
 11
12.0727106454
 21
7.6002627981
  0
LINE
  5
331
100
AcDbEntity
  8
0
100
AcDbLine
 62
4
  6
CONTINUOUS
 10
12.1649980428
 20
8.278620305
 11
12.1605611489
 21
8.2605356508
  0
LINE
  5
332
100
AcDbEntity
  8
0
100
AcDbLine
 62
4
  6
CONTINUOUS
 10
12.0793659854
 20
8.1834871027
 11
12.0815844332
 21
8.1911495142
  0
LINE
  5
333
100
AcDbEntity
  8
0
100
AcDbLine
 62
4
  6
CONTINUOUS
 10
12.0838028792
 20
8.2788458074
 11
12.0793659854
 21
8.2662807638
  0
LINE
  5
334
100
AcDbEntity
  8
0
100
AcDbLine
 62
4
  6
CONTINUOUS
 10
12.1605611489
 20
8.0618309001
 11
12.191619408
 21
8.1497864281
  0
LINE
  5
335
100
AcDbEntity
  8
0
100
AcDbLine
 62
4
  6
CONTINUOUS
 10
11.8660253219
 20
7.8849629078
 11
11.8848847111
 21
7.9360003998
  0
LINE
  5
336
100
AcDbEntity
  8
0
100
AcDbLine
 62
4
  6
CONTINUOUS
 10
12.0793659854
 20
7.995821504
 11
12.1015504567
 21
8.0420881685
  0
LINE
  5
337
100
AcDbEntity
  8
0
100
AcDbLine
 62
4
  6
CONTINUOUS
 10
12.0704921976
 20
8.1086807415
 11
12.1015504567
 21
8.1386807178
  0
LINE
  5
338
100
AcDbEntity
  8
0
100
AcDbLine
 62
4
  6
CONTINUOUS
 10
12.1871825137
 20
8.2200150037
 11
12.1605611489
 21
8.1943007385
  0
LINE
  5
339
100
AcDbEntity
  8
0
100
AcDbLine
 62
4
  6
CONTINUOUS
 10
11.8660253219
 20
7.8849629078
 11
11.9087304281
 21
7.9262128753
  0
LINE
  5
33A
100
AcDbEntity
  8
0
100
AcDbLine
 62
4
  6
CONTINUOUS
 10
12.0993320095
 20
8.0868616988
 11
12.0815844332
 21
8.0697188555
  0
LINE
  5
33B
100
AcDbEntity
  8
0
100
AcDbLine
 62
4
  6
CONTINUOUS
 10
12.191619408
 20
8.1497864281
 11
12.1605611489
 21
8.1197864518
  0
LINE
  5
33C
100
AcDbEntity
  8
0
100
AcDbLine
 62
4
  6
CONTINUOUS
 10
12.191619408
 20
8.0918308764
 11
12.1605611489
 21
8.0618309001
  0
LINE
  5
33D
100
AcDbEntity
  8
0
100
AcDbLine
 62
4
  6
CONTINUOUS
 10
12.259947578
 20
8.1536912094
 11
12.2288893189
 21
8.1236912331
  0
LINE
  5
33E
100
AcDbEntity
  8
0
100
AcDbLine
 62
4
  6
CONTINUOUS
 10
12.0815844332
 20
7.9648468903
 11
12.1015504567
 21
7.9841325891
  0
LINE
  5
33F
100
AcDbEntity
  8
0
100
AcDbLine
 62
4
  6
CONTINUOUS
 10
12.259947578
 20
8.0874562971
 11
12.2288893189
 21
8.0574563208
  0
LINE
  5
340
100
AcDbEntity
  8
0
100
AcDbLine
 62
4
  6
CONTINUOUS
 10
12.1015504567
 20
7.934456398
 11
12.0704921976
 21
7.9044564216
  0
LINE
  5
341
100
AcDbEntity
  8
0
100
AcDbLine
 62
7
  6
CONTINUOUS
 10
11.8272024956
 20
9.6585739667
 11
9.4123877868
 21
9.8260419355
  0
LINE
  5
342
100
AcDbEntity
  8
0
100
AcDbLine
 62
7
  6
CONTINUOUS
 10
11.4092339811
 20
9.69184736
 11
9.8396044204
 21
9.8007015398
  0
LINE
  5
343
100
AcDbEntity
  8
0
100
AcDbLine
 62
4
  6
CONTINUOUS
 10
12.0815844332
 20
8.5112849375
 11
12.0793659854
 21
8.5174214142
  0
LINE
  5
344
100
AcDbEntity
  8
0
100
AcDbLine
 62
4
  6
CONTINUOUS
 10
12.191619408
 20
8.2077419799
 11
12.1871825137
 21
8.2200150037
  0
LINE
  5
345
100
AcDbEntity
  8
0
100
AcDbLine
 62
4
  6
CONTINUOUS
 10
12.0815844332
 20
8.5857992656
 11
12.0793659854
 21
8.5919357424
  0
LINE
  5
346
100
AcDbEntity
  8
0
100
AcDbLine
 62
4
  6
CONTINUOUS
 10
12.191619408
 20
8.2988149877
 11
12.1894009608
 21
8.3049514928
  0
LINE
  5
347
100
AcDbEntity
  8
0
100
AcDbLine
 62
4
  6
CONTINUOUS
 10
12.1015504567
 20
8.6464817397
 11
12.0993320095
 21
8.6526182171
  0
LINE
  5
348
100
AcDbEntity
  8
0
100
AcDbLine
 62
4
  6
CONTINUOUS
 10
12.2333262128
 20
8.3018436265
 11
12.2288893189
 21
8.314116637
  0
LINE
  5
349
100
AcDbEntity
  8
0
100
AcDbLine
 62
4
  6
CONTINUOUS
 10
12.2333262128
 20
8.3984361759
 11
12.2288893189
 21
8.4107091864
  0
LINE
  5
34A
100
AcDbEntity
  8
0
100
AcDbLine
 62
4
  6
CONTINUOUS
 10
12.2555106836
 20
8.4778202822
 11
12.259947578
 21
8.4655472721
  0
LINE
  5
34B
100
AcDbEntity
  8
0
100
AcDbLine
 62
4
  6
CONTINUOUS
 10
12.2555106836
 20
8.5688932762
 11
12.259947578
 21
8.5566202662
  0
LINE
  5
34C
100
AcDbEntity
  8
0
100
AcDbLine
 62
4
  6
CONTINUOUS
 10
12.1738718306
 20
8.2733927828
 11
12.1716533846
 21
8.2850488718
  0
LINE
  5
34D
100
AcDbEntity
  8
0
100
AcDbLine
 62
4
  6
CONTINUOUS
 10
12.0815844332
 20
8.0697188555
 11
12.0793659854
 21
8.0841347204
  0
LINE
  5
34E
100
AcDbEntity
  8
0
100
AcDbLine
 62
4
  6
CONTINUOUS
 10
12.092676668
 20
8.2377410661
 11
12.090458221
 21
8.2521569319
  0
LINE
  5
34F
100
AcDbEntity
  8
0
100
AcDbLine
 62
4
  6
CONTINUOUS
 10
12.240721036
 20
7.8094647921
 11
12.2466368954
 21
7.7710224622
  0
LINE
  5
350
100
AcDbEntity
  8
0
100
AcDbLine
 62
4
  6
CONTINUOUS
 10
12.2510737893
 20
7.9574541886
 11
12.2510737893
 21
8.0016107968
  0
LINE
  5
351
100
AcDbEntity
  8
0
100
AcDbLine
 62
4
  6
CONTINUOUS
 10
12.259947578
 20
8.5566202662
 11
12.259947578
 21
8.5152234356
  0
LINE
  5
352
100
AcDbEntity
  8
0
100
AcDbLine
 62
4
  6
CONTINUOUS
 10
12.259947578
 20
8.4655472721
 11
12.259947578
 21
8.4407091627
  0
LINE
  5
353
100
AcDbEntity
  8
0
100
AcDbLine
 62
4
  6
CONTINUOUS
 10
12.259947578
 20
8.3772340557
 11
12.259947578
 21
8.3441166134
  0
LINE
  5
354
100
AcDbEntity
  8
0
100
AcDbLine
 62
4
  6
CONTINUOUS
 10
12.259947578
 20
7.891511331
 11
12.259947578
 21
7.8501145143
  0
LINE
  5
355
100
AcDbEntity
  8
0
100
AcDbLine
 62
4
  6
CONTINUOUS
 10
12.259947578
 20
8.1536912094
 11
12.259947578
 21
8.2033674006
  0
LINE
  5
356
100
AcDbEntity
  8
0
100
AcDbLine
 62
4
  6
CONTINUOUS
 10
12.259947578
 20
8.6200954285
 11
12.259947578
 21
8.669771592
  0
LINE
  5
357
100
AcDbEntity
  8
0
100
AcDbLine
 62
7
  6
CONTINUOUS
 10
12.42652665
 20
11.1147181257
 11
12.42652665
 21
10.29947668
  0
LINE
  5
358
100
AcDbEntity
  8
0
100
AcDbLine
 62
7
  6
CONTINUOUS
 10
12.42652665
 20
5.8620131711
 11
12.42652665
 21
6.7359953522
  0
LINE
  5
359
100
AcDbEntity
  8
0
100
AcDbLine
 62
7
  6
CONTINUOUS
 10
12.4393044437
 20
6.7483377539
 11
12.4393044437
 21
5.8871333664
  0
LINE
  5
35A
100
AcDbEntity
  8
0
100
AcDbLine
 62
7
  6
CONTINUOUS
 10
12.4393044437
 20
10.3245968753
 11
12.4393044437
 21
11.139838321
  0
LINE
  5
35B
100
AcDbEntity
  8
0
100
AcDbLine
 62
4
  6
CONTINUOUS
 10
12.2466368954
 20
7.7710224622
 11
12.2525527544
 21
7.8208933552
  0
LINE
  5
35C
100
AcDbEntity
  8
0
100
AcDbLine
 62
4
  6
CONTINUOUS
 10
12.259947578
 20
8.4407091627
 11
12.2555106836
 21
8.4198647305
  0
LINE
  5
35D
100
AcDbEntity
  8
0
100
AcDbLine
 62
4
  6
CONTINUOUS
 10
12.0971135623
 20
7.6569516633
 11
12.1015504567
 21
7.6777961025
  0
LINE
  5
35E
100
AcDbEntity
  8
0
100
AcDbLine
 62
4
  6
CONTINUOUS
 10
12.259947578
 20
8.3441166134
 11
12.2555106836
 21
8.3232721811
  0
LINE
  5
35F
100
AcDbEntity
  8
0
100
AcDbLine
 62
4
  6
CONTINUOUS
 10
12.0993320095
 20
7.568021511
 11
12.1015504567
 21
7.5784437314
  0
LINE
  5
360
100
AcDbEntity
  8
0
100
AcDbLine
 62
4
  6
CONTINUOUS
 10
12.2288893189
 20
7.8615113546
 11
12.2333262128
 21
7.8823557934
  0
LINE
  5
361
100
AcDbEntity
  8
0
100
AcDbLine
 62
4
  6
CONTINUOUS
 10
12.0704921976
 20
7.7223104059
 11
12.1015504567
 21
7.810265934
  0
LINE
  5
362
100
AcDbEntity
  8
0
100
AcDbLine
 62
4
  6
CONTINUOUS
 10
12.2288893189
 20
7.9581039385
 11
12.259947578
 21
8.0212213848
  0
LINE
  5
363
100
AcDbEntity
  8
0
100
AcDbLine
 62
4
  6
CONTINUOUS
 10
12.1015504567
 20
7.810265934
 11
12.0704921976
 21
7.7802659576
  0
LINE
  5
364
100
AcDbEntity
  8
0
100
AcDbLine
 62
4
  6
CONTINUOUS
 10
12.2333262128
 20
7.8823557934
 11
12.2555106836
 21
7.903784348
  0
LINE
  5
365
100
AcDbEntity
  8
0
100
AcDbLine
 62
4
  6
CONTINUOUS
 10
12.1015504567
 20
7.7523103823
 11
12.0704921976
 21
7.7223104059
  0
LINE
  5
366
100
AcDbEntity
  8
0
100
AcDbLine
 62
4
  6
CONTINUOUS
 10
12.0971135623
 20
7.714907215
 11
12.0704921976
 21
7.6891929498
  0
LINE
  5
367
100
AcDbEntity
  8
0
100
AcDbLine
 62
4
  6
CONTINUOUS
 10
12.259947578
 20
7.8501145143
 11
12.2288893189
 21
7.8201145379
  0
LINE
  5
368
100
AcDbEntity
  8
0
100
AcDbLine
 62
4
  6
CONTINUOUS
 10
12.0704921976
 20
7.631237398
 11
12.0971135623
 21
7.6569516633
  0
LINE
  5
369
100
AcDbEntity
  8
0
100
AcDbLine
 62
4
  6
CONTINUOUS
 10
12.0971135623
 20
7.6238342071
 11
12.092676668
 21
7.619548496
  0
LINE
  5
36A
100
AcDbEntity
  8
0
100
AcDbLine
 62
4
  6
CONTINUOUS
 10
12.0793659854
 20
7.5487358115
 11
12.0749290915
 21
7.5444501008
  0
LINE
  5
36B
100
AcDbEntity
  8
0
100
AcDbLine
 62
4
  6
CONTINUOUS
 10
12.2466368954
 20
8.7341885096
 11
12.2525527544
 21
8.6957461828
  0
LINE
  5
36C
100
AcDbEntity
  8
0
100
AcDbLine
 62
7
  6
CONTINUOUS
 10
12.5876122132
 20
10.393073395
 11
12.5876122132
 21
6.8915920672
  0
LINE
  5
36D
100
AcDbEntity
  8
0
100
AcDbLine
 62
7
  6
CONTINUOUS
 10
12.4393044437
 20
10.4033585737
 11
12.5876122132
 21
10.393073395
  0
LINE
  5
36E
100
AcDbEntity
  8
0
100
AcDbLine
 62
7
  6
CONTINUOUS
 10
11.4092339811
 20
10.5070888057
 11
9.8396044204
 21
10.6159429855
  0
LINE
  5
36F
100
AcDbEntity
  8
0
100
AcDbLine
 62
7
  6
CONTINUOUS
 10
11.4172573649
 20
10.5447825022
 11
9.8476278042
 21
10.6536366819
  0
LINE
  5
370
100
AcDbEntity
  8
0
100
AcDbLine
 62
7
  6
CONTINUOUS
 10
10.5638249291
 20
11.080769597
 11
10.5180925574
 21
11.1033605129
  0
LINE
  5
371
100
AcDbEntity
  8
0
100
AcDbLine
 62
7
  6
CONTINUOUS
 10
11.8385695469
 20
10.6077388438
 11
11.8685132493
 21
10.5757185386
  0
LINE
  5
372
100
AcDbEntity
  8
0
100
AcDbLine
 62
7
  6
CONTINUOUS
 10
12.5876122132
 20
6.8915920672
 11
11.8272024956
 21
6.1570926389
  0
LINE
  5
373
100
AcDbEntity
  8
0
100
AcDbLine
 62
7
  6
CONTINUOUS
 10
11.8685132493
 20
5.323013584
 11
12.42652665
 21
5.8620131711
  0
LINE
  5
374
100
AcDbEntity
  8
0
100
AcDbLine
 62
7
  6
CONTINUOUS
 10
11.8675784592
 20
5.322127441
 11
11.8685132493
 21
5.323013584
  0
LINE
  5
375
100
AcDbEntity
  8
0
100
AcDbLine
 62
7
  6
CONTINUOUS
 10
11.8675784592
 20
5.322127441
 11
11.8377120328
 21
5.2943335959
  0
LINE
  5
376
100
AcDbEntity
  8
0
100
AcDbLine
 62
7
  6
CONTINUOUS
 10
11.6594029587
 20
11.2900364774
 11
12.1533381217
 21
11.2557819575
  0
LINE
  5
377
100
AcDbEntity
  8
0
100
AcDbLine
 62
7
  6
CONTINUOUS
 10
12.4255918599
 20
11.1658446593
 11
12.3957254335
 21
11.1936385044
  0
LINE
  5
378
100
AcDbEntity
  8
0
100
AcDbLine
 62
7
  6
CONTINUOUS
 10
12.3965829476
 20
11.1467384309
 11
12.42652665
 21
11.1147181257
  0
LINE
  5
379
100
AcDbEntity
  8
0
100
AcDbLine
 62
7
  6
CONTINUOUS
 10
11.5626589274
 20
11.678903325
 11
11.5319848528
 21
11.6940557305
  0
ARC
  5
37A
100
AcDbEntity
  8
0
100
AcDbCircle
 62
7
  6
CONTINUOUS
 10
11.0321090751
 20
13.2878605818
 40
2.252825792
100
AcDbArc
 50
266.0337727607
 51
266.7248824997
  0
ARC
  5
37B
100
AcDbEntity
  8
0
100
AcDbCircle
 62
7
  6
CONTINUOUS
 10
11.0321090751
 20
13.6722640231
 40
2.2528257919
100
AcDbArc
 50
266.0337727607
 51
266.7248824997
  0
ARC
  5
37C
100
AcDbEntity
  8
0
100
AcDbCircle
 62
7
  6
CONTINUOUS
 10
11.0278935013
 20
13.2271243749
 40
2.1919434639
100
AcDbArc
 50
265.3313245689
 51
266.0338890315
  0
ARC
  5
37D
100
AcDbEntity
  8
0
100
AcDbCircle
 62
7
  6
CONTINUOUS
 10
11.0269130433
 20
13.598540873
 40
2.1789198093
100
AcDbArc
 50
265.329224888
 51
266.0359887124
  0
ARC
  5
37E
100
AcDbEntity
  8
0
100
AcDbCircle
 62
7
  6
CONTINUOUS
 10
11.4635737331
 20
9.1285317341
 40
1.8732124897
100
AcDbArc
 50
239.1486497345
 51
239.3786572404
  0
ARC
  5
37F
100
AcDbEntity
  8
0
100
AcDbCircle
 62
7
  6
CONTINUOUS
 10
11.2493110708
 20
12.0061902265
 40
0.9538147475
100
AcDbArc
 50
283.286087793
 51
285.7355389587
  0
ARC
  5
380
100
AcDbEntity
  8
0
100
AcDbCircle
 62
7
  6
CONTINUOUS
 10
11.2493110708
 20
12.3905936678
 40
0.9538147475
100
AcDbArc
 50
283.286087793
 51
285.7355389587
  0
ARC
  5
381
100
AcDbEntity
  8
0
100
AcDbCircle
 62
7
  6
CONTINUOUS
 10
10.6659069266
 20
7.6098246651
 40
0.1985417475
100
AcDbArc
 50
80.0585241481
 51
86.0213428913
  0
ARC
  5
382
100
AcDbEntity
  8
0
100
AcDbCircle
 62
7
  6
CONTINUOUS
 10
11.2335917682
 20
7.968548956
 40
0.1954257232
100
AcDbArc
 50
96.6113115243
 51
111.5874690326
  0
ARC
  5
383
100
AcDbEntity
  8
0
100
AcDbCircle
 62
7
  6
CONTINUOUS
 10
11.2732932744
 20
7.925732525
 40
0.1954256879
100
AcDbArc
 50
276.6113229401
 51
291.5874868605
  0
ARC
  5
384
100
AcDbEntity
  8
0
100
AcDbCircle
 62
7
  6
CONTINUOUS
 10
10.5977708791
 20
7.7048338036
 40
0.1652728807
100
AcDbArc
 50
29.9940467144
 51
33.3896078561
  0
SPLINE
  5
385
100
AcDbEntity
  8
0
100
AcDbSpline
 62
7
  6
CONTINUOUS
 70
0
 71
3
 72
29
 73
25
 74
0
 42
0.0000001
 43
0.0000001
 44
0.0000000001
 40
0.0
 40
0.0
 40
0.0
 40
0.0
 40
0.070984318
 40
0.1429825523
 40
0.2155057028
 40
0.2880809331
 40
0.3602234383
 40
0.4314560192
 40
0.5013085085
 40
0.5693229079
 40
0.6350576048
 40
0.6980916372
 40
0.728471958
 40
0.7580314442
 40
0.7867250902
 40
0.8145108681
 40
0.8413490867
 40
0.8672023195
 40
0.8920371672
 40
0.9158224349
 40
0.9385315725
 40
0.9601419631
 40
0.9806353258
 40
1.0
 40
1.0
 40
1.0
 40
1.0
 10
11.1840201939
 20
11.7661400613
 30
0.0
 10
11.1688020654
 20
11.7671954421
 30
0.0
 10
11.1381224374
 20
11.7689616106
 30
0.0
 10
11.0918347344
 20
11.7705864153
 30
0.0
 10
11.0451804688
 20
11.7711989124
 30
0.0
 10
10.998493004
 20
11.7707952856
 30
0.0
 10
10.9521026984
 20
11.7693780404
 30
0.0
 10
10.9063396968
 20
11.7669575345
 30
0.0
 10
10.8615289317
 20
11.7635512259
 30
0.0
 10
10.8179884744
 20
11.7591838138
 30
0.0
 10
10.7760276326
 20
11.7538867616
 30
0.0
 10
10.7422212717
 20
11.7486681556
 30
0.0
 10
10.7162020329
 20
11.7440364266
 30
0.0
 10
10.6975042515
 20
11.7403984978
 30
0.0
 10
10.6794161679
 20
11.7365600426
 30
0.0
 10
10.6619698538
 20
11.7325280358
 30
0.0
 10
10.6451962422
 20
11.7283098407
 30
0.0
 10
10.6291251097
 20
11.7239125887
 30
0.0
 10
10.6137848392
 20
11.7193446972
 30
0.0
 10
10.5992025965
 20
11.7146138339
 30
0.0
 10
10.5854040937
 20
11.7097287024
 30
0.0
 10
10.5724134701
 20
11.7046980719
 30
0.0
 10
10.5602538915
 20
11.6995305431
 30
0.0
 10
10.5524943317
 20
11.6958971553
 30
0.0
 10
10.5487632354
 20
11.6940540381
 30
0.0
  0
SPLINE
  5
386
100
AcDbEntity
  8
0
100
AcDbSpline
 62
7
  6
CONTINUOUS
 70
0
 71
3
 72
9
 73
5
 74
0
 42
0.0000001
 43
0.0000001
 44
0.0000000001
 40
0.0
 40
0.0
 40
0.0
 40
0.0
 40
0.5197971894
 40
1.0
 40
1.0
 40
1.0
 40
1.0
 10
10.4357965743
 20
11.1495235682
 30
0.0
 10
10.4331022383
 20
11.1517321397
 30
0.0
 10
10.4280687687
 20
11.1561693624
 30
0.0
 10
10.4234399491
 20
11.1610329522
 30
0.0
 10
10.4213485262
 20
11.1634792873
 30
0.0
  0
SPLINE
  5
387
100
AcDbEntity
  8
0
100
AcDbSpline
 62
7
  6
CONTINUOUS
 70
0
 71
3
 72
9
 73
5
 74
0
 42
0.0000001
 43
0.0000001
 44
0.0000000001
 40
0.0
 40
0.0
 40
0.0
 40
0.0
 40
0.4802028106
 40
1.0
 40
1.0
 40
1.0
 40
1.0
 10
11.6594029587
 20
11.6187845507
 30
0.0
 10
11.6573115358
 20
11.6212308858
 30
0.0
 10
11.6526827161
 20
11.6260944755
 30
0.0
 10
11.6476492465
 20
11.6305316983
 30
0.0
 10
11.6449549105
 20
11.6327402697
 30
0.0
  0
SPLINE
  5
388
100
AcDbEntity
  8
0
100
AcDbSpline
 62
7
  6
CONTINUOUS
 70
0
 71
3
 72
9
 73
5
 74
0
 42
0.0000001
 43
0.0000001
 44
0.0000000001
 40
0.0
 40
0.0
 40
0.0
 40
0.0
 40
0.5043782952
 40
1.0
 40
1.0
 40
1.0
 40
1.0
 10
10.4357965743
 20
11.1495235682
 30
0.0
 10
10.4493003001
 20
11.141114735
 30
0.0
 10
10.4764130882
 20
11.124980117
 30
0.0
 10
10.5042858314
 20
11.1101829539
 30
0.0
 10
10.5182999424
 20
11.1032581249
 30
0.0
  0
SPLINE
  5
389
100
AcDbEntity
  8
0
100
AcDbSpline
 62
7
  6
CONTINUOUS
 70
0
 71
3
 72
9
 73
5
 74
0
 42
0.0000001
 43
0.0000001
 44
0.0000000001
 40
0.0
 40
0.0
 40
0.0
 40
0.0
 40
0.5043782952
 40
1.0
 40
1.0
 40
1.0
 40
1.0
 10
11.6449549105
 20
11.6327402697
 30
0.0
 10
11.6314511847
 20
11.6411491029
 30
0.0
 10
11.6043383967
 20
11.6572837209
 30
0.0
 10
11.5764656534
 20
11.672080884
 30
0.0
 10
11.5624515424
 20
11.679005713
 30
0.0
  0
SPLINE
  5
38A
100
AcDbEntity
  8
0
100
AcDbSpline
 62
7
  6
CONTINUOUS
 70
0
 71
3
 72
23
 73
19
 74
0
 42
0.0000001
 43
0.0000001
 44
0.0000000001
 40
0.0
 40
0.0
 40
0.0
 40
0.0
 40
0.0436202716
 40
0.0892267831
 40
0.1370684894
 40
0.1873535484
 40
0.2402536978
 40
0.2958870825
 40
0.3543309839
 40
0.4156093066
 40
0.4797101
 40
0.5465786547
 40
0.6161344819
 40
0.6882693018
 40
0.7628605839
 40
0.8397743489
 40
0.9188692317
 40
1.0
 40
1.0
 40
1.0
 40
1.0
 10
11.5509945606
 20
11.0975985754
 30
0.0
 10
11.5533044938
 20
11.0987391428
 30
0.0
 10
11.5579416129
 20
11.1012542372
 30
0.0
 10
11.5647688951
 20
11.1056152868
 30
0.0
 10
11.5716052769
 20
11.1106575715
 30
0.0
 10
11.5784468195
 20
11.1163885029
 30
0.0
 10
11.5852879106
 20
11.1228121536
 30
0.0
 10
11.592125444
 20
11.1299237267
 30
0.0
 10
11.5989536961
 20
11.1377145404
 30
0.0
 10
11.6057699332
 20
11.1461679454
 30
0.0
 10
11.6125690947
 20
11.1552638547
 30
0.0
 10
11.6193489379
 20
11.164976241
 30
0.0
 10
11.6261055979
 20
11.1752767943
 30
0.0
 10
11.632837478
 20
11.1861337542
 30
0.0
 10
11.6395421881
 20
11.1975146144
 30
0.0
 10
11.6462188304
 20
11.2093857042
 30
0.0
 10
11.652866316
 20
11.2217135512
 30
0.0
 10
11.6572254294
 20
11.2301129737
 30
0.0
 10
11.6594029587
 20
11.2343811093
 30
0.0
  0
SPLINE
  5
38B
100
AcDbEntity
  8
0
100
AcDbSpline
 62
7
  6
CONTINUOUS
 70
0
 71
3
 72
23
 73
19
 74
0
 42
0.0000001
 43
0.0000001
 44
0.0000000001
 40
0.0
 40
0.0
 40
0.0
 40
0.0
 40
0.0430692708
 40
0.0891859059
 40
0.1383039462
 40
0.1903539308
 40
0.2452509344
 40
0.3028923159
 40
0.36316428
 40
0.4259386958
 40
0.4910792536
 40
0.558438617
 40
0.6278623889
 40
0.6991843849
 40
0.7722354743
 40
0.8468474017
 40
0.9228412057
 40
1.0
 40
1.0
 40
1.0
 40
1.0
 10
11.5319887711
 20
11.6940537804
 30
0.0
 10
11.5273910376
 20
11.6963250172
 30
0.0
 10
11.5177483931
 20
11.7007838986
 30
0.0
 10
11.5025146207
 20
11.7070482634
 30
0.0
 10
11.4860518856
 20
11.7131019975
 30
0.0
 10
11.4684038839
 20
11.718929446
 30
0.0
 10
11.4496167618
 20
11.7245143689
 30
0.0
 10
11.4297402217
 20
11.7298424534
 30
0.0
 10
11.4088268332
 20
11.7348986949
 30
0.0
 10
11.3869321159
 20
11.7396701771
 30
0.0
 10
11.364114152
 20
11.744143424
 30
0.0
 10
11.3404335287
 20
11.7483070273
 30
0.0
 10
11.3159534517
 20
11.7521491288
 30
0.0
 10
11.2907393777
 20
11.7556600798
 30
0.0
 10
11.2648577752
 20
11.7588299364
 30
0.0
 10
11.2383763821
 20
11.7616506767
 30
0.0
 10
11.211368305
 20
11.7641139597
 30
0.0
 10
11.1931852408
 20
11.7655044631
 30
0.0
 10
11.1840201939
 20
11.7661400613
 30
0.0
  0
SPLINE
  5
38C
100
AcDbEntity
  8
0
100
AcDbSpline
 62
7
  6
CONTINUOUS
 70
0
 71
3
 72
23
 73
19
 74
0
 42
0.0000001
 43
0.0000001
 44
0.0000000001
 40
0.0
 40
0.0
 40
0.0
 40
0.0
 40
0.0436202716
 40
0.0892267831
 40
0.1370684894
 40
0.1873535484
 40
0.2402536978
 40
0.2958870825
 40
0.3543309839
 40
0.4156093066
 40
0.4797101
 40
0.5465786547
 40
0.6161344819
 40
0.6882693018
 40
0.7628605839
 40
0.8397743489
 40
0.9188692317
 40
1.0
 40
1.0
 40
1.0
 40
1.0
 10
10.5297569242
 20
11.6846652626
 30
0.0
 10
10.527446991
 20
11.6835246952
 30
0.0
 10
10.522809872
 20
11.6810096007
 30
0.0
 10
10.5159825897
 20
11.6766485511
 30
0.0
 10
10.5091462079
 20
11.6716062664
 30
0.0
 10
10.5023046653
 20
11.6658753351
 30
0.0
 10
10.4954635742
 20
11.6594516844
 30
0.0
 10
10.4886260408
 20
11.6523401112
 30
0.0
 10
10.4817977887
 20
11.6445492976
 30
0.0
 10
10.4749815516
 20
11.6360958925
 30
0.0
 10
10.4681823901
 20
11.6269999832
 30
0.0
 10
10.4614025469
 20
11.6172875969
 30
0.0
 10
10.4546458869
 20
11.6069870437
 30
0.0
 10
10.4479140068
 20
11.5961300837
 30
0.0
 10
10.4412092968
 20
11.5847492235
 30
0.0
 10
10.4345326544
 20
11.5728781337
 30
0.0
 10
10.4278851688
 20
11.5605502868
 30
0.0
 10
10.4235260554
 20
11.5521508643
 30
0.0
 10
10.4213485262
 20
11.5478827286
 30
0.0
  0
SPLINE
  5
38D
100
AcDbEntity
  8
0
100
AcDbSpline
 62
7
  6
CONTINUOUS
 70
0
 71
3
 72
56
 73
52
 74
0
 42
0.0000001
 43
0.0000001
 44
0.0000000001
 40
0.0
 40
0.0
 40
0.0
 40
0.0
 40
0.0460140365
 40
0.0926138763
 40
0.1395821546
 40
0.1867221822
 40
0.2338288136
 40
0.280695969
 40
0.3271205498
 40
0.3729016883
 40
0.4178419215
 40
0.4617486806
 40
0.5044357275
 40
0.5457237503
 40
0.5854421779
 40
0.623430808
 40
0.6595404895
 40
0.6936358272
 40
0.7098908177
 40
0.7255987191
 40
0.7407472814
 40
0.7553261698
 40
0.7693260262
 40
0.7827391099
 40
0.795560201
 40
0.8077857039
 40
0.8194143239
 40
0.8304482927
 40
0.8408926824
 40
0.8507562508
 40
0.8600531092
 40
0.8688025169
 40
0.8770301158
 40
0.8847700999
 40
0.8920656216
 40
0.8989701892
 40
0.9055493464
 40
0.9118801083
 40
0.9180498998
 40
0.9241540552
 40
0.93029114
 40
0.9365581198
 40
0.9430454648
 40
0.9498338051
 40
0.9533640988
 40
0.9569946791
 40
0.964581397
 40
0.9726423977
 40
0.9812148065
 40
0.9903269582
 40
1.0
 40
1.0
 40
1.0
 40
1.0
 10
10.8967312909
 20
11.4886402739
 30
0.0
 10
10.9090291783
 20
11.4877874125
 30
0.0
 10
10.9337983837
 20
11.4863057987
 30
0.0
 10
10.9711629905
 20
11.4847547506
 30
0.0
 10
11.0088510542
 20
11.483866054
 30
0.0
 10
11.0466846512
 20
11.4836436913
 30
0.0
 10
11.0844892088
 20
11.4840884569
 30
0.0
 10
11.122088357
 20
11.4851984891
 30
0.0
 10
11.1593067664
 20
11.4869686199
 30
0.0
 10
11.1959712127
 20
11.489390266
 30
0.0
 10
11.2319109334
 20
11.4924521876
 30
0.0
 10
11.2669585957
 20
11.4961400363
 30
0.0
 10
11.3009511034
 20
11.5004361646
 30
0.0
 10
11.3337303174
 20
11.5053205143
 30
0.0
 10
11.3651438518
 20
11.5107700494
 30
0.0
 10
11.3950459969
 20
11.5167587437
 30
0.0
 10
11.4232977518
 20
11.5232586415
 30
0.0
 10
11.4457001329
 20
11.5291655995
 30
0.0
 10
11.4626839685
 20
11.5341434156
 30
0.0
 10
11.4747262789
 20
11.5379255781
 30
0.0
 10
11.4862626048
 20
11.5418117987
 30
0.0
 10
11.4972797155
 20
11.5457972785
 30
0.0
 10
11.5077648306
 20
11.5498774635
 30
0.0
 10
11.5177057502
 20
11.5540478491
 30
0.0
 10
11.5270911838
 20
11.5583032575
 30
0.0
 10
11.5359103465
 20
11.562638851
 30
0.0
 10
11.544153002
 20
11.5670499674
 30
0.0
 10
11.551809985
 20
11.5715312362
 30
0.0
 10
11.5588726572
 20
11.5760776847
 30
0.0
 10
11.5653328271
 20
11.5806847132
 30
0.0
 10
11.5711835328
 20
11.5853470453
 30
0.0
 10
11.5764182767
 20
11.5900599269
 30
0.0
 10
11.581030665
 20
11.5948192124
 30
0.0
 10
11.5850155053
 20
11.5996201665
 30
0.0
 10
11.5883676394
 20
11.6044585898
 30
0.0
 10
11.591081135
 20
11.6093306399
 30
0.0
 10
11.593151003
 20
11.6142312808
 30
0.0
 10
11.5945720189
 20
11.6191547956
 30
0.0
 10
11.5953385251
 20
11.6240940029
 30
0.0
 10
11.5954479798
 20
11.6290396877
 30
0.0
 10
11.5949001638
 20
11.6339821191
 30
0.0
 10
11.5936965246
 20
11.6389118088
 30
0.0
 10
11.5918421768
 20
11.6438205921
 30
0.0
 10
11.5897860698
 20
11.6478363389
 30
0.0
 10
11.5878378293
 20
11.6510267446
 30
0.0
 10
11.5856186441
 20
11.6542972565
 30
0.0
 10
11.5824274167
 20
11.6583669897
 30
0.0
 10
11.5780236124
 20
11.6631404639
 30
0.0
 10
11.5729953705
 20
11.6678693623
 30
0.0
 10
11.5673491896
 20
11.672548913
 30
0.0
 10
11.5633000502
 20
11.675542098
 30
0.0
 10
11.5611798266
 20
11.6770321768
 30
0.0
  0
SPLINE
  5
38E
100
AcDbEntity
  8
0
100
AcDbSpline
 62
7
  6
CONTINUOUS
 70
0
 71
3
 72
11
 73
7
 74
0
 42
0.0000001
 43
0.0000001
 44
0.0000000001
 40
0.0
 40
0.0
 40
0.0
 40
0.0
 40
0.2310152257
 40
0.4746103058
 40
0.7309143418
 40
1.0
 40
1.0
 40
1.0
 40
1.0
 10
11.5611798266
 20
11.6770321768
 30
0.0
 10
11.5590489604
 20
11.6785297351
 30
0.0
 10
11.5545965226
 20
11.6815011314
 30
0.0
 10
11.5475541428
 20
11.6857838788
 30
0.0
 10
11.5399797236
 20
11.6900054236
 30
0.0
 10
11.5347086822
 20
11.6927101701
 30
0.0
 10
11.5319887711
 20
11.6940537804
 30
0.0
  0
SPLINE
  5
38F
100
AcDbEntity
  8
0
100
AcDbSpline
 62
7
  6
CONTINUOUS
 70
0
 71
3
 72
29
 73
25
 74
0
 42
0.0000001
 43
0.0000001
 44
0.0000000001
 40
0.0
 40
0.0
 40
0.0
 40
0.0
 40
0.0709839827
 40
0.1429818596
 40
0.2155046776
 40
0.2880795928
 40
0.3602217728
 40
0.4314540888
 40
0.5013064077
 40
0.5693206708
 40
0.6350552793
 40
0.698089349
 40
0.7284697338
 40
0.7580293054
 40
0.7867230494
 40
0.8145089399
 40
0.8413472991
 40
0.8672007086
 40
0.8920357659
 40
0.9158212707
 40
0.9385306691
 40
0.9601413418
 40
0.9806350048
 40
1.0
 40
1.0
 40
1.0
 40
1.0
 10
10.9011312111
 20
11.0108932547
 30
0.0
 10
10.9158830255
 20
11.0098702129
 30
0.0
 10
10.9456225642
 20
11.0081581597
 30
0.0
 10
10.9904919167
 20
11.0065831241
 30
0.0
 10
11.0357166057
 20
11.0059893673
 30
0.0
 10
11.0809734843
 20
11.0063805851
 30
0.0
 10
11.125942323
 20
11.0077543527
 30
0.0
 10
11.170303109
 20
11.0101006272
 30
0.0
 10
11.2137408743
 20
11.0134024902
 30
0.0
 10
11.2559472911
 20
11.0176359955
 30
0.0
 10
11.2966225349
 20
11.0227706494
 30
0.0
 10
11.3293931744
 20
11.0278292663
 30
0.0
 10
11.3546153054
 20
11.0323190046
 30
0.0
 10
11.3727402999
 20
11.0358454119
 30
0.0
 10
11.3902742885
 20
11.0395661987
 30
0.0
 10
11.4071861835
 20
11.0434746058
 30
0.0
 10
11.4234460047
 20
11.047563496
 30
0.0
 10
11.439024892
 20
11.0518259571
 30
0.0
 10
11.4538953323
 20
11.0562538301
 30
0.0
 10
11.4680309898
 20
11.0608396826
 30
0.0
 10
11.4814069385
 20
11.0655750774
 30
0.0
 10
11.4939997779
 20
11.0704515127
 30
0.0
 10
11.5057870521
 20
11.0754606522
 30
0.0
 10
11.5133090451
 20
11.0789826721
 30
0.0
 10
11.5169259173
 20
11.0807692956
 30
0.0
  0
SPLINE
  5
390
100
AcDbEntity
  8
0
100
AcDbSpline
 62
7
  6
CONTINUOUS
 70
0
 71
3
 72
23
 73
19
 74
0
 42
0.0000001
 43
0.0000001
 44
0.0000000001
 40
0.0
 40
0.0
 40
0.0
 40
0.0
 40
0.0771582859
 40
0.1531516138
 40
0.2277631003
 40
0.3008138096
 40
0.3721355099
 40
0.4415590541
 40
0.5089182344
 40
0.5740586726
 40
0.6368330664
 40
0.6971051206
 40
0.7547467082
 40
0.809644014
 40
0.8616943682
 40
0.9108128577
 40
0.9569300549
 40
1.0
 40
1.0
 40
1.0
 40
1.0
 10
10.9011312111
 20
11.0108932547
 30
0.0
 10
10.8922470731
 20
11.0115093718
 30
0.0
 10
10.8746213175
 20
11.012857254
 30
0.0
 10
10.8484410293
 20
11.0152450264
 30
0.0
 10
10.8227712695
 20
11.0179792929
 30
0.0
 10
10.7976828982
 20
11.0210519696
 30
0.0
 10
10.7732415737
 20
11.024455281
 30
0.0
 10
10.7495117289
 20
11.028179587
 30
0.0
 10
10.7265568166
 20
11.0322155346
 30
0.0
 10
10.7044381021
 20
11.0365516308
 30
0.0
 10
10.6832143075
 20
11.0411768168
 30
0.0
 10
10.6629417287
 20
11.0460780325
 30
0.0
 10
10.6436741838
 20
11.0512427586
 30
0.0
 10
10.6254626352
 20
11.0566564482
 30
0.0
 10
10.608355265
 20
11.0623052263
 30
0.0
 10
10.5923968027
 20
11.0681733541
 30
0.0
 10
10.577629598
 20
11.0742456568
 30
0.0
 10
10.5682822481
 20
11.078567827
 30
0.0
 10
10.5638253007
 20
11.0807694274
 30
0.0
  0
SPLINE
  5
391
100
AcDbEntity
  8
0
100
AcDbSpline
 62
7
  6
CONTINUOUS
 70
0
 71
3
 72
9
 73
5
 74
0
 42
0.0000001
 43
0.0000001
 44
0.0000000001
 40
0.0
 40
0.0
 40
0.0
 40
0.0
 40
0.4802028106
 40
1.0
 40
1.0
 40
1.0
 40
1.0
 10
10.4213485262
 20
11.5478827286
 30
0.0
 10
10.4234399491
 20
11.5454363935
 30
0.0
 10
10.4280687687
 20
11.5405728037
 30
0.0
 10
10.4331022383
 20
11.536135581
 30
0.0
 10
10.4357965743
 20
11.5339270096
 30
0.0
  0
SPLINE
  5
392
100
AcDbEntity
  8
0
100
AcDbSpline
 62
7
  6
CONTINUOUS
 70
0
 71
3
 72
23
 73
19
 74
0
 42
0.0000001
 43
0.0000001
 44
0.0000000001
 40
0.0
 40
0.0
 40
0.0
 40
0.0
 40
0.0584073816
 40
0.1170342823
 40
0.175946792
 40
0.235225456
 40
0.2949566682
 40
0.3552310086
 40
0.416138202
 40
0.4777588108
 40
0.540158822
 40
0.6033849084
 40
0.6674605222
 40
0.7323867869
 40
0.7981446078
 40
0.8646981496
 40
0.9320021535
 40
1.0
 40
1.0
 40
1.0
 40
1.0
 10
10.4357965743
 20
11.5339270096
 30
0.0
 10
10.4442436071
 20
11.534814516
 30
0.0
 10
10.4612020597
 20
11.5362993328
 30
0.0
 10
10.4867631134
 20
11.5375644706
 30
0.0
 10
10.5124826608
 20
11.5377820953
 30
0.0
 10
10.5383484493
 20
11.5368644191
 30
0.0
 10
10.5643421504
 20
11.5347313955
 30
0.0
 10
10.5904382134
 20
11.5313160054
 30
0.0
 10
10.6166046342
 20
11.5265676363
 30
0.0
 10
10.6428048482
 20
11.5204592441
 30
0.0
 10
10.6690003426
 20
11.5129896501
 30
0.0
 10
10.695152829
 20
11.5041815931
 30
0.0
 10
10.7212274457
 20
11.4940819702
 30
0.0
 10
10.7471949835
 20
11.48275785
 30
0.0
 10
10.7730320791
 20
11.4702889755
 30
0.0
 10
10.7987225304
 20
11.456763924
 30
0.0
 10
10.8242560915
 20
11.44227546
 30
0.0
 10
10.8410895
 20
11.4320839978
 30
0.0
 10
10.8494832924
 20
11.4268571439
 30
0.0
  0
SPLINE
  5
393
100
AcDbEntity
  8
0
100
AcDbSpline
 62
7
  6
CONTINUOUS
 70
0
 71
3
 72
21
 73
17
 74
0
 42
0.0000001
 43
0.0000001
 44
0.0000000001
 40
0.0
 40
0.0
 40
0.0
 40
0.0
 40
0.1269266306
 40
0.1902356571
 40
0.2534226618
 40
0.3164750211
 40
0.379381614
 40
0.442133702
 40
0.5047247465
 40
0.5671521045
 40
0.6294167402
 40
0.6915228504
 40
0.7534784743
 40
0.8152934295
 40
0.8769787052
 40
1.0
 40
1.0
 40
1.0
 40
1.0
 10
10.903404101
 20
11.4231177232
 30
0.0
 10
10.926411684
 20
11.4308421383
 30
0.0
 10
10.9611720895
 20
11.4416299366
 30
0.0
 10
11.0080160102
 20
11.4540494941
 30
0.0
 10
11.0433201968
 20
11.4622751878
 30
0.0
 10
11.0787983321
 20
11.4693329059
 30
0.0
 10
11.1144179412
 20
11.4751471518
 30
0.0
 10
11.1501378769
 20
11.4796561065
 30
0.0
 10
11.1859103989
 20
11.4828193965
 30
0.0
 10
11.2216840164
 20
11.4846213994
 30
0.0
 10
11.2574072237
 20
11.4850702986
 30
0.0
 10
11.2930319405
 20
11.4841995664
 30
0.0
 10
11.3285163791
 20
11.4820651628
 30
0.0
 10
11.3638276835
 20
11.4787379529
 30
0.0
 10
11.4105988929
 20
11.4728278109
 30
0.0
 10
11.4454313303
 20
11.4668554085
 30
0.0
 10
11.4685105086
 20
11.462308055
 30
0.0
  0
SPLINE
  5
394
100
AcDbEntity
  8
0
100
AcDbSpline
 62
7
  6
CONTINUOUS
 70
0
 71
3
 72
21
 73
17
 74
0
 42
0.0000001
 43
0.0000001
 44
0.0000000001
 40
0.0
 40
0.0
 40
0.0
 40
0.0
 40
0.1230212948
 40
0.1847065705
 40
0.2465215258
 40
0.3084771496
 40
0.3705832599
 40
0.4328478955
 40
0.4952752535
 40
0.5578662981
 40
0.6206183861
 40
0.683524979
 40
0.7465773382
 40
0.8097643429
 40
0.8730733694
 40
1.0
 40
1.0
 40
1.0
 40
1.0
 10
10.903404101
 20
11.0387142818
 30
0.0
 10
10.9264832794
 20
11.0341669283
 30
0.0
 10
10.9613157168
 20
11.028194526
 30
0.0
 10
11.0080869262
 20
11.0222843839
 30
0.0
 10
11.0433982306
 20
11.018957174
 30
0.0
 10
11.0788826692
 20
11.0168227704
 30
0.0
 10
11.1145073861
 20
11.0159520382
 30
0.0
 10
11.1502305933
 20
11.0164009375
 30
0.0
 10
11.1860042108
 20
11.0182029403
 30
0.0
 10
11.2217767328
 20
11.0213662303
 30
0.0
 10
11.2574966685
 20
11.025875185
 30
0.0
 10
11.2931162776
 20
11.0316894309
 30
0.0
 10
11.3285944129
 20
11.038747149
 30
0.0
 10
11.3638985995
 20
11.0469728428
 30
0.0
 10
11.4107425202
 20
11.0593924002
 30
0.0
 10
11.4455029257
 20
11.0701801985
 30
0.0
 10
11.4685105086
 20
11.0779046136
 30
0.0
  0
SPLINE
  5
395
100
AcDbEntity
  8
0
100
AcDbSpline
 62
7
  6
CONTINUOUS
 70
0
 71
3
 72
24
 73
20
 74
0
 42
0.0000001
 43
0.0000001
 44
0.0000000001
 40
0.0
 40
0.0
 40
0.0
 40
0.0
 40
0.0904093868
 40
0.1775325331
 40
0.2610553835
 40
0.3406844661
 40
0.41616279
 40
0.4872998029
 40
0.521207684
 40
0.5540039824
 40
0.6162843266
 40
0.6743126111
 40
0.7283969377
 40
0.7789824074
 40
0.826623815
 40
0.8719379797
 40
0.9155549124
 40
0.9580698186
 40
1.0
 40
1.0
 40
1.0
 40
1.0
 10
11.5079832691
 20
11.4725243532
 30
0.0
 10
11.5110187975
 20
11.4784742374
 30
0.0
 10
11.5170927694
 20
11.4901005609
 30
0.0
 10
11.5264182535
 20
11.5069853323
 30
0.0
 10
11.5357985187
 20
11.5229229325
 30
0.0
 10
11.545230532
 20
11.5378222202
 30
0.0
 10
11.5547093955
 20
11.5515952724
 30
0.0
 10
11.5627652372
 20
11.5622322787
 30
0.0
 10
11.5692421321
 20
11.5700926966
 30
0.0
 10
11.5755146873
 20
11.5772680085
 30
0.0
 10
11.5833538766
 20
11.5854353214
 30
0.0
 10
11.5929403863
 20
11.5940630327
 30
0.0
 10
11.6025290889
 20
11.6013379412
 30
0.0
 10
11.6121078985
 20
11.6072778082
 30
0.0
 10
11.6216634581
 20
11.6119228927
 30
0.0
 10
11.6311820463
 20
11.6153313819
 30
0.0
 10
11.6406505201
 20
11.6175776002
 30
0.0
 10
11.6500566109
 20
11.6187478834
 30
0.0
 10
11.656306371
 20
11.6188719676
 30
0.0
 10
11.6594029587
 20
11.6187845507
 30
0.0
  0
SPLINE
  5
396
100
AcDbEntity
  8
0
100
AcDbSpline
 62
7
  6
CONTINUOUS
 70
0
 71
3
 72
15
 73
11
 74
0
 42
0.0000001
 43
0.0000001
 44
0.0000000001
 40
0.0
 40
0.0
 40
0.0
 40
0.0
 40
0.1193884442
 40
0.2394118209
 40
0.3604965246
 40
0.4831212753
 40
0.6078106285
 40
0.735130254
 40
0.8656619472
 40
1.0
 40
1.0
 40
1.0
 40
1.0
 10
11.5079832691
 20
11.0881209119
 30
0.0
 10
11.5097530248
 20
11.0880709515
 30
0.0
 10
11.5133055517
 20
11.08806812
 30
0.0
 10
11.518645844
 20
11.0883713516
 30
0.0
 10
11.5240065376
 20
11.0889988952
 30
0.0
 10
11.5293867058
 20
11.0899674688
 30
0.0
 10
11.5347855256
 20
11.091293484
 30
0.0
 10
11.5402016953
 20
11.0929934067
 30
0.0
 10
11.545633655
 20
11.0950817101
 30
0.0
 10
11.5492082916
 20
11.0967165758
 30
0.0
 10
11.5509945606
 20
11.0975985754
 30
0.0
  0
SPLINE
  5
397
100
AcDbEntity
  8
0
100
AcDbSpline
 62
7
  6
CONTINUOUS
 70
0
 71
3
 72
21
 73
17
 74
0
 42
0.0000001
 43
0.0000001
 44
0.0000000001
 40
0.0
 40
0.0
 40
0.0
 40
0.0
 40
0.1331620508
 40
0.198721389
 40
0.2635863969
 40
0.3277657689
 40
0.3912790145
 40
0.4541586317
 40
0.5164459921
 40
0.5781920281
 40
0.6394524084
 40
0.7002861096
 40
0.7607522371
 40
0.8209070106
 40
0.8808048208
 40
1.0
 40
1.0
 40
1.0
 40
1.0
 10
10.5182999424
 20
11.1032581249
 30
0.0
 10
10.5318949278
 20
11.0965403996
 30
0.0
 10
10.5524754578
 20
11.0870845113
 30
0.0
 10
10.5803415194
 20
11.0759157722
 30
0.0
 10
10.6011910063
 20
11.0683906681
 30
0.0
 10
10.6220791331
 20
11.0617017415
 30
0.0
 10
10.6429886975
 20
11.0558712525
 30
0.0
 10
10.6638994033
 20
11.0509068372
 30
0.0
 10
10.684792458
 20
11.0468110533
 30
0.0
 10
10.7056485385
 20
11.0435711869
 30
0.0
 10
10.7264507586
 20
11.0411688504
 30
0.0
 10
10.7471839776
 20
11.0395746577
 30
0.0
 10
10.7678357216
 20
11.0387537921
 30
0.0
 10
10.7883968709
 20
11.0386660267
 30
0.0
 10
10.815633714
 20
11.0394667803
 30
0.0
 10
10.835983959
 20
11.0410353648
 30
0.0
 10
10.8494832924
 20
11.0424537026
 30
0.0
  0
SPLINE
  5
398
100
AcDbEntity
  8
0
100
AcDbSpline
 62
7
  6
CONTINUOUS
 70
0
 71
3
 72
9
 73
5
 74
0
 42
0.0000001
 43
0.0000001
 44
0.0000000001
 40
0.0
 40
0.0
 40
0.0
 40
0.0
 40
0.5151645244
 40
1.0
 40
1.0
 40
1.0
 40
1.0
 10
10.5487632354
 20
11.6940540381
 30
0.0
 10
10.5454260887
 20
11.6924055274
 30
0.0
 10
10.5390073436
 20
11.6890839469
 30
0.0
 10
10.532737674
 20
11.6854872139
 30
0.0
 10
10.5297442298
 20
11.6836678215
 30
0.0
  0
SPLINE
  5
399
100
AcDbEntity
  8
0
100
AcDbSpline
 62
7
  6
CONTINUOUS
 70
0
 71
3
 72
55
 73
51
 74
0
 42
0.0000001
 43
0.0000001
 44
0.0000000001
 40
0.0
 40
0.0
 40
0.0
 40
0.0
 40
0.0126039668
 40
0.0246626451
 40
0.0361845815
 40
0.0471813629
 40
0.0576675083
 40
0.0676611077
 40
0.0771851246
 40
0.0862675479
 40
0.0949416347
 40
0.1032466857
 40
0.1112290233
 40
0.118941678
 40
0.1264439865
 40
0.1338010228
 40
0.1410823646
 40
0.1483598643
 40
0.1557054861
 40
0.1631891608
 40
0.1708765213
 40
0.1788275498
 40
0.1870959619
 40
0.195728829
 40
0.2047661593
 40
0.2142418107
 40
0.2241843014
 40
0.2346171506
 40
0.2455588974
 40
0.2570244016
 40
0.2690255426
 40
0.281571226
 40
0.294667253
 40
0.3083174627
 40
0.337285222
 40
0.3684733057
 40
0.4018562187
 40
0.4373894698
 40
0.4750146658
 40
0.514659581
 40
0.5562421653
 40
0.5996694007
 40
0.6448409651
 40
0.6916481552
 40
0.7399765684
 40
0.7897029257
 40
0.8407002665
 40
0.8928422091
 40
0.9459958947
 40
1.0
 40
1.0
 40
1.0
 40
1.0
 10
10.5297442298
 20
11.6836678215
 30
0.0
 10
10.5278472709
 20
11.6825148644
 30
0.0
 10
10.5241713017
 20
11.6801989565
 30
0.0
 10
10.5189033271
 20
11.6766098962
 30
0.0
 10
10.5140074015
 20
11.6729852977
 30
0.0
 10
10.5094868498
 20
11.6693277578
 30
0.0
 10
10.505344819
 20
11.6656396692
 30
0.0
 10
10.5015844822
 20
11.661923198
 30
0.0
 10
10.4982084504
 20
11.6581807776
 30
0.0
 10
10.4952190528
 20
11.654414795
 30
0.0
 10
10.4926186883
 20
11.650627493
 30
0.0
 10
10.4904099904
 20
11.6468209766
 30
0.0
 10
10.488594973
 20
11.6429977817
 30
0.0
 10
10.4871755384
 20
11.6391605567
 30
0.0
 10
10.4861537085
 20
11.635312165
 30
0.0
 10
10.4855315723
 20
11.6314558562
 30
0.0
 10
10.4853099164
 20
11.6275954332
 30
0.0
 10
10.4854889739
 20
11.6237348025
 30
0.0
 10
10.486068544
 20
11.6198778713
 30
0.0
 10
10.487047966
 20
11.6160284743
 30
0.0
 10
10.4884252236
 20
11.612189922
 30
0.0
 10
10.4901982759
 20
11.6083651107
 30
0.0
 10
10.4923651975
 20
11.6045566931
 30
0.0
 10
10.4949240449
 20
11.6007672475
 30
0.0
 10
10.4978721955
 20
11.596998892
 30
0.0
 10
10.5012072321
 20
11.5932538579
 30
0.0
 10
10.5049268191
 20
11.5895345021
 30
0.0
 10
10.5090284177
 20
11.5858432963
 30
0.0
 10
10.5135088774
 20
11.5821823926
 30
0.0
 10
10.5183650348
 20
11.5785541826
 30
0.0
 10
10.523593654
 20
11.5749611883
 30
0.0
 10
10.5291911644
 20
11.571405976
 30
0.0
 10
10.5351534752
 20
11.5678907343
 30
0.0
 10
10.5437553803
 20
11.5631665034
 30
0.0
 10
10.5554126457
 20
11.5573999365
 30
0.0
 10
10.5705165839
 20
11.5508085963
 30
0.0
 10
10.5869595479
 20
11.5444343217
 30
0.0
 10
10.6046950401
 20
11.5382947318
 30
0.0
 10
10.6236734818
 20
11.5324079594
 30
0.0
 10
10.6438411598
 20
11.5267903805
 30
0.0
 10
10.6651409744
 20
11.5214587676
 30
0.0
 10
10.6875123375
 20
11.5164279151
 30
0.0
 10
10.7108916344
 20
11.5117129084
 30
0.0
 10
10.735212327
 20
11.5073267778
 30
0.0
 10
10.7604049155
 20
11.5032828139
 30
0.0
 10
10.7863971479
 20
11.4995920418
 30
0.0
 10
10.813115379
 20
11.4962655649
 30
0.0
 10
10.8404846071
 20
11.4933124916
 30
0.0
 10
10.8684241374
 20
11.4907421279
 30
0.0
 10
10.8872426812
 20
11.4892983112
 30
0.0
 10
10.8967312909
 20
11.4886402739
 30
0.0
  0
SPLINE
  5
39A
100
AcDbEntity
  8
0
100
AcDbSpline
 62
7
  6
CONTINUOUS
 70
0
 71
3
 72
59
 73
55
 74
0
 42
0.0000001
 43
0.0000001
 44
0.0000000001
 40
0.0
 40
0.0
 40
0.0
 40
0.0
 40
0.0074596563
 40
0.015454112
 40
0.0240027273
 40
0.033119185
 40
0.0428112374
 40
0.05308213
 40
0.0639314299
 40
0.0753554559
 40
0.0873477999
 40
0.0998997306
 40
0.1130004181
 40
0.126637178
 40
0.1407957148
 40
0.1554602358
 40
0.1706135724
 40
0.1862373536
 40
0.2023120775
 40
0.2188171723
 40
0.2357311336
 40
0.253031583
 40
0.2706953012
 40
0.2886983407
 40
0.3256226133
 40
0.3636009203
 40
0.4024209622
 40
0.44186408
 40
0.4817069689
 40
0.5217233855
 40
0.561685809
 40
0.6013671164
 40
0.6405422441
 40
0.6789898885
 40
0.716494185
 40
0.7528464454
 40
0.7705281358
 40
0.7878477552
 40
0.804782062
 40
0.8213086349
 40
0.8374059041
 40
0.8530532614
 40
0.8682311571
 40
0.8829211387
 40
0.8971059803
 40
0.9107698331
 40
0.9238982995
 40
0.9364786063
 40
0.9484998498
 40
0.959953163
 40
0.9708320015
 40
0.9811325701
 40
0.9908542174
 40
1.0
 40
1.0
 40
1.0
 40
1.0
 10
11.5619757195
 20
10.9575697067
 30
0.0
 10
11.5600919312
 20
10.9557501068
 30
0.0
 10
11.5560365836
 20
10.9521366112
 30
0.0
 10
11.549376567
 20
10.9469644994
 30
0.0
 10
11.5419442552
 20
10.9418646838
 30
0.0
 10
11.5337510759
 20
10.9368446499
 30
0.0
 10
11.5248087126
 20
10.9319113315
 30
0.0
 10
11.5151303659
 20
10.927071985
 30
0.0
 10
11.5047303525
 20
10.922333802
 30
0.0
 10
11.4936241826
 20
10.9177038936
 30
0.0
 10
11.4818285086
 20
10.9131892516
 30
0.0
 10
11.4693610698
 20
10.9087967636
 30
0.0
 10
11.4562406832
 20
10.904533126
 30
0.0
 10
11.4424872021
 20
10.9004048355
 30
0.0
 10
11.4281214584
 20
10.8964182242
 30
0.0
 10
11.4131652449
 20
10.8925794006
 30
0.0
 10
11.3976412804
 20
10.8888942225
 30
0.0
 10
11.3815731537
 20
10.8853683443
 30
0.0
 10
11.3649852946
 20
10.8820071786
 30
0.0
 10
11.3479029437
 20
10.8788158523
 30
0.0
 10
11.3303520947
 20
10.8757992551
 30
0.0
 10
11.312359467
 20
10.8729620299
 30
0.0
 10
11.2939524346
 20
10.8703084715
 30
0.0
 10
11.2686817418
 20
10.8669929101
 30
0.0
 10
11.2362633828
 20
10.8633487783
 30
0.0
 10
11.1964901055
 20
10.8598007971
 30
0.0
 10
11.1557664535
 20
10.8570639086
 30
0.0
 10
11.1143404264
 20
10.8551549727
 30
0.0
 10
11.0724641172
 20
10.8540857653
 30
0.0
 10
11.0303924623
 20
10.8538629052
 30
0.0
 10
10.9883815838
 20
10.8544877593
 30
0.0
 10
10.9466872309
 20
10.8559564584
 30
0.0
 10
10.9055632194
 20
10.8582599677
 30
0.0
 10
10.8652597721
 20
10.8613840261
 30
0.0
 10
10.8260223085
 20
10.8653093881
 30
0.0
 10
10.7941238299
 20
10.8692635004
 30
0.0
 10
10.7693249533
 20
10.8728215996
 30
0.0
 10
10.7513104127
 20
10.8756495526
 30
0.0
 10
10.7337362868
 20
10.8786570666
 30
0.0
 10
10.7166292998
 20
10.8818395545
 30
0.0
 10
10.7000154964
 20
10.8851921496
 30
0.0
 10
10.6839201506
 20
10.8887097239
 30
0.0
 10
10.6683677327
 20
10.8923868704
 30
0.0
 10
10.6533818821
 20
10.8962179682
 30
0.0
 10
10.638985361
 20
10.9001971631
 30
0.0
 10
10.6252000038
 20
10.904318341
 30
0.0
 10
10.6120467012
 20
10.9085752022
 30
0.0
 10
10.5995453578
 20
10.9129612622
 30
0.0
 10
10.5877148358
 20
10.917469805
 30
0.0
 10
10.5765729304
 20
10.9220939774
 30
0.0
 10
10.5661363854
 20
10.9268267881
 30
0.0
 10
10.5564206598
 20
10.9316611625
 30
0.0
 10
10.5474404708
 20
10.9365896959
 30
0.0
 10
10.5417808739
 20
10.9400381884
 30
0.0
 10
10.5390839435
 20
10.9417810653
 30
0.0
  0
SPLINE
  5
39B
100
AcDbEntity
  8
0
100
AcDbSpline
 62
7
  6
CONTINUOUS
 70
0
 71
3
 72
23
 73
19
 74
0
 42
0.0000001
 43
0.0000001
 44
0.0000000001
 40
0.0
 40
0.0
 40
0.0
 40
0.0
 40
0.082707583
 40
0.1621569484
 40
0.238403426
 40
0.3115163767
 40
0.3815831747
 40
0.4487094901
 40
0.5130231572
 40
0.5746762585
 40
0.6338473862
 40
0.690745226
 40
0.745609061
 40
0.7987111823
 40
0.8503555682
 40
0.9008760078
 40
0.9506316735
 40
1.0
 40
1.0
 40
1.0
 40
1.0
 10
10.5390839435
 20
10.9417810653
 30
0.0
 10
10.5375217721
 20
10.9427906103
 30
0.0
 10
10.5344891594
 20
10.9448172482
 30
0.0
 10
10.5301344649
 20
10.947946574
 30
0.0
 10
10.5260683342
 20
10.9511020652
 30
0.0
 10
10.5222931337
 20
10.9542820737
 30
0.0
 10
10.5188109036
 20
10.9574848592
 30
0.0
 10
10.5156236442
 20
10.9607088144
 30
0.0
 10
10.5127331693
 20
10.9639522819
 30
0.0
 10
10.5101411547
 20
10.9672136168
 30
0.0
 10
10.5078492677
 20
10.9704912562
 30
0.0
 10
10.5058589322
 20
10.9737835038
 30
0.0
 10
10.5041716874
 20
10.9770887533
 30
0.0
 10
10.502788833
 20
10.9804052099
 30
0.0
 10
10.5017116676
 20
10.9837309722
 30
0.0
 10
10.5009413613
 20
10.9870640762
 30
0.0
 10
10.5004787238
 20
10.9904018629
 30
0.0
 10
10.5003757599
 20
10.9926323806
 30
0.0
 10
10.5003757573
 20
10.9937426121
 30
0.0
  0
SPLINE
  5
39C
100
AcDbEntity
  8
0
100
AcDbSpline
 62
7
  6
CONTINUOUS
 70
0
 71
3
 72
40
 73
36
 74
0
 42
0.0000001
 43
0.0000001
 44
0.0000000001
 40
0.0
 40
0.0
 40
0.0
 40
0.0
 40
0.0311444623
 40
0.0624429464
 40
0.0938877347
 40
0.1254702907
 40
0.1571779705
 40
0.188996169
 40
0.2209078941
 40
0.2528943766
 40
0.2849353707
 40
0.3170095775
 40
0.3490950548
 40
0.3811696427
 40
0.4132113916
 40
0.4451989867
 40
0.4771121643
 40
0.5089321125
 40
0.5406418522
 40
0.5722265907
 40
0.603674042
 40
0.6349747068
 40
0.6661221049
 40
0.6971129533
 40
0.727947284
 40
0.7586284939
 40
0.7891633219
 40
0.8195617482
 40
0.8498368162
 40
0.8800043756
 40
0.9100827498
 40
0.9400923353
 40
0.9550810224
 40
0.9700608656
 40
1.0
 40
1.0
 40
1.0
 40
1.0
 10
9.7446663884
 20
7.1616740077
 30
0.0
 10
9.7479803184
 20
7.1614441859
 30
0.0
 10
9.754610208
 20
7.1607408182
 30
0.0
 10
9.7644746394
 20
7.1589691074
 30
0.0
 10
9.7742334449
 20
7.156487363
 30
0.0
 10
9.7838338425
 20
7.1533090968
 30
0.0
 10
9.793224891
 20
7.1494512289
 30
0.0
 10
9.8023564768
 20
7.1449344563
 30
0.0
 10
9.8111799587
 20
7.1397828894
 30
0.0
 10
9.8196483205
 20
7.134024044
 30
0.0
 10
9.8277164421
 20
7.1276886442
 30
0.0
 10
9.8353413326
 20
7.1208104797
 30
0.0
 10
9.8424823575
 20
7.1134262195
 30
0.0
 10
9.8491014531
 20
7.105575222
 30
0.0
 10
9.8551633308
 20
7.0972993281
 30
0.0
 10
9.8606356602
 20
7.0886426368
 30
0.0
 10
9.8654892402
 20
7.0796512741
 30
0.0
 10
9.8696981536
 20
7.0703731493
 30
0.0
 10
9.8732399049
 20
7.0608577036
 30
0.0
 10
9.8760955401
 20
7.0511556499
 30
0.0
 10
9.8782497484
 20
7.0413187063
 30
0.0
 10
9.8796909454
 20
7.0313993245
 30
0.0
 10
9.8804113379
 20
7.0214504138
 30
0.0
 10
9.8804069677
 20
7.0115250625
 30
0.0
 10
9.8796777407
 20
7.0016762578
 30
0.0
 10
9.8782274328
 20
6.9919566036
 30
0.0
 10
9.8760636743
 20
6.982418043
 30
0.0
 10
9.8731979091
 20
6.9731115718
 30
0.0
 10
9.8696453665
 20
6.9640869966
 30
0.0
 10
9.8654248893
 20
6.9553925451
 30
0.0
 10
9.8605591961
 20
6.9470750473
 30
0.0
 10
9.8559856377
 20
6.9404911854
 30
0.0
 10
9.8520334667
 20
6.9354588223
 30
0.0
 10
9.8478927829
 20
6.9305906593
 30
0.0
 10
9.844575357
 20
6.9271249591
 30
0.0
 10
9.8422785442
 20
6.9249064016
 30
0.0
  0
SPLINE
  5
39D
100
AcDbEntity
  8
0
100
AcDbSpline
 62
7
  6
CONTINUOUS
 70
0
 71
3
 72
40
 73
36
 74
0
 42
0.0000001
 43
0.0000001
 44
0.0000000001
 40
0.0
 40
0.0
 40
0.0
 40
0.0
 40
0.0311444623
 40
0.0624429464
 40
0.0938877347
 40
0.1254702907
 40
0.1571779705
 40
0.188996169
 40
0.2209078941
 40
0.2528943766
 40
0.2849353707
 40
0.3170095775
 40
0.3490950548
 40
0.3811696427
 40
0.4132113916
 40
0.4451989867
 40
0.4771121643
 40
0.5089321125
 40
0.5406418522
 40
0.5722265907
 40
0.603674042
 40
0.6349747068
 40
0.6661221049
 40
0.6971129533
 40
0.727947284
 40
0.7586284939
 40
0.7891633219
 40
0.8195617482
 40
0.8498368162
 40
0.8800043756
 40
0.9100827498
 40
0.9400923353
 40
0.9550810224
 40
0.9700608656
 40
1.0
 40
1.0
 40
1.0
 40
1.0
 10
11.4949239804
 20
7.0402932315
 30
0.0
 10
11.4982379104
 20
7.0400634096
 30
0.0
 10
11.5048678001
 20
7.039360042
 30
0.0
 10
11.5147322314
 20
7.0375883311
 30
0.0
 10
11.524491037
 20
7.0351065867
 30
0.0
 10
11.5340914345
 20
7.0319283206
 30
0.0
 10
11.543482483
 20
7.0280704526
 30
0.0
 10
11.5526140688
 20
7.02355368
 30
0.0
 10
11.5614375508
 20
7.0184021131
 30
0.0
 10
11.5699059126
 20
7.0126432677
 30
0.0
 10
11.5779740341
 20
7.006307868
 30
0.0
 10
11.5855989246
 20
6.9994297034
 30
0.0
 10
11.5927399495
 20
6.9920454432
 30
0.0
 10
11.5993590451
 20
6.9841944457
 30
0.0
 10
11.6054209229
 20
6.9759185518
 30
0.0
 10
11.6108932522
 20
6.9672618605
 30
0.0
 10
11.6157468322
 20
6.9582704978
 30
0.0
 10
11.6199557456
 20
6.948992373
 30
0.0
 10
11.623497497
 20
6.9394769273
 30
0.0
 10
11.6263531321
 20
6.9297748736
 30
0.0
 10
11.6285073404
 20
6.91993793
 30
0.0
 10
11.6299485374
 20
6.9100185482
 30
0.0
 10
11.6306689299
 20
6.9000696375
 30
0.0
 10
11.6306645597
 20
6.8901442862
 30
0.0
 10
11.6299353327
 20
6.8802954815
 30
0.0
 10
11.6284850248
 20
6.8705758273
 30
0.0
 10
11.6263212663
 20
6.8610372667
 30
0.0
 10
11.6234555012
 20
6.8517307955
 30
0.0
 10
11.6199029585
 20
6.8427062203
 30
0.0
 10
11.6156824813
 20
6.8340117688
 30
0.0
 10
11.6108167881
 20
6.825694271
 30
0.0
 10
11.6062432297
 20
6.8191104091
 30
0.0
 10
11.6022910587
 20
6.814078046
 30
0.0
 10
11.5981503749
 20
6.809209883
 30
0.0
 10
11.5948329491
 20
6.8057441828
 30
0.0
 10
11.5925361362
 20
6.8035256254
 30
0.0
  0
SPLINE
  5
39E
100
AcDbEntity
  8
0
100
AcDbSpline
 62
7
  6
CONTINUOUS
 70
0
 71
3
 72
40
 73
36
 74
0
 42
0.0000001
 43
0.0000001
 44
0.0000000001
 40
0.0
 40
0.0
 40
0.0
 40
0.0
 40
0.0311444623
 40
0.0624429464
 40
0.0938877347
 40
0.1254702907
 40
0.1571779705
 40
0.188996169
 40
0.2209078941
 40
0.2528943766
 40
0.2849353707
 40
0.3170095775
 40
0.3490950548
 40
0.3811696427
 40
0.4132113916
 40
0.4451989867
 40
0.4771121643
 40
0.5089321125
 40
0.5406418522
 40
0.5722265907
 40
0.603674042
 40
0.6349747068
 40
0.6661221049
 40
0.6971129533
 40
0.727947284
 40
0.7586284939
 40
0.7891633219
 40
0.8195617482
 40
0.8498368162
 40
0.8800043756
 40
0.9100827498
 40
0.9400923353
 40
0.9550810224
 40
0.9700608656
 40
1.0
 40
1.0
 40
1.0
 40
1.0
 10
11.4949239804
 20
9.092885734
 30
0.0
 10
11.4982379104
 20
9.0926559121
 30
0.0
 10
11.5048678001
 20
9.0919525444
 30
0.0
 10
11.5147322314
 20
9.0901808336
 30
0.0
 10
11.524491037
 20
9.0876990892
 30
0.0
 10
11.5340914345
 20
9.084520823
 30
0.0
 10
11.543482483
 20
9.0806629551
 30
0.0
 10
11.5526140688
 20
9.0761461825
 30
0.0
 10
11.5614375508
 20
9.0709946156
 30
0.0
 10
11.5699059126
 20
9.0652357702
 30
0.0
 10
11.5779740341
 20
9.0589003704
 30
0.0
 10
11.5855989246
 20
9.0520222059
 30
0.0
 10
11.5927399495
 20
9.0446379457
 30
0.0
 10
11.5993590451
 20
9.0367869482
 30
0.0
 10
11.6054209229
 20
9.0285110543
 30
0.0
 10
11.6108932522
 20
9.019854363
 30
0.0
 10
11.6157468322
 20
9.0108630003
 30
0.0
 10
11.6199557456
 20
9.0015848755
 30
0.0
 10
11.623497497
 20
8.9920694298
 30
0.0
 10
11.6263531321
 20
8.9823673761
 30
0.0
 10
11.6285073404
 20
8.9725304325
 30
0.0
 10
11.6299485374
 20
8.9626110507
 30
0.0
 10
11.6306689299
 20
8.95266214
 30
0.0
 10
11.6306645597
 20
8.9427367887
 30
0.0
 10
11.6299353327
 20
8.932887984
 30
0.0
 10
11.6284850248
 20
8.9231683298
 30
0.0
 10
11.6263212663
 20
8.9136297692
 30
0.0
 10
11.6234555012
 20
8.904323298
 30
0.0
 10
11.6199029585
 20
8.8952987228
 30
0.0
 10
11.6156824813
 20
8.8866042713
 30
0.0
 10
11.6108167881
 20
8.8782867735
 30
0.0
 10
11.6062432297
 20
8.8717029116
 30
0.0
 10
11.6022910587
 20
8.8666705485
 30
0.0
 10
11.5981503749
 20
8.8618023855
 30
0.0
 10
11.5948329491
 20
8.8583366853
 30
0.0
 10
11.5925361362
 20
8.8561181278
 30
0.0
  0
SPLINE
  5
39F
100
AcDbEntity
  8
0
100
AcDbSpline
 62
7
  6
CONTINUOUS
 70
0
 71
3
 72
40
 73
36
 74
0
 42
0.0000001
 43
0.0000001
 44
0.0000000001
 40
0.0
 40
0.0
 40
0.0
 40
0.0
 40
0.0311444623
 40
0.0624429464
 40
0.0938877347
 40
0.1254702907
 40
0.1571779705
 40
0.188996169
 40
0.2209078941
 40
0.2528943766
 40
0.2849353707
 40
0.3170095775
 40
0.3490950548
 40
0.3811696427
 40
0.4132113916
 40
0.4451989867
 40
0.4771121643
 40
0.5089321125
 40
0.5406418522
 40
0.5722265907
 40
0.603674042
 40
0.6349747068
 40
0.6661221049
 40
0.6971129533
 40
0.727947284
 40
0.7586284939
 40
0.7891633219
 40
0.8195617482
 40
0.8498368162
 40
0.8800043756
 40
0.9100827498
 40
0.9400923353
 40
0.9550810224
 40
0.9700608656
 40
1.0
 40
1.0
 40
1.0
 40
1.0
 10
9.7446663884
 20
9.2142665102
 30
0.0
 10
9.7479803184
 20
9.2140366884
 30
0.0
 10
9.754610208
 20
9.2133333207
 30
0.0
 10
9.7644746394
 20
9.2115616099
 30
0.0
 10
9.7742334449
 20
9.2090798655
 30
0.0
 10
9.7838338425
 20
9.2059015993
 30
0.0
 10
9.793224891
 20
9.2020437314
 30
0.0
 10
9.8023564768
 20
9.1975269588
 30
0.0
 10
9.8111799587
 20
9.1923753919
 30
0.0
 10
9.8196483205
 20
9.1866165465
 30
0.0
 10
9.8277164421
 20
9.1802811467
 30
0.0
 10
9.8353413326
 20
9.1734029821
 30
0.0
 10
9.8424823575
 20
9.1660187219
 30
0.0
 10
9.8491014531
 20
9.1581677245
 30
0.0
 10
9.8551633308
 20
9.1498918305
 30
0.0
 10
9.8606356602
 20
9.1412351393
 30
0.0
 10
9.8654892402
 20
9.1322437765
 30
0.0
 10
9.8696981536
 20
9.1229656518
 30
0.0
 10
9.8732399049
 20
9.1134502061
 30
0.0
 10
9.8760955401
 20
9.1037481524
 30
0.0
 10
9.8782497484
 20
9.0939112088
 30
0.0
 10
9.8796909454
 20
9.083991827
 30
0.0
 10
9.8804113379
 20
9.0740429163
 30
0.0
 10
9.8804069677
 20
9.0641175649
 30
0.0
 10
9.8796777407
 20
9.0542687602
 30
0.0
 10
9.8782274328
 20
9.0445491061
 30
0.0
 10
9.8760636743
 20
9.0350105454
 30
0.0
 10
9.8731979091
 20
9.0257040743
 30
0.0
 10
9.8696453665
 20
9.016679499
 30
0.0
 10
9.8654248893
 20
9.0079850476
 30
0.0
 10
9.8605591961
 20
8.9996675498
 30
0.0
 10
9.8559856377
 20
8.9930836879
 30
0.0
 10
9.8520334667
 20
8.9880513248
 30
0.0
 10
9.8478927829
 20
8.9831831618
 30
0.0
 10
9.844575357
 20
8.9797174616
 30
0.0
 10
9.8422785442
 20
8.9774989041
 30
0.0
  0
SPLINE
  5
3A0
100
AcDbEntity
  8
0
100
AcDbSpline
 62
7
  6
CONTINUOUS
 70
0
 71
3
 72
23
 73
19
 74
0
 42
0.0000001
 43
0.0000001
 44
0.0000000001
 40
0.0
 40
0.0
 40
0.0
 40
0.0
 40
0.0644630299
 40
0.1284617114
 40
0.1920024197
 40
0.25511206
 40
0.3178375251
 40
0.3802386083
 40
0.4423820541
 40
0.5043365235
 40
0.5661687259
 40
0.6279407339
 40
0.6897085846
 40
0.7515217651
 40
0.8134232734
 40
0.8754500244
 40
0.9376334245
 40
1.0
 40
1.0
 40
1.0
 40
1.0
 10
10.8948231542
 20
8.4030780867
 30
0.0
 10
10.8957444227
 20
8.3977894229
 30
0.0
 10
10.8970348338
 20
8.3871463706
 30
0.0
 10
10.8972858752
 20
8.3711308371
 30
0.0
 10
10.8958695705
 20
8.3552880269
 30
0.0
 10
10.8928404969
 20
8.3397826807
 30
0.0
 10
10.8882802889
 20
8.3247572426
 30
0.0
 10
10.8822888054
 20
8.3103320215
 30
0.0
 10
10.8749768361
 20
8.2966038749
 30
0.0
 10
10.8664595223
 20
8.2836480154
 30
0.0
 10
10.8568513616
 20
8.2715207688
 30
0.0
 10
10.8462627797
 20
8.2602629499
 30
0.0
 10
10.8347981401
 20
8.2499031787
 30
0.0
 10
10.8225547715
 20
8.240460873
 30
0.0
 10
10.8096228754
 20
8.2319488336
 30
0.0
 10
10.7960854836
 20
8.224375205
 30
0.0
 10
10.782020417
 20
8.2177455926
 30
0.0
 10
10.7723528922
 20
8.2139629404
 30
0.0
 10
10.7674567832
 20
8.2122300744
 30
0.0
  0
SPLINE
  5
3A1
100
AcDbEntity
  8
0
100
AcDbSpline
 62
7
  6
CONTINUOUS
 70
0
 71
3
 72
15
 73
11
 74
0
 42
0.0000001
 43
0.0000001
 44
0.0000000001
 40
0.0
 40
0.0
 40
0.0
 40
0.0
 40
0.1228777592
 40
0.2465221211
 40
0.3708763067
 40
0.4958621782
 40
0.6213805792
 40
0.7473210294
 40
0.8735666003
 40
1.0
 40
1.0
 40
1.0
 40
1.0
 10
9.8354632888
 20
6.5120303533
 30
0.0
 10
9.8333592795
 20
6.5121762669
 30
0.0
 10
9.8291493242
 20
6.5126670391
 30
0.0
 10
9.8229126354
 20
6.5139831352
 30
0.0
 10
9.8167847798
 20
6.5158655076
 30
0.0
 10
9.8108166327
 20
6.5182907572
 30
0.0
 10
9.805053843
 20
6.521229688
 30
0.0
 10
9.7995371342
 20
6.5246486064
 30
0.0
 10
9.7943022158
 20
6.5285102813
 30
0.0
 10
9.7910206449
 20
6.5313536293
 30
0.0
 10
9.7894358169
 20
6.5328360654
 30
0.0
  0
SPLINE
  5
3A2
100
AcDbEntity
  8
0
100
AcDbSpline
 62
7
  6
CONTINUOUS
 70
0
 71
3
 72
23
 73
19
 74
0
 42
0.0000001
 43
0.0000001
 44
0.0000000001
 40
0.0
 40
0.0
 40
0.0
 40
0.0
 40
0.0639318253
 40
0.1275599949
 40
0.1908824543
 40
0.253922845
 40
0.3167009008
 40
0.3792442898
 40
0.4415854002
 40
0.5037600053
 40
0.5658068698
 40
0.6277668323
 40
0.6896817236
 40
0.7515933207
 40
0.8135426128
 40
0.8755691696
 40
0.9377102104
 40
1.0
 40
1.0
 40
1.0
 40
1.0
 10
11.1508143677
 20
6.6270760472
 30
0.0
 10
11.1508143677
 20
6.6253687822
 30
0.0
 10
11.1506943446
 20
6.6219611021
 30
0.0
 10
11.1501524374
 20
6.6168884079
 30
0.0
 10
11.1492520161
 20
6.6118908174
 30
0.0
 10
11.1479985899
 20
6.60699335
 30
0.0
 10
11.1463992775
 20
6.6022195697
 30
0.0
 10
11.1444633645
 20
6.5975923279
 30
0.0
 10
11.1422018468
 20
6.5931332645
 30
0.0
 10
11.1396273009
 20
6.5888628014
 30
0.0
 10
11.1367537633
 20
6.584800015
 30
0.0
 10
11.1335966148
 20
6.5809625054
 30
0.0
 10
11.1301723198
 20
6.5773664138
 30
0.0
 10
11.1264982581
 20
6.5740264176
 30
0.0
 10
11.1225926436
 20
6.5709557064
 30
0.0
 10
11.1184742736
 20
6.5681659137
 30
0.0
 10
11.1141627931
 20
6.5656674233
 30
0.0
 10
11.1111762553
 20
6.5642036169
 30
0.0
 10
11.1096583935
 20
6.5635231421
 30
0.0
  0
SPLINE
  5
3A3
100
AcDbEntity
  8
0
100
AcDbSpline
 62
7
  6
CONTINUOUS
 70
0
 71
3
 72
41
 73
37
 74
0
 42
0.0000001
 43
0.0000001
 44
0.0000000001
 40
0.0
 40
0.0
 40
0.0
 40
0.0
 40
0.0314063748
 40
0.0471951641
 40
0.06303483
 40
0.0948499829
 40
0.1268363906
 40
0.1428889654
 40
0.1589722562
 40
0.1912037188
 40
0.2235010731
 40
0.2558242845
 40
0.288133592
 40
0.3203908679
 40
0.3525607736
 40
0.3846117072
 40
0.4165165626
 40
0.4482533303
 40
0.4798055675
 40
0.5111627626
 40
0.5423206105
 40
0.5732812012
 40
0.6040531159
 40
0.6346514076
 40
0.6650974338
 40
0.6954184992
 40
0.7256472626
 40
0.7558208671
 40
0.7859797663
 40
0.8161662461
 40
0.8464226752
 40
0.876789576
 40
0.9073035604
 40
0.9379956731
 40
0.9688884533
 40
1.0
 40
1.0
 40
1.0
 40
1.0
 10
11.4041269298
 20
6.5658017124
 30
0.0
 10
11.4066170826
 20
6.5656290197
 30
0.0
 10
11.4103493076
 20
6.5651776934
 30
0.0
 10
11.415265213
 20
6.5642042421
 30
0.0
 10
11.4201586236
 20
6.5629795948
 30
0.0
 10
11.4261785363
 20
6.5609888544
 30
0.0
 10
11.4319921521
 20
6.558417022
 30
0.0
 10
11.4364950302
 20
6.556026664
 30
0.0
 10
11.4408964118
 20
6.5534158377
 30
0.0
 10
11.4461710329
 20
6.5497610852
 30
0.0
 10
11.45207358
 20
6.5448035294
 30
0.0
 10
11.4575030627
 20
6.5393231078
 30
0.0
 10
11.4624126479
 20
6.5333769564
 30
0.0
 10
11.4667621841
 20
6.5270245932
 30
0.0
 10
11.470517439
 20
6.5203274598
 30
0.0
 10
11.4736500239
 20
6.5133481818
 30
0.0
 10
11.4761370629
 20
6.5061500919
 30
0.0
 10
11.4779609131
 20
6.4987968568
 30
0.0
 10
11.4791088974
 20
6.4913522268
 30
0.0
 10
11.4795730961
 20
6.4838798715
 30
0.0
 10
11.4793502104
 20
6.4764432772
 30
0.0
 10
11.4784415105
 20
6.4691056745
 30
0.0
 10
11.4768528755
 20
6.4619299652
 30
0.0
 10
11.4745949213
 20
6.4549786178
 30
0.0
 10
11.4716832109
 20
6.4483135007
 30
0.0
 10
11.4681385305
 20
6.4419956211
 30
0.0
 10
11.4639872061
 20
6.4360847457
 30
0.0
 10
11.4592614267
 20
6.4306388793
 30
0.0
 10
11.45399953
 20
6.4257135899
 30
0.0
 10
11.4482461956
 20
6.4213611835
 30
0.0
 10
11.4420525035
 20
6.4176297423
 30
0.0
 10
11.4354757536
 20
6.4145620911
 30
0.0
 10
11.4285791828
 20
6.4121946635
 30
0.0
 10
11.4214309351
 20
6.4105566224
 30
0.0
 10
11.4141044633
 20
6.4096685113
 30
0.0
 10
11.4091668595
 20
6.4095848601
 30
0.0
 10
11.4066955883
 20
6.4096689416
 30
0.0
  0
SPLINE
  5
3A4
100
AcDbEntity
  8
0
100
AcDbSpline
 62
7
  6
CONTINUOUS
 70
0
 71
3
 72
39
 73
35
 74
0
 42
0.0000001
 43
0.0000001
 44
0.0000000001
 40
0.0
 40
0.0
 40
0.0
 40
0.0
 40
0.0311439303
 40
0.0624436618
 40
0.0938881473
 40
0.1254709891
 40
0.1571788504
 40
0.1889972145
 40
0.2209091267
 40
0.2528957783
 40
0.2849369507
 40
0.3170113397
 40
0.3490969953
 40
0.3811717566
 40
0.4132136819
 40
0.4452014627
 40
0.4771148294
 40
0.5089349609
 40
0.5406448809
 40
0.572229804
 40
0.6036774458
 40
0.6349782967
 40
0.6661258727
 40
0.697116898
 40
0.7279514126
 40
0.7586328123
 40
0.789167825
 40
0.8195664295
 40
0.849841675
 40
0.8800094157
 40
0.9100879723
 40
0.9400977325
 40
0.9700607032
 40
1.0
 40
1.0
 40
1.0
 40
1.0
 10
9.8354632888
 20
9.5697090022
 30
0.0
 10
9.8373030027
 20
9.5695814176
 30
0.0
 10
9.8409836588
 20
9.5691909109
 30
0.0
 10
9.8464599806
 20
9.5682073742
 30
0.0
 10
9.8518776951
 20
9.5668295734
 30
0.0
 10
9.8572074244
 20
9.5650651723
 30
0.0
 10
9.8624209523
 20
9.5629234509
 30
0.0
 10
9.867490425
 20
9.5604159223
 30
0.0
 10
9.8723888544
 20
9.5575559903
 30
0.0
 10
9.8770901406
 20
9.5543589281
 30
0.0
 10
9.8815692371
 20
9.5508417952
 30
0.0
 10
9.8858022662
 20
9.5470233338
 30
0.0
 10
9.889766666
 20
9.542923902
 30
0.0
 10
9.8934413201
 20
9.5385653643
 30
0.0
 10
9.8968066406
 20
9.533970948
 30
0.0
 10
9.8998446767
 20
9.5291651305
 30
0.0
 10
9.9025391981
 20
9.5241735081
 30
0.0
 10
9.9048758208
 20
9.5190226838
 30
0.0
 10
9.9068420713
 20
9.5137401115
 30
0.0
 10
9.9084274291
 20
9.5083539434
 30
0.0
 10
9.9096233888
 20
9.502892888
 30
0.0
 10
9.9104234977
 20
9.4973860616
 30
0.0
 10
9.9108234453
 20
9.491862842
 30
0.0
 10
9.9108210477
 20
9.4863527005
 30
0.0
 10
9.910416253
 20
9.4808850504
 30
0.0
 10
9.9096111451
 20
9.4754890951
 30
0.0
 10
9.9084099406
 20
9.4701936758
 30
0.0
 10
9.9068190154
 20
9.4650271032
 30
0.0
 10
9.9048468235
 20
9.4600170142
 30
0.0
 10
9.902503851
 20
9.4551902164
 30
0.0
 10
9.8998025941
 20
9.4505725837
 30
0.0
 10
9.8967573848
 20
9.4461887742
 30
0.0
 10
9.8933848175
 20
9.4420625655
 30
0.0
 10
9.8909291611
 20
9.4394971259
 30
0.0
 10
9.8896540719
 20
9.4382654703
 30
0.0
  0
SPLINE
  5
3A5
100
AcDbEntity
  8
0
100
AcDbSpline
 62
7
  6
CONTINUOUS
 70
0
 71
3
 72
23
 73
19
 74
0
 42
0.0000001
 43
0.0000001
 44
0.0000000001
 40
0.0
 40
0.0
 40
0.0
 40
0.0
 40
0.0639318253
 40
0.1275599949
 40
0.1908824543
 40
0.253922845
 40
0.3167009008
 40
0.3792442898
 40
0.4415854002
 40
0.5037600053
 40
0.5658068698
 40
0.6277668323
 40
0.6896817236
 40
0.7515933207
 40
0.8135426128
 40
0.8755691696
 40
0.9377102104
 40
1.0
 40
1.0
 40
1.0
 40
1.0
 10
11.1508143677
 20
9.2833719966
 30
0.0
 10
11.1508143677
 20
9.2816647315
 30
0.0
 10
11.1506943446
 20
9.2782570515
 30
0.0
 10
11.1501524374
 20
9.2731843573
 30
0.0
 10
11.1492520161
 20
9.2681867668
 30
0.0
 10
11.1479985899
 20
9.2632892994
 30
0.0
 10
11.1463992775
 20
9.2585155191
 30
0.0
 10
11.1444633645
 20
9.2538882773
 30
0.0
 10
11.1422018468
 20
9.2494292139
 30
0.0
 10
11.1396273009
 20
9.2451587508
 30
0.0
 10
11.1367537633
 20
9.2410959644
 30
0.0
 10
11.1335966148
 20
9.2372584548
 30
0.0
 10
11.1301723198
 20
9.2336623632
 30
0.0
 10
11.1264982581
 20
9.230322367
 30
0.0
 10
11.1225926436
 20
9.2272516558
 30
0.0
 10
11.1184742736
 20
9.2244618631
 30
0.0
 10
11.1141627931
 20
9.2219633727
 30
0.0
 10
11.1111762553
 20
9.2204995663
 30
0.0
 10
11.1096583935
 20
9.2198190915
 30
0.0
  0
SPLINE
  5
3A6
100
AcDbEntity
  8
0
100
AcDbSpline
 62
7
  6
CONTINUOUS
 70
0
 71
3
 72
25
 73
21
 74
0
 42
0.0000001
 43
0.0000001
 44
0.0000000001
 40
0.0
 40
0.0
 40
0.0
 40
0.0
 40
0.0620511172
 40
0.124642384
 40
0.1877054711
 40
0.2511377596
 40
0.3148156203
 40
0.3786040029
 40
0.4423662475
 40
0.5059722612
 40
0.5693056307
 40
0.6322686645
 40
0.6947862266
 40
0.7568087248
 40
0.8183139586
 40
0.8793084786
 40
0.9096394096
 40
0.9398586908
 40
0.9699753092
 40
1.0
 40
1.0
 40
1.0
 40
1.0
 10
11.4041269648
 20
9.4635795925
 30
0.0
 10
11.4074117467
 20
9.4633517921
 30
0.0
 10
11.4139870149
 20
9.4624477012
 30
0.0
 10
11.4236168693
 20
9.4598004077
 30
0.0
 10
11.4328957228
 20
9.4559106339
 30
0.0
 10
11.4416612089
 20
9.4508581559
 30
0.0
 10
11.44976866
 20
9.4447430266
 30
0.0
 10
11.4570898135
 20
9.437681459
 30
0.0
 10
11.4635151567
 20
9.4298017293
 30
0.0
 10
11.4689535381
 20
9.4212401776
 30
0.0
 10
11.4733318988
 20
9.4121383698
 30
0.0
 10
11.4765941043
 20
9.4026406107
 30
0.0
 10
11.4786997682
 20
9.3928924861
 30
0.0
 10
11.4796232957
 20
9.3830394892
 30
0.0
 10
11.4793535097
 20
9.3732280577
 30
0.0
 10
11.4781326437
 20
9.3651874999
 30
0.0
 10
11.4765667369
 20
9.358927184
 30
0.0
 10
11.4751044376
 20
9.3543400338
 30
0.0
 10
11.473356875
 20
9.3498716018
 30
0.0
 10
11.4720030377
 20
9.3469786968
 30
0.0
 10
11.4712806969
 20
9.3455586292
 30
0.0
  0
SPLINE
  5
3A7
100
AcDbEntity
  8
0
100
AcDbSpline
 62
7
  6
CONTINUOUS
 70
0
 71
3
 72
32
 73
28
 74
0
 42
0.0000001
 43
0.0000001
 44
0.0000000001
 40
0.0
 40
0.0
 40
0.0
 40
0.0
 40
0.0294106564
 40
0.0586869527
 40
0.0878745411
 40
0.1170190221
 40
0.1461647824
 40
0.1753544777
 40
0.2046285043
 40
0.2340242664
 40
0.2932961847
 40
0.353417591
 40
0.4145478324
 40
0.4767684353
 40
0.5400759089
 40
0.5721206734
 40
0.6043975712
 40
0.6695363483
 40
0.7352880051
 40
0.7683263579
 40
0.801427068
 40
0.8345619649
 40
0.8677057678
 40
0.9008368079
 40
0.9339375381
 40
0.9669948307
 40
1.0
 40
1.0
 40
1.0
 40
1.0
 10
10.8326899335
 20
7.7247472037
 30
0.0
 10
10.8300306429
 20
7.7227280295
 30
0.0
 10
10.8248410206
 20
7.7185423798
 30
0.0
 10
10.8174474884
 20
7.7118365299
 30
0.0
 10
10.8104688983
 20
7.7047419823
 30
0.0
 10
10.8039079097
 20
7.6972796768
 30
0.0
 10
10.7977658768
 20
7.6894688153
 30
0.0
 10
10.7920438863
 20
7.6813275448
 30
0.0
 10
10.7867429267
 20
7.6728724906
 30
0.0
 10
10.7802213852
 20
7.6611724597
 30
0.0
 10
10.7731267444
 20
7.6458091435
 30
0.0
 10
10.7663676258
 20
7.6264290849
 30
0.0
 10
10.7613716716
 20
7.6061765478
 30
0.0
 10
10.7581879189
 20
7.5851972938
 30
0.0
 10
10.757096628
 20
7.5673155144
 30
0.0
 10
10.7571768403
 20
7.5528219207
 30
0.0
 10
10.757912506
 20
7.5381383797
 30
0.0
 10
10.7600812646
 20
7.5197148996
 30
0.0
 10
10.7639198558
 20
7.5014760287
 30
0.0
 10
10.7680064079
 20
7.4870662192
 30
0.0
 10
10.7715843905
 20
7.4763741135
 30
0.0
 10
10.7756670319
 20
7.4658516208
 30
0.0
 10
10.7802495308
 20
7.4555330256
 30
0.0
 10
10.7853251765
 20
7.4454521086
 30
0.0
 10
10.7908856099
 20
7.4356413104
 30
0.0
 10
10.7969204401
 20
7.4261321186
 30
0.0
 10
10.8012562532
 20
7.4200076214
 30
0.0
 10
10.8034989894
 20
7.4170058302
 30
0.0
  0
SPLINE
  5
3A8
100
AcDbEntity
  8
0
100
AcDbSpline
 62
7
  6
CONTINUOUS
 70
0
 71
3
 72
37
 73
33
 74
0
 42
0.0000001
 43
0.0000001
 44
0.0000000001
 40
0.0
 40
0.0
 40
0.0
 40
0.0
 40
0.0761048351
 40
0.1533642129
 40
0.2310951119
 40
0.3086070906
 40
0.3852127499
 40
0.4602351248
 40
0.4969467779
 40
0.5330176094
 40
0.5683695064
 40
0.6029266101
 40
0.6366155311
 40
0.6693655939
 40
0.7011092316
 40
0.7317823466
 40
0.761324574
 40
0.7896797119
 40
0.8167963395
 40
0.8426282649
 40
0.8671351584
 40
0.8902835318
 40
0.9120478226
 40
0.9324117443
 40
0.9420672359
 40
0.9513718234
 40
0.9603269733
 40
0.9689352603
 40
0.977200779
 40
0.9851288486
 40
0.9927259753
 40
1.0
 40
1.0
 40
1.0
 40
1.0
 10
11.4172573649
 20
5.2321901428
 30
0.0
 10
11.428180537
 20
5.2314326182
 30
0.0
 10
11.4502143104
 20
5.2302048716
 30
0.0
 10
11.4834511592
 20
5.229211976
 30
0.0
 10
11.5169051126
 20
5.2290581503
 30
0.0
 10
11.5502583009
 20
5.2297448822
 30
0.0
 10
11.5831937778
 20
5.2312655648
 30
0.0
 10
11.6102231394
 20
5.2332291824
 30
0.0
 10
11.6313958976
 20
5.2352150923
 30
0.0
 10
11.6468635521
 20
5.2368908248
 30
0.0
 10
11.6619968082
 20
5.2387594771
 30
0.0
 10
11.6767597214
 20
5.2408165888
 30
0.0
 10
11.6911171983
 20
5.243057219
 30
0.0
 10
11.7050351214
 20
5.2454760168
 30
0.0
 10
11.7184804351
 20
5.248067186
 30
0.0
 10
11.7314212324
 20
5.2508244987
 30
0.0
 10
11.7438268182
 20
5.2537413471
 30
0.0
 10
11.7556677936
 20
5.2568107579
 30
0.0
 10
11.7669161512
 20
5.2600253553
 30
0.0
 10
11.7775453461
 20
5.2633774324
 30
0.0
 10
11.7875303279
 20
5.2668589906
 30
0.0
 10
11.7968477484
 20
5.270461744
 30
0.0
 10
11.8054756883
 20
5.2741771104
 30
0.0
 10
11.8121889287
 20
5.2774148117
 30
0.0
 10
11.8171895386
 20
5.2800622977
 30
0.0
 10
11.8206883672
 20
5.2820352489
 30
0.0
 10
11.8240003655
 20
5.2840296671
 30
0.0
 10
11.8271235943
 20
5.28604448
 30
0.0
 10
11.8300562956
 20
5.2880784992
 30
0.0
 10
11.8327967705
 20
5.290130649
 30
0.0
 10
11.8353432602
 20
5.2921996356
 30
0.0
 10
11.8369447995
 20
5.2936196593
 30
0.0
 10
11.8377109379
 20
5.2943325859
 30
0.0
  0
SPLINE
  5
3A9
100
AcDbEntity
  8
0
100
AcDbSpline
 62
7
  6
CONTINUOUS
 70
0
 71
3
 72
16
 73
12
 74
0
 42
0.0000001
 43
0.0000001
 44
0.0000000001
 40
0.0
 40
0.0
 40
0.0
 40
0.0
 40
0.1480543646
 40
0.2876984311
 40
0.4196092656
 40
0.4829475736
 40
0.5446951146
 40
0.6639367557
 40
0.7786074495
 40
0.8901135749
 40
1.0
 40
1.0
 40
1.0
 40
1.0
 10
12.42652665
 20
5.8620131711
 30
0.0
 10
12.4275545063
 20
5.8630060041
 30
0.0
 10
12.4294915844
 20
5.8649994094
 30
0.0
 10
12.4320960828
 20
5.8681060243
 30
0.0
 10
12.4339642068
 20
5.8707496444
 30
0.0
 10
12.4352507595
 20
5.8728715592
 30
0.0
 10
12.4363743538
 20
5.8749458638
 30
0.0
 10
12.4375419831
 20
5.877556196
 30
0.0
 10
12.4385575171
 20
5.8807396888
 30
0.0
 10
12.4391681983
 20
5.8839333891
 30
0.0
 10
12.4393044446
 20
5.8860727152
 30
0.0
 10
12.4393044437
 20
5.8871333664
 30
0.0
  0
SPLINE
  5
3AA
100
AcDbEntity
  8
0
100
AcDbSpline
 62
7
  6
CONTINUOUS
 70
0
 71
3
 72
33
 73
29
 74
0
 42
0.0000001
 43
0.0000001
 44
0.0000000001
 40
0.0
 40
0.0
 40
0.0
 40
0.0
 40
0.0353602295
 40
0.0707749836
 40
0.1062338808
 40
0.1417340947
 40
0.1772691952
 40
0.2128331225
 40
0.2484194062
 40
0.2840205099
 40
0.3196277806
 40
0.3552310112
 40
0.3908179
 40
0.4263733925
 40
0.4618787285
 40
0.4973101921
 40
0.5326375137
 40
0.5678216664
 40
0.6375224039
 40
0.7058012672
 40
0.7715763692
 40
0.8331131268
 40
0.8881038077
 40
0.9344645108
 40
0.9541170786
 40
0.9714804549
 40
0.9867087051
 40
1.0
 40
1.0
 40
1.0
 40
1.0
 10
10.4879984121
 20
7.6804747226
 30
0.0
 10
10.4892885005
 20
7.6835631818
 30
0.0
 10
10.4920351425
 20
7.6896776203
 30
0.0
 10
10.4966370488
 20
7.6986235567
 30
0.0
 10
10.5017119287
 20
7.7073255863
 30
0.0
 10
10.5072444462
 20
7.7157575854
 30
0.0
 10
10.5132181153
 20
7.7238953434
 30
0.0
 10
10.5196143944
 20
7.7317157707
 30
0.0
 10
10.5264131855
 20
7.7391973005
 30
0.0
 10
10.5335928763
 20
7.7463198517
 30
0.0
 10
10.541130266
 20
7.7530650416
 30
0.0
 10
10.5490006753
 20
7.7594162441
 30
0.0
 10
10.5571780099
 20
7.765358599
 30
0.0
 10
10.5656346969
 20
7.7708790743
 30
0.0
 10
10.5743415102
 20
7.7759666953
 30
0.0
 10
10.5832673402
 20
7.7806125012
 30
0.0
 10
10.5923793089
 20
7.7848097337
 30
0.0
 10
10.6046877004
 20
7.7897854559
 30
0.0
 10
10.6202991213
 20
7.7948623237
 30
0.0
 10
10.6391216302
 20
7.7991750531
 30
0.0
 10
10.6574702114
 20
7.8017907346
 30
0.0
 10
10.6747039646
 20
7.8029224043
 30
0.0
 10
10.6901315097
 20
7.8029196333
 30
0.0
 10
10.7015734049
 20
7.802308228
 30
0.0
 10
10.7094370246
 20
7.8016338012
 30
0.0
 10
10.7143562123
 20
7.8011243766
 30
0.0
 10
10.718668908
 20
7.8006100063
 30
0.0
 10
10.7213447612
 20
7.800252273
 30
0.0
 10
10.7225905453
 20
7.800076616
 30
0.0
  0
SPLINE
  5
3AB
100
AcDbEntity
  8
0
100
AcDbSpline
 62
7
  6
CONTINUOUS
 70
0
 71
3
 72
15
 73
11
 74
0
 42
0.0000001
 43
0.0000001
 44
0.0000000001
 40
0.0
 40
0.0
 40
0.0
 40
0.0
 40
0.1285330037
 40
0.2565661334
 40
0.3839758605
 40
0.510578162
 40
0.6360922166
 40
0.7600698049
 40
0.8817771918
 40
1.0
 40
1.0
 40
1.0
 40
1.0
 10
10.8713667499
 20
7.5090554972
 30
0.0
 10
10.8738218047
 20
7.5149328745
 30
0.0
 10
10.8781332139
 20
7.5269210825
 30
0.0
 10
10.8827408093
 20
7.5454146596
 30
0.0
 10
10.8854517326
 20
7.5641847093
 30
0.0
 10
10.8862638967
 20
7.5830061657
 30
0.0
 10
10.8852070473
 20
7.6016444927
 30
0.0
 10
10.8823464213
 20
7.6198465759
 30
0.0
 10
10.8777954407
 20
7.6373253665
 30
0.0
 10
10.8736714436
 20
7.6485018
 30
0.0
 10
10.8713667499
 20
7.653888038
 30
0.0
  0
SPLINE
  5
3AC
100
AcDbEntity
  8
0
100
AcDbSpline
 62
7
  6
CONTINUOUS
 70
0
 71
3
 72
15
 73
11
 74
0
 42
0.0000001
 43
0.0000001
 44
0.0000000001
 40
0.0
 40
0.0
 40
0.0
 40
0.0
 40
0.125367282
 40
0.2507394405
 40
0.376055476
 40
0.5012543057
 40
0.6262846252
 40
0.7511045446
 40
0.8756830002
 40
1.0
 40
1.0
 40
1.0
 40
1.0
 10
10.2241498865
 20
8.8443190764
 30
0.0
 10
10.2283316452
 20
8.8405201582
 30
0.0
 10
10.2363247147
 20
8.8325024321
 30
0.0
 10
10.247066399
 20
8.8193610864
 30
0.0
 10
10.2564717841
 20
8.8052403344
 30
0.0
 10
10.2644668163
 20
8.7902947418
 30
0.0
 10
10.2710042558
 20
8.7746818613
 30
0.0
 10
10.2760594776
 20
8.7585582167
 30
0.0
 10
10.2796283727
 20
8.7420772381
 30
0.0
 10
10.2810275007
 20
8.7309314566
 30
0.0
 10
10.2814850647
 20
8.7253478241
 30
0.0
  0
SPLINE
  5
3AD
100
AcDbEntity
  8
0
100
AcDbSpline
 62
7
  6
CONTINUOUS
 70
0
 71
3
 72
30
 73
26
 74
0
 42
0.0000001
 43
0.0000001
 44
0.0000000001
 40
0.0
 40
0.0
 40
0.0
 40
0.0
 40
0.0845014966
 40
0.1673013101
 40
0.2480798434
 40
0.3265304463
 40
0.4023579232
 40
0.4752824446
 40
0.5450410293
 40
0.6113903307
 40
0.6741094543
 40
0.70404695
 40
0.7330061004
 40
0.7609675676
 40
0.7879138497
 40
0.8138303613
 40
0.838704866
 40
0.8625286106
 40
0.8852959738
 40
0.9070056157
 40
0.9276605013
 40
0.9472690806
 40
0.9658458554
 40
0.9834126733
 40
1.0
 40
1.0
 40
1.0
 40
1.0
 10
12.1533381217
 20
11.2557819575
 30
0.0
 10
12.1604590583
 20
11.2552881189
 30
0.0
 10
12.174549227
 20
11.2541854006
 30
0.0
 10
12.1954085383
 20
11.2521633984
 30
0.0
 10
12.2157172139
 20
11.2497966867
 30
0.0
 10
12.2353898638
 20
11.2470953573
 30
0.0
 10
12.2543440408
 20
11.244070872
 30
0.0
 10
12.2725002493
 20
11.2407361102
 30
0.0
 10
12.2897825379
 20
11.2371052717
 30
0.0
 10
12.3061184691
 20
11.2331937936
 30
0.0
 10
12.319080161
 20
11.2296616752
 30
0.0
 10
12.3289168675
 20
11.2266973009
 30
0.0
 10
12.3359014633
 20
11.2244488619
 30
0.0
 10
12.3426007391
 20
11.2221432013
 30
0.0
 10
12.3490076907
 20
11.2197826223
 30
0.0
 10
12.3551156475
 20
11.2173697068
 30
0.0
 10
12.3609182321
 20
11.2149068929
 30
0.0
 10
12.3664094364
 20
11.2123968414
 30
0.0
 10
12.371583554
 20
11.2098420873
 30
0.0
 10
12.3764352653
 20
11.2072453413
 30
0.0
 10
12.380959574
 20
11.2046092072
 30
0.0
 10
12.3851518549
 20
11.2019364059
 30
0.0
 10
12.3890078917
 20
11.1992295249
 30
0.0
 10
12.3925235912
 20
11.1964913586
 30
0.0
 10
12.3946992249
 20
11.1945934825
 30
0.0
 10
12.3957249575
 20
11.19363894
 30
0.0
  0
SPLINE
  5
3AE
100
AcDbEntity
  8
0
100
AcDbSpline
 62
7
  6
CONTINUOUS
 70
0
 71
3
 72
31
 73
27
 74
0
 42
0.0000001
 43
0.0000001
 44
0.0000000001
 40
0.0
 40
0.0
 40
0.0
 40
0.0
 40
0.0163461378
 40
0.033702459
 40
0.0520992667
 40
0.0715595504
 40
0.0920984991
 40
0.1137235779
 40
0.1364368338
 40
0.1602352378
 40
0.185111803
 40
0.2110554159
 40
0.2380519787
 40
0.2660841104
 40
0.2951320995
 40
0.3251734806
 40
0.3561839149
 40
0.3881367117
 40
0.4547525902
 40
0.5247760925
 40
0.5979361571
 40
0.673941052
 40
0.7524811601
 40
0.8332314956
 40
0.9158540461
 40
1.0
 40
1.0
 40
1.0
 40
1.0
 10
10.163254988
 20
11.3024936942
 30
0.0
 10
10.1643285913
 20
11.3034927309
 30
0.0
 10
10.166611868
 20
11.3054784742
 30
0.0
 10
10.1703118069
 20
11.3083382701
 30
0.0
 10
10.1743831304
 20
11.3111635036
 30
0.0
 10
10.1788210147
 20
11.3139510634
 30
0.0
 10
10.1836206912
 20
11.3166979833
 30
0.0
 10
10.1887767855
 20
11.3194012894
 30
0.0
 10
10.194283537
 20
11.3220578508
 30
0.0
 10
10.2001347072
 20
11.3246647478
 30
0.0
 10
10.2063237022
 20
11.3272189382
 30
0.0
 10
10.2128434832
 20
11.3297175805
 30
0.0
 10
10.2196866462
 20
11.3321577284
 30
0.0
 10
10.2268453769
 20
11.3345366556
 30
0.0
 10
10.2343115127
 20
11.3368515505
 30
0.0
 10
10.2420765081
 20
11.3390998147
 30
0.0
 10
10.2501314945
 20
11.3412788128
 30
0.0
 10
10.2614028281
 20
11.3441280839
 30
0.0
 10
10.2761534187
 20
11.3474863549
 30
0.0
 10
10.2946183895
 20
11.3511489611
 30
0.0
 10
10.314000987
 20
11.3544810216
 30
0.0
 10
10.3342123553
 20
11.3574670688
 30
0.0
 10
10.3551599593
 20
11.3600931997
 30
0.0
 10
10.3767477899
 20
11.3623472124
 30
0.0
 10
10.3988767499
 20
11.3642186306
 30
0.0
 10
10.4138076529
 20
11.3651978545
 30
0.0
 10
10.421344965
 20
11.3656234848
 30
0.0
  0
SPLINE
  5
3AF
100
AcDbEntity
  8
0
100
AcDbSpline
 62
7
  6
CONTINUOUS
 70
0
 71
3
 72
17
 73
13
 74
0
 42
0.0000001
 43
0.0000001
 44
0.0000000001
 40
0.0
 40
0.0
 40
0.0
 40
0.0
 40
0.1492456212
 40
0.2896712097
 40
0.4219849705
 40
0.485388646
 40
0.5471143004
 40
0.6660672791
 40
0.7801745569
 40
0.8909200468
 40
0.9455686518
 40
1.0
 40
1.0
 40
1.0
 40
1.0
 10
12.4255918556
 20
11.165844659
 30
0.0
 10
12.4266933555
 20
11.164819606
 30
0.0
 10
12.4287691879
 20
11.1627614543
 30
0.0
 10
12.4315639319
 20
11.159548443
 30
0.0
 10
12.4335703276
 20
11.156811133
 30
0.0
 10
12.4349522359
 20
11.1546129598
 30
0.0
 10
12.4361575757
 20
11.1524666466
 30
0.0
 10
12.4374107327
 20
11.1497647039
 30
0.0
 10
12.4385017405
 20
11.146466381
 30
0.0
 10
12.4390510772
 20
11.1436940177
 30
0.0
 10
12.4392683114
 20
11.1414871922
 30
0.0
 10
12.4393044432
 20
11.1403870895
 30
0.0
 10
12.4393044437
 20
11.139838321
 30
0.0
  0
SPLINE
  5
3B0
100
AcDbEntity
  8
0
100
AcDbSpline
 62
7
  6
CONTINUOUS
 70
0
 71
3
 72
16
 73
12
 74
0
 42
0.0000001
 43
0.0000001
 44
0.0000000001
 40
0.0
 40
0.0
 40
0.0
 40
0.0
 40
0.1098864251
 40
0.2213925505
 40
0.3360632443
 40
0.4553048854
 40
0.5170524264
 40
0.5803907344
 40
0.7123015689
 40
0.8519456354
 40
1.0
 40
1.0
 40
1.0
 40
1.0
 10
9.5616614822
 20
10.7096929137
 30
0.0
 10
9.5616614812
 20
10.7107535649
 30
0.0
 10
9.5617977276
 20
10.712892891
 30
0.0
 10
9.5624084088
 20
10.7160865913
 30
0.0
 10
9.5634239427
 20
10.7192700841
 30
0.0
 10
9.5645915721
 20
10.7218804163
 30
0.0
 10
9.5657151664
 20
10.7239547208
 30
0.0
 10
9.5670017191
 20
10.7260766357
 30
0.0
 10
9.5688698431
 20
10.7287202558
 30
0.0
 10
9.5714743415
 20
10.7318268707
 30
0.0
 10
9.5734114196
 20
10.733820276
 30
0.0
 10
9.5744392759
 20
10.734813109
 30
0.0
  0
SPLINE
  5
3B1
100
AcDbEntity
  8
0
100
AcDbSpline
 62
7
  6
CONTINUOUS
 70
0
 71
3
 72
19
 73
15
 74
0
 42
0.0000001
 43
0.0000001
 44
0.0000000001
 40
0.0
 40
0.0
 40
0.0
 40
0.0
 40
0.036940014
 40
0.077247909
 40
0.1210478991
 40
0.1683936008
 40
0.2192940147
 40
0.2737259566
 40
0.3316478867
 40
0.3930060132
 40
0.5257537795
 40
0.671494936
 40
0.8297296005
 40
1.0
 40
1.0
 40
1.0
 40
1.0
 10
10.5414600837
 20
7.485887033
 30
0.0
 10
10.5411797647
 20
7.4857879286
 30
0.0
 10
10.5405799088
 20
7.4856183614
 30
0.0
 10
10.5396186807
 20
7.4854514037
 30
0.0
 10
10.5385631644
 20
7.4853625309
 30
0.0
 10
10.5374189494
 20
7.4853535944
 30
0.0
 10
10.5361914062
 20
7.4854262206
 30
0.0
 10
10.5348859865
 20
7.4855821392
 30
0.0
 10
10.5335080564
 20
7.4858229067
 30
0.0
 10
10.5315289458
 20
7.486271053
 30
0.0
 10
10.5289067032
 20
7.4870627881
 30
0.0
 10
10.525631662
 20
7.4883486389
 30
0.0
 10
10.5221884722
 20
7.4900035544
 30
0.0
 10
10.5198878128
 20
7.4913113251
 30
0.0
 10
10.5187182725
 20
7.4920257207
 30
0.0
  0
SPLINE
  5
3B2
100
AcDbEntity
  8
0
100
AcDbSpline
 62
7
  6
CONTINUOUS
 70
0
 71
3
 72
9
 73
5
 74
0
 42
0.0000001
 43
0.0000001
 44
0.0000000001
 40
0.0
 40
0.0
 40
0.0
 40
0.0
 40
0.4857160066
 40
1.0
 40
1.0
 40
1.0
 40
1.0
 10
10.5187182725
 20
7.4920257207
 30
0.0
 10
10.517539111
 20
7.4927459933
 30
0.0
 10
10.5151580667
 20
7.4943062624
 30
0.0
 10
10.5128732656
 20
7.496004011
 30
0.0
 10
10.5117235442
 20
7.4969087459
 30
0.0
  0
SPLINE
  5
3B3
100
AcDbEntity
  8
0
100
AcDbSpline
 62
7
  6
CONTINUOUS
 70
0
 71
3
 72
18
 73
14
 74
0
 42
0.0000001
 43
0.0000001
 44
0.0000000001
 40
0.0
 40
0.0
 40
0.0
 40
0.0
 40
0.0548626755
 40
0.1099292576
 40
0.1654013202
 40
0.2214755501
 40
0.3361333804
 40
0.4553634196
 40
0.5171048815
 40
0.5804365284
 40
0.7123311193
 40
0.8519577055
 40
1.0
 40
1.0
 40
1.0
 40
1.0
 10
11.5803757275
 20
10.9937429639
 30
0.0
 10
11.5803757292
 20
10.9929803298
 30
0.0
 10
11.5803273355
 20
10.9914517868
 30
0.0
 10
11.5801097275
 20
10.9891614694
 30
0.0
 10
11.5797470587
 20
10.9868724272
 30
0.0
 10
11.5790655877
 20
10.9838010409
 30
0.0
 10
11.5778378877
 20
10.9799515339
 30
0.0
 10
11.5761564247
 20
10.976192907
 30
0.0
 10
11.5745384659
 20
10.973205822
 30
0.0
 10
11.5726858307
 20
10.97015028
 30
0.0
 10
11.5699957628
 20
10.9663434979
 30
0.0
 10
11.5662453128
 20
10.961869936
 30
0.0
 10
11.5634558761
 20
10.9589994282
 30
0.0
 10
11.5619757195
 20
10.9575697067
 30
0.0
  0
SPLINE
  5
3B4
100
AcDbEntity
  8
0
100
AcDbSpline
 62
7
  6
CONTINUOUS
 70
0
 71
3
 72
17
 73
13
 74
0
 42
0.0000001
 43
0.0000001
 44
0.0000000001
 40
0.0
 40
0.0
 40
0.0
 40
0.0
 40
0.0544313482
 40
0.1090799532
 40
0.2198254431
 40
0.3339327209
 40
0.4528856996
 40
0.514611354
 40
0.5780150295
 40
0.7103287903
 40
0.8507543788
 40
1.0
 40
1.0
 40
1.0
 40
1.0
 10
9.5616614822
 20
5.4569879591
 30
0.0
 10
9.5616614827
 20
5.4564391906
 30
0.0
 10
9.5616976145
 20
5.4553390878
 30
0.0
 10
9.5619148487
 20
5.4531322624
 30
0.0
 10
9.5624641853
 20
5.4503598991
 30
0.0
 10
9.5635551932
 20
5.4470615762
 30
0.0
 10
9.5648083502
 20
5.4443596335
 30
0.0
 10
9.56601369
 20
5.4422133203
 30
0.0
 10
9.5673955983
 20
5.4400151471
 30
0.0
 10
9.569401994
 20
5.4372778371
 30
0.0
 10
9.572196738
 20
5.4340648258
 30
0.0
 10
9.5742725704
 20
5.4320066741
 30
0.0
 10
9.5753740702
 20
5.430981621
 30
0.0
  0
SPLINE
  5
3B5
100
AcDbEntity
  8
0
100
AcDbSpline
 62
7
  6
CONTINUOUS
 70
0
 71
3
 72
23
 73
19
 74
0
 42
0.0000001
 43
0.0000001
 44
0.0000000001
 40
0.0
 40
0.0
 40
0.0
 40
0.0
 40
0.061844443
 40
0.1237672877
 40
0.1857742213
 40
0.2478701482
 40
0.3100588851
 40
0.3723432743
 40
0.4347249394
 40
0.4972040302
 40
0.5597791111
 40
0.6224469689
 40
0.6852025944
 40
0.74803912
 40
0.8109482673
 40
0.8739189422
 40
0.9369413757
 40
1.0
 40
1.0
 40
1.0
 40
1.0
 10
10.0594036802
 20
8.8843768565
 30
0.0
 10
10.0629433389
 20
8.8852093495
 30
0.0
 10
10.0700735215
 20
8.8866850553
 30
0.0
 10
10.0808798526
 20
8.8883121754
 30
0.0
 10
10.091775064
 20
8.8893385365
 30
0.0
 10
10.1027265636
 20
8.8897491569
 30
0.0
 10
10.1137001274
 20
8.889530617
 30
0.0
 10
10.1246592325
 20
8.8886712548
 30
0.0
 10
10.1355652825
 20
8.8871616348
 30
0.0
 10
10.1463776729
 20
8.884994971
 30
0.0
 10
10.1570540081
 20
8.8821675996
 30
0.0
 10
10.1675504209
 20
8.8786794468
 30
0.0
 10
10.1778219725
 20
8.8745344142
 30
0.0
 10
10.1878232199
 20
8.8697407427
 30
0.0
 10
10.1975086655
 20
8.8643112742
 30
0.0
 10
10.2068338636
 20
8.8582634989
 30
0.0
 10
10.215754986
 20
8.8516201056
 30
0.0
 10
10.2214055886
 20
8.8468121335
 30
0.0
 10
10.2241498865
 20
8.8443190764
 30
0.0
  0
SPLINE
  5
3B6
100
AcDbEntity
  8
0
100
AcDbSpline
 62
7
  6
CONTINUOUS
 70
0
 71
3
 72
30
 73
26
 74
0
 42
0.0000001
 43
0.0000001
 44
0.0000000001
 40
0.0
 40
0.0
 40
0.0
 40
0.0
 40
0.0165873267
 40
0.0341541446
 40
0.0527309194
 40
0.0723394987
 40
0.0929943843
 40
0.1147040262
 40
0.1374713894
 40
0.161295134
 40
0.1861696387
 40
0.2120861503
 40
0.2390324324
 40
0.2669938996
 40
0.29595305
 40
0.3258905457
 40
0.3886096693
 40
0.4549589707
 40
0.5247175554
 40
0.5976420768
 40
0.6734695537
 40
0.7519201566
 40
0.8326986899
 40
0.9154985034
 40
1.0
 40
1.0
 40
1.0
 40
1.0
 10
9.6052409684
 20
5.4031873401
 30
0.0
 10
9.606266701
 20
5.4022327976
 30
0.0
 10
9.6084423347
 20
5.4003349215
 30
0.0
 10
9.6119580341
 20
5.3975967552
 30
0.0
 10
9.615814071
 20
5.3948898742
 30
0.0
 10
9.6200063519
 20
5.3922170729
 30
0.0
 10
9.6245306606
 20
5.3895809388
 30
0.0
 10
9.6293823719
 20
5.3869841928
 30
0.0
 10
9.6345564895
 20
5.3844294387
 30
0.0
 10
9.6400476938
 20
5.3819193872
 30
0.0
 10
9.6458502784
 20
5.3794565733
 30
0.0
 10
9.6519582352
 20
5.3770436578
 30
0.0
 10
9.6583651868
 20
5.3746830788
 30
0.0
 10
9.6650644626
 20
5.3723774182
 30
0.0
 10
9.6720490584
 20
5.3701289791
 30
0.0
 10
9.6818857649
 20
5.3671646049
 30
0.0
 10
9.6948474567
 20
5.3636324865
 30
0.0
 10
9.711183388
 20
5.3597210084
 30
0.0
 10
9.7284656766
 20
5.3560901699
 30
0.0
 10
9.746621885
 20
5.3527554081
 30
0.0
 10
9.7655760621
 20
5.3497309228
 30
0.0
 10
9.785248712
 20
5.3470295934
 30
0.0
 10
9.8055573876
 20
5.3446628817
 30
0.0
 10
9.8264166989
 20
5.3426408795
 30
0.0
 10
9.8405068676
 20
5.3415381612
 30
0.0
 10
9.8476278042
 20
5.3410443226
 30
0.0
  0
SPLINE
  5
3B7
100
AcDbEntity
  8
0
100
AcDbSpline
 62
7
  6
CONTINUOUS
 70
0
 71
3
 72
15
 73
11
 74
0
 42
0.0000001
 43
0.0000001
 44
0.0000000001
 40
0.0
 40
0.0
 40
0.0
 40
0.0
 40
0.1233171305
 40
0.2468171932
 40
0.3706749987
 40
0.4950495698
 40
0.6200773368
 40
0.7458670832
 40
0.8724927373
 40
1.0
 40
1.0
 40
1.0
 40
1.0
 10
9.6470542326
 20
7.1270164406
 30
0.0
 10
9.6502070876
 20
7.1300618737
 30
0.0
 10
9.6568511614
 20
7.1358223038
 30
0.0
 10
9.6676949314
 20
7.1433496393
 30
0.0
 10
9.6793144038
 20
7.1496950838
 30
0.0
 10
9.6915906337
 20
7.1547934408
 30
0.0
 10
9.7043998035
 20
7.1585940467
 30
0.0
 10
9.7176128715
 20
7.1610589262
 30
0.0
 10
9.7310949601
 20
7.1621640983
 30
0.0
 10
9.7401447937
 20
7.1619875814
 30
0.0
 10
9.7446663884
 20
7.1616740077
 30
0.0
  0
SPLINE
  5
3B8
100
AcDbEntity
  8
0
100
AcDbSpline
 62
7
  6
CONTINUOUS
 70
0
 71
3
 72
15
 73
11
 74
0
 42
0.0000001
 43
0.0000001
 44
0.0000000001
 40
0.0
 40
0.0
 40
0.0
 40
0.0
 40
0.1233171305
 40
0.2468171932
 40
0.3706749987
 40
0.4950495698
 40
0.6200773368
 40
0.7458670832
 40
0.8724927373
 40
1.0
 40
1.0
 40
1.0
 40
1.0
 10
11.3973118246
 20
7.0056356643
 30
0.0
 10
11.4004646796
 20
7.0086810975
 30
0.0
 10
11.4071087534
 20
7.0144415275
 30
0.0
 10
11.4179525234
 20
7.021968863
 30
0.0
 10
11.4295719959
 20
7.0283143075
 30
0.0
 10
11.4418482257
 20
7.0334126645
 30
0.0
 10
11.4546573955
 20
7.0372132705
 30
0.0
 10
11.4678704635
 20
7.0396781499
 30
0.0
 10
11.4813525521
 20
7.040783322
 30
0.0
 10
11.4904023857
 20
7.0406068051
 30
0.0
 10
11.4949239804
 20
7.0402932315
 30
0.0
  0
SPLINE
  5
3B9
100
AcDbEntity
  8
0
100
AcDbSpline
 62
7
  6
CONTINUOUS
 70
0
 71
3
 72
15
 73
11
 74
0
 42
0.0000001
 43
0.0000001
 44
0.0000000001
 40
0.0
 40
0.0
 40
0.0
 40
0.0
 40
0.1233171305
 40
0.2468171932
 40
0.3706749987
 40
0.4950495698
 40
0.6200773368
 40
0.7458670832
 40
0.8724927373
 40
1.0
 40
1.0
 40
1.0
 40
1.0
 10
11.3973118246
 20
9.0582281668
 30
0.0
 10
11.4004646796
 20
9.0612736
 30
0.0
 10
11.4071087534
 20
9.06703403
 30
0.0
 10
11.4179525234
 20
9.0745613655
 30
0.0
 10
11.4295719959
 20
9.08090681
 30
0.0
 10
11.4418482257
 20
9.086005167
 30
0.0
 10
11.4546573955
 20
9.089805773
 30
0.0
 10
11.4678704635
 20
9.0922706524
 30
0.0
 10
11.4813525521
 20
9.0933758245
 30
0.0
 10
11.4904023857
 20
9.0931993076
 30
0.0
 10
11.4949239804
 20
9.092885734
 30
0.0
  0
SPLINE
  5
3BA
100
AcDbEntity
  8
0
100
AcDbSpline
 62
7
  6
CONTINUOUS
 70
0
 71
3
 72
23
 73
19
 74
0
 42
0.0000001
 43
0.0000001
 44
0.0000000001
 40
0.0
 40
0.0
 40
0.0
 40
0.0
 40
0.0622034268
 40
0.1242632959
 40
0.1862158416
 40
0.2481002219
 40
0.3099577204
 40
0.3718309404
 40
0.4337631736
 40
0.495797428
 40
0.5579752612
 40
0.6203358567
 40
0.682914992
 40
0.7457444025
 40
0.8088507907
 40
0.8722522331
 40
0.9359698982
 40
1.0
 40
1.0
 40
1.0
 40
1.0
 10
11.3369732328
 20
9.4256005465
 30
0.0
 10
11.337742172
 20
9.4271122229
 30
0.0
 10
11.3393845022
 20
9.4300794389
 30
0.0
 10
11.3421536155
 20
9.4343399674
 30
0.0
 10
11.3452151364
 20
9.4383849955
 30
0.0
 10
11.3485570044
 20
9.4421943543
 30
0.0
 10
11.3521658341
 20
9.4457488735
 30
0.0
 10
11.3560266109
 20
9.4490301001
 30
0.0
 10
11.36012281
 20
9.4520205182
 30
0.0
 10
11.3644363742
 20
9.4547036771
 30
0.0
 10
11.3689477091
 20
9.4570644225
 30
0.0
 10
11.3736357377
 20
9.459089098
 30
0.0
 10
11.3784780251
 20
9.4607656818
 30
0.0
 10
11.3834509141
 20
9.4620839444
 30
0.0
 10
11.3885295474
 20
9.4630355928
 30
0.0
 10
11.3936884262
 20
9.4636146877
 30
0.0
 10
11.3989006373
 20
9.4638171469
 30
0.0
 10
11.4023853378
 20
9.4637003747
 30
0.0
 10
11.4041269648
 20
9.4635795925
 30
0.0
  0
SPLINE
  5
3BB
100
AcDbEntity
  8
0
100
AcDbSpline
 62
7
  6
CONTINUOUS
 70
0
 71
3
 72
25
 73
21
 74
0
 42
0.0000001
 43
0.0000001
 44
0.0000000001
 40
0.0
 40
0.0
 40
0.0
 40
0.0
 40
0.0601461211
 40
0.1207171529
 40
0.1817754277
 40
0.2433529525
 40
0.3054514118
 40
0.3680430209
 40
0.4310722732
 40
0.4944581504
 40
0.5580973186
 40
0.621868498
 40
0.6856377709
 40
0.7492661159
 40
0.8126181231
 40
0.8755720747
 40
0.9068851442
 40
0.9380640431
 40
0.9691058569
 40
1.0
 40
1.0
 40
1.0
 40
1.0
 10
11.0359703326
 20
9.357743539
 30
0.0
 10
11.0389136923
 20
9.3590630809
 30
0.0
 10
11.0450048559
 20
9.3613206346
 30
0.0
 10
11.0545321224
 20
9.3635025048
 30
0.0
 10
11.0643359735
 20
9.3644698274
 30
0.0
 10
11.0742647793
 20
9.3642132043
 30
0.0
 10
11.0841695348
 20
9.3627390584
 30
0.0
 10
11.0939008465
 20
9.3600678393
 30
0.0
 10
11.1033101031
 20
9.3562345229
 30
0.0
 10
11.1122498669
 20
9.3512893833
 30
0.0
 10
11.1205749965
 20
9.3452989074
 30
0.0
 10
11.1281442211
 20
9.3383467459
 30
0.0
 10
11.1348227907
 20
9.3305350218
 30
0.0
 10
11.1404855609
 20
9.3219839981
 30
0.0
 10
11.1450207015
 20
9.3128337929
 30
0.0
 10
11.1477885079
 20
9.3048194748
 30
0.0
 10
11.1493522117
 20
9.2982719919
 30
0.0
 10
11.1501937743
 20
9.2933229608
 30
0.0
 10
11.15070079
 20
9.2883515182
 30
0.0
 10
11.1508143677
 20
9.2850288356
 30
0.0
 10
11.1508143677
 20
9.2833719966
 30
0.0
  0
SPLINE
  5
3BC
100
AcDbEntity
  8
0
100
AcDbSpline
 62
7
  6
CONTINUOUS
 70
0
 71
3
 72
15
 73
11
 74
0
 42
0.0000001
 43
0.0000001
 44
0.0000000001
 40
0.0
 40
0.0
 40
0.0
 40
0.0
 40
0.1233171305
 40
0.2468171932
 40
0.3706749987
 40
0.4950495698
 40
0.6200773368
 40
0.7458670832
 40
0.8724927373
 40
1.0
 40
1.0
 40
1.0
 40
1.0
 10
9.6470542326
 20
9.1796089431
 30
0.0
 10
9.6502070876
 20
9.1826543762
 30
0.0
 10
9.6568511614
 20
9.1884148063
 30
0.0
 10
9.6676949314
 20
9.1959421418
 30
0.0
 10
9.6793144038
 20
9.2022875862
 30
0.0
 10
9.6915906337
 20
9.2073859433
 30
0.0
 10
9.7043998035
 20
9.2111865492
 30
0.0
 10
9.7176128715
 20
9.2136514286
 30
0.0
 10
9.7310949601
 20
9.2147566008
 30
0.0
 10
9.7401447937
 20
9.2145800839
 30
0.0
 10
9.7446663884
 20
9.2142665102
 30
0.0
  0
SPLINE
  5
3BD
100
AcDbEntity
  8
0
100
AcDbSpline
 62
7
  6
CONTINUOUS
 70
0
 71
3
 72
15
 73
11
 74
0
 42
0.0000001
 43
0.0000001
 44
0.0000000001
 40
0.0
 40
0.0
 40
0.0
 40
0.0
 40
0.1233171376
 40
0.2468171981
 40
0.3706749826
 40
0.4950495853
 40
0.6200772313
 40
0.7458671002
 40
0.8724930137
 40
1.0
 40
1.0
 40
1.0
 40
1.0
 10
9.7812725057
 20
9.5504680963
 30
0.0
 10
9.7830228549
 20
9.5521588231
 30
0.0
 10
9.7867113775
 20
9.5553568575
 30
0.0
 10
9.7927314388
 20
9.5595358129
 30
0.0
 10
9.7991821496
 20
9.5630586202
 30
0.0
 10
9.8059974765
 20
9.5658890749
 30
0.0
 10
9.8131086733
 20
9.5679990821
 30
0.0
 10
9.8204441142
 20
9.5693675218
 30
0.0
 10
9.8279289061
 20
9.5699810824
 30
0.0
 10
9.832953061
 20
9.5698830871
 30
0.0
 10
9.8354632888
 20
9.5697090022
 30
0.0
  0
SPLINE
  5
3BE
100
AcDbEntity
  8
0
100
AcDbSpline
 62
7
  6
CONTINUOUS
 70
0
 71
3
 72
23
 73
19
 74
0
 42
0.0000001
 43
0.0000001
 44
0.0000000001
 40
0.0
 40
0.0
 40
0.0
 40
0.0
 40
0.0615190791
 40
0.1233245745
 40
0.1853926377
 40
0.2476950936
 40
0.3101990119
 40
0.3728680131
 40
0.4356632183
 40
0.4985442558
 40
0.561470191
 40
0.6244003783
 40
0.6872952156
 40
0.7501167919
 40
0.8128294596
 40
0.8754002077
 40
0.9377993002
 40
1.0
 40
1.0
 40
1.0
 40
1.0
 10
10.700183604
 20
7.8053852308
 30
0.0
 10
10.7050255662
 20
7.8045375413
 30
0.0
 10
10.7146732078
 20
7.8024808996
 30
0.0
 10
10.7289116332
 20
7.7983495115
 30
0.0
 10
10.7428781347
 20
7.7931906373
 30
0.0
 10
10.7564970079
 20
7.7870381348
 30
0.0
 10
10.7696974879
 20
7.7799314453
 30
0.0
 10
10.7824125486
 20
7.7719153201
 30
0.0
 10
10.7945797551
 20
7.7630389996
 30
0.0
 10
10.8061414075
 20
7.7533555345
 30
0.0
 10
10.8170447171
 20
7.7429210864
 30
0.0
 10
10.8272418349
 20
7.7317942818
 30
0.0
 10
10.8366897955
 20
7.7200356306
 30
0.0
 10
10.8453504002
 20
7.7077069867
 30
0.0
 10
10.8531899989
 20
7.6948711977
 30
0.0
 10
10.8601794055
 20
7.6815914099
 30
0.0
 10
10.8662932135
 20
7.6679320141
 30
0.0
 10
10.8697778034
 20
7.6585972672
 30
0.0
 10
10.8713667499
 20
7.653888038
 30
0.0
  0
SPLINE
  5
3BF
100
AcDbEntity
  8
0
100
AcDbSpline
 62
7
  6
CONTINUOUS
 70
0
 71
3
 72
15
 73
11
 74
0
 42
0.0000001
 43
0.0000001
 44
0.0000000001
 40
0.0
 40
0.0
 40
0.0
 40
0.0
 40
0.0986492982
 40
0.206362482
 40
0.3226124447
 40
0.4465854906
 40
0.5773024755
 40
0.7137368639
 40
0.8549277762
 40
1.0
 40
1.0
 40
1.0
 40
1.0
 10
10.5177302875
 20
7.4905124093
 30
0.0
 10
10.5164441677
 20
7.4917547134
 30
0.0
 10
10.5138309765
 20
7.4944342991
 30
0.0
 10
10.5099785382
 20
7.498837088
 30
0.0
 10
10.5060747092
 20
7.503793912
 30
0.0
 10
10.5021820955
 20
7.5092795756
 30
0.0
 10
10.4983640306
 20
7.5152564909
 30
0.0
 10
10.4946800638
 20
7.5216794799
 30
0.0
 10
10.4911835249
 20
7.528500006
 30
0.0
 10
10.4890328629
 20
7.5332245943
 30
0.0
 10
10.4879984121
 20
7.5356421817
 30
0.0
  0
SPLINE
  5
3C0
100
AcDbEntity
  8
0
100
AcDbSpline
 62
7
  6
CONTINUOUS
 70
0
 71
3
 72
25
 73
21
 74
0
 42
0.0000001
 43
0.0000001
 44
0.0000000001
 40
0.0
 40
0.0
 40
0.0
 40
0.0
 40
0.0601461211
 40
0.1207171529
 40
0.1817754277
 40
0.2433529525
 40
0.3054514118
 40
0.3680430209
 40
0.4310722732
 40
0.4944581504
 40
0.5580973186
 40
0.621868498
 40
0.6856377709
 40
0.7492661159
 40
0.8126181231
 40
0.8755720747
 40
0.9068851442
 40
0.9380640431
 40
0.9691058569
 40
1.0
 40
1.0
 40
1.0
 40
1.0
 10
11.0359703326
 20
6.7014475896
 30
0.0
 10
11.0389136923
 20
6.7027671315
 30
0.0
 10
11.0450048559
 20
6.7050246852
 30
0.0
 10
11.0545321224
 20
6.7072065554
 30
0.0
 10
11.0643359735
 20
6.7081738781
 30
0.0
 10
11.0742647793
 20
6.707917255
 30
0.0
 10
11.0841695348
 20
6.706443109
 30
0.0
 10
11.0939008465
 20
6.70377189
 30
0.0
 10
11.1033101031
 20
6.6999385735
 30
0.0
 10
11.1122498669
 20
6.6949934339
 30
0.0
 10
11.1205749965
 20
6.689002958
 30
0.0
 10
11.1281442211
 20
6.6820507965
 30
0.0
 10
11.1348227907
 20
6.6742390724
 30
0.0
 10
11.1404855609
 20
6.6656880487
 30
0.0
 10
11.1450207015
 20
6.6565378435
 30
0.0
 10
11.1477885079
 20
6.6485235254
 30
0.0
 10
11.1493522117
 20
6.6419760425
 30
0.0
 10
11.1501937743
 20
6.6370270114
 30
0.0
 10
11.15070079
 20
6.6320555688
 30
0.0
 10
11.1508143677
 20
6.6287328862
 30
0.0
 10
11.1508143677
 20
6.6270760472
 30
0.0
  0
SPLINE
  5
3C1
100
AcDbEntity
  8
0
100
AcDbSpline
 62
7
  6
CONTINUOUS
 70
0
 71
3
 72
35
 73
31
 74
0
 42
0.0000001
 43
0.0000001
 44
0.0000000001
 40
0.0
 40
0.0
 40
0.0
 40
0.0
 40
0.032510667
 40
0.0650131167
 40
0.0974823593
 40
0.1298959861
 40
0.194443621
 40
0.2585701771
 40
0.2904641245
 40
0.3222231665
 40
0.3538421964
 40
0.3853181256
 40
0.447803692
 40
0.5097296161
 40
0.5405167555
 40
0.5711870252
 40
0.6017531541
 40
0.6322307501
 40
0.6626384277
 40
0.6929977926
 40
0.7233333104
 40
0.753672159
 40
0.7840437439
 40
0.8144788925
 40
0.8450087595
 40
0.8756633602
 40
0.9064700951
 40
0.9374516527
 40
0.9686252807
 40
1.0
 40
1.0
 40
1.0
 40
1.0
 10
9.8814907607
 20
6.6603417394
 30
0.0
 10
9.8830735672
 20
6.6588611941
 30
0.0
 10
9.8861274061
 20
6.65577892
 30
0.0
 10
9.8903513213
 20
6.6508330728
 30
0.0
 10
9.8942046682
 20
6.6456009315
 30
0.0
 10
9.8988234705
 20
6.6383057944
 30
0.0
 10
9.9036187645
 20
6.6286575578
 30
0.0
 10
9.9070748631
 20
6.6184916924
 30
0.0
 10
9.9090112532
 20
6.6101910509
 30
0.0
 10
9.9100476586
 20
6.6039201391
 30
0.0
 10
9.9106690229
 20
6.5976225888
 30
0.0
 10
9.9109427548
 20
6.5892502347
 30
0.0
 10
9.9102525775
 20
6.578848148
 30
0.0
 10
9.9081698932
 20
6.5686774636
 30
0.0
 10
9.9056760652
 20
6.5608330317
 30
0.0
 10
9.9033992179
 20
6.5551303676
 30
0.0
 10
9.9007164933
 20
6.5496299456
 30
0.0
 10
9.8976330398
 20
6.5443635866
 30
0.0
 10
9.8941559615
 20
6.5393647855
 30
0.0
 10
9.890294729
 20
6.5346681679
 30
0.0
 10
9.8860617869
 20
6.5303094464
 30
0.0
 10
9.8814731386
 20
6.526325062
 30
0.0
 10
9.8765489645
 20
6.5227516693
 30
0.0
 10
9.8713142009
 20
6.5196253865
 30
0.0
 10
9.8657990071
 20
6.5169808362
 30
0.0
 10
9.8600390077
 20
6.51484994
 30
0.0
 10
9.854075336
 20
6.5132606414
 30
0.0
 10
9.8479539095
 20
6.5122354719
 30
0.0
 10
9.8417257813
 20
6.5117903608
 30
0.0
 10
9.8375498726
 20
6.5118856482
 30
0.0
 10
9.8354632888
 20
6.5120303533
 30
0.0
  0
SPLINE
  5
3C2
100
AcDbEntity
  8
0
100
AcDbSpline
 62
7
  6
CONTINUOUS
 70
0
 71
3
 72
39
 73
35
 74
0
 42
0.0000001
 43
0.0000001
 44
0.0000000001
 40
0.0
 40
0.0
 40
0.0
 40
0.0
 40
0.0309343349
 40
0.0620689466
 40
0.0934035654
 40
0.1249310019
 40
0.1566377269
 40
0.1885046745
 40
0.2205081858
 40
0.252620978
 40
0.2848131231
 40
0.3170530103
 40
0.3493082645
 40
0.3815465763
 40
0.4137364818
 40
0.4458480928
 40
0.4778537794
 40
0.5097288036
 40
0.5414519266
 40
0.5730059916
 40
0.6043784687
 40
0.635561953
 40
0.6665546067
 40
0.6973605019
 40
0.7279898167
 40
0.7584588525
 40
0.7887898403
 40
0.8190104653
 40
0.8491530767
 40
0.879253621
 40
0.9093503161
 40
0.9394821329
 40
0.9696866527
 40
1.0
 40
1.0
 40
1.0
 40
1.0
 10
11.2110915177
 20
8.1626772598
 30
0.0
 10
11.2174717889
 20
8.1634246731
 30
0.0
 10
11.2303537534
 20
8.1643099869
 30
0.0
 10
11.2497705525
 20
8.1638142643
 30
0.0
 10
11.2691820145
 20
8.1615141063
 30
0.0
 10
11.288420123
 20
8.1574400817
 30
0.0
 10
11.307324577
 20
8.1516385763
 30
0.0
 10
11.3257404793
 20
8.1441700184
 30
0.0
 10
11.3435205529
 20
8.1351076689
 30
0.0
 10
11.3605257065
 20
8.1245360704
 30
0.0
 10
11.3766256848
 20
8.1125496757
 30
0.0
 10
11.3916994261
 20
8.0992516018
 30
0.0
 10
11.4056353231
 20
8.0847525639
 30
0.0
 10
11.4183312615
 20
8.0691698487
 30
0.0
 10
11.4296946347
 20
8.0526265158
 30
0.0
 10
11.4396423326
 20
8.035250736
 30
0.0
 10
11.4481008095
 20
8.0171752839
 30
0.0
 10
11.4550061215
 20
7.9985370721
 30
0.0
 10
11.4603040676
 20
7.9794767769
 30
0.0
 10
11.4639504381
 20
7.9601384973
 30
0.0
 10
11.4659114295
 20
7.9406694097
 30
0.0
 10
11.4661641387
 20
7.9212193449
 30
0.0
 10
11.4646971215
 20
7.9019402659
 30
0.0
 10
11.4615110772
 20
7.8829856177
 30
0.0
 10
11.456619652
 20
7.86450948
 30
0.0
 10
11.4500502267
 20
7.8466654816
 30
0.0
 10
11.4418445673
 20
7.8296054988
 30
0.0
 10
11.432059409
 20
7.8134781143
 30
0.0
 10
11.4207669798
 20
7.7984267667
 30
0.0
 10
11.4080549758
 20
7.7845877401
 30
0.0
 10
11.3940264967
 20
7.7720881981
 30
0.0
 10
11.3787985067
 20
7.7610437355
 30
0.0
 10
11.3625042605
 20
7.7515573891
 30
0.0
 10
11.3510446693
 20
7.7463390113
 30
0.0
 10
11.3451938423
 20
7.7440164821
 30
0.0
  0
SPLINE
  5
3C3
100
AcDbEntity
  8
0
100
AcDbSpline
 62
7
  6
CONTINUOUS
 70
0
 71
3
 72
34
 73
30
 74
0
 42
0.0000001
 43
0.0000001
 44
0.0000000001
 40
0.0
 40
0.0
 40
0.0
 40
0.0
 40
0.0603307435
 40
0.1209872311
 40
0.1514541633
 40
0.1820118736
 40
0.2126624769
 40
0.2434076322
 40
0.3051699306
 40
0.3673167061
 40
0.3985408987
 40
0.4298579988
 40
0.4927405783
 40
0.5559475884
 40
0.6194251098
 40
0.6512544201
 40
0.6831207741
 40
0.7150099769
 40
0.7469059777
 40
0.7787909449
 40
0.8106454859
 40
0.8424490567
 40
0.8583275228
 40
0.8741853035
 40
0.9058237846
 40
0.9373494276
 40
0.9530666805
 40
0.9687500257
 40
1.0
 40
1.0
 40
1.0
 40
1.0
 10
10.5919083788
 20
8.5478960225
 30
0.0
 10
10.5990865305
 20
8.5504365654
 30
0.0
 10
10.6137349245
 20
8.5548415711
 30
0.0
 10
10.6324995874
 20
8.5586287698
 30
0.0
 10
10.6477298579
 20
8.560636834
 30
0.0
 10
10.659261689
 20
8.5616304825
 30
0.0
 10
10.6708615854
 20
8.5621066793
 30
0.0
 10
10.6864098744
 20
8.5620477526
 30
0.0
 10
10.7059077056
 20
8.5606588601
 30
0.0
 10
10.7252610408
 20
8.557505321
 30
0.0
 10
10.7405868337
 20
8.5539085369
 30
0.0
 10
10.7558171651
 20
8.5495748713
 30
0.0
 10
10.7745214334
 20
8.5427796591
 30
0.0
 10
10.7961300495
 20
8.5324185664
 30
0.0
 10
10.8132149054
 20
8.5219286227
 30
0.0
 10
10.8261640944
 20
8.5124328004
 30
0.0
 10
10.8354796358
 20
8.5047564511
 30
0.0
 10
10.8443381159
 20
8.4965443186
 30
0.0
 10
10.8526881029
 20
8.487811651
 30
0.0
 10
10.8604761758
 20
8.4785793413
 30
0.0
 10
10.8676480962
 20
8.4688748335
 30
0.0
 10
10.8730701989
 20
8.4604167678
 30
0.0
 10
10.8770467071
 20
8.4534509866
 30
0.0
 10
10.8807696429
 20
8.4463699736
 30
0.0
 10
10.8849430109
 20
8.4373017713
 30
0.0
 10
10.8884458527
 20
8.4279725041
 30
0.0
 10
10.8908226122
 20
8.4203926565
 30
0.0
 10
10.8929068985
 20
8.4127637161
 30
0.0
 10
10.8941462924
 20
8.4069637009
 30
0.0
 10
10.8948231542
 20
8.4030780867
 30
0.0
  0
SPLINE
  5
3C4
100
AcDbEntity
  8
0
100
AcDbSpline
 62
7
  6
CONTINUOUS
 70
0
 71
3
 72
37
 73
33
 74
0
 42
0.0000001
 43
0.0000001
 44
0.0000000001
 40
0.0
 40
0.0
 40
0.0
 40
0.0
 40
0.0761050845
 40
0.1533648988
 40
0.2310960984
 40
0.3086083866
 40
0.3852143172
 40
0.460236943
 40
0.4969486828
 40
0.5330195787
 40
0.5683715597
 40
0.6029287238
 40
0.636617645
 40
0.6693677084
 40
0.701111364
 40
0.7317844435
 40
0.7613265775
 40
0.7896816495
 40
0.8167982013
 40
0.8426299832
 40
0.867136707
 40
0.8902849316
 40
0.9120490482
 40
0.9324127275
 40
0.9420681197
 40
0.9513725865
 40
0.9603276517
 40
0.9689358333
 40
0.9772011877
 40
0.9851290725
 40
0.9927260547
 40
1.0
 40
1.0
 40
1.0
 40
1.0
 10
11.4092339811
 20
5.2543838511
 30
0.0
 10
11.4211415889
 20
5.2535580557
 30
0.0
 10
11.4451611541
 20
5.2522196625
 30
0.0
 10
11.4813934636
 20
5.2511372863
 30
0.0
 10
11.5178624525
 20
5.2509696244
 30
0.0
 10
11.5542215693
 20
5.2517182579
 30
0.0
 10
11.5901253202
 20
5.2533760421
 30
0.0
 10
11.6195906629
 20
5.2555166409
 30
0.0
 10
11.6426715699
 20
5.2576815669
 30
0.0
 10
11.6595332027
 20
5.2595083549
 30
0.0
 10
11.6760302987
 20
5.2615454307
 30
0.0
 10
11.6921236652
 20
5.2637879571
 30
0.0
 10
11.7077750406
 20
5.2662305607
 30
0.0
 10
11.7229472436
 20
5.2688673789
 30
0.0
 10
11.7376042417
 20
5.2716920897
 30
0.0
 10
11.7517112382
 20
5.2746979306
 30
0.0
 10
11.7652347716
 20
5.2778776997
 30
0.0
 10
11.778142809
 20
5.2812237599
 30
0.0
 10
11.7904048135
 20
5.2847280883
 30
0.0
 10
11.8019918327
 20
5.2883823033
 30
0.0
 10
11.8128765677
 20
5.2921776682
 30
0.0
 10
11.8230335787
 20
5.2961051345
 30
0.0
 10
11.832438958
 20
5.3001553647
 30
0.0
 10
11.839757081
 20
5.3036848991
 30
0.0
 10
11.8452082595
 20
5.3065709853
 30
0.0
 10
11.8490223282
 20
5.3087217737
 30
0.0
 10
11.8526327338
 20
5.3108959505
 30
0.0
 10
11.8560373511
 20
5.3130923555
 30
0.0
 10
11.8592342501
 20
5.315309696
 30
0.0
 10
11.8622216014
 20
5.3175467836
 30
0.0
 10
11.8649974872
 20
5.3198022413
 30
0.0
 10
11.8667432952
 20
5.3213502547
 30
0.0
 10
11.8675784505
 20
5.3221274416
 30
0.0
  0
SPLINE
  5
3C5
100
AcDbEntity
  8
0
100
AcDbSpline
 62
7
  6
CONTINUOUS
 70
0
 71
3
 72
34
 73
30
 74
0
 42
0.0000001
 43
0.0000001
 44
0.0000000001
 40
0.0
 40
0.0
 40
0.0
 40
0.0
 40
0.116750729
 40
0.227390823
 40
0.3313039188
 40
0.4279117409
 40
0.5166565264
 40
0.5970520828
 40
0.6339988716
 40
0.6687295894
 40
0.7012212541
 40
0.7314670517
 40
0.7594710965
 40
0.7852577011
 40
0.8088703885
 40
0.8303739568
 40
0.8498644564
 40
0.8674689731
 40
0.8833579116
 40
0.8977528355
 40
0.9109339517
 40
0.9232437054
 40
0.9350733443
 40
0.9468339847
 40
0.9589128027
 40
0.9716396306
 40
0.9783336859
 40
0.9852795552
 40
1.0
 40
1.0
 40
1.0
 40
1.0
 10
10.5094304579
 20
7.5165343266
 30
0.0
 10
10.5110937649
 20
7.5155481956
 30
0.0
 10
10.5143338097
 20
7.5136283688
 30
0.0
 10
10.5190433392
 20
7.5108124146
 30
0.0
 10
10.5234421548
 20
7.5081271583
 30
0.0
 10
10.527492838
 20
7.5055683352
 30
0.0
 10
10.5311599133
 20
7.5031333922
 30
0.0
 10
10.533942899
 20
7.501155554
 30
0.0
 10
10.5359459481
 20
7.4996282468
 30
0.0
 10
10.5372909635
 20
7.4985473738
 30
0.0
 10
10.5385189093
 20
7.4974990504
 30
0.0
 10
10.5396280567
 20
7.4964844097
 30
0.0
 10
10.5406167517
 20
7.4955041517
 30
0.0
 10
10.5414841783
 20
7.4945594646
 30
0.0
 10
10.5422301336
 20
7.493651605
 30
0.0
 10
10.542854521
 20
7.4927815302
 30
0.0
 10
10.5433583791
 20
7.4919506996
 30
0.0
 10
10.5437426345
 20
7.4911600961
 30
0.0
 10
10.5440086438
 20
7.4904108374
 30
0.0
 10
10.5441581046
 20
7.4897040833
 30
0.0
 10
10.5441919596
 20
7.4890412027
 30
0.0
 10
10.5441117638
 20
7.48842457
 30
0.0
 10
10.5439196265
 20
7.4878576223
 30
0.0
 10
10.5436192857
 20
7.4873443427
 30
0.0
 10
10.5432164418
 20
7.486887593
 30
0.0
 10
10.5428067533
 20
7.486560654
 30
0.0
 10
10.5424369196
 20
7.4863278978
 30
0.0
 10
10.5420225458
 20
7.4861060369
 30
0.0
 10
10.5416899457
 20
7.4859682987
 30
0.0
 10
10.5414600837
 20
7.485887033
 30
0.0
  0
SPLINE
  5
3C6
100
AcDbEntity
  8
0
100
AcDbSpline
 62
7
  6
CONTINUOUS
 70
0
 71
3
 72
23
 73
19
 74
0
 42
0.0000001
 43
0.0000001
 44
0.0000000001
 40
0.0
 40
0.0
 40
0.0
 40
0.0
 40
0.0639318281
 40
0.1275599989
 40
0.1908824597
 40
0.253922851
 40
0.3167009072
 40
0.3792442965
 40
0.4415854068
 40
0.5037600117
 40
0.5658068757
 40
0.6277668376
 40
0.6896817282
 40
0.7515933244
 40
0.8135426155
 40
0.8755691714
 40
0.9377102112
 40
1.0
 40
1.0
 40
1.0
 40
1.0
 10
10.9948143602
 20
9.2941905958
 30
0.0
 10
10.9948143602
 20
9.2958978617
 30
0.0
 10
10.9949343794
 20
9.2993055436
 30
0.0
 10
10.9954762833
 20
9.3043782408
 30
0.0
 10
10.9963767039
 20
9.3093758339
 30
0.0
 10
10.9976301283
 20
9.3142733044
 30
0.0
 10
10.9992294397
 20
9.3190470876
 30
0.0
 10
11.001165352
 20
9.3236743322
 30
0.0
 10
11.0034268693
 20
9.3281333985
 30
0.0
 10
11.0060014152
 20
9.3324038644
 30
0.0
 10
11.008874953
 20
9.3364666534
 30
0.0
 10
11.0120321022
 20
9.3403041654
 30
0.0
 10
11.0154563982
 20
9.3439002594
 30
0.0
 10
11.019130461
 20
9.3472402576
 30
0.0
 10
11.023036077
 20
9.3503109707
 30
0.0
 10
11.0271544486
 20
9.353100765
 30
0.0
 10
11.031465931
 20
9.3555992568
 30
0.0
 10
11.0344524701
 20
9.3570630639
 30
0.0
 10
11.0359703326
 20
9.357743539
 30
0.0
  0
SPLINE
  5
3C7
100
AcDbEntity
  8
0
100
AcDbSpline
 62
7
  6
CONTINUOUS
 70
0
 71
3
 72
13
 73
9
 74
0
 42
0.0000001
 43
0.0000001
 44
0.0000000001
 40
0.0
 40
0.0
 40
0.0
 40
0.0
 40
0.2525253603
 40
0.5032396422
 40
0.6280010574
 40
0.7523605943
 40
0.8763541113
 40
1.0
 40
1.0
 40
1.0
 40
1.0
 10
10.5764890205
 20
7.507154328
 30
0.0
 10
10.5701574682
 20
7.5069273625
 30
0.0
 10
10.5575061623
 20
7.5071376251
 30
0.0
 10
10.541838769
 20
7.5090839054
 30
0.0
 10
10.5295558453
 20
7.511638058
 30
0.0
 10
10.5205036035
 20
7.5140419718
 30
0.0
 10
10.5116240271
 20
7.5169303398
 30
0.0
 10
10.5058272675
 20
7.5191767193
 30
0.0
 10
10.5029669799
 20
7.5203776068
 30
0.0
  0
SPLINE
  5
3C8
100
AcDbEntity
  8
0
100
AcDbSpline
 62
7
  6
CONTINUOUS
 70
0
 71
3
 72
9
 73
5
 74
0
 42
0.0000001
 43
0.0000001
 44
0.0000000001
 40
0.0
 40
0.0
 40
0.0
 40
0.0
 40
0.2538649325
 40
1.0
 40
1.0
 40
1.0
 40
1.0
 10
10.4914089159
 20
7.5281452684
 30
0.0
 10
10.4923524879
 20
7.5274388454
 30
0.0
 10
10.4961036389
 20
7.5247024375
 30
0.0
 10
10.4999932327
 20
7.5221548474
 30
0.0
 10
10.5029669799
 20
7.5203776068
 30
0.0
  0
SPLINE
  5
3C9
100
AcDbEntity
  8
0
100
AcDbSpline
 62
7
  6
CONTINUOUS
 70
0
 71
3
 72
25
 73
21
 74
0
 42
0.0000001
 43
0.0000001
 44
0.0000000001
 40
0.0
 40
0.0
 40
0.0
 40
0.0
 40
0.0625555065
 40
0.0937544977
 40
0.1249021677
 40
0.1870540542
 40
0.2490636528
 40
0.2800355702
 40
0.3109895963
 40
0.3728565784
 40
0.4347294263
 40
0.4966619462
 40
0.5587079882
 40
0.6209198691
 40
0.6833467031
 40
0.7460327342
 40
0.809015686
 40
0.872325729
 40
0.9359829332
 40
1.0
 40
1.0
 40
1.0
 40
1.0
 10
10.4879984121
 20
7.6804747226
 30
0.0
 10
10.4897208941
 20
7.6853408075
 30
0.0
 10
10.49257865
 20
7.6925406249
 30
0.0
 10
10.496925436
 20
7.7018878532
 30
0.0
 10
10.5016139091
 20
7.7110315773
 30
0.0
 10
10.5081212908
 20
7.7220883168
 30
0.0
 10
10.5154700618
 20
7.7325875864
 30
0.0
 10
10.5218263626
 20
7.7406023478
 30
0.0
 10
10.5284911806
 20
7.7483468375
 30
0.0
 10
10.5373983753
 20
7.7575117821
 30
0.0
 10
10.5489494618
 20
7.7676028459
 30
0.0
 10
10.5613040061
 20
7.7767187578
 30
0.0
 10
10.5743953538
 20
7.7847943324
 30
0.0
 10
10.5881503461
 20
7.7917701365
 30
0.0
 10
10.6024888856
 20
7.7975927621
 30
0.0
 10
10.6173245516
 20
7.8022160826
 30
0.0
 10
10.6325650611
 20
7.8056022388
 30
0.0
 10
10.6481136322
 20
7.8077224077
 30
0.0
 10
10.6638680492
 20
7.8085579107
 30
0.0
 10
10.6744128231
 20
7.8082533887
 30
0.0
 10
10.6796827205
 20
7.8078879201
 30
0.0
  0
SPLINE
  5
3CA
100
AcDbEntity
  8
0
100
AcDbSpline
 62
7
  6
CONTINUOUS
 70
0
 71
3
 72
25
 73
21
 74
0
 42
0.0000001
 43
0.0000001
 44
0.0000000001
 40
0.0
 40
0.0
 40
0.0
 40
0.0
 40
0.0620511142
 40
0.12464238
 40
0.1877054659
 40
0.2511377537
 40
0.3148156141
 40
0.3786039967
 40
0.4423662418
 40
0.5059722561
 40
0.5693056265
 40
0.6322686611
 40
0.6947862241
 40
0.756808723
 40
0.8183139574
 40
0.879308478
 40
0.9096394092
 40
0.9398586905
 40
0.9699753091
 40
1.0
 40
1.0
 40
1.0
 40
1.0
 10
11.4041270031
 20
9.3075795824
 30
0.0
 10
11.4008422206
 20
9.3078073828
 30
0.0
 10
11.3942669499
 20
9.3087114647
 30
0.0
 10
11.3846370927
 20
9.3113587574
 30
0.0
 10
11.3753582354
 20
9.3152485273
 30
0.0
 10
11.3665927454
 20
9.3203010034
 30
0.0
 10
11.3584852903
 20
9.3264161313
 30
0.0
 10
11.3511641329
 20
9.3334776985
 30
0.0
 10
11.3447387859
 20
9.3413574283
 30
0.0
 10
11.3393004011
 20
9.3499189808
 30
0.0
 10
11.3349220373
 20
9.35902079
 30
0.0
 10
11.3316598292
 20
9.3685185509
 30
0.0
 10
11.3295541633
 20
9.3782666777
 30
0.0
 10
11.3286306342
 20
9.3881196769
 30
0.0
 10
11.3289004193
 20
9.3979311109
 30
0.0
 10
11.3301212849
 20
9.4059716708
 30
0.0
 10
11.3316871918
 20
9.4122319883
 30
0.0
 10
11.3331494913
 20
9.4168191397
 30
0.0
 10
11.3348970542
 20
9.4212875728
 30
0.0
 10
11.3362508918
 20
9.4241804785
 30
0.0
 10
11.3369732328
 20
9.4256005465
 30
0.0
  0
SPLINE
  5
3CB
100
AcDbEntity
  8
0
100
AcDbSpline
 62
7
  6
CONTINUOUS
 70
0
 71
3
 72
23
 73
19
 74
0
 42
0.0000001
 43
0.0000001
 44
0.0000000001
 40
0.0
 40
0.0
 40
0.0
 40
0.0
 40
0.0644630296
 40
0.1284617109
 40
0.192002419
 40
0.2551120592
 40
0.3178375242
 40
0.3802386074
 40
0.4423820532
 40
0.5043365226
 40
0.5661687251
 40
0.6279407332
 40
0.689708584
 40
0.7515217646
 40
0.8134232731
 40
0.8754500242
 40
0.9376334244
 40
1.0
 40
1.0
 40
1.0
 40
1.0
 10
10.4645420053
 20
8.3570480217
 30
0.0
 10
10.4636207368
 20
8.3623366852
 30
0.0
 10
10.462330328
 20
8.3729797373
 30
0.0
 10
10.462079287
 20
8.3889952699
 30
0.0
 10
10.4634955929
 20
8.4048380793
 30
0.0
 10
10.4665246672
 20
8.4203434245
 30
0.0
 10
10.4710848758
 20
8.4353688616
 30
0.0
 10
10.4770763596
 20
8.4497940818
 30
0.0
 10
10.4843883291
 20
8.4635222275
 30
0.0
 10
10.492905643
 20
8.4764780861
 30
0.0
 10
10.5025138036
 20
8.4886053319
 30
0.0
 10
10.5131023854
 20
8.49986315
 30
0.0
 10
10.5245670246
 20
8.5102229204
 30
0.0
 10
10.5368103928
 20
8.5196652256
 30
0.0
 10
10.5497422884
 20
8.5281772645
 30
0.0
 10
10.5632796797
 20
8.5357508926
 30
0.0
 10
10.5773447457
 20
8.5423805046
 30
0.0
 10
10.58701227
 20
8.5461631566
 30
0.0
 10
10.5919083788
 20
8.5478960225
 30
0.0
  0
SPLINE
  5
3CC
100
AcDbEntity
  8
0
100
AcDbSpline
 62
7
  6
CONTINUOUS
 70
0
 71
3
 72
38
 73
34
 74
0
 42
0.0000001
 43
0.0000001
 44
0.0000000001
 40
0.0
 40
0.0
 40
0.0
 40
0.0
 40
0.0958323293
 40
0.1891018787
 40
0.2792424495
 40
0.3229695159
 40
0.365713634
 40
0.4074121541
 40
0.4480051085
 40
0.4874350853
 40
0.5256475433
 40
0.5625912692
 40
0.5982183184
 40
0.6324846966
 40
0.6653506321
 40
0.6967808602
 40
0.7267456118
 40
0.7552209101
 40
0.782189593
 40
0.8076426204
 40
0.8315800733
 40
0.8540134059
 40
0.8749676676
 40
0.8944844212
 40
0.9126261185
 40
0.9294806019
 40
0.9451669871
 40
0.9598416824
 40
0.9737026418
 40
0.9804061219
 40
0.9869995855
 40
0.9935185882
 40
1.0
 40
1.0
 40
1.0
 40
1.0
 10
9.8396044204
 20
9.8007015398
 30
0.0
 10
9.829837142
 20
9.8013789028
 30
0.0
 10
9.8105778437
 20
9.8029303271
 30
0.0
 10
9.7822004959
 20
9.8058918371
 30
0.0
 10
9.7591850101
 20
9.8088786296
 30
0.0
 10
9.7413423549
 20
9.811567268
 30
0.0
 10
9.7284225094
 20
9.813701702
 30
0.0
 10
9.7158508725
 20
9.8159708718
 30
0.0
 10
9.7036484234
 20
9.818370951
 30
0.0
 10
9.6918355421
 20
9.8208979098
 30
0.0
 10
9.6804319437
 20
9.8235475193
 30
0.0
 10
9.6694566441
 20
9.8263152821
 30
0.0
 10
9.6589279391
 20
9.8291965837
 30
0.0
 10
9.6488633543
 20
9.8321865655
 30
0.0
 10
9.6392796167
 20
9.8352801827
 30
0.0
 10
9.6301926393
 20
9.8384722936
 30
0.0
 10
9.6216174503
 20
9.8417575061
 30
0.0
 10
9.6135681959
 20
9.8451303547
 30
0.0
 10
9.6060581019
 20
9.8485852693
 30
0.0
 10
9.599099403
 20
9.8521165124
 30
0.0
 10
9.5927033841
 20
9.8557184103
 30
0.0
 10
9.5868802942
 20
9.8593852279
 30
0.0
 10
9.5816393506
 20
9.8631113119
 30
0.0
 10
9.5769888542
 20
9.8668912944
 30
0.0
 10
9.572936139
 20
9.8707200247
 30
0.0
 10
9.5694879495
 20
9.8745927847
 30
0.0
 10
9.5666507858
 20
9.8785055784
 30
0.0
 10
9.5644314276
 20
9.8824534428
 30
0.0
 10
9.5630881577
 20
9.8858074333
 30
0.0
 10
9.5623449404
 20
9.888482938
 30
0.0
 10
9.5619507712
 20
9.8904707894
 30
0.0
 10
9.5617141514
 20
9.8924605064
 30
0.0
 10
9.5616614828
 20
9.8937892926
 30
0.0
 10
9.5616614822
 20
9.894451468
 30
0.0
  0
SPLINE
  5
3CD
100
AcDbEntity
  8
0
100
AcDbSpline
 62
7
  6
CONTINUOUS
 70
0
 71
3
 72
39
 73
35
 74
0
 42
0.0000001
 43
0.0000001
 44
0.0000000001
 40
0.0
 40
0.0
 40
0.0
 40
0.0
 40
0.007175745
 40
0.0146740737
 40
0.0225036116
 40
0.030671472
 40
0.0391835578
 40
0.0480444976
 40
0.0572573741
 40
0.0668240337
 40
0.0767454382
 40
0.0870215229
 40
0.1086328224
 40
0.1316444885
 40
0.1560318876
 40
0.1817621643
 40
0.2087953062
 40
0.2370851424
 40
0.2665800902
 40
0.2972237176
 40
0.3289551842
 40
0.3617097517
 40
0.3954191818
 40
0.4300120556
 40
0.4654140508
 40
0.5015483063
 40
0.5383357156
 40
0.5756951801
 40
0.6135438541
 40
0.6903688654
 40
0.7681254679
 40
0.8461157008
 40
0.9236385661
 40
1.0
 40
1.0
 40
1.0
 40
1.0
 10
11.8685132493
 20
9.7604770929
 30
0.0
 10
11.8677015585
 20
9.7596930598
 30
0.0
 10
11.8660013184
 20
9.7581311245
 30
0.0
 10
11.8632896012
 20
9.7558553819
 30
0.0
 10
11.8603631891
 20
9.7535976614
 30
0.0
 10
11.8572239829
 20
9.7513594783
 30
0.0
 10
11.8538738605
 20
9.749142028
 30
0.0
 10
11.8503147311
 20
9.7469466159
 30
0.0
 10
11.8465486943
 20
9.7447744763
 30
0.0
 10
11.8425779945
 20
9.7426268882
 30
0.0
 10
11.8384049695
 20
9.740505169
 30
0.0
 10
11.832474485
 20
9.737664522
 30
0.0
 10
11.8245643388
 20
9.7341973869
 30
0.0
 10
11.8144612631
 20
9.7302265448
 30
0.0
 10
11.8036176719
 20
9.7263879808
 30
0.0
 10
11.7920594719
 20
9.7226909669
 30
0.0
 10
11.7798141332
 20
9.7191444309
 30
0.0
 10
11.7669109272
 20
9.715756968
 30
0.0
 10
11.7533807305
 20
9.7125368009
 30
0.0
 10
11.7392559787
 20
9.7094917573
 30
0.0
 10
11.7245705802
 20
9.7066292149
 30
0.0
 10
11.7093598176
 20
9.7039561172
 30
0.0
 10
11.6936602482
 20
9.7014789534
 30
0.0
 10
11.6775096227
 20
9.6992037423
 30
0.0
 10
11.6609467978
 20
9.6971359893
 30
0.0
 10
11.6440116285
 20
9.6952807016
 30
0.0
 10
11.6267448787
 20
9.6936423863
 30
0.0
 10
11.6091880745
 20
9.6922249948
 30
0.0
 10
11.585330973
 20
9.6906265178
 30
0.0
 10
11.5550972004
 20
9.6892093683
 30
0.0
 10
11.5185253777
 20
9.6884367085
 30
0.0
 10
11.4818357768
 20
9.6885914018
 30
0.0
 10
11.4453815309
 20
9.6896719011
 30
0.0
 10
11.4212144328
 20
9.6910165129
 30
0.0
 10
11.4092339811
 20
9.69184736
 30
0.0
  0
SPLINE
  5
3CE
100
AcDbEntity
  8
0
100
AcDbSpline
 62
7
  6
CONTINUOUS
 70
0
 71
3
 72
40
 73
36
 74
0
 42
0.0000001
 43
0.0000001
 44
0.0000000001
 40
0.0
 40
0.0
 40
0.0
 40
0.0
 40
0.0311444623
 40
0.0624429464
 40
0.0938877347
 40
0.1254702907
 40
0.1571779705
 40
0.188996169
 40
0.2209078941
 40
0.2528943766
 40
0.2849353707
 40
0.3170095775
 40
0.3490950548
 40
0.3811696427
 40
0.4132113916
 40
0.4451989867
 40
0.4771121643
 40
0.5089321125
 40
0.5406418522
 40
0.5722265907
 40
0.603674042
 40
0.6349747068
 40
0.6661221049
 40
0.6971129533
 40
0.727947284
 40
0.7586284939
 40
0.7891633219
 40
0.8195617482
 40
0.8498368162
 40
0.8800043756
 40
0.9100827498
 40
0.9400923353
 40
0.9550810224
 40
0.9700608656
 40
1.0
 40
1.0
 40
1.0
 40
1.0
 10
11.4949239804
 20
8.8214605607
 30
0.0
 10
11.4916100504
 20
8.8216903825
 30
0.0
 10
11.4849801607
 20
8.8223937502
 30
0.0
 10
11.4751157294
 20
8.824165461
 30
0.0
 10
11.4653569238
 20
8.8266472054
 30
0.0
 10
11.4557565263
 20
8.8298254716
 30
0.0
 10
11.4463654778
 20
8.8336833396
 30
0.0
 10
11.437233892
 20
8.8382001121
 30
0.0
 10
11.42841041
 20
8.8433516791
 30
0.0
 10
11.4199420482
 20
8.8491105245
 30
0.0
 10
11.4118739267
 20
8.8554459242
 30
0.0
 10
11.4042490362
 20
8.8623240888
 30
0.0
 10
11.3971080113
 20
8.869708349
 30
0.0
 10
11.3904889157
 20
8.8775593464
 30
0.0
 10
11.3844270379
 20
8.8858352404
 30
0.0
 10
11.3789547085
 20
8.8944919316
 30
0.0
 10
11.3741011286
 20
8.9034832944
 30
0.0
 10
11.3698922152
 20
8.9127614191
 30
0.0
 10
11.3663504638
 20
8.9222768648
 30
0.0
 10
11.3634948287
 20
8.9319789185
 30
0.0
 10
11.3613406204
 20
8.9418158621
 30
0.0
 10
11.3598994234
 20
8.9517352439
 30
0.0
 10
11.3591790309
 20
8.9616841547
 30
0.0
 10
11.3591834011
 20
8.971609506
 30
0.0
 10
11.3599126281
 20
8.9814583107
 30
0.0
 10
11.361362936
 20
8.9911779649
 30
0.0
 10
11.3635266945
 20
9.0007165255
 30
0.0
 10
11.3663924596
 20
9.0100229967
 30
0.0
 10
11.3699450023
 20
9.0190475719
 30
0.0
 10
11.3741654795
 20
9.0277420233
 30
0.0
 10
11.3790311727
 20
9.0360595211
 30
0.0
 10
11.3836047311
 20
9.042643383
 30
0.0
 10
11.3875569021
 20
9.0476757461
 30
0.0
 10
11.3916975859
 20
9.0525439091
 30
0.0
 10
11.3950150117
 20
9.0560096093
 30
0.0
 10
11.3973118246
 20
9.0582281668
 30
0.0
  0
SPLINE
  5
3CF
100
AcDbEntity
  8
0
100
AcDbSpline
 62
7
  6
CONTINUOUS
 70
0
 71
3
 72
37
 73
33
 74
0
 42
0.0000001
 43
0.0000001
 44
0.0000000001
 40
0.0
 40
0.0
 40
0.0
 40
0.0
 40
0.0071756951
 40
0.0146740447
 40
0.0225036601
 40
0.0306716004
 40
0.0391837228
 40
0.0480446478
 40
0.0572575521
 40
0.0668242415
 40
0.0870203988
 40
0.108631743
 40
0.1316434718
 40
0.1560309822
 40
0.1817613367
 40
0.2087945347
 40
0.2370844664
 40
0.2665795412
 40
0.297223249
 40
0.3289547897
 40
0.361709482
 40
0.3954190386
 40
0.4300119997
 40
0.4654140959
 40
0.5015484862
 40
0.5383360168
 40
0.6135426229
 40
0.6903678828
 40
0.7681247334
 40
0.8461152395
 40
0.923638247
 40
1.0
 40
1.0
 40
1.0
 40
1.0
 10
11.8385695469
 20
10.6077388438
 30
0.0
 10
11.8378249634
 20
10.6070196314
 30
0.0
 10
11.8362652828
 20
10.6055868252
 30
0.0
 10
11.8337777347
 20
10.6034992155
 30
0.0
 10
11.8310932338
 20
10.601428116
 30
0.0
 10
11.8282135209
 20
10.5993749473
 30
0.0
 10
11.8251403378
 20
10.5973408059
 30
0.0
 10
11.8218754386
 20
10.5953268824
 30
0.0
 10
11.8184207244
 20
10.5933343014
 30
0.0
 10
11.8134743164
 20
10.5906590838
 30
0.0
 10
11.8068207457
 20
10.5873867976
 30
0.0
 10
11.7982538661
 20
10.5836315992
 30
0.0
 10
11.7889858259
 20
10.5799889992
 30
0.0
 10
11.7790386758
 20
10.5764677714
 30
0.0
 10
11.7684359413
 20
10.5730763749
 30
0.0
 10
11.7572028945
 20
10.5698230104
 30
0.0
 10
11.7453663509
 20
10.5667155782
 30
0.0
 10
11.7329546445
 20
10.5637616242
 30
0.0
 10
11.7199975417
 20
10.5609682983
 30
0.0
 10
11.7065261414
 20
10.5583423829
 30
0.0
 10
11.6925727985
 20
10.5558902685
 30
0.0
 10
11.6781710566
 20
10.5536178924
 30
0.0
 10
11.6633555517
 20
10.5515307551
 30
0.0
 10
11.6481619276
 20
10.5496339351
 30
0.0
 10
11.6326267119
 20
10.5479320087
 30
0.0
 10
11.6113515896
 20
10.5459134619
 30
0.0
 10
11.5841808546
 20
10.5439150748
 30
0.0
 10
11.5510626712
 20
10.5423625578
 30
0.0
 10
11.517513971
 20
10.5416538034
 30
0.0
 10
11.4838574271
 20
10.5417957044
 30
0.0
 10
11.450416722
 20
10.5427868802
 30
0.0
 10
11.4282474436
 20
10.5440203376
 30
0.0
 10
11.4172573649
 20
10.5447825022
 30
0.0
  0
SPLINE
  5
3D0
100
AcDbEntity
  8
0
100
AcDbSpline
 62
7
  6
CONTINUOUS
 70
0
 71
3
 72
39
 73
35
 74
0
 42
0.0000001
 43
0.0000001
 44
0.0000000001
 40
0.0
 40
0.0
 40
0.0
 40
0.0
 40
0.007175745
 40
0.0146740737
 40
0.0225036116
 40
0.030671472
 40
0.0391835578
 40
0.0480444976
 40
0.0572573741
 40
0.0668240337
 40
0.0767454382
 40
0.0870215229
 40
0.1086328224
 40
0.1316444885
 40
0.1560318876
 40
0.1817621643
 40
0.2087953062
 40
0.2370851424
 40
0.2665800902
 40
0.2972237176
 40
0.3289551842
 40
0.3617097517
 40
0.3954191818
 40
0.4300120556
 40
0.4654140508
 40
0.5015483063
 40
0.5383357156
 40
0.5756951801
 40
0.6135438541
 40
0.6903688654
 40
0.7681254679
 40
0.8461157008
 40
0.9236385661
 40
1.0
 40
1.0
 40
1.0
 40
1.0
 10
11.8685132493
 20
10.5757185386
 30
0.0
 10
11.8677015585
 20
10.5749345055
 30
0.0
 10
11.8660013184
 20
10.5733725702
 30
0.0
 10
11.8632896012
 20
10.5710968276
 30
0.0
 10
11.8603631891
 20
10.5688391071
 30
0.0
 10
11.8572239829
 20
10.566600924
 30
0.0
 10
11.8538738605
 20
10.5643834736
 30
0.0
 10
11.8503147311
 20
10.5621880616
 30
0.0
 10
11.8465486943
 20
10.560015922
 30
0.0
 10
11.8425779945
 20
10.5578683339
 30
0.0
 10
11.8384049695
 20
10.5557466147
 30
0.0
 10
11.832474485
 20
10.5529059677
 30
0.0
 10
11.8245643388
 20
10.5494388326
 30
0.0
 10
11.8144612631
 20
10.5454679905
 30
0.0
 10
11.8036176719
 20
10.5416294265
 30
0.0
 10
11.7920594719
 20
10.5379324126
 30
0.0
 10
11.7798141332
 20
10.5343858766
 30
0.0
 10
11.7669109272
 20
10.5309984137
 30
0.0
 10
11.7533807305
 20
10.5277782466
 30
0.0
 10
11.7392559787
 20
10.524733203
 30
0.0
 10
11.7245705802
 20
10.5218706605
 30
0.0
 10
11.7093598176
 20
10.5191975629
 30
0.0
 10
11.6936602482
 20
10.516720399
 30
0.0
 10
11.6775096227
 20
10.514445188
 30
0.0
 10
11.6609467978
 20
10.512377435
 30
0.0
 10
11.6440116285
 20
10.5105221473
 30
0.0
 10
11.6267448787
 20
10.508883832
 30
0.0
 10
11.6091880745
 20
10.5074664405
 30
0.0
 10
11.585330973
 20
10.5058679635
 30
0.0
 10
11.5550972004
 20
10.504450814
 30
0.0
 10
11.5185253777
 20
10.5036781542
 30
0.0
 10
11.4818357768
 20
10.5038328475
 30
0.0
 10
11.4453815309
 20
10.5049133468
 30
0.0
 10
11.4212144328
 20
10.5062579586
 30
0.0
 10
11.4092339811
 20
10.5070888057
 30
0.0
  0
SPLINE
  5
3D1
100
AcDbEntity
  8
0
100
AcDbSpline
 62
7
  6
CONTINUOUS
 70
0
 71
3
 72
51
 73
47
 74
0
 42
0.0000001
 43
0.0000001
 44
0.0000000001
 40
0.0
 40
0.0
 40
0.0
 40
0.0
 40
0.1048053057
 40
0.1559442925
 40
0.2060909675
 40
0.2551352721
 40
0.3029713892
 40
0.3494976431
 40
0.3946163535
 40
0.4382348227
 40
0.4802656733
 40
0.5206273314
 40
0.5592448237
 40
0.5960506556
 40
0.6309855793
 40
0.6639997659
 40
0.6950545237
 40
0.7241241415
 40
0.7379116736
 40
0.7512006648
 40
0.7639927295
 40
0.776291199
 40
0.7881009895
 40
0.7994287722
 40
0.8102836061
 40
0.8206768126
 40
0.8306224648
 40
0.8401379634
 40
0.8492440666
 40
0.8579656048
 40
0.8743665084
 40
0.8821292949
 40
0.8896540938
 40
0.8969899339
 40
0.9041902748
 40
0.9113119036
 40
0.9184136978
 40
0.9255550897
 40
0.9327944496
 40
0.9401875892
 40
0.947786455
 40
0.9637752042
 40
0.9722564658
 40
0.9811037997
 40
0.9903441998
 40
1.0
 40
1.0
 40
1.0
 40
1.0
 10
9.8476278042
 20
10.6536366819
 30
0.0
 10
9.8369030961
 20
10.654380443
 30
0.0
 10
9.8209587488
 20
10.6556997335
 30
0.0
 10
9.7999330001
 20
10.6578989162
 30
0.0
 10
9.7846214296
 20
10.659731263
 30
0.0
 10
9.7696758728
 20
10.6617554961
 30
0.0
 10
9.7551323003
 20
10.6639667193
 30
0.0
 10
9.7410257077
 20
10.666359554
 30
0.0
 10
9.7273899991
 20
10.668928224
 30
0.0
 10
9.7142579405
 20
10.6716664795
 30
0.0
 10
9.7016610553
 20
10.6745676663
 30
0.0
 10
9.6896295643
 20
10.6776247553
 30
0.0
 10
9.6781922909
 20
10.680830337
 30
0.0
 10
9.6673765606
 20
10.6841766186
 30
0.0
 10
9.6572081754
 20
10.6876554951
 30
0.0
 10
9.6477112297
 20
10.6912585965
 30
0.0
 10
9.6389083626
 20
10.6949772434
 30
0.0
 10
9.6320519696
 20
10.6982197494
 30
0.0
 10
9.6269394514
 20
10.7008725014
 30
0.0
 10
9.6233593235
 20
10.7028501817
 30
0.0
 10
9.6199676558
 20
10.7048500253
 30
0.0
 10
9.6167664336
 20
10.7068708432
 30
0.0
 10
9.6137575399
 20
10.7089114347
 30
0.0
 10
9.6109427885
 20
10.7109706787
 30
0.0
 10
9.6083237982
 20
10.7130473373
 30
0.0
 10
9.6059021277
 20
10.7151402515
 30
0.0
 10
9.6036792336
 20
10.7172483255
 30
0.0
 10
9.6016564501
 20
10.719370256
 30
0.0
 10
9.5998348582
 20
10.7215052794
 30
0.0
 10
9.5977198823
 20
10.7243093729
 30
0.0
 10
9.595949663
 20
10.7271968473
 30
0.0
 10
9.5945848878
 20
10.7301501988
 30
0.0
 10
9.5937863345
 20
10.732332118
 30
0.0
 10
9.5931953528
 20
10.7345195815
 30
0.0
 10
9.5928125121
 20
10.7367111277
 30
0.0
 10
9.5926383505
 20
10.7389050593
 30
0.0
 10
9.5926732141
 20
10.7410995966
 30
0.0
 10
9.5929169368
 20
10.7432929358
 30
0.0
 10
9.5933692186
 20
10.7454832929
 30
0.0
 10
9.5940295682
 20
10.7476691276
 30
0.0
 10
9.5952056722
 20
10.7506247516
 30
0.0
 10
9.5967935617
 20
10.7535224574
 30
0.0
 10
9.5987329547
 20
10.7563381248
 30
0.0
 10
9.6004197772
 20
10.7584811707
 30
0.0
 10
9.6023084274
 20
10.7606117452
 30
0.0
 10
9.6036705929
 20
10.7619920971
 30
0.0
 10
9.6043829783
 20
10.7626802086
 30
0.0
  0
SPLINE
  5
3D2
100
AcDbEntity
  8
0
100
AcDbSpline
 62
7
  6
CONTINUOUS
 70
0
 71
3
 72
38
 73
34
 74
0
 42
0.0000001
 43
0.0000001
 44
0.0000000001
 40
0.0
 40
0.0
 40
0.0
 40
0.0
 40
0.0958323293
 40
0.1891018787
 40
0.2792424495
 40
0.3229695159
 40
0.365713634
 40
0.4074121541
 40
0.4480051085
 40
0.4874350853
 40
0.5256475433
 40
0.5625912693
 40
0.5982183184
 40
0.6324846967
 40
0.6653506321
 40
0.6967808602
 40
0.7267456119
 40
0.7552209101
 40
0.782189593
 40
0.8076426204
 40
0.8315800733
 40
0.8540134059
 40
0.8749676676
 40
0.8944844212
 40
0.9126261185
 40
0.9294806019
 40
0.9451669871
 40
0.9598416824
 40
0.9737026418
 40
0.9804061219
 40
0.9869995855
 40
0.9935185882
 40
1.0
 40
1.0
 40
1.0
 40
1.0
 10
9.8396044204
 20
10.6159429855
 30
0.0
 10
9.829837142
 20
10.6166203485
 30
0.0
 10
9.8105778437
 20
10.6181717728
 30
0.0
 10
9.7822004959
 20
10.6211332828
 30
0.0
 10
9.7591850101
 20
10.6241200753
 30
0.0
 10
9.7413423549
 20
10.6268087137
 30
0.0
 10
9.7284225094
 20
10.6289431477
 30
0.0
 10
9.7158508725
 20
10.6312123175
 30
0.0
 10
9.7036484234
 20
10.6336123967
 30
0.0
 10
9.6918355421
 20
10.6361393555
 30
0.0
 10
9.6804319437
 20
10.6387889649
 30
0.0
 10
9.669456644
 20
10.6415567278
 30
0.0
 10
9.6589279391
 20
10.6444380294
 30
0.0
 10
9.6488633542
 20
10.6474280112
 30
0.0
 10
9.6392796167
 20
10.6505216284
 30
0.0
 10
9.6301926393
 20
10.6537137393
 30
0.0
 10
9.6216174503
 20
10.6569989518
 30
0.0
 10
9.6135681959
 20
10.6603718004
 30
0.0
 10
9.6060581019
 20
10.663826715
 30
0.0
 10
9.599099403
 20
10.6673579581
 30
0.0
 10
9.5927033841
 20
10.670959856
 30
0.0
 10
9.5868802942
 20
10.6746266736
 30
0.0
 10
9.5816393506
 20
10.6783527576
 30
0.0
 10
9.5769888542
 20
10.6821327401
 30
0.0
 10
9.572936139
 20
10.6859614704
 30
0.0
 10
9.5694879495
 20
10.6898342304
 30
0.0
 10
9.5666507858
 20
10.6937470241
 30
0.0
 10
9.5644314276
 20
10.6976948885
 30
0.0
 10
9.5630881577
 20
10.701048879
 30
0.0
 10
9.5623449404
 20
10.7037243837
 30
0.0
 10
9.5619507712
 20
10.7057122351
 30
0.0
 10
9.5617141514
 20
10.7077019521
 30
0.0
 10
9.5616614828
 20
10.7090307383
 30
0.0
 10
9.5616614822
 20
10.7096929137
 30
0.0
  0
SPLINE
  5
3D3
100
AcDbEntity
  8
0
100
AcDbSpline
 62
7
  6
CONTINUOUS
 70
0
 71
3
 72
11
 73
7
 74
0
 42
0.0000001
 43
0.0000001
 44
0.0000000001
 40
0.0
 40
0.0
 40
0.0
 40
0.0
 40
0.2552692216
 40
0.5060519912
 40
0.7537940265
 40
1.0
 40
1.0
 40
1.0
 40
1.0
 10
11.5784322233
 20
11.005589857
 30
0.0
 10
11.5787524771
 20
11.004615544
 30
0.0
 10
11.5793163106
 20
11.0026597214
 30
0.0
 10
11.5799272577
 20
10.9996903369
 30
0.0
 10
11.5802941159
 20
10.9967176299
 30
0.0
 10
11.5803757252
 20
10.994732147
 30
0.0
 10
11.5803757275
 20
10.9937429639
 30
0.0
  0
SPLINE
  5
3D4
100
AcDbEntity
  8
0
100
AcDbSpline
 62
7
  6
CONTINUOUS
 70
0
 71
3
 72
40
 73
36
 74
0
 42
0.0000001
 43
0.0000001
 44
0.0000000001
 40
0.0
 40
0.0
 40
0.0
 40
0.0
 40
0.0311444623
 40
0.0624429464
 40
0.0938877347
 40
0.1254702907
 40
0.1571779705
 40
0.188996169
 40
0.2209078941
 40
0.2528943766
 40
0.2849353707
 40
0.3170095775
 40
0.3490950548
 40
0.3811696427
 40
0.4132113916
 40
0.4451989867
 40
0.4771121643
 40
0.5089321125
 40
0.5406418522
 40
0.5722265907
 40
0.603674042
 40
0.6349747068
 40
0.6661221049
 40
0.6971129533
 40
0.727947284
 40
0.7586284939
 40
0.7891633219
 40
0.8195617482
 40
0.8498368162
 40
0.8800043756
 40
0.9100827498
 40
0.9400923353
 40
0.9550810224
 40
0.9700608656
 40
1.0
 40
1.0
 40
1.0
 40
1.0
 10
11.4949239804
 20
6.7688680582
 30
0.0
 10
11.4916100504
 20
6.76909788
 30
0.0
 10
11.4849801607
 20
6.7698012477
 30
0.0
 10
11.4751157294
 20
6.7715729585
 30
0.0
 10
11.4653569238
 20
6.7740547029
 30
0.0
 10
11.4557565263
 20
6.7772329691
 30
0.0
 10
11.4463654778
 20
6.7810908371
 30
0.0
 10
11.437233892
 20
6.7856076097
 30
0.0
 10
11.42841041
 20
6.7907591766
 30
0.0
 10
11.4199420482
 20
6.796518022
 30
0.0
 10
11.4118739267
 20
6.8028534217
 30
0.0
 10
11.4042490362
 20
6.8097315863
 30
0.0
 10
11.3971080113
 20
6.8171158465
 30
0.0
 10
11.3904889157
 20
6.8249668439
 30
0.0
 10
11.3844270379
 20
6.8332427379
 30
0.0
 10
11.3789547085
 20
6.8418994291
 30
0.0
 10
11.3741011286
 20
6.8508907919
 30
0.0
 10
11.3698922152
 20
6.8601689167
 30
0.0
 10
11.3663504638
 20
6.8696843623
 30
0.0
 10
11.3634948287
 20
6.8793864161
 30
0.0
 10
11.3613406204
 20
6.8892233596
 30
0.0
 10
11.3598994234
 20
6.8991427414
 30
0.0
 10
11.3591790309
 20
6.9090916522
 30
0.0
 10
11.3591834011
 20
6.9190170035
 30
0.0
 10
11.3599126281
 20
6.9288658082
 30
0.0
 10
11.361362936
 20
6.9385854624
 30
0.0
 10
11.3635266945
 20
6.948124023
 30
0.0
 10
11.3663924596
 20
6.9574304942
 30
0.0
 10
11.3699450023
 20
6.9664550694
 30
0.0
 10
11.3741654795
 20
6.9751495209
 30
0.0
 10
11.3790311727
 20
6.9834670186
 30
0.0
 10
11.3836047311
 20
6.9900508805
 30
0.0
 10
11.3875569021
 20
6.9950832436
 30
0.0
 10
11.3916975859
 20
6.9999514066
 30
0.0
 10
11.3950150117
 20
7.0034171068
 30
0.0
 10
11.3973118246
 20
7.0056356643
 30
0.0
  0
SPLINE
  5
3D5
100
AcDbEntity
  8
0
100
AcDbSpline
 62
7
  6
CONTINUOUS
 70
0
 71
3
 72
23
 73
19
 74
0
 42
0.0000001
 43
0.0000001
 44
0.0000000001
 40
0.0
 40
0.0
 40
0.0
 40
0.0
 40
0.0749628051
 40
0.1455694763
 40
0.2121612381
 40
0.2751647772
 40
0.3350999254
 40
0.3925851505
 40
0.4483313412
 40
0.5031255342
 40
0.5577999583
 40
0.6131929736
 40
0.6701081672
 40
0.729279347
 40
0.7913525608
 40
0.8568785119
 40
0.9263106069
 40
1.0
 40
1.0
 40
1.0
 40
1.0
 10
12.3957249575
 20
11.19363894
 30
0.0
 10
12.3967183237
 20
11.1927145175
 30
0.0
 10
12.3985922573
 20
11.1908585959
 30
0.0
 10
12.4011208188
 20
11.1879631369
 30
0.0
 10
12.403276964
 20
11.1850446918
 30
0.0
 10
12.4050576057
 20
11.1821058963
 30
0.0
 10
12.4064596284
 20
11.179149254
 30
0.0
 10
12.4074800441
 20
11.1761778712
 30
0.0
 10
12.4081158075
 20
11.1731955089
 30
0.0
 10
12.4083648478
 20
11.1702069338
 30
0.0
 10
12.4082259995
 20
11.1672175587
 30
0.0
 10
12.4076999938
 20
11.1642329006
 30
0.0
 10
12.4067885816
 20
11.1612579848
 30
0.0
 10
12.4054947627
 20
11.1582968189
 30
0.0
 10
12.4038214159
 20
11.1553526809
 30
0.0
 10
12.401771639
 20
11.1524281083
 30
0.0
 10
12.3993485814
 20
11.1495259435
 30
0.0
 10
12.3975423659
 20
11.1476651579
 30
0.0
 10
12.3965829476
 20
11.1467384309
 30
0.0
  0
SPLINE
  5
3D6
100
AcDbEntity
  8
0
100
AcDbSpline
 62
7
  6
CONTINUOUS
 70
0
 71
3
 72
16
 73
12
 74
0
 42
0.0000001
 43
0.0000001
 44
0.0000000001
 40
0.0
 40
0.0
 40
0.0
 40
0.0
 40
0.1098864251
 40
0.2213925505
 40
0.3360632443
 40
0.4553048854
 40
0.5170524264
 40
0.5803907344
 40
0.7123015689
 40
0.8519456354
 40
1.0
 40
1.0
 40
1.0
 40
1.0
 10
12.4393044437
 20
11.139838321
 30
0.0
 10
12.4393044446
 20
11.1387776698
 30
0.0
 10
12.4391681983
 20
11.1366383437
 30
0.0
 10
12.4385575171
 20
11.1334446434
 30
0.0
 10
12.4375419831
 20
11.1302611506
 30
0.0
 10
12.4363743538
 20
11.1276508184
 30
0.0
 10
12.4352507595
 20
11.1255765138
 30
0.0
 10
12.4339642068
 20
11.123454599
 30
0.0
 10
12.4320960828
 20
11.1208109789
 30
0.0
 10
12.4294915844
 20
11.117704364
 30
0.0
 10
12.4275545063
 20
11.1157109587
 30
0.0
 10
12.42652665
 20
11.1147181257
 30
0.0
  0
SPLINE
  5
3D7
100
AcDbEntity
  8
0
100
AcDbSpline
 62
7
  6
CONTINUOUS
 70
0
 71
3
 72
16
 73
12
 74
0
 42
0.0000001
 43
0.0000001
 44
0.0000000001
 40
0.0
 40
0.0
 40
0.0
 40
0.0
 40
0.1098864251
 40
0.2213925505
 40
0.3360632443
 40
0.4553048854
 40
0.5170524264
 40
0.5803907344
 40
0.7123015689
 40
0.8519456354
 40
1.0
 40
1.0
 40
1.0
 40
1.0
 10
12.4393044437
 20
10.3245968753
 30
0.0
 10
12.4393044446
 20
10.3235362241
 30
0.0
 10
12.4391681983
 20
10.321396898
 30
0.0
 10
12.4385575171
 20
10.3182031977
 30
0.0
 10
12.4375419831
 20
10.3150197049
 30
0.0
 10
12.4363743538
 20
10.3124093727
 30
0.0
 10
12.4352507595
 20
10.3103350681
 30
0.0
 10
12.4339642068
 20
10.3082131533
 30
0.0
 10
12.4320960828
 20
10.3055695332
 30
0.0
 10
12.4294915844
 20
10.3024629183
 30
0.0
 10
12.4275545063
 20
10.300469513
 30
0.0
 10
12.42652665
 20
10.29947668
 30
0.0
  0
SPLINE
  5
3D8
100
AcDbEntity
  8
0
100
AcDbSpline
 62
7
  6
CONTINUOUS
 70
0
 71
3
 72
15
 73
11
 74
0
 42
0.0000001
 43
0.0000001
 44
0.0000000001
 40
0.0
 40
0.0
 40
0.0
 40
0.0
 40
0.1228777561
 40
0.2465221165
 40
0.3708763019
 40
0.4958621733
 40
0.621380575
 40
0.7473210263
 40
0.8735665987
 40
1.0
 40
1.0
 40
1.0
 40
1.0
 10
9.8354632598
 20
6.6811474521
 30
0.0
 10
9.8375672701
 20
6.6810015385
 30
0.0
 10
9.8417772283
 20
6.6805107708
 30
0.0
 10
9.8480139208
 20
6.679194675
 30
0.0
 10
9.8541417804
 20
6.6773123036
 30
0.0
 10
9.8601099314
 20
6.6748870539
 30
0.0
 10
9.8658727249
 20
6.6719481224
 30
0.0
 10
9.8713894373
 20
6.6685292027
 30
0.0
 10
9.8766243589
 20
6.6646675259
 30
0.0
 10
9.8799059318
 20
6.6618241764
 30
0.0
 10
9.8814907607
 20
6.6603417394
 30
0.0
  0
SPLINE
  5
3D9
100
AcDbEntity
  8
0
100
AcDbSpline
 62
7
  6
CONTINUOUS
 70
0
 71
3
 72
40
 73
36
 74
0
 42
0.0000001
 43
0.0000001
 44
0.0000000001
 40
0.0
 40
0.0
 40
0.0
 40
0.0
 40
0.0311444623
 40
0.0624429464
 40
0.0938877347
 40
0.1254702907
 40
0.1571779705
 40
0.188996169
 40
0.2209078941
 40
0.2528943766
 40
0.2849353707
 40
0.3170095775
 40
0.3490950548
 40
0.3811696427
 40
0.4132113916
 40
0.4451989867
 40
0.4771121643
 40
0.5089321125
 40
0.5406418522
 40
0.5722265907
 40
0.603674042
 40
0.6349747068
 40
0.6661221049
 40
0.6971129533
 40
0.727947284
 40
0.7586284939
 40
0.7891633219
 40
0.8195617482
 40
0.8498368162
 40
0.8800043756
 40
0.9100827498
 40
0.9400923353
 40
0.9550810224
 40
0.9700608656
 40
1.0
 40
1.0
 40
1.0
 40
1.0
 10
9.7446663884
 20
8.942841337
 30
0.0
 10
9.7413524584
 20
8.9430711588
 30
0.0
 10
9.7347225687
 20
8.9437745265
 30
0.0
 10
9.7248581374
 20
8.9455462373
 30
0.0
 10
9.7150993318
 20
8.9480279817
 30
0.0
 10
9.7054989342
 20
8.9512062479
 30
0.0
 10
9.6961078858
 20
8.9550641158
 30
0.0
 10
9.6869763
 20
8.9595808884
 30
0.0
 10
9.678152818
 20
8.9647324553
 30
0.0
 10
9.6696844562
 20
8.9704913007
 30
0.0
 10
9.6616163347
 20
8.9768267005
 30
0.0
 10
9.6539914441
 20
8.983704865
 30
0.0
 10
9.6468504193
 20
8.9910891252
 30
0.0
 10
9.6402313237
 20
8.9989401227
 30
0.0
 10
9.6341694459
 20
9.0072160166
 30
0.0
 10
9.6286971165
 20
9.0158727079
 30
0.0
 10
9.6238435366
 20
9.0248640706
 30
0.0
 10
9.6196346232
 20
9.0341421954
 30
0.0
 10
9.6160928718
 20
9.0436576411
 30
0.0
 10
9.6132372367
 20
9.0533596948
 30
0.0
 10
9.6110830284
 20
9.0631966384
 30
0.0
 10
9.6096418314
 20
9.0731160202
 30
0.0
 10
9.6089214389
 20
9.0830649309
 30
0.0
 10
9.6089258091
 20
9.0929902822
 30
0.0
 10
9.6096550361
 20
9.1028390869
 30
0.0
 10
9.611105344
 20
9.1125587411
 30
0.0
 10
9.6132691025
 20
9.1220973017
 30
0.0
 10
9.6161348676
 20
9.1314037729
 30
0.0
 10
9.6196874103
 20
9.1404283481
 30
0.0
 10
9.6239078874
 20
9.1491227996
 30
0.0
 10
9.6287735807
 20
9.1574402974
 30
0.0
 10
9.6333471391
 20
9.1640241593
 30
0.0
 10
9.6372993101
 20
9.1690565224
 30
0.0
 10
9.6414399939
 20
9.1739246854
 30
0.0
 10
9.6447574197
 20
9.1773903856
 30
0.0
 10
9.6470542326
 20
9.1796089431
 30
0.0
  0
SPLINE
  5
3DA
100
AcDbEntity
  8
0
100
AcDbSpline
 62
7
  6
CONTINUOUS
 70
0
 71
3
 72
11
 73
7
 74
0
 42
0.0000001
 43
0.0000001
 44
0.0000000001
 40
0.0
 40
0.0
 40
0.0
 40
0.0
 40
0.2462598102
 40
0.4940332787
 40
0.7448046145
 40
1.0
 40
1.0
 40
1.0
 40
1.0
 10
10.5003757573
 20
10.9937426121
 30
0.0
 10
10.5003757551
 20
10.9947245545
 30
0.0
 10
10.5004561572
 20
10.9966953992
 30
0.0
 10
10.5008175819
 20
10.9996462817
 30
0.0
 10
10.5014195818
 20
11.0025939159
 30
0.0
 10
10.5019752335
 20
11.0045357424
 30
0.0
 10
10.5022908591
 20
11.0055031275
 30
0.0
  0
SPLINE
  5
3DB
100
AcDbEntity
  8
0
100
AcDbSpline
 62
7
  6
CONTINUOUS
 70
0
 71
3
 72
41
 73
37
 74
0
 42
0.0000001
 43
0.0000001
 44
0.0000000001
 40
0.0
 40
0.0
 40
0.0
 40
0.0
 40
0.0314063763
 40
0.0471951661
 40
0.0630348321
 40
0.0948499858
 40
0.1268363941
 40
0.1428889691
 40
0.1589722602
 40
0.191203723
 40
0.2235010775
 40
0.2558242889
 40
0.2881335964
 40
0.320390872
 40
0.3525607775
 40
0.3846117108
 40
0.4165165659
 40
0.4482533333
 40
0.4798055701
 40
0.511162765
 40
0.5423206127
 40
0.5732812032
 40
0.6040531178
 40
0.6346514094
 40
0.6650974356
 40
0.695418501
 40
0.7256472644
 40
0.7558208689
 40
0.7859797681
 40
0.8161662479
 40
0.8464226768
 40
0.8767895775
 40
0.9073035616
 40
0.9379956739
 40
0.9688884537
 40
1.0
 40
1.0
 40
1.0
 40
1.0
 10
11.4041269648
 20
6.4098017024
 30
0.0
 10
11.4016368125
 20
6.409974395
 30
0.0
 10
11.3979045887
 20
6.4104257265
 30
0.0
 10
11.3929886846
 20
6.4113991793
 30
0.0
 10
11.3880952754
 20
6.4126238279
 30
0.0
 10
11.3820753648
 20
6.4146145708
 30
0.0
 10
11.3762617512
 20
6.4171864046
 30
0.0
 10
11.3717588748
 20
6.4195767638
 30
0.0
 10
11.367357495
 20
6.4221875911
 30
0.0
 10
11.3620828762
 20
6.4258423445
 30
0.0
 10
11.3561803319
 20
6.430799901
 30
0.0
 10
11.3507508519
 20
6.4362803229
 30
0.0
 10
11.3458412694
 20
6.4422264742
 30
0.0
 10
11.3414917356
 20
6.448578837
 30
0.0
 10
11.3377364829
 20
6.4552759696
 30
0.0
 10
11.3346039001
 20
6.4622552466
 30
0.0
 10
11.3321168629
 20
6.4694533353
 30
0.0
 10
11.3302930143
 20
6.4768065689
 30
0.0
 10
11.3291450312
 20
6.4842511974
 30
0.0
 10
11.3286808335
 20
6.491723551
 30
0.0
 10
11.3289037199
 20
6.4991601436
 30
0.0
 10
11.3298124201
 20
6.5064977446
 30
0.0
 10
11.3314010552
 20
6.5136734523
 30
0.0
 10
11.3336590091
 20
6.5206247979
 30
0.0
 10
11.336570719
 20
6.5272899136
 30
0.0
 10
11.3401153986
 20
6.5336077918
 30
0.0
 10
11.3442667218
 20
6.539518666
 30
0.0
 10
11.3489924999
 20
6.5449645314
 30
0.0
 10
11.3542543952
 20
6.5498898201
 30
0.0
 10
11.3600077278
 20
6.5542422261
 30
0.0
 10
11.366201418
 20
6.5579736672
 30
0.0
 10
11.372778166
 20
6.5610413187
 30
0.0
 10
11.3796747348
 20
6.5634087469
 30
0.0
 10
11.3868229806
 20
6.5650467889
 30
0.0
 10
11.3941494504
 20
6.5659349016
 30
0.0
 10
11.3990870531
 20
6.5660185539
 30
0.0
 10
11.4015583237
 20
6.5659344722
 30
0.0
  0
SPLINE
  5
3DC
100
AcDbEntity
  8
0
100
AcDbSpline
 62
7
  6
CONTINUOUS
 70
0
 71
3
 72
31
 73
27
 74
0
 42
0.0000001
 43
0.0000001
 44
0.0000000001
 40
0.0
 40
0.0
 40
0.0
 40
0.0
 40
0.0165871972
 40
0.034153845
 40
0.052730511
 40
0.0723389048
 40
0.0929937081
 40
0.1147031542
 40
0.1374704627
 40
0.1612940074
 40
0.1861684824
 40
0.2120847967
 40
0.2390310689
 40
0.2669923487
 40
0.2959515022
 40
0.3258888278
 40
0.3567828667
 40
0.3886099588
 40
0.4549591512
 40
0.5247176568
 40
0.5976421114
 40
0.6734695769
 40
0.7519200885
 40
0.8326987929
 40
0.9154982726
 40
1.0
 40
1.0
 40
1.0
 40
1.0
 10
9.5753740702
 20
5.430981621
 30
0.0
 10
9.5764922336
 20
5.429941061
 30
0.0
 10
9.5788638905
 20
5.427872134
 30
0.0
 10
9.582696372
 20
5.4248871858
 30
0.0
 10
9.5868998766
 20
5.4219363698
 30
0.0
 10
9.591469911
 20
5.4190226611
 30
0.0
 10
9.5964019211
 20
5.4161489787
 30
0.0
 10
9.601690819
 20
5.4133181699
 30
0.0
 10
9.6073312045
 20
5.4105332089
 30
0.0
 10
9.6133172334
 20
5.4077969013
 30
0.0
 10
9.6196427274
 20
5.4051121709
 30
0.0
 10
9.6263010985
 20
5.4024817497
 30
0.0
 10
9.6332854282
 20
5.3999084706
 30
0.0
 10
9.6405884172
 20
5.3973949652
 30
0.0
 10
9.6482024457
 20
5.3949439496
 30
0.0
 10
9.656119537
 20
5.3925579417
 30
0.0
 10
9.6643314178
 20
5.3902394981
 30
0.0
 10
9.6758219487
 20
5.3871993577
 30
0.0
 10
9.6908636153
 20
5.3835979496
 30
0.0
 10
9.7097032393
 20
5.379639855
 30
0.0
 10
9.7294957346
 20
5.3760045581
 30
0.0
 10
9.7501580601
 20
5.3727074948
 30
0.0
 10
9.7716036446
 20
5.3697627071
 30
0.0
 10
9.7937425422
 20
5.3671827078
 30
0.0
 10
9.8164817291
 20
5.3649784705
 30
0.0
 10
9.8318417139
 20
5.3637763764
 30
0.0
 10
9.8396044204
 20
5.3632380309
 30
0.0
  0
SPLINE
  5
3DD
100
AcDbEntity
  8
0
100
AcDbSpline
 62
7
  6
CONTINUOUS
 70
0
 71
3
 72
15
 73
11
 74
0
 42
0.0000001
 43
0.0000001
 44
0.0000000001
 40
0.0
 40
0.0
 40
0.0
 40
0.0
 40
0.1233171305
 40
0.2468171932
 40
0.3706749987
 40
0.4950495698
 40
0.6200773368
 40
0.7458670832
 40
0.8724927373
 40
1.0
 40
1.0
 40
1.0
 40
1.0
 10
9.8422785442
 20
6.9249064016
 30
0.0
 10
9.8391256892
 20
6.9218609685
 30
0.0
 10
9.8324816154
 20
6.9161005384
 30
0.0
 10
9.8216378454
 20
6.9085732029
 30
0.0
 10
9.8100183729
 20
6.9022277584
 30
0.0
 10
9.7977421431
 20
6.8971294014
 30
0.0
 10
9.7849329733
 20
6.8933287955
 30
0.0
 10
9.7717199053
 20
6.8908639161
 30
0.0
 10
9.7582378166
 20
6.8897587439
 30
0.0
 10
9.7491879831
 20
6.8899352608
 30
0.0
 10
9.7446663884
 20
6.8902488345
 30
0.0
  0
SPLINE
  5
3DE
100
AcDbEntity
  8
0
100
AcDbSpline
 62
7
  6
CONTINUOUS
 70
0
 71
3
 72
23
 73
19
 74
0
 42
0.0000001
 43
0.0000001
 44
0.0000000001
 40
0.0
 40
0.0
 40
0.0
 40
0.0
 40
0.063931828
 40
0.1275599988
 40
0.1908824597
 40
0.2539228509
 40
0.3167009071
 40
0.3792442965
 40
0.4415854068
 40
0.5037600117
 40
0.5658068757
 40
0.6277668376
 40
0.6896817281
 40
0.7515933244
 40
0.8135426155
 40
0.8755691714
 40
0.9377102112
 40
1.0
 40
1.0
 40
1.0
 40
1.0
 10
10.9948143602
 20
6.6378946469
 30
0.0
 10
10.9948143602
 20
6.6396019127
 30
0.0
 10
10.9949343794
 20
6.6430095946
 30
0.0
 10
10.9954762833
 20
6.6480822918
 30
0.0
 10
10.996376704
 20
6.6530798848
 30
0.0
 10
10.9976301283
 20
6.6579773553
 30
0.0
 10
10.9992294398
 20
6.6627511385
 30
0.0
 10
11.0011653521
 20
6.6673783831
 30
0.0
 10
11.0034268694
 20
6.6718374493
 30
0.0
 10
11.0060014153
 20
6.6761079152
 30
0.0
 10
11.0088749531
 20
6.6801707041
 30
0.0
 10
11.0120321023
 20
6.6840082162
 30
0.0
 10
11.0154563983
 20
6.68760431
 30
0.0
 10
11.0191304611
 20
6.6909443083
 30
0.0
 10
11.0230360771
 20
6.6940150213
 30
0.0
 10
11.0271544487
 20
6.6968048156
 30
0.0
 10
11.031465931
 20
6.6993033074
 30
0.0
 10
11.0344524701
 20
6.7007671145
 30
0.0
 10
11.0359703326
 20
6.7014475896
 30
0.0
  0
SPLINE
  5
3DF
100
AcDbEntity
  8
0
100
AcDbSpline
 62
7
  6
CONTINUOUS
 70
0
 71
3
 72
15
 73
11
 74
0
 42
0.0000001
 43
0.0000001
 44
0.0000000001
 40
0.0
 40
0.0
 40
0.0
 40
0.0
 40
0.1233171305
 40
0.2468171932
 40
0.3706749987
 40
0.4950495698
 40
0.6200773368
 40
0.7458670832
 40
0.8724927373
 40
1.0
 40
1.0
 40
1.0
 40
1.0
 10
11.5925361362
 20
6.8035256254
 30
0.0
 10
11.5893832812
 20
6.8004801922
 30
0.0
 10
11.5827392074
 20
6.7947197622
 30
0.0
 10
11.5718954374
 20
6.7871924267
 30
0.0
 10
11.5602759649
 20
6.7808469822
 30
0.0
 10
11.5479997351
 20
6.7757486252
 30
0.0
 10
11.5351905653
 20
6.7719480192
 30
0.0
 10
11.5219774973
 20
6.7694831398
 30
0.0
 10
11.5084954087
 20
6.7683779676
 30
0.0
 10
11.4994455751
 20
6.7685544845
 30
0.0
 10
11.4949239804
 20
6.7688680582
 30
0.0
  0
SPLINE
  5
3E0
100
AcDbEntity
  8
0
100
AcDbSpline
 62
7
  6
CONTINUOUS
 70
0
 71
3
 72
15
 73
11
 74
0
 42
0.0000001
 43
0.0000001
 44
0.0000000001
 40
0.0
 40
0.0
 40
0.0
 40
0.0
 40
0.1233171305
 40
0.2468171932
 40
0.3706749987
 40
0.4950495698
 40
0.6200773368
 40
0.7458670832
 40
0.8724927373
 40
1.0
 40
1.0
 40
1.0
 40
1.0
 10
11.5925361362
 20
8.8561181278
 30
0.0
 10
11.5893832812
 20
8.8530726947
 30
0.0
 10
11.5827392074
 20
8.8473122646
 30
0.0
 10
11.5718954374
 20
8.8397849292
 30
0.0
 10
11.5602759649
 20
8.8334394847
 30
0.0
 10
11.5479997351
 20
8.8283411276
 30
0.0
 10
11.5351905653
 20
8.8245405217
 30
0.0
 10
11.5219774973
 20
8.8220756423
 30
0.0
 10
11.5084954087
 20
8.8209704701
 30
0.0
 10
11.4994455751
 20
8.821146987
 30
0.0
 10
11.4949239804
 20
8.8214605607
 30
0.0
  0
SPLINE
  5
3E1
100
AcDbEntity
  8
0
100
AcDbSpline
 62
7
  6
CONTINUOUS
 70
0
 71
3
 72
23
 73
19
 74
0
 42
0.0000001
 43
0.0000001
 44
0.0000000001
 40
0.0
 40
0.0
 40
0.0
 40
0.0
 40
0.0622034275
 40
0.1242632974
 40
0.1862158438
 40
0.2481002249
 40
0.3099577241
 40
0.3718309447
 40
0.4337631783
 40
0.495797433
 40
0.5579752663
 40
0.6203358616
 40
0.6829149964
 40
0.7457444062
 40
0.8088507935
 40
0.8722522348
 40
0.9359698985
 40
1.0
 40
1.0
 40
1.0
 40
1.0
 10
11.4712806969
 20
9.3455586292
 30
0.0
 10
11.470511758
 20
9.3440469535
 30
0.0
 10
11.4688694287
 20
9.3410797388
 30
0.0
 10
11.4661003168
 20
9.3368192121
 30
0.0
 10
11.4630387977
 20
9.3327741856
 30
0.0
 10
11.4596969316
 20
9.3289648282
 30
0.0
 10
11.4560881041
 20
9.32541031
 30
0.0
 10
11.4522273297
 20
9.3221290842
 30
0.0
 10
11.4481311332
 20
9.3191386666
 30
0.0
 10
11.4438175716
 20
9.3164555079
 30
0.0
 10
11.4393062395
 20
9.3140947622
 30
0.0
 10
11.4346182138
 20
9.3120700862
 30
0.0
 10
11.4297759292
 20
9.3103935014
 30
0.0
 10
11.4248030431
 20
9.3090752375
 30
0.0
 10
11.4197244127
 20
9.3081235876
 30
0.0
 10
11.4145655367
 20
9.3075444905
 30
0.0
 10
11.4093533281
 20
9.3073420288
 30
0.0
 10
11.4058686293
 20
9.3074588002
 30
0.0
 10
11.4041270031
 20
9.3075795824
 30
0.0
  0
SPLINE
  5
3E2
100
AcDbEntity
  8
0
100
AcDbSpline
 62
7
  6
CONTINUOUS
 70
0
 71
3
 72
32
 73
28
 74
0
 42
0.0000001
 43
0.0000001
 44
0.0000000001
 40
0.0
 40
0.0
 40
0.0
 40
0.0
 40
0.065279914
 40
0.1274304345
 40
0.1865842626
 40
0.2428680277
 40
0.2964335381
 40
0.32225688
 40
0.347480679
 40
0.3962818315
 40
0.443307396
 40
0.4663908839
 40
0.4893547435
 40
0.5123756502
 40
0.5356763603
 40
0.5595345119
 40
0.5842911733
 40
0.6103514332
 40
0.6381943661
 40
0.6683633648
 40
0.7014714169
 40
0.7381847896
 40
0.7792126365
 40
0.825276377
 40
0.8770631144
 40
0.9351652202
 40
1.0
 40
1.0
 40
1.0
 40
1.0
 10
10.5764890205
 20
7.507154328
 30
0.0
 10
10.5756591373
 20
7.5056957614
 30
0.0
 10
10.574015067
 20
7.5028621006
 30
0.0
 10
10.5715145299
 20
7.4987684451
 30
0.0
 10
10.5690240379
 20
7.4949414211
 30
0.0
 10
10.5665201823
 20
7.4913896009
 30
0.0
 10
10.5643773557
 20
7.4886353679
 30
0.0
 10
10.5626280299
 20
7.4865921959
 30
0.0
 10
10.5608916224
 20
7.4847013245
 30
0.0
 10
10.558652121
 20
7.4825349641
 30
0.0
 10
10.5562437064
 20
7.4806399025
 30
0.0
 10
10.5542243603
 20
7.4793533277
 30
0.0
 10
10.5526598557
 20
7.478510027
 30
0.0
 10
10.5510261381
 20
7.4777951939
 30
0.0
 10
10.5493133101
 20
7.4772205731
 30
0.0
 10
10.5475094803
 20
7.4768022018
 30
0.0
 10
10.5456019382
 20
7.4765588253
 30
0.0
 10
10.5435767515
 20
7.4765114031
 30
0.0
 10
10.5414187707
 20
7.4766864315
 30
0.0
 10
10.5391115576
 20
7.4771128468
 30
0.0
 10
10.536637923
 20
7.477825682
 30
0.0
 10
10.5339805136
 20
7.4788646973
 30
0.0
 10
10.5311230986
 20
7.4802743342
 30
0.0
 10
10.528053395
 20
7.4821038114
 30
0.0
 10
10.5247654981
 20
7.484403473
 30
0.0
 10
10.5212640362
 20
7.48722146
 30
0.0
 10
10.5189290568
 20
7.4893544799
 30
0.0
 10
10.5177302875
 20
7.4905124093
 30
0.0
  0
SPLINE
  5
3E3
100
AcDbEntity
  8
0
100
AcDbSpline
 62
7
  6
CONTINUOUS
 70
0
 71
3
 72
25
 73
21
 74
0
 42
0.0000001
 43
0.0000001
 44
0.0000000001
 40
0.0
 40
0.0
 40
0.0
 40
0.0
 40
0.0601461209
 40
0.1207171524
 40
0.1817754267
 40
0.2433529509
 40
0.3054514095
 40
0.3680430179
 40
0.4310722694
 40
0.4944581459
 40
0.5580973135
 40
0.6218684926
 40
0.6856377656
 40
0.7492661109
 40
0.812618119
 40
0.8755720719
 40
0.9068851421
 40
0.9380640421
 40
0.9691058566
 40
1.0
 40
1.0
 40
1.0
 40
1.0
 10
11.1096583935
 20
9.2198190915
 30
0.0
 10
11.1067150346
 20
9.2184995499
 30
0.0
 10
11.1006238725
 20
9.2162419966
 30
0.0
 10
11.0910966084
 20
9.2140601266
 30
0.0
 10
11.0812927598
 20
9.2130928034
 30
0.0
 10
11.0713639564
 20
9.2133494254
 30
0.0
 10
11.0614592032
 20
9.2148235697
 30
0.0
 10
11.0517278935
 20
9.2174947865
 30
0.0
 10
11.0423186385
 20
9.2213281003
 30
0.0
 10
11.0333788759
 20
9.2262732368
 30
0.0
 10
11.0250537469
 20
9.2322637092
 30
0.0
 10
11.0174845222
 20
9.2392158669
 30
0.0
 10
11.0108059519
 20
9.2470275871
 30
0.0
 10
11.00514318
 20
9.2555786069
 30
0.0
 10
11.000608037
 20
9.2647288083
 30
0.0
 10
10.9978402278
 20
9.2727431235
 30
0.0
 10
10.9962765215
 20
9.2792906044
 30
0.0
 10
10.9954349566
 20
9.284239634
 30
0.0
 10
10.9949279387
 20
9.2892110753
 30
0.0
 10
10.9948143602
 20
9.2925337572
 30
0.0
 10
10.9948143602
 20
9.2941905958
 30
0.0
  0
SPLINE
  5
3E4
100
AcDbEntity
  8
0
100
AcDbSpline
 62
7
  6
CONTINUOUS
 70
0
 71
3
 72
15
 73
11
 74
0
 42
0.0000001
 43
0.0000001
 44
0.0000000001
 40
0.0
 40
0.0
 40
0.0
 40
0.0
 40
0.1233171305
 40
0.2468171932
 40
0.3706749987
 40
0.4950495698
 40
0.6200773368
 40
0.7458670832
 40
0.8724927373
 40
1.0
 40
1.0
 40
1.0
 40
1.0
 10
9.8422785442
 20
8.9774989041
 30
0.0
 10
9.8391256892
 20
8.974453471
 30
0.0
 10
9.8324816154
 20
8.9686930409
 30
0.0
 10
9.8216378454
 20
8.9611657054
 30
0.0
 10
9.8100183729
 20
8.9548202609
 30
0.0
 10
9.7977421431
 20
8.9497219039
 30
0.0
 10
9.7849329733
 20
8.945921298
 30
0.0
 10
9.7717199053
 20
8.9434564185
 30
0.0
 10
9.7582378166
 20
8.9423512464
 30
0.0
 10
9.7491879831
 20
8.9425277633
 30
0.0
 10
9.7446663884
 20
8.942841337
 30
0.0
  0
SPLINE
  5
3E5
100
AcDbEntity
  8
0
100
AcDbSpline
 62
7
  6
CONTINUOUS
 70
0
 71
3
 72
37
 73
33
 74
0
 42
0.0000001
 43
0.0000001
 44
0.0000000001
 40
0.0
 40
0.0
 40
0.0
 40
0.0
 40
0.0716572279
 40
0.14687168
 40
0.2246257156
 40
0.2641102846
 40
0.303799421
 40
0.3831795924
 40
0.4615882022
 40
0.5378996355
 40
0.611092399
 40
0.646236729
 40
0.6802742473
 40
0.7131110807
 40
0.7446605235
 40
0.7748423028
 40
0.8035817184
 40
0.8308095475
 40
0.8564615448
 40
0.8804786408
 40
0.9028080542
 40
0.9234050716
 40
0.9330430182
 40
0.9422364382
 40
0.9509836167
 40
0.9592844159
 40
0.9671403986
 40
0.9745555135
 40
0.9815366918
 40
0.9880942572
 40
0.9942423217
 40
1.0
 40
1.0
 40
1.0
 40
1.0
 10
10.6667321782
 20
7.7319473722
 30
0.0
 10
10.6626726982
 20
7.7276801511
 30
0.0
 10
10.6546453101
 20
7.718650062
 30
0.0
 10
10.6433185539
 20
7.7040538659
 30
0.0
 10
10.6344725563
 20
7.6909246599
 30
0.0
 10
10.6278038446
 20
7.679881771
 30
0.0
 10
10.6214371894
 20
7.6685084791
 30
0.0
 10
10.6142029137
 20
7.6539650652
 30
0.0
 10
10.6067214724
 20
7.6362251062
 30
0.0
 10
10.6004711371
 20
7.6185550974
 30
0.0
 10
10.5961980558
 20
7.6039846514
 30
0.0
 10
10.593325595
 20
7.5926396467
 30
0.0
 10
10.5914531015
 20
7.5844654723
 30
0.0
 10
10.5898114714
 20
7.5765435483
 30
0.0
 10
10.5883762505
 20
7.5689039987
 30
0.0
 10
10.5871209478
 20
7.5615744285
 30
0.0
 10
10.5860173568
 20
7.5545799841
 30
0.0
 10
10.585035889
 20
7.5479435992
 30
0.0
 10
10.5841459888
 20
7.5416861929
 30
0.0
 10
10.583316506
 20
7.5358268596
 30
0.0
 10
10.5825158458
 20
7.5303831178
 30
0.0
 10
10.5818323829
 20
7.5261168429
 30
0.0
 10
10.5812646552
 20
7.5229261471
 30
0.0
 10
10.5808357103
 20
7.5207002517
 30
0.0
 10
10.5803903674
 20
7.5185897416
 30
0.0
 10
10.5799250233
 20
7.5165962236
 30
0.0
 10
10.5794360184
 20
7.5147212491
 30
0.0
 10
10.5789198311
 20
7.5129662664
 30
0.0
 10
10.5783731958
 20
7.5113325844
 30
0.0
 10
10.5777926744
 20
7.5098215169
 30
0.0
 10
10.5771753472
 20
7.5084344045
 30
0.0
 10
10.5767230506
 20
7.5075656491
 30
0.0
 10
10.5764890205
 20
7.507154328
 30
0.0
  0
SPLINE
  5
3E6
100
AcDbEntity
  8
0
100
AcDbSpline
 62
7
  6
CONTINUOUS
 70
0
 71
3
 72
15
 73
11
 74
0
 42
0.0000001
 43
0.0000001
 44
0.0000000001
 40
0.0
 40
0.0
 40
0.0
 40
0.0
 40
0.1233171376
 40
0.2468171981
 40
0.3706749826
 40
0.4950495853
 40
0.6200772313
 40
0.7458671002
 40
0.8724930137
 40
1.0
 40
1.0
 40
1.0
 40
1.0
 10
9.8896540719
 20
9.4382654703
 30
0.0
 10
9.8879037227
 20
9.4365747435
 30
0.0
 10
9.8842152
 20
9.433376709
 30
0.0
 10
9.8781951388
 20
9.4291977537
 30
0.0
 10
9.871744428
 20
9.4256749463
 30
0.0
 10
9.864929101
 20
9.4228444916
 30
0.0
 10
9.8578179042
 20
9.4207344844
 30
0.0
 10
9.8504824633
 20
9.4193660447
 30
0.0
 10
9.8429976714
 20
9.4187524842
 30
0.0
 10
9.8379735166
 20
9.4188504795
 30
0.0
 10
9.8354632888
 20
9.4190245644
 30
0.0
  0
SPLINE
  5
3E7
100
AcDbEntity
  8
0
100
AcDbSpline
 62
7
  6
CONTINUOUS
 70
0
 71
3
 72
25
 73
21
 74
0
 42
0.0000001
 43
0.0000001
 44
0.0000000001
 40
0.0
 40
0.0
 40
0.0
 40
0.0
 40
0.0601461209
 40
0.1207171524
 40
0.1817754268
 40
0.2433529509
 40
0.3054514096
 40
0.3680430179
 40
0.4310722694
 40
0.4944581459
 40
0.5580973136
 40
0.6218684927
 40
0.6856377656
 40
0.749266111
 40
0.812618119
 40
0.8755720719
 40
0.9068851422
 40
0.9380640421
 40
0.9691058566
 40
1.0
 40
1.0
 40
1.0
 40
1.0
 10
11.1096583935
 20
6.5635231421
 30
0.0
 10
11.1067150345
 20
6.5622036005
 30
0.0
 10
11.1006238724
 20
6.5599460472
 30
0.0
 10
11.0910966084
 20
6.5577641772
 30
0.0
 10
11.0812927597
 20
6.556796854
 30
0.0
 10
11.0713639563
 20
6.557053476
 30
0.0
 10
11.0614592031
 20
6.5585276204
 30
0.0
 10
11.0517278934
 20
6.5611988372
 30
0.0
 10
11.0423186384
 20
6.565032151
 30
0.0
 10
11.0333788757
 20
6.5699772875
 30
0.0
 10
11.0250537467
 20
6.5759677599
 30
0.0
 10
11.017484522
 20
6.5829199177
 30
0.0
 10
11.0108059517
 20
6.590731638
 30
0.0
 10
11.0051431798
 20
6.5992826578
 30
0.0
 10
11.0006080369
 20
6.6084328593
 30
0.0
 10
10.9978402277
 20
6.6164471745
 30
0.0
 10
10.9962765215
 20
6.6229946554
 30
0.0
 10
10.9954349565
 20
6.627943685
 30
0.0
 10
10.9949279387
 20
6.6329151263
 30
0.0
 10
10.9948143602
 20
6.6362378082
 30
0.0
 10
10.9948143602
 20
6.6378946469
 30
0.0
  0
SPLINE
  5
3E8
100
AcDbEntity
  8
0
100
AcDbSpline
 62
7
  6
CONTINUOUS
 70
0
 71
3
 72
30
 73
26
 74
0
 42
0.0000001
 43
0.0000001
 44
0.0000000001
 40
0.0
 40
0.0
 40
0.0
 40
0.0
 40
0.0032583844
 40
0.0068808566
 40
0.0108902807
 40
0.0153025559
 40
0.0253748227
 40
0.0371525476
 40
0.0506571626
 40
0.0658926895
 40
0.0828521522
 40
0.1015227334
 40
0.1218866542
 40
0.1439240356
 40
0.1676126975
 40
0.1929292318
 40
0.2483487421
 40
0.3099831762
 40
0.3776272357
 40
0.4510698915
 40
0.5300916455
 40
0.6144603704
 40
0.7039259966
 40
0.798215991
 40
1.0
 40
1.0
 40
1.0
 40
1.0
 10
10.7409099779
 20
7.7874553716
 30
0.0
 10
10.7408557326
 20
7.7873700778
 30
0.0
 10
10.7407308107
 20
7.7871964827
 30
0.0
 10
10.7405104534
 20
7.7869400197
 30
0.0
 10
10.7402480247
 20
7.7866737191
 30
0.0
 10
10.7398233335
 20
7.7862876514
 30
0.0
 10
10.739183925
 20
7.7857814197
 30
0.0
 10
10.7382865148
 20
7.7851503553
 30
0.0
 10
10.7372308624
 20
7.7844676317
 30
0.0
 10
10.7360205701
 20
7.7837291647
 30
0.0
 10
10.7346594853
 20
7.7829306897
 30
0.0
 10
10.7331517411
 20
7.7820680665
 30
0.0
 10
10.7315017828
 20
7.7811368912
 30
0.0
 10
10.7297142041
 20
7.7801328534
 30
0.0
 10
10.727793794
 20
7.7790515671
 30
0.0
 10
10.7249766318
 20
7.7774522418
 30
0.0
 10
10.7211550043
 20
7.775237907
 30
0.0
 10
10.7162492252
 20
7.7722768866
 30
0.0
 10
10.7109392037
 20
7.7689062588
 30
0.0
 10
10.7052713187
 20
7.7650968272
 30
0.0
 10
10.69929403
 20
7.7608227161
 30
0.0
 10
10.6930580159
 20
7.7560621096
 30
0.0
 10
10.6866158102
 20
7.7507978324
 30
0.0
 10
10.6776200676
 20
7.7429134383
 30
0.0
 10
10.6710467308
 20
7.7364827191
 30
0.0
 10
10.6667321782
 20
7.7319473722
 30
0.0
  0
SPLINE
  5
3E9
100
AcDbEntity
  8
0
100
AcDbSpline
 62
7
  6
CONTINUOUS
 70
0
 71
3
 72
35
 73
31
 74
0
 42
0.0000001
 43
0.0000001
 44
0.0000000001
 40
0.0
 40
0.0
 40
0.0
 40
0.0
 40
0.0325106671
 40
0.0650131168
 40
0.0974823594
 40
0.1298959862
 40
0.1944436213
 40
0.2585701777
 40
0.2904641252
 40
0.3222231675
 40
0.3538421976
 40
0.3853181271
 40
0.4478036941
 40
0.5097296188
 40
0.5405167585
 40
0.5711870285
 40
0.6017531577
 40
0.632230754
 40
0.6626384318
 40
0.6929977968
 40
0.7233333146
 40
0.7536721631
 40
0.784043748
 40
0.8144788962
 40
0.8450087628
 40
0.875663363
 40
0.9064700972
 40
0.9374516541
 40
0.9686252812
 40
1.0
 40
1.0
 40
1.0
 40
1.0
 10
9.7894358169
 20
6.5328360654
 30
0.0
 10
9.7878530106
 20
6.5343166105
 30
0.0
 10
9.7847991721
 20
6.5373988842
 30
0.0
 10
9.7805752575
 20
6.5423447306
 30
0.0
 10
9.776721911
 20
6.547576871
 30
0.0
 10
9.7721031091
 20
6.5548720069
 30
0.0
 10
9.7673078153
 20
6.5645202419
 30
0.0
 10
9.7638517165
 20
6.5746861056
 30
0.0
 10
9.761915326
 20
6.5829867458
 30
0.0
 10
9.7608789202
 20
6.5892576567
 30
0.0
 10
9.7602575553
 20
6.595555206
 30
0.0
 10
9.7599838226
 20
6.6039275589
 30
0.0
 10
9.7606739984
 20
6.6143296442
 30
0.0
 10
9.7627566809
 20
6.6245003276
 30
0.0
 10
9.7652505073
 20
6.6323447589
 30
0.0
 10
9.7675273533
 20
6.6380474226
 30
0.0
 10
9.7702100763
 20
6.6435478444
 30
0.0
 10
9.7732935283
 20
6.6488142033
 30
0.0
 10
9.776770605
 20
6.6538130045
 30
0.0
 10
9.7806318357
 20
6.6585096225
 30
0.0
 10
9.784864776
 20
6.6628683445
 30
0.0
 10
9.7894534225
 20
6.6668527296
 30
0.0
 10
9.7943775947
 20
6.6704261234
 30
0.0
 10
9.7996123565
 20
6.6735524074
 30
0.0
 10
9.8051275484
 20
6.6761969593
 30
0.0
 10
9.8108875461
 20
6.6783278572
 30
0.0
 10
9.8168512162
 20
6.6799171579
 30
0.0
 10
9.8229726413
 20
6.6809423296
 30
0.0
 10
9.8292007682
 20
6.6813874435
 30
0.0
 10
9.8333766763
 20
6.6812921572
 30
0.0
 10
9.8354632598
 20
6.6811474521
 30
0.0
  0
SPLINE
  5
3EA
100
AcDbEntity
  8
0
100
AcDbSpline
 62
7
  6
CONTINUOUS
 70
0
 71
3
 72
14
 73
10
 74
0
 42
0.0000001
 43
0.0000001
 44
0.0000000001
 40
0.0
 40
0.0
 40
0.0
 40
0.0
 40
0.1912842646
 40
0.2994805529
 40
0.4174539951
 40
0.5459491264
 40
0.6855678426
 40
0.836790631
 40
1.0
 40
1.0
 40
1.0
 40
1.0
 10
10.7431744495
 20
7.7928172634
 30
0.0
 10
10.7431688224
 20
7.7924422964
 30
0.0
 10
10.7430693225
 20
7.7918561512
 30
0.0
 10
10.7428225902
 20
7.7910759211
 30
0.0
 10
10.742563069
 20
7.7904300271
 30
0.0
 10
10.7422396568
 20
7.7897453857
 30
0.0
 10
10.7418537096
 20
7.78901921
 30
0.0
 10
10.7414067628
 20
7.788249218
 30
0.0
 10
10.741081688
 20
7.7877253637
 30
0.0
 10
10.7409099779
 20
7.7874553716
 30
0.0
  0
SPLINE
  5
3EB
100
AcDbEntity
  8
0
100
AcDbSpline
 62
7
  6
CONTINUOUS
 70
0
 71
3
 72
40
 73
36
 74
0
 42
0.0000001
 43
0.0000001
 44
0.0000000001
 40
0.0
 40
0.0
 40
0.0
 40
0.0
 40
0.0311444623
 40
0.0624429464
 40
0.0938877347
 40
0.1254702907
 40
0.1571779705
 40
0.188996169
 40
0.2209078941
 40
0.2528943766
 40
0.2849353707
 40
0.3170095775
 40
0.3490950548
 40
0.3811696427
 40
0.4132113916
 40
0.4451989867
 40
0.4771121643
 40
0.5089321125
 40
0.5406418522
 40
0.5722265907
 40
0.603674042
 40
0.6349747068
 40
0.6661221049
 40
0.6971129533
 40
0.727947284
 40
0.7586284939
 40
0.7891633219
 40
0.8195617482
 40
0.8498368162
 40
0.8800043756
 40
0.9100827498
 40
0.9400923353
 40
0.9550810224
 40
0.9700608656
 40
1.0
 40
1.0
 40
1.0
 40
1.0
 10
9.7446663884
 20
6.8902488345
 30
0.0
 10
9.7413524584
 20
6.8904786563
 30
0.0
 10
9.7347225687
 20
6.891182024
 30
0.0
 10
9.7248581374
 20
6.8929537348
 30
0.0
 10
9.7150993318
 20
6.8954354792
 30
0.0
 10
9.7054989342
 20
6.8986137454
 30
0.0
 10
9.6961078858
 20
6.9024716133
 30
0.0
 10
9.6869763
 20
6.9069883859
 30
0.0
 10
9.678152818
 20
6.9121399528
 30
0.0
 10
9.6696844562
 20
6.9178987982
 30
0.0
 10
9.6616163347
 20
6.924234198
 30
0.0
 10
9.6539914441
 20
6.9311123626
 30
0.0
 10
9.6468504193
 20
6.9384966228
 30
0.0
 10
9.6402313237
 20
6.9463476202
 30
0.0
 10
9.6341694459
 20
6.9546235142
 30
0.0
 10
9.6286971165
 20
6.9632802054
 30
0.0
 10
9.6238435366
 20
6.9722715682
 30
0.0
 10
9.6196346232
 20
6.9815496929
 30
0.0
 10
9.6160928718
 20
6.9910651386
 30
0.0
 10
9.6132372367
 20
7.0007671923
 30
0.0
 10
9.6110830284
 20
7.0106041359
 30
0.0
 10
9.6096418314
 20
7.0205235177
 30
0.0
 10
9.6089214389
 20
7.0304724284
 30
0.0
 10
9.6089258091
 20
7.0403977798
 30
0.0
 10
9.6096550361
 20
7.0502465845
 30
0.0
 10
9.611105344
 20
7.0599662386
 30
0.0
 10
9.6132691025
 20
7.0695047993
 30
0.0
 10
9.6161348676
 20
7.0788112704
 30
0.0
 10
9.6196874103
 20
7.0878358456
 30
0.0
 10
9.6239078874
 20
7.0965302971
 30
0.0
 10
9.6287735807
 20
7.1048477949
 30
0.0
 10
9.6333471391
 20
7.1114316568
 30
0.0
 10
9.6372993101
 20
7.1164640199
 30
0.0
 10
9.6414399939
 20
7.1213321829
 30
0.0
 10
9.6447574197
 20
7.1247978831
 30
0.0
 10
9.6470542326
 20
7.1270164406
 30
0.0
  0
SPLINE
  5
3EC
100
AcDbEntity
  8
0
100
AcDbSpline
 62
7
  6
CONTINUOUS
 70
0
 71
3
 72
39
 73
35
 74
0
 42
0.0000001
 43
0.0000001
 44
0.0000000001
 40
0.0
 40
0.0
 40
0.0
 40
0.0
 40
0.0311439303
 40
0.0624436618
 40
0.0938881473
 40
0.1254709891
 40
0.1571788504
 40
0.1889972145
 40
0.2209091267
 40
0.2528957783
 40
0.2849369507
 40
0.3170113397
 40
0.3490969953
 40
0.3811717566
 40
0.4132136819
 40
0.4452014627
 40
0.4771148294
 40
0.5089349609
 40
0.5406448809
 40
0.572229804
 40
0.6036774458
 40
0.6349782967
 40
0.6661258727
 40
0.697116898
 40
0.7279514126
 40
0.7586328123
 40
0.789167825
 40
0.8195664295
 40
0.849841675
 40
0.8800094157
 40
0.9100879723
 40
0.9400977325
 40
0.9700607032
 40
1.0
 40
1.0
 40
1.0
 40
1.0
 10
9.8354632888
 20
9.4190245644
 30
0.0
 10
9.8336235749
 20
9.4191521489
 30
0.0
 10
9.8299429188
 20
9.4195426556
 30
0.0
 10
9.824466597
 20
9.4205261924
 30
0.0
 10
9.8190488825
 20
9.4219039931
 30
0.0
 10
9.8137191532
 20
9.4236683942
 30
0.0
 10
9.8085056252
 20
9.4258101156
 30
0.0
 10
9.8034361525
 20
9.4283176442
 30
0.0
 10
9.7985377232
 20
9.4311775762
 30
0.0
 10
9.793836437
 20
9.4343746385
 30
0.0
 10
9.7893573404
 20
9.4378917714
 30
0.0
 10
9.7851243113
 20
9.4417102328
 30
0.0
 10
9.7811599116
 20
9.4458096645
 30
0.0
 10
9.7774852575
 20
9.4501682022
 30
0.0
 10
9.7741199369
 20
9.4547626186
 30
0.0
 10
9.7710819008
 20
9.4595684361
 30
0.0
 10
9.7683873794
 20
9.4645600584
 30
0.0
 10
9.7660507568
 20
9.4697108827
 30
0.0
 10
9.7640845063
 20
9.474993455
 30
0.0
 10
9.7624991484
 20
9.4803796231
 30
0.0
 10
9.7613031888
 20
9.4858406786
 30
0.0
 10
9.7605030798
 20
9.4913475049
 30
0.0
 10
9.7601031323
 20
9.4968707246
 30
0.0
 10
9.7601055299
 20
9.502380866
 30
0.0
 10
9.7605103246
 20
9.5078485161
 30
0.0
 10
9.7613154325
 20
9.5132444715
 30
0.0
 10
9.762516637
 20
9.5185398908
 30
0.0
 10
9.7641075621
 20
9.5237064633
 30
0.0
 10
9.766079754
 20
9.5287165524
 30
0.0
 10
9.7684227266
 20
9.5335433501
 30
0.0
 10
9.7711239835
 20
9.5381609828
 30
0.0
 10
9.7741691927
 20
9.5425447924
 30
0.0
 10
9.7775417601
 20
9.5466710011
 30
0.0
 10
9.7799974165
 20
9.5492364406
 30
0.0
 10
9.7812725057
 20
9.5504680963
 30
0.0
  0
SPLINE
  5
3ED
100
AcDbEntity
  8
0
100
AcDbSpline
 62
7
  6
CONTINUOUS
 70
0
 71
3
 72
34
 73
30
 74
0
 42
0.0000001
 43
0.0000001
 44
0.0000000001
 40
0.0
 40
0.0
 40
0.0
 40
0.0
 40
0.0603307435
 40
0.1209872311
 40
0.1514541634
 40
0.1820118736
 40
0.212662477
 40
0.2434076323
 40
0.3051699307
 40
0.3673167063
 40
0.3985408989
 40
0.4298579991
 40
0.4927405786
 40
0.5559475889
 40
0.6194251103
 40
0.6512544206
 40
0.6831207746
 40
0.7150099775
 40
0.7469059783
 40
0.7787909454
 40
0.8106454864
 40
0.8424490572
 40
0.8583275232
 40
0.8741853039
 40
0.9058237849
 40
0.9373494278
 40
0.9530666806
 40
0.9687500258
 40
1.0
 40
1.0
 40
1.0
 40
1.0
 10
10.7674567832
 20
8.2122300744
 30
0.0
 10
10.7602786313
 20
8.2096895314
 30
0.0
 10
10.7456302368
 20
8.2052845256
 30
0.0
 10
10.7268655733
 20
8.2014973269
 30
0.0
 10
10.7116353024
 20
8.1994892627
 30
0.0
 10
10.7001034709
 20
8.1984956143
 30
0.0
 10
10.6885035741
 20
8.1980194176
 30
0.0
 10
10.6729552846
 20
8.1980783444
 30
0.0
 10
10.6534574528
 20
8.1994672372
 30
0.0
 10
10.634104117
 20
8.2026207767
 30
0.0
 10
10.6187783237
 20
8.2062175612
 30
0.0
 10
10.6035479919
 20
8.2105512272
 30
0.0
 10
10.5848437231
 20
8.21734644
 30
0.0
 10
10.5632351066
 20
8.2277075337
 30
0.0
 10
10.5461502505
 20
8.2381974783
 30
0.0
 10
10.5332010614
 20
8.2476933013
 30
0.0
 10
10.5238855199
 20
8.2553696512
 30
0.0
 10
10.51502704
 20
8.2635817844
 30
0.0
 10
10.5066770531
 20
8.2723144526
 30
0.0
 10
10.4988889804
 20
8.281546763
 30
0.0
 10
10.4917170602
 20
8.2912512714
 30
0.0
 10
10.4862949578
 20
8.2997093376
 30
0.0
 10
10.4823184499
 20
8.3066751193
 30
0.0
 10
10.4785955144
 20
8.3137561327
 30
0.0
 10
10.4744221469
 20
8.3228243355
 30
0.0
 10
10.4709193056
 20
8.3321536033
 30
0.0
 10
10.4685425467
 20
8.3397334512
 30
0.0
 10
10.4664582608
 20
8.347362392
 30
0.0
 10
10.4652188671
 20
8.3531624074
 30
0.0
 10
10.4645420053
 20
8.3570480217
 30
0.0
  0
SPLINE
  5
3EE
100
AcDbEntity
  8
0
100
AcDbSpline
 62
7
  6
CONTINUOUS
 70
0
 71
3
 72
39
 73
35
 74
0
 42
0.0000001
 43
0.0000001
 44
0.0000000001
 40
0.0
 40
0.0
 40
0.0
 40
0.0
 40
0.0309343349
 40
0.0620689466
 40
0.0934035655
 40
0.124931002
 40
0.156637727
 40
0.1885046747
 40
0.220508186
 40
0.2526209782
 40
0.2848131234
 40
0.3170530106
 40
0.3493082648
 40
0.3815465766
 40
0.4137364822
 40
0.4458480931
 40
0.4778537797
 40
0.5097288039
 40
0.5414519269
 40
0.5730059918
 40
0.6043784688
 40
0.6355619531
 40
0.6665546067
 40
0.6973605018
 40
0.7279898166
 40
0.7584588523
 40
0.7887898401
 40
0.8190104651
 40
0.8491530764
 40
0.8792536208
 40
0.9093503159
 40
0.9394821328
 40
0.9696866527
 40
1.0
 40
1.0
 40
1.0
 40
1.0
 10
11.2957935589
 20
7.7316042663
 30
0.0
 10
11.2894132876
 20
7.730856853
 30
0.0
 10
11.2765313228
 20
7.7299715392
 30
0.0
 10
11.2571145233
 20
7.7304672618
 30
0.0
 10
11.2377030609
 20
7.73276742
 30
0.0
 10
11.218464952
 20
7.7368414448
 30
0.0
 10
11.1995604976
 20
7.7426429504
 30
0.0
 10
11.181144595
 20
7.7501115087
 30
0.0
 10
11.1633645211
 20
7.7591738586
 30
0.0
 10
11.1463593673
 20
7.7697454575
 30
0.0
 10
11.1302593889
 20
7.7817318528
 30
0.0
 10
11.1151856474
 20
7.7950299272
 30
0.0
 10
11.1012497505
 20
7.8095289656
 30
0.0
 10
11.088553812
 20
7.8251116814
 30
0.0
 10
11.077190439
 20
7.8416550148
 30
0.0
 10
11.0672427412
 20
7.8590307952
 30
0.0
 10
11.0587842646
 20
7.8771062479
 30
0.0
 10
11.0518789531
 20
7.8957444603
 30
0.0
 10
11.0465810074
 20
7.914804756
 30
0.0
 10
11.0429346374
 20
7.9341430361
 30
0.0
 10
11.0409736466
 20
7.9536121241
 30
0.0
 10
11.0407209382
 20
7.9730621893
 30
0.0
 10
11.0421879561
 20
7.9923412685
 30
0.0
 10
11.0453740012
 20
8.011295917
 30
0.0
 10
11.0502654273
 20
8.0297720548
 30
0.0
 10
11.0568348536
 20
8.0476160532
 30
0.0
 10
11.065040514
 20
8.064676036
 30
0.0
 10
11.0748256733
 20
8.0808034202
 30
0.0
 10
11.0861181036
 20
8.0958547676
 30
0.0
 10
11.0988301086
 20
8.1096937937
 30
0.0
 10
11.1128585888
 20
8.1221933351
 30
0.0
 10
11.1280865798
 20
8.133237797
 30
0.0
 10
11.144380827
 20
8.1427241425
 30
0.0
 10
11.1558404188
 20
8.1479425198
 30
0.0
 10
11.1616912459
 20
8.1502650491
 30
0.0
  0
SPLINE
  5
3EF
100
AcDbEntity
  8
0
100
AcDbSpline
 62
4
  6
CONTINUOUS
 70
0
 71
3
 72
281
 73
277
 74
0
 42
0.0000001
 43
0.0000001
 44
0.0000000001
 40
0.0
 40
0.0
 40
0.0
 40
0.0
 40
0.015625
 40
0.0234375
 40
0.03125
 40
0.0390625
 40
0.046875
 40
0.05078125
 40
0.0546875
 40
0.056640625
 40
0.05859375
 40
0.060546875
 40
0.0615234375
 40
0.0620117188
 40
0.0625
 40
0.0629882812
 40
0.0634765625
 40
0.064453125
 40
0.06640625
 40
0.068359375
 40
0.0703125
 40
0.07421875
 40
0.078125
 40
0.0859375
 40
0.09375
 40
0.1015625
 40
0.109375
 40
0.11328125
 40
0.1171875
 40
0.119140625
 40
0.12109375
 40
0.123046875
 40
0.1240234375
 40
0.1245117188
 40
0.125
 40
0.1254882812
 40
0.1259765625
 40
0.126953125
 40
0.12890625
 40
0.130859375
 40
0.1328125
 40
0.13671875
 40
0.140625
 40
0.1484375
 40
0.15625
 40
0.1640625
 40
0.171875
 40
0.17578125
 40
0.1796875
 40
0.181640625
 40
0.18359375
 40
0.185546875
 40
0.1865234375
 40
0.1870117188
 40
0.1875
 40
0.1879882812
 40
0.1884765625
 40
0.189453125
 40
0.19140625
 40
0.193359375
 40
0.1953125
 40
0.19921875
 40
0.203125
 40
0.2109375
 40
0.21875
 40
0.2265625
 40
0.234375
 40
0.23828125
 40
0.2421875
 40
0.24609375
 40
0.248046875
 40
0.2490234375
 40
0.25
 40
0.2509765625
 40
0.251953125
 40
0.25390625
 40
0.2578125
 40
0.26171875
 40
0.265625
 40
0.2734375
 40
0.28125
 40
0.2890625
 40
0.296875
 40
0.30078125
 40
0.3046875
 40
0.30859375
 40
0.310546875
 40
0.3115234375
 40
0.3125
 40
0.3134765625
 40
0.314453125
 40
0.31640625
 40
0.3203125
 40
0.32421875
 40
0.328125
 40
0.3359375
 40
0.34375
 40
0.3515625
 40
0.359375
 40
0.3671875
 40
0.37109375
 40
0.373046875
 40
0.375
 40
0.376953125
 40
0.37890625
 40
0.3828125
 40
0.390625
 40
0.3984375
 40
0.40625
 40
0.4140625
 40
0.421875
 40
0.4296875
 40
0.43359375
 40
0.435546875
 40
0.4375
 40
0.439453125
 40
0.44140625
 40
0.4453125
 40
0.453125
 40
0.4609375
 40
0.46875
 40
0.4765625
 40
0.484375
 40
0.48828125
 40
0.4921875
 40
0.49609375
 40
0.498046875
 40
0.4990234375
 40
0.5
 40
0.5009765625
 40
0.501953125
 40
0.50390625
 40
0.5078125
 40
0.51171875
 40
0.515625
 40
0.5234375
 40
0.53125
 40
0.5390625
 40
0.546875
 40
0.55078125
 40
0.5546875
 40
0.55859375
 40
0.560546875
 40
0.5615234375
 40
0.5625
 40
0.5634765625
 40
0.564453125
 40
0.56640625
 40
0.5703125
 40
0.57421875
 40
0.578125
 40
0.5859375
 40
0.59375
 40
0.6015625
 40
0.609375
 40
0.61328125
 40
0.6171875
 40
0.619140625
 40
0.62109375
 40
0.623046875
 40
0.6240234375
 40
0.6245117188
 40
0.625
 40
0.6254882812
 40
0.6259765625
 40
0.626953125
 40
0.62890625
 40
0.630859375
 40
0.6328125
 40
0.63671875
 40
0.640625
 40
0.6484375
 40
0.65625
 40
0.6640625
 40
0.671875
 40
0.67578125
 40
0.6796875
 40
0.681640625
 40
0.68359375
 40
0.685546875
 40
0.6865234375
 40
0.6870117188
 40
0.6875
 40
0.6879882812
 40
0.6884765625
 40
0.689453125
 40
0.69140625
 40
0.693359375
 40
0.6953125
 40
0.69921875
 40
0.703125
 40
0.7109375
 40
0.71875
 40
0.7265625
 40
0.734375
 40
0.73828125
 40
0.7421875
 40
0.744140625
 40
0.74609375
 40
0.748046875
 40
0.7490234375
 40
0.7495117188
 40
0.75
 40
0.7504882812
 40
0.7509765625
 40
0.751953125
 40
0.75390625
 40
0.755859375
 40
0.7578125
 40
0.76171875
 40
0.765625
 40
0.7734375
 40
0.78125
 40
0.7890625
 40
0.796875
 40
0.80078125
 40
0.8046875
 40
0.806640625
 40
0.80859375
 40
0.810546875
 40
0.8115234375
 40
0.8120117188
 40
0.8125
 40
0.8129882812
 40
0.8134765625
 40
0.814453125
 40
0.81640625
 40
0.818359375
 40
0.8203125
 40
0.82421875
 40
0.828125
 40
0.8359375
 40
0.84375
 40
0.8515625
 40
0.859375
 40
0.86328125
 40
0.8671875
 40
0.869140625
 40
0.87109375
 40
0.873046875
 40
0.8740234375
 40
0.8745117188
 40
0.875
 40
0.8754882812
 40
0.8759765625
 40
0.876953125
 40
0.87890625
 40
0.880859375
 40
0.8828125
 40
0.88671875
 40
0.890625
 40
0.8984375
 40
0.90625
 40
0.9140625
 40
0.921875
 40
0.92578125
 40
0.9296875
 40
0.931640625
 40
0.93359375
 40
0.935546875
 40
0.9365234375
 40
0.9370117188
 40
0.9375
 40
0.9379882812
 40
0.9384765625
 40
0.939453125
 40
0.94140625
 40
0.943359375
 40
0.9453125
 40
0.94921875
 40
0.953125
 40
0.9609375
 40
0.96875
 40
0.9765625
 40
0.984375
 40
1.0
 40
1.0
 40
1.0
 40
1.0
 10
12.0860213271
 20
7.8656405367
 30
0.0
 10
12.085181793
 20
7.8645223973
 30
0.0
 10
12.0839224917
 20
7.8628451883
 30
0.0
 10
12.0822434234
 20
7.8606089088
 30
0.0
 10
12.0809841221
 20
7.8589317015
 30
0.0
 10
12.0797248212
 20
7.8572544854
 30
0.0
 10
12.0786754023
 20
7.8558568328
 30
0.0
 10
12.0778358706
 20
7.854738649
 30
0.0
 10
12.0773111554
 20
7.8540399247
 30
0.0
 10
12.0768914013
 20
7.8534806234
 30
0.0
 10
12.0765765364
 20
7.8530620288
 30
0.0
 10
12.0763143058
 20
7.8527103961
 30
0.0
 10
12.0761304367
 20
7.8524697556
 30
0.0
 10
12.0760258491
 20
7.8523236552
 30
0.0
 10
12.0759460549
 20
7.8522382827
 30
0.0
 10
12.0758714343
 20
7.8520603946
 30
0.0
 10
12.0757701356
 20
7.851855481
 30
0.0
 10
12.0755937036
 20
7.8514818468
 30
0.0
 10
12.0753412184
 20
7.8509559443
 30
0.0
 10
12.0750384243
 20
7.8503214967
 30
0.0
 10
12.074634633
 20
7.8494767417
 30
0.0
 10
12.0741299165
 20
7.8484203956
 30
0.0
 10
12.0733223574
 20
7.8467304668
 30
0.0
 10
12.072312913
 20
7.8446179782
 30
0.0
 10
12.0711015775
 20
7.8420830271
 30
0.0
 10
12.0698902436
 20
7.8395480592
 30
0.0
 10
12.0688807954
 20
7.8374356125
 30
0.0
 10
12.0680732437
 20
7.8357455999
 30
0.0
 10
12.0675685085
 20
7.8346894668
 30
0.0
 10
12.0671647556
 20
7.8338442747
 30
0.0
 10
12.0668618443
 20
7.8332111627
 30
0.0
 10
12.0666097258
 20
7.8326810812
 30
0.0
 10
12.0664326391
 20
7.8323149073
 30
0.0
 10
12.0663323894
 20
7.8320980405
 30
0.0
 10
12.0662545467
 20
7.8319568687
 30
0.0
 10
12.0661868541
 20
7.8317335958
 30
0.0
 10
12.0660930569
 20
7.8314645364
 30
0.0
 10
12.0659305613
 20
7.8309803396
 30
0.0
 10
12.0656975623
 20
7.8302956056
 30
0.0
 10
12.0654183327
 20
7.8294709389
 30
0.0
 10
12.0650458976
 20
7.8283724263
 30
0.0
 10
12.0645803978
 20
7.8269989284
 30
0.0
 10
12.0638355736
 20
7.8248015314
 30
0.0
 10
12.0629045518
 20
7.8220547163
 30
0.0
 10
12.0617873217
 20
7.8187585695
 30
0.0
 10
12.0606700938
 20
7.8154624075
 30
0.0
 10
12.0597390664
 20
7.8127156304
 30
0.0
 10
12.0589942533
 20
7.8105181573
 30
0.0
 10
12.0585287253
 20
7.8091448531
 30
0.0
 10
12.0581563481
 20
7.8080459429
 30
0.0
 10
12.0578769413
 20
7.8072224907
 30
0.0
 10
12.0576444967
 20
7.8065339571
 30
0.0
 10
12.0574810116
 20
7.8060565431
 30
0.0
 10
12.0573887998
 20
7.8057766159
 30
0.0
 10
12.0573162372
 20
7.8055867254
 30
0.0
 10
12.0572566855
 20
7.8053201748
 30
0.0
 10
12.0571727449
 20
7.8049915139
 30
0.0
 10
12.0570279634
 20
7.8044038986
 30
0.0
 10
12.0568200272
 20
7.8035709618
 30
0.0
 10
12.056570977
 20
7.8025686496
 30
0.0
 10
12.0562387447
 20
7.8012332071
 30
0.0
 10
12.055823511
 20
7.7995635705
 30
0.0
 10
12.0551591052
 20
7.7968923387
 30
0.0
 10
12.0543286101
 20
7.7935532323
 30
0.0
 10
12.0533320055
 20
7.7895463445
 30
0.0
 10
12.0523354231
 20
7.785539404
 30
0.0
 10
12.0515048726
 20
7.7822004291
 30
0.0
 10
12.0508405777
 20
7.7795289344
 30
0.0
 10
12.0503419589
 20
7.7775261724
 30
0.0
 10
12.049927708
 20
7.7758544716
 30
0.0
 10
12.0496352504
 20
7.7746896436
 30
0.0
 10
12.0494720071
 20
7.7740156543
 30
0.0
 10
12.0493386577
 20
7.77353375
 30
0.0
 10
12.0492470385
 20
7.7729616817
 30
0.0
 10
12.0491103236
 20
7.7722303743
 30
0.0
 10
12.0488778543
 20
7.770935933
 30
0.0
 10
12.0485422098
 20
7.769094392
 30
0.0
 10
12.048140954
 20
7.7668812637
 30
0.0
 10
12.0476054159
 20
7.7639315717
 30
0.0
 10
12.0469361766
 20
7.7602440615
 30
0.0
 10
12.0461330054
 20
7.7558192272
 30
0.0
 10
12.0453298773
 20
7.7513943137
 30
0.0
 10
12.0446605302
 20
7.7477070017
 30
0.0
 10
12.0441252078
 20
7.7447569133
 30
0.0
 10
12.0437232941
 20
7.7425449938
 30
0.0
 10
12.0433897077
 20
7.7406996714
 30
0.0
 10
12.0431535644
 20
7.7394119805
 30
0.0
 10
12.0430227363
 20
7.7386698572
 30
0.0
 10
12.0429130345
 20
7.7381310119
 30
0.0
 10
12.0428476004
 20
7.7375243277
 30
0.0
 10
12.0427449138
 20
7.7367390784
 30
0.0
 10
12.0425724067
 20
7.7353538672
 30
0.0
 10
12.0423222066
 20
7.7333807581
 30
0.0
 10
12.0420235768
 20
7.7310105597
 30
0.0
 10
12.0416248392
 20
7.7278511583
 30
0.0
 10
12.0411266255
 20
7.7239016017
 30
0.0
 10
12.0405286159
 20
7.7191623021
 30
0.0
 10
12.0399308861
 20
7.7144228171
 30
0.0
 10
12.03933219
 20
7.7096839055
 30
0.0
 10
12.0388362643
 20
7.7057330557
 30
0.0
 10
12.0384832649
 20
7.7029708992
 30
0.0
 10
12.0382906857
 20
7.7013871567
 30
0.0
 10
12.038120519
 20
7.7002144695
 30
0.0
 10
12.0380487139
 20
7.6989839873
 30
0.0
 10
12.037918664
 20
7.6973635038
 30
0.0
 10
12.037707063
 20
7.6945182649
 30
0.0
 10
12.0373964126
 20
7.6904585499
 30
0.0
 10
12.0370272358
 20
7.6855847836
 30
0.0
 10
12.0366570255
 20
7.6807115915
 30
0.0
 10
12.0362873456
 20
7.675838211
 30
0.0
 10
12.0359165773
 20
7.6709650095
 30
0.0
 10
12.0356107899
 20
7.6669035688
 30
0.0
 10
12.0353905239
 20
7.6640614048
 30
0.0
 10
12.0352743557
 20
7.6624359952
 30
0.0
 10
12.0351599112
 20
7.6612206443
 30
0.0
 10
12.0351498907
 20
7.6599911264
 30
0.0
 10
12.0351001058
 20
7.6583567108
 30
0.0
 10
12.0350299531
 20
7.6554941811
 30
0.0
 10
12.0349208606
 20
7.6514060563
 30
0.0
 10
12.0347937561
 20
7.646499793
 30
0.0
 10
12.0346656247
 20
7.6415936586
 30
0.0
 10
12.0345377941
 20
7.6366875223
 30
0.0
 10
12.0344311217
 20
7.6325989744
 30
0.0
 10
12.034345986
 20
7.6293283793
 30
0.0
 10
12.0342816158
 20
7.6268747639
 30
0.0
 10
12.0342296178
 20
7.6248322133
 30
0.0
 10
12.0341899939
 20
7.6233982499
 30
0.0
 10
12.0341723876
 20
7.6225853658
 30
0.0
 10
12.0341449964
 20
7.6219573256
 30
0.0
 10
12.0341718333
 20
7.6213995323
 30
0.0
 10
12.0341887005
 20
7.620631305
 30
0.0
 10
12.034227031
 20
7.6192983234
 30
0.0
 10
12.0342771813
 20
7.6173880955
 30
0.0
 10
12.0343393339
 20
7.6150983769
 30
0.0
 10
12.034421515
 20
7.6120445258
 30
0.0
 10
12.0345244792
 20
7.608227521
 30
0.0
 10
12.0346479278
 20
7.6036469716
 30
0.0
 10
12.0347714298
 20
7.5990665022
 30
0.0
 10
12.0348742605
 20
7.5952492975
 30
0.0
 10
12.0349567086
 20
7.5921958461
 30
0.0
 10
12.0350180466
 20
7.5899049085
 30
0.0
 10
12.0350707455
 20
7.587998494
 30
0.0
 10
12.0351045266
 20
7.586658705
 30
0.0
 10
12.035128683
 20
7.585901385
 30
0.0
 10
12.0351331295
 20
7.5853100877
 30
0.0
 10
12.0351898329
 20
7.5848078828
 30
0.0
 10
12.0352472096
 20
7.5841071999
 30
0.0
 10
12.0353561116
 20
7.5828954838
 30
0.0
 10
12.0355072458
 20
7.581156891
 30
0.0
 10
12.0356905073
 20
7.5790738199
 30
0.0
 10
12.0359341921
 20
7.5762952597
 30
0.0
 10
12.036239026
 20
7.5728224484
 30
0.0
 10
12.0366047284
 20
7.5686549065
 30
0.0
 10
12.0369704594
 20
7.5644874153
 30
0.0
 10
12.0372752219
 20
7.5610144774
 30
0.0
 10
12.0375190496
 20
7.5582361704
 30
0.0
 10
12.0376714043
 20
7.5564996345
 30
0.0
 10
12.0377933738
 20
7.5551106205
 30
0.0
 10
12.0378846164
 20
7.5540682724
 30
0.0
 10
12.0379613981
 20
7.553201518
 30
0.0
 10
12.0380136807
 20
7.5525911222
 30
0.0
 10
12.0380458434
 20
7.5522480514
 30
0.0
 10
12.0380635231
 20
7.5519746156
 30
0.0
 10
12.0381058287
 20
7.5517628474
 30
0.0
 10
12.0381536464
 20
7.5514589794
 30
0.0
 10
12.0382413295
 20
7.5509372324
 30
0.0
 10
12.0383644988
 20
7.55018664
 30
0.0
 10
12.0385131974
 20
7.5492881718
 30
0.0
 10
12.0387111495
 20
7.5480894308
 30
0.0
 10
12.0389586968
 20
7.5465912729
 30
0.0
 10
12.0393547124
 20
7.5441940702
 30
0.0
 10
12.0398497527
 20
7.5411976188
 30
0.0
 10
12.0404437916
 20
7.537601853
 30
0.0
 10
12.0410378352
 20
7.5340061001
 30
0.0
 10
12.0415328638
 20
7.5310096166
 30
0.0
 10
12.0419289028
 20
7.528612478
 30
0.0
 10
12.0421763908
 20
7.5271141574
 30
0.0
 10
12.0423744644
 20
7.5259157502
 30
0.0
 10
12.0425227918
 20
7.5250162623
 30
0.0
 10
12.0426471226
 20
7.5242688605
 30
0.0
 10
12.0427327322
 20
7.5237414177
 30
0.0
 10
12.0427838722
 20
7.5234466759
 30
0.0
 10
12.0428159726
 20
7.5232068749
 30
0.0
 10
12.0428719815
 20
7.5230387253
 30
0.0
 10
12.0429383204
 20
7.522789533
 30
0.0
 10
12.0430582991
 20
7.5223650912
 30
0.0
 10
12.0432276659
 20
7.5217526578
 30
0.0
 10
12.0434317755
 20
7.5210203435
 30
0.0
 10
12.043703618
 20
7.5200430143
 30
0.0
 10
12.044043525
 20
7.5188216645
 30
0.0
 10
12.0445873181
 20
7.5168673305
 30
0.0
 10
12.0452670796
 20
7.5144244733
 30
0.0
 10
12.0460827844
 20
7.5114930165
 30
0.0
 10
12.0468984931
 20
7.5085615758
 30
0.0
 10
12.0475782447
 20
7.5061186787
 30
0.0
 10
12.0481220577
 20
7.5041644245
 30
0.0
 10
12.0484619142
 20
7.5029428717
 30
0.0
 10
12.0487338603
 20
7.5019659591
 30
0.0
 10
12.0489376533
 20
7.501232372
 30
0.0
 10
12.0491080106
 20
7.5006239211
 30
0.0
 10
12.0492262211
 20
7.5001923698
 30
0.0
 10
12.0492953932
 20
7.4999545686
 30
0.0
 10
12.0493426994
 20
7.4997514293
 30
0.0
 10
12.0494074856
 20
7.499643044
 30
0.0
 10
12.0494877699
 20
7.4994654789
 30
0.0
 10
12.0496311083
 20
7.4991701393
 30
0.0
 10
12.0498343922
 20
7.4987401747
 30
0.0
 10
12.0500789686
 20
7.4982276632
 30
0.0
 10
12.0504048485
 20
7.4975431109
 30
0.0
 10
12.0508122743
 20
7.4966878326
 30
0.0
 10
12.0514641132
 20
7.495319157
 30
0.0
 10
12.0522789264
 20
7.4936083921
 30
0.0
 10
12.0532566957
 20
7.4915554377
 30
0.0
 10
12.054234468
 20
7.4895025017
 30
0.0
 10
12.0550492735
 20
7.4877916908
 30
0.0
 10
12.0557011278
 20
7.4864231072
 30
0.0
 10
12.0561085143
 20
7.4855675951
 30
0.0
 10
12.056434475
 20
7.4848835227
 30
0.0
 10
12.0566788044
 20
7.4843695451
 30
0.0
 10
12.0568828612
 20
7.4839441676
 30
0.0
 10
12.0570248198
 20
7.4836406391
 30
0.0
 10
12.057107315
 20
7.4834761947
 30
0.0
 10
12.0571653101
 20
7.483327507
 30
0.0
 10
12.0572381225
 20
7.4832757366
 30
0.0
 10
12.0573300372
 20
7.4831729036
 30
0.0
 10
12.0574932961
 20
7.4830086966
 30
0.0
 10
12.0577252641
 20
7.4827658804
 30
0.0
 10
12.0580041647
 20
7.4824780257
 30
0.0
 10
12.0583758438
 20
7.4820929884
 30
0.0
 10
12.0588405072
 20
7.4816121133
 30
0.0
 10
12.0595839325
 20
7.4808424774
 30
0.0
 10
12.0605132266
 20
7.479880514
 30
0.0
 10
12.061628374
 20
7.4787261205
 30
0.0
 10
12.0627435237
 20
7.4775717461
 30
0.0
 10
12.0636728118
 20
7.476609735
 30
0.0
 10
12.0644162492
 20
7.4758401945
 30
0.0
 10
12.064880882
 20
7.4753590771
 30
0.0
 10
12.0652526239
 20
7.4749745369
 30
0.0
 10
12.0655313328
 20
7.4746851633
 30
0.0
 10
12.0657639004
 20
7.4744470996
 30
0.0
 10
12.0659260889
 20
7.4742744087
 30
0.0
 10
12.0660197187
 20
7.474185169
 30
0.0
 10
12.0660872631
 20
7.4740916442
 30
0.0
 10
12.0661650436
 20
7.4740997792
 30
0.0
 10
12.0662651805
 20
7.4740751658
 30
0.0
 10
12.0664420836
 20
7.4740486139
 30
0.0
 10
12.0666939325
 20
7.4740020449
 30
0.0
 10
12.0669965235
 20
7.4739498593
 30
0.0
 10
12.0673998482
 20
7.4738789872
 30
0.0
 10
12.0679040485
 20
7.4737908393
 30
0.0
 10
12.0687107442
 20
7.4736495553
 30
0.0
 10
12.0697191224
 20
7.4734730357
 30
0.0
 10
12.0709291723
 20
7.4732611732
 30
0.0
 10
12.0721392239
 20
7.4730493304
 30
0.0
 10
12.0731475978
 20
7.4728727613
 30
0.0
 10
12.0739543021
 20
7.4727315765
 30
0.0
 10
12.0744584805
 20
7.4726431765
 30
0.0
 10
12.0748618501
 20
7.4725728215
 30
0.0
 10
12.0751643039
 20
7.4725190562
 30
0.0
 10
12.0754165822
 20
7.47247743
 30
0.0
 10
12.0755927187
 20
7.4724420543
 30
0.0
 10
12.0756940838
 20
7.4724315788
 30
0.0
 10
12.0757680917
 20
7.4723962868
 30
0.0
 10
12.0758498054
 20
7.4724658668
 30
0.0
 10
12.0759560691
 20
7.4725220597
 30
0.0
 10
12.0761432829
 20
7.4726374408
 30
0.0
 10
12.0764100765
 20
7.4727933604
 30
0.0
 10
12.0767305091
 20
7.4729842779
 30
0.0
 10
12.0771576546
 20
7.4732375024
 30
0.0
 10
12.07769162
 20
7.4735544892
 30
0.0
 10
12.078545946
 20
7.4740614131
 30
0.0
 10
12.0796138598
 20
7.4746951555
 30
0.0
 10
12.0808953537
 20
7.4754556089
 30
0.0
 10
12.0821768483
 20
7.4762160722
 30
0.0
 10
12.0838855075
 20
7.4772300199
 30
0.0
 10
12.085167002
 20
7.4779904814
 30
0.0
 10
12.0860213317
 20
7.4784974556
 30
0.0
  0
SPLINE
  5
3F0
100
AcDbEntity
  8
0
100
AcDbSpline
 62
4
  6
CONTINUOUS
 70
0
 71
3
 72
281
 73
277
 74
0
 42
0.0000001
 43
0.0000001
 44
0.0000000001
 40
0.0
 40
0.0
 40
0.0
 40
0.0
 40
0.015625
 40
0.0234375
 40
0.03125
 40
0.0390625
 40
0.046875
 40
0.05078125
 40
0.0546875
 40
0.056640625
 40
0.05859375
 40
0.060546875
 40
0.0615234375
 40
0.0620117188
 40
0.0625
 40
0.0629882812
 40
0.0634765625
 40
0.064453125
 40
0.06640625
 40
0.068359375
 40
0.0703125
 40
0.07421875
 40
0.078125
 40
0.0859375
 40
0.09375
 40
0.1015625
 40
0.109375
 40
0.11328125
 40
0.1171875
 40
0.119140625
 40
0.12109375
 40
0.123046875
 40
0.1240234375
 40
0.1245117188
 40
0.125
 40
0.1254882812
 40
0.1259765625
 40
0.126953125
 40
0.12890625
 40
0.130859375
 40
0.1328125
 40
0.13671875
 40
0.140625
 40
0.1484375
 40
0.15625
 40
0.1640625
 40
0.171875
 40
0.17578125
 40
0.1796875
 40
0.181640625
 40
0.18359375
 40
0.185546875
 40
0.1865234375
 40
0.1870117188
 40
0.1875
 40
0.1879882812
 40
0.1884765625
 40
0.189453125
 40
0.19140625
 40
0.193359375
 40
0.1953125
 40
0.19921875
 40
0.203125
 40
0.2109375
 40
0.21875
 40
0.2265625
 40
0.234375
 40
0.23828125
 40
0.2421875
 40
0.24609375
 40
0.248046875
 40
0.2490234375
 40
0.25
 40
0.2509765625
 40
0.251953125
 40
0.25390625
 40
0.2578125
 40
0.26171875
 40
0.265625
 40
0.2734375
 40
0.28125
 40
0.2890625
 40
0.296875
 40
0.30078125
 40
0.3046875
 40
0.30859375
 40
0.310546875
 40
0.3115234375
 40
0.3125
 40
0.3134765625
 40
0.314453125
 40
0.31640625
 40
0.3203125
 40
0.32421875
 40
0.328125
 40
0.3359375
 40
0.34375
 40
0.3515625
 40
0.359375
 40
0.3671875
 40
0.37109375
 40
0.373046875
 40
0.375
 40
0.376953125
 40
0.37890625
 40
0.3828125
 40
0.390625
 40
0.3984375
 40
0.40625
 40
0.4140625
 40
0.421875
 40
0.4296875
 40
0.43359375
 40
0.435546875
 40
0.4375
 40
0.439453125
 40
0.44140625
 40
0.4453125
 40
0.453125
 40
0.4609375
 40
0.46875
 40
0.4765625
 40
0.484375
 40
0.48828125
 40
0.4921875
 40
0.49609375
 40
0.498046875
 40
0.4990234375
 40
0.5
 40
0.5009765625
 40
0.501953125
 40
0.50390625
 40
0.5078125
 40
0.51171875
 40
0.515625
 40
0.5234375
 40
0.53125
 40
0.5390625
 40
0.546875
 40
0.55078125
 40
0.5546875
 40
0.55859375
 40
0.560546875
 40
0.5615234375
 40
0.5625
 40
0.5634765625
 40
0.564453125
 40
0.56640625
 40
0.5703125
 40
0.57421875
 40
0.578125
 40
0.5859375
 40
0.59375
 40
0.6015625
 40
0.609375
 40
0.61328125
 40
0.6171875
 40
0.619140625
 40
0.62109375
 40
0.623046875
 40
0.6240234375
 40
0.6245117188
 40
0.625
 40
0.6254882812
 40
0.6259765625
 40
0.626953125
 40
0.62890625
 40
0.630859375
 40
0.6328125
 40
0.63671875
 40
0.640625
 40
0.6484375
 40
0.65625
 40
0.6640625
 40
0.671875
 40
0.67578125
 40
0.6796875
 40
0.681640625
 40
0.68359375
 40
0.685546875
 40
0.6865234375
 40
0.6870117188
 40
0.6875
 40
0.6879882812
 40
0.6884765625
 40
0.689453125
 40
0.69140625
 40
0.693359375
 40
0.6953125
 40
0.69921875
 40
0.703125
 40
0.7109375
 40
0.71875
 40
0.7265625
 40
0.734375
 40
0.73828125
 40
0.7421875
 40
0.744140625
 40
0.74609375
 40
0.748046875
 40
0.7490234375
 40
0.7495117188
 40
0.75
 40
0.7504882812
 40
0.7509765625
 40
0.751953125
 40
0.75390625
 40
0.755859375
 40
0.7578125
 40
0.76171875
 40
0.765625
 40
0.7734375
 40
0.78125
 40
0.7890625
 40
0.796875
 40
0.80078125
 40
0.8046875
 40
0.806640625
 40
0.80859375
 40
0.810546875
 40
0.8115234375
 40
0.8120117188
 40
0.8125
 40
0.8129882812
 40
0.8134765625
 40
0.814453125
 40
0.81640625
 40
0.818359375
 40
0.8203125
 40
0.82421875
 40
0.828125
 40
0.8359375
 40
0.84375
 40
0.8515625
 40
0.859375
 40
0.86328125
 40
0.8671875
 40
0.869140625
 40
0.87109375
 40
0.873046875
 40
0.8740234375
 40
0.8745117188
 40
0.875
 40
0.8754882812
 40
0.8759765625
 40
0.876953125
 40
0.87890625
 40
0.880859375
 40
0.8828125
 40
0.88671875
 40
0.890625
 40
0.8984375
 40
0.90625
 40
0.9140625
 40
0.921875
 40
0.92578125
 40
0.9296875
 40
0.931640625
 40
0.93359375
 40
0.935546875
 40
0.9365234375
 40
0.9370117188
 40
0.9375
 40
0.9379882812
 40
0.9384765625
 40
0.939453125
 40
0.94140625
 40
0.943359375
 40
0.9453125
 40
0.94921875
 40
0.953125
 40
0.9609375
 40
0.96875
 40
0.9765625
 40
0.984375
 40
1.0
 40
1.0
 40
1.0
 40
1.0
 10
12.0860213271
 20
7.4784974512
 30
0.0
 10
12.0868608613
 20
7.4796155907
 30
0.0
 10
12.0881201625
 20
7.4812927996
 30
0.0
 10
12.0897992308
 20
7.4835290791
 30
0.0
 10
12.0910585322
 20
7.4852062864
 30
0.0
 10
12.092317833
 20
7.4868835025
 30
0.0
 10
12.0933672519
 20
7.4882811551
 30
0.0
 10
12.0942067836
 20
7.4893993389
 30
0.0
 10
12.0947314988
 20
7.4900980632
 30
0.0
 10
12.0951512529
 20
7.4906573645
 30
0.0
 10
12.0954661178
 20
7.4910759592
 30
0.0
 10
12.0957283484
 20
7.4914275919
 30
0.0
 10
12.0959122175
 20
7.4916682323
 30
0.0
 10
12.0960168052
 20
7.4918143327
 30
0.0
 10
12.0960965993
 20
7.4918997053
 30
0.0
 10
12.0961712199
 20
7.4920775933
 30
0.0
 10
12.0962725186
 20
7.4922825069
 30
0.0
 10
12.0964489506
 20
7.4926561411
 30
0.0
 10
12.0967014358
 20
7.4931820436
 30
0.0
 10
12.09700423
 20
7.4938164912
 30
0.0
 10
12.0974080212
 20
7.4946612462
 30
0.0
 10
12.0979127378
 20
7.4957175923
 30
0.0
 10
12.0987202968
 20
7.4974075211
 30
0.0
 10
12.0997297413
 20
7.4995200097
 30
0.0
 10
12.1009410767
 20
7.5020549608
 30
0.0
 10
12.1021524107
 20
7.5045899287
 30
0.0
 10
12.1031618588
 20
7.5067023754
 30
0.0
 10
12.1039694105
 20
7.508392388
 30
0.0
 10
12.1044741457
 20
7.5094485211
 30
0.0
 10
12.1048778986
 20
7.5102937132
 30
0.0
 10
12.10518081
 20
7.5109268252
 30
0.0
 10
12.1054329285
 20
7.5114569067
 30
0.0
 10
12.1056100151
 20
7.5118230807
 30
0.0
 10
12.1057102649
 20
7.5120399475
 30
0.0
 10
12.1057881075
 20
7.5121811192
 30
0.0
 10
12.1058558001
 20
7.5124043921
 30
0.0
 10
12.1059495974
 20
7.5126734515
 30
0.0
 10
12.1061120929
 20
7.5131576484
 30
0.0
 10
12.1063450919
 20
7.5138423823
 30
0.0
 10
12.1066243216
 20
7.514667049
 30
0.0
 10
12.1069967567
 20
7.5157655616
 30
0.0
 10
12.1074622564
 20
7.5171390595
 30
0.0
 10
12.1082070807
 20
7.5193364565
 30
0.0
 10
12.1091381025
 20
7.5220832716
 30
0.0
 10
12.1102553326
 20
7.5253794184
 30
0.0
 10
12.1113725605
 20
7.5286755804
 30
0.0
 10
12.1123035878
 20
7.5314223575
 30
0.0
 10
12.113048401
 20
7.5336198306
 30
0.0
 10
12.113513929
 20
7.5349931349
 30
0.0
 10
12.1138863061
 20
7.536092045
 30
0.0
 10
12.1141657129
 20
7.5369154972
 30
0.0
 10
12.1143981576
 20
7.5376040308
 30
0.0
 10
12.1145616427
 20
7.5380814448
 30
0.0
 10
12.1146538545
 20
7.538361372
 30
0.0
 10
12.1147264171
 20
7.5385512625
 30
0.0
 10
12.1147859687
 20
7.5388178131
 30
0.0
 10
12.1148699093
 20
7.5391464741
 30
0.0
 10
12.1150146908
 20
7.5397340893
 30
0.0
 10
12.115222627
 20
7.5405670261
 30
0.0
 10
12.1154716772
 20
7.5415693384
 30
0.0
 10
12.1158039095
 20
7.5429047808
 30
0.0
 10
12.1162191433
 20
7.5445744174
 30
0.0
 10
12.116883549
 20
7.5472456492
 30
0.0
 10
12.1177140442
 20
7.5505847556
 30
0.0
 10
12.1187106487
 20
7.5545916435
 30
0.0
 10
12.1197072311
 20
7.5585985839
 30
0.0
 10
12.1205377817
 20
7.5619375588
 30
0.0
 10
12.1212020765
 20
7.5646090536
 30
0.0
 10
12.1217006953
 20
7.5666118155
 30
0.0
 10
12.1221149462
 20
7.5682835164
 30
0.0
 10
12.1224074038
 20
7.5694483444
 30
0.0
 10
12.1225706471
 20
7.5701223336
 30
0.0
 10
12.1227039965
 20
7.5706042379
 30
0.0
 10
12.1227956157
 20
7.5711763062
 30
0.0
 10
12.1229323307
 20
7.5719076136
 30
0.0
 10
12.1231647999
 20
7.5732020549
 30
0.0
 10
12.1235004445
 20
7.5750435959
 30
0.0
 10
12.1239017003
 20
7.5772567242
 30
0.0
 10
12.1244372383
 20
7.5802064162
 30
0.0
 10
12.1251064776
 20
7.5838939264
 30
0.0
 10
12.1259096488
 20
7.5883187607
 30
0.0
 10
12.1267127769
 20
7.5927436743
 30
0.0
 10
12.1273821241
 20
7.5964309862
 30
0.0
 10
12.1279174464
 20
7.5993810746
 30
0.0
 10
12.1283193601
 20
7.6015929942
 30
0.0
 10
12.1286529465
 20
7.6034383166
 30
0.0
 10
12.1288890899
 20
7.6047260074
 30
0.0
 10
12.1290199179
 20
7.6054681308
 30
0.0
 10
12.1291296198
 20
7.6060069761
 30
0.0
 10
12.1291950538
 20
7.6066136602
 30
0.0
 10
12.1292977404
 20
7.6073989095
 30
0.0
 10
12.1294702475
 20
7.6087841207
 30
0.0
 10
12.1297204477
 20
7.6107572298
 30
0.0
 10
12.1300190774
 20
7.6131274282
 30
0.0
 10
12.130417815
 20
7.6162868297
 30
0.0
 10
12.1309160287
 20
7.6202363862
 30
0.0
 10
12.1315140384
 20
7.6249756858
 30
0.0
 10
12.1321117682
 20
7.6297151708
 30
0.0
 10
12.1327104642
 20
7.6344540825
 30
0.0
 10
12.1332063899
 20
7.6384049323
 30
0.0
 10
12.1335593893
 20
7.6411670887
 30
0.0
 10
12.1337519686
 20
7.6427508312
 30
0.0
 10
12.1339221352
 20
7.6439235184
 30
0.0
 10
12.1339939404
 20
7.6451540007
 30
0.0
 10
12.1341239902
 20
7.6467744841
 30
0.0
 10
12.1343355912
 20
7.649619723
 30
0.0
 10
12.1346462416
 20
7.653679438
 30
0.0
 10
12.1350154184
 20
7.6585532043
 30
0.0
 10
12.1353856288
 20
7.6634263965
 30
0.0
 10
12.1357553086
 20
7.6682997769
 30
0.0
 10
12.1361260769
 20
7.6731729784
 30
0.0
 10
12.1364318644
 20
7.6772344191
 30
0.0
 10
12.1366521303
 20
7.6800765831
 30
0.0
 10
12.1367682986
 20
7.6817019927
 30
0.0
 10
12.136882743
 20
7.6829173436
 30
0.0
 10
12.1368927635
 20
7.6841468615
 30
0.0
 10
12.1369425485
 20
7.6857812772
 30
0.0
 10
12.1370127011
 20
7.6886438068
 30
0.0
 10
12.1371217936
 20
7.6927319316
 30
0.0
 10
12.1372488982
 20
7.6976381949
 30
0.0
 10
12.1373770295
 20
7.7025443293
 30
0.0
 10
12.1375048601
 20
7.7074504656
 30
0.0
 10
12.1376115325
 20
7.7115390135
 30
0.0
 10
12.1376966682
 20
7.7148096086
 30
0.0
 10
12.1377610385
 20
7.717263224
 30
0.0
 10
12.1378130364
 20
7.7193057746
 30
0.0
 10
12.1378526604
 20
7.720739738
 30
0.0
 10
12.1378702666
 20
7.7215526221
 30
0.0
 10
12.1378976578
 20
7.7221806623
 30
0.0
 10
12.1378708209
 20
7.7227384556
 30
0.0
 10
12.1378539538
 20
7.723506683
 30
0.0
 10
12.1378156233
 20
7.7248396645
 30
0.0
 10
12.1377654729
 20
7.7267498924
 30
0.0
 10
12.1377033203
 20
7.7290396111
 30
0.0
 10
12.1376211393
 20
7.7320934621
 30
0.0
 10
12.137518175
 20
7.7359104669
 30
0.0
 10
12.1373947264
 20
7.7404910163
 30
0.0
 10
12.1372712244
 20
7.7450714858
 30
0.0
 10
12.1371683937
 20
7.7488886904
 30
0.0
 10
12.1370859456
 20
7.7519421418
 30
0.0
 10
12.1370246076
 20
7.7542330794
 30
0.0
 10
12.1369719088
 20
7.7561394939
 30
0.0
 10
12.1369381277
 20
7.757479283
 30
0.0
 10
12.1369139712
 20
7.7582366029
 30
0.0
 10
12.1369095247
 20
7.7588279003
 30
0.0
 10
12.1368528213
 20
7.7593301051
 30
0.0
 10
12.1367954446
 20
7.7600307881
 30
0.0
 10
12.1366865426
 20
7.7612425041
 30
0.0
 10
12.1365354085
 20
7.7629810969
 30
0.0
 10
12.1363521469
 20
7.7650641681
 30
0.0
 10
12.1361084622
 20
7.7678427282
 30
0.0
 10
12.1358036282
 20
7.7713155396
 30
0.0
 10
12.1354379258
 20
7.7754830814
 30
0.0
 10
12.1350721948
 20
7.7796505726
 30
0.0
 10
12.1347674323
 20
7.7831235105
 30
0.0
 10
12.1345236047
 20
7.7859018175
 30
0.0
 10
12.1343712499
 20
7.7876383534
 30
0.0
 10
12.1342492804
 20
7.7890273674
 30
0.0
 10
12.1341580379
 20
7.7900697155
 30
0.0
 10
12.1340812561
 20
7.7909364699
 30
0.0
 10
12.1340289735
 20
7.7915468658
 30
0.0
 10
12.1339968108
 20
7.7918899365
 30
0.0
 10
12.1339791312
 20
7.7921633723
 30
0.0
 10
12.1339368255
 20
7.7923751405
 30
0.0
 10
12.1338890078
 20
7.7926790086
 30
0.0
 10
12.1338013247
 20
7.7932007555
 30
0.0
 10
12.1336781555
 20
7.793951348
 30
0.0
 10
12.1335294568
 20
7.7948498161
 30
0.0
 10
12.1333315047
 20
7.7960485571
 30
0.0
 10
12.1330839575
 20
7.797546715
 30
0.0
 10
12.1326879418
 20
7.7999439177
 30
0.0
 10
12.1321929015
 20
7.8029403692
 30
0.0
 10
12.1315988626
 20
7.8065361349
 30
0.0
 10
12.1310048191
 20
7.8101318878
 30
0.0
 10
12.1305097905
 20
7.8131283713
 30
0.0
 10
12.1301137515
 20
7.81552551
 30
0.0
 10
12.1298662635
 20
7.8170238305
 30
0.0
 10
12.1296681899
 20
7.8182222377
 30
0.0
 10
12.1295198624
 20
7.8191217256
 30
0.0
 10
12.1293955316
 20
7.8198691274
 30
0.0
 10
12.1293099221
 20
7.8203965702
 30
0.0
 10
12.129258782
 20
7.8206913121
 30
0.0
 10
12.1292266816
 20
7.820931113
 30
0.0
 10
12.1291706728
 20
7.8210992626
 30
0.0
 10
12.1291043338
 20
7.8213484549
 30
0.0
 10
12.1289843551
 20
7.8217728967
 30
0.0
 10
12.1288149883
 20
7.8223853301
 30
0.0
 10
12.1286108787
 20
7.8231176444
 30
0.0
 10
12.1283390363
 20
7.8240949736
 30
0.0
 10
12.1279991292
 20
7.8253163234
 30
0.0
 10
12.1274553361
 20
7.8272706574
 30
0.0
 10
12.1267755746
 20
7.8297135146
 30
0.0
 10
12.1259598698
 20
7.8326449714
 30
0.0
 10
12.1251441611
 20
7.8355764121
 30
0.0
 10
12.1244644096
 20
7.8380193093
 30
0.0
 10
12.1239205966
 20
7.8399735634
 30
0.0
 10
12.12358074
 20
7.8411951162
 30
0.0
 10
12.1233087939
 20
7.8421720288
 30
0.0
 10
12.1231050009
 20
7.8429056159
 30
0.0
 10
12.1229346436
 20
7.8435140668
 30
0.0
 10
12.1228164332
 20
7.8439456181
 30
0.0
 10
12.122747261
 20
7.8441834193
 30
0.0
 10
12.1226999548
 20
7.8443865586
 30
0.0
 10
12.1226351687
 20
7.8444949439
 30
0.0
 10
12.1225548843
 20
7.844672509
 30
0.0
 10
12.1224115459
 20
7.8449678486
 30
0.0
 10
12.122208262
 20
7.8453978132
 30
0.0
 10
12.1219636856
 20
7.8459103247
 30
0.0
 10
12.1216378057
 20
7.8465948771
 30
0.0
 10
12.1212303799
 20
7.8474501553
 30
0.0
 10
12.120578541
 20
7.8488188309
 30
0.0
 10
12.1197637278
 20
7.8505295959
 30
0.0
 10
12.1187859586
 20
7.8525825502
 30
0.0
 10
12.1178081862
 20
7.8546354862
 30
0.0
 10
12.1169933808
 20
7.8563462971
 30
0.0
 10
12.1163415264
 20
7.8577148807
 30
0.0
 10
12.11593414
 20
7.8585703928
 30
0.0
 10
12.1156081792
 20
7.8592544652
 30
0.0
 10
12.1153638499
 20
7.8597684429
 30
0.0
 10
12.115159793
 20
7.8601938203
 30
0.0
 10
12.1150178344
 20
7.8604973488
 30
0.0
 10
12.1149353392
 20
7.8606617932
 30
0.0
 10
12.1148773442
 20
7.8608104809
 30
0.0
 10
12.1148045318
 20
7.8608622513
 30
0.0
 10
12.114712617
 20
7.8609650843
 30
0.0
 10
12.1145493581
 20
7.8611292914
 30
0.0
 10
12.1143173901
 20
7.8613721075
 30
0.0
 10
12.1140384896
 20
7.8616599622
 30
0.0
 10
12.1136668104
 20
7.8620449995
 30
0.0
 10
12.1132021471
 20
7.8625258746
 30
0.0
 10
12.1124587217
 20
7.8632955105
 30
0.0
 10
12.1115294276
 20
7.864257474
 30
0.0
 10
12.1104142803
 20
7.8654118674
 30
0.0
 10
12.1092991305
 20
7.8665662418
 30
0.0
 10
12.1083698424
 20
7.8675282529
 30
0.0
 10
12.107626405
 20
7.8682977935
 30
0.0
 10
12.1071617722
 20
7.8687789108
 30
0.0
 10
12.1067900304
 20
7.869163451
 30
0.0
 10
12.1065113215
 20
7.8694528246
 30
0.0
 10
12.1062787539
 20
7.8696908883
 30
0.0
 10
12.1061165653
 20
7.8698635793
 30
0.0
 10
12.1060229356
 20
7.8699528189
 30
0.0
 10
12.1059553911
 20
7.8700463437
 30
0.0
 10
12.1058776106
 20
7.8700382087
 30
0.0
 10
12.1057774737
 20
7.8700628221
 30
0.0
 10
12.1056005707
 20
7.870089374
 30
0.0
 10
12.1053487217
 20
7.870135943
 30
0.0
 10
12.1050461307
 20
7.8701881286
 30
0.0
 10
12.104642806
 20
7.8702590007
 30
0.0
 10
12.1041386057
 20
7.8703471487
 30
0.0
 10
12.10333191
 20
7.8704884326
 30
0.0
 10
12.1023235319
 20
7.8706649522
 30
0.0
 10
12.101113482
 20
7.8708768148
 30
0.0
 10
12.0999034303
 20
7.8710886575
 30
0.0
 10
12.0988950565
 20
7.8712652266
 30
0.0
 10
12.0980883522
 20
7.8714064115
 30
0.0
 10
12.0975841737
 20
7.8714948114
 30
0.0
 10
12.0971808041
 20
7.8715651664
 30
0.0
 10
12.0968783504
 20
7.8716189318
 30
0.0
 10
12.096626072
 20
7.8716605579
 30
0.0
 10
12.0964499355
 20
7.8716959336
 30
0.0
 10
12.0963485704
 20
7.8717064091
 30
0.0
 10
12.0962745625
 20
7.8717417012
 30
0.0
 10
12.0961928489
 20
7.8716721211
 30
0.0
 10
12.0960865851
 20
7.8716159282
 30
0.0
 10
12.0958993713
 20
7.8715005471
 30
0.0
 10
12.0956325777
 20
7.8713446275
 30
0.0
 10
12.0953121452
 20
7.87115371
 30
0.0
 10
12.0948849996
 20
7.8709004855
 30
0.0
 10
12.0943510342
 20
7.8705834987
 30
0.0
 10
12.0934967083
 20
7.8700765748
 30
0.0
 10
12.0924287944
 20
7.8694428324
 30
0.0
 10
12.0911473005
 20
7.8686823791
 30
0.0
 10
12.0898658059
 20
7.8679219157
 30
0.0
 10
12.0881571467
 20
7.866907968
 30
0.0
 10
12.0868756522
 20
7.8661475065
 30
0.0
 10
12.0860213226
 20
7.8656405323
 30
0.0
  0
ELLIPSE
  5
3F1
100
AcDbEntity
  8
0
100
AcDbEllipse
 62
7
  6
CONTINUOUS
 10
10.679682581
 20
7.5947651099
 30
0.0
 11
0.2040768989
 21
-0.0537216602
 31
0.0
 40
0.8504987735
 41
2.9505005284
 42
3.7731948072
  0
ELLIPSE
  5
3F2
100
AcDbEntity
  8
0
100
AcDbEllipse
 62
7
  6
CONTINUOUS
 10
10.679682581
 20
7.5947651099
 30
0.0
 11
0.2040768989
 21
-0.0537216602
 31
0.0
 40
0.8504987735
 41
-0.1910921252
 42
0.6316021536
  0
ELLIPSE
  5
3F3
100
AcDbEntity
  8
0
100
AcDbEllipse
 62
7
  6
CONTINUOUS
 10
10.2575729349
 20
7.1111319667
 30
0.0
 11
0.0497592917
 21
0.2030858014
 31
0.0
 40
0.8846901768
 41
0.0
 42
6.2831853072
  0
ELLIPSE
  5
3F4
100
AcDbEntity
  8
0
100
AcDbEllipse
 62
7
  6
CONTINUOUS
 10
10.679682581
 20
7.5947651099
 30
0.0
 11
-0.099683085
 21
0.1928050016
 31
0.0
 40
0.9220163394
 41
1.4064318366
 42
3.8546445755
  0
ELLIPSE
  5
3F5
100
AcDbEntity
  8
0
100
AcDbEllipse
 62
7
  6
CONTINUOUS
 10
10.2575729349
 20
8.9222429983
 30
0.0
 11
0.1369170201
 21
0.1640424563
 31
0.0
 40
0.8770531057
 41
0.0
 42
6.2831853072
  0
ENDSEC
  0
SECTION
  2
OBJECTS
  0
DICTIONARY
  5
C
100
AcDbDictionary
280
0
281
1
  3
ACAD_GROUP
350
D
  3
ACAD_MLINESTYLE
350
17
  3
ACAD_LAYOUT
350
1A
  3
ACAD_PLOTSETTINGS
350
19
  3
ACAD_PLOTSTYLENAME
350
E
  3
ACAD_IMAGE_DICT
350
       3F7
  3
ACAD_IMAGE_VARS
350
       3F8
  3
ACAD_TABLESTYLE
350
       3F9
  0
IMAGEDEF_REACTOR
  5
3F6
100
AcDbRasterImageDefReactor
 90
2
330
284
  0
DICTIONARY
  5
D
102
{ACAD_REACTORS
330
C
102
}
100
AcDbDictionary
280
0
281
1
  0
ACDBDICTIONARYWDFLT
  5
E
102
{ACAD_REACTORS
330
C
102
}
100
AcDbDictionary
281
1
  3
Normal
350
F
100
AcDbDictionaryWithDefault
340
F
  0
DICTIONARY
  5
3F7
330
C
100
AcDbDictionary
281
1
  3
NJ3_assy_2_img_1
350
       3FC
  0
RASTERVARIABLES
  5
3F8
330
C
100
AcDbRasterVariables
 90
0
 70
0
 71
1
 72
5
  0
DICTIONARY
  5
17
102
{ACAD_REACTORS
330
C
102
}
100
AcDbDictionary
280
0
281
1
  3
Standard
350
18
  0
DICTIONARY
  5
3F9
330
C
100
AcDbDictionary
281
1
  3
Standard
350
       3FD
  3
Standard1
350
       3FE
  0
DICTIONARY
  5
19
102
{ACAD_REACTORS
330
C
102
}
100
AcDbDictionary
281
1
  0
DICTIONARY
  5
1A
102
{ACAD_REACTORS
330
C
102
}
100
AcDbDictionary
281
1
  3
Model
350
3FA
  3
Layout1
350
3FB
  0
ACDBPLACEHOLDER
  5
F
102
{ACAD_REACTORS
330
E
102
}
  0
MLINESTYLE
  5
18
102
{ACAD_REACTORS
330
17
102
}
100
AcDbMlineStyle
  2
STANDARD
 70
0
  3

 62
256
 51
90.0
 52
90.0
 71
2
 49
0.5
 62
256
  6
BYLAYER
 49
-0.5
 62
256
  6
BYLAYER
  0
LAYOUT
  5
3FA
102
{ACAD_REACTORS
330
1A
102
}
100
AcDbPlotSettings
  1

  2
none_device
  4
ANSI_C_(22.00_x_17.00_Inches)
  6

 40
0.0
 41
0.0
 42
0.0
 43
0.0
 44
558.8
 45
431.8
 46
0.0
 47
0.0
 48
0.0
 49
0.0
140
0.0
141
0.0
142
1.0
143
1.0
 70
1024
 72
0
 73
0
 74
0
  7

 75
0
147
1.0
148
0.0
149
0.0
100
AcDbLayout
  1
Model
 70
0
 71
0
 10
0.0
 20
0.0
 11
22.0
 21
17.0
 12
0.0
 22
0.0
 32
0.0
 14
0.0
 24
0.0
 34
0.0
 15
0.0
 25
0.0
 35
0.0
146
0.0
 13
0.0
 23
0.0
 33
0.0
 16
1.0
 26
0.0
 36
0.0
 17
0.0
 27
1.0
 37
0.0
 76
0
330
20C
345
0
346
0
  0
LAYOUT
  5
3FB
102
{ACAD_REACTORS
330
1A
102
}
100
AcDbPlotSettings
  1

  2
none_device
  4
ANSI_C_(22.00_x_17.00_Inches)
  6

 40
0.0
 41
0.0
 42
0.0
 43
0.0
 44
558.8
 45
431.8
 46
0.0
 47
0.0
 48
0.0
 49
0.0
140
0.0
141
0.0
142
1.0
143
1.0
 70
0
 72
0
 73
0
 74
0
  7

 75
0
147
1.0
148
0.0
149
0.0
100
AcDbLayout
  1
Layout1
 70
0
 71
1
 10
0.0
 20
0.0
 11
22.0
 21
17.0
 12
0.0
 22
0.0
 32
0.0
 14
0.0
 24
0.0
 34
0.0
 15
0.0
 25
0.0
 35
0.0
146
0.0
 13
0.0
 23
0.0
 33
0.0
 16
1.0
 26
0.0
 36
0.0
 17
0.0
 27
1.0
 37
0.0
 76
0
330
20D
345
0
346
0
  0
IMAGEDEF
  5
3FC
102
{ACAD_REACTORS
330
3F7
330
3F6
102
}
100
AcDbRasterImageDef
 90
0
  1
NJ3_assy_2_img_1.png
 10
369.0
 20
92.0
 11
0.0066666667
 21
0.0066666667
280
1
281
0
  0
TABLESTYLE
  5
3FD
102
{ACAD_REACTORS
330
3F9
330
287
330
288
102
}
330
3F9
100
AcDbTableStyle
  3
Standard
 70
0
 71
0
 40
0.06
 41
0.06
280
1
281
1
  7
Standard
140
0.18
170
1
 62
0
 63
7
283
0
  7
Standard
140
0.18
170
1
 62
0
 63
7
283
0
  7
Standard
140
0.18
170
1
 62
0
 63
7
283
0
  0
TABLESTYLE
  5
3FE
102
{ACAD_REACTORS
330
3F9
330
286
102
}
330
3F9
100
AcDbTableStyle
  3
Standard1
 70
1
 71
0
 40
0.06
 41
0.06
280
1
281
1
  7
Standard
140
0.18
170
1
 62
0
 63
7
283
0
  7
Standard
140
0.18
170
1
 62
0
 63
7
283
0
  7
Standard
140
0.18
170
1
 62
0
 63
7
283
0
  0
ENDSEC
  0
EOF
